  0
SECTION
  2
HEADER
  9
$EXTMIN
 10
309.638225
 20
1226.0
 30
0.0
  9
$EXTMAX
 10
1615.139932
 20
0.0
 30
0.0
  0
ENDSEC
  0
SECTION
  2
TABLES
  0
ENDSEC
  0
SECTION
  2
BLOCKS
  0
ENDSEC
  0
SECTION
  2
ENTITIES
  0
LINE
  8
0
  6
BYLAYER
 62
     7
 10
1190.378840
 20
-354.081816
 30
0.0
 11
1190.378840
 21
-103.277958
 31
0.0
  0
LINE
  8
0
  6
BYLAYER
 62
     7
 10
1155.780769
 20
-386.679181
 30
0.0
 11
1155.780769
 21
-70.679181
 31
0.0
  0
LINE
  8
0
  6
BYLAYER
 62
     7
 10
1190.378840
 20
-103.277958
 30
0.0
 11
1155.780769
 21
-70.679181
 31
0.0
  0
LINE
  8
0
  6
BYLAYER
 62
     7
 10
1155.780769
 20
-386.679181
 30
0.0
 11
1190.378840
 21
-354.081816
 31
0.0
  0
LINE
  8
0
  6
BYLAYER
 62
     7
 10
1049.729715
 20
-70.679181
 30
0.0
 11
1049.729715
 21
-228.679181
 31
0.0
  0
LINE
  8
0
  6
BYLAYER
 62
     7
 10
1049.729715
 20
-228.679181
 30
0.0
 11
1049.729715
 21
-386.679181
 31
0.0
  0
LINE
  8
0
  6
BYLAYER
 62
     7
 10
1155.780769
 20
-70.679181
 30
0.0
 11
1049.729715
 21
-70.679181
 31
0.0
  0
LINE
  8
0
  6
BYLAYER
 62
     7
 10
1155.780769
 20
-386.679181
 30
0.0
 11
1049.729715
 21
-386.679181
 31
0.0
  0
LINE
  8
0
  6
BYLAYER
 62
     7
 10
695.378840
 20
-53.679181
 30
0.0
 11
695.378840
 21
-228.679181
 31
0.0
  0
LINE
  8
0
  6
BYLAYER
 62
     7
 10
695.378840
 20
-403.679181
 30
0.0
 11
695.378840
 21
-228.679181
 31
0.0
  0
ARC
  8
0
  6
BYLAYER
 62
     7
 10
941.467070
 20
-170.737074
 30
0.0
 40
3.536977
 50
21.323692
 51
158.676305
  0
ARC
  8
0
  6
BYLAYER
 62
     7
 10
941.467070
 20
-170.737074
 30
0.0
 40
3.536977
 50
201.323692
 51
338.676296
  0
LINE
  8
0
  6
BYLAYER
 62
     7
 10
944.761908
 20
-169.450901
 30
0.0
 11
1049.729715
 21
-169.450901
 31
0.0
  0
LINE
  8
0
  6
BYLAYER
 62
     7
 10
944.761908
 20
-172.023248
 30
0.0
 11
1049.729715
 21
-172.023248
 31
0.0
  0
LINE
  8
0
  6
BYLAYER
 62
     7
 10
944.761908
 20
-202.119665
 30
0.0
 11
1049.729715
 21
-202.119665
 31
0.0
  0
LINE
  8
0
  6
BYLAYER
 62
     7
 10
944.761908
 20
-204.692012
 30
0.0
 11
1049.729715
 21
-204.692012
 31
0.0
  0
LINE
  8
0
  6
BYLAYER
 62
     7
 10
944.761908
 20
-252.666350
 30
0.0
 11
1049.729715
 21
-252.666350
 31
0.0
  0
LINE
  8
0
  6
BYLAYER
 62
     7
 10
944.761908
 20
-255.238697
 30
0.0
 11
1049.729715
 21
-255.238697
 31
0.0
  0
ARC
  8
0
  6
BYLAYER
 62
     7
 10
794.320962
 20
-78.197533
 30
0.0
 40
16.720257
 50
180.000019
 51
360.000018
  0
ARC
  8
0
  6
BYLAYER
 62
     7
 10
844.481734
 20
-78.197533
 30
0.0
 40
16.720257
 50
180.000019
 51
360.000018
  0
LINE
  8
0
  6
BYLAYER
 62
     7
 10
756.378840
 20
-67.265058
 30
0.0
 11
775.028358
 21
-67.265058
 31
0.0
  0
LINE
  8
0
  6
BYLAYER
 62
     7
 10
777.600705
 20
-78.197533
 30
0.0
 11
777.600705
 21
-69.837405
 31
0.0
  0
ARC
  8
0
  6
BYLAYER
 62
     7
 10
775.028358
 20
-69.837405
 30
0.0
 40
2.572347
 50
0.0
 51
90.000003
  0
LINE
  8
0
  6
BYLAYER
 62
     7
 10
811.041219
 20
-78.197533
 30
0.0
 11
811.041219
 21
-69.837405
 31
0.0
  0
ARC
  8
0
  6
BYLAYER
 62
     7
 10
813.613567
 20
-69.837405
 30
0.0
 40
2.572347
 50
90.0
 51
180.000003
  0
LINE
  8
0
  6
BYLAYER
 62
     7
 10
813.613567
 20
-67.265058
 30
0.0
 11
825.189129
 21
-67.265058
 31
0.0
  0
LINE
  8
0
  6
BYLAYER
 62
     7
 10
827.761477
 20
-78.197533
 30
0.0
 11
827.761477
 21
-69.837405
 31
0.0
  0
ARC
  8
0
  6
BYLAYER
 62
     7
 10
825.189129
 20
-69.837405
 30
0.0
 40
2.572347
 50
0.0
 51
90.000003
  0
LINE
  8
0
  6
BYLAYER
 62
     7
 10
861.201991
 20
-78.197533
 30
0.0
 11
861.201991
 21
-69.837405
 31
0.0
  0
ARC
  8
0
  6
BYLAYER
 62
     7
 10
863.774377
 20
-69.837405
 30
0.0
 40
2.572387
 50
90.0
 51
180.000003
  0
ARC
  8
0
  6
BYLAYER
 62
     7
 10
757.665014
 20
-187.071456
 30
0.0
 40
1.286174
 50
90.0
 51
180.000003
  0
ARC
  8
0
  6
BYLAYER
 62
     7
 10
757.665014
 20
-187.071456
 30
0.0
 40
1.286174
 50
180.000000
 51
269.999996
  0
ARC
  8
0
  6
BYLAYER
 62
     7
 10
757.665014
 20
-170.737074
 30
0.0
 40
1.286174
 50
90.0
 51
180.000003
  0
ARC
  8
0
  6
BYLAYER
 62
     7
 10
757.665014
 20
-170.737074
 30
0.0
 40
1.286174
 50
180.000000
 51
269.999996
  0
ARC
  8
0
  6
BYLAYER
 62
     7
 10
757.665014
 20
-154.402654
 30
0.0
 40
1.286174
 50
90.0
 51
180.000003
  0
ARC
  8
0
  6
BYLAYER
 62
     7
 10
757.665014
 20
-154.402654
 30
0.0
 40
1.286174
 50
180.000000
 51
269.999996
  0
ARC
  8
0
  6
BYLAYER
 62
     7
 10
757.665014
 20
-138.068233
 30
0.0
 40
1.286174
 50
90.0
 51
180.000003
  0
ARC
  8
0
  6
BYLAYER
 62
     7
 10
757.665014
 20
-138.068233
 30
0.0
 40
1.286174
 50
180.000000
 51
269.999996
  0
ARC
  8
0
  6
BYLAYER
 62
     7
 10
757.665014
 20
-121.733851
 30
0.0
 40
1.286174
 50
90.0
 51
180.000003
  0
ARC
  8
0
  6
BYLAYER
 62
     7
 10
757.665014
 20
-121.733851
 30
0.0
 40
1.286174
 50
180.000000
 51
269.999996
  0
ARC
  8
0
  6
BYLAYER
 62
     7
 10
757.665014
 20
-270.286906
 30
0.0
 40
1.286174
 50
180.000000
 51
270.000009
  0
ARC
  8
0
  6
BYLAYER
 62
     7
 10
757.665014
 20
-270.286906
 30
0.0
 40
1.286174
 50
90.0
 51
179.999989
  0
ARC
  8
0
  6
BYLAYER
 62
     7
 10
757.665014
 20
-286.621288
 30
0.0
 40
1.286174
 50
180.000000
 51
270.000009
  0
ARC
  8
0
  6
BYLAYER
 62
     7
 10
757.665014
 20
-286.621288
 30
0.0
 40
1.286174
 50
90.0
 51
179.999989
  0
ARC
  8
0
  6
BYLAYER
 62
     7
 10
757.665014
 20
-302.955708
 30
0.0
 40
1.286174
 50
180.000000
 51
270.000009
  0
ARC
  8
0
  6
BYLAYER
 62
     7
 10
757.665014
 20
-302.955708
 30
0.0
 40
1.286174
 50
90.0
 51
179.999989
  0
ARC
  8
0
  6
BYLAYER
 62
     7
 10
757.665014
 20
-319.290090
 30
0.0
 40
1.286174
 50
180.000000
 51
270.000009
  0
ARC
  8
0
  6
BYLAYER
 62
     7
 10
757.665014
 20
-319.290090
 30
0.0
 40
1.286174
 50
90.0
 51
179.999989
  0
ARC
  8
0
  6
BYLAYER
 62
     7
 10
757.665014
 20
-335.624511
 30
0.0
 40
1.286174
 50
180.000000
 51
270.000009
  0
ARC
  8
0
  6
BYLAYER
 62
     7
 10
757.665014
 20
-335.624511
 30
0.0
 40
1.286174
 50
90.0
 51
179.999989
  0
LINE
  8
0
  6
BYLAYER
 62
     7
 10
757.665014
 20
-301.669535
 30
0.0
 11
1049.729715
 21
-301.669535
 31
0.0
  0
LINE
  8
0
  6
BYLAYER
 62
     7
 10
757.665014
 20
-304.241882
 30
0.0
 11
1049.729715
 21
-304.241882
 31
0.0
  0
LINE
  8
0
  6
BYLAYER
 62
     7
 10
757.665014
 20
-169.450901
 30
0.0
 11
825.109725
 21
-169.450901
 31
0.0
  0
LINE
  8
0
  6
BYLAYER
 62
     7
 10
757.665014
 20
-172.023248
 30
0.0
 11
825.109725
 21
-172.023248
 31
0.0
  0
LINE
  8
0
  6
BYLAYER
 62
     7
 10
831.699402
 20
-169.450901
 30
0.0
 11
938.172231
 21
-169.450901
 31
0.0
  0
LINE
  8
0
  6
BYLAYER
 62
     7
 10
831.699402
 20
-172.023248
 30
0.0
 11
938.172231
 21
-172.023248
 31
0.0
  0
ARC
  8
0
  6
BYLAYER
 62
     7
 10
828.404563
 20
-170.737074
 30
0.0
 40
3.536977
 50
21.323692
 51
158.676305
  0
ARC
  8
0
  6
BYLAYER
 62
     7
 10
828.404563
 20
-170.737074
 30
0.0
 40
3.536977
 50
201.323692
 51
338.676296
  0
LINE
  8
0
  6
BYLAYER
 62
     7
 10
756.378840
 20
-91.058642
 30
0.0
 11
750.591059
 21
-91.058642
 31
0.0
  0
LINE
  8
0
  6
BYLAYER
 62
     7
 10
764.095882
 20
-339.057159
 30
0.0
 11
756.378840
 21
-342.427438
 31
0.0
  0
LINE
  8
0
  6
BYLAYER
 62
     7
 10
756.378840
 20
-332.859245
 30
0.0
 11
756.378840
 21
-60.191103
 31
0.0
  0
LINE
  8
0
  6
BYLAYER
 62
     7
 10
750.591059
 20
-366.299760
 30
0.0
 11
756.378840
 21
-366.299760
 31
0.0
  0
LINE
  8
0
  6
BYLAYER
 62
     7
 10
756.378840
 20
-342.427438
 30
0.0
 11
760.700561
 21
-352.839839
 31
0.0
  0
ARC
  8
0
  6
BYLAYER
 62
     7
 10
763.670363
 20
-351.607204
 30
0.0
 40
3.215450
 50
202.541214
 51
270.000001
  0
LINE
  8
0
  6
BYLAYER
 62
     7
 10
756.378840
 20
-348.084593
 30
0.0
 11
760.858467
 21
-363.808112
 31
0.0
  0
ARC
  8
0
  6
BYLAYER
 62
     7
 10
763.950850
 20
-362.927087
 30
0.0
 40
3.215437
 50
195.902352
 51
270.000001
  0
LINE
  8
0
  6
BYLAYER
 62
     7
 10
756.378840
 20
-357.200498
 30
0.0
 11
760.816782
 21
-371.347662
 31
0.0
  0
ARC
  8
0
  6
BYLAYER
 62
     7
 10
763.884790
 20
-370.385230
 30
0.0
 40
3.215424
 50
197.416605
 51
270.000001
  0
ARC
  8
0
  6
BYLAYER
 62
     7
 10
764.019303
 20
-375.111078
 30
0.0
 40
3.215424
 50
197.416605
 51
270.000001
  0
LINE
  8
0
  6
BYLAYER
 62
     7
 10
756.378840
 20
-366.299760
 30
0.0
 11
760.582808
 21
-378.414983
 31
0.0
  0
ARC
  8
0
  6
BYLAYER
 62
     7
 10
763.620553
 20
-377.360901
 30
0.0
 40
3.215429
 50
199.136528
 51
270.000001
  0
LINE
  8
0
  6
BYLAYER
 62
     7
 10
760.951295
 20
-376.073510
 30
0.0
 11
756.378840
 21
-361.497569
 31
0.0
  0
ARC
  8
0
  6
BYLAYER
 62
     7
 10
762.809708
 20
-187.071456
 30
0.0
 40
1.286174
 50
90.0
 51
180.000003
  0
ARC
  8
0
  6
BYLAYER
 62
     7
 10
762.809708
 20
-187.071456
 30
0.0
 40
1.286174
 50
180.000000
 51
269.999996
  0
ARC
  8
0
  6
BYLAYER
 62
     7
 10
762.809708
 20
-270.286906
 30
0.0
 40
1.286174
 50
180.000000
 51
270.000009
  0
ARC
  8
0
  6
BYLAYER
 62
     7
 10
762.809708
 20
-270.286906
 30
0.0
 40
1.286174
 50
90.0
 51
179.999989
  0
ARC
  8
0
  6
BYLAYER
 62
     7
 10
762.809708
 20
-286.621288
 30
0.0
 40
1.286174
 50
180.000000
 51
270.000009
  0
ARC
  8
0
  6
BYLAYER
 62
     7
 10
762.809708
 20
-286.621288
 30
0.0
 40
1.286174
 50
90.0
 51
179.999989
  0
ARC
  8
0
  6
BYLAYER
 62
     7
 10
762.809708
 20
-302.955708
 30
0.0
 40
1.286174
 50
180.000000
 51
270.000009
  0
ARC
  8
0
  6
BYLAYER
 62
     7
 10
762.809708
 20
-302.955708
 30
0.0
 40
1.286174
 50
90.0
 51
179.999989
  0
ARC
  8
0
  6
BYLAYER
 62
     7
 10
762.809708
 20
-319.290090
 30
0.0
 40
1.286174
 50
180.000000
 51
270.000009
  0
ARC
  8
0
  6
BYLAYER
 62
     7
 10
762.809708
 20
-319.290090
 30
0.0
 40
1.286174
 50
90.0
 51
179.999989
  0
ARC
  8
0
  6
BYLAYER
 62
     7
 10
762.809708
 20
-335.624511
 30
0.0
 40
1.286174
 50
180.000000
 51
270.000009
  0
ARC
  8
0
  6
BYLAYER
 62
     7
 10
762.809708
 20
-335.624511
 30
0.0
 40
1.286174
 50
90.0
 51
179.999989
  0
ARC
  8
0
  6
BYLAYER
 62
     7
 10
762.809708
 20
-170.737074
 30
0.0
 40
1.286174
 50
90.0
 51
180.000003
  0
ARC
  8
0
  6
BYLAYER
 62
     7
 10
762.809708
 20
-170.737074
 30
0.0
 40
1.286174
 50
180.000000
 51
269.999996
  0
ARC
  8
0
  6
BYLAYER
 62
     7
 10
762.809708
 20
-154.402654
 30
0.0
 40
1.286174
 50
90.0
 51
180.000003
  0
ARC
  8
0
  6
BYLAYER
 62
     7
 10
762.809708
 20
-154.402654
 30
0.0
 40
1.286174
 50
180.000000
 51
269.999996
  0
ARC
  8
0
  6
BYLAYER
 62
     7
 10
762.809708
 20
-138.068233
 30
0.0
 40
1.286174
 50
90.0
 51
180.000003
  0
ARC
  8
0
  6
BYLAYER
 62
     7
 10
762.809708
 20
-138.068233
 30
0.0
 40
1.286174
 50
180.000000
 51
269.999996
  0
ARC
  8
0
  6
BYLAYER
 62
     7
 10
762.809708
 20
-121.733851
 30
0.0
 40
1.286174
 50
90.0
 51
180.000003
  0
ARC
  8
0
  6
BYLAYER
 62
     7
 10
762.809708
 20
-121.733851
 30
0.0
 40
1.286174
 50
180.000000
 51
269.999996
  0
LINE
  8
0
  6
BYLAYER
 62
     7
 10
764.738969
 20
-334.338337
 30
0.0
 11
764.738969
 21
-320.576264
 31
0.0
  0
LINE
  8
0
  6
BYLAYER
 62
     7
 10
764.738969
 20
-318.003917
 30
0.0
 11
764.738969
 21
-304.241882
 31
0.0
  0
LINE
  8
0
  6
BYLAYER
 62
     7
 10
764.738969
 20
-301.669535
 30
0.0
 11
764.738969
 21
-287.907461
 31
0.0
  0
LINE
  8
0
  6
BYLAYER
 62
     7
 10
764.738969
 20
-269.000732
 30
0.0
 11
764.738969
 21
-255.238697
 31
0.0
  0
LINE
  8
0
  6
BYLAYER
 62
     7
 10
764.738969
 20
-285.335114
 30
0.0
 11
764.738969
 21
-271.573079
 31
0.0
  0
LINE
  8
0
  6
BYLAYER
 62
     7
 10
764.738969
 20
-221.026394
 30
0.0
 11
764.738969
 21
-228.679181
 31
0.0
  0
LINE
  8
0
  6
BYLAYER
 62
     7
 10
764.738969
 20
-204.692012
 30
0.0
 11
764.738969
 21
-218.454047
 31
0.0
  0
LINE
  8
0
  6
BYLAYER
 62
     7
 10
764.738969
 20
-236.331968
 30
0.0
 11
764.738969
 21
-228.679181
 31
0.0
  0
LINE
  8
0
  6
BYLAYER
 62
     7
 10
764.738969
 20
-252.666350
 30
0.0
 11
764.738969
 21
-238.904315
 31
0.0
  0
LINE
  8
0
  6
BYLAYER
 62
     7
 10
764.738969
 20
-188.357630
 30
0.0
 11
764.738969
 21
-202.119665
 31
0.0
  0
LINE
  8
0
  6
BYLAYER
 62
     7
 10
764.738969
 20
-172.023248
 30
0.0
 11
764.738969
 21
-185.785283
 31
0.0
  0
LINE
  8
0
  6
BYLAYER
 62
     7
 10
764.738969
 20
-155.688827
 30
0.0
 11
764.738969
 21
-169.450901
 31
0.0
  0
LINE
  8
0
  6
BYLAYER
 62
     7
 10
764.738969
 20
-139.354407
 30
0.0
 11
764.738969
 21
-153.116480
 31
0.0
  0
LINE
  8
0
  6
BYLAYER
 62
     7
 10
764.738969
 20
-123.020025
 30
0.0
 11
764.738969
 21
-136.782059
 31
0.0
  0
ARC
  8
0
  6
BYLAYER
 62
     7
 10
757.665014
 20
-203.405838
 30
0.0
 40
1.286174
 50
180.000000
 51
270.000003
  0
ARC
  8
0
  6
BYLAYER
 62
     7
 10
757.665014
 20
-203.405838
 30
0.0
 40
1.286174
 50
90.0
 51
179.999996
  0
ARC
  8
0
  6
BYLAYER
 62
     7
 10
762.809708
 20
-203.405838
 30
0.0
 40
1.286174
 50
180.000000
 51
270.000003
  0
ARC
  8
0
  6
BYLAYER
 62
     7
 10
762.809708
 20
-203.405838
 30
0.0
 40
1.286174
 50
90.0
 51
179.999996
  0
LINE
  8
0
  6
BYLAYER
 62
     7
 10
757.665014
 20
-202.119665
 30
0.0
 11
944.761908
 21
-202.119665
 31
0.0
  0
LINE
  8
0
  6
BYLAYER
 62
     7
 10
757.665014
 20
-204.692012
 30
0.0
 11
944.761908
 21
-204.692012
 31
0.0
  0
ARC
  8
0
  6
BYLAYER
 62
     7
 10
757.665014
 20
-253.952524
 30
0.0
 40
1.286174
 50
90.0
 51
180.000003
  0
ARC
  8
0
  6
BYLAYER
 62
     7
 10
757.665014
 20
-253.952524
 30
0.0
 40
1.286174
 50
180.000000
 51
269.999996
  0
ARC
  8
0
  6
BYLAYER
 62
     7
 10
762.809708
 20
-253.952524
 30
0.0
 40
1.286174
 50
90.0
 51
180.000003
  0
ARC
  8
0
  6
BYLAYER
 62
     7
 10
762.809708
 20
-253.952524
 30
0.0
 40
1.286174
 50
180.000000
 51
269.999996
  0
LINE
  8
0
  6
BYLAYER
 62
     7
 10
757.665014
 20
-255.238697
 30
0.0
 11
944.761908
 21
-255.238697
 31
0.0
  0
LINE
  8
0
  6
BYLAYER
 62
     7
 10
757.665014
 20
-252.666350
 30
0.0
 11
944.761908
 21
-252.666350
 31
0.0
  0
ARC
  8
0
  6
BYLAYER
 62
     7
 10
757.665014
 20
-219.740220
 30
0.0
 40
1.286174
 50
180.000000
 51
270.000003
  0
ARC
  8
0
  6
BYLAYER
 62
     7
 10
757.665014
 20
-219.740220
 30
0.0
 40
1.286174
 50
90.0
 51
179.999996
  0
ARC
  8
0
  6
BYLAYER
 62
     7
 10
762.809708
 20
-219.740220
 30
0.0
 40
1.286174
 50
180.000000
 51
270.000003
  0
ARC
  8
0
  6
BYLAYER
 62
     7
 10
762.809708
 20
-219.740220
 30
0.0
 40
1.286174
 50
90.0
 51
179.999996
  0
ARC
  8
0
  6
BYLAYER
 62
     7
 10
757.665014
 20
-237.618142
 30
0.0
 40
1.286174
 50
90.0
 51
180.000009
  0
ARC
  8
0
  6
BYLAYER
 62
     7
 10
757.665014
 20
-237.618142
 30
0.0
 40
1.286174
 50
180.000000
 51
269.999989
  0
ARC
  8
0
  6
BYLAYER
 62
     7
 10
762.809708
 20
-237.618142
 30
0.0
 40
1.286174
 50
90.0
 51
180.000009
  0
ARC
  8
0
  6
BYLAYER
 62
     7
 10
762.809708
 20
-237.618142
 30
0.0
 40
1.286174
 50
180.000000
 51
269.999989
  0
LINE
  8
0
  6
BYLAYER
 62
     7
 10
757.665014
 20
-120.447678
 30
0.0
 11
1049.729715
 21
-120.447678
 31
0.0
  0
LINE
  8
0
  6
BYLAYER
 62
     7
 10
757.665014
 20
-123.020025
 30
0.0
 11
1049.729715
 21
-123.020025
 31
0.0
  0
LINE
  8
0
  6
BYLAYER
 62
     7
 10
757.665014
 20
-136.782059
 30
0.0
 11
1049.729715
 21
-136.782059
 31
0.0
  0
LINE
  8
0
  6
BYLAYER
 62
     7
 10
757.665014
 20
-139.354407
 30
0.0
 11
1049.729715
 21
-139.354407
 31
0.0
  0
LINE
  8
0
  6
BYLAYER
 62
     7
 10
757.665014
 20
-153.116480
 30
0.0
 11
1049.729715
 21
-153.116480
 31
0.0
  0
LINE
  8
0
  6
BYLAYER
 62
     7
 10
757.665014
 20
-155.688827
 30
0.0
 11
1049.729715
 21
-155.688827
 31
0.0
  0
LINE
  8
0
  6
BYLAYER
 62
     7
 10
757.665014
 20
-185.785283
 30
0.0
 11
1049.729715
 21
-185.785283
 31
0.0
  0
LINE
  8
0
  6
BYLAYER
 62
     7
 10
757.665014
 20
-188.357630
 30
0.0
 11
1049.729715
 21
-188.357630
 31
0.0
  0
LINE
  8
0
  6
BYLAYER
 62
     7
 10
757.665014
 20
-218.454047
 30
0.0
 11
1049.729715
 21
-218.454047
 31
0.0
  0
LINE
  8
0
  6
BYLAYER
 62
     7
 10
757.665014
 20
-221.026394
 30
0.0
 11
1049.729715
 21
-221.026394
 31
0.0
  0
LINE
  8
0
  6
BYLAYER
 62
     7
 10
757.665014
 20
-236.331968
 30
0.0
 11
1049.729715
 21
-236.331968
 31
0.0
  0
LINE
  8
0
  6
BYLAYER
 62
     7
 10
757.665014
 20
-238.904315
 30
0.0
 11
1049.729715
 21
-238.904315
 31
0.0
  0
LINE
  8
0
  6
BYLAYER
 62
     7
 10
757.665014
 20
-269.000732
 30
0.0
 11
1049.729715
 21
-269.000732
 31
0.0
  0
LINE
  8
0
  6
BYLAYER
 62
     7
 10
757.665014
 20
-271.573079
 30
0.0
 11
1049.729715
 21
-271.573079
 31
0.0
  0
LINE
  8
0
  6
BYLAYER
 62
     7
 10
757.665014
 20
-285.335114
 30
0.0
 11
1049.729715
 21
-285.335114
 31
0.0
  0
LINE
  8
0
  6
BYLAYER
 62
     7
 10
757.665014
 20
-287.907461
 30
0.0
 11
1049.729715
 21
-287.907461
 31
0.0
  0
LINE
  8
0
  6
BYLAYER
 62
     7
 10
757.665014
 20
-318.003917
 30
0.0
 11
1049.729715
 21
-318.003917
 31
0.0
  0
LINE
  8
0
  6
BYLAYER
 62
     7
 10
757.665014
 20
-320.576264
 30
0.0
 11
1049.729715
 21
-320.576264
 31
0.0
  0
LINE
  8
0
  6
BYLAYER
 62
     7
 10
757.665014
 20
-334.338337
 30
0.0
 11
1049.729715
 21
-334.338337
 31
0.0
  0
LINE
  8
0
  6
BYLAYER
 62
     7
 10
757.665014
 20
-336.910684
 30
0.0
 11
1049.729715
 21
-336.910684
 31
0.0
  0
LINE
  8
0
  6
BYLAYER
 62
     7
 10
764.095882
 20
-339.057159
 30
0.0
 11
1049.729715
 21
-339.057159
 31
0.0
  0
LINE
  8
0
  6
BYLAYER
 62
     7
 10
763.670363
 20
-354.822638
 30
0.0
 11
1049.729715
 21
-354.822638
 31
0.0
  0
LINE
  8
0
  6
BYLAYER
 62
     7
 10
763.950850
 20
-366.142521
 30
0.0
 11
1049.729715
 21
-366.142521
 31
0.0
  0
LINE
  8
0
  6
BYLAYER
 62
     7
 10
763.884790
 20
-373.600664
 30
0.0
 11
1049.729715
 21
-373.600664
 31
0.0
  0
LINE
  8
0
  6
BYLAYER
 62
     7
 10
764.019303
 20
-378.326512
 30
0.0
 11
1049.729715
 21
-378.326512
 31
0.0
  0
LINE
  8
0
  6
BYLAYER
 62
     7
 10
763.620553
 20
-380.576335
 30
0.0
 11
1049.729715
 21
-380.576335
 31
0.0
  0
LINE
  8
0
  6
BYLAYER
 62
     7
 10
832.263084
 20
-57.618755
 30
0.0
 11
756.378840
 21
-57.618755
 31
0.0
  0
LINE
  8
0
  6
BYLAYER
 62
     7
 10
756.378840
 20
-57.618755
 30
0.0
 11
756.378840
 21
-60.191103
 31
0.0
  0
LINE
  8
0
  6
BYLAYER
 62
     7
 10
750.591059
 20
-367.122503
 30
0.0
 11
749.304885
 21
-367.167417
 31
0.0
  0
LINE
  8
0
  6
BYLAYER
 62
     7
 10
749.304885
 20
-367.167417
 30
0.0
 11
749.304885
 21
-385.592364
 31
0.0
  0
LINE
  8
0
  6
BYLAYER
 62
     7
 10
750.591059
 20
-367.122503
 30
0.0
 11
750.591059
 21
-90.235859
 31
0.0
  0
LINE
  8
0
  6
BYLAYER
 62
     7
 10
880.378840
 20
-120.447678
 30
0.0
 11
880.378840
 21
-60.191103
 31
0.0
  0
LINE
  8
0
  6
BYLAYER
 62
     7
 10
880.378840
 20
-74.338962
 30
0.0
 11
1049.729715
 21
-74.338773
 31
0.0
  0
LINE
  8
0
  6
BYLAYER
 62
     7
 10
880.378840
 20
-78.197482
 30
0.0
 11
1049.729715
 21
-78.197292
 31
0.0
  0
LINE
  8
0
  6
BYLAYER
 62
     7
 10
880.378840
 20
-83.342177
 30
0.0
 11
1049.729715
 21
-83.341989
 31
0.0
  0
LINE
  8
0
  6
BYLAYER
 62
     7
 10
880.378840
 20
-91.059191
 30
0.0
 11
1049.729715
 21
-91.059191
 31
0.0
  0
LINE
  8
0
  6
BYLAYER
 62
     7
 10
863.774377
 20
-67.265058
 30
0.0
 11
880.378840
 21
-67.265058
 31
0.0
  0
LINE
  8
0
  6
BYLAYER
 62
     7
 10
832.263084
 20
-57.618755
 30
0.0
 11
880.378801
 21
-57.618755
 31
0.0
  0
LINE
  8
0
  6
BYLAYER
 62
     7
 10
756.378840
 20
-60.191103
 30
0.0
 11
880.378801
 21
-60.191103
 31
0.0
  0
LINE
  8
0
  6
BYLAYER
 62
     7
 10
758.308100
 20
1.320819
 30
0.0
 11
832.263084
 21
1.320819
 31
0.0
  0
ARC
  8
0
  6
BYLAYER
 62
     7
 10
758.308100
 20
-0.608441
 30
0.0
 40
1.929260
 50
90.0
 51
180.0
  0
LINE
  8
0
  6
BYLAYER
 62
     7
 10
756.378840
 20
-57.618755
 30
0.0
 11
756.378840
 21
-0.608441
 31
0.0
  0
ARC
  8
0
  6
BYLAYER
 62
     7
 10
878.449541
 20
-0.608441
 30
0.0
 40
1.929260
 50
0.0
 51
90.0
  0
LINE
  8
0
  6
BYLAYER
 62
     7
 10
880.378801
 20
-60.191103
 30
0.0
 11
880.378801
 21
-0.608441
 31
0.0
  0
LINE
  8
0
  6
BYLAYER
 62
     7
 10
878.449541
 20
1.320819
 30
0.0
 11
832.263084
 21
1.320819
 31
0.0
  0
LINE
  8
0
  6
BYLAYER
 62
     7
 10
695.378840
 20
-403.679181
 30
0.0
 11
709.378840
 21
-403.679181
 31
0.0
  0
LINE
  8
0
  6
BYLAYER
 62
     7
 10
695.378840
 20
-53.679181
 30
0.0
 11
709.378840
 21
-53.679181
 31
0.0
  0
LINE
  8
0
  6
BYLAYER
 62
     7
 10
709.378840
 20
-53.679181
 30
0.0
 11
709.378840
 21
-228.679181
 31
0.0
  0
ARC
  8
0
  6
BYLAYER
 62
     7
 10
711.951187
 20
-86.269604
 30
0.0
 40
2.572347
 50
180.000000
 51
268.000000
  0
LINE
  8
0
  6
BYLAYER
 62
     7
 10
709.378840
 20
-228.679181
 30
0.0
 11
709.378840
 21
-403.679181
 31
0.0
  0
ARC
  8
0
  6
BYLAYER
 62
     7
 10
711.951187
 20
-389.513705
 30
0.0
 40
2.572347
 50
92.000000
 51
180.000000
  0
LINE
  8
0
  6
BYLAYER
 62
     7
 10
750.591059
 20
-90.235859
 30
0.0
 11
711.861414
 21
-88.840384
 31
0.0
  0
LINE
  8
0
  6
BYLAYER
 62
     7
 10
749.304885
 20
-385.592364
 30
0.0
 11
711.861414
 21
-386.942924
 31
0.0
  0
LINE
  8
0
  6
BYLAYER
 62
     7
 10
1190.378840
 20
-1174.081816
 30
0.0
 11
1190.378840
 21
-1048.679181
 31
0.0
  0
LINE
  8
0
  6
BYLAYER
 62
     7
 10
1155.780769
 20
-1206.679181
 30
0.0
 11
1155.780769
 21
-1048.679181
 31
0.0
  0
LINE
  8
0
  6
BYLAYER
 62
     7
 10
1155.780769
 20
-1206.679181
 30
0.0
 11
1190.378840
 21
-1174.081816
 31
0.0
  0
LINE
  8
0
  6
BYLAYER
 62
     7
 10
1049.729715
 20
-1048.679181
 30
0.0
 11
1049.729715
 21
-1206.679181
 31
0.0
  0
LINE
  8
0
  6
BYLAYER
 62
     7
 10
1155.780769
 20
-1206.679181
 30
0.0
 11
1049.729715
 21
-1206.679181
 31
0.0
  0
LINE
  8
0
  6
BYLAYER
 62
     7
 10
944.761908
 20
-1072.666350
 30
0.0
 11
1049.729715
 21
-1072.666350
 31
0.0
  0
LINE
  8
0
  6
BYLAYER
 62
     7
 10
944.761908
 20
-1075.238697
 30
0.0
 11
1049.729715
 21
-1075.238697
 31
0.0
  0
ARC
  8
0
  6
BYLAYER
 62
     7
 10
757.665014
 20
-1122.955708
 30
0.0
 40
1.286174
 50
180.000000
 51
270.000009
  0
ARC
  8
0
  6
BYLAYER
 62
     7
 10
757.665014
 20
-1122.955708
 30
0.0
 40
1.286174
 50
90.0
 51
179.999989
  0
ARC
  8
0
  6
BYLAYER
 62
     7
 10
757.665014
 20
-1139.290090
 30
0.0
 40
1.286174
 50
180.000000
 51
270.000009
  0
ARC
  8
0
  6
BYLAYER
 62
     7
 10
757.665014
 20
-1139.290090
 30
0.0
 40
1.286174
 50
90.0
 51
179.999989
  0
ARC
  8
0
  6
BYLAYER
 62
     7
 10
757.665014
 20
-1155.624511
 30
0.0
 40
1.286174
 50
180.000000
 51
270.000009
  0
ARC
  8
0
  6
BYLAYER
 62
     7
 10
757.665014
 20
-1155.624511
 30
0.0
 40
1.286174
 50
90.0
 51
179.999989
  0
LINE
  8
0
  6
BYLAYER
 62
     7
 10
757.665014
 20
-1121.669535
 30
0.0
 11
1049.729715
 21
-1121.669535
 31
0.0
  0
LINE
  8
0
  6
BYLAYER
 62
     7
 10
757.665014
 20
-1124.241882
 30
0.0
 11
1049.729715
 21
-1124.241882
 31
0.0
  0
LINE
  8
0
  6
BYLAYER
 62
     7
 10
764.095882
 20
-1159.057159
 30
0.0
 11
756.378840
 21
-1162.427438
 31
0.0
  0
LINE
  8
0
  6
BYLAYER
 62
     7
 10
756.378840
 20
-1152.859245
 30
0.0
 11
756.378840
 21
-1118.679181
 31
0.0
  0
LINE
  8
0
  6
BYLAYER
 62
     7
 10
750.591059
 20
-1186.299760
 30
0.0
 11
756.378840
 21
-1186.299760
 31
0.0
  0
LINE
  8
0
  6
BYLAYER
 62
     7
 10
756.378840
 20
-1162.427438
 30
0.0
 11
760.700561
 21
-1172.839839
 31
0.0
  0
ARC
  8
0
  6
BYLAYER
 62
     7
 10
763.670363
 20
-1171.607204
 30
0.0
 40
3.215450
 50
202.541214
 51
270.000001
  0
LINE
  8
0
  6
BYLAYER
 62
     7
 10
756.378840
 20
-1168.084593
 30
0.0
 11
760.858467
 21
-1183.808112
 31
0.0
  0
ARC
  8
0
  6
BYLAYER
 62
     7
 10
763.950850
 20
-1182.927087
 30
0.0
 40
3.215437
 50
195.902352
 51
270.000001
  0
LINE
  8
0
  6
BYLAYER
 62
     7
 10
756.378840
 20
-1177.200498
 30
0.0
 11
760.816782
 21
-1191.347662
 31
0.0
  0
ARC
  8
0
  6
BYLAYER
 62
     7
 10
763.884790
 20
-1190.385230
 30
0.0
 40
3.215424
 50
197.416605
 51
270.000001
  0
ARC
  8
0
  6
BYLAYER
 62
     7
 10
764.019303
 20
-1195.111078
 30
0.0
 40
3.215424
 50
197.416605
 51
270.000001
  0
LINE
  8
0
  6
BYLAYER
 62
     7
 10
756.378840
 20
-1186.299760
 30
0.0
 11
760.582808
 21
-1198.414983
 31
0.0
  0
ARC
  8
0
  6
BYLAYER
 62
     7
 10
763.620553
 20
-1197.360901
 30
0.0
 40
3.215429
 50
199.136528
 51
270.000001
  0
LINE
  8
0
  6
BYLAYER
 62
     7
 10
760.951295
 20
-1196.073510
 30
0.0
 11
756.378840
 21
-1181.497569
 31
0.0
  0
ARC
  8
0
  6
BYLAYER
 62
     7
 10
762.809708
 20
-1122.955708
 30
0.0
 40
1.286174
 50
180.000000
 51
270.000009
  0
ARC
  8
0
  6
BYLAYER
 62
     7
 10
762.809708
 20
-1122.955708
 30
0.0
 40
1.286174
 50
90.0
 51
179.999989
  0
ARC
  8
0
  6
BYLAYER
 62
     7
 10
762.809708
 20
-1139.290090
 30
0.0
 40
1.286174
 50
180.000000
 51
270.000009
  0
ARC
  8
0
  6
BYLAYER
 62
     7
 10
762.809708
 20
-1139.290090
 30
0.0
 40
1.286174
 50
90.0
 51
179.999989
  0
ARC
  8
0
  6
BYLAYER
 62
     7
 10
762.809708
 20
-1155.624511
 30
0.0
 40
1.286174
 50
180.000000
 51
270.000009
  0
ARC
  8
0
  6
BYLAYER
 62
     7
 10
762.809708
 20
-1155.624511
 30
0.0
 40
1.286174
 50
90.0
 51
179.999989
  0
LINE
  8
0
  6
BYLAYER
 62
     7
 10
764.738969
 20
-1154.338337
 30
0.0
 11
764.738969
 21
-1140.576264
 31
0.0
  0
LINE
  8
0
  6
BYLAYER
 62
     7
 10
764.738969
 20
-1138.003917
 30
0.0
 11
764.738969
 21
-1124.241882
 31
0.0
  0
LINE
  8
0
  6
BYLAYER
 62
     7
 10
764.738969
 20
-1121.669535
 30
0.0
 11
764.738969
 21
-1118.679181
 31
0.0
  0
LINE
  8
0
  6
BYLAYER
 62
     7
 10
880.378840
 20
-1075.238697
 30
0.0
 11
944.761908
 21
-1075.238697
 31
0.0
  0
LINE
  8
0
  6
BYLAYER
 62
     7
 10
880.378840
 20
-1072.666350
 30
0.0
 11
944.761908
 21
-1072.666350
 31
0.0
  0
LINE
  8
0
  6
BYLAYER
 62
     7
 10
880.378840
 20
-1056.331968
 30
0.0
 11
1049.729715
 21
-1056.331968
 31
0.0
  0
LINE
  8
0
  6
BYLAYER
 62
     7
 10
880.378840
 20
-1058.904315
 30
0.0
 11
1049.729715
 21
-1058.904315
 31
0.0
  0
LINE
  8
0
  6
BYLAYER
 62
     7
 10
880.378840
 20
-1089.000732
 30
0.0
 11
1049.729715
 21
-1089.000732
 31
0.0
  0
LINE
  8
0
  6
BYLAYER
 62
     7
 10
880.378840
 20
-1091.573079
 30
0.0
 11
1049.729715
 21
-1091.573079
 31
0.0
  0
LINE
  8
0
  6
BYLAYER
 62
     7
 10
880.378840
 20
-1105.335114
 30
0.0
 11
1049.729715
 21
-1105.335114
 31
0.0
  0
LINE
  8
0
  6
BYLAYER
 62
     7
 10
880.378840
 20
-1107.907461
 30
0.0
 11
1049.729715
 21
-1107.907461
 31
0.0
  0
LINE
  8
0
  6
BYLAYER
 62
     7
 10
757.665014
 20
-1138.003917
 30
0.0
 11
1049.729715
 21
-1138.003917
 31
0.0
  0
LINE
  8
0
  6
BYLAYER
 62
     7
 10
757.665014
 20
-1140.576264
 30
0.0
 11
1049.729715
 21
-1140.576264
 31
0.0
  0
LINE
  8
0
  6
BYLAYER
 62
     7
 10
757.665014
 20
-1154.338337
 30
0.0
 11
1049.729715
 21
-1154.338337
 31
0.0
  0
LINE
  8
0
  6
BYLAYER
 62
     7
 10
757.665014
 20
-1156.910684
 30
0.0
 11
1049.729715
 21
-1156.910684
 31
0.0
  0
LINE
  8
0
  6
BYLAYER
 62
     7
 10
764.095882
 20
-1159.057159
 30
0.0
 11
1049.729715
 21
-1159.057159
 31
0.0
  0
LINE
  8
0
  6
BYLAYER
 62
     7
 10
763.670363
 20
-1174.822638
 30
0.0
 11
1049.729715
 21
-1174.822638
 31
0.0
  0
LINE
  8
0
  6
BYLAYER
 62
     7
 10
763.950850
 20
-1186.142521
 30
0.0
 11
1049.729715
 21
-1186.142521
 31
0.0
  0
LINE
  8
0
  6
BYLAYER
 62
     7
 10
763.884790
 20
-1193.600664
 30
0.0
 11
1049.729715
 21
-1193.600664
 31
0.0
  0
LINE
  8
0
  6
BYLAYER
 62
     7
 10
764.019303
 20
-1198.326512
 30
0.0
 11
1049.729715
 21
-1198.326512
 31
0.0
  0
LINE
  8
0
  6
BYLAYER
 62
     7
 10
763.620553
 20
-1200.576335
 30
0.0
 11
1049.729715
 21
-1200.576335
 31
0.0
  0
LINE
  8
0
  6
BYLAYER
 62
     7
 10
695.378840
 20
-1223.679181
 30
0.0
 11
695.378840
 21
-1048.679181
 31
0.0
  0
LINE
  8
0
  6
BYLAYER
 62
     7
 10
750.591059
 20
-1048.679181
 30
0.0
 11
750.591059
 21
-1117.179181
 31
0.0
  0
ARC
  8
0
  6
BYLAYER
 62
     7
 10
752.091059
 20
-1117.179181
 30
0.0
 40
1.5
 50
180.000000
 51
270.000000
  0
LINE
  8
0
  6
BYLAYER
 62
     7
 10
752.091059
 20
-1118.679181
 30
0.0
 11
878.878840
 21
-1118.679181
 31
0.0
  0
ARC
  8
0
  6
BYLAYER
 62
     7
 10
878.878840
 20
-1117.179181
 30
0.0
 40
1.5
 50
270.0
 51
360.0
  0
LINE
  8
0
  6
BYLAYER
 62
     7
 10
880.378840
 20
-1117.179181
 30
0.0
 11
880.378840
 21
-1048.679181
 31
0.0
  0
LINE
  8
0
  6
BYLAYER
 62
     7
 10
750.591059
 20
-1187.122503
 30
0.0
 11
750.591059
 21
-1119.635220
 31
0.0
  0
LINE
  8
0
  6
BYLAYER
 62
     7
 10
1190.378840
 20
-923.276546
 30
0.0
 11
1190.378840
 21
-1048.679181
 31
0.0
  0
LINE
  8
0
  6
BYLAYER
 62
     7
 10
1155.780769
 20
-890.679181
 30
0.0
 11
1155.780769
 21
-1048.679181
 31
0.0
  0
LINE
  8
0
  6
BYLAYER
 62
     7
 10
1155.780769
 20
-890.679181
 30
0.0
 11
1190.378840
 21
-923.276546
 31
0.0
  0
LINE
  8
0
  6
BYLAYER
 62
     7
 10
1049.729715
 20
-1048.679181
 30
0.0
 11
1049.729715
 21
-890.679181
 31
0.0
  0
LINE
  8
0
  6
BYLAYER
 62
     7
 10
1155.780769
 20
-890.679181
 30
0.0
 11
1049.729715
 21
-890.679181
 31
0.0
  0
LINE
  8
0
  6
BYLAYER
 62
     7
 10
944.761908
 20
-1024.692012
 30
0.0
 11
1049.729715
 21
-1024.692012
 31
0.0
  0
LINE
  8
0
  6
BYLAYER
 62
     7
 10
944.761908
 20
-1022.119665
 30
0.0
 11
1049.729715
 21
-1022.119665
 31
0.0
  0
ARC
  8
0
  6
BYLAYER
 62
     7
 10
757.665014
 20
-974.402654
 30
0.0
 40
1.286174
 50
90.0
 51
180.000009
  0
ARC
  8
0
  6
BYLAYER
 62
     7
 10
757.665014
 20
-974.402654
 30
0.0
 40
1.286174
 50
180.000000
 51
269.999989
  0
ARC
  8
0
  6
BYLAYER
 62
     7
 10
757.665014
 20
-958.068272
 30
0.0
 40
1.286174
 50
90.0
 51
180.000009
  0
ARC
  8
0
  6
BYLAYER
 62
     7
 10
757.665014
 20
-958.068272
 30
0.0
 40
1.286174
 50
180.000000
 51
269.999989
  0
ARC
  8
0
  6
BYLAYER
 62
     7
 10
757.665014
 20
-941.733851
 30
0.0
 40
1.286174
 50
90.0
 51
180.000009
  0
ARC
  8
0
  6
BYLAYER
 62
     7
 10
757.665014
 20
-941.733851
 30
0.0
 40
1.286174
 50
180.000000
 51
269.999989
  0
LINE
  8
0
  6
BYLAYER
 62
     7
 10
757.665014
 20
-975.688827
 30
0.0
 11
1049.729715
 21
-975.688827
 31
0.0
  0
LINE
  8
0
  6
BYLAYER
 62
     7
 10
757.665014
 20
-973.116480
 30
0.0
 11
1049.729715
 21
-973.116480
 31
0.0
  0
LINE
  8
0
  6
BYLAYER
 62
     7
 10
764.095882
 20
-938.301203
 30
0.0
 11
756.378840
 21
-934.930924
 31
0.0
  0
LINE
  8
0
  6
BYLAYER
 62
     7
 10
756.378840
 20
-944.499117
 30
0.0
 11
756.378840
 21
-978.679181
 31
0.0
  0
LINE
  8
0
  6
BYLAYER
 62
     7
 10
750.591059
 20
-911.058602
 30
0.0
 11
756.378840
 21
-911.058602
 31
0.0
  0
LINE
  8
0
  6
BYLAYER
 62
     7
 10
756.378840
 20
-934.930924
 30
0.0
 11
760.700561
 21
-924.518523
 31
0.0
  0
ARC
  8
0
  6
BYLAYER
 62
     7
 10
763.670363
 20
-925.751158
 30
0.0
 40
3.215450
 50
90.0
 51
157.458787
  0
LINE
  8
0
  6
BYLAYER
 62
     7
 10
756.378840
 20
-929.273769
 30
0.0
 11
760.858467
 21
-913.550250
 31
0.0
  0
ARC
  8
0
  6
BYLAYER
 62
     7
 10
763.950850
 20
-914.431275
 30
0.0
 40
3.215437
 50
90.0
 51
164.097649
  0
LINE
  8
0
  6
BYLAYER
 62
     7
 10
756.378840
 20
-920.157864
 30
0.0
 11
760.816782
 21
-906.010700
 31
0.0
  0
ARC
  8
0
  6
BYLAYER
 62
     7
 10
763.884790
 20
-906.973132
 30
0.0
 40
3.215424
 50
90.0
 51
162.583396
  0
ARC
  8
0
  6
BYLAYER
 62
     7
 10
764.019303
 20
-902.247284
 30
0.0
 40
3.215424
 50
90.0
 51
162.583396
  0
LINE
  8
0
  6
BYLAYER
 62
     7
 10
756.378840
 20
-911.058602
 30
0.0
 11
760.582808
 21
-898.943379
 31
0.0
  0
ARC
  8
0
  6
BYLAYER
 62
     7
 10
763.620553
 20
-899.997461
 30
0.0
 40
3.215429
 50
90.0
 51
160.863473
  0
LINE
  8
0
  6
BYLAYER
 62
     7
 10
760.951295
 20
-901.284852
 30
0.0
 11
756.378840
 21
-915.860793
 31
0.0
  0
ARC
  8
0
  6
BYLAYER
 62
     7
 10
762.809708
 20
-974.402654
 30
0.0
 40
1.286174
 50
90.0
 51
180.000009
  0
ARC
  8
0
  6
BYLAYER
 62
     7
 10
762.809708
 20
-974.402654
 30
0.0
 40
1.286174
 50
180.000000
 51
269.999989
  0
ARC
  8
0
  6
BYLAYER
 62
     7
 10
762.809708
 20
-958.068272
 30
0.0
 40
1.286174
 50
90.0
 51
180.000009
  0
ARC
  8
0
  6
BYLAYER
 62
     7
 10
762.809708
 20
-958.068272
 30
0.0
 40
1.286174
 50
180.000000
 51
269.999989
  0
ARC
  8
0
  6
BYLAYER
 62
     7
 10
762.809708
 20
-941.733851
 30
0.0
 40
1.286174
 50
90.0
 51
180.000009
  0
ARC
  8
0
  6
BYLAYER
 62
     7
 10
762.809708
 20
-941.733851
 30
0.0
 40
1.286174
 50
180.000000
 51
269.999989
  0
LINE
  8
0
  6
BYLAYER
 62
     7
 10
764.738969
 20
-943.020025
 30
0.0
 11
764.738969
 21
-956.782098
 31
0.0
  0
LINE
  8
0
  6
BYLAYER
 62
     7
 10
764.738969
 20
-959.354445
 30
0.0
 11
764.738969
 21
-973.116480
 31
0.0
  0
LINE
  8
0
  6
BYLAYER
 62
     7
 10
764.738969
 20
-975.688827
 30
0.0
 11
764.738969
 21
-978.679181
 31
0.0
  0
LINE
  8
0
  6
BYLAYER
 62
     7
 10
880.378840
 20
-1022.119665
 30
0.0
 11
944.761908
 21
-1022.119665
 31
0.0
  0
LINE
  8
0
  6
BYLAYER
 62
     7
 10
880.378840
 20
-1024.692012
 30
0.0
 11
944.761908
 21
-1024.692012
 31
0.0
  0
LINE
  8
0
  6
BYLAYER
 62
     7
 10
880.378840
 20
-1041.026394
 30
0.0
 11
1049.729715
 21
-1041.026394
 31
0.0
  0
LINE
  8
0
  6
BYLAYER
 62
     7
 10
880.378840
 20
-1038.454047
 30
0.0
 11
1049.729715
 21
-1038.454047
 31
0.0
  0
LINE
  8
0
  6
BYLAYER
 62
     7
 10
880.378840
 20
-1008.357630
 30
0.0
 11
1049.729715
 21
-1008.357630
 31
0.0
  0
LINE
  8
0
  6
BYLAYER
 62
     7
 10
880.378840
 20
-1005.785283
 30
0.0
 11
1049.729715
 21
-1005.785283
 31
0.0
  0
LINE
  8
0
  6
BYLAYER
 62
     7
 10
880.378840
 20
-992.023248
 30
0.0
 11
1049.729715
 21
-992.023248
 31
0.0
  0
LINE
  8
0
  6
BYLAYER
 62
     7
 10
880.378840
 20
-989.450901
 30
0.0
 11
1049.729715
 21
-989.450901
 31
0.0
  0
LINE
  8
0
  6
BYLAYER
 62
     7
 10
757.665014
 20
-959.354445
 30
0.0
 11
1049.729715
 21
-959.354445
 31
0.0
  0
LINE
  8
0
  6
BYLAYER
 62
     7
 10
757.665014
 20
-956.782098
 30
0.0
 11
1049.729715
 21
-956.782098
 31
0.0
  0
LINE
  8
0
  6
BYLAYER
 62
     7
 10
757.665014
 20
-943.020025
 30
0.0
 11
1049.729715
 21
-943.020025
 31
0.0
  0
LINE
  8
0
  6
BYLAYER
 62
     7
 10
757.665014
 20
-940.447678
 30
0.0
 11
1049.729715
 21
-940.447678
 31
0.0
  0
LINE
  8
0
  6
BYLAYER
 62
     7
 10
764.095882
 20
-938.301203
 30
0.0
 11
1049.729715
 21
-938.301203
 31
0.0
  0
LINE
  8
0
  6
BYLAYER
 62
     7
 10
763.670363
 20
-922.535724
 30
0.0
 11
1049.729715
 21
-922.535724
 31
0.0
  0
LINE
  8
0
  6
BYLAYER
 62
     7
 10
763.950850
 20
-911.215841
 30
0.0
 11
1049.729715
 21
-911.215841
 31
0.0
  0
LINE
  8
0
  6
BYLAYER
 62
     7
 10
763.884790
 20
-903.757698
 30
0.0
 11
1049.729715
 21
-903.757698
 31
0.0
  0
LINE
  8
0
  6
BYLAYER
 62
     7
 10
764.019303
 20
-899.031850
 30
0.0
 11
1049.729715
 21
-899.031850
 31
0.0
  0
LINE
  8
0
  6
BYLAYER
 62
     7
 10
763.620553
 20
-896.782027
 30
0.0
 11
1049.729715
 21
-896.782027
 31
0.0
  0
LINE
  8
0
  6
BYLAYER
 62
     7
 10
695.378840
 20
-873.679181
 30
0.0
 11
695.378840
 21
-1048.679181
 31
0.0
  0
LINE
  8
0
  6
BYLAYER
 62
     7
 10
750.591059
 20
-1048.679181
 30
0.0
 11
750.591059
 21
-980.179181
 31
0.0
  0
ARC
  8
0
  6
BYLAYER
 62
     7
 10
752.091059
 20
-980.179181
 30
0.0
 40
1.5
 50
90.0
 51
180.0
  0
LINE
  8
0
  6
BYLAYER
 62
     7
 10
752.091059
 20
-978.679181
 30
0.0
 11
878.878840
 21
-978.679181
 31
0.0
  0
ARC
  8
0
  6
BYLAYER
 62
     7
 10
878.878840
 20
-980.179181
 30
0.0
 40
1.5
 50
0.0
 51
90.0
  0
LINE
  8
0
  6
BYLAYER
 62
     7
 10
880.378840
 20
-980.179181
 30
0.0
 11
880.378840
 21
-1048.679181
 31
0.0
  0
LINE
  8
0
  6
BYLAYER
 62
     7
 10
750.591059
 20
-910.235859
 30
0.0
 11
750.591059
 21
-977.723142
 31
0.0
  0
LINE
  8
0
  6
BYLAYER
 62
     7
 10
695.378840
 20
-1223.679181
 30
0.0
 11
709.378840
 21
-1223.679181
 31
0.0
  0
LINE
  8
0
  6
BYLAYER
 62
     7
 10
709.378840
 20
-1223.679181
 30
0.0
 11
709.378840
 21
-1048.679181
 31
0.0
  0
ARC
  8
0
  6
BYLAYER
 62
     7
 10
711.951187
 20
-1191.088758
 30
0.0
 40
2.572347
 50
92.000000
 51
180.000000
  0
LINE
  8
0
  6
BYLAYER
 62
     7
 10
750.591059
 20
-1187.122503
 30
0.0
 11
711.861414
 21
-1188.517978
 31
0.0
  0
LINE
  8
0
  6
BYLAYER
 62
     7
 10
695.378840
 20
-873.679181
 30
0.0
 11
709.378840
 21
-873.679181
 31
0.0
  0
LINE
  8
0
  6
BYLAYER
 62
     7
 10
709.378840
 20
-873.679181
 30
0.0
 11
709.378840
 21
-1048.679181
 31
0.0
  0
ARC
  8
0
  6
BYLAYER
 62
     7
 10
711.951187
 20
-906.269604
 30
0.0
 40
2.572347
 50
180.000000
 51
268.000000
  0
LINE
  8
0
  6
BYLAYER
 62
     7
 10
750.591059
 20
-910.235859
 30
0.0
 11
711.861414
 21
-908.840384
 31
0.0
  0
LINE
  8
0
  6
BYLAYER
 62
     1
 10
395.226560
 20
-548.679181
 30
0.0
 11
320.378840
 21
-548.679181
 31
0.0
  0
LINE
  8
0
  6
BYLAYER
 62
     1
 10
320.378840
 20
-548.679181
 30
0.0
 11
315.378840
 21
-543.679181
 31
0.0
  0
LINE
  8
0
  6
BYLAYER
 62
     1
 10
650.378840
 20
-548.679181
 30
0.0
 11
575.531120
 21
-548.679181
 31
0.0
  0
LINE
  8
0
  6
BYLAYER
 62
     1
 10
650.378840
 20
-548.679181
 30
0.0
 11
654.500160
 21
-544.557861
 31
0.0
  0
LINE
  8
0
  6
BYLAYER
 62
     1
 10
315.378840
 20
-468.831461
 30
0.0
 11
315.378840
 21
-543.679181
 31
0.0
  0
LINE
  8
0
  6
BYLAYER
 62
     1
 10
596.378840
 20
-548.679181
 30
0.0
 11
596.378840
 21
-530.679181
 31
0.0
  0
LINE
  8
0
  6
BYLAYER
 62
     1
 10
614.378840
 20
-548.679181
 30
0.0
 11
614.378840
 21
-530.679181
 31
0.0
  0
LINE
  8
0
  6
BYLAYER
 62
     1
 10
356.378840
 20
-530.679181
 30
0.0
 11
356.378840
 21
-548.679181
 31
0.0
  0
LINE
  8
0
  6
BYLAYER
 62
     1
 10
374.378840
 20
-530.679181
 30
0.0
 11
374.378840
 21
-548.679181
 31
0.0
  0
LINE
  8
0
  6
BYLAYER
 62
     1
 10
440.157164
 20
-530.679181
 30
0.0
 11
338.378840
 21
-530.679181
 31
0.0
  0
LINE
  8
0
  6
BYLAYER
 62
     1
 10
632.378840
 20
-530.679181
 30
0.0
 11
530.600516
 21
-530.679181
 31
0.0
  0
ARC
  8
0
  6
BYLAYER
 62
     1
 10
632.378840
 20
-525.679181
 30
0.0
 40
5.000000
 50
270.0
 51
360.0
  0
ARC
  8
0
  6
BYLAYER
 62
     1
 10
338.378840
 20
-525.679181
 30
0.0
 40
5.000000
 50
180.000000
 51
270.000000
  0
LINE
  8
0
  6
BYLAYER
 62
     1
 10
315.378840
 20
-489.679181
 30
0.0
 11
333.378840
 21
-489.679181
 31
0.0
  0
LINE
  8
0
  6
BYLAYER
 62
     1
 10
315.378840
 20
-507.679181
 30
0.0
 11
333.378840
 21
-507.679181
 31
0.0
  0
LINE
  8
0
  6
BYLAYER
 62
     1
 10
655.378840
 20
-470.074102
 30
0.0
 11
655.378840
 21
-542.436540
 31
0.0
  0
ARC
  8
0
  6
BYLAYER
 62
     1
 10
652.378840
 20
-542.436540
 30
0.0
 40
3.000000
 50
315.000000
 51
360.000000
  0
LINE
  8
0
  6
BYLAYER
 62
     1
 10
449.420531
 20
-542.679181
 30
0.0
 11
402.476229
 21
-542.679181
 31
0.0
  0
LINE
  8
0
  6
BYLAYER
 62
     1
 10
568.281451
 20
-542.679181
 30
0.0
 11
521.337149
 21
-542.679181
 31
0.0
  0
LINE
  8
0
  6
BYLAYER
 62
     1
 10
390.378840
 20
-548.679181
 30
0.0
 11
396.426474
 21
-542.631547
 31
0.0
  0
ARC
  8
0
  6
BYLAYER
 62
     1
 10
395.719367
 20
-541.924440
 30
0.0
 40
1.0
 50
315.000000
 51
360.000000
  0
LINE
  8
0
  6
BYLAYER
 62
     1
 10
321.378840
 20
-414.637490
 30
0.0
 11
321.378840
 21
-461.588821
 31
0.0
  0
LINE
  8
0
  6
BYLAYER
 62
     1
 10
315.378840
 20
-473.679181
 30
0.0
 11
321.085947
 21
-467.972074
 31
0.0
  0
ARC
  8
0
  6
BYLAYER
 62
     1
 10
321.793054
 20
-468.679181
 30
0.0
 40
1.0
 50
90.0
 51
135.0
  0
LINE
  8
0
  6
BYLAYER
 62
     1
 10
649.378840
 20
-342.720872
 30
0.0
 11
649.378840
 21
-311.840521
 31
0.0
  0
ARC
  8
0
  6
BYLAYER
 62
     1
 10
652.378840
 20
-311.840521
 30
0.0
 40
3.000000
 50
93.000000
 51
180.000000
  0
LINE
  8
0
  6
BYLAYER
 62
     1
 10
649.378840
 20
-462.831461
 30
0.0
 11
649.378840
 21
-414.637490
 31
0.0
  0
LINE
  8
0
  6
BYLAYER
 62
     1
 10
655.378840
 20
-308.679181
 30
0.0
 11
652.221832
 21
-308.844633
 31
0.0
  0
LINE
  8
0
  6
BYLAYER
 62
     1
 10
655.378840
 20
-153.679181
 30
0.0
 11
655.378840
 21
-308.679181
 31
0.0
  0
LINE
  8
0
  6
BYLAYER
 62
     1
 10
655.378840
 20
-153.679181
 30
0.0
 11
650.378840
 21
-148.679181
 31
0.0
  0
LINE
  8
0
  6
BYLAYER
 62
     1
 10
315.378840
 20
-153.679181
 30
0.0
 11
320.378840
 21
-148.679181
 31
0.0
  0
LINE
  8
0
  6
BYLAYER
 62
     1
 10
637.378840
 20
-333.457505
 30
0.0
 11
637.378840
 21
-289.679181
 31
0.0
  0
LINE
  8
0
  6
BYLAYER
 62
     1
 10
637.378840
 20
-281.679181
 30
0.0
 11
637.378840
 21
-273.679181
 31
0.0
  0
LINE
  8
0
  6
BYLAYER
 62
     1
 10
637.378840
 20
-265.679181
 30
0.0
 11
637.378840
 21
-257.679181
 31
0.0
  0
LINE
  8
0
  6
BYLAYER
 62
     1
 10
637.378840
 20
-249.679181
 30
0.0
 11
637.378840
 21
-171.679181
 31
0.0
  0
ARC
  8
0
  6
BYLAYER
 62
     1
 10
634.378840
 20
-213.784132
 30
0.0
 40
3.000000
 50
273.000000
 51
360.000000
  0
ARC
  8
0
  6
BYLAYER
 62
     1
 10
634.378840
 20
-243.679181
 30
0.0
 40
3.0
 50
270.0
 51
360.0
  0
ARC
  8
0
  6
BYLAYER
 62
     1
 10
632.378840
 20
-171.679181
 30
0.0
 40
5.0
 50
0.0
 51
90.0
  0
LINE
  8
0
  6
BYLAYER
 62
     1
 10
637.378840
 20
-525.679181
 30
0.0
 11
637.378840
 21
-423.900857
 31
0.0
  0
LINE
  8
0
  6
BYLAYER
 62
     1
 10
333.378840
 20
-525.679181
 30
0.0
 11
333.378840
 21
-423.900857
 31
0.0
  0
ARC
  8
0
  6
BYLAYER
 62
     1
 10
343.378840
 20
-460.679181
 30
0.0
 40
10.0
 50
90.0
 51
180.0
  0
LINE
  8
0
  6
BYLAYER
 62
     1
 10
333.378840
 20
-333.457505
 30
0.0
 11
333.378840
 21
-289.679181
 31
0.0
  0
LINE
  8
0
  6
BYLAYER
 62
     1
 10
333.378840
 20
-281.679181
 30
0.0
 11
333.378840
 21
-273.679181
 31
0.0
  0
LINE
  8
0
  6
BYLAYER
 62
     1
 10
333.378840
 20
-265.679181
 30
0.0
 11
333.378840
 21
-257.679181
 31
0.0
  0
LINE
  8
0
  6
BYLAYER
 62
     1
 10
333.378840
 20
-249.679181
 30
0.0
 11
333.378840
 21
-171.679181
 31
0.0
  0
ARC
  8
0
  6
BYLAYER
 62
     1
 10
338.378840
 20
-171.679181
 30
0.0
 40
5.000000
 50
90.0
 51
180.0
  0
LINE
  8
0
  6
BYLAYER
 62
     1
 10
596.378840
 20
-148.679181
 30
0.0
 11
596.378840
 21
-166.679181
 31
0.0
  0
LINE
  8
0
  6
BYLAYER
 62
     1
 10
614.378840
 20
-148.679181
 30
0.0
 11
614.378840
 21
-166.679181
 31
0.0
  0
LINE
  8
0
  6
BYLAYER
 62
     1
 10
356.378840
 20
-166.679181
 30
0.0
 11
356.378840
 21
-148.679181
 31
0.0
  0
LINE
  8
0
  6
BYLAYER
 62
     1
 10
374.378840
 20
-166.679181
 30
0.0
 11
374.378840
 21
-148.679181
 31
0.0
  0
LINE
  8
0
  6
BYLAYER
 62
     1
 10
650.378840
 20
-148.679181
 30
0.0
 11
575.531120
 21
-148.679181
 31
0.0
  0
LINE
  8
0
  6
BYLAYER
 62
     1
 10
437.378840
 20
-166.679181
 30
0.0
 11
338.378840
 21
-166.679181
 31
0.0
  0
LINE
  8
0
  6
BYLAYER
 62
     1
 10
632.378840
 20
-166.679181
 30
0.0
 11
567.378840
 21
-166.679181
 31
0.0
  0
LINE
  8
0
  6
BYLAYER
 62
     1
 10
568.281451
 20
-154.679181
 30
0.0
 11
402.476229
 21
-154.679181
 31
0.0
  0
ARC
  8
0
  6
BYLAYER
 62
     1
 10
402.476229
 20
-151.679181
 30
0.0
 40
3.000000
 50
225.039288
 51
270.000000
  0
LINE
  8
0
  6
BYLAYER
 62
     1
 10
395.226560
 20
-148.679181
 30
0.0
 11
320.378840
 21
-148.679181
 31
0.0
  0
ARC
  8
0
  6
BYLAYER
 62
     1
 10
403.378840
 20
-236.679181
 30
0.0
 40
10.000000
 50
270.0
 51
360.0
  0
LINE
  8
0
  6
BYLAYER
 62
     1
 10
403.378840
 20
-246.679181
 30
0.0
 11
343.378840
 21
-246.679181
 31
0.0
  0
ARC
  8
0
  6
BYLAYER
 62
     1
 10
343.378840
 20
-236.679181
 30
0.0
 40
10.0
 50
180.000000
 51
270.000000
  0
LINE
  8
0
  6
BYLAYER
 62
     1
 10
567.378840
 20
-246.679181
 30
0.0
 11
634.378840
 21
-246.679181
 31
0.0
  0
LINE
  8
0
  6
BYLAYER
 62
     1
 10
349.489446
 20
-450.679181
 30
0.0
 11
343.378840
 21
-450.679181
 31
0.0
  0
LINE
  8
0
  6
BYLAYER
 62
     1
 10
413.378840
 20
-520.679181
 30
0.0
 11
413.378840
 21
-514.568575
 31
0.0
  0
ARC
  8
0
  6
BYLAYER
 62
     1
 10
403.378840
 20
-520.679181
 30
0.0
 40
10.000000
 50
270.0
 51
360.0
  0
ARC
  8
0
  6
BYLAYER
 62
     1
 10
627.378840
 20
-460.679181
 30
0.0
 40
10.000000
 50
0.0
 51
90.0
  0
LINE
  8
0
  6
BYLAYER
 62
     1
 10
621.268234
 20
-450.679181
 30
0.0
 11
627.378840
 21
-450.679181
 31
0.0
  0
LINE
  8
0
  6
BYLAYER
 62
     1
 10
557.378840
 20
-520.679181
 30
0.0
 11
557.378840
 21
-514.568575
 31
0.0
  0
ARC
  8
0
  6
BYLAYER
 62
     1
 10
567.378840
 20
-520.679181
 30
0.0
 40
10.000000
 50
180.000000
 51
270.000000
  0
LINE
  8
0
  6
BYLAYER
 62
     1
 10
315.378840
 20
-207.679181
 30
0.0
 11
333.378840
 21
-207.679181
 31
0.0
  0
LINE
  8
0
  6
BYLAYER
 62
     1
 10
315.378840
 20
-189.679181
 30
0.0
 11
333.378840
 21
-189.679181
 31
0.0
  0
LINE
  8
0
  6
BYLAYER
 62
     1
 10
315.378840
 20
-223.679181
 30
0.0
 11
333.378840
 21
-223.679181
 31
0.0
  0
LINE
  8
0
  6
BYLAYER
 62
     1
 10
315.378840
 20
-473.679181
 30
0.0
 11
333.378840
 21
-473.679181
 31
0.0
  0
LINE
  8
0
  6
BYLAYER
 62
     1
 10
655.378840
 20
-223.679181
 30
0.0
 11
637.378840
 21
-223.679181
 31
0.0
  0
LINE
  8
0
  6
BYLAYER
 62
     1
 10
651.879379
 20
-473.679181
 30
0.0
 11
637.378840
 21
-473.679181
 31
0.0
  0
LINE
  8
0
  6
BYLAYER
 62
     1
 10
390.378840
 20
-148.679181
 30
0.0
 11
390.378840
 21
-166.679181
 31
0.0
  0
LINE
  8
0
  6
BYLAYER
 62
     1
 10
580.378840
 20
-148.679181
 30
0.0
 11
580.378840
 21
-166.679181
 31
0.0
  0
LINE
  8
0
  6
BYLAYER
 62
     1
 10
580.378840
 20
-548.679181
 30
0.0
 11
580.378840
 21
-530.679181
 31
0.0
  0
LINE
  8
0
  6
BYLAYER
 62
     1
 10
390.378840
 20
-548.679181
 30
0.0
 11
390.378840
 21
-530.679181
 31
0.0
  0
ARC
  8
0
  6
BYLAYER
 62
     1
 10
567.378840
 20
-236.679181
 30
0.0
 40
10.000000
 50
180.000000
 51
270.000000
  0
ARC
  8
0
  6
BYLAYER
 62
     1
 10
567.378840
 20
-176.679181
 30
0.0
 40
10.000000
 50
90.0
 51
180.0
  0
LINE
  8
0
  6
BYLAYER
 62
     1
 10
557.378840
 20
-176.679181
 30
0.0
 11
557.378840
 21
-236.679181
 31
0.0
  0
ARC
  8
0
  6
BYLAYER
 62
     1
 10
560.378840
 20
-220.823448
 30
0.0
 40
3.000000
 50
180.000000
 51
260.000000
  0
ARC
  8
0
  6
BYLAYER
 62
     1
 10
485.378840
 20
-328.679181
 30
0.0
 40
217.000000
 50
260.461721
 51
279.538279
  0
ARC
  8
0
  6
BYLAYER
 62
     1
 10
435.378840
 20
-378.679181
 30
0.0
 40
217.000000
 50
350.461721
 51
369.538279
  0
LINE
  8
0
  6
BYLAYER
 62
     1
 10
326.172840
 20
-236.179181
 30
0.0
 11
333.378840
 21
-236.179181
 31
0.0
  0
LINE
  8
0
  6
BYLAYER
 62
     1
 10
333.378840
 20
-461.179181
 30
0.0
 11
326.172840
 21
-461.179181
 31
0.0
  0
LINE
  8
0
  6
BYLAYER
 62
     1
 10
644.584840
 20
-461.179181
 30
0.0
 11
637.378840
 21
-461.179181
 31
0.0
  0
LINE
  8
0
  6
BYLAYER
 62
     1
 10
321.378840
 20
-289.340521
 30
0.0
 11
321.378840
 21
-342.720872
 31
0.0
  0
LINE
  8
0
  6
BYLAYER
 62
     1
 10
315.378840
 20
-286.179181
 30
0.0
 11
318.535848
 21
-286.344633
 31
0.0
  0
ARC
  8
0
  6
BYLAYER
 62
     1
 10
318.378840
 20
-289.340521
 30
0.0
 40
3.0
 50
0.0
 51
87.0
  0
LINE
  8
0
  6
BYLAYER
 62
     1
 10
315.378840
 20
-153.679181
 30
0.0
 11
315.378840
 21
-286.179181
 31
0.0
  0
ARC
  8
0
  6
BYLAYER
 62
     1
 10
437.378840
 20
-169.679181
 30
0.0
 40
3.0
 50
0.0
 51
90.0
  0
CIRCLE
  8
0
  6
BYLAYER
 62
     1
 10
535.378840
 20
-182.679181
 30
0.0
 40
15.0
  0
ARC
  8
0
  6
BYLAYER
 62
     1
 10
645.584840
 20
-316.452541
 30
0.0
 40
1.0
 50
180.000000
 51
270.000000
  0
ARC
  8
0
  6
BYLAYER
 62
     1
 10
645.584840
 20
-318.452541
 30
0.0
 40
1.000000
 50
0.0
 51
90.0
  0
LINE
  8
0
  6
BYLAYER
 62
     1
 10
648.339433
 20
-389.905821
 30
0.0
 11
648.233973
 21
-389.905821
 31
0.0
  0
ARC
  8
0
  6
BYLAYER
 62
     1
 10
648.339433
 20
-388.905821
 30
0.0
 40
1.000000
 50
270.0
 51
357.250695
  0
ARC
  8
0
  6
BYLAYER
 62
     1
 10
648.233973
 20
-390.905821
 30
0.0
 40
1.0
 50
90.0
 51
176.712478
  0
ARC
  8
0
  6
BYLAYER
 62
     1
 10
645.584840
 20
-416.452541
 30
0.0
 40
1.0
 50
180.000000
 51
270.000000
  0
ARC
  8
0
  6
BYLAYER
 62
     1
 10
645.584840
 20
-418.452541
 30
0.0
 40
1.000000
 50
0.0
 51
90.0
  0
ARC
  8
0
  6
BYLAYER
 62
     1
 10
645.584840
 20
-440.905821
 30
0.0
 40
1.0
 50
90.0
 51
180.0
  0
LINE
  8
0
  6
BYLAYER
 62
     1
 10
647.099840
 20
-307.657735
 30
0.0
 11
647.099840
 21
-292.502694
 31
0.0
  0
ARC
  8
0
  6
BYLAYER
 62
     1
 10
648.099840
 20
-307.657735
 30
0.0
 40
1.000000
 50
180.000000
 51
273.000000
  0
ARC
  8
0
  6
BYLAYER
 62
     1
 10
648.099840
 20
-292.502694
 30
0.0
 40
1.0
 50
102.511107
 51
180.000000
  0
ARC
  8
0
  6
BYLAYER
 62
     1
 10
647.666582
 20
-290.550186
 30
0.0
 40
1.0
 50
282.511107
 51
362.209270
  0
LINE
  8
0
  6
BYLAYER
 62
     1
 10
646.584840
 20
-288.905821
 30
0.0
 11
646.584840
 21
-239.179181
 31
0.0
  0
ARC
  8
0
  6
BYLAYER
 62
     1
 10
645.584840
 20
-288.905821
 30
0.0
 40
1.000000
 50
270.0
 51
360.0
  0
LINE
  8
0
  6
BYLAYER
 62
     1
 10
646.584840
 20
-338.905821
 30
0.0
 11
646.584840
 21
-318.452541
 31
0.0
  0
LINE
  8
0
  6
BYLAYER
 62
     1
 10
646.584840
 20
-438.905821
 30
0.0
 11
646.584840
 21
-418.452541
 31
0.0
  0
ARC
  8
0
  6
BYLAYER
 62
     1
 10
645.584840
 20
-438.905821
 30
0.0
 40
1.000000
 50
270.0
 51
360.0
  0
LINE
  8
0
  6
BYLAYER
 62
     1
 10
644.584840
 20
-414.235278
 30
0.0
 11
644.584840
 21
-416.452541
 31
0.0
  0
ARC
  8
0
  6
BYLAYER
 62
     1
 10
435.378840
 20
-378.679181
 30
0.0
 40
212.206000
 50
350.354330
 51
356.712478
  0
LINE
  8
0
  6
BYLAYER
 62
     1
 10
644.584840
 20
-316.452541
 30
0.0
 11
644.584840
 21
-290.905821
 31
0.0
  0
ARC
  8
0
  6
BYLAYER
 62
     1
 10
645.584840
 20
-290.905821
 30
0.0
 40
1.0
 50
90.0
 51
180.0
  0
LINE
  8
0
  6
BYLAYER
 62
     1
 10
644.584840
 20
-440.905821
 30
0.0
 11
644.584840
 21
-465.700967
 31
0.0
  0
ARC
  8
0
  6
BYLAYER
 62
     1
 10
435.378840
 20
-378.679181
 30
0.0
 40
214.206000
 50
357.250695
 51
362.749305
  0
LINE
  8
0
  6
BYLAYER
 62
     1
 10
648.339433
 20
-367.452541
 30
0.0
 11
648.233973
 21
-367.452541
 31
0.0
  0
ARC
  8
0
  6
BYLAYER
 62
     1
 10
648.339433
 20
-368.452541
 30
0.0
 40
1.000000
 50
2.749305
 51
90.000000
  0
ARC
  8
0
  6
BYLAYER
 62
     1
 10
648.233973
 20
-366.452541
 30
0.0
 40
1.0
 50
183.287522
 51
270.000000
  0
ARC
  8
0
  6
BYLAYER
 62
     1
 10
645.584840
 20
-340.905821
 30
0.0
 40
1.0
 50
90.0
 51
180.0
  0
ARC
  8
0
  6
BYLAYER
 62
     1
 10
645.584840
 20
-338.905821
 30
0.0
 40
1.000000
 50
270.0
 51
360.0
  0
LINE
  8
0
  6
BYLAYER
 62
     1
 10
644.584840
 20
-343.123084
 30
0.0
 11
644.584840
 21
-340.905821
 31
0.0
  0
ARC
  8
0
  6
BYLAYER
 62
     1
 10
435.378840
 20
-378.679181
 30
0.0
 40
212.206000
 50
3.287522
 51
9.645670
  0
LINE
  8
0
  6
BYLAYER
 62
     1
 10
474.152200
 20
-541.639774
 30
0.0
 11
474.152200
 21
-541.534314
 31
0.0
  0
ARC
  8
0
  6
BYLAYER
 62
     1
 10
475.152200
 20
-541.639774
 30
0.0
 40
1.000000
 50
180.000000
 51
267.250695
  0
ARC
  8
0
  6
BYLAYER
 62
     1
 10
473.152200
 20
-541.534314
 30
0.0
 40
1.0
 50
0.0
 51
86.712478
  0
ARC
  8
0
  6
BYLAYER
 62
     1
 10
447.605480
 20
-538.885181
 30
0.0
 40
1.0
 50
90.0
 51
180.0
  0
ARC
  8
0
  6
BYLAYER
 62
     1
 10
445.605480
 20
-538.885181
 30
0.0
 40
1.000000
 50
270.0
 51
360.0
  0
ARC
  8
0
  6
BYLAYER
 62
     1
 10
423.152200
 20
-538.885181
 30
0.0
 40
1.0
 50
0.0
 51
90.0
  0
LINE
  8
0
  6
BYLAYER
 62
     1
 10
525.152200
 20
-539.885181
 30
0.0
 11
545.605480
 21
-539.885181
 31
0.0
  0
LINE
  8
0
  6
BYLAYER
 62
     1
 10
425.152200
 20
-539.885181
 30
0.0
 11
445.605480
 21
-539.885181
 31
0.0
  0
ARC
  8
0
  6
BYLAYER
 62
     1
 10
425.152200
 20
-538.885181
 30
0.0
 40
1.000000
 50
180.000000
 51
270.000000
  0
LINE
  8
0
  6
BYLAYER
 62
     1
 10
449.822743
 20
-537.885181
 30
0.0
 11
447.605480
 21
-537.885181
 31
0.0
  0
ARC
  8
0
  6
BYLAYER
 62
     1
 10
485.378840
 20
-328.679181
 30
0.0
 40
212.206000
 50
260.354330
 51
266.712478
  0
LINE
  8
0
  6
BYLAYER
 62
     1
 10
423.152200
 20
-537.885181
 30
0.0
 11
397.719367
 21
-537.885181
 31
0.0
  0
ARC
  8
0
  6
BYLAYER
 62
     1
 10
397.719367
 20
-538.885181
 30
0.0
 40
1.0
 50
90.0
 51
180.0
  0
ARC
  8
0
  6
BYLAYER
 62
     1
 10
485.378840
 20
-328.679181
 30
0.0
 40
214.206000
 50
267.250695
 51
272.749305
  0
LINE
  8
0
  6
BYLAYER
 62
     1
 10
496.605480
 20
-541.639774
 30
0.0
 11
496.605480
 21
-541.534314
 31
0.0
  0
ARC
  8
0
  6
BYLAYER
 62
     1
 10
495.605480
 20
-541.639774
 30
0.0
 40
1.000000
 50
272.749305
 51
360.000000
  0
ARC
  8
0
  6
BYLAYER
 62
     1
 10
497.605480
 20
-541.534314
 30
0.0
 40
1.0
 50
93.287522
 51
180.000000
  0
ARC
  8
0
  6
BYLAYER
 62
     1
 10
523.152200
 20
-538.885181
 30
0.0
 40
1.000000
 50
0.0
 51
90.0
  0
ARC
  8
0
  6
BYLAYER
 62
     1
 10
525.152200
 20
-538.885181
 30
0.0
 40
1.000000
 50
180.000000
 51
270.000000
  0
LINE
  8
0
  6
BYLAYER
 62
     1
 10
520.934937
 20
-537.885181
 30
0.0
 11
523.152200
 21
-537.885181
 31
0.0
  0
ARC
  8
0
  6
BYLAYER
 62
     1
 10
485.378840
 20
-328.679181
 30
0.0
 40
212.206000
 50
273.287522
 51
279.645670
  0
LINE
  8
0
  6
BYLAYER
 62
     1
 10
652.148840
 20
-474.921822
 30
0.0
 11
652.148840
 21
-540.818821
 31
0.0
  0
ARC
  8
0
  6
BYLAYER
 62
     1
 10
649.148840
 20
-474.921822
 30
0.0
 40
3.0
 50
0.0
 51
45.0
  0
LINE
  8
0
  6
BYLAYER
 62
     1
 10
651.270160
 20
-472.800501
 30
0.0
 11
644.877733
 21
-466.408074
 31
0.0
  0
ARC
  8
0
  6
BYLAYER
 62
     1
 10
645.584840
 20
-465.700967
 30
0.0
 40
1.0
 50
180.000000
 51
225.000000
  0
LINE
  8
0
  6
BYLAYER
 62
     1
 10
654.500160
 20
-467.952782
 30
0.0
 11
649.378840
 21
-462.831461
 31
0.0
  0
ARC
  8
0
  6
BYLAYER
 62
     1
 10
652.378840
 20
-470.074102
 30
0.0
 40
3.0
 50
0.0
 51
45.0
  0
ARC
  8
0
  6
BYLAYER
 62
     1
 10
649.303770
 20
-464.565170
 30
0.0
 40
1.0
 50
45.000000
 51
90.000000
  0
LINE
  8
0
  6
BYLAYER
 62
     1
 10
648.099840
 20
-463.565170
 30
0.0
 11
649.303770
 21
-463.565170
 31
0.0
  0
LINE
  8
0
  6
BYLAYER
 62
     1
 10
651.942832
 20
-308.457704
 30
0.0
 11
648.152176
 21
-308.656364
 31
0.0
  0
LINE
  8
0
  6
BYLAYER
 62
     1
 10
648.665839
 20
-290.511636
 30
0.0
 11
646.584840
 21
-239.179181
 31
0.0
  0
ARC
  8
0
  6
BYLAYER
 62
     1
 10
643.582376
 20
-239.179181
 30
0.0
 40
3.0
 50
2.321479
 51
90.0
  0
ARC
  8
0
  6
BYLAYER
 62
     1
 10
535.378840
 20
-378.679181
 30
0.0
 40
217.0
 50
170.461721
 51
189.538279
  0
LINE
  8
0
  6
BYLAYER
 62
     1
 10
322.418247
 20
-389.905821
 30
0.0
 11
322.523707
 21
-389.905821
 31
0.0
  0
ARC
  8
0
  6
BYLAYER
 62
     1
 10
322.418247
 20
-388.905821
 30
0.0
 40
1.0
 50
182.749305
 51
270.000000
  0
ARC
  8
0
  6
BYLAYER
 62
     1
 10
322.523707
 20
-390.905821
 30
0.0
 40
1.000000
 50
3.287522
 51
90.0
  0
ARC
  8
0
  6
BYLAYER
 62
     1
 10
325.172840
 20
-416.452541
 30
0.0
 40
1.000000
 50
270.0
 51
360.0
  0
ARC
  8
0
  6
BYLAYER
 62
     1
 10
325.172840
 20
-418.452541
 30
0.0
 40
1.000000
 50
90.0
 51
180.0
  0
LINE
  8
0
  6
BYLAYER
 62
     1
 10
326.172840
 20
-414.235278
 30
0.0
 11
326.172840
 21
-416.452541
 31
0.0
  0
ARC
  8
0
  6
BYLAYER
 62
     1
 10
535.378840
 20
-378.679181
 30
0.0
 40
212.206000
 50
183.287522
 51
189.645670
  0
ARC
  8
0
  6
BYLAYER
 62
     1
 10
535.378840
 20
-378.679181
 30
0.0
 40
214.206000
 50
177.250695
 51
182.749305
  0
LINE
  8
0
  6
BYLAYER
 62
     1
 10
322.418247
 20
-367.452541
 30
0.0
 11
322.523707
 21
-367.452541
 31
0.0
  0
ARC
  8
0
  6
BYLAYER
 62
     1
 10
322.418247
 20
-368.452541
 30
0.0
 40
1.0
 50
90.0
 51
177.250695
  0
ARC
  8
0
  6
BYLAYER
 62
     1
 10
322.523707
 20
-366.452541
 30
0.0
 40
1.000000
 50
270.0
 51
356.712478
  0
ARC
  8
0
  6
BYLAYER
 62
     1
 10
325.172840
 20
-340.905821
 30
0.0
 40
1.000000
 50
0.0
 51
90.0
  0
ARC
  8
0
  6
BYLAYER
 62
     1
 10
325.172840
 20
-338.905821
 30
0.0
 40
1.000000
 50
180.000000
 51
270.000000
  0
LINE
  8
0
  6
BYLAYER
 62
     1
 10
326.172840
 20
-343.123084
 30
0.0
 11
326.172840
 21
-340.905821
 31
0.0
  0
ARC
  8
0
  6
BYLAYER
 62
     1
 10
535.378840
 20
-378.679181
 30
0.0
 40
212.206000
 50
170.354330
 51
176.712478
  0
LINE
  8
0
  6
BYLAYER
 62
     1
 10
325.172840
 20
-467.679181
 30
0.0
 11
321.793054
 21
-467.679181
 31
0.0
  0
ARC
  8
0
  6
BYLAYER
 62
     1
 10
325.172840
 20
-440.905821
 30
0.0
 40
1.0
 50
0.0
 51
90.0
  0
LINE
  8
0
  6
BYLAYER
 62
     1
 10
326.172840
 20
-440.905821
 30
0.0
 11
326.172840
 21
-466.679181
 31
0.0
  0
ARC
  8
0
  6
BYLAYER
 62
     1
 10
325.172840
 20
-466.679181
 30
0.0
 40
1.0
 50
270.0
 51
360.0
  0
LINE
  8
0
  6
BYLAYER
 62
     1
 10
324.950840
 20
-442.740093
 30
0.0
 11
324.950840
 21
-449.679181
 31
0.0
  0
ARC
  8
0
  6
BYLAYER
 62
     1
 10
323.950840
 20
-449.679181
 30
0.0
 40
1.000000
 50
0.0
 51
90.0
  0
ARC
  8
0
  6
BYLAYER
 62
     1
 10
323.950840
 20
-442.740093
 30
0.0
 40
1.000000
 50
0.0
 51
90.0
  0
ARC
  8
0
  6
BYLAYER
 62
     1
 10
325.172840
 20
-438.905821
 30
0.0
 40
1.000000
 50
180.000000
 51
270.000000
  0
LINE
  8
0
  6
BYLAYER
 62
     1
 10
324.172840
 20
-438.905821
 30
0.0
 11
324.172840
 21
-418.452541
 31
0.0
  0
ARC
  8
0
  6
BYLAYER
 62
     1
 10
325.172840
 20
-316.452541
 30
0.0
 40
1.0
 50
270.0
 51
360.0
  0
ARC
  8
0
  6
BYLAYER
 62
     1
 10
325.172840
 20
-318.452541
 30
0.0
 40
1.000000
 50
90.0
 51
180.0
  0
LINE
  8
0
  6
BYLAYER
 62
     1
 10
326.172840
 20
-316.452541
 30
0.0
 11
326.172840
 21
-290.905821
 31
0.0
  0
ARC
  8
0
  6
BYLAYER
 62
     1
 10
325.172840
 20
-290.905821
 30
0.0
 40
1.000000
 50
0.0
 51
90.0
  0
LINE
  8
0
  6
BYLAYER
 62
     1
 10
324.172840
 20
-338.905821
 30
0.0
 11
324.172840
 21
-318.452541
 31
0.0
  0
LINE
  8
0
  6
BYLAYER
 62
     1
 10
323.172462
 20
-265.571344
 30
0.0
 11
323.100118
 21
-265.571344
 31
0.0
  0
LINE
  8
0
  6
BYLAYER
 62
     1
 10
324.172840
 20
-288.905821
 30
0.0
 11
324.172840
 21
-268.452541
 31
0.0
  0
ARC
  8
0
  6
BYLAYER
 62
     1
 10
325.172840
 20
-268.452541
 30
0.0
 40
1.000000
 50
90.0
 51
180.0
  0
ARC
  8
0
  6
BYLAYER
 62
     1
 10
325.172840
 20
-288.905821
 30
0.0
 40
1.000000
 50
180.000000
 51
270.000000
  0
LINE
  8
0
  6
BYLAYER
 62
     1
 10
326.172840
 20
-266.452541
 30
0.0
 11
326.172840
 21
-234.887395
 31
0.0
  0
ARC
  8
0
  6
BYLAYER
 62
     1
 10
325.172840
 20
-266.452541
 30
0.0
 40
1.000000
 50
270.0
 51
360.0
  0
LINE
  8
0
  6
BYLAYER
 62
     1
 10
315.378840
 20
-225.518011
 30
0.0
 11
325.006459
 21
-235.145630
 31
0.0
  0
LINE
  8
0
  6
BYLAYER
 62
     1
 10
315.378840
 20
-223.679181
 30
0.0
 11
325.879947
 21
-234.180288
 31
0.0
  0
LINE
  8
0
  6
BYLAYER
 62
     1
 10
321.297257
 20
-288.645652
 30
0.0
 11
322.135529
 21
-266.533462
 31
0.0
  0
LINE
  8
0
  6
BYLAYER
 62
     1
 10
324.209913
 20
-264.609227
 30
0.0
 11
325.298634
 21
-235.890619
 31
0.0
  0
ARC
  8
0
  6
BYLAYER
 62
     1
 10
324.299352
 20
-235.852737
 30
0.0
 40
1.000000
 50
357.828959
 51
405.0
  0
LINE
  8
0
  6
BYLAYER
 62
     1
 10
323.210631
 20
-265.571344
 30
0.0
 11
323.134811
 21
-265.571344
 31
0.0
  0
ARC
  8
0
  6
BYLAYER
 62
     1
 10
323.134811
 20
-266.571344
 30
0.0
 40
1.000000
 50
90.0
 51
177.828959
  0
ARC
  8
0
  6
BYLAYER
 62
     1
 10
323.210631
 20
-264.571344
 30
0.0
 40
1.000000
 50
270.0
 51
357.828959
  0
LINE
  8
0
  6
BYLAYER
 62
     1
 10
315.378840
 20
-468.831461
 30
0.0
 11
320.500160
 21
-463.710141
 31
0.0
  0
ARC
  8
0
  6
BYLAYER
 62
     1
 10
318.378840
 20
-461.588821
 30
0.0
 40
3.0
 50
315.000000
 51
360.000000
  0
LINE
  8
0
  6
BYLAYER
 62
     1
 10
400.356364
 20
-543.556407
 30
0.0
 11
395.226560
 21
-548.679181
 31
0.0
  0
ARC
  8
0
  6
BYLAYER
 62
     1
 10
402.476229
 20
-545.679181
 30
0.0
 40
3.0
 50
90.0
 51
134.960712
  0
LINE
  8
0
  6
BYLAYER
 62
     1
 10
396.719367
 20
-541.924440
 30
0.0
 11
396.719367
 21
-538.885181
 31
0.0
  0
LINE
  8
0
  6
BYLAYER
 62
     1
 10
402.878840
 20
-537.885181
 30
0.0
 11
402.878840
 21
-530.679181
 31
0.0
  0
LINE
  8
0
  6
BYLAYER
 62
     1
 10
580.378840
 20
-548.679181
 30
0.0
 11
574.331206
 21
-542.631547
 31
0.0
  0
ARC
  8
0
  6
BYLAYER
 62
     1
 10
547.605480
 20
-538.885181
 30
0.0
 40
1.000000
 50
90.0
 51
180.0
  0
ARC
  8
0
  6
BYLAYER
 62
     1
 10
545.605480
 20
-538.885181
 30
0.0
 40
1.000000
 50
270.0
 51
360.0
  0
LINE
  8
0
  6
BYLAYER
 62
     1
 10
547.605480
 20
-537.885181
 30
0.0
 11
573.038313
 21
-537.885181
 31
0.0
  0
ARC
  8
0
  6
BYLAYER
 62
     1
 10
573.038313
 20
-538.885181
 30
0.0
 40
1.000000
 50
0.0
 51
90.0
  0
LINE
  8
0
  6
BYLAYER
 62
     1
 10
570.401316
 20
-543.556407
 30
0.0
 11
575.531120
 21
-548.679181
 31
0.0
  0
ARC
  8
0
  6
BYLAYER
 62
     1
 10
568.281451
 20
-545.679181
 30
0.0
 40
3.000000
 50
45.039288
 51
90.000000
  0
LINE
  8
0
  6
BYLAYER
 62
     1
 10
574.038313
 20
-541.924440
 30
0.0
 11
574.038313
 21
-538.885181
 31
0.0
  0
ARC
  8
0
  6
BYLAYER
 62
     1
 10
575.038313
 20
-541.924440
 30
0.0
 40
1.0
 50
180.000000
 51
225.000000
  0
LINE
  8
0
  6
BYLAYER
 62
     1
 10
567.878840
 20
-537.885181
 30
0.0
 11
567.878840
 21
-530.679181
 31
0.0
  0
LINE
  8
0
  6
BYLAYER
 62
     1
 10
390.378840
 20
-148.679181
 30
0.0
 11
396.426474
 21
-154.726815
 31
0.0
  0
LINE
  8
0
  6
BYLAYER
 62
     1
 10
400.356364
 20
-153.801955
 30
0.0
 11
395.226560
 21
-148.679181
 31
0.0
  0
LINE
  8
0
  6
BYLAYER
 62
     1
 10
580.378840
 20
-148.679181
 30
0.0
 11
574.331206
 21
-154.726815
 31
0.0
  0
LINE
  8
0
  6
BYLAYER
 62
     1
 10
570.401316
 20
-153.801955
 30
0.0
 11
575.531120
 21
-148.679181
 31
0.0
  0
ARC
  8
0
  6
BYLAYER
 62
     1
 10
568.281451
 20
-151.679181
 30
0.0
 40
3.000000
 50
270.0
 51
314.960712
  0
ARC
  8
0
  6
BYLAYER
 62
     1
 10
614.480471
 20
-230.363025
 30
0.0
 40
3.000000
 50
260.000000
 51
366.907950
  0
LINE
  8
0
  6
BYLAYER
 62
     1
 10
655.378840
 20
-158.526901
 30
0.0
 11
645.531120
 21
-148.679181
 31
0.0
  0
LINE
  8
0
  6
BYLAYER
 62
     1
 10
315.378840
 20
-158.526901
 30
0.0
 11
325.226560
 21
-148.679181
 31
0.0
  0
LINE
  8
0
  6
BYLAYER
 62
     1
 10
315.378840
 20
-538.831461
 30
0.0
 11
325.226560
 21
-548.679181
 31
0.0
  0
LINE
  8
0
  6
BYLAYER
 62
     1
 10
651.270160
 20
-542.940141
 30
0.0
 11
645.531120
 21
-548.679181
 31
0.0
  0
ARC
  8
0
  6
BYLAYER
 62
     1
 10
649.148840
 20
-540.818821
 30
0.0
 40
3.0
 50
315.000000
 51
360.000000
  0
LINE
  8
0
  6
BYLAYER
 62
     1
 10
353.378840
 20
-283.679181
 30
0.0
 11
335.378840
 21
-283.679181
 31
0.0
  0
ARC
  8
0
  6
BYLAYER
 62
     1
 10
335.378840
 20
-281.679181
 30
0.0
 40
2.0
 50
180.000000
 51
270.000000
  0
LINE
  8
0
  6
BYLAYER
 62
     1
 10
353.378840
 20
-287.679181
 30
0.0
 11
335.378840
 21
-287.679181
 31
0.0
  0
ARC
  8
0
  6
BYLAYER
 62
     1
 10
335.378840
 20
-289.679181
 30
0.0
 40
2.000000
 50
90.0
 51
180.0
  0
ARC
  8
0
  6
BYLAYER
 62
     1
 10
353.378840
 20
-285.679181
 30
0.0
 40
2.000000
 50
270.0
 51
360.0
  0
ARC
  8
0
  6
BYLAYER
 62
     1
 10
353.378840
 20
-285.679181
 30
0.0
 40
2.000000
 50
0.0
 51
90.0
  0
ARC
  8
0
  6
BYLAYER
 62
     1
 10
403.378840
 20
-176.679181
 30
0.0
 40
10.000000
 50
0.0
 51
90.0
  0
LINE
  8
0
  6
BYLAYER
 62
     1
 10
413.378840
 20
-176.679181
 30
0.0
 11
413.378840
 21
-236.679181
 31
0.0
  0
LINE
  8
0
  6
BYLAYER
 62
     1
 10
438.378840
 20
-181.679181
 30
0.0
 11
415.378840
 21
-181.679181
 31
0.0
  0
ARC
  8
0
  6
BYLAYER
 62
     1
 10
415.378840
 20
-183.679181
 30
0.0
 40
2.000000
 50
90.0
 51
180.0
  0
ARC
  8
0
  6
BYLAYER
 62
     1
 10
438.378840
 20
-179.679181
 30
0.0
 40
2.000000
 50
270.0
 51
360.0
  0
LINE
  8
0
  6
BYLAYER
 62
     1
 10
438.378840
 20
-185.679181
 30
0.0
 11
415.378840
 21
-185.679181
 31
0.0
  0
ARC
  8
0
  6
BYLAYER
 62
     1
 10
415.378840
 20
-183.679181
 30
0.0
 40
2.000000
 50
180.000000
 51
270.000000
  0
ARC
  8
0
  6
BYLAYER
 62
     1
 10
438.378840
 20
-187.679181
 30
0.0
 40
2.000000
 50
0.0
 51
90.0
  0
LINE
  8
0
  6
BYLAYER
 62
     1
 10
440.378840
 20
-179.679181
 30
0.0
 11
440.378840
 21
-169.679181
 31
0.0
  0
ARC
  8
0
  6
BYLAYER
 62
     1
 10
415.378840
 20
-199.679181
 30
0.0
 40
2.000000
 50
180.000000
 51
270.000000
  0
LINE
  8
0
  6
BYLAYER
 62
     1
 10
438.378840
 20
-197.679181
 30
0.0
 11
415.378840
 21
-197.679181
 31
0.0
  0
ARC
  8
0
  6
BYLAYER
 62
     1
 10
415.378840
 20
-199.679181
 30
0.0
 40
2.000000
 50
90.0
 51
180.0
  0
ARC
  8
0
  6
BYLAYER
 62
     1
 10
438.378840
 20
-195.679181
 30
0.0
 40
2.000000
 50
270.0
 51
360.0
  0
LINE
  8
0
  6
BYLAYER
 62
     1
 10
440.378840
 20
-195.679181
 30
0.0
 11
440.378840
 21
-187.679181
 31
0.0
  0
ARC
  8
0
  6
BYLAYER
 62
     1
 10
335.378840
 20
-265.679181
 30
0.0
 40
2.0
 50
180.000000
 51
270.000000
  0
ARC
  8
0
  6
BYLAYER
 62
     1
 10
335.378840
 20
-273.679181
 30
0.0
 40
2.0
 50
90.0
 51
180.0
  0
LINE
  8
0
  6
BYLAYER
 62
     1
 10
617.378840
 20
-283.679181
 30
0.0
 11
635.378840
 21
-283.679181
 31
0.0
  0
ARC
  8
0
  6
BYLAYER
 62
     1
 10
635.378840
 20
-281.679181
 30
0.0
 40
2.0
 50
270.0
 51
360.0
  0
LINE
  8
0
  6
BYLAYER
 62
     1
 10
617.378840
 20
-287.679181
 30
0.0
 11
635.378840
 21
-287.679181
 31
0.0
  0
ARC
  8
0
  6
BYLAYER
 62
     1
 10
635.378840
 20
-289.679181
 30
0.0
 40
2.000000
 50
0.0
 51
90.0
  0
ARC
  8
0
  6
BYLAYER
 62
     1
 10
617.378840
 20
-285.679181
 30
0.0
 40
2.000000
 50
180.000000
 51
270.000000
  0
ARC
  8
0
  6
BYLAYER
 62
     1
 10
617.378840
 20
-285.679181
 30
0.0
 40
2.000000
 50
90.0
 51
180.0
  0
ARC
  8
0
  6
BYLAYER
 62
     1
 10
635.378840
 20
-265.679181
 30
0.0
 40
2.0
 50
270.0
 51
360.0
  0
ARC
  8
0
  6
BYLAYER
 62
     1
 10
635.378840
 20
-273.679181
 30
0.0
 40
2.0
 50
0.0
 51
90.0
  0
LINE
  8
0
  6
BYLAYER
 62
     1
 10
415.378840
 20
-201.679181
 30
0.0
 11
522.417359
 21
-201.679181
 31
0.0
  0
LINE
  8
0
  6
BYLAYER
 62
     1
 10
559.857895
 20
-223.777871
 30
0.0
 11
613.959526
 21
-233.317449
 31
0.0
  0
ARC
  8
0
  6
BYLAYER
 62
     1
 10
535.378840
 20
-378.679181
 30
0.0
 40
207.000000
 50
167.381273
 51
192.618727
  0
ARC
  8
0
  6
BYLAYER
 62
     1
 10
435.378840
 20
-378.679181
 30
0.0
 40
207.0
 50
347.381273
 51
372.618727
  0
ARC
  8
0
  6
BYLAYER
 62
     1
 10
485.378840
 20
-328.679181
 30
0.0
 40
207.0
 50
257.381273
 51
282.618727
  0
ARC
  8
0
  6
BYLAYER
 62
     1
 10
535.378840
 20
-182.679181
 30
0.0
 40
23.000000
 50
235.698847
 51
270.000000
  0
LINE
  8
0
  6
BYLAYER
 62
     1
 10
535.378840
 20
-205.679181
 30
0.0
 11
547.378840
 21
-205.679181
 31
0.0
  0
ARC
  8
0
  6
BYLAYER
 62
     1
 10
547.378840
 20
-195.679181
 30
0.0
 40
10.000000
 50
270.0
 51
360.0
  0
ARC
  8
0
  6
BYLAYER
 62
     1
 10
336.378840
 20
-233.871645
 30
0.0
 40
3.000000
 50
180.000000
 51
280.0
  0
ARC
  8
0
  6
BYLAYER
 62
     1
 10
560.378840
 20
-220.823448
 30
0.0
 40
3.000000
 50
180.000000
 51
260.000000
  0
LINE
  8
0
  6
BYLAYER
 62
     1
 10
410.899785
 20
-223.777871
 30
0.0
 11
336.899785
 21
-236.826068
 31
0.0
  0
ARC
  8
0
  6
BYLAYER
 62
     1
 10
410.378840
 20
-220.823448
 30
0.0
 40
3.0
 50
280.0
 51
360.0
  0
LINE
  8
0
  6
BYLAYER
 62
     1
 10
402.878840
 20
-160.873181
 30
0.0
 11
397.719367
 21
-160.873181
 31
0.0
  0
LINE
  8
0
  6
BYLAYER
 62
     1
 10
396.719367
 20
-155.433922
 30
0.0
 11
396.719367
 21
-159.873181
 31
0.0
  0
ARC
  8
0
  6
BYLAYER
 62
     1
 10
395.719367
 20
-155.433922
 30
0.0
 40
1.0
 50
0.0
 51
45.0
  0
ARC
  8
0
  6
BYLAYER
 62
     1
 10
397.719367
 20
-159.873181
 30
0.0
 40
1.000000
 50
180.000000
 51
270.000000
  0
LINE
  8
0
  6
BYLAYER
 62
     1
 10
402.878840
 20
-160.873181
 30
0.0
 11
402.878840
 21
-166.679181
 31
0.0
  0
LINE
  8
0
  6
BYLAYER
 62
     1
 10
567.878840
 20
-160.873181
 30
0.0
 11
567.878840
 21
-166.679181
 31
0.0
  0
LINE
  8
0
  6
BYLAYER
 62
     1
 10
567.878840
 20
-160.873181
 30
0.0
 11
573.038313
 21
-160.873181
 31
0.0
  0
LINE
  8
0
  6
BYLAYER
 62
     1
 10
574.038313
 20
-155.433922
 30
0.0
 11
574.038313
 21
-159.873181
 31
0.0
  0
ARC
  8
0
  6
BYLAYER
 62
     1
 10
575.038313
 20
-155.433922
 30
0.0
 40
1.0
 50
135.000000
 51
180.000000
  0
ARC
  8
0
  6
BYLAYER
 62
     1
 10
573.038313
 20
-159.873181
 30
0.0
 40
1.000000
 50
270.0
 51
360.0
  0
LINE
  8
0
  6
BYLAYER
 62
     1
 10
615.378840
 20
-204.591181
 30
0.0
 11
561.426840
 21
-204.591181
 31
0.0
  0
ARC
  8
0
  6
BYLAYER
 62
     1
 10
615.378840
 20
-202.591181
 30
0.0
 40
2.000000
 50
270.0
 51
360.0
  0
ARC
  8
0
  6
BYLAYER
 62
     1
 10
561.426840
 20
-201.591181
 30
0.0
 40
3.0
 50
180.000000
 51
270.000000
  0
LINE
  8
0
  6
BYLAYER
 62
     1
 10
632.894840
 20
-199.285181
 30
0.0
 11
619.378840
 21
-199.285181
 31
0.0
  0
ARC
  8
0
  6
BYLAYER
 62
     1
 10
632.894840
 20
-196.285181
 30
0.0
 40
3.0
 50
270.0
 51
360.0
  0
LINE
  8
0
  6
BYLAYER
 62
     1
 10
617.378840
 20
-201.285181
 30
0.0
 11
617.378840
 21
-234.934358
 31
0.0
  0
ARC
  8
0
  6
BYLAYER
 62
     1
 10
619.378840
 20
-201.285181
 30
0.0
 40
2.0
 50
90.0
 51
180.0
  0
LINE
  8
0
  6
BYLAYER
 62
     1
 10
383.378840
 20
-251.679181
 30
0.0
 11
335.378840
 21
-251.679181
 31
0.0
  0
ARC
  8
0
  6
BYLAYER
 62
     1
 10
335.378840
 20
-249.679181
 30
0.0
 40
2.0
 50
180.000000
 51
270.000000
  0
LINE
  8
0
  6
BYLAYER
 62
     1
 10
383.378840
 20
-255.679181
 30
0.0
 11
335.378840
 21
-255.679181
 31
0.0
  0
ARC
  8
0
  6
BYLAYER
 62
     1
 10
335.378840
 20
-257.679181
 30
0.0
 40
2.0
 50
90.0
 51
180.0
  0
ARC
  8
0
  6
BYLAYER
 62
     1
 10
383.378840
 20
-253.679181
 30
0.0
 40
2.000000
 50
0.0
 51
90.0
  0
ARC
  8
0
  6
BYLAYER
 62
     1
 10
383.378840
 20
-253.679181
 30
0.0
 40
2.000000
 50
270.0
 51
360.0
  0
LINE
  8
0
  6
BYLAYER
 62
     1
 10
587.378840
 20
-251.679181
 30
0.0
 11
635.378840
 21
-251.679181
 31
0.0
  0
ARC
  8
0
  6
BYLAYER
 62
     1
 10
635.378840
 20
-249.679181
 30
0.0
 40
2.0
 50
270.0
 51
360.0
  0
LINE
  8
0
  6
BYLAYER
 62
     1
 10
587.378840
 20
-255.679181
 30
0.0
 11
635.378840
 21
-255.679181
 31
0.0
  0
ARC
  8
0
  6
BYLAYER
 62
     1
 10
635.378840
 20
-257.679181
 30
0.0
 40
2.0
 50
0.0
 51
90.0
  0
ARC
  8
0
  6
BYLAYER
 62
     1
 10
587.378840
 20
-253.679181
 30
0.0
 40
2.0
 50
90.0
 51
180.0
  0
ARC
  8
0
  6
BYLAYER
 62
     1
 10
587.378840
 20
-253.679181
 30
0.0
 40
2.0
 50
180.000000
 51
270.000000
  0
LINE
  8
0
  6
BYLAYER
 62
     1
 10
365.878840
 20
-267.679181
 30
0.0
 11
335.378840
 21
-267.679181
 31
0.0
  0
LINE
  8
0
  6
BYLAYER
 62
     1
 10
365.878840
 20
-271.679181
 30
0.0
 11
335.378840
 21
-271.679181
 31
0.0
  0
ARC
  8
0
  6
BYLAYER
 62
     1
 10
365.878840
 20
-269.679181
 30
0.0
 40
2.000000
 50
270.0
 51
360.0
  0
ARC
  8
0
  6
BYLAYER
 62
     1
 10
365.878840
 20
-269.679181
 30
0.0
 40
2.000000
 50
0.0
 51
90.0
  0
LINE
  8
0
  6
BYLAYER
 62
     1
 10
604.878840
 20
-267.679181
 30
0.0
 11
635.378840
 21
-267.679181
 31
0.0
  0
LINE
  8
0
  6
BYLAYER
 62
     1
 10
604.878840
 20
-271.679181
 30
0.0
 11
635.378840
 21
-271.679181
 31
0.0
  0
ARC
  8
0
  6
BYLAYER
 62
     1
 10
604.878840
 20
-269.679181
 30
0.0
 40
2.000000
 50
180.000000
 51
270.000000
  0
ARC
  8
0
  6
BYLAYER
 62
     1
 10
604.878840
 20
-269.679181
 30
0.0
 40
2.000000
 50
90.0
 51
180.0
  0
LINE
  8
0
  6
BYLAYER
 62
     1
 10
555.378840
 20
-213.679181
 30
0.0
 11
415.378840
 21
-213.679181
 31
0.0
  0
ARC
  8
0
  6
BYLAYER
 62
     1
 10
555.378840
 20
-215.679181
 30
0.0
 40
2.000000
 50
0.0
 51
90.0
  0
ARC
  8
0
  6
BYLAYER
 62
     1
 10
415.378840
 20
-215.679181
 30
0.0
 40
2.000000
 50
90.0
 51
180.0
  0
LINE
  8
0
  6
BYLAYER
 62
     1
 10
555.378840
 20
-217.679181
 30
0.0
 11
415.378840
 21
-217.679181
 31
0.0
  0
ARC
  8
0
  6
BYLAYER
 62
     1
 10
555.378840
 20
-215.679181
 30
0.0
 40
2.000000
 50
270.0
 51
360.0
  0
ARC
  8
0
  6
BYLAYER
 62
     1
 10
415.378840
 20
-215.679181
 30
0.0
 40
2.000000
 50
180.000000
 51
270.000000
  0
LINE
  8
0
  6
BYLAYER
 62
     1
 10
460.378840
 20
-211.679181
 30
0.0
 11
460.378840
 21
-211.679181
 31
0.0
  0
LINE
  8
0
  6
BYLAYER
 62
     1
 10
655.378840
 20
-236.179181
 30
0.0
 11
637.378840
 21
-236.179181
 31
0.0
  0
LINE
  8
0
  6
BYLAYER
 62
     1
 10
622.117160
 20
-217.430856
 30
0.0
 11
634.535848
 21
-216.780020
 31
0.0
  0
ARC
  8
0
  6
BYLAYER
 62
     1
 10
632.894840
 20
-213.861905
 30
0.0
 40
3.000000
 50
273.000000
 51
360.000000
  0
ARC
  8
0
  6
BYLAYER
 62
     1
 10
622.378840
 20
-222.424004
 30
0.0
 40
5.0
 50
93.000000
 51
180.000000
  0
ARC
  8
0
  6
BYLAYER
 62
     1
 10
634.378840
 20
-243.574230
 30
0.0
 40
3.0
 50
0.0
 51
87.0
  0
LINE
  8
0
  6
BYLAYER
 62
     1
 10
622.117160
 20
-239.927506
 30
0.0
 11
634.535848
 21
-240.578342
 31
0.0
  0
ARC
  8
0
  6
BYLAYER
 62
     1
 10
622.378840
 20
-234.934358
 30
0.0
 40
5.000000
 50
180.000000
 51
267.0
  0
CIRCLE
  8
0
  6
BYLAYER
 62
     1
 10
485.378840
 20
-378.679181
 30
0.0
 40
90.0
  0
CIRCLE
  8
0
  6
BYLAYER
 62
     1
 10
485.378840
 20
-378.679181
 30
0.0
 40
60.000000
  0
CIRCLE
  8
0
  6
BYLAYER
 62
     1
 10
485.378840
 20
-378.679181
 30
0.0
 40
67.0
  0
CIRCLE
  8
0
  6
BYLAYER
 62
     1
 10
485.378840
 20
-378.679181
 30
0.0
 40
82.500000
  0
ARC
  8
0
  6
BYLAYER
 62
     1
 10
485.378840
 20
-378.679181
 30
0.0
 40
125.000000
 50
29.268939
 51
375.731061
  0
ARC
  8
0
  6
BYLAYER
 62
     1
 10
597.037650
 20
-316.098751
 30
0.0
 40
3.000000
 50
209.268939
 51
248.424116
  0
ARC
  8
0
  6
BYLAYER
 62
     1
 10
427.198725
 20
-298.578778
 30
0.0
 40
3.000025
 50
224.999996
 51
305.992912
  0
ARC
  8
0
  6
BYLAYER
 62
     1
 10
485.378840
 20
-378.679181
 30
0.0
 40
96.000008
 50
99.007595
 51
125.992374
  0
ARC
  8
0
  6
BYLAYER
 62
     1
 10
469.878840
 20
-280.900067
 30
0.0
 40
3.000015
 50
279.008146
 51
360.000003
  0
LINE
  8
0
  6
BYLAYER
 62
     1
 10
416.413874
 20
-292.036603
 30
0.0
 11
425.077387
 21
-300.700116
 31
0.0
  0
ARC
  8
0
  6
BYLAYER
 62
     1
 10
418.535212
 20
-289.915265
 30
0.0
 40
3.000025
 50
95.764771
 51
224.999996
  0
ARC
  8
0
  6
BYLAYER
 62
     1
 10
408.842097
 20
-193.903363
 30
0.0
 40
93.499985
 50
275.764899
 51
309.235175
  0
LINE
  8
0
  6
BYLAYER
 62
     1
 10
472.878840
 20
-268.647992
 30
0.0
 11
472.878840
 21
-280.900067
 31
0.0
  0
ARC
  8
0
  6
BYLAYER
 62
     1
 10
469.878840
 20
-268.647992
 30
0.0
 40
3.000005
 50
0.0
 51
129.235280
  0
ARC
  8
0
  6
BYLAYER
 62
     1
 10
408.842097
 20
-193.903363
 30
0.0
 40
87.499977
 50
268.731083
 51
316.268966
  0
ARC
  8
0
  6
BYLAYER
 62
     1
 10
387.599748
 20
-363.179197
 30
0.0
 40
3.000025
 50
270.0
 51
350.992916
  0
ARC
  8
0
  6
BYLAYER
 62
     1
 10
485.378840
 20
-378.679181
 30
0.0
 40
96.000008
 50
144.007595
 51
170.992374
  0
ARC
  8
0
  6
BYLAYER
 62
     1
 10
405.278410
 20
-320.499062
 30
0.0
 40
3.000015
 50
324.008146
 51
405.000003
  0
LINE
  8
0
  6
BYLAYER
 62
     1
 10
375.347690
 20
-366.179221
 30
0.0
 11
387.599748
 21
-366.179221
 31
0.0
  0
ARC
  8
0
  6
BYLAYER
 62
     1
 10
375.347690
 20
-363.179197
 30
0.0
 40
3.000025
 50
140.764775
 51
270.000000
  0
ARC
  8
0
  6
BYLAYER
 62
     1
 10
300.602956
 20
-302.142597
 30
0.0
 40
93.499985
 50
320.764899
 51
354.235175
  0
LINE
  8
0
  6
BYLAYER
 62
     1
 10
398.736205
 20
-309.714216
 30
0.0
 11
407.399731
 21
-318.377741
 31
0.0
  0
ARC
  8
0
  6
BYLAYER
 62
     1
 10
396.614885
 20
-311.835536
 30
0.0
 40
3.000005
 50
45.0
 51
174.235280
  0
ARC
  8
0
  6
BYLAYER
 62
     1
 10
300.602956
 20
-302.142597
 30
0.0
 40
87.499977
 50
313.731083
 51
361.268966
  0
ARC
  8
0
  6
BYLAYER
 62
     1
 10
405.278437
 20
-436.859296
 30
0.0
 40
3.000025
 50
314.999996
 51
395.992912
  0
ARC
  8
0
  6
BYLAYER
 62
     1
 10
485.378840
 20
-378.679181
 30
0.0
 40
96.000008
 50
189.007595
 51
215.992374
  0
ARC
  8
0
  6
BYLAYER
 62
     1
 10
387.599726
 20
-394.179181
 30
0.0
 40
3.000015
 50
9.008146
 51
90.000003
  0
LINE
  8
0
  6
BYLAYER
 62
     1
 10
398.736262
 20
-447.644147
 30
0.0
 11
407.399775
 21
-438.980634
 31
0.0
  0
ARC
  8
0
  6
BYLAYER
 62
     1
 10
396.614924
 20
-445.522809
 30
0.0
 40
3.000025
 50
185.764771
 51
314.999996
  0
ARC
  8
0
  6
BYLAYER
 62
     1
 10
300.603022
 20
-455.215924
 30
0.0
 40
93.499985
 50
5.764899
 51
39.235175
  0
LINE
  8
0
  6
BYLAYER
 62
     1
 10
375.347651
 20
-391.179181
 30
0.0
 11
387.599726
 21
-391.179181
 31
0.0
  0
ARC
  8
0
  6
BYLAYER
 62
     1
 10
375.347651
 20
-394.179181
 30
0.0
 40
3.000005
 50
90.0
 51
219.23528
  0
ARC
  8
0
  6
BYLAYER
 62
     1
 10
300.603022
 20
-455.215924
 30
0.0
 40
87.499977
 50
358.731083
 51
406.268966
  0
ARC
  8
0
  6
BYLAYER
 62
     1
 10
469.878856
 20
-476.458273
 30
0.0
 40
3.000025
 50
0.0
 51
80.992916
  0
ARC
  8
0
  6
BYLAYER
 62
     1
 10
485.378840
 20
-378.679181
 30
0.0
 40
96.000008
 50
234.007595
 51
260.992374
  0
ARC
  8
0
  6
BYLAYER
 62
     1
 10
427.198721
 20
-458.779611
 30
0.0
 40
3.000015
 50
54.008146
 51
135.000003
  0
LINE
  8
0
  6
BYLAYER
 62
     1
 10
472.878880
 20
-488.710331
 30
0.0
 11
472.878880
 21
-476.458273
 31
0.0
  0
ARC
  8
0
  6
BYLAYER
 62
     1
 10
469.878856
 20
-488.710331
 30
0.0
 40
3.000025
 50
230.764775
 51
360.0
  0
ARC
  8
0
  6
BYLAYER
 62
     1
 10
408.842256
 20
-563.455065
 30
0.0
 40
93.499985
 50
50.764899
 51
84.235175
  0
LINE
  8
0
  6
BYLAYER
 62
     1
 10
416.413875
 20
-465.321816
 30
0.0
 11
425.077400
 21
-456.658290
 31
0.0
  0
ARC
  8
0
  6
BYLAYER
 62
     1
 10
418.535195
 20
-467.443136
 30
0.0
 40
3.000005
 50
135.000000
 51
264.235280
  0
ARC
  8
0
  6
BYLAYER
 62
     1
 10
408.842256
 20
-563.455065
 30
0.0
 40
87.499977
 50
43.731083
 51
91.268966
  0
ARC
  8
0
  6
BYLAYER
 62
     1
 10
543.558955
 20
-458.779584
 30
0.0
 40
3.000025
 50
44.999996
 51
125.992912
  0
ARC
  8
0
  6
BYLAYER
 62
     1
 10
485.378840
 20
-378.679181
 30
0.0
 40
96.000008
 50
279.007595
 51
305.992374
  0
ARC
  8
0
  6
BYLAYER
 62
     1
 10
500.878840
 20
-476.458295
 30
0.0
 40
3.000015
 50
99.008146
 51
180.000003
  0
LINE
  8
0
  6
BYLAYER
 62
     1
 10
554.343806
 20
-465.321759
 30
0.0
 11
545.680293
 21
-456.658246
 31
0.0
  0
ARC
  8
0
  6
BYLAYER
 62
     1
 10
552.222468
 20
-467.443097
 30
0.0
 40
3.000025
 50
275.764771
 51
404.999996
  0
ARC
  8
0
  6
BYLAYER
 62
     1
 10
561.915583
 20
-563.454999
 30
0.0
 40
93.499985
 50
95.764899
 51
129.235175
  0
LINE
  8
0
  6
BYLAYER
 62
     1
 10
497.878840
 20
-488.710370
 30
0.0
 11
497.878840
 21
-476.458295
 31
0.0
  0
ARC
  8
0
  6
BYLAYER
 62
     1
 10
500.878840
 20
-488.710370
 30
0.0
 40
3.000005
 50
180.000000
 51
309.235280
  0
ARC
  8
0
  6
BYLAYER
 62
     1
 10
561.915583
 20
-563.454999
 30
0.0
 40
87.499977
 50
88.731083
 51
136.268966
  0
ARC
  8
0
  6
BYLAYER
 62
     1
 10
583.157932
 20
-394.179165
 30
0.0
 40
3.000025
 50
90.0
 51
170.992916
  0
ARC
  8
0
  6
BYLAYER
 62
     1
 10
485.378840
 20
-378.679181
 30
0.0
 40
96.000008
 50
324.007595
 51
350.992374
  0
ARC
  8
0
  6
BYLAYER
 62
     1
 10
565.479270
 20
-436.859300
 30
0.0
 40
3.000015
 50
144.008146
 51
225.000003
  0
LINE
  8
0
  6
BYLAYER
 62
     1
 10
595.409990
 20
-391.179141
 30
0.0
 11
583.157932
 21
-391.179141
 31
0.0
  0
ARC
  8
0
  6
BYLAYER
 62
     1
 10
595.409990
 20
-394.179165
 30
0.0
 40
3.000025
 50
320.764775
 51
450.0
  0
ARC
  8
0
  6
BYLAYER
 62
     1
 10
670.154724
 20
-455.215765
 30
0.0
 40
93.499985
 50
140.764899
 51
174.235175
  0
LINE
  8
0
  6
BYLAYER
 62
     1
 10
572.021475
 20
-447.644146
 30
0.0
 11
563.357949
 21
-438.980621
 31
0.0
  0
ARC
  8
0
  6
BYLAYER
 62
     1
 10
574.142795
 20
-445.522826
 30
0.0
 40
3.000005
 50
225.000000
 51
354.235280
  0
ARC
  8
0
  6
BYLAYER
 62
     1
 10
670.154724
 20
-455.215765
 30
0.0
 40
87.499977
 50
133.731083
 51
181.268966
  0
ARC
  8
0
  6
BYLAYER
 62
     1
 10
565.479243
 20
-320.499066
 30
0.0
 40
3.000025
 50
134.999996
 51
215.992912
  0
ARC
  8
0
  6
BYLAYER
 62
     1
 10
485.378840
 20
-378.679181
 30
0.0
 40
96.000008
 50
9.007595
 51
35.992374
  0
ARC
  8
0
  6
BYLAYER
 62
     1
 10
583.157954
 20
-363.179181
 30
0.0
 40
3.000015
 50
189.008146
 51
270.000003
  0
LINE
  8
0
  6
BYLAYER
 62
     1
 10
572.021418
 20
-309.714215
 30
0.0
 11
563.357905
 21
-318.377728
 31
0.0
  0
ARC
  8
0
  6
BYLAYER
 62
     1
 10
574.142756
 20
-311.835553
 30
0.0
 40
3.000025
 50
5.764771
 51
134.999996
  0
ARC
  8
0
  6
BYLAYER
 62
     1
 10
670.154658
 20
-302.142438
 30
0.0
 40
93.499985
 50
185.764899
 51
219.235175
  0
LINE
  8
0
  6
BYLAYER
 62
     1
 10
595.410029
 20
-366.179181
 30
0.0
 11
583.157954
 21
-366.179181
 31
0.0
  0
ARC
  8
0
  6
BYLAYER
 62
     1
 10
595.410029
 20
-363.179181
 30
0.0
 40
3.000005
 50
270.0
 51
399.23528
  0
ARC
  8
0
  6
BYLAYER
 62
     1
 10
670.154658
 20
-302.142438
 30
0.0
 40
87.499977
 50
178.731083
 51
226.268966
  0
ARC
  8
0
  6
BYLAYER
 62
     1
 10
500.878824
 20
-280.900089
 30
0.0
 40
3.000025
 50
180.000000
 51
260.992916
  0
ARC
  8
0
  6
BYLAYER
 62
     1
 10
485.378840
 20
-378.679181
 30
0.0
 40
96.000008
 50
54.007595
 51
80.992374
  0
ARC
  8
0
  6
BYLAYER
 62
     1
 10
543.558959
 20
-298.578751
 30
0.0
 40
3.000015
 50
234.008146
 51
315.000003
  0
LINE
  8
0
  6
BYLAYER
 62
     1
 10
497.878800
 20
-268.648031
 30
0.0
 11
497.878800
 21
-280.900089
 31
0.0
  0
ARC
  8
0
  6
BYLAYER
 62
     1
 10
500.878824
 20
-268.648031
 30
0.0
 40
3.000025
 50
50.764775
 51
180.000000
  0
ARC
  8
0
  6
BYLAYER
 62
     1
 10
561.915424
 20
-193.903297
 30
0.0
 40
93.499985
 50
230.764899
 51
264.235175
  0
LINE
  8
0
  6
BYLAYER
 62
     1
 10
554.343805
 20
-292.036546
 30
0.0
 11
545.680280
 21
-300.700072
 31
0.0
  0
ARC
  8
0
  6
BYLAYER
 62
     1
 10
552.222485
 20
-289.915226
 30
0.0
 40
3.000005
 50
315.000000
 51
444.235280
  0
ARC
  8
0
  6
BYLAYER
 62
     1
 10
561.915424
 20
-193.903297
 30
0.0
 40
87.499977
 50
223.731083
 51
271.268966
  0
ARC
  8
0
  6
BYLAYER
 62
     1
 10
589.315253
 20
-335.627309
 30
0.0
 40
18.000000
 50
336.575884
 51
428.424116
  0
ARC
  8
0
  6
BYLAYER
 62
     1
 10
608.584588
 20
-343.975526
 30
0.0
 40
3.000000
 50
156.575884
 51
195.731061
  0
LINE
  8
0
  6
BYLAYER
 62
     1
 10
416.190438
 20
-517.380172
 30
0.0
 11
346.677849
 21
-447.867583
 31
0.0
  0
LINE
  8
0
  6
BYLAYER
 62
     1
 10
534.531663
 20
-525.679181
 30
0.0
 11
436.226017
 21
-525.679181
 31
0.0
  0
LINE
  8
0
  6
BYLAYER
 62
     1
 10
624.079831
 20
-447.867583
 30
0.0
 11
554.567242
 21
-517.380172
 31
0.0
  0
LINE
  8
0
  6
BYLAYER
 62
     1
 10
632.378840
 20
-329.526358
 30
0.0
 11
632.378840
 21
-427.832004
 31
0.0
  0
LINE
  8
0
  6
BYLAYER
 62
     1
 10
554.567242
 20
-239.978190
 30
0.0
 11
624.079831
 21
-309.490779
 31
0.0
  0
LINE
  8
0
  6
BYLAYER
 62
     1
 10
436.226017
 20
-231.679181
 30
0.0
 11
534.531663
 21
-231.679181
 31
0.0
  0
LINE
  8
0
  6
BYLAYER
 62
     1
 10
346.677849
 20
-309.490779
 30
0.0
 11
416.190438
 21
-239.978190
 31
0.0
  0
ARC
  8
0
  6
BYLAYER
 62
     1
 10
485.378840
 20
-378.679181
 30
0.0
 40
155.000000
 50
243.488541
 51
251.511459
  0
ARC
  8
0
  6
BYLAYER
 62
     1
 10
485.378840
 20
-378.679181
 30
0.0
 40
155.000000
 50
288.488541
 51
296.511459
  0
ARC
  8
0
  6
BYLAYER
 62
     1
 10
485.378840
 20
-378.679181
 30
0.0
 40
155.000000
 50
333.488541
 51
341.511459
  0
ARC
  8
0
  6
BYLAYER
 62
     1
 10
485.378840
 20
-378.679181
 30
0.0
 40
155.000000
 50
18.488541
 51
26.511459
  0
ARC
  8
0
  6
BYLAYER
 62
     1
 10
485.378840
 20
-378.679181
 30
0.0
 40
155.0
 50
63.488541
 51
71.511459
  0
ARC
  8
0
  6
BYLAYER
 62
     1
 10
485.378840
 20
-378.679181
 30
0.0
 40
155.0
 50
108.488541
 51
116.511459
  0
ARC
  8
0
  6
BYLAYER
 62
     1
 10
485.378840
 20
-378.679181
 30
0.0
 40
155.000000
 50
153.488541
 51
161.511459
  0
ARC
  8
0
  6
BYLAYER
 62
     1
 10
485.378840
 20
-378.679181
 30
0.0
 40
155.000000
 50
198.488541
 51
206.511459
  0
LINE
  8
0
  6
BYLAYER
 62
     1
 10
338.378840
 20
-427.832004
 30
0.0
 11
338.378840
 21
-329.526358
 31
0.0
  0
CIRCLE
  8
0
  6
BYLAYER
 62
     1
 10
485.378840
 20
-271.179181
 30
0.0
 40
5.125
  0
ARC
  8
0
  6
BYLAYER
 62
     1
 10
485.378840
 20
-271.179181
 30
0.0
 40
6.0
 50
352.999995
 51
636.999988
  0
CIRCLE
  8
0
  6
BYLAYER
 62
     1
 10
561.392819
 20
-302.665202
 30
0.0
 40
5.125
  0
ARC
  8
0
  6
BYLAYER
 62
     1
 10
561.392819
 20
-302.665202
 30
0.0
 40
6.0
 50
352.999995
 51
636.999988
  0
CIRCLE
  8
0
  6
BYLAYER
 62
     1
 10
409.364861
 20
-302.665202
 30
0.0
 40
5.125
  0
ARC
  8
0
  6
BYLAYER
 62
     1
 10
409.364861
 20
-302.665202
 30
0.0
 40
6.000000
 50
352.999995
 51
636.999988
  0
CIRCLE
  8
0
  6
BYLAYER
 62
     1
 10
377.878840
 20
-378.679181
 30
0.0
 40
5.125
  0
ARC
  8
0
  6
BYLAYER
 62
     1
 10
377.878840
 20
-378.679181
 30
0.0
 40
6.0
 50
352.999995
 51
636.999988
  0
CIRCLE
  8
0
  6
BYLAYER
 62
     1
 10
409.364861
 20
-454.693160
 30
0.0
 40
5.125
  0
ARC
  8
0
  6
BYLAYER
 62
     1
 10
409.364861
 20
-454.693160
 30
0.0
 40
6.000000
 50
352.999995
 51
636.999988
  0
CIRCLE
  8
0
  6
BYLAYER
 62
     1
 10
485.378840
 20
-486.179181
 30
0.0
 40
5.125
  0
ARC
  8
0
  6
BYLAYER
 62
     1
 10
485.378840
 20
-486.179181
 30
0.0
 40
6.0
 50
352.999995
 51
636.999988
  0
CIRCLE
  8
0
  6
BYLAYER
 62
     1
 10
561.392819
 20
-454.693160
 30
0.0
 40
5.125
  0
ARC
  8
0
  6
BYLAYER
 62
     1
 10
561.392819
 20
-454.693160
 30
0.0
 40
6.000000
 50
352.999995
 51
636.999988
  0
CIRCLE
  8
0
  6
BYLAYER
 62
     1
 10
592.878840
 20
-378.679181
 30
0.0
 40
5.125
  0
ARC
  8
0
  6
BYLAYER
 62
     1
 10
592.878840
 20
-378.679181
 30
0.0
 40
6.0
 50
352.999995
 51
636.999988
  0
ARC
  8
0
  6
BYLAYER
 62
     1
 10
462.256494
 20
-192.493407
 30
0.0
 40
4.041492
 50
270.0
 51
316.109984
  0
ARC
  8
0
  6
BYLAYER
 62
     1
 10
461.844453
 20
-192.097029
 30
0.0
 40
4.613237
 50
316.109984
 51
360.000000
  0
ARC
  8
0
  6
BYLAYER
 62
     1
 10
461.844453
 20
-192.097029
 30
0.0
 40
4.613237
 50
0.0
 51
43.890016
  0
ARC
  8
0
  6
BYLAYER
 62
     1
 10
462.256494
 20
-191.700652
 30
0.0
 40
4.041492
 50
43.890016
 51
90.000000
  0
ARC
  8
0
  6
BYLAYER
 62
     1
 10
462.256494
 20
-191.700616
 30
0.0
 40
4.041457
 50
90.0
 51
136.110087
  0
ARC
  8
0
  6
BYLAYER
 62
     1
 10
462.668573
 20
-192.097029
 30
0.0
 40
4.613254
 50
136.110087
 51
180.000000
  0
ARC
  8
0
  6
BYLAYER
 62
     1
 10
462.668573
 20
-192.097029
 30
0.0
 40
4.613254
 50
180.000000
 51
223.889913
  0
ARC
  8
0
  6
BYLAYER
 62
     1
 10
462.256494
 20
-192.493442
 30
0.0
 40
4.041457
 50
223.889913
 51
270.000000
  0
ARC
  8
0
  6
BYLAYER
 62
     1
 10
462.256494
 20
-190.916618
 30
0.0
 40
1.861645
 50
90.0
 51
140.793201
  0
ARC
  8
0
  6
BYLAYER
 62
     1
 10
463.703470
 20
-192.097029
 30
0.0
 40
3.729026
 50
140.793201
 51
180.0
  0
ARC
  8
0
  6
BYLAYER
 62
     1
 10
463.703448
 20
-192.097029
 30
0.0
 40
3.729004
 50
180.000000
 51
219.206869
  0
ARC
  8
0
  6
BYLAYER
 62
     1
 10
462.256494
 20
-193.277425
 30
0.0
 40
1.861650
 50
219.206869
 51
270.000000
  0
ARC
  8
0
  6
BYLAYER
 62
     1
 10
462.256494
 20
-193.277425
 30
0.0
 40
1.861650
 50
270.0
 51
320.793131
  0
ARC
  8
0
  6
BYLAYER
 62
     1
 10
460.809540
 20
-192.097029
 30
0.0
 40
3.729004
 50
320.793131
 51
360.0
  0
ARC
  8
0
  6
BYLAYER
 62
     1
 10
460.809517
 20
-192.097029
 30
0.0
 40
3.729026
 50
0.0
 51
39.206799
  0
ARC
  8
0
  6
BYLAYER
 62
     1
 10
462.256494
 20
-190.916618
 30
0.0
 40
1.861645
 50
39.206799
 51
90.000000
  0
LINE
  8
0
  6
BYLAYER
 62
     1
 10
448.469519
 20
-196.239030
 30
0.0
 11
448.469519
 21
-187.836659
 31
0.0
  0
LINE
  8
0
  6
BYLAYER
 62
     1
 10
448.469519
 20
-187.836659
 30
0.0
 11
451.885693
 21
-187.836659
 31
0.0
  0
LINE
  8
0
  6
BYLAYER
 62
     1
 10
451.885693
 20
-187.836659
 30
0.0
 11
453.025735
 21
-192.215376
 31
0.0
  0
LINE
  8
0
  6
BYLAYER
 62
     1
 10
448.469519
 20
-196.239030
 30
0.0
 11
450.520813
 21
-196.239030
 31
0.0
  0
LINE
  8
0
  6
BYLAYER
 62
     1
 10
450.520813
 20
-196.239030
 30
0.0
 11
450.520813
 21
-191.386967
 31
0.0
  0
LINE
  8
0
  6
BYLAYER
 62
     1
 10
452.138153
 20
-196.239030
 30
0.0
 11
450.520813
 21
-191.386967
 31
0.0
  0
LINE
  8
0
  6
BYLAYER
 62
     1
 10
457.581952
 20
-196.239030
 30
0.0
 11
457.581952
 21
-187.836659
 31
0.0
  0
LINE
  8
0
  6
BYLAYER
 62
     1
 10
457.581952
 20
-187.836659
 30
0.0
 11
454.165777
 21
-187.836659
 31
0.0
  0
LINE
  8
0
  6
BYLAYER
 62
     1
 10
454.165777
 20
-187.836659
 30
0.0
 11
453.025735
 21
-192.215376
 31
0.0
  0
LINE
  8
0
  6
BYLAYER
 62
     1
 10
457.581952
 20
-196.239030
 30
0.0
 11
455.530658
 21
-196.239030
 31
0.0
  0
LINE
  8
0
  6
BYLAYER
 62
     1
 10
455.530658
 20
-196.239030
 30
0.0
 11
455.530658
 21
-191.386967
 31
0.0
  0
LINE
  8
0
  6
BYLAYER
 62
     1
 10
453.913318
 20
-196.239030
 30
0.0
 11
455.530658
 21
-191.386967
 31
0.0
  0
LINE
  8
0
  6
BYLAYER
 62
     1
 10
453.913318
 20
-196.239030
 30
0.0
 11
452.138153
 21
-196.239030
 31
0.0
  0
LINE
  8
0
  6
BYLAYER
 62
     1
 10
487.641128
 20
-196.239030
 30
0.0
 11
490.836374
 21
-187.836659
 31
0.0
  0
LINE
  8
0
  6
BYLAYER
 62
     1
 10
487.641128
 20
-196.239030
 30
0.0
 11
490.363028
 21
-196.239030
 31
0.0
  0
LINE
  8
0
  6
BYLAYER
 62
     1
 10
490.836374
 20
-187.836659
 30
0.0
 11
493.439926
 21
-187.836659
 31
0.0
  0
LINE
  8
0
  6
BYLAYER
 62
     1
 10
490.363028
 20
-196.239030
 30
0.0
 11
490.766476
 21
-195.055601
 31
0.0
  0
LINE
  8
0
  6
BYLAYER
 62
     1
 10
491.411960
 20
-193.162111
 30
0.0
 11
492.138150
 21
-191.031926
 31
0.0
  0
LINE
  8
0
  6
BYLAYER
 62
     1
 10
496.635214
 20
-196.239030
 30
0.0
 11
493.439926
 21
-187.836659
 31
0.0
  0
LINE
  8
0
  6
BYLAYER
 62
     1
 10
496.635214
 20
-196.239030
 30
0.0
 11
493.913315
 21
-196.239030
 31
0.0
  0
LINE
  8
0
  6
BYLAYER
 62
     1
 10
493.509866
 20
-195.055601
 30
0.0
 11
490.766476
 21
-195.055601
 31
0.0
  0
LINE
  8
0
  6
BYLAYER
 62
     1
 10
492.864340
 20
-193.162111
 30
0.0
 11
491.411960
 21
-193.162111
 31
0.0
  0
LINE
  8
0
  6
BYLAYER
 62
     1
 10
493.913315
 20
-196.239030
 30
0.0
 11
493.509866
 21
-195.055601
 31
0.0
  0
LINE
  8
0
  6
BYLAYER
 62
     1
 10
492.864340
 20
-193.162111
 30
0.0
 11
492.138150
 21
-191.031926
 31
0.0
  0
LINE
  8
0
  6
BYLAYER
 62
     1
 10
466.457690
 20
-189.907671
 30
0.0
 11
468.824548
 21
-189.907671
 31
0.0
  0
LINE
  8
0
  6
BYLAYER
 62
     1
 10
468.824548
 20
-189.907671
 30
0.0
 11
468.824548
 21
-196.239030
 31
0.0
  0
LINE
  8
0
  6
BYLAYER
 62
     1
 10
468.824548
 20
-196.239030
 30
0.0
 11
471.428122
 21
-196.239030
 31
0.0
  0
LINE
  8
0
  6
BYLAYER
 62
     1
 10
471.428122
 20
-196.239030
 30
0.0
 11
471.428122
 21
-189.907671
 31
0.0
  0
LINE
  8
0
  6
BYLAYER
 62
     1
 10
471.428122
 20
-189.907671
 30
0.0
 11
473.794980
 21
-189.907671
 31
0.0
  0
LINE
  8
0
  6
BYLAYER
 62
     1
 10
473.794980
 20
-189.907671
 30
0.0
 11
473.794980
 21
-187.836659
 31
0.0
  0
LINE
  8
0
  6
BYLAYER
 62
     1
 10
473.794980
 20
-187.836659
 30
0.0
 11
466.457690
 21
-187.836659
 31
0.0
  0
LINE
  8
0
  6
BYLAYER
 62
     1
 10
466.457690
 20
-187.836659
 30
0.0
 11
466.457690
 21
-189.907671
 31
0.0
  0
ARC
  8
0
  6
BYLAYER
 62
     1
 10
477.996154
 20
-192.493442
 30
0.0
 40
4.041457
 50
270.0
 51
316.110087
  0
ARC
  8
0
  6
BYLAYER
 62
     1
 10
477.584076
 20
-192.097029
 30
0.0
 40
4.613254
 50
316.110087
 51
360.0
  0
ARC
  8
0
  6
BYLAYER
 62
     1
 10
477.584092
 20
-192.097029
 30
0.0
 40
4.613237
 50
0.0
 51
43.890016
  0
ARC
  8
0
  6
BYLAYER
 62
     1
 10
477.996133
 20
-191.700652
 30
0.0
 40
4.041492
 50
43.890016
 51
90.000000
  0
ARC
  8
0
  6
BYLAYER
 62
     1
 10
477.996133
 20
-191.700616
 30
0.0
 40
4.041457
 50
90.0
 51
136.110087
  0
ARC
  8
0
  6
BYLAYER
 62
     1
 10
478.408212
 20
-192.097029
 30
0.0
 40
4.613254
 50
136.110087
 51
180.000000
  0
ARC
  8
0
  6
BYLAYER
 62
     1
 10
478.408195
 20
-192.097029
 30
0.0
 40
4.613237
 50
180.000000
 51
223.890016
  0
ARC
  8
0
  6
BYLAYER
 62
     1
 10
477.996154
 20
-192.493407
 30
0.0
 40
4.041492
 50
223.890016
 51
270.000000
  0
ARC
  8
0
  6
BYLAYER
 62
     1
 10
477.996133
 20
-190.916618
 30
0.0
 40
1.861645
 50
90.0
 51
140.793201
  0
ARC
  8
0
  6
BYLAYER
 62
     1
 10
479.443110
 20
-192.097029
 30
0.0
 40
3.729026
 50
140.793201
 51
180.0
  0
ARC
  8
0
  6
BYLAYER
 62
     1
 10
479.443062
 20
-192.097029
 30
0.0
 40
3.728979
 50
180.000000
 51
219.207055
  0
ARC
  8
0
  6
BYLAYER
 62
     1
 10
477.996154
 20
-193.277395
 30
0.0
 40
1.861680
 50
219.207055
 51
270.0
  0
ARC
  8
0
  6
BYLAYER
 62
     1
 10
477.996154
 20
-193.277425
 30
0.0
 40
1.861650
 50
270.0
 51
320.793131
  0
ARC
  8
0
  6
BYLAYER
 62
     1
 10
476.549200
 20
-192.097029
 30
0.0
 40
3.729004
 50
320.793131
 51
360.0
  0
ARC
  8
0
  6
BYLAYER
 62
     1
 10
476.549203
 20
-192.097029
 30
0.0
 40
3.729001
 50
0.0
 51
39.206985
  0
ARC
  8
0
  6
BYLAYER
 62
     1
 10
477.996133
 20
-190.916648
 30
0.0
 40
1.861675
 50
39.206985
 51
90.000000
  0
LINE
  8
0
  6
BYLAYER
 62
     1
 10
496.861996
 20
-196.239030
 30
0.0
 11
496.861996
 21
-187.836659
 31
0.0
  0
LINE
  8
0
  6
BYLAYER
 62
     1
 10
496.861996
 20
-187.836659
 30
0.0
 11
502.069079
 21
-187.836659
 31
0.0
  0
ARC
  8
0
  6
BYLAYER
 62
     1
 10
502.069079
 20
-190.203538
 30
0.0
 40
2.366854
 50
287.134650
 51
450.000006
  0
ARC
  8
0
  6
BYLAYER
 62
     1
 10
502.542468
 20
-194.345540
 30
0.0
 40
1.893491
 50
0.0
 51
83.207557
  0
LINE
  8
0
  6
BYLAYER
 62
     1
 10
504.435959
 20
-194.345540
 30
0.0
 11
504.435959
 21
-195.528969
 31
0.0
  0
ARC
  8
0
  6
BYLAYER
 62
     1
 10
506.329449
 20
-195.528969
 30
0.0
 40
1.893491
 50
180.000000
 51
202.024314
  0
LINE
  8
0
  6
BYLAYER
 62
     1
 10
501.970578
 20
-196.239030
 30
0.0
 11
504.574130
 21
-196.239030
 31
0.0
  0
ARC
  8
0
  6
BYLAYER
 62
     1
 10
503.725897
 20
-195.528969
 30
0.0
 40
1.893491
 50
180.000000
 51
202.024314
  0
LINE
  8
0
  6
BYLAYER
 62
     1
 10
501.832406
 20
-195.528969
 30
0.0
 11
501.832406
 21
-194.582234
 31
0.0
  0
LINE
  8
0
  6
BYLAYER
 62
     1
 10
496.861996
 20
-196.239030
 30
0.0
 11
499.347201
 21
-196.239030
 31
0.0
  0
LINE
  8
0
  6
BYLAYER
 62
     1
 10
499.347201
 20
-196.239030
 30
0.0
 11
499.347201
 21
-193.398805
 31
0.0
  0
LINE
  8
0
  6
BYLAYER
 62
     1
 10
500.648977
 20
-193.398805
 30
0.0
 11
499.347201
 21
-193.398805
 31
0.0
  0
ARC
  8
0
  6
BYLAYER
 62
     1
 10
500.648977
 20
-194.582234
 30
0.0
 40
1.183429
 50
0.0
 51
90.000003
  0
LINE
  8
0
  6
BYLAYER
 62
     1
 10
499.347201
 20
-191.505315
 30
0.0
 11
499.347201
 21
-189.730150
 31
0.0
  0
LINE
  8
0
  6
BYLAYER
 62
     1
 10
499.347201
 20
-189.730150
 30
0.0
 11
501.003997
 21
-189.730150
 31
0.0
  0
LINE
  8
0
  6
BYLAYER
 62
     1
 10
499.347201
 20
-191.505315
 30
0.0
 11
501.003997
 21
-191.505315
 31
0.0
  0
ARC
  8
0
  6
BYLAYER
 62
     1
 10
501.003997
 20
-190.617732
 30
0.0
 40
0.887582
 50
270.0
 51
450.000005
  0
LINE
  8
0
  6
BYLAYER
 62
     1
 10
485.570138
 20
-193.582115
 30
0.0
 11
484.031668
 21
-187.836659
 31
0.0
  0
LINE
  8
0
  6
BYLAYER
 62
     1
 10
484.031668
 20
-187.836659
 30
0.0
 11
481.546463
 21
-187.836659
 31
0.0
  0
LINE
  8
0
  6
BYLAYER
 62
     1
 10
481.546463
 20
-187.836659
 30
0.0
 11
484.150015
 21
-196.239030
 31
0.0
  0
LINE
  8
0
  6
BYLAYER
 62
     1
 10
485.570138
 20
-193.582115
 30
0.0
 11
487.108566
 21
-187.836659
 31
0.0
  0
LINE
  8
0
  6
BYLAYER
 62
     1
 10
487.108566
 20
-187.836659
 30
0.0
 11
489.593771
 21
-187.836659
 31
0.0
  0
LINE
  8
0
  6
BYLAYER
 62
     1
 10
489.593771
 20
-187.836659
 30
0.0
 11
486.990219
 21
-196.239030
 31
0.0
  0
LINE
  8
0
  6
BYLAYER
 62
     1
 10
486.990219
 20
-196.239030
 30
0.0
 11
484.150015
 21
-196.239030
 31
0.0
  0
LINE
  8
0
  6
BYLAYER
 62
     1
 10
504.800912
 20
-196.239030
 30
0.0
 11
507.286117
 21
-196.239030
 31
0.0
  0
LINE
  8
0
  6
BYLAYER
 62
     1
 10
507.286117
 20
-196.239030
 30
0.0
 11
507.286117
 21
-187.836659
 31
0.0
  0
LINE
  8
0
  6
BYLAYER
 62
     1
 10
507.286117
 20
-187.836659
 30
0.0
 11
504.800912
 21
-187.836659
 31
0.0
  0
LINE
  8
0
  6
BYLAYER
 62
     1
 10
504.800912
 20
-187.836659
 30
0.0
 11
504.800912
 21
-196.239030
 31
0.0
  0
ARC
  8
0
  6
BYLAYER
 62
     1
 10
511.960681
 20
-192.493442
 30
0.0
 40
4.041457
 50
270.0
 51
316.110087
  0
ARC
  8
0
  6
BYLAYER
 62
     1
 10
511.548602
 20
-192.097029
 30
0.0
 40
4.613254
 50
316.110087
 51
360.0
  0
ARC
  8
0
  6
BYLAYER
 62
     1
 10
511.548602
 20
-192.097029
 30
0.0
 40
4.613254
 50
0.0
 51
43.889913
  0
ARC
  8
0
  6
BYLAYER
 62
     1
 10
511.960681
 20
-191.700616
 30
0.0
 40
4.041457
 50
43.889913
 51
90.0
  0
ARC
  8
0
  6
BYLAYER
 62
     1
 10
511.960681
 20
-191.700616
 30
0.0
 40
4.041457
 50
90.0
 51
136.110087
  0
ARC
  8
0
  6
BYLAYER
 62
     1
 10
512.372760
 20
-192.097029
 30
0.0
 40
4.613254
 50
136.110087
 51
180.000000
  0
ARC
  8
0
  6
BYLAYER
 62
     1
 10
512.372760
 20
-192.097029
 30
0.0
 40
4.613254
 50
180.000000
 51
223.889913
  0
ARC
  8
0
  6
BYLAYER
 62
     1
 10
511.960681
 20
-192.493442
 30
0.0
 40
4.041457
 50
223.889913
 51
270.000000
  0
ARC
  8
0
  6
BYLAYER
 62
     1
 10
511.960681
 20
-190.916618
 30
0.0
 40
1.861645
 50
39.206799
 51
90.000000
  0
ARC
  8
0
  6
BYLAYER
 62
     1
 10
510.513704
 20
-192.097029
 30
0.0
 40
3.729026
 50
0.0
 51
39.206799
  0
ARC
  8
0
  6
BYLAYER
 62
     1
 10
510.513727
 20
-192.097029
 30
0.0
 40
3.729004
 50
320.793131
 51
360.0
  0
ARC
  8
0
  6
BYLAYER
 62
     1
 10
511.960681
 20
-193.277425
 30
0.0
 40
1.861650
 50
270.0
 51
320.793131
  0
ARC
  8
0
  6
BYLAYER
 62
     1
 10
511.960681
 20
-193.277425
 30
0.0
 40
1.861650
 50
219.206869
 51
270.000000
  0
ARC
  8
0
  6
BYLAYER
 62
     1
 10
513.407635
 20
-192.097029
 30
0.0
 40
3.729004
 50
180.000000
 51
219.206869
  0
ARC
  8
0
  6
BYLAYER
 62
     1
 10
513.407657
 20
-192.097029
 30
0.0
 40
3.729026
 50
140.793201
 51
180.000000
  0
ARC
  8
0
  6
BYLAYER
 62
     1
 10
511.960681
 20
-190.916618
 30
0.0
 40
1.861645
 50
90.0
 51
140.793201
  0
ARC
  8
0
  6
BYLAYER
 62
     1
 10
470.000073
 20
-178.217641
 30
0.0
 40
10.401993
 50
174.535650
 51
180.000000
  0
LINE
  8
0
  6
BYLAYER
 62
     1
 10
459.645347
 20
-177.227092
 30
0.0
 11
459.645347
 21
-177.227081
 31
0.0
  0
LINE
  8
0
  6
BYLAYER
 62
     1
 10
459.656666
 20
-177.115189
 30
0.0
 11
460.649410
 21
-176.697229
 31
0.0
  0
ARC
  8
0
  6
BYLAYER
 62
     1
 10
470.000116
 20
-178.217726
 30
0.0
 40
9.473494
 50
159.235383
 51
170.763998
  0
LINE
  8
0
  6
BYLAYER
 62
     1
 10
461.141931
 20
-174.859035
 30
0.0
 11
460.491213
 21
-174.000676
 31
0.0
  0
ARC
  8
0
  6
BYLAYER
 62
     1
 10
470.000073
 20
-178.217641
 30
0.0
 40
10.401981
 50
144.139514
 51
156.083795
  0
LINE
  8
0
  6
BYLAYER
 62
     1
 10
461.501422
 20
-172.219768
 30
0.0
 11
461.502041
 21
-172.218892
 31
0.0
  0
LINE
  8
0
  6
BYLAYER
 62
     1
 10
461.569831
 20
-172.124019
 30
0.0
 11
462.626726
 21
-172.269429
 31
0.0
  0
ARC
  8
0
  6
BYLAYER
 62
     1
 10
470.000073
 20
-178.217641
 30
0.0
 40
9.473437
 50
129.235643
 51
141.105976
  0
LINE
  8
0
  6
BYLAYER
 62
     1
 10
463.853112
 20
-171.009241
 30
0.0
 11
463.854138
 21
-171.008354
 31
0.0
  0
LINE
  8
0
  6
BYLAYER
 62
     1
 10
464.008017
 20
-170.879979
 30
0.0
 11
463.873626
 21
-169.811210
 31
0.0
  0
ARC
  8
0
  6
BYLAYER
 62
     1
 10
470.000073
 20
-178.217641
 30
0.0
 40
10.401992
 50
114.139607
 51
126.083853
  0
LINE
  8
0
  6
BYLAYER
 62
     1
 10
465.639706
 20
-168.773665
 30
0.0
 11
465.640411
 21
-168.773334
 31
0.0
  0
LINE
  8
0
  6
BYLAYER
 62
     1
 10
465.746060
 20
-168.725285
 30
0.0
 11
466.588621
 21
-169.379637
 31
0.0
  0
LINE
  8
0
  6
BYLAYER
 62
     1
 10
466.781265
 20
-169.307786
 30
0.0
 11
466.782333
 21
-169.307413
 31
0.0
  0
ARC
  8
0
  6
BYLAYER
 62
     1
 10
470.000073
 20
-178.217641
 30
0.0
 40
9.473434
 50
99.235601
 51
111.106038
  0
ARC
  8
0
  6
BYLAYER
 62
     1
 10
470.000073
 20
-178.217641
 30
0.0
 40
10.401993
 50
90.0
 51
96.083892
  0
LINE
  8
0
  6
BYLAYER
 62
     1
 10
468.897622
 20
-167.874234
 30
0.0
 11
468.479639
 21
-168.867013
 31
0.0
  0
LINE
  8
0
  6
BYLAYER
 62
     1
 10
480.354788
 20
-177.227092
 30
0.0
 11
480.354788
 21
-177.227081
 31
0.0
  0
LINE
  8
0
  6
BYLAYER
 62
     1
 10
480.343479
 20
-177.115188
 30
0.0
 11
479.350685
 21
-176.697219
 31
0.0
  0
ARC
  8
0
  6
BYLAYER
 62
     1
 10
470.000009
 20
-178.217726
 30
0.0
 40
9.473494
 50
9.235986
 51
20.764650
  0
LINE
  8
0
  6
BYLAYER
 62
     1
 10
478.858262
 20
-174.858936
 30
0.0
 11
479.508934
 21
-174.000679
 31
0.0
  0
ARC
  8
0
  6
BYLAYER
 62
     1
 10
470.000073
 20
-178.217641
 30
0.0
 40
10.401981
 50
23.916189
 51
35.860484
  0
LINE
  8
0
  6
BYLAYER
 62
     1
 10
478.498703
 20
-172.219768
 30
0.0
 11
478.498083
 21
-172.218892
 31
0.0
  0
LINE
  8
0
  6
BYLAYER
 62
     1
 10
478.430315
 20
-172.124019
 30
0.0
 11
477.373494
 21
-172.269415
 31
0.0
  0
ARC
  8
0
  6
BYLAYER
 62
     1
 10
470.000073
 20
-178.217641
 30
0.0
 40
9.473437
 50
38.894050
 51
50.764315
  0
LINE
  8
0
  6
BYLAYER
 62
     1
 10
476.147033
 20
-171.009241
 30
0.0
 11
476.146008
 21
-171.008354
 31
0.0
  0
LINE
  8
0
  6
BYLAYER
 62
     1
 10
475.992156
 20
-170.879808
 30
0.0
 11
476.126497
 21
-169.811193
 31
0.0
  0
ARC
  8
0
  6
BYLAYER
 62
     1
 10
470.000073
 20
-178.217641
 30
0.0
 40
10.401992
 50
53.916300
 51
65.860381
  0
LINE
  8
0
  6
BYLAYER
 62
     1
 10
474.360440
 20
-168.773665
 30
0.0
 11
474.359713
 21
-168.773334
 31
0.0
  0
LINE
  8
0
  6
BYLAYER
 62
     1
 10
474.254088
 20
-168.725286
 30
0.0
 11
473.411535
 21
-169.379608
 31
0.0
  0
LINE
  8
0
  6
BYLAYER
 62
     1
 10
473.218860
 20
-169.307786
 30
0.0
 11
473.217813
 21
-169.307413
 31
0.0
  0
ARC
  8
0
  6
BYLAYER
 62
     1
 10
470.000073
 20
-178.217641
 30
0.0
 40
9.473434
 50
68.894081
 51
80.764578
  0
ARC
  8
0
  6
BYLAYER
 62
     1
 10
470.000073
 20
-178.217641
 30
0.0
 40
10.401993
 50
84.535428
 51
90.000003
  0
LINE
  8
0
  6
BYLAYER
 62
     1
 10
471.102527
 20
-167.874234
 30
0.0
 11
471.520409
 21
-168.866844
 31
0.0
  0
ARC
  8
0
  6
BYLAYER
 62
     1
 10
470.000073
 20
-178.217641
 30
0.0
 40
10.401993
 50
180.000000
 51
186.083899
  0
LINE
  8
0
  6
BYLAYER
 62
     1
 10
459.645347
 20
-179.208179
 30
0.0
 11
459.645347
 21
-179.208200
 31
0.0
  0
LINE
  8
0
  6
BYLAYER
 62
     1
 10
459.656666
 20
-179.320092
 30
0.0
 11
460.649440
 21
-179.738064
 31
0.0
  0
ARC
  8
0
  6
BYLAYER
 62
     1
 10
470.000116
 20
-178.217555
 30
0.0
 40
9.473494
 50
189.236002
 51
200.764629
  0
LINE
  8
0
  6
BYLAYER
 62
     1
 10
461.141966
 20
-181.576204
 30
0.0
 11
460.491209
 21
-182.434598
 31
0.0
  0
ARC
  8
0
  6
BYLAYER
 62
     1
 10
470.000073
 20
-178.217641
 30
0.0
 40
10.401981
 50
203.916158
 51
215.860410
  0
LINE
  8
0
  6
BYLAYER
 62
     1
 10
461.501422
 20
-184.215503
 30
0.0
 11
461.502041
 21
-184.216379
 31
0.0
  0
LINE
  8
0
  6
BYLAYER
 62
     1
 10
461.569823
 20
-184.311251
 30
0.0
 11
462.626817
 21
-184.165843
 31
0.0
  0
ARC
  8
0
  6
BYLAYER
 62
     1
 10
470.000073
 20
-178.217641
 30
0.0
 40
9.473437
 50
218.894045
 51
230.764345
  0
LINE
  8
0
  6
BYLAYER
 62
     1
 10
463.853112
 20
-185.426030
 30
0.0
 11
463.854138
 21
-185.426916
 31
0.0
  0
LINE
  8
0
  6
BYLAYER
 62
     1
 10
464.008016
 20
-185.555301
 30
0.0
 11
463.873626
 21
-186.624072
 31
0.0
  0
ARC
  8
0
  6
BYLAYER
 62
     1
 10
470.000073
 20
-178.217641
 30
0.0
 40
10.401992
 50
233.916148
 51
245.860401
  0
LINE
  8
0
  6
BYLAYER
 62
     1
 10
465.639706
 20
-187.661606
 30
0.0
 11
465.640411
 21
-187.661948
 31
0.0
  0
LINE
  8
0
  6
BYLAYER
 62
     1
 10
465.746061
 20
-187.709996
 30
0.0
 11
466.588721
 21
-187.055552
 31
0.0
  0
LINE
  8
0
  6
BYLAYER
 62
     1
 10
466.781265
 20
-187.127484
 30
0.0
 11
466.782333
 21
-187.127869
 31
0.0
  0
LINE
  8
0
  6
BYLAYER
 62
     1
 10
480.354788
 20
-179.208179
 30
0.0
 11
480.354788
 21
-179.208200
 31
0.0
  0
LINE
  8
0
  6
BYLAYER
 62
     1
 10
480.343478
 20
-179.320094
 30
0.0
 11
479.350685
 21
-179.738062
 31
0.0
  0
LINE
  8
0
  6
BYLAYER
 62
     1
 10
478.858171
 20
-181.576228
 30
0.0
 11
479.508945
 21
-182.434605
 31
0.0
  0
LINE
  8
0
  6
BYLAYER
 62
     1
 10
478.498703
 20
-184.215503
 30
0.0
 11
478.498083
 21
-184.216379
 31
0.0
  0
LINE
  8
0
  6
BYLAYER
 62
     1
 10
478.430336
 20
-184.311252
 30
0.0
 11
477.373272
 21
-184.165839
 31
0.0
  0
LINE
  8
0
  6
BYLAYER
 62
     1
 10
476.147033
 20
-185.426030
 30
0.0
 11
476.146008
 21
-185.426916
 31
0.0
  0
LINE
  8
0
  6
BYLAYER
 62
     1
 10
475.992136
 20
-185.555297
 30
0.0
 11
476.126497
 21
-186.624088
 31
0.0
  0
LINE
  8
0
  6
BYLAYER
 62
     1
 10
474.254087
 20
-187.709995
 30
0.0
 11
473.411407
 21
-187.055560
 31
0.0
  0
ARC
  8
0
  6
BYLAYER
 62
     1
 10
470.000073
 20
-178.217641
 30
0.0
 40
9.473437
 50
309.235697
 51
321.105929
  0
ARC
  8
0
  6
BYLAYER
 62
     1
 10
470.000073
 20
-178.217641
 30
0.0
 40
9.473434
 50
248.893873
 51
270.000000
  0
ARC
  8
0
  6
BYLAYER
 62
     1
 10
470.000073
 20
-178.217641
 30
0.0
 40
10.401992
 50
294.783232
 51
306.083699
  0
LINE
  8
0
  6
BYLAYER
 62
     1
 10
474.359713
 20
-187.661948
 30
0.0
 11
474.254727
 21
-187.711352
 31
0.0
  0
ARC
  8
0
  6
BYLAYER
 62
     1
 10
470.000073
 20
-178.217641
 30
0.0
 40
10.401981
 50
324.139593
 51
336.083825
  0
ARC
  8
0
  6
BYLAYER
 62
     1
 10
470.000009
 20
-178.217555
 30
0.0
 40
9.473494
 50
339.235210
 51
350.764014
  0
ARC
  8
0
  6
BYLAYER
 62
     1
 10
470.000073
 20
-178.217641
 30
0.0
 40
10.401993
 50
353.916089
 51
360.0
  0
ARC
  8
0
  6
BYLAYER
 62
     1
 10
470.000073
 20
-178.217641
 30
0.0
 40
10.401993
 50
0.0
 51
6.083907
  0
ARC
  8
0
  6
BYLAYER
 62
     1
 10
470.000073
 20
-178.217641
 30
0.0
 40
9.473434
 50
270.0
 51
291.106008
  0
CIRCLE
  8
0
  6
BYLAYER
 62
     1
 10
470.000073
 20
-178.217641
 30
0.0
 40
5.082113
  0
CIRCLE
  8
0
  6
BYLAYER
 62
     1
 10
470.000073
 20
-178.217641
 30
0.0
 40
7.414445
  0
LINE
  8
0
  6
BYLAYER
 62
     1
 10
1527.878840
 20
-893.679181
 30
0.0
 11
1527.878840
 21
-818.679181
 31
0.0
  0
LINE
  8
0
  6
BYLAYER
 62
     1
 10
1527.878840
 20
-1218.679181
 30
0.0
 11
1342.878840
 21
-1218.679181
 31
0.0
  0
LINE
  8
0
  6
BYLAYER
 62
     1
 10
1527.878840
 20
-818.679181
 30
0.0
 11
1342.878840
 21
-818.679181
 31
0.0
  0
LINE
  8
0
  6
BYLAYER
 62
     1
 10
1342.878840
 20
-893.679181
 30
0.0
 11
1342.878840
 21
-818.679181
 31
0.0
  0
LINE
  8
0
  6
BYLAYER
 62
     1
 10
1339.378840
 20
-923.679181
 30
0.0
 11
1355.378840
 21
-922.840657
 31
0.0
  0
LINE
  8
0
  6
BYLAYER
 62
     1
 10
1342.878840
 20
-893.679181
 30
0.0
 11
1355.378840
 21
-906.179181
 31
0.0
  0
LINE
  8
0
  6
BYLAYER
 62
     1
 10
1355.378840
 20
-1131.179181
 30
0.0
 11
1355.378840
 21
-906.179181
 31
0.0
  0
LINE
  8
0
  6
BYLAYER
 62
     1
 10
1527.878840
 20
-893.679181
 30
0.0
 11
1515.378840
 21
-906.179181
 31
0.0
  0
LINE
  8
0
  6
BYLAYER
 62
     1
 10
1515.378840
 20
-906.179181
 30
0.0
 11
1515.378840
 21
-1131.179181
 31
0.0
  0
LINE
  8
0
  6
BYLAYER
 62
     1
 10
1527.878840
 20
-1143.679181
 30
0.0
 11
1527.878840
 21
-1218.679181
 31
0.0
  0
LINE
  8
0
  6
BYLAYER
 62
     1
 10
1527.878840
 20
-1143.679181
 30
0.0
 11
1515.378840
 21
-1131.179181
 31
0.0
  0
LINE
  8
0
  6
BYLAYER
 62
     1
 10
1342.878840
 20
-1143.679181
 30
0.0
 11
1342.878840
 21
-1218.679181
 31
0.0
  0
LINE
  8
0
  6
BYLAYER
 62
     1
 10
1342.878840
 20
-1143.679181
 30
0.0
 11
1355.378840
 21
-1131.179181
 31
0.0
  0
LINE
  8
0
  6
BYLAYER
 62
     1
 10
1342.878840
 20
-1143.679181
 30
0.0
 11
1435.378840
 21
-1138.831461
 31
0.0
  0
LINE
  8
0
  6
BYLAYER
 62
     1
 10
1527.878840
 20
-1143.679181
 30
0.0
 11
1435.378840
 21
-1138.831461
 31
0.0
  0
LINE
  8
0
  6
BYLAYER
 62
     1
 10
1342.878840
 20
-893.679181
 30
0.0
 11
1375.036688
 21
-895.364502
 31
0.0
  0
ARC
  8
0
  6
BYLAYER
 62
     1
 10
1374.879680
 20
-898.360391
 30
0.0
 40
3.000000
 50
359.698092
 51
447.000000
  0
LINE
  8
0
  6
BYLAYER
 62
     1
 10
1527.878840
 20
-893.679181
 30
0.0
 11
1495.720992
 21
-895.364502
 31
0.0
  0
ARC
  8
0
  6
BYLAYER
 62
     1
 10
1495.878000
 20
-898.360391
 30
0.0
 40
3.0
 50
93.000000
 51
180.301908
  0
CIRCLE
  8
0
  6
BYLAYER
 62
     1
 10
1435.378840
 20
-898.679181
 30
0.0
 40
42.5
  0
ARC
  8
0
  6
BYLAYER
 62
     1
 10
1495.100784
 20
-908.350759
 30
0.0
 40
3.0
 50
93.000000
 51
170.801184
  0
CIRCLE
  8
0
  6
BYLAYER
 62
     1
 10
1362.878840
 20
-868.679181
 30
0.0
 40
9.0
  0
CIRCLE
  8
0
  6
BYLAYER
 62
     1
 10
1507.878840
 20
-868.679181
 30
0.0
 40
9.0
  0
CIRCLE
  8
0
  6
BYLAYER
 62
     1
 10
1362.878840
 20
-1168.679181
 30
0.0
 40
9.0
  0
CIRCLE
  8
0
  6
BYLAYER
 62
     1
 10
1507.878840
 20
-1168.679181
 30
0.0
 40
9.0
  0
LINE
  8
0
  6
BYLAYER
 62
     1
 10
1335.878840
 20
-958.679181
 30
0.0
 11
1339.378840
 21
-958.679181
 31
0.0
  0
LINE
  8
0
  6
BYLAYER
 62
     1
 10
1335.878840
 20
-958.679181
 30
0.0
 11
1335.378840
 21
-959.179181
 31
0.0
  0
LINE
  8
0
  6
BYLAYER
 62
     1
 10
1335.878840
 20
-1138.679181
 30
0.0
 11
1339.378840
 21
-1138.679181
 31
0.0
  0
LINE
  8
0
  6
BYLAYER
 62
     1
 10
1335.878840
 20
-1138.679181
 30
0.0
 11
1335.378840
 21
-1138.179181
 31
0.0
  0
LINE
  8
0
  6
BYLAYER
 62
     1
 10
1339.378840
 20
-923.679181
 30
0.0
 11
1339.378840
 21
-1173.679181
 31
0.0
  0
LINE
  8
0
  6
BYLAYER
 62
     1
 10
1339.378840
 20
-1173.679181
 30
0.0
 11
1342.878840
 21
-1173.862608
 31
0.0
  0
LINE
  8
0
  6
BYLAYER
 62
     1
 10
1343.378840
 20
-972.312314
 30
0.0
 11
1343.378840
 21
-1033.268789
 31
0.0
  0
ARC
  8
0
  6
BYLAYER
 62
     1
 10
1341.378840
 20
-972.312314
 30
0.0
 40
2.0
 50
0.0
 51
87.0
  0
LINE
  8
0
  6
BYLAYER
 62
     1
 10
1343.378840
 20
-926.287731
 30
0.0
 11
1343.378840
 21
-949.274255
 31
0.0
  0
ARC
  8
0
  6
BYLAYER
 62
     1
 10
1341.378840
 20
-949.274255
 30
0.0
 40
2.0
 50
273.000000
 51
360.000000
  0
ARC
  8
0
  6
BYLAYER
 62
     1
 10
1341.378840
 20
-926.287731
 30
0.0
 40
2.000000
 50
0.0
 51
93.0
  0
LINE
  8
0
  6
BYLAYER
 62
     1
 10
1339.378840
 20
-924.389802
 30
0.0
 11
1341.274168
 21
-924.290472
 31
0.0
  0
LINE
  8
0
  6
BYLAYER
 62
     1
 10
1339.378840
 20
-951.381815
 30
0.0
 11
1341.483512
 21
-951.271514
 31
0.0
  0
LINE
  8
0
  6
BYLAYER
 62
     1
 10
1339.513470
 20
-1035.369294
 30
0.0
 11
1341.483512
 21
-1035.266048
 31
0.0
  0
ARC
  8
0
  6
BYLAYER
 62
     1
 10
1341.378840
 20
-1033.268789
 30
0.0
 40
2.0
 50
273.000000
 51
360.000000
  0
LINE
  8
0
  6
BYLAYER
 62
     1
 10
1339.513470
 20
-1061.988961
 30
0.0
 11
1341.483512
 21
-1062.092206
 31
0.0
  0
ARC
  8
0
  6
BYLAYER
 62
     1
 10
1341.378840
 20
-1064.089465
 30
0.0
 40
2.0
 50
0.0
 51
87.0
  0
LINE
  8
0
  6
BYLAYER
 62
     1
 10
1339.378840
 20
-970.204754
 30
0.0
 11
1341.483512
 21
-970.315055
 31
0.0
  0
LINE
  8
0
  6
BYLAYER
 62
     1
 10
1343.378840
 20
-1125.046048
 30
0.0
 11
1343.378840
 21
-1064.089465
 31
0.0
  0
ARC
  8
0
  6
BYLAYER
 62
     1
 10
1341.378840
 20
-1125.046048
 30
0.0
 40
2.0
 50
273.000000
 51
360.000000
  0
LINE
  8
0
  6
BYLAYER
 62
     1
 10
1339.378840
 20
-1172.968560
 30
0.0
 11
1342.878840
 21
-1173.151987
 31
0.0
  0
LINE
  8
0
  6
BYLAYER
 62
     1
 10
1339.378840
 20
-1145.976547
 30
0.0
 11
1342.878840
 21
-1146.159974
 31
0.0
  0
LINE
  8
0
  6
BYLAYER
 62
     1
 10
1339.378840
 20
-1127.153608
 30
0.0
 11
1341.483512
 21
-1127.043307
 31
0.0
  0
LINE
  8
0
  6
BYLAYER
 62
     1
 10
1446.221832
 20
-1063.530186
 30
0.0
 11
1512.535848
 21
-1060.054816
 31
0.0
  0
ARC
  8
0
  6
BYLAYER
 62
     1
 10
1512.378840
 20
-1057.058927
 30
0.0
 40
3.0
 50
273.000000
 51
360.000000
  0
LINE
  8
0
  6
BYLAYER
 62
     1
 10
1424.535848
 20
-1063.530186
 30
0.0
 11
1358.221832
 21
-1060.054816
 31
0.0
  0
ARC
  8
0
  6
BYLAYER
 62
     1
 10
1358.378840
 20
-1057.058927
 30
0.0
 40
3.000000
 50
180.000000
 51
267.0
  0
ARC
  8
0
  6
BYLAYER
 62
     1
 10
1424.378840
 20
-1066.526075
 30
0.0
 40
3.000000
 50
0.0
 51
87.0
  0
LINE
  8
0
  6
BYLAYER
 62
     1
 10
1443.378840
 20
-1066.526075
 30
0.0
 11
1443.378840
 21
-1080.832287
 31
0.0
  0
ARC
  8
0
  6
BYLAYER
 62
     1
 10
1446.378840
 20
-1080.832287
 30
0.0
 40
3.000000
 50
180.000000
 51
267.0
  0
ARC
  8
0
  6
BYLAYER
 62
     1
 10
1446.378840
 20
-1066.526075
 30
0.0
 40
3.0
 50
93.000000
 51
180.000000
  0
LINE
  8
0
  6
BYLAYER
 62
     1
 10
1446.221832
 20
-1083.828176
 30
0.0
 11
1512.535848
 21
-1087.303546
 31
0.0
  0
ARC
  8
0
  6
BYLAYER
 62
     1
 10
1512.378840
 20
-1090.299435
 30
0.0
 40
3.000000
 50
0.0
 51
87.0
  0
LINE
  8
0
  6
BYLAYER
 62
     1
 10
1427.378840
 20
-1066.526075
 30
0.0
 11
1427.378840
 21
-1080.832287
 31
0.0
  0
ARC
  8
0
  6
BYLAYER
 62
     1
 10
1424.378840
 20
-1080.832287
 30
0.0
 40
3.0
 50
273.000000
 51
360.000000
  0
LINE
  8
0
  6
BYLAYER
 62
     1
 10
1424.535848
 20
-1083.828176
 30
0.0
 11
1358.221832
 21
-1087.303546
 31
0.0
  0
ARC
  8
0
  6
BYLAYER
 62
     1
 10
1358.378840
 20
-1090.299435
 30
0.0
 40
3.0
 50
93.000000
 51
180.000000
  0
LINE
  8
0
  6
BYLAYER
 62
     1
 10
1483.221832
 20
-1111.591098
 30
0.0
 11
1512.535848
 21
-1110.054816
 31
0.0
  0
ARC
  8
0
  6
BYLAYER
 62
     1
 10
1512.378840
 20
-1107.058927
 30
0.0
 40
3.0
 50
273.000000
 51
360.000000
  0
ARC
  8
0
  6
BYLAYER
 62
     1
 10
1483.378840
 20
-1114.586987
 30
0.0
 40
3.0
 50
93.000000
 51
180.000000
  0
LINE
  8
0
  6
BYLAYER
 62
     1
 10
1424.535848
 20
-1113.530186
 30
0.0
 11
1358.221832
 21
-1110.054816
 31
0.0
  0
ARC
  8
0
  6
BYLAYER
 62
     1
 10
1358.378840
 20
-1107.058927
 30
0.0
 40
3.000000
 50
180.000000
 51
267.0
  0
LINE
  8
0
  6
BYLAYER
 62
     1
 10
1443.378840
 20
-1123.465163
 30
0.0
 11
1443.378840
 21
-1130.395596
 31
0.0
  0
ARC
  8
0
  6
BYLAYER
 62
     1
 10
1446.378840
 20
-1130.395596
 30
0.0
 40
3.000000
 50
180.000000
 51
267.0
  0
ARC
  8
0
  6
BYLAYER
 62
     1
 10
1446.378840
 20
-1123.465163
 30
0.0
 40
3.0
 50
93.000000
 51
180.000000
  0
LINE
  8
0
  6
BYLAYER
 62
     1
 10
1427.378840
 20
-1116.526075
 30
0.0
 11
1427.378840
 21
-1130.395596
 31
0.0
  0
ARC
  8
0
  6
BYLAYER
 62
     1
 10
1424.378840
 20
-1130.395596
 30
0.0
 40
3.0
 50
273.000000
 51
360.000000
  0
ARC
  8
0
  6
BYLAYER
 62
     1
 10
1424.378840
 20
-1116.526075
 30
0.0
 40
3.000000
 50
0.0
 51
87.0
  0
LINE
  8
0
  6
BYLAYER
 62
     1
 10
1446.221832
 20
-1033.828176
 30
0.0
 11
1512.535848
 21
-1037.303546
 31
0.0
  0
ARC
  8
0
  6
BYLAYER
 62
     1
 10
1512.378840
 20
-1040.299435
 30
0.0
 40
3.000000
 50
0.0
 51
87.0
  0
LINE
  8
0
  6
BYLAYER
 62
     1
 10
1424.535848
 20
-1033.828176
 30
0.0
 11
1358.221832
 21
-1037.303546
 31
0.0
  0
ARC
  8
0
  6
BYLAYER
 62
     1
 10
1358.378840
 20
-1040.299435
 30
0.0
 40
3.0
 50
93.000000
 51
180.000000
  0
ARC
  8
0
  6
BYLAYER
 62
     1
 10
1424.378840
 20
-1030.832287
 30
0.0
 40
3.0
 50
273.000000
 51
360.000000
  0
LINE
  8
0
  6
BYLAYER
 62
     1
 10
1443.378840
 20
-1030.832287
 30
0.0
 11
1443.378840
 21
-1016.526075
 31
0.0
  0
ARC
  8
0
  6
BYLAYER
 62
     1
 10
1446.378840
 20
-1030.832287
 30
0.0
 40
3.000000
 50
180.000000
 51
267.0
  0
ARC
  8
0
  6
BYLAYER
 62
     1
 10
1446.378840
 20
-1016.526075
 30
0.0
 40
3.0
 50
93.000000
 51
180.000000
  0
LINE
  8
0
  6
BYLAYER
 62
     1
 10
1446.221832
 20
-1013.530186
 30
0.0
 11
1512.535848
 21
-1010.054816
 31
0.0
  0
ARC
  8
0
  6
BYLAYER
 62
     1
 10
1512.378840
 20
-1007.058927
 30
0.0
 40
3.0
 50
273.000000
 51
360.000000
  0
LINE
  8
0
  6
BYLAYER
 62
     1
 10
1427.378840
 20
-1030.832287
 30
0.0
 11
1427.378840
 21
-1016.526075
 31
0.0
  0
ARC
  8
0
  6
BYLAYER
 62
     1
 10
1424.378840
 20
-1016.526075
 30
0.0
 40
3.000000
 50
0.0
 51
87.0
  0
LINE
  8
0
  6
BYLAYER
 62
     1
 10
1424.535848
 20
-1013.530186
 30
0.0
 11
1358.221832
 21
-1010.054816
 31
0.0
  0
ARC
  8
0
  6
BYLAYER
 62
     1
 10
1358.378840
 20
-1007.058927
 30
0.0
 40
3.000000
 50
180.000000
 51
267.0
  0
LINE
  8
0
  6
BYLAYER
 62
     1
 10
1446.221832
 20
-983.828176
 30
0.0
 11
1512.535848
 21
-987.303546
 31
0.0
  0
ARC
  8
0
  6
BYLAYER
 62
     1
 10
1512.378840
 20
-990.299435
 30
0.0
 40
3.000000
 50
0.0
 51
87.0
  0
ARC
  8
0
  6
BYLAYER
 62
     1
 10
1446.378840
 20
-980.832287
 30
0.0
 40
3.000000
 50
180.000000
 51
267.0
  0
LINE
  8
0
  6
BYLAYER
 62
     1
 10
1424.535848
 20
-983.828176
 30
0.0
 11
1358.221832
 21
-987.303546
 31
0.0
  0
ARC
  8
0
  6
BYLAYER
 62
     1
 10
1358.378840
 20
-990.299435
 30
0.0
 40
3.0
 50
93.000000
 51
180.000000
  0
LINE
  8
0
  6
BYLAYER
 62
     1
 10
1443.378840
 20
-980.832287
 30
0.0
 11
1443.378840
 21
-966.526075
 31
0.0
  0
LINE
  8
0
  6
BYLAYER
 62
     1
 10
1427.378840
 20
-980.832287
 30
0.0
 11
1427.378840
 21
-966.526075
 31
0.0
  0
ARC
  8
0
  6
BYLAYER
 62
     1
 10
1424.378840
 20
-980.832287
 30
0.0
 40
3.0
 50
273.000000
 51
360.000000
  0
ARC
  8
0
  6
BYLAYER
 62
     1
 10
1424.378840
 20
-966.526075
 30
0.0
 40
3.000000
 50
0.0
 51
87.0
  0
LINE
  8
0
  6
BYLAYER
 62
     1
 10
1446.221832
 20
-963.530186
 30
0.0
 11
1512.535848
 21
-960.054816
 31
0.0
  0
ARC
  8
0
  6
BYLAYER
 62
     1
 10
1512.378840
 20
-957.058927
 30
0.0
 40
3.0
 50
273.000000
 51
360.000000
  0
ARC
  8
0
  6
BYLAYER
 62
     1
 10
1446.378840
 20
-966.526075
 30
0.0
 40
3.0
 50
93.000000
 51
180.000000
  0
LINE
  8
0
  6
BYLAYER
 62
     1
 10
1424.535848
 20
-963.530186
 30
0.0
 11
1358.221832
 21
-960.054816
 31
0.0
  0
ARC
  8
0
  6
BYLAYER
 62
     1
 10
1358.378840
 20
-957.058927
 30
0.0
 40
3.000000
 50
180.000000
 51
267.0
  0
LINE
  8
0
  6
BYLAYER
 62
     1
 10
1485.133080
 20
-935.867428
 30
0.0
 11
1512.535848
 21
-937.303546
 31
0.0
  0
ARC
  8
0
  6
BYLAYER
 62
     1
 10
1485.290088
 20
-932.871539
 30
0.0
 40
3.000000
 50
145.586393
 51
267.000000
  0
ARC
  8
0
  6
BYLAYER
 62
     1
 10
1512.378840
 20
-940.299435
 30
0.0
 40
3.000000
 50
0.0
 51
87.0
  0
LINE
  8
0
  6
BYLAYER
 62
     1
 10
1385.624600
 20
-935.867428
 30
0.0
 11
1355.378840
 21
-937.452541
 31
0.0
  0
ARC
  8
0
  6
BYLAYER
 62
     1
 10
1358.378840
 20
-940.299435
 30
0.0
 40
3.0
 50
93.000000
 51
180.000000
  0
ARC
  8
0
  6
BYLAYER
 62
     1
 10
1385.467592
 20
-932.871539
 30
0.0
 40
3.0
 50
273.000000
 51
394.413607
  0
LINE
  8
0
  6
BYLAYER
 62
     1
 10
1435.378840
 20
-956.179181
 30
0.0
 11
1435.378840
 21
-1138.831461
 31
0.0
  0
LINE
  8
0
  6
BYLAYER
 62
     1
 10
1480.378840
 20
-1114.586987
 30
0.0
 11
1480.378840
 21
-1115.832287
 31
0.0
  0
ARC
  8
0
  6
BYLAYER
 62
     1
 10
1477.378840
 20
-1115.832287
 30
0.0
 40
3.0
 50
273.000000
 51
360.000000
  0
LINE
  8
0
  6
BYLAYER
 62
     1
 10
1477.535848
 20
-1118.828176
 30
0.0
 11
1446.221832
 21
-1120.469274
 31
0.0
  0
LINE
  8
0
  6
BYLAYER
 62
     1
 10
1517.378927
 20
-904.179094
 30
0.0
 11
1494.943776
 21
-905.354870
 31
0.0
  0
LINE
  8
0
  6
BYLAYER
 62
     1
 10
1349.219367
 20
-1137.338654
 30
0.0
 11
1435.064824
 21
-1132.839684
 31
0.0
  0
LINE
  8
0
  6
BYLAYER
 62
     1
 10
1521.538313
 20
-1137.338654
 30
0.0
 11
1435.692856
 21
-1132.839684
 31
0.0
  0
LINE
  8
0
  6
BYLAYER
 62
     1
 10
1353.378753
 20
-904.179094
 30
0.0
 11
1375.813904
 21
-905.354870
 31
0.0
  0
LINE
  8
0
  6
BYLAYER
 62
     1
 10
1435.378840
 20
-823.679181
 30
0.0
 11
1342.878840
 21
-828.526901
 31
0.0
  0
LINE
  8
0
  6
BYLAYER
 62
     1
 10
1435.378840
 20
-823.679181
 30
0.0
 11
1527.878840
 21
-828.526901
 31
0.0
  0
LINE
  8
0
  6
BYLAYER
 62
     1
 10
1435.378840
 20
-1213.679181
 30
0.0
 11
1342.878840
 21
-1208.831461
 31
0.0
  0
LINE
  8
0
  6
BYLAYER
 62
     1
 10
1435.378840
 20
-1213.679181
 30
0.0
 11
1527.878840
 21
-1208.831461
 31
0.0
  0
ARC
  8
0
  6
BYLAYER
 62
     1
 10
1375.656896
 20
-908.350759
 30
0.0
 40
3.000000
 50
9.198816
 51
87.000000
  0
ARC
  8
0
  6
BYLAYER
 62
     1
 10
1435.378840
 20
-898.679181
 30
0.0
 40
57.5
 50
179.698092
 51
360.301908
  0
LINE
  8
0
  6
BYLAYER
 62
     1
 10
1335.378840
 20
-959.179181
 30
0.0
 11
1335.378840
 21
-1138.179181
 31
0.0
  0
LINE
  8
0
  6
BYLAYER
 62
     1
 10
1531.378840
 20
-923.679181
 30
0.0
 11
1515.378840
 21
-922.840657
 31
0.0
  0
LINE
  8
0
  6
BYLAYER
 62
     1
 10
1534.878840
 20
-958.679181
 30
0.0
 11
1531.378840
 21
-958.679181
 31
0.0
  0
LINE
  8
0
  6
BYLAYER
 62
     1
 10
1534.878840
 20
-958.679181
 30
0.0
 11
1535.378840
 21
-959.179181
 31
0.0
  0
LINE
  8
0
  6
BYLAYER
 62
     1
 10
1534.878840
 20
-1138.679181
 30
0.0
 11
1531.378840
 21
-1138.679181
 31
0.0
  0
LINE
  8
0
  6
BYLAYER
 62
     1
 10
1534.878840
 20
-1138.679181
 30
0.0
 11
1535.378840
 21
-1138.179181
 31
0.0
  0
LINE
  8
0
  6
BYLAYER
 62
     1
 10
1531.378840
 20
-923.679181
 30
0.0
 11
1531.378840
 21
-1173.679181
 31
0.0
  0
LINE
  8
0
  6
BYLAYER
 62
     1
 10
1531.378840
 20
-1173.679181
 30
0.0
 11
1527.878840
 21
-1173.862608
 31
0.0
  0
LINE
  8
0
  6
BYLAYER
 62
     1
 10
1527.378840
 20
-972.312314
 30
0.0
 11
1527.378840
 21
-1033.268789
 31
0.0
  0
ARC
  8
0
  6
BYLAYER
 62
     1
 10
1529.378840
 20
-972.312314
 30
0.0
 40
2.000000
 50
93.000000
 51
180.000000
  0
LINE
  8
0
  6
BYLAYER
 62
     1
 10
1527.378840
 20
-926.287731
 30
0.0
 11
1527.378840
 21
-949.274255
 31
0.0
  0
ARC
  8
0
  6
BYLAYER
 62
     1
 10
1529.378840
 20
-949.274255
 30
0.0
 40
2.0
 50
180.000000
 51
267.0
  0
ARC
  8
0
  6
BYLAYER
 62
     1
 10
1529.378840
 20
-926.287731
 30
0.0
 40
2.000000
 50
87.000000
 51
180.000000
  0
LINE
  8
0
  6
BYLAYER
 62
     1
 10
1531.378840
 20
-924.389802
 30
0.0
 11
1529.483512
 21
-924.290472
 31
0.0
  0
LINE
  8
0
  6
BYLAYER
 62
     1
 10
1531.378840
 20
-951.381815
 30
0.0
 11
1529.274168
 21
-951.271514
 31
0.0
  0
LINE
  8
0
  6
BYLAYER
 62
     1
 10
1531.244210
 20
-1035.369294
 30
0.0
 11
1529.274168
 21
-1035.266048
 31
0.0
  0
ARC
  8
0
  6
BYLAYER
 62
     1
 10
1529.378840
 20
-1033.268789
 30
0.0
 40
2.0
 50
180.000000
 51
267.0
  0
LINE
  8
0
  6
BYLAYER
 62
     1
 10
1531.244210
 20
-1061.988961
 30
0.0
 11
1529.274168
 21
-1062.092206
 31
0.0
  0
ARC
  8
0
  6
BYLAYER
 62
     1
 10
1529.378840
 20
-1064.089465
 30
0.0
 40
2.000000
 50
93.000000
 51
180.000000
  0
LINE
  8
0
  6
BYLAYER
 62
     1
 10
1531.378840
 20
-970.204754
 30
0.0
 11
1529.274168
 21
-970.315055
 31
0.0
  0
LINE
  8
0
  6
BYLAYER
 62
     1
 10
1527.378840
 20
-1125.046048
 30
0.0
 11
1527.378840
 21
-1064.089465
 31
0.0
  0
ARC
  8
0
  6
BYLAYER
 62
     1
 10
1529.378840
 20
-1125.046048
 30
0.0
 40
2.0
 50
180.000000
 51
267.0
  0
LINE
  8
0
  6
BYLAYER
 62
     1
 10
1531.378840
 20
-1172.968560
 30
0.0
 11
1527.878840
 21
-1173.151987
 31
0.0
  0
LINE
  8
0
  6
BYLAYER
 62
     1
 10
1531.378840
 20
-1145.976547
 30
0.0
 11
1527.878840
 21
-1146.159974
 31
0.0
  0
LINE
  8
0
  6
BYLAYER
 62
     1
 10
1531.378840
 20
-1127.153608
 30
0.0
 11
1529.274168
 21
-1127.043307
 31
0.0
  0
LINE
  8
0
  6
BYLAYER
 62
     1
 10
1535.378840
 20
-959.179181
 30
0.0
 11
1535.378840
 21
-1138.179181
 31
0.0
  0
LINE
  8
0
  6
BYLAYER
 62
     1
 10
315.378840
 20
-956.179181
 30
0.0
 11
315.378840
 21
-1141.179181
 31
0.0
  0
LINE
  8
0
  6
BYLAYER
 62
     1
 10
655.378840
 20
-956.179181
 30
0.0
 11
655.378840
 21
-1141.179181
 31
0.0
  0
LINE
  8
0
  6
BYLAYER
 62
     1
 10
390.378840
 20
-956.179181
 30
0.0
 11
315.378840
 21
-956.179181
 31
0.0
  0
LINE
  8
0
  6
BYLAYER
 62
     1
 10
655.378840
 20
-956.179181
 30
0.0
 11
580.378840
 21
-956.179181
 31
0.0
  0
LINE
  8
0
  6
BYLAYER
 62
     1
 10
390.378840
 20
-1141.179181
 30
0.0
 11
315.378840
 21
-1141.179181
 31
0.0
  0
LINE
  8
0
  6
BYLAYER
 62
     1
 10
655.378840
 20
-1141.179181
 30
0.0
 11
580.378840
 21
-1141.179181
 31
0.0
  0
LINE
  8
0
  6
BYLAYER
 62
     1
 10
390.378840
 20
-956.179181
 30
0.0
 11
402.878840
 21
-968.679181
 31
0.0
  0
LINE
  8
0
  6
BYLAYER
 62
     1
 10
580.378840
 20
-1141.179181
 30
0.0
 11
567.878840
 21
-1128.679181
 31
0.0
  0
LINE
  8
0
  6
BYLAYER
 62
     1
 10
580.378840
 20
-956.179181
 30
0.0
 11
567.878840
 21
-968.679181
 31
0.0
  0
LINE
  8
0
  6
BYLAYER
 62
     1
 10
390.378840
 20
-1141.179181
 30
0.0
 11
402.878840
 21
-1128.679181
 31
0.0
  0
LINE
  8
0
  6
BYLAYER
 62
     1
 10
567.878840
 20
-968.679181
 30
0.0
 11
402.878840
 21
-968.679181
 31
0.0
  0
LINE
  8
0
  6
BYLAYER
 62
     1
 10
567.878840
 20
-1128.679181
 30
0.0
 11
402.878840
 21
-1128.679181
 31
0.0
  0
LINE
  8
0
  6
BYLAYER
 62
     1
 10
390.378840
 20
-1141.179181
 30
0.0
 11
395.226560
 21
-1048.679181
 31
0.0
  0
LINE
  8
0
  6
BYLAYER
 62
     1
 10
580.378840
 20
-956.179181
 30
0.0
 11
576.081888
 21
-1038.169911
 31
0.0
  0
LINE
  8
0
  6
BYLAYER
 62
     1
 10
390.378840
 20
-956.179181
 30
0.0
 11
395.226560
 21
-1048.679181
 31
0.0
  0
LINE
  8
0
  6
BYLAYER
 62
     1
 10
580.378840
 20
-1141.179181
 30
0.0
 11
576.081888
 21
-1059.188451
 31
0.0
  0
CIRCLE
  8
0
  6
BYLAYER
 62
     1
 10
365.378840
 20
-1121.179181
 30
0.0
 40
9.0
  0
CIRCLE
  8
0
  6
BYLAYER
 62
     1
 10
365.378840
 20
-976.179181
 30
0.0
 40
9.0
  0
CIRCLE
  8
0
  6
BYLAYER
 62
     1
 10
605.378840
 20
-1121.179181
 30
0.0
 40
9.0
  0
CIRCLE
  8
0
  6
BYLAYER
 62
     1
 10
605.378840
 20
-976.179181
 30
0.0
 40
9.0
  0
CIRCLE
  8
0
  6
BYLAYER
 62
     1
 10
565.378840
 20
-1048.679181
 30
0.0
 40
15.0
  0
LINE
  8
0
  6
BYLAYER
 62
     1
 10
467.531946
 20
-1040.679181
 30
0.0
 11
453.225734
 21
-1040.679181
 31
0.0
  0
LINE
  8
0
  6
BYLAYER
 62
     1
 10
417.531946
 20
-1040.679181
 30
0.0
 11
403.662425
 21
-1040.679181
 31
0.0
  0
ARC
  8
0
  6
BYLAYER
 62
     1
 10
403.662425
 20
-1037.679181
 30
0.0
 40
3.0
 50
183.000000
 51
270.000000
  0
ARC
  8
0
  6
BYLAYER
 62
     1
 10
417.531946
 20
-1037.679181
 30
0.0
 40
3.000000
 50
270.0
 51
357.0
  0
LINE
  8
0
  6
BYLAYER
 62
     1
 10
517.531946
 20
-1040.679181
 30
0.0
 11
503.225734
 21
-1040.679181
 31
0.0
  0
ARC
  8
0
  6
BYLAYER
 62
     1
 10
503.225734
 20
-1037.679181
 30
0.0
 40
3.0
 50
183.000000
 51
270.000000
  0
LINE
  8
0
  6
BYLAYER
 62
     1
 10
417.531946
 20
-1056.679181
 30
0.0
 11
403.662425
 21
-1056.679181
 31
0.0
  0
ARC
  8
0
  6
BYLAYER
 62
     1
 10
403.662425
 20
-1059.679181
 30
0.0
 40
3.000000
 50
90.0
 51
177.0
  0
ARC
  8
0
  6
BYLAYER
 62
     1
 10
417.531946
 20
-1059.679181
 30
0.0
 40
3.0
 50
3.000000
 51
90.000000
  0
LINE
  8
0
  6
BYLAYER
 62
     1
 10
467.531946
 20
-1056.679181
 30
0.0
 11
453.225734
 21
-1056.679181
 31
0.0
  0
LINE
  8
0
  6
BYLAYER
 62
     1
 10
517.531946
 20
-1056.679181
 30
0.0
 11
503.225734
 21
-1056.679181
 31
0.0
  0
ARC
  8
0
  6
BYLAYER
 62
     1
 10
503.225734
 20
-1059.679181
 30
0.0
 40
3.000000
 50
90.0
 51
177.0
  0
LINE
  8
0
  6
BYLAYER
 62
     1
 10
500.229845
 20
-1059.522173
 30
0.0
 11
496.754475
 21
-1125.836189
 31
0.0
  0
ARC
  8
0
  6
BYLAYER
 62
     1
 10
493.758586
 20
-1125.679181
 30
0.0
 40
3.000000
 50
270.0
 51
357.0
  0
LINE
  8
0
  6
BYLAYER
 62
     1
 10
470.527835
 20
-1037.836189
 30
0.0
 11
474.003205
 21
-971.522173
 31
0.0
  0
ARC
  8
0
  6
BYLAYER
 62
     1
 10
476.999094
 20
-971.679181
 30
0.0
 40
3.0
 50
90.0
 51
177.0
  0
ARC
  8
0
  6
BYLAYER
 62
     1
 10
467.531946
 20
-1037.679181
 30
0.0
 40
3.000000
 50
270.0
 51
357.0
  0
LINE
  8
0
  6
BYLAYER
 62
     1
 10
500.229845
 20
-1037.836189
 30
0.0
 11
496.754475
 21
-971.522173
 31
0.0
  0
ARC
  8
0
  6
BYLAYER
 62
     1
 10
493.758586
 20
-971.679181
 30
0.0
 40
3.000000
 50
3.000000
 51
90.000000
  0
LINE
  8
0
  6
BYLAYER
 62
     1
 10
470.527835
 20
-1059.522173
 30
0.0
 11
474.003205
 21
-1125.836189
 31
0.0
  0
ARC
  8
0
  6
BYLAYER
 62
     1
 10
476.999094
 20
-1125.679181
 30
0.0
 40
3.0
 50
183.000000
 51
270.000000
  0
ARC
  8
0
  6
BYLAYER
 62
     1
 10
467.531946
 20
-1059.679181
 30
0.0
 40
3.0
 50
3.000000
 51
90.000000
  0
LINE
  8
0
  6
BYLAYER
 62
     1
 10
420.527835
 20
-1059.522173
 30
0.0
 11
424.003205
 21
-1125.836189
 31
0.0
  0
ARC
  8
0
  6
BYLAYER
 62
     1
 10
426.999094
 20
-1125.679181
 30
0.0
 40
3.0
 50
183.000000
 51
270.000000
  0
LINE
  8
0
  6
BYLAYER
 62
     1
 10
450.229845
 20
-1037.836189
 30
0.0
 11
446.754475
 21
-971.522173
 31
0.0
  0
ARC
  8
0
  6
BYLAYER
 62
     1
 10
443.758586
 20
-971.679181
 30
0.0
 40
3.000000
 50
3.000000
 51
90.000000
  0
ARC
  8
0
  6
BYLAYER
 62
     1
 10
453.225734
 20
-1037.679181
 30
0.0
 40
3.0
 50
183.000000
 51
270.000000
  0
LINE
  8
0
  6
BYLAYER
 62
     1
 10
549.920519
 20
-1031.933888
 30
0.0
 11
546.754475
 21
-971.522173
 31
0.0
  0
ARC
  8
0
  6
BYLAYER
 62
     1
 10
552.916407
 20
-1031.776880
 30
0.0
 40
3.0
 50
183.000000
 51
306.402156
  0
ARC
  8
0
  6
BYLAYER
 62
     1
 10
543.758586
 20
-971.679181
 30
0.0
 40
3.000000
 50
3.000000
 51
90.000000
  0
LINE
  8
0
  6
BYLAYER
 62
     1
 10
520.527835
 20
-1059.522173
 30
0.0
 11
524.003205
 21
-1125.836189
 31
0.0
  0
ARC
  8
0
  6
BYLAYER
 62
     1
 10
526.999094
 20
-1125.679181
 30
0.0
 40
3.000000
 50
183.000000
 51
270.000000
  0
ARC
  8
0
  6
BYLAYER
 62
     1
 10
517.531946
 20
-1059.679181
 30
0.0
 40
3.000000
 50
3.000000
 51
90.000000
  0
LINE
  8
0
  6
BYLAYER
 62
     1
 10
420.527835
 20
-1037.836189
 30
0.0
 11
424.003205
 21
-971.522173
 31
0.0
  0
ARC
  8
0
  6
BYLAYER
 62
     1
 10
426.999094
 20
-971.679181
 30
0.0
 40
3.0
 50
90.0
 51
177.0
  0
LINE
  8
0
  6
BYLAYER
 62
     1
 10
520.527835
 20
-1037.836189
 30
0.0
 11
524.003205
 21
-971.522173
 31
0.0
  0
ARC
  8
0
  6
BYLAYER
 62
     1
 10
526.999094
 20
-971.679181
 30
0.0
 40
3.000000
 50
90.0
 51
177.0
  0
ARC
  8
0
  6
BYLAYER
 62
     1
 10
517.531946
 20
-1037.679181
 30
0.0
 40
3.000000
 50
270.0
 51
357.0
  0
LINE
  8
0
  6
BYLAYER
 62
     1
 10
549.920519
 20
-1065.424474
 30
0.0
 11
546.754475
 21
-1125.836189
 31
0.0
  0
ARC
  8
0
  6
BYLAYER
 62
     1
 10
552.916407
 20
-1065.581482
 30
0.0
 40
3.0
 50
53.597844
 51
177.000000
  0
ARC
  8
0
  6
BYLAYER
 62
     1
 10
543.758586
 20
-1125.679181
 30
0.0
 40
3.000000
 50
270.0
 51
357.0
  0
LINE
  8
0
  6
BYLAYER
 62
     1
 10
450.229845
 20
-1059.522173
 30
0.0
 11
446.754475
 21
-1125.836189
 31
0.0
  0
ARC
  8
0
  6
BYLAYER
 62
     1
 10
443.758586
 20
-1125.679181
 30
0.0
 40
3.000000
 50
270.0
 51
357.0
  0
ARC
  8
0
  6
BYLAYER
 62
     1
 10
453.225734
 20
-1059.679181
 30
0.0
 40
3.000000
 50
90.0
 51
177.0
  0
LINE
  8
0
  6
BYLAYER
 62
     1
 10
396.719367
 20
-1134.838654
 30
0.0
 11
401.234794
 21
-1048.679181
 31
0.0
  0
LINE
  8
0
  6
BYLAYER
 62
     1
 10
396.719367
 20
-962.519708
 30
0.0
 11
401.234794
 21
-1048.679181
 31
0.0
  0
LINE
  8
0
  6
BYLAYER
 62
     1
 10
574.038313
 20
-1134.838654
 30
0.0
 11
570.266107
 21
-1062.860670
 31
0.0
  0
LINE
  8
0
  6
BYLAYER
 62
     1
 10
574.038313
 20
-962.519708
 30
0.0
 11
570.266107
 21
-1034.497692
 31
0.0
  0
LINE
  8
0
  6
BYLAYER
 62
     1
 10
610.378840
 20
-952.679181
 30
0.0
 11
610.562267
 21
-956.179181
 31
0.0
  0
LINE
  8
0
  6
BYLAYER
 62
     1
 10
575.378840
 20
-948.679181
 30
0.0
 11
395.378840
 21
-948.679181
 31
0.0
  0
LINE
  8
0
  6
BYLAYER
 62
     1
 10
575.378840
 20
-948.679181
 30
0.0
 11
575.378840
 21
-952.679181
 31
0.0
  0
LINE
  8
0
  6
BYLAYER
 62
     1
 10
395.378840
 20
-948.679181
 30
0.0
 11
395.378840
 21
-952.679181
 31
0.0
  0
LINE
  8
0
  6
BYLAYER
 62
     1
 10
610.378840
 20
-952.679181
 30
0.0
 11
360.378840
 21
-952.679181
 31
0.0
  0
LINE
  8
0
  6
BYLAYER
 62
     1
 10
360.378840
 20
-952.679181
 30
0.0
 11
360.195413
 21
-956.179181
 31
0.0
  0
LINE
  8
0
  6
BYLAYER
 62
     1
 10
561.745707
 20
-956.679181
 30
0.0
 11
500.789232
 21
-956.679181
 31
0.0
  0
ARC
  8
0
  6
BYLAYER
 62
     1
 10
500.789232
 20
-954.679181
 30
0.0
 40
2.0
 50
183.000000
 51
270.000000
  0
ARC
  8
0
  6
BYLAYER
 62
     1
 10
561.745707
 20
-954.679181
 30
0.0
 40
2.0
 50
270.0
 51
357.0
  0
LINE
  8
0
  6
BYLAYER
 62
     1
 10
609.668219
 20
-952.679181
 30
0.0
 11
609.851646
 21
-956.179181
 31
0.0
  0
LINE
  8
0
  6
BYLAYER
 62
     1
 10
582.676206
 20
-952.679181
 30
0.0
 11
582.859633
 21
-956.179181
 31
0.0
  0
LINE
  8
0
  6
BYLAYER
 62
     1
 10
498.688727
 20
-952.813811
 30
0.0
 11
498.791973
 21
-954.783853
 31
0.0
  0
LINE
  8
0
  6
BYLAYER
 62
     1
 10
472.069060
 20
-952.813811
 30
0.0
 11
471.965815
 21
-954.783853
 31
0.0
  0
LINE
  8
0
  6
BYLAYER
 62
     1
 10
563.853267
 20
-952.679181
 30
0.0
 11
563.742966
 21
-954.783853
 31
0.0
  0
LINE
  8
0
  6
BYLAYER
 62
     1
 10
409.011973
 20
-956.679181
 30
0.0
 11
469.968556
 21
-956.679181
 31
0.0
  0
ARC
  8
0
  6
BYLAYER
 62
     1
 10
409.011973
 20
-954.679181
 30
0.0
 40
2.0
 50
183.000000
 51
270.000000
  0
ARC
  8
0
  6
BYLAYER
 62
     1
 10
469.968556
 20
-954.679181
 30
0.0
 40
2.0
 50
270.0
 51
357.0
  0
LINE
  8
0
  6
BYLAYER
 62
     1
 10
361.089461
 20
-952.679181
 30
0.0
 11
360.906034
 21
-956.179181
 31
0.0
  0
LINE
  8
0
  6
BYLAYER
 62
     1
 10
388.081474
 20
-952.679181
 30
0.0
 11
387.898047
 21
-956.179181
 31
0.0
  0
LINE
  8
0
  6
BYLAYER
 62
     1
 10
406.904413
 20
-952.679181
 30
0.0
 11
407.014714
 21
-954.783853
 31
0.0
  0
LINE
  8
0
  6
BYLAYER
 62
     1
 10
320.378840
 20
-1048.679181
 30
0.0
 11
325.226560
 21
-956.179181
 31
0.0
  0
LINE
  8
0
  6
BYLAYER
 62
     1
 10
650.378840
 20
-1048.679181
 30
0.0
 11
645.531120
 21
-1141.179181
 31
0.0
  0
LINE
  8
0
  6
BYLAYER
 62
     1
 10
320.378840
 20
-1048.679181
 30
0.0
 11
325.226560
 21
-1141.179181
 31
0.0
  0
LINE
  8
0
  6
BYLAYER
 62
     1
 10
650.378840
 20
-1048.679181
 30
0.0
 11
645.531120
 21
-956.179181
 31
0.0
  0
ARC
  8
0
  6
BYLAYER
 62
     1
 10
565.378840
 20
-1048.679181
 30
0.0
 40
18.000000
 50
233.597844
 51
276.107410
  0
ARC
  8
0
  6
BYLAYER
 62
     1
 10
567.613086
 20
-1069.559989
 30
0.0
 40
3.0
 50
3.000000
 51
96.107410
  0
ARC
  8
0
  6
BYLAYER
 62
     1
 10
565.378840
 20
-1048.679181
 30
0.0
 40
18.000000
 50
83.892590
 51
126.402156
  0
ARC
  8
0
  6
BYLAYER
 62
     1
 10
567.613086
 20
-1027.798373
 30
0.0
 40
3.0
 50
263.892590
 51
357.000000
  0
LINE
  8
0
  6
BYLAYER
 62
     1
 10
610.378840
 20
-1144.679181
 30
0.0
 11
610.562267
 21
-1141.179181
 31
0.0
  0
LINE
  8
0
  6
BYLAYER
 62
     1
 10
575.378840
 20
-1148.679181
 30
0.0
 11
395.378840
 21
-1148.679181
 31
0.0
  0
LINE
  8
0
  6
BYLAYER
 62
     1
 10
575.378840
 20
-1148.679181
 30
0.0
 11
575.378840
 21
-1144.679181
 31
0.0
  0
LINE
  8
0
  6
BYLAYER
 62
     1
 10
395.378840
 20
-1148.679181
 30
0.0
 11
395.378840
 21
-1144.679181
 31
0.0
  0
LINE
  8
0
  6
BYLAYER
 62
     1
 10
610.378840
 20
-1144.679181
 30
0.0
 11
360.378840
 21
-1144.679181
 31
0.0
  0
LINE
  8
0
  6
BYLAYER
 62
     1
 10
360.378840
 20
-1144.679181
 30
0.0
 11
360.195413
 21
-1141.179181
 31
0.0
  0
LINE
  8
0
  6
BYLAYER
 62
     1
 10
561.745707
 20
-1140.679181
 30
0.0
 11
500.789232
 21
-1140.679181
 31
0.0
  0
ARC
  8
0
  6
BYLAYER
 62
     1
 10
500.789232
 20
-1142.679181
 30
0.0
 40
2.0
 50
90.0
 51
177.0
  0
ARC
  8
0
  6
BYLAYER
 62
     1
 10
561.745707
 20
-1142.679181
 30
0.0
 40
2.000000
 50
3.000000
 51
90.000000
  0
LINE
  8
0
  6
BYLAYER
 62
     1
 10
609.668219
 20
-1144.679181
 30
0.0
 11
609.851646
 21
-1141.179181
 31
0.0
  0
LINE
  8
0
  6
BYLAYER
 62
     1
 10
582.676206
 20
-1144.679181
 30
0.0
 11
582.859633
 21
-1141.179181
 31
0.0
  0
LINE
  8
0
  6
BYLAYER
 62
     1
 10
498.688727
 20
-1144.544551
 30
0.0
 11
498.791973
 21
-1142.574509
 31
0.0
  0
LINE
  8
0
  6
BYLAYER
 62
     1
 10
472.069060
 20
-1144.544551
 30
0.0
 11
471.965815
 21
-1142.574509
 31
0.0
  0
LINE
  8
0
  6
BYLAYER
 62
     1
 10
563.853267
 20
-1144.679181
 30
0.0
 11
563.742966
 21
-1142.574509
 31
0.0
  0
LINE
  8
0
  6
BYLAYER
 62
     1
 10
409.011973
 20
-1140.679181
 30
0.0
 11
469.968556
 21
-1140.679181
 31
0.0
  0
ARC
  8
0
  6
BYLAYER
 62
     1
 10
409.011973
 20
-1142.679181
 30
0.0
 40
2.0
 50
90.0
 51
177.0
  0
ARC
  8
0
  6
BYLAYER
 62
     1
 10
469.968556
 20
-1142.679181
 30
0.0
 40
2.000000
 50
3.000000
 51
90.000000
  0
LINE
  8
0
  6
BYLAYER
 62
     1
 10
361.089461
 20
-1144.679181
 30
0.0
 11
360.906034
 21
-1141.179181
 31
0.0
  0
LINE
  8
0
  6
BYLAYER
 62
     1
 10
388.081474
 20
-1144.679181
 30
0.0
 11
387.898047
 21
-1141.179181
 31
0.0
  0
LINE
  8
0
  6
BYLAYER
 62
     1
 10
406.904413
 20
-1144.679181
 30
0.0
 11
407.014714
 21
-1142.574509
 31
0.0
  0
LINE
  8
0
  6
BYLAYER
 62
     1
 10
655.378840
 20
-148.679181
 30
0.0
 11
655.378840
 21
-228.679181
 31
0.0
  0
LINE
  8
0
  6
BYLAYER
 62
     1
 10
680.378840
 20
-228.679181
 30
0.0
 11
680.378840
 21
-57.312192
 31
0.0
  0
ARC
  8
0
  6
BYLAYER
 62
     1
 10
677.378840
 20
-94.401424
 30
0.0
 40
3.0
 50
335.000000
 51
360.000000
  0
LINE
  8
0
  6
BYLAYER
 62
     1
 10
695.378840
 20
-53.679181
 30
0.0
 11
683.221827
 21
-54.316296
 31
0.0
  0
ARC
  8
0
  6
BYLAYER
 62
     1
 10
683.378840
 20
-57.312192
 30
0.0
 40
3.000000
 50
93.000010
 51
180.000009
  0
LINE
  8
0
  6
BYLAYER
 62
     1
 10
695.378840
 20
-228.679181
 30
0.0
 11
695.378840
 21
-53.679181
 31
0.0
  0
LINE
  8
0
  6
BYLAYER
 62
     1
 10
655.378840
 20
-148.679181
 30
0.0
 11
680.097763
 21
-95.669278
 31
0.0
  0
LINE
  8
0
  6
BYLAYER
 62
     1
 10
655.378840
 20
-308.679181
 30
0.0
 11
655.378840
 21
-228.679181
 31
0.0
  0
LINE
  8
0
  6
BYLAYER
 62
     1
 10
680.378840
 20
-228.679181
 30
0.0
 11
680.378840
 21
-400.046170
 31
0.0
  0
ARC
  8
0
  6
BYLAYER
 62
     1
 10
677.378840
 20
-362.956938
 30
0.0
 40
3.000000
 50
0.0
 51
25.0
  0
LINE
  8
0
  6
BYLAYER
 62
     1
 10
695.378840
 20
-403.679181
 30
0.0
 11
683.221827
 21
-403.042066
 31
0.0
  0
ARC
  8
0
  6
BYLAYER
 62
     1
 10
683.378840
 20
-400.046170
 30
0.0
 40
3.000000
 50
180.000000
 51
266.999999
  0
LINE
  8
0
  6
BYLAYER
 62
     1
 10
695.378840
 20
-228.679181
 30
0.0
 11
695.378840
 21
-403.679181
 31
0.0
  0
LINE
  8
0
  6
BYLAYER
 62
     1
 10
655.378840
 20
-308.679181
 30
0.0
 11
680.097763
 21
-361.689084
 31
0.0
  0
LINE
  8
0
  6
BYLAYER
 62
     1
 10
1535.378840
 20
-372.293247
 30
0.0
 11
1535.378840
 21
-468.179181
 31
0.0
  0
LINE
  8
0
  6
BYLAYER
 62
     1
 10
1535.378840
 20
-468.179181
 30
0.0
 11
1534.878840
 21
-468.679181
 31
0.0
  0
LINE
  8
0
  6
BYLAYER
 62
     1
 10
1534.878840
 20
-468.679181
 30
0.0
 11
1531.378840
 21
-468.679181
 31
0.0
  0
LINE
  8
0
  6
BYLAYER
 62
     1
 10
1531.378840
 20
-374.997328
 30
0.0
 11
1531.378840
 21
-503.679181
 31
0.0
  0
LINE
  8
0
  6
BYLAYER
 62
     1
 10
1342.878840
 20
-548.679181
 30
0.0
 11
1527.878840
 21
-548.679181
 31
0.0
  0
LINE
  8
0
  6
BYLAYER
 62
     1
 10
1531.378840
 20
-503.679181
 30
0.0
 11
1527.878840
 21
-503.862608
 31
0.0
  0
LINE
  8
0
  6
BYLAYER
 62
     1
 10
1515.378840
 20
-461.179181
 30
0.0
 11
1515.378840
 21
-384.323005
 31
0.0
  0
LINE
  8
0
  6
BYLAYER
 62
     1
 10
1355.378840
 20
-384.323005
 30
0.0
 11
1355.378840
 21
-461.179181
 31
0.0
  0
LINE
  8
0
  6
BYLAYER
 62
     1
 10
1342.878840
 20
-473.679181
 30
0.0
 11
1342.878840
 21
-548.679181
 31
0.0
  0
LINE
  8
0
  6
BYLAYER
 62
     1
 10
1342.878840
 20
-473.679181
 30
0.0
 11
1355.378840
 21
-461.179181
 31
0.0
  0
LINE
  8
0
  6
BYLAYER
 62
     1
 10
1527.878840
 20
-473.679181
 30
0.0
 11
1527.878840
 21
-548.679181
 31
0.0
  0
LINE
  8
0
  6
BYLAYER
 62
     1
 10
1527.878840
 20
-473.679181
 30
0.0
 11
1515.378840
 21
-461.179181
 31
0.0
  0
LINE
  8
0
  6
BYLAYER
 62
     1
 10
1527.878840
 20
-473.679181
 30
0.0
 11
1435.378840
 21
-468.831461
 31
0.0
  0
LINE
  8
0
  6
BYLAYER
 62
     1
 10
1342.878840
 20
-473.679181
 30
0.0
 11
1435.378840
 21
-468.831461
 31
0.0
  0
LINE
  8
0
  6
BYLAYER
 62
     1
 10
1521.878840
 20
-467.679181
 30
0.0
 11
1435.378840
 21
-463.145908
 31
0.0
  0
LINE
  8
0
  6
BYLAYER
 62
     1
 10
1348.878840
 20
-467.679181
 30
0.0
 11
1435.378840
 21
-463.145908
 31
0.0
  0
CIRCLE
  8
0
  6
BYLAYER
 62
     1
 10
1435.378840
 20
-521.179181
 30
0.0
 40
15.0
  0
LINE
  8
0
  6
BYLAYER
 62
     1
 10
1531.244210
 20
-391.988961
 30
0.0
 11
1529.274168
 21
-392.092206
 31
0.0
  0
LINE
  8
0
  6
BYLAYER
 62
     1
 10
1527.378840
 20
-455.046048
 30
0.0
 11
1527.378840
 21
-394.089465
 31
0.0
  0
ARC
  8
0
  6
BYLAYER
 62
     1
 10
1529.378840
 20
-455.046048
 30
0.0
 40
2.0
 50
180.000000
 51
267.0
  0
ARC
  8
0
  6
BYLAYER
 62
     1
 10
1529.378840
 20
-394.089465
 30
0.0
 40
2.000000
 50
93.000000
 51
180.000000
  0
LINE
  8
0
  6
BYLAYER
 62
     1
 10
1531.378840
 20
-502.968560
 30
0.0
 11
1527.878840
 21
-503.151987
 31
0.0
  0
LINE
  8
0
  6
BYLAYER
 62
     1
 10
1531.378840
 20
-475.976547
 30
0.0
 11
1527.878840
 21
-476.159974
 31
0.0
  0
LINE
  8
0
  6
BYLAYER
 62
     1
 10
1531.378840
 20
-457.153608
 30
0.0
 11
1529.274168
 21
-457.043307
 31
0.0
  0
LINE
  8
0
  6
BYLAYER
 62
     1
 10
1501.706923
 20
-390.622336
 30
0.0
 11
1512.535848
 21
-390.054816
 31
0.0
  0
ARC
  8
0
  6
BYLAYER
 62
     1
 10
1512.378840
 20
-387.058927
 30
0.0
 40
3.0
 50
273.000000
 51
360.000000
  0
LINE
  8
0
  6
BYLAYER
 62
     1
 10
1369.050757
 20
-390.622336
 30
0.0
 11
1358.221832
 21
-390.054816
 31
0.0
  0
ARC
  8
0
  6
BYLAYER
 62
     1
 10
1358.378840
 20
-387.058927
 30
0.0
 40
3.000000
 50
180.000000
 51
267.0
  0
LINE
  8
0
  6
BYLAYER
 62
     1
 10
1443.378840
 20
-403.496228
 30
0.0
 11
1443.378840
 21
-410.832287
 31
0.0
  0
ARC
  8
0
  6
BYLAYER
 62
     1
 10
1446.378840
 20
-410.832287
 30
0.0
 40
3.000000
 50
180.000000
 51
267.0
  0
LINE
  8
0
  6
BYLAYER
 62
     1
 10
1446.221832
 20
-413.828176
 30
0.0
 11
1512.535848
 21
-417.303546
 31
0.0
  0
ARC
  8
0
  6
BYLAYER
 62
     1
 10
1512.378840
 20
-420.299435
 30
0.0
 40
3.000000
 50
0.0
 51
87.0
  0
LINE
  8
0
  6
BYLAYER
 62
     1
 10
1427.378840
 20
-403.496228
 30
0.0
 11
1427.378840
 21
-410.832287
 31
0.0
  0
ARC
  8
0
  6
BYLAYER
 62
     1
 10
1424.378840
 20
-410.832287
 30
0.0
 40
3.0
 50
273.000000
 51
360.000000
  0
LINE
  8
0
  6
BYLAYER
 62
     1
 10
1424.535848
 20
-413.828176
 30
0.0
 11
1358.221832
 21
-417.303546
 31
0.0
  0
ARC
  8
0
  6
BYLAYER
 62
     1
 10
1358.378840
 20
-420.299435
 30
0.0
 40
3.0
 50
93.000000
 51
180.000000
  0
LINE
  8
0
  6
BYLAYER
 62
     1
 10
1446.221832
 20
-443.530186
 30
0.0
 11
1512.535848
 21
-440.054816
 31
0.0
  0
ARC
  8
0
  6
BYLAYER
 62
     1
 10
1512.378840
 20
-437.058927
 30
0.0
 40
3.0
 50
273.000000
 51
360.000000
  0
LINE
  8
0
  6
BYLAYER
 62
     1
 10
1424.535848
 20
-443.530186
 30
0.0
 11
1358.221832
 21
-440.054816
 31
0.0
  0
ARC
  8
0
  6
BYLAYER
 62
     1
 10
1424.378840
 20
-446.526075
 30
0.0
 40
3.000000
 50
0.0
 51
87.0
  0
ARC
  8
0
  6
BYLAYER
 62
     1
 10
1358.378840
 20
-437.058927
 30
0.0
 40
3.000000
 50
180.000000
 51
267.0
  0
LINE
  8
0
  6
BYLAYER
 62
     1
 10
1443.378840
 20
-446.526075
 30
0.0
 11
1443.378840
 21
-460.718277
 31
0.0
  0
ARC
  8
0
  6
BYLAYER
 62
     1
 10
1446.378840
 20
-460.718277
 30
0.0
 40
3.000000
 50
180.000000
 51
267.0
  0
ARC
  8
0
  6
BYLAYER
 62
     1
 10
1446.378840
 20
-446.526075
 30
0.0
 40
3.0
 50
93.000000
 51
180.000000
  0
LINE
  8
0
  6
BYLAYER
 62
     1
 10
1427.378840
 20
-446.526075
 30
0.0
 11
1427.378840
 21
-460.718277
 31
0.0
  0
ARC
  8
0
  6
BYLAYER
 62
     1
 10
1424.378840
 20
-460.718277
 30
0.0
 40
3.0
 50
273.000000
 51
360.000000
  0
LINE
  8
0
  6
BYLAYER
 62
     1
 10
1435.378840
 20
-403.679181
 30
0.0
 11
1435.378840
 21
-506.179181
 31
0.0
  0
LINE
  8
0
  6
BYLAYER
 62
     1
 10
1435.378840
 20
-548.679181
 30
0.0
 11
1435.378840
 21
-536.179181
 31
0.0
  0
LINE
  8
0
  6
BYLAYER
 62
     1
 10
1435.378840
 20
-543.679181
 30
0.0
 11
1527.878840
 21
-538.831461
 31
0.0
  0
LINE
  8
0
  6
BYLAYER
 62
     1
 10
1435.378840
 20
-543.679181
 30
0.0
 11
1342.878840
 21
-538.831461
 31
0.0
  0
LINE
  8
0
  6
BYLAYER
 62
     1
 10
1335.378840
 20
-372.293247
 30
0.0
 11
1335.378840
 21
-468.179181
 31
0.0
  0
LINE
  8
0
  6
BYLAYER
 62
     1
 10
1335.378840
 20
-468.179181
 30
0.0
 11
1335.878840
 21
-468.679181
 31
0.0
  0
LINE
  8
0
  6
BYLAYER
 62
     1
 10
1335.878840
 20
-468.679181
 30
0.0
 11
1339.378840
 21
-468.679181
 31
0.0
  0
LINE
  8
0
  6
BYLAYER
 62
     1
 10
1339.378840
 20
-374.997328
 30
0.0
 11
1339.378840
 21
-503.679181
 31
0.0
  0
LINE
  8
0
  6
BYLAYER
 62
     1
 10
1339.378840
 20
-503.679181
 30
0.0
 11
1342.878840
 21
-503.862608
 31
0.0
  0
LINE
  8
0
  6
BYLAYER
 62
     1
 10
1339.513470
 20
-391.988961
 30
0.0
 11
1341.483512
 21
-392.092206
 31
0.0
  0
LINE
  8
0
  6
BYLAYER
 62
     1
 10
1343.378840
 20
-455.046048
 30
0.0
 11
1343.378840
 21
-394.089465
 31
0.0
  0
ARC
  8
0
  6
BYLAYER
 62
     1
 10
1341.378840
 20
-455.046048
 30
0.0
 40
2.0
 50
273.000000
 51
360.000000
  0
ARC
  8
0
  6
BYLAYER
 62
     1
 10
1341.378840
 20
-394.089465
 30
0.0
 40
2.0
 50
0.0
 51
87.0
  0
LINE
  8
0
  6
BYLAYER
 62
     1
 10
1339.378840
 20
-502.968560
 30
0.0
 11
1342.878840
 21
-503.151987
 31
0.0
  0
LINE
  8
0
  6
BYLAYER
 62
     1
 10
1339.378840
 20
-475.976547
 30
0.0
 11
1342.878840
 21
-476.159974
 31
0.0
  0
LINE
  8
0
  6
BYLAYER
 62
     1
 10
1339.378840
 20
-457.153608
 30
0.0
 11
1341.483512
 21
-457.043307
 31
0.0
  0
LINE
  8
0
  6
BYLAYER
 62
     7
 10
1436.648936
 20
-191.846384
 30
0.0
 11
1436.648936
 21
-202.007155
 31
0.0
  0
LINE
  8
0
  6
BYLAYER
 62
     7
 10
1436.648936
 20
-179.145419
 30
0.0
 11
1436.648936
 21
-189.306191
 31
0.0
  0
LINE
  8
0
  6
BYLAYER
 62
     7
 10
1446.809708
 20
-189.306191
 30
0.0
 11
1446.809708
 21
-179.145419
 31
0.0
  0
LINE
  8
0
  6
BYLAYER
 62
     7
 10
1449.349901
 20
-189.306191
 30
0.0
 11
1449.349901
 21
-179.145419
 31
0.0
  0
LINE
  8
0
  6
BYLAYER
 62
     7
 10
1436.648936
 20
-202.007155
 30
0.0
 11
1446.809708
 21
-202.007155
 31
0.0
  0
LINE
  8
0
  6
BYLAYER
 62
     7
 10
1436.648936
 20
-191.846384
 30
0.0
 11
1446.809708
 21
-191.846384
 31
0.0
  0
LINE
  8
0
  6
BYLAYER
 62
     7
 10
1449.349901
 20
-189.306191
 30
0.0
 11
1459.304915
 21
-189.306191
 31
0.0
  0
LINE
  8
0
  6
BYLAYER
 62
     7
 10
1436.648936
 20
-189.306191
 30
0.0
 11
1446.809708
 21
-189.306191
 31
0.0
  0
LINE
  8
0
  6
BYLAYER
 62
     7
 10
1449.349901
 20
-179.145419
 30
0.0
 11
1459.304915
 21
-179.145419
 31
0.0
  0
LINE
  8
0
  6
BYLAYER
 62
     7
 10
1436.648936
 20
-179.145419
 30
0.0
 11
1446.809708
 21
-179.145419
 31
0.0
  0
LINE
  8
0
  6
BYLAYER
 62
     7
 10
1459.304915
 20
-189.306191
 30
0.0
 11
1459.304915
 21
-179.145419
 31
0.0
  0
LINE
  8
0
  6
BYLAYER
 62
     7
 10
1446.809708
 20
-202.007155
 30
0.0
 11
1446.809708
 21
-191.846384
 31
0.0
  0
LINE
  8
0
  6
BYLAYER
 62
     7
 10
1449.349901
 20
-191.846384
 30
0.0
 11
1449.349901
 21
-202.007155
 31
0.0
  0
LINE
  8
0
  6
BYLAYER
 62
     7
 10
1449.349901
 20
-202.007155
 30
0.0
 11
1459.510673
 21
-202.007155
 31
0.0
  0
LINE
  8
0
  6
BYLAYER
 62
     7
 10
1449.349901
 20
-191.846384
 30
0.0
 11
1459.510673
 21
-191.846384
 31
0.0
  0
LINE
  8
0
  6
BYLAYER
 62
     7
 10
1459.510673
 20
-202.007155
 30
0.0
 11
1459.510673
 21
-191.846384
 31
0.0
  0
LINE
  8
0
  6
BYLAYER
 62
     7
 10
1462.050866
 20
-214.708120
 30
0.0
 11
1472.211637
 21
-214.708120
 31
0.0
  0
LINE
  8
0
  6
BYLAYER
 62
     7
 10
1462.050866
 20
-191.846384
 30
0.0
 11
1462.050866
 21
-202.007155
 31
0.0
  0
LINE
  8
0
  6
BYLAYER
 62
     7
 10
1462.050866
 20
-204.547348
 30
0.0
 11
1462.050866
 21
-214.708120
 31
0.0
  0
LINE
  8
0
  6
BYLAYER
 62
     7
 10
1462.050866
 20
-204.547348
 30
0.0
 11
1472.211637
 21
-204.547348
 31
0.0
  0
LINE
  8
0
  6
BYLAYER
 62
     7
 10
1462.050866
 20
-202.007155
 30
0.0
 11
1472.211637
 21
-202.007155
 31
0.0
  0
LINE
  8
0
  6
BYLAYER
 62
     7
 10
1462.050866
 20
-191.846384
 30
0.0
 11
1472.211637
 21
-191.846384
 31
0.0
  0
LINE
  8
0
  6
BYLAYER
 62
     7
 10
1472.211637
 20
-214.708120
 30
0.0
 11
1472.211637
 21
-204.547348
 31
0.0
  0
LINE
  8
0
  6
BYLAYER
 62
     7
 10
1472.211637
 20
-202.007155
 30
0.0
 11
1472.211637
 21
-191.846384
 31
0.0
  0
LINE
  8
0
  6
BYLAYER
 62
     7
 10
1462.050866
 20
-227.409085
 30
0.0
 11
1472.211637
 21
-227.409085
 31
0.0
  0
LINE
  8
0
  6
BYLAYER
 62
     7
 10
1462.050866
 20
-217.248313
 30
0.0
 11
1462.050866
 21
-227.409085
 31
0.0
  0
LINE
  8
0
  6
BYLAYER
 62
     7
 10
1462.050866
 20
-217.248313
 30
0.0
 11
1472.211637
 21
-217.248313
 31
0.0
  0
LINE
  8
0
  6
BYLAYER
 62
     7
 10
1472.211637
 20
-227.409085
 30
0.0
 11
1472.211637
 21
-217.248313
 31
0.0
  0
LINE
  8
0
  6
BYLAYER
 62
     7
 10
1474.751830
 20
-214.708120
 30
0.0
 11
1484.912602
 21
-214.708120
 31
0.0
  0
LINE
  8
0
  6
BYLAYER
 62
     7
 10
1474.751830
 20
-204.547348
 30
0.0
 11
1474.751830
 21
-214.708120
 31
0.0
  0
LINE
  8
0
  6
BYLAYER
 62
     7
 10
1474.751830
 20
-204.547348
 30
0.0
 11
1484.912602
 21
-204.547348
 31
0.0
  0
LINE
  8
0
  6
BYLAYER
 62
     7
 10
1484.912602
 20
-214.708120
 30
0.0
 11
1484.912602
 21
-204.547348
 31
0.0
  0
LINE
  8
0
  6
BYLAYER
 62
     7
 10
1474.751830
 20
-227.409085
 30
0.0
 11
1484.912602
 21
-227.409085
 31
0.0
  0
LINE
  8
0
  6
BYLAYER
 62
     7
 10
1474.751830
 20
-217.248313
 30
0.0
 11
1474.751830
 21
-227.409085
 31
0.0
  0
LINE
  8
0
  6
BYLAYER
 62
     7
 10
1474.751830
 20
-217.248313
 30
0.0
 11
1484.912602
 21
-217.248313
 31
0.0
  0
LINE
  8
0
  6
BYLAYER
 62
     7
 10
1484.912602
 20
-227.409085
 30
0.0
 11
1484.912602
 21
-217.248313
 31
0.0
  0
LINE
  8
0
  6
BYLAYER
 62
     7
 10
1487.452795
 20
-214.708120
 30
0.0
 11
1497.613567
 21
-214.708120
 31
0.0
  0
LINE
  8
0
  6
BYLAYER
 62
     7
 10
1487.452795
 20
-204.547348
 30
0.0
 11
1487.452795
 21
-214.708120
 31
0.0
  0
LINE
  8
0
  6
BYLAYER
 62
     7
 10
1487.452795
 20
-204.547348
 30
0.0
 11
1497.613567
 21
-204.547348
 31
0.0
  0
LINE
  8
0
  6
BYLAYER
 62
     7
 10
1497.613567
 20
-214.708120
 30
0.0
 11
1497.613567
 21
-204.547348
 31
0.0
  0
LINE
  8
0
  6
BYLAYER
 62
     7
 10
1487.452795
 20
-227.409085
 30
0.0
 11
1497.613567
 21
-227.409085
 31
0.0
  0
LINE
  8
0
  6
BYLAYER
 62
     7
 10
1487.452795
 20
-217.248313
 30
0.0
 11
1487.452795
 21
-227.409085
 31
0.0
  0
LINE
  8
0
  6
BYLAYER
 62
     7
 10
1487.452795
 20
-217.248313
 30
0.0
 11
1497.613567
 21
-217.248313
 31
0.0
  0
LINE
  8
0
  6
BYLAYER
 62
     7
 10
1497.613567
 20
-227.409085
 30
0.0
 11
1497.613567
 21
-217.248313
 31
0.0
  0
LINE
  8
0
  6
BYLAYER
 62
     7
 10
1436.648936
 20
-166.444454
 30
0.0
 11
1436.648936
 21
-176.605226
 31
0.0
  0
LINE
  8
0
  6
BYLAYER
 62
     7
 10
1446.809708
 20
-176.605226
 30
0.0
 11
1446.809708
 21
-166.444454
 31
0.0
  0
LINE
  8
0
  6
BYLAYER
 62
     7
 10
1449.349901
 20
-176.605226
 30
0.0
 11
1449.349901
 21
-166.444454
 31
0.0
  0
LINE
  8
0
  6
BYLAYER
 62
     7
 10
1449.349901
 20
-176.605226
 30
0.0
 11
1459.304915
 21
-176.605226
 31
0.0
  0
LINE
  8
0
  6
BYLAYER
 62
     7
 10
1436.648936
 20
-176.605226
 30
0.0
 11
1446.809708
 21
-176.605226
 31
0.0
  0
LINE
  8
0
  6
BYLAYER
 62
     7
 10
1449.349901
 20
-166.444454
 30
0.0
 11
1459.304915
 21
-166.444454
 31
0.0
  0
LINE
  8
0
  6
BYLAYER
 62
     7
 10
1436.648936
 20
-166.444454
 30
0.0
 11
1446.809708
 21
-166.444454
 31
0.0
  0
LINE
  8
0
  6
BYLAYER
 62
     7
 10
1459.304915
 20
-176.605226
 30
0.0
 11
1459.304915
 21
-166.444454
 31
0.0
  0
LINE
  8
0
  6
BYLAYER
 62
     7
 10
1462.050866
 20
-179.145419
 30
0.0
 11
1462.050866
 21
-189.306191
 31
0.0
  0
LINE
  8
0
  6
BYLAYER
 62
     7
 10
1462.050866
 20
-189.306191
 30
0.0
 11
1472.211637
 21
-189.306191
 31
0.0
  0
LINE
  8
0
  6
BYLAYER
 62
     7
 10
1462.050866
 20
-179.145419
 30
0.0
 11
1472.211637
 21
-179.145419
 31
0.0
  0
LINE
  8
0
  6
BYLAYER
 62
     7
 10
1472.211637
 20
-189.306191
 30
0.0
 11
1472.211637
 21
-179.145419
 31
0.0
  0
LINE
  8
0
  6
BYLAYER
 62
     7
 10
1462.050866
 20
-166.444454
 30
0.0
 11
1462.050866
 21
-176.605226
 31
0.0
  0
LINE
  8
0
  6
BYLAYER
 62
     7
 10
1462.050866
 20
-176.605226
 30
0.0
 11
1472.211637
 21
-176.605226
 31
0.0
  0
LINE
  8
0
  6
BYLAYER
 62
     7
 10
1462.050866
 20
-166.444454
 30
0.0
 11
1472.211637
 21
-166.444454
 31
0.0
  0
LINE
  8
0
  6
BYLAYER
 62
     7
 10
1472.211637
 20
-176.605226
 30
0.0
 11
1472.211637
 21
-166.444454
 31
0.0
  0
LINE
  8
0
  6
BYLAYER
 62
     7
 10
1474.751830
 20
-191.846384
 30
0.0
 11
1474.751830
 21
-202.007155
 31
0.0
  0
LINE
  8
0
  6
BYLAYER
 62
     7
 10
1474.751830
 20
-202.007155
 30
0.0
 11
1484.912602
 21
-202.007155
 31
0.0
  0
LINE
  8
0
  6
BYLAYER
 62
     7
 10
1474.751830
 20
-191.846384
 30
0.0
 11
1484.912602
 21
-191.846384
 31
0.0
  0
LINE
  8
0
  6
BYLAYER
 62
     7
 10
1484.912602
 20
-202.007155
 30
0.0
 11
1484.912602
 21
-191.846384
 31
0.0
  0
LINE
  8
0
  6
BYLAYER
 62
     7
 10
1474.751830
 20
-179.145419
 30
0.0
 11
1474.751830
 21
-189.306191
 31
0.0
  0
LINE
  8
0
  6
BYLAYER
 62
     7
 10
1474.751830
 20
-189.306191
 30
0.0
 11
1484.912602
 21
-189.306191
 31
0.0
  0
LINE
  8
0
  6
BYLAYER
 62
     7
 10
1474.751830
 20
-179.145419
 30
0.0
 11
1484.912602
 21
-179.145419
 31
0.0
  0
LINE
  8
0
  6
BYLAYER
 62
     7
 10
1484.912602
 20
-189.306191
 30
0.0
 11
1484.912602
 21
-179.145419
 31
0.0
  0
LINE
  8
0
  6
BYLAYER
 62
     7
 10
1487.452795
 20
-191.846384
 30
0.0
 11
1487.452795
 21
-202.007155
 31
0.0
  0
LINE
  8
0
  6
BYLAYER
 62
     7
 10
1487.452795
 20
-202.007155
 30
0.0
 11
1497.613567
 21
-202.007155
 31
0.0
  0
LINE
  8
0
  6
BYLAYER
 62
     7
 10
1487.452795
 20
-191.846384
 30
0.0
 11
1497.613567
 21
-191.846384
 31
0.0
  0
LINE
  8
0
  6
BYLAYER
 62
     7
 10
1497.613567
 20
-202.007155
 30
0.0
 11
1497.613567
 21
-191.846384
 31
0.0
  0
CIRCLE
  8
0
  6
BYLAYER
 62
     7
 10
1435.378840
 20
-228.679181
 30
0.0
 40
5.080386
  0
LINE
  8
0
  6
BYLAYER
 62
     7
 10
1500.153760
 20
-214.708120
 30
0.0
 11
1510.314531
 21
-214.708120
 31
0.0
  0
LINE
  8
0
  6
BYLAYER
 62
     7
 10
1500.153760
 20
-204.547348
 30
0.0
 11
1500.153760
 21
-214.708120
 31
0.0
  0
LINE
  8
0
  6
BYLAYER
 62
     7
 10
1500.153760
 20
-204.547348
 30
0.0
 11
1510.314531
 21
-204.547348
 31
0.0
  0
LINE
  8
0
  6
BYLAYER
 62
     7
 10
1510.314531
 20
-214.708120
 30
0.0
 11
1510.314531
 21
-204.547348
 31
0.0
  0
LINE
  8
0
  6
BYLAYER
 62
     7
 10
1500.153760
 20
-227.409085
 30
0.0
 11
1510.314531
 21
-227.409085
 31
0.0
  0
LINE
  8
0
  6
BYLAYER
 62
     7
 10
1500.153760
 20
-217.248313
 30
0.0
 11
1500.153760
 21
-227.409085
 31
0.0
  0
LINE
  8
0
  6
BYLAYER
 62
     7
 10
1500.153760
 20
-217.248313
 30
0.0
 11
1510.314531
 21
-217.248313
 31
0.0
  0
LINE
  8
0
  6
BYLAYER
 62
     7
 10
1510.314531
 20
-227.409085
 30
0.0
 11
1510.314531
 21
-217.248313
 31
0.0
  0
LINE
  8
0
  6
BYLAYER
 62
     7
 10
1500.153760
 20
-191.846384
 30
0.0
 11
1500.153760
 21
-202.007155
 31
0.0
  0
LINE
  8
0
  6
BYLAYER
 62
     7
 10
1500.153760
 20
-202.007155
 30
0.0
 11
1510.314531
 21
-202.007155
 31
0.0
  0
LINE
  8
0
  6
BYLAYER
 62
     7
 10
1500.153760
 20
-191.846384
 30
0.0
 11
1510.314531
 21
-191.846384
 31
0.0
  0
LINE
  8
0
  6
BYLAYER
 62
     7
 10
1510.314531
 20
-202.007155
 30
0.0
 11
1510.314531
 21
-191.846384
 31
0.0
  0
LINE
  8
0
  6
BYLAYER
 62
     7
 10
1436.648936
 20
-153.743490
 30
0.0
 11
1436.648936
 21
-163.904261
 31
0.0
  0
LINE
  8
0
  6
BYLAYER
 62
     7
 10
1446.809708
 20
-163.904261
 30
0.0
 11
1446.809708
 21
-153.743490
 31
0.0
  0
LINE
  8
0
  6
BYLAYER
 62
     7
 10
1449.349901
 20
-163.904261
 30
0.0
 11
1449.349901
 21
-153.743490
 31
0.0
  0
LINE
  8
0
  6
BYLAYER
 62
     7
 10
1449.349901
 20
-163.904261
 30
0.0
 11
1459.304915
 21
-163.904261
 31
0.0
  0
LINE
  8
0
  6
BYLAYER
 62
     7
 10
1436.648936
 20
-163.904261
 30
0.0
 11
1446.809708
 21
-163.904261
 31
0.0
  0
LINE
  8
0
  6
BYLAYER
 62
     7
 10
1449.349901
 20
-153.743490
 30
0.0
 11
1459.304915
 21
-153.743490
 31
0.0
  0
LINE
  8
0
  6
BYLAYER
 62
     7
 10
1436.648936
 20
-153.743490
 30
0.0
 11
1446.809708
 21
-153.743490
 31
0.0
  0
LINE
  8
0
  6
BYLAYER
 62
     7
 10
1459.304915
 20
-163.904261
 30
0.0
 11
1459.304915
 21
-153.743490
 31
0.0
  0
LINE
  8
0
  6
BYLAYER
 62
     7
 10
1462.050866
 20
-153.743490
 30
0.0
 11
1462.050866
 21
-163.904261
 31
0.0
  0
LINE
  8
0
  6
BYLAYER
 62
     7
 10
1462.050866
 20
-163.904261
 30
0.0
 11
1472.211637
 21
-163.904261
 31
0.0
  0
LINE
  8
0
  6
BYLAYER
 62
     7
 10
1462.050866
 20
-153.743490
 30
0.0
 11
1472.211637
 21
-153.743490
 31
0.0
  0
LINE
  8
0
  6
BYLAYER
 62
     7
 10
1472.211637
 20
-163.904261
 30
0.0
 11
1472.211637
 21
-153.743490
 31
0.0
  0
LINE
  8
0
  6
BYLAYER
 62
     7
 10
1474.751830
 20
-166.444454
 30
0.0
 11
1474.751830
 21
-176.605226
 31
0.0
  0
LINE
  8
0
  6
BYLAYER
 62
     7
 10
1474.751830
 20
-176.605226
 30
0.0
 11
1484.912602
 21
-176.605226
 31
0.0
  0
LINE
  8
0
  6
BYLAYER
 62
     7
 10
1474.751830
 20
-166.444454
 30
0.0
 11
1484.912602
 21
-166.444454
 31
0.0
  0
LINE
  8
0
  6
BYLAYER
 62
     7
 10
1484.912602
 20
-176.605226
 30
0.0
 11
1484.912602
 21
-166.444454
 31
0.0
  0
LINE
  8
0
  6
BYLAYER
 62
     7
 10
1487.452795
 20
-179.145419
 30
0.0
 11
1487.452795
 21
-189.306191
 31
0.0
  0
LINE
  8
0
  6
BYLAYER
 62
     7
 10
1487.452795
 20
-189.306191
 30
0.0
 11
1497.613567
 21
-189.306191
 31
0.0
  0
LINE
  8
0
  6
BYLAYER
 62
     7
 10
1487.452795
 20
-179.145419
 30
0.0
 11
1497.613567
 21
-179.145419
 31
0.0
  0
LINE
  8
0
  6
BYLAYER
 62
     7
 10
1497.613567
 20
-189.306191
 30
0.0
 11
1497.613567
 21
-179.145419
 31
0.0
  0
LINE
  8
0
  6
BYLAYER
 62
     7
 10
1436.648936
 20
-141.042525
 30
0.0
 11
1436.648936
 21
-151.203297
 31
0.0
  0
LINE
  8
0
  6
BYLAYER
 62
     7
 10
1446.809708
 20
-151.203297
 30
0.0
 11
1446.809708
 21
-141.042525
 31
0.0
  0
LINE
  8
0
  6
BYLAYER
 62
     7
 10
1449.349901
 20
-151.203297
 30
0.0
 11
1449.349901
 21
-141.042525
 31
0.0
  0
LINE
  8
0
  6
BYLAYER
 62
     7
 10
1449.349901
 20
-151.203297
 30
0.0
 11
1459.304915
 21
-151.203297
 31
0.0
  0
LINE
  8
0
  6
BYLAYER
 62
     7
 10
1436.648936
 20
-151.203297
 30
0.0
 11
1446.809708
 21
-151.203297
 31
0.0
  0
LINE
  8
0
  6
BYLAYER
 62
     7
 10
1449.349901
 20
-141.042525
 30
0.0
 11
1459.304915
 21
-141.042525
 31
0.0
  0
LINE
  8
0
  6
BYLAYER
 62
     7
 10
1436.648936
 20
-141.042525
 30
0.0
 11
1446.809708
 21
-141.042525
 31
0.0
  0
LINE
  8
0
  6
BYLAYER
 62
     7
 10
1459.304915
 20
-151.203297
 30
0.0
 11
1459.304915
 21
-141.042525
 31
0.0
  0
LINE
  8
0
  6
BYLAYER
 62
     7
 10
1512.854724
 20
-214.708120
 30
0.0
 11
1523.015496
 21
-214.708120
 31
0.0
  0
LINE
  8
0
  6
BYLAYER
 62
     7
 10
1512.854724
 20
-204.547348
 30
0.0
 11
1512.854724
 21
-214.708120
 31
0.0
  0
LINE
  8
0
  6
BYLAYER
 62
     7
 10
1512.854724
 20
-204.547348
 30
0.0
 11
1523.015496
 21
-204.547348
 31
0.0
  0
LINE
  8
0
  6
BYLAYER
 62
     7
 10
1523.015496
 20
-214.708120
 30
0.0
 11
1523.015496
 21
-204.547348
 31
0.0
  0
LINE
  8
0
  6
BYLAYER
 62
     7
 10
1512.854724
 20
-227.409085
 30
0.0
 11
1523.015496
 21
-227.409085
 31
0.0
  0
LINE
  8
0
  6
BYLAYER
 62
     7
 10
1512.854724
 20
-217.248313
 30
0.0
 11
1512.854724
 21
-227.409085
 31
0.0
  0
LINE
  8
0
  6
BYLAYER
 62
     7
 10
1512.854724
 20
-217.248313
 30
0.0
 11
1523.015496
 21
-217.248313
 31
0.0
  0
LINE
  8
0
  6
BYLAYER
 62
     7
 10
1523.015496
 20
-227.409085
 30
0.0
 11
1523.015496
 21
-217.248313
 31
0.0
  0
LINE
  8
0
  6
BYLAYER
 62
     7
 10
1474.751830
 20
-153.743490
 30
0.0
 11
1474.751830
 21
-163.904261
 31
0.0
  0
LINE
  8
0
  6
BYLAYER
 62
     7
 10
1474.751830
 20
-163.904261
 30
0.0
 11
1484.912602
 21
-163.904261
 31
0.0
  0
LINE
  8
0
  6
BYLAYER
 62
     7
 10
1474.751830
 20
-153.743490
 30
0.0
 11
1484.912602
 21
-153.743490
 31
0.0
  0
LINE
  8
0
  6
BYLAYER
 62
     7
 10
1484.912602
 20
-163.904261
 30
0.0
 11
1484.912602
 21
-153.743490
 31
0.0
  0
LINE
  8
0
  6
BYLAYER
 62
     7
 10
1487.452795
 20
-166.444454
 30
0.0
 11
1487.452795
 21
-176.605226
 31
0.0
  0
LINE
  8
0
  6
BYLAYER
 62
     7
 10
1487.452795
 20
-176.605226
 30
0.0
 11
1497.613567
 21
-176.605226
 31
0.0
  0
LINE
  8
0
  6
BYLAYER
 62
     7
 10
1487.452795
 20
-166.444454
 30
0.0
 11
1497.613567
 21
-166.444454
 31
0.0
  0
LINE
  8
0
  6
BYLAYER
 62
     7
 10
1497.613567
 20
-176.605226
 30
0.0
 11
1497.613567
 21
-166.444454
 31
0.0
  0
LINE
  8
0
  6
BYLAYER
 62
     7
 10
1500.153760
 20
-179.145419
 30
0.0
 11
1500.153760
 21
-189.306191
 31
0.0
  0
LINE
  8
0
  6
BYLAYER
 62
     7
 10
1500.153760
 20
-189.306191
 30
0.0
 11
1510.314531
 21
-189.306191
 31
0.0
  0
LINE
  8
0
  6
BYLAYER
 62
     7
 10
1500.153760
 20
-179.145419
 30
0.0
 11
1510.314531
 21
-179.145419
 31
0.0
  0
LINE
  8
0
  6
BYLAYER
 62
     7
 10
1510.314531
 20
-189.306191
 30
0.0
 11
1510.314531
 21
-179.145419
 31
0.0
  0
LINE
  8
0
  6
BYLAYER
 62
     7
 10
1436.648936
 20
-128.341560
 30
0.0
 11
1436.648936
 21
-138.502332
 31
0.0
  0
LINE
  8
0
  6
BYLAYER
 62
     7
 10
1446.809708
 20
-138.502332
 30
0.0
 11
1446.809708
 21
-128.341560
 31
0.0
  0
LINE
  8
0
  6
BYLAYER
 62
     7
 10
1436.648936
 20
-138.502332
 30
0.0
 11
1446.809708
 21
-138.502332
 31
0.0
  0
LINE
  8
0
  6
BYLAYER
 62
     7
 10
1436.648936
 20
-128.341560
 30
0.0
 11
1446.809708
 21
-128.341560
 31
0.0
  0
LINE
  8
0
  6
BYLAYER
 62
     7
 10
1525.555689
 20
-227.409085
 30
0.0
 11
1535.716461
 21
-227.409085
 31
0.0
  0
LINE
  8
0
  6
BYLAYER
 62
     7
 10
1525.555689
 20
-217.248313
 30
0.0
 11
1525.555689
 21
-227.409085
 31
0.0
  0
LINE
  8
0
  6
BYLAYER
 62
     7
 10
1525.555689
 20
-217.248313
 30
0.0
 11
1535.716461
 21
-217.248313
 31
0.0
  0
LINE
  8
0
  6
BYLAYER
 62
     7
 10
1535.716461
 20
-227.409085
 30
0.0
 11
1535.716461
 21
-217.248313
 31
0.0
  0
LINE
  8
0
  6
BYLAYER
 62
     7
 10
1462.050866
 20
-141.042525
 30
0.0
 11
1462.050866
 21
-151.203297
 31
0.0
  0
LINE
  8
0
  6
BYLAYER
 62
     7
 10
1462.050866
 20
-151.203297
 30
0.0
 11
1472.211637
 21
-151.203297
 31
0.0
  0
LINE
  8
0
  6
BYLAYER
 62
     7
 10
1462.050866
 20
-141.042525
 30
0.0
 11
1472.211637
 21
-141.042525
 31
0.0
  0
LINE
  8
0
  6
BYLAYER
 62
     7
 10
1472.211637
 20
-151.203297
 30
0.0
 11
1472.211637
 21
-141.042525
 31
0.0
  0
LINE
  8
0
  6
BYLAYER
 62
     7
 10
1512.854724
 20
-191.846384
 30
0.0
 11
1512.854724
 21
-202.007155
 31
0.0
  0
LINE
  8
0
  6
BYLAYER
 62
     7
 10
1512.854724
 20
-202.007155
 30
0.0
 11
1523.015496
 21
-202.007155
 31
0.0
  0
LINE
  8
0
  6
BYLAYER
 62
     7
 10
1512.854724
 20
-191.846384
 30
0.0
 11
1523.015496
 21
-191.846384
 31
0.0
  0
LINE
  8
0
  6
BYLAYER
 62
     7
 10
1523.015496
 20
-202.007155
 30
0.0
 11
1523.015496
 21
-191.846384
 31
0.0
  0
LINE
  8
0
  6
BYLAYER
 62
     7
 10
1474.751830
 20
-141.042525
 30
0.0
 11
1474.751830
 21
-151.203297
 31
0.0
  0
LINE
  8
0
  6
BYLAYER
 62
     7
 10
1474.751830
 20
-151.203297
 30
0.0
 11
1484.912602
 21
-151.203297
 31
0.0
  0
LINE
  8
0
  6
BYLAYER
 62
     7
 10
1474.751830
 20
-141.042525
 30
0.0
 11
1484.912602
 21
-141.042525
 31
0.0
  0
LINE
  8
0
  6
BYLAYER
 62
     7
 10
1484.912602
 20
-151.203297
 30
0.0
 11
1484.912602
 21
-141.042525
 31
0.0
  0
LINE
  8
0
  6
BYLAYER
 62
     7
 10
1487.452795
 20
-153.743490
 30
0.0
 11
1487.452795
 21
-163.904261
 31
0.0
  0
LINE
  8
0
  6
BYLAYER
 62
     7
 10
1487.452795
 20
-163.904261
 30
0.0
 11
1497.613567
 21
-163.904261
 31
0.0
  0
LINE
  8
0
  6
BYLAYER
 62
     7
 10
1487.452795
 20
-153.743490
 30
0.0
 11
1497.613567
 21
-153.743490
 31
0.0
  0
LINE
  8
0
  6
BYLAYER
 62
     7
 10
1497.613567
 20
-163.904261
 30
0.0
 11
1497.613567
 21
-153.743490
 31
0.0
  0
LINE
  8
0
  6
BYLAYER
 62
     7
 10
1500.153760
 20
-166.444454
 30
0.0
 11
1500.153760
 21
-176.605226
 31
0.0
  0
LINE
  8
0
  6
BYLAYER
 62
     7
 10
1500.153760
 20
-176.605226
 30
0.0
 11
1510.314531
 21
-176.605226
 31
0.0
  0
LINE
  8
0
  6
BYLAYER
 62
     7
 10
1500.153760
 20
-166.444454
 30
0.0
 11
1510.314531
 21
-166.444454
 31
0.0
  0
LINE
  8
0
  6
BYLAYER
 62
     7
 10
1510.314531
 20
-176.605226
 30
0.0
 11
1510.314531
 21
-166.444454
 31
0.0
  0
LINE
  8
0
  6
BYLAYER
 62
     7
 10
1512.854724
 20
-179.145419
 30
0.0
 11
1512.854724
 21
-189.306191
 31
0.0
  0
LINE
  8
0
  6
BYLAYER
 62
     7
 10
1512.854724
 20
-189.306191
 30
0.0
 11
1523.015496
 21
-189.306191
 31
0.0
  0
LINE
  8
0
  6
BYLAYER
 62
     7
 10
1512.854724
 20
-179.145419
 30
0.0
 11
1523.015496
 21
-179.145419
 31
0.0
  0
LINE
  8
0
  6
BYLAYER
 62
     7
 10
1523.015496
 20
-189.306191
 30
0.0
 11
1523.015496
 21
-179.145419
 31
0.0
  0
LINE
  8
0
  6
BYLAYER
 62
     7
 10
1449.349901
 20
-138.502332
 30
0.0
 11
1449.349901
 21
-128.341560
 31
0.0
  0
LINE
  8
0
  6
BYLAYER
 62
     7
 10
1449.349901
 20
-138.502332
 30
0.0
 11
1459.304915
 21
-138.502332
 31
0.0
  0
LINE
  8
0
  6
BYLAYER
 62
     7
 10
1449.349901
 20
-128.341560
 30
0.0
 11
1459.304915
 21
-128.341560
 31
0.0
  0
LINE
  8
0
  6
BYLAYER
 62
     7
 10
1459.304915
 20
-138.502332
 30
0.0
 11
1459.304915
 21
-128.341560
 31
0.0
  0
LINE
  8
0
  6
BYLAYER
 62
     7
 10
1525.555689
 20
-214.708120
 30
0.0
 11
1535.716461
 21
-214.708120
 31
0.0
  0
LINE
  8
0
  6
BYLAYER
 62
     7
 10
1525.555689
 20
-204.547348
 30
0.0
 11
1525.555689
 21
-214.708120
 31
0.0
  0
LINE
  8
0
  6
BYLAYER
 62
     7
 10
1525.555689
 20
-204.547348
 30
0.0
 11
1535.716461
 21
-204.547348
 31
0.0
  0
LINE
  8
0
  6
BYLAYER
 62
     7
 10
1535.716461
 20
-214.708120
 30
0.0
 11
1535.716461
 21
-204.547348
 31
0.0
  0
LINE
  8
0
  6
BYLAYER
 62
     7
 10
1436.648936
 20
-115.640596
 30
0.0
 11
1436.648936
 21
-125.801367
 31
0.0
  0
LINE
  8
0
  6
BYLAYER
 62
     7
 10
1446.809708
 20
-125.801367
 30
0.0
 11
1446.809708
 21
-115.640596
 31
0.0
  0
LINE
  8
0
  6
BYLAYER
 62
     7
 10
1436.648936
 20
-125.801367
 30
0.0
 11
1446.809708
 21
-125.801367
 31
0.0
  0
LINE
  8
0
  6
BYLAYER
 62
     7
 10
1436.648936
 20
-115.640596
 30
0.0
 11
1446.809708
 21
-115.640596
 31
0.0
  0
LINE
  8
0
  6
BYLAYER
 62
     7
 10
1449.349901
 20
-125.801367
 30
0.0
 11
1449.349901
 21
-115.640596
 31
0.0
  0
LINE
  8
0
  6
BYLAYER
 62
     7
 10
1449.349901
 20
-125.801367
 30
0.0
 11
1459.304915
 21
-125.801367
 31
0.0
  0
LINE
  8
0
  6
BYLAYER
 62
     7
 10
1449.349901
 20
-115.640596
 30
0.0
 11
1459.304915
 21
-115.640596
 31
0.0
  0
LINE
  8
0
  6
BYLAYER
 62
     7
 10
1459.304915
 20
-125.801367
 30
0.0
 11
1459.304915
 21
-115.640596
 31
0.0
  0
LINE
  8
0
  6
BYLAYER
 62
     7
 10
1462.050866
 20
-128.341560
 30
0.0
 11
1462.050866
 21
-138.502332
 31
0.0
  0
LINE
  8
0
  6
BYLAYER
 62
     7
 10
1462.050866
 20
-138.502332
 30
0.0
 11
1472.211637
 21
-138.502332
 31
0.0
  0
LINE
  8
0
  6
BYLAYER
 62
     7
 10
1462.050866
 20
-128.341560
 30
0.0
 11
1472.211637
 21
-128.341560
 31
0.0
  0
LINE
  8
0
  6
BYLAYER
 62
     7
 10
1472.211637
 20
-138.502332
 30
0.0
 11
1472.211637
 21
-128.341560
 31
0.0
  0
LINE
  8
0
  6
BYLAYER
 62
     7
 10
1474.751830
 20
-128.341560
 30
0.0
 11
1474.751830
 21
-138.502332
 31
0.0
  0
LINE
  8
0
  6
BYLAYER
 62
     7
 10
1474.751830
 20
-138.502332
 30
0.0
 11
1484.912602
 21
-138.502332
 31
0.0
  0
LINE
  8
0
  6
BYLAYER
 62
     7
 10
1474.751830
 20
-128.341560
 30
0.0
 11
1484.912602
 21
-128.341560
 31
0.0
  0
LINE
  8
0
  6
BYLAYER
 62
     7
 10
1484.912602
 20
-138.502332
 30
0.0
 11
1484.912602
 21
-128.341560
 31
0.0
  0
LINE
  8
0
  6
BYLAYER
 62
     7
 10
1487.452795
 20
-141.042525
 30
0.0
 11
1487.452795
 21
-151.203297
 31
0.0
  0
LINE
  8
0
  6
BYLAYER
 62
     7
 10
1487.452795
 20
-151.203297
 30
0.0
 11
1497.613567
 21
-151.203297
 31
0.0
  0
LINE
  8
0
  6
BYLAYER
 62
     7
 10
1487.452795
 20
-141.042525
 30
0.0
 11
1497.613567
 21
-141.042525
 31
0.0
  0
LINE
  8
0
  6
BYLAYER
 62
     7
 10
1497.613567
 20
-151.203297
 30
0.0
 11
1497.613567
 21
-141.042525
 31
0.0
  0
LINE
  8
0
  6
BYLAYER
 62
     7
 10
1500.153760
 20
-153.743490
 30
0.0
 11
1500.153760
 21
-163.904261
 31
0.0
  0
LINE
  8
0
  6
BYLAYER
 62
     7
 10
1500.153760
 20
-163.904261
 30
0.0
 11
1510.314531
 21
-163.904261
 31
0.0
  0
LINE
  8
0
  6
BYLAYER
 62
     7
 10
1500.153760
 20
-153.743490
 30
0.0
 11
1510.314531
 21
-153.743490
 31
0.0
  0
LINE
  8
0
  6
BYLAYER
 62
     7
 10
1510.314531
 20
-163.904261
 30
0.0
 11
1510.314531
 21
-153.743490
 31
0.0
  0
LINE
  8
0
  6
BYLAYER
 62
     7
 10
1512.854724
 20
-166.444454
 30
0.0
 11
1512.854724
 21
-176.605226
 31
0.0
  0
LINE
  8
0
  6
BYLAYER
 62
     7
 10
1512.854724
 20
-176.605226
 30
0.0
 11
1523.015496
 21
-176.605226
 31
0.0
  0
LINE
  8
0
  6
BYLAYER
 62
     7
 10
1512.854724
 20
-166.444454
 30
0.0
 11
1523.015496
 21
-166.444454
 31
0.0
  0
LINE
  8
0
  6
BYLAYER
 62
     7
 10
1523.015496
 20
-176.605226
 30
0.0
 11
1523.015496
 21
-166.444454
 31
0.0
  0
LINE
  8
0
  6
BYLAYER
 62
     7
 10
1525.555689
 20
-202.007155
 30
0.0
 11
1535.716461
 21
-202.007155
 31
0.0
  0
LINE
  8
0
  6
BYLAYER
 62
     7
 10
1525.555689
 20
-191.846384
 30
0.0
 11
1525.555689
 21
-202.007155
 31
0.0
  0
LINE
  8
0
  6
BYLAYER
 62
     7
 10
1525.555689
 20
-191.846384
 30
0.0
 11
1535.716461
 21
-191.846384
 31
0.0
  0
LINE
  8
0
  6
BYLAYER
 62
     7
 10
1535.716461
 20
-202.007155
 30
0.0
 11
1535.716461
 21
-191.846384
 31
0.0
  0
LINE
  8
0
  6
BYLAYER
 62
     7
 10
1525.555689
 20
-189.306191
 30
0.0
 11
1535.716461
 21
-189.306191
 31
0.0
  0
LINE
  8
0
  6
BYLAYER
 62
     7
 10
1525.555689
 20
-179.145419
 30
0.0
 11
1525.555689
 21
-189.306191
 31
0.0
  0
LINE
  8
0
  6
BYLAYER
 62
     7
 10
1525.555689
 20
-179.145419
 30
0.0
 11
1535.716461
 21
-179.145419
 31
0.0
  0
LINE
  8
0
  6
BYLAYER
 62
     7
 10
1535.716461
 20
-189.306191
 30
0.0
 11
1535.716461
 21
-179.145419
 31
0.0
  0
LINE
  8
0
  6
BYLAYER
 62
     7
 10
1538.256654
 20
-227.409085
 30
0.0
 11
1548.417425
 21
-227.409085
 31
0.0
  0
LINE
  8
0
  6
BYLAYER
 62
     7
 10
1538.256654
 20
-217.248313
 30
0.0
 11
1538.256654
 21
-227.409085
 31
0.0
  0
LINE
  8
0
  6
BYLAYER
 62
     7
 10
1538.256654
 20
-217.248313
 30
0.0
 11
1548.417425
 21
-217.248313
 31
0.0
  0
LINE
  8
0
  6
BYLAYER
 62
     7
 10
1548.417425
 20
-227.409085
 30
0.0
 11
1548.417425
 21
-217.248313
 31
0.0
  0
LINE
  8
0
  6
BYLAYER
 62
     7
 10
1538.256654
 20
-214.708120
 30
0.0
 11
1548.417425
 21
-214.708120
 31
0.0
  0
LINE
  8
0
  6
BYLAYER
 62
     7
 10
1538.256654
 20
-204.547348
 30
0.0
 11
1538.256654
 21
-214.708120
 31
0.0
  0
LINE
  8
0
  6
BYLAYER
 62
     7
 10
1538.256654
 20
-204.547348
 30
0.0
 11
1548.417425
 21
-204.547348
 31
0.0
  0
LINE
  8
0
  6
BYLAYER
 62
     7
 10
1548.417425
 20
-214.708120
 30
0.0
 11
1548.417425
 21
-204.547348
 31
0.0
  0
LINE
  8
0
  6
BYLAYER
 62
     7
 10
1434.108744
 20
-191.846384
 30
0.0
 11
1434.108744
 21
-202.007155
 31
0.0
  0
LINE
  8
0
  6
BYLAYER
 62
     7
 10
1434.108744
 20
-179.145419
 30
0.0
 11
1434.108744
 21
-189.306191
 31
0.0
  0
LINE
  8
0
  6
BYLAYER
 62
     7
 10
1423.947972
 20
-189.306191
 30
0.0
 11
1423.947972
 21
-179.145419
 31
0.0
  0
LINE
  8
0
  6
BYLAYER
 62
     7
 10
1421.407779
 20
-189.306191
 30
0.0
 11
1421.407779
 21
-179.145419
 31
0.0
  0
LINE
  8
0
  6
BYLAYER
 62
     7
 10
1434.108744
 20
-202.007155
 30
0.0
 11
1423.947972
 21
-202.007155
 31
0.0
  0
LINE
  8
0
  6
BYLAYER
 62
     7
 10
1434.108744
 20
-191.846384
 30
0.0
 11
1423.947972
 21
-191.846384
 31
0.0
  0
LINE
  8
0
  6
BYLAYER
 62
     7
 10
1421.407779
 20
-189.306191
 30
0.0
 11
1411.452765
 21
-189.306191
 31
0.0
  0
LINE
  8
0
  6
BYLAYER
 62
     7
 10
1434.108744
 20
-189.306191
 30
0.0
 11
1423.947972
 21
-189.306191
 31
0.0
  0
LINE
  8
0
  6
BYLAYER
 62
     7
 10
1421.407779
 20
-179.145419
 30
0.0
 11
1411.452765
 21
-179.145419
 31
0.0
  0
LINE
  8
0
  6
BYLAYER
 62
     7
 10
1434.108744
 20
-179.145419
 30
0.0
 11
1423.947972
 21
-179.145419
 31
0.0
  0
LINE
  8
0
  6
BYLAYER
 62
     7
 10
1411.452765
 20
-189.306191
 30
0.0
 11
1411.452765
 21
-179.145419
 31
0.0
  0
LINE
  8
0
  6
BYLAYER
 62
     7
 10
1423.947972
 20
-202.007155
 30
0.0
 11
1423.947972
 21
-191.846384
 31
0.0
  0
LINE
  8
0
  6
BYLAYER
 62
     7
 10
1421.407779
 20
-191.846384
 30
0.0
 11
1421.407779
 21
-202.007155
 31
0.0
  0
LINE
  8
0
  6
BYLAYER
 62
     7
 10
1421.407779
 20
-202.007155
 30
0.0
 11
1411.247007
 21
-202.007155
 31
0.0
  0
LINE
  8
0
  6
BYLAYER
 62
     7
 10
1421.407779
 20
-191.846384
 30
0.0
 11
1411.247007
 21
-191.846384
 31
0.0
  0
LINE
  8
0
  6
BYLAYER
 62
     7
 10
1411.247007
 20
-202.007155
 30
0.0
 11
1411.247007
 21
-191.846384
 31
0.0
  0
LINE
  8
0
  6
BYLAYER
 62
     7
 10
1408.706814
 20
-214.708120
 30
0.0
 11
1398.546043
 21
-214.708120
 31
0.0
  0
LINE
  8
0
  6
BYLAYER
 62
     7
 10
1408.706814
 20
-191.846384
 30
0.0
 11
1408.706814
 21
-202.007155
 31
0.0
  0
LINE
  8
0
  6
BYLAYER
 62
     7
 10
1408.706814
 20
-204.547348
 30
0.0
 11
1408.706814
 21
-214.708120
 31
0.0
  0
LINE
  8
0
  6
BYLAYER
 62
     7
 10
1408.706814
 20
-204.547348
 30
0.0
 11
1398.546043
 21
-204.547348
 31
0.0
  0
LINE
  8
0
  6
BYLAYER
 62
     7
 10
1408.706814
 20
-202.007155
 30
0.0
 11
1398.546043
 21
-202.007155
 31
0.0
  0
LINE
  8
0
  6
BYLAYER
 62
     7
 10
1408.706814
 20
-191.846384
 30
0.0
 11
1398.546043
 21
-191.846384
 31
0.0
  0
LINE
  8
0
  6
BYLAYER
 62
     7
 10
1398.546043
 20
-214.708120
 30
0.0
 11
1398.546043
 21
-204.547348
 31
0.0
  0
LINE
  8
0
  6
BYLAYER
 62
     7
 10
1398.546043
 20
-202.007155
 30
0.0
 11
1398.546043
 21
-191.846384
 31
0.0
  0
LINE
  8
0
  6
BYLAYER
 62
     7
 10
1408.706814
 20
-227.409085
 30
0.0
 11
1398.546043
 21
-227.409085
 31
0.0
  0
LINE
  8
0
  6
BYLAYER
 62
     7
 10
1408.706814
 20
-217.248313
 30
0.0
 11
1408.706814
 21
-227.409085
 31
0.0
  0
LINE
  8
0
  6
BYLAYER
 62
     7
 10
1408.706814
 20
-217.248313
 30
0.0
 11
1398.546043
 21
-217.248313
 31
0.0
  0
LINE
  8
0
  6
BYLAYER
 62
     7
 10
1398.546043
 20
-227.409085
 30
0.0
 11
1398.546043
 21
-217.248313
 31
0.0
  0
LINE
  8
0
  6
BYLAYER
 62
     7
 10
1396.005850
 20
-214.708120
 30
0.0
 11
1385.845078
 21
-214.708120
 31
0.0
  0
LINE
  8
0
  6
BYLAYER
 62
     7
 10
1396.005850
 20
-204.547348
 30
0.0
 11
1396.005850
 21
-214.708120
 31
0.0
  0
LINE
  8
0
  6
BYLAYER
 62
     7
 10
1396.005850
 20
-204.547348
 30
0.0
 11
1385.845078
 21
-204.547348
 31
0.0
  0
LINE
  8
0
  6
BYLAYER
 62
     7
 10
1385.845078
 20
-214.708120
 30
0.0
 11
1385.845078
 21
-204.547348
 31
0.0
  0
LINE
  8
0
  6
BYLAYER
 62
     7
 10
1396.005850
 20
-227.409085
 30
0.0
 11
1385.845078
 21
-227.409085
 31
0.0
  0
LINE
  8
0
  6
BYLAYER
 62
     7
 10
1396.005850
 20
-217.248313
 30
0.0
 11
1396.005850
 21
-227.409085
 31
0.0
  0
LINE
  8
0
  6
BYLAYER
 62
     7
 10
1396.005850
 20
-217.248313
 30
0.0
 11
1385.845078
 21
-217.248313
 31
0.0
  0
LINE
  8
0
  6
BYLAYER
 62
     7
 10
1385.845078
 20
-227.409085
 30
0.0
 11
1385.845078
 21
-217.248313
 31
0.0
  0
LINE
  8
0
  6
BYLAYER
 62
     7
 10
1383.304885
 20
-214.708120
 30
0.0
 11
1373.144113
 21
-214.708120
 31
0.0
  0
LINE
  8
0
  6
BYLAYER
 62
     7
 10
1383.304885
 20
-204.547348
 30
0.0
 11
1383.304885
 21
-214.708120
 31
0.0
  0
LINE
  8
0
  6
BYLAYER
 62
     7
 10
1383.304885
 20
-204.547348
 30
0.0
 11
1373.144113
 21
-204.547348
 31
0.0
  0
LINE
  8
0
  6
BYLAYER
 62
     7
 10
1373.144113
 20
-214.708120
 30
0.0
 11
1373.144113
 21
-204.547348
 31
0.0
  0
LINE
  8
0
  6
BYLAYER
 62
     7
 10
1383.304885
 20
-227.409085
 30
0.0
 11
1373.144113
 21
-227.409085
 31
0.0
  0
LINE
  8
0
  6
BYLAYER
 62
     7
 10
1383.304885
 20
-217.248313
 30
0.0
 11
1383.304885
 21
-227.409085
 31
0.0
  0
LINE
  8
0
  6
BYLAYER
 62
     7
 10
1383.304885
 20
-217.248313
 30
0.0
 11
1373.144113
 21
-217.248313
 31
0.0
  0
LINE
  8
0
  6
BYLAYER
 62
     7
 10
1373.144113
 20
-227.409085
 30
0.0
 11
1373.144113
 21
-217.248313
 31
0.0
  0
LINE
  8
0
  6
BYLAYER
 62
     7
 10
1434.108744
 20
-166.444454
 30
0.0
 11
1434.108744
 21
-176.605226
 31
0.0
  0
LINE
  8
0
  6
BYLAYER
 62
     7
 10
1423.947972
 20
-176.605226
 30
0.0
 11
1423.947972
 21
-166.444454
 31
0.0
  0
LINE
  8
0
  6
BYLAYER
 62
     7
 10
1421.407779
 20
-176.605226
 30
0.0
 11
1421.407779
 21
-166.444454
 31
0.0
  0
LINE
  8
0
  6
BYLAYER
 62
     7
 10
1421.407779
 20
-176.605226
 30
0.0
 11
1411.452765
 21
-176.605226
 31
0.0
  0
LINE
  8
0
  6
BYLAYER
 62
     7
 10
1434.108744
 20
-176.605226
 30
0.0
 11
1423.947972
 21
-176.605226
 31
0.0
  0
LINE
  8
0
  6
BYLAYER
 62
     7
 10
1421.407779
 20
-166.444454
 30
0.0
 11
1411.452765
 21
-166.444454
 31
0.0
  0
LINE
  8
0
  6
BYLAYER
 62
     7
 10
1434.108744
 20
-166.444454
 30
0.0
 11
1423.947972
 21
-166.444454
 31
0.0
  0
LINE
  8
0
  6
BYLAYER
 62
     7
 10
1411.452765
 20
-176.605226
 30
0.0
 11
1411.452765
 21
-166.444454
 31
0.0
  0
LINE
  8
0
  6
BYLAYER
 62
     7
 10
1408.706814
 20
-179.145419
 30
0.0
 11
1408.706814
 21
-189.306191
 31
0.0
  0
LINE
  8
0
  6
BYLAYER
 62
     7
 10
1408.706814
 20
-189.306191
 30
0.0
 11
1398.546043
 21
-189.306191
 31
0.0
  0
LINE
  8
0
  6
BYLAYER
 62
     7
 10
1408.706814
 20
-179.145419
 30
0.0
 11
1398.546043
 21
-179.145419
 31
0.0
  0
LINE
  8
0
  6
BYLAYER
 62
     7
 10
1398.546043
 20
-189.306191
 30
0.0
 11
1398.546043
 21
-179.145419
 31
0.0
  0
LINE
  8
0
  6
BYLAYER
 62
     7
 10
1408.706814
 20
-166.444454
 30
0.0
 11
1408.706814
 21
-176.605226
 31
0.0
  0
LINE
  8
0
  6
BYLAYER
 62
     7
 10
1408.706814
 20
-176.605226
 30
0.0
 11
1398.546043
 21
-176.605226
 31
0.0
  0
LINE
  8
0
  6
BYLAYER
 62
     7
 10
1408.706814
 20
-166.444454
 30
0.0
 11
1398.546043
 21
-166.444454
 31
0.0
  0
LINE
  8
0
  6
BYLAYER
 62
     7
 10
1398.546043
 20
-176.605226
 30
0.0
 11
1398.546043
 21
-166.444454
 31
0.0
  0
LINE
  8
0
  6
BYLAYER
 62
     7
 10
1396.005850
 20
-191.846384
 30
0.0
 11
1396.005850
 21
-202.007155
 31
0.0
  0
LINE
  8
0
  6
BYLAYER
 62
     7
 10
1396.005850
 20
-202.007155
 30
0.0
 11
1385.845078
 21
-202.007155
 31
0.0
  0
LINE
  8
0
  6
BYLAYER
 62
     7
 10
1396.005850
 20
-191.846384
 30
0.0
 11
1385.845078
 21
-191.846384
 31
0.0
  0
LINE
  8
0
  6
BYLAYER
 62
     7
 10
1385.845078
 20
-202.007155
 30
0.0
 11
1385.845078
 21
-191.846384
 31
0.0
  0
LINE
  8
0
  6
BYLAYER
 62
     7
 10
1396.005850
 20
-179.145419
 30
0.0
 11
1396.005850
 21
-189.306191
 31
0.0
  0
LINE
  8
0
  6
BYLAYER
 62
     7
 10
1396.005850
 20
-189.306191
 30
0.0
 11
1385.845078
 21
-189.306191
 31
0.0
  0
LINE
  8
0
  6
BYLAYER
 62
     7
 10
1396.005850
 20
-179.145419
 30
0.0
 11
1385.845078
 21
-179.145419
 31
0.0
  0
LINE
  8
0
  6
BYLAYER
 62
     7
 10
1385.845078
 20
-189.306191
 30
0.0
 11
1385.845078
 21
-179.145419
 31
0.0
  0
LINE
  8
0
  6
BYLAYER
 62
     7
 10
1383.304885
 20
-191.846384
 30
0.0
 11
1383.304885
 21
-202.007155
 31
0.0
  0
LINE
  8
0
  6
BYLAYER
 62
     7
 10
1383.304885
 20
-202.007155
 30
0.0
 11
1373.144113
 21
-202.007155
 31
0.0
  0
LINE
  8
0
  6
BYLAYER
 62
     7
 10
1383.304885
 20
-191.846384
 30
0.0
 11
1373.144113
 21
-191.846384
 31
0.0
  0
LINE
  8
0
  6
BYLAYER
 62
     7
 10
1373.144113
 20
-202.007155
 30
0.0
 11
1373.144113
 21
-191.846384
 31
0.0
  0
LINE
  8
0
  6
BYLAYER
 62
     7
 10
1370.603920
 20
-214.708120
 30
0.0
 11
1360.443149
 21
-214.708120
 31
0.0
  0
LINE
  8
0
  6
BYLAYER
 62
     7
 10
1370.603920
 20
-204.547348
 30
0.0
 11
1370.603920
 21
-214.708120
 31
0.0
  0
LINE
  8
0
  6
BYLAYER
 62
     7
 10
1370.603920
 20
-204.547348
 30
0.0
 11
1360.443149
 21
-204.547348
 31
0.0
  0
LINE
  8
0
  6
BYLAYER
 62
     7
 10
1360.443149
 20
-214.708120
 30
0.0
 11
1360.443149
 21
-204.547348
 31
0.0
  0
LINE
  8
0
  6
BYLAYER
 62
     7
 10
1370.603920
 20
-227.409085
 30
0.0
 11
1360.443149
 21
-227.409085
 31
0.0
  0
LINE
  8
0
  6
BYLAYER
 62
     7
 10
1370.603920
 20
-217.248313
 30
0.0
 11
1370.603920
 21
-227.409085
 31
0.0
  0
LINE
  8
0
  6
BYLAYER
 62
     7
 10
1370.603920
 20
-217.248313
 30
0.0
 11
1360.443149
 21
-217.248313
 31
0.0
  0
LINE
  8
0
  6
BYLAYER
 62
     7
 10
1360.443149
 20
-227.409085
 30
0.0
 11
1360.443149
 21
-217.248313
 31
0.0
  0
LINE
  8
0
  6
BYLAYER
 62
     7
 10
1370.603920
 20
-191.846384
 30
0.0
 11
1370.603920
 21
-202.007155
 31
0.0
  0
LINE
  8
0
  6
BYLAYER
 62
     7
 10
1370.603920
 20
-202.007155
 30
0.0
 11
1360.443149
 21
-202.007155
 31
0.0
  0
LINE
  8
0
  6
BYLAYER
 62
     7
 10
1370.603920
 20
-191.846384
 30
0.0
 11
1360.443149
 21
-191.846384
 31
0.0
  0
LINE
  8
0
  6
BYLAYER
 62
     7
 10
1360.443149
 20
-202.007155
 30
0.0
 11
1360.443149
 21
-191.846384
 31
0.0
  0
LINE
  8
0
  6
BYLAYER
 62
     7
 10
1434.108744
 20
-153.743490
 30
0.0
 11
1434.108744
 21
-163.904261
 31
0.0
  0
LINE
  8
0
  6
BYLAYER
 62
     7
 10
1423.947972
 20
-163.904261
 30
0.0
 11
1423.947972
 21
-153.743490
 31
0.0
  0
LINE
  8
0
  6
BYLAYER
 62
     7
 10
1421.407779
 20
-163.904261
 30
0.0
 11
1421.407779
 21
-153.743490
 31
0.0
  0
LINE
  8
0
  6
BYLAYER
 62
     7
 10
1421.407779
 20
-163.904261
 30
0.0
 11
1411.452765
 21
-163.904261
 31
0.0
  0
LINE
  8
0
  6
BYLAYER
 62
     7
 10
1434.108744
 20
-163.904261
 30
0.0
 11
1423.947972
 21
-163.904261
 31
0.0
  0
LINE
  8
0
  6
BYLAYER
 62
     7
 10
1421.407779
 20
-153.743490
 30
0.0
 11
1411.452765
 21
-153.743490
 31
0.0
  0
LINE
  8
0
  6
BYLAYER
 62
     7
 10
1434.108744
 20
-153.743490
 30
0.0
 11
1423.947972
 21
-153.743490
 31
0.0
  0
LINE
  8
0
  6
BYLAYER
 62
     7
 10
1411.452765
 20
-163.904261
 30
0.0
 11
1411.452765
 21
-153.743490
 31
0.0
  0
LINE
  8
0
  6
BYLAYER
 62
     7
 10
1408.706814
 20
-153.743490
 30
0.0
 11
1408.706814
 21
-163.904261
 31
0.0
  0
LINE
  8
0
  6
BYLAYER
 62
     7
 10
1408.706814
 20
-163.904261
 30
0.0
 11
1398.546043
 21
-163.904261
 31
0.0
  0
LINE
  8
0
  6
BYLAYER
 62
     7
 10
1408.706814
 20
-153.743490
 30
0.0
 11
1398.546043
 21
-153.743490
 31
0.0
  0
LINE
  8
0
  6
BYLAYER
 62
     7
 10
1398.546043
 20
-163.904261
 30
0.0
 11
1398.546043
 21
-153.743490
 31
0.0
  0
LINE
  8
0
  6
BYLAYER
 62
     7
 10
1396.005850
 20
-166.444454
 30
0.0
 11
1396.005850
 21
-176.605226
 31
0.0
  0
LINE
  8
0
  6
BYLAYER
 62
     7
 10
1396.005850
 20
-176.605226
 30
0.0
 11
1385.845078
 21
-176.605226
 31
0.0
  0
LINE
  8
0
  6
BYLAYER
 62
     7
 10
1396.005850
 20
-166.444454
 30
0.0
 11
1385.845078
 21
-166.444454
 31
0.0
  0
LINE
  8
0
  6
BYLAYER
 62
     7
 10
1385.845078
 20
-176.605226
 30
0.0
 11
1385.845078
 21
-166.444454
 31
0.0
  0
LINE
  8
0
  6
BYLAYER
 62
     7
 10
1383.304885
 20
-179.145419
 30
0.0
 11
1383.304885
 21
-189.306191
 31
0.0
  0
LINE
  8
0
  6
BYLAYER
 62
     7
 10
1383.304885
 20
-189.306191
 30
0.0
 11
1373.144113
 21
-189.306191
 31
0.0
  0
LINE
  8
0
  6
BYLAYER
 62
     7
 10
1383.304885
 20
-179.145419
 30
0.0
 11
1373.144113
 21
-179.145419
 31
0.0
  0
LINE
  8
0
  6
BYLAYER
 62
     7
 10
1373.144113
 20
-189.306191
 30
0.0
 11
1373.144113
 21
-179.145419
 31
0.0
  0
LINE
  8
0
  6
BYLAYER
 62
     7
 10
1434.108744
 20
-141.042525
 30
0.0
 11
1434.108744
 21
-151.203297
 31
0.0
  0
LINE
  8
0
  6
BYLAYER
 62
     7
 10
1423.947972
 20
-151.203297
 30
0.0
 11
1423.947972
 21
-141.042525
 31
0.0
  0
LINE
  8
0
  6
BYLAYER
 62
     7
 10
1421.407779
 20
-151.203297
 30
0.0
 11
1421.407779
 21
-141.042525
 31
0.0
  0
LINE
  8
0
  6
BYLAYER
 62
     7
 10
1421.407779
 20
-151.203297
 30
0.0
 11
1411.452765
 21
-151.203297
 31
0.0
  0
LINE
  8
0
  6
BYLAYER
 62
     7
 10
1434.108744
 20
-151.203297
 30
0.0
 11
1423.947972
 21
-151.203297
 31
0.0
  0
LINE
  8
0
  6
BYLAYER
 62
     7
 10
1421.407779
 20
-141.042525
 30
0.0
 11
1411.452765
 21
-141.042525
 31
0.0
  0
LINE
  8
0
  6
BYLAYER
 62
     7
 10
1434.108744
 20
-141.042525
 30
0.0
 11
1423.947972
 21
-141.042525
 31
0.0
  0
LINE
  8
0
  6
BYLAYER
 62
     7
 10
1411.452765
 20
-151.203297
 30
0.0
 11
1411.452765
 21
-141.042525
 31
0.0
  0
LINE
  8
0
  6
BYLAYER
 62
     7
 10
1357.902956
 20
-214.708120
 30
0.0
 11
1347.742184
 21
-214.708120
 31
0.0
  0
LINE
  8
0
  6
BYLAYER
 62
     7
 10
1357.902956
 20
-204.547348
 30
0.0
 11
1357.902956
 21
-214.708120
 31
0.0
  0
LINE
  8
0
  6
BYLAYER
 62
     7
 10
1357.902956
 20
-204.547348
 30
0.0
 11
1347.742184
 21
-204.547348
 31
0.0
  0
LINE
  8
0
  6
BYLAYER
 62
     7
 10
1347.742184
 20
-214.708120
 30
0.0
 11
1347.742184
 21
-204.547348
 31
0.0
  0
LINE
  8
0
  6
BYLAYER
 62
     7
 10
1357.902956
 20
-227.409085
 30
0.0
 11
1347.742184
 21
-227.409085
 31
0.0
  0
LINE
  8
0
  6
BYLAYER
 62
     7
 10
1357.902956
 20
-217.248313
 30
0.0
 11
1357.902956
 21
-227.409085
 31
0.0
  0
LINE
  8
0
  6
BYLAYER
 62
     7
 10
1357.902956
 20
-217.248313
 30
0.0
 11
1347.742184
 21
-217.248313
 31
0.0
  0
LINE
  8
0
  6
BYLAYER
 62
     7
 10
1347.742184
 20
-227.409085
 30
0.0
 11
1347.742184
 21
-217.248313
 31
0.0
  0
LINE
  8
0
  6
BYLAYER
 62
     7
 10
1396.005850
 20
-153.743490
 30
0.0
 11
1396.005850
 21
-163.904261
 31
0.0
  0
LINE
  8
0
  6
BYLAYER
 62
     7
 10
1396.005850
 20
-163.904261
 30
0.0
 11
1385.845078
 21
-163.904261
 31
0.0
  0
LINE
  8
0
  6
BYLAYER
 62
     7
 10
1396.005850
 20
-153.743490
 30
0.0
 11
1385.845078
 21
-153.743490
 31
0.0
  0
LINE
  8
0
  6
BYLAYER
 62
     7
 10
1385.845078
 20
-163.904261
 30
0.0
 11
1385.845078
 21
-153.743490
 31
0.0
  0
LINE
  8
0
  6
BYLAYER
 62
     7
 10
1383.304885
 20
-166.444454
 30
0.0
 11
1383.304885
 21
-176.605226
 31
0.0
  0
LINE
  8
0
  6
BYLAYER
 62
     7
 10
1383.304885
 20
-176.605226
 30
0.0
 11
1373.144113
 21
-176.605226
 31
0.0
  0
LINE
  8
0
  6
BYLAYER
 62
     7
 10
1383.304885
 20
-166.444454
 30
0.0
 11
1373.144113
 21
-166.444454
 31
0.0
  0
LINE
  8
0
  6
BYLAYER
 62
     7
 10
1373.144113
 20
-176.605226
 30
0.0
 11
1373.144113
 21
-166.444454
 31
0.0
  0
LINE
  8
0
  6
BYLAYER
 62
     7
 10
1370.603920
 20
-179.145419
 30
0.0
 11
1370.603920
 21
-189.306191
 31
0.0
  0
LINE
  8
0
  6
BYLAYER
 62
     7
 10
1370.603920
 20
-189.306191
 30
0.0
 11
1360.443149
 21
-189.306191
 31
0.0
  0
LINE
  8
0
  6
BYLAYER
 62
     7
 10
1370.603920
 20
-179.145419
 30
0.0
 11
1360.443149
 21
-179.145419
 31
0.0
  0
LINE
  8
0
  6
BYLAYER
 62
     7
 10
1360.443149
 20
-189.306191
 30
0.0
 11
1360.443149
 21
-179.145419
 31
0.0
  0
LINE
  8
0
  6
BYLAYER
 62
     7
 10
1434.108744
 20
-128.341560
 30
0.0
 11
1434.108744
 21
-138.502332
 31
0.0
  0
LINE
  8
0
  6
BYLAYER
 62
     7
 10
1423.947972
 20
-138.502332
 30
0.0
 11
1423.947972
 21
-128.341560
 31
0.0
  0
LINE
  8
0
  6
BYLAYER
 62
     7
 10
1434.108744
 20
-138.502332
 30
0.0
 11
1423.947972
 21
-138.502332
 31
0.0
  0
LINE
  8
0
  6
BYLAYER
 62
     7
 10
1434.108744
 20
-128.341560
 30
0.0
 11
1423.947972
 21
-128.341560
 31
0.0
  0
LINE
  8
0
  6
BYLAYER
 62
     7
 10
1345.201991
 20
-227.409085
 30
0.0
 11
1335.041219
 21
-227.409085
 31
0.0
  0
LINE
  8
0
  6
BYLAYER
 62
     7
 10
1345.201991
 20
-217.248313
 30
0.0
 11
1345.201991
 21
-227.409085
 31
0.0
  0
LINE
  8
0
  6
BYLAYER
 62
     7
 10
1345.201991
 20
-217.248313
 30
0.0
 11
1335.041219
 21
-217.248313
 31
0.0
  0
LINE
  8
0
  6
BYLAYER
 62
     7
 10
1335.041219
 20
-227.409085
 30
0.0
 11
1335.041219
 21
-217.248313
 31
0.0
  0
LINE
  8
0
  6
BYLAYER
 62
     7
 10
1408.706814
 20
-141.042525
 30
0.0
 11
1408.706814
 21
-151.203297
 31
0.0
  0
LINE
  8
0
  6
BYLAYER
 62
     7
 10
1408.706814
 20
-151.203297
 30
0.0
 11
1398.546043
 21
-151.203297
 31
0.0
  0
LINE
  8
0
  6
BYLAYER
 62
     7
 10
1408.706814
 20
-141.042525
 30
0.0
 11
1398.546043
 21
-141.042525
 31
0.0
  0
LINE
  8
0
  6
BYLAYER
 62
     7
 10
1398.546043
 20
-151.203297
 30
0.0
 11
1398.546043
 21
-141.042525
 31
0.0
  0
LINE
  8
0
  6
BYLAYER
 62
     7
 10
1357.902956
 20
-191.846384
 30
0.0
 11
1357.902956
 21
-202.007155
 31
0.0
  0
LINE
  8
0
  6
BYLAYER
 62
     7
 10
1357.902956
 20
-202.007155
 30
0.0
 11
1347.742184
 21
-202.007155
 31
0.0
  0
LINE
  8
0
  6
BYLAYER
 62
     7
 10
1357.902956
 20
-191.846384
 30
0.0
 11
1347.742184
 21
-191.846384
 31
0.0
  0
LINE
  8
0
  6
BYLAYER
 62
     7
 10
1347.742184
 20
-202.007155
 30
0.0
 11
1347.742184
 21
-191.846384
 31
0.0
  0
LINE
  8
0
  6
BYLAYER
 62
     7
 10
1396.005850
 20
-141.042525
 30
0.0
 11
1396.005850
 21
-151.203297
 31
0.0
  0
LINE
  8
0
  6
BYLAYER
 62
     7
 10
1396.005850
 20
-151.203297
 30
0.0
 11
1385.845078
 21
-151.203297
 31
0.0
  0
LINE
  8
0
  6
BYLAYER
 62
     7
 10
1396.005850
 20
-141.042525
 30
0.0
 11
1385.845078
 21
-141.042525
 31
0.0
  0
LINE
  8
0
  6
BYLAYER
 62
     7
 10
1385.845078
 20
-151.203297
 30
0.0
 11
1385.845078
 21
-141.042525
 31
0.0
  0
LINE
  8
0
  6
BYLAYER
 62
     7
 10
1383.304885
 20
-153.743490
 30
0.0
 11
1383.304885
 21
-163.904261
 31
0.0
  0
LINE
  8
0
  6
BYLAYER
 62
     7
 10
1383.304885
 20
-163.904261
 30
0.0
 11
1373.144113
 21
-163.904261
 31
0.0
  0
LINE
  8
0
  6
BYLAYER
 62
     7
 10
1383.304885
 20
-153.743490
 30
0.0
 11
1373.144113
 21
-153.743490
 31
0.0
  0
LINE
  8
0
  6
BYLAYER
 62
     7
 10
1373.144113
 20
-163.904261
 30
0.0
 11
1373.144113
 21
-153.743490
 31
0.0
  0
LINE
  8
0
  6
BYLAYER
 62
     7
 10
1370.603920
 20
-166.444454
 30
0.0
 11
1370.603920
 21
-176.605226
 31
0.0
  0
LINE
  8
0
  6
BYLAYER
 62
     7
 10
1370.603920
 20
-176.605226
 30
0.0
 11
1360.443149
 21
-176.605226
 31
0.0
  0
LINE
  8
0
  6
BYLAYER
 62
     7
 10
1370.603920
 20
-166.444454
 30
0.0
 11
1360.443149
 21
-166.444454
 31
0.0
  0
LINE
  8
0
  6
BYLAYER
 62
     7
 10
1360.443149
 20
-176.605226
 30
0.0
 11
1360.443149
 21
-166.444454
 31
0.0
  0
LINE
  8
0
  6
BYLAYER
 62
     7
 10
1357.902956
 20
-179.145419
 30
0.0
 11
1357.902956
 21
-189.306191
 31
0.0
  0
LINE
  8
0
  6
BYLAYER
 62
     7
 10
1357.902956
 20
-189.306191
 30
0.0
 11
1347.742184
 21
-189.306191
 31
0.0
  0
LINE
  8
0
  6
BYLAYER
 62
     7
 10
1357.902956
 20
-179.145419
 30
0.0
 11
1347.742184
 21
-179.145419
 31
0.0
  0
LINE
  8
0
  6
BYLAYER
 62
     7
 10
1347.742184
 20
-189.306191
 30
0.0
 11
1347.742184
 21
-179.145419
 31
0.0
  0
LINE
  8
0
  6
BYLAYER
 62
     7
 10
1421.407779
 20
-138.502332
 30
0.0
 11
1421.407779
 21
-128.341560
 31
0.0
  0
LINE
  8
0
  6
BYLAYER
 62
     7
 10
1421.407779
 20
-138.502332
 30
0.0
 11
1411.452765
 21
-138.502332
 31
0.0
  0
LINE
  8
0
  6
BYLAYER
 62
     7
 10
1421.407779
 20
-128.341560
 30
0.0
 11
1411.452765
 21
-128.341560
 31
0.0
  0
LINE
  8
0
  6
BYLAYER
 62
     7
 10
1411.452765
 20
-138.502332
 30
0.0
 11
1411.452765
 21
-128.341560
 31
0.0
  0
LINE
  8
0
  6
BYLAYER
 62
     7
 10
1345.201991
 20
-214.708120
 30
0.0
 11
1335.041219
 21
-214.708120
 31
0.0
  0
LINE
  8
0
  6
BYLAYER
 62
     7
 10
1345.201991
 20
-204.547348
 30
0.0
 11
1345.201991
 21
-214.708120
 31
0.0
  0
LINE
  8
0
  6
BYLAYER
 62
     7
 10
1345.201991
 20
-204.547348
 30
0.0
 11
1335.041219
 21
-204.547348
 31
0.0
  0
LINE
  8
0
  6
BYLAYER
 62
     7
 10
1335.041219
 20
-214.708120
 30
0.0
 11
1335.041219
 21
-204.547348
 31
0.0
  0
LINE
  8
0
  6
BYLAYER
 62
     7
 10
1434.108744
 20
-115.640596
 30
0.0
 11
1434.108744
 21
-125.801367
 31
0.0
  0
LINE
  8
0
  6
BYLAYER
 62
     7
 10
1423.947972
 20
-125.801367
 30
0.0
 11
1423.947972
 21
-115.640596
 31
0.0
  0
LINE
  8
0
  6
BYLAYER
 62
     7
 10
1434.108744
 20
-125.801367
 30
0.0
 11
1423.947972
 21
-125.801367
 31
0.0
  0
LINE
  8
0
  6
BYLAYER
 62
     7
 10
1434.108744
 20
-115.640596
 30
0.0
 11
1423.947972
 21
-115.640596
 31
0.0
  0
LINE
  8
0
  6
BYLAYER
 62
     7
 10
1421.407779
 20
-125.801367
 30
0.0
 11
1421.407779
 21
-115.640596
 31
0.0
  0
LINE
  8
0
  6
BYLAYER
 62
     7
 10
1421.407779
 20
-125.801367
 30
0.0
 11
1411.452765
 21
-125.801367
 31
0.0
  0
LINE
  8
0
  6
BYLAYER
 62
     7
 10
1421.407779
 20
-115.640596
 30
0.0
 11
1411.452765
 21
-115.640596
 31
0.0
  0
LINE
  8
0
  6
BYLAYER
 62
     7
 10
1411.452765
 20
-125.801367
 30
0.0
 11
1411.452765
 21
-115.640596
 31
0.0
  0
LINE
  8
0
  6
BYLAYER
 62
     7
 10
1408.706814
 20
-128.341560
 30
0.0
 11
1408.706814
 21
-138.502332
 31
0.0
  0
LINE
  8
0
  6
BYLAYER
 62
     7
 10
1408.706814
 20
-138.502332
 30
0.0
 11
1398.546043
 21
-138.502332
 31
0.0
  0
LINE
  8
0
  6
BYLAYER
 62
     7
 10
1408.706814
 20
-128.341560
 30
0.0
 11
1398.546043
 21
-128.341560
 31
0.0
  0
LINE
  8
0
  6
BYLAYER
 62
     7
 10
1398.546043
 20
-138.502332
 30
0.0
 11
1398.546043
 21
-128.341560
 31
0.0
  0
LINE
  8
0
  6
BYLAYER
 62
     7
 10
1396.005850
 20
-128.341560
 30
0.0
 11
1396.005850
 21
-138.502332
 31
0.0
  0
LINE
  8
0
  6
BYLAYER
 62
     7
 10
1396.005850
 20
-138.502332
 30
0.0
 11
1385.845078
 21
-138.502332
 31
0.0
  0
LINE
  8
0
  6
BYLAYER
 62
     7
 10
1396.005850
 20
-128.341560
 30
0.0
 11
1385.845078
 21
-128.341560
 31
0.0
  0
LINE
  8
0
  6
BYLAYER
 62
     7
 10
1385.845078
 20
-138.502332
 30
0.0
 11
1385.845078
 21
-128.341560
 31
0.0
  0
LINE
  8
0
  6
BYLAYER
 62
     7
 10
1383.304885
 20
-141.042525
 30
0.0
 11
1383.304885
 21
-151.203297
 31
0.0
  0
LINE
  8
0
  6
BYLAYER
 62
     7
 10
1383.304885
 20
-151.203297
 30
0.0
 11
1373.144113
 21
-151.203297
 31
0.0
  0
LINE
  8
0
  6
BYLAYER
 62
     7
 10
1383.304885
 20
-141.042525
 30
0.0
 11
1373.144113
 21
-141.042525
 31
0.0
  0
LINE
  8
0
  6
BYLAYER
 62
     7
 10
1373.144113
 20
-151.203297
 30
0.0
 11
1373.144113
 21
-141.042525
 31
0.0
  0
LINE
  8
0
  6
BYLAYER
 62
     7
 10
1370.603920
 20
-153.743490
 30
0.0
 11
1370.603920
 21
-163.904261
 31
0.0
  0
LINE
  8
0
  6
BYLAYER
 62
     7
 10
1370.603920
 20
-163.904261
 30
0.0
 11
1360.443149
 21
-163.904261
 31
0.0
  0
LINE
  8
0
  6
BYLAYER
 62
     7
 10
1370.603920
 20
-153.743490
 30
0.0
 11
1360.443149
 21
-153.743490
 31
0.0
  0
LINE
  8
0
  6
BYLAYER
 62
     7
 10
1360.443149
 20
-163.904261
 30
0.0
 11
1360.443149
 21
-153.743490
 31
0.0
  0
LINE
  8
0
  6
BYLAYER
 62
     7
 10
1357.902956
 20
-166.444454
 30
0.0
 11
1357.902956
 21
-176.605226
 31
0.0
  0
LINE
  8
0
  6
BYLAYER
 62
     7
 10
1357.902956
 20
-176.605226
 30
0.0
 11
1347.742184
 21
-176.605226
 31
0.0
  0
LINE
  8
0
  6
BYLAYER
 62
     7
 10
1357.902956
 20
-166.444454
 30
0.0
 11
1347.742184
 21
-166.444454
 31
0.0
  0
LINE
  8
0
  6
BYLAYER
 62
     7
 10
1347.742184
 20
-176.605226
 30
0.0
 11
1347.742184
 21
-166.444454
 31
0.0
  0
LINE
  8
0
  6
BYLAYER
 62
     7
 10
1345.201991
 20
-202.007155
 30
0.0
 11
1335.041219
 21
-202.007155
 31
0.0
  0
LINE
  8
0
  6
BYLAYER
 62
     7
 10
1345.201991
 20
-191.846384
 30
0.0
 11
1345.201991
 21
-202.007155
 31
0.0
  0
LINE
  8
0
  6
BYLAYER
 62
     7
 10
1345.201991
 20
-191.846384
 30
0.0
 11
1335.041219
 21
-191.846384
 31
0.0
  0
LINE
  8
0
  6
BYLAYER
 62
     7
 10
1335.041219
 20
-202.007155
 30
0.0
 11
1335.041219
 21
-191.846384
 31
0.0
  0
LINE
  8
0
  6
BYLAYER
 62
     7
 10
1345.201991
 20
-189.306191
 30
0.0
 11
1335.041219
 21
-189.306191
 31
0.0
  0
LINE
  8
0
  6
BYLAYER
 62
     7
 10
1345.201991
 20
-179.145419
 30
0.0
 11
1345.201991
 21
-189.306191
 31
0.0
  0
LINE
  8
0
  6
BYLAYER
 62
     7
 10
1345.201991
 20
-179.145419
 30
0.0
 11
1335.041219
 21
-179.145419
 31
0.0
  0
LINE
  8
0
  6
BYLAYER
 62
     7
 10
1335.041219
 20
-189.306191
 30
0.0
 11
1335.041219
 21
-179.145419
 31
0.0
  0
LINE
  8
0
  6
BYLAYER
 62
     7
 10
1332.501026
 20
-227.409085
 30
0.0
 11
1322.340255
 21
-227.409085
 31
0.0
  0
LINE
  8
0
  6
BYLAYER
 62
     7
 10
1332.501026
 20
-217.248313
 30
0.0
 11
1332.501026
 21
-227.409085
 31
0.0
  0
LINE
  8
0
  6
BYLAYER
 62
     7
 10
1332.501026
 20
-217.248313
 30
0.0
 11
1322.340255
 21
-217.248313
 31
0.0
  0
LINE
  8
0
  6
BYLAYER
 62
     7
 10
1322.340255
 20
-227.409085
 30
0.0
 11
1322.340255
 21
-217.248313
 31
0.0
  0
LINE
  8
0
  6
BYLAYER
 62
     7
 10
1332.501026
 20
-214.708120
 30
0.0
 11
1322.340255
 21
-214.708120
 31
0.0
  0
LINE
  8
0
  6
BYLAYER
 62
     7
 10
1332.501026
 20
-204.547348
 30
0.0
 11
1332.501026
 21
-214.708120
 31
0.0
  0
LINE
  8
0
  6
BYLAYER
 62
     7
 10
1332.501026
 20
-204.547348
 30
0.0
 11
1322.340255
 21
-204.547348
 31
0.0
  0
LINE
  8
0
  6
BYLAYER
 62
     7
 10
1322.340255
 20
-214.708120
 30
0.0
 11
1322.340255
 21
-204.547348
 31
0.0
  0
LINE
  8
0
  6
BYLAYER
 62
     7
 10
1436.648936
 20
-265.511978
 30
0.0
 11
1436.648936
 21
-255.351207
 31
0.0
  0
LINE
  8
0
  6
BYLAYER
 62
     7
 10
1436.648936
 20
-278.212943
 30
0.0
 11
1436.648936
 21
-268.052171
 31
0.0
  0
LINE
  8
0
  6
BYLAYER
 62
     7
 10
1446.809708
 20
-268.052171
 30
0.0
 11
1446.809708
 21
-278.212943
 31
0.0
  0
LINE
  8
0
  6
BYLAYER
 62
     7
 10
1449.349901
 20
-268.052171
 30
0.0
 11
1449.349901
 21
-278.212943
 31
0.0
  0
LINE
  8
0
  6
BYLAYER
 62
     7
 10
1436.648936
 20
-255.351207
 30
0.0
 11
1446.809708
 21
-255.351207
 31
0.0
  0
LINE
  8
0
  6
BYLAYER
 62
     7
 10
1436.648936
 20
-265.511978
 30
0.0
 11
1446.809708
 21
-265.511978
 31
0.0
  0
LINE
  8
0
  6
BYLAYER
 62
     7
 10
1449.349901
 20
-268.052171
 30
0.0
 11
1459.304915
 21
-268.052171
 31
0.0
  0
LINE
  8
0
  6
BYLAYER
 62
     7
 10
1436.648936
 20
-268.052171
 30
0.0
 11
1446.809708
 21
-268.052171
 31
0.0
  0
LINE
  8
0
  6
BYLAYER
 62
     7
 10
1449.349901
 20
-278.212943
 30
0.0
 11
1459.304915
 21
-278.212943
 31
0.0
  0
LINE
  8
0
  6
BYLAYER
 62
     7
 10
1436.648936
 20
-278.212943
 30
0.0
 11
1446.809708
 21
-278.212943
 31
0.0
  0
LINE
  8
0
  6
BYLAYER
 62
     7
 10
1459.304915
 20
-268.052171
 30
0.0
 11
1459.304915
 21
-278.212943
 31
0.0
  0
LINE
  8
0
  6
BYLAYER
 62
     7
 10
1446.809708
 20
-255.351207
 30
0.0
 11
1446.809708
 21
-265.511978
 31
0.0
  0
LINE
  8
0
  6
BYLAYER
 62
     7
 10
1449.349901
 20
-265.511978
 30
0.0
 11
1449.349901
 21
-255.351207
 31
0.0
  0
LINE
  8
0
  6
BYLAYER
 62
     7
 10
1449.349901
 20
-255.351207
 30
0.0
 11
1459.510673
 21
-255.351207
 31
0.0
  0
LINE
  8
0
  6
BYLAYER
 62
     7
 10
1449.349901
 20
-265.511978
 30
0.0
 11
1459.510673
 21
-265.511978
 31
0.0
  0
LINE
  8
0
  6
BYLAYER
 62
     7
 10
1459.510673
 20
-255.351207
 30
0.0
 11
1459.510673
 21
-265.511978
 31
0.0
  0
LINE
  8
0
  6
BYLAYER
 62
     7
 10
1462.050866
 20
-242.650242
 30
0.0
 11
1472.211637
 21
-242.650242
 31
0.0
  0
LINE
  8
0
  6
BYLAYER
 62
     7
 10
1462.050866
 20
-265.511978
 30
0.0
 11
1462.050866
 21
-255.351207
 31
0.0
  0
LINE
  8
0
  6
BYLAYER
 62
     7
 10
1462.050866
 20
-252.811014
 30
0.0
 11
1462.050866
 21
-242.650242
 31
0.0
  0
LINE
  8
0
  6
BYLAYER
 62
     7
 10
1462.050866
 20
-252.811014
 30
0.0
 11
1472.211637
 21
-252.811014
 31
0.0
  0
LINE
  8
0
  6
BYLAYER
 62
     7
 10
1462.050866
 20
-255.351207
 30
0.0
 11
1472.211637
 21
-255.351207
 31
0.0
  0
LINE
  8
0
  6
BYLAYER
 62
     7
 10
1462.050866
 20
-265.511978
 30
0.0
 11
1472.211637
 21
-265.511978
 31
0.0
  0
LINE
  8
0
  6
BYLAYER
 62
     7
 10
1472.211637
 20
-242.650242
 30
0.0
 11
1472.211637
 21
-252.811014
 31
0.0
  0
LINE
  8
0
  6
BYLAYER
 62
     7
 10
1472.211637
 20
-255.351207
 30
0.0
 11
1472.211637
 21
-265.511978
 31
0.0
  0
LINE
  8
0
  6
BYLAYER
 62
     7
 10
1462.050866
 20
-229.949277
 30
0.0
 11
1472.211637
 21
-229.949277
 31
0.0
  0
LINE
  8
0
  6
BYLAYER
 62
     7
 10
1462.050866
 20
-240.110049
 30
0.0
 11
1462.050866
 21
-229.949277
 31
0.0
  0
LINE
  8
0
  6
BYLAYER
 62
     7
 10
1462.050866
 20
-240.110049
 30
0.0
 11
1472.211637
 21
-240.110049
 31
0.0
  0
LINE
  8
0
  6
BYLAYER
 62
     7
 10
1472.211637
 20
-229.949277
 30
0.0
 11
1472.211637
 21
-240.110049
 31
0.0
  0
LINE
  8
0
  6
BYLAYER
 62
     7
 10
1474.751830
 20
-242.650242
 30
0.0
 11
1484.912602
 21
-242.650242
 31
0.0
  0
LINE
  8
0
  6
BYLAYER
 62
     7
 10
1474.751830
 20
-252.811014
 30
0.0
 11
1474.751830
 21
-242.650242
 31
0.0
  0
LINE
  8
0
  6
BYLAYER
 62
     7
 10
1474.751830
 20
-252.811014
 30
0.0
 11
1484.912602
 21
-252.811014
 31
0.0
  0
LINE
  8
0
  6
BYLAYER
 62
     7
 10
1484.912602
 20
-242.650242
 30
0.0
 11
1484.912602
 21
-252.811014
 31
0.0
  0
LINE
  8
0
  6
BYLAYER
 62
     7
 10
1474.751830
 20
-229.949277
 30
0.0
 11
1484.912602
 21
-229.949277
 31
0.0
  0
LINE
  8
0
  6
BYLAYER
 62
     7
 10
1474.751830
 20
-240.110049
 30
0.0
 11
1474.751830
 21
-229.949277
 31
0.0
  0
LINE
  8
0
  6
BYLAYER
 62
     7
 10
1474.751830
 20
-240.110049
 30
0.0
 11
1484.912602
 21
-240.110049
 31
0.0
  0
LINE
  8
0
  6
BYLAYER
 62
     7
 10
1484.912602
 20
-229.949277
 30
0.0
 11
1484.912602
 21
-240.110049
 31
0.0
  0
LINE
  8
0
  6
BYLAYER
 62
     7
 10
1487.452795
 20
-242.650242
 30
0.0
 11
1497.613567
 21
-242.650242
 31
0.0
  0
LINE
  8
0
  6
BYLAYER
 62
     7
 10
1487.452795
 20
-252.811014
 30
0.0
 11
1487.452795
 21
-242.650242
 31
0.0
  0
LINE
  8
0
  6
BYLAYER
 62
     7
 10
1487.452795
 20
-252.811014
 30
0.0
 11
1497.613567
 21
-252.811014
 31
0.0
  0
LINE
  8
0
  6
BYLAYER
 62
     7
 10
1497.613567
 20
-242.650242
 30
0.0
 11
1497.613567
 21
-252.811014
 31
0.0
  0
LINE
  8
0
  6
BYLAYER
 62
     7
 10
1487.452795
 20
-229.949277
 30
0.0
 11
1497.613567
 21
-229.949277
 31
0.0
  0
LINE
  8
0
  6
BYLAYER
 62
     7
 10
1487.452795
 20
-240.110049
 30
0.0
 11
1487.452795
 21
-229.949277
 31
0.0
  0
LINE
  8
0
  6
BYLAYER
 62
     7
 10
1487.452795
 20
-240.110049
 30
0.0
 11
1497.613567
 21
-240.110049
 31
0.0
  0
LINE
  8
0
  6
BYLAYER
 62
     7
 10
1497.613567
 20
-229.949277
 30
0.0
 11
1497.613567
 21
-240.110049
 31
0.0
  0
LINE
  8
0
  6
BYLAYER
 62
     7
 10
1436.648936
 20
-290.913908
 30
0.0
 11
1436.648936
 21
-280.753136
 31
0.0
  0
LINE
  8
0
  6
BYLAYER
 62
     7
 10
1446.809708
 20
-280.753136
 30
0.0
 11
1446.809708
 21
-290.913908
 31
0.0
  0
LINE
  8
0
  6
BYLAYER
 62
     7
 10
1449.349901
 20
-280.753136
 30
0.0
 11
1449.349901
 21
-290.913908
 31
0.0
  0
LINE
  8
0
  6
BYLAYER
 62
     7
 10
1449.349901
 20
-280.753136
 30
0.0
 11
1459.304915
 21
-280.753136
 31
0.0
  0
LINE
  8
0
  6
BYLAYER
 62
     7
 10
1436.648936
 20
-280.753136
 30
0.0
 11
1446.809708
 21
-280.753136
 31
0.0
  0
LINE
  8
0
  6
BYLAYER
 62
     7
 10
1449.349901
 20
-290.913908
 30
0.0
 11
1459.304915
 21
-290.913908
 31
0.0
  0
LINE
  8
0
  6
BYLAYER
 62
     7
 10
1436.648936
 20
-290.913908
 30
0.0
 11
1446.809708
 21
-290.913908
 31
0.0
  0
LINE
  8
0
  6
BYLAYER
 62
     7
 10
1459.304915
 20
-280.753136
 30
0.0
 11
1459.304915
 21
-290.913908
 31
0.0
  0
LINE
  8
0
  6
BYLAYER
 62
     7
 10
1462.050866
 20
-278.212943
 30
0.0
 11
1462.050866
 21
-268.052171
 31
0.0
  0
LINE
  8
0
  6
BYLAYER
 62
     7
 10
1462.050866
 20
-268.052171
 30
0.0
 11
1472.211637
 21
-268.052171
 31
0.0
  0
LINE
  8
0
  6
BYLAYER
 62
     7
 10
1462.050866
 20
-278.212943
 30
0.0
 11
1472.211637
 21
-278.212943
 31
0.0
  0
LINE
  8
0
  6
BYLAYER
 62
     7
 10
1472.211637
 20
-268.052171
 30
0.0
 11
1472.211637
 21
-278.212943
 31
0.0
  0
LINE
  8
0
  6
BYLAYER
 62
     7
 10
1462.050866
 20
-290.913908
 30
0.0
 11
1462.050866
 21
-280.753136
 31
0.0
  0
LINE
  8
0
  6
BYLAYER
 62
     7
 10
1462.050866
 20
-280.753136
 30
0.0
 11
1472.211637
 21
-280.753136
 31
0.0
  0
LINE
  8
0
  6
BYLAYER
 62
     7
 10
1462.050866
 20
-290.913908
 30
0.0
 11
1472.211637
 21
-290.913908
 31
0.0
  0
LINE
  8
0
  6
BYLAYER
 62
     7
 10
1472.211637
 20
-280.753136
 30
0.0
 11
1472.211637
 21
-290.913908
 31
0.0
  0
LINE
  8
0
  6
BYLAYER
 62
     7
 10
1474.751830
 20
-265.511978
 30
0.0
 11
1474.751830
 21
-255.351207
 31
0.0
  0
LINE
  8
0
  6
BYLAYER
 62
     7
 10
1474.751830
 20
-255.351207
 30
0.0
 11
1484.912602
 21
-255.351207
 31
0.0
  0
LINE
  8
0
  6
BYLAYER
 62
     7
 10
1474.751830
 20
-265.511978
 30
0.0
 11
1484.912602
 21
-265.511978
 31
0.0
  0
LINE
  8
0
  6
BYLAYER
 62
     7
 10
1484.912602
 20
-255.351207
 30
0.0
 11
1484.912602
 21
-265.511978
 31
0.0
  0
LINE
  8
0
  6
BYLAYER
 62
     7
 10
1474.751830
 20
-278.212943
 30
0.0
 11
1474.751830
 21
-268.052171
 31
0.0
  0
LINE
  8
0
  6
BYLAYER
 62
     7
 10
1474.751830
 20
-268.052171
 30
0.0
 11
1484.912602
 21
-268.052171
 31
0.0
  0
LINE
  8
0
  6
BYLAYER
 62
     7
 10
1474.751830
 20
-278.212943
 30
0.0
 11
1484.912602
 21
-278.212943
 31
0.0
  0
LINE
  8
0
  6
BYLAYER
 62
     7
 10
1484.912602
 20
-268.052171
 30
0.0
 11
1484.912602
 21
-278.212943
 31
0.0
  0
LINE
  8
0
  6
BYLAYER
 62
     7
 10
1487.452795
 20
-265.511978
 30
0.0
 11
1487.452795
 21
-255.351207
 31
0.0
  0
LINE
  8
0
  6
BYLAYER
 62
     7
 10
1487.452795
 20
-255.351207
 30
0.0
 11
1497.613567
 21
-255.351207
 31
0.0
  0
LINE
  8
0
  6
BYLAYER
 62
     7
 10
1487.452795
 20
-265.511978
 30
0.0
 11
1497.613567
 21
-265.511978
 31
0.0
  0
LINE
  8
0
  6
BYLAYER
 62
     7
 10
1497.613567
 20
-255.351207
 30
0.0
 11
1497.613567
 21
-265.511978
 31
0.0
  0
LINE
  8
0
  6
BYLAYER
 62
     7
 10
1500.153760
 20
-242.650242
 30
0.0
 11
1510.314531
 21
-242.650242
 31
0.0
  0
LINE
  8
0
  6
BYLAYER
 62
     7
 10
1500.153760
 20
-252.811014
 30
0.0
 11
1500.153760
 21
-242.650242
 31
0.0
  0
LINE
  8
0
  6
BYLAYER
 62
     7
 10
1500.153760
 20
-252.811014
 30
0.0
 11
1510.314531
 21
-252.811014
 31
0.0
  0
LINE
  8
0
  6
BYLAYER
 62
     7
 10
1510.314531
 20
-242.650242
 30
0.0
 11
1510.314531
 21
-252.811014
 31
0.0
  0
LINE
  8
0
  6
BYLAYER
 62
     7
 10
1500.153760
 20
-229.949277
 30
0.0
 11
1510.314531
 21
-229.949277
 31
0.0
  0
LINE
  8
0
  6
BYLAYER
 62
     7
 10
1500.153760
 20
-240.110049
 30
0.0
 11
1500.153760
 21
-229.949277
 31
0.0
  0
LINE
  8
0
  6
BYLAYER
 62
     7
 10
1500.153760
 20
-240.110049
 30
0.0
 11
1510.314531
 21
-240.110049
 31
0.0
  0
LINE
  8
0
  6
BYLAYER
 62
     7
 10
1510.314531
 20
-229.949277
 30
0.0
 11
1510.314531
 21
-240.110049
 31
0.0
  0
LINE
  8
0
  6
BYLAYER
 62
     7
 10
1500.153760
 20
-265.511978
 30
0.0
 11
1500.153760
 21
-255.351207
 31
0.0
  0
LINE
  8
0
  6
BYLAYER
 62
     7
 10
1500.153760
 20
-255.351207
 30
0.0
 11
1510.314531
 21
-255.351207
 31
0.0
  0
LINE
  8
0
  6
BYLAYER
 62
     7
 10
1500.153760
 20
-265.511978
 30
0.0
 11
1510.314531
 21
-265.511978
 31
0.0
  0
LINE
  8
0
  6
BYLAYER
 62
     7
 10
1510.314531
 20
-255.351207
 30
0.0
 11
1510.314531
 21
-265.511978
 31
0.0
  0
LINE
  8
0
  6
BYLAYER
 62
     7
 10
1436.648936
 20
-303.614872
 30
0.0
 11
1436.648936
 21
-293.454101
 31
0.0
  0
LINE
  8
0
  6
BYLAYER
 62
     7
 10
1446.809708
 20
-293.454101
 30
0.0
 11
1446.809708
 21
-303.614872
 31
0.0
  0
LINE
  8
0
  6
BYLAYER
 62
     7
 10
1449.349901
 20
-293.454101
 30
0.0
 11
1449.349901
 21
-303.614872
 31
0.0
  0
LINE
  8
0
  6
BYLAYER
 62
     7
 10
1449.349901
 20
-293.454101
 30
0.0
 11
1459.304915
 21
-293.454101
 31
0.0
  0
LINE
  8
0
  6
BYLAYER
 62
     7
 10
1436.648936
 20
-293.454101
 30
0.0
 11
1446.809708
 21
-293.454101
 31
0.0
  0
LINE
  8
0
  6
BYLAYER
 62
     7
 10
1449.349901
 20
-303.614872
 30
0.0
 11
1459.304915
 21
-303.614872
 31
0.0
  0
LINE
  8
0
  6
BYLAYER
 62
     7
 10
1436.648936
 20
-303.614872
 30
0.0
 11
1446.809708
 21
-303.614872
 31
0.0
  0
LINE
  8
0
  6
BYLAYER
 62
     7
 10
1459.304915
 20
-293.454101
 30
0.0
 11
1459.304915
 21
-303.614872
 31
0.0
  0
LINE
  8
0
  6
BYLAYER
 62
     7
 10
1462.050866
 20
-303.614872
 30
0.0
 11
1462.050866
 21
-293.454101
 31
0.0
  0
LINE
  8
0
  6
BYLAYER
 62
     7
 10
1462.050866
 20
-293.454101
 30
0.0
 11
1472.211637
 21
-293.454101
 31
0.0
  0
LINE
  8
0
  6
BYLAYER
 62
     7
 10
1462.050866
 20
-303.614872
 30
0.0
 11
1472.211637
 21
-303.614872
 31
0.0
  0
LINE
  8
0
  6
BYLAYER
 62
     7
 10
1472.211637
 20
-293.454101
 30
0.0
 11
1472.211637
 21
-303.614872
 31
0.0
  0
LINE
  8
0
  6
BYLAYER
 62
     7
 10
1474.751830
 20
-290.913908
 30
0.0
 11
1474.751830
 21
-280.753136
 31
0.0
  0
LINE
  8
0
  6
BYLAYER
 62
     7
 10
1474.751830
 20
-280.753136
 30
0.0
 11
1484.912602
 21
-280.753136
 31
0.0
  0
LINE
  8
0
  6
BYLAYER
 62
     7
 10
1474.751830
 20
-290.913908
 30
0.0
 11
1484.912602
 21
-290.913908
 31
0.0
  0
LINE
  8
0
  6
BYLAYER
 62
     7
 10
1484.912602
 20
-280.753136
 30
0.0
 11
1484.912602
 21
-290.913908
 31
0.0
  0
LINE
  8
0
  6
BYLAYER
 62
     7
 10
1487.452795
 20
-278.212943
 30
0.0
 11
1487.452795
 21
-268.052171
 31
0.0
  0
LINE
  8
0
  6
BYLAYER
 62
     7
 10
1487.452795
 20
-268.052171
 30
0.0
 11
1497.613567
 21
-268.052171
 31
0.0
  0
LINE
  8
0
  6
BYLAYER
 62
     7
 10
1487.452795
 20
-278.212943
 30
0.0
 11
1497.613567
 21
-278.212943
 31
0.0
  0
LINE
  8
0
  6
BYLAYER
 62
     7
 10
1497.613567
 20
-268.052171
 30
0.0
 11
1497.613567
 21
-278.212943
 31
0.0
  0
LINE
  8
0
  6
BYLAYER
 62
     7
 10
1436.648936
 20
-316.315837
 30
0.0
 11
1436.648936
 21
-306.155065
 31
0.0
  0
LINE
  8
0
  6
BYLAYER
 62
     7
 10
1446.809708
 20
-306.155065
 30
0.0
 11
1446.809708
 21
-316.315837
 31
0.0
  0
LINE
  8
0
  6
BYLAYER
 62
     7
 10
1449.349901
 20
-306.155065
 30
0.0
 11
1449.349901
 21
-316.315837
 31
0.0
  0
LINE
  8
0
  6
BYLAYER
 62
     7
 10
1449.349901
 20
-306.155065
 30
0.0
 11
1459.304915
 21
-306.155065
 31
0.0
  0
LINE
  8
0
  6
BYLAYER
 62
     7
 10
1436.648936
 20
-306.155065
 30
0.0
 11
1446.809708
 21
-306.155065
 31
0.0
  0
LINE
  8
0
  6
BYLAYER
 62
     7
 10
1449.349901
 20
-316.315837
 30
0.0
 11
1459.304915
 21
-316.315837
 31
0.0
  0
LINE
  8
0
  6
BYLAYER
 62
     7
 10
1436.648936
 20
-316.315837
 30
0.0
 11
1446.809708
 21
-316.315837
 31
0.0
  0
LINE
  8
0
  6
BYLAYER
 62
     7
 10
1459.304915
 20
-306.155065
 30
0.0
 11
1459.304915
 21
-316.315837
 31
0.0
  0
LINE
  8
0
  6
BYLAYER
 62
     7
 10
1512.854724
 20
-242.650242
 30
0.0
 11
1523.015496
 21
-242.650242
 31
0.0
  0
LINE
  8
0
  6
BYLAYER
 62
     7
 10
1512.854724
 20
-252.811014
 30
0.0
 11
1512.854724
 21
-242.650242
 31
0.0
  0
LINE
  8
0
  6
BYLAYER
 62
     7
 10
1512.854724
 20
-252.811014
 30
0.0
 11
1523.015496
 21
-252.811014
 31
0.0
  0
LINE
  8
0
  6
BYLAYER
 62
     7
 10
1523.015496
 20
-242.650242
 30
0.0
 11
1523.015496
 21
-252.811014
 31
0.0
  0
LINE
  8
0
  6
BYLAYER
 62
     7
 10
1512.854724
 20
-229.949277
 30
0.0
 11
1523.015496
 21
-229.949277
 31
0.0
  0
LINE
  8
0
  6
BYLAYER
 62
     7
 10
1512.854724
 20
-240.110049
 30
0.0
 11
1512.854724
 21
-229.949277
 31
0.0
  0
LINE
  8
0
  6
BYLAYER
 62
     7
 10
1512.854724
 20
-240.110049
 30
0.0
 11
1523.015496
 21
-240.110049
 31
0.0
  0
LINE
  8
0
  6
BYLAYER
 62
     7
 10
1523.015496
 20
-229.949277
 30
0.0
 11
1523.015496
 21
-240.110049
 31
0.0
  0
LINE
  8
0
  6
BYLAYER
 62
     7
 10
1474.751830
 20
-303.614872
 30
0.0
 11
1474.751830
 21
-293.454101
 31
0.0
  0
LINE
  8
0
  6
BYLAYER
 62
     7
 10
1474.751830
 20
-293.454101
 30
0.0
 11
1484.912602
 21
-293.454101
 31
0.0
  0
LINE
  8
0
  6
BYLAYER
 62
     7
 10
1474.751830
 20
-303.614872
 30
0.0
 11
1484.912602
 21
-303.614872
 31
0.0
  0
LINE
  8
0
  6
BYLAYER
 62
     7
 10
1484.912602
 20
-293.454101
 30
0.0
 11
1484.912602
 21
-303.614872
 31
0.0
  0
LINE
  8
0
  6
BYLAYER
 62
     7
 10
1487.452795
 20
-290.913908
 30
0.0
 11
1487.452795
 21
-280.753136
 31
0.0
  0
LINE
  8
0
  6
BYLAYER
 62
     7
 10
1487.452795
 20
-280.753136
 30
0.0
 11
1497.613567
 21
-280.753136
 31
0.0
  0
LINE
  8
0
  6
BYLAYER
 62
     7
 10
1487.452795
 20
-290.913908
 30
0.0
 11
1497.613567
 21
-290.913908
 31
0.0
  0
LINE
  8
0
  6
BYLAYER
 62
     7
 10
1497.613567
 20
-280.753136
 30
0.0
 11
1497.613567
 21
-290.913908
 31
0.0
  0
LINE
  8
0
  6
BYLAYER
 62
     7
 10
1500.153760
 20
-278.212943
 30
0.0
 11
1500.153760
 21
-268.052171
 31
0.0
  0
LINE
  8
0
  6
BYLAYER
 62
     7
 10
1500.153760
 20
-268.052171
 30
0.0
 11
1510.314531
 21
-268.052171
 31
0.0
  0
LINE
  8
0
  6
BYLAYER
 62
     7
 10
1500.153760
 20
-278.212943
 30
0.0
 11
1510.314531
 21
-278.212943
 31
0.0
  0
LINE
  8
0
  6
BYLAYER
 62
     7
 10
1510.314531
 20
-268.052171
 30
0.0
 11
1510.314531
 21
-278.212943
 31
0.0
  0
LINE
  8
0
  6
BYLAYER
 62
     7
 10
1436.648936
 20
-329.016802
 30
0.0
 11
1436.648936
 21
-318.856030
 31
0.0
  0
LINE
  8
0
  6
BYLAYER
 62
     7
 10
1446.809708
 20
-318.856030
 30
0.0
 11
1446.809708
 21
-329.016802
 31
0.0
  0
LINE
  8
0
  6
BYLAYER
 62
     7
 10
1436.648936
 20
-318.856030
 30
0.0
 11
1446.809708
 21
-318.856030
 31
0.0
  0
LINE
  8
0
  6
BYLAYER
 62
     7
 10
1436.648936
 20
-329.016802
 30
0.0
 11
1446.809708
 21
-329.016802
 31
0.0
  0
LINE
  8
0
  6
BYLAYER
 62
     7
 10
1525.555689
 20
-229.949277
 30
0.0
 11
1535.716461
 21
-229.949277
 31
0.0
  0
LINE
  8
0
  6
BYLAYER
 62
     7
 10
1525.555689
 20
-240.110049
 30
0.0
 11
1525.555689
 21
-229.949277
 31
0.0
  0
LINE
  8
0
  6
BYLAYER
 62
     7
 10
1525.555689
 20
-240.110049
 30
0.0
 11
1535.716461
 21
-240.110049
 31
0.0
  0
LINE
  8
0
  6
BYLAYER
 62
     7
 10
1535.716461
 20
-229.949277
 30
0.0
 11
1535.716461
 21
-240.110049
 31
0.0
  0
LINE
  8
0
  6
BYLAYER
 62
     7
 10
1462.050866
 20
-316.315837
 30
0.0
 11
1462.050866
 21
-306.155065
 31
0.0
  0
LINE
  8
0
  6
BYLAYER
 62
     7
 10
1462.050866
 20
-306.155065
 30
0.0
 11
1472.211637
 21
-306.155065
 31
0.0
  0
LINE
  8
0
  6
BYLAYER
 62
     7
 10
1462.050866
 20
-316.315837
 30
0.0
 11
1472.211637
 21
-316.315837
 31
0.0
  0
LINE
  8
0
  6
BYLAYER
 62
     7
 10
1472.211637
 20
-306.155065
 30
0.0
 11
1472.211637
 21
-316.315837
 31
0.0
  0
LINE
  8
0
  6
BYLAYER
 62
     7
 10
1512.854724
 20
-265.511978
 30
0.0
 11
1512.854724
 21
-255.351207
 31
0.0
  0
LINE
  8
0
  6
BYLAYER
 62
     7
 10
1512.854724
 20
-255.351207
 30
0.0
 11
1523.015496
 21
-255.351207
 31
0.0
  0
LINE
  8
0
  6
BYLAYER
 62
     7
 10
1512.854724
 20
-265.511978
 30
0.0
 11
1523.015496
 21
-265.511978
 31
0.0
  0
LINE
  8
0
  6
BYLAYER
 62
     7
 10
1523.015496
 20
-255.351207
 30
0.0
 11
1523.015496
 21
-265.511978
 31
0.0
  0
LINE
  8
0
  6
BYLAYER
 62
     7
 10
1474.751830
 20
-316.315837
 30
0.0
 11
1474.751830
 21
-306.155065
 31
0.0
  0
LINE
  8
0
  6
BYLAYER
 62
     7
 10
1474.751830
 20
-306.155065
 30
0.0
 11
1484.912602
 21
-306.155065
 31
0.0
  0
LINE
  8
0
  6
BYLAYER
 62
     7
 10
1474.751830
 20
-316.315837
 30
0.0
 11
1484.912602
 21
-316.315837
 31
0.0
  0
LINE
  8
0
  6
BYLAYER
 62
     7
 10
1484.912602
 20
-306.155065
 30
0.0
 11
1484.912602
 21
-316.315837
 31
0.0
  0
LINE
  8
0
  6
BYLAYER
 62
     7
 10
1487.452795
 20
-303.614872
 30
0.0
 11
1487.452795
 21
-293.454101
 31
0.0
  0
LINE
  8
0
  6
BYLAYER
 62
     7
 10
1487.452795
 20
-293.454101
 30
0.0
 11
1497.613567
 21
-293.454101
 31
0.0
  0
LINE
  8
0
  6
BYLAYER
 62
     7
 10
1487.452795
 20
-303.614872
 30
0.0
 11
1497.613567
 21
-303.614872
 31
0.0
  0
LINE
  8
0
  6
BYLAYER
 62
     7
 10
1497.613567
 20
-293.454101
 30
0.0
 11
1497.613567
 21
-303.614872
 31
0.0
  0
LINE
  8
0
  6
BYLAYER
 62
     7
 10
1500.153760
 20
-290.913908
 30
0.0
 11
1500.153760
 21
-280.753136
 31
0.0
  0
LINE
  8
0
  6
BYLAYER
 62
     7
 10
1500.153760
 20
-280.753136
 30
0.0
 11
1510.314531
 21
-280.753136
 31
0.0
  0
LINE
  8
0
  6
BYLAYER
 62
     7
 10
1500.153760
 20
-290.913908
 30
0.0
 11
1510.314531
 21
-290.913908
 31
0.0
  0
LINE
  8
0
  6
BYLAYER
 62
     7
 10
1510.314531
 20
-280.753136
 30
0.0
 11
1510.314531
 21
-290.913908
 31
0.0
  0
LINE
  8
0
  6
BYLAYER
 62
     7
 10
1512.854724
 20
-278.212943
 30
0.0
 11
1512.854724
 21
-268.052171
 31
0.0
  0
LINE
  8
0
  6
BYLAYER
 62
     7
 10
1512.854724
 20
-268.052171
 30
0.0
 11
1523.015496
 21
-268.052171
 31
0.0
  0
LINE
  8
0
  6
BYLAYER
 62
     7
 10
1512.854724
 20
-278.212943
 30
0.0
 11
1523.015496
 21
-278.212943
 31
0.0
  0
LINE
  8
0
  6
BYLAYER
 62
     7
 10
1523.015496
 20
-268.052171
 30
0.0
 11
1523.015496
 21
-278.212943
 31
0.0
  0
LINE
  8
0
  6
BYLAYER
 62
     7
 10
1449.349901
 20
-318.856030
 30
0.0
 11
1449.349901
 21
-329.016802
 31
0.0
  0
LINE
  8
0
  6
BYLAYER
 62
     7
 10
1449.349901
 20
-318.856030
 30
0.0
 11
1459.304915
 21
-318.856030
 31
0.0
  0
LINE
  8
0
  6
BYLAYER
 62
     7
 10
1449.349901
 20
-329.016802
 30
0.0
 11
1459.304915
 21
-329.016802
 31
0.0
  0
LINE
  8
0
  6
BYLAYER
 62
     7
 10
1459.304915
 20
-318.856030
 30
0.0
 11
1459.304915
 21
-329.016802
 31
0.0
  0
LINE
  8
0
  6
BYLAYER
 62
     7
 10
1525.555689
 20
-242.650242
 30
0.0
 11
1535.716461
 21
-242.650242
 31
0.0
  0
LINE
  8
0
  6
BYLAYER
 62
     7
 10
1525.555689
 20
-252.811014
 30
0.0
 11
1525.555689
 21
-242.650242
 31
0.0
  0
LINE
  8
0
  6
BYLAYER
 62
     7
 10
1525.555689
 20
-252.811014
 30
0.0
 11
1535.716461
 21
-252.811014
 31
0.0
  0
LINE
  8
0
  6
BYLAYER
 62
     7
 10
1535.716461
 20
-242.650242
 30
0.0
 11
1535.716461
 21
-252.811014
 31
0.0
  0
LINE
  8
0
  6
BYLAYER
 62
     7
 10
1436.648936
 20
-341.717766
 30
0.0
 11
1436.648936
 21
-331.556995
 31
0.0
  0
LINE
  8
0
  6
BYLAYER
 62
     7
 10
1446.809708
 20
-331.556995
 30
0.0
 11
1446.809708
 21
-341.717766
 31
0.0
  0
LINE
  8
0
  6
BYLAYER
 62
     7
 10
1436.648936
 20
-331.556995
 30
0.0
 11
1446.809708
 21
-331.556995
 31
0.0
  0
LINE
  8
0
  6
BYLAYER
 62
     7
 10
1436.648936
 20
-341.717766
 30
0.0
 11
1446.809708
 21
-341.717766
 31
0.0
  0
LINE
  8
0
  6
BYLAYER
 62
     7
 10
1449.349901
 20
-331.556995
 30
0.0
 11
1449.349901
 21
-341.717766
 31
0.0
  0
LINE
  8
0
  6
BYLAYER
 62
     7
 10
1449.349901
 20
-331.556995
 30
0.0
 11
1459.304915
 21
-331.556995
 31
0.0
  0
LINE
  8
0
  6
BYLAYER
 62
     7
 10
1449.349901
 20
-341.717766
 30
0.0
 11
1459.304915
 21
-341.717766
 31
0.0
  0
LINE
  8
0
  6
BYLAYER
 62
     7
 10
1459.304915
 20
-331.556995
 30
0.0
 11
1459.304915
 21
-341.717766
 31
0.0
  0
LINE
  8
0
  6
BYLAYER
 62
     7
 10
1462.050866
 20
-329.016802
 30
0.0
 11
1462.050866
 21
-318.856030
 31
0.0
  0
LINE
  8
0
  6
BYLAYER
 62
     7
 10
1462.050866
 20
-318.856030
 30
0.0
 11
1472.211637
 21
-318.856030
 31
0.0
  0
LINE
  8
0
  6
BYLAYER
 62
     7
 10
1462.050866
 20
-329.016802
 30
0.0
 11
1472.211637
 21
-329.016802
 31
0.0
  0
LINE
  8
0
  6
BYLAYER
 62
     7
 10
1472.211637
 20
-318.856030
 30
0.0
 11
1472.211637
 21
-329.016802
 31
0.0
  0
LINE
  8
0
  6
BYLAYER
 62
     7
 10
1474.751830
 20
-329.016802
 30
0.0
 11
1474.751830
 21
-318.856030
 31
0.0
  0
LINE
  8
0
  6
BYLAYER
 62
     7
 10
1474.751830
 20
-318.856030
 30
0.0
 11
1484.912602
 21
-318.856030
 31
0.0
  0
LINE
  8
0
  6
BYLAYER
 62
     7
 10
1474.751830
 20
-329.016802
 30
0.0
 11
1484.912602
 21
-329.016802
 31
0.0
  0
LINE
  8
0
  6
BYLAYER
 62
     7
 10
1484.912602
 20
-318.856030
 30
0.0
 11
1484.912602
 21
-329.016802
 31
0.0
  0
LINE
  8
0
  6
BYLAYER
 62
     7
 10
1487.452795
 20
-316.315837
 30
0.0
 11
1487.452795
 21
-306.155065
 31
0.0
  0
LINE
  8
0
  6
BYLAYER
 62
     7
 10
1487.452795
 20
-306.155065
 30
0.0
 11
1497.613567
 21
-306.155065
 31
0.0
  0
LINE
  8
0
  6
BYLAYER
 62
     7
 10
1487.452795
 20
-316.315837
 30
0.0
 11
1497.613567
 21
-316.315837
 31
0.0
  0
LINE
  8
0
  6
BYLAYER
 62
     7
 10
1497.613567
 20
-306.155065
 30
0.0
 11
1497.613567
 21
-316.315837
 31
0.0
  0
LINE
  8
0
  6
BYLAYER
 62
     7
 10
1500.153760
 20
-303.614872
 30
0.0
 11
1500.153760
 21
-293.454101
 31
0.0
  0
LINE
  8
0
  6
BYLAYER
 62
     7
 10
1500.153760
 20
-293.454101
 30
0.0
 11
1510.314531
 21
-293.454101
 31
0.0
  0
LINE
  8
0
  6
BYLAYER
 62
     7
 10
1500.153760
 20
-303.614872
 30
0.0
 11
1510.314531
 21
-303.614872
 31
0.0
  0
LINE
  8
0
  6
BYLAYER
 62
     7
 10
1510.314531
 20
-293.454101
 30
0.0
 11
1510.314531
 21
-303.614872
 31
0.0
  0
LINE
  8
0
  6
BYLAYER
 62
     7
 10
1512.854724
 20
-290.913908
 30
0.0
 11
1512.854724
 21
-280.753136
 31
0.0
  0
LINE
  8
0
  6
BYLAYER
 62
     7
 10
1512.854724
 20
-280.753136
 30
0.0
 11
1523.015496
 21
-280.753136
 31
0.0
  0
LINE
  8
0
  6
BYLAYER
 62
     7
 10
1512.854724
 20
-290.913908
 30
0.0
 11
1523.015496
 21
-290.913908
 31
0.0
  0
LINE
  8
0
  6
BYLAYER
 62
     7
 10
1523.015496
 20
-280.753136
 30
0.0
 11
1523.015496
 21
-290.913908
 31
0.0
  0
LINE
  8
0
  6
BYLAYER
 62
     7
 10
1525.555689
 20
-255.351207
 30
0.0
 11
1535.716461
 21
-255.351207
 31
0.0
  0
LINE
  8
0
  6
BYLAYER
 62
     7
 10
1525.555689
 20
-265.511978
 30
0.0
 11
1525.555689
 21
-255.351207
 31
0.0
  0
LINE
  8
0
  6
BYLAYER
 62
     7
 10
1525.555689
 20
-265.511978
 30
0.0
 11
1535.716461
 21
-265.511978
 31
0.0
  0
LINE
  8
0
  6
BYLAYER
 62
     7
 10
1535.716461
 20
-255.351207
 30
0.0
 11
1535.716461
 21
-265.511978
 31
0.0
  0
LINE
  8
0
  6
BYLAYER
 62
     7
 10
1525.555689
 20
-268.052171
 30
0.0
 11
1535.716461
 21
-268.052171
 31
0.0
  0
LINE
  8
0
  6
BYLAYER
 62
     7
 10
1525.555689
 20
-278.212943
 30
0.0
 11
1525.555689
 21
-268.052171
 31
0.0
  0
LINE
  8
0
  6
BYLAYER
 62
     7
 10
1525.555689
 20
-278.212943
 30
0.0
 11
1535.716461
 21
-278.212943
 31
0.0
  0
LINE
  8
0
  6
BYLAYER
 62
     7
 10
1535.716461
 20
-268.052171
 30
0.0
 11
1535.716461
 21
-278.212943
 31
0.0
  0
LINE
  8
0
  6
BYLAYER
 62
     7
 10
1538.256654
 20
-229.949277
 30
0.0
 11
1548.417425
 21
-229.949277
 31
0.0
  0
LINE
  8
0
  6
BYLAYER
 62
     7
 10
1538.256654
 20
-240.110049
 30
0.0
 11
1538.256654
 21
-229.949277
 31
0.0
  0
LINE
  8
0
  6
BYLAYER
 62
     7
 10
1538.256654
 20
-240.110049
 30
0.0
 11
1548.417425
 21
-240.110049
 31
0.0
  0
LINE
  8
0
  6
BYLAYER
 62
     7
 10
1548.417425
 20
-229.949277
 30
0.0
 11
1548.417425
 21
-240.110049
 31
0.0
  0
LINE
  8
0
  6
BYLAYER
 62
     7
 10
1538.256654
 20
-242.650242
 30
0.0
 11
1548.417425
 21
-242.650242
 31
0.0
  0
LINE
  8
0
  6
BYLAYER
 62
     7
 10
1538.256654
 20
-252.811014
 30
0.0
 11
1538.256654
 21
-242.650242
 31
0.0
  0
LINE
  8
0
  6
BYLAYER
 62
     7
 10
1538.256654
 20
-252.811014
 30
0.0
 11
1548.417425
 21
-252.811014
 31
0.0
  0
LINE
  8
0
  6
BYLAYER
 62
     7
 10
1548.417425
 20
-242.650242
 30
0.0
 11
1548.417425
 21
-252.811014
 31
0.0
  0
LINE
  8
0
  6
BYLAYER
 62
     7
 10
1434.108744
 20
-265.511978
 30
0.0
 11
1434.108744
 21
-255.351207
 31
0.0
  0
LINE
  8
0
  6
BYLAYER
 62
     7
 10
1434.108744
 20
-278.212943
 30
0.0
 11
1434.108744
 21
-268.052171
 31
0.0
  0
LINE
  8
0
  6
BYLAYER
 62
     7
 10
1423.947972
 20
-268.052171
 30
0.0
 11
1423.947972
 21
-278.212943
 31
0.0
  0
LINE
  8
0
  6
BYLAYER
 62
     7
 10
1421.407779
 20
-268.052171
 30
0.0
 11
1421.407779
 21
-278.212943
 31
0.0
  0
LINE
  8
0
  6
BYLAYER
 62
     7
 10
1434.108744
 20
-255.351207
 30
0.0
 11
1423.947972
 21
-255.351207
 31
0.0
  0
LINE
  8
0
  6
BYLAYER
 62
     7
 10
1434.108744
 20
-265.511978
 30
0.0
 11
1423.947972
 21
-265.511978
 31
0.0
  0
LINE
  8
0
  6
BYLAYER
 62
     7
 10
1421.407779
 20
-268.052171
 30
0.0
 11
1411.452765
 21
-268.052171
 31
0.0
  0
LINE
  8
0
  6
BYLAYER
 62
     7
 10
1434.108744
 20
-268.052171
 30
0.0
 11
1423.947972
 21
-268.052171
 31
0.0
  0
LINE
  8
0
  6
BYLAYER
 62
     7
 10
1421.407779
 20
-278.212943
 30
0.0
 11
1411.452765
 21
-278.212943
 31
0.0
  0
LINE
  8
0
  6
BYLAYER
 62
     7
 10
1434.108744
 20
-278.212943
 30
0.0
 11
1423.947972
 21
-278.212943
 31
0.0
  0
LINE
  8
0
  6
BYLAYER
 62
     7
 10
1411.452765
 20
-268.052171
 30
0.0
 11
1411.452765
 21
-278.212943
 31
0.0
  0
LINE
  8
0
  6
BYLAYER
 62
     7
 10
1423.947972
 20
-255.351207
 30
0.0
 11
1423.947972
 21
-265.511978
 31
0.0
  0
LINE
  8
0
  6
BYLAYER
 62
     7
 10
1421.407779
 20
-265.511978
 30
0.0
 11
1421.407779
 21
-255.351207
 31
0.0
  0
LINE
  8
0
  6
BYLAYER
 62
     7
 10
1421.407779
 20
-255.351207
 30
0.0
 11
1411.247007
 21
-255.351207
 31
0.0
  0
LINE
  8
0
  6
BYLAYER
 62
     7
 10
1421.407779
 20
-265.511978
 30
0.0
 11
1411.247007
 21
-265.511978
 31
0.0
  0
LINE
  8
0
  6
BYLAYER
 62
     7
 10
1411.247007
 20
-255.351207
 30
0.0
 11
1411.247007
 21
-265.511978
 31
0.0
  0
LINE
  8
0
  6
BYLAYER
 62
     7
 10
1408.706814
 20
-242.650242
 30
0.0
 11
1398.546043
 21
-242.650242
 31
0.0
  0
LINE
  8
0
  6
BYLAYER
 62
     7
 10
1408.706814
 20
-265.511978
 30
0.0
 11
1408.706814
 21
-255.351207
 31
0.0
  0
LINE
  8
0
  6
BYLAYER
 62
     7
 10
1408.706814
 20
-252.811014
 30
0.0
 11
1408.706814
 21
-242.650242
 31
0.0
  0
LINE
  8
0
  6
BYLAYER
 62
     7
 10
1408.706814
 20
-252.811014
 30
0.0
 11
1398.546043
 21
-252.811014
 31
0.0
  0
LINE
  8
0
  6
BYLAYER
 62
     7
 10
1408.706814
 20
-255.351207
 30
0.0
 11
1398.546043
 21
-255.351207
 31
0.0
  0
LINE
  8
0
  6
BYLAYER
 62
     7
 10
1408.706814
 20
-265.511978
 30
0.0
 11
1398.546043
 21
-265.511978
 31
0.0
  0
LINE
  8
0
  6
BYLAYER
 62
     7
 10
1398.546043
 20
-242.650242
 30
0.0
 11
1398.546043
 21
-252.811014
 31
0.0
  0
LINE
  8
0
  6
BYLAYER
 62
     7
 10
1398.546043
 20
-255.351207
 30
0.0
 11
1398.546043
 21
-265.511978
 31
0.0
  0
LINE
  8
0
  6
BYLAYER
 62
     7
 10
1408.706814
 20
-229.949277
 30
0.0
 11
1398.546043
 21
-229.949277
 31
0.0
  0
LINE
  8
0
  6
BYLAYER
 62
     7
 10
1408.706814
 20
-240.110049
 30
0.0
 11
1408.706814
 21
-229.949277
 31
0.0
  0
LINE
  8
0
  6
BYLAYER
 62
     7
 10
1408.706814
 20
-240.110049
 30
0.0
 11
1398.546043
 21
-240.110049
 31
0.0
  0
LINE
  8
0
  6
BYLAYER
 62
     7
 10
1398.546043
 20
-229.949277
 30
0.0
 11
1398.546043
 21
-240.110049
 31
0.0
  0
LINE
  8
0
  6
BYLAYER
 62
     7
 10
1396.005850
 20
-242.650242
 30
0.0
 11
1385.845078
 21
-242.650242
 31
0.0
  0
LINE
  8
0
  6
BYLAYER
 62
     7
 10
1396.005850
 20
-252.811014
 30
0.0
 11
1396.005850
 21
-242.650242
 31
0.0
  0
LINE
  8
0
  6
BYLAYER
 62
     7
 10
1396.005850
 20
-252.811014
 30
0.0
 11
1385.845078
 21
-252.811014
 31
0.0
  0
LINE
  8
0
  6
BYLAYER
 62
     7
 10
1385.845078
 20
-242.650242
 30
0.0
 11
1385.845078
 21
-252.811014
 31
0.0
  0
LINE
  8
0
  6
BYLAYER
 62
     7
 10
1396.005850
 20
-229.949277
 30
0.0
 11
1385.845078
 21
-229.949277
 31
0.0
  0
LINE
  8
0
  6
BYLAYER
 62
     7
 10
1396.005850
 20
-240.110049
 30
0.0
 11
1396.005850
 21
-229.949277
 31
0.0
  0
LINE
  8
0
  6
BYLAYER
 62
     7
 10
1396.005850
 20
-240.110049
 30
0.0
 11
1385.845078
 21
-240.110049
 31
0.0
  0
LINE
  8
0
  6
BYLAYER
 62
     7
 10
1385.845078
 20
-229.949277
 30
0.0
 11
1385.845078
 21
-240.110049
 31
0.0
  0
LINE
  8
0
  6
BYLAYER
 62
     7
 10
1383.304885
 20
-242.650242
 30
0.0
 11
1373.144113
 21
-242.650242
 31
0.0
  0
LINE
  8
0
  6
BYLAYER
 62
     7
 10
1383.304885
 20
-252.811014
 30
0.0
 11
1383.304885
 21
-242.650242
 31
0.0
  0
LINE
  8
0
  6
BYLAYER
 62
     7
 10
1383.304885
 20
-252.811014
 30
0.0
 11
1373.144113
 21
-252.811014
 31
0.0
  0
LINE
  8
0
  6
BYLAYER
 62
     7
 10
1373.144113
 20
-242.650242
 30
0.0
 11
1373.144113
 21
-252.811014
 31
0.0
  0
LINE
  8
0
  6
BYLAYER
 62
     7
 10
1383.304885
 20
-229.949277
 30
0.0
 11
1373.144113
 21
-229.949277
 31
0.0
  0
LINE
  8
0
  6
BYLAYER
 62
     7
 10
1383.304885
 20
-240.110049
 30
0.0
 11
1383.304885
 21
-229.949277
 31
0.0
  0
LINE
  8
0
  6
BYLAYER
 62
     7
 10
1383.304885
 20
-240.110049
 30
0.0
 11
1373.144113
 21
-240.110049
 31
0.0
  0
LINE
  8
0
  6
BYLAYER
 62
     7
 10
1373.144113
 20
-229.949277
 30
0.0
 11
1373.144113
 21
-240.110049
 31
0.0
  0
LINE
  8
0
  6
BYLAYER
 62
     7
 10
1434.108744
 20
-290.913908
 30
0.0
 11
1434.108744
 21
-280.753136
 31
0.0
  0
LINE
  8
0
  6
BYLAYER
 62
     7
 10
1423.947972
 20
-280.753136
 30
0.0
 11
1423.947972
 21
-290.913908
 31
0.0
  0
LINE
  8
0
  6
BYLAYER
 62
     7
 10
1421.407779
 20
-280.753136
 30
0.0
 11
1421.407779
 21
-290.913908
 31
0.0
  0
LINE
  8
0
  6
BYLAYER
 62
     7
 10
1421.407779
 20
-280.753136
 30
0.0
 11
1411.452765
 21
-280.753136
 31
0.0
  0
LINE
  8
0
  6
BYLAYER
 62
     7
 10
1434.108744
 20
-280.753136
 30
0.0
 11
1423.947972
 21
-280.753136
 31
0.0
  0
LINE
  8
0
  6
BYLAYER
 62
     7
 10
1421.407779
 20
-290.913908
 30
0.0
 11
1411.452765
 21
-290.913908
 31
0.0
  0
LINE
  8
0
  6
BYLAYER
 62
     7
 10
1434.108744
 20
-290.913908
 30
0.0
 11
1423.947972
 21
-290.913908
 31
0.0
  0
LINE
  8
0
  6
BYLAYER
 62
     7
 10
1411.452765
 20
-280.753136
 30
0.0
 11
1411.452765
 21
-290.913908
 31
0.0
  0
LINE
  8
0
  6
BYLAYER
 62
     7
 10
1408.706814
 20
-278.212943
 30
0.0
 11
1408.706814
 21
-268.052171
 31
0.0
  0
LINE
  8
0
  6
BYLAYER
 62
     7
 10
1408.706814
 20
-268.052171
 30
0.0
 11
1398.546043
 21
-268.052171
 31
0.0
  0
LINE
  8
0
  6
BYLAYER
 62
     7
 10
1408.706814
 20
-278.212943
 30
0.0
 11
1398.546043
 21
-278.212943
 31
0.0
  0
LINE
  8
0
  6
BYLAYER
 62
     7
 10
1398.546043
 20
-268.052171
 30
0.0
 11
1398.546043
 21
-278.212943
 31
0.0
  0
LINE
  8
0
  6
BYLAYER
 62
     7
 10
1408.706814
 20
-290.913908
 30
0.0
 11
1408.706814
 21
-280.753136
 31
0.0
  0
LINE
  8
0
  6
BYLAYER
 62
     7
 10
1408.706814
 20
-280.753136
 30
0.0
 11
1398.546043
 21
-280.753136
 31
0.0
  0
LINE
  8
0
  6
BYLAYER
 62
     7
 10
1408.706814
 20
-290.913908
 30
0.0
 11
1398.546043
 21
-290.913908
 31
0.0
  0
LINE
  8
0
  6
BYLAYER
 62
     7
 10
1398.546043
 20
-280.753136
 30
0.0
 11
1398.546043
 21
-290.913908
 31
0.0
  0
LINE
  8
0
  6
BYLAYER
 62
     7
 10
1396.005850
 20
-265.511978
 30
0.0
 11
1396.005850
 21
-255.351207
 31
0.0
  0
LINE
  8
0
  6
BYLAYER
 62
     7
 10
1396.005850
 20
-255.351207
 30
0.0
 11
1385.845078
 21
-255.351207
 31
0.0
  0
LINE
  8
0
  6
BYLAYER
 62
     7
 10
1396.005850
 20
-265.511978
 30
0.0
 11
1385.845078
 21
-265.511978
 31
0.0
  0
LINE
  8
0
  6
BYLAYER
 62
     7
 10
1385.845078
 20
-255.351207
 30
0.0
 11
1385.845078
 21
-265.511978
 31
0.0
  0
LINE
  8
0
  6
BYLAYER
 62
     7
 10
1396.005850
 20
-278.212943
 30
0.0
 11
1396.005850
 21
-268.052171
 31
0.0
  0
LINE
  8
0
  6
BYLAYER
 62
     7
 10
1396.005850
 20
-268.052171
 30
0.0
 11
1385.845078
 21
-268.052171
 31
0.0
  0
LINE
  8
0
  6
BYLAYER
 62
     7
 10
1396.005850
 20
-278.212943
 30
0.0
 11
1385.845078
 21
-278.212943
 31
0.0
  0
LINE
  8
0
  6
BYLAYER
 62
     7
 10
1385.845078
 20
-268.052171
 30
0.0
 11
1385.845078
 21
-278.212943
 31
0.0
  0
LINE
  8
0
  6
BYLAYER
 62
     7
 10
1383.304885
 20
-265.511978
 30
0.0
 11
1383.304885
 21
-255.351207
 31
0.0
  0
LINE
  8
0
  6
BYLAYER
 62
     7
 10
1383.304885
 20
-255.351207
 30
0.0
 11
1373.144113
 21
-255.351207
 31
0.0
  0
LINE
  8
0
  6
BYLAYER
 62
     7
 10
1383.304885
 20
-265.511978
 30
0.0
 11
1373.144113
 21
-265.511978
 31
0.0
  0
LINE
  8
0
  6
BYLAYER
 62
     7
 10
1373.144113
 20
-255.351207
 30
0.0
 11
1373.144113
 21
-265.511978
 31
0.0
  0
LINE
  8
0
  6
BYLAYER
 62
     7
 10
1370.603920
 20
-242.650242
 30
0.0
 11
1360.443149
 21
-242.650242
 31
0.0
  0
LINE
  8
0
  6
BYLAYER
 62
     7
 10
1370.603920
 20
-252.811014
 30
0.0
 11
1370.603920
 21
-242.650242
 31
0.0
  0
LINE
  8
0
  6
BYLAYER
 62
     7
 10
1370.603920
 20
-252.811014
 30
0.0
 11
1360.443149
 21
-252.811014
 31
0.0
  0
LINE
  8
0
  6
BYLAYER
 62
     7
 10
1360.443149
 20
-242.650242
 30
0.0
 11
1360.443149
 21
-252.811014
 31
0.0
  0
LINE
  8
0
  6
BYLAYER
 62
     7
 10
1370.603920
 20
-229.949277
 30
0.0
 11
1360.443149
 21
-229.949277
 31
0.0
  0
LINE
  8
0
  6
BYLAYER
 62
     7
 10
1370.603920
 20
-240.110049
 30
0.0
 11
1370.603920
 21
-229.949277
 31
0.0
  0
LINE
  8
0
  6
BYLAYER
 62
     7
 10
1370.603920
 20
-240.110049
 30
0.0
 11
1360.443149
 21
-240.110049
 31
0.0
  0
LINE
  8
0
  6
BYLAYER
 62
     7
 10
1360.443149
 20
-229.949277
 30
0.0
 11
1360.443149
 21
-240.110049
 31
0.0
  0
LINE
  8
0
  6
BYLAYER
 62
     7
 10
1370.603920
 20
-265.511978
 30
0.0
 11
1370.603920
 21
-255.351207
 31
0.0
  0
LINE
  8
0
  6
BYLAYER
 62
     7
 10
1370.603920
 20
-255.351207
 30
0.0
 11
1360.443149
 21
-255.351207
 31
0.0
  0
LINE
  8
0
  6
BYLAYER
 62
     7
 10
1370.603920
 20
-265.511978
 30
0.0
 11
1360.443149
 21
-265.511978
 31
0.0
  0
LINE
  8
0
  6
BYLAYER
 62
     7
 10
1360.443149
 20
-255.351207
 30
0.0
 11
1360.443149
 21
-265.511978
 31
0.0
  0
LINE
  8
0
  6
BYLAYER
 62
     7
 10
1434.108744
 20
-303.614872
 30
0.0
 11
1434.108744
 21
-293.454101
 31
0.0
  0
LINE
  8
0
  6
BYLAYER
 62
     7
 10
1423.947972
 20
-293.454101
 30
0.0
 11
1423.947972
 21
-303.614872
 31
0.0
  0
LINE
  8
0
  6
BYLAYER
 62
     7
 10
1421.407779
 20
-293.454101
 30
0.0
 11
1421.407779
 21
-303.614872
 31
0.0
  0
LINE
  8
0
  6
BYLAYER
 62
     7
 10
1421.407779
 20
-293.454101
 30
0.0
 11
1411.452765
 21
-293.454101
 31
0.0
  0
LINE
  8
0
  6
BYLAYER
 62
     7
 10
1434.108744
 20
-293.454101
 30
0.0
 11
1423.947972
 21
-293.454101
 31
0.0
  0
LINE
  8
0
  6
BYLAYER
 62
     7
 10
1421.407779
 20
-303.614872
 30
0.0
 11
1411.452765
 21
-303.614872
 31
0.0
  0
LINE
  8
0
  6
BYLAYER
 62
     7
 10
1434.108744
 20
-303.614872
 30
0.0
 11
1423.947972
 21
-303.614872
 31
0.0
  0
LINE
  8
0
  6
BYLAYER
 62
     7
 10
1411.452765
 20
-293.454101
 30
0.0
 11
1411.452765
 21
-303.614872
 31
0.0
  0
LINE
  8
0
  6
BYLAYER
 62
     7
 10
1408.706814
 20
-303.614872
 30
0.0
 11
1408.706814
 21
-293.454101
 31
0.0
  0
LINE
  8
0
  6
BYLAYER
 62
     7
 10
1408.706814
 20
-293.454101
 30
0.0
 11
1398.546043
 21
-293.454101
 31
0.0
  0
LINE
  8
0
  6
BYLAYER
 62
     7
 10
1408.706814
 20
-303.614872
 30
0.0
 11
1398.546043
 21
-303.614872
 31
0.0
  0
LINE
  8
0
  6
BYLAYER
 62
     7
 10
1398.546043
 20
-293.454101
 30
0.0
 11
1398.546043
 21
-303.614872
 31
0.0
  0
LINE
  8
0
  6
BYLAYER
 62
     7
 10
1396.005850
 20
-290.913908
 30
0.0
 11
1396.005850
 21
-280.753136
 31
0.0
  0
LINE
  8
0
  6
BYLAYER
 62
     7
 10
1396.005850
 20
-280.753136
 30
0.0
 11
1385.845078
 21
-280.753136
 31
0.0
  0
LINE
  8
0
  6
BYLAYER
 62
     7
 10
1396.005850
 20
-290.913908
 30
0.0
 11
1385.845078
 21
-290.913908
 31
0.0
  0
LINE
  8
0
  6
BYLAYER
 62
     7
 10
1385.845078
 20
-280.753136
 30
0.0
 11
1385.845078
 21
-290.913908
 31
0.0
  0
LINE
  8
0
  6
BYLAYER
 62
     7
 10
1383.304885
 20
-278.212943
 30
0.0
 11
1383.304885
 21
-268.052171
 31
0.0
  0
LINE
  8
0
  6
BYLAYER
 62
     7
 10
1383.304885
 20
-268.052171
 30
0.0
 11
1373.144113
 21
-268.052171
 31
0.0
  0
LINE
  8
0
  6
BYLAYER
 62
     7
 10
1383.304885
 20
-278.212943
 30
0.0
 11
1373.144113
 21
-278.212943
 31
0.0
  0
LINE
  8
0
  6
BYLAYER
 62
     7
 10
1373.144113
 20
-268.052171
 30
0.0
 11
1373.144113
 21
-278.212943
 31
0.0
  0
LINE
  8
0
  6
BYLAYER
 62
     7
 10
1434.108744
 20
-316.315837
 30
0.0
 11
1434.108744
 21
-306.155065
 31
0.0
  0
LINE
  8
0
  6
BYLAYER
 62
     7
 10
1423.947972
 20
-306.155065
 30
0.0
 11
1423.947972
 21
-316.315837
 31
0.0
  0
LINE
  8
0
  6
BYLAYER
 62
     7
 10
1421.407779
 20
-306.155065
 30
0.0
 11
1421.407779
 21
-316.315837
 31
0.0
  0
LINE
  8
0
  6
BYLAYER
 62
     7
 10
1421.407779
 20
-306.155065
 30
0.0
 11
1411.452765
 21
-306.155065
 31
0.0
  0
LINE
  8
0
  6
BYLAYER
 62
     7
 10
1434.108744
 20
-306.155065
 30
0.0
 11
1423.947972
 21
-306.155065
 31
0.0
  0
LINE
  8
0
  6
BYLAYER
 62
     7
 10
1421.407779
 20
-316.315837
 30
0.0
 11
1411.452765
 21
-316.315837
 31
0.0
  0
LINE
  8
0
  6
BYLAYER
 62
     7
 10
1434.108744
 20
-316.315837
 30
0.0
 11
1423.947972
 21
-316.315837
 31
0.0
  0
LINE
  8
0
  6
BYLAYER
 62
     7
 10
1411.452765
 20
-306.155065
 30
0.0
 11
1411.452765
 21
-316.315837
 31
0.0
  0
LINE
  8
0
  6
BYLAYER
 62
     7
 10
1357.902956
 20
-242.650242
 30
0.0
 11
1347.742184
 21
-242.650242
 31
0.0
  0
LINE
  8
0
  6
BYLAYER
 62
     7
 10
1357.902956
 20
-252.811014
 30
0.0
 11
1357.902956
 21
-242.650242
 31
0.0
  0
LINE
  8
0
  6
BYLAYER
 62
     7
 10
1357.902956
 20
-252.811014
 30
0.0
 11
1347.742184
 21
-252.811014
 31
0.0
  0
LINE
  8
0
  6
BYLAYER
 62
     7
 10
1347.742184
 20
-242.650242
 30
0.0
 11
1347.742184
 21
-252.811014
 31
0.0
  0
LINE
  8
0
  6
BYLAYER
 62
     7
 10
1357.902956
 20
-229.949277
 30
0.0
 11
1347.742184
 21
-229.949277
 31
0.0
  0
LINE
  8
0
  6
BYLAYER
 62
     7
 10
1357.902956
 20
-240.110049
 30
0.0
 11
1357.902956
 21
-229.949277
 31
0.0
  0
LINE
  8
0
  6
BYLAYER
 62
     7
 10
1357.902956
 20
-240.110049
 30
0.0
 11
1347.742184
 21
-240.110049
 31
0.0
  0
LINE
  8
0
  6
BYLAYER
 62
     7
 10
1347.742184
 20
-229.949277
 30
0.0
 11
1347.742184
 21
-240.110049
 31
0.0
  0
LINE
  8
0
  6
BYLAYER
 62
     7
 10
1396.005850
 20
-303.614872
 30
0.0
 11
1396.005850
 21
-293.454101
 31
0.0
  0
LINE
  8
0
  6
BYLAYER
 62
     7
 10
1396.005850
 20
-293.454101
 30
0.0
 11
1385.845078
 21
-293.454101
 31
0.0
  0
LINE
  8
0
  6
BYLAYER
 62
     7
 10
1396.005850
 20
-303.614872
 30
0.0
 11
1385.845078
 21
-303.614872
 31
0.0
  0
LINE
  8
0
  6
BYLAYER
 62
     7
 10
1385.845078
 20
-293.454101
 30
0.0
 11
1385.845078
 21
-303.614872
 31
0.0
  0
LINE
  8
0
  6
BYLAYER
 62
     7
 10
1383.304885
 20
-290.913908
 30
0.0
 11
1383.304885
 21
-280.753136
 31
0.0
  0
LINE
  8
0
  6
BYLAYER
 62
     7
 10
1383.304885
 20
-280.753136
 30
0.0
 11
1373.144113
 21
-280.753136
 31
0.0
  0
LINE
  8
0
  6
BYLAYER
 62
     7
 10
1383.304885
 20
-290.913908
 30
0.0
 11
1373.144113
 21
-290.913908
 31
0.0
  0
LINE
  8
0
  6
BYLAYER
 62
     7
 10
1373.144113
 20
-280.753136
 30
0.0
 11
1373.144113
 21
-290.913908
 31
0.0
  0
LINE
  8
0
  6
BYLAYER
 62
     7
 10
1370.603920
 20
-278.212943
 30
0.0
 11
1370.603920
 21
-268.052171
 31
0.0
  0
LINE
  8
0
  6
BYLAYER
 62
     7
 10
1370.603920
 20
-268.052171
 30
0.0
 11
1360.443149
 21
-268.052171
 31
0.0
  0
LINE
  8
0
  6
BYLAYER
 62
     7
 10
1370.603920
 20
-278.212943
 30
0.0
 11
1360.443149
 21
-278.212943
 31
0.0
  0
LINE
  8
0
  6
BYLAYER
 62
     7
 10
1360.443149
 20
-268.052171
 30
0.0
 11
1360.443149
 21
-278.212943
 31
0.0
  0
LINE
  8
0
  6
BYLAYER
 62
     7
 10
1434.108744
 20
-329.016802
 30
0.0
 11
1434.108744
 21
-318.856030
 31
0.0
  0
LINE
  8
0
  6
BYLAYER
 62
     7
 10
1423.947972
 20
-318.856030
 30
0.0
 11
1423.947972
 21
-329.016802
 31
0.0
  0
LINE
  8
0
  6
BYLAYER
 62
     7
 10
1434.108744
 20
-318.856030
 30
0.0
 11
1423.947972
 21
-318.856030
 31
0.0
  0
LINE
  8
0
  6
BYLAYER
 62
     7
 10
1434.108744
 20
-329.016802
 30
0.0
 11
1423.947972
 21
-329.016802
 31
0.0
  0
LINE
  8
0
  6
BYLAYER
 62
     7
 10
1345.201991
 20
-229.949277
 30
0.0
 11
1335.041219
 21
-229.949277
 31
0.0
  0
LINE
  8
0
  6
BYLAYER
 62
     7
 10
1345.201991
 20
-240.110049
 30
0.0
 11
1345.201991
 21
-229.949277
 31
0.0
  0
LINE
  8
0
  6
BYLAYER
 62
     7
 10
1345.201991
 20
-240.110049
 30
0.0
 11
1335.041219
 21
-240.110049
 31
0.0
  0
LINE
  8
0
  6
BYLAYER
 62
     7
 10
1335.041219
 20
-229.949277
 30
0.0
 11
1335.041219
 21
-240.110049
 31
0.0
  0
LINE
  8
0
  6
BYLAYER
 62
     7
 10
1408.706814
 20
-316.315837
 30
0.0
 11
1408.706814
 21
-306.155065
 31
0.0
  0
LINE
  8
0
  6
BYLAYER
 62
     7
 10
1408.706814
 20
-306.155065
 30
0.0
 11
1398.546043
 21
-306.155065
 31
0.0
  0
LINE
  8
0
  6
BYLAYER
 62
     7
 10
1408.706814
 20
-316.315837
 30
0.0
 11
1398.546043
 21
-316.315837
 31
0.0
  0
LINE
  8
0
  6
BYLAYER
 62
     7
 10
1398.546043
 20
-306.155065
 30
0.0
 11
1398.546043
 21
-316.315837
 31
0.0
  0
LINE
  8
0
  6
BYLAYER
 62
     7
 10
1357.902956
 20
-265.511978
 30
0.0
 11
1357.902956
 21
-255.351207
 31
0.0
  0
LINE
  8
0
  6
BYLAYER
 62
     7
 10
1357.902956
 20
-255.351207
 30
0.0
 11
1347.742184
 21
-255.351207
 31
0.0
  0
LINE
  8
0
  6
BYLAYER
 62
     7
 10
1357.902956
 20
-265.511978
 30
0.0
 11
1347.742184
 21
-265.511978
 31
0.0
  0
LINE
  8
0
  6
BYLAYER
 62
     7
 10
1347.742184
 20
-255.351207
 30
0.0
 11
1347.742184
 21
-265.511978
 31
0.0
  0
LINE
  8
0
  6
BYLAYER
 62
     7
 10
1396.005850
 20
-316.315837
 30
0.0
 11
1396.005850
 21
-306.155065
 31
0.0
  0
LINE
  8
0
  6
BYLAYER
 62
     7
 10
1396.005850
 20
-306.155065
 30
0.0
 11
1385.845078
 21
-306.155065
 31
0.0
  0
LINE
  8
0
  6
BYLAYER
 62
     7
 10
1396.005850
 20
-316.315837
 30
0.0
 11
1385.845078
 21
-316.315837
 31
0.0
  0
LINE
  8
0
  6
BYLAYER
 62
     7
 10
1385.845078
 20
-306.155065
 30
0.0
 11
1385.845078
 21
-316.315837
 31
0.0
  0
LINE
  8
0
  6
BYLAYER
 62
     7
 10
1383.304885
 20
-303.614872
 30
0.0
 11
1383.304885
 21
-293.454101
 31
0.0
  0
LINE
  8
0
  6
BYLAYER
 62
     7
 10
1383.304885
 20
-293.454101
 30
0.0
 11
1373.144113
 21
-293.454101
 31
0.0
  0
LINE
  8
0
  6
BYLAYER
 62
     7
 10
1383.304885
 20
-303.614872
 30
0.0
 11
1373.144113
 21
-303.614872
 31
0.0
  0
LINE
  8
0
  6
BYLAYER
 62
     7
 10
1373.144113
 20
-293.454101
 30
0.0
 11
1373.144113
 21
-303.614872
 31
0.0
  0
LINE
  8
0
  6
BYLAYER
 62
     7
 10
1370.603920
 20
-290.913908
 30
0.0
 11
1370.603920
 21
-280.753136
 31
0.0
  0
LINE
  8
0
  6
BYLAYER
 62
     7
 10
1370.603920
 20
-280.753136
 30
0.0
 11
1360.443149
 21
-280.753136
 31
0.0
  0
LINE
  8
0
  6
BYLAYER
 62
     7
 10
1370.603920
 20
-290.913908
 30
0.0
 11
1360.443149
 21
-290.913908
 31
0.0
  0
LINE
  8
0
  6
BYLAYER
 62
     7
 10
1360.443149
 20
-280.753136
 30
0.0
 11
1360.443149
 21
-290.913908
 31
0.0
  0
LINE
  8
0
  6
BYLAYER
 62
     7
 10
1357.902956
 20
-278.212943
 30
0.0
 11
1357.902956
 21
-268.052171
 31
0.0
  0
LINE
  8
0
  6
BYLAYER
 62
     7
 10
1357.902956
 20
-268.052171
 30
0.0
 11
1347.742184
 21
-268.052171
 31
0.0
  0
LINE
  8
0
  6
BYLAYER
 62
     7
 10
1357.902956
 20
-278.212943
 30
0.0
 11
1347.742184
 21
-278.212943
 31
0.0
  0
LINE
  8
0
  6
BYLAYER
 62
     7
 10
1347.742184
 20
-268.052171
 30
0.0
 11
1347.742184
 21
-278.212943
 31
0.0
  0
LINE
  8
0
  6
BYLAYER
 62
     7
 10
1421.407779
 20
-318.856030
 30
0.0
 11
1421.407779
 21
-329.016802
 31
0.0
  0
LINE
  8
0
  6
BYLAYER
 62
     7
 10
1421.407779
 20
-318.856030
 30
0.0
 11
1411.452765
 21
-318.856030
 31
0.0
  0
LINE
  8
0
  6
BYLAYER
 62
     7
 10
1421.407779
 20
-329.016802
 30
0.0
 11
1411.452765
 21
-329.016802
 31
0.0
  0
LINE
  8
0
  6
BYLAYER
 62
     7
 10
1411.452765
 20
-318.856030
 30
0.0
 11
1411.452765
 21
-329.016802
 31
0.0
  0
LINE
  8
0
  6
BYLAYER
 62
     7
 10
1345.201991
 20
-242.650242
 30
0.0
 11
1335.041219
 21
-242.650242
 31
0.0
  0
LINE
  8
0
  6
BYLAYER
 62
     7
 10
1345.201991
 20
-252.811014
 30
0.0
 11
1345.201991
 21
-242.650242
 31
0.0
  0
LINE
  8
0
  6
BYLAYER
 62
     7
 10
1345.201991
 20
-252.811014
 30
0.0
 11
1335.041219
 21
-252.811014
 31
0.0
  0
LINE
  8
0
  6
BYLAYER
 62
     7
 10
1335.041219
 20
-242.650242
 30
0.0
 11
1335.041219
 21
-252.811014
 31
0.0
  0
LINE
  8
0
  6
BYLAYER
 62
     7
 10
1434.108744
 20
-341.717766
 30
0.0
 11
1434.108744
 21
-331.556995
 31
0.0
  0
LINE
  8
0
  6
BYLAYER
 62
     7
 10
1423.947972
 20
-331.556995
 30
0.0
 11
1423.947972
 21
-341.717766
 31
0.0
  0
LINE
  8
0
  6
BYLAYER
 62
     7
 10
1434.108744
 20
-331.556995
 30
0.0
 11
1423.947972
 21
-331.556995
 31
0.0
  0
LINE
  8
0
  6
BYLAYER
 62
     7
 10
1434.108744
 20
-341.717766
 30
0.0
 11
1423.947972
 21
-341.717766
 31
0.0
  0
LINE
  8
0
  6
BYLAYER
 62
     7
 10
1421.407779
 20
-331.556995
 30
0.0
 11
1421.407779
 21
-341.717766
 31
0.0
  0
LINE
  8
0
  6
BYLAYER
 62
     7
 10
1421.407779
 20
-331.556995
 30
0.0
 11
1411.452765
 21
-331.556995
 31
0.0
  0
LINE
  8
0
  6
BYLAYER
 62
     7
 10
1421.407779
 20
-341.717766
 30
0.0
 11
1411.452765
 21
-341.717766
 31
0.0
  0
LINE
  8
0
  6
BYLAYER
 62
     7
 10
1411.452765
 20
-331.556995
 30
0.0
 11
1411.452765
 21
-341.717766
 31
0.0
  0
LINE
  8
0
  6
BYLAYER
 62
     7
 10
1408.706814
 20
-329.016802
 30
0.0
 11
1408.706814
 21
-318.856030
 31
0.0
  0
LINE
  8
0
  6
BYLAYER
 62
     7
 10
1408.706814
 20
-318.856030
 30
0.0
 11
1398.546043
 21
-318.856030
 31
0.0
  0
LINE
  8
0
  6
BYLAYER
 62
     7
 10
1408.706814
 20
-329.016802
 30
0.0
 11
1398.546043
 21
-329.016802
 31
0.0
  0
LINE
  8
0
  6
BYLAYER
 62
     7
 10
1398.546043
 20
-318.856030
 30
0.0
 11
1398.546043
 21
-329.016802
 31
0.0
  0
LINE
  8
0
  6
BYLAYER
 62
     7
 10
1396.005850
 20
-329.016802
 30
0.0
 11
1396.005850
 21
-318.856030
 31
0.0
  0
LINE
  8
0
  6
BYLAYER
 62
     7
 10
1396.005850
 20
-318.856030
 30
0.0
 11
1385.845078
 21
-318.856030
 31
0.0
  0
LINE
  8
0
  6
BYLAYER
 62
     7
 10
1396.005850
 20
-329.016802
 30
0.0
 11
1385.845078
 21
-329.016802
 31
0.0
  0
LINE
  8
0
  6
BYLAYER
 62
     7
 10
1385.845078
 20
-318.856030
 30
0.0
 11
1385.845078
 21
-329.016802
 31
0.0
  0
LINE
  8
0
  6
BYLAYER
 62
     7
 10
1383.304885
 20
-316.315837
 30
0.0
 11
1383.304885
 21
-306.155065
 31
0.0
  0
LINE
  8
0
  6
BYLAYER
 62
     7
 10
1383.304885
 20
-306.155065
 30
0.0
 11
1373.144113
 21
-306.155065
 31
0.0
  0
LINE
  8
0
  6
BYLAYER
 62
     7
 10
1383.304885
 20
-316.315837
 30
0.0
 11
1373.144113
 21
-316.315837
 31
0.0
  0
LINE
  8
0
  6
BYLAYER
 62
     7
 10
1373.144113
 20
-306.155065
 30
0.0
 11
1373.144113
 21
-316.315837
 31
0.0
  0
LINE
  8
0
  6
BYLAYER
 62
     7
 10
1370.603920
 20
-303.614872
 30
0.0
 11
1370.603920
 21
-293.454101
 31
0.0
  0
LINE
  8
0
  6
BYLAYER
 62
     7
 10
1370.603920
 20
-293.454101
 30
0.0
 11
1360.443149
 21
-293.454101
 31
0.0
  0
LINE
  8
0
  6
BYLAYER
 62
     7
 10
1370.603920
 20
-303.614872
 30
0.0
 11
1360.443149
 21
-303.614872
 31
0.0
  0
LINE
  8
0
  6
BYLAYER
 62
     7
 10
1360.443149
 20
-293.454101
 30
0.0
 11
1360.443149
 21
-303.614872
 31
0.0
  0
LINE
  8
0
  6
BYLAYER
 62
     7
 10
1357.902956
 20
-290.913908
 30
0.0
 11
1357.902956
 21
-280.753136
 31
0.0
  0
LINE
  8
0
  6
BYLAYER
 62
     7
 10
1357.902956
 20
-280.753136
 30
0.0
 11
1347.742184
 21
-280.753136
 31
0.0
  0
LINE
  8
0
  6
BYLAYER
 62
     7
 10
1357.902956
 20
-290.913908
 30
0.0
 11
1347.742184
 21
-290.913908
 31
0.0
  0
LINE
  8
0
  6
BYLAYER
 62
     7
 10
1347.742184
 20
-280.753136
 30
0.0
 11
1347.742184
 21
-290.913908
 31
0.0
  0
LINE
  8
0
  6
BYLAYER
 62
     7
 10
1345.201991
 20
-255.351207
 30
0.0
 11
1335.041219
 21
-255.351207
 31
0.0
  0
LINE
  8
0
  6
BYLAYER
 62
     7
 10
1345.201991
 20
-265.511978
 30
0.0
 11
1345.201991
 21
-255.351207
 31
0.0
  0
LINE
  8
0
  6
BYLAYER
 62
     7
 10
1345.201991
 20
-265.511978
 30
0.0
 11
1335.041219
 21
-265.511978
 31
0.0
  0
LINE
  8
0
  6
BYLAYER
 62
     7
 10
1335.041219
 20
-255.351207
 30
0.0
 11
1335.041219
 21
-265.511978
 31
0.0
  0
LINE
  8
0
  6
BYLAYER
 62
     7
 10
1345.201991
 20
-268.052171
 30
0.0
 11
1335.041219
 21
-268.052171
 31
0.0
  0
LINE
  8
0
  6
BYLAYER
 62
     7
 10
1345.201991
 20
-278.212943
 30
0.0
 11
1345.201991
 21
-268.052171
 31
0.0
  0
LINE
  8
0
  6
BYLAYER
 62
     7
 10
1345.201991
 20
-278.212943
 30
0.0
 11
1335.041219
 21
-278.212943
 31
0.0
  0
LINE
  8
0
  6
BYLAYER
 62
     7
 10
1335.041219
 20
-268.052171
 30
0.0
 11
1335.041219
 21
-278.212943
 31
0.0
  0
LINE
  8
0
  6
BYLAYER
 62
     7
 10
1332.501026
 20
-229.949277
 30
0.0
 11
1322.340255
 21
-229.949277
 31
0.0
  0
LINE
  8
0
  6
BYLAYER
 62
     7
 10
1332.501026
 20
-240.110049
 30
0.0
 11
1332.501026
 21
-229.949277
 31
0.0
  0
LINE
  8
0
  6
BYLAYER
 62
     7
 10
1332.501026
 20
-240.110049
 30
0.0
 11
1322.340255
 21
-240.110049
 31
0.0
  0
LINE
  8
0
  6
BYLAYER
 62
     7
 10
1322.340255
 20
-229.949277
 30
0.0
 11
1322.340255
 21
-240.110049
 31
0.0
  0
LINE
  8
0
  6
BYLAYER
 62
     7
 10
1332.501026
 20
-242.650242
 30
0.0
 11
1322.340255
 21
-242.650242
 31
0.0
  0
LINE
  8
0
  6
BYLAYER
 62
     7
 10
1332.501026
 20
-252.811014
 30
0.0
 11
1332.501026
 21
-242.650242
 31
0.0
  0
LINE
  8
0
  6
BYLAYER
 62
     7
 10
1332.501026
 20
-252.811014
 30
0.0
 11
1322.340255
 21
-252.811014
 31
0.0
  0
LINE
  8
0
  6
BYLAYER
 62
     7
 10
1322.340255
 20
-242.650242
 30
0.0
 11
1322.340255
 21
-252.811014
 31
0.0
  0
CIRCLE
  8
0
  6
BYLAYER
 62
     7
 10
1435.378840
 20
-228.679181
 30
0.0
 40
158.0
  0
ARC
  8
0
  6
BYLAYER
 62
     7
 10
1435.378840
 20
-228.679181
 30
0.0
 40
175.000000
 50
113.578178
 51
426.421822
  0
LINE
  8
0
  6
BYLAYER
 62
     7
 10
1365.378840
 20
1.320819
 30
0.0
 11
1505.378840
 21
1.320819
 31
0.0
  0
LINE
  8
0
  6
BYLAYER
 62
     7
 10
1365.378840
 20
1.320819
 30
0.0
 11
1365.378840
 21
-87.031731
 31
0.0
  0
LINE
  8
0
  6
BYLAYER
 62
     7
 10
1505.378840
 20
1.320819
 30
0.0
 11
1505.378840
 21
-87.031731
 31
0.0
  0
LINE
  8
0
  6
BYLAYER
 62
     7
 10
1365.378840
 20
-57.618755
 30
0.0
 11
1505.378840
 21
-57.618755
 31
0.0
  0
LINE
  8
0
  6
BYLAYER
 62
     7
 10
1365.378840
 20
-60.191103
 30
0.0
 11
1505.378840
 21
-60.191103
 31
0.0
  0
ARC
  8
0
  6
BYLAYER
 62
     7
 10
1329.312823
 20
-122.613164
 30
0.0
 40
9.25
 50
103.991913
 51
166.008087
  0
ARC
  8
0
  6
BYLAYER
 62
     7
 10
1329.312823
 20
-334.745198
 30
0.0
 40
9.250000
 50
193.991913
 51
256.008087
  0
ARC
  8
0
  6
BYLAYER
 62
     7
 10
1541.444857
 20
-334.745198
 30
0.0
 40
9.25
 50
283.991913
 51
346.008087
  0
ARC
  8
0
  6
BYLAYER
 62
     7
 10
1541.444857
 20
-122.613164
 30
0.0
 40
9.250000
 50
13.991913
 51
76.008087
  0
CIRCLE
  8
0
  6
BYLAYER
 62
     7
 10
1435.378840
 20
-228.679181
 30
0.0
 40
125.401223
  0
LINE
  8
0
  6
BYLAYER
 62
     7
 10
1365.378840
 20
-668.679181
 30
0.0
 11
1505.378840
 21
-668.679181
 31
0.0
  0
LINE
  8
0
  6
BYLAYER
 62
     7
 10
1365.378840
 20
-668.679181
 30
0.0
 11
1365.378840
 21
-738.289032
 31
0.0
  0
LINE
  8
0
  6
BYLAYER
 62
     7
 10
1505.378840
 20
-668.679181
 30
0.0
 11
1505.378840
 21
-738.289032
 31
0.0
  0
LINE
  8
0
  6
BYLAYER
 62
     7
 10
1472.302149
 20
-727.618755
 30
0.0
 11
1505.378840
 21
-727.618755
 31
0.0
  0
LINE
  8
0
  6
BYLAYER
 62
     7
 10
1365.378840
 20
-727.618755
 30
0.0
 11
1398.455531
 21
-727.618755
 31
0.0
  0
LINE
  8
0
  6
BYLAYER
 62
     7
 10
1482.673316
 20
-730.191103
 30
0.0
 11
1505.378840
 21
-730.191103
 31
0.0
  0
LINE
  8
0
  6
BYLAYER
 62
     7
 10
1365.378840
 20
-730.191103
 30
0.0
 11
1388.084364
 21
-730.191103
 31
0.0
  0
ARC
  8
0
  6
BYLAYER
 62
     1
 10
1435.378840
 20
-898.679181
 30
0.0
 40
175.0
 50
304.849905
 51
595.150095
  0
ARC
  8
0
  6
BYLAYER
 62
     1
 10
1435.378840
 20
-898.679181
 30
0.0
 40
167.000000
 50
357.903345
 51
362.096655
  0
LINE
  8
0
  6
BYLAYER
 62
     1
 10
1525.878840
 20
-895.679181
 30
0.0
 11
1599.269047
 21
-895.679181
 31
0.0
  0
ARC
  8
0
  6
BYLAYER
 62
     1
 10
1599.269047
 20
-892.679181
 30
0.0
 40
3.0
 50
270.0
 51
362.096655
  0
ARC
  8
0
  6
BYLAYER
 62
     1
 10
1435.378840
 20
-898.679181
 30
0.0
 40
133.612673
 50
318.454735
 51
357.349790
  0
ARC
  8
0
  6
BYLAYER
 62
     1
 10
1435.378840
 20
-898.679181
 30
0.0
 40
133.612673
 50
2.650210
 51
57.349790
  0
ARC
  8
0
  6
BYLAYER
 62
     1
 10
1435.378840
 20
-898.679181
 30
0.0
 40
133.612673
 50
62.650210
 51
117.349790
  0
ARC
  8
0
  6
BYLAYER
 62
     1
 10
1435.378840
 20
-898.679181
 30
0.0
 40
133.612673
 50
122.650210
 51
177.349790
  0
ARC
  8
0
  6
BYLAYER
 62
     1
 10
1435.378840
 20
-898.679181
 30
0.0
 40
133.612673
 50
182.650202
 51
221.545265
  0
LINE
  8
0
  6
BYLAYER
 62
     1
 10
1519.878840
 20
-901.679181
 30
0.0
 11
1599.269047
 21
-901.679181
 31
0.0
  0
ARC
  8
0
  6
BYLAYER
 62
     1
 10
1599.269047
 20
-904.679181
 30
0.0
 40
3.0
 50
357.903345
 51
450.000000
  0
LINE
  8
0
  6
BYLAYER
 62
     1
 10
1571.810748
 20
-895.362229
 30
0.0
 11
1599.234399
 21
-895.678981
 31
0.0
  0
ARC
  8
0
  6
BYLAYER
 62
     1
 10
1571.845397
 20
-892.362429
 30
0.0
 40
3.000000
 50
182.650210
 51
269.338245
  0
LINE
  8
0
  6
BYLAYER
 62
     1
 10
1571.810748
 20
-901.996133
 30
0.0
 11
1599.234399
 21
-901.679381
 31
0.0
  0
ARC
  8
0
  6
BYLAYER
 62
     1
 10
1571.845397
 20
-904.995933
 30
0.0
 40
3.000000
 50
90.661755
 51
177.349790
  0
LINE
  8
0
  6
BYLAYER
 62
     1
 10
1571.810748
 20
-895.362229
 30
0.0
 11
1525.924658
 21
-895.633363
 31
0.0
  0
LINE
  8
0
  6
BYLAYER
 62
     1
 10
1571.810748
 20
-901.996133
 30
0.0
 11
1519.868805
 21
-901.689216
 31
0.0
  0
ARC
  8
0
  6
BYLAYER
 62
     1
 10
1435.378840
 20
-898.679181
 30
0.0
 40
167.000000
 50
57.903345
 51
62.096655
  0
LINE
  8
0
  6
BYLAYER
 62
     1
 10
1478.102760
 20
-818.679181
 30
0.0
 11
1514.725867
 21
-755.246098
 31
0.0
  0
ARC
  8
0
  6
BYLAYER
 62
     1
 10
1512.127791
 20
-753.746098
 30
0.0
 40
3.0
 50
330.0
 51
422.096655
  0
LINE
  8
0
  6
BYLAYER
 62
     1
 10
1485.030963
 20
-818.679181
 30
0.0
 11
1519.922020
 21
-758.246098
 31
0.0
  0
ARC
  8
0
  6
BYLAYER
 62
     1
 10
1522.520096
 20
-759.746098
 30
0.0
 40
3.000000
 50
57.903345
 51
150.000000
  0
LINE
  8
0
  6
BYLAYER
 62
     1
 10
1500.722230
 20
-778.867207
 30
0.0
 11
1514.708370
 21
-755.276005
 31
0.0
  0
ARC
  8
0
  6
BYLAYER
 62
     1
 10
1498.141651
 20
-777.337300
 30
0.0
 40
3.000000
 50
242.650210
 51
329.338245
  0
LINE
  8
0
  6
BYLAYER
 62
     1
 10
1506.467359
 20
-782.184158
 30
0.0
 11
1519.904869
 21
-758.276205
 31
0.0
  0
ARC
  8
0
  6
BYLAYER
 62
     1
 10
1509.082586
 20
-783.654052
 30
0.0
 40
3.0
 50
150.661755
 51
237.349790
  0
LINE
  8
0
  6
BYLAYER
 62
     1
 10
1500.722230
 20
-778.867207
 30
0.0
 11
1478.049366
 21
-818.679181
 31
0.0
  0
LINE
  8
0
  6
BYLAYER
 62
     1
 10
1506.467359
 20
-782.184158
 30
0.0
 11
1485.108439
 21
-818.679181
 31
0.0
  0
ARC
  8
0
  6
BYLAYER
 62
     1
 10
1435.378840
 20
-898.679181
 30
0.0
 40
167.000000
 50
117.903345
 51
122.096655
  0
LINE
  8
0
  6
BYLAYER
 62
     1
 10
1385.726717
 20
-818.679181
 30
0.0
 11
1350.835660
 21
-758.246098
 31
0.0
  0
ARC
  8
0
  6
BYLAYER
 62
     1
 10
1348.237584
 20
-759.746098
 30
0.0
 40
3.0
 50
30.000000
 51
122.096655
  0
LINE
  8
0
  6
BYLAYER
 62
     1
 10
1392.654920
 20
-818.679181
 30
0.0
 11
1356.031813
 21
-755.246098
 31
0.0
  0
ARC
  8
0
  6
BYLAYER
 62
     1
 10
1358.629889
 20
-753.746098
 30
0.0
 40
3.0
 50
117.903345
 51
210.000000
  0
LINE
  8
0
  6
BYLAYER
 62
     1
 10
1364.290321
 20
-782.184158
 30
0.0
 11
1350.852811
 21
-758.276205
 31
0.0
  0
ARC
  8
0
  6
BYLAYER
 62
     1
 10
1361.675094
 20
-783.654052
 30
0.0
 40
3.000000
 50
302.650210
 51
389.338245
  0
LINE
  8
0
  6
BYLAYER
 62
     1
 10
1370.035450
 20
-778.867207
 30
0.0
 11
1356.049310
 21
-755.276005
 31
0.0
  0
ARC
  8
0
  6
BYLAYER
 62
     1
 10
1372.616029
 20
-777.337300
 30
0.0
 40
3.0
 50
210.661755
 51
297.349790
  0
LINE
  8
0
  6
BYLAYER
 62
     1
 10
1364.290321
 20
-782.184158
 30
0.0
 11
1385.649241
 21
-818.679181
 31
0.0
  0
LINE
  8
0
  6
BYLAYER
 62
     1
 10
1370.035450
 20
-778.867207
 30
0.0
 11
1392.708314
 21
-818.679181
 31
0.0
  0
ARC
  8
0
  6
BYLAYER
 62
     1
 10
1435.378840
 20
-898.679181
 30
0.0
 40
167.0
 50
177.903345
 51
182.096655
  0
LINE
  8
0
  6
BYLAYER
 62
     1
 10
1350.878840
 20
-901.679181
 30
0.0
 11
1271.488633
 21
-901.679181
 31
0.0
  0
ARC
  8
0
  6
BYLAYER
 62
     1
 10
1271.488633
 20
-904.679181
 30
0.0
 40
3.000000
 50
90.0
 51
182.096655
  0
LINE
  8
0
  6
BYLAYER
 62
     1
 10
1344.878840
 20
-895.679181
 30
0.0
 11
1271.488633
 21
-895.679181
 31
0.0
  0
ARC
  8
0
  6
BYLAYER
 62
     1
 10
1271.488633
 20
-892.679181
 30
0.0
 40
3.000000
 50
177.903345
 51
270.000000
  0
LINE
  8
0
  6
BYLAYER
 62
     1
 10
1298.946932
 20
-901.996133
 30
0.0
 11
1271.523281
 21
-901.679381
 31
0.0
  0
LINE
  8
0
  6
BYLAYER
 62
     1
 10
1298.946932
 20
-895.362229
 30
0.0
 11
1271.523281
 21
-895.678981
 31
0.0
  0
ARC
  8
0
  6
BYLAYER
 62
     1
 10
1298.912283
 20
-892.362429
 30
0.0
 40
3.000000
 50
270.661755
 51
357.349790
  0
LINE
  8
0
  6
BYLAYER
 62
     1
 10
1298.946932
 20
-901.996133
 30
0.0
 11
1350.888875
 21
-901.689216
 31
0.0
  0
LINE
  8
0
  6
BYLAYER
 62
     1
 10
1298.946932
 20
-895.362229
 30
0.0
 11
1344.833022
 21
-895.633363
 31
0.0
  0
LINE
  8
0
  6
BYLAYER
 62
     2
 10
1339.110782
 20
-782.815204
 30
0.0
 11
1325.726518
 21
-779.228905
 31
0.0
  0
LINE
  8
0
  6
BYLAYER
 62
     2
 10
1325.726518
 20
-779.228905
 30
0.0
 11
1315.928564
 21
-789.026859
 31
0.0
  0
LINE
  8
0
  6
BYLAYER
 62
     2
 10
1315.928564
 20
-789.026859
 30
0.0
 11
1319.514863
 21
-802.411123
 31
0.0
  0
LINE
  8
0
  6
BYLAYER
 62
     2
 10
1319.514863
 20
-802.411123
 30
0.0
 11
1332.899127
 21
-805.997422
 31
0.0
  0
LINE
  8
0
  6
BYLAYER
 62
     2
 10
1332.899127
 20
-805.997422
 30
0.0
 11
1342.697081
 21
-796.199468
 31
0.0
  0
LINE
  8
0
  6
BYLAYER
 62
     2
 10
1342.697081
 20
-796.199468
 30
0.0
 11
1339.110782
 21
-782.815204
 31
0.0
  0
CIRCLE
  8
0
  6
BYLAYER
 62
     2
 10
1329.312823
 20
-792.613164
 30
0.0
 40
12.0
  0
LINE
  8
0
  6
BYLAYER
 62
     2
 10
1551.242817
 20
-994.947239
 30
0.0
 11
1537.858553
 21
-991.360940
 31
0.0
  0
LINE
  8
0
  6
BYLAYER
 62
     2
 10
1537.858553
 20
-991.360940
 30
0.0
 11
1535.378840
 21
-993.840652
 31
0.0
  0
LINE
  8
0
  6
BYLAYER
 62
     2
 10
1535.378840
 20
-1015.543127
 30
0.0
 11
1545.031161
 21
-1018.129456
 31
0.0
  0
LINE
  8
0
  6
BYLAYER
 62
     2
 10
1545.031161
 20
-1018.129456
 30
0.0
 11
1554.829115
 21
-1008.331502
 31
0.0
  0
LINE
  8
0
  6
BYLAYER
 62
     2
 10
1554.829115
 20
-1008.331502
 30
0.0
 11
1551.242817
 21
-994.947239
 31
0.0
  0
LINE
  8
0
  6
BYLAYER
 62
     2
 10
1531.646898
 20
-782.815204
 30
0.0
 11
1528.060599
 21
-796.199468
 31
0.0
  0
LINE
  8
0
  6
BYLAYER
 62
     2
 10
1528.060599
 20
-796.199468
 30
0.0
 11
1537.858553
 21
-805.997422
 31
0.0
  0
LINE
  8
0
  6
BYLAYER
 62
     2
 10
1537.858553
 20
-805.997422
 30
0.0
 11
1551.242817
 21
-802.411123
 31
0.0
  0
LINE
  8
0
  6
BYLAYER
 62
     2
 10
1551.242817
 20
-802.411123
 30
0.0
 11
1554.829115
 21
-789.026860
 31
0.0
  0
LINE
  8
0
  6
BYLAYER
 62
     2
 10
1554.829115
 20
-789.026860
 30
0.0
 11
1545.031161
 21
-779.228906
 31
0.0
  0
LINE
  8
0
  6
BYLAYER
 62
     2
 10
1545.031161
 20
-779.228906
 30
0.0
 11
1531.646898
 21
-782.815204
 31
0.0
  0
CIRCLE
  8
0
  6
BYLAYER
 62
     2
 10
1541.444857
 20
-792.613164
 30
0.0
 40
12.0
  0
LINE
  8
0
  6
BYLAYER
 62
     2
 10
1319.514863
 20
-994.947239
 30
0.0
 11
1315.928564
 21
-1008.331503
 31
0.0
  0
LINE
  8
0
  6
BYLAYER
 62
     2
 10
1315.928564
 20
-1008.331503
 30
0.0
 11
1325.726518
 21
-1018.129457
 31
0.0
  0
LINE
  8
0
  6
BYLAYER
 62
     2
 10
1325.726518
 20
-1018.129457
 30
0.0
 11
1335.378840
 21
-1015.543128
 31
0.0
  0
LINE
  8
0
  6
BYLAYER
 62
     2
 10
1335.378840
 20
-993.840653
 30
0.0
 11
1332.899127
 21
-991.360940
 31
0.0
  0
LINE
  8
0
  6
BYLAYER
 62
     2
 10
1332.899127
 20
-991.360940
 30
0.0
 11
1319.514863
 21
-994.947239
 31
0.0
  0
LINE
  8
0
  6
BYLAYER
 62
     1
 10
655.378840
 20
-968.679181
 30
0.0
 11
655.378840
 21
-1048.679181
 31
0.0
  0
LINE
  8
0
  6
BYLAYER
 62
     1
 10
680.378840
 20
-1048.679181
 30
0.0
 11
680.378840
 21
-877.312192
 31
0.0
  0
ARC
  8
0
  6
BYLAYER
 62
     1
 10
677.378840
 20
-914.401424
 30
0.0
 40
3.0
 50
335.000000
 51
360.000000
  0
LINE
  8
0
  6
BYLAYER
 62
     1
 10
695.378840
 20
-873.679181
 30
0.0
 11
683.221827
 21
-874.316296
 31
0.0
  0
ARC
  8
0
  6
BYLAYER
 62
     1
 10
683.378840
 20
-877.312192
 30
0.0
 40
3.0
 50
93.000010
 51
180.000009
  0
LINE
  8
0
  6
BYLAYER
 62
     1
 10
695.378840
 20
-1048.679181
 30
0.0
 11
695.378840
 21
-873.679181
 31
0.0
  0
LINE
  8
0
  6
BYLAYER
 62
     1
 10
655.378840
 20
-968.679181
 30
0.0
 11
680.097763
 21
-915.669278
 31
0.0
  0
LINE
  8
0
  6
BYLAYER
 62
     1
 10
655.378840
 20
-1128.679181
 30
0.0
 11
655.378840
 21
-1048.679181
 31
0.0
  0
LINE
  8
0
  6
BYLAYER
 62
     1
 10
680.378840
 20
-1048.679181
 30
0.0
 11
680.378840
 21
-1220.046170
 31
0.0
  0
ARC
  8
0
  6
BYLAYER
 62
     1
 10
677.378840
 20
-1182.956938
 30
0.0
 40
3.0
 50
0.0
 51
25.0
  0
LINE
  8
0
  6
BYLAYER
 62
     1
 10
695.378840
 20
-1223.679181
 30
0.0
 11
683.221827
 21
-1223.042066
 31
0.0
  0
ARC
  8
0
  6
BYLAYER
 62
     1
 10
683.378840
 20
-1220.046170
 30
0.0
 40
3.0
 50
180.000000
 51
266.999999
  0
LINE
  8
0
  6
BYLAYER
 62
     1
 10
695.378840
 20
-1048.679181
 30
0.0
 11
695.378840
 21
-1223.679181
 31
0.0
  0
LINE
  8
0
  6
BYLAYER
 62
     1
 10
655.378840
 20
-1128.679181
 30
0.0
 11
680.097763
 21
-1181.689084
 31
0.0
  0
ENDSEC
  0
EOF
