  0
SECTION
  2
HEADER
  9
$EXTMIN
 10
274.351536
 20
1168.976109
 30
0.0
  9
$EXTMAX
 10
1554.658703
 20
0.0
 30
0.0
  0
ENDSEC
  0
SECTION
  2
TABLES
  0
ENDSEC
  0
SECTION
  2
BLOCKS
  0
ENDSEC
  0
SECTION
  2
ENTITIES
  0
LINE
  8
0
  6
BYLAYER
 62
     7
 10
946.313921
 20
-49.653450
 30
0.0
 11
946.313921
 21
-174.052901
 31
0.0
  0
LINE
  8
0
  6
BYLAYER
 62
     7
 10
946.313921
 20
-174.052901
 30
0.0
 11
946.313921
 21
-298.453450
 31
0.0
  0
LINE
  8
0
  6
BYLAYER
 62
     7
 10
1057.313921
 20
-271.553450
 30
0.0
 11
1057.313921
 21
-76.553450
 31
0.0
  0
LINE
  8
0
  6
BYLAYER
 62
     7
 10
1057.313921
 20
-76.553450
 30
0.0
 11
1030.413921
 21
-49.653450
 31
0.0
  0
LINE
  8
0
  6
BYLAYER
 62
     7
 10
1030.413921
 20
-298.453450
 30
0.0
 11
1057.313921
 21
-271.553450
 31
0.0
  0
LINE
  8
0
  6
BYLAYER
 62
     7
 10
1030.413921
 20
-49.653450
 30
0.0
 11
946.313921
 21
-49.653450
 31
0.0
  0
LINE
  8
0
  6
BYLAYER
 62
     7
 10
946.313921
 20
-298.453450
 30
0.0
 11
1030.413921
 21
-298.453450
 31
0.0
  0
ARC
  8
0
  6
BYLAYER
 62
     7
 10
745.300341
 20
-57.053420
 30
0.0
 40
13.000000
 50
180.000019
 51
360.000018
  0
ARC
  8
0
  6
BYLAYER
 62
     7
 10
784.300341
 20
-57.053420
 30
0.0
 40
13.000000
 50
180.000019
 51
360.000018
  0
LINE
  8
0
  6
BYLAYER
 62
     7
 10
715.800341
 20
-48.553420
 30
0.0
 11
730.300341
 21
-48.553420
 31
0.0
  0
LINE
  8
0
  6
BYLAYER
 62
     7
 10
732.300341
 20
-57.053420
 30
0.0
 11
732.300341
 21
-50.553420
 31
0.0
  0
ARC
  8
0
  6
BYLAYER
 62
     7
 10
730.300341
 20
-50.553420
 30
0.0
 40
2.0
 50
0.0
 51
90.000003
  0
LINE
  8
0
  6
BYLAYER
 62
     7
 10
758.300341
 20
-57.053420
 30
0.0
 11
758.300341
 21
-50.553420
 31
0.0
  0
ARC
  8
0
  6
BYLAYER
 62
     7
 10
760.300341
 20
-50.553420
 30
0.0
 40
2.0
 50
90.0
 51
180.000003
  0
LINE
  8
0
  6
BYLAYER
 62
     7
 10
760.300341
 20
-48.553420
 30
0.0
 11
769.300341
 21
-48.553420
 31
0.0
  0
LINE
  8
0
  6
BYLAYER
 62
     7
 10
771.300341
 20
-57.053420
 30
0.0
 11
771.300341
 21
-50.553420
 31
0.0
  0
ARC
  8
0
  6
BYLAYER
 62
     7
 10
769.300341
 20
-50.553420
 30
0.0
 40
2.0
 50
0.0
 51
90.000003
  0
LINE
  8
0
  6
BYLAYER
 62
     7
 10
797.300341
 20
-57.053420
 30
0.0
 11
797.300341
 21
-50.553420
 31
0.0
  0
LINE
  8
0
  6
BYLAYER
 62
     7
 10
799.300371
 20
-48.553420
 30
0.0
 11
833.800371
 21
-48.553420
 31
0.0
  0
ARC
  8
0
  6
BYLAYER
 62
     7
 10
799.300371
 20
-50.553420
 30
0.0
 40
2.000031
 50
90.0
 51
180.000003
  0
ARC
  8
0
  6
BYLAYER
 62
     7
 10
716.800341
 20
-141.702895
 30
0.0
 40
1.0
 50
90.0
 51
180.000003
  0
ARC
  8
0
  6
BYLAYER
 62
     7
 10
716.800341
 20
-141.702895
 30
0.0
 40
1.0
 50
180.000000
 51
269.999996
  0
ARC
  8
0
  6
BYLAYER
 62
     7
 10
716.800341
 20
-129.002913
 30
0.0
 40
1.0
 50
90.0
 51
180.000003
  0
ARC
  8
0
  6
BYLAYER
 62
     7
 10
716.800341
 20
-129.002913
 30
0.0
 40
1.0
 50
180.000000
 51
269.999996
  0
ARC
  8
0
  6
BYLAYER
 62
     7
 10
716.800341
 20
-116.302901
 30
0.0
 40
1.0
 50
90.0
 51
180.000003
  0
ARC
  8
0
  6
BYLAYER
 62
     7
 10
716.800341
 20
-116.302901
 30
0.0
 40
1.0
 50
180.000000
 51
269.999996
  0
ARC
  8
0
  6
BYLAYER
 62
     7
 10
716.800341
 20
-103.602889
 30
0.0
 40
1.0
 50
90.0
 51
180.000003
  0
ARC
  8
0
  6
BYLAYER
 62
     7
 10
716.800341
 20
-103.602889
 30
0.0
 40
1.0
 50
180.000000
 51
269.999996
  0
ARC
  8
0
  6
BYLAYER
 62
     7
 10
716.800341
 20
-90.902907
 30
0.0
 40
1.0
 50
90.0
 51
180.000003
  0
ARC
  8
0
  6
BYLAYER
 62
     7
 10
716.800341
 20
-90.902907
 30
0.0
 40
1.0
 50
180.000000
 51
269.999996
  0
ARC
  8
0
  6
BYLAYER
 62
     7
 10
716.800341
 20
-206.402907
 30
0.0
 40
1.0
 50
180.000000
 51
270.000009
  0
ARC
  8
0
  6
BYLAYER
 62
     7
 10
716.800341
 20
-206.402907
 30
0.0
 40
1.0
 50
90.0
 51
179.999989
  0
ARC
  8
0
  6
BYLAYER
 62
     7
 10
716.800341
 20
-219.102889
 30
0.0
 40
1.0
 50
180.000000
 51
270.000009
  0
ARC
  8
0
  6
BYLAYER
 62
     7
 10
716.800341
 20
-219.102889
 30
0.0
 40
1.0
 50
90.0
 51
179.999989
  0
ARC
  8
0
  6
BYLAYER
 62
     7
 10
716.800341
 20
-231.802901
 30
0.0
 40
1.0
 50
180.000000
 51
270.000009
  0
ARC
  8
0
  6
BYLAYER
 62
     7
 10
716.800341
 20
-231.802901
 30
0.0
 40
1.0
 50
90.0
 51
179.999989
  0
ARC
  8
0
  6
BYLAYER
 62
     7
 10
716.800341
 20
-244.502883
 30
0.0
 40
1.0
 50
180.000000
 51
270.000009
  0
ARC
  8
0
  6
BYLAYER
 62
     7
 10
716.800341
 20
-244.502883
 30
0.0
 40
1.0
 50
90.0
 51
179.999989
  0
ARC
  8
0
  6
BYLAYER
 62
     7
 10
716.800341
 20
-257.202895
 30
0.0
 40
1.0
 50
180.000000
 51
270.000009
  0
ARC
  8
0
  6
BYLAYER
 62
     7
 10
716.800341
 20
-257.202895
 30
0.0
 40
1.0
 50
90.0
 51
179.999989
  0
LINE
  8
0
  6
BYLAYER
 62
     7
 10
716.800341
 20
-230.802901
 30
0.0
 11
946.313921
 21
-230.802901
 31
0.0
  0
LINE
  8
0
  6
BYLAYER
 62
     7
 10
716.800341
 20
-232.802901
 30
0.0
 11
946.313921
 21
-232.802901
 31
0.0
  0
LINE
  8
0
  6
BYLAYER
 62
     7
 10
716.800341
 20
-128.002913
 30
0.0
 11
769.238604
 21
-128.002913
 31
0.0
  0
LINE
  8
0
  6
BYLAYER
 62
     7
 10
716.800341
 20
-130.002913
 30
0.0
 11
769.238604
 21
-130.002913
 31
0.0
  0
LINE
  8
0
  6
BYLAYER
 62
     7
 10
774.362078
 20
-128.002913
 30
0.0
 11
824.238604
 21
-128.002913
 31
0.0
  0
LINE
  8
0
  6
BYLAYER
 62
     7
 10
774.362078
 20
-130.002913
 30
0.0
 11
824.238604
 21
-130.002913
 31
0.0
  0
ARC
  8
0
  6
BYLAYER
 62
     7
 10
771.800341
 20
-129.002913
 30
0.0
 40
2.750000
 50
21.323692
 51
158.676305
  0
ARC
  8
0
  6
BYLAYER
 62
     7
 10
826.800341
 20
-129.002913
 30
0.0
 40
2.75
 50
21.323692
 51
158.676305
  0
ARC
  8
0
  6
BYLAYER
 62
     7
 10
771.800341
 20
-129.002913
 30
0.0
 40
2.75
 50
201.323692
 51
338.676296
  0
ARC
  8
0
  6
BYLAYER
 62
     7
 10
826.800341
 20
-129.002913
 30
0.0
 40
2.75
 50
201.323692
 51
338.676296
  0
LINE
  8
0
  6
BYLAYER
 62
     7
 10
715.800341
 20
-67.052932
 30
0.0
 11
711.300341
 21
-67.052932
 31
0.0
  0
LINE
  8
0
  6
BYLAYER
 62
     7
 10
721.800341
 20
-259.871779
 30
0.0
 11
715.800341
 21
-262.492171
 31
0.0
  0
LINE
  8
0
  6
BYLAYER
 62
     7
 10
715.800341
 20
-255.052901
 30
0.0
 11
715.800341
 21
-43.053420
 31
0.0
  0
LINE
  8
0
  6
BYLAYER
 62
     7
 10
711.300341
 20
-281.052901
 30
0.0
 11
715.800341
 21
-281.052901
 31
0.0
  0
LINE
  8
0
  6
BYLAYER
 62
     7
 10
715.800341
 20
-262.492171
 30
0.0
 11
719.160479
 21
-270.587813
 31
0.0
  0
ARC
  8
0
  6
BYLAYER
 62
     7
 10
721.469500
 20
-269.629439
 30
0.0
 40
2.500012
 50
202.541214
 51
270.000001
  0
LINE
  8
0
  6
BYLAYER
 62
     7
 10
715.800341
 20
-266.890609
 30
0.0
 11
719.283251
 21
-279.115645
 31
0.0
  0
ARC
  8
0
  6
BYLAYER
 62
     7
 10
721.687579
 20
-278.430648
 30
0.0
 40
2.500002
 50
195.902352
 51
270.000001
  0
LINE
  8
0
  6
BYLAYER
 62
     7
 10
715.800341
 20
-273.978225
 30
0.0
 11
719.250841
 21
-284.977645
 31
0.0
  0
ARC
  8
0
  6
BYLAYER
 62
     7
 10
721.636217
 20
-284.229354
 30
0.0
 40
2.499992
 50
197.416605
 51
270.000001
  0
ARC
  8
0
  6
BYLAYER
 62
     7
 10
721.740801
 20
-287.903701
 30
0.0
 40
2.499992
 50
197.416605
 51
270.000001
  0
LINE
  8
0
  6
BYLAYER
 62
     7
 10
715.800341
 20
-281.052901
 30
0.0
 11
719.068926
 21
-290.472487
 31
0.0
  0
ARC
  8
0
  6
BYLAYER
 62
     7
 10
721.430773
 20
-289.652938
 30
0.0
 40
2.499996
 50
199.136528
 51
270.000001
  0
LINE
  8
0
  6
BYLAYER
 62
     7
 10
719.355425
 20
-288.651992
 30
0.0
 11
715.800341
 21
-277.319198
 31
0.0
  0
ARC
  8
0
  6
BYLAYER
 62
     7
 10
720.800341
 20
-141.702895
 30
0.0
 40
1.000000
 50
90.0
 51
180.000003
  0
ARC
  8
0
  6
BYLAYER
 62
     7
 10
720.800341
 20
-141.702895
 30
0.0
 40
1.0
 50
180.000000
 51
269.999996
  0
ARC
  8
0
  6
BYLAYER
 62
     7
 10
720.800341
 20
-206.402907
 30
0.0
 40
1.0
 50
180.000000
 51
270.000009
  0
ARC
  8
0
  6
BYLAYER
 62
     7
 10
720.800341
 20
-206.402907
 30
0.0
 40
1.000000
 50
90.0
 51
179.999989
  0
ARC
  8
0
  6
BYLAYER
 62
     7
 10
720.800341
 20
-219.102889
 30
0.0
 40
1.0
 50
180.000000
 51
270.000009
  0
ARC
  8
0
  6
BYLAYER
 62
     7
 10
720.800341
 20
-219.102889
 30
0.0
 40
1.000000
 50
90.0
 51
179.999989
  0
ARC
  8
0
  6
BYLAYER
 62
     7
 10
720.800341
 20
-231.802901
 30
0.0
 40
1.0
 50
180.000000
 51
270.000009
  0
ARC
  8
0
  6
BYLAYER
 62
     7
 10
720.800341
 20
-231.802901
 30
0.0
 40
1.0
 50
90.0
 51
179.999989
  0
ARC
  8
0
  6
BYLAYER
 62
     7
 10
720.800341
 20
-244.502883
 30
0.0
 40
1.0
 50
180.000000
 51
270.000009
  0
ARC
  8
0
  6
BYLAYER
 62
     7
 10
720.800341
 20
-244.502883
 30
0.0
 40
1.000000
 50
90.0
 51
179.999989
  0
ARC
  8
0
  6
BYLAYER
 62
     7
 10
720.800341
 20
-257.202895
 30
0.0
 40
1.0
 50
180.000000
 51
270.000009
  0
ARC
  8
0
  6
BYLAYER
 62
     7
 10
720.800341
 20
-257.202895
 30
0.0
 40
1.0
 50
90.0
 51
179.999989
  0
ARC
  8
0
  6
BYLAYER
 62
     7
 10
720.800341
 20
-129.002913
 30
0.0
 40
1.000000
 50
90.0
 51
180.000003
  0
ARC
  8
0
  6
BYLAYER
 62
     7
 10
720.800341
 20
-129.002913
 30
0.0
 40
1.0
 50
180.000000
 51
269.999996
  0
ARC
  8
0
  6
BYLAYER
 62
     7
 10
720.800341
 20
-116.302901
 30
0.0
 40
1.000000
 50
90.0
 51
180.000003
  0
ARC
  8
0
  6
BYLAYER
 62
     7
 10
720.800341
 20
-116.302901
 30
0.0
 40
1.0
 50
180.000000
 51
269.999996
  0
ARC
  8
0
  6
BYLAYER
 62
     7
 10
720.800341
 20
-103.602889
 30
0.0
 40
1.000000
 50
90.0
 51
180.000003
  0
ARC
  8
0
  6
BYLAYER
 62
     7
 10
720.800341
 20
-103.602889
 30
0.0
 40
1.0
 50
180.000000
 51
269.999996
  0
ARC
  8
0
  6
BYLAYER
 62
     7
 10
720.800341
 20
-90.902907
 30
0.0
 40
1.000000
 50
90.0
 51
180.000003
  0
ARC
  8
0
  6
BYLAYER
 62
     7
 10
720.800341
 20
-90.902907
 30
0.0
 40
1.0
 50
180.000000
 51
269.999996
  0
LINE
  8
0
  6
BYLAYER
 62
     7
 10
722.300341
 20
-256.202895
 30
0.0
 11
722.300341
 21
-245.502883
 31
0.0
  0
LINE
  8
0
  6
BYLAYER
 62
     7
 10
722.300341
 20
-243.502883
 30
0.0
 11
722.300341
 21
-232.802901
 31
0.0
  0
LINE
  8
0
  6
BYLAYER
 62
     7
 10
722.300341
 20
-230.802901
 30
0.0
 11
722.300341
 21
-220.102889
 31
0.0
  0
LINE
  8
0
  6
BYLAYER
 62
     7
 10
722.300341
 20
-205.402907
 30
0.0
 11
722.300341
 21
-194.702925
 31
0.0
  0
LINE
  8
0
  6
BYLAYER
 62
     7
 10
722.300341
 20
-218.102889
 30
0.0
 11
722.300341
 21
-207.402907
 31
0.0
  0
LINE
  8
0
  6
BYLAYER
 62
     7
 10
722.300341
 20
-168.102859
 30
0.0
 11
722.300341
 21
-174.052901
 31
0.0
  0
LINE
  8
0
  6
BYLAYER
 62
     7
 10
722.300341
 20
-155.402877
 30
0.0
 11
722.300341
 21
-166.102859
 31
0.0
  0
LINE
  8
0
  6
BYLAYER
 62
     7
 10
722.300341
 20
-180.002943
 30
0.0
 11
722.300341
 21
-174.052901
 31
0.0
  0
LINE
  8
0
  6
BYLAYER
 62
     7
 10
722.300341
 20
-192.702925
 30
0.0
 11
722.300341
 21
-182.002943
 31
0.0
  0
LINE
  8
0
  6
BYLAYER
 62
     7
 10
722.300341
 20
-142.702895
 30
0.0
 11
722.300341
 21
-153.402877
 31
0.0
  0
LINE
  8
0
  6
BYLAYER
 62
     7
 10
722.300341
 20
-130.002913
 30
0.0
 11
722.300341
 21
-140.702895
 31
0.0
  0
LINE
  8
0
  6
BYLAYER
 62
     7
 10
722.300341
 20
-117.302901
 30
0.0
 11
722.300341
 21
-128.002913
 31
0.0
  0
LINE
  8
0
  6
BYLAYER
 62
     7
 10
722.300341
 20
-104.602889
 30
0.0
 11
722.300341
 21
-115.302901
 31
0.0
  0
LINE
  8
0
  6
BYLAYER
 62
     7
 10
722.300341
 20
-91.902907
 30
0.0
 11
722.300341
 21
-102.602889
 31
0.0
  0
ARC
  8
0
  6
BYLAYER
 62
     7
 10
716.800341
 20
-154.402877
 30
0.0
 40
1.0
 50
180.000000
 51
270.000003
  0
ARC
  8
0
  6
BYLAYER
 62
     7
 10
716.800341
 20
-154.402877
 30
0.0
 40
1.0
 50
90.0
 51
179.999996
  0
ARC
  8
0
  6
BYLAYER
 62
     7
 10
720.800341
 20
-154.402877
 30
0.0
 40
1.000000
 50
180.000000
 51
270.000003
  0
ARC
  8
0
  6
BYLAYER
 62
     7
 10
720.800341
 20
-154.402877
 30
0.0
 40
1.000000
 50
90.0
 51
179.999996
  0
LINE
  8
0
  6
BYLAYER
 62
     7
 10
716.800341
 20
-153.402877
 30
0.0
 11
829.362078
 21
-153.402877
 31
0.0
  0
LINE
  8
0
  6
BYLAYER
 62
     7
 10
716.800341
 20
-155.402877
 30
0.0
 11
829.362078
 21
-155.402877
 31
0.0
  0
ARC
  8
0
  6
BYLAYER
 62
     7
 10
716.800341
 20
-193.702925
 30
0.0
 40
1.0
 50
90.0
 51
180.000003
  0
ARC
  8
0
  6
BYLAYER
 62
     7
 10
716.800341
 20
-193.702925
 30
0.0
 40
1.0
 50
180.000000
 51
269.999996
  0
ARC
  8
0
  6
BYLAYER
 62
     7
 10
720.800341
 20
-193.702925
 30
0.0
 40
1.000000
 50
90.0
 51
180.000003
  0
ARC
  8
0
  6
BYLAYER
 62
     7
 10
720.800341
 20
-193.702925
 30
0.0
 40
1.0
 50
180.000000
 51
269.999996
  0
LINE
  8
0
  6
BYLAYER
 62
     7
 10
716.800341
 20
-194.702925
 30
0.0
 11
829.362078
 21
-194.702925
 31
0.0
  0
LINE
  8
0
  6
BYLAYER
 62
     7
 10
716.800341
 20
-192.702925
 30
0.0
 11
829.362078
 21
-192.702925
 31
0.0
  0
ARC
  8
0
  6
BYLAYER
 62
     7
 10
716.800341
 20
-167.102859
 30
0.0
 40
1.0
 50
180.000000
 51
270.000003
  0
ARC
  8
0
  6
BYLAYER
 62
     7
 10
716.800341
 20
-167.102859
 30
0.0
 40
1.000000
 50
90.0
 51
179.999996
  0
ARC
  8
0
  6
BYLAYER
 62
     7
 10
720.800341
 20
-167.102859
 30
0.0
 40
1.000000
 50
180.000000
 51
270.000003
  0
ARC
  8
0
  6
BYLAYER
 62
     7
 10
720.800341
 20
-167.102859
 30
0.0
 40
1.000000
 50
90.0
 51
179.999996
  0
ARC
  8
0
  6
BYLAYER
 62
     7
 10
716.800341
 20
-181.002943
 30
0.0
 40
1.0
 50
90.0
 51
180.000009
  0
ARC
  8
0
  6
BYLAYER
 62
     7
 10
716.800341
 20
-181.002943
 30
0.0
 40
1.000000
 50
180.000000
 51
269.999989
  0
ARC
  8
0
  6
BYLAYER
 62
     7
 10
720.800341
 20
-181.002943
 30
0.0
 40
1.000000
 50
90.0
 51
180.000009
  0
ARC
  8
0
  6
BYLAYER
 62
     7
 10
720.800341
 20
-181.002943
 30
0.0
 40
1.000000
 50
180.000000
 51
269.999989
  0
LINE
  8
0
  6
BYLAYER
 62
     7
 10
833.800371
 20
-89.902907
 30
0.0
 11
833.800371
 21
-43.053420
 31
0.0
  0
LINE
  8
0
  6
BYLAYER
 62
     7
 10
833.800371
 20
-54.053381
 30
0.0
 11
946.313921
 21
-54.053234
 31
0.0
  0
LINE
  8
0
  6
BYLAYER
 62
     7
 10
833.800371
 20
-57.053380
 30
0.0
 11
946.313921
 21
-57.053232
 31
0.0
  0
LINE
  8
0
  6
BYLAYER
 62
     7
 10
833.800371
 20
-61.053381
 30
0.0
 11
946.313921
 21
-61.053234
 31
0.0
  0
LINE
  8
0
  6
BYLAYER
 62
     7
 10
833.800371
 20
-67.053359
 30
0.0
 11
946.313921
 21
-67.053359
 31
0.0
  0
LINE
  8
0
  6
BYLAYER
 62
     7
 10
716.800341
 20
-89.902907
 30
0.0
 11
946.313921
 21
-89.902907
 31
0.0
  0
LINE
  8
0
  6
BYLAYER
 62
     7
 10
716.800341
 20
-91.902907
 30
0.0
 11
946.313921
 21
-91.902907
 31
0.0
  0
LINE
  8
0
  6
BYLAYER
 62
     7
 10
716.800341
 20
-102.602889
 30
0.0
 11
946.313921
 21
-102.602889
 31
0.0
  0
LINE
  8
0
  6
BYLAYER
 62
     7
 10
716.800341
 20
-104.602889
 30
0.0
 11
946.313921
 21
-104.602889
 31
0.0
  0
LINE
  8
0
  6
BYLAYER
 62
     7
 10
716.800341
 20
-115.302901
 30
0.0
 11
946.313921
 21
-115.302901
 31
0.0
  0
LINE
  8
0
  6
BYLAYER
 62
     7
 10
716.800341
 20
-117.302901
 30
0.0
 11
946.313921
 21
-117.302901
 31
0.0
  0
LINE
  8
0
  6
BYLAYER
 62
     7
 10
829.362078
 20
-128.002913
 30
0.0
 11
946.313921
 21
-128.002913
 31
0.0
  0
LINE
  8
0
  6
BYLAYER
 62
     7
 10
829.362078
 20
-130.002913
 30
0.0
 11
946.313921
 21
-130.002913
 31
0.0
  0
LINE
  8
0
  6
BYLAYER
 62
     7
 10
716.800341
 20
-140.702895
 30
0.0
 11
946.313921
 21
-140.702895
 31
0.0
  0
LINE
  8
0
  6
BYLAYER
 62
     7
 10
716.800341
 20
-142.702895
 30
0.0
 11
946.313921
 21
-142.702895
 31
0.0
  0
LINE
  8
0
  6
BYLAYER
 62
     7
 10
829.362078
 20
-153.402877
 30
0.0
 11
946.313921
 21
-153.402877
 31
0.0
  0
LINE
  8
0
  6
BYLAYER
 62
     7
 10
829.362078
 20
-155.402877
 30
0.0
 11
946.313921
 21
-155.402877
 31
0.0
  0
LINE
  8
0
  6
BYLAYER
 62
     7
 10
716.800341
 20
-166.102859
 30
0.0
 11
946.313921
 21
-166.102859
 31
0.0
  0
LINE
  8
0
  6
BYLAYER
 62
     7
 10
716.800341
 20
-168.102859
 30
0.0
 11
946.313921
 21
-168.102859
 31
0.0
  0
LINE
  8
0
  6
BYLAYER
 62
     7
 10
716.800341
 20
-180.002943
 30
0.0
 11
946.313921
 21
-180.002943
 31
0.0
  0
LINE
  8
0
  6
BYLAYER
 62
     7
 10
716.800341
 20
-182.002943
 30
0.0
 11
946.313921
 21
-182.002943
 31
0.0
  0
LINE
  8
0
  6
BYLAYER
 62
     7
 10
829.362078
 20
-192.702925
 30
0.0
 11
946.313921
 21
-192.702925
 31
0.0
  0
LINE
  8
0
  6
BYLAYER
 62
     7
 10
829.362078
 20
-194.702925
 30
0.0
 11
946.313921
 21
-194.702925
 31
0.0
  0
LINE
  8
0
  6
BYLAYER
 62
     7
 10
716.800341
 20
-205.402907
 30
0.0
 11
946.313921
 21
-205.402907
 31
0.0
  0
LINE
  8
0
  6
BYLAYER
 62
     7
 10
716.800341
 20
-207.402907
 30
0.0
 11
946.313921
 21
-207.402907
 31
0.0
  0
LINE
  8
0
  6
BYLAYER
 62
     7
 10
716.800341
 20
-218.102889
 30
0.0
 11
946.313921
 21
-218.102889
 31
0.0
  0
LINE
  8
0
  6
BYLAYER
 62
     7
 10
716.800341
 20
-220.102889
 30
0.0
 11
946.313921
 21
-220.102889
 31
0.0
  0
LINE
  8
0
  6
BYLAYER
 62
     7
 10
716.800341
 20
-243.502883
 30
0.0
 11
946.313921
 21
-243.502883
 31
0.0
  0
LINE
  8
0
  6
BYLAYER
 62
     7
 10
716.800341
 20
-245.502883
 30
0.0
 11
946.313921
 21
-245.502883
 31
0.0
  0
LINE
  8
0
  6
BYLAYER
 62
     7
 10
716.800341
 20
-256.202895
 30
0.0
 11
946.313921
 21
-256.202895
 31
0.0
  0
LINE
  8
0
  6
BYLAYER
 62
     7
 10
716.800341
 20
-258.202895
 30
0.0
 11
946.313921
 21
-258.202895
 31
0.0
  0
LINE
  8
0
  6
BYLAYER
 62
     7
 10
721.800341
 20
-259.871779
 30
0.0
 11
946.313921
 21
-259.871779
 31
0.0
  0
LINE
  8
0
  6
BYLAYER
 62
     7
 10
721.469500
 20
-272.129439
 30
0.0
 11
946.313921
 21
-272.129439
 31
0.0
  0
LINE
  8
0
  6
BYLAYER
 62
     7
 10
721.687579
 20
-280.930648
 30
0.0
 11
946.313921
 21
-280.930648
 31
0.0
  0
LINE
  8
0
  6
BYLAYER
 62
     7
 10
721.636217
 20
-286.729354
 30
0.0
 11
946.313921
 21
-286.729354
 31
0.0
  0
LINE
  8
0
  6
BYLAYER
 62
     7
 10
721.740801
 20
-290.403701
 30
0.0
 11
946.313921
 21
-290.403701
 31
0.0
  0
LINE
  8
0
  6
BYLAYER
 62
     7
 10
721.430773
 20
-292.152938
 30
0.0
 11
946.313921
 21
-292.152938
 31
0.0
  0
LINE
  8
0
  6
BYLAYER
 62
     7
 10
827.800341
 20
-32.553420
 30
0.0
 11
827.800341
 21
-11.053420
 31
0.0
  0
ARC
  8
0
  6
BYLAYER
 62
     7
 10
829.300341
 20
-32.553420
 30
0.0
 40
1.5
 50
180.000000
 51
270.000000
  0
ARC
  8
0
  6
BYLAYER
 62
     7
 10
826.300341
 20
-11.053420
 30
0.0
 40
1.500000
 50
0.0
 51
90.0
  0
LINE
  8
0
  6
BYLAYER
 62
     7
 10
774.800341
 20
-9.553420
 30
0.0
 11
826.300341
 21
-9.553420
 31
0.0
  0
LINE
  8
0
  6
BYLAYER
 62
     7
 10
821.415621
 20
-32.553420
 30
0.0
 11
821.415621
 21
-11.053420
 31
0.0
  0
ARC
  8
0
  6
BYLAYER
 62
     7
 10
822.915621
 20
-32.553420
 30
0.0
 40
1.5
 50
180.000000
 51
270.000000
  0
ARC
  8
0
  6
BYLAYER
 62
     7
 10
819.915621
 20
-11.053420
 30
0.0
 40
1.5
 50
0.0
 51
90.0
  0
LINE
  8
0
  6
BYLAYER
 62
     7
 10
832.300341
 20
-34.053420
 30
0.0
 11
774.800341
 21
-34.053420
 31
0.0
  0
ARC
  8
0
  6
BYLAYER
 62
     7
 10
832.300341
 20
-35.553420
 30
0.0
 40
1.500000
 50
0.0
 51
90.0
  0
LINE
  8
0
  6
BYLAYER
 62
     7
 10
833.800341
 20
-43.053420
 30
0.0
 11
833.800341
 21
-35.553420
 31
0.0
  0
LINE
  8
0
  6
BYLAYER
 62
     7
 10
774.800341
 20
-41.053420
 30
0.0
 11
833.800341
 21
-41.053420
 31
0.0
  0
LINE
  8
0
  6
BYLAYER
 62
     7
 10
721.800341
 20
-32.553420
 30
0.0
 11
721.800341
 21
-11.053420
 31
0.0
  0
ARC
  8
0
  6
BYLAYER
 62
     7
 10
720.300341
 20
-32.553420
 30
0.0
 40
1.500000
 50
270.0
 51
360.0
  0
ARC
  8
0
  6
BYLAYER
 62
     7
 10
723.300341
 20
-11.053420
 30
0.0
 40
1.500000
 50
90.0
 51
180.0
  0
LINE
  8
0
  6
BYLAYER
 62
     7
 10
774.800341
 20
-9.553420
 30
0.0
 11
723.300341
 21
-9.553420
 31
0.0
  0
LINE
  8
0
  6
BYLAYER
 62
     7
 10
728.185061
 20
-32.553420
 30
0.0
 11
728.185061
 21
-11.053420
 31
0.0
  0
ARC
  8
0
  6
BYLAYER
 62
     7
 10
726.685061
 20
-32.553420
 30
0.0
 40
1.500000
 50
270.0
 51
360.0
  0
ARC
  8
0
  6
BYLAYER
 62
     7
 10
729.685061
 20
-11.053420
 30
0.0
 40
1.500000
 50
90.0
 51
180.0
  0
LINE
  8
0
  6
BYLAYER
 62
     7
 10
717.300341
 20
-34.053420
 30
0.0
 11
774.800341
 21
-34.053420
 31
0.0
  0
ARC
  8
0
  6
BYLAYER
 62
     7
 10
717.300341
 20
-35.553420
 30
0.0
 40
1.500000
 50
90.0
 51
180.0
  0
LINE
  8
0
  6
BYLAYER
 62
     7
 10
715.800341
 20
-41.053420
 30
0.0
 11
715.800341
 21
-35.553420
 31
0.0
  0
LINE
  8
0
  6
BYLAYER
 62
     7
 10
774.800341
 20
-41.053420
 30
0.0
 11
715.800341
 21
-41.053420
 31
0.0
  0
LINE
  8
0
  6
BYLAYER
 62
     7
 10
715.800341
 20
-41.053420
 30
0.0
 11
715.800341
 21
-43.053420
 31
0.0
  0
LINE
  8
0
  6
BYLAYER
 62
     7
 10
715.800341
 20
-43.053420
 30
0.0
 11
833.800341
 21
-43.053420
 31
0.0
  0
LINE
  8
0
  6
BYLAYER
 62
     7
 10
659.300341
 20
-24.052901
 30
0.0
 11
678.300341
 21
-24.052901
 31
0.0
  0
LINE
  8
0
  6
BYLAYER
 62
     7
 10
659.300341
 20
-324.052901
 30
0.0
 11
678.300341
 21
-324.052901
 31
0.0
  0
LINE
  8
0
  6
BYLAYER
 62
     7
 10
678.300341
 20
-24.052901
 30
0.0
 11
678.300341
 21
-174.052901
 31
0.0
  0
ARC
  8
0
  6
BYLAYER
 62
     7
 10
680.300341
 20
-63.329455
 30
0.0
 40
2.000000
 50
180.000000
 51
268.000000
  0
LINE
  8
0
  6
BYLAYER
 62
     7
 10
678.300341
 20
-174.052901
 30
0.0
 11
678.300341
 21
-324.052901
 31
0.0
  0
ARC
  8
0
  6
BYLAYER
 62
     7
 10
680.300341
 20
-299.101743
 30
0.0
 40
2.000000
 50
92.0
 51
180.0
  0
LINE
  8
0
  6
BYLAYER
 62
     7
 10
711.300341
 20
-281.692584
 30
0.0
 11
710.300341
 21
-281.727505
 31
0.0
  0
LINE
  8
0
  6
BYLAYER
 62
     7
 10
711.300341
 20
-66.413218
 30
0.0
 11
680.230542
 21
-65.328237
 31
0.0
  0
LINE
  8
0
  6
BYLAYER
 62
     7
 10
710.300341
 20
-281.727505
 30
0.0
 11
710.300341
 21
-296.052901
 31
0.0
  0
LINE
  8
0
  6
BYLAYER
 62
     7
 10
710.300341
 20
-296.052901
 30
0.0
 11
680.230542
 21
-297.102962
 31
0.0
  0
LINE
  8
0
  6
BYLAYER
 62
     7
 10
659.300341
 20
-24.052901
 30
0.0
 11
659.300341
 21
-174.052901
 31
0.0
  0
LINE
  8
0
  6
BYLAYER
 62
     7
 10
659.300341
 20
-324.052901
 30
0.0
 11
659.300341
 21
-174.052901
 31
0.0
  0
LINE
  8
0
  6
BYLAYER
 62
     7
 10
711.300341
 20
-281.692584
 30
0.0
 11
711.300341
 21
-66.413218
 31
0.0
  0
LINE
  8
0
  6
BYLAYER
 62
     7
 10
1030.413921
 20
-298.453450
 30
0.0
 11
1030.413921
 21
-49.653450
 31
0.0
  0
LINE
  8
0
  6
BYLAYER
 62
     7
 10
946.313921
 20
-994.052901
 30
0.0
 11
946.313921
 21
-1118.453450
 31
0.0
  0
LINE
  8
0
  6
BYLAYER
 62
     7
 10
946.313921
 20
-994.052901
 30
0.0
 11
946.313921
 21
-869.652352
 31
0.0
  0
LINE
  8
0
  6
BYLAYER
 62
     7
 10
1057.313921
 20
-1091.553450
 30
0.0
 11
1057.313921
 21
-994.052901
 31
0.0
  0
LINE
  8
0
  6
BYLAYER
 62
     7
 10
1030.413921
 20
-1118.453450
 30
0.0
 11
1057.313921
 21
-1091.553450
 31
0.0
  0
LINE
  8
0
  6
BYLAYER
 62
     7
 10
946.313921
 20
-1118.453450
 30
0.0
 11
1030.413921
 21
-1118.453450
 31
0.0
  0
LINE
  8
0
  6
BYLAYER
 62
     7
 10
1057.313921
 20
-896.552352
 30
0.0
 11
1057.313921
 21
-994.052901
 31
0.0
  0
LINE
  8
0
  6
BYLAYER
 62
     7
 10
1030.413921
 20
-869.652352
 30
0.0
 11
1057.313921
 21
-896.552352
 31
0.0
  0
LINE
  8
0
  6
BYLAYER
 62
     7
 10
946.313921
 20
-869.652352
 30
0.0
 11
1030.413921
 21
-869.652352
 31
0.0
  0
ARC
  8
0
  6
BYLAYER
 62
     7
 10
716.800341
 20
-1064.502883
 30
0.0
 40
1.0
 50
180.000000
 51
270.000009
  0
ARC
  8
0
  6
BYLAYER
 62
     7
 10
716.800341
 20
-1064.502883
 30
0.0
 40
1.0
 50
90.0
 51
179.999989
  0
ARC
  8
0
  6
BYLAYER
 62
     7
 10
716.800341
 20
-1077.202895
 30
0.0
 40
1.0
 50
180.000000
 51
270.000009
  0
ARC
  8
0
  6
BYLAYER
 62
     7
 10
716.800341
 20
-1077.202895
 30
0.0
 40
1.0
 50
90.0
 51
179.999989
  0
LINE
  8
0
  6
BYLAYER
 62
     7
 10
833.800341
 20
-1050.802901
 30
0.0
 11
946.313921
 21
-1050.802901
 31
0.0
  0
LINE
  8
0
  6
BYLAYER
 62
     7
 10
833.800341
 20
-1052.802901
 30
0.0
 11
946.313921
 21
-1052.802901
 31
0.0
  0
LINE
  8
0
  6
BYLAYER
 62
     7
 10
721.800341
 20
-1079.871779
 30
0.0
 11
715.800341
 21
-1082.492171
 31
0.0
  0
LINE
  8
0
  6
BYLAYER
 62
     7
 10
715.800341
 20
-1075.052901
 30
0.0
 11
715.800341
 21
-994.052901
 31
0.0
  0
LINE
  8
0
  6
BYLAYER
 62
     7
 10
711.300341
 20
-1101.052901
 30
0.0
 11
715.800341
 21
-1101.052901
 31
0.0
  0
LINE
  8
0
  6
BYLAYER
 62
     7
 10
715.800341
 20
-1082.492171
 30
0.0
 11
719.160479
 21
-1090.587813
 31
0.0
  0
ARC
  8
0
  6
BYLAYER
 62
     7
 10
721.469500
 20
-1089.629439
 30
0.0
 40
2.500012
 50
202.541214
 51
270.000001
  0
LINE
  8
0
  6
BYLAYER
 62
     7
 10
715.800341
 20
-1086.890609
 30
0.0
 11
719.283251
 21
-1099.115645
 31
0.0
  0
ARC
  8
0
  6
BYLAYER
 62
     7
 10
721.687579
 20
-1098.430648
 30
0.0
 40
2.500002
 50
195.902352
 51
270.000001
  0
LINE
  8
0
  6
BYLAYER
 62
     7
 10
715.800341
 20
-1093.978225
 30
0.0
 11
719.250841
 21
-1104.977645
 31
0.0
  0
ARC
  8
0
  6
BYLAYER
 62
     7
 10
721.636217
 20
-1104.229354
 30
0.0
 40
2.499992
 50
197.416605
 51
270.000001
  0
ARC
  8
0
  6
BYLAYER
 62
     7
 10
721.740801
 20
-1107.903701
 30
0.0
 40
2.499992
 50
197.416605
 51
270.000001
  0
LINE
  8
0
  6
BYLAYER
 62
     7
 10
715.800341
 20
-1101.052901
 30
0.0
 11
719.068926
 21
-1110.472487
 31
0.0
  0
ARC
  8
0
  6
BYLAYER
 62
     7
 10
721.430773
 20
-1109.652938
 30
0.0
 40
2.499996
 50
199.136528
 51
270.000001
  0
LINE
  8
0
  6
BYLAYER
 62
     7
 10
719.355425
 20
-1108.651992
 30
0.0
 11
715.800341
 21
-1097.319198
 31
0.0
  0
ARC
  8
0
  6
BYLAYER
 62
     7
 10
720.800341
 20
-1064.502883
 30
0.0
 40
1.0
 50
180.000000
 51
270.000009
  0
ARC
  8
0
  6
BYLAYER
 62
     7
 10
720.800341
 20
-1064.502883
 30
0.0
 40
1.0
 50
90.0
 51
179.999989
  0
ARC
  8
0
  6
BYLAYER
 62
     7
 10
720.800341
 20
-1077.202895
 30
0.0
 40
1.0
 50
180.000000
 51
270.000009
  0
ARC
  8
0
  6
BYLAYER
 62
     7
 10
720.800341
 20
-1077.202895
 30
0.0
 40
1.0
 50
90.0
 51
179.999989
  0
LINE
  8
0
  6
BYLAYER
 62
     7
 10
722.300341
 20
-1076.202895
 30
0.0
 11
722.300341
 21
-1065.502883
 31
0.0
  0
LINE
  8
0
  6
BYLAYER
 62
     7
 10
722.300341
 20
-1063.502883
 30
0.0
 11
722.300341
 21
-1052.802901
 31
0.0
  0
LINE
  8
0
  6
BYLAYER
 62
     7
 10
833.800341
 20
-1000.002943
 30
0.0
 11
946.313921
 21
-1000.002943
 31
0.0
  0
LINE
  8
0
  6
BYLAYER
 62
     7
 10
833.800341
 20
-1002.002943
 30
0.0
 11
946.313921
 21
-1002.002943
 31
0.0
  0
LINE
  8
0
  6
BYLAYER
 62
     7
 10
833.800341
 20
-1012.702925
 30
0.0
 11
946.313921
 21
-1012.702925
 31
0.0
  0
LINE
  8
0
  6
BYLAYER
 62
     7
 10
833.800341
 20
-1014.702925
 30
0.0
 11
946.313921
 21
-1014.702925
 31
0.0
  0
LINE
  8
0
  6
BYLAYER
 62
     7
 10
833.800341
 20
-1025.402907
 30
0.0
 11
946.313921
 21
-1025.402907
 31
0.0
  0
LINE
  8
0
  6
BYLAYER
 62
     7
 10
833.800341
 20
-1027.402907
 30
0.0
 11
946.313921
 21
-1027.402907
 31
0.0
  0
LINE
  8
0
  6
BYLAYER
 62
     7
 10
833.800341
 20
-1038.102889
 30
0.0
 11
946.313921
 21
-1038.102889
 31
0.0
  0
LINE
  8
0
  6
BYLAYER
 62
     7
 10
833.800341
 20
-1040.102889
 30
0.0
 11
946.313921
 21
-1040.102889
 31
0.0
  0
LINE
  8
0
  6
BYLAYER
 62
     7
 10
716.800341
 20
-1063.502883
 30
0.0
 11
946.313921
 21
-1063.502883
 31
0.0
  0
LINE
  8
0
  6
BYLAYER
 62
     7
 10
716.800341
 20
-1065.502883
 30
0.0
 11
946.313921
 21
-1065.502883
 31
0.0
  0
LINE
  8
0
  6
BYLAYER
 62
     7
 10
716.800341
 20
-1076.202895
 30
0.0
 11
946.313921
 21
-1076.202895
 31
0.0
  0
LINE
  8
0
  6
BYLAYER
 62
     7
 10
716.800341
 20
-1078.202895
 30
0.0
 11
946.313921
 21
-1078.202895
 31
0.0
  0
LINE
  8
0
  6
BYLAYER
 62
     7
 10
721.800341
 20
-1079.871779
 30
0.0
 11
946.313921
 21
-1079.871779
 31
0.0
  0
LINE
  8
0
  6
BYLAYER
 62
     7
 10
721.469500
 20
-1092.129439
 30
0.0
 11
946.313921
 21
-1092.129439
 31
0.0
  0
LINE
  8
0
  6
BYLAYER
 62
     7
 10
721.687579
 20
-1100.930648
 30
0.0
 11
946.313921
 21
-1100.930648
 31
0.0
  0
LINE
  8
0
  6
BYLAYER
 62
     7
 10
721.636217
 20
-1106.729354
 30
0.0
 11
946.313921
 21
-1106.729354
 31
0.0
  0
LINE
  8
0
  6
BYLAYER
 62
     7
 10
721.740801
 20
-1110.403701
 30
0.0
 11
946.313921
 21
-1110.403701
 31
0.0
  0
LINE
  8
0
  6
BYLAYER
 62
     7
 10
721.430773
 20
-1112.152938
 30
0.0
 11
946.313921
 21
-1112.152938
 31
0.0
  0
ARC
  8
0
  6
BYLAYER
 62
     7
 10
827.800341
 20
-1047.052901
 30
0.0
 40
6.500000
 50
100.806923
 51
169.193077
  0
ARC
  8
0
  6
BYLAYER
 62
     7
 10
826.300341
 20
-1039.194784
 30
0.0
 40
1.500000
 50
280.806923
 51
360.000000
  0
ARC
  8
0
  6
BYLAYER
 62
     7
 10
721.800341
 20
-1047.052901
 30
0.0
 40
6.5
 50
10.806923
 51
79.193077
  0
ARC
  8
0
  6
BYLAYER
 62
     7
 10
729.658458
 20
-1045.552901
 30
0.0
 40
1.500000
 50
190.806923
 51
270.000000
  0
ARC
  8
0
  6
BYLAYER
 62
     7
 10
723.300341
 20
-1039.194784
 30
0.0
 40
1.5
 50
180.000000
 51
259.193077
  0
LINE
  8
0
  6
BYLAYER
 62
     7
 10
721.800341
 20
-994.052901
 30
0.0
 11
721.800341
 21
-1039.194784
 31
0.0
  0
LINE
  8
0
  6
BYLAYER
 62
     7
 10
827.800341
 20
-1039.194784
 30
0.0
 11
827.800341
 21
-994.052901
 31
0.0
  0
LINE
  8
0
  6
BYLAYER
 62
     7
 10
729.658458
 20
-1047.052901
 30
0.0
 11
819.942224
 21
-1047.052901
 31
0.0
  0
ARC
  8
0
  6
BYLAYER
 62
     7
 10
819.942224
 20
-1045.552901
 30
0.0
 40
1.5
 50
270.0
 51
349.193077
  0
LINE
  8
0
  6
BYLAYER
 62
     7
 10
787.800341
 20
-1024.052901
 30
0.0
 11
761.800341
 21
-1024.052901
 31
0.0
  0
ARC
  8
0
  6
BYLAYER
 62
     7
 10
761.800341
 20
-1021.052901
 30
0.0
 40
3.0
 50
180.000000
 51
270.000000
  0
ARC
  8
0
  6
BYLAYER
 62
     7
 10
787.800341
 20
-1021.052901
 30
0.0
 40
3.0
 50
270.0
 51
360.0
  0
LINE
  8
0
  6
BYLAYER
 62
     7
 10
758.800341
 20
-1021.052901
 30
0.0
 11
758.800341
 21
-994.052901
 31
0.0
  0
LINE
  8
0
  6
BYLAYER
 62
     7
 10
790.800341
 20
-994.052901
 30
0.0
 11
790.800341
 21
-1021.052901
 31
0.0
  0
LINE
  8
0
  6
BYLAYER
 62
     7
 10
813.695643
 20
-999.154007
 30
0.0
 11
827.800341
 21
-999.646554
 31
0.0
  0
ARC
  8
0
  6
BYLAYER
 62
     7
 10
813.800341
 20
-996.155835
 30
0.0
 40
3.0
 50
180.000000
 51
268.000000
  0
LINE
  8
0
  6
BYLAYER
 62
     7
 10
810.800341
 20
-994.052901
 30
0.0
 11
810.800341
 21
-996.155835
 31
0.0
  0
LINE
  8
0
  6
BYLAYER
 62
     7
 10
826.800341
 20
-994.052901
 30
0.0
 11
826.800341
 21
-999.611633
 31
0.0
  0
LINE
  8
0
  6
BYLAYER
 62
     7
 10
827.800341
 20
-1014.646554
 30
0.0
 11
813.695643
 21
-1014.154007
 31
0.0
  0
ARC
  8
0
  6
BYLAYER
 62
     7
 10
813.800341
 20
-1011.155835
 30
0.0
 40
3.0
 50
180.000000
 51
268.000000
  0
LINE
  8
0
  6
BYLAYER
 62
     7
 10
813.695643
 20
-1003.951795
 30
0.0
 11
827.800341
 21
-1003.459248
 31
0.0
  0
ARC
  8
0
  6
BYLAYER
 62
     7
 10
813.800341
 20
-1006.949967
 30
0.0
 40
3.0
 50
92.000000
 51
180.000000
  0
LINE
  8
0
  6
BYLAYER
 62
     7
 10
810.800341
 20
-1011.155835
 30
0.0
 11
810.800341
 21
-1006.949967
 31
0.0
  0
LINE
  8
0
  6
BYLAYER
 62
     7
 10
826.800341
 20
-1014.611633
 30
0.0
 11
826.800341
 21
-1003.494169
 31
0.0
  0
LINE
  8
0
  6
BYLAYER
 62
     7
 10
827.800341
 20
-1029.646554
 30
0.0
 11
813.695643
 21
-1029.154007
 31
0.0
  0
ARC
  8
0
  6
BYLAYER
 62
     7
 10
813.800341
 20
-1026.155835
 30
0.0
 40
3.0
 50
180.000000
 51
268.000000
  0
LINE
  8
0
  6
BYLAYER
 62
     7
 10
813.695643
 20
-1018.951795
 30
0.0
 11
827.800341
 21
-1018.459248
 31
0.0
  0
ARC
  8
0
  6
BYLAYER
 62
     7
 10
813.800341
 20
-1021.949967
 30
0.0
 40
3.0
 50
92.000000
 51
180.000000
  0
LINE
  8
0
  6
BYLAYER
 62
     7
 10
810.800341
 20
-1026.155835
 30
0.0
 11
810.800341
 21
-1021.949967
 31
0.0
  0
LINE
  8
0
  6
BYLAYER
 62
     7
 10
826.800341
 20
-1029.611633
 30
0.0
 11
826.800341
 21
-1018.494169
 31
0.0
  0
LINE
  8
0
  6
BYLAYER
 62
     7
 10
735.905039
 20
-999.154007
 30
0.0
 11
721.800341
 21
-999.646554
 31
0.0
  0
ARC
  8
0
  6
BYLAYER
 62
     7
 10
735.800341
 20
-996.155835
 30
0.0
 40
3.0
 50
272.000000
 51
360.000000
  0
LINE
  8
0
  6
BYLAYER
 62
     7
 10
738.800341
 20
-994.052901
 30
0.0
 11
738.800341
 21
-996.155835
 31
0.0
  0
LINE
  8
0
  6
BYLAYER
 62
     7
 10
722.800341
 20
-994.052901
 30
0.0
 11
722.800341
 21
-999.611633
 31
0.0
  0
LINE
  8
0
  6
BYLAYER
 62
     7
 10
721.800341
 20
-1014.646554
 30
0.0
 11
735.905039
 21
-1014.154007
 31
0.0
  0
ARC
  8
0
  6
BYLAYER
 62
     7
 10
735.800341
 20
-1011.155835
 30
0.0
 40
3.0
 50
272.000000
 51
360.000000
  0
LINE
  8
0
  6
BYLAYER
 62
     7
 10
735.905039
 20
-1003.951795
 30
0.0
 11
721.800341
 21
-1003.459248
 31
0.0
  0
ARC
  8
0
  6
BYLAYER
 62
     7
 10
735.800341
 20
-1006.949967
 30
0.0
 40
3.0
 50
0.0
 51
88.0
  0
LINE
  8
0
  6
BYLAYER
 62
     7
 10
738.800341
 20
-1011.155835
 30
0.0
 11
738.800341
 21
-1006.949967
 31
0.0
  0
LINE
  8
0
  6
BYLAYER
 62
     7
 10
722.800341
 20
-1014.611633
 30
0.0
 11
722.800341
 21
-1003.494169
 31
0.0
  0
LINE
  8
0
  6
BYLAYER
 62
     7
 10
721.800341
 20
-1029.646554
 30
0.0
 11
735.905039
 21
-1029.154007
 31
0.0
  0
ARC
  8
0
  6
BYLAYER
 62
     7
 10
735.800341
 20
-1026.155835
 30
0.0
 40
3.0
 50
272.000000
 51
360.000000
  0
LINE
  8
0
  6
BYLAYER
 62
     7
 10
735.905039
 20
-1018.951795
 30
0.0
 11
721.800341
 21
-1018.459248
 31
0.0
  0
ARC
  8
0
  6
BYLAYER
 62
     7
 10
735.800341
 20
-1021.949967
 30
0.0
 40
3.000000
 50
0.0
 51
88.0
  0
LINE
  8
0
  6
BYLAYER
 62
     7
 10
738.800341
 20
-1026.155835
 30
0.0
 11
738.800341
 21
-1021.949967
 31
0.0
  0
LINE
  8
0
  6
BYLAYER
 62
     7
 10
722.800341
 20
-1029.611633
 30
0.0
 11
722.800341
 21
-1018.494169
 31
0.0
  0
LINE
  8
0
  6
BYLAYER
 62
     7
 10
715.800341
 20
-994.052901
 30
0.0
 11
715.800341
 21
-1051.552901
 31
0.0
  0
LINE
  8
0
  6
BYLAYER
 62
     7
 10
717.300341
 20
-1053.052901
 30
0.0
 11
832.300341
 21
-1053.052901
 31
0.0
  0
ARC
  8
0
  6
BYLAYER
 62
     7
 10
832.300341
 20
-1051.552901
 30
0.0
 40
1.5
 50
270.0
 51
360.0
  0
ARC
  8
0
  6
BYLAYER
 62
     7
 10
717.300341
 20
-1051.552901
 30
0.0
 40
1.5
 50
180.000000
 51
270.000000
  0
LINE
  8
0
  6
BYLAYER
 62
     7
 10
833.800341
 20
-1051.552901
 30
0.0
 11
833.800341
 21
-994.052901
 31
0.0
  0
ARC
  8
0
  6
BYLAYER
 62
     7
 10
716.800341
 20
-923.602919
 30
0.0
 40
1.0
 50
90.0
 51
180.000009
  0
ARC
  8
0
  6
BYLAYER
 62
     7
 10
716.800341
 20
-923.602919
 30
0.0
 40
1.0
 50
180.000000
 51
269.999989
  0
ARC
  8
0
  6
BYLAYER
 62
     7
 10
716.800341
 20
-910.902907
 30
0.0
 40
1.0
 50
90.0
 51
180.000009
  0
ARC
  8
0
  6
BYLAYER
 62
     7
 10
716.800341
 20
-910.902907
 30
0.0
 40
1.0
 50
180.000000
 51
269.999989
  0
LINE
  8
0
  6
BYLAYER
 62
     7
 10
833.800341
 20
-937.302901
 30
0.0
 11
946.313921
 21
-937.302901
 31
0.0
  0
LINE
  8
0
  6
BYLAYER
 62
     7
 10
833.800341
 20
-935.302901
 30
0.0
 11
946.313921
 21
-935.302901
 31
0.0
  0
LINE
  8
0
  6
BYLAYER
 62
     7
 10
721.800341
 20
-908.234023
 30
0.0
 11
715.800341
 21
-905.613631
 31
0.0
  0
LINE
  8
0
  6
BYLAYER
 62
     7
 10
715.800341
 20
-913.052901
 30
0.0
 11
715.800341
 21
-994.052901
 31
0.0
  0
LINE
  8
0
  6
BYLAYER
 62
     7
 10
711.300341
 20
-887.052901
 30
0.0
 11
715.800341
 21
-887.052901
 31
0.0
  0
LINE
  8
0
  6
BYLAYER
 62
     7
 10
715.800341
 20
-905.613631
 30
0.0
 11
719.160479
 21
-897.517989
 31
0.0
  0
ARC
  8
0
  6
BYLAYER
 62
     7
 10
721.469500
 20
-898.476363
 30
0.0
 40
2.500012
 50
90.0
 51
157.458787
  0
LINE
  8
0
  6
BYLAYER
 62
     7
 10
715.800341
 20
-901.215193
 30
0.0
 11
719.283251
 21
-888.990157
 31
0.0
  0
ARC
  8
0
  6
BYLAYER
 62
     7
 10
721.687579
 20
-889.675154
 30
0.0
 40
2.500002
 50
90.0
 51
164.097649
  0
LINE
  8
0
  6
BYLAYER
 62
     7
 10
715.800341
 20
-894.127577
 30
0.0
 11
719.250841
 21
-883.128157
 31
0.0
  0
ARC
  8
0
  6
BYLAYER
 62
     7
 10
721.636217
 20
-883.876448
 30
0.0
 40
2.499992
 50
90.0
 51
162.583396
  0
ARC
  8
0
  6
BYLAYER
 62
     7
 10
721.740801
 20
-880.202101
 30
0.0
 40
2.499992
 50
90.0
 51
162.583396
  0
LINE
  8
0
  6
BYLAYER
 62
     7
 10
715.800341
 20
-887.052901
 30
0.0
 11
719.068926
 21
-877.633315
 31
0.0
  0
ARC
  8
0
  6
BYLAYER
 62
     7
 10
721.430773
 20
-878.452864
 30
0.0
 40
2.499996
 50
90.0
 51
160.863473
  0
LINE
  8
0
  6
BYLAYER
 62
     7
 10
719.355425
 20
-879.453810
 30
0.0
 11
715.800341
 21
-890.786604
 31
0.0
  0
ARC
  8
0
  6
BYLAYER
 62
     7
 10
720.800341
 20
-923.602919
 30
0.0
 40
1.0
 50
90.0
 51
180.000009
  0
ARC
  8
0
  6
BYLAYER
 62
     7
 10
720.800341
 20
-923.602919
 30
0.0
 40
1.0
 50
180.000000
 51
269.999989
  0
ARC
  8
0
  6
BYLAYER
 62
     7
 10
720.800341
 20
-910.902907
 30
0.0
 40
1.0
 50
90.0
 51
180.000009
  0
ARC
  8
0
  6
BYLAYER
 62
     7
 10
720.800341
 20
-910.902907
 30
0.0
 40
1.0
 50
180.000000
 51
269.999989
  0
LINE
  8
0
  6
BYLAYER
 62
     7
 10
722.300341
 20
-911.902907
 30
0.0
 11
722.300341
 21
-922.602919
 31
0.0
  0
LINE
  8
0
  6
BYLAYER
 62
     7
 10
722.300341
 20
-924.602919
 30
0.0
 11
722.300341
 21
-935.302901
 31
0.0
  0
LINE
  8
0
  6
BYLAYER
 62
     7
 10
833.800341
 20
-988.102859
 30
0.0
 11
946.313921
 21
-988.102859
 31
0.0
  0
LINE
  8
0
  6
BYLAYER
 62
     7
 10
833.800341
 20
-986.102859
 30
0.0
 11
946.313921
 21
-986.102859
 31
0.0
  0
LINE
  8
0
  6
BYLAYER
 62
     7
 10
833.800341
 20
-975.402877
 30
0.0
 11
946.313921
 21
-975.402877
 31
0.0
  0
LINE
  8
0
  6
BYLAYER
 62
     7
 10
833.800341
 20
-973.402877
 30
0.0
 11
946.313921
 21
-973.402877
 31
0.0
  0
LINE
  8
0
  6
BYLAYER
 62
     7
 10
833.800341
 20
-962.702895
 30
0.0
 11
946.313921
 21
-962.702895
 31
0.0
  0
LINE
  8
0
  6
BYLAYER
 62
     7
 10
833.800341
 20
-960.702895
 30
0.0
 11
946.313921
 21
-960.702895
 31
0.0
  0
LINE
  8
0
  6
BYLAYER
 62
     7
 10
833.800341
 20
-950.002913
 30
0.0
 11
946.313921
 21
-950.002913
 31
0.0
  0
LINE
  8
0
  6
BYLAYER
 62
     7
 10
833.800341
 20
-948.002913
 30
0.0
 11
946.313921
 21
-948.002913
 31
0.0
  0
LINE
  8
0
  6
BYLAYER
 62
     7
 10
716.800341
 20
-924.602919
 30
0.0
 11
946.313921
 21
-924.602919
 31
0.0
  0
LINE
  8
0
  6
BYLAYER
 62
     7
 10
716.800341
 20
-922.602919
 30
0.0
 11
946.313921
 21
-922.602919
 31
0.0
  0
LINE
  8
0
  6
BYLAYER
 62
     7
 10
716.800341
 20
-911.902907
 30
0.0
 11
946.313921
 21
-911.902907
 31
0.0
  0
LINE
  8
0
  6
BYLAYER
 62
     7
 10
716.800341
 20
-909.902907
 30
0.0
 11
946.313921
 21
-909.902907
 31
0.0
  0
LINE
  8
0
  6
BYLAYER
 62
     7
 10
721.800341
 20
-908.234023
 30
0.0
 11
946.313921
 21
-908.234023
 31
0.0
  0
LINE
  8
0
  6
BYLAYER
 62
     7
 10
721.469500
 20
-895.976363
 30
0.0
 11
946.313921
 21
-895.976363
 31
0.0
  0
LINE
  8
0
  6
BYLAYER
 62
     7
 10
721.687579
 20
-887.175154
 30
0.0
 11
946.313921
 21
-887.175154
 31
0.0
  0
LINE
  8
0
  6
BYLAYER
 62
     7
 10
721.636217
 20
-881.376448
 30
0.0
 11
946.313921
 21
-881.376448
 31
0.0
  0
LINE
  8
0
  6
BYLAYER
 62
     7
 10
721.740801
 20
-877.702101
 30
0.0
 11
946.313921
 21
-877.702101
 31
0.0
  0
LINE
  8
0
  6
BYLAYER
 62
     7
 10
721.430773
 20
-875.952864
 30
0.0
 11
946.313921
 21
-875.952864
 31
0.0
  0
ARC
  8
0
  6
BYLAYER
 62
     7
 10
827.800341
 20
-941.052901
 30
0.0
 40
6.5
 50
190.806923
 51
259.193077
  0
ARC
  8
0
  6
BYLAYER
 62
     7
 10
826.300341
 20
-948.911018
 30
0.0
 40
1.5
 50
0.0
 51
79.193077
  0
ARC
  8
0
  6
BYLAYER
 62
     7
 10
721.800341
 20
-941.052901
 30
0.0
 40
6.500000
 50
280.806923
 51
349.193077
  0
ARC
  8
0
  6
BYLAYER
 62
     7
 10
729.658458
 20
-942.552901
 30
0.0
 40
1.5
 50
90.0
 51
169.193077
  0
ARC
  8
0
  6
BYLAYER
 62
     7
 10
723.300341
 20
-948.911018
 30
0.0
 40
1.500000
 50
100.806923
 51
180.000000
  0
LINE
  8
0
  6
BYLAYER
 62
     7
 10
721.800341
 20
-994.052901
 30
0.0
 11
721.800341
 21
-948.911018
 31
0.0
  0
LINE
  8
0
  6
BYLAYER
 62
     7
 10
827.800341
 20
-948.911018
 30
0.0
 11
827.800341
 21
-994.052901
 31
0.0
  0
LINE
  8
0
  6
BYLAYER
 62
     7
 10
729.658458
 20
-941.052901
 30
0.0
 11
819.942224
 21
-941.052901
 31
0.0
  0
ARC
  8
0
  6
BYLAYER
 62
     7
 10
819.942224
 20
-942.552901
 30
0.0
 40
1.500000
 50
10.806923
 51
90.000000
  0
LINE
  8
0
  6
BYLAYER
 62
     7
 10
787.800341
 20
-964.052901
 30
0.0
 11
761.800341
 21
-964.052901
 31
0.0
  0
ARC
  8
0
  6
BYLAYER
 62
     7
 10
761.800341
 20
-967.052901
 30
0.0
 40
3.0
 50
90.0
 51
180.0
  0
ARC
  8
0
  6
BYLAYER
 62
     7
 10
787.800341
 20
-967.052901
 30
0.0
 40
3.0
 50
0.0
 51
90.0
  0
LINE
  8
0
  6
BYLAYER
 62
     7
 10
758.800341
 20
-967.052901
 30
0.0
 11
758.800341
 21
-994.052901
 31
0.0
  0
LINE
  8
0
  6
BYLAYER
 62
     7
 10
790.800341
 20
-994.052901
 30
0.0
 11
790.800341
 21
-967.052901
 31
0.0
  0
LINE
  8
0
  6
BYLAYER
 62
     7
 10
813.695643
 20
-988.951795
 30
0.0
 11
827.800341
 21
-988.459248
 31
0.0
  0
ARC
  8
0
  6
BYLAYER
 62
     7
 10
813.800341
 20
-991.949967
 30
0.0
 40
3.0
 50
92.000000
 51
180.000000
  0
LINE
  8
0
  6
BYLAYER
 62
     7
 10
810.800341
 20
-994.052901
 30
0.0
 11
810.800341
 21
-991.949967
 31
0.0
  0
LINE
  8
0
  6
BYLAYER
 62
     7
 10
826.800341
 20
-994.052901
 30
0.0
 11
826.800341
 21
-988.494169
 31
0.0
  0
LINE
  8
0
  6
BYLAYER
 62
     7
 10
827.800341
 20
-973.459248
 30
0.0
 11
813.695643
 21
-973.951795
 31
0.0
  0
ARC
  8
0
  6
BYLAYER
 62
     7
 10
813.800341
 20
-976.949967
 30
0.0
 40
3.0
 50
92.000000
 51
180.000000
  0
LINE
  8
0
  6
BYLAYER
 62
     7
 10
813.695643
 20
-984.154007
 30
0.0
 11
827.800341
 21
-984.646554
 31
0.0
  0
ARC
  8
0
  6
BYLAYER
 62
     7
 10
813.800341
 20
-981.155835
 30
0.0
 40
3.0
 50
180.000000
 51
268.000000
  0
LINE
  8
0
  6
BYLAYER
 62
     7
 10
810.800341
 20
-976.949967
 30
0.0
 11
810.800341
 21
-981.155835
 31
0.0
  0
LINE
  8
0
  6
BYLAYER
 62
     7
 10
826.800341
 20
-973.494169
 30
0.0
 11
826.800341
 21
-984.611633
 31
0.0
  0
LINE
  8
0
  6
BYLAYER
 62
     7
 10
827.800341
 20
-958.459248
 30
0.0
 11
813.695643
 21
-958.951795
 31
0.0
  0
ARC
  8
0
  6
BYLAYER
 62
     7
 10
813.800341
 20
-961.949967
 30
0.0
 40
3.0
 50
92.000000
 51
180.000000
  0
LINE
  8
0
  6
BYLAYER
 62
     7
 10
813.695643
 20
-969.154007
 30
0.0
 11
827.800341
 21
-969.646554
 31
0.0
  0
ARC
  8
0
  6
BYLAYER
 62
     7
 10
813.800341
 20
-966.155835
 30
0.0
 40
3.0
 50
180.000000
 51
268.000000
  0
LINE
  8
0
  6
BYLAYER
 62
     7
 10
810.800341
 20
-961.949967
 30
0.0
 11
810.800341
 21
-966.155835
 31
0.0
  0
LINE
  8
0
  6
BYLAYER
 62
     7
 10
826.800341
 20
-958.494169
 30
0.0
 11
826.800341
 21
-969.611633
 31
0.0
  0
LINE
  8
0
  6
BYLAYER
 62
     7
 10
735.905039
 20
-988.951795
 30
0.0
 11
721.800341
 21
-988.459248
 31
0.0
  0
ARC
  8
0
  6
BYLAYER
 62
     7
 10
735.800341
 20
-991.949967
 30
0.0
 40
3.0
 50
0.0
 51
88.0
  0
LINE
  8
0
  6
BYLAYER
 62
     7
 10
738.800341
 20
-994.052901
 30
0.0
 11
738.800341
 21
-991.949967
 31
0.0
  0
LINE
  8
0
  6
BYLAYER
 62
     7
 10
722.800341
 20
-994.052901
 30
0.0
 11
722.800341
 21
-988.494169
 31
0.0
  0
LINE
  8
0
  6
BYLAYER
 62
     7
 10
721.800341
 20
-973.459248
 30
0.0
 11
735.905039
 21
-973.951795
 31
0.0
  0
ARC
  8
0
  6
BYLAYER
 62
     7
 10
735.800341
 20
-976.949967
 30
0.0
 40
3.0
 50
0.0
 51
88.0
  0
LINE
  8
0
  6
BYLAYER
 62
     7
 10
735.905039
 20
-984.154007
 30
0.0
 11
721.800341
 21
-984.646554
 31
0.0
  0
ARC
  8
0
  6
BYLAYER
 62
     7
 10
735.800341
 20
-981.155835
 30
0.0
 40
3.0
 50
272.000000
 51
360.000000
  0
LINE
  8
0
  6
BYLAYER
 62
     7
 10
738.800341
 20
-976.949967
 30
0.0
 11
738.800341
 21
-981.155835
 31
0.0
  0
LINE
  8
0
  6
BYLAYER
 62
     7
 10
722.800341
 20
-973.494169
 30
0.0
 11
722.800341
 21
-984.611633
 31
0.0
  0
LINE
  8
0
  6
BYLAYER
 62
     7
 10
721.800341
 20
-958.459248
 30
0.0
 11
735.905039
 21
-958.951795
 31
0.0
  0
ARC
  8
0
  6
BYLAYER
 62
     7
 10
735.800341
 20
-961.949967
 30
0.0
 40
3.0
 50
0.0
 51
88.0
  0
LINE
  8
0
  6
BYLAYER
 62
     7
 10
735.905039
 20
-969.154007
 30
0.0
 11
721.800341
 21
-969.646554
 31
0.0
  0
ARC
  8
0
  6
BYLAYER
 62
     7
 10
735.800341
 20
-966.155835
 30
0.0
 40
3.0
 50
272.000000
 51
360.000000
  0
LINE
  8
0
  6
BYLAYER
 62
     7
 10
738.800341
 20
-961.949967
 30
0.0
 11
738.800341
 21
-966.155835
 31
0.0
  0
LINE
  8
0
  6
BYLAYER
 62
     7
 10
722.800341
 20
-958.494169
 30
0.0
 11
722.800341
 21
-969.611633
 31
0.0
  0
LINE
  8
0
  6
BYLAYER
 62
     7
 10
715.800341
 20
-994.052901
 30
0.0
 11
715.800341
 21
-936.552901
 31
0.0
  0
LINE
  8
0
  6
BYLAYER
 62
     7
 10
717.300341
 20
-935.052901
 30
0.0
 11
832.300341
 21
-935.052901
 31
0.0
  0
ARC
  8
0
  6
BYLAYER
 62
     7
 10
832.300341
 20
-936.552901
 30
0.0
 40
1.5
 50
0.0
 51
90.0
  0
ARC
  8
0
  6
BYLAYER
 62
     7
 10
717.300341
 20
-936.552901
 30
0.0
 40
1.5
 50
90.0
 51
180.0
  0
LINE
  8
0
  6
BYLAYER
 62
     7
 10
833.800341
 20
-936.552901
 30
0.0
 11
833.800341
 21
-994.052901
 31
0.0
  0
LINE
  8
0
  6
BYLAYER
 62
     7
 10
659.300341
 20
-844.052901
 30
0.0
 11
678.300341
 21
-844.052901
 31
0.0
  0
LINE
  8
0
  6
BYLAYER
 62
     7
 10
678.300341
 20
-844.052901
 30
0.0
 11
678.300341
 21
-994.052901
 31
0.0
  0
ARC
  8
0
  6
BYLAYER
 62
     7
 10
680.300341
 20
-883.329455
 30
0.0
 40
2.000000
 50
180.000000
 51
268.000000
  0
LINE
  8
0
  6
BYLAYER
 62
     7
 10
711.300341
 20
-886.413218
 30
0.0
 11
680.230542
 21
-885.328237
 31
0.0
  0
LINE
  8
0
  6
BYLAYER
 62
     7
 10
659.300341
 20
-844.052901
 30
0.0
 11
659.300341
 21
-994.052901
 31
0.0
  0
LINE
  8
0
  6
BYLAYER
 62
     7
 10
711.300341
 20
-994.052901
 30
0.0
 11
711.300341
 21
-886.413218
 31
0.0
  0
LINE
  8
0
  6
BYLAYER
 62
     7
 10
659.300341
 20
-1144.052901
 30
0.0
 11
678.300341
 21
-1144.052901
 31
0.0
  0
LINE
  8
0
  6
BYLAYER
 62
     7
 10
678.300341
 20
-1144.052901
 30
0.0
 11
678.300341
 21
-994.052901
 31
0.0
  0
ARC
  8
0
  6
BYLAYER
 62
     7
 10
680.300341
 20
-1104.776347
 30
0.0
 40
2.000000
 50
92.000000
 51
180.000000
  0
LINE
  8
0
  6
BYLAYER
 62
     7
 10
711.300341
 20
-1101.692584
 30
0.0
 11
680.230542
 21
-1102.777565
 31
0.0
  0
LINE
  8
0
  6
BYLAYER
 62
     7
 10
659.300341
 20
-1144.052901
 30
0.0
 11
659.300341
 21
-994.052901
 31
0.0
  0
LINE
  8
0
  6
BYLAYER
 62
     7
 10
711.300341
 20
-994.052901
 30
0.0
 11
711.300341
 21
-1101.692584
 31
0.0
  0
LINE
  8
0
  6
BYLAYER
 62
     7
 10
1030.413921
 20
-869.652352
 30
0.0
 11
1030.413921
 21
-1118.453450
 31
0.0
  0
LINE
  8
0
  6
BYLAYER
 62
     1
 10
359.148061
 20
-494.052901
 30
0.0
 11
284.300341
 21
-494.052901
 31
0.0
  0
LINE
  8
0
  6
BYLAYER
 62
     1
 10
284.300341
 20
-494.052901
 30
0.0
 11
279.300341
 21
-489.052901
 31
0.0
  0
LINE
  8
0
  6
BYLAYER
 62
     1
 10
614.300341
 20
-494.052901
 30
0.0
 11
539.452621
 21
-494.052901
 31
0.0
  0
LINE
  8
0
  6
BYLAYER
 62
     1
 10
614.300341
 20
-494.052901
 30
0.0
 11
618.421661
 21
-489.931581
 31
0.0
  0
LINE
  8
0
  6
BYLAYER
 62
     1
 10
279.300341
 20
-414.205181
 30
0.0
 11
279.300341
 21
-489.052901
 31
0.0
  0
LINE
  8
0
  6
BYLAYER
 62
     1
 10
560.300341
 20
-494.052901
 30
0.0
 11
560.300341
 21
-476.052901
 31
0.0
  0
LINE
  8
0
  6
BYLAYER
 62
     1
 10
578.300341
 20
-494.052901
 30
0.0
 11
578.300341
 21
-476.052901
 31
0.0
  0
LINE
  8
0
  6
BYLAYER
 62
     1
 10
320.300341
 20
-476.052901
 30
0.0
 11
320.300341
 21
-494.052901
 31
0.0
  0
LINE
  8
0
  6
BYLAYER
 62
     1
 10
338.300341
 20
-476.052901
 30
0.0
 11
338.300341
 21
-494.052901
 31
0.0
  0
LINE
  8
0
  6
BYLAYER
 62
     1
 10
404.078665
 20
-476.052901
 30
0.0
 11
302.300341
 21
-476.052901
 31
0.0
  0
LINE
  8
0
  6
BYLAYER
 62
     1
 10
596.300341
 20
-476.052901
 30
0.0
 11
494.522017
 21
-476.052901
 31
0.0
  0
ARC
  8
0
  6
BYLAYER
 62
     1
 10
596.300341
 20
-471.052901
 30
0.0
 40
5.000000
 50
270.0
 51
360.0
  0
ARC
  8
0
  6
BYLAYER
 62
     1
 10
302.300341
 20
-471.052901
 30
0.0
 40
5.000000
 50
180.000000
 51
270.000000
  0
LINE
  8
0
  6
BYLAYER
 62
     1
 10
279.300341
 20
-435.052901
 30
0.0
 11
297.300341
 21
-435.052901
 31
0.0
  0
LINE
  8
0
  6
BYLAYER
 62
     1
 10
279.300341
 20
-453.052901
 30
0.0
 11
297.300341
 21
-453.052901
 31
0.0
  0
LINE
  8
0
  6
BYLAYER
 62
     1
 10
619.300341
 20
-415.447822
 30
0.0
 11
619.300341
 21
-487.810260
 31
0.0
  0
ARC
  8
0
  6
BYLAYER
 62
     1
 10
616.300341
 20
-487.810260
 30
0.0
 40
3.000000
 50
315.0
 51
360.0
  0
LINE
  8
0
  6
BYLAYER
 62
     1
 10
413.342032
 20
-488.052901
 30
0.0
 11
366.397730
 21
-488.052901
 31
0.0
  0
LINE
  8
0
  6
BYLAYER
 62
     1
 10
532.202952
 20
-488.052901
 30
0.0
 11
485.258650
 21
-488.052901
 31
0.0
  0
LINE
  8
0
  6
BYLAYER
 62
     1
 10
354.300341
 20
-494.052901
 30
0.0
 11
360.347975
 21
-488.005267
 31
0.0
  0
ARC
  8
0
  6
BYLAYER
 62
     1
 10
359.640868
 20
-487.298160
 30
0.0
 40
1.000000
 50
315.000000
 51
360.000000
  0
LINE
  8
0
  6
BYLAYER
 62
     1
 10
285.300341
 20
-360.011210
 30
0.0
 11
285.300341
 21
-406.962541
 31
0.0
  0
LINE
  8
0
  6
BYLAYER
 62
     1
 10
279.300341
 20
-419.052901
 30
0.0
 11
285.007448
 21
-413.345794
 31
0.0
  0
ARC
  8
0
  6
BYLAYER
 62
     1
 10
285.714555
 20
-414.052901
 30
0.0
 40
1.0
 50
90.0
 51
135.0
  0
LINE
  8
0
  6
BYLAYER
 62
     1
 10
613.300341
 20
-288.094592
 30
0.0
 11
613.300341
 21
-257.214241
 31
0.0
  0
ARC
  8
0
  6
BYLAYER
 62
     1
 10
616.300341
 20
-257.214241
 30
0.0
 40
3.0
 50
93.000000
 51
180.000000
  0
LINE
  8
0
  6
BYLAYER
 62
     1
 10
613.300341
 20
-408.205181
 30
0.0
 11
613.300341
 21
-360.011210
 31
0.0
  0
LINE
  8
0
  6
BYLAYER
 62
     1
 10
619.300341
 20
-254.052901
 30
0.0
 11
616.143333
 21
-254.218353
 31
0.0
  0
LINE
  8
0
  6
BYLAYER
 62
     1
 10
619.300341
 20
-99.052901
 30
0.0
 11
619.300341
 21
-254.052901
 31
0.0
  0
LINE
  8
0
  6
BYLAYER
 62
     1
 10
619.300341
 20
-99.052901
 30
0.0
 11
614.300341
 21
-94.052901
 31
0.0
  0
LINE
  8
0
  6
BYLAYER
 62
     1
 10
279.300341
 20
-99.052901
 30
0.0
 11
284.300341
 21
-94.052901
 31
0.0
  0
LINE
  8
0
  6
BYLAYER
 62
     1
 10
601.300341
 20
-278.831225
 30
0.0
 11
601.300341
 21
-235.052901
 31
0.0
  0
LINE
  8
0
  6
BYLAYER
 62
     1
 10
601.300341
 20
-227.052901
 30
0.0
 11
601.300341
 21
-219.052901
 31
0.0
  0
LINE
  8
0
  6
BYLAYER
 62
     1
 10
601.300341
 20
-211.052901
 30
0.0
 11
601.300341
 21
-203.052901
 31
0.0
  0
LINE
  8
0
  6
BYLAYER
 62
     1
 10
601.300341
 20
-195.052901
 30
0.0
 11
601.300341
 21
-117.052901
 31
0.0
  0
ARC
  8
0
  6
BYLAYER
 62
     1
 10
598.300341
 20
-159.157852
 30
0.0
 40
3.0
 50
273.000000
 51
360.000000
  0
ARC
  8
0
  6
BYLAYER
 62
     1
 10
598.300341
 20
-189.052901
 30
0.0
 40
3.0
 50
270.0
 51
360.0
  0
ARC
  8
0
  6
BYLAYER
 62
     1
 10
596.300341
 20
-117.052901
 30
0.0
 40
5.000000
 50
0.0
 51
90.0
  0
LINE
  8
0
  6
BYLAYER
 62
     1
 10
601.300341
 20
-471.052901
 30
0.0
 11
601.300341
 21
-369.274577
 31
0.0
  0
LINE
  8
0
  6
BYLAYER
 62
     1
 10
297.300341
 20
-471.052901
 30
0.0
 11
297.300341
 21
-369.274577
 31
0.0
  0
ARC
  8
0
  6
BYLAYER
 62
     1
 10
307.300341
 20
-406.052901
 30
0.0
 40
10.0
 50
90.0
 51
180.0
  0
LINE
  8
0
  6
BYLAYER
 62
     1
 10
297.300341
 20
-278.831225
 30
0.0
 11
297.300341
 21
-235.052901
 31
0.0
  0
LINE
  8
0
  6
BYLAYER
 62
     1
 10
297.300341
 20
-227.052901
 30
0.0
 11
297.300341
 21
-219.052901
 31
0.0
  0
LINE
  8
0
  6
BYLAYER
 62
     1
 10
297.300341
 20
-211.052901
 30
0.0
 11
297.300341
 21
-203.052901
 31
0.0
  0
LINE
  8
0
  6
BYLAYER
 62
     1
 10
297.300341
 20
-195.052901
 30
0.0
 11
297.300341
 21
-117.052901
 31
0.0
  0
ARC
  8
0
  6
BYLAYER
 62
     1
 10
302.300341
 20
-117.052901
 30
0.0
 40
5.000000
 50
90.0
 51
180.0
  0
LINE
  8
0
  6
BYLAYER
 62
     1
 10
560.300341
 20
-94.052901
 30
0.0
 11
560.300341
 21
-112.052901
 31
0.0
  0
LINE
  8
0
  6
BYLAYER
 62
     1
 10
578.300341
 20
-94.052901
 30
0.0
 11
578.300341
 21
-112.052901
 31
0.0
  0
LINE
  8
0
  6
BYLAYER
 62
     1
 10
320.300341
 20
-112.052901
 30
0.0
 11
320.300341
 21
-94.052901
 31
0.0
  0
LINE
  8
0
  6
BYLAYER
 62
     1
 10
338.300341
 20
-112.052901
 30
0.0
 11
338.300341
 21
-94.052901
 31
0.0
  0
LINE
  8
0
  6
BYLAYER
 62
     1
 10
614.300341
 20
-94.052901
 30
0.0
 11
539.452621
 21
-94.052901
 31
0.0
  0
LINE
  8
0
  6
BYLAYER
 62
     1
 10
401.300341
 20
-112.052901
 30
0.0
 11
302.300341
 21
-112.052901
 31
0.0
  0
LINE
  8
0
  6
BYLAYER
 62
     1
 10
596.300341
 20
-112.052901
 30
0.0
 11
531.300341
 21
-112.052901
 31
0.0
  0
LINE
  8
0
  6
BYLAYER
 62
     1
 10
532.202952
 20
-100.052901
 30
0.0
 11
366.397730
 21
-100.052901
 31
0.0
  0
ARC
  8
0
  6
BYLAYER
 62
     1
 10
366.397730
 20
-97.052901
 30
0.0
 40
3.0
 50
225.039288
 51
270.0
  0
LINE
  8
0
  6
BYLAYER
 62
     1
 10
359.148061
 20
-94.052901
 30
0.0
 11
284.300341
 21
-94.052901
 31
0.0
  0
ARC
  8
0
  6
BYLAYER
 62
     1
 10
367.300341
 20
-182.052901
 30
0.0
 40
10.000000
 50
270.0
 51
360.0
  0
LINE
  8
0
  6
BYLAYER
 62
     1
 10
367.300341
 20
-192.052901
 30
0.0
 11
307.300341
 21
-192.052901
 31
0.0
  0
ARC
  8
0
  6
BYLAYER
 62
     1
 10
307.300341
 20
-182.052901
 30
0.0
 40
10.000000
 50
180.000000
 51
270.000000
  0
LINE
  8
0
  6
BYLAYER
 62
     1
 10
531.300341
 20
-192.052901
 30
0.0
 11
598.300341
 21
-192.052901
 31
0.0
  0
LINE
  8
0
  6
BYLAYER
 62
     1
 10
313.410947
 20
-396.052901
 30
0.0
 11
307.300341
 21
-396.052901
 31
0.0
  0
LINE
  8
0
  6
BYLAYER
 62
     1
 10
377.300341
 20
-466.052901
 30
0.0
 11
377.300341
 21
-459.942295
 31
0.0
  0
ARC
  8
0
  6
BYLAYER
 62
     1
 10
367.300341
 20
-466.052901
 30
0.0
 40
10.000000
 50
270.0
 51
360.0
  0
ARC
  8
0
  6
BYLAYER
 62
     1
 10
591.300341
 20
-406.052901
 30
0.0
 40
10.000000
 50
0.0
 51
90.0
  0
LINE
  8
0
  6
BYLAYER
 62
     1
 10
585.189735
 20
-396.052901
 30
0.0
 11
591.300341
 21
-396.052901
 31
0.0
  0
LINE
  8
0
  6
BYLAYER
 62
     1
 10
521.300341
 20
-466.052901
 30
0.0
 11
521.300341
 21
-459.942295
 31
0.0
  0
ARC
  8
0
  6
BYLAYER
 62
     1
 10
531.300341
 20
-466.052901
 30
0.0
 40
10.0
 50
180.000000
 51
270.000000
  0
LINE
  8
0
  6
BYLAYER
 62
     1
 10
279.300341
 20
-153.052901
 30
0.0
 11
297.300341
 21
-153.052901
 31
0.0
  0
LINE
  8
0
  6
BYLAYER
 62
     1
 10
279.300341
 20
-135.052901
 30
0.0
 11
297.300341
 21
-135.052901
 31
0.0
  0
LINE
  8
0
  6
BYLAYER
 62
     1
 10
279.300341
 20
-169.052901
 30
0.0
 11
297.300341
 21
-169.052901
 31
0.0
  0
LINE
  8
0
  6
BYLAYER
 62
     1
 10
279.300341
 20
-419.052901
 30
0.0
 11
297.300341
 21
-419.052901
 31
0.0
  0
LINE
  8
0
  6
BYLAYER
 62
     1
 10
619.300341
 20
-169.052901
 30
0.0
 11
601.300341
 21
-169.052901
 31
0.0
  0
LINE
  8
0
  6
BYLAYER
 62
     1
 10
615.800880
 20
-419.052901
 30
0.0
 11
601.300341
 21
-419.052901
 31
0.0
  0
LINE
  8
0
  6
BYLAYER
 62
     1
 10
354.300341
 20
-94.052901
 30
0.0
 11
354.300341
 21
-112.052901
 31
0.0
  0
LINE
  8
0
  6
BYLAYER
 62
     1
 10
544.300341
 20
-94.052901
 30
0.0
 11
544.300341
 21
-112.052901
 31
0.0
  0
LINE
  8
0
  6
BYLAYER
 62
     1
 10
544.300341
 20
-494.052901
 30
0.0
 11
544.300341
 21
-476.052901
 31
0.0
  0
LINE
  8
0
  6
BYLAYER
 62
     1
 10
354.300341
 20
-494.052901
 30
0.0
 11
354.300341
 21
-476.052901
 31
0.0
  0
ARC
  8
0
  6
BYLAYER
 62
     1
 10
531.300341
 20
-182.052901
 30
0.0
 40
10.0
 50
180.000000
 51
270.000000
  0
ARC
  8
0
  6
BYLAYER
 62
     1
 10
531.300341
 20
-122.052901
 30
0.0
 40
10.0
 50
90.0
 51
180.0
  0
LINE
  8
0
  6
BYLAYER
 62
     1
 10
521.300341
 20
-122.052901
 30
0.0
 11
521.300341
 21
-182.052901
 31
0.0
  0
ARC
  8
0
  6
BYLAYER
 62
     1
 10
524.300341
 20
-166.197168
 30
0.0
 40
3.0
 50
180.000000
 51
260.000000
  0
ARC
  8
0
  6
BYLAYER
 62
     1
 10
449.300341
 20
-274.052901
 30
0.0
 40
217.000000
 50
260.461721
 51
279.538279
  0
ARC
  8
0
  6
BYLAYER
 62
     1
 10
399.300341
 20
-324.052901
 30
0.0
 40
217.000000
 50
350.461721
 51
369.538279
  0
LINE
  8
0
  6
BYLAYER
 62
     1
 10
290.094341
 20
-181.552901
 30
0.0
 11
297.300341
 21
-181.552901
 31
0.0
  0
LINE
  8
0
  6
BYLAYER
 62
     1
 10
297.300341
 20
-406.552901
 30
0.0
 11
290.094341
 21
-406.552901
 31
0.0
  0
LINE
  8
0
  6
BYLAYER
 62
     1
 10
608.506341
 20
-406.552901
 30
0.0
 11
601.300341
 21
-406.552901
 31
0.0
  0
LINE
  8
0
  6
BYLAYER
 62
     1
 10
285.300341
 20
-234.714241
 30
0.0
 11
285.300341
 21
-288.094592
 31
0.0
  0
LINE
  8
0
  6
BYLAYER
 62
     1
 10
279.300341
 20
-231.552901
 30
0.0
 11
282.457349
 21
-231.718353
 31
0.0
  0
ARC
  8
0
  6
BYLAYER
 62
     1
 10
282.300341
 20
-234.714241
 30
0.0
 40
3.000000
 50
0.0
 51
87.0
  0
LINE
  8
0
  6
BYLAYER
 62
     1
 10
279.300341
 20
-99.052901
 30
0.0
 11
279.300341
 21
-231.552901
 31
0.0
  0
ARC
  8
0
  6
BYLAYER
 62
     1
 10
401.300341
 20
-115.052901
 30
0.0
 40
3.0
 50
0.0
 51
90.0
  0
CIRCLE
  8
0
  6
BYLAYER
 62
     1
 10
499.300341
 20
-128.052901
 30
0.0
 40
15.0
  0
ARC
  8
0
  6
BYLAYER
 62
     1
 10
609.506341
 20
-261.826261
 30
0.0
 40
1.0
 50
180.000000
 51
270.000000
  0
ARC
  8
0
  6
BYLAYER
 62
     1
 10
609.506341
 20
-263.826261
 30
0.0
 40
1.000000
 50
0.0
 51
90.0
  0
LINE
  8
0
  6
BYLAYER
 62
     1
 10
612.260934
 20
-335.279541
 30
0.0
 11
612.155474
 21
-335.279541
 31
0.0
  0
ARC
  8
0
  6
BYLAYER
 62
     1
 10
612.260934
 20
-334.279541
 30
0.0
 40
1.000000
 50
270.0
 51
357.250695
  0
ARC
  8
0
  6
BYLAYER
 62
     1
 10
612.155474
 20
-336.279541
 30
0.0
 40
1.000000
 50
90.0
 51
176.712478
  0
ARC
  8
0
  6
BYLAYER
 62
     1
 10
609.506341
 20
-361.826261
 30
0.0
 40
1.000000
 50
180.000000
 51
270.000000
  0
ARC
  8
0
  6
BYLAYER
 62
     1
 10
609.506341
 20
-363.826261
 30
0.0
 40
1.0
 50
0.0
 51
90.0
  0
ARC
  8
0
  6
BYLAYER
 62
     1
 10
609.506341
 20
-386.279541
 30
0.0
 40
1.0
 50
90.0
 51
180.0
  0
LINE
  8
0
  6
BYLAYER
 62
     1
 10
611.021341
 20
-253.031455
 30
0.0
 11
611.021341
 21
-237.876414
 31
0.0
  0
ARC
  8
0
  6
BYLAYER
 62
     1
 10
612.021341
 20
-253.031455
 30
0.0
 40
1.000000
 50
180.000000
 51
273.000000
  0
ARC
  8
0
  6
BYLAYER
 62
     1
 10
612.021341
 20
-237.876414
 30
0.0
 40
1.000000
 50
102.511107
 51
180.000000
  0
ARC
  8
0
  6
BYLAYER
 62
     1
 10
611.588083
 20
-235.923906
 30
0.0
 40
1.000000
 50
282.511107
 51
362.209270
  0
LINE
  8
0
  6
BYLAYER
 62
     1
 10
610.506341
 20
-234.279541
 30
0.0
 11
610.506341
 21
-184.552901
 31
0.0
  0
ARC
  8
0
  6
BYLAYER
 62
     1
 10
609.506341
 20
-234.279541
 30
0.0
 40
1.000000
 50
270.0
 51
360.0
  0
LINE
  8
0
  6
BYLAYER
 62
     1
 10
610.506341
 20
-284.279541
 30
0.0
 11
610.506341
 21
-263.826261
 31
0.0
  0
LINE
  8
0
  6
BYLAYER
 62
     1
 10
610.506341
 20
-384.279541
 30
0.0
 11
610.506341
 21
-363.826261
 31
0.0
  0
ARC
  8
0
  6
BYLAYER
 62
     1
 10
609.506341
 20
-384.279541
 30
0.0
 40
1.000000
 50
270.0
 51
360.0
  0
LINE
  8
0
  6
BYLAYER
 62
     1
 10
608.506341
 20
-359.608998
 30
0.0
 11
608.506341
 21
-361.826261
 31
0.0
  0
ARC
  8
0
  6
BYLAYER
 62
     1
 10
399.300341
 20
-324.052901
 30
0.0
 40
212.206000
 50
350.354330
 51
356.712478
  0
LINE
  8
0
  6
BYLAYER
 62
     1
 10
608.506341
 20
-261.826261
 30
0.0
 11
608.506341
 21
-236.279541
 31
0.0
  0
ARC
  8
0
  6
BYLAYER
 62
     1
 10
609.506341
 20
-236.279541
 30
0.0
 40
1.000000
 50
90.0
 51
180.0
  0
LINE
  8
0
  6
BYLAYER
 62
     1
 10
608.506341
 20
-386.279541
 30
0.0
 11
608.506341
 21
-411.074687
 31
0.0
  0
ARC
  8
0
  6
BYLAYER
 62
     1
 10
399.300341
 20
-324.052901
 30
0.0
 40
214.206000
 50
357.250695
 51
362.749305
  0
LINE
  8
0
  6
BYLAYER
 62
     1
 10
612.260934
 20
-312.826261
 30
0.0
 11
612.155474
 21
-312.826261
 31
0.0
  0
ARC
  8
0
  6
BYLAYER
 62
     1
 10
612.260934
 20
-313.826261
 30
0.0
 40
1.000000
 50
2.749305
 51
90.000000
  0
ARC
  8
0
  6
BYLAYER
 62
     1
 10
612.155474
 20
-311.826261
 30
0.0
 40
1.0
 50
183.287522
 51
270.000000
  0
ARC
  8
0
  6
BYLAYER
 62
     1
 10
609.506341
 20
-286.279541
 30
0.0
 40
1.000000
 50
90.0
 51
180.0
  0
ARC
  8
0
  6
BYLAYER
 62
     1
 10
609.506341
 20
-284.279541
 30
0.0
 40
1.0
 50
270.0
 51
360.0
  0
LINE
  8
0
  6
BYLAYER
 62
     1
 10
608.506341
 20
-288.496804
 30
0.0
 11
608.506341
 21
-286.279541
 31
0.0
  0
ARC
  8
0
  6
BYLAYER
 62
     1
 10
399.300341
 20
-324.052901
 30
0.0
 40
212.206000
 50
3.287522
 51
9.645670
  0
LINE
  8
0
  6
BYLAYER
 62
     1
 10
438.073701
 20
-487.013494
 30
0.0
 11
438.073701
 21
-486.908034
 31
0.0
  0
ARC
  8
0
  6
BYLAYER
 62
     1
 10
439.073701
 20
-487.013494
 30
0.0
 40
1.0
 50
180.000000
 51
267.250695
  0
ARC
  8
0
  6
BYLAYER
 62
     1
 10
437.073701
 20
-486.908034
 30
0.0
 40
1.000000
 50
0.0
 51
86.712478
  0
ARC
  8
0
  6
BYLAYER
 62
     1
 10
411.526981
 20
-484.258901
 30
0.0
 40
1.000000
 50
90.0
 51
180.0
  0
ARC
  8
0
  6
BYLAYER
 62
     1
 10
409.526981
 20
-484.258901
 30
0.0
 40
1.000000
 50
270.0
 51
360.0
  0
ARC
  8
0
  6
BYLAYER
 62
     1
 10
387.073701
 20
-484.258901
 30
0.0
 40
1.0
 50
0.0
 51
90.0
  0
LINE
  8
0
  6
BYLAYER
 62
     1
 10
489.073701
 20
-485.258901
 30
0.0
 11
509.526981
 21
-485.258901
 31
0.0
  0
LINE
  8
0
  6
BYLAYER
 62
     1
 10
389.073701
 20
-485.258901
 30
0.0
 11
409.526981
 21
-485.258901
 31
0.0
  0
ARC
  8
0
  6
BYLAYER
 62
     1
 10
389.073701
 20
-484.258901
 30
0.0
 40
1.000000
 50
180.000000
 51
270.000000
  0
LINE
  8
0
  6
BYLAYER
 62
     1
 10
413.744244
 20
-483.258901
 30
0.0
 11
411.526981
 21
-483.258901
 31
0.0
  0
ARC
  8
0
  6
BYLAYER
 62
     1
 10
449.300341
 20
-274.052901
 30
0.0
 40
212.206000
 50
260.354330
 51
266.712478
  0
LINE
  8
0
  6
BYLAYER
 62
     1
 10
387.073701
 20
-483.258901
 30
0.0
 11
361.640868
 21
-483.258901
 31
0.0
  0
ARC
  8
0
  6
BYLAYER
 62
     1
 10
361.640868
 20
-484.258901
 30
0.0
 40
1.000000
 50
90.0
 51
180.0
  0
ARC
  8
0
  6
BYLAYER
 62
     1
 10
449.300341
 20
-274.052901
 30
0.0
 40
214.206000
 50
267.250695
 51
272.749305
  0
LINE
  8
0
  6
BYLAYER
 62
     1
 10
460.526981
 20
-487.013494
 30
0.0
 11
460.526981
 21
-486.908034
 31
0.0
  0
ARC
  8
0
  6
BYLAYER
 62
     1
 10
459.526981
 20
-487.013494
 30
0.0
 40
1.0
 50
272.749305
 51
360.000000
  0
ARC
  8
0
  6
BYLAYER
 62
     1
 10
461.526981
 20
-486.908034
 30
0.0
 40
1.000000
 50
93.287522
 51
180.000000
  0
ARC
  8
0
  6
BYLAYER
 62
     1
 10
487.073701
 20
-484.258901
 30
0.0
 40
1.000000
 50
0.0
 51
90.0
  0
ARC
  8
0
  6
BYLAYER
 62
     1
 10
489.073701
 20
-484.258901
 30
0.0
 40
1.000000
 50
180.000000
 51
270.000000
  0
LINE
  8
0
  6
BYLAYER
 62
     1
 10
484.856438
 20
-483.258901
 30
0.0
 11
487.073701
 21
-483.258901
 31
0.0
  0
ARC
  8
0
  6
BYLAYER
 62
     1
 10
449.300341
 20
-274.052901
 30
0.0
 40
212.206000
 50
273.287522
 51
279.645670
  0
LINE
  8
0
  6
BYLAYER
 62
     1
 10
616.070341
 20
-420.295542
 30
0.0
 11
616.070341
 21
-486.192541
 31
0.0
  0
ARC
  8
0
  6
BYLAYER
 62
     1
 10
613.070341
 20
-420.295542
 30
0.0
 40
3.0
 50
0.0
 51
45.0
  0
LINE
  8
0
  6
BYLAYER
 62
     1
 10
615.191661
 20
-418.174221
 30
0.0
 11
608.799234
 21
-411.781794
 31
0.0
  0
ARC
  8
0
  6
BYLAYER
 62
     1
 10
609.506341
 20
-411.074687
 30
0.0
 40
1.0
 50
180.000000
 51
225.000000
  0
LINE
  8
0
  6
BYLAYER
 62
     1
 10
618.421661
 20
-413.326502
 30
0.0
 11
613.300341
 21
-408.205181
 31
0.0
  0
ARC
  8
0
  6
BYLAYER
 62
     1
 10
616.300341
 20
-415.447822
 30
0.0
 40
3.0
 50
0.0
 51
45.0
  0
ARC
  8
0
  6
BYLAYER
 62
     1
 10
613.225271
 20
-409.938890
 30
0.0
 40
1.0
 50
45.000000
 51
90.000000
  0
LINE
  8
0
  6
BYLAYER
 62
     1
 10
612.021341
 20
-408.938890
 30
0.0
 11
613.225271
 21
-408.938890
 31
0.0
  0
LINE
  8
0
  6
BYLAYER
 62
     1
 10
615.864333
 20
-253.831424
 30
0.0
 11
612.073677
 21
-254.030084
 31
0.0
  0
LINE
  8
0
  6
BYLAYER
 62
     1
 10
612.587340
 20
-235.885356
 30
0.0
 11
610.506341
 21
-184.552901
 31
0.0
  0
ARC
  8
0
  6
BYLAYER
 62
     1
 10
607.503877
 20
-184.552901
 30
0.0
 40
3.000000
 50
2.321479
 51
90.0
  0
ARC
  8
0
  6
BYLAYER
 62
     1
 10
499.300341
 20
-324.052901
 30
0.0
 40
217.0
 50
170.461721
 51
189.538279
  0
LINE
  8
0
  6
BYLAYER
 62
     1
 10
286.339748
 20
-335.279541
 30
0.0
 11
286.445208
 21
-335.279541
 31
0.0
  0
ARC
  8
0
  6
BYLAYER
 62
     1
 10
286.339748
 20
-334.279541
 30
0.0
 40
1.0
 50
182.749305
 51
270.000000
  0
ARC
  8
0
  6
BYLAYER
 62
     1
 10
286.445208
 20
-336.279541
 30
0.0
 40
1.000000
 50
3.287522
 51
90.0
  0
ARC
  8
0
  6
BYLAYER
 62
     1
 10
289.094341
 20
-361.826261
 30
0.0
 40
1.000000
 50
270.0
 51
360.0
  0
ARC
  8
0
  6
BYLAYER
 62
     1
 10
289.094341
 20
-363.826261
 30
0.0
 40
1.000000
 50
90.0
 51
180.0
  0
LINE
  8
0
  6
BYLAYER
 62
     1
 10
290.094341
 20
-359.608998
 30
0.0
 11
290.094341
 21
-361.826261
 31
0.0
  0
ARC
  8
0
  6
BYLAYER
 62
     1
 10
499.300341
 20
-324.052901
 30
0.0
 40
212.206000
 50
183.287522
 51
189.645670
  0
ARC
  8
0
  6
BYLAYER
 62
     1
 10
499.300341
 20
-324.052901
 30
0.0
 40
214.206000
 50
177.250695
 51
182.749305
  0
LINE
  8
0
  6
BYLAYER
 62
     1
 10
286.339748
 20
-312.826261
 30
0.0
 11
286.445208
 21
-312.826261
 31
0.0
  0
ARC
  8
0
  6
BYLAYER
 62
     1
 10
286.339748
 20
-313.826261
 30
0.0
 40
1.0
 50
90.0
 51
177.250695
  0
ARC
  8
0
  6
BYLAYER
 62
     1
 10
286.445208
 20
-311.826261
 30
0.0
 40
1.000000
 50
270.0
 51
356.712478
  0
ARC
  8
0
  6
BYLAYER
 62
     1
 10
289.094341
 20
-286.279541
 30
0.0
 40
1.000000
 50
0.0
 51
90.0
  0
ARC
  8
0
  6
BYLAYER
 62
     1
 10
289.094341
 20
-284.279541
 30
0.0
 40
1.000000
 50
180.000000
 51
270.000000
  0
LINE
  8
0
  6
BYLAYER
 62
     1
 10
290.094341
 20
-288.496804
 30
0.0
 11
290.094341
 21
-286.279541
 31
0.0
  0
ARC
  8
0
  6
BYLAYER
 62
     1
 10
499.300341
 20
-324.052901
 30
0.0
 40
212.206000
 50
170.354330
 51
176.712478
  0
LINE
  8
0
  6
BYLAYER
 62
     1
 10
289.094341
 20
-413.052901
 30
0.0
 11
285.714555
 21
-413.052901
 31
0.0
  0
ARC
  8
0
  6
BYLAYER
 62
     1
 10
289.094341
 20
-386.279541
 30
0.0
 40
1.0
 50
0.0
 51
90.0
  0
LINE
  8
0
  6
BYLAYER
 62
     1
 10
290.094341
 20
-386.279541
 30
0.0
 11
290.094341
 21
-412.052901
 31
0.0
  0
ARC
  8
0
  6
BYLAYER
 62
     1
 10
289.094341
 20
-412.052901
 30
0.0
 40
1.000000
 50
270.0
 51
360.0
  0
LINE
  8
0
  6
BYLAYER
 62
     1
 10
288.872341
 20
-388.113813
 30
0.0
 11
288.872341
 21
-395.052901
 31
0.0
  0
ARC
  8
0
  6
BYLAYER
 62
     1
 10
287.872341
 20
-395.052901
 30
0.0
 40
1.0
 50
0.0
 51
90.0
  0
ARC
  8
0
  6
BYLAYER
 62
     1
 10
287.872341
 20
-388.113813
 30
0.0
 40
1.000000
 50
0.0
 51
90.0
  0
ARC
  8
0
  6
BYLAYER
 62
     1
 10
289.094341
 20
-384.279541
 30
0.0
 40
1.000000
 50
180.000000
 51
270.000000
  0
LINE
  8
0
  6
BYLAYER
 62
     1
 10
288.094341
 20
-384.279541
 30
0.0
 11
288.094341
 21
-363.826261
 31
0.0
  0
ARC
  8
0
  6
BYLAYER
 62
     1
 10
289.094341
 20
-261.826261
 30
0.0
 40
1.0
 50
270.0
 51
360.0
  0
ARC
  8
0
  6
BYLAYER
 62
     1
 10
289.094341
 20
-263.826261
 30
0.0
 40
1.000000
 50
90.0
 51
180.0
  0
LINE
  8
0
  6
BYLAYER
 62
     1
 10
290.094341
 20
-261.826261
 30
0.0
 11
290.094341
 21
-236.279541
 31
0.0
  0
ARC
  8
0
  6
BYLAYER
 62
     1
 10
289.094341
 20
-236.279541
 30
0.0
 40
1.000000
 50
0.0
 51
90.0
  0
LINE
  8
0
  6
BYLAYER
 62
     1
 10
288.094341
 20
-284.279541
 30
0.0
 11
288.094341
 21
-263.826261
 31
0.0
  0
LINE
  8
0
  6
BYLAYER
 62
     1
 10
287.093963
 20
-210.945064
 30
0.0
 11
287.021619
 21
-210.945064
 31
0.0
  0
LINE
  8
0
  6
BYLAYER
 62
     1
 10
288.094341
 20
-234.279541
 30
0.0
 11
288.094341
 21
-213.826261
 31
0.0
  0
ARC
  8
0
  6
BYLAYER
 62
     1
 10
289.094341
 20
-213.826261
 30
0.0
 40
1.000000
 50
90.0
 51
180.0
  0
ARC
  8
0
  6
BYLAYER
 62
     1
 10
289.094341
 20
-234.279541
 30
0.0
 40
1.000000
 50
180.000000
 51
270.000000
  0
LINE
  8
0
  6
BYLAYER
 62
     1
 10
290.094341
 20
-211.826261
 30
0.0
 11
290.094341
 21
-180.261115
 31
0.0
  0
ARC
  8
0
  6
BYLAYER
 62
     1
 10
289.094341
 20
-211.826261
 30
0.0
 40
1.000000
 50
270.0
 51
360.0
  0
LINE
  8
0
  6
BYLAYER
 62
     1
 10
279.300341
 20
-170.891731
 30
0.0
 11
288.927960
 21
-180.519350
 31
0.0
  0
LINE
  8
0
  6
BYLAYER
 62
     1
 10
279.300341
 20
-169.052901
 30
0.0
 11
289.801448
 21
-179.554008
 31
0.0
  0
LINE
  8
0
  6
BYLAYER
 62
     1
 10
285.218758
 20
-234.019372
 30
0.0
 11
286.057030
 21
-211.907182
 31
0.0
  0
LINE
  8
0
  6
BYLAYER
 62
     1
 10
288.131414
 20
-209.982947
 30
0.0
 11
289.220135
 21
-181.264339
 31
0.0
  0
ARC
  8
0
  6
BYLAYER
 62
     1
 10
288.220853
 20
-181.226457
 30
0.0
 40
1.000000
 50
357.828959
 51
405.000000
  0
LINE
  8
0
  6
BYLAYER
 62
     1
 10
287.132132
 20
-210.945064
 30
0.0
 11
287.056312
 21
-210.945064
 31
0.0
  0
ARC
  8
0
  6
BYLAYER
 62
     1
 10
287.056312
 20
-211.945064
 30
0.0
 40
1.000000
 50
90.0
 51
177.828959
  0
ARC
  8
0
  6
BYLAYER
 62
     1
 10
287.132132
 20
-209.945064
 30
0.0
 40
1.0
 50
270.0
 51
357.828959
  0
LINE
  8
0
  6
BYLAYER
 62
     1
 10
279.300341
 20
-414.205181
 30
0.0
 11
284.421661
 21
-409.083861
 31
0.0
  0
ARC
  8
0
  6
BYLAYER
 62
     1
 10
282.300341
 20
-406.962541
 30
0.0
 40
3.0
 50
315.0
 51
360.0
  0
LINE
  8
0
  6
BYLAYER
 62
     1
 10
364.277865
 20
-488.930127
 30
0.0
 11
359.148061
 21
-494.052901
 31
0.0
  0
ARC
  8
0
  6
BYLAYER
 62
     1
 10
366.397730
 20
-491.052901
 30
0.0
 40
3.0
 50
90.0
 51
134.960712
  0
LINE
  8
0
  6
BYLAYER
 62
     1
 10
360.640868
 20
-487.298160
 30
0.0
 11
360.640868
 21
-484.258901
 31
0.0
  0
LINE
  8
0
  6
BYLAYER
 62
     1
 10
366.800341
 20
-483.258901
 30
0.0
 11
366.800341
 21
-476.052901
 31
0.0
  0
LINE
  8
0
  6
BYLAYER
 62
     1
 10
544.300341
 20
-494.052901
 30
0.0
 11
538.252707
 21
-488.005267
 31
0.0
  0
ARC
  8
0
  6
BYLAYER
 62
     1
 10
511.526981
 20
-484.258901
 30
0.0
 40
1.0
 50
90.0
 51
180.0
  0
ARC
  8
0
  6
BYLAYER
 62
     1
 10
509.526981
 20
-484.258901
 30
0.0
 40
1.000000
 50
270.0
 51
360.0
  0
LINE
  8
0
  6
BYLAYER
 62
     1
 10
511.526981
 20
-483.258901
 30
0.0
 11
536.959814
 21
-483.258901
 31
0.0
  0
ARC
  8
0
  6
BYLAYER
 62
     1
 10
536.959814
 20
-484.258901
 30
0.0
 40
1.000000
 50
0.0
 51
90.0
  0
LINE
  8
0
  6
BYLAYER
 62
     1
 10
534.322817
 20
-488.930127
 30
0.0
 11
539.452621
 21
-494.052901
 31
0.0
  0
ARC
  8
0
  6
BYLAYER
 62
     1
 10
532.202952
 20
-491.052901
 30
0.0
 40
3.0
 50
45.039288
 51
90.000000
  0
LINE
  8
0
  6
BYLAYER
 62
     1
 10
537.959814
 20
-487.298160
 30
0.0
 11
537.959814
 21
-484.258901
 31
0.0
  0
ARC
  8
0
  6
BYLAYER
 62
     1
 10
538.959814
 20
-487.298160
 30
0.0
 40
1.0
 50
180.000000
 51
225.000000
  0
LINE
  8
0
  6
BYLAYER
 62
     1
 10
531.800341
 20
-483.258901
 30
0.0
 11
531.800341
 21
-476.052901
 31
0.0
  0
LINE
  8
0
  6
BYLAYER
 62
     1
 10
354.300341
 20
-94.052901
 30
0.0
 11
360.347975
 21
-100.100535
 31
0.0
  0
LINE
  8
0
  6
BYLAYER
 62
     1
 10
364.277865
 20
-99.175675
 30
0.0
 11
359.148061
 21
-94.052901
 31
0.0
  0
LINE
  8
0
  6
BYLAYER
 62
     1
 10
544.300341
 20
-94.052901
 30
0.0
 11
538.252707
 21
-100.100535
 31
0.0
  0
LINE
  8
0
  6
BYLAYER
 62
     1
 10
534.322817
 20
-99.175675
 30
0.0
 11
539.452621
 21
-94.052901
 31
0.0
  0
ARC
  8
0
  6
BYLAYER
 62
     1
 10
532.202952
 20
-97.052901
 30
0.0
 40
3.0
 50
270.0
 51
314.960712
  0
ARC
  8
0
  6
BYLAYER
 62
     1
 10
578.401972
 20
-175.736745
 30
0.0
 40
3.000000
 50
260.000000
 51
366.907950
  0
LINE
  8
0
  6
BYLAYER
 62
     1
 10
619.300341
 20
-103.900621
 30
0.0
 11
609.452621
 21
-94.052901
 31
0.0
  0
LINE
  8
0
  6
BYLAYER
 62
     1
 10
279.300341
 20
-103.900621
 30
0.0
 11
289.148061
 21
-94.052901
 31
0.0
  0
LINE
  8
0
  6
BYLAYER
 62
     1
 10
279.300341
 20
-484.205181
 30
0.0
 11
289.148061
 21
-494.052901
 31
0.0
  0
LINE
  8
0
  6
BYLAYER
 62
     1
 10
615.191661
 20
-488.313861
 30
0.0
 11
609.452621
 21
-494.052901
 31
0.0
  0
ARC
  8
0
  6
BYLAYER
 62
     1
 10
613.070341
 20
-486.192541
 30
0.0
 40
3.000000
 50
315.000000
 51
360.000000
  0
LINE
  8
0
  6
BYLAYER
 62
     1
 10
317.300341
 20
-229.052901
 30
0.0
 11
299.300341
 21
-229.052901
 31
0.0
  0
ARC
  8
0
  6
BYLAYER
 62
     1
 10
299.300341
 20
-227.052901
 30
0.0
 40
2.000000
 50
180.000000
 51
270.000000
  0
LINE
  8
0
  6
BYLAYER
 62
     1
 10
317.300341
 20
-233.052901
 30
0.0
 11
299.300341
 21
-233.052901
 31
0.0
  0
ARC
  8
0
  6
BYLAYER
 62
     1
 10
299.300341
 20
-235.052901
 30
0.0
 40
2.000000
 50
90.0
 51
180.0
  0
ARC
  8
0
  6
BYLAYER
 62
     1
 10
317.300341
 20
-231.052901
 30
0.0
 40
2.000000
 50
270.0
 51
360.0
  0
ARC
  8
0
  6
BYLAYER
 62
     1
 10
317.300341
 20
-231.052901
 30
0.0
 40
2.000000
 50
0.0
 51
90.0
  0
ARC
  8
0
  6
BYLAYER
 62
     1
 10
367.300341
 20
-122.052901
 30
0.0
 40
10.000000
 50
0.0
 51
90.0
  0
LINE
  8
0
  6
BYLAYER
 62
     1
 10
377.300341
 20
-122.052901
 30
0.0
 11
377.300341
 21
-182.052901
 31
0.0
  0
LINE
  8
0
  6
BYLAYER
 62
     1
 10
402.300341
 20
-127.052901
 30
0.0
 11
379.300341
 21
-127.052901
 31
0.0
  0
ARC
  8
0
  6
BYLAYER
 62
     1
 10
379.300341
 20
-129.052901
 30
0.0
 40
2.0
 50
90.0
 51
180.0
  0
ARC
  8
0
  6
BYLAYER
 62
     1
 10
402.300341
 20
-125.052901
 30
0.0
 40
2.0
 50
270.0
 51
360.0
  0
LINE
  8
0
  6
BYLAYER
 62
     1
 10
402.300341
 20
-131.052901
 30
0.0
 11
379.300341
 21
-131.052901
 31
0.0
  0
ARC
  8
0
  6
BYLAYER
 62
     1
 10
379.300341
 20
-129.052901
 30
0.0
 40
2.000000
 50
180.000000
 51
270.000000
  0
ARC
  8
0
  6
BYLAYER
 62
     1
 10
402.300341
 20
-133.052901
 30
0.0
 40
2.000000
 50
0.0
 51
90.0
  0
LINE
  8
0
  6
BYLAYER
 62
     1
 10
404.300341
 20
-125.052901
 30
0.0
 11
404.300341
 21
-115.052901
 31
0.0
  0
ARC
  8
0
  6
BYLAYER
 62
     1
 10
379.300341
 20
-145.052901
 30
0.0
 40
2.000000
 50
180.000000
 51
270.000000
  0
LINE
  8
0
  6
BYLAYER
 62
     1
 10
402.300341
 20
-143.052901
 30
0.0
 11
379.300341
 21
-143.052901
 31
0.0
  0
ARC
  8
0
  6
BYLAYER
 62
     1
 10
379.300341
 20
-145.052901
 30
0.0
 40
2.000000
 50
90.0
 51
180.0
  0
ARC
  8
0
  6
BYLAYER
 62
     1
 10
402.300341
 20
-141.052901
 30
0.0
 40
2.000000
 50
270.0
 51
360.0
  0
LINE
  8
0
  6
BYLAYER
 62
     1
 10
404.300341
 20
-141.052901
 30
0.0
 11
404.300341
 21
-133.052901
 31
0.0
  0
ARC
  8
0
  6
BYLAYER
 62
     1
 10
299.300341
 20
-211.052901
 30
0.0
 40
2.000000
 50
180.000000
 51
270.000000
  0
ARC
  8
0
  6
BYLAYER
 62
     1
 10
299.300341
 20
-219.052901
 30
0.0
 40
2.000000
 50
90.0
 51
180.0
  0
LINE
  8
0
  6
BYLAYER
 62
     1
 10
581.300341
 20
-229.052901
 30
0.0
 11
599.300341
 21
-229.052901
 31
0.0
  0
ARC
  8
0
  6
BYLAYER
 62
     1
 10
599.300341
 20
-227.052901
 30
0.0
 40
2.000000
 50
270.0
 51
360.0
  0
LINE
  8
0
  6
BYLAYER
 62
     1
 10
581.300341
 20
-233.052901
 30
0.0
 11
599.300341
 21
-233.052901
 31
0.0
  0
ARC
  8
0
  6
BYLAYER
 62
     1
 10
599.300341
 20
-235.052901
 30
0.0
 40
2.000000
 50
0.0
 51
90.0
  0
ARC
  8
0
  6
BYLAYER
 62
     1
 10
581.300341
 20
-231.052901
 30
0.0
 40
2.000000
 50
180.000000
 51
270.000000
  0
ARC
  8
0
  6
BYLAYER
 62
     1
 10
581.300341
 20
-231.052901
 30
0.0
 40
2.000000
 50
90.0
 51
180.0
  0
ARC
  8
0
  6
BYLAYER
 62
     1
 10
599.300341
 20
-211.052901
 30
0.0
 40
2.000000
 50
270.0
 51
360.0
  0
ARC
  8
0
  6
BYLAYER
 62
     1
 10
599.300341
 20
-219.052901
 30
0.0
 40
2.000000
 50
0.0
 51
90.0
  0
LINE
  8
0
  6
BYLAYER
 62
     1
 10
379.300341
 20
-147.052901
 30
0.0
 11
486.338860
 21
-147.052901
 31
0.0
  0
LINE
  8
0
  6
BYLAYER
 62
     1
 10
523.779396
 20
-169.151591
 30
0.0
 11
577.881027
 21
-178.691169
 31
0.0
  0
ARC
  8
0
  6
BYLAYER
 62
     1
 10
499.300341
 20
-324.052901
 30
0.0
 40
207.000000
 50
167.381273
 51
192.618727
  0
ARC
  8
0
  6
BYLAYER
 62
     1
 10
399.300341
 20
-324.052901
 30
0.0
 40
207.0
 50
347.381273
 51
372.618727
  0
ARC
  8
0
  6
BYLAYER
 62
     1
 10
449.300341
 20
-274.052901
 30
0.0
 40
207.0
 50
257.381273
 51
282.618727
  0
ARC
  8
0
  6
BYLAYER
 62
     1
 10
499.300341
 20
-128.052901
 30
0.0
 40
23.000000
 50
235.698847
 51
270.000000
  0
LINE
  8
0
  6
BYLAYER
 62
     1
 10
499.300341
 20
-151.052901
 30
0.0
 11
511.300341
 21
-151.052901
 31
0.0
  0
ARC
  8
0
  6
BYLAYER
 62
     1
 10
511.300341
 20
-141.052901
 30
0.0
 40
10.000000
 50
270.0
 51
360.0
  0
ARC
  8
0
  6
BYLAYER
 62
     1
 10
300.300341
 20
-179.245365
 30
0.0
 40
3.000000
 50
180.000000
 51
280.0
  0
ARC
  8
0
  6
BYLAYER
 62
     1
 10
524.300341
 20
-166.197168
 30
0.0
 40
3.0
 50
180.000000
 51
260.000000
  0
LINE
  8
0
  6
BYLAYER
 62
     1
 10
374.821286
 20
-169.151591
 30
0.0
 11
300.821286
 21
-182.199788
 31
0.0
  0
ARC
  8
0
  6
BYLAYER
 62
     1
 10
374.300341
 20
-166.197168
 30
0.0
 40
3.0
 50
280.000000
 51
360.000000
  0
LINE
  8
0
  6
BYLAYER
 62
     1
 10
366.800341
 20
-106.246901
 30
0.0
 11
361.640868
 21
-106.246901
 31
0.0
  0
LINE
  8
0
  6
BYLAYER
 62
     1
 10
360.640868
 20
-100.807642
 30
0.0
 11
360.640868
 21
-105.246901
 31
0.0
  0
ARC
  8
0
  6
BYLAYER
 62
     1
 10
359.640868
 20
-100.807642
 30
0.0
 40
1.0
 50
0.0
 51
45.0
  0
ARC
  8
0
  6
BYLAYER
 62
     1
 10
361.640868
 20
-105.246901
 30
0.0
 40
1.000000
 50
180.000000
 51
270.000000
  0
LINE
  8
0
  6
BYLAYER
 62
     1
 10
366.800341
 20
-106.246901
 30
0.0
 11
366.800341
 21
-112.052901
 31
0.0
  0
LINE
  8
0
  6
BYLAYER
 62
     1
 10
531.800341
 20
-106.246901
 30
0.0
 11
531.800341
 21
-112.052901
 31
0.0
  0
LINE
  8
0
  6
BYLAYER
 62
     1
 10
531.800341
 20
-106.246901
 30
0.0
 11
536.959814
 21
-106.246901
 31
0.0
  0
LINE
  8
0
  6
BYLAYER
 62
     1
 10
537.959814
 20
-100.807642
 30
0.0
 11
537.959814
 21
-105.246901
 31
0.0
  0
ARC
  8
0
  6
BYLAYER
 62
     1
 10
538.959814
 20
-100.807642
 30
0.0
 40
1.0
 50
135.000000
 51
180.000000
  0
ARC
  8
0
  6
BYLAYER
 62
     1
 10
536.959814
 20
-105.246901
 30
0.0
 40
1.000000
 50
270.0
 51
360.0
  0
LINE
  8
0
  6
BYLAYER
 62
     1
 10
579.300341
 20
-149.964901
 30
0.0
 11
525.348341
 21
-149.964901
 31
0.0
  0
ARC
  8
0
  6
BYLAYER
 62
     1
 10
579.300341
 20
-147.964901
 30
0.0
 40
2.000000
 50
270.0
 51
360.0
  0
ARC
  8
0
  6
BYLAYER
 62
     1
 10
525.348341
 20
-146.964901
 30
0.0
 40
3.0
 50
180.000000
 51
270.000000
  0
LINE
  8
0
  6
BYLAYER
 62
     1
 10
596.816341
 20
-144.658901
 30
0.0
 11
583.300341
 21
-144.658901
 31
0.0
  0
ARC
  8
0
  6
BYLAYER
 62
     1
 10
596.816341
 20
-141.658901
 30
0.0
 40
3.0
 50
270.0
 51
360.0
  0
LINE
  8
0
  6
BYLAYER
 62
     1
 10
581.300341
 20
-146.658901
 30
0.0
 11
581.300341
 21
-180.308078
 31
0.0
  0
ARC
  8
0
  6
BYLAYER
 62
     1
 10
583.300341
 20
-146.658901
 30
0.0
 40
2.000000
 50
90.0
 51
180.0
  0
LINE
  8
0
  6
BYLAYER
 62
     1
 10
347.300341
 20
-197.052901
 30
0.0
 11
299.300341
 21
-197.052901
 31
0.0
  0
ARC
  8
0
  6
BYLAYER
 62
     1
 10
299.300341
 20
-195.052901
 30
0.0
 40
2.000000
 50
180.000000
 51
270.000000
  0
LINE
  8
0
  6
BYLAYER
 62
     1
 10
347.300341
 20
-201.052901
 30
0.0
 11
299.300341
 21
-201.052901
 31
0.0
  0
ARC
  8
0
  6
BYLAYER
 62
     1
 10
299.300341
 20
-203.052901
 30
0.0
 40
2.000000
 50
90.0
 51
180.0
  0
ARC
  8
0
  6
BYLAYER
 62
     1
 10
347.300341
 20
-199.052901
 30
0.0
 40
2.0
 50
0.0
 51
90.0
  0
ARC
  8
0
  6
BYLAYER
 62
     1
 10
347.300341
 20
-199.052901
 30
0.0
 40
2.000000
 50
270.0
 51
360.0
  0
LINE
  8
0
  6
BYLAYER
 62
     1
 10
551.300341
 20
-197.052901
 30
0.0
 11
599.300341
 21
-197.052901
 31
0.0
  0
ARC
  8
0
  6
BYLAYER
 62
     1
 10
599.300341
 20
-195.052901
 30
0.0
 40
2.000000
 50
270.0
 51
360.0
  0
LINE
  8
0
  6
BYLAYER
 62
     1
 10
551.300341
 20
-201.052901
 30
0.0
 11
599.300341
 21
-201.052901
 31
0.0
  0
ARC
  8
0
  6
BYLAYER
 62
     1
 10
599.300341
 20
-203.052901
 30
0.0
 40
2.000000
 50
0.0
 51
90.0
  0
ARC
  8
0
  6
BYLAYER
 62
     1
 10
551.300341
 20
-199.052901
 30
0.0
 40
2.0
 50
90.0
 51
180.0
  0
ARC
  8
0
  6
BYLAYER
 62
     1
 10
551.300341
 20
-199.052901
 30
0.0
 40
2.0
 50
180.000000
 51
270.000000
  0
LINE
  8
0
  6
BYLAYER
 62
     1
 10
329.800341
 20
-213.052901
 30
0.0
 11
299.300341
 21
-213.052901
 31
0.0
  0
LINE
  8
0
  6
BYLAYER
 62
     1
 10
329.800341
 20
-217.052901
 30
0.0
 11
299.300341
 21
-217.052901
 31
0.0
  0
ARC
  8
0
  6
BYLAYER
 62
     1
 10
329.800341
 20
-215.052901
 30
0.0
 40
2.000000
 50
270.0
 51
360.0
  0
ARC
  8
0
  6
BYLAYER
 62
     1
 10
329.800341
 20
-215.052901
 30
0.0
 40
2.000000
 50
0.0
 51
90.0
  0
LINE
  8
0
  6
BYLAYER
 62
     1
 10
568.800341
 20
-213.052901
 30
0.0
 11
599.300341
 21
-213.052901
 31
0.0
  0
LINE
  8
0
  6
BYLAYER
 62
     1
 10
568.800341
 20
-217.052901
 30
0.0
 11
599.300341
 21
-217.052901
 31
0.0
  0
ARC
  8
0
  6
BYLAYER
 62
     1
 10
568.800341
 20
-215.052901
 30
0.0
 40
2.000000
 50
180.000000
 51
270.000000
  0
ARC
  8
0
  6
BYLAYER
 62
     1
 10
568.800341
 20
-215.052901
 30
0.0
 40
2.000000
 50
90.0
 51
180.0
  0
LINE
  8
0
  6
BYLAYER
 62
     1
 10
519.300341
 20
-159.052901
 30
0.0
 11
379.300341
 21
-159.052901
 31
0.0
  0
ARC
  8
0
  6
BYLAYER
 62
     1
 10
519.300341
 20
-161.052901
 30
0.0
 40
2.000000
 50
0.0
 51
90.0
  0
ARC
  8
0
  6
BYLAYER
 62
     1
 10
379.300341
 20
-161.052901
 30
0.0
 40
2.000000
 50
90.0
 51
180.0
  0
LINE
  8
0
  6
BYLAYER
 62
     1
 10
519.300341
 20
-163.052901
 30
0.0
 11
379.300341
 21
-163.052901
 31
0.0
  0
ARC
  8
0
  6
BYLAYER
 62
     1
 10
519.300341
 20
-161.052901
 30
0.0
 40
2.000000
 50
270.0
 51
360.0
  0
ARC
  8
0
  6
BYLAYER
 62
     1
 10
379.300341
 20
-161.052901
 30
0.0
 40
2.000000
 50
180.000000
 51
270.000000
  0
LINE
  8
0
  6
BYLAYER
 62
     1
 10
424.300341
 20
-157.052901
 30
0.0
 11
424.300341
 21
-157.052901
 31
0.0
  0
LINE
  8
0
  6
BYLAYER
 62
     1
 10
619.300341
 20
-181.552901
 30
0.0
 11
601.300341
 21
-181.552901
 31
0.0
  0
LINE
  8
0
  6
BYLAYER
 62
     1
 10
586.038661
 20
-162.804576
 30
0.0
 11
598.457349
 21
-162.153740
 31
0.0
  0
ARC
  8
0
  6
BYLAYER
 62
     1
 10
596.816341
 20
-159.235625
 30
0.0
 40
3.0
 50
273.000000
 51
360.000000
  0
ARC
  8
0
  6
BYLAYER
 62
     1
 10
586.300341
 20
-167.797724
 30
0.0
 40
5.0
 50
93.0
 51
180.0
  0
ARC
  8
0
  6
BYLAYER
 62
     1
 10
598.300341
 20
-188.947950
 30
0.0
 40
3.0
 50
0.0
 51
87.0
  0
LINE
  8
0
  6
BYLAYER
 62
     1
 10
586.038661
 20
-185.301226
 30
0.0
 11
598.457349
 21
-185.952062
 31
0.0
  0
ARC
  8
0
  6
BYLAYER
 62
     1
 10
586.300341
 20
-180.308078
 30
0.0
 40
5.000000
 50
180.000000
 51
267.0
  0
CIRCLE
  8
0
  6
BYLAYER
 62
     1
 10
449.300341
 20
-324.052901
 30
0.0
 40
90.0
  0
CIRCLE
  8
0
  6
BYLAYER
 62
     1
 10
449.300341
 20
-324.052901
 30
0.0
 40
60.0
  0
CIRCLE
  8
0
  6
BYLAYER
 62
     1
 10
449.300341
 20
-324.052901
 30
0.0
 40
67.0
  0
CIRCLE
  8
0
  6
BYLAYER
 62
     1
 10
449.300341
 20
-324.052901
 30
0.0
 40
82.5
  0
ARC
  8
0
  6
BYLAYER
 62
     1
 10
449.300341
 20
-324.052901
 30
0.0
 40
125.000000
 50
29.268939
 51
375.731061
  0
ARC
  8
0
  6
BYLAYER
 62
     1
 10
560.959151
 20
-261.472471
 30
0.0
 40
3.000000
 50
209.268939
 51
248.424116
  0
ARC
  8
0
  6
BYLAYER
 62
     1
 10
391.120226
 20
-243.952498
 30
0.0
 40
3.000025
 50
224.999996
 51
305.992912
  0
ARC
  8
0
  6
BYLAYER
 62
     1
 10
449.300341
 20
-324.052901
 30
0.0
 40
96.000008
 50
99.007595
 51
125.992374
  0
ARC
  8
0
  6
BYLAYER
 62
     1
 10
433.800341
 20
-226.273787
 30
0.0
 40
3.000015
 50
279.008146
 51
360.000003
  0
LINE
  8
0
  6
BYLAYER
 62
     1
 10
380.335375
 20
-237.410323
 30
0.0
 11
388.998888
 21
-246.073836
 31
0.0
  0
ARC
  8
0
  6
BYLAYER
 62
     1
 10
382.456713
 20
-235.288985
 30
0.0
 40
3.000025
 50
95.764771
 51
224.999996
  0
ARC
  8
0
  6
BYLAYER
 62
     1
 10
372.763598
 20
-139.277083
 30
0.0
 40
93.499985
 50
275.764899
 51
309.235175
  0
LINE
  8
0
  6
BYLAYER
 62
     1
 10
436.800341
 20
-214.021712
 30
0.0
 11
436.800341
 21
-226.273787
 31
0.0
  0
ARC
  8
0
  6
BYLAYER
 62
     1
 10
433.800341
 20
-214.021712
 30
0.0
 40
3.000005
 50
0.0
 51
129.235280
  0
ARC
  8
0
  6
BYLAYER
 62
     1
 10
372.763598
 20
-139.277083
 30
0.0
 40
87.499977
 50
268.731083
 51
316.268966
  0
ARC
  8
0
  6
BYLAYER
 62
     1
 10
351.521249
 20
-308.552917
 30
0.0
 40
3.000025
 50
270.0
 51
350.992916
  0
ARC
  8
0
  6
BYLAYER
 62
     1
 10
449.300341
 20
-324.052901
 30
0.0
 40
96.000008
 50
144.007595
 51
170.992374
  0
ARC
  8
0
  6
BYLAYER
 62
     1
 10
369.199911
 20
-265.872782
 30
0.0
 40
3.000015
 50
324.008146
 51
405.000003
  0
LINE
  8
0
  6
BYLAYER
 62
     1
 10
339.269191
 20
-311.552941
 30
0.0
 11
351.521249
 21
-311.552941
 31
0.0
  0
ARC
  8
0
  6
BYLAYER
 62
     1
 10
339.269191
 20
-308.552917
 30
0.0
 40
3.000025
 50
140.764775
 51
270.0
  0
ARC
  8
0
  6
BYLAYER
 62
     1
 10
264.524457
 20
-247.516317
 30
0.0
 40
93.499985
 50
320.764899
 51
354.235175
  0
LINE
  8
0
  6
BYLAYER
 62
     1
 10
362.657706
 20
-255.087936
 30
0.0
 11
371.321232
 21
-263.751461
 31
0.0
  0
ARC
  8
0
  6
BYLAYER
 62
     1
 10
360.536386
 20
-257.209256
 30
0.0
 40
3.000005
 50
45.0
 51
174.235280
  0
ARC
  8
0
  6
BYLAYER
 62
     1
 10
264.524457
 20
-247.516317
 30
0.0
 40
87.499977
 50
313.731083
 51
361.268966
  0
ARC
  8
0
  6
BYLAYER
 62
     1
 10
369.199938
 20
-382.233016
 30
0.0
 40
3.000025
 50
314.999996
 51
395.992912
  0
ARC
  8
0
  6
BYLAYER
 62
     1
 10
449.300341
 20
-324.052901
 30
0.0
 40
96.000008
 50
189.007595
 51
215.992374
  0
ARC
  8
0
  6
BYLAYER
 62
     1
 10
351.521227
 20
-339.552901
 30
0.0
 40
3.000015
 50
9.008146
 51
90.000003
  0
LINE
  8
0
  6
BYLAYER
 62
     1
 10
362.657763
 20
-393.017867
 30
0.0
 11
371.321276
 21
-384.354354
 31
0.0
  0
ARC
  8
0
  6
BYLAYER
 62
     1
 10
360.536425
 20
-390.896529
 30
0.0
 40
3.000025
 50
185.764771
 51
314.999996
  0
ARC
  8
0
  6
BYLAYER
 62
     1
 10
264.524523
 20
-400.589644
 30
0.0
 40
93.499985
 50
5.764899
 51
39.235175
  0
LINE
  8
0
  6
BYLAYER
 62
     1
 10
339.269152
 20
-336.552901
 30
0.0
 11
351.521227
 21
-336.552901
 31
0.0
  0
ARC
  8
0
  6
BYLAYER
 62
     1
 10
339.269152
 20
-339.552901
 30
0.0
 40
3.000005
 50
90.0
 51
219.23528
  0
ARC
  8
0
  6
BYLAYER
 62
     1
 10
264.524523
 20
-400.589644
 30
0.0
 40
87.499977
 50
358.731083
 51
406.268966
  0
ARC
  8
0
  6
BYLAYER
 62
     1
 10
433.800357
 20
-421.831993
 30
0.0
 40
3.000025
 50
0.0
 51
80.992916
  0
ARC
  8
0
  6
BYLAYER
 62
     1
 10
449.300341
 20
-324.052901
 30
0.0
 40
96.000008
 50
234.007595
 51
260.992374
  0
ARC
  8
0
  6
BYLAYER
 62
     1
 10
391.120222
 20
-404.153331
 30
0.0
 40
3.000015
 50
54.008146
 51
135.000003
  0
LINE
  8
0
  6
BYLAYER
 62
     1
 10
436.800381
 20
-434.084051
 30
0.0
 11
436.800381
 21
-421.831993
 31
0.0
  0
ARC
  8
0
  6
BYLAYER
 62
     1
 10
433.800357
 20
-434.084051
 30
0.0
 40
3.000025
 50
230.764775
 51
360.0
  0
ARC
  8
0
  6
BYLAYER
 62
     1
 10
372.763757
 20
-508.828785
 30
0.0
 40
93.499985
 50
50.764899
 51
84.235175
  0
LINE
  8
0
  6
BYLAYER
 62
     1
 10
380.335376
 20
-410.695536
 30
0.0
 11
388.998901
 21
-402.032010
 31
0.0
  0
ARC
  8
0
  6
BYLAYER
 62
     1
 10
382.456696
 20
-412.816856
 30
0.0
 40
3.000005
 50
135.000000
 51
264.235280
  0
ARC
  8
0
  6
BYLAYER
 62
     1
 10
372.763757
 20
-508.828785
 30
0.0
 40
87.499977
 50
43.731083
 51
91.268966
  0
ARC
  8
0
  6
BYLAYER
 62
     1
 10
507.480456
 20
-404.153304
 30
0.0
 40
3.000025
 50
44.999996
 51
125.992912
  0
ARC
  8
0
  6
BYLAYER
 62
     1
 10
449.300341
 20
-324.052901
 30
0.0
 40
96.000008
 50
279.007595
 51
305.992374
  0
ARC
  8
0
  6
BYLAYER
 62
     1
 10
464.800341
 20
-421.832015
 30
0.0
 40
3.000015
 50
99.008146
 51
180.000003
  0
LINE
  8
0
  6
BYLAYER
 62
     1
 10
518.265307
 20
-410.695479
 30
0.0
 11
509.601794
 21
-402.031966
 31
0.0
  0
ARC
  8
0
  6
BYLAYER
 62
     1
 10
516.143969
 20
-412.816817
 30
0.0
 40
3.000025
 50
275.764771
 51
404.999996
  0
ARC
  8
0
  6
BYLAYER
 62
     1
 10
525.837084
 20
-508.828719
 30
0.0
 40
93.499985
 50
95.764899
 51
129.235175
  0
LINE
  8
0
  6
BYLAYER
 62
     1
 10
461.800341
 20
-434.084090
 30
0.0
 11
461.800341
 21
-421.832015
 31
0.0
  0
ARC
  8
0
  6
BYLAYER
 62
     1
 10
464.800341
 20
-434.084090
 30
0.0
 40
3.000005
 50
180.000000
 51
309.235280
  0
ARC
  8
0
  6
BYLAYER
 62
     1
 10
525.837084
 20
-508.828719
 30
0.0
 40
87.499977
 50
88.731083
 51
136.268966
  0
ARC
  8
0
  6
BYLAYER
 62
     1
 10
547.079433
 20
-339.552885
 30
0.0
 40
3.000025
 50
90.0
 51
170.992916
  0
ARC
  8
0
  6
BYLAYER
 62
     1
 10
449.300341
 20
-324.052901
 30
0.0
 40
96.000008
 50
324.007595
 51
350.992374
  0
ARC
  8
0
  6
BYLAYER
 62
     1
 10
529.400771
 20
-382.233020
 30
0.0
 40
3.000015
 50
144.008146
 51
225.000003
  0
LINE
  8
0
  6
BYLAYER
 62
     1
 10
559.331491
 20
-336.552861
 30
0.0
 11
547.079433
 21
-336.552861
 31
0.0
  0
ARC
  8
0
  6
BYLAYER
 62
     1
 10
559.331491
 20
-339.552885
 30
0.0
 40
3.000025
 50
320.764775
 51
450.0
  0
ARC
  8
0
  6
BYLAYER
 62
     1
 10
634.076225
 20
-400.589485
 30
0.0
 40
93.499985
 50
140.764899
 51
174.235175
  0
LINE
  8
0
  6
BYLAYER
 62
     1
 10
535.942976
 20
-393.017866
 30
0.0
 11
527.279450
 21
-384.354341
 31
0.0
  0
ARC
  8
0
  6
BYLAYER
 62
     1
 10
538.064296
 20
-390.896546
 30
0.0
 40
3.000005
 50
225.000000
 51
354.235280
  0
ARC
  8
0
  6
BYLAYER
 62
     1
 10
634.076225
 20
-400.589485
 30
0.0
 40
87.499977
 50
133.731083
 51
181.268966
  0
ARC
  8
0
  6
BYLAYER
 62
     1
 10
529.400744
 20
-265.872786
 30
0.0
 40
3.000025
 50
134.999996
 51
215.992912
  0
ARC
  8
0
  6
BYLAYER
 62
     1
 10
449.300341
 20
-324.052901
 30
0.0
 40
96.000008
 50
9.007595
 51
35.992374
  0
ARC
  8
0
  6
BYLAYER
 62
     1
 10
547.079455
 20
-308.552901
 30
0.0
 40
3.000015
 50
189.008146
 51
270.000003
  0
LINE
  8
0
  6
BYLAYER
 62
     1
 10
535.942919
 20
-255.087935
 30
0.0
 11
527.279406
 21
-263.751448
 31
0.0
  0
ARC
  8
0
  6
BYLAYER
 62
     1
 10
538.064257
 20
-257.209273
 30
0.0
 40
3.000025
 50
5.764771
 51
134.999996
  0
ARC
  8
0
  6
BYLAYER
 62
     1
 10
634.076159
 20
-247.516158
 30
0.0
 40
93.499985
 50
185.764899
 51
219.235175
  0
LINE
  8
0
  6
BYLAYER
 62
     1
 10
559.331530
 20
-311.552901
 30
0.0
 11
547.079455
 21
-311.552901
 31
0.0
  0
ARC
  8
0
  6
BYLAYER
 62
     1
 10
559.331530
 20
-308.552901
 30
0.0
 40
3.000005
 50
270.0
 51
399.23528
  0
ARC
  8
0
  6
BYLAYER
 62
     1
 10
634.076159
 20
-247.516158
 30
0.0
 40
87.499977
 50
178.731083
 51
226.268966
  0
ARC
  8
0
  6
BYLAYER
 62
     1
 10
464.800325
 20
-226.273809
 30
0.0
 40
3.000025
 50
180.000000
 51
260.992916
  0
ARC
  8
0
  6
BYLAYER
 62
     1
 10
449.300341
 20
-324.052901
 30
0.0
 40
96.000008
 50
54.007595
 51
80.992374
  0
ARC
  8
0
  6
BYLAYER
 62
     1
 10
507.480460
 20
-243.952471
 30
0.0
 40
3.000015
 50
234.008146
 51
315.000003
  0
LINE
  8
0
  6
BYLAYER
 62
     1
 10
461.800301
 20
-214.021751
 30
0.0
 11
461.800301
 21
-226.273809
 31
0.0
  0
ARC
  8
0
  6
BYLAYER
 62
     1
 10
464.800325
 20
-214.021751
 30
0.0
 40
3.000025
 50
50.764775
 51
180.000000
  0
ARC
  8
0
  6
BYLAYER
 62
     1
 10
525.836925
 20
-139.277017
 30
0.0
 40
93.499985
 50
230.764899
 51
264.235175
  0
LINE
  8
0
  6
BYLAYER
 62
     1
 10
518.265306
 20
-237.410266
 30
0.0
 11
509.601781
 21
-246.073792
 31
0.0
  0
ARC
  8
0
  6
BYLAYER
 62
     1
 10
516.143986
 20
-235.288946
 30
0.0
 40
3.000005
 50
315.000000
 51
444.23528
  0
ARC
  8
0
  6
BYLAYER
 62
     1
 10
525.836925
 20
-139.277017
 30
0.0
 40
87.499977
 50
223.731083
 51
271.268966
  0
ARC
  8
0
  6
BYLAYER
 62
     1
 10
553.236754
 20
-281.001029
 30
0.0
 40
18.000000
 50
336.575884
 51
428.424116
  0
ARC
  8
0
  6
BYLAYER
 62
     1
 10
572.506089
 20
-289.349246
 30
0.0
 40
3.0
 50
156.575884
 51
195.731061
  0
LINE
  8
0
  6
BYLAYER
 62
     1
 10
380.111939
 20
-462.753892
 30
0.0
 11
310.599350
 21
-393.241303
 31
0.0
  0
LINE
  8
0
  6
BYLAYER
 62
     1
 10
498.453164
 20
-471.052901
 30
0.0
 11
400.147518
 21
-471.052901
 31
0.0
  0
LINE
  8
0
  6
BYLAYER
 62
     1
 10
588.001332
 20
-393.241303
 30
0.0
 11
518.488743
 21
-462.753892
 31
0.0
  0
LINE
  8
0
  6
BYLAYER
 62
     1
 10
596.300341
 20
-274.900078
 30
0.0
 11
596.300341
 21
-373.205724
 31
0.0
  0
LINE
  8
0
  6
BYLAYER
 62
     1
 10
518.488743
 20
-185.351910
 30
0.0
 11
588.001332
 21
-254.864499
 31
0.0
  0
LINE
  8
0
  6
BYLAYER
 62
     1
 10
400.147518
 20
-177.052901
 30
0.0
 11
498.453164
 21
-177.052901
 31
0.0
  0
LINE
  8
0
  6
BYLAYER
 62
     1
 10
310.599350
 20
-254.864499
 30
0.0
 11
380.111939
 21
-185.351910
 31
0.0
  0
ARC
  8
0
  6
BYLAYER
 62
     1
 10
449.300341
 20
-324.052901
 30
0.0
 40
155.0
 50
243.488541
 51
251.511459
  0
ARC
  8
0
  6
BYLAYER
 62
     1
 10
449.300341
 20
-324.052901
 30
0.0
 40
155.0
 50
288.488541
 51
296.511459
  0
ARC
  8
0
  6
BYLAYER
 62
     1
 10
449.300341
 20
-324.052901
 30
0.0
 40
155.000000
 50
333.488541
 51
341.511459
  0
ARC
  8
0
  6
BYLAYER
 62
     1
 10
449.300341
 20
-324.052901
 30
0.0
 40
155.0
 50
18.488541
 51
26.511459
  0
ARC
  8
0
  6
BYLAYER
 62
     1
 10
449.300341
 20
-324.052901
 30
0.0
 40
155.000000
 50
63.488541
 51
71.511459
  0
ARC
  8
0
  6
BYLAYER
 62
     1
 10
449.300341
 20
-324.052901
 30
0.0
 40
155.000000
 50
108.488541
 51
116.511459
  0
ARC
  8
0
  6
BYLAYER
 62
     1
 10
449.300341
 20
-324.052901
 30
0.0
 40
155.000000
 50
153.488541
 51
161.511459
  0
ARC
  8
0
  6
BYLAYER
 62
     1
 10
449.300341
 20
-324.052901
 30
0.0
 40
155.000000
 50
198.488541
 51
206.511459
  0
LINE
  8
0
  6
BYLAYER
 62
     1
 10
302.300341
 20
-373.205724
 30
0.0
 11
302.300341
 21
-274.900078
 31
0.0
  0
CIRCLE
  8
0
  6
BYLAYER
 62
     1
 10
449.300341
 20
-216.552901
 30
0.0
 40
5.125
  0
ARC
  8
0
  6
BYLAYER
 62
     1
 10
449.300341
 20
-216.552901
 30
0.0
 40
6.0
 50
352.999995
 51
636.999988
  0
CIRCLE
  8
0
  6
BYLAYER
 62
     1
 10
525.314320
 20
-248.038922
 30
0.0
 40
5.125
  0
ARC
  8
0
  6
BYLAYER
 62
     1
 10
525.314320
 20
-248.038922
 30
0.0
 40
6.000000
 50
352.999995
 51
636.999988
  0
CIRCLE
  8
0
  6
BYLAYER
 62
     1
 10
373.286362
 20
-248.038922
 30
0.0
 40
5.125
  0
ARC
  8
0
  6
BYLAYER
 62
     1
 10
373.286362
 20
-248.038922
 30
0.0
 40
6.000000
 50
352.999995
 51
636.999988
  0
CIRCLE
  8
0
  6
BYLAYER
 62
     1
 10
341.800341
 20
-324.052901
 30
0.0
 40
5.125
  0
ARC
  8
0
  6
BYLAYER
 62
     1
 10
341.800341
 20
-324.052901
 30
0.0
 40
6.000000
 50
352.999995
 51
636.999988
  0
CIRCLE
  8
0
  6
BYLAYER
 62
     1
 10
373.286362
 20
-400.066880
 30
0.0
 40
5.125
  0
ARC
  8
0
  6
BYLAYER
 62
     1
 10
373.286362
 20
-400.066880
 30
0.0
 40
6.0
 50
352.999995
 51
636.999988
  0
CIRCLE
  8
0
  6
BYLAYER
 62
     1
 10
449.300341
 20
-431.552901
 30
0.0
 40
5.125
  0
ARC
  8
0
  6
BYLAYER
 62
     1
 10
449.300341
 20
-431.552901
 30
0.0
 40
6.0
 50
352.999995
 51
636.999988
  0
CIRCLE
  8
0
  6
BYLAYER
 62
     1
 10
525.314320
 20
-400.066880
 30
0.0
 40
5.125
  0
ARC
  8
0
  6
BYLAYER
 62
     1
 10
525.314320
 20
-400.066880
 30
0.0
 40
6.0
 50
352.999995
 51
636.999988
  0
CIRCLE
  8
0
  6
BYLAYER
 62
     1
 10
556.800341
 20
-324.052901
 30
0.0
 40
5.125
  0
ARC
  8
0
  6
BYLAYER
 62
     1
 10
556.800341
 20
-324.052901
 30
0.0
 40
6.000000
 50
352.999995
 51
636.999988
  0
ARC
  8
0
  6
BYLAYER
 62
     1
 10
426.177995
 20
-137.867127
 30
0.0
 40
4.041492
 50
270.0
 51
316.109984
  0
ARC
  8
0
  6
BYLAYER
 62
     1
 10
425.765954
 20
-137.470749
 30
0.0
 40
4.613237
 50
316.109984
 51
360.000000
  0
ARC
  8
0
  6
BYLAYER
 62
     1
 10
425.765954
 20
-137.470749
 30
0.0
 40
4.613237
 50
0.0
 51
43.890016
  0
ARC
  8
0
  6
BYLAYER
 62
     1
 10
426.177995
 20
-137.074372
 30
0.0
 40
4.041492
 50
43.890016
 51
90.000000
  0
ARC
  8
0
  6
BYLAYER
 62
     1
 10
426.177995
 20
-137.074336
 30
0.0
 40
4.041457
 50
90.0
 51
136.110087
  0
ARC
  8
0
  6
BYLAYER
 62
     1
 10
426.590074
 20
-137.470749
 30
0.0
 40
4.613254
 50
136.110087
 51
180.000000
  0
ARC
  8
0
  6
BYLAYER
 62
     1
 10
426.590074
 20
-137.470749
 30
0.0
 40
4.613254
 50
180.000000
 51
223.889913
  0
ARC
  8
0
  6
BYLAYER
 62
     1
 10
426.177995
 20
-137.867162
 30
0.0
 40
4.041457
 50
223.889913
 51
270.000000
  0
ARC
  8
0
  6
BYLAYER
 62
     1
 10
426.177995
 20
-136.290338
 30
0.0
 40
1.861645
 50
90.0
 51
140.793201
  0
ARC
  8
0
  6
BYLAYER
 62
     1
 10
427.624971
 20
-137.470749
 30
0.0
 40
3.729026
 50
140.793201
 51
180.0
  0
ARC
  8
0
  6
BYLAYER
 62
     1
 10
427.624949
 20
-137.470749
 30
0.0
 40
3.729004
 50
180.000000
 51
219.206869
  0
ARC
  8
0
  6
BYLAYER
 62
     1
 10
426.177995
 20
-138.651145
 30
0.0
 40
1.861650
 50
219.206869
 51
270.000000
  0
ARC
  8
0
  6
BYLAYER
 62
     1
 10
426.177995
 20
-138.651145
 30
0.0
 40
1.861650
 50
270.0
 51
320.793131
  0
ARC
  8
0
  6
BYLAYER
 62
     1
 10
424.731041
 20
-137.470749
 30
0.0
 40
3.729004
 50
320.793131
 51
360.0
  0
ARC
  8
0
  6
BYLAYER
 62
     1
 10
424.731018
 20
-137.470749
 30
0.0
 40
3.729026
 50
0.0
 51
39.206799
  0
ARC
  8
0
  6
BYLAYER
 62
     1
 10
426.177995
 20
-136.290338
 30
0.0
 40
1.861645
 50
39.206799
 51
90.000000
  0
LINE
  8
0
  6
BYLAYER
 62
     1
 10
412.391020
 20
-141.612750
 30
0.0
 11
412.391020
 21
-133.210379
 31
0.0
  0
LINE
  8
0
  6
BYLAYER
 62
     1
 10
412.391020
 20
-133.210379
 30
0.0
 11
415.807194
 21
-133.210379
 31
0.0
  0
LINE
  8
0
  6
BYLAYER
 62
     1
 10
415.807194
 20
-133.210379
 30
0.0
 11
416.947236
 21
-137.589096
 31
0.0
  0
LINE
  8
0
  6
BYLAYER
 62
     1
 10
412.391020
 20
-141.612750
 30
0.0
 11
414.442314
 21
-141.612750
 31
0.0
  0
LINE
  8
0
  6
BYLAYER
 62
     1
 10
414.442314
 20
-141.612750
 30
0.0
 11
414.442314
 21
-136.760687
 31
0.0
  0
LINE
  8
0
  6
BYLAYER
 62
     1
 10
416.059654
 20
-141.612750
 30
0.0
 11
414.442314
 21
-136.760687
 31
0.0
  0
LINE
  8
0
  6
BYLAYER
 62
     1
 10
421.503453
 20
-141.612750
 30
0.0
 11
421.503453
 21
-133.210379
 31
0.0
  0
LINE
  8
0
  6
BYLAYER
 62
     1
 10
421.503453
 20
-133.210379
 30
0.0
 11
418.087278
 21
-133.210379
 31
0.0
  0
LINE
  8
0
  6
BYLAYER
 62
     1
 10
418.087278
 20
-133.210379
 30
0.0
 11
416.947236
 21
-137.589096
 31
0.0
  0
LINE
  8
0
  6
BYLAYER
 62
     1
 10
421.503453
 20
-141.612750
 30
0.0
 11
419.452159
 21
-141.612750
 31
0.0
  0
LINE
  8
0
  6
BYLAYER
 62
     1
 10
419.452159
 20
-141.612750
 30
0.0
 11
419.452159
 21
-136.760687
 31
0.0
  0
LINE
  8
0
  6
BYLAYER
 62
     1
 10
417.834819
 20
-141.612750
 30
0.0
 11
419.452159
 21
-136.760687
 31
0.0
  0
LINE
  8
0
  6
BYLAYER
 62
     1
 10
417.834819
 20
-141.612750
 30
0.0
 11
416.059654
 21
-141.612750
 31
0.0
  0
LINE
  8
0
  6
BYLAYER
 62
     1
 10
451.562629
 20
-141.612750
 30
0.0
 11
454.757875
 21
-133.210379
 31
0.0
  0
LINE
  8
0
  6
BYLAYER
 62
     1
 10
451.562629
 20
-141.612750
 30
0.0
 11
454.284529
 21
-141.612750
 31
0.0
  0
LINE
  8
0
  6
BYLAYER
 62
     1
 10
454.757875
 20
-133.210379
 30
0.0
 11
457.361427
 21
-133.210379
 31
0.0
  0
LINE
  8
0
  6
BYLAYER
 62
     1
 10
454.284529
 20
-141.612750
 30
0.0
 11
454.687977
 21
-140.429321
 31
0.0
  0
LINE
  8
0
  6
BYLAYER
 62
     1
 10
455.333461
 20
-138.535831
 30
0.0
 11
456.059651
 21
-136.405646
 31
0.0
  0
LINE
  8
0
  6
BYLAYER
 62
     1
 10
460.556715
 20
-141.612750
 30
0.0
 11
457.361427
 21
-133.210379
 31
0.0
  0
LINE
  8
0
  6
BYLAYER
 62
     1
 10
460.556715
 20
-141.612750
 30
0.0
 11
457.834816
 21
-141.612750
 31
0.0
  0
LINE
  8
0
  6
BYLAYER
 62
     1
 10
457.431367
 20
-140.429321
 30
0.0
 11
454.687977
 21
-140.429321
 31
0.0
  0
LINE
  8
0
  6
BYLAYER
 62
     1
 10
456.785841
 20
-138.535831
 30
0.0
 11
455.333461
 21
-138.535831
 31
0.0
  0
LINE
  8
0
  6
BYLAYER
 62
     1
 10
457.834816
 20
-141.612750
 30
0.0
 11
457.431367
 21
-140.429321
 31
0.0
  0
LINE
  8
0
  6
BYLAYER
 62
     1
 10
456.785841
 20
-138.535831
 30
0.0
 11
456.059651
 21
-136.405646
 31
0.0
  0
LINE
  8
0
  6
BYLAYER
 62
     1
 10
430.379191
 20
-135.281391
 30
0.0
 11
432.746049
 21
-135.281391
 31
0.0
  0
LINE
  8
0
  6
BYLAYER
 62
     1
 10
432.746049
 20
-135.281391
 30
0.0
 11
432.746049
 21
-141.612750
 31
0.0
  0
LINE
  8
0
  6
BYLAYER
 62
     1
 10
432.746049
 20
-141.612750
 30
0.0
 11
435.349623
 21
-141.612750
 31
0.0
  0
LINE
  8
0
  6
BYLAYER
 62
     1
 10
435.349623
 20
-141.612750
 30
0.0
 11
435.349623
 21
-135.281391
 31
0.0
  0
LINE
  8
0
  6
BYLAYER
 62
     1
 10
435.349623
 20
-135.281391
 30
0.0
 11
437.716481
 21
-135.281391
 31
0.0
  0
LINE
  8
0
  6
BYLAYER
 62
     1
 10
437.716481
 20
-135.281391
 30
0.0
 11
437.716481
 21
-133.210379
 31
0.0
  0
LINE
  8
0
  6
BYLAYER
 62
     1
 10
437.716481
 20
-133.210379
 30
0.0
 11
430.379191
 21
-133.210379
 31
0.0
  0
LINE
  8
0
  6
BYLAYER
 62
     1
 10
430.379191
 20
-133.210379
 30
0.0
 11
430.379191
 21
-135.281391
 31
0.0
  0
ARC
  8
0
  6
BYLAYER
 62
     1
 10
441.917655
 20
-137.867162
 30
0.0
 40
4.041457
 50
270.0
 51
316.110087
  0
ARC
  8
0
  6
BYLAYER
 62
     1
 10
441.505577
 20
-137.470749
 30
0.0
 40
4.613254
 50
316.110087
 51
360.0
  0
ARC
  8
0
  6
BYLAYER
 62
     1
 10
441.505593
 20
-137.470749
 30
0.0
 40
4.613237
 50
0.0
 51
43.890016
  0
ARC
  8
0
  6
BYLAYER
 62
     1
 10
441.917634
 20
-137.074372
 30
0.0
 40
4.041492
 50
43.890016
 51
90.000000
  0
ARC
  8
0
  6
BYLAYER
 62
     1
 10
441.917634
 20
-137.074336
 30
0.0
 40
4.041457
 50
90.0
 51
136.110087
  0
ARC
  8
0
  6
BYLAYER
 62
     1
 10
442.329713
 20
-137.470749
 30
0.0
 40
4.613254
 50
136.110087
 51
180.000000
  0
ARC
  8
0
  6
BYLAYER
 62
     1
 10
442.329696
 20
-137.470749
 30
0.0
 40
4.613237
 50
180.000000
 51
223.890016
  0
ARC
  8
0
  6
BYLAYER
 62
     1
 10
441.917655
 20
-137.867127
 30
0.0
 40
4.041492
 50
223.890016
 51
270.000000
  0
ARC
  8
0
  6
BYLAYER
 62
     1
 10
441.917634
 20
-136.290338
 30
0.0
 40
1.861645
 50
90.0
 51
140.793201
  0
ARC
  8
0
  6
BYLAYER
 62
     1
 10
443.364611
 20
-137.470749
 30
0.0
 40
3.729026
 50
140.793201
 51
180.0
  0
ARC
  8
0
  6
BYLAYER
 62
     1
 10
443.364563
 20
-137.470749
 30
0.0
 40
3.728979
 50
180.000000
 51
219.207055
  0
ARC
  8
0
  6
BYLAYER
 62
     1
 10
441.917655
 20
-138.651115
 30
0.0
 40
1.861680
 50
219.207055
 51
270.000000
  0
ARC
  8
0
  6
BYLAYER
 62
     1
 10
441.917655
 20
-138.651145
 30
0.0
 40
1.861650
 50
270.0
 51
320.793131
  0
ARC
  8
0
  6
BYLAYER
 62
     1
 10
440.470701
 20
-137.470749
 30
0.0
 40
3.729004
 50
320.793131
 51
360.0
  0
ARC
  8
0
  6
BYLAYER
 62
     1
 10
440.470704
 20
-137.470749
 30
0.0
 40
3.729001
 50
0.0
 51
39.206985
  0
ARC
  8
0
  6
BYLAYER
 62
     1
 10
441.917634
 20
-136.290368
 30
0.0
 40
1.861675
 50
39.206985
 51
90.0
  0
LINE
  8
0
  6
BYLAYER
 62
     1
 10
460.783497
 20
-141.612750
 30
0.0
 11
460.783497
 21
-133.210379
 31
0.0
  0
LINE
  8
0
  6
BYLAYER
 62
     1
 10
460.783497
 20
-133.210379
 30
0.0
 11
465.990580
 21
-133.210379
 31
0.0
  0
ARC
  8
0
  6
BYLAYER
 62
     1
 10
465.990580
 20
-135.577258
 30
0.0
 40
2.366854
 50
287.134650
 51
450.000006
  0
ARC
  8
0
  6
BYLAYER
 62
     1
 10
466.463969
 20
-139.719260
 30
0.0
 40
1.893491
 50
0.0
 51
83.207557
  0
LINE
  8
0
  6
BYLAYER
 62
     1
 10
468.357460
 20
-139.719260
 30
0.0
 11
468.357460
 21
-140.902689
 31
0.0
  0
ARC
  8
0
  6
BYLAYER
 62
     1
 10
470.250950
 20
-140.902689
 30
0.0
 40
1.893491
 50
180.000000
 51
202.024314
  0
LINE
  8
0
  6
BYLAYER
 62
     1
 10
465.892079
 20
-141.612750
 30
0.0
 11
468.495631
 21
-141.612750
 31
0.0
  0
ARC
  8
0
  6
BYLAYER
 62
     1
 10
467.647398
 20
-140.902689
 30
0.0
 40
1.893491
 50
180.000000
 51
202.024314
  0
LINE
  8
0
  6
BYLAYER
 62
     1
 10
465.753907
 20
-140.902689
 30
0.0
 11
465.753907
 21
-139.955954
 31
0.0
  0
LINE
  8
0
  6
BYLAYER
 62
     1
 10
460.783497
 20
-141.612750
 30
0.0
 11
463.268702
 21
-141.612750
 31
0.0
  0
LINE
  8
0
  6
BYLAYER
 62
     1
 10
463.268702
 20
-141.612750
 30
0.0
 11
463.268702
 21
-138.772525
 31
0.0
  0
LINE
  8
0
  6
BYLAYER
 62
     1
 10
464.570478
 20
-138.772525
 30
0.0
 11
463.268702
 21
-138.772525
 31
0.0
  0
ARC
  8
0
  6
BYLAYER
 62
     1
 10
464.570478
 20
-139.955954
 30
0.0
 40
1.183429
 50
0.0
 51
90.000003
  0
LINE
  8
0
  6
BYLAYER
 62
     1
 10
463.268702
 20
-136.879035
 30
0.0
 11
463.268702
 21
-135.103870
 31
0.0
  0
LINE
  8
0
  6
BYLAYER
 62
     1
 10
463.268702
 20
-135.103870
 30
0.0
 11
464.925498
 21
-135.103870
 31
0.0
  0
LINE
  8
0
  6
BYLAYER
 62
     1
 10
463.268702
 20
-136.879035
 30
0.0
 11
464.925498
 21
-136.879035
 31
0.0
  0
ARC
  8
0
  6
BYLAYER
 62
     1
 10
464.925498
 20
-135.991452
 30
0.0
 40
0.887582
 50
270.0
 51
450.000005
  0
LINE
  8
0
  6
BYLAYER
 62
     1
 10
449.491639
 20
-138.955835
 30
0.0
 11
447.953169
 21
-133.210379
 31
0.0
  0
LINE
  8
0
  6
BYLAYER
 62
     1
 10
447.953169
 20
-133.210379
 30
0.0
 11
445.467964
 21
-133.210379
 31
0.0
  0
LINE
  8
0
  6
BYLAYER
 62
     1
 10
445.467964
 20
-133.210379
 30
0.0
 11
448.071516
 21
-141.612750
 31
0.0
  0
LINE
  8
0
  6
BYLAYER
 62
     1
 10
449.491639
 20
-138.955835
 30
0.0
 11
451.030067
 21
-133.210379
 31
0.0
  0
LINE
  8
0
  6
BYLAYER
 62
     1
 10
451.030067
 20
-133.210379
 30
0.0
 11
453.515272
 21
-133.210379
 31
0.0
  0
LINE
  8
0
  6
BYLAYER
 62
     1
 10
453.515272
 20
-133.210379
 30
0.0
 11
450.911720
 21
-141.612750
 31
0.0
  0
LINE
  8
0
  6
BYLAYER
 62
     1
 10
450.911720
 20
-141.612750
 30
0.0
 11
448.071516
 21
-141.612750
 31
0.0
  0
LINE
  8
0
  6
BYLAYER
 62
     1
 10
468.722413
 20
-141.612750
 30
0.0
 11
471.207618
 21
-141.612750
 31
0.0
  0
LINE
  8
0
  6
BYLAYER
 62
     1
 10
471.207618
 20
-141.612750
 30
0.0
 11
471.207618
 21
-133.210379
 31
0.0
  0
LINE
  8
0
  6
BYLAYER
 62
     1
 10
471.207618
 20
-133.210379
 30
0.0
 11
468.722413
 21
-133.210379
 31
0.0
  0
LINE
  8
0
  6
BYLAYER
 62
     1
 10
468.722413
 20
-133.210379
 30
0.0
 11
468.722413
 21
-141.612750
 31
0.0
  0
ARC
  8
0
  6
BYLAYER
 62
     1
 10
475.882182
 20
-137.867162
 30
0.0
 40
4.041457
 50
270.0
 51
316.110087
  0
ARC
  8
0
  6
BYLAYER
 62
     1
 10
475.470103
 20
-137.470749
 30
0.0
 40
4.613254
 50
316.110087
 51
360.0
  0
ARC
  8
0
  6
BYLAYER
 62
     1
 10
475.470103
 20
-137.470749
 30
0.0
 40
4.613254
 50
0.0
 51
43.889913
  0
ARC
  8
0
  6
BYLAYER
 62
     1
 10
475.882182
 20
-137.074336
 30
0.0
 40
4.041457
 50
43.889913
 51
90.000000
  0
ARC
  8
0
  6
BYLAYER
 62
     1
 10
475.882182
 20
-137.074336
 30
0.0
 40
4.041457
 50
90.0
 51
136.110087
  0
ARC
  8
0
  6
BYLAYER
 62
     1
 10
476.294261
 20
-137.470749
 30
0.0
 40
4.613254
 50
136.110087
 51
180.000000
  0
ARC
  8
0
  6
BYLAYER
 62
     1
 10
476.294261
 20
-137.470749
 30
0.0
 40
4.613254
 50
180.000000
 51
223.889913
  0
ARC
  8
0
  6
BYLAYER
 62
     1
 10
475.882182
 20
-137.867162
 30
0.0
 40
4.041457
 50
223.889913
 51
270.000000
  0
ARC
  8
0
  6
BYLAYER
 62
     1
 10
475.882182
 20
-136.290338
 30
0.0
 40
1.861645
 50
39.206799
 51
90.000000
  0
ARC
  8
0
  6
BYLAYER
 62
     1
 10
474.435205
 20
-137.470749
 30
0.0
 40
3.729026
 50
0.0
 51
39.206799
  0
ARC
  8
0
  6
BYLAYER
 62
     1
 10
474.435228
 20
-137.470749
 30
0.0
 40
3.729004
 50
320.793131
 51
360.0
  0
ARC
  8
0
  6
BYLAYER
 62
     1
 10
475.882182
 20
-138.651145
 30
0.0
 40
1.861650
 50
270.0
 51
320.793131
  0
ARC
  8
0
  6
BYLAYER
 62
     1
 10
475.882182
 20
-138.651145
 30
0.0
 40
1.861650
 50
219.206869
 51
270.000000
  0
ARC
  8
0
  6
BYLAYER
 62
     1
 10
477.329136
 20
-137.470749
 30
0.0
 40
3.729004
 50
180.000000
 51
219.206869
  0
ARC
  8
0
  6
BYLAYER
 62
     1
 10
477.329158
 20
-137.470749
 30
0.0
 40
3.729026
 50
140.793201
 51
180.000000
  0
ARC
  8
0
  6
BYLAYER
 62
     1
 10
475.882182
 20
-136.290338
 30
0.0
 40
1.861645
 50
90.0
 51
140.793201
  0
ARC
  8
0
  6
BYLAYER
 62
     1
 10
433.921574
 20
-123.591361
 30
0.0
 40
10.401993
 50
174.535650
 51
180.000000
  0
LINE
  8
0
  6
BYLAYER
 62
     1
 10
423.566848
 20
-122.600812
 30
0.0
 11
423.566848
 21
-122.600801
 31
0.0
  0
LINE
  8
0
  6
BYLAYER
 62
     1
 10
423.578167
 20
-122.488909
 30
0.0
 11
424.570911
 21
-122.070949
 31
0.0
  0
ARC
  8
0
  6
BYLAYER
 62
     1
 10
433.921617
 20
-123.591446
 30
0.0
 40
9.473494
 50
159.235383
 51
170.763998
  0
LINE
  8
0
  6
BYLAYER
 62
     1
 10
425.063432
 20
-120.232755
 30
0.0
 11
424.412714
 21
-119.374396
 31
0.0
  0
ARC
  8
0
  6
BYLAYER
 62
     1
 10
433.921574
 20
-123.591361
 30
0.0
 40
10.401981
 50
144.139514
 51
156.083795
  0
LINE
  8
0
  6
BYLAYER
 62
     1
 10
425.422923
 20
-117.593488
 30
0.0
 11
425.423542
 21
-117.592612
 31
0.0
  0
LINE
  8
0
  6
BYLAYER
 62
     1
 10
425.491332
 20
-117.497739
 30
0.0
 11
426.548227
 21
-117.643149
 31
0.0
  0
ARC
  8
0
  6
BYLAYER
 62
     1
 10
433.921574
 20
-123.591361
 30
0.0
 40
9.473437
 50
129.235643
 51
141.105976
  0
LINE
  8
0
  6
BYLAYER
 62
     1
 10
427.774613
 20
-116.382961
 30
0.0
 11
427.775639
 21
-116.382074
 31
0.0
  0
LINE
  8
0
  6
BYLAYER
 62
     1
 10
427.929518
 20
-116.253699
 30
0.0
 11
427.795127
 21
-115.184930
 31
0.0
  0
ARC
  8
0
  6
BYLAYER
 62
     1
 10
433.921574
 20
-123.591361
 30
0.0
 40
10.401992
 50
114.139607
 51
126.083853
  0
LINE
  8
0
  6
BYLAYER
 62
     1
 10
429.561207
 20
-114.147385
 30
0.0
 11
429.561912
 21
-114.147054
 31
0.0
  0
LINE
  8
0
  6
BYLAYER
 62
     1
 10
429.667561
 20
-114.099005
 30
0.0
 11
430.510122
 21
-114.753357
 31
0.0
  0
LINE
  8
0
  6
BYLAYER
 62
     1
 10
430.702766
 20
-114.681506
 30
0.0
 11
430.703834
 21
-114.681133
 31
0.0
  0
ARC
  8
0
  6
BYLAYER
 62
     1
 10
433.921574
 20
-123.591361
 30
0.0
 40
9.473434
 50
99.235601
 51
111.106038
  0
ARC
  8
0
  6
BYLAYER
 62
     1
 10
433.921574
 20
-123.591361
 30
0.0
 40
10.401993
 50
90.0
 51
96.083892
  0
LINE
  8
0
  6
BYLAYER
 62
     1
 10
432.819123
 20
-113.247954
 30
0.0
 11
432.401140
 21
-114.240733
 31
0.0
  0
LINE
  8
0
  6
BYLAYER
 62
     1
 10
444.276289
 20
-122.600812
 30
0.0
 11
444.276289
 21
-122.600801
 31
0.0
  0
LINE
  8
0
  6
BYLAYER
 62
     1
 10
444.264980
 20
-122.488908
 30
0.0
 11
443.272186
 21
-122.070939
 31
0.0
  0
ARC
  8
0
  6
BYLAYER
 62
     1
 10
433.921510
 20
-123.591446
 30
0.0
 40
9.473494
 50
9.235986
 51
20.764650
  0
LINE
  8
0
  6
BYLAYER
 62
     1
 10
442.779763
 20
-120.232656
 30
0.0
 11
443.430435
 21
-119.374399
 31
0.0
  0
ARC
  8
0
  6
BYLAYER
 62
     1
 10
433.921574
 20
-123.591361
 30
0.0
 40
10.401981
 50
23.916189
 51
35.860484
  0
LINE
  8
0
  6
BYLAYER
 62
     1
 10
442.420204
 20
-117.593488
 30
0.0
 11
442.419584
 21
-117.592612
 31
0.0
  0
LINE
  8
0
  6
BYLAYER
 62
     1
 10
442.351816
 20
-117.497739
 30
0.0
 11
441.294995
 21
-117.643135
 31
0.0
  0
ARC
  8
0
  6
BYLAYER
 62
     1
 10
433.921574
 20
-123.591361
 30
0.0
 40
9.473437
 50
38.894050
 51
50.764315
  0
LINE
  8
0
  6
BYLAYER
 62
     1
 10
440.068534
 20
-116.382961
 30
0.0
 11
440.067509
 21
-116.382074
 31
0.0
  0
LINE
  8
0
  6
BYLAYER
 62
     1
 10
439.913657
 20
-116.253528
 30
0.0
 11
440.047998
 21
-115.184913
 31
0.0
  0
ARC
  8
0
  6
BYLAYER
 62
     1
 10
433.921574
 20
-123.591361
 30
0.0
 40
10.401992
 50
53.916300
 51
65.860381
  0
LINE
  8
0
  6
BYLAYER
 62
     1
 10
438.281941
 20
-114.147385
 30
0.0
 11
438.281214
 21
-114.147054
 31
0.0
  0
LINE
  8
0
  6
BYLAYER
 62
     1
 10
438.175589
 20
-114.099006
 30
0.0
 11
437.333036
 21
-114.753328
 31
0.0
  0
LINE
  8
0
  6
BYLAYER
 62
     1
 10
437.140361
 20
-114.681506
 30
0.0
 11
437.139314
 21
-114.681133
 31
0.0
  0
ARC
  8
0
  6
BYLAYER
 62
     1
 10
433.921574
 20
-123.591361
 30
0.0
 40
9.473434
 50
68.894081
 51
80.764578
  0
ARC
  8
0
  6
BYLAYER
 62
     1
 10
433.921574
 20
-123.591361
 30
0.0
 40
10.401993
 50
84.535428
 51
90.000003
  0
LINE
  8
0
  6
BYLAYER
 62
     1
 10
435.024028
 20
-113.247954
 30
0.0
 11
435.441910
 21
-114.240564
 31
0.0
  0
ARC
  8
0
  6
BYLAYER
 62
     1
 10
433.921574
 20
-123.591361
 30
0.0
 40
10.401993
 50
180.000000
 51
186.083899
  0
LINE
  8
0
  6
BYLAYER
 62
     1
 10
423.566848
 20
-124.581899
 30
0.0
 11
423.566848
 21
-124.581920
 31
0.0
  0
LINE
  8
0
  6
BYLAYER
 62
     1
 10
423.578167
 20
-124.693812
 30
0.0
 11
424.570941
 21
-125.111784
 31
0.0
  0
ARC
  8
0
  6
BYLAYER
 62
     1
 10
433.921617
 20
-123.591275
 30
0.0
 40
9.473494
 50
189.236002
 51
200.764629
  0
LINE
  8
0
  6
BYLAYER
 62
     1
 10
425.063467
 20
-126.949924
 30
0.0
 11
424.412710
 21
-127.808318
 31
0.0
  0
ARC
  8
0
  6
BYLAYER
 62
     1
 10
433.921574
 20
-123.591361
 30
0.0
 40
10.401981
 50
203.916158
 51
215.860410
  0
LINE
  8
0
  6
BYLAYER
 62
     1
 10
425.422923
 20
-129.589223
 30
0.0
 11
425.423542
 21
-129.590099
 31
0.0
  0
LINE
  8
0
  6
BYLAYER
 62
     1
 10
425.491324
 20
-129.684971
 30
0.0
 11
426.548318
 21
-129.539563
 31
0.0
  0
ARC
  8
0
  6
BYLAYER
 62
     1
 10
433.921574
 20
-123.591361
 30
0.0
 40
9.473437
 50
218.894045
 51
230.764345
  0
LINE
  8
0
  6
BYLAYER
 62
     1
 10
427.774613
 20
-130.799750
 30
0.0
 11
427.775639
 21
-130.800636
 31
0.0
  0
LINE
  8
0
  6
BYLAYER
 62
     1
 10
427.929517
 20
-130.929021
 30
0.0
 11
427.795127
 21
-131.997792
 31
0.0
  0
ARC
  8
0
  6
BYLAYER
 62
     1
 10
433.921574
 20
-123.591361
 30
0.0
 40
10.401992
 50
233.916148
 51
245.860401
  0
LINE
  8
0
  6
BYLAYER
 62
     1
 10
429.561207
 20
-133.035326
 30
0.0
 11
429.561912
 21
-133.035668
 31
0.0
  0
LINE
  8
0
  6
BYLAYER
 62
     1
 10
429.667562
 20
-133.083716
 30
0.0
 11
430.510222
 21
-132.429272
 31
0.0
  0
LINE
  8
0
  6
BYLAYER
 62
     1
 10
430.702766
 20
-132.501204
 30
0.0
 11
430.703834
 21
-132.501589
 31
0.0
  0
LINE
  8
0
  6
BYLAYER
 62
     1
 10
444.276289
 20
-124.581899
 30
0.0
 11
444.276289
 21
-124.581920
 31
0.0
  0
LINE
  8
0
  6
BYLAYER
 62
     1
 10
444.264979
 20
-124.693814
 30
0.0
 11
443.272186
 21
-125.111782
 31
0.0
  0
LINE
  8
0
  6
BYLAYER
 62
     1
 10
442.779672
 20
-126.949948
 30
0.0
 11
443.430446
 21
-127.808325
 31
0.0
  0
LINE
  8
0
  6
BYLAYER
 62
     1
 10
442.420204
 20
-129.589223
 30
0.0
 11
442.419584
 21
-129.590099
 31
0.0
  0
LINE
  8
0
  6
BYLAYER
 62
     1
 10
442.351837
 20
-129.684972
 30
0.0
 11
441.294773
 21
-129.539559
 31
0.0
  0
LINE
  8
0
  6
BYLAYER
 62
     1
 10
440.068534
 20
-130.799750
 30
0.0
 11
440.067509
 21
-130.800636
 31
0.0
  0
LINE
  8
0
  6
BYLAYER
 62
     1
 10
439.913637
 20
-130.929017
 30
0.0
 11
440.047998
 21
-131.997808
 31
0.0
  0
LINE
  8
0
  6
BYLAYER
 62
     1
 10
438.175588
 20
-133.083715
 30
0.0
 11
437.332908
 21
-132.429280
 31
0.0
  0
ARC
  8
0
  6
BYLAYER
 62
     1
 10
433.921574
 20
-123.591361
 30
0.0
 40
9.473437
 50
309.235697
 51
321.105929
  0
ARC
  8
0
  6
BYLAYER
 62
     1
 10
433.921574
 20
-123.591361
 30
0.0
 40
9.473434
 50
248.893873
 51
270.000000
  0
ARC
  8
0
  6
BYLAYER
 62
     1
 10
433.921574
 20
-123.591361
 30
0.0
 40
10.401992
 50
294.783232
 51
306.083699
  0
LINE
  8
0
  6
BYLAYER
 62
     1
 10
438.281214
 20
-133.035668
 30
0.0
 11
438.176228
 21
-133.085072
 31
0.0
  0
ARC
  8
0
  6
BYLAYER
 62
     1
 10
433.921574
 20
-123.591361
 30
0.0
 40
10.401981
 50
324.139593
 51
336.083825
  0
ARC
  8
0
  6
BYLAYER
 62
     1
 10
433.921510
 20
-123.591275
 30
0.0
 40
9.473494
 50
339.235210
 51
350.764014
  0
ARC
  8
0
  6
BYLAYER
 62
     1
 10
433.921574
 20
-123.591361
 30
0.0
 40
10.401993
 50
353.916089
 51
360.0
  0
ARC
  8
0
  6
BYLAYER
 62
     1
 10
433.921574
 20
-123.591361
 30
0.0
 40
10.401993
 50
0.0
 51
6.083907
  0
ARC
  8
0
  6
BYLAYER
 62
     1
 10
433.921574
 20
-123.591361
 30
0.0
 40
9.473434
 50
270.0
 51
291.106008
  0
CIRCLE
  8
0
  6
BYLAYER
 62
     1
 10
433.921574
 20
-123.591361
 30
0.0
 40
5.082113
  0
CIRCLE
  8
0
  6
BYLAYER
 62
     1
 10
433.921574
 20
-123.591361
 30
0.0
 40
7.414445
  0
LINE
  8
0
  6
BYLAYER
 62
     1
 10
1491.800341
 20
-839.052901
 30
0.0
 11
1491.800341
 21
-764.052901
 31
0.0
  0
LINE
  8
0
  6
BYLAYER
 62
     1
 10
1491.800341
 20
-1164.052901
 30
0.0
 11
1306.800341
 21
-1164.052901
 31
0.0
  0
LINE
  8
0
  6
BYLAYER
 62
     1
 10
1491.800341
 20
-764.052901
 30
0.0
 11
1306.800341
 21
-764.052901
 31
0.0
  0
LINE
  8
0
  6
BYLAYER
 62
     1
 10
1306.800341
 20
-839.052901
 30
0.0
 11
1306.800341
 21
-764.052901
 31
0.0
  0
LINE
  8
0
  6
BYLAYER
 62
     1
 10
1303.300341
 20
-869.052901
 30
0.0
 11
1319.300341
 21
-868.214377
 31
0.0
  0
LINE
  8
0
  6
BYLAYER
 62
     1
 10
1306.800341
 20
-839.052901
 30
0.0
 11
1319.300341
 21
-851.552901
 31
0.0
  0
LINE
  8
0
  6
BYLAYER
 62
     1
 10
1319.300341
 20
-1076.552901
 30
0.0
 11
1319.300341
 21
-851.552901
 31
0.0
  0
LINE
  8
0
  6
BYLAYER
 62
     1
 10
1491.800341
 20
-839.052901
 30
0.0
 11
1479.300341
 21
-851.552901
 31
0.0
  0
LINE
  8
0
  6
BYLAYER
 62
     1
 10
1479.300341
 20
-851.552901
 30
0.0
 11
1479.300341
 21
-1076.552901
 31
0.0
  0
LINE
  8
0
  6
BYLAYER
 62
     1
 10
1491.800341
 20
-1089.052901
 30
0.0
 11
1491.800341
 21
-1164.052901
 31
0.0
  0
LINE
  8
0
  6
BYLAYER
 62
     1
 10
1491.800341
 20
-1089.052901
 30
0.0
 11
1479.300341
 21
-1076.552901
 31
0.0
  0
LINE
  8
0
  6
BYLAYER
 62
     1
 10
1306.800341
 20
-1089.052901
 30
0.0
 11
1306.800341
 21
-1164.052901
 31
0.0
  0
LINE
  8
0
  6
BYLAYER
 62
     1
 10
1306.800341
 20
-1089.052901
 30
0.0
 11
1319.300341
 21
-1076.552901
 31
0.0
  0
LINE
  8
0
  6
BYLAYER
 62
     1
 10
1306.800341
 20
-1089.052901
 30
0.0
 11
1399.300341
 21
-1084.205181
 31
0.0
  0
LINE
  8
0
  6
BYLAYER
 62
     1
 10
1491.800341
 20
-1089.052901
 30
0.0
 11
1399.300341
 21
-1084.205181
 31
0.0
  0
LINE
  8
0
  6
BYLAYER
 62
     1
 10
1306.800341
 20
-839.052901
 30
0.0
 11
1338.958189
 21
-840.738222
 31
0.0
  0
ARC
  8
0
  6
BYLAYER
 62
     1
 10
1338.801181
 20
-843.734111
 30
0.0
 40
3.000000
 50
359.698092
 51
447.000000
  0
LINE
  8
0
  6
BYLAYER
 62
     1
 10
1491.800341
 20
-839.052901
 30
0.0
 11
1459.642493
 21
-840.738222
 31
0.0
  0
ARC
  8
0
  6
BYLAYER
 62
     1
 10
1459.799501
 20
-843.734111
 30
0.0
 40
3.000000
 50
93.000000
 51
180.301908
  0
CIRCLE
  8
0
  6
BYLAYER
 62
     1
 10
1399.300341
 20
-844.052901
 30
0.0
 40
42.5
  0
ARC
  8
0
  6
BYLAYER
 62
     1
 10
1459.022285
 20
-853.724479
 30
0.0
 40
3.0
 50
93.000000
 51
170.801184
  0
CIRCLE
  8
0
  6
BYLAYER
 62
     1
 10
1326.800341
 20
-814.052901
 30
0.0
 40
9.0
  0
CIRCLE
  8
0
  6
BYLAYER
 62
     1
 10
1471.800341
 20
-814.052901
 30
0.0
 40
9.0
  0
CIRCLE
  8
0
  6
BYLAYER
 62
     1
 10
1326.800341
 20
-1114.052901
 30
0.0
 40
9.0
  0
CIRCLE
  8
0
  6
BYLAYER
 62
     1
 10
1471.800341
 20
-1114.052901
 30
0.0
 40
9.0
  0
LINE
  8
0
  6
BYLAYER
 62
     1
 10
1299.800341
 20
-904.052901
 30
0.0
 11
1303.300341
 21
-904.052901
 31
0.0
  0
LINE
  8
0
  6
BYLAYER
 62
     1
 10
1299.800341
 20
-904.052901
 30
0.0
 11
1299.300341
 21
-904.552901
 31
0.0
  0
LINE
  8
0
  6
BYLAYER
 62
     1
 10
1299.800341
 20
-1084.052901
 30
0.0
 11
1303.300341
 21
-1084.052901
 31
0.0
  0
LINE
  8
0
  6
BYLAYER
 62
     1
 10
1299.800341
 20
-1084.052901
 30
0.0
 11
1299.300341
 21
-1083.552901
 31
0.0
  0
LINE
  8
0
  6
BYLAYER
 62
     1
 10
1303.300341
 20
-869.052901
 30
0.0
 11
1303.300341
 21
-1119.052901
 31
0.0
  0
LINE
  8
0
  6
BYLAYER
 62
     1
 10
1303.300341
 20
-1119.052901
 30
0.0
 11
1306.800341
 21
-1119.236328
 31
0.0
  0
LINE
  8
0
  6
BYLAYER
 62
     1
 10
1307.300341
 20
-917.686034
 30
0.0
 11
1307.300341
 21
-978.642509
 31
0.0
  0
ARC
  8
0
  6
BYLAYER
 62
     1
 10
1305.300341
 20
-917.686034
 30
0.0
 40
2.0
 50
0.0
 51
87.0
  0
LINE
  8
0
  6
BYLAYER
 62
     1
 10
1307.300341
 20
-871.661451
 30
0.0
 11
1307.300341
 21
-894.647975
 31
0.0
  0
ARC
  8
0
  6
BYLAYER
 62
     1
 10
1305.300341
 20
-894.647975
 30
0.0
 40
2.0
 50
273.000000
 51
360.000000
  0
ARC
  8
0
  6
BYLAYER
 62
     1
 10
1305.300341
 20
-871.661451
 30
0.0
 40
2.000000
 50
0.0
 51
93.0
  0
LINE
  8
0
  6
BYLAYER
 62
     1
 10
1303.300341
 20
-869.763522
 30
0.0
 11
1305.195669
 21
-869.664192
 31
0.0
  0
LINE
  8
0
  6
BYLAYER
 62
     1
 10
1303.300341
 20
-896.755535
 30
0.0
 11
1305.405013
 21
-896.645234
 31
0.0
  0
LINE
  8
0
  6
BYLAYER
 62
     1
 10
1303.434971
 20
-980.743014
 30
0.0
 11
1305.405013
 21
-980.639768
 31
0.0
  0
ARC
  8
0
  6
BYLAYER
 62
     1
 10
1305.300341
 20
-978.642509
 30
0.0
 40
2.0
 50
273.000000
 51
360.000000
  0
LINE
  8
0
  6
BYLAYER
 62
     1
 10
1303.434971
 20
-1007.362681
 30
0.0
 11
1305.405013
 21
-1007.465926
 31
0.0
  0
ARC
  8
0
  6
BYLAYER
 62
     1
 10
1305.300341
 20
-1009.463185
 30
0.0
 40
2.0
 50
0.0
 51
87.0
  0
LINE
  8
0
  6
BYLAYER
 62
     1
 10
1303.300341
 20
-915.578474
 30
0.0
 11
1305.405013
 21
-915.688775
 31
0.0
  0
LINE
  8
0
  6
BYLAYER
 62
     1
 10
1307.300341
 20
-1070.419768
 30
0.0
 11
1307.300341
 21
-1009.463185
 31
0.0
  0
ARC
  8
0
  6
BYLAYER
 62
     1
 10
1305.300341
 20
-1070.419768
 30
0.0
 40
2.0
 50
273.000000
 51
360.000000
  0
LINE
  8
0
  6
BYLAYER
 62
     1
 10
1303.300341
 20
-1118.342280
 30
0.0
 11
1306.800341
 21
-1118.525707
 31
0.0
  0
LINE
  8
0
  6
BYLAYER
 62
     1
 10
1303.300341
 20
-1091.350267
 30
0.0
 11
1306.800341
 21
-1091.533694
 31
0.0
  0
LINE
  8
0
  6
BYLAYER
 62
     1
 10
1303.300341
 20
-1072.527328
 30
0.0
 11
1305.405013
 21
-1072.417027
 31
0.0
  0
LINE
  8
0
  6
BYLAYER
 62
     1
 10
1410.143333
 20
-1008.903906
 30
0.0
 11
1476.457349
 21
-1005.428536
 31
0.0
  0
ARC
  8
0
  6
BYLAYER
 62
     1
 10
1476.300341
 20
-1002.432647
 30
0.0
 40
3.000000
 50
273.000000
 51
360.000000
  0
LINE
  8
0
  6
BYLAYER
 62
     1
 10
1388.457349
 20
-1008.903906
 30
0.0
 11
1322.143333
 21
-1005.428536
 31
0.0
  0
ARC
  8
0
  6
BYLAYER
 62
     1
 10
1322.300341
 20
-1002.432647
 30
0.0
 40
3.000000
 50
180.000000
 51
267.0
  0
ARC
  8
0
  6
BYLAYER
 62
     1
 10
1388.300341
 20
-1011.899795
 30
0.0
 40
3.000000
 50
0.0
 51
87.0
  0
LINE
  8
0
  6
BYLAYER
 62
     1
 10
1407.300341
 20
-1011.899795
 30
0.0
 11
1407.300341
 21
-1026.206007
 31
0.0
  0
ARC
  8
0
  6
BYLAYER
 62
     1
 10
1410.300341
 20
-1026.206007
 30
0.0
 40
3.000000
 50
180.000000
 51
267.0
  0
ARC
  8
0
  6
BYLAYER
 62
     1
 10
1410.300341
 20
-1011.899795
 30
0.0
 40
3.0
 50
93.000000
 51
180.000000
  0
LINE
  8
0
  6
BYLAYER
 62
     1
 10
1410.143333
 20
-1029.201896
 30
0.0
 11
1476.457349
 21
-1032.677266
 31
0.0
  0
ARC
  8
0
  6
BYLAYER
 62
     1
 10
1476.300341
 20
-1035.673155
 30
0.0
 40
3.000000
 50
0.0
 51
87.0
  0
LINE
  8
0
  6
BYLAYER
 62
     1
 10
1391.300341
 20
-1011.899795
 30
0.0
 11
1391.300341
 21
-1026.206007
 31
0.0
  0
ARC
  8
0
  6
BYLAYER
 62
     1
 10
1388.300341
 20
-1026.206007
 30
0.0
 40
3.0
 50
273.000000
 51
360.000000
  0
LINE
  8
0
  6
BYLAYER
 62
     1
 10
1388.457349
 20
-1029.201896
 30
0.0
 11
1322.143333
 21
-1032.677266
 31
0.0
  0
ARC
  8
0
  6
BYLAYER
 62
     1
 10
1322.300341
 20
-1035.673155
 30
0.0
 40
3.0
 50
93.000000
 51
180.000000
  0
LINE
  8
0
  6
BYLAYER
 62
     1
 10
1447.143333
 20
-1056.964818
 30
0.0
 11
1476.457349
 21
-1055.428536
 31
0.0
  0
ARC
  8
0
  6
BYLAYER
 62
     1
 10
1476.300341
 20
-1052.432647
 30
0.0
 40
3.000000
 50
273.000000
 51
360.000000
  0
ARC
  8
0
  6
BYLAYER
 62
     1
 10
1447.300341
 20
-1059.960707
 30
0.0
 40
3.000000
 50
93.000000
 51
180.000000
  0
LINE
  8
0
  6
BYLAYER
 62
     1
 10
1388.457349
 20
-1058.903906
 30
0.0
 11
1322.143333
 21
-1055.428536
 31
0.0
  0
ARC
  8
0
  6
BYLAYER
 62
     1
 10
1322.300341
 20
-1052.432647
 30
0.0
 40
3.000000
 50
180.000000
 51
267.0
  0
LINE
  8
0
  6
BYLAYER
 62
     1
 10
1407.300341
 20
-1068.838883
 30
0.0
 11
1407.300341
 21
-1075.769316
 31
0.0
  0
ARC
  8
0
  6
BYLAYER
 62
     1
 10
1410.300341
 20
-1075.769316
 30
0.0
 40
3.0
 50
180.000000
 51
267.0
  0
ARC
  8
0
  6
BYLAYER
 62
     1
 10
1410.300341
 20
-1068.838883
 30
0.0
 40
3.0
 50
93.000000
 51
180.000000
  0
LINE
  8
0
  6
BYLAYER
 62
     1
 10
1391.300341
 20
-1061.899795
 30
0.0
 11
1391.300341
 21
-1075.769316
 31
0.0
  0
ARC
  8
0
  6
BYLAYER
 62
     1
 10
1388.300341
 20
-1075.769316
 30
0.0
 40
3.0
 50
273.000000
 51
360.000000
  0
ARC
  8
0
  6
BYLAYER
 62
     1
 10
1388.300341
 20
-1061.899795
 30
0.0
 40
3.000000
 50
0.0
 51
87.0
  0
LINE
  8
0
  6
BYLAYER
 62
     1
 10
1410.143333
 20
-979.201896
 30
0.0
 11
1476.457349
 21
-982.677266
 31
0.0
  0
ARC
  8
0
  6
BYLAYER
 62
     1
 10
1476.300341
 20
-985.673155
 30
0.0
 40
3.000000
 50
0.0
 51
87.0
  0
LINE
  8
0
  6
BYLAYER
 62
     1
 10
1388.457349
 20
-979.201896
 30
0.0
 11
1322.143333
 21
-982.677266
 31
0.0
  0
ARC
  8
0
  6
BYLAYER
 62
     1
 10
1322.300341
 20
-985.673155
 30
0.0
 40
3.0
 50
93.000000
 51
180.000000
  0
ARC
  8
0
  6
BYLAYER
 62
     1
 10
1388.300341
 20
-976.206007
 30
0.0
 40
3.0
 50
273.000000
 51
360.000000
  0
LINE
  8
0
  6
BYLAYER
 62
     1
 10
1407.300341
 20
-976.206007
 30
0.0
 11
1407.300341
 21
-961.899795
 31
0.0
  0
ARC
  8
0
  6
BYLAYER
 62
     1
 10
1410.300341
 20
-976.206007
 30
0.0
 40
3.000000
 50
180.000000
 51
267.0
  0
ARC
  8
0
  6
BYLAYER
 62
     1
 10
1410.300341
 20
-961.899795
 30
0.0
 40
3.0
 50
93.000000
 51
180.000000
  0
LINE
  8
0
  6
BYLAYER
 62
     1
 10
1410.143333
 20
-958.903906
 30
0.0
 11
1476.457349
 21
-955.428536
 31
0.0
  0
ARC
  8
0
  6
BYLAYER
 62
     1
 10
1476.300341
 20
-952.432647
 30
0.0
 40
3.000000
 50
273.000000
 51
360.000000
  0
LINE
  8
0
  6
BYLAYER
 62
     1
 10
1391.300341
 20
-976.206007
 30
0.0
 11
1391.300341
 21
-961.899795
 31
0.0
  0
ARC
  8
0
  6
BYLAYER
 62
     1
 10
1388.300341
 20
-961.899795
 30
0.0
 40
3.000000
 50
0.0
 51
87.0
  0
LINE
  8
0
  6
BYLAYER
 62
     1
 10
1388.457349
 20
-958.903906
 30
0.0
 11
1322.143333
 21
-955.428536
 31
0.0
  0
ARC
  8
0
  6
BYLAYER
 62
     1
 10
1322.300341
 20
-952.432647
 30
0.0
 40
3.000000
 50
180.000000
 51
267.0
  0
LINE
  8
0
  6
BYLAYER
 62
     1
 10
1410.143333
 20
-929.201896
 30
0.0
 11
1476.457349
 21
-932.677266
 31
0.0
  0
ARC
  8
0
  6
BYLAYER
 62
     1
 10
1476.300341
 20
-935.673155
 30
0.0
 40
3.000000
 50
0.0
 51
87.0
  0
ARC
  8
0
  6
BYLAYER
 62
     1
 10
1410.300341
 20
-926.206007
 30
0.0
 40
3.000000
 50
180.000000
 51
267.0
  0
LINE
  8
0
  6
BYLAYER
 62
     1
 10
1388.457349
 20
-929.201896
 30
0.0
 11
1322.143333
 21
-932.677266
 31
0.0
  0
ARC
  8
0
  6
BYLAYER
 62
     1
 10
1322.300341
 20
-935.673155
 30
0.0
 40
3.0
 50
93.000000
 51
180.000000
  0
LINE
  8
0
  6
BYLAYER
 62
     1
 10
1407.300341
 20
-926.206007
 30
0.0
 11
1407.300341
 21
-911.899795
 31
0.0
  0
LINE
  8
0
  6
BYLAYER
 62
     1
 10
1391.300341
 20
-926.206007
 30
0.0
 11
1391.300341
 21
-911.899795
 31
0.0
  0
ARC
  8
0
  6
BYLAYER
 62
     1
 10
1388.300341
 20
-926.206007
 30
0.0
 40
3.0
 50
273.000000
 51
360.000000
  0
ARC
  8
0
  6
BYLAYER
 62
     1
 10
1388.300341
 20
-911.899795
 30
0.0
 40
3.000000
 50
0.0
 51
87.0
  0
LINE
  8
0
  6
BYLAYER
 62
     1
 10
1410.143333
 20
-908.903906
 30
0.0
 11
1476.457349
 21
-905.428536
 31
0.0
  0
ARC
  8
0
  6
BYLAYER
 62
     1
 10
1476.300341
 20
-902.432647
 30
0.0
 40
3.000000
 50
273.000000
 51
360.000000
  0
ARC
  8
0
  6
BYLAYER
 62
     1
 10
1410.300341
 20
-911.899795
 30
0.0
 40
3.0
 50
93.000000
 51
180.000000
  0
LINE
  8
0
  6
BYLAYER
 62
     1
 10
1388.457349
 20
-908.903906
 30
0.0
 11
1322.143333
 21
-905.428536
 31
0.0
  0
ARC
  8
0
  6
BYLAYER
 62
     1
 10
1322.300341
 20
-902.432647
 30
0.0
 40
3.000000
 50
180.000000
 51
267.0
  0
LINE
  8
0
  6
BYLAYER
 62
     1
 10
1449.054581
 20
-881.241148
 30
0.0
 11
1476.457349
 21
-882.677266
 31
0.0
  0
ARC
  8
0
  6
BYLAYER
 62
     1
 10
1449.211589
 20
-878.245259
 30
0.0
 40
3.000000
 50
145.586393
 51
267.000000
  0
ARC
  8
0
  6
BYLAYER
 62
     1
 10
1476.300341
 20
-885.673155
 30
0.0
 40
3.000000
 50
0.0
 51
87.0
  0
LINE
  8
0
  6
BYLAYER
 62
     1
 10
1349.546101
 20
-881.241148
 30
0.0
 11
1319.300341
 21
-882.826261
 31
0.0
  0
ARC
  8
0
  6
BYLAYER
 62
     1
 10
1322.300341
 20
-885.673155
 30
0.0
 40
3.0
 50
93.000000
 51
180.000000
  0
ARC
  8
0
  6
BYLAYER
 62
     1
 10
1349.389093
 20
-878.245259
 30
0.0
 40
3.0
 50
273.000000
 51
394.413607
  0
LINE
  8
0
  6
BYLAYER
 62
     1
 10
1399.300341
 20
-901.552901
 30
0.0
 11
1399.300341
 21
-1084.205181
 31
0.0
  0
LINE
  8
0
  6
BYLAYER
 62
     1
 10
1444.300341
 20
-1059.960707
 30
0.0
 11
1444.300341
 21
-1061.206007
 31
0.0
  0
ARC
  8
0
  6
BYLAYER
 62
     1
 10
1441.300341
 20
-1061.206007
 30
0.0
 40
3.0
 50
273.000000
 51
360.000000
  0
LINE
  8
0
  6
BYLAYER
 62
     1
 10
1441.457349
 20
-1064.201896
 30
0.0
 11
1410.143333
 21
-1065.842994
 31
0.0
  0
LINE
  8
0
  6
BYLAYER
 62
     1
 10
1481.300428
 20
-849.552814
 30
0.0
 11
1458.865277
 21
-850.728590
 31
0.0
  0
LINE
  8
0
  6
BYLAYER
 62
     1
 10
1313.140868
 20
-1082.712374
 30
0.0
 11
1398.986325
 21
-1078.213404
 31
0.0
  0
LINE
  8
0
  6
BYLAYER
 62
     1
 10
1485.459814
 20
-1082.712374
 30
0.0
 11
1399.614357
 21
-1078.213404
 31
0.0
  0
LINE
  8
0
  6
BYLAYER
 62
     1
 10
1317.300254
 20
-849.552814
 30
0.0
 11
1339.735405
 21
-850.728590
 31
0.0
  0
LINE
  8
0
  6
BYLAYER
 62
     1
 10
1399.300341
 20
-769.052901
 30
0.0
 11
1306.800341
 21
-773.900621
 31
0.0
  0
LINE
  8
0
  6
BYLAYER
 62
     1
 10
1399.300341
 20
-769.052901
 30
0.0
 11
1491.800341
 21
-773.900621
 31
0.0
  0
LINE
  8
0
  6
BYLAYER
 62
     1
 10
1399.300341
 20
-1159.052901
 30
0.0
 11
1306.800341
 21
-1154.205181
 31
0.0
  0
LINE
  8
0
  6
BYLAYER
 62
     1
 10
1399.300341
 20
-1159.052901
 30
0.0
 11
1491.800341
 21
-1154.205181
 31
0.0
  0
ARC
  8
0
  6
BYLAYER
 62
     1
 10
1339.578397
 20
-853.724479
 30
0.0
 40
3.0
 50
9.198816
 51
87.000000
  0
ARC
  8
0
  6
BYLAYER
 62
     1
 10
1399.300341
 20
-844.052901
 30
0.0
 40
57.5
 50
179.698092
 51
360.301908
  0
LINE
  8
0
  6
BYLAYER
 62
     1
 10
1299.300341
 20
-904.552901
 30
0.0
 11
1299.300341
 21
-1083.552901
 31
0.0
  0
LINE
  8
0
  6
BYLAYER
 62
     1
 10
1495.300341
 20
-869.052901
 30
0.0
 11
1479.300341
 21
-868.214377
 31
0.0
  0
LINE
  8
0
  6
BYLAYER
 62
     1
 10
1498.800341
 20
-904.052901
 30
0.0
 11
1495.300341
 21
-904.052901
 31
0.0
  0
LINE
  8
0
  6
BYLAYER
 62
     1
 10
1498.800341
 20
-904.052901
 30
0.0
 11
1499.300341
 21
-904.552901
 31
0.0
  0
LINE
  8
0
  6
BYLAYER
 62
     1
 10
1498.800341
 20
-1084.052901
 30
0.0
 11
1495.300341
 21
-1084.052901
 31
0.0
  0
LINE
  8
0
  6
BYLAYER
 62
     1
 10
1498.800341
 20
-1084.052901
 30
0.0
 11
1499.300341
 21
-1083.552901
 31
0.0
  0
LINE
  8
0
  6
BYLAYER
 62
     1
 10
1495.300341
 20
-869.052901
 30
0.0
 11
1495.300341
 21
-1119.052901
 31
0.0
  0
LINE
  8
0
  6
BYLAYER
 62
     1
 10
1495.300341
 20
-1119.052901
 30
0.0
 11
1491.800341
 21
-1119.236328
 31
0.0
  0
LINE
  8
0
  6
BYLAYER
 62
     1
 10
1491.300341
 20
-917.686034
 30
0.0
 11
1491.300341
 21
-978.642509
 31
0.0
  0
ARC
  8
0
  6
BYLAYER
 62
     1
 10
1493.300341
 20
-917.686034
 30
0.0
 40
2.0
 50
93.000000
 51
180.000000
  0
LINE
  8
0
  6
BYLAYER
 62
     1
 10
1491.300341
 20
-871.661451
 30
0.0
 11
1491.300341
 21
-894.647975
 31
0.0
  0
ARC
  8
0
  6
BYLAYER
 62
     1
 10
1493.300341
 20
-894.647975
 30
0.0
 40
2.0
 50
180.000000
 51
267.0
  0
ARC
  8
0
  6
BYLAYER
 62
     1
 10
1493.300341
 20
-871.661451
 30
0.0
 40
2.000000
 50
87.000000
 51
180.000000
  0
LINE
  8
0
  6
BYLAYER
 62
     1
 10
1495.300341
 20
-869.763522
 30
0.0
 11
1493.405013
 21
-869.664192
 31
0.0
  0
LINE
  8
0
  6
BYLAYER
 62
     1
 10
1495.300341
 20
-896.755535
 30
0.0
 11
1493.195669
 21
-896.645234
 31
0.0
  0
LINE
  8
0
  6
BYLAYER
 62
     1
 10
1495.165711
 20
-980.743014
 30
0.0
 11
1493.195669
 21
-980.639768
 31
0.0
  0
ARC
  8
0
  6
BYLAYER
 62
     1
 10
1493.300341
 20
-978.642509
 30
0.0
 40
2.0
 50
180.000000
 51
267.0
  0
LINE
  8
0
  6
BYLAYER
 62
     1
 10
1495.165711
 20
-1007.362681
 30
0.0
 11
1493.195669
 21
-1007.465926
 31
0.0
  0
ARC
  8
0
  6
BYLAYER
 62
     1
 10
1493.300341
 20
-1009.463185
 30
0.0
 40
2.0
 50
93.000000
 51
180.000000
  0
LINE
  8
0
  6
BYLAYER
 62
     1
 10
1495.300341
 20
-915.578474
 30
0.0
 11
1493.195669
 21
-915.688775
 31
0.0
  0
LINE
  8
0
  6
BYLAYER
 62
     1
 10
1491.300341
 20
-1070.419768
 30
0.0
 11
1491.300341
 21
-1009.463185
 31
0.0
  0
ARC
  8
0
  6
BYLAYER
 62
     1
 10
1493.300341
 20
-1070.419768
 30
0.0
 40
2.0
 50
180.000000
 51
267.0
  0
LINE
  8
0
  6
BYLAYER
 62
     1
 10
1495.300341
 20
-1118.342280
 30
0.0
 11
1491.800341
 21
-1118.525707
 31
0.0
  0
LINE
  8
0
  6
BYLAYER
 62
     1
 10
1495.300341
 20
-1091.350267
 30
0.0
 11
1491.800341
 21
-1091.533694
 31
0.0
  0
LINE
  8
0
  6
BYLAYER
 62
     1
 10
1495.300341
 20
-1072.527328
 30
0.0
 11
1493.195669
 21
-1072.417027
 31
0.0
  0
LINE
  8
0
  6
BYLAYER
 62
     1
 10
1499.300341
 20
-904.552901
 30
0.0
 11
1499.300341
 21
-1083.552901
 31
0.0
  0
LINE
  8
0
  6
BYLAYER
 62
     1
 10
279.300341
 20
-901.552901
 30
0.0
 11
279.300341
 21
-1086.552901
 31
0.0
  0
LINE
  8
0
  6
BYLAYER
 62
     1
 10
619.300341
 20
-901.552901
 30
0.0
 11
619.300341
 21
-1086.552901
 31
0.0
  0
LINE
  8
0
  6
BYLAYER
 62
     1
 10
354.300341
 20
-901.552901
 30
0.0
 11
279.300341
 21
-901.552901
 31
0.0
  0
LINE
  8
0
  6
BYLAYER
 62
     1
 10
619.300341
 20
-901.552901
 30
0.0
 11
544.300341
 21
-901.552901
 31
0.0
  0
LINE
  8
0
  6
BYLAYER
 62
     1
 10
354.300341
 20
-1086.552901
 30
0.0
 11
279.300341
 21
-1086.552901
 31
0.0
  0
LINE
  8
0
  6
BYLAYER
 62
     1
 10
619.300341
 20
-1086.552901
 30
0.0
 11
544.300341
 21
-1086.552901
 31
0.0
  0
LINE
  8
0
  6
BYLAYER
 62
     1
 10
354.300341
 20
-901.552901
 30
0.0
 11
366.800341
 21
-914.052901
 31
0.0
  0
LINE
  8
0
  6
BYLAYER
 62
     1
 10
544.300341
 20
-1086.552901
 30
0.0
 11
531.800341
 21
-1074.052901
 31
0.0
  0
LINE
  8
0
  6
BYLAYER
 62
     1
 10
544.300341
 20
-901.552901
 30
0.0
 11
531.800341
 21
-914.052901
 31
0.0
  0
LINE
  8
0
  6
BYLAYER
 62
     1
 10
354.300341
 20
-1086.552901
 30
0.0
 11
366.800341
 21
-1074.052901
 31
0.0
  0
LINE
  8
0
  6
BYLAYER
 62
     1
 10
531.800341
 20
-914.052901
 30
0.0
 11
366.800341
 21
-914.052901
 31
0.0
  0
LINE
  8
0
  6
BYLAYER
 62
     1
 10
531.800341
 20
-1074.052901
 30
0.0
 11
366.800341
 21
-1074.052901
 31
0.0
  0
LINE
  8
0
  6
BYLAYER
 62
     1
 10
354.300341
 20
-1086.552901
 30
0.0
 11
359.148061
 21
-994.052901
 31
0.0
  0
LINE
  8
0
  6
BYLAYER
 62
     1
 10
544.300341
 20
-901.552901
 30
0.0
 11
540.003389
 21
-983.543631
 31
0.0
  0
LINE
  8
0
  6
BYLAYER
 62
     1
 10
354.300341
 20
-901.552901
 30
0.0
 11
359.148061
 21
-994.052901
 31
0.0
  0
LINE
  8
0
  6
BYLAYER
 62
     1
 10
544.300341
 20
-1086.552901
 30
0.0
 11
540.003389
 21
-1004.562171
 31
0.0
  0
CIRCLE
  8
0
  6
BYLAYER
 62
     1
 10
329.300341
 20
-1066.552901
 30
0.0
 40
9.0
  0
CIRCLE
  8
0
  6
BYLAYER
 62
     1
 10
329.300341
 20
-921.552901
 30
0.0
 40
9.0
  0
CIRCLE
  8
0
  6
BYLAYER
 62
     1
 10
569.300341
 20
-1066.552901
 30
0.0
 40
9.0
  0
CIRCLE
  8
0
  6
BYLAYER
 62
     1
 10
569.300341
 20
-921.552901
 30
0.0
 40
9.0
  0
CIRCLE
  8
0
  6
BYLAYER
 62
     1
 10
529.300341
 20
-994.052901
 30
0.0
 40
15.0
  0
LINE
  8
0
  6
BYLAYER
 62
     1
 10
431.453447
 20
-986.052901
 30
0.0
 11
417.147235
 21
-986.052901
 31
0.0
  0
LINE
  8
0
  6
BYLAYER
 62
     1
 10
381.453447
 20
-986.052901
 30
0.0
 11
367.583926
 21
-986.052901
 31
0.0
  0
ARC
  8
0
  6
BYLAYER
 62
     1
 10
367.583926
 20
-983.052901
 30
0.0
 40
3.0
 50
183.000000
 51
270.000000
  0
ARC
  8
0
  6
BYLAYER
 62
     1
 10
381.453447
 20
-983.052901
 30
0.0
 40
3.0
 50
270.0
 51
357.0
  0
LINE
  8
0
  6
BYLAYER
 62
     1
 10
481.453447
 20
-986.052901
 30
0.0
 11
467.147235
 21
-986.052901
 31
0.0
  0
ARC
  8
0
  6
BYLAYER
 62
     1
 10
467.147235
 20
-983.052901
 30
0.0
 40
3.0
 50
183.000000
 51
270.000000
  0
LINE
  8
0
  6
BYLAYER
 62
     1
 10
381.453447
 20
-1002.052901
 30
0.0
 11
367.583926
 21
-1002.052901
 31
0.0
  0
ARC
  8
0
  6
BYLAYER
 62
     1
 10
367.583926
 20
-1005.052901
 30
0.0
 40
3.0
 50
90.0
 51
177.0
  0
ARC
  8
0
  6
BYLAYER
 62
     1
 10
381.453447
 20
-1005.052901
 30
0.0
 40
3.0
 50
3.000000
 51
90.000000
  0
LINE
  8
0
  6
BYLAYER
 62
     1
 10
431.453447
 20
-1002.052901
 30
0.0
 11
417.147235
 21
-1002.052901
 31
0.0
  0
LINE
  8
0
  6
BYLAYER
 62
     1
 10
481.453447
 20
-1002.052901
 30
0.0
 11
467.147235
 21
-1002.052901
 31
0.0
  0
ARC
  8
0
  6
BYLAYER
 62
     1
 10
467.147235
 20
-1005.052901
 30
0.0
 40
3.0
 50
90.0
 51
177.0
  0
LINE
  8
0
  6
BYLAYER
 62
     1
 10
464.151346
 20
-1004.895893
 30
0.0
 11
460.675976
 21
-1071.209909
 31
0.0
  0
ARC
  8
0
  6
BYLAYER
 62
     1
 10
457.680087
 20
-1071.052901
 30
0.0
 40
3.000000
 50
270.0
 51
357.0
  0
LINE
  8
0
  6
BYLAYER
 62
     1
 10
434.449336
 20
-983.209909
 30
0.0
 11
437.924706
 21
-916.895893
 31
0.0
  0
ARC
  8
0
  6
BYLAYER
 62
     1
 10
440.920595
 20
-917.052901
 30
0.0
 40
3.0
 50
90.0
 51
177.0
  0
ARC
  8
0
  6
BYLAYER
 62
     1
 10
431.453447
 20
-983.052901
 30
0.0
 40
3.0
 50
270.0
 51
357.0
  0
LINE
  8
0
  6
BYLAYER
 62
     1
 10
464.151346
 20
-983.209909
 30
0.0
 11
460.675976
 21
-916.895893
 31
0.0
  0
ARC
  8
0
  6
BYLAYER
 62
     1
 10
457.680087
 20
-917.052901
 30
0.0
 40
3.0
 50
3.000000
 51
90.000000
  0
LINE
  8
0
  6
BYLAYER
 62
     1
 10
434.449336
 20
-1004.895893
 30
0.0
 11
437.924706
 21
-1071.209909
 31
0.0
  0
ARC
  8
0
  6
BYLAYER
 62
     1
 10
440.920595
 20
-1071.052901
 30
0.0
 40
3.000000
 50
183.000000
 51
270.000000
  0
ARC
  8
0
  6
BYLAYER
 62
     1
 10
431.453447
 20
-1005.052901
 30
0.0
 40
3.0
 50
3.000000
 51
90.000000
  0
LINE
  8
0
  6
BYLAYER
 62
     1
 10
384.449336
 20
-1004.895893
 30
0.0
 11
387.924706
 21
-1071.209909
 31
0.0
  0
ARC
  8
0
  6
BYLAYER
 62
     1
 10
390.920595
 20
-1071.052901
 30
0.0
 40
3.000000
 50
183.000000
 51
270.000000
  0
LINE
  8
0
  6
BYLAYER
 62
     1
 10
414.151346
 20
-983.209909
 30
0.0
 11
410.675976
 21
-916.895893
 31
0.0
  0
ARC
  8
0
  6
BYLAYER
 62
     1
 10
407.680087
 20
-917.052901
 30
0.0
 40
3.0
 50
3.000000
 51
90.000000
  0
ARC
  8
0
  6
BYLAYER
 62
     1
 10
417.147235
 20
-983.052901
 30
0.0
 40
3.0
 50
183.000000
 51
270.000000
  0
LINE
  8
0
  6
BYLAYER
 62
     1
 10
513.842020
 20
-977.307608
 30
0.0
 11
510.675976
 21
-916.895893
 31
0.0
  0
ARC
  8
0
  6
BYLAYER
 62
     1
 10
516.837908
 20
-977.150600
 30
0.0
 40
3.000000
 50
183.000000
 51
306.402156
  0
ARC
  8
0
  6
BYLAYER
 62
     1
 10
507.680087
 20
-917.052901
 30
0.0
 40
3.0
 50
3.000000
 51
90.000000
  0
LINE
  8
0
  6
BYLAYER
 62
     1
 10
484.449336
 20
-1004.895893
 30
0.0
 11
487.924706
 21
-1071.209909
 31
0.0
  0
ARC
  8
0
  6
BYLAYER
 62
     1
 10
490.920595
 20
-1071.052901
 30
0.0
 40
3.000000
 50
183.000000
 51
270.000000
  0
ARC
  8
0
  6
BYLAYER
 62
     1
 10
481.453447
 20
-1005.052901
 30
0.0
 40
3.0
 50
3.000000
 51
90.000000
  0
LINE
  8
0
  6
BYLAYER
 62
     1
 10
384.449336
 20
-983.209909
 30
0.0
 11
387.924706
 21
-916.895893
 31
0.0
  0
ARC
  8
0
  6
BYLAYER
 62
     1
 10
390.920595
 20
-917.052901
 30
0.0
 40
3.0
 50
90.0
 51
177.0
  0
LINE
  8
0
  6
BYLAYER
 62
     1
 10
484.449336
 20
-983.209909
 30
0.0
 11
487.924706
 21
-916.895893
 31
0.0
  0
ARC
  8
0
  6
BYLAYER
 62
     1
 10
490.920595
 20
-917.052901
 30
0.0
 40
3.0
 50
90.0
 51
177.0
  0
ARC
  8
0
  6
BYLAYER
 62
     1
 10
481.453447
 20
-983.052901
 30
0.0
 40
3.0
 50
270.0
 51
357.0
  0
LINE
  8
0
  6
BYLAYER
 62
     1
 10
513.842020
 20
-1010.798194
 30
0.0
 11
510.675976
 21
-1071.209909
 31
0.0
  0
ARC
  8
0
  6
BYLAYER
 62
     1
 10
516.837908
 20
-1010.955202
 30
0.0
 40
3.0
 50
53.597844
 51
177.000000
  0
ARC
  8
0
  6
BYLAYER
 62
     1
 10
507.680087
 20
-1071.052901
 30
0.0
 40
3.000000
 50
270.0
 51
357.0
  0
LINE
  8
0
  6
BYLAYER
 62
     1
 10
414.151346
 20
-1004.895893
 30
0.0
 11
410.675976
 21
-1071.209909
 31
0.0
  0
ARC
  8
0
  6
BYLAYER
 62
     1
 10
407.680087
 20
-1071.052901
 30
0.0
 40
3.000000
 50
270.0
 51
357.0
  0
ARC
  8
0
  6
BYLAYER
 62
     1
 10
417.147235
 20
-1005.052901
 30
0.0
 40
3.0
 50
90.0
 51
177.0
  0
LINE
  8
0
  6
BYLAYER
 62
     1
 10
360.640868
 20
-1080.212374
 30
0.0
 11
365.156295
 21
-994.052901
 31
0.0
  0
LINE
  8
0
  6
BYLAYER
 62
     1
 10
360.640868
 20
-907.893428
 30
0.0
 11
365.156295
 21
-994.052901
 31
0.0
  0
LINE
  8
0
  6
BYLAYER
 62
     1
 10
537.959814
 20
-1080.212374
 30
0.0
 11
534.187608
 21
-1008.234390
 31
0.0
  0
LINE
  8
0
  6
BYLAYER
 62
     1
 10
537.959814
 20
-907.893428
 30
0.0
 11
534.187608
 21
-979.871412
 31
0.0
  0
LINE
  8
0
  6
BYLAYER
 62
     1
 10
574.300341
 20
-898.052901
 30
0.0
 11
574.483768
 21
-901.552901
 31
0.0
  0
LINE
  8
0
  6
BYLAYER
 62
     1
 10
539.300341
 20
-894.052901
 30
0.0
 11
359.300341
 21
-894.052901
 31
0.0
  0
LINE
  8
0
  6
BYLAYER
 62
     1
 10
539.300341
 20
-894.052901
 30
0.0
 11
539.300341
 21
-898.052901
 31
0.0
  0
LINE
  8
0
  6
BYLAYER
 62
     1
 10
359.300341
 20
-894.052901
 30
0.0
 11
359.300341
 21
-898.052901
 31
0.0
  0
LINE
  8
0
  6
BYLAYER
 62
     1
 10
574.300341
 20
-898.052901
 30
0.0
 11
324.300341
 21
-898.052901
 31
0.0
  0
LINE
  8
0
  6
BYLAYER
 62
     1
 10
324.300341
 20
-898.052901
 30
0.0
 11
324.116914
 21
-901.552901
 31
0.0
  0
LINE
  8
0
  6
BYLAYER
 62
     1
 10
525.667208
 20
-902.052901
 30
0.0
 11
464.710733
 21
-902.052901
 31
0.0
  0
ARC
  8
0
  6
BYLAYER
 62
     1
 10
464.710733
 20
-900.052901
 30
0.0
 40
2.0
 50
183.000000
 51
270.000000
  0
ARC
  8
0
  6
BYLAYER
 62
     1
 10
525.667208
 20
-900.052901
 30
0.0
 40
2.0
 50
270.0
 51
357.0
  0
LINE
  8
0
  6
BYLAYER
 62
     1
 10
573.589720
 20
-898.052901
 30
0.0
 11
573.773147
 21
-901.552901
 31
0.0
  0
LINE
  8
0
  6
BYLAYER
 62
     1
 10
546.597707
 20
-898.052901
 30
0.0
 11
546.781134
 21
-901.552901
 31
0.0
  0
LINE
  8
0
  6
BYLAYER
 62
     1
 10
462.610228
 20
-898.187531
 30
0.0
 11
462.713474
 21
-900.157573
 31
0.0
  0
LINE
  8
0
  6
BYLAYER
 62
     1
 10
435.990561
 20
-898.187531
 30
0.0
 11
435.887316
 21
-900.157573
 31
0.0
  0
LINE
  8
0
  6
BYLAYER
 62
     1
 10
527.774768
 20
-898.052901
 30
0.0
 11
527.664467
 21
-900.157573
 31
0.0
  0
LINE
  8
0
  6
BYLAYER
 62
     1
 10
372.933474
 20
-902.052901
 30
0.0
 11
433.890057
 21
-902.052901
 31
0.0
  0
ARC
  8
0
  6
BYLAYER
 62
     1
 10
372.933474
 20
-900.052901
 30
0.0
 40
2.0
 50
183.000000
 51
270.000000
  0
ARC
  8
0
  6
BYLAYER
 62
     1
 10
433.890057
 20
-900.052901
 30
0.0
 40
2.0
 50
270.0
 51
357.0
  0
LINE
  8
0
  6
BYLAYER
 62
     1
 10
325.010962
 20
-898.052901
 30
0.0
 11
324.827535
 21
-901.552901
 31
0.0
  0
LINE
  8
0
  6
BYLAYER
 62
     1
 10
352.002975
 20
-898.052901
 30
0.0
 11
351.819548
 21
-901.552901
 31
0.0
  0
LINE
  8
0
  6
BYLAYER
 62
     1
 10
370.825914
 20
-898.052901
 30
0.0
 11
370.936215
 21
-900.157573
 31
0.0
  0
LINE
  8
0
  6
BYLAYER
 62
     1
 10
284.300341
 20
-994.052901
 30
0.0
 11
289.148061
 21
-901.552901
 31
0.0
  0
LINE
  8
0
  6
BYLAYER
 62
     1
 10
614.300341
 20
-994.052901
 30
0.0
 11
609.452621
 21
-1086.552901
 31
0.0
  0
LINE
  8
0
  6
BYLAYER
 62
     1
 10
284.300341
 20
-994.052901
 30
0.0
 11
289.148061
 21
-1086.552901
 31
0.0
  0
LINE
  8
0
  6
BYLAYER
 62
     1
 10
614.300341
 20
-994.052901
 30
0.0
 11
609.452621
 21
-901.552901
 31
0.0
  0
ARC
  8
0
  6
BYLAYER
 62
     1
 10
529.300341
 20
-994.052901
 30
0.0
 40
18.0
 50
233.597844
 51
276.107410
  0
ARC
  8
0
  6
BYLAYER
 62
     1
 10
531.534587
 20
-1014.933709
 30
0.0
 40
3.0
 50
3.000000
 51
96.107410
  0
ARC
  8
0
  6
BYLAYER
 62
     1
 10
529.300341
 20
-994.052901
 30
0.0
 40
18.000000
 50
83.892590
 51
126.402156
  0
ARC
  8
0
  6
BYLAYER
 62
     1
 10
531.534587
 20
-973.172093
 30
0.0
 40
3.0
 50
263.892590
 51
357.000000
  0
LINE
  8
0
  6
BYLAYER
 62
     1
 10
574.300341
 20
-1090.052901
 30
0.0
 11
574.483768
 21
-1086.552901
 31
0.0
  0
LINE
  8
0
  6
BYLAYER
 62
     1
 10
539.300341
 20
-1094.052901
 30
0.0
 11
359.300341
 21
-1094.052901
 31
0.0
  0
LINE
  8
0
  6
BYLAYER
 62
     1
 10
539.300341
 20
-1094.052901
 30
0.0
 11
539.300341
 21
-1090.052901
 31
0.0
  0
LINE
  8
0
  6
BYLAYER
 62
     1
 10
359.300341
 20
-1094.052901
 30
0.0
 11
359.300341
 21
-1090.052901
 31
0.0
  0
LINE
  8
0
  6
BYLAYER
 62
     1
 10
574.300341
 20
-1090.052901
 30
0.0
 11
324.300341
 21
-1090.052901
 31
0.0
  0
LINE
  8
0
  6
BYLAYER
 62
     1
 10
324.300341
 20
-1090.052901
 30
0.0
 11
324.116914
 21
-1086.552901
 31
0.0
  0
LINE
  8
0
  6
BYLAYER
 62
     1
 10
525.667208
 20
-1086.052901
 30
0.0
 11
464.710733
 21
-1086.052901
 31
0.0
  0
ARC
  8
0
  6
BYLAYER
 62
     1
 10
464.710733
 20
-1088.052901
 30
0.0
 40
2.0
 50
90.0
 51
177.0
  0
ARC
  8
0
  6
BYLAYER
 62
     1
 10
525.667208
 20
-1088.052901
 30
0.0
 40
2.0
 50
3.000000
 51
90.000000
  0
LINE
  8
0
  6
BYLAYER
 62
     1
 10
573.589720
 20
-1090.052901
 30
0.0
 11
573.773147
 21
-1086.552901
 31
0.0
  0
LINE
  8
0
  6
BYLAYER
 62
     1
 10
546.597707
 20
-1090.052901
 30
0.0
 11
546.781134
 21
-1086.552901
 31
0.0
  0
LINE
  8
0
  6
BYLAYER
 62
     1
 10
462.610228
 20
-1089.918271
 30
0.0
 11
462.713474
 21
-1087.948229
 31
0.0
  0
LINE
  8
0
  6
BYLAYER
 62
     1
 10
435.990561
 20
-1089.918271
 30
0.0
 11
435.887316
 21
-1087.948229
 31
0.0
  0
LINE
  8
0
  6
BYLAYER
 62
     1
 10
527.774768
 20
-1090.052901
 30
0.0
 11
527.664467
 21
-1087.948229
 31
0.0
  0
LINE
  8
0
  6
BYLAYER
 62
     1
 10
372.933474
 20
-1086.052901
 30
0.0
 11
433.890057
 21
-1086.052901
 31
0.0
  0
ARC
  8
0
  6
BYLAYER
 62
     1
 10
372.933474
 20
-1088.052901
 30
0.0
 40
2.0
 50
90.0
 51
177.0
  0
ARC
  8
0
  6
BYLAYER
 62
     1
 10
433.890057
 20
-1088.052901
 30
0.0
 40
2.0
 50
3.000000
 51
90.000000
  0
LINE
  8
0
  6
BYLAYER
 62
     1
 10
325.010962
 20
-1090.052901
 30
0.0
 11
324.827535
 21
-1086.552901
 31
0.0
  0
LINE
  8
0
  6
BYLAYER
 62
     1
 10
352.002975
 20
-1090.052901
 30
0.0
 11
351.819548
 21
-1086.552901
 31
0.0
  0
LINE
  8
0
  6
BYLAYER
 62
     1
 10
370.825914
 20
-1090.052901
 30
0.0
 11
370.936215
 21
-1087.948229
 31
0.0
  0
LINE
  8
0
  6
BYLAYER
 62
     1
 10
659.300341
 20
-324.052901
 30
0.0
 11
659.300341
 21
-174.052901
 31
0.0
  0
LINE
  8
0
  6
BYLAYER
 62
     1
 10
644.300341
 20
-320.419905
 30
0.0
 11
644.300341
 21
-174.052901
 31
0.0
  0
ARC
  8
0
  6
BYLAYER
 62
     1
 10
641.300341
 20
-285.987685
 30
0.0
 40
3.0
 50
0.0
 51
39.000001
  0
ARC
  8
0
  6
BYLAYER
 62
     1
 10
647.300341
 20
-320.419905
 30
0.0
 40
3.000000
 50
180.000000
 51
266.999999
  0
LINE
  8
0
  6
BYLAYER
 62
     1
 10
659.300341
 20
-324.052901
 30
0.0
 11
647.143328
 21
-323.415755
 31
0.0
  0
LINE
  8
0
  6
BYLAYER
 62
     1
 10
619.300341
 20
-174.052901
 30
0.0
 11
619.300341
 21
-254.052901
 31
0.0
  0
LINE
  8
0
  6
BYLAYER
 62
     1
 10
619.300341
 20
-254.052901
 30
0.0
 11
643.631792
 21
-284.099715
 31
0.0
  0
LINE
  8
0
  6
BYLAYER
 62
     1
 10
624.300341
 20
-260.227401
 30
0.0
 11
644.300341
 21
-315.176924
 31
0.0
  0
LINE
  8
0
  6
BYLAYER
 62
     1
 10
659.300341
 20
-24.052901
 30
0.0
 11
659.300341
 21
-174.052901
 31
0.0
  0
LINE
  8
0
  6
BYLAYER
 62
     1
 10
644.300341
 20
-27.685897
 30
0.0
 11
644.300341
 21
-174.052901
 31
0.0
  0
ARC
  8
0
  6
BYLAYER
 62
     1
 10
641.300341
 20
-62.118117
 30
0.0
 40
3.000000
 50
320.999999
 51
360.000000
  0
ARC
  8
0
  6
BYLAYER
 62
     1
 10
647.300341
 20
-27.685897
 30
0.0
 40
3.0
 50
93.000001
 51
180.000000
  0
LINE
  8
0
  6
BYLAYER
 62
     1
 10
659.300341
 20
-24.052901
 30
0.0
 11
647.143328
 21
-24.690047
 31
0.0
  0
LINE
  8
0
  6
BYLAYER
 62
     1
 10
619.300341
 20
-174.052901
 30
0.0
 11
619.300341
 21
-94.052901
 31
0.0
  0
LINE
  8
0
  6
BYLAYER
 62
     1
 10
619.300341
 20
-94.052901
 30
0.0
 11
643.631792
 21
-64.006087
 31
0.0
  0
LINE
  8
0
  6
BYLAYER
 62
     1
 10
624.300341
 20
-87.878401
 30
0.0
 11
644.300341
 21
-32.928878
 31
0.0
  0
LINE
  8
0
  6
BYLAYER
 62
     1
 10
1499.300341
 20
-285.856300
 30
0.0
 11
1499.300341
 21
-413.552901
 31
0.0
  0
LINE
  8
0
  6
BYLAYER
 62
     1
 10
1499.300341
 20
-413.552901
 30
0.0
 11
1498.800341
 21
-414.052901
 31
0.0
  0
LINE
  8
0
  6
BYLAYER
 62
     1
 10
1498.800341
 20
-414.052901
 30
0.0
 11
1495.300341
 21
-414.052901
 31
0.0
  0
LINE
  8
0
  6
BYLAYER
 62
     1
 10
1495.300341
 20
-289.309137
 30
0.0
 11
1495.300341
 21
-449.052901
 31
0.0
  0
LINE
  8
0
  6
BYLAYER
 62
     1
 10
1306.800341
 20
-494.052901
 30
0.0
 11
1491.800341
 21
-494.052901
 31
0.0
  0
LINE
  8
0
  6
BYLAYER
 62
     1
 10
1495.300341
 20
-449.052901
 30
0.0
 11
1491.800341
 21
-449.236328
 31
0.0
  0
LINE
  8
0
  6
BYLAYER
 62
     1
 10
1479.300341
 20
-406.552901
 30
0.0
 11
1479.300341
 21
-300.938676
 31
0.0
  0
LINE
  8
0
  6
BYLAYER
 62
     1
 10
1319.300341
 20
-300.938676
 30
0.0
 11
1319.300341
 21
-406.552901
 31
0.0
  0
LINE
  8
0
  6
BYLAYER
 62
     1
 10
1306.800341
 20
-419.052901
 30
0.0
 11
1306.800341
 21
-494.052901
 31
0.0
  0
LINE
  8
0
  6
BYLAYER
 62
     1
 10
1306.800341
 20
-419.052901
 30
0.0
 11
1319.300341
 21
-406.552901
 31
0.0
  0
LINE
  8
0
  6
BYLAYER
 62
     1
 10
1491.800341
 20
-419.052901
 30
0.0
 11
1491.800341
 21
-494.052901
 31
0.0
  0
LINE
  8
0
  6
BYLAYER
 62
     1
 10
1491.800341
 20
-419.052901
 30
0.0
 11
1479.300341
 21
-406.552901
 31
0.0
  0
LINE
  8
0
  6
BYLAYER
 62
     1
 10
1491.800341
 20
-419.052901
 30
0.0
 11
1399.300341
 21
-414.205181
 31
0.0
  0
LINE
  8
0
  6
BYLAYER
 62
     1
 10
1306.800341
 20
-419.052901
 30
0.0
 11
1399.300341
 21
-414.205181
 31
0.0
  0
LINE
  8
0
  6
BYLAYER
 62
     1
 10
1485.800341
 20
-413.052901
 30
0.0
 11
1399.300341
 21
-408.519628
 31
0.0
  0
LINE
  8
0
  6
BYLAYER
 62
     1
 10
1312.800341
 20
-413.052901
 30
0.0
 11
1399.300341
 21
-408.519628
 31
0.0
  0
CIRCLE
  8
0
  6
BYLAYER
 62
     1
 10
1399.300341
 20
-466.552901
 30
0.0
 40
15.0
  0
LINE
  8
0
  6
BYLAYER
 62
     1
 10
1491.300341
 20
-292.526527
 30
0.0
 11
1491.300341
 21
-308.642509
 31
0.0
  0
ARC
  8
0
  6
BYLAYER
 62
     1
 10
1493.300341
 20
-308.642509
 30
0.0
 40
2.0
 50
180.000000
 51
267.0
  0
LINE
  8
0
  6
BYLAYER
 62
     1
 10
1495.165711
 20
-310.743014
 30
0.0
 11
1493.195669
 21
-310.639768
 31
0.0
  0
LINE
  8
0
  6
BYLAYER
 62
     1
 10
1495.165711
 20
-337.362681
 30
0.0
 11
1493.195669
 21
-337.465926
 31
0.0
  0
LINE
  8
0
  6
BYLAYER
 62
     1
 10
1491.300341
 20
-400.419768
 30
0.0
 11
1491.300341
 21
-339.463185
 31
0.0
  0
ARC
  8
0
  6
BYLAYER
 62
     1
 10
1493.300341
 20
-400.419768
 30
0.0
 40
2.0
 50
180.000000
 51
267.0
  0
ARC
  8
0
  6
BYLAYER
 62
     1
 10
1493.300341
 20
-339.463185
 30
0.0
 40
2.0
 50
93.000000
 51
180.000000
  0
LINE
  8
0
  6
BYLAYER
 62
     1
 10
1495.300341
 20
-448.342280
 30
0.0
 11
1491.800341
 21
-448.525707
 31
0.0
  0
LINE
  8
0
  6
BYLAYER
 62
     1
 10
1495.300341
 20
-421.350267
 30
0.0
 11
1491.800341
 21
-421.533694
 31
0.0
  0
LINE
  8
0
  6
BYLAYER
 62
     1
 10
1495.300341
 20
-402.527328
 30
0.0
 11
1493.195669
 21
-402.417027
 31
0.0
  0
LINE
  8
0
  6
BYLAYER
 62
     1
 10
1410.143333
 20
-338.903906
 30
0.0
 11
1476.457349
 21
-335.428536
 31
0.0
  0
ARC
  8
0
  6
BYLAYER
 62
     1
 10
1410.300341
 20
-341.899795
 30
0.0
 40
3.0
 50
93.000000
 51
180.000000
  0
ARC
  8
0
  6
BYLAYER
 62
     1
 10
1476.300341
 20
-332.432647
 30
0.0
 40
3.000000
 50
273.000000
 51
360.000000
  0
LINE
  8
0
  6
BYLAYER
 62
     1
 10
1388.457349
 20
-338.903906
 30
0.0
 11
1322.143333
 21
-335.428536
 31
0.0
  0
ARC
  8
0
  6
BYLAYER
 62
     1
 10
1388.300341
 20
-341.899795
 30
0.0
 40
3.000000
 50
0.0
 51
87.0
  0
ARC
  8
0
  6
BYLAYER
 62
     1
 10
1322.300341
 20
-332.432647
 30
0.0
 40
3.000000
 50
180.000000
 51
267.0
  0
LINE
  8
0
  6
BYLAYER
 62
     1
 10
1407.300341
 20
-341.899795
 30
0.0
 11
1407.300341
 21
-356.206007
 31
0.0
  0
ARC
  8
0
  6
BYLAYER
 62
     1
 10
1410.300341
 20
-356.206007
 30
0.0
 40
3.000000
 50
180.000000
 51
267.0
  0
LINE
  8
0
  6
BYLAYER
 62
     1
 10
1410.143333
 20
-359.201896
 30
0.0
 11
1476.457349
 21
-362.677266
 31
0.0
  0
ARC
  8
0
  6
BYLAYER
 62
     1
 10
1476.300341
 20
-365.673155
 30
0.0
 40
3.000000
 50
0.0
 51
87.0
  0
LINE
  8
0
  6
BYLAYER
 62
     1
 10
1391.300341
 20
-341.899795
 30
0.0
 11
1391.300341
 21
-356.206007
 31
0.0
  0
ARC
  8
0
  6
BYLAYER
 62
     1
 10
1388.300341
 20
-356.206007
 30
0.0
 40
3.0
 50
273.000000
 51
360.000000
  0
LINE
  8
0
  6
BYLAYER
 62
     1
 10
1388.457349
 20
-359.201896
 30
0.0
 11
1322.143333
 21
-362.677266
 31
0.0
  0
ARC
  8
0
  6
BYLAYER
 62
     1
 10
1322.300341
 20
-365.673155
 30
0.0
 40
3.0
 50
93.000000
 51
180.000000
  0
LINE
  8
0
  6
BYLAYER
 62
     1
 10
1410.143333
 20
-388.903906
 30
0.0
 11
1476.457349
 21
-385.428536
 31
0.0
  0
ARC
  8
0
  6
BYLAYER
 62
     1
 10
1476.300341
 20
-382.432647
 30
0.0
 40
3.000000
 50
273.000000
 51
360.000000
  0
LINE
  8
0
  6
BYLAYER
 62
     1
 10
1388.457349
 20
-388.903906
 30
0.0
 11
1322.143333
 21
-385.428536
 31
0.0
  0
ARC
  8
0
  6
BYLAYER
 62
     1
 10
1388.300341
 20
-391.899795
 30
0.0
 40
3.000000
 50
0.0
 51
87.0
  0
ARC
  8
0
  6
BYLAYER
 62
     1
 10
1322.300341
 20
-382.432647
 30
0.0
 40
3.000000
 50
180.000000
 51
267.0
  0
LINE
  8
0
  6
BYLAYER
 62
     1
 10
1407.300341
 20
-391.899795
 30
0.0
 11
1407.300341
 21
-406.091997
 31
0.0
  0
ARC
  8
0
  6
BYLAYER
 62
     1
 10
1410.300341
 20
-406.091997
 30
0.0
 40
3.000000
 50
180.000000
 51
267.0
  0
ARC
  8
0
  6
BYLAYER
 62
     1
 10
1410.300341
 20
-391.899795
 30
0.0
 40
3.0
 50
93.000000
 51
180.000000
  0
LINE
  8
0
  6
BYLAYER
 62
     1
 10
1391.300341
 20
-391.899795
 30
0.0
 11
1391.300341
 21
-406.091997
 31
0.0
  0
ARC
  8
0
  6
BYLAYER
 62
     1
 10
1388.300341
 20
-406.091997
 30
0.0
 40
3.0
 50
273.000000
 51
360.000000
  0
LINE
  8
0
  6
BYLAYER
 62
     1
 10
1458.790862
 20
-311.751405
 30
0.0
 11
1476.457349
 21
-312.677266
 31
0.0
  0
ARC
  8
0
  6
BYLAYER
 62
     1
 10
1476.300341
 20
-315.673155
 30
0.0
 40
3.000000
 50
0.0
 51
87.0
  0
LINE
  8
0
  6
BYLAYER
 62
     1
 10
1339.809820
 20
-311.751405
 30
0.0
 11
1322.143333
 21
-312.677266
 31
0.0
  0
ARC
  8
0
  6
BYLAYER
 62
     1
 10
1322.300341
 20
-315.673155
 30
0.0
 40
3.0
 50
93.000000
 51
180.000000
  0
LINE
  8
0
  6
BYLAYER
 62
     1
 10
1399.300341
 20
-324.052901
 30
0.0
 11
1399.300341
 21
-451.552901
 31
0.0
  0
LINE
  8
0
  6
BYLAYER
 62
     1
 10
1399.300341
 20
-494.052901
 30
0.0
 11
1399.300341
 21
-481.552901
 31
0.0
  0
LINE
  8
0
  6
BYLAYER
 62
     1
 10
1399.300341
 20
-489.052901
 30
0.0
 11
1491.800341
 21
-484.205181
 31
0.0
  0
LINE
  8
0
  6
BYLAYER
 62
     1
 10
1399.300341
 20
-489.052901
 30
0.0
 11
1306.800341
 21
-484.205181
 31
0.0
  0
LINE
  8
0
  6
BYLAYER
 62
     1
 10
1299.300341
 20
-285.856300
 30
0.0
 11
1299.300341
 21
-413.552901
 31
0.0
  0
LINE
  8
0
  6
BYLAYER
 62
     1
 10
1299.300341
 20
-413.552901
 30
0.0
 11
1299.800341
 21
-414.052901
 31
0.0
  0
LINE
  8
0
  6
BYLAYER
 62
     1
 10
1299.800341
 20
-414.052901
 30
0.0
 11
1303.300341
 21
-414.052901
 31
0.0
  0
LINE
  8
0
  6
BYLAYER
 62
     1
 10
1303.300341
 20
-289.309137
 30
0.0
 11
1303.300341
 21
-449.052901
 31
0.0
  0
LINE
  8
0
  6
BYLAYER
 62
     1
 10
1303.300341
 20
-449.052901
 30
0.0
 11
1306.800341
 21
-449.236328
 31
0.0
  0
LINE
  8
0
  6
BYLAYER
 62
     1
 10
1307.300341
 20
-292.526527
 30
0.0
 11
1307.300341
 21
-308.642509
 31
0.0
  0
ARC
  8
0
  6
BYLAYER
 62
     1
 10
1305.300341
 20
-308.642509
 30
0.0
 40
2.0
 50
273.000000
 51
360.000000
  0
LINE
  8
0
  6
BYLAYER
 62
     1
 10
1303.434971
 20
-310.743014
 30
0.0
 11
1305.405013
 21
-310.639768
 31
0.0
  0
LINE
  8
0
  6
BYLAYER
 62
     1
 10
1303.434971
 20
-337.362681
 30
0.0
 11
1305.405013
 21
-337.465926
 31
0.0
  0
LINE
  8
0
  6
BYLAYER
 62
     1
 10
1307.300341
 20
-400.419768
 30
0.0
 11
1307.300341
 21
-339.463185
 31
0.0
  0
ARC
  8
0
  6
BYLAYER
 62
     1
 10
1305.300341
 20
-400.419768
 30
0.0
 40
2.0
 50
273.000000
 51
360.000000
  0
ARC
  8
0
  6
BYLAYER
 62
     1
 10
1305.300341
 20
-339.463185
 30
0.0
 40
2.0
 50
0.0
 51
87.0
  0
LINE
  8
0
  6
BYLAYER
 62
     1
 10
1303.300341
 20
-448.342280
 30
0.0
 11
1306.800341
 21
-448.525707
 31
0.0
  0
LINE
  8
0
  6
BYLAYER
 62
     1
 10
1303.300341
 20
-421.350267
 30
0.0
 11
1306.800341
 21
-421.533694
 31
0.0
  0
LINE
  8
0
  6
BYLAYER
 62
     1
 10
1303.300341
 20
-402.527328
 30
0.0
 11
1305.405013
 21
-402.417027
 31
0.0
  0
LINE
  8
0
  6
BYLAYER
 62
     7
 10
1471.926071
 20
-275.052901
 30
0.0
 11
1474.300341
 21
-275.052901
 31
0.0
  0
LINE
  8
0
  6
BYLAYER
 62
     7
 10
1475.300341
 20
-274.052901
 30
0.0
 11
1475.300341
 21
-272.538923
 31
0.0
  0
ARC
  8
0
  6
BYLAYER
 62
     7
 10
1474.300341
 20
-274.052901
 30
0.0
 40
1.000000
 50
270.0
 51
359.999999
  0
LINE
  8
0
  6
BYLAYER
 62
     7
 10
1501.317797
 20
-249.320052
 30
0.0
 11
1498.307616
 21
-249.372594
 31
0.0
  0
LINE
  8
0
  6
BYLAYER
 62
     7
 10
1502.300341
 20
-248.320204
 30
0.0
 11
1502.300341
 21
-243.813180
 31
0.0
  0
ARC
  8
0
  6
BYLAYER
 62
     7
 10
1501.300341
 20
-248.320204
 30
0.0
 40
1.0
 50
271.000214
 51
360.000000
  0
LINE
  8
0
  6
BYLAYER
 62
     7
 10
1324.300341
 20
-275.052901
 30
0.0
 11
1326.674611
 21
-275.052901
 31
0.0
  0
LINE
  8
0
  6
BYLAYER
 62
     7
 10
1323.300341
 20
-274.052901
 30
0.0
 11
1323.300341
 21
-272.538923
 31
0.0
  0
ARC
  8
0
  6
BYLAYER
 62
     7
 10
1324.300341
 20
-274.052901
 30
0.0
 40
1.0
 50
180.000000
 51
269.999996
  0
LINE
  8
0
  6
BYLAYER
 62
     7
 10
1297.282885
 20
-249.320052
 30
0.0
 11
1300.293066
 21
-249.372594
 31
0.0
  0
LINE
  8
0
  6
BYLAYER
 62
     7
 10
1296.300341
 20
-248.320204
 30
0.0
 11
1296.300341
 21
-243.813180
 31
0.0
  0
ARC
  8
0
  6
BYLAYER
 62
     7
 10
1297.300341
 20
-248.320204
 30
0.0
 40
1.0
 50
180.000000
 51
268.999783
  0
LINE
  8
0
  6
BYLAYER
 62
     7
 10
1340.300341
 20
-33.052901
 30
0.0
 11
1340.300341
 21
-64.533512
 31
0.0
  0
LINE
  8
0
  6
BYLAYER
 62
     7
 10
1458.300341
 20
-64.533512
 30
0.0
 11
1458.300341
 21
-33.052901
 31
0.0
  0
LINE
  8
0
  6
BYLAYER
 62
     7
 10
1454.016039
 20
-33.052901
 30
0.0
 11
1458.300341
 21
-33.052901
 31
0.0
  0
LINE
  8
0
  6
BYLAYER
 62
     7
 10
1346.300341
 20
-22.802901
 30
0.0
 11
1346.300341
 21
-1.302901
 31
0.0
  0
ARC
  8
0
  6
BYLAYER
 62
     7
 10
1344.800341
 20
-22.802901
 30
0.0
 40
1.500000
 50
270.0
 51
360.0
  0
ARC
  8
0
  6
BYLAYER
 62
     7
 10
1347.800341
 20
-1.302901
 30
0.0
 40
1.500000
 50
90.0
 51
180.0
  0
LINE
  8
0
  6
BYLAYER
 62
     7
 10
1347.800341
 20
0.197099
 30
0.0
 11
1399.300341
 21
0.197099
 31
0.0
  0
LINE
  8
0
  6
BYLAYER
 62
     7
 10
1352.685061
 20
-22.802901
 30
0.0
 11
1352.685061
 21
-1.302901
 31
0.0
  0
ARC
  8
0
  6
BYLAYER
 62
     7
 10
1351.185061
 20
-22.802901
 30
0.0
 40
1.500000
 50
270.0
 51
360.0
  0
ARC
  8
0
  6
BYLAYER
 62
     7
 10
1354.185061
 20
-1.302901
 30
0.0
 40
1.500000
 50
90.0
 51
180.0
  0
LINE
  8
0
  6
BYLAYER
 62
     7
 10
1393.706688
 20
0.197099
 30
0.0
 11
1394.199235
 21
-13.907599
 31
0.0
  0
ARC
  8
0
  6
BYLAYER
 62
     7
 10
1397.197407
 20
-13.802901
 30
0.0
 40
3.0
 50
182.000000
 51
270.000000
  0
LINE
  8
0
  6
BYLAYER
 62
     7
 10
1397.197407
 20
-16.802901
 30
0.0
 11
1399.300341
 21
-16.802901
 31
0.0
  0
LINE
  8
0
  6
BYLAYER
 62
     7
 10
1393.741609
 20
-0.802901
 30
0.0
 11
1399.300341
 21
-0.802901
 31
0.0
  0
LINE
  8
0
  6
BYLAYER
 62
     7
 10
1378.706688
 20
0.197099
 30
0.0
 11
1379.199235
 21
-13.907599
 31
0.0
  0
ARC
  8
0
  6
BYLAYER
 62
     7
 10
1382.197407
 20
-13.802901
 30
0.0
 40
3.0
 50
182.000000
 51
270.000000
  0
LINE
  8
0
  6
BYLAYER
 62
     7
 10
1389.401447
 20
-13.907599
 30
0.0
 11
1389.893994
 21
0.197099
 31
0.0
  0
ARC
  8
0
  6
BYLAYER
 62
     7
 10
1386.403275
 20
-13.802901
 30
0.0
 40
3.000000
 50
270.0
 51
358.0
  0
LINE
  8
0
  6
BYLAYER
 62
     7
 10
1382.197407
 20
-16.802901
 30
0.0
 11
1386.403275
 21
-16.802901
 31
0.0
  0
LINE
  8
0
  6
BYLAYER
 62
     7
 10
1378.741609
 20
-0.802901
 30
0.0
 11
1389.859073
 21
-0.802901
 31
0.0
  0
LINE
  8
0
  6
BYLAYER
 62
     7
 10
1363.706688
 20
0.197099
 30
0.0
 11
1364.199235
 21
-13.907599
 31
0.0
  0
ARC
  8
0
  6
BYLAYER
 62
     7
 10
1367.197407
 20
-13.802901
 30
0.0
 40
3.0
 50
182.000000
 51
270.000000
  0
LINE
  8
0
  6
BYLAYER
 62
     7
 10
1374.401447
 20
-13.907599
 30
0.0
 11
1374.893994
 21
0.197099
 31
0.0
  0
ARC
  8
0
  6
BYLAYER
 62
     7
 10
1371.403275
 20
-13.802901
 30
0.0
 40
3.000000
 50
270.0
 51
358.0
  0
LINE
  8
0
  6
BYLAYER
 62
     7
 10
1367.197407
 20
-16.802901
 30
0.0
 11
1371.403275
 21
-16.802901
 31
0.0
  0
LINE
  8
0
  6
BYLAYER
 62
     7
 10
1363.741609
 20
-0.802901
 30
0.0
 11
1374.859073
 21
-0.802901
 31
0.0
  0
LINE
  8
0
  6
BYLAYER
 62
     7
 10
1341.800341
 20
-24.302901
 30
0.0
 11
1399.300341
 21
-24.302901
 31
0.0
  0
ARC
  8
0
  6
BYLAYER
 62
     7
 10
1341.800341
 20
-25.802901
 30
0.0
 40
1.500000
 50
90.0
 51
180.0
  0
LINE
  8
0
  6
BYLAYER
 62
     7
 10
1340.300341
 20
-31.052901
 30
0.0
 11
1340.300341
 21
-25.802901
 31
0.0
  0
LINE
  8
0
  6
BYLAYER
 62
     7
 10
1340.300341
 20
-31.052901
 30
0.0
 11
1399.300341
 21
-31.052901
 31
0.0
  0
LINE
  8
0
  6
BYLAYER
 62
     7
 10
1452.300341
 20
-22.802901
 30
0.0
 11
1452.300341
 21
-1.302901
 31
0.0
  0
ARC
  8
0
  6
BYLAYER
 62
     7
 10
1453.800341
 20
-22.802901
 30
0.0
 40
1.500000
 50
180.000000
 51
270.000000
  0
ARC
  8
0
  6
BYLAYER
 62
     7
 10
1450.800341
 20
-1.302901
 30
0.0
 40
1.500000
 50
0.0
 51
90.0
  0
LINE
  8
0
  6
BYLAYER
 62
     7
 10
1450.800341
 20
0.197099
 30
0.0
 11
1399.300341
 21
0.197099
 31
0.0
  0
LINE
  8
0
  6
BYLAYER
 62
     7
 10
1445.915621
 20
-22.802901
 30
0.0
 11
1445.915621
 21
-1.302901
 31
0.0
  0
ARC
  8
0
  6
BYLAYER
 62
     7
 10
1447.415621
 20
-22.802901
 30
0.0
 40
1.500000
 50
180.000000
 51
270.000000
  0
ARC
  8
0
  6
BYLAYER
 62
     7
 10
1444.415621
 20
-1.302901
 30
0.0
 40
1.500000
 50
0.0
 51
90.0
  0
LINE
  8
0
  6
BYLAYER
 62
     7
 10
1404.893994
 20
0.197099
 30
0.0
 11
1404.401447
 21
-13.907599
 31
0.0
  0
ARC
  8
0
  6
BYLAYER
 62
     7
 10
1401.403275
 20
-13.802901
 30
0.0
 40
3.0
 50
270.0
 51
358.0
  0
LINE
  8
0
  6
BYLAYER
 62
     7
 10
1401.403275
 20
-16.802901
 30
0.0
 11
1399.300341
 21
-16.802901
 31
0.0
  0
LINE
  8
0
  6
BYLAYER
 62
     7
 10
1404.859073
 20
-0.802901
 30
0.0
 11
1399.300341
 21
-0.802901
 31
0.0
  0
LINE
  8
0
  6
BYLAYER
 62
     7
 10
1419.893994
 20
0.197099
 30
0.0
 11
1419.401447
 21
-13.907599
 31
0.0
  0
ARC
  8
0
  6
BYLAYER
 62
     7
 10
1416.403275
 20
-13.802901
 30
0.0
 40
3.0
 50
270.0
 51
358.0
  0
LINE
  8
0
  6
BYLAYER
 62
     7
 10
1409.199235
 20
-13.907599
 30
0.0
 11
1408.706688
 21
0.197099
 31
0.0
  0
ARC
  8
0
  6
BYLAYER
 62
     7
 10
1412.197407
 20
-13.802901
 30
0.0
 40
3.000000
 50
182.000000
 51
270.000000
  0
LINE
  8
0
  6
BYLAYER
 62
     7
 10
1416.403275
 20
-16.802901
 30
0.0
 11
1412.197407
 21
-16.802901
 31
0.0
  0
LINE
  8
0
  6
BYLAYER
 62
     7
 10
1419.859073
 20
-0.802901
 30
0.0
 11
1408.741609
 21
-0.802901
 31
0.0
  0
LINE
  8
0
  6
BYLAYER
 62
     7
 10
1434.893994
 20
0.197099
 30
0.0
 11
1434.401447
 21
-13.907599
 31
0.0
  0
ARC
  8
0
  6
BYLAYER
 62
     7
 10
1431.403275
 20
-13.802901
 30
0.0
 40
3.000000
 50
270.0
 51
358.0
  0
LINE
  8
0
  6
BYLAYER
 62
     7
 10
1424.199235
 20
-13.907599
 30
0.0
 11
1423.706688
 21
0.197099
 31
0.0
  0
ARC
  8
0
  6
BYLAYER
 62
     7
 10
1427.197407
 20
-13.802901
 30
0.0
 40
3.000000
 50
182.000000
 51
270.000000
  0
LINE
  8
0
  6
BYLAYER
 62
     7
 10
1431.403275
 20
-16.802901
 30
0.0
 11
1427.197407
 21
-16.802901
 31
0.0
  0
LINE
  8
0
  6
BYLAYER
 62
     7
 10
1434.859073
 20
-0.802901
 30
0.0
 11
1423.741609
 21
-0.802901
 31
0.0
  0
LINE
  8
0
  6
BYLAYER
 62
     7
 10
1456.800341
 20
-24.302901
 30
0.0
 11
1399.300341
 21
-24.302901
 31
0.0
  0
ARC
  8
0
  6
BYLAYER
 62
     7
 10
1456.800341
 20
-25.802901
 30
0.0
 40
1.500000
 50
0.0
 51
90.0
  0
LINE
  8
0
  6
BYLAYER
 62
     7
 10
1458.300341
 20
-31.052901
 30
0.0
 11
1458.300341
 21
-25.802901
 31
0.0
  0
LINE
  8
0
  6
BYLAYER
 62
     7
 10
1458.300341
 20
-31.052901
 30
0.0
 11
1399.300341
 21
-31.052901
 31
0.0
  0
LINE
  8
0
  6
BYLAYER
 62
     7
 10
1340.300341
 20
-31.052901
 30
0.0
 11
1340.300341
 21
-33.052901
 31
0.0
  0
LINE
  8
0
  6
BYLAYER
 62
     7
 10
1340.300341
 20
-33.052901
 30
0.0
 11
1458.300341
 21
-33.052901
 31
0.0
  0
LINE
  8
0
  6
BYLAYER
 62
     7
 10
1458.300341
 20
-31.052901
 30
0.0
 11
1458.300341
 21
-33.052901
 31
0.0
  0
LINE
  8
0
  6
BYLAYER
 62
     7
 10
1400.300341
 20
-145.052901
 30
0.0
 11
1400.300341
 21
-153.052901
 31
0.0
  0
LINE
  8
0
  6
BYLAYER
 62
     7
 10
1400.300341
 20
-135.052901
 30
0.0
 11
1400.300341
 21
-143.052901
 31
0.0
  0
LINE
  8
0
  6
BYLAYER
 62
     7
 10
1408.300341
 20
-143.052901
 30
0.0
 11
1408.300341
 21
-135.052901
 31
0.0
  0
LINE
  8
0
  6
BYLAYER
 62
     7
 10
1410.300341
 20
-143.052901
 30
0.0
 11
1410.300341
 21
-135.052901
 31
0.0
  0
LINE
  8
0
  6
BYLAYER
 62
     7
 10
1400.300341
 20
-153.052901
 30
0.0
 11
1408.300341
 21
-153.052901
 31
0.0
  0
LINE
  8
0
  6
BYLAYER
 62
     7
 10
1400.300341
 20
-145.052901
 30
0.0
 11
1408.300341
 21
-145.052901
 31
0.0
  0
LINE
  8
0
  6
BYLAYER
 62
     7
 10
1410.300341
 20
-143.052901
 30
0.0
 11
1418.138340
 21
-143.052901
 31
0.0
  0
LINE
  8
0
  6
BYLAYER
 62
     7
 10
1400.300341
 20
-143.052901
 30
0.0
 11
1408.300341
 21
-143.052901
 31
0.0
  0
LINE
  8
0
  6
BYLAYER
 62
     7
 10
1410.300341
 20
-135.052901
 30
0.0
 11
1418.138340
 21
-135.052901
 31
0.0
  0
LINE
  8
0
  6
BYLAYER
 62
     7
 10
1400.300341
 20
-135.052901
 30
0.0
 11
1408.300341
 21
-135.052901
 31
0.0
  0
LINE
  8
0
  6
BYLAYER
 62
     7
 10
1418.138340
 20
-143.052901
 30
0.0
 11
1418.138340
 21
-135.052901
 31
0.0
  0
LINE
  8
0
  6
BYLAYER
 62
     7
 10
1408.300341
 20
-153.052901
 30
0.0
 11
1408.300341
 21
-145.052901
 31
0.0
  0
LINE
  8
0
  6
BYLAYER
 62
     7
 10
1410.300341
 20
-145.052901
 30
0.0
 11
1410.300341
 21
-153.052901
 31
0.0
  0
LINE
  8
0
  6
BYLAYER
 62
     7
 10
1410.300341
 20
-153.052901
 30
0.0
 11
1418.300341
 21
-153.052901
 31
0.0
  0
LINE
  8
0
  6
BYLAYER
 62
     7
 10
1410.300341
 20
-145.052901
 30
0.0
 11
1418.300341
 21
-145.052901
 31
0.0
  0
LINE
  8
0
  6
BYLAYER
 62
     7
 10
1418.300341
 20
-153.052901
 30
0.0
 11
1418.300341
 21
-145.052901
 31
0.0
  0
LINE
  8
0
  6
BYLAYER
 62
     7
 10
1420.300341
 20
-163.052901
 30
0.0
 11
1428.300341
 21
-163.052901
 31
0.0
  0
LINE
  8
0
  6
BYLAYER
 62
     7
 10
1420.300341
 20
-145.052901
 30
0.0
 11
1420.300341
 21
-153.052901
 31
0.0
  0
LINE
  8
0
  6
BYLAYER
 62
     7
 10
1420.300341
 20
-155.052901
 30
0.0
 11
1420.300341
 21
-163.052901
 31
0.0
  0
LINE
  8
0
  6
BYLAYER
 62
     7
 10
1420.300341
 20
-155.052901
 30
0.0
 11
1428.300341
 21
-155.052901
 31
0.0
  0
LINE
  8
0
  6
BYLAYER
 62
     7
 10
1420.300341
 20
-153.052901
 30
0.0
 11
1428.300341
 21
-153.052901
 31
0.0
  0
LINE
  8
0
  6
BYLAYER
 62
     7
 10
1420.300341
 20
-145.052901
 30
0.0
 11
1428.300341
 21
-145.052901
 31
0.0
  0
LINE
  8
0
  6
BYLAYER
 62
     7
 10
1428.300341
 20
-163.052901
 30
0.0
 11
1428.300341
 21
-155.052901
 31
0.0
  0
LINE
  8
0
  6
BYLAYER
 62
     7
 10
1428.300341
 20
-153.052901
 30
0.0
 11
1428.300341
 21
-145.052901
 31
0.0
  0
LINE
  8
0
  6
BYLAYER
 62
     7
 10
1420.300341
 20
-173.052901
 30
0.0
 11
1428.300341
 21
-173.052901
 31
0.0
  0
LINE
  8
0
  6
BYLAYER
 62
     7
 10
1420.300341
 20
-165.052901
 30
0.0
 11
1420.300341
 21
-173.052901
 31
0.0
  0
LINE
  8
0
  6
BYLAYER
 62
     7
 10
1420.300341
 20
-165.052901
 30
0.0
 11
1428.300341
 21
-165.052901
 31
0.0
  0
LINE
  8
0
  6
BYLAYER
 62
     7
 10
1428.300341
 20
-173.052901
 30
0.0
 11
1428.300341
 21
-165.052901
 31
0.0
  0
LINE
  8
0
  6
BYLAYER
 62
     7
 10
1430.300341
 20
-163.052901
 30
0.0
 11
1438.300341
 21
-163.052901
 31
0.0
  0
LINE
  8
0
  6
BYLAYER
 62
     7
 10
1430.300341
 20
-155.052901
 30
0.0
 11
1430.300341
 21
-163.052901
 31
0.0
  0
LINE
  8
0
  6
BYLAYER
 62
     7
 10
1430.300341
 20
-155.052901
 30
0.0
 11
1438.300341
 21
-155.052901
 31
0.0
  0
LINE
  8
0
  6
BYLAYER
 62
     7
 10
1438.300341
 20
-163.052901
 30
0.0
 11
1438.300341
 21
-155.052901
 31
0.0
  0
LINE
  8
0
  6
BYLAYER
 62
     7
 10
1430.300341
 20
-173.052901
 30
0.0
 11
1438.300341
 21
-173.052901
 31
0.0
  0
LINE
  8
0
  6
BYLAYER
 62
     7
 10
1430.300341
 20
-165.052901
 30
0.0
 11
1430.300341
 21
-173.052901
 31
0.0
  0
LINE
  8
0
  6
BYLAYER
 62
     7
 10
1430.300341
 20
-165.052901
 30
0.0
 11
1438.300341
 21
-165.052901
 31
0.0
  0
LINE
  8
0
  6
BYLAYER
 62
     7
 10
1438.300341
 20
-173.052901
 30
0.0
 11
1438.300341
 21
-165.052901
 31
0.0
  0
LINE
  8
0
  6
BYLAYER
 62
     7
 10
1440.300341
 20
-163.052901
 30
0.0
 11
1448.300341
 21
-163.052901
 31
0.0
  0
LINE
  8
0
  6
BYLAYER
 62
     7
 10
1440.300341
 20
-155.052901
 30
0.0
 11
1440.300341
 21
-163.052901
 31
0.0
  0
LINE
  8
0
  6
BYLAYER
 62
     7
 10
1440.300341
 20
-155.052901
 30
0.0
 11
1448.300341
 21
-155.052901
 31
0.0
  0
LINE
  8
0
  6
BYLAYER
 62
     7
 10
1448.300341
 20
-163.052901
 30
0.0
 11
1448.300341
 21
-155.052901
 31
0.0
  0
LINE
  8
0
  6
BYLAYER
 62
     7
 10
1440.300341
 20
-173.052901
 30
0.0
 11
1448.300341
 21
-173.052901
 31
0.0
  0
LINE
  8
0
  6
BYLAYER
 62
     7
 10
1440.300341
 20
-165.052901
 30
0.0
 11
1440.300341
 21
-173.052901
 31
0.0
  0
LINE
  8
0
  6
BYLAYER
 62
     7
 10
1440.300341
 20
-165.052901
 30
0.0
 11
1448.300341
 21
-165.052901
 31
0.0
  0
LINE
  8
0
  6
BYLAYER
 62
     7
 10
1448.300341
 20
-173.052901
 30
0.0
 11
1448.300341
 21
-165.052901
 31
0.0
  0
LINE
  8
0
  6
BYLAYER
 62
     7
 10
1400.300341
 20
-125.052901
 30
0.0
 11
1400.300341
 21
-133.052901
 31
0.0
  0
LINE
  8
0
  6
BYLAYER
 62
     7
 10
1408.300341
 20
-133.052901
 30
0.0
 11
1408.300341
 21
-125.052901
 31
0.0
  0
LINE
  8
0
  6
BYLAYER
 62
     7
 10
1410.300341
 20
-133.052901
 30
0.0
 11
1410.300341
 21
-125.052901
 31
0.0
  0
LINE
  8
0
  6
BYLAYER
 62
     7
 10
1410.300341
 20
-133.052901
 30
0.0
 11
1418.138340
 21
-133.052901
 31
0.0
  0
LINE
  8
0
  6
BYLAYER
 62
     7
 10
1400.300341
 20
-133.052901
 30
0.0
 11
1408.300341
 21
-133.052901
 31
0.0
  0
LINE
  8
0
  6
BYLAYER
 62
     7
 10
1410.300341
 20
-125.052901
 30
0.0
 11
1418.138340
 21
-125.052901
 31
0.0
  0
LINE
  8
0
  6
BYLAYER
 62
     7
 10
1400.300341
 20
-125.052901
 30
0.0
 11
1408.300341
 21
-125.052901
 31
0.0
  0
LINE
  8
0
  6
BYLAYER
 62
     7
 10
1418.138340
 20
-133.052901
 30
0.0
 11
1418.138340
 21
-125.052901
 31
0.0
  0
LINE
  8
0
  6
BYLAYER
 62
     7
 10
1420.300341
 20
-135.052901
 30
0.0
 11
1420.300341
 21
-143.052901
 31
0.0
  0
LINE
  8
0
  6
BYLAYER
 62
     7
 10
1420.300341
 20
-143.052901
 30
0.0
 11
1428.300341
 21
-143.052901
 31
0.0
  0
LINE
  8
0
  6
BYLAYER
 62
     7
 10
1420.300341
 20
-135.052901
 30
0.0
 11
1428.300341
 21
-135.052901
 31
0.0
  0
LINE
  8
0
  6
BYLAYER
 62
     7
 10
1428.300341
 20
-143.052901
 30
0.0
 11
1428.300341
 21
-135.052901
 31
0.0
  0
LINE
  8
0
  6
BYLAYER
 62
     7
 10
1420.300341
 20
-125.052901
 30
0.0
 11
1420.300341
 21
-133.052901
 31
0.0
  0
LINE
  8
0
  6
BYLAYER
 62
     7
 10
1420.300341
 20
-133.052901
 30
0.0
 11
1428.300341
 21
-133.052901
 31
0.0
  0
LINE
  8
0
  6
BYLAYER
 62
     7
 10
1420.300341
 20
-125.052901
 30
0.0
 11
1428.300341
 21
-125.052901
 31
0.0
  0
LINE
  8
0
  6
BYLAYER
 62
     7
 10
1428.300341
 20
-133.052901
 30
0.0
 11
1428.300341
 21
-125.052901
 31
0.0
  0
LINE
  8
0
  6
BYLAYER
 62
     7
 10
1430.300341
 20
-145.052901
 30
0.0
 11
1430.300341
 21
-153.052901
 31
0.0
  0
LINE
  8
0
  6
BYLAYER
 62
     7
 10
1430.300341
 20
-153.052901
 30
0.0
 11
1438.300341
 21
-153.052901
 31
0.0
  0
LINE
  8
0
  6
BYLAYER
 62
     7
 10
1430.300341
 20
-145.052901
 30
0.0
 11
1438.300341
 21
-145.052901
 31
0.0
  0
LINE
  8
0
  6
BYLAYER
 62
     7
 10
1438.300341
 20
-153.052901
 30
0.0
 11
1438.300341
 21
-145.052901
 31
0.0
  0
LINE
  8
0
  6
BYLAYER
 62
     7
 10
1430.300341
 20
-135.052901
 30
0.0
 11
1430.300341
 21
-143.052901
 31
0.0
  0
LINE
  8
0
  6
BYLAYER
 62
     7
 10
1430.300341
 20
-143.052901
 30
0.0
 11
1438.300341
 21
-143.052901
 31
0.0
  0
LINE
  8
0
  6
BYLAYER
 62
     7
 10
1430.300341
 20
-135.052901
 30
0.0
 11
1438.300341
 21
-135.052901
 31
0.0
  0
LINE
  8
0
  6
BYLAYER
 62
     7
 10
1438.300341
 20
-143.052901
 30
0.0
 11
1438.300341
 21
-135.052901
 31
0.0
  0
LINE
  8
0
  6
BYLAYER
 62
     7
 10
1440.300341
 20
-145.052901
 30
0.0
 11
1440.300341
 21
-153.052901
 31
0.0
  0
LINE
  8
0
  6
BYLAYER
 62
     7
 10
1440.300341
 20
-153.052901
 30
0.0
 11
1448.300341
 21
-153.052901
 31
0.0
  0
LINE
  8
0
  6
BYLAYER
 62
     7
 10
1440.300341
 20
-145.052901
 30
0.0
 11
1448.300341
 21
-145.052901
 31
0.0
  0
LINE
  8
0
  6
BYLAYER
 62
     7
 10
1448.300341
 20
-153.052901
 30
0.0
 11
1448.300341
 21
-145.052901
 31
0.0
  0
CIRCLE
  8
0
  6
BYLAYER
 62
     7
 10
1399.300341
 20
-174.052901
 30
0.0
 40
4.0
  0
LINE
  8
0
  6
BYLAYER
 62
     7
 10
1450.300341
 20
-163.052901
 30
0.0
 11
1458.300341
 21
-163.052901
 31
0.0
  0
LINE
  8
0
  6
BYLAYER
 62
     7
 10
1450.300341
 20
-155.052901
 30
0.0
 11
1450.300341
 21
-163.052901
 31
0.0
  0
LINE
  8
0
  6
BYLAYER
 62
     7
 10
1450.300341
 20
-155.052901
 30
0.0
 11
1458.300341
 21
-155.052901
 31
0.0
  0
LINE
  8
0
  6
BYLAYER
 62
     7
 10
1458.300341
 20
-163.052901
 30
0.0
 11
1458.300341
 21
-155.052901
 31
0.0
  0
LINE
  8
0
  6
BYLAYER
 62
     7
 10
1450.300341
 20
-173.052901
 30
0.0
 11
1458.300341
 21
-173.052901
 31
0.0
  0
LINE
  8
0
  6
BYLAYER
 62
     7
 10
1450.300341
 20
-165.052901
 30
0.0
 11
1450.300341
 21
-173.052901
 31
0.0
  0
LINE
  8
0
  6
BYLAYER
 62
     7
 10
1450.300341
 20
-165.052901
 30
0.0
 11
1458.300341
 21
-165.052901
 31
0.0
  0
LINE
  8
0
  6
BYLAYER
 62
     7
 10
1458.300341
 20
-173.052901
 30
0.0
 11
1458.300341
 21
-165.052901
 31
0.0
  0
LINE
  8
0
  6
BYLAYER
 62
     7
 10
1450.300341
 20
-145.052901
 30
0.0
 11
1450.300341
 21
-153.052901
 31
0.0
  0
LINE
  8
0
  6
BYLAYER
 62
     7
 10
1450.300341
 20
-153.052901
 30
0.0
 11
1458.300341
 21
-153.052901
 31
0.0
  0
LINE
  8
0
  6
BYLAYER
 62
     7
 10
1450.300341
 20
-145.052901
 30
0.0
 11
1458.300341
 21
-145.052901
 31
0.0
  0
LINE
  8
0
  6
BYLAYER
 62
     7
 10
1458.300341
 20
-153.052901
 30
0.0
 11
1458.300341
 21
-145.052901
 31
0.0
  0
LINE
  8
0
  6
BYLAYER
 62
     7
 10
1400.300341
 20
-115.052901
 30
0.0
 11
1400.300341
 21
-123.052901
 31
0.0
  0
LINE
  8
0
  6
BYLAYER
 62
     7
 10
1408.300341
 20
-123.052901
 30
0.0
 11
1408.300341
 21
-115.052901
 31
0.0
  0
LINE
  8
0
  6
BYLAYER
 62
     7
 10
1410.300341
 20
-123.052901
 30
0.0
 11
1410.300341
 21
-115.052901
 31
0.0
  0
LINE
  8
0
  6
BYLAYER
 62
     7
 10
1410.300341
 20
-123.052901
 30
0.0
 11
1418.138340
 21
-123.052901
 31
0.0
  0
LINE
  8
0
  6
BYLAYER
 62
     7
 10
1400.300341
 20
-123.052901
 30
0.0
 11
1408.300341
 21
-123.052901
 31
0.0
  0
LINE
  8
0
  6
BYLAYER
 62
     7
 10
1410.300341
 20
-115.052901
 30
0.0
 11
1418.138340
 21
-115.052901
 31
0.0
  0
LINE
  8
0
  6
BYLAYER
 62
     7
 10
1400.300341
 20
-115.052901
 30
0.0
 11
1408.300341
 21
-115.052901
 31
0.0
  0
LINE
  8
0
  6
BYLAYER
 62
     7
 10
1418.138340
 20
-123.052901
 30
0.0
 11
1418.138340
 21
-115.052901
 31
0.0
  0
LINE
  8
0
  6
BYLAYER
 62
     7
 10
1420.300341
 20
-115.052901
 30
0.0
 11
1420.300341
 21
-123.052901
 31
0.0
  0
LINE
  8
0
  6
BYLAYER
 62
     7
 10
1420.300341
 20
-123.052901
 30
0.0
 11
1428.300341
 21
-123.052901
 31
0.0
  0
LINE
  8
0
  6
BYLAYER
 62
     7
 10
1420.300341
 20
-115.052901
 30
0.0
 11
1428.300341
 21
-115.052901
 31
0.0
  0
LINE
  8
0
  6
BYLAYER
 62
     7
 10
1428.300341
 20
-123.052901
 30
0.0
 11
1428.300341
 21
-115.052901
 31
0.0
  0
LINE
  8
0
  6
BYLAYER
 62
     7
 10
1430.300341
 20
-125.052901
 30
0.0
 11
1430.300341
 21
-133.052901
 31
0.0
  0
LINE
  8
0
  6
BYLAYER
 62
     7
 10
1430.300341
 20
-133.052901
 30
0.0
 11
1438.300341
 21
-133.052901
 31
0.0
  0
LINE
  8
0
  6
BYLAYER
 62
     7
 10
1430.300341
 20
-125.052901
 30
0.0
 11
1438.300341
 21
-125.052901
 31
0.0
  0
LINE
  8
0
  6
BYLAYER
 62
     7
 10
1438.300341
 20
-133.052901
 30
0.0
 11
1438.300341
 21
-125.052901
 31
0.0
  0
LINE
  8
0
  6
BYLAYER
 62
     7
 10
1440.300341
 20
-135.052901
 30
0.0
 11
1440.300341
 21
-143.052901
 31
0.0
  0
LINE
  8
0
  6
BYLAYER
 62
     7
 10
1440.300341
 20
-143.052901
 30
0.0
 11
1448.300341
 21
-143.052901
 31
0.0
  0
LINE
  8
0
  6
BYLAYER
 62
     7
 10
1440.300341
 20
-135.052901
 30
0.0
 11
1448.300341
 21
-135.052901
 31
0.0
  0
LINE
  8
0
  6
BYLAYER
 62
     7
 10
1448.300341
 20
-143.052901
 30
0.0
 11
1448.300341
 21
-135.052901
 31
0.0
  0
LINE
  8
0
  6
BYLAYER
 62
     7
 10
1400.300341
 20
-105.052901
 30
0.0
 11
1400.300341
 21
-113.052901
 31
0.0
  0
LINE
  8
0
  6
BYLAYER
 62
     7
 10
1408.300341
 20
-113.052901
 30
0.0
 11
1408.300341
 21
-105.052901
 31
0.0
  0
LINE
  8
0
  6
BYLAYER
 62
     7
 10
1410.300341
 20
-113.052901
 30
0.0
 11
1410.300341
 21
-105.052901
 31
0.0
  0
LINE
  8
0
  6
BYLAYER
 62
     7
 10
1410.300341
 20
-113.052901
 30
0.0
 11
1418.138340
 21
-113.052901
 31
0.0
  0
LINE
  8
0
  6
BYLAYER
 62
     7
 10
1400.300341
 20
-113.052901
 30
0.0
 11
1408.300341
 21
-113.052901
 31
0.0
  0
LINE
  8
0
  6
BYLAYER
 62
     7
 10
1410.300341
 20
-105.052901
 30
0.0
 11
1418.138340
 21
-105.052901
 31
0.0
  0
LINE
  8
0
  6
BYLAYER
 62
     7
 10
1400.300341
 20
-105.052901
 30
0.0
 11
1408.300341
 21
-105.052901
 31
0.0
  0
LINE
  8
0
  6
BYLAYER
 62
     7
 10
1418.138340
 20
-113.052901
 30
0.0
 11
1418.138340
 21
-105.052901
 31
0.0
  0
LINE
  8
0
  6
BYLAYER
 62
     7
 10
1460.300341
 20
-163.052901
 30
0.0
 11
1468.300341
 21
-163.052901
 31
0.0
  0
LINE
  8
0
  6
BYLAYER
 62
     7
 10
1460.300341
 20
-155.052901
 30
0.0
 11
1460.300341
 21
-163.052901
 31
0.0
  0
LINE
  8
0
  6
BYLAYER
 62
     7
 10
1460.300341
 20
-155.052901
 30
0.0
 11
1468.300341
 21
-155.052901
 31
0.0
  0
LINE
  8
0
  6
BYLAYER
 62
     7
 10
1468.300341
 20
-163.052901
 30
0.0
 11
1468.300341
 21
-155.052901
 31
0.0
  0
LINE
  8
0
  6
BYLAYER
 62
     7
 10
1460.300341
 20
-173.052901
 30
0.0
 11
1468.300341
 21
-173.052901
 31
0.0
  0
LINE
  8
0
  6
BYLAYER
 62
     7
 10
1460.300341
 20
-165.052901
 30
0.0
 11
1460.300341
 21
-173.052901
 31
0.0
  0
LINE
  8
0
  6
BYLAYER
 62
     7
 10
1460.300341
 20
-165.052901
 30
0.0
 11
1468.300341
 21
-165.052901
 31
0.0
  0
LINE
  8
0
  6
BYLAYER
 62
     7
 10
1468.300341
 20
-173.052901
 30
0.0
 11
1468.300341
 21
-165.052901
 31
0.0
  0
LINE
  8
0
  6
BYLAYER
 62
     7
 10
1430.300341
 20
-115.052901
 30
0.0
 11
1430.300341
 21
-123.052901
 31
0.0
  0
LINE
  8
0
  6
BYLAYER
 62
     7
 10
1430.300341
 20
-123.052901
 30
0.0
 11
1438.300341
 21
-123.052901
 31
0.0
  0
LINE
  8
0
  6
BYLAYER
 62
     7
 10
1430.300341
 20
-115.052901
 30
0.0
 11
1438.300341
 21
-115.052901
 31
0.0
  0
LINE
  8
0
  6
BYLAYER
 62
     7
 10
1438.300341
 20
-123.052901
 30
0.0
 11
1438.300341
 21
-115.052901
 31
0.0
  0
LINE
  8
0
  6
BYLAYER
 62
     7
 10
1440.300341
 20
-125.052901
 30
0.0
 11
1440.300341
 21
-133.052901
 31
0.0
  0
LINE
  8
0
  6
BYLAYER
 62
     7
 10
1440.300341
 20
-133.052901
 30
0.0
 11
1448.300341
 21
-133.052901
 31
0.0
  0
LINE
  8
0
  6
BYLAYER
 62
     7
 10
1440.300341
 20
-125.052901
 30
0.0
 11
1448.300341
 21
-125.052901
 31
0.0
  0
LINE
  8
0
  6
BYLAYER
 62
     7
 10
1448.300341
 20
-133.052901
 30
0.0
 11
1448.300341
 21
-125.052901
 31
0.0
  0
LINE
  8
0
  6
BYLAYER
 62
     7
 10
1450.300341
 20
-135.052901
 30
0.0
 11
1450.300341
 21
-143.052901
 31
0.0
  0
LINE
  8
0
  6
BYLAYER
 62
     7
 10
1450.300341
 20
-143.052901
 30
0.0
 11
1458.300341
 21
-143.052901
 31
0.0
  0
LINE
  8
0
  6
BYLAYER
 62
     7
 10
1450.300341
 20
-135.052901
 30
0.0
 11
1458.300341
 21
-135.052901
 31
0.0
  0
LINE
  8
0
  6
BYLAYER
 62
     7
 10
1458.300341
 20
-143.052901
 30
0.0
 11
1458.300341
 21
-135.052901
 31
0.0
  0
LINE
  8
0
  6
BYLAYER
 62
     7
 10
1400.300341
 20
-95.052901
 30
0.0
 11
1400.300341
 21
-103.052901
 31
0.0
  0
LINE
  8
0
  6
BYLAYER
 62
     7
 10
1408.300341
 20
-103.052901
 30
0.0
 11
1408.300341
 21
-95.052901
 31
0.0
  0
LINE
  8
0
  6
BYLAYER
 62
     7
 10
1400.300341
 20
-103.052901
 30
0.0
 11
1408.300341
 21
-103.052901
 31
0.0
  0
LINE
  8
0
  6
BYLAYER
 62
     7
 10
1400.300341
 20
-95.052901
 30
0.0
 11
1408.300341
 21
-95.052901
 31
0.0
  0
LINE
  8
0
  6
BYLAYER
 62
     7
 10
1470.300341
 20
-173.052901
 30
0.0
 11
1478.300341
 21
-173.052901
 31
0.0
  0
LINE
  8
0
  6
BYLAYER
 62
     7
 10
1470.300341
 20
-165.052901
 30
0.0
 11
1470.300341
 21
-173.052901
 31
0.0
  0
LINE
  8
0
  6
BYLAYER
 62
     7
 10
1470.300341
 20
-165.052901
 30
0.0
 11
1478.300341
 21
-165.052901
 31
0.0
  0
LINE
  8
0
  6
BYLAYER
 62
     7
 10
1478.300341
 20
-173.052901
 30
0.0
 11
1478.300341
 21
-165.052901
 31
0.0
  0
LINE
  8
0
  6
BYLAYER
 62
     7
 10
1420.300341
 20
-105.052901
 30
0.0
 11
1420.300341
 21
-113.052901
 31
0.0
  0
LINE
  8
0
  6
BYLAYER
 62
     7
 10
1420.300341
 20
-113.052901
 30
0.0
 11
1428.300341
 21
-113.052901
 31
0.0
  0
LINE
  8
0
  6
BYLAYER
 62
     7
 10
1420.300341
 20
-105.052901
 30
0.0
 11
1428.300341
 21
-105.052901
 31
0.0
  0
LINE
  8
0
  6
BYLAYER
 62
     7
 10
1428.300341
 20
-113.052901
 30
0.0
 11
1428.300341
 21
-105.052901
 31
0.0
  0
LINE
  8
0
  6
BYLAYER
 62
     7
 10
1460.300341
 20
-145.052901
 30
0.0
 11
1460.300341
 21
-153.052901
 31
0.0
  0
LINE
  8
0
  6
BYLAYER
 62
     7
 10
1460.300341
 20
-153.052901
 30
0.0
 11
1468.300341
 21
-153.052901
 31
0.0
  0
LINE
  8
0
  6
BYLAYER
 62
     7
 10
1460.300341
 20
-145.052901
 30
0.0
 11
1468.300341
 21
-145.052901
 31
0.0
  0
LINE
  8
0
  6
BYLAYER
 62
     7
 10
1468.300341
 20
-153.052901
 30
0.0
 11
1468.300341
 21
-145.052901
 31
0.0
  0
LINE
  8
0
  6
BYLAYER
 62
     7
 10
1430.300341
 20
-105.052901
 30
0.0
 11
1430.300341
 21
-113.052901
 31
0.0
  0
LINE
  8
0
  6
BYLAYER
 62
     7
 10
1430.300341
 20
-113.052901
 30
0.0
 11
1438.300341
 21
-113.052901
 31
0.0
  0
LINE
  8
0
  6
BYLAYER
 62
     7
 10
1430.300341
 20
-105.052901
 30
0.0
 11
1438.300341
 21
-105.052901
 31
0.0
  0
LINE
  8
0
  6
BYLAYER
 62
     7
 10
1438.300341
 20
-113.052901
 30
0.0
 11
1438.300341
 21
-105.052901
 31
0.0
  0
LINE
  8
0
  6
BYLAYER
 62
     7
 10
1440.300341
 20
-115.052901
 30
0.0
 11
1440.300341
 21
-123.052901
 31
0.0
  0
LINE
  8
0
  6
BYLAYER
 62
     7
 10
1440.300341
 20
-123.052901
 30
0.0
 11
1448.300341
 21
-123.052901
 31
0.0
  0
LINE
  8
0
  6
BYLAYER
 62
     7
 10
1440.300341
 20
-115.052901
 30
0.0
 11
1448.300341
 21
-115.052901
 31
0.0
  0
LINE
  8
0
  6
BYLAYER
 62
     7
 10
1448.300341
 20
-123.052901
 30
0.0
 11
1448.300341
 21
-115.052901
 31
0.0
  0
LINE
  8
0
  6
BYLAYER
 62
     7
 10
1450.300341
 20
-125.052901
 30
0.0
 11
1450.300341
 21
-133.052901
 31
0.0
  0
LINE
  8
0
  6
BYLAYER
 62
     7
 10
1450.300341
 20
-133.052901
 30
0.0
 11
1458.300341
 21
-133.052901
 31
0.0
  0
LINE
  8
0
  6
BYLAYER
 62
     7
 10
1450.300341
 20
-125.052901
 30
0.0
 11
1458.300341
 21
-125.052901
 31
0.0
  0
LINE
  8
0
  6
BYLAYER
 62
     7
 10
1458.300341
 20
-133.052901
 30
0.0
 11
1458.300341
 21
-125.052901
 31
0.0
  0
LINE
  8
0
  6
BYLAYER
 62
     7
 10
1460.300341
 20
-135.052901
 30
0.0
 11
1460.300341
 21
-143.052901
 31
0.0
  0
LINE
  8
0
  6
BYLAYER
 62
     7
 10
1460.300341
 20
-143.052901
 30
0.0
 11
1468.300341
 21
-143.052901
 31
0.0
  0
LINE
  8
0
  6
BYLAYER
 62
     7
 10
1460.300341
 20
-135.052901
 30
0.0
 11
1468.300341
 21
-135.052901
 31
0.0
  0
LINE
  8
0
  6
BYLAYER
 62
     7
 10
1468.300341
 20
-143.052901
 30
0.0
 11
1468.300341
 21
-135.052901
 31
0.0
  0
LINE
  8
0
  6
BYLAYER
 62
     7
 10
1410.300341
 20
-103.052901
 30
0.0
 11
1410.300341
 21
-95.052901
 31
0.0
  0
LINE
  8
0
  6
BYLAYER
 62
     7
 10
1410.300341
 20
-103.052901
 30
0.0
 11
1418.138340
 21
-103.052901
 31
0.0
  0
LINE
  8
0
  6
BYLAYER
 62
     7
 10
1410.300341
 20
-95.052901
 30
0.0
 11
1418.138340
 21
-95.052901
 31
0.0
  0
LINE
  8
0
  6
BYLAYER
 62
     7
 10
1418.138340
 20
-103.052901
 30
0.0
 11
1418.138340
 21
-95.052901
 31
0.0
  0
LINE
  8
0
  6
BYLAYER
 62
     7
 10
1470.300341
 20
-163.052901
 30
0.0
 11
1478.300341
 21
-163.052901
 31
0.0
  0
LINE
  8
0
  6
BYLAYER
 62
     7
 10
1470.300341
 20
-155.052901
 30
0.0
 11
1470.300341
 21
-163.052901
 31
0.0
  0
LINE
  8
0
  6
BYLAYER
 62
     7
 10
1470.300341
 20
-155.052901
 30
0.0
 11
1478.300341
 21
-155.052901
 31
0.0
  0
LINE
  8
0
  6
BYLAYER
 62
     7
 10
1478.300341
 20
-163.052901
 30
0.0
 11
1478.300341
 21
-155.052901
 31
0.0
  0
LINE
  8
0
  6
BYLAYER
 62
     7
 10
1400.300341
 20
-85.052901
 30
0.0
 11
1400.300341
 21
-93.052901
 31
0.0
  0
LINE
  8
0
  6
BYLAYER
 62
     7
 10
1408.300341
 20
-93.052901
 30
0.0
 11
1408.300341
 21
-85.052901
 31
0.0
  0
LINE
  8
0
  6
BYLAYER
 62
     7
 10
1400.300341
 20
-93.052901
 30
0.0
 11
1408.300341
 21
-93.052901
 31
0.0
  0
LINE
  8
0
  6
BYLAYER
 62
     7
 10
1400.300341
 20
-85.052901
 30
0.0
 11
1408.300341
 21
-85.052901
 31
0.0
  0
LINE
  8
0
  6
BYLAYER
 62
     7
 10
1410.300341
 20
-93.052901
 30
0.0
 11
1410.300341
 21
-85.052901
 31
0.0
  0
LINE
  8
0
  6
BYLAYER
 62
     7
 10
1410.300341
 20
-93.052901
 30
0.0
 11
1418.138340
 21
-93.052901
 31
0.0
  0
LINE
  8
0
  6
BYLAYER
 62
     7
 10
1410.300341
 20
-85.052901
 30
0.0
 11
1418.138340
 21
-85.052901
 31
0.0
  0
LINE
  8
0
  6
BYLAYER
 62
     7
 10
1418.138340
 20
-93.052901
 30
0.0
 11
1418.138340
 21
-85.052901
 31
0.0
  0
LINE
  8
0
  6
BYLAYER
 62
     7
 10
1420.300341
 20
-95.052901
 30
0.0
 11
1420.300341
 21
-103.052901
 31
0.0
  0
LINE
  8
0
  6
BYLAYER
 62
     7
 10
1420.300341
 20
-103.052901
 30
0.0
 11
1428.300341
 21
-103.052901
 31
0.0
  0
LINE
  8
0
  6
BYLAYER
 62
     7
 10
1420.300341
 20
-95.052901
 30
0.0
 11
1428.300341
 21
-95.052901
 31
0.0
  0
LINE
  8
0
  6
BYLAYER
 62
     7
 10
1428.300341
 20
-103.052901
 30
0.0
 11
1428.300341
 21
-95.052901
 31
0.0
  0
LINE
  8
0
  6
BYLAYER
 62
     7
 10
1430.300341
 20
-95.052901
 30
0.0
 11
1430.300341
 21
-103.052901
 31
0.0
  0
LINE
  8
0
  6
BYLAYER
 62
     7
 10
1430.300341
 20
-103.052901
 30
0.0
 11
1438.300341
 21
-103.052901
 31
0.0
  0
LINE
  8
0
  6
BYLAYER
 62
     7
 10
1430.300341
 20
-95.052901
 30
0.0
 11
1438.300341
 21
-95.052901
 31
0.0
  0
LINE
  8
0
  6
BYLAYER
 62
     7
 10
1438.300341
 20
-103.052901
 30
0.0
 11
1438.300341
 21
-95.052901
 31
0.0
  0
LINE
  8
0
  6
BYLAYER
 62
     7
 10
1440.300341
 20
-105.052901
 30
0.0
 11
1440.300341
 21
-113.052901
 31
0.0
  0
LINE
  8
0
  6
BYLAYER
 62
     7
 10
1440.300341
 20
-113.052901
 30
0.0
 11
1448.300341
 21
-113.052901
 31
0.0
  0
LINE
  8
0
  6
BYLAYER
 62
     7
 10
1440.300341
 20
-105.052901
 30
0.0
 11
1448.300341
 21
-105.052901
 31
0.0
  0
LINE
  8
0
  6
BYLAYER
 62
     7
 10
1448.300341
 20
-113.052901
 30
0.0
 11
1448.300341
 21
-105.052901
 31
0.0
  0
LINE
  8
0
  6
BYLAYER
 62
     7
 10
1450.300341
 20
-115.052901
 30
0.0
 11
1450.300341
 21
-123.052901
 31
0.0
  0
LINE
  8
0
  6
BYLAYER
 62
     7
 10
1450.300341
 20
-123.052901
 30
0.0
 11
1458.300341
 21
-123.052901
 31
0.0
  0
LINE
  8
0
  6
BYLAYER
 62
     7
 10
1450.300341
 20
-115.052901
 30
0.0
 11
1458.300341
 21
-115.052901
 31
0.0
  0
LINE
  8
0
  6
BYLAYER
 62
     7
 10
1458.300341
 20
-123.052901
 30
0.0
 11
1458.300341
 21
-115.052901
 31
0.0
  0
LINE
  8
0
  6
BYLAYER
 62
     7
 10
1460.300341
 20
-125.052901
 30
0.0
 11
1460.300341
 21
-133.052901
 31
0.0
  0
LINE
  8
0
  6
BYLAYER
 62
     7
 10
1460.300341
 20
-133.052901
 30
0.0
 11
1468.300341
 21
-133.052901
 31
0.0
  0
LINE
  8
0
  6
BYLAYER
 62
     7
 10
1460.300341
 20
-125.052901
 30
0.0
 11
1468.300341
 21
-125.052901
 31
0.0
  0
LINE
  8
0
  6
BYLAYER
 62
     7
 10
1468.300341
 20
-133.052901
 30
0.0
 11
1468.300341
 21
-125.052901
 31
0.0
  0
LINE
  8
0
  6
BYLAYER
 62
     7
 10
1470.300341
 20
-153.052901
 30
0.0
 11
1478.300341
 21
-153.052901
 31
0.0
  0
LINE
  8
0
  6
BYLAYER
 62
     7
 10
1470.300341
 20
-145.052901
 30
0.0
 11
1470.300341
 21
-153.052901
 31
0.0
  0
LINE
  8
0
  6
BYLAYER
 62
     7
 10
1470.300341
 20
-145.052901
 30
0.0
 11
1478.300341
 21
-145.052901
 31
0.0
  0
LINE
  8
0
  6
BYLAYER
 62
     7
 10
1478.300341
 20
-153.052901
 30
0.0
 11
1478.300341
 21
-145.052901
 31
0.0
  0
LINE
  8
0
  6
BYLAYER
 62
     7
 10
1470.300341
 20
-143.052901
 30
0.0
 11
1478.300341
 21
-143.052901
 31
0.0
  0
LINE
  8
0
  6
BYLAYER
 62
     7
 10
1470.300341
 20
-135.052901
 30
0.0
 11
1470.300341
 21
-143.052901
 31
0.0
  0
LINE
  8
0
  6
BYLAYER
 62
     7
 10
1470.300341
 20
-135.052901
 30
0.0
 11
1478.300341
 21
-135.052901
 31
0.0
  0
LINE
  8
0
  6
BYLAYER
 62
     7
 10
1478.300341
 20
-143.052901
 30
0.0
 11
1478.300341
 21
-135.052901
 31
0.0
  0
LINE
  8
0
  6
BYLAYER
 62
     7
 10
1480.300341
 20
-173.052901
 30
0.0
 11
1488.300341
 21
-173.052901
 31
0.0
  0
LINE
  8
0
  6
BYLAYER
 62
     7
 10
1480.300341
 20
-165.052901
 30
0.0
 11
1480.300341
 21
-173.052901
 31
0.0
  0
LINE
  8
0
  6
BYLAYER
 62
     7
 10
1480.300341
 20
-165.052901
 30
0.0
 11
1488.300341
 21
-165.052901
 31
0.0
  0
LINE
  8
0
  6
BYLAYER
 62
     7
 10
1488.300341
 20
-173.052901
 30
0.0
 11
1488.300341
 21
-165.052901
 31
0.0
  0
LINE
  8
0
  6
BYLAYER
 62
     7
 10
1480.300341
 20
-163.052901
 30
0.0
 11
1488.300341
 21
-163.052901
 31
0.0
  0
LINE
  8
0
  6
BYLAYER
 62
     7
 10
1480.300341
 20
-155.052901
 30
0.0
 11
1480.300341
 21
-163.052901
 31
0.0
  0
LINE
  8
0
  6
BYLAYER
 62
     7
 10
1480.300341
 20
-155.052901
 30
0.0
 11
1488.300341
 21
-155.052901
 31
0.0
  0
LINE
  8
0
  6
BYLAYER
 62
     7
 10
1488.300341
 20
-163.052901
 30
0.0
 11
1488.300341
 21
-155.052901
 31
0.0
  0
LINE
  8
0
  6
BYLAYER
 62
     7
 10
1398.300341
 20
-145.052901
 30
0.0
 11
1398.300341
 21
-153.052901
 31
0.0
  0
LINE
  8
0
  6
BYLAYER
 62
     7
 10
1398.300341
 20
-135.052901
 30
0.0
 11
1398.300341
 21
-143.052901
 31
0.0
  0
LINE
  8
0
  6
BYLAYER
 62
     7
 10
1390.300341
 20
-143.052901
 30
0.0
 11
1390.300341
 21
-135.052901
 31
0.0
  0
LINE
  8
0
  6
BYLAYER
 62
     7
 10
1388.300341
 20
-143.052901
 30
0.0
 11
1388.300341
 21
-135.052901
 31
0.0
  0
LINE
  8
0
  6
BYLAYER
 62
     7
 10
1398.300341
 20
-153.052901
 30
0.0
 11
1390.300341
 21
-153.052901
 31
0.0
  0
LINE
  8
0
  6
BYLAYER
 62
     7
 10
1398.300341
 20
-145.052901
 30
0.0
 11
1390.300341
 21
-145.052901
 31
0.0
  0
LINE
  8
0
  6
BYLAYER
 62
     7
 10
1388.300341
 20
-143.052901
 30
0.0
 11
1380.462342
 21
-143.052901
 31
0.0
  0
LINE
  8
0
  6
BYLAYER
 62
     7
 10
1398.300341
 20
-143.052901
 30
0.0
 11
1390.300341
 21
-143.052901
 31
0.0
  0
LINE
  8
0
  6
BYLAYER
 62
     7
 10
1388.300341
 20
-135.052901
 30
0.0
 11
1380.462342
 21
-135.052901
 31
0.0
  0
LINE
  8
0
  6
BYLAYER
 62
     7
 10
1398.300341
 20
-135.052901
 30
0.0
 11
1390.300341
 21
-135.052901
 31
0.0
  0
LINE
  8
0
  6
BYLAYER
 62
     7
 10
1380.462342
 20
-143.052901
 30
0.0
 11
1380.462342
 21
-135.052901
 31
0.0
  0
LINE
  8
0
  6
BYLAYER
 62
     7
 10
1390.300341
 20
-153.052901
 30
0.0
 11
1390.300341
 21
-145.052901
 31
0.0
  0
LINE
  8
0
  6
BYLAYER
 62
     7
 10
1388.300341
 20
-145.052901
 30
0.0
 11
1388.300341
 21
-153.052901
 31
0.0
  0
LINE
  8
0
  6
BYLAYER
 62
     7
 10
1388.300341
 20
-153.052901
 30
0.0
 11
1380.300341
 21
-153.052901
 31
0.0
  0
LINE
  8
0
  6
BYLAYER
 62
     7
 10
1388.300341
 20
-145.052901
 30
0.0
 11
1380.300341
 21
-145.052901
 31
0.0
  0
LINE
  8
0
  6
BYLAYER
 62
     7
 10
1380.300341
 20
-153.052901
 30
0.0
 11
1380.300341
 21
-145.052901
 31
0.0
  0
LINE
  8
0
  6
BYLAYER
 62
     7
 10
1378.300341
 20
-163.052901
 30
0.0
 11
1370.300341
 21
-163.052901
 31
0.0
  0
LINE
  8
0
  6
BYLAYER
 62
     7
 10
1378.300341
 20
-145.052901
 30
0.0
 11
1378.300341
 21
-153.052901
 31
0.0
  0
LINE
  8
0
  6
BYLAYER
 62
     7
 10
1378.300341
 20
-155.052901
 30
0.0
 11
1378.300341
 21
-163.052901
 31
0.0
  0
LINE
  8
0
  6
BYLAYER
 62
     7
 10
1378.300341
 20
-155.052901
 30
0.0
 11
1370.300341
 21
-155.052901
 31
0.0
  0
LINE
  8
0
  6
BYLAYER
 62
     7
 10
1378.300341
 20
-153.052901
 30
0.0
 11
1370.300341
 21
-153.052901
 31
0.0
  0
LINE
  8
0
  6
BYLAYER
 62
     7
 10
1378.300341
 20
-145.052901
 30
0.0
 11
1370.300341
 21
-145.052901
 31
0.0
  0
LINE
  8
0
  6
BYLAYER
 62
     7
 10
1370.300341
 20
-163.052901
 30
0.0
 11
1370.300341
 21
-155.052901
 31
0.0
  0
LINE
  8
0
  6
BYLAYER
 62
     7
 10
1370.300341
 20
-153.052901
 30
0.0
 11
1370.300341
 21
-145.052901
 31
0.0
  0
LINE
  8
0
  6
BYLAYER
 62
     7
 10
1378.300341
 20
-173.052901
 30
0.0
 11
1370.300341
 21
-173.052901
 31
0.0
  0
LINE
  8
0
  6
BYLAYER
 62
     7
 10
1378.300341
 20
-165.052901
 30
0.0
 11
1378.300341
 21
-173.052901
 31
0.0
  0
LINE
  8
0
  6
BYLAYER
 62
     7
 10
1378.300341
 20
-165.052901
 30
0.0
 11
1370.300341
 21
-165.052901
 31
0.0
  0
LINE
  8
0
  6
BYLAYER
 62
     7
 10
1370.300341
 20
-173.052901
 30
0.0
 11
1370.300341
 21
-165.052901
 31
0.0
  0
LINE
  8
0
  6
BYLAYER
 62
     7
 10
1368.300341
 20
-163.052901
 30
0.0
 11
1360.300341
 21
-163.052901
 31
0.0
  0
LINE
  8
0
  6
BYLAYER
 62
     7
 10
1368.300341
 20
-155.052901
 30
0.0
 11
1368.300341
 21
-163.052901
 31
0.0
  0
LINE
  8
0
  6
BYLAYER
 62
     7
 10
1368.300341
 20
-155.052901
 30
0.0
 11
1360.300341
 21
-155.052901
 31
0.0
  0
LINE
  8
0
  6
BYLAYER
 62
     7
 10
1360.300341
 20
-163.052901
 30
0.0
 11
1360.300341
 21
-155.052901
 31
0.0
  0
LINE
  8
0
  6
BYLAYER
 62
     7
 10
1368.300341
 20
-173.052901
 30
0.0
 11
1360.300341
 21
-173.052901
 31
0.0
  0
LINE
  8
0
  6
BYLAYER
 62
     7
 10
1368.300341
 20
-165.052901
 30
0.0
 11
1368.300341
 21
-173.052901
 31
0.0
  0
LINE
  8
0
  6
BYLAYER
 62
     7
 10
1368.300341
 20
-165.052901
 30
0.0
 11
1360.300341
 21
-165.052901
 31
0.0
  0
LINE
  8
0
  6
BYLAYER
 62
     7
 10
1360.300341
 20
-173.052901
 30
0.0
 11
1360.300341
 21
-165.052901
 31
0.0
  0
LINE
  8
0
  6
BYLAYER
 62
     7
 10
1358.300341
 20
-163.052901
 30
0.0
 11
1350.300341
 21
-163.052901
 31
0.0
  0
LINE
  8
0
  6
BYLAYER
 62
     7
 10
1358.300341
 20
-155.052901
 30
0.0
 11
1358.300341
 21
-163.052901
 31
0.0
  0
LINE
  8
0
  6
BYLAYER
 62
     7
 10
1358.300341
 20
-155.052901
 30
0.0
 11
1350.300341
 21
-155.052901
 31
0.0
  0
LINE
  8
0
  6
BYLAYER
 62
     7
 10
1350.300341
 20
-163.052901
 30
0.0
 11
1350.300341
 21
-155.052901
 31
0.0
  0
LINE
  8
0
  6
BYLAYER
 62
     7
 10
1358.300341
 20
-173.052901
 30
0.0
 11
1350.300341
 21
-173.052901
 31
0.0
  0
LINE
  8
0
  6
BYLAYER
 62
     7
 10
1358.300341
 20
-165.052901
 30
0.0
 11
1358.300341
 21
-173.052901
 31
0.0
  0
LINE
  8
0
  6
BYLAYER
 62
     7
 10
1358.300341
 20
-165.052901
 30
0.0
 11
1350.300341
 21
-165.052901
 31
0.0
  0
LINE
  8
0
  6
BYLAYER
 62
     7
 10
1350.300341
 20
-173.052901
 30
0.0
 11
1350.300341
 21
-165.052901
 31
0.0
  0
LINE
  8
0
  6
BYLAYER
 62
     7
 10
1398.300341
 20
-125.052901
 30
0.0
 11
1398.300341
 21
-133.052901
 31
0.0
  0
LINE
  8
0
  6
BYLAYER
 62
     7
 10
1390.300341
 20
-133.052901
 30
0.0
 11
1390.300341
 21
-125.052901
 31
0.0
  0
LINE
  8
0
  6
BYLAYER
 62
     7
 10
1388.300341
 20
-133.052901
 30
0.0
 11
1388.300341
 21
-125.052901
 31
0.0
  0
LINE
  8
0
  6
BYLAYER
 62
     7
 10
1388.300341
 20
-133.052901
 30
0.0
 11
1380.462342
 21
-133.052901
 31
0.0
  0
LINE
  8
0
  6
BYLAYER
 62
     7
 10
1398.300341
 20
-133.052901
 30
0.0
 11
1390.300341
 21
-133.052901
 31
0.0
  0
LINE
  8
0
  6
BYLAYER
 62
     7
 10
1388.300341
 20
-125.052901
 30
0.0
 11
1380.462342
 21
-125.052901
 31
0.0
  0
LINE
  8
0
  6
BYLAYER
 62
     7
 10
1398.300341
 20
-125.052901
 30
0.0
 11
1390.300341
 21
-125.052901
 31
0.0
  0
LINE
  8
0
  6
BYLAYER
 62
     7
 10
1380.462342
 20
-133.052901
 30
0.0
 11
1380.462342
 21
-125.052901
 31
0.0
  0
LINE
  8
0
  6
BYLAYER
 62
     7
 10
1378.300341
 20
-135.052901
 30
0.0
 11
1378.300341
 21
-143.052901
 31
0.0
  0
LINE
  8
0
  6
BYLAYER
 62
     7
 10
1378.300341
 20
-143.052901
 30
0.0
 11
1370.300341
 21
-143.052901
 31
0.0
  0
LINE
  8
0
  6
BYLAYER
 62
     7
 10
1378.300341
 20
-135.052901
 30
0.0
 11
1370.300341
 21
-135.052901
 31
0.0
  0
LINE
  8
0
  6
BYLAYER
 62
     7
 10
1370.300341
 20
-143.052901
 30
0.0
 11
1370.300341
 21
-135.052901
 31
0.0
  0
LINE
  8
0
  6
BYLAYER
 62
     7
 10
1378.300341
 20
-125.052901
 30
0.0
 11
1378.300341
 21
-133.052901
 31
0.0
  0
LINE
  8
0
  6
BYLAYER
 62
     7
 10
1378.300341
 20
-133.052901
 30
0.0
 11
1370.300341
 21
-133.052901
 31
0.0
  0
LINE
  8
0
  6
BYLAYER
 62
     7
 10
1378.300341
 20
-125.052901
 30
0.0
 11
1370.300341
 21
-125.052901
 31
0.0
  0
LINE
  8
0
  6
BYLAYER
 62
     7
 10
1370.300341
 20
-133.052901
 30
0.0
 11
1370.300341
 21
-125.052901
 31
0.0
  0
LINE
  8
0
  6
BYLAYER
 62
     7
 10
1368.300341
 20
-145.052901
 30
0.0
 11
1368.300341
 21
-153.052901
 31
0.0
  0
LINE
  8
0
  6
BYLAYER
 62
     7
 10
1368.300341
 20
-153.052901
 30
0.0
 11
1360.300341
 21
-153.052901
 31
0.0
  0
LINE
  8
0
  6
BYLAYER
 62
     7
 10
1368.300341
 20
-145.052901
 30
0.0
 11
1360.300341
 21
-145.052901
 31
0.0
  0
LINE
  8
0
  6
BYLAYER
 62
     7
 10
1360.300341
 20
-153.052901
 30
0.0
 11
1360.300341
 21
-145.052901
 31
0.0
  0
LINE
  8
0
  6
BYLAYER
 62
     7
 10
1368.300341
 20
-135.052901
 30
0.0
 11
1368.300341
 21
-143.052901
 31
0.0
  0
LINE
  8
0
  6
BYLAYER
 62
     7
 10
1368.300341
 20
-143.052901
 30
0.0
 11
1360.300341
 21
-143.052901
 31
0.0
  0
LINE
  8
0
  6
BYLAYER
 62
     7
 10
1368.300341
 20
-135.052901
 30
0.0
 11
1360.300341
 21
-135.052901
 31
0.0
  0
LINE
  8
0
  6
BYLAYER
 62
     7
 10
1360.300341
 20
-143.052901
 30
0.0
 11
1360.300341
 21
-135.052901
 31
0.0
  0
LINE
  8
0
  6
BYLAYER
 62
     7
 10
1358.300341
 20
-145.052901
 30
0.0
 11
1358.300341
 21
-153.052901
 31
0.0
  0
LINE
  8
0
  6
BYLAYER
 62
     7
 10
1358.300341
 20
-153.052901
 30
0.0
 11
1350.300341
 21
-153.052901
 31
0.0
  0
LINE
  8
0
  6
BYLAYER
 62
     7
 10
1358.300341
 20
-145.052901
 30
0.0
 11
1350.300341
 21
-145.052901
 31
0.0
  0
LINE
  8
0
  6
BYLAYER
 62
     7
 10
1350.300341
 20
-153.052901
 30
0.0
 11
1350.300341
 21
-145.052901
 31
0.0
  0
LINE
  8
0
  6
BYLAYER
 62
     7
 10
1348.300341
 20
-163.052901
 30
0.0
 11
1340.300341
 21
-163.052901
 31
0.0
  0
LINE
  8
0
  6
BYLAYER
 62
     7
 10
1348.300341
 20
-155.052901
 30
0.0
 11
1348.300341
 21
-163.052901
 31
0.0
  0
LINE
  8
0
  6
BYLAYER
 62
     7
 10
1348.300341
 20
-155.052901
 30
0.0
 11
1340.300341
 21
-155.052901
 31
0.0
  0
LINE
  8
0
  6
BYLAYER
 62
     7
 10
1340.300341
 20
-163.052901
 30
0.0
 11
1340.300341
 21
-155.052901
 31
0.0
  0
LINE
  8
0
  6
BYLAYER
 62
     7
 10
1348.300341
 20
-173.052901
 30
0.0
 11
1340.300341
 21
-173.052901
 31
0.0
  0
LINE
  8
0
  6
BYLAYER
 62
     7
 10
1348.300341
 20
-165.052901
 30
0.0
 11
1348.300341
 21
-173.052901
 31
0.0
  0
LINE
  8
0
  6
BYLAYER
 62
     7
 10
1348.300341
 20
-165.052901
 30
0.0
 11
1340.300341
 21
-165.052901
 31
0.0
  0
LINE
  8
0
  6
BYLAYER
 62
     7
 10
1340.300341
 20
-173.052901
 30
0.0
 11
1340.300341
 21
-165.052901
 31
0.0
  0
LINE
  8
0
  6
BYLAYER
 62
     7
 10
1348.300341
 20
-145.052901
 30
0.0
 11
1348.300341
 21
-153.052901
 31
0.0
  0
LINE
  8
0
  6
BYLAYER
 62
     7
 10
1348.300341
 20
-153.052901
 30
0.0
 11
1340.300341
 21
-153.052901
 31
0.0
  0
LINE
  8
0
  6
BYLAYER
 62
     7
 10
1348.300341
 20
-145.052901
 30
0.0
 11
1340.300341
 21
-145.052901
 31
0.0
  0
LINE
  8
0
  6
BYLAYER
 62
     7
 10
1340.300341
 20
-153.052901
 30
0.0
 11
1340.300341
 21
-145.052901
 31
0.0
  0
LINE
  8
0
  6
BYLAYER
 62
     7
 10
1398.300341
 20
-115.052901
 30
0.0
 11
1398.300341
 21
-123.052901
 31
0.0
  0
LINE
  8
0
  6
BYLAYER
 62
     7
 10
1390.300341
 20
-123.052901
 30
0.0
 11
1390.300341
 21
-115.052901
 31
0.0
  0
LINE
  8
0
  6
BYLAYER
 62
     7
 10
1388.300341
 20
-123.052901
 30
0.0
 11
1388.300341
 21
-115.052901
 31
0.0
  0
LINE
  8
0
  6
BYLAYER
 62
     7
 10
1388.300341
 20
-123.052901
 30
0.0
 11
1380.462342
 21
-123.052901
 31
0.0
  0
LINE
  8
0
  6
BYLAYER
 62
     7
 10
1398.300341
 20
-123.052901
 30
0.0
 11
1390.300341
 21
-123.052901
 31
0.0
  0
LINE
  8
0
  6
BYLAYER
 62
     7
 10
1388.300341
 20
-115.052901
 30
0.0
 11
1380.462342
 21
-115.052901
 31
0.0
  0
LINE
  8
0
  6
BYLAYER
 62
     7
 10
1398.300341
 20
-115.052901
 30
0.0
 11
1390.300341
 21
-115.052901
 31
0.0
  0
LINE
  8
0
  6
BYLAYER
 62
     7
 10
1380.462342
 20
-123.052901
 30
0.0
 11
1380.462342
 21
-115.052901
 31
0.0
  0
LINE
  8
0
  6
BYLAYER
 62
     7
 10
1378.300341
 20
-115.052901
 30
0.0
 11
1378.300341
 21
-123.052901
 31
0.0
  0
LINE
  8
0
  6
BYLAYER
 62
     7
 10
1378.300341
 20
-123.052901
 30
0.0
 11
1370.300341
 21
-123.052901
 31
0.0
  0
LINE
  8
0
  6
BYLAYER
 62
     7
 10
1378.300341
 20
-115.052901
 30
0.0
 11
1370.300341
 21
-115.052901
 31
0.0
  0
LINE
  8
0
  6
BYLAYER
 62
     7
 10
1370.300341
 20
-123.052901
 30
0.0
 11
1370.300341
 21
-115.052901
 31
0.0
  0
LINE
  8
0
  6
BYLAYER
 62
     7
 10
1368.300341
 20
-125.052901
 30
0.0
 11
1368.300341
 21
-133.052901
 31
0.0
  0
LINE
  8
0
  6
BYLAYER
 62
     7
 10
1368.300341
 20
-133.052901
 30
0.0
 11
1360.300341
 21
-133.052901
 31
0.0
  0
LINE
  8
0
  6
BYLAYER
 62
     7
 10
1368.300341
 20
-125.052901
 30
0.0
 11
1360.300341
 21
-125.052901
 31
0.0
  0
LINE
  8
0
  6
BYLAYER
 62
     7
 10
1360.300341
 20
-133.052901
 30
0.0
 11
1360.300341
 21
-125.052901
 31
0.0
  0
LINE
  8
0
  6
BYLAYER
 62
     7
 10
1358.300341
 20
-135.052901
 30
0.0
 11
1358.300341
 21
-143.052901
 31
0.0
  0
LINE
  8
0
  6
BYLAYER
 62
     7
 10
1358.300341
 20
-143.052901
 30
0.0
 11
1350.300341
 21
-143.052901
 31
0.0
  0
LINE
  8
0
  6
BYLAYER
 62
     7
 10
1358.300341
 20
-135.052901
 30
0.0
 11
1350.300341
 21
-135.052901
 31
0.0
  0
LINE
  8
0
  6
BYLAYER
 62
     7
 10
1350.300341
 20
-143.052901
 30
0.0
 11
1350.300341
 21
-135.052901
 31
0.0
  0
LINE
  8
0
  6
BYLAYER
 62
     7
 10
1398.300341
 20
-105.052901
 30
0.0
 11
1398.300341
 21
-113.052901
 31
0.0
  0
LINE
  8
0
  6
BYLAYER
 62
     7
 10
1390.300341
 20
-113.052901
 30
0.0
 11
1390.300341
 21
-105.052901
 31
0.0
  0
LINE
  8
0
  6
BYLAYER
 62
     7
 10
1388.300341
 20
-113.052901
 30
0.0
 11
1388.300341
 21
-105.052901
 31
0.0
  0
LINE
  8
0
  6
BYLAYER
 62
     7
 10
1388.300341
 20
-113.052901
 30
0.0
 11
1380.462342
 21
-113.052901
 31
0.0
  0
LINE
  8
0
  6
BYLAYER
 62
     7
 10
1398.300341
 20
-113.052901
 30
0.0
 11
1390.300341
 21
-113.052901
 31
0.0
  0
LINE
  8
0
  6
BYLAYER
 62
     7
 10
1388.300341
 20
-105.052901
 30
0.0
 11
1380.462342
 21
-105.052901
 31
0.0
  0
LINE
  8
0
  6
BYLAYER
 62
     7
 10
1398.300341
 20
-105.052901
 30
0.0
 11
1390.300341
 21
-105.052901
 31
0.0
  0
LINE
  8
0
  6
BYLAYER
 62
     7
 10
1380.462342
 20
-113.052901
 30
0.0
 11
1380.462342
 21
-105.052901
 31
0.0
  0
LINE
  8
0
  6
BYLAYER
 62
     7
 10
1338.300341
 20
-163.052901
 30
0.0
 11
1330.300341
 21
-163.052901
 31
0.0
  0
LINE
  8
0
  6
BYLAYER
 62
     7
 10
1338.300341
 20
-155.052901
 30
0.0
 11
1338.300341
 21
-163.052901
 31
0.0
  0
LINE
  8
0
  6
BYLAYER
 62
     7
 10
1338.300341
 20
-155.052901
 30
0.0
 11
1330.300341
 21
-155.052901
 31
0.0
  0
LINE
  8
0
  6
BYLAYER
 62
     7
 10
1330.300341
 20
-163.052901
 30
0.0
 11
1330.300341
 21
-155.052901
 31
0.0
  0
LINE
  8
0
  6
BYLAYER
 62
     7
 10
1338.300341
 20
-173.052901
 30
0.0
 11
1330.300341
 21
-173.052901
 31
0.0
  0
LINE
  8
0
  6
BYLAYER
 62
     7
 10
1338.300341
 20
-165.052901
 30
0.0
 11
1338.300341
 21
-173.052901
 31
0.0
  0
LINE
  8
0
  6
BYLAYER
 62
     7
 10
1338.300341
 20
-165.052901
 30
0.0
 11
1330.300341
 21
-165.052901
 31
0.0
  0
LINE
  8
0
  6
BYLAYER
 62
     7
 10
1330.300341
 20
-173.052901
 30
0.0
 11
1330.300341
 21
-165.052901
 31
0.0
  0
LINE
  8
0
  6
BYLAYER
 62
     7
 10
1368.300341
 20
-115.052901
 30
0.0
 11
1368.300341
 21
-123.052901
 31
0.0
  0
LINE
  8
0
  6
BYLAYER
 62
     7
 10
1368.300341
 20
-123.052901
 30
0.0
 11
1360.300341
 21
-123.052901
 31
0.0
  0
LINE
  8
0
  6
BYLAYER
 62
     7
 10
1368.300341
 20
-115.052901
 30
0.0
 11
1360.300341
 21
-115.052901
 31
0.0
  0
LINE
  8
0
  6
BYLAYER
 62
     7
 10
1360.300341
 20
-123.052901
 30
0.0
 11
1360.300341
 21
-115.052901
 31
0.0
  0
LINE
  8
0
  6
BYLAYER
 62
     7
 10
1358.300341
 20
-125.052901
 30
0.0
 11
1358.300341
 21
-133.052901
 31
0.0
  0
LINE
  8
0
  6
BYLAYER
 62
     7
 10
1358.300341
 20
-133.052901
 30
0.0
 11
1350.300341
 21
-133.052901
 31
0.0
  0
LINE
  8
0
  6
BYLAYER
 62
     7
 10
1358.300341
 20
-125.052901
 30
0.0
 11
1350.300341
 21
-125.052901
 31
0.0
  0
LINE
  8
0
  6
BYLAYER
 62
     7
 10
1350.300341
 20
-133.052901
 30
0.0
 11
1350.300341
 21
-125.052901
 31
0.0
  0
LINE
  8
0
  6
BYLAYER
 62
     7
 10
1348.300341
 20
-135.052901
 30
0.0
 11
1348.300341
 21
-143.052901
 31
0.0
  0
LINE
  8
0
  6
BYLAYER
 62
     7
 10
1348.300341
 20
-143.052901
 30
0.0
 11
1340.300341
 21
-143.052901
 31
0.0
  0
LINE
  8
0
  6
BYLAYER
 62
     7
 10
1348.300341
 20
-135.052901
 30
0.0
 11
1340.300341
 21
-135.052901
 31
0.0
  0
LINE
  8
0
  6
BYLAYER
 62
     7
 10
1340.300341
 20
-143.052901
 30
0.0
 11
1340.300341
 21
-135.052901
 31
0.0
  0
LINE
  8
0
  6
BYLAYER
 62
     7
 10
1398.300341
 20
-95.052901
 30
0.0
 11
1398.300341
 21
-103.052901
 31
0.0
  0
LINE
  8
0
  6
BYLAYER
 62
     7
 10
1390.300341
 20
-103.052901
 30
0.0
 11
1390.300341
 21
-95.052901
 31
0.0
  0
LINE
  8
0
  6
BYLAYER
 62
     7
 10
1398.300341
 20
-103.052901
 30
0.0
 11
1390.300341
 21
-103.052901
 31
0.0
  0
LINE
  8
0
  6
BYLAYER
 62
     7
 10
1398.300341
 20
-95.052901
 30
0.0
 11
1390.300341
 21
-95.052901
 31
0.0
  0
LINE
  8
0
  6
BYLAYER
 62
     7
 10
1328.300341
 20
-173.052901
 30
0.0
 11
1320.300341
 21
-173.052901
 31
0.0
  0
LINE
  8
0
  6
BYLAYER
 62
     7
 10
1328.300341
 20
-165.052901
 30
0.0
 11
1328.300341
 21
-173.052901
 31
0.0
  0
LINE
  8
0
  6
BYLAYER
 62
     7
 10
1328.300341
 20
-165.052901
 30
0.0
 11
1320.300341
 21
-165.052901
 31
0.0
  0
LINE
  8
0
  6
BYLAYER
 62
     7
 10
1320.300341
 20
-173.052901
 30
0.0
 11
1320.300341
 21
-165.052901
 31
0.0
  0
LINE
  8
0
  6
BYLAYER
 62
     7
 10
1378.300341
 20
-105.052901
 30
0.0
 11
1378.300341
 21
-113.052901
 31
0.0
  0
LINE
  8
0
  6
BYLAYER
 62
     7
 10
1378.300341
 20
-113.052901
 30
0.0
 11
1370.300341
 21
-113.052901
 31
0.0
  0
LINE
  8
0
  6
BYLAYER
 62
     7
 10
1378.300341
 20
-105.052901
 30
0.0
 11
1370.300341
 21
-105.052901
 31
0.0
  0
LINE
  8
0
  6
BYLAYER
 62
     7
 10
1370.300341
 20
-113.052901
 30
0.0
 11
1370.300341
 21
-105.052901
 31
0.0
  0
LINE
  8
0
  6
BYLAYER
 62
     7
 10
1338.300341
 20
-145.052901
 30
0.0
 11
1338.300341
 21
-153.052901
 31
0.0
  0
LINE
  8
0
  6
BYLAYER
 62
     7
 10
1338.300341
 20
-153.052901
 30
0.0
 11
1330.300341
 21
-153.052901
 31
0.0
  0
LINE
  8
0
  6
BYLAYER
 62
     7
 10
1338.300341
 20
-145.052901
 30
0.0
 11
1330.300341
 21
-145.052901
 31
0.0
  0
LINE
  8
0
  6
BYLAYER
 62
     7
 10
1330.300341
 20
-153.052901
 30
0.0
 11
1330.300341
 21
-145.052901
 31
0.0
  0
LINE
  8
0
  6
BYLAYER
 62
     7
 10
1368.300341
 20
-105.052901
 30
0.0
 11
1368.300341
 21
-113.052901
 31
0.0
  0
LINE
  8
0
  6
BYLAYER
 62
     7
 10
1368.300341
 20
-113.052901
 30
0.0
 11
1360.300341
 21
-113.052901
 31
0.0
  0
LINE
  8
0
  6
BYLAYER
 62
     7
 10
1368.300341
 20
-105.052901
 30
0.0
 11
1360.300341
 21
-105.052901
 31
0.0
  0
LINE
  8
0
  6
BYLAYER
 62
     7
 10
1360.300341
 20
-113.052901
 30
0.0
 11
1360.300341
 21
-105.052901
 31
0.0
  0
LINE
  8
0
  6
BYLAYER
 62
     7
 10
1358.300341
 20
-115.052901
 30
0.0
 11
1358.300341
 21
-123.052901
 31
0.0
  0
LINE
  8
0
  6
BYLAYER
 62
     7
 10
1358.300341
 20
-123.052901
 30
0.0
 11
1350.300341
 21
-123.052901
 31
0.0
  0
LINE
  8
0
  6
BYLAYER
 62
     7
 10
1358.300341
 20
-115.052901
 30
0.0
 11
1350.300341
 21
-115.052901
 31
0.0
  0
LINE
  8
0
  6
BYLAYER
 62
     7
 10
1350.300341
 20
-123.052901
 30
0.0
 11
1350.300341
 21
-115.052901
 31
0.0
  0
LINE
  8
0
  6
BYLAYER
 62
     7
 10
1348.300341
 20
-125.052901
 30
0.0
 11
1348.300341
 21
-133.052901
 31
0.0
  0
LINE
  8
0
  6
BYLAYER
 62
     7
 10
1348.300341
 20
-133.052901
 30
0.0
 11
1340.300341
 21
-133.052901
 31
0.0
  0
LINE
  8
0
  6
BYLAYER
 62
     7
 10
1348.300341
 20
-125.052901
 30
0.0
 11
1340.300341
 21
-125.052901
 31
0.0
  0
LINE
  8
0
  6
BYLAYER
 62
     7
 10
1340.300341
 20
-133.052901
 30
0.0
 11
1340.300341
 21
-125.052901
 31
0.0
  0
LINE
  8
0
  6
BYLAYER
 62
     7
 10
1338.300341
 20
-135.052901
 30
0.0
 11
1338.300341
 21
-143.052901
 31
0.0
  0
LINE
  8
0
  6
BYLAYER
 62
     7
 10
1338.300341
 20
-143.052901
 30
0.0
 11
1330.300341
 21
-143.052901
 31
0.0
  0
LINE
  8
0
  6
BYLAYER
 62
     7
 10
1338.300341
 20
-135.052901
 30
0.0
 11
1330.300341
 21
-135.052901
 31
0.0
  0
LINE
  8
0
  6
BYLAYER
 62
     7
 10
1330.300341
 20
-143.052901
 30
0.0
 11
1330.300341
 21
-135.052901
 31
0.0
  0
LINE
  8
0
  6
BYLAYER
 62
     7
 10
1388.300341
 20
-103.052901
 30
0.0
 11
1388.300341
 21
-95.052901
 31
0.0
  0
LINE
  8
0
  6
BYLAYER
 62
     7
 10
1388.300341
 20
-103.052901
 30
0.0
 11
1380.462342
 21
-103.052901
 31
0.0
  0
LINE
  8
0
  6
BYLAYER
 62
     7
 10
1388.300341
 20
-95.052901
 30
0.0
 11
1380.462342
 21
-95.052901
 31
0.0
  0
LINE
  8
0
  6
BYLAYER
 62
     7
 10
1380.462342
 20
-103.052901
 30
0.0
 11
1380.462342
 21
-95.052901
 31
0.0
  0
LINE
  8
0
  6
BYLAYER
 62
     7
 10
1328.300341
 20
-163.052901
 30
0.0
 11
1320.300341
 21
-163.052901
 31
0.0
  0
LINE
  8
0
  6
BYLAYER
 62
     7
 10
1328.300341
 20
-155.052901
 30
0.0
 11
1328.300341
 21
-163.052901
 31
0.0
  0
LINE
  8
0
  6
BYLAYER
 62
     7
 10
1328.300341
 20
-155.052901
 30
0.0
 11
1320.300341
 21
-155.052901
 31
0.0
  0
LINE
  8
0
  6
BYLAYER
 62
     7
 10
1320.300341
 20
-163.052901
 30
0.0
 11
1320.300341
 21
-155.052901
 31
0.0
  0
LINE
  8
0
  6
BYLAYER
 62
     7
 10
1398.300341
 20
-85.052901
 30
0.0
 11
1398.300341
 21
-93.052901
 31
0.0
  0
LINE
  8
0
  6
BYLAYER
 62
     7
 10
1390.300341
 20
-93.052901
 30
0.0
 11
1390.300341
 21
-85.052901
 31
0.0
  0
LINE
  8
0
  6
BYLAYER
 62
     7
 10
1398.300341
 20
-93.052901
 30
0.0
 11
1390.300341
 21
-93.052901
 31
0.0
  0
LINE
  8
0
  6
BYLAYER
 62
     7
 10
1398.300341
 20
-85.052901
 30
0.0
 11
1390.300341
 21
-85.052901
 31
0.0
  0
LINE
  8
0
  6
BYLAYER
 62
     7
 10
1388.300341
 20
-93.052901
 30
0.0
 11
1388.300341
 21
-85.052901
 31
0.0
  0
LINE
  8
0
  6
BYLAYER
 62
     7
 10
1388.300341
 20
-93.052901
 30
0.0
 11
1380.462342
 21
-93.052901
 31
0.0
  0
LINE
  8
0
  6
BYLAYER
 62
     7
 10
1388.300341
 20
-85.052901
 30
0.0
 11
1380.462342
 21
-85.052901
 31
0.0
  0
LINE
  8
0
  6
BYLAYER
 62
     7
 10
1380.462342
 20
-93.052901
 30
0.0
 11
1380.462342
 21
-85.052901
 31
0.0
  0
LINE
  8
0
  6
BYLAYER
 62
     7
 10
1378.300341
 20
-95.052901
 30
0.0
 11
1378.300341
 21
-103.052901
 31
0.0
  0
LINE
  8
0
  6
BYLAYER
 62
     7
 10
1378.300341
 20
-103.052901
 30
0.0
 11
1370.300341
 21
-103.052901
 31
0.0
  0
LINE
  8
0
  6
BYLAYER
 62
     7
 10
1378.300341
 20
-95.052901
 30
0.0
 11
1370.300341
 21
-95.052901
 31
0.0
  0
LINE
  8
0
  6
BYLAYER
 62
     7
 10
1370.300341
 20
-103.052901
 30
0.0
 11
1370.300341
 21
-95.052901
 31
0.0
  0
LINE
  8
0
  6
BYLAYER
 62
     7
 10
1368.300341
 20
-95.052901
 30
0.0
 11
1368.300341
 21
-103.052901
 31
0.0
  0
LINE
  8
0
  6
BYLAYER
 62
     7
 10
1368.300341
 20
-103.052901
 30
0.0
 11
1360.300341
 21
-103.052901
 31
0.0
  0
LINE
  8
0
  6
BYLAYER
 62
     7
 10
1368.300341
 20
-95.052901
 30
0.0
 11
1360.300341
 21
-95.052901
 31
0.0
  0
LINE
  8
0
  6
BYLAYER
 62
     7
 10
1360.300341
 20
-103.052901
 30
0.0
 11
1360.300341
 21
-95.052901
 31
0.0
  0
LINE
  8
0
  6
BYLAYER
 62
     7
 10
1358.300341
 20
-105.052901
 30
0.0
 11
1358.300341
 21
-113.052901
 31
0.0
  0
LINE
  8
0
  6
BYLAYER
 62
     7
 10
1358.300341
 20
-113.052901
 30
0.0
 11
1350.300341
 21
-113.052901
 31
0.0
  0
LINE
  8
0
  6
BYLAYER
 62
     7
 10
1358.300341
 20
-105.052901
 30
0.0
 11
1350.300341
 21
-105.052901
 31
0.0
  0
LINE
  8
0
  6
BYLAYER
 62
     7
 10
1350.300341
 20
-113.052901
 30
0.0
 11
1350.300341
 21
-105.052901
 31
0.0
  0
LINE
  8
0
  6
BYLAYER
 62
     7
 10
1348.300341
 20
-115.052901
 30
0.0
 11
1348.300341
 21
-123.052901
 31
0.0
  0
LINE
  8
0
  6
BYLAYER
 62
     7
 10
1348.300341
 20
-123.052901
 30
0.0
 11
1340.300341
 21
-123.052901
 31
0.0
  0
LINE
  8
0
  6
BYLAYER
 62
     7
 10
1348.300341
 20
-115.052901
 30
0.0
 11
1340.300341
 21
-115.052901
 31
0.0
  0
LINE
  8
0
  6
BYLAYER
 62
     7
 10
1340.300341
 20
-123.052901
 30
0.0
 11
1340.300341
 21
-115.052901
 31
0.0
  0
LINE
  8
0
  6
BYLAYER
 62
     7
 10
1338.300341
 20
-125.052901
 30
0.0
 11
1338.300341
 21
-133.052901
 31
0.0
  0
LINE
  8
0
  6
BYLAYER
 62
     7
 10
1338.300341
 20
-133.052901
 30
0.0
 11
1330.300341
 21
-133.052901
 31
0.0
  0
LINE
  8
0
  6
BYLAYER
 62
     7
 10
1338.300341
 20
-125.052901
 30
0.0
 11
1330.300341
 21
-125.052901
 31
0.0
  0
LINE
  8
0
  6
BYLAYER
 62
     7
 10
1330.300341
 20
-133.052901
 30
0.0
 11
1330.300341
 21
-125.052901
 31
0.0
  0
LINE
  8
0
  6
BYLAYER
 62
     7
 10
1328.300341
 20
-153.052901
 30
0.0
 11
1320.300341
 21
-153.052901
 31
0.0
  0
LINE
  8
0
  6
BYLAYER
 62
     7
 10
1328.300341
 20
-145.052901
 30
0.0
 11
1328.300341
 21
-153.052901
 31
0.0
  0
LINE
  8
0
  6
BYLAYER
 62
     7
 10
1328.300341
 20
-145.052901
 30
0.0
 11
1320.300341
 21
-145.052901
 31
0.0
  0
LINE
  8
0
  6
BYLAYER
 62
     7
 10
1320.300341
 20
-153.052901
 30
0.0
 11
1320.300341
 21
-145.052901
 31
0.0
  0
LINE
  8
0
  6
BYLAYER
 62
     7
 10
1328.300341
 20
-143.052901
 30
0.0
 11
1320.300341
 21
-143.052901
 31
0.0
  0
LINE
  8
0
  6
BYLAYER
 62
     7
 10
1328.300341
 20
-135.052901
 30
0.0
 11
1328.300341
 21
-143.052901
 31
0.0
  0
LINE
  8
0
  6
BYLAYER
 62
     7
 10
1328.300341
 20
-135.052901
 30
0.0
 11
1320.300341
 21
-135.052901
 31
0.0
  0
LINE
  8
0
  6
BYLAYER
 62
     7
 10
1320.300341
 20
-143.052901
 30
0.0
 11
1320.300341
 21
-135.052901
 31
0.0
  0
LINE
  8
0
  6
BYLAYER
 62
     7
 10
1318.300341
 20
-173.052901
 30
0.0
 11
1310.300341
 21
-173.052901
 31
0.0
  0
LINE
  8
0
  6
BYLAYER
 62
     7
 10
1318.300341
 20
-165.052901
 30
0.0
 11
1318.300341
 21
-173.052901
 31
0.0
  0
LINE
  8
0
  6
BYLAYER
 62
     7
 10
1318.300341
 20
-165.052901
 30
0.0
 11
1310.300341
 21
-165.052901
 31
0.0
  0
LINE
  8
0
  6
BYLAYER
 62
     7
 10
1310.300341
 20
-173.052901
 30
0.0
 11
1310.300341
 21
-165.052901
 31
0.0
  0
LINE
  8
0
  6
BYLAYER
 62
     7
 10
1318.300341
 20
-163.052901
 30
0.0
 11
1310.300341
 21
-163.052901
 31
0.0
  0
LINE
  8
0
  6
BYLAYER
 62
     7
 10
1318.300341
 20
-155.052901
 30
0.0
 11
1318.300341
 21
-163.052901
 31
0.0
  0
LINE
  8
0
  6
BYLAYER
 62
     7
 10
1318.300341
 20
-155.052901
 30
0.0
 11
1310.300341
 21
-155.052901
 31
0.0
  0
LINE
  8
0
  6
BYLAYER
 62
     7
 10
1310.300341
 20
-163.052901
 30
0.0
 11
1310.300341
 21
-155.052901
 31
0.0
  0
LINE
  8
0
  6
BYLAYER
 62
     7
 10
1400.300341
 20
-203.052901
 30
0.0
 11
1400.300341
 21
-195.052901
 31
0.0
  0
LINE
  8
0
  6
BYLAYER
 62
     7
 10
1400.300341
 20
-213.052901
 30
0.0
 11
1400.300341
 21
-205.052901
 31
0.0
  0
LINE
  8
0
  6
BYLAYER
 62
     7
 10
1408.300341
 20
-205.052901
 30
0.0
 11
1408.300341
 21
-213.052901
 31
0.0
  0
LINE
  8
0
  6
BYLAYER
 62
     7
 10
1410.300341
 20
-205.052901
 30
0.0
 11
1410.300341
 21
-213.052901
 31
0.0
  0
LINE
  8
0
  6
BYLAYER
 62
     7
 10
1400.300341
 20
-195.052901
 30
0.0
 11
1408.300341
 21
-195.052901
 31
0.0
  0
LINE
  8
0
  6
BYLAYER
 62
     7
 10
1400.300341
 20
-203.052901
 30
0.0
 11
1408.300341
 21
-203.052901
 31
0.0
  0
LINE
  8
0
  6
BYLAYER
 62
     7
 10
1410.300341
 20
-205.052901
 30
0.0
 11
1418.138340
 21
-205.052901
 31
0.0
  0
LINE
  8
0
  6
BYLAYER
 62
     7
 10
1400.300341
 20
-205.052901
 30
0.0
 11
1408.300341
 21
-205.052901
 31
0.0
  0
LINE
  8
0
  6
BYLAYER
 62
     7
 10
1410.300341
 20
-213.052901
 30
0.0
 11
1418.138340
 21
-213.052901
 31
0.0
  0
LINE
  8
0
  6
BYLAYER
 62
     7
 10
1400.300341
 20
-213.052901
 30
0.0
 11
1408.300341
 21
-213.052901
 31
0.0
  0
LINE
  8
0
  6
BYLAYER
 62
     7
 10
1418.138340
 20
-205.052901
 30
0.0
 11
1418.138340
 21
-213.052901
 31
0.0
  0
LINE
  8
0
  6
BYLAYER
 62
     7
 10
1408.300341
 20
-195.052901
 30
0.0
 11
1408.300341
 21
-203.052901
 31
0.0
  0
LINE
  8
0
  6
BYLAYER
 62
     7
 10
1410.300341
 20
-203.052901
 30
0.0
 11
1410.300341
 21
-195.052901
 31
0.0
  0
LINE
  8
0
  6
BYLAYER
 62
     7
 10
1410.300341
 20
-195.052901
 30
0.0
 11
1418.300341
 21
-195.052901
 31
0.0
  0
LINE
  8
0
  6
BYLAYER
 62
     7
 10
1410.300341
 20
-203.052901
 30
0.0
 11
1418.300341
 21
-203.052901
 31
0.0
  0
LINE
  8
0
  6
BYLAYER
 62
     7
 10
1418.300341
 20
-195.052901
 30
0.0
 11
1418.300341
 21
-203.052901
 31
0.0
  0
LINE
  8
0
  6
BYLAYER
 62
     7
 10
1420.300341
 20
-185.052901
 30
0.0
 11
1428.300341
 21
-185.052901
 31
0.0
  0
LINE
  8
0
  6
BYLAYER
 62
     7
 10
1420.300341
 20
-203.052901
 30
0.0
 11
1420.300341
 21
-195.052901
 31
0.0
  0
LINE
  8
0
  6
BYLAYER
 62
     7
 10
1420.300341
 20
-193.052901
 30
0.0
 11
1420.300341
 21
-185.052901
 31
0.0
  0
LINE
  8
0
  6
BYLAYER
 62
     7
 10
1420.300341
 20
-193.052901
 30
0.0
 11
1428.300341
 21
-193.052901
 31
0.0
  0
LINE
  8
0
  6
BYLAYER
 62
     7
 10
1420.300341
 20
-195.052901
 30
0.0
 11
1428.300341
 21
-195.052901
 31
0.0
  0
LINE
  8
0
  6
BYLAYER
 62
     7
 10
1420.300341
 20
-203.052901
 30
0.0
 11
1428.300341
 21
-203.052901
 31
0.0
  0
LINE
  8
0
  6
BYLAYER
 62
     7
 10
1428.300341
 20
-185.052901
 30
0.0
 11
1428.300341
 21
-193.052901
 31
0.0
  0
LINE
  8
0
  6
BYLAYER
 62
     7
 10
1428.300341
 20
-195.052901
 30
0.0
 11
1428.300341
 21
-203.052901
 31
0.0
  0
LINE
  8
0
  6
BYLAYER
 62
     7
 10
1420.300341
 20
-175.052901
 30
0.0
 11
1428.300341
 21
-175.052901
 31
0.0
  0
LINE
  8
0
  6
BYLAYER
 62
     7
 10
1420.300341
 20
-183.052901
 30
0.0
 11
1420.300341
 21
-175.052901
 31
0.0
  0
LINE
  8
0
  6
BYLAYER
 62
     7
 10
1420.300341
 20
-183.052901
 30
0.0
 11
1428.300341
 21
-183.052901
 31
0.0
  0
LINE
  8
0
  6
BYLAYER
 62
     7
 10
1428.300341
 20
-175.052901
 30
0.0
 11
1428.300341
 21
-183.052901
 31
0.0
  0
LINE
  8
0
  6
BYLAYER
 62
     7
 10
1430.300341
 20
-185.052901
 30
0.0
 11
1438.300341
 21
-185.052901
 31
0.0
  0
LINE
  8
0
  6
BYLAYER
 62
     7
 10
1430.300341
 20
-193.052901
 30
0.0
 11
1430.300341
 21
-185.052901
 31
0.0
  0
LINE
  8
0
  6
BYLAYER
 62
     7
 10
1430.300341
 20
-193.052901
 30
0.0
 11
1438.300341
 21
-193.052901
 31
0.0
  0
LINE
  8
0
  6
BYLAYER
 62
     7
 10
1438.300341
 20
-185.052901
 30
0.0
 11
1438.300341
 21
-193.052901
 31
0.0
  0
LINE
  8
0
  6
BYLAYER
 62
     7
 10
1430.300341
 20
-175.052901
 30
0.0
 11
1438.300341
 21
-175.052901
 31
0.0
  0
LINE
  8
0
  6
BYLAYER
 62
     7
 10
1430.300341
 20
-183.052901
 30
0.0
 11
1430.300341
 21
-175.052901
 31
0.0
  0
LINE
  8
0
  6
BYLAYER
 62
     7
 10
1430.300341
 20
-183.052901
 30
0.0
 11
1438.300341
 21
-183.052901
 31
0.0
  0
LINE
  8
0
  6
BYLAYER
 62
     7
 10
1438.300341
 20
-175.052901
 30
0.0
 11
1438.300341
 21
-183.052901
 31
0.0
  0
LINE
  8
0
  6
BYLAYER
 62
     7
 10
1440.300341
 20
-185.052901
 30
0.0
 11
1448.300341
 21
-185.052901
 31
0.0
  0
LINE
  8
0
  6
BYLAYER
 62
     7
 10
1440.300341
 20
-193.052901
 30
0.0
 11
1440.300341
 21
-185.052901
 31
0.0
  0
LINE
  8
0
  6
BYLAYER
 62
     7
 10
1440.300341
 20
-193.052901
 30
0.0
 11
1448.300341
 21
-193.052901
 31
0.0
  0
LINE
  8
0
  6
BYLAYER
 62
     7
 10
1448.300341
 20
-185.052901
 30
0.0
 11
1448.300341
 21
-193.052901
 31
0.0
  0
LINE
  8
0
  6
BYLAYER
 62
     7
 10
1440.300341
 20
-175.052901
 30
0.0
 11
1448.300341
 21
-175.052901
 31
0.0
  0
LINE
  8
0
  6
BYLAYER
 62
     7
 10
1440.300341
 20
-183.052901
 30
0.0
 11
1440.300341
 21
-175.052901
 31
0.0
  0
LINE
  8
0
  6
BYLAYER
 62
     7
 10
1440.300341
 20
-183.052901
 30
0.0
 11
1448.300341
 21
-183.052901
 31
0.0
  0
LINE
  8
0
  6
BYLAYER
 62
     7
 10
1448.300341
 20
-175.052901
 30
0.0
 11
1448.300341
 21
-183.052901
 31
0.0
  0
LINE
  8
0
  6
BYLAYER
 62
     7
 10
1400.300341
 20
-223.052901
 30
0.0
 11
1400.300341
 21
-215.052901
 31
0.0
  0
LINE
  8
0
  6
BYLAYER
 62
     7
 10
1408.300341
 20
-215.052901
 30
0.0
 11
1408.300341
 21
-223.052901
 31
0.0
  0
LINE
  8
0
  6
BYLAYER
 62
     7
 10
1410.300341
 20
-215.052901
 30
0.0
 11
1410.300341
 21
-223.052901
 31
0.0
  0
LINE
  8
0
  6
BYLAYER
 62
     7
 10
1410.300341
 20
-215.052901
 30
0.0
 11
1418.138340
 21
-215.052901
 31
0.0
  0
LINE
  8
0
  6
BYLAYER
 62
     7
 10
1400.300341
 20
-215.052901
 30
0.0
 11
1408.300341
 21
-215.052901
 31
0.0
  0
LINE
  8
0
  6
BYLAYER
 62
     7
 10
1410.300341
 20
-223.052901
 30
0.0
 11
1418.138340
 21
-223.052901
 31
0.0
  0
LINE
  8
0
  6
BYLAYER
 62
     7
 10
1400.300341
 20
-223.052901
 30
0.0
 11
1408.300341
 21
-223.052901
 31
0.0
  0
LINE
  8
0
  6
BYLAYER
 62
     7
 10
1418.138340
 20
-215.052901
 30
0.0
 11
1418.138340
 21
-223.052901
 31
0.0
  0
LINE
  8
0
  6
BYLAYER
 62
     7
 10
1420.300341
 20
-213.052901
 30
0.0
 11
1420.300341
 21
-205.052901
 31
0.0
  0
LINE
  8
0
  6
BYLAYER
 62
     7
 10
1420.300341
 20
-205.052901
 30
0.0
 11
1428.300341
 21
-205.052901
 31
0.0
  0
LINE
  8
0
  6
BYLAYER
 62
     7
 10
1420.300341
 20
-213.052901
 30
0.0
 11
1428.300341
 21
-213.052901
 31
0.0
  0
LINE
  8
0
  6
BYLAYER
 62
     7
 10
1428.300341
 20
-205.052901
 30
0.0
 11
1428.300341
 21
-213.052901
 31
0.0
  0
LINE
  8
0
  6
BYLAYER
 62
     7
 10
1420.300341
 20
-223.052901
 30
0.0
 11
1420.300341
 21
-215.052901
 31
0.0
  0
LINE
  8
0
  6
BYLAYER
 62
     7
 10
1420.300341
 20
-215.052901
 30
0.0
 11
1428.300341
 21
-215.052901
 31
0.0
  0
LINE
  8
0
  6
BYLAYER
 62
     7
 10
1420.300341
 20
-223.052901
 30
0.0
 11
1428.300341
 21
-223.052901
 31
0.0
  0
LINE
  8
0
  6
BYLAYER
 62
     7
 10
1428.300341
 20
-215.052901
 30
0.0
 11
1428.300341
 21
-223.052901
 31
0.0
  0
LINE
  8
0
  6
BYLAYER
 62
     7
 10
1430.300341
 20
-203.052901
 30
0.0
 11
1430.300341
 21
-195.052901
 31
0.0
  0
LINE
  8
0
  6
BYLAYER
 62
     7
 10
1430.300341
 20
-195.052901
 30
0.0
 11
1438.300341
 21
-195.052901
 31
0.0
  0
LINE
  8
0
  6
BYLAYER
 62
     7
 10
1430.300341
 20
-203.052901
 30
0.0
 11
1438.300341
 21
-203.052901
 31
0.0
  0
LINE
  8
0
  6
BYLAYER
 62
     7
 10
1438.300341
 20
-195.052901
 30
0.0
 11
1438.300341
 21
-203.052901
 31
0.0
  0
LINE
  8
0
  6
BYLAYER
 62
     7
 10
1430.300341
 20
-213.052901
 30
0.0
 11
1430.300341
 21
-205.052901
 31
0.0
  0
LINE
  8
0
  6
BYLAYER
 62
     7
 10
1430.300341
 20
-205.052901
 30
0.0
 11
1438.300341
 21
-205.052901
 31
0.0
  0
LINE
  8
0
  6
BYLAYER
 62
     7
 10
1430.300341
 20
-213.052901
 30
0.0
 11
1438.300341
 21
-213.052901
 31
0.0
  0
LINE
  8
0
  6
BYLAYER
 62
     7
 10
1438.300341
 20
-205.052901
 30
0.0
 11
1438.300341
 21
-213.052901
 31
0.0
  0
LINE
  8
0
  6
BYLAYER
 62
     7
 10
1440.300341
 20
-203.052901
 30
0.0
 11
1440.300341
 21
-195.052901
 31
0.0
  0
LINE
  8
0
  6
BYLAYER
 62
     7
 10
1440.300341
 20
-195.052901
 30
0.0
 11
1448.300341
 21
-195.052901
 31
0.0
  0
LINE
  8
0
  6
BYLAYER
 62
     7
 10
1440.300341
 20
-203.052901
 30
0.0
 11
1448.300341
 21
-203.052901
 31
0.0
  0
LINE
  8
0
  6
BYLAYER
 62
     7
 10
1448.300341
 20
-195.052901
 30
0.0
 11
1448.300341
 21
-203.052901
 31
0.0
  0
LINE
  8
0
  6
BYLAYER
 62
     7
 10
1450.300341
 20
-185.052901
 30
0.0
 11
1458.300341
 21
-185.052901
 31
0.0
  0
LINE
  8
0
  6
BYLAYER
 62
     7
 10
1450.300341
 20
-193.052901
 30
0.0
 11
1450.300341
 21
-185.052901
 31
0.0
  0
LINE
  8
0
  6
BYLAYER
 62
     7
 10
1450.300341
 20
-193.052901
 30
0.0
 11
1458.300341
 21
-193.052901
 31
0.0
  0
LINE
  8
0
  6
BYLAYER
 62
     7
 10
1458.300341
 20
-185.052901
 30
0.0
 11
1458.300341
 21
-193.052901
 31
0.0
  0
LINE
  8
0
  6
BYLAYER
 62
     7
 10
1450.300341
 20
-175.052901
 30
0.0
 11
1458.300341
 21
-175.052901
 31
0.0
  0
LINE
  8
0
  6
BYLAYER
 62
     7
 10
1450.300341
 20
-183.052901
 30
0.0
 11
1450.300341
 21
-175.052901
 31
0.0
  0
LINE
  8
0
  6
BYLAYER
 62
     7
 10
1450.300341
 20
-183.052901
 30
0.0
 11
1458.300341
 21
-183.052901
 31
0.0
  0
LINE
  8
0
  6
BYLAYER
 62
     7
 10
1458.300341
 20
-175.052901
 30
0.0
 11
1458.300341
 21
-183.052901
 31
0.0
  0
LINE
  8
0
  6
BYLAYER
 62
     7
 10
1450.300341
 20
-203.052901
 30
0.0
 11
1450.300341
 21
-195.052901
 31
0.0
  0
LINE
  8
0
  6
BYLAYER
 62
     7
 10
1450.300341
 20
-195.052901
 30
0.0
 11
1458.300341
 21
-195.052901
 31
0.0
  0
LINE
  8
0
  6
BYLAYER
 62
     7
 10
1450.300341
 20
-203.052901
 30
0.0
 11
1458.300341
 21
-203.052901
 31
0.0
  0
LINE
  8
0
  6
BYLAYER
 62
     7
 10
1458.300341
 20
-195.052901
 30
0.0
 11
1458.300341
 21
-203.052901
 31
0.0
  0
LINE
  8
0
  6
BYLAYER
 62
     7
 10
1400.300341
 20
-233.052901
 30
0.0
 11
1400.300341
 21
-225.052901
 31
0.0
  0
LINE
  8
0
  6
BYLAYER
 62
     7
 10
1408.300341
 20
-225.052901
 30
0.0
 11
1408.300341
 21
-233.052901
 31
0.0
  0
LINE
  8
0
  6
BYLAYER
 62
     7
 10
1410.300341
 20
-225.052901
 30
0.0
 11
1410.300341
 21
-233.052901
 31
0.0
  0
LINE
  8
0
  6
BYLAYER
 62
     7
 10
1410.300341
 20
-225.052901
 30
0.0
 11
1418.138340
 21
-225.052901
 31
0.0
  0
LINE
  8
0
  6
BYLAYER
 62
     7
 10
1400.300341
 20
-225.052901
 30
0.0
 11
1408.300341
 21
-225.052901
 31
0.0
  0
LINE
  8
0
  6
BYLAYER
 62
     7
 10
1410.300341
 20
-233.052901
 30
0.0
 11
1418.138340
 21
-233.052901
 31
0.0
  0
LINE
  8
0
  6
BYLAYER
 62
     7
 10
1400.300341
 20
-233.052901
 30
0.0
 11
1408.300341
 21
-233.052901
 31
0.0
  0
LINE
  8
0
  6
BYLAYER
 62
     7
 10
1418.138340
 20
-225.052901
 30
0.0
 11
1418.138340
 21
-233.052901
 31
0.0
  0
LINE
  8
0
  6
BYLAYER
 62
     7
 10
1420.300341
 20
-233.052901
 30
0.0
 11
1420.300341
 21
-225.052901
 31
0.0
  0
LINE
  8
0
  6
BYLAYER
 62
     7
 10
1420.300341
 20
-225.052901
 30
0.0
 11
1428.300341
 21
-225.052901
 31
0.0
  0
LINE
  8
0
  6
BYLAYER
 62
     7
 10
1420.300341
 20
-233.052901
 30
0.0
 11
1428.300341
 21
-233.052901
 31
0.0
  0
LINE
  8
0
  6
BYLAYER
 62
     7
 10
1428.300341
 20
-225.052901
 30
0.0
 11
1428.300341
 21
-233.052901
 31
0.0
  0
LINE
  8
0
  6
BYLAYER
 62
     7
 10
1430.300341
 20
-223.052901
 30
0.0
 11
1430.300341
 21
-215.052901
 31
0.0
  0
LINE
  8
0
  6
BYLAYER
 62
     7
 10
1430.300341
 20
-215.052901
 30
0.0
 11
1438.300341
 21
-215.052901
 31
0.0
  0
LINE
  8
0
  6
BYLAYER
 62
     7
 10
1430.300341
 20
-223.052901
 30
0.0
 11
1438.300341
 21
-223.052901
 31
0.0
  0
LINE
  8
0
  6
BYLAYER
 62
     7
 10
1438.300341
 20
-215.052901
 30
0.0
 11
1438.300341
 21
-223.052901
 31
0.0
  0
LINE
  8
0
  6
BYLAYER
 62
     7
 10
1440.300341
 20
-213.052901
 30
0.0
 11
1440.300341
 21
-205.052901
 31
0.0
  0
LINE
  8
0
  6
BYLAYER
 62
     7
 10
1440.300341
 20
-205.052901
 30
0.0
 11
1448.300341
 21
-205.052901
 31
0.0
  0
LINE
  8
0
  6
BYLAYER
 62
     7
 10
1440.300341
 20
-213.052901
 30
0.0
 11
1448.300341
 21
-213.052901
 31
0.0
  0
LINE
  8
0
  6
BYLAYER
 62
     7
 10
1448.300341
 20
-205.052901
 30
0.0
 11
1448.300341
 21
-213.052901
 31
0.0
  0
LINE
  8
0
  6
BYLAYER
 62
     7
 10
1400.300341
 20
-243.052901
 30
0.0
 11
1400.300341
 21
-235.052901
 31
0.0
  0
LINE
  8
0
  6
BYLAYER
 62
     7
 10
1408.300341
 20
-235.052901
 30
0.0
 11
1408.300341
 21
-243.052901
 31
0.0
  0
LINE
  8
0
  6
BYLAYER
 62
     7
 10
1410.300341
 20
-235.052901
 30
0.0
 11
1410.300341
 21
-243.052901
 31
0.0
  0
LINE
  8
0
  6
BYLAYER
 62
     7
 10
1410.300341
 20
-235.052901
 30
0.0
 11
1418.138340
 21
-235.052901
 31
0.0
  0
LINE
  8
0
  6
BYLAYER
 62
     7
 10
1400.300341
 20
-235.052901
 30
0.0
 11
1408.300341
 21
-235.052901
 31
0.0
  0
LINE
  8
0
  6
BYLAYER
 62
     7
 10
1410.300341
 20
-243.052901
 30
0.0
 11
1418.138340
 21
-243.052901
 31
0.0
  0
LINE
  8
0
  6
BYLAYER
 62
     7
 10
1400.300341
 20
-243.052901
 30
0.0
 11
1408.300341
 21
-243.052901
 31
0.0
  0
LINE
  8
0
  6
BYLAYER
 62
     7
 10
1418.138340
 20
-235.052901
 30
0.0
 11
1418.138340
 21
-243.052901
 31
0.0
  0
LINE
  8
0
  6
BYLAYER
 62
     7
 10
1460.300341
 20
-185.052901
 30
0.0
 11
1468.300341
 21
-185.052901
 31
0.0
  0
LINE
  8
0
  6
BYLAYER
 62
     7
 10
1460.300341
 20
-193.052901
 30
0.0
 11
1460.300341
 21
-185.052901
 31
0.0
  0
LINE
  8
0
  6
BYLAYER
 62
     7
 10
1460.300341
 20
-193.052901
 30
0.0
 11
1468.300341
 21
-193.052901
 31
0.0
  0
LINE
  8
0
  6
BYLAYER
 62
     7
 10
1468.300341
 20
-185.052901
 30
0.0
 11
1468.300341
 21
-193.052901
 31
0.0
  0
LINE
  8
0
  6
BYLAYER
 62
     7
 10
1460.300341
 20
-175.052901
 30
0.0
 11
1468.300341
 21
-175.052901
 31
0.0
  0
LINE
  8
0
  6
BYLAYER
 62
     7
 10
1460.300341
 20
-183.052901
 30
0.0
 11
1460.300341
 21
-175.052901
 31
0.0
  0
LINE
  8
0
  6
BYLAYER
 62
     7
 10
1460.300341
 20
-183.052901
 30
0.0
 11
1468.300341
 21
-183.052901
 31
0.0
  0
LINE
  8
0
  6
BYLAYER
 62
     7
 10
1468.300341
 20
-175.052901
 30
0.0
 11
1468.300341
 21
-183.052901
 31
0.0
  0
LINE
  8
0
  6
BYLAYER
 62
     7
 10
1430.300341
 20
-233.052901
 30
0.0
 11
1430.300341
 21
-225.052901
 31
0.0
  0
LINE
  8
0
  6
BYLAYER
 62
     7
 10
1430.300341
 20
-225.052901
 30
0.0
 11
1438.300341
 21
-225.052901
 31
0.0
  0
LINE
  8
0
  6
BYLAYER
 62
     7
 10
1430.300341
 20
-233.052901
 30
0.0
 11
1438.300341
 21
-233.052901
 31
0.0
  0
LINE
  8
0
  6
BYLAYER
 62
     7
 10
1438.300341
 20
-225.052901
 30
0.0
 11
1438.300341
 21
-233.052901
 31
0.0
  0
LINE
  8
0
  6
BYLAYER
 62
     7
 10
1440.300341
 20
-223.052901
 30
0.0
 11
1440.300341
 21
-215.052901
 31
0.0
  0
LINE
  8
0
  6
BYLAYER
 62
     7
 10
1440.300341
 20
-215.052901
 30
0.0
 11
1448.300341
 21
-215.052901
 31
0.0
  0
LINE
  8
0
  6
BYLAYER
 62
     7
 10
1440.300341
 20
-223.052901
 30
0.0
 11
1448.300341
 21
-223.052901
 31
0.0
  0
LINE
  8
0
  6
BYLAYER
 62
     7
 10
1448.300341
 20
-215.052901
 30
0.0
 11
1448.300341
 21
-223.052901
 31
0.0
  0
LINE
  8
0
  6
BYLAYER
 62
     7
 10
1450.300341
 20
-213.052901
 30
0.0
 11
1450.300341
 21
-205.052901
 31
0.0
  0
LINE
  8
0
  6
BYLAYER
 62
     7
 10
1450.300341
 20
-205.052901
 30
0.0
 11
1458.300341
 21
-205.052901
 31
0.0
  0
LINE
  8
0
  6
BYLAYER
 62
     7
 10
1450.300341
 20
-213.052901
 30
0.0
 11
1458.300341
 21
-213.052901
 31
0.0
  0
LINE
  8
0
  6
BYLAYER
 62
     7
 10
1458.300341
 20
-205.052901
 30
0.0
 11
1458.300341
 21
-213.052901
 31
0.0
  0
LINE
  8
0
  6
BYLAYER
 62
     7
 10
1400.300341
 20
-253.052901
 30
0.0
 11
1400.300341
 21
-245.052901
 31
0.0
  0
LINE
  8
0
  6
BYLAYER
 62
     7
 10
1408.300341
 20
-245.052901
 30
0.0
 11
1408.300341
 21
-253.052901
 31
0.0
  0
LINE
  8
0
  6
BYLAYER
 62
     7
 10
1400.300341
 20
-245.052901
 30
0.0
 11
1408.300341
 21
-245.052901
 31
0.0
  0
LINE
  8
0
  6
BYLAYER
 62
     7
 10
1400.300341
 20
-253.052901
 30
0.0
 11
1408.300341
 21
-253.052901
 31
0.0
  0
LINE
  8
0
  6
BYLAYER
 62
     7
 10
1470.300341
 20
-175.052901
 30
0.0
 11
1478.300341
 21
-175.052901
 31
0.0
  0
LINE
  8
0
  6
BYLAYER
 62
     7
 10
1470.300341
 20
-183.052901
 30
0.0
 11
1470.300341
 21
-175.052901
 31
0.0
  0
LINE
  8
0
  6
BYLAYER
 62
     7
 10
1470.300341
 20
-183.052901
 30
0.0
 11
1478.300341
 21
-183.052901
 31
0.0
  0
LINE
  8
0
  6
BYLAYER
 62
     7
 10
1478.300341
 20
-175.052901
 30
0.0
 11
1478.300341
 21
-183.052901
 31
0.0
  0
LINE
  8
0
  6
BYLAYER
 62
     7
 10
1420.300341
 20
-243.052901
 30
0.0
 11
1420.300341
 21
-235.052901
 31
0.0
  0
LINE
  8
0
  6
BYLAYER
 62
     7
 10
1420.300341
 20
-235.052901
 30
0.0
 11
1428.300341
 21
-235.052901
 31
0.0
  0
LINE
  8
0
  6
BYLAYER
 62
     7
 10
1420.300341
 20
-243.052901
 30
0.0
 11
1428.300341
 21
-243.052901
 31
0.0
  0
LINE
  8
0
  6
BYLAYER
 62
     7
 10
1428.300341
 20
-235.052901
 30
0.0
 11
1428.300341
 21
-243.052901
 31
0.0
  0
LINE
  8
0
  6
BYLAYER
 62
     7
 10
1460.300341
 20
-203.052901
 30
0.0
 11
1460.300341
 21
-195.052901
 31
0.0
  0
LINE
  8
0
  6
BYLAYER
 62
     7
 10
1460.300341
 20
-195.052901
 30
0.0
 11
1468.300341
 21
-195.052901
 31
0.0
  0
LINE
  8
0
  6
BYLAYER
 62
     7
 10
1460.300341
 20
-203.052901
 30
0.0
 11
1468.300341
 21
-203.052901
 31
0.0
  0
LINE
  8
0
  6
BYLAYER
 62
     7
 10
1468.300341
 20
-195.052901
 30
0.0
 11
1468.300341
 21
-203.052901
 31
0.0
  0
LINE
  8
0
  6
BYLAYER
 62
     7
 10
1430.300341
 20
-243.052901
 30
0.0
 11
1430.300341
 21
-235.052901
 31
0.0
  0
LINE
  8
0
  6
BYLAYER
 62
     7
 10
1430.300341
 20
-235.052901
 30
0.0
 11
1438.300341
 21
-235.052901
 31
0.0
  0
LINE
  8
0
  6
BYLAYER
 62
     7
 10
1430.300341
 20
-243.052901
 30
0.0
 11
1438.300341
 21
-243.052901
 31
0.0
  0
LINE
  8
0
  6
BYLAYER
 62
     7
 10
1438.300341
 20
-235.052901
 30
0.0
 11
1438.300341
 21
-243.052901
 31
0.0
  0
LINE
  8
0
  6
BYLAYER
 62
     7
 10
1440.300341
 20
-233.052901
 30
0.0
 11
1440.300341
 21
-225.052901
 31
0.0
  0
LINE
  8
0
  6
BYLAYER
 62
     7
 10
1440.300341
 20
-225.052901
 30
0.0
 11
1448.300341
 21
-225.052901
 31
0.0
  0
LINE
  8
0
  6
BYLAYER
 62
     7
 10
1440.300341
 20
-233.052901
 30
0.0
 11
1448.300341
 21
-233.052901
 31
0.0
  0
LINE
  8
0
  6
BYLAYER
 62
     7
 10
1448.300341
 20
-225.052901
 30
0.0
 11
1448.300341
 21
-233.052901
 31
0.0
  0
LINE
  8
0
  6
BYLAYER
 62
     7
 10
1450.300341
 20
-223.052901
 30
0.0
 11
1450.300341
 21
-215.052901
 31
0.0
  0
LINE
  8
0
  6
BYLAYER
 62
     7
 10
1450.300341
 20
-215.052901
 30
0.0
 11
1458.300341
 21
-215.052901
 31
0.0
  0
LINE
  8
0
  6
BYLAYER
 62
     7
 10
1450.300341
 20
-223.052901
 30
0.0
 11
1458.300341
 21
-223.052901
 31
0.0
  0
LINE
  8
0
  6
BYLAYER
 62
     7
 10
1458.300341
 20
-215.052901
 30
0.0
 11
1458.300341
 21
-223.052901
 31
0.0
  0
LINE
  8
0
  6
BYLAYER
 62
     7
 10
1460.300341
 20
-213.052901
 30
0.0
 11
1460.300341
 21
-205.052901
 31
0.0
  0
LINE
  8
0
  6
BYLAYER
 62
     7
 10
1460.300341
 20
-205.052901
 30
0.0
 11
1468.300341
 21
-205.052901
 31
0.0
  0
LINE
  8
0
  6
BYLAYER
 62
     7
 10
1460.300341
 20
-213.052901
 30
0.0
 11
1468.300341
 21
-213.052901
 31
0.0
  0
LINE
  8
0
  6
BYLAYER
 62
     7
 10
1468.300341
 20
-205.052901
 30
0.0
 11
1468.300341
 21
-213.052901
 31
0.0
  0
LINE
  8
0
  6
BYLAYER
 62
     7
 10
1410.300341
 20
-245.052901
 30
0.0
 11
1410.300341
 21
-253.052901
 31
0.0
  0
LINE
  8
0
  6
BYLAYER
 62
     7
 10
1410.300341
 20
-245.052901
 30
0.0
 11
1418.138340
 21
-245.052901
 31
0.0
  0
LINE
  8
0
  6
BYLAYER
 62
     7
 10
1410.300341
 20
-253.052901
 30
0.0
 11
1418.138340
 21
-253.052901
 31
0.0
  0
LINE
  8
0
  6
BYLAYER
 62
     7
 10
1418.138340
 20
-245.052901
 30
0.0
 11
1418.138340
 21
-253.052901
 31
0.0
  0
LINE
  8
0
  6
BYLAYER
 62
     7
 10
1470.300341
 20
-185.052901
 30
0.0
 11
1478.300341
 21
-185.052901
 31
0.0
  0
LINE
  8
0
  6
BYLAYER
 62
     7
 10
1470.300341
 20
-193.052901
 30
0.0
 11
1470.300341
 21
-185.052901
 31
0.0
  0
LINE
  8
0
  6
BYLAYER
 62
     7
 10
1470.300341
 20
-193.052901
 30
0.0
 11
1478.300341
 21
-193.052901
 31
0.0
  0
LINE
  8
0
  6
BYLAYER
 62
     7
 10
1478.300341
 20
-185.052901
 30
0.0
 11
1478.300341
 21
-193.052901
 31
0.0
  0
LINE
  8
0
  6
BYLAYER
 62
     7
 10
1400.300341
 20
-263.052901
 30
0.0
 11
1400.300341
 21
-255.052901
 31
0.0
  0
LINE
  8
0
  6
BYLAYER
 62
     7
 10
1408.300341
 20
-255.052901
 30
0.0
 11
1408.300341
 21
-263.052901
 31
0.0
  0
LINE
  8
0
  6
BYLAYER
 62
     7
 10
1400.300341
 20
-255.052901
 30
0.0
 11
1408.300341
 21
-255.052901
 31
0.0
  0
LINE
  8
0
  6
BYLAYER
 62
     7
 10
1400.300341
 20
-263.052901
 30
0.0
 11
1408.300341
 21
-263.052901
 31
0.0
  0
LINE
  8
0
  6
BYLAYER
 62
     7
 10
1410.300341
 20
-255.052901
 30
0.0
 11
1410.300341
 21
-263.052901
 31
0.0
  0
LINE
  8
0
  6
BYLAYER
 62
     7
 10
1410.300341
 20
-255.052901
 30
0.0
 11
1418.138340
 21
-255.052901
 31
0.0
  0
LINE
  8
0
  6
BYLAYER
 62
     7
 10
1410.300341
 20
-263.052901
 30
0.0
 11
1418.138340
 21
-263.052901
 31
0.0
  0
LINE
  8
0
  6
BYLAYER
 62
     7
 10
1418.138340
 20
-255.052901
 30
0.0
 11
1418.138340
 21
-263.052901
 31
0.0
  0
LINE
  8
0
  6
BYLAYER
 62
     7
 10
1420.300341
 20
-253.052901
 30
0.0
 11
1420.300341
 21
-245.052901
 31
0.0
  0
LINE
  8
0
  6
BYLAYER
 62
     7
 10
1420.300341
 20
-245.052901
 30
0.0
 11
1428.300341
 21
-245.052901
 31
0.0
  0
LINE
  8
0
  6
BYLAYER
 62
     7
 10
1420.300341
 20
-253.052901
 30
0.0
 11
1428.300341
 21
-253.052901
 31
0.0
  0
LINE
  8
0
  6
BYLAYER
 62
     7
 10
1428.300341
 20
-245.052901
 30
0.0
 11
1428.300341
 21
-253.052901
 31
0.0
  0
LINE
  8
0
  6
BYLAYER
 62
     7
 10
1430.300341
 20
-253.052901
 30
0.0
 11
1430.300341
 21
-245.052901
 31
0.0
  0
LINE
  8
0
  6
BYLAYER
 62
     7
 10
1430.300341
 20
-245.052901
 30
0.0
 11
1438.300341
 21
-245.052901
 31
0.0
  0
LINE
  8
0
  6
BYLAYER
 62
     7
 10
1430.300341
 20
-253.052901
 30
0.0
 11
1438.300341
 21
-253.052901
 31
0.0
  0
LINE
  8
0
  6
BYLAYER
 62
     7
 10
1438.300341
 20
-245.052901
 30
0.0
 11
1438.300341
 21
-253.052901
 31
0.0
  0
LINE
  8
0
  6
BYLAYER
 62
     7
 10
1440.300341
 20
-243.052901
 30
0.0
 11
1440.300341
 21
-235.052901
 31
0.0
  0
LINE
  8
0
  6
BYLAYER
 62
     7
 10
1440.300341
 20
-235.052901
 30
0.0
 11
1448.300341
 21
-235.052901
 31
0.0
  0
LINE
  8
0
  6
BYLAYER
 62
     7
 10
1440.300341
 20
-243.052901
 30
0.0
 11
1448.300341
 21
-243.052901
 31
0.0
  0
LINE
  8
0
  6
BYLAYER
 62
     7
 10
1448.300341
 20
-235.052901
 30
0.0
 11
1448.300341
 21
-243.052901
 31
0.0
  0
LINE
  8
0
  6
BYLAYER
 62
     7
 10
1450.300341
 20
-233.052901
 30
0.0
 11
1450.300341
 21
-225.052901
 31
0.0
  0
LINE
  8
0
  6
BYLAYER
 62
     7
 10
1450.300341
 20
-225.052901
 30
0.0
 11
1458.300341
 21
-225.052901
 31
0.0
  0
LINE
  8
0
  6
BYLAYER
 62
     7
 10
1450.300341
 20
-233.052901
 30
0.0
 11
1458.300341
 21
-233.052901
 31
0.0
  0
LINE
  8
0
  6
BYLAYER
 62
     7
 10
1458.300341
 20
-225.052901
 30
0.0
 11
1458.300341
 21
-233.052901
 31
0.0
  0
LINE
  8
0
  6
BYLAYER
 62
     7
 10
1460.300341
 20
-223.052901
 30
0.0
 11
1460.300341
 21
-215.052901
 31
0.0
  0
LINE
  8
0
  6
BYLAYER
 62
     7
 10
1460.300341
 20
-215.052901
 30
0.0
 11
1468.300341
 21
-215.052901
 31
0.0
  0
LINE
  8
0
  6
BYLAYER
 62
     7
 10
1460.300341
 20
-223.052901
 30
0.0
 11
1468.300341
 21
-223.052901
 31
0.0
  0
LINE
  8
0
  6
BYLAYER
 62
     7
 10
1468.300341
 20
-215.052901
 30
0.0
 11
1468.300341
 21
-223.052901
 31
0.0
  0
LINE
  8
0
  6
BYLAYER
 62
     7
 10
1470.300341
 20
-195.052901
 30
0.0
 11
1478.300341
 21
-195.052901
 31
0.0
  0
LINE
  8
0
  6
BYLAYER
 62
     7
 10
1470.300341
 20
-203.052901
 30
0.0
 11
1470.300341
 21
-195.052901
 31
0.0
  0
LINE
  8
0
  6
BYLAYER
 62
     7
 10
1470.300341
 20
-203.052901
 30
0.0
 11
1478.300341
 21
-203.052901
 31
0.0
  0
LINE
  8
0
  6
BYLAYER
 62
     7
 10
1478.300341
 20
-195.052901
 30
0.0
 11
1478.300341
 21
-203.052901
 31
0.0
  0
LINE
  8
0
  6
BYLAYER
 62
     7
 10
1470.300341
 20
-205.052901
 30
0.0
 11
1478.300341
 21
-205.052901
 31
0.0
  0
LINE
  8
0
  6
BYLAYER
 62
     7
 10
1470.300341
 20
-213.052901
 30
0.0
 11
1470.300341
 21
-205.052901
 31
0.0
  0
LINE
  8
0
  6
BYLAYER
 62
     7
 10
1470.300341
 20
-213.052901
 30
0.0
 11
1478.300341
 21
-213.052901
 31
0.0
  0
LINE
  8
0
  6
BYLAYER
 62
     7
 10
1478.300341
 20
-205.052901
 30
0.0
 11
1478.300341
 21
-213.052901
 31
0.0
  0
LINE
  8
0
  6
BYLAYER
 62
     7
 10
1480.300341
 20
-175.052901
 30
0.0
 11
1488.300341
 21
-175.052901
 31
0.0
  0
LINE
  8
0
  6
BYLAYER
 62
     7
 10
1480.300341
 20
-183.052901
 30
0.0
 11
1480.300341
 21
-175.052901
 31
0.0
  0
LINE
  8
0
  6
BYLAYER
 62
     7
 10
1480.300341
 20
-183.052901
 30
0.0
 11
1488.300341
 21
-183.052901
 31
0.0
  0
LINE
  8
0
  6
BYLAYER
 62
     7
 10
1488.300341
 20
-175.052901
 30
0.0
 11
1488.300341
 21
-183.052901
 31
0.0
  0
LINE
  8
0
  6
BYLAYER
 62
     7
 10
1480.300341
 20
-185.052901
 30
0.0
 11
1488.300341
 21
-185.052901
 31
0.0
  0
LINE
  8
0
  6
BYLAYER
 62
     7
 10
1480.300341
 20
-193.052901
 30
0.0
 11
1480.300341
 21
-185.052901
 31
0.0
  0
LINE
  8
0
  6
BYLAYER
 62
     7
 10
1480.300341
 20
-193.052901
 30
0.0
 11
1488.300341
 21
-193.052901
 31
0.0
  0
LINE
  8
0
  6
BYLAYER
 62
     7
 10
1488.300341
 20
-185.052901
 30
0.0
 11
1488.300341
 21
-193.052901
 31
0.0
  0
LINE
  8
0
  6
BYLAYER
 62
     7
 10
1398.300341
 20
-203.052901
 30
0.0
 11
1398.300341
 21
-195.052901
 31
0.0
  0
LINE
  8
0
  6
BYLAYER
 62
     7
 10
1398.300341
 20
-213.052901
 30
0.0
 11
1398.300341
 21
-205.052901
 31
0.0
  0
LINE
  8
0
  6
BYLAYER
 62
     7
 10
1390.300341
 20
-205.052901
 30
0.0
 11
1390.300341
 21
-213.052901
 31
0.0
  0
LINE
  8
0
  6
BYLAYER
 62
     7
 10
1388.300341
 20
-205.052901
 30
0.0
 11
1388.300341
 21
-213.052901
 31
0.0
  0
LINE
  8
0
  6
BYLAYER
 62
     7
 10
1398.300341
 20
-195.052901
 30
0.0
 11
1390.300341
 21
-195.052901
 31
0.0
  0
LINE
  8
0
  6
BYLAYER
 62
     7
 10
1398.300341
 20
-203.052901
 30
0.0
 11
1390.300341
 21
-203.052901
 31
0.0
  0
LINE
  8
0
  6
BYLAYER
 62
     7
 10
1388.300341
 20
-205.052901
 30
0.0
 11
1380.462342
 21
-205.052901
 31
0.0
  0
LINE
  8
0
  6
BYLAYER
 62
     7
 10
1398.300341
 20
-205.052901
 30
0.0
 11
1390.300341
 21
-205.052901
 31
0.0
  0
LINE
  8
0
  6
BYLAYER
 62
     7
 10
1388.300341
 20
-213.052901
 30
0.0
 11
1380.462342
 21
-213.052901
 31
0.0
  0
LINE
  8
0
  6
BYLAYER
 62
     7
 10
1398.300341
 20
-213.052901
 30
0.0
 11
1390.300341
 21
-213.052901
 31
0.0
  0
LINE
  8
0
  6
BYLAYER
 62
     7
 10
1380.462342
 20
-205.052901
 30
0.0
 11
1380.462342
 21
-213.052901
 31
0.0
  0
LINE
  8
0
  6
BYLAYER
 62
     7
 10
1390.300341
 20
-195.052901
 30
0.0
 11
1390.300341
 21
-203.052901
 31
0.0
  0
LINE
  8
0
  6
BYLAYER
 62
     7
 10
1388.300341
 20
-203.052901
 30
0.0
 11
1388.300341
 21
-195.052901
 31
0.0
  0
LINE
  8
0
  6
BYLAYER
 62
     7
 10
1388.300341
 20
-195.052901
 30
0.0
 11
1380.300341
 21
-195.052901
 31
0.0
  0
LINE
  8
0
  6
BYLAYER
 62
     7
 10
1388.300341
 20
-203.052901
 30
0.0
 11
1380.300341
 21
-203.052901
 31
0.0
  0
LINE
  8
0
  6
BYLAYER
 62
     7
 10
1380.300341
 20
-195.052901
 30
0.0
 11
1380.300341
 21
-203.052901
 31
0.0
  0
LINE
  8
0
  6
BYLAYER
 62
     7
 10
1378.300341
 20
-185.052901
 30
0.0
 11
1370.300341
 21
-185.052901
 31
0.0
  0
LINE
  8
0
  6
BYLAYER
 62
     7
 10
1378.300341
 20
-203.052901
 30
0.0
 11
1378.300341
 21
-195.052901
 31
0.0
  0
LINE
  8
0
  6
BYLAYER
 62
     7
 10
1378.300341
 20
-193.052901
 30
0.0
 11
1378.300341
 21
-185.052901
 31
0.0
  0
LINE
  8
0
  6
BYLAYER
 62
     7
 10
1378.300341
 20
-193.052901
 30
0.0
 11
1370.300341
 21
-193.052901
 31
0.0
  0
LINE
  8
0
  6
BYLAYER
 62
     7
 10
1378.300341
 20
-195.052901
 30
0.0
 11
1370.300341
 21
-195.052901
 31
0.0
  0
LINE
  8
0
  6
BYLAYER
 62
     7
 10
1378.300341
 20
-203.052901
 30
0.0
 11
1370.300341
 21
-203.052901
 31
0.0
  0
LINE
  8
0
  6
BYLAYER
 62
     7
 10
1370.300341
 20
-185.052901
 30
0.0
 11
1370.300341
 21
-193.052901
 31
0.0
  0
LINE
  8
0
  6
BYLAYER
 62
     7
 10
1370.300341
 20
-195.052901
 30
0.0
 11
1370.300341
 21
-203.052901
 31
0.0
  0
LINE
  8
0
  6
BYLAYER
 62
     7
 10
1378.300341
 20
-175.052901
 30
0.0
 11
1370.300341
 21
-175.052901
 31
0.0
  0
LINE
  8
0
  6
BYLAYER
 62
     7
 10
1378.300341
 20
-183.052901
 30
0.0
 11
1378.300341
 21
-175.052901
 31
0.0
  0
LINE
  8
0
  6
BYLAYER
 62
     7
 10
1378.300341
 20
-183.052901
 30
0.0
 11
1370.300341
 21
-183.052901
 31
0.0
  0
LINE
  8
0
  6
BYLAYER
 62
     7
 10
1370.300341
 20
-175.052901
 30
0.0
 11
1370.300341
 21
-183.052901
 31
0.0
  0
LINE
  8
0
  6
BYLAYER
 62
     7
 10
1368.300341
 20
-185.052901
 30
0.0
 11
1360.300341
 21
-185.052901
 31
0.0
  0
LINE
  8
0
  6
BYLAYER
 62
     7
 10
1368.300341
 20
-193.052901
 30
0.0
 11
1368.300341
 21
-185.052901
 31
0.0
  0
LINE
  8
0
  6
BYLAYER
 62
     7
 10
1368.300341
 20
-193.052901
 30
0.0
 11
1360.300341
 21
-193.052901
 31
0.0
  0
LINE
  8
0
  6
BYLAYER
 62
     7
 10
1360.300341
 20
-185.052901
 30
0.0
 11
1360.300341
 21
-193.052901
 31
0.0
  0
LINE
  8
0
  6
BYLAYER
 62
     7
 10
1368.300341
 20
-175.052901
 30
0.0
 11
1360.300341
 21
-175.052901
 31
0.0
  0
LINE
  8
0
  6
BYLAYER
 62
     7
 10
1368.300341
 20
-183.052901
 30
0.0
 11
1368.300341
 21
-175.052901
 31
0.0
  0
LINE
  8
0
  6
BYLAYER
 62
     7
 10
1368.300341
 20
-183.052901
 30
0.0
 11
1360.300341
 21
-183.052901
 31
0.0
  0
LINE
  8
0
  6
BYLAYER
 62
     7
 10
1360.300341
 20
-175.052901
 30
0.0
 11
1360.300341
 21
-183.052901
 31
0.0
  0
LINE
  8
0
  6
BYLAYER
 62
     7
 10
1358.300341
 20
-185.052901
 30
0.0
 11
1350.300341
 21
-185.052901
 31
0.0
  0
LINE
  8
0
  6
BYLAYER
 62
     7
 10
1358.300341
 20
-193.052901
 30
0.0
 11
1358.300341
 21
-185.052901
 31
0.0
  0
LINE
  8
0
  6
BYLAYER
 62
     7
 10
1358.300341
 20
-193.052901
 30
0.0
 11
1350.300341
 21
-193.052901
 31
0.0
  0
LINE
  8
0
  6
BYLAYER
 62
     7
 10
1350.300341
 20
-185.052901
 30
0.0
 11
1350.300341
 21
-193.052901
 31
0.0
  0
LINE
  8
0
  6
BYLAYER
 62
     7
 10
1358.300341
 20
-175.052901
 30
0.0
 11
1350.300341
 21
-175.052901
 31
0.0
  0
LINE
  8
0
  6
BYLAYER
 62
     7
 10
1358.300341
 20
-183.052901
 30
0.0
 11
1358.300341
 21
-175.052901
 31
0.0
  0
LINE
  8
0
  6
BYLAYER
 62
     7
 10
1358.300341
 20
-183.052901
 30
0.0
 11
1350.300341
 21
-183.052901
 31
0.0
  0
LINE
  8
0
  6
BYLAYER
 62
     7
 10
1350.300341
 20
-175.052901
 30
0.0
 11
1350.300341
 21
-183.052901
 31
0.0
  0
LINE
  8
0
  6
BYLAYER
 62
     7
 10
1398.300341
 20
-223.052901
 30
0.0
 11
1398.300341
 21
-215.052901
 31
0.0
  0
LINE
  8
0
  6
BYLAYER
 62
     7
 10
1390.300341
 20
-215.052901
 30
0.0
 11
1390.300341
 21
-223.052901
 31
0.0
  0
LINE
  8
0
  6
BYLAYER
 62
     7
 10
1388.300341
 20
-215.052901
 30
0.0
 11
1388.300341
 21
-223.052901
 31
0.0
  0
LINE
  8
0
  6
BYLAYER
 62
     7
 10
1388.300341
 20
-215.052901
 30
0.0
 11
1380.462342
 21
-215.052901
 31
0.0
  0
LINE
  8
0
  6
BYLAYER
 62
     7
 10
1398.300341
 20
-215.052901
 30
0.0
 11
1390.300341
 21
-215.052901
 31
0.0
  0
LINE
  8
0
  6
BYLAYER
 62
     7
 10
1388.300341
 20
-223.052901
 30
0.0
 11
1380.462342
 21
-223.052901
 31
0.0
  0
LINE
  8
0
  6
BYLAYER
 62
     7
 10
1398.300341
 20
-223.052901
 30
0.0
 11
1390.300341
 21
-223.052901
 31
0.0
  0
LINE
  8
0
  6
BYLAYER
 62
     7
 10
1380.462342
 20
-215.052901
 30
0.0
 11
1380.462342
 21
-223.052901
 31
0.0
  0
LINE
  8
0
  6
BYLAYER
 62
     7
 10
1378.300341
 20
-213.052901
 30
0.0
 11
1378.300341
 21
-205.052901
 31
0.0
  0
LINE
  8
0
  6
BYLAYER
 62
     7
 10
1378.300341
 20
-205.052901
 30
0.0
 11
1370.300341
 21
-205.052901
 31
0.0
  0
LINE
  8
0
  6
BYLAYER
 62
     7
 10
1378.300341
 20
-213.052901
 30
0.0
 11
1370.300341
 21
-213.052901
 31
0.0
  0
LINE
  8
0
  6
BYLAYER
 62
     7
 10
1370.300341
 20
-205.052901
 30
0.0
 11
1370.300341
 21
-213.052901
 31
0.0
  0
LINE
  8
0
  6
BYLAYER
 62
     7
 10
1378.300341
 20
-223.052901
 30
0.0
 11
1378.300341
 21
-215.052901
 31
0.0
  0
LINE
  8
0
  6
BYLAYER
 62
     7
 10
1378.300341
 20
-215.052901
 30
0.0
 11
1370.300341
 21
-215.052901
 31
0.0
  0
LINE
  8
0
  6
BYLAYER
 62
     7
 10
1378.300341
 20
-223.052901
 30
0.0
 11
1370.300341
 21
-223.052901
 31
0.0
  0
LINE
  8
0
  6
BYLAYER
 62
     7
 10
1370.300341
 20
-215.052901
 30
0.0
 11
1370.300341
 21
-223.052901
 31
0.0
  0
LINE
  8
0
  6
BYLAYER
 62
     7
 10
1368.300341
 20
-203.052901
 30
0.0
 11
1368.300341
 21
-195.052901
 31
0.0
  0
LINE
  8
0
  6
BYLAYER
 62
     7
 10
1368.300341
 20
-195.052901
 30
0.0
 11
1360.300341
 21
-195.052901
 31
0.0
  0
LINE
  8
0
  6
BYLAYER
 62
     7
 10
1368.300341
 20
-203.052901
 30
0.0
 11
1360.300341
 21
-203.052901
 31
0.0
  0
LINE
  8
0
  6
BYLAYER
 62
     7
 10
1360.300341
 20
-195.052901
 30
0.0
 11
1360.300341
 21
-203.052901
 31
0.0
  0
LINE
  8
0
  6
BYLAYER
 62
     7
 10
1368.300341
 20
-213.052901
 30
0.0
 11
1368.300341
 21
-205.052901
 31
0.0
  0
LINE
  8
0
  6
BYLAYER
 62
     7
 10
1368.300341
 20
-205.052901
 30
0.0
 11
1360.300341
 21
-205.052901
 31
0.0
  0
LINE
  8
0
  6
BYLAYER
 62
     7
 10
1368.300341
 20
-213.052901
 30
0.0
 11
1360.300341
 21
-213.052901
 31
0.0
  0
LINE
  8
0
  6
BYLAYER
 62
     7
 10
1360.300341
 20
-205.052901
 30
0.0
 11
1360.300341
 21
-213.052901
 31
0.0
  0
LINE
  8
0
  6
BYLAYER
 62
     7
 10
1358.300341
 20
-203.052901
 30
0.0
 11
1358.300341
 21
-195.052901
 31
0.0
  0
LINE
  8
0
  6
BYLAYER
 62
     7
 10
1358.300341
 20
-195.052901
 30
0.0
 11
1350.300341
 21
-195.052901
 31
0.0
  0
LINE
  8
0
  6
BYLAYER
 62
     7
 10
1358.300341
 20
-203.052901
 30
0.0
 11
1350.300341
 21
-203.052901
 31
0.0
  0
LINE
  8
0
  6
BYLAYER
 62
     7
 10
1350.300341
 20
-195.052901
 30
0.0
 11
1350.300341
 21
-203.052901
 31
0.0
  0
LINE
  8
0
  6
BYLAYER
 62
     7
 10
1348.300341
 20
-185.052901
 30
0.0
 11
1340.300341
 21
-185.052901
 31
0.0
  0
LINE
  8
0
  6
BYLAYER
 62
     7
 10
1348.300341
 20
-193.052901
 30
0.0
 11
1348.300341
 21
-185.052901
 31
0.0
  0
LINE
  8
0
  6
BYLAYER
 62
     7
 10
1348.300341
 20
-193.052901
 30
0.0
 11
1340.300341
 21
-193.052901
 31
0.0
  0
LINE
  8
0
  6
BYLAYER
 62
     7
 10
1340.300341
 20
-185.052901
 30
0.0
 11
1340.300341
 21
-193.052901
 31
0.0
  0
LINE
  8
0
  6
BYLAYER
 62
     7
 10
1348.300341
 20
-175.052901
 30
0.0
 11
1340.300341
 21
-175.052901
 31
0.0
  0
LINE
  8
0
  6
BYLAYER
 62
     7
 10
1348.300341
 20
-183.052901
 30
0.0
 11
1348.300341
 21
-175.052901
 31
0.0
  0
LINE
  8
0
  6
BYLAYER
 62
     7
 10
1348.300341
 20
-183.052901
 30
0.0
 11
1340.300341
 21
-183.052901
 31
0.0
  0
LINE
  8
0
  6
BYLAYER
 62
     7
 10
1340.300341
 20
-175.052901
 30
0.0
 11
1340.300341
 21
-183.052901
 31
0.0
  0
LINE
  8
0
  6
BYLAYER
 62
     7
 10
1348.300341
 20
-203.052901
 30
0.0
 11
1348.300341
 21
-195.052901
 31
0.0
  0
LINE
  8
0
  6
BYLAYER
 62
     7
 10
1348.300341
 20
-195.052901
 30
0.0
 11
1340.300341
 21
-195.052901
 31
0.0
  0
LINE
  8
0
  6
BYLAYER
 62
     7
 10
1348.300341
 20
-203.052901
 30
0.0
 11
1340.300341
 21
-203.052901
 31
0.0
  0
LINE
  8
0
  6
BYLAYER
 62
     7
 10
1340.300341
 20
-195.052901
 30
0.0
 11
1340.300341
 21
-203.052901
 31
0.0
  0
LINE
  8
0
  6
BYLAYER
 62
     7
 10
1398.300341
 20
-233.052901
 30
0.0
 11
1398.300341
 21
-225.052901
 31
0.0
  0
LINE
  8
0
  6
BYLAYER
 62
     7
 10
1390.300341
 20
-225.052901
 30
0.0
 11
1390.300341
 21
-233.052901
 31
0.0
  0
LINE
  8
0
  6
BYLAYER
 62
     7
 10
1388.300341
 20
-225.052901
 30
0.0
 11
1388.300341
 21
-233.052901
 31
0.0
  0
LINE
  8
0
  6
BYLAYER
 62
     7
 10
1388.300341
 20
-225.052901
 30
0.0
 11
1380.462342
 21
-225.052901
 31
0.0
  0
LINE
  8
0
  6
BYLAYER
 62
     7
 10
1398.300341
 20
-225.052901
 30
0.0
 11
1390.300341
 21
-225.052901
 31
0.0
  0
LINE
  8
0
  6
BYLAYER
 62
     7
 10
1388.300341
 20
-233.052901
 30
0.0
 11
1380.462342
 21
-233.052901
 31
0.0
  0
LINE
  8
0
  6
BYLAYER
 62
     7
 10
1398.300341
 20
-233.052901
 30
0.0
 11
1390.300341
 21
-233.052901
 31
0.0
  0
LINE
  8
0
  6
BYLAYER
 62
     7
 10
1380.462342
 20
-225.052901
 30
0.0
 11
1380.462342
 21
-233.052901
 31
0.0
  0
LINE
  8
0
  6
BYLAYER
 62
     7
 10
1378.300341
 20
-233.052901
 30
0.0
 11
1378.300341
 21
-225.052901
 31
0.0
  0
LINE
  8
0
  6
BYLAYER
 62
     7
 10
1378.300341
 20
-225.052901
 30
0.0
 11
1370.300341
 21
-225.052901
 31
0.0
  0
LINE
  8
0
  6
BYLAYER
 62
     7
 10
1378.300341
 20
-233.052901
 30
0.0
 11
1370.300341
 21
-233.052901
 31
0.0
  0
LINE
  8
0
  6
BYLAYER
 62
     7
 10
1370.300341
 20
-225.052901
 30
0.0
 11
1370.300341
 21
-233.052901
 31
0.0
  0
LINE
  8
0
  6
BYLAYER
 62
     7
 10
1368.300341
 20
-223.052901
 30
0.0
 11
1368.300341
 21
-215.052901
 31
0.0
  0
LINE
  8
0
  6
BYLAYER
 62
     7
 10
1368.300341
 20
-215.052901
 30
0.0
 11
1360.300341
 21
-215.052901
 31
0.0
  0
LINE
  8
0
  6
BYLAYER
 62
     7
 10
1368.300341
 20
-223.052901
 30
0.0
 11
1360.300341
 21
-223.052901
 31
0.0
  0
LINE
  8
0
  6
BYLAYER
 62
     7
 10
1360.300341
 20
-215.052901
 30
0.0
 11
1360.300341
 21
-223.052901
 31
0.0
  0
LINE
  8
0
  6
BYLAYER
 62
     7
 10
1358.300341
 20
-213.052901
 30
0.0
 11
1358.300341
 21
-205.052901
 31
0.0
  0
LINE
  8
0
  6
BYLAYER
 62
     7
 10
1358.300341
 20
-205.052901
 30
0.0
 11
1350.300341
 21
-205.052901
 31
0.0
  0
LINE
  8
0
  6
BYLAYER
 62
     7
 10
1358.300341
 20
-213.052901
 30
0.0
 11
1350.300341
 21
-213.052901
 31
0.0
  0
LINE
  8
0
  6
BYLAYER
 62
     7
 10
1350.300341
 20
-205.052901
 30
0.0
 11
1350.300341
 21
-213.052901
 31
0.0
  0
LINE
  8
0
  6
BYLAYER
 62
     7
 10
1398.300341
 20
-243.052901
 30
0.0
 11
1398.300341
 21
-235.052901
 31
0.0
  0
LINE
  8
0
  6
BYLAYER
 62
     7
 10
1390.300341
 20
-235.052901
 30
0.0
 11
1390.300341
 21
-243.052901
 31
0.0
  0
LINE
  8
0
  6
BYLAYER
 62
     7
 10
1388.300341
 20
-235.052901
 30
0.0
 11
1388.300341
 21
-243.052901
 31
0.0
  0
LINE
  8
0
  6
BYLAYER
 62
     7
 10
1388.300341
 20
-235.052901
 30
0.0
 11
1380.462342
 21
-235.052901
 31
0.0
  0
LINE
  8
0
  6
BYLAYER
 62
     7
 10
1398.300341
 20
-235.052901
 30
0.0
 11
1390.300341
 21
-235.052901
 31
0.0
  0
LINE
  8
0
  6
BYLAYER
 62
     7
 10
1388.300341
 20
-243.052901
 30
0.0
 11
1380.462342
 21
-243.052901
 31
0.0
  0
LINE
  8
0
  6
BYLAYER
 62
     7
 10
1398.300341
 20
-243.052901
 30
0.0
 11
1390.300341
 21
-243.052901
 31
0.0
  0
LINE
  8
0
  6
BYLAYER
 62
     7
 10
1380.462342
 20
-235.052901
 30
0.0
 11
1380.462342
 21
-243.052901
 31
0.0
  0
LINE
  8
0
  6
BYLAYER
 62
     7
 10
1338.300341
 20
-185.052901
 30
0.0
 11
1330.300341
 21
-185.052901
 31
0.0
  0
LINE
  8
0
  6
BYLAYER
 62
     7
 10
1338.300341
 20
-193.052901
 30
0.0
 11
1338.300341
 21
-185.052901
 31
0.0
  0
LINE
  8
0
  6
BYLAYER
 62
     7
 10
1338.300341
 20
-193.052901
 30
0.0
 11
1330.300341
 21
-193.052901
 31
0.0
  0
LINE
  8
0
  6
BYLAYER
 62
     7
 10
1330.300341
 20
-185.052901
 30
0.0
 11
1330.300341
 21
-193.052901
 31
0.0
  0
LINE
  8
0
  6
BYLAYER
 62
     7
 10
1338.300341
 20
-175.052901
 30
0.0
 11
1330.300341
 21
-175.052901
 31
0.0
  0
LINE
  8
0
  6
BYLAYER
 62
     7
 10
1338.300341
 20
-183.052901
 30
0.0
 11
1338.300341
 21
-175.052901
 31
0.0
  0
LINE
  8
0
  6
BYLAYER
 62
     7
 10
1338.300341
 20
-183.052901
 30
0.0
 11
1330.300341
 21
-183.052901
 31
0.0
  0
LINE
  8
0
  6
BYLAYER
 62
     7
 10
1330.300341
 20
-175.052901
 30
0.0
 11
1330.300341
 21
-183.052901
 31
0.0
  0
LINE
  8
0
  6
BYLAYER
 62
     7
 10
1368.300341
 20
-233.052901
 30
0.0
 11
1368.300341
 21
-225.052901
 31
0.0
  0
LINE
  8
0
  6
BYLAYER
 62
     7
 10
1368.300341
 20
-225.052901
 30
0.0
 11
1360.300341
 21
-225.052901
 31
0.0
  0
LINE
  8
0
  6
BYLAYER
 62
     7
 10
1368.300341
 20
-233.052901
 30
0.0
 11
1360.300341
 21
-233.052901
 31
0.0
  0
LINE
  8
0
  6
BYLAYER
 62
     7
 10
1360.300341
 20
-225.052901
 30
0.0
 11
1360.300341
 21
-233.052901
 31
0.0
  0
LINE
  8
0
  6
BYLAYER
 62
     7
 10
1358.300341
 20
-223.052901
 30
0.0
 11
1358.300341
 21
-215.052901
 31
0.0
  0
LINE
  8
0
  6
BYLAYER
 62
     7
 10
1358.300341
 20
-215.052901
 30
0.0
 11
1350.300341
 21
-215.052901
 31
0.0
  0
LINE
  8
0
  6
BYLAYER
 62
     7
 10
1358.300341
 20
-223.052901
 30
0.0
 11
1350.300341
 21
-223.052901
 31
0.0
  0
LINE
  8
0
  6
BYLAYER
 62
     7
 10
1350.300341
 20
-215.052901
 30
0.0
 11
1350.300341
 21
-223.052901
 31
0.0
  0
LINE
  8
0
  6
BYLAYER
 62
     7
 10
1348.300341
 20
-213.052901
 30
0.0
 11
1348.300341
 21
-205.052901
 31
0.0
  0
LINE
  8
0
  6
BYLAYER
 62
     7
 10
1348.300341
 20
-205.052901
 30
0.0
 11
1340.300341
 21
-205.052901
 31
0.0
  0
LINE
  8
0
  6
BYLAYER
 62
     7
 10
1348.300341
 20
-213.052901
 30
0.0
 11
1340.300341
 21
-213.052901
 31
0.0
  0
LINE
  8
0
  6
BYLAYER
 62
     7
 10
1340.300341
 20
-205.052901
 30
0.0
 11
1340.300341
 21
-213.052901
 31
0.0
  0
LINE
  8
0
  6
BYLAYER
 62
     7
 10
1398.300341
 20
-253.052901
 30
0.0
 11
1398.300341
 21
-245.052901
 31
0.0
  0
LINE
  8
0
  6
BYLAYER
 62
     7
 10
1390.300341
 20
-245.052901
 30
0.0
 11
1390.300341
 21
-253.052901
 31
0.0
  0
LINE
  8
0
  6
BYLAYER
 62
     7
 10
1398.300341
 20
-245.052901
 30
0.0
 11
1390.300341
 21
-245.052901
 31
0.0
  0
LINE
  8
0
  6
BYLAYER
 62
     7
 10
1398.300341
 20
-253.052901
 30
0.0
 11
1390.300341
 21
-253.052901
 31
0.0
  0
LINE
  8
0
  6
BYLAYER
 62
     7
 10
1328.300341
 20
-175.052901
 30
0.0
 11
1320.300341
 21
-175.052901
 31
0.0
  0
LINE
  8
0
  6
BYLAYER
 62
     7
 10
1328.300341
 20
-183.052901
 30
0.0
 11
1328.300341
 21
-175.052901
 31
0.0
  0
LINE
  8
0
  6
BYLAYER
 62
     7
 10
1328.300341
 20
-183.052901
 30
0.0
 11
1320.300341
 21
-183.052901
 31
0.0
  0
LINE
  8
0
  6
BYLAYER
 62
     7
 10
1320.300341
 20
-175.052901
 30
0.0
 11
1320.300341
 21
-183.052901
 31
0.0
  0
LINE
  8
0
  6
BYLAYER
 62
     7
 10
1378.300341
 20
-243.052901
 30
0.0
 11
1378.300341
 21
-235.052901
 31
0.0
  0
LINE
  8
0
  6
BYLAYER
 62
     7
 10
1378.300341
 20
-235.052901
 30
0.0
 11
1370.300341
 21
-235.052901
 31
0.0
  0
LINE
  8
0
  6
BYLAYER
 62
     7
 10
1378.300341
 20
-243.052901
 30
0.0
 11
1370.300341
 21
-243.052901
 31
0.0
  0
LINE
  8
0
  6
BYLAYER
 62
     7
 10
1370.300341
 20
-235.052901
 30
0.0
 11
1370.300341
 21
-243.052901
 31
0.0
  0
LINE
  8
0
  6
BYLAYER
 62
     7
 10
1338.300341
 20
-203.052901
 30
0.0
 11
1338.300341
 21
-195.052901
 31
0.0
  0
LINE
  8
0
  6
BYLAYER
 62
     7
 10
1338.300341
 20
-195.052901
 30
0.0
 11
1330.300341
 21
-195.052901
 31
0.0
  0
LINE
  8
0
  6
BYLAYER
 62
     7
 10
1338.300341
 20
-203.052901
 30
0.0
 11
1330.300341
 21
-203.052901
 31
0.0
  0
LINE
  8
0
  6
BYLAYER
 62
     7
 10
1330.300341
 20
-195.052901
 30
0.0
 11
1330.300341
 21
-203.052901
 31
0.0
  0
LINE
  8
0
  6
BYLAYER
 62
     7
 10
1368.300341
 20
-243.052901
 30
0.0
 11
1368.300341
 21
-235.052901
 31
0.0
  0
LINE
  8
0
  6
BYLAYER
 62
     7
 10
1368.300341
 20
-235.052901
 30
0.0
 11
1360.300341
 21
-235.052901
 31
0.0
  0
LINE
  8
0
  6
BYLAYER
 62
     7
 10
1368.300341
 20
-243.052901
 30
0.0
 11
1360.300341
 21
-243.052901
 31
0.0
  0
LINE
  8
0
  6
BYLAYER
 62
     7
 10
1360.300341
 20
-235.052901
 30
0.0
 11
1360.300341
 21
-243.052901
 31
0.0
  0
LINE
  8
0
  6
BYLAYER
 62
     7
 10
1358.300341
 20
-233.052901
 30
0.0
 11
1358.300341
 21
-225.052901
 31
0.0
  0
LINE
  8
0
  6
BYLAYER
 62
     7
 10
1358.300341
 20
-225.052901
 30
0.0
 11
1350.300341
 21
-225.052901
 31
0.0
  0
LINE
  8
0
  6
BYLAYER
 62
     7
 10
1358.300341
 20
-233.052901
 30
0.0
 11
1350.300341
 21
-233.052901
 31
0.0
  0
LINE
  8
0
  6
BYLAYER
 62
     7
 10
1350.300341
 20
-225.052901
 30
0.0
 11
1350.300341
 21
-233.052901
 31
0.0
  0
LINE
  8
0
  6
BYLAYER
 62
     7
 10
1348.300341
 20
-223.052901
 30
0.0
 11
1348.300341
 21
-215.052901
 31
0.0
  0
LINE
  8
0
  6
BYLAYER
 62
     7
 10
1348.300341
 20
-215.052901
 30
0.0
 11
1340.300341
 21
-215.052901
 31
0.0
  0
LINE
  8
0
  6
BYLAYER
 62
     7
 10
1348.300341
 20
-223.052901
 30
0.0
 11
1340.300341
 21
-223.052901
 31
0.0
  0
LINE
  8
0
  6
BYLAYER
 62
     7
 10
1340.300341
 20
-215.052901
 30
0.0
 11
1340.300341
 21
-223.052901
 31
0.0
  0
LINE
  8
0
  6
BYLAYER
 62
     7
 10
1338.300341
 20
-213.052901
 30
0.0
 11
1338.300341
 21
-205.052901
 31
0.0
  0
LINE
  8
0
  6
BYLAYER
 62
     7
 10
1338.300341
 20
-205.052901
 30
0.0
 11
1330.300341
 21
-205.052901
 31
0.0
  0
LINE
  8
0
  6
BYLAYER
 62
     7
 10
1338.300341
 20
-213.052901
 30
0.0
 11
1330.300341
 21
-213.052901
 31
0.0
  0
LINE
  8
0
  6
BYLAYER
 62
     7
 10
1330.300341
 20
-205.052901
 30
0.0
 11
1330.300341
 21
-213.052901
 31
0.0
  0
LINE
  8
0
  6
BYLAYER
 62
     7
 10
1388.300341
 20
-245.052901
 30
0.0
 11
1388.300341
 21
-253.052901
 31
0.0
  0
LINE
  8
0
  6
BYLAYER
 62
     7
 10
1388.300341
 20
-245.052901
 30
0.0
 11
1380.462342
 21
-245.052901
 31
0.0
  0
LINE
  8
0
  6
BYLAYER
 62
     7
 10
1388.300341
 20
-253.052901
 30
0.0
 11
1380.462342
 21
-253.052901
 31
0.0
  0
LINE
  8
0
  6
BYLAYER
 62
     7
 10
1380.462342
 20
-245.052901
 30
0.0
 11
1380.462342
 21
-253.052901
 31
0.0
  0
LINE
  8
0
  6
BYLAYER
 62
     7
 10
1328.300341
 20
-185.052901
 30
0.0
 11
1320.300341
 21
-185.052901
 31
0.0
  0
LINE
  8
0
  6
BYLAYER
 62
     7
 10
1328.300341
 20
-193.052901
 30
0.0
 11
1328.300341
 21
-185.052901
 31
0.0
  0
LINE
  8
0
  6
BYLAYER
 62
     7
 10
1328.300341
 20
-193.052901
 30
0.0
 11
1320.300341
 21
-193.052901
 31
0.0
  0
LINE
  8
0
  6
BYLAYER
 62
     7
 10
1320.300341
 20
-185.052901
 30
0.0
 11
1320.300341
 21
-193.052901
 31
0.0
  0
LINE
  8
0
  6
BYLAYER
 62
     7
 10
1398.300341
 20
-263.052901
 30
0.0
 11
1398.300341
 21
-255.052901
 31
0.0
  0
LINE
  8
0
  6
BYLAYER
 62
     7
 10
1390.300341
 20
-255.052901
 30
0.0
 11
1390.300341
 21
-263.052901
 31
0.0
  0
LINE
  8
0
  6
BYLAYER
 62
     7
 10
1398.300341
 20
-255.052901
 30
0.0
 11
1390.300341
 21
-255.052901
 31
0.0
  0
LINE
  8
0
  6
BYLAYER
 62
     7
 10
1398.300341
 20
-263.052901
 30
0.0
 11
1390.300341
 21
-263.052901
 31
0.0
  0
LINE
  8
0
  6
BYLAYER
 62
     7
 10
1388.300341
 20
-255.052901
 30
0.0
 11
1388.300341
 21
-263.052901
 31
0.0
  0
LINE
  8
0
  6
BYLAYER
 62
     7
 10
1388.300341
 20
-255.052901
 30
0.0
 11
1380.462342
 21
-255.052901
 31
0.0
  0
LINE
  8
0
  6
BYLAYER
 62
     7
 10
1388.300341
 20
-263.052901
 30
0.0
 11
1380.462342
 21
-263.052901
 31
0.0
  0
LINE
  8
0
  6
BYLAYER
 62
     7
 10
1380.462342
 20
-255.052901
 30
0.0
 11
1380.462342
 21
-263.052901
 31
0.0
  0
LINE
  8
0
  6
BYLAYER
 62
     7
 10
1378.300341
 20
-253.052901
 30
0.0
 11
1378.300341
 21
-245.052901
 31
0.0
  0
LINE
  8
0
  6
BYLAYER
 62
     7
 10
1378.300341
 20
-245.052901
 30
0.0
 11
1370.300341
 21
-245.052901
 31
0.0
  0
LINE
  8
0
  6
BYLAYER
 62
     7
 10
1378.300341
 20
-253.052901
 30
0.0
 11
1370.300341
 21
-253.052901
 31
0.0
  0
LINE
  8
0
  6
BYLAYER
 62
     7
 10
1370.300341
 20
-245.052901
 30
0.0
 11
1370.300341
 21
-253.052901
 31
0.0
  0
LINE
  8
0
  6
BYLAYER
 62
     7
 10
1368.300341
 20
-253.052901
 30
0.0
 11
1368.300341
 21
-245.052901
 31
0.0
  0
LINE
  8
0
  6
BYLAYER
 62
     7
 10
1368.300341
 20
-245.052901
 30
0.0
 11
1360.300341
 21
-245.052901
 31
0.0
  0
LINE
  8
0
  6
BYLAYER
 62
     7
 10
1368.300341
 20
-253.052901
 30
0.0
 11
1360.300341
 21
-253.052901
 31
0.0
  0
LINE
  8
0
  6
BYLAYER
 62
     7
 10
1360.300341
 20
-245.052901
 30
0.0
 11
1360.300341
 21
-253.052901
 31
0.0
  0
LINE
  8
0
  6
BYLAYER
 62
     7
 10
1358.300341
 20
-243.052901
 30
0.0
 11
1358.300341
 21
-235.052901
 31
0.0
  0
LINE
  8
0
  6
BYLAYER
 62
     7
 10
1358.300341
 20
-235.052901
 30
0.0
 11
1350.300341
 21
-235.052901
 31
0.0
  0
LINE
  8
0
  6
BYLAYER
 62
     7
 10
1358.300341
 20
-243.052901
 30
0.0
 11
1350.300341
 21
-243.052901
 31
0.0
  0
LINE
  8
0
  6
BYLAYER
 62
     7
 10
1350.300341
 20
-235.052901
 30
0.0
 11
1350.300341
 21
-243.052901
 31
0.0
  0
LINE
  8
0
  6
BYLAYER
 62
     7
 10
1348.300341
 20
-233.052901
 30
0.0
 11
1348.300341
 21
-225.052901
 31
0.0
  0
LINE
  8
0
  6
BYLAYER
 62
     7
 10
1348.300341
 20
-225.052901
 30
0.0
 11
1340.300341
 21
-225.052901
 31
0.0
  0
LINE
  8
0
  6
BYLAYER
 62
     7
 10
1348.300341
 20
-233.052901
 30
0.0
 11
1340.300341
 21
-233.052901
 31
0.0
  0
LINE
  8
0
  6
BYLAYER
 62
     7
 10
1340.300341
 20
-225.052901
 30
0.0
 11
1340.300341
 21
-233.052901
 31
0.0
  0
LINE
  8
0
  6
BYLAYER
 62
     7
 10
1338.300341
 20
-223.052901
 30
0.0
 11
1338.300341
 21
-215.052901
 31
0.0
  0
LINE
  8
0
  6
BYLAYER
 62
     7
 10
1338.300341
 20
-215.052901
 30
0.0
 11
1330.300341
 21
-215.052901
 31
0.0
  0
LINE
  8
0
  6
BYLAYER
 62
     7
 10
1338.300341
 20
-223.052901
 30
0.0
 11
1330.300341
 21
-223.052901
 31
0.0
  0
LINE
  8
0
  6
BYLAYER
 62
     7
 10
1330.300341
 20
-215.052901
 30
0.0
 11
1330.300341
 21
-223.052901
 31
0.0
  0
LINE
  8
0
  6
BYLAYER
 62
     7
 10
1328.300341
 20
-195.052901
 30
0.0
 11
1320.300341
 21
-195.052901
 31
0.0
  0
LINE
  8
0
  6
BYLAYER
 62
     7
 10
1328.300341
 20
-203.052901
 30
0.0
 11
1328.300341
 21
-195.052901
 31
0.0
  0
LINE
  8
0
  6
BYLAYER
 62
     7
 10
1328.300341
 20
-203.052901
 30
0.0
 11
1320.300341
 21
-203.052901
 31
0.0
  0
LINE
  8
0
  6
BYLAYER
 62
     7
 10
1320.300341
 20
-195.052901
 30
0.0
 11
1320.300341
 21
-203.052901
 31
0.0
  0
LINE
  8
0
  6
BYLAYER
 62
     7
 10
1328.300341
 20
-205.052901
 30
0.0
 11
1320.300341
 21
-205.052901
 31
0.0
  0
LINE
  8
0
  6
BYLAYER
 62
     7
 10
1328.300341
 20
-213.052901
 30
0.0
 11
1328.300341
 21
-205.052901
 31
0.0
  0
LINE
  8
0
  6
BYLAYER
 62
     7
 10
1328.300341
 20
-213.052901
 30
0.0
 11
1320.300341
 21
-213.052901
 31
0.0
  0
LINE
  8
0
  6
BYLAYER
 62
     7
 10
1320.300341
 20
-205.052901
 30
0.0
 11
1320.300341
 21
-213.052901
 31
0.0
  0
LINE
  8
0
  6
BYLAYER
 62
     7
 10
1318.300341
 20
-175.052901
 30
0.0
 11
1310.300341
 21
-175.052901
 31
0.0
  0
LINE
  8
0
  6
BYLAYER
 62
     7
 10
1318.300341
 20
-183.052901
 30
0.0
 11
1318.300341
 21
-175.052901
 31
0.0
  0
LINE
  8
0
  6
BYLAYER
 62
     7
 10
1318.300341
 20
-183.052901
 30
0.0
 11
1310.300341
 21
-183.052901
 31
0.0
  0
LINE
  8
0
  6
BYLAYER
 62
     7
 10
1310.300341
 20
-175.052901
 30
0.0
 11
1310.300341
 21
-183.052901
 31
0.0
  0
LINE
  8
0
  6
BYLAYER
 62
     7
 10
1318.300341
 20
-185.052901
 30
0.0
 11
1310.300341
 21
-185.052901
 31
0.0
  0
LINE
  8
0
  6
BYLAYER
 62
     7
 10
1318.300341
 20
-193.052901
 30
0.0
 11
1318.300341
 21
-185.052901
 31
0.0
  0
LINE
  8
0
  6
BYLAYER
 62
     7
 10
1318.300341
 20
-193.052901
 30
0.0
 11
1310.300341
 21
-193.052901
 31
0.0
  0
LINE
  8
0
  6
BYLAYER
 62
     7
 10
1310.300341
 20
-185.052901
 30
0.0
 11
1310.300341
 21
-193.052901
 31
0.0
  0
CIRCLE
  8
0
  6
BYLAYER
 62
     7
 10
1399.300341
 20
-174.052901
 30
0.0
 40
97.500549
  0
CIRCLE
  8
0
  6
BYLAYER
 62
     7
 10
1399.300341
 20
-174.052901
 30
0.0
 40
124.400549
  0
ARC
  8
0
  6
BYLAYER
 62
     7
 10
1399.300341
 20
-174.052901
 30
0.0
 40
150.0
 50
113.162069
 51
426.837931
  0
ARC
  8
0
  6
BYLAYER
 62
     7
 10
1399.300341
 20
-174.052901
 30
0.0
 40
146.000000
 50
271.691267
 51
313.523961
  0
ARC
  8
0
  6
BYLAYER
 62
     7
 10
1399.300341
 20
-174.052901
 30
0.0
 40
146.0
 50
226.476039
 51
268.308733
  0
ARC
  8
0
  6
BYLAYER
 62
     7
 10
1399.300341
 20
-174.052901
 30
0.0
 40
146.000000
 50
181.691267
 51
223.523961
  0
ARC
  8
0
  6
BYLAYER
 62
     7
 10
1399.300341
 20
-174.052901
 30
0.0
 40
146.000000
 50
136.476039
 51
178.308733
  0
ARC
  8
0
  6
BYLAYER
 62
     7
 10
1399.300341
 20
-174.052901
 30
0.0
 40
146.000000
 50
113.835341
 51
133.523961
  0
ARC
  8
0
  6
BYLAYER
 62
     7
 10
1399.300341
 20
-174.052901
 30
0.0
 40
146.000000
 50
46.476039
 51
66.164659
  0
ARC
  8
0
  6
BYLAYER
 62
     7
 10
1399.300341
 20
-174.052901
 30
0.0
 40
146.0
 50
1.691267
 51
43.523961
  0
ARC
  8
0
  6
BYLAYER
 62
     7
 10
1399.300341
 20
-174.052901
 30
0.0
 40
146.0
 50
316.476039
 51
358.308733
  0
ARC
  8
0
  6
BYLAYER
 62
     7
 10
1255.363072
 20
-178.302901
 30
0.0
 40
2.0
 50
90.0
 51
181.691267
  0
ARC
  8
0
  6
BYLAYER
 62
     7
 10
1255.363072
 20
-169.802901
 30
0.0
 40
2.0
 50
178.308733
 51
270.000000
  0
LINE
  8
0
  6
BYLAYER
 62
     7
 10
1255.363072
 20
-171.802901
 30
0.0
 11
1276.343285
 21
-171.802901
 31
0.0
  0
LINE
  8
0
  6
BYLAYER
 62
     7
 10
1255.363072
 20
-176.302901
 30
0.0
 11
1276.343285
 21
-176.302901
 31
0.0
  0
ARC
  8
0
  6
BYLAYER
 62
     7
 10
1403.550341
 20
-317.990170
 30
0.0
 40
2.000000
 50
180.000000
 51
271.691267
  0
ARC
  8
0
  6
BYLAYER
 62
     7
 10
1395.050341
 20
-317.990170
 30
0.0
 40
2.000000
 50
268.308733
 51
360.000000
  0
LINE
  8
0
  6
BYLAYER
 62
     7
 10
1397.050341
 20
-317.990170
 30
0.0
 11
1397.050341
 21
-297.009957
 31
0.0
  0
LINE
  8
0
  6
BYLAYER
 62
     7
 10
1401.550341
 20
-317.990170
 30
0.0
 11
1401.550341
 21
-297.009957
 31
0.0
  0
ARC
  8
0
  6
BYLAYER
 62
     7
 10
1543.237610
 20
-169.802901
 30
0.0
 40
2.0
 50
270.0
 51
361.691267
  0
ARC
  8
0
  6
BYLAYER
 62
     7
 10
1543.237610
 20
-178.302901
 30
0.0
 40
2.0
 50
358.308733
 51
450.000000
  0
LINE
  8
0
  6
BYLAYER
 62
     7
 10
1543.237610
 20
-176.302901
 30
0.0
 11
1522.257397
 21
-176.302901
 31
0.0
  0
LINE
  8
0
  6
BYLAYER
 62
     7
 10
1543.237610
 20
-171.802901
 30
0.0
 11
1522.257397
 21
-171.802901
 31
0.0
  0
CIRCLE
  8
0
  6
BYLAYER
 62
     7
 10
1492.991990
 20
-80.361252
 30
0.0
 40
7.0
  0
ARC
  8
0
  6
BYLAYER
 62
     7
 10
1492.991990
 20
-80.361252
 30
0.0
 40
12.000000
 50
61.697019
 51
184.994799
  0
ARC
  8
0
  6
BYLAYER
 62
     7
 10
1492.991990
 20
-80.361252
 30
0.0
 40
12.000000
 50
265.005201
 51
388.302981
  0
ARC
  8
0
  6
BYLAYER
 62
     7
 10
1499.155732
 20
-68.915368
 30
0.0
 40
1.000000
 50
241.697019
 51
406.476039
  0
ARC
  8
0
  6
BYLAYER
 62
     7
 10
1504.437874
 20
-74.197510
 30
0.0
 40
1.0
 50
43.523961
 51
208.302981
  0
CIRCLE
  8
0
  6
BYLAYER
 62
     7
 10
1305.608692
 20
-80.361252
 30
0.0
 40
7.0
  0
ARC
  8
0
  6
BYLAYER
 62
     7
 10
1305.608692
 20
-80.361252
 30
0.0
 40
12.0
 50
151.697019
 51
269.395561
  0
ARC
  8
0
  6
BYLAYER
 62
     7
 10
1305.608692
 20
-80.361252
 30
0.0
 40
12.000000
 50
0.604439
 51
118.302981
  0
ARC
  8
0
  6
BYLAYER
 62
     7
 10
1294.162808
 20
-74.197510
 30
0.0
 40
1.0
 50
331.697019
 51
496.476039
  0
ARC
  8
0
  6
BYLAYER
 62
     7
 10
1299.444950
 20
-68.915368
 30
0.0
 40
1.0
 50
133.523961
 51
298.302981
  0
CIRCLE
  8
0
  6
BYLAYER
 62
     7
 10
1305.608692
 20
-267.744550
 30
0.0
 40
7.0
  0
ARC
  8
0
  6
BYLAYER
 62
     7
 10
1305.608692
 20
-267.744550
 30
0.0
 40
12.0
 50
241.697019
 51
359.395561
  0
ARC
  8
0
  6
BYLAYER
 62
     7
 10
1305.608692
 20
-267.744550
 30
0.0
 40
12.000000
 50
90.604439
 51
208.302981
  0
ARC
  8
0
  6
BYLAYER
 62
     7
 10
1299.444950
 20
-279.190434
 30
0.0
 40
1.0
 50
61.697019
 51
226.476039
  0
ARC
  8
0
  6
BYLAYER
 62
     7
 10
1294.162808
 20
-273.908292
 30
0.0
 40
1.0
 50
223.523961
 51
388.302981
  0
CIRCLE
  8
0
  6
BYLAYER
 62
     7
 10
1492.991990
 20
-267.744550
 30
0.0
 40
7.0
  0
ARC
  8
0
  6
BYLAYER
 62
     7
 10
1492.991990
 20
-267.744550
 30
0.0
 40
12.000000
 50
331.697019
 51
449.395561
  0
ARC
  8
0
  6
BYLAYER
 62
     7
 10
1492.991990
 20
-267.744550
 30
0.0
 40
12.0
 50
180.604439
 51
298.302981
  0
ARC
  8
0
  6
BYLAYER
 62
     7
 10
1504.437874
 20
-273.908292
 30
0.0
 40
1.0
 50
151.697019
 51
316.476039
  0
ARC
  8
0
  6
BYLAYER
 62
     7
 10
1499.155732
 20
-279.190434
 30
0.0
 40
1.000000
 50
313.523961
 51
478.302981
  0
LINE
  8
0
  6
BYLAYER
 62
     7
 10
1340.300341
 20
-703.052901
 30
0.0
 11
1340.300341
 21
-706.143510
 31
0.0
  0
LINE
  8
0
  6
BYLAYER
 62
     7
 10
1458.300341
 20
-706.143510
 30
0.0
 11
1458.300341
 21
-703.052901
 31
0.0
  0
LINE
  8
0
  6
BYLAYER
 62
     7
 10
1346.300341
 20
-692.802901
 30
0.0
 11
1346.300341
 21
-671.302901
 31
0.0
  0
ARC
  8
0
  6
BYLAYER
 62
     7
 10
1344.800341
 20
-692.802901
 30
0.0
 40
1.5
 50
270.0
 51
360.0
  0
ARC
  8
0
  6
BYLAYER
 62
     7
 10
1347.800341
 20
-671.302901
 30
0.0
 40
1.5
 50
90.0
 51
180.0
  0
LINE
  8
0
  6
BYLAYER
 62
     7
 10
1347.800341
 20
-669.802901
 30
0.0
 11
1399.300341
 21
-669.802901
 31
0.0
  0
LINE
  8
0
  6
BYLAYER
 62
     7
 10
1352.685061
 20
-692.802901
 30
0.0
 11
1352.685061
 21
-671.302901
 31
0.0
  0
ARC
  8
0
  6
BYLAYER
 62
     7
 10
1351.185061
 20
-692.802901
 30
0.0
 40
1.5
 50
270.0
 51
360.0
  0
ARC
  8
0
  6
BYLAYER
 62
     7
 10
1354.185061
 20
-671.302901
 30
0.0
 40
1.5
 50
90.0
 51
180.0
  0
LINE
  8
0
  6
BYLAYER
 62
     7
 10
1393.706688
 20
-669.802901
 30
0.0
 11
1394.199235
 21
-683.907599
 31
0.0
  0
ARC
  8
0
  6
BYLAYER
 62
     7
 10
1397.197407
 20
-683.802901
 30
0.0
 40
3.0
 50
182.000000
 51
270.000000
  0
LINE
  8
0
  6
BYLAYER
 62
     7
 10
1397.197407
 20
-686.802901
 30
0.0
 11
1399.300341
 21
-686.802901
 31
0.0
  0
LINE
  8
0
  6
BYLAYER
 62
     7
 10
1393.741609
 20
-670.802901
 30
0.0
 11
1399.300341
 21
-670.802901
 31
0.0
  0
LINE
  8
0
  6
BYLAYER
 62
     7
 10
1378.706688
 20
-669.802901
 30
0.0
 11
1379.199235
 21
-683.907599
 31
0.0
  0
ARC
  8
0
  6
BYLAYER
 62
     7
 10
1382.197407
 20
-683.802901
 30
0.0
 40
3.0
 50
182.000000
 51
270.000000
  0
LINE
  8
0
  6
BYLAYER
 62
     7
 10
1389.401447
 20
-683.907599
 30
0.0
 11
1389.893994
 21
-669.802901
 31
0.0
  0
ARC
  8
0
  6
BYLAYER
 62
     7
 10
1386.403275
 20
-683.802901
 30
0.0
 40
3.0
 50
270.0
 51
358.0
  0
LINE
  8
0
  6
BYLAYER
 62
     7
 10
1382.197407
 20
-686.802901
 30
0.0
 11
1386.403275
 21
-686.802901
 31
0.0
  0
LINE
  8
0
  6
BYLAYER
 62
     7
 10
1378.741609
 20
-670.802901
 30
0.0
 11
1389.859073
 21
-670.802901
 31
0.0
  0
LINE
  8
0
  6
BYLAYER
 62
     7
 10
1363.706688
 20
-669.802901
 30
0.0
 11
1364.199235
 21
-683.907599
 31
0.0
  0
ARC
  8
0
  6
BYLAYER
 62
     7
 10
1367.197407
 20
-683.802901
 30
0.0
 40
3.0
 50
182.000000
 51
270.000000
  0
LINE
  8
0
  6
BYLAYER
 62
     7
 10
1374.401447
 20
-683.907599
 30
0.0
 11
1374.893994
 21
-669.802901
 31
0.0
  0
ARC
  8
0
  6
BYLAYER
 62
     7
 10
1371.403275
 20
-683.802901
 30
0.0
 40
3.000000
 50
270.0
 51
358.0
  0
LINE
  8
0
  6
BYLAYER
 62
     7
 10
1367.197407
 20
-686.802901
 30
0.0
 11
1371.403275
 21
-686.802901
 31
0.0
  0
LINE
  8
0
  6
BYLAYER
 62
     7
 10
1363.741609
 20
-670.802901
 30
0.0
 11
1374.859073
 21
-670.802901
 31
0.0
  0
LINE
  8
0
  6
BYLAYER
 62
     7
 10
1341.800341
 20
-694.302901
 30
0.0
 11
1399.300341
 21
-694.302901
 31
0.0
  0
ARC
  8
0
  6
BYLAYER
 62
     7
 10
1341.800341
 20
-695.802901
 30
0.0
 40
1.5
 50
90.0
 51
180.0
  0
LINE
  8
0
  6
BYLAYER
 62
     7
 10
1340.300341
 20
-701.052901
 30
0.0
 11
1340.300341
 21
-695.802901
 31
0.0
  0
LINE
  8
0
  6
BYLAYER
 62
     7
 10
1340.300341
 20
-701.052901
 30
0.0
 11
1354.012374
 21
-701.052901
 31
0.0
  0
LINE
  8
0
  6
BYLAYER
 62
     7
 10
1452.300341
 20
-692.802901
 30
0.0
 11
1452.300341
 21
-671.302901
 31
0.0
  0
ARC
  8
0
  6
BYLAYER
 62
     7
 10
1453.800341
 20
-692.802901
 30
0.0
 40
1.5
 50
180.000000
 51
270.000000
  0
ARC
  8
0
  6
BYLAYER
 62
     7
 10
1450.800341
 20
-671.302901
 30
0.0
 40
1.5
 50
0.0
 51
90.0
  0
LINE
  8
0
  6
BYLAYER
 62
     7
 10
1450.800341
 20
-669.802901
 30
0.0
 11
1399.300341
 21
-669.802901
 31
0.0
  0
LINE
  8
0
  6
BYLAYER
 62
     7
 10
1445.915621
 20
-692.802901
 30
0.0
 11
1445.915621
 21
-671.302901
 31
0.0
  0
ARC
  8
0
  6
BYLAYER
 62
     7
 10
1447.415621
 20
-692.802901
 30
0.0
 40
1.5
 50
180.000000
 51
270.000000
  0
ARC
  8
0
  6
BYLAYER
 62
     7
 10
1444.415621
 20
-671.302901
 30
0.0
 40
1.5
 50
0.0
 51
90.0
  0
LINE
  8
0
  6
BYLAYER
 62
     7
 10
1404.893994
 20
-669.802901
 30
0.0
 11
1404.401447
 21
-683.907599
 31
0.0
  0
ARC
  8
0
  6
BYLAYER
 62
     7
 10
1401.403275
 20
-683.802901
 30
0.0
 40
3.0
 50
270.0
 51
358.0
  0
LINE
  8
0
  6
BYLAYER
 62
     7
 10
1401.403275
 20
-686.802901
 30
0.0
 11
1399.300341
 21
-686.802901
 31
0.0
  0
LINE
  8
0
  6
BYLAYER
 62
     7
 10
1404.859073
 20
-670.802901
 30
0.0
 11
1399.300341
 21
-670.802901
 31
0.0
  0
LINE
  8
0
  6
BYLAYER
 62
     7
 10
1419.893994
 20
-669.802901
 30
0.0
 11
1419.401447
 21
-683.907599
 31
0.0
  0
ARC
  8
0
  6
BYLAYER
 62
     7
 10
1416.403275
 20
-683.802901
 30
0.0
 40
3.0
 50
270.0
 51
358.0
  0
LINE
  8
0
  6
BYLAYER
 62
     7
 10
1409.199235
 20
-683.907599
 30
0.0
 11
1408.706688
 21
-669.802901
 31
0.0
  0
ARC
  8
0
  6
BYLAYER
 62
     7
 10
1412.197407
 20
-683.802901
 30
0.0
 40
3.000000
 50
182.000000
 51
270.000000
  0
LINE
  8
0
  6
BYLAYER
 62
     7
 10
1416.403275
 20
-686.802901
 30
0.0
 11
1412.197407
 21
-686.802901
 31
0.0
  0
LINE
  8
0
  6
BYLAYER
 62
     7
 10
1419.859073
 20
-670.802901
 30
0.0
 11
1408.741609
 21
-670.802901
 31
0.0
  0
LINE
  8
0
  6
BYLAYER
 62
     7
 10
1434.893994
 20
-669.802901
 30
0.0
 11
1434.401447
 21
-683.907599
 31
0.0
  0
ARC
  8
0
  6
BYLAYER
 62
     7
 10
1431.403275
 20
-683.802901
 30
0.0
 40
3.0
 50
270.0
 51
358.0
  0
LINE
  8
0
  6
BYLAYER
 62
     7
 10
1424.199235
 20
-683.907599
 30
0.0
 11
1423.706688
 21
-669.802901
 31
0.0
  0
ARC
  8
0
  6
BYLAYER
 62
     7
 10
1427.197407
 20
-683.802901
 30
0.0
 40
3.000000
 50
182.000000
 51
270.000000
  0
LINE
  8
0
  6
BYLAYER
 62
     7
 10
1431.403275
 20
-686.802901
 30
0.0
 11
1427.197407
 21
-686.802901
 31
0.0
  0
LINE
  8
0
  6
BYLAYER
 62
     7
 10
1434.859073
 20
-670.802901
 30
0.0
 11
1423.741609
 21
-670.802901
 31
0.0
  0
LINE
  8
0
  6
BYLAYER
 62
     7
 10
1456.800341
 20
-694.302901
 30
0.0
 11
1399.300341
 21
-694.302901
 31
0.0
  0
ARC
  8
0
  6
BYLAYER
 62
     7
 10
1456.800341
 20
-695.802901
 30
0.0
 40
1.5
 50
0.0
 51
90.0
  0
LINE
  8
0
  6
BYLAYER
 62
     7
 10
1458.300341
 20
-701.052901
 30
0.0
 11
1458.300341
 21
-695.802901
 31
0.0
  0
LINE
  8
0
  6
BYLAYER
 62
     7
 10
1458.300341
 20
-701.052901
 30
0.0
 11
1444.588308
 21
-701.052901
 31
0.0
  0
LINE
  8
0
  6
BYLAYER
 62
     7
 10
1340.300341
 20
-701.052901
 30
0.0
 11
1340.300341
 21
-703.052901
 31
0.0
  0
LINE
  8
0
  6
BYLAYER
 62
     7
 10
1450.476507
 20
-703.052901
 30
0.0
 11
1458.300341
 21
-703.052901
 31
0.0
  0
LINE
  8
0
  6
BYLAYER
 62
     7
 10
1340.300341
 20
-703.052901
 30
0.0
 11
1348.124175
 21
-703.052901
 31
0.0
  0
LINE
  8
0
  6
BYLAYER
 62
     7
 10
1458.300341
 20
-701.052901
 30
0.0
 11
1458.300341
 21
-703.052901
 31
0.0
  0
ARC
  8
0
  6
BYLAYER
 62
     1
 10
1399.300341
 20
-844.052901
 30
0.0
 40
150.000000
 50
311.810315
 51
588.189685
  0
ARC
  8
0
  6
BYLAYER
 62
     1
 10
1399.300341
 20
-844.052901
 30
0.0
 40
110.872002
 50
123.041514
 51
133.817171
  0
ARC
  8
0
  6
BYLAYER
 62
     1
 10
1399.300341
 20
-844.052901
 30
0.0
 40
110.872002
 50
146.542541
 51
176.958477
  0
ARC
  8
0
  6
BYLAYER
 62
     1
 10
1399.300341
 20
-844.052901
 30
0.0
 40
110.872002
 50
63.041519
 51
116.958483
  0
ARC
  8
0
  6
BYLAYER
 62
     1
 10
1399.300341
 20
-844.052901
 30
0.0
 40
110.872002
 50
3.041518
 51
33.457459
  0
ARC
  8
0
  6
BYLAYER
 62
     1
 10
1399.300341
 20
-844.052901
 30
0.0
 40
110.872002
 50
46.182829
 51
56.958482
  0
ARC
  8
0
  6
BYLAYER
 62
     1
 10
1399.300341
 20
-844.052901
 30
0.0
 40
110.872002
 50
329.981432
 51
356.958469
  0
ARC
  8
0
  6
BYLAYER
 62
     1
 10
1399.300341
 20
-844.052901
 30
0.0
 40
110.872002
 50
183.041516
 51
210.018568
  0
ARC
  8
0
  6
BYLAYER
 62
     1
 10
1399.300341
 20
-844.052901
 30
0.0
 40
86.174004
 50
180.888560
 51
183.536092
  0
ARC
  8
0
  6
BYLAYER
 62
     1
 10
1399.300341
 20
-844.052901
 30
0.0
 40
141.123993
 50
177.717916
 51
182.282078
  0
LINE
  8
0
  6
BYLAYER
 62
     1
 10
1309.300341
 20
-841.552901
 30
0.0
 11
1261.285876
 21
-841.552901
 31
0.0
  0
ARC
  8
0
  6
BYLAYER
 62
     1
 10
1261.285876
 20
-838.552901
 30
0.0
 40
3.0
 50
177.717922
 51
270.000000
  0
LINE
  8
0
  6
BYLAYER
 62
     1
 10
1310.296130
 20
-846.552901
 30
0.0
 11
1261.285876
 21
-846.552901
 31
0.0
  0
ARC
  8
0
  6
BYLAYER
 62
     1
 10
1261.285876
 20
-849.552901
 30
0.0
 40
3.0
 50
90.0
 51
182.282078
  0
ARC
  8
0
  6
BYLAYER
 62
     1
 10
1310.296130
 20
-849.552901
 30
0.0
 40
3.000000
 50
3.536089
 51
90.000000
  0
ARC
  8
0
  6
BYLAYER
 62
     1
 10
1285.588732
 20
-838.010909
 30
0.0
 40
3.0
 50
270.0
 51
356.958485
  0
ARC
  8
0
  6
BYLAYER
 62
     1
 10
1285.588732
 20
-850.094893
 30
0.0
 40
3.0
 50
3.041515
 51
90.000000
  0
LINE
  8
0
  6
BYLAYER
 62
     1
 10
1261.285876
 20
-841.552901
 30
0.0
 11
1285.588732
 21
-841.010909
 31
0.0
  0
LINE
  8
0
  6
BYLAYER
 62
     1
 10
1285.588732
 20
-841.010909
 30
0.0
 11
1309.278007
 21
-841.530567
 31
0.0
  0
LINE
  8
0
  6
BYLAYER
 62
     1
 10
1310.296130
 20
-846.552901
 30
0.0
 11
1285.588732
 21
-847.094893
 31
0.0
  0
LINE
  8
0
  6
BYLAYER
 62
     1
 10
1260.838732
 20
-846.594893
 30
0.0
 11
1285.588732
 21
-847.094893
 31
0.0
  0
ARC
  8
0
  6
BYLAYER
 62
     1
 10
1399.300341
 20
-844.052901
 30
0.0
 40
86.174004
 50
356.463912
 51
359.111440
  0
ARC
  8
0
  6
BYLAYER
 62
     1
 10
1399.300341
 20
-844.052901
 30
0.0
 40
141.123993
 50
357.717907
 51
362.282069
  0
LINE
  8
0
  6
BYLAYER
 62
     1
 10
1488.304552
 20
-846.552901
 30
0.0
 11
1537.314806
 21
-846.552901
 31
0.0
  0
ARC
  8
0
  6
BYLAYER
 62
     1
 10
1537.314806
 20
-849.552901
 30
0.0
 40
3.0
 50
357.717922
 51
450.000000
  0
ARC
  8
0
  6
BYLAYER
 62
     1
 10
1488.304552
 20
-849.552901
 30
0.0
 40
3.000000
 50
90.0
 51
176.463911
  0
LINE
  8
0
  6
BYLAYER
 62
     1
 10
1489.300341
 20
-841.552901
 30
0.0
 11
1537.314806
 21
-841.552901
 31
0.0
  0
ARC
  8
0
  6
BYLAYER
 62
     1
 10
1537.314806
 20
-838.552901
 30
0.0
 40
3.0
 50
270.0
 51
362.282078
  0
ARC
  8
0
  6
BYLAYER
 62
     1
 10
1513.011950
 20
-850.094893
 30
0.0
 40
3.000000
 50
90.0
 51
176.958485
  0
ARC
  8
0
  6
BYLAYER
 62
     1
 10
1513.011950
 20
-838.010909
 30
0.0
 40
3.000000
 50
183.041515
 51
270.0
  0
LINE
  8
0
  6
BYLAYER
 62
     1
 10
1537.314806
 20
-846.552901
 30
0.0
 11
1513.011950
 21
-847.094893
 31
0.0
  0
LINE
  8
0
  6
BYLAYER
 62
     1
 10
1513.011950
 20
-847.094893
 30
0.0
 11
1488.304552
 21
-846.552901
 31
0.0
  0
LINE
  8
0
  6
BYLAYER
 62
     1
 10
1489.322675
 20
-841.530567
 30
0.0
 11
1513.011950
 21
-841.010909
 31
0.0
  0
LINE
  8
0
  6
BYLAYER
 62
     1
 10
1537.761950
 20
-841.510909
 30
0.0
 11
1513.011950
 21
-841.010909
 31
0.0
  0
ARC
  8
0
  6
BYLAYER
 62
     1
 10
1399.300341
 20
-844.052901
 30
0.0
 40
141.123993
 50
57.717919
 51
62.282081
  0
LINE
  8
0
  6
BYLAYER
 62
     1
 10
1448.375112
 20
-764.052901
 30
0.0
 11
1470.472643
 21
-725.778884
 31
0.0
  0
ARC
  8
0
  6
BYLAYER
 62
     1
 10
1473.070727
 20
-727.278884
 30
0.0
 40
3.000000
 50
57.717919
 51
149.999997
  0
LINE
  8
0
  6
BYLAYER
 62
     1
 10
1442.601596
 20
-764.052901
 30
0.0
 11
1466.142504
 21
-723.278884
 31
0.0
  0
ARC
  8
0
  6
BYLAYER
 62
     1
 10
1463.544421
 20
-721.778884
 30
0.0
 40
3.000000
 50
329.999989
 51
422.282067
  0
ARC
  8
0
  6
BYLAYER
 62
     1
 10
1461.388659
 20
-748.596785
 30
0.0
 40
3.0
 50
149.999997
 51
236.958482
  0
ARC
  8
0
  6
BYLAYER
 62
     1
 10
1450.923632
 20
-742.554763
 30
0.0
 40
3.000000
 50
243.041504
 51
329.999989
  0
LINE
  8
0
  6
BYLAYER
 62
     1
 10
1470.472643
 20
-725.778884
 30
0.0
 11
1458.790575
 21
-747.096785
 31
0.0
  0
LINE
  8
0
  6
BYLAYER
 62
     1
 10
1458.790575
 20
-747.096785
 30
0.0
 11
1448.498645
 21
-764.052901
 31
0.0
  0
LINE
  8
0
  6
BYLAYER
 62
     1
 10
1442.553361
 20
-764.052901
 30
0.0
 11
1453.521716
 21
-744.054763
 31
0.0
  0
LINE
  8
0
  6
BYLAYER
 62
     1
 10
1466.329699
 20
-722.870650
 30
0.0
 11
1453.521716
 21
-744.054763
 31
0.0
  0
ARC
  8
0
  6
BYLAYER
 62
     1
 10
1399.300341
 20
-844.052901
 30
0.0
 40
141.123993
 50
117.717914
 51
122.282076
  0
LINE
  8
0
  6
BYLAYER
 62
     1
 10
1355.999086
 20
-764.052901
 30
0.0
 11
1332.458178
 21
-723.278884
 31
0.0
  0
ARC
  8
0
  6
BYLAYER
 62
     1
 10
1335.056261
 20
-721.778884
 30
0.0
 40
3.000000
 50
117.717921
 51
209.999999
  0
LINE
  8
0
  6
BYLAYER
 62
     1
 10
1350.225570
 20
-764.052901
 30
0.0
 11
1328.128039
 21
-725.778884
 31
0.0
  0
ARC
  8
0
  6
BYLAYER
 62
     1
 10
1325.529955
 20
-727.278884
 30
0.0
 40
3.000000
 50
30.000001
 51
122.282079
  0
ARC
  8
0
  6
BYLAYER
 62
     1
 10
1347.677050
 20
-742.554763
 30
0.0
 40
3.000000
 50
209.999999
 51
296.958484
  0
ARC
  8
0
  6
BYLAYER
 62
     1
 10
1337.212023
 20
-748.596785
 30
0.0
 40
3.000000
 50
303.041516
 51
390.000001
  0
LINE
  8
0
  6
BYLAYER
 62
     1
 10
1332.458178
 20
-723.278884
 30
0.0
 11
1345.078966
 21
-744.054763
 31
0.0
  0
LINE
  8
0
  6
BYLAYER
 62
     1
 10
1345.078966
 20
-744.054763
 30
0.0
 11
1356.047321
 21
-764.052901
 31
0.0
  0
LINE
  8
0
  6
BYLAYER
 62
     1
 10
1350.102037
 20
-764.052901
 30
0.0
 11
1339.810107
 21
-747.096785
 31
0.0
  0
LINE
  8
0
  6
BYLAYER
 62
     1
 10
1327.868090
 20
-725.412642
 30
0.0
 11
1339.810107
 21
-747.096785
 31
0.0
  0
LINE
  8
0
  6
BYLAYER
 62
     2
 10
1500.748708
 20
-758.117967
 30
0.0
 11
1503.587866
 21
-747.522096
 31
0.0
  0
LINE
  8
0
  6
BYLAYER
 62
     2
 10
1503.587866
 20
-747.522096
 30
0.0
 11
1495.831146
 21
-739.765376
 31
0.0
  0
LINE
  8
0
  6
BYLAYER
 62
     2
 10
1495.831146
 20
-739.765376
 30
0.0
 11
1485.235275
 21
-742.604534
 31
0.0
  0
LINE
  8
0
  6
BYLAYER
 62
     2
 10
1485.235275
 20
-742.604534
 30
0.0
 11
1482.396117
 21
-753.200405
 31
0.0
  0
LINE
  8
0
  6
BYLAYER
 62
     2
 10
1482.396117
 20
-753.200405
 30
0.0
 11
1490.152837
 21
-760.957125
 31
0.0
  0
LINE
  8
0
  6
BYLAYER
 62
     2
 10
1490.152837
 20
-760.957125
 30
0.0
 11
1500.748708
 21
-758.117967
 31
0.0
  0
LINE
  8
0
  6
BYLAYER
 62
     2
 10
1299.300341
 20
-929.599745
 30
0.0
 11
1297.851974
 21
-929.987835
 31
0.0
  0
LINE
  8
0
  6
BYLAYER
 62
     2
 10
1297.851974
 20
-929.987835
 30
0.0
 11
1295.012817
 21
-940.583706
 31
0.0
  0
LINE
  8
0
  6
BYLAYER
 62
     2
 10
1295.012817
 20
-940.583706
 30
0.0
 11
1299.300341
 21
-944.871230
 31
0.0
  0
LINE
  8
0
  6
BYLAYER
 62
     2
 10
1313.365407
 20
-742.604534
 30
0.0
 11
1302.769536
 21
-739.765376
 31
0.0
  0
LINE
  8
0
  6
BYLAYER
 62
     2
 10
1302.769536
 20
-739.765376
 30
0.0
 11
1295.012816
 21
-747.522096
 31
0.0
  0
LINE
  8
0
  6
BYLAYER
 62
     2
 10
1295.012816
 20
-747.522096
 30
0.0
 11
1297.851974
 21
-758.117967
 31
0.0
  0
LINE
  8
0
  6
BYLAYER
 62
     2
 10
1297.851974
 20
-758.117967
 30
0.0
 11
1308.447845
 21
-760.957125
 31
0.0
  0
LINE
  8
0
  6
BYLAYER
 62
     2
 10
1308.447845
 20
-760.957125
 30
0.0
 11
1316.204565
 21
-753.200405
 31
0.0
  0
LINE
  8
0
  6
BYLAYER
 62
     2
 10
1316.204565
 20
-753.200405
 30
0.0
 11
1313.365407
 21
-742.604534
 31
0.0
  0
LINE
  8
0
  6
BYLAYER
 62
     2
 10
1500.748708
 20
-929.987835
 30
0.0
 11
1499.300341
 21
-929.599745
 31
0.0
  0
LINE
  8
0
  6
BYLAYER
 62
     2
 10
1499.300341
 20
-944.871230
 30
0.0
 11
1503.587865
 21
-940.583706
 31
0.0
  0
LINE
  8
0
  6
BYLAYER
 62
     2
 10
1503.587865
 20
-940.583706
 30
0.0
 11
1500.748708
 21
-929.987835
 31
0.0
  0
LINE
  8
0
  6
BYLAYER
 62
     1
 10
659.300341
 20
-1144.052901
 30
0.0
 11
659.300341
 21
-994.052901
 31
0.0
  0
LINE
  8
0
  6
BYLAYER
 62
     1
 10
644.300341
 20
-1140.419905
 30
0.0
 11
644.300341
 21
-994.052901
 31
0.0
  0
ARC
  8
0
  6
BYLAYER
 62
     1
 10
641.300341
 20
-1105.987685
 30
0.0
 40
3.0
 50
0.0
 51
39.000001
  0
ARC
  8
0
  6
BYLAYER
 62
     1
 10
647.300341
 20
-1140.419905
 30
0.0
 40
3.000000
 50
180.000000
 51
266.999999
  0
LINE
  8
0
  6
BYLAYER
 62
     1
 10
659.300341
 20
-1144.052901
 30
0.0
 11
647.143328
 21
-1143.415755
 31
0.0
  0
LINE
  8
0
  6
BYLAYER
 62
     1
 10
619.300341
 20
-994.052901
 30
0.0
 11
619.300341
 21
-1074.052901
 31
0.0
  0
LINE
  8
0
  6
BYLAYER
 62
     1
 10
619.300341
 20
-1074.052901
 30
0.0
 11
643.631792
 21
-1104.099715
 31
0.0
  0
LINE
  8
0
  6
BYLAYER
 62
     1
 10
624.300341
 20
-1080.227401
 30
0.0
 11
644.300341
 21
-1135.176924
 31
0.0
  0
LINE
  8
0
  6
BYLAYER
 62
     1
 10
659.300341
 20
-844.052901
 30
0.0
 11
659.300341
 21
-994.052901
 31
0.0
  0
LINE
  8
0
  6
BYLAYER
 62
     1
 10
644.300341
 20
-847.685897
 30
0.0
 11
644.300341
 21
-994.052901
 31
0.0
  0
ARC
  8
0
  6
BYLAYER
 62
     1
 10
641.300341
 20
-882.118117
 30
0.0
 40
3.0
 50
320.999999
 51
360.000000
  0
ARC
  8
0
  6
BYLAYER
 62
     1
 10
647.300341
 20
-847.685897
 30
0.0
 40
3.000000
 50
93.000001
 51
180.000000
  0
LINE
  8
0
  6
BYLAYER
 62
     1
 10
659.300341
 20
-844.052901
 30
0.0
 11
647.143328
 21
-844.690047
 31
0.0
  0
LINE
  8
0
  6
BYLAYER
 62
     1
 10
619.300341
 20
-994.052901
 30
0.0
 11
619.300341
 21
-914.052901
 31
0.0
  0
LINE
  8
0
  6
BYLAYER
 62
     1
 10
619.300341
 20
-914.052901
 30
0.0
 11
643.631792
 21
-884.006087
 31
0.0
  0
LINE
  8
0
  6
BYLAYER
 62
     1
 10
624.300341
 20
-907.878401
 30
0.0
 11
644.300341
 21
-852.928878
 31
0.0
  0
ENDSEC
  0
EOF
