  0
SECTION
  2
HEADER
  9
$EXTMIN
 10
273.549488
 20
1145.0
 30
0.0
  9
$EXTMAX
 10
1527.969283
 20
0.0
 30
0.0
  0
ENDSEC
  0
SECTION
  2
TABLES
  0
ENDSEC
  0
SECTION
  2
BLOCKS
  0
ENDSEC
  0
SECTION
  2
ENTITIES
  0
LINE
  8
0
  6
BYLAYER
 62
     7
 10
701.448805
 20
-256.858366
 30
0.0
 11
671.948805
 21
-257.373284
 31
0.0
  0
LINE
  8
0
  6
BYLAYER
 62
     7
 10
701.448805
 20
-244.910734
 30
0.0
 11
701.448805
 21
-256.858366
 31
0.0
  0
LINE
  8
0
  6
BYLAYER
 62
     7
 10
703.948805
 20
-60.858366
 30
0.0
 11
672.931353
 21
-60.316954
 31
0.0
  0
ARC
  8
0
  6
BYLAYER
 62
     7
 10
672.948805
 20
-59.317106
 30
0.0
 40
1.000000
 50
180.000000
 51
269.000015
  0
LINE
  8
0
  6
BYLAYER
 62
     7
 10
703.948805
 20
-244.858366
 30
0.0
 11
701.448805
 21
-244.902006
 31
0.0
  0
LINE
  8
0
  6
BYLAYER
 62
     7
 10
657.448805
 20
-152.858362
 30
0.0
 11
657.448805
 21
-28.858366
 31
0.0
  0
ARC
  8
0
  6
BYLAYER
 62
     7
 10
658.448805
 20
-28.858366
 30
0.0
 40
1.0
 50
90.0
 51
179.999996
  0
LINE
  8
0
  6
BYLAYER
 62
     7
 10
658.448805
 20
-27.858366
 30
0.0
 11
670.948805
 21
-27.858366
 31
0.0
  0
LINE
  8
0
  6
BYLAYER
 62
     7
 10
671.948805
 20
-28.858366
 30
0.0
 11
671.948805
 21
-152.858362
 31
0.0
  0
ARC
  8
0
  6
BYLAYER
 62
     7
 10
670.948805
 20
-28.858366
 30
0.0
 40
1.0
 50
0.0
 51
89.999999
  0
LINE
  8
0
  6
BYLAYER
 62
     7
 10
657.448805
 20
-152.858362
 30
0.0
 11
657.448805
 21
-276.858366
 31
0.0
  0
ARC
  8
0
  6
BYLAYER
 62
     7
 10
658.448805
 20
-276.858366
 30
0.0
 40
1.000000
 50
180.000000
 51
270.000003
  0
LINE
  8
0
  6
BYLAYER
 62
     7
 10
658.448805
 20
-277.858366
 30
0.0
 11
670.948805
 21
-277.858366
 31
0.0
  0
LINE
  8
0
  6
BYLAYER
 62
     7
 10
671.948805
 20
-276.858366
 30
0.0
 11
671.948805
 21
-152.858362
 31
0.0
  0
ARC
  8
0
  6
BYLAYER
 62
     7
 10
670.948805
 20
-276.858366
 30
0.0
 40
1.0
 50
270.0
 51
360.000003
  0
LINE
  8
0
  6
BYLAYER
 62
     7
 10
703.948805
 20
-244.858366
 30
0.0
 11
703.948805
 21
-60.858362
 31
0.0
  0
ARC
  8
0
  6
BYLAYER
 62
     7
 10
737.948805
 20
-50.858881
 30
0.0
 40
13.0
 50
180.000019
 51
360.000018
  0
ARC
  8
0
  6
BYLAYER
 62
     7
 10
776.948805
 20
-50.858881
 30
0.0
 40
13.000000
 50
180.000019
 51
360.000018
  0
LINE
  8
0
  6
BYLAYER
 62
     7
 10
708.448805
 20
-42.358881
 30
0.0
 11
722.948805
 21
-42.358881
 31
0.0
  0
LINE
  8
0
  6
BYLAYER
 62
     7
 10
724.948805
 20
-50.858881
 30
0.0
 11
724.948805
 21
-44.358881
 31
0.0
  0
ARC
  8
0
  6
BYLAYER
 62
     7
 10
722.948805
 20
-44.358881
 30
0.0
 40
2.0
 50
0.0
 51
90.000003
  0
LINE
  8
0
  6
BYLAYER
 62
     7
 10
750.948805
 20
-50.858881
 30
0.0
 11
750.948805
 21
-44.358881
 31
0.0
  0
ARC
  8
0
  6
BYLAYER
 62
     7
 10
752.948805
 20
-44.358881
 30
0.0
 40
2.0
 50
90.0
 51
180.000003
  0
LINE
  8
0
  6
BYLAYER
 62
     7
 10
752.948805
 20
-42.358881
 30
0.0
 11
761.948805
 21
-42.358881
 31
0.0
  0
LINE
  8
0
  6
BYLAYER
 62
     7
 10
763.948805
 20
-50.858881
 30
0.0
 11
763.948805
 21
-44.358881
 31
0.0
  0
ARC
  8
0
  6
BYLAYER
 62
     7
 10
761.948805
 20
-44.358881
 30
0.0
 40
2.0
 50
0.0
 51
90.000003
  0
LINE
  8
0
  6
BYLAYER
 62
     7
 10
789.948805
 20
-50.858881
 30
0.0
 11
789.948805
 21
-44.358881
 31
0.0
  0
LINE
  8
0
  6
BYLAYER
 62
     7
 10
791.948835
 20
-42.358881
 30
0.0
 11
806.448835
 21
-42.358881
 31
0.0
  0
ARC
  8
0
  6
BYLAYER
 62
     7
 10
791.948835
 20
-44.358881
 30
0.0
 40
2.000031
 50
90.0
 51
180.000003
  0
ARC
  8
0
  6
BYLAYER
 62
     7
 10
709.448805
 20
-135.508356
 30
0.0
 40
1.000000
 50
90.0
 51
180.000003
  0
ARC
  8
0
  6
BYLAYER
 62
     7
 10
709.448805
 20
-135.508356
 30
0.0
 40
1.0
 50
180.000000
 51
269.999996
  0
ARC
  8
0
  6
BYLAYER
 62
     7
 10
709.448805
 20
-122.808374
 30
0.0
 40
1.000000
 50
90.0
 51
180.000003
  0
ARC
  8
0
  6
BYLAYER
 62
     7
 10
709.448805
 20
-122.808374
 30
0.0
 40
1.000000
 50
180.000000
 51
269.999996
  0
ARC
  8
0
  6
BYLAYER
 62
     7
 10
709.448805
 20
-110.108362
 30
0.0
 40
1.000000
 50
90.0
 51
180.000003
  0
ARC
  8
0
  6
BYLAYER
 62
     7
 10
709.448805
 20
-110.108362
 30
0.0
 40
1.0
 50
180.000000
 51
269.999996
  0
ARC
  8
0
  6
BYLAYER
 62
     7
 10
709.448805
 20
-97.408350
 30
0.0
 40
1.000000
 50
90.0
 51
180.000003
  0
ARC
  8
0
  6
BYLAYER
 62
     7
 10
709.448805
 20
-97.408350
 30
0.0
 40
1.0
 50
180.000000
 51
269.999996
  0
ARC
  8
0
  6
BYLAYER
 62
     7
 10
709.448805
 20
-84.708368
 30
0.0
 40
1.000000
 50
90.0
 51
180.000003
  0
ARC
  8
0
  6
BYLAYER
 62
     7
 10
709.448805
 20
-84.708368
 30
0.0
 40
1.0
 50
180.000000
 51
269.999996
  0
LINE
  8
0
  6
BYLAYER
 62
     7
 10
806.448835
 20
-83.708368
 30
0.0
 11
806.448835
 21
-36.858881
 31
0.0
  0
ARC
  8
0
  6
BYLAYER
 62
     7
 10
709.448805
 20
-170.208368
 30
0.0
 40
1.000000
 50
180.000000
 51
270.000009
  0
ARC
  8
0
  6
BYLAYER
 62
     7
 10
709.448805
 20
-170.208368
 30
0.0
 40
1.000000
 50
90.0
 51
179.999989
  0
ARC
  8
0
  6
BYLAYER
 62
     7
 10
709.448805
 20
-182.908350
 30
0.0
 40
1.000000
 50
180.000000
 51
270.000009
  0
ARC
  8
0
  6
BYLAYER
 62
     7
 10
709.448805
 20
-182.908350
 30
0.0
 40
1.000000
 50
90.0
 51
179.999989
  0
ARC
  8
0
  6
BYLAYER
 62
     7
 10
709.448805
 20
-195.608362
 30
0.0
 40
1.000000
 50
180.000000
 51
270.000009
  0
ARC
  8
0
  6
BYLAYER
 62
     7
 10
709.448805
 20
-195.608362
 30
0.0
 40
1.000000
 50
90.0
 51
179.999989
  0
ARC
  8
0
  6
BYLAYER
 62
     7
 10
709.448805
 20
-208.308344
 30
0.0
 40
1.000000
 50
180.000000
 51
270.000009
  0
ARC
  8
0
  6
BYLAYER
 62
     7
 10
709.448805
 20
-208.308344
 30
0.0
 40
1.000000
 50
90.0
 51
179.999989
  0
ARC
  8
0
  6
BYLAYER
 62
     7
 10
709.448805
 20
-221.008356
 30
0.0
 40
1.000000
 50
180.000000
 51
270.000009
  0
ARC
  8
0
  6
BYLAYER
 62
     7
 10
709.448805
 20
-221.008356
 30
0.0
 40
1.000000
 50
90.0
 51
179.999989
  0
LINE
  8
0
  6
BYLAYER
 62
     7
 10
709.448805
 20
-194.608362
 30
0.0
 11
876.927473
 21
-194.608362
 31
0.0
  0
LINE
  8
0
  6
BYLAYER
 62
     7
 10
709.448805
 20
-196.608362
 30
0.0
 11
876.927473
 21
-196.608362
 31
0.0
  0
LINE
  8
0
  6
BYLAYER
 62
     7
 10
709.448805
 20
-121.808374
 30
0.0
 11
761.887068
 21
-121.808374
 31
0.0
  0
LINE
  8
0
  6
BYLAYER
 62
     7
 10
709.448805
 20
-123.808374
 30
0.0
 11
761.887068
 21
-123.808374
 31
0.0
  0
LINE
  8
0
  6
BYLAYER
 62
     7
 10
767.010542
 20
-121.808374
 30
0.0
 11
816.887068
 21
-121.808374
 31
0.0
  0
LINE
  8
0
  6
BYLAYER
 62
     7
 10
767.010542
 20
-123.808374
 30
0.0
 11
816.887068
 21
-123.808374
 31
0.0
  0
ARC
  8
0
  6
BYLAYER
 62
     7
 10
764.448805
 20
-122.808374
 30
0.0
 40
2.75
 50
21.323692
 51
158.676305
  0
ARC
  8
0
  6
BYLAYER
 62
     7
 10
819.448805
 20
-122.808374
 30
0.0
 40
2.75
 50
21.323692
 51
158.676305
  0
ARC
  8
0
  6
BYLAYER
 62
     7
 10
764.448805
 20
-122.808374
 30
0.0
 40
2.750000
 50
201.323692
 51
338.676296
  0
ARC
  8
0
  6
BYLAYER
 62
     7
 10
819.448805
 20
-122.808374
 30
0.0
 40
2.75
 50
201.323692
 51
338.676296
  0
LINE
  8
0
  6
BYLAYER
 62
     7
 10
708.448805
 20
-60.858393
 30
0.0
 11
703.948805
 21
-60.858393
 31
0.0
  0
LINE
  8
0
  6
BYLAYER
 62
     7
 10
714.448805
 20
-223.677240
 30
0.0
 11
708.448805
 21
-226.297632
 31
0.0
  0
LINE
  8
0
  6
BYLAYER
 62
     7
 10
708.448805
 20
-244.858362
 30
0.0
 11
708.448805
 21
-36.858881
 31
0.0
  0
LINE
  8
0
  6
BYLAYER
 62
     7
 10
703.948805
 20
-244.858362
 30
0.0
 11
708.448805
 21
-244.858362
 31
0.0
  0
LINE
  8
0
  6
BYLAYER
 62
     7
 10
708.448805
 20
-226.297632
 30
0.0
 11
711.808943
 21
-234.393274
 31
0.0
  0
ARC
  8
0
  6
BYLAYER
 62
     7
 10
714.117964
 20
-233.434900
 30
0.0
 40
2.500012
 50
202.541214
 51
270.000001
  0
LINE
  8
0
  6
BYLAYER
 62
     7
 10
708.448805
 20
-230.696070
 30
0.0
 11
711.931715
 21
-242.921106
 31
0.0
  0
ARC
  8
0
  6
BYLAYER
 62
     7
 10
714.336043
 20
-242.236109
 30
0.0
 40
2.500002
 50
195.902352
 51
270.000001
  0
LINE
  8
0
  6
BYLAYER
 62
     7
 10
708.448805
 20
-237.783686
 30
0.0
 11
711.899305
 21
-248.783106
 31
0.0
  0
ARC
  8
0
  6
BYLAYER
 62
     7
 10
714.284681
 20
-248.034815
 30
0.0
 40
2.499992
 50
197.416605
 51
270.000001
  0
ARC
  8
0
  6
BYLAYER
 62
     7
 10
714.389265
 20
-251.709162
 30
0.0
 40
2.499992
 50
197.416605
 51
270.000001
  0
LINE
  8
0
  6
BYLAYER
 62
     7
 10
708.448805
 20
-244.858362
 30
0.0
 11
711.717390
 21
-254.277948
 31
0.0
  0
ARC
  8
0
  6
BYLAYER
 62
     7
 10
714.079237
 20
-253.458399
 30
0.0
 40
2.499996
 50
199.136528
 51
270.000001
  0
LINE
  8
0
  6
BYLAYER
 62
     7
 10
712.003889
 20
-252.457453
 30
0.0
 11
708.448805
 21
-241.124659
 31
0.0
  0
ARC
  8
0
  6
BYLAYER
 62
     7
 10
713.448805
 20
-135.508356
 30
0.0
 40
1.0
 50
90.0
 51
180.000003
  0
ARC
  8
0
  6
BYLAYER
 62
     7
 10
713.448805
 20
-135.508356
 30
0.0
 40
1.0
 50
180.000000
 51
269.999996
  0
ARC
  8
0
  6
BYLAYER
 62
     7
 10
713.448805
 20
-170.208368
 30
0.0
 40
1.0
 50
180.000000
 51
270.000009
  0
ARC
  8
0
  6
BYLAYER
 62
     7
 10
713.448805
 20
-170.208368
 30
0.0
 40
1.0
 50
90.0
 51
179.999989
  0
ARC
  8
0
  6
BYLAYER
 62
     7
 10
713.448805
 20
-182.908350
 30
0.0
 40
1.0
 50
180.000000
 51
270.000009
  0
ARC
  8
0
  6
BYLAYER
 62
     7
 10
713.448805
 20
-182.908350
 30
0.0
 40
1.0
 50
90.0
 51
179.999989
  0
ARC
  8
0
  6
BYLAYER
 62
     7
 10
713.448805
 20
-195.608362
 30
0.0
 40
1.0
 50
180.000000
 51
270.000009
  0
ARC
  8
0
  6
BYLAYER
 62
     7
 10
713.448805
 20
-195.608362
 30
0.0
 40
1.0
 50
90.0
 51
179.999989
  0
ARC
  8
0
  6
BYLAYER
 62
     7
 10
713.448805
 20
-208.308344
 30
0.0
 40
1.0
 50
180.000000
 51
270.000009
  0
ARC
  8
0
  6
BYLAYER
 62
     7
 10
713.448805
 20
-208.308344
 30
0.0
 40
1.0
 50
90.0
 51
179.999989
  0
ARC
  8
0
  6
BYLAYER
 62
     7
 10
713.448805
 20
-221.008356
 30
0.0
 40
1.0
 50
180.000000
 51
270.000009
  0
ARC
  8
0
  6
BYLAYER
 62
     7
 10
713.448805
 20
-221.008356
 30
0.0
 40
1.0
 50
90.0
 51
179.999989
  0
ARC
  8
0
  6
BYLAYER
 62
     7
 10
713.448805
 20
-122.808374
 30
0.0
 40
1.0
 50
90.0
 51
180.000003
  0
ARC
  8
0
  6
BYLAYER
 62
     7
 10
713.448805
 20
-122.808374
 30
0.0
 40
1.0
 50
180.000000
 51
269.999996
  0
ARC
  8
0
  6
BYLAYER
 62
     7
 10
713.448805
 20
-110.108362
 30
0.0
 40
1.0
 50
90.0
 51
180.000003
  0
ARC
  8
0
  6
BYLAYER
 62
     7
 10
713.448805
 20
-110.108362
 30
0.0
 40
1.0
 50
180.000000
 51
269.999996
  0
ARC
  8
0
  6
BYLAYER
 62
     7
 10
713.448805
 20
-97.408350
 30
0.0
 40
1.0
 50
90.0
 51
180.000003
  0
ARC
  8
0
  6
BYLAYER
 62
     7
 10
713.448805
 20
-97.408350
 30
0.0
 40
1.0
 50
180.000000
 51
269.999996
  0
ARC
  8
0
  6
BYLAYER
 62
     7
 10
713.448805
 20
-84.708368
 30
0.0
 40
1.0
 50
90.0
 51
180.000003
  0
ARC
  8
0
  6
BYLAYER
 62
     7
 10
713.448805
 20
-84.708368
 30
0.0
 40
1.0
 50
180.000000
 51
269.999996
  0
LINE
  8
0
  6
BYLAYER
 62
     7
 10
714.948805
 20
-220.008356
 30
0.0
 11
714.948805
 21
-209.308344
 31
0.0
  0
LINE
  8
0
  6
BYLAYER
 62
     7
 10
714.948805
 20
-207.308344
 30
0.0
 11
714.948805
 21
-196.608362
 31
0.0
  0
LINE
  8
0
  6
BYLAYER
 62
     7
 10
714.948805
 20
-194.608362
 30
0.0
 11
714.948805
 21
-183.908350
 31
0.0
  0
LINE
  8
0
  6
BYLAYER
 62
     7
 10
714.948805
 20
-169.208368
 30
0.0
 11
714.948805
 21
-158.508386
 31
0.0
  0
LINE
  8
0
  6
BYLAYER
 62
     7
 10
714.948805
 20
-181.908350
 30
0.0
 11
714.948805
 21
-171.208368
 31
0.0
  0
LINE
  8
0
  6
BYLAYER
 62
     7
 10
714.948805
 20
-149.208338
 30
0.0
 11
714.948805
 21
-152.858362
 31
0.0
  0
LINE
  8
0
  6
BYLAYER
 62
     7
 10
714.948805
 20
-156.508386
 30
0.0
 11
714.948805
 21
-152.858362
 31
0.0
  0
LINE
  8
0
  6
BYLAYER
 62
     7
 10
714.948805
 20
-136.508356
 30
0.0
 11
714.948805
 21
-147.208338
 31
0.0
  0
LINE
  8
0
  6
BYLAYER
 62
     7
 10
714.948805
 20
-123.808374
 30
0.0
 11
714.948805
 21
-134.508356
 31
0.0
  0
LINE
  8
0
  6
BYLAYER
 62
     7
 10
714.948805
 20
-111.108362
 30
0.0
 11
714.948805
 21
-121.808374
 31
0.0
  0
LINE
  8
0
  6
BYLAYER
 62
     7
 10
714.948805
 20
-98.408350
 30
0.0
 11
714.948805
 21
-109.108362
 31
0.0
  0
LINE
  8
0
  6
BYLAYER
 62
     7
 10
714.948805
 20
-85.708368
 30
0.0
 11
714.948805
 21
-96.408350
 31
0.0
  0
LINE
  8
0
  6
BYLAYER
 62
     7
 10
703.948805
 20
-244.858362
 30
0.0
 11
703.948805
 21
-60.858393
 31
0.0
  0
LINE
  8
0
  6
BYLAYER
 62
     7
 10
806.448835
 20
-47.858881
 30
0.0
 11
876.927473
 21
-47.858742
 31
0.0
  0
LINE
  8
0
  6
BYLAYER
 62
     7
 10
806.448835
 20
-50.858881
 30
0.0
 11
876.927473
 21
-50.858741
 31
0.0
  0
LINE
  8
0
  6
BYLAYER
 62
     7
 10
806.448835
 20
-54.858881
 30
0.0
 11
876.927473
 21
-54.858742
 31
0.0
  0
LINE
  8
0
  6
BYLAYER
 62
     7
 10
806.448835
 20
-60.858820
 30
0.0
 11
876.927473
 21
-60.858820
 31
0.0
  0
LINE
  8
0
  6
BYLAYER
 62
     7
 10
709.448805
 20
-83.708368
 30
0.0
 11
876.927473
 21
-83.708368
 31
0.0
  0
LINE
  8
0
  6
BYLAYER
 62
     7
 10
709.448805
 20
-85.708368
 30
0.0
 11
876.927473
 21
-85.708368
 31
0.0
  0
LINE
  8
0
  6
BYLAYER
 62
     7
 10
709.448805
 20
-96.408350
 30
0.0
 11
876.927473
 21
-96.408350
 31
0.0
  0
LINE
  8
0
  6
BYLAYER
 62
     7
 10
709.448805
 20
-98.408350
 30
0.0
 11
876.927473
 21
-98.408350
 31
0.0
  0
LINE
  8
0
  6
BYLAYER
 62
     7
 10
709.448805
 20
-109.108362
 30
0.0
 11
876.927473
 21
-109.108362
 31
0.0
  0
LINE
  8
0
  6
BYLAYER
 62
     7
 10
709.448805
 20
-111.108362
 30
0.0
 11
876.927473
 21
-111.108362
 31
0.0
  0
LINE
  8
0
  6
BYLAYER
 62
     7
 10
822.010542
 20
-121.808374
 30
0.0
 11
876.927473
 21
-121.808374
 31
0.0
  0
LINE
  8
0
  6
BYLAYER
 62
     7
 10
822.010542
 20
-123.808374
 30
0.0
 11
876.927473
 21
-123.808374
 31
0.0
  0
LINE
  8
0
  6
BYLAYER
 62
     7
 10
709.448805
 20
-134.508356
 30
0.0
 11
876.927473
 21
-134.508356
 31
0.0
  0
LINE
  8
0
  6
BYLAYER
 62
     7
 10
709.448805
 20
-136.508356
 30
0.0
 11
876.927473
 21
-136.508356
 31
0.0
  0
LINE
  8
0
  6
BYLAYER
 62
     7
 10
709.448805
 20
-169.208368
 30
0.0
 11
876.927473
 21
-169.208368
 31
0.0
  0
LINE
  8
0
  6
BYLAYER
 62
     7
 10
709.448805
 20
-171.208368
 30
0.0
 11
876.927473
 21
-171.208368
 31
0.0
  0
LINE
  8
0
  6
BYLAYER
 62
     7
 10
709.448805
 20
-181.908350
 30
0.0
 11
876.927473
 21
-181.908350
 31
0.0
  0
LINE
  8
0
  6
BYLAYER
 62
     7
 10
709.448805
 20
-183.908350
 30
0.0
 11
876.927473
 21
-183.908350
 31
0.0
  0
LINE
  8
0
  6
BYLAYER
 62
     7
 10
709.448805
 20
-207.308344
 30
0.0
 11
876.927473
 21
-207.308344
 31
0.0
  0
LINE
  8
0
  6
BYLAYER
 62
     7
 10
709.448805
 20
-209.308344
 30
0.0
 11
876.927473
 21
-209.308344
 31
0.0
  0
LINE
  8
0
  6
BYLAYER
 62
     7
 10
709.448805
 20
-220.008356
 30
0.0
 11
876.927473
 21
-220.008356
 31
0.0
  0
LINE
  8
0
  6
BYLAYER
 62
     7
 10
709.448805
 20
-222.008356
 30
0.0
 11
876.927473
 21
-222.008356
 31
0.0
  0
LINE
  8
0
  6
BYLAYER
 62
     7
 10
714.448805
 20
-223.677240
 30
0.0
 11
876.927473
 21
-223.677240
 31
0.0
  0
LINE
  8
0
  6
BYLAYER
 62
     7
 10
714.117964
 20
-235.934900
 30
0.0
 11
876.927473
 21
-235.934900
 31
0.0
  0
LINE
  8
0
  6
BYLAYER
 62
     7
 10
714.336043
 20
-244.736109
 30
0.0
 11
876.927473
 21
-244.736109
 31
0.0
  0
LINE
  8
0
  6
BYLAYER
 62
     7
 10
714.284681
 20
-250.534815
 30
0.0
 11
876.927473
 21
-250.534815
 31
0.0
  0
LINE
  8
0
  6
BYLAYER
 62
     7
 10
714.389265
 20
-254.209162
 30
0.0
 11
876.927473
 21
-254.209162
 31
0.0
  0
LINE
  8
0
  6
BYLAYER
 62
     7
 10
714.079237
 20
-255.958399
 30
0.0
 11
876.927473
 21
-255.958399
 31
0.0
  0
ARC
  8
0
  6
BYLAYER
 62
     7
 10
709.448805
 20
-148.208338
 30
0.0
 40
1.0
 50
180.000000
 51
270.000003
  0
ARC
  8
0
  6
BYLAYER
 62
     7
 10
709.448805
 20
-148.208338
 30
0.0
 40
1.000000
 50
90.0
 51
179.999996
  0
ARC
  8
0
  6
BYLAYER
 62
     7
 10
713.448805
 20
-148.208338
 30
0.0
 40
1.000000
 50
180.000000
 51
270.000003
  0
ARC
  8
0
  6
BYLAYER
 62
     7
 10
713.448805
 20
-148.208338
 30
0.0
 40
1.0
 50
90.0
 51
179.999996
  0
LINE
  8
0
  6
BYLAYER
 62
     7
 10
822.010542
 20
-149.208338
 30
0.0
 11
876.927473
 21
-149.208338
 31
0.0
  0
LINE
  8
0
  6
BYLAYER
 62
     7
 10
822.010542
 20
-147.208338
 30
0.0
 11
876.927473
 21
-147.208338
 31
0.0
  0
LINE
  8
0
  6
BYLAYER
 62
     7
 10
709.448805
 20
-147.208338
 30
0.0
 11
822.010542
 21
-147.208338
 31
0.0
  0
LINE
  8
0
  6
BYLAYER
 62
     7
 10
709.448805
 20
-149.208338
 30
0.0
 11
822.010542
 21
-149.208338
 31
0.0
  0
ARC
  8
0
  6
BYLAYER
 62
     7
 10
709.448805
 20
-157.508386
 30
0.0
 40
1.000000
 50
90.0
 51
180.000003
  0
ARC
  8
0
  6
BYLAYER
 62
     7
 10
709.448805
 20
-157.508386
 30
0.0
 40
1.0
 50
180.000000
 51
269.999996
  0
ARC
  8
0
  6
BYLAYER
 62
     7
 10
713.448805
 20
-157.508386
 30
0.0
 40
1.0
 50
90.0
 51
180.000003
  0
ARC
  8
0
  6
BYLAYER
 62
     7
 10
713.448805
 20
-157.508386
 30
0.0
 40
1.0
 50
180.000000
 51
269.999996
  0
LINE
  8
0
  6
BYLAYER
 62
     7
 10
822.010542
 20
-156.508386
 30
0.0
 11
876.927473
 21
-156.508386
 31
0.0
  0
LINE
  8
0
  6
BYLAYER
 62
     7
 10
822.010542
 20
-158.508386
 30
0.0
 11
876.927473
 21
-158.508386
 31
0.0
  0
LINE
  8
0
  6
BYLAYER
 62
     7
 10
709.448805
 20
-158.508386
 30
0.0
 11
822.010542
 21
-158.508386
 31
0.0
  0
LINE
  8
0
  6
BYLAYER
 62
     7
 10
709.448805
 20
-156.508386
 30
0.0
 11
822.010542
 21
-156.508386
 31
0.0
  0
LINE
  8
0
  6
BYLAYER
 62
     7
 10
876.927473
 20
-47.458911
 30
0.0
 11
876.927473
 21
-152.858362
 31
0.0
  0
LINE
  8
0
  6
BYLAYER
 62
     7
 10
876.927473
 20
-152.858362
 30
0.0
 11
876.927473
 21
-258.258911
 31
0.0
  0
LINE
  8
0
  6
BYLAYER
 62
     7
 10
960.527473
 20
-47.458911
 30
0.0
 11
876.927473
 21
-47.458911
 31
0.0
  0
LINE
  8
0
  6
BYLAYER
 62
     7
 10
876.927473
 20
-258.258911
 30
0.0
 11
960.527473
 21
-258.258911
 31
0.0
  0
LINE
  8
0
  6
BYLAYER
 62
     7
 10
981.927473
 20
-236.858911
 30
0.0
 11
981.927473
 21
-68.858911
 31
0.0
  0
LINE
  8
0
  6
BYLAYER
 62
     7
 10
960.527473
 20
-258.258911
 30
0.0
 11
981.927473
 21
-236.858911
 31
0.0
  0
LINE
  8
0
  6
BYLAYER
 62
     7
 10
981.927473
 20
-68.858911
 30
0.0
 11
960.527473
 21
-47.458911
 31
0.0
  0
LINE
  8
0
  6
BYLAYER
 62
     7
 10
800.948805
 20
-26.358881
 30
0.0
 11
800.948805
 21
-4.858881
 31
0.0
  0
ARC
  8
0
  6
BYLAYER
 62
     7
 10
802.448805
 20
-26.358881
 30
0.0
 40
1.500000
 50
180.000000
 51
270.000000
  0
ARC
  8
0
  6
BYLAYER
 62
     7
 10
799.448805
 20
-4.858881
 30
0.0
 40
1.5
 50
0.0
 51
90.0
  0
LINE
  8
0
  6
BYLAYER
 62
     7
 10
713.948805
 20
-26.358881
 30
0.0
 11
713.948805
 21
-4.858881
 31
0.0
  0
ARC
  8
0
  6
BYLAYER
 62
     7
 10
712.448805
 20
-26.358881
 30
0.0
 40
1.5
 50
270.0
 51
360.0
  0
ARC
  8
0
  6
BYLAYER
 62
     7
 10
715.448805
 20
-4.858881
 30
0.0
 40
1.5
 50
90.0
 51
180.0
  0
LINE
  8
0
  6
BYLAYER
 62
     7
 10
715.448805
 20
-3.358881
 30
0.0
 11
799.448805
 21
-3.358881
 31
0.0
  0
LINE
  8
0
  6
BYLAYER
 62
     7
 10
719.321046
 20
-26.358881
 30
0.0
 11
719.321046
 21
-4.858881
 31
0.0
  0
ARC
  8
0
  6
BYLAYER
 62
     7
 10
717.821046
 20
-26.358881
 30
0.0
 40
1.500000
 50
270.0
 51
360.0
  0
ARC
  8
0
  6
BYLAYER
 62
     7
 10
720.821046
 20
-4.858881
 30
0.0
 40
1.5
 50
90.0
 51
180.0
  0
LINE
  8
0
  6
BYLAYER
 62
     7
 10
795.576564
 20
-26.358881
 30
0.0
 11
795.576564
 21
-4.858881
 31
0.0
  0
ARC
  8
0
  6
BYLAYER
 62
     7
 10
797.076564
 20
-26.358881
 30
0.0
 40
1.5
 50
180.000000
 51
270.000000
  0
ARC
  8
0
  6
BYLAYER
 62
     7
 10
794.076564
 20
-4.858881
 30
0.0
 40
1.5
 50
0.0
 51
90.0
  0
LINE
  8
0
  6
BYLAYER
 62
     7
 10
757.448805
 20
-27.858881
 30
0.0
 11
804.948805
 21
-27.858881
 31
0.0
  0
ARC
  8
0
  6
BYLAYER
 62
     7
 10
804.948805
 20
-29.358881
 30
0.0
 40
1.5
 50
0.0
 51
90.0
  0
LINE
  8
0
  6
BYLAYER
 62
     7
 10
806.448805
 20
-36.858881
 30
0.0
 11
806.448805
 21
-29.358881
 31
0.0
  0
LINE
  8
0
  6
BYLAYER
 62
     7
 10
709.948805
 20
-27.858881
 30
0.0
 11
757.448805
 21
-27.858881
 31
0.0
  0
ARC
  8
0
  6
BYLAYER
 62
     7
 10
709.948805
 20
-29.358881
 30
0.0
 40
1.5
 50
90.0
 51
180.0
  0
LINE
  8
0
  6
BYLAYER
 62
     7
 10
708.448805
 20
-34.858881
 30
0.0
 11
708.448805
 21
-29.358881
 31
0.0
  0
LINE
  8
0
  6
BYLAYER
 62
     7
 10
806.448805
 20
-34.858881
 30
0.0
 11
708.448805
 21
-34.858881
 31
0.0
  0
LINE
  8
0
  6
BYLAYER
 62
     7
 10
708.448805
 20
-34.858881
 30
0.0
 11
708.448805
 21
-36.858881
 31
0.0
  0
LINE
  8
0
  6
BYLAYER
 62
     7
 10
708.448805
 20
-36.858881
 30
0.0
 11
806.448805
 21
-36.858881
 31
0.0
  0
LINE
  8
0
  6
BYLAYER
 62
     7
 10
960.527473
 20
-258.258911
 30
0.0
 11
960.527473
 21
-47.458911
 31
0.0
  0
LINE
  8
0
  6
BYLAYER
 62
     7
 10
703.948805
 20
-880.858366
 30
0.0
 11
672.931353
 21
-880.316954
 31
0.0
  0
ARC
  8
0
  6
BYLAYER
 62
     7
 10
672.948805
 20
-879.317106
 30
0.0
 40
1.000000
 50
180.000000
 51
269.000015
  0
LINE
  8
0
  6
BYLAYER
 62
     7
 10
657.448805
 20
-972.858362
 30
0.0
 11
657.448805
 21
-848.858366
 31
0.0
  0
ARC
  8
0
  6
BYLAYER
 62
     7
 10
658.448805
 20
-848.858366
 30
0.0
 40
1.0
 50
90.0
 51
179.999996
  0
LINE
  8
0
  6
BYLAYER
 62
     7
 10
658.448805
 20
-847.858366
 30
0.0
 11
670.948805
 21
-847.858366
 31
0.0
  0
LINE
  8
0
  6
BYLAYER
 62
     7
 10
671.948805
 20
-848.858366
 30
0.0
 11
671.948805
 21
-972.858362
 31
0.0
  0
ARC
  8
0
  6
BYLAYER
 62
     7
 10
670.948805
 20
-848.858366
 30
0.0
 40
1.000000
 50
0.0
 51
89.999999
  0
LINE
  8
0
  6
BYLAYER
 62
     7
 10
703.948805
 20
-972.858362
 30
0.0
 11
703.948805
 21
-880.858362
 31
0.0
  0
LINE
  8
0
  6
BYLAYER
 62
     7
 10
703.948805
 20
-1064.858358
 30
0.0
 11
672.931353
 21
-1065.399770
 31
0.0
  0
ARC
  8
0
  6
BYLAYER
 62
     7
 10
672.948805
 20
-1066.399618
 30
0.0
 40
1.0
 50
90.999990
 51
180.000005
  0
LINE
  8
0
  6
BYLAYER
 62
     7
 10
657.448805
 20
-972.858362
 30
0.0
 11
657.448805
 21
-1096.858358
 31
0.0
  0
ARC
  8
0
  6
BYLAYER
 62
     7
 10
658.448805
 20
-1096.858358
 30
0.0
 40
1.000000
 50
180.000000
 51
269.999996
  0
LINE
  8
0
  6
BYLAYER
 62
     7
 10
658.448805
 20
-1097.858358
 30
0.0
 11
670.948805
 21
-1097.858358
 31
0.0
  0
LINE
  8
0
  6
BYLAYER
 62
     7
 10
671.948805
 20
-1096.858358
 30
0.0
 11
671.948805
 21
-972.858362
 31
0.0
  0
ARC
  8
0
  6
BYLAYER
 62
     7
 10
670.948805
 20
-1096.858358
 30
0.0
 40
1.000000
 50
270.0
 51
359.999999
  0
LINE
  8
0
  6
BYLAYER
 62
     7
 10
703.948805
 20
-972.858362
 30
0.0
 11
703.948805
 21
-1064.858362
 31
0.0
  0
ARC
  8
0
  6
BYLAYER
 62
     7
 10
709.448805
 20
-1028.308344
 30
0.0
 40
1.0
 50
180.000000
 51
270.000009
  0
ARC
  8
0
  6
BYLAYER
 62
     7
 10
709.448805
 20
-1028.308344
 30
0.0
 40
1.000000
 50
90.0
 51
179.999989
  0
ARC
  8
0
  6
BYLAYER
 62
     7
 10
709.448805
 20
-1041.008356
 30
0.0
 40
1.0
 50
180.000000
 51
270.000009
  0
ARC
  8
0
  6
BYLAYER
 62
     7
 10
709.448805
 20
-1041.008356
 30
0.0
 40
1.0
 50
90.0
 51
179.999989
  0
LINE
  8
0
  6
BYLAYER
 62
     7
 10
806.448805
 20
-1014.608362
 30
0.0
 11
876.927473
 21
-1014.608362
 31
0.0
  0
LINE
  8
0
  6
BYLAYER
 62
     7
 10
806.448805
 20
-1016.608362
 30
0.0
 11
876.927473
 21
-1016.608362
 31
0.0
  0
LINE
  8
0
  6
BYLAYER
 62
     7
 10
714.448805
 20
-1043.677240
 30
0.0
 11
708.448805
 21
-1046.297632
 31
0.0
  0
LINE
  8
0
  6
BYLAYER
 62
     7
 10
708.448805
 20
-1064.858362
 30
0.0
 11
708.448805
 21
-972.858362
 31
0.0
  0
LINE
  8
0
  6
BYLAYER
 62
     7
 10
703.948805
 20
-1064.858362
 30
0.0
 11
708.448805
 21
-1064.858362
 31
0.0
  0
LINE
  8
0
  6
BYLAYER
 62
     7
 10
708.448805
 20
-1046.297632
 30
0.0
 11
711.808943
 21
-1054.393274
 31
0.0
  0
ARC
  8
0
  6
BYLAYER
 62
     7
 10
714.117964
 20
-1053.434900
 30
0.0
 40
2.500012
 50
202.541214
 51
270.000001
  0
LINE
  8
0
  6
BYLAYER
 62
     7
 10
708.448805
 20
-1050.696070
 30
0.0
 11
711.931715
 21
-1062.921106
 31
0.0
  0
ARC
  8
0
  6
BYLAYER
 62
     7
 10
714.336043
 20
-1062.236109
 30
0.0
 40
2.500002
 50
195.902352
 51
270.000001
  0
LINE
  8
0
  6
BYLAYER
 62
     7
 10
708.448805
 20
-1057.783686
 30
0.0
 11
711.899305
 21
-1068.783106
 31
0.0
  0
ARC
  8
0
  6
BYLAYER
 62
     7
 10
714.284681
 20
-1068.034815
 30
0.0
 40
2.499992
 50
197.416605
 51
270.000001
  0
ARC
  8
0
  6
BYLAYER
 62
     7
 10
714.389265
 20
-1071.709162
 30
0.0
 40
2.499992
 50
197.416605
 51
270.000001
  0
LINE
  8
0
  6
BYLAYER
 62
     7
 10
708.448805
 20
-1064.858362
 30
0.0
 11
711.717390
 21
-1074.277948
 31
0.0
  0
ARC
  8
0
  6
BYLAYER
 62
     7
 10
714.079237
 20
-1073.458399
 30
0.0
 40
2.499996
 50
199.136528
 51
270.000001
  0
LINE
  8
0
  6
BYLAYER
 62
     7
 10
712.003889
 20
-1072.457453
 30
0.0
 11
708.448805
 21
-1061.124659
 31
0.0
  0
ARC
  8
0
  6
BYLAYER
 62
     7
 10
713.448805
 20
-1028.308344
 30
0.0
 40
1.0
 50
180.000000
 51
270.000009
  0
ARC
  8
0
  6
BYLAYER
 62
     7
 10
713.448805
 20
-1028.308344
 30
0.0
 40
1.0
 50
90.0
 51
179.999989
  0
ARC
  8
0
  6
BYLAYER
 62
     7
 10
713.448805
 20
-1041.008356
 30
0.0
 40
1.0
 50
180.000000
 51
270.000009
  0
ARC
  8
0
  6
BYLAYER
 62
     7
 10
713.448805
 20
-1041.008356
 30
0.0
 40
1.0
 50
90.0
 51
179.999989
  0
LINE
  8
0
  6
BYLAYER
 62
     7
 10
714.948805
 20
-1040.008356
 30
0.0
 11
714.948805
 21
-1029.308344
 31
0.0
  0
LINE
  8
0
  6
BYLAYER
 62
     7
 10
714.948805
 20
-1027.308344
 30
0.0
 11
714.948805
 21
-1021.858362
 31
0.0
  0
LINE
  8
0
  6
BYLAYER
 62
     7
 10
703.948805
 20
-1064.858362
 30
0.0
 11
703.948805
 21
-972.858362
 31
0.0
  0
LINE
  8
0
  6
BYLAYER
 62
     7
 10
806.448805
 20
-989.208368
 30
0.0
 11
876.927473
 21
-989.208368
 31
0.0
  0
LINE
  8
0
  6
BYLAYER
 62
     7
 10
806.448805
 20
-991.208368
 30
0.0
 11
876.927473
 21
-991.208368
 31
0.0
  0
LINE
  8
0
  6
BYLAYER
 62
     7
 10
806.448805
 20
-1001.908350
 30
0.0
 11
876.927473
 21
-1001.908350
 31
0.0
  0
LINE
  8
0
  6
BYLAYER
 62
     7
 10
806.448805
 20
-1003.908350
 30
0.0
 11
876.927473
 21
-1003.908350
 31
0.0
  0
LINE
  8
0
  6
BYLAYER
 62
     7
 10
709.448805
 20
-1027.308344
 30
0.0
 11
876.927473
 21
-1027.308344
 31
0.0
  0
LINE
  8
0
  6
BYLAYER
 62
     7
 10
709.448805
 20
-1029.308344
 30
0.0
 11
876.927473
 21
-1029.308344
 31
0.0
  0
LINE
  8
0
  6
BYLAYER
 62
     7
 10
709.448805
 20
-1040.008356
 30
0.0
 11
876.927473
 21
-1040.008356
 31
0.0
  0
LINE
  8
0
  6
BYLAYER
 62
     7
 10
709.448805
 20
-1042.008356
 30
0.0
 11
876.927473
 21
-1042.008356
 31
0.0
  0
LINE
  8
0
  6
BYLAYER
 62
     7
 10
714.448805
 20
-1043.677240
 30
0.0
 11
876.927473
 21
-1043.677240
 31
0.0
  0
LINE
  8
0
  6
BYLAYER
 62
     7
 10
714.117964
 20
-1055.934900
 30
0.0
 11
876.927473
 21
-1055.934900
 31
0.0
  0
LINE
  8
0
  6
BYLAYER
 62
     7
 10
714.336043
 20
-1064.736109
 30
0.0
 11
876.927473
 21
-1064.736109
 31
0.0
  0
LINE
  8
0
  6
BYLAYER
 62
     7
 10
714.284681
 20
-1070.534815
 30
0.0
 11
876.927473
 21
-1070.534815
 31
0.0
  0
LINE
  8
0
  6
BYLAYER
 62
     7
 10
714.389265
 20
-1074.209162
 30
0.0
 11
876.927473
 21
-1074.209162
 31
0.0
  0
LINE
  8
0
  6
BYLAYER
 62
     7
 10
714.079237
 20
-1075.958399
 30
0.0
 11
876.927473
 21
-1075.958399
 31
0.0
  0
LINE
  8
0
  6
BYLAYER
 62
     7
 10
822.010542
 20
-976.508386
 30
0.0
 11
876.927473
 21
-976.508386
 31
0.0
  0
LINE
  8
0
  6
BYLAYER
 62
     7
 10
822.010542
 20
-978.508386
 30
0.0
 11
876.927473
 21
-978.508386
 31
0.0
  0
LINE
  8
0
  6
BYLAYER
 62
     7
 10
806.448805
 20
-978.508386
 30
0.0
 11
822.010542
 21
-978.508386
 31
0.0
  0
LINE
  8
0
  6
BYLAYER
 62
     7
 10
806.448805
 20
-976.508386
 30
0.0
 11
822.010542
 21
-976.508386
 31
0.0
  0
LINE
  8
0
  6
BYLAYER
 62
     7
 10
876.927473
 20
-972.858362
 30
0.0
 11
876.927473
 21
-1078.258911
 31
0.0
  0
LINE
  8
0
  6
BYLAYER
 62
     7
 10
876.927473
 20
-1078.258911
 30
0.0
 11
960.527473
 21
-1078.258911
 31
0.0
  0
LINE
  8
0
  6
BYLAYER
 62
     7
 10
981.927473
 20
-1056.858911
 30
0.0
 11
981.927473
 21
-972.858362
 31
0.0
  0
LINE
  8
0
  6
BYLAYER
 62
     7
 10
960.527473
 20
-1078.258911
 30
0.0
 11
981.927473
 21
-1056.858911
 31
0.0
  0
LINE
  8
0
  6
BYLAYER
 62
     7
 10
721.297274
 20
-1016.358362
 30
0.0
 11
757.448805
 21
-1016.358362
 31
0.0
  0
ARC
  8
0
  6
BYLAYER
 62
     7
 10
721.297274
 20
-1014.858362
 30
0.0
 40
1.5
 50
191.536959
 51
270.000000
  0
LINE
  8
0
  6
BYLAYER
 62
     7
 10
713.948805
 20
-972.858362
 30
0.0
 11
713.948805
 21
-1009.009893
 31
0.0
  0
LINE
  8
0
  6
BYLAYER
 62
     7
 10
757.448805
 20
-1016.358362
 30
0.0
 11
793.600336
 21
-1016.358362
 31
0.0
  0
LINE
  8
0
  6
BYLAYER
 62
     7
 10
800.948805
 20
-1009.009893
 30
0.0
 11
800.948805
 21
-972.858362
 31
0.0
  0
LINE
  8
0
  6
BYLAYER
 62
     7
 10
728.053503
 20
-985.459468
 30
0.0
 11
713.948805
 21
-985.952015
 31
0.0
  0
ARC
  8
0
  6
BYLAYER
 62
     7
 10
727.948805
 20
-982.461296
 30
0.0
 40
3.0
 50
272.000000
 51
360.000000
  0
LINE
  8
0
  6
BYLAYER
 62
     7
 10
728.053503
 20
-1000.459468
 30
0.0
 11
713.948805
 21
-1000.952015
 31
0.0
  0
ARC
  8
0
  6
BYLAYER
 62
     7
 10
727.948805
 20
-997.461296
 30
0.0
 40
3.0
 50
272.000000
 51
360.000000
  0
LINE
  8
0
  6
BYLAYER
 62
     7
 10
713.948805
 20
-989.764709
 30
0.0
 11
728.053503
 21
-990.257256
 31
0.0
  0
ARC
  8
0
  6
BYLAYER
 62
     7
 10
727.948805
 20
-993.255428
 30
0.0
 40
3.0
 50
0.0
 51
88.0
  0
LINE
  8
0
  6
BYLAYER
 62
     7
 10
713.948805
 20
-974.764709
 30
0.0
 11
728.053503
 21
-975.257256
 31
0.0
  0
ARC
  8
0
  6
BYLAYER
 62
     7
 10
727.948805
 20
-978.255428
 30
0.0
 40
3.0
 50
0.0
 51
88.0
  0
LINE
  8
0
  6
BYLAYER
 62
     7
 10
730.948805
 20
-993.255428
 30
0.0
 11
730.948805
 21
-997.461296
 31
0.0
  0
LINE
  8
0
  6
BYLAYER
 62
     7
 10
730.948805
 20
-978.255428
 30
0.0
 11
730.948805
 21
-982.461296
 31
0.0
  0
LINE
  8
0
  6
BYLAYER
 62
     7
 10
714.948805
 20
-974.799630
 30
0.0
 11
714.948805
 21
-985.917094
 31
0.0
  0
LINE
  8
0
  6
BYLAYER
 62
     7
 10
714.948805
 20
-989.799630
 30
0.0
 11
714.948805
 21
-1000.917094
 31
0.0
  0
LINE
  8
0
  6
BYLAYER
 62
     7
 10
786.844107
 20
-985.459468
 30
0.0
 11
800.948805
 21
-985.952015
 31
0.0
  0
ARC
  8
0
  6
BYLAYER
 62
     7
 10
786.948805
 20
-982.461296
 30
0.0
 40
3.0
 50
180.000000
 51
268.000000
  0
LINE
  8
0
  6
BYLAYER
 62
     7
 10
786.844107
 20
-1000.459468
 30
0.0
 11
800.948805
 21
-1000.952015
 31
0.0
  0
ARC
  8
0
  6
BYLAYER
 62
     7
 10
786.948805
 20
-997.461296
 30
0.0
 40
3.0
 50
180.000000
 51
268.000000
  0
LINE
  8
0
  6
BYLAYER
 62
     7
 10
800.948805
 20
-989.764709
 30
0.0
 11
786.844107
 21
-990.257256
 31
0.0
  0
ARC
  8
0
  6
BYLAYER
 62
     7
 10
786.948805
 20
-993.255428
 30
0.0
 40
3.0
 50
92.000000
 51
180.000000
  0
LINE
  8
0
  6
BYLAYER
 62
     7
 10
800.948805
 20
-974.764709
 30
0.0
 11
786.844107
 21
-975.257256
 31
0.0
  0
ARC
  8
0
  6
BYLAYER
 62
     7
 10
786.948805
 20
-978.255428
 30
0.0
 40
3.0
 50
92.000000
 51
180.000000
  0
LINE
  8
0
  6
BYLAYER
 62
     7
 10
783.948805
 20
-993.255428
 30
0.0
 11
783.948805
 21
-997.461296
 31
0.0
  0
LINE
  8
0
  6
BYLAYER
 62
     7
 10
783.948805
 20
-978.255428
 30
0.0
 11
783.948805
 21
-982.461296
 31
0.0
  0
LINE
  8
0
  6
BYLAYER
 62
     7
 10
799.948805
 20
-974.799630
 30
0.0
 11
799.948805
 21
-985.917094
 31
0.0
  0
LINE
  8
0
  6
BYLAYER
 62
     7
 10
799.948805
 20
-989.799630
 30
0.0
 11
799.948805
 21
-1000.917094
 31
0.0
  0
LINE
  8
0
  6
BYLAYER
 62
     7
 10
744.448805
 20
-1002.858362
 30
0.0
 11
770.448805
 21
-1002.858362
 31
0.0
  0
ARC
  8
0
  6
BYLAYER
 62
     7
 10
770.448805
 20
-999.858362
 30
0.0
 40
3.0
 50
270.0
 51
360.0
  0
ARC
  8
0
  6
BYLAYER
 62
     7
 10
744.448805
 20
-999.858362
 30
0.0
 40
3.0
 50
180.000000
 51
270.000000
  0
LINE
  8
0
  6
BYLAYER
 62
     7
 10
741.448805
 20
-972.858362
 30
0.0
 11
741.448805
 21
-999.858362
 31
0.0
  0
LINE
  8
0
  6
BYLAYER
 62
     7
 10
773.448805
 20
-999.858362
 30
0.0
 11
773.448805
 21
-972.858362
 31
0.0
  0
ARC
  8
0
  6
BYLAYER
 62
     7
 10
713.948805
 20
-1016.358362
 30
0.0
 40
6.0
 50
11.536959
 51
78.463041
  0
ARC
  8
0
  6
BYLAYER
 62
     7
 10
715.448805
 20
-1009.009893
 30
0.0
 40
1.5
 50
180.000000
 51
258.463041
  0
ARC
  8
0
  6
BYLAYER
 62
     7
 10
800.948805
 20
-1016.358362
 30
0.0
 40
6.0
 50
101.536959
 51
168.463041
  0
ARC
  8
0
  6
BYLAYER
 62
     7
 10
799.448805
 20
-1009.009893
 30
0.0
 40
1.500000
 50
281.536959
 51
360.000000
  0
ARC
  8
0
  6
BYLAYER
 62
     7
 10
793.600336
 20
-1014.858362
 30
0.0
 40
1.5
 50
270.0
 51
348.463041
  0
LINE
  8
0
  6
BYLAYER
 62
     7
 10
708.448805
 20
-972.858362
 30
0.0
 11
708.448805
 21
-1020.358362
 31
0.0
  0
LINE
  8
0
  6
BYLAYER
 62
     7
 10
709.948805
 20
-1021.858362
 30
0.0
 11
804.948805
 21
-1021.858362
 31
0.0
  0
ARC
  8
0
  6
BYLAYER
 62
     7
 10
709.948805
 20
-1020.358362
 30
0.0
 40
1.5
 50
180.000000
 51
270.000000
  0
LINE
  8
0
  6
BYLAYER
 62
     7
 10
806.448805
 20
-1020.358362
 30
0.0
 11
806.448805
 21
-972.858362
 31
0.0
  0
ARC
  8
0
  6
BYLAYER
 62
     7
 10
804.948805
 20
-1020.358362
 30
0.0
 40
1.5
 50
270.0
 51
360.0
  0
ARC
  8
0
  6
BYLAYER
 62
     7
 10
709.448805
 20
-917.408380
 30
0.0
 40
1.000000
 50
90.0
 51
180.000009
  0
ARC
  8
0
  6
BYLAYER
 62
     7
 10
709.448805
 20
-917.408380
 30
0.0
 40
1.000000
 50
180.000000
 51
269.999989
  0
ARC
  8
0
  6
BYLAYER
 62
     7
 10
709.448805
 20
-904.708368
 30
0.0
 40
1.000000
 50
90.0
 51
180.000009
  0
ARC
  8
0
  6
BYLAYER
 62
     7
 10
709.448805
 20
-904.708368
 30
0.0
 40
1.000000
 50
180.000000
 51
269.999989
  0
LINE
  8
0
  6
BYLAYER
 62
     7
 10
806.448805
 20
-931.108362
 30
0.0
 11
876.927473
 21
-931.108362
 31
0.0
  0
LINE
  8
0
  6
BYLAYER
 62
     7
 10
806.448805
 20
-929.108362
 30
0.0
 11
876.927473
 21
-929.108362
 31
0.0
  0
LINE
  8
0
  6
BYLAYER
 62
     7
 10
714.448805
 20
-902.039484
 30
0.0
 11
708.448805
 21
-899.419092
 31
0.0
  0
LINE
  8
0
  6
BYLAYER
 62
     7
 10
708.448805
 20
-880.858362
 30
0.0
 11
708.448805
 21
-972.858362
 31
0.0
  0
LINE
  8
0
  6
BYLAYER
 62
     7
 10
703.948805
 20
-880.858362
 30
0.0
 11
708.448805
 21
-880.858362
 31
0.0
  0
LINE
  8
0
  6
BYLAYER
 62
     7
 10
708.448805
 20
-899.419092
 30
0.0
 11
711.808943
 21
-891.323450
 31
0.0
  0
ARC
  8
0
  6
BYLAYER
 62
     7
 10
714.117964
 20
-892.281824
 30
0.0
 40
2.500012
 50
90.0
 51
157.458787
  0
LINE
  8
0
  6
BYLAYER
 62
     7
 10
708.448805
 20
-895.020654
 30
0.0
 11
711.931715
 21
-882.795618
 31
0.0
  0
ARC
  8
0
  6
BYLAYER
 62
     7
 10
714.336043
 20
-883.480615
 30
0.0
 40
2.500002
 50
90.0
 51
164.097649
  0
LINE
  8
0
  6
BYLAYER
 62
     7
 10
708.448805
 20
-887.933038
 30
0.0
 11
711.899305
 21
-876.933618
 31
0.0
  0
ARC
  8
0
  6
BYLAYER
 62
     7
 10
714.284681
 20
-877.681909
 30
0.0
 40
2.499992
 50
90.0
 51
162.583396
  0
ARC
  8
0
  6
BYLAYER
 62
     7
 10
714.389265
 20
-874.007562
 30
0.0
 40
2.499992
 50
90.0
 51
162.583396
  0
LINE
  8
0
  6
BYLAYER
 62
     7
 10
708.448805
 20
-880.858362
 30
0.0
 11
711.717390
 21
-871.438776
 31
0.0
  0
ARC
  8
0
  6
BYLAYER
 62
     7
 10
714.079237
 20
-872.258325
 30
0.0
 40
2.499996
 50
90.0
 51
160.863473
  0
LINE
  8
0
  6
BYLAYER
 62
     7
 10
712.003889
 20
-873.259271
 30
0.0
 11
708.448805
 21
-884.592065
 31
0.0
  0
ARC
  8
0
  6
BYLAYER
 62
     7
 10
713.448805
 20
-917.408380
 30
0.0
 40
1.0
 50
90.0
 51
180.000009
  0
ARC
  8
0
  6
BYLAYER
 62
     7
 10
713.448805
 20
-917.408380
 30
0.0
 40
1.000000
 50
180.000000
 51
269.999989
  0
ARC
  8
0
  6
BYLAYER
 62
     7
 10
713.448805
 20
-904.708368
 30
0.0
 40
1.0
 50
90.0
 51
180.000009
  0
ARC
  8
0
  6
BYLAYER
 62
     7
 10
713.448805
 20
-904.708368
 30
0.0
 40
1.000000
 50
180.000000
 51
269.999989
  0
LINE
  8
0
  6
BYLAYER
 62
     7
 10
714.948805
 20
-905.708368
 30
0.0
 11
714.948805
 21
-916.408380
 31
0.0
  0
LINE
  8
0
  6
BYLAYER
 62
     7
 10
714.948805
 20
-918.408380
 30
0.0
 11
714.948805
 21
-923.858362
 31
0.0
  0
LINE
  8
0
  6
BYLAYER
 62
     7
 10
703.948805
 20
-880.858362
 30
0.0
 11
703.948805
 21
-972.858362
 31
0.0
  0
LINE
  8
0
  6
BYLAYER
 62
     7
 10
806.448805
 20
-956.508356
 30
0.0
 11
876.927473
 21
-956.508356
 31
0.0
  0
LINE
  8
0
  6
BYLAYER
 62
     7
 10
806.448805
 20
-954.508356
 30
0.0
 11
876.927473
 21
-954.508356
 31
0.0
  0
LINE
  8
0
  6
BYLAYER
 62
     7
 10
806.448805
 20
-943.808374
 30
0.0
 11
876.927473
 21
-943.808374
 31
0.0
  0
LINE
  8
0
  6
BYLAYER
 62
     7
 10
806.448805
 20
-941.808374
 30
0.0
 11
876.927473
 21
-941.808374
 31
0.0
  0
LINE
  8
0
  6
BYLAYER
 62
     7
 10
709.448805
 20
-918.408380
 30
0.0
 11
876.927473
 21
-918.408380
 31
0.0
  0
LINE
  8
0
  6
BYLAYER
 62
     7
 10
709.448805
 20
-916.408380
 30
0.0
 11
876.927473
 21
-916.408380
 31
0.0
  0
LINE
  8
0
  6
BYLAYER
 62
     7
 10
709.448805
 20
-905.708368
 30
0.0
 11
876.927473
 21
-905.708368
 31
0.0
  0
LINE
  8
0
  6
BYLAYER
 62
     7
 10
709.448805
 20
-903.708368
 30
0.0
 11
876.927473
 21
-903.708368
 31
0.0
  0
LINE
  8
0
  6
BYLAYER
 62
     7
 10
714.448805
 20
-902.039484
 30
0.0
 11
876.927473
 21
-902.039484
 31
0.0
  0
LINE
  8
0
  6
BYLAYER
 62
     7
 10
714.117964
 20
-889.781824
 30
0.0
 11
876.927473
 21
-889.781824
 31
0.0
  0
LINE
  8
0
  6
BYLAYER
 62
     7
 10
714.336043
 20
-880.980615
 30
0.0
 11
876.927473
 21
-880.980615
 31
0.0
  0
LINE
  8
0
  6
BYLAYER
 62
     7
 10
714.284681
 20
-875.181909
 30
0.0
 11
876.927473
 21
-875.181909
 31
0.0
  0
LINE
  8
0
  6
BYLAYER
 62
     7
 10
714.389265
 20
-871.507562
 30
0.0
 11
876.927473
 21
-871.507562
 31
0.0
  0
LINE
  8
0
  6
BYLAYER
 62
     7
 10
714.079237
 20
-869.758325
 30
0.0
 11
876.927473
 21
-869.758325
 31
0.0
  0
LINE
  8
0
  6
BYLAYER
 62
     7
 10
822.010542
 20
-969.208338
 30
0.0
 11
876.927473
 21
-969.208338
 31
0.0
  0
LINE
  8
0
  6
BYLAYER
 62
     7
 10
822.010542
 20
-967.208338
 30
0.0
 11
876.927473
 21
-967.208338
 31
0.0
  0
LINE
  8
0
  6
BYLAYER
 62
     7
 10
806.448805
 20
-967.208338
 30
0.0
 11
822.010542
 21
-967.208338
 31
0.0
  0
LINE
  8
0
  6
BYLAYER
 62
     7
 10
806.448805
 20
-969.208338
 30
0.0
 11
822.010542
 21
-969.208338
 31
0.0
  0
LINE
  8
0
  6
BYLAYER
 62
     7
 10
876.927473
 20
-972.858362
 30
0.0
 11
876.927473
 21
-867.457813
 31
0.0
  0
LINE
  8
0
  6
BYLAYER
 62
     7
 10
876.927473
 20
-867.457813
 30
0.0
 11
960.527473
 21
-867.457813
 31
0.0
  0
LINE
  8
0
  6
BYLAYER
 62
     7
 10
981.927473
 20
-888.857813
 30
0.0
 11
981.927473
 21
-972.858362
 31
0.0
  0
LINE
  8
0
  6
BYLAYER
 62
     7
 10
960.527473
 20
-867.457813
 30
0.0
 11
981.927473
 21
-888.857813
 31
0.0
  0
LINE
  8
0
  6
BYLAYER
 62
     7
 10
721.297274
 20
-929.358362
 30
0.0
 11
757.448805
 21
-929.358362
 31
0.0
  0
ARC
  8
0
  6
BYLAYER
 62
     7
 10
721.297274
 20
-930.858362
 30
0.0
 40
1.5
 50
90.0
 51
168.463041
  0
LINE
  8
0
  6
BYLAYER
 62
     7
 10
713.948805
 20
-972.858362
 30
0.0
 11
713.948805
 21
-936.706831
 31
0.0
  0
LINE
  8
0
  6
BYLAYER
 62
     7
 10
757.448805
 20
-929.358362
 30
0.0
 11
793.600336
 21
-929.358362
 31
0.0
  0
LINE
  8
0
  6
BYLAYER
 62
     7
 10
800.948805
 20
-936.706831
 30
0.0
 11
800.948805
 21
-972.858362
 31
0.0
  0
LINE
  8
0
  6
BYLAYER
 62
     7
 10
728.053503
 20
-960.257256
 30
0.0
 11
713.948805
 21
-959.764709
 31
0.0
  0
ARC
  8
0
  6
BYLAYER
 62
     7
 10
727.948805
 20
-963.255428
 30
0.0
 40
3.0
 50
0.0
 51
88.0
  0
LINE
  8
0
  6
BYLAYER
 62
     7
 10
728.053503
 20
-945.257256
 30
0.0
 11
713.948805
 21
-944.764709
 31
0.0
  0
ARC
  8
0
  6
BYLAYER
 62
     7
 10
727.948805
 20
-948.255428
 30
0.0
 40
3.0
 50
0.0
 51
88.0
  0
LINE
  8
0
  6
BYLAYER
 62
     7
 10
713.948805
 20
-955.952015
 30
0.0
 11
728.053503
 21
-955.459468
 31
0.0
  0
ARC
  8
0
  6
BYLAYER
 62
     7
 10
727.948805
 20
-952.461296
 30
0.0
 40
3.0
 50
272.000000
 51
360.000000
  0
LINE
  8
0
  6
BYLAYER
 62
     7
 10
713.948805
 20
-970.952015
 30
0.0
 11
728.053503
 21
-970.459468
 31
0.0
  0
ARC
  8
0
  6
BYLAYER
 62
     7
 10
727.948805
 20
-967.461296
 30
0.0
 40
3.0
 50
272.000000
 51
360.000000
  0
LINE
  8
0
  6
BYLAYER
 62
     7
 10
730.948805
 20
-952.461296
 30
0.0
 11
730.948805
 21
-948.255428
 31
0.0
  0
LINE
  8
0
  6
BYLAYER
 62
     7
 10
730.948805
 20
-967.461296
 30
0.0
 11
730.948805
 21
-963.255428
 31
0.0
  0
LINE
  8
0
  6
BYLAYER
 62
     7
 10
714.948805
 20
-970.917094
 30
0.0
 11
714.948805
 21
-959.799630
 31
0.0
  0
LINE
  8
0
  6
BYLAYER
 62
     7
 10
714.948805
 20
-955.917094
 30
0.0
 11
714.948805
 21
-944.799630
 31
0.0
  0
LINE
  8
0
  6
BYLAYER
 62
     7
 10
786.844107
 20
-960.257256
 30
0.0
 11
800.948805
 21
-959.764709
 31
0.0
  0
ARC
  8
0
  6
BYLAYER
 62
     7
 10
786.948805
 20
-963.255428
 30
0.0
 40
3.0
 50
92.000000
 51
180.000000
  0
LINE
  8
0
  6
BYLAYER
 62
     7
 10
786.844107
 20
-945.257256
 30
0.0
 11
800.948805
 21
-944.764709
 31
0.0
  0
ARC
  8
0
  6
BYLAYER
 62
     7
 10
786.948805
 20
-948.255428
 30
0.0
 40
3.0
 50
92.000000
 51
180.000000
  0
LINE
  8
0
  6
BYLAYER
 62
     7
 10
800.948805
 20
-955.952015
 30
0.0
 11
786.844107
 21
-955.459468
 31
0.0
  0
ARC
  8
0
  6
BYLAYER
 62
     7
 10
786.948805
 20
-952.461296
 30
0.0
 40
3.0
 50
180.000000
 51
268.000000
  0
LINE
  8
0
  6
BYLAYER
 62
     7
 10
800.948805
 20
-970.952015
 30
0.0
 11
786.844107
 21
-970.459468
 31
0.0
  0
ARC
  8
0
  6
BYLAYER
 62
     7
 10
786.948805
 20
-967.461296
 30
0.0
 40
3.0
 50
180.000000
 51
268.000000
  0
LINE
  8
0
  6
BYLAYER
 62
     7
 10
783.948805
 20
-952.461296
 30
0.0
 11
783.948805
 21
-948.255428
 31
0.0
  0
LINE
  8
0
  6
BYLAYER
 62
     7
 10
783.948805
 20
-967.461296
 30
0.0
 11
783.948805
 21
-963.255428
 31
0.0
  0
LINE
  8
0
  6
BYLAYER
 62
     7
 10
799.948805
 20
-970.917094
 30
0.0
 11
799.948805
 21
-959.799630
 31
0.0
  0
LINE
  8
0
  6
BYLAYER
 62
     7
 10
799.948805
 20
-955.917094
 30
0.0
 11
799.948805
 21
-944.799630
 31
0.0
  0
LINE
  8
0
  6
BYLAYER
 62
     7
 10
744.448805
 20
-942.858362
 30
0.0
 11
770.448805
 21
-942.858362
 31
0.0
  0
ARC
  8
0
  6
BYLAYER
 62
     7
 10
770.448805
 20
-945.858362
 30
0.0
 40
3.0
 50
0.0
 51
90.0
  0
ARC
  8
0
  6
BYLAYER
 62
     7
 10
744.448805
 20
-945.858362
 30
0.0
 40
3.0
 50
90.0
 51
180.0
  0
LINE
  8
0
  6
BYLAYER
 62
     7
 10
741.448805
 20
-972.858362
 30
0.0
 11
741.448805
 21
-945.858362
 31
0.0
  0
LINE
  8
0
  6
BYLAYER
 62
     7
 10
773.448805
 20
-945.858362
 30
0.0
 11
773.448805
 21
-972.858362
 31
0.0
  0
ARC
  8
0
  6
BYLAYER
 62
     7
 10
713.948805
 20
-929.358362
 30
0.0
 40
6.000000
 50
281.536959
 51
348.463041
  0
ARC
  8
0
  6
BYLAYER
 62
     7
 10
715.448805
 20
-936.706831
 30
0.0
 40
1.500000
 50
101.536959
 51
180.000000
  0
ARC
  8
0
  6
BYLAYER
 62
     7
 10
800.948805
 20
-929.358362
 30
0.0
 40
6.000000
 50
191.536959
 51
258.463041
  0
ARC
  8
0
  6
BYLAYER
 62
     7
 10
799.448805
 20
-936.706831
 30
0.0
 40
1.5
 50
0.0
 51
78.463041
  0
ARC
  8
0
  6
BYLAYER
 62
     7
 10
793.600336
 20
-930.858362
 30
0.0
 40
1.5
 50
11.536959
 51
90.000000
  0
LINE
  8
0
  6
BYLAYER
 62
     7
 10
708.448805
 20
-972.858362
 30
0.0
 11
708.448805
 21
-925.358362
 31
0.0
  0
LINE
  8
0
  6
BYLAYER
 62
     7
 10
709.948805
 20
-923.858362
 30
0.0
 11
804.948805
 21
-923.858362
 31
0.0
  0
ARC
  8
0
  6
BYLAYER
 62
     7
 10
709.948805
 20
-925.358362
 30
0.0
 40
1.5
 50
90.0
 51
180.0
  0
LINE
  8
0
  6
BYLAYER
 62
     7
 10
806.448805
 20
-925.358362
 30
0.0
 11
806.448805
 21
-972.858362
 31
0.0
  0
ARC
  8
0
  6
BYLAYER
 62
     7
 10
804.948805
 20
-925.358362
 30
0.0
 40
1.5
 50
0.0
 51
90.0
  0
LINE
  8
0
  6
BYLAYER
 62
     7
 10
960.527473
 20
-1078.258911
 30
0.0
 11
960.527473
 21
-867.457813
 31
0.0
  0
LINE
  8
0
  6
BYLAYER
 62
     1
 10
357.296525
 20
-472.858362
 30
0.0
 11
282.448805
 21
-472.858362
 31
0.0
  0
LINE
  8
0
  6
BYLAYER
 62
     1
 10
282.448805
 20
-472.858362
 30
0.0
 11
277.448805
 21
-467.858362
 31
0.0
  0
LINE
  8
0
  6
BYLAYER
 62
     1
 10
612.448805
 20
-472.858362
 30
0.0
 11
537.601085
 21
-472.858362
 31
0.0
  0
LINE
  8
0
  6
BYLAYER
 62
     1
 10
612.448805
 20
-472.858362
 30
0.0
 11
616.570125
 21
-468.737042
 31
0.0
  0
LINE
  8
0
  6
BYLAYER
 62
     1
 10
277.448805
 20
-393.010642
 30
0.0
 11
277.448805
 21
-467.858362
 31
0.0
  0
LINE
  8
0
  6
BYLAYER
 62
     1
 10
558.448805
 20
-472.858362
 30
0.0
 11
558.448805
 21
-454.858362
 31
0.0
  0
LINE
  8
0
  6
BYLAYER
 62
     1
 10
576.448805
 20
-472.858362
 30
0.0
 11
576.448805
 21
-454.858362
 31
0.0
  0
LINE
  8
0
  6
BYLAYER
 62
     1
 10
318.448805
 20
-454.858362
 30
0.0
 11
318.448805
 21
-472.858362
 31
0.0
  0
LINE
  8
0
  6
BYLAYER
 62
     1
 10
336.448805
 20
-454.858362
 30
0.0
 11
336.448805
 21
-472.858362
 31
0.0
  0
LINE
  8
0
  6
BYLAYER
 62
     1
 10
402.227129
 20
-454.858362
 30
0.0
 11
300.448805
 21
-454.858362
 31
0.0
  0
LINE
  8
0
  6
BYLAYER
 62
     1
 10
594.448805
 20
-454.858362
 30
0.0
 11
492.670481
 21
-454.858362
 31
0.0
  0
ARC
  8
0
  6
BYLAYER
 62
     1
 10
594.448805
 20
-449.858362
 30
0.0
 40
5.0
 50
270.0
 51
360.0
  0
ARC
  8
0
  6
BYLAYER
 62
     1
 10
300.448805
 20
-449.858362
 30
0.0
 40
5.0
 50
180.000000
 51
270.000000
  0
LINE
  8
0
  6
BYLAYER
 62
     1
 10
277.448805
 20
-413.858362
 30
0.0
 11
295.448805
 21
-413.858362
 31
0.0
  0
LINE
  8
0
  6
BYLAYER
 62
     1
 10
277.448805
 20
-431.858362
 30
0.0
 11
295.448805
 21
-431.858362
 31
0.0
  0
LINE
  8
0
  6
BYLAYER
 62
     1
 10
617.448805
 20
-394.253283
 30
0.0
 11
617.448805
 21
-466.615721
 31
0.0
  0
ARC
  8
0
  6
BYLAYER
 62
     1
 10
614.448805
 20
-466.615721
 30
0.0
 40
3.000000
 50
315.000000
 51
360.000000
  0
LINE
  8
0
  6
BYLAYER
 62
     1
 10
411.490496
 20
-466.858362
 30
0.0
 11
364.546194
 21
-466.858362
 31
0.0
  0
LINE
  8
0
  6
BYLAYER
 62
     1
 10
530.351416
 20
-466.858362
 30
0.0
 11
483.407114
 21
-466.858362
 31
0.0
  0
LINE
  8
0
  6
BYLAYER
 62
     1
 10
352.448805
 20
-472.858362
 30
0.0
 11
358.496439
 21
-466.810728
 31
0.0
  0
ARC
  8
0
  6
BYLAYER
 62
     1
 10
357.789332
 20
-466.103621
 30
0.0
 40
1.0
 50
315.000000
 51
360.000000
  0
LINE
  8
0
  6
BYLAYER
 62
     1
 10
283.448805
 20
-338.816671
 30
0.0
 11
283.448805
 21
-385.768002
 31
0.0
  0
LINE
  8
0
  6
BYLAYER
 62
     1
 10
277.448805
 20
-397.858362
 30
0.0
 11
283.155912
 21
-392.151255
 31
0.0
  0
ARC
  8
0
  6
BYLAYER
 62
     1
 10
283.863019
 20
-392.858362
 30
0.0
 40
1.0
 50
90.0
 51
135.0
  0
LINE
  8
0
  6
BYLAYER
 62
     1
 10
611.448805
 20
-266.900053
 30
0.0
 11
611.448805
 21
-236.019702
 31
0.0
  0
ARC
  8
0
  6
BYLAYER
 62
     1
 10
614.448805
 20
-236.019702
 30
0.0
 40
3.0
 50
93.000000
 51
180.000000
  0
LINE
  8
0
  6
BYLAYER
 62
     1
 10
611.448805
 20
-387.010642
 30
0.0
 11
611.448805
 21
-338.816671
 31
0.0
  0
LINE
  8
0
  6
BYLAYER
 62
     1
 10
617.448805
 20
-232.858362
 30
0.0
 11
614.291797
 21
-233.023814
 31
0.0
  0
LINE
  8
0
  6
BYLAYER
 62
     1
 10
617.448805
 20
-77.858362
 30
0.0
 11
617.448805
 21
-232.858362
 31
0.0
  0
LINE
  8
0
  6
BYLAYER
 62
     1
 10
617.448805
 20
-77.858362
 30
0.0
 11
612.448805
 21
-72.858362
 31
0.0
  0
LINE
  8
0
  6
BYLAYER
 62
     1
 10
277.448805
 20
-77.858362
 30
0.0
 11
282.448805
 21
-72.858362
 31
0.0
  0
LINE
  8
0
  6
BYLAYER
 62
     1
 10
599.448805
 20
-257.636686
 30
0.0
 11
599.448805
 21
-213.858362
 31
0.0
  0
LINE
  8
0
  6
BYLAYER
 62
     1
 10
599.448805
 20
-205.858362
 30
0.0
 11
599.448805
 21
-197.858362
 31
0.0
  0
LINE
  8
0
  6
BYLAYER
 62
     1
 10
599.448805
 20
-189.858362
 30
0.0
 11
599.448805
 21
-181.858362
 31
0.0
  0
LINE
  8
0
  6
BYLAYER
 62
     1
 10
599.448805
 20
-173.858362
 30
0.0
 11
599.448805
 21
-95.858362
 31
0.0
  0
ARC
  8
0
  6
BYLAYER
 62
     1
 10
596.448805
 20
-137.963313
 30
0.0
 40
3.0
 50
273.000000
 51
360.000000
  0
ARC
  8
0
  6
BYLAYER
 62
     1
 10
596.448805
 20
-167.858362
 30
0.0
 40
3.0
 50
270.0
 51
360.0
  0
ARC
  8
0
  6
BYLAYER
 62
     1
 10
594.448805
 20
-95.858362
 30
0.0
 40
5.0
 50
0.0
 51
90.0
  0
LINE
  8
0
  6
BYLAYER
 62
     1
 10
599.448805
 20
-449.858362
 30
0.0
 11
599.448805
 21
-348.080038
 31
0.0
  0
LINE
  8
0
  6
BYLAYER
 62
     1
 10
295.448805
 20
-449.858362
 30
0.0
 11
295.448805
 21
-348.080038
 31
0.0
  0
ARC
  8
0
  6
BYLAYER
 62
     1
 10
305.448805
 20
-384.858362
 30
0.0
 40
10.000000
 50
90.0
 51
180.0
  0
LINE
  8
0
  6
BYLAYER
 62
     1
 10
295.448805
 20
-257.636686
 30
0.0
 11
295.448805
 21
-213.858362
 31
0.0
  0
LINE
  8
0
  6
BYLAYER
 62
     1
 10
295.448805
 20
-205.858362
 30
0.0
 11
295.448805
 21
-197.858362
 31
0.0
  0
LINE
  8
0
  6
BYLAYER
 62
     1
 10
295.448805
 20
-189.858362
 30
0.0
 11
295.448805
 21
-181.858362
 31
0.0
  0
LINE
  8
0
  6
BYLAYER
 62
     1
 10
295.448805
 20
-173.858362
 30
0.0
 11
295.448805
 21
-95.858362
 31
0.0
  0
ARC
  8
0
  6
BYLAYER
 62
     1
 10
300.448805
 20
-95.858362
 30
0.0
 40
5.0
 50
90.0
 51
180.0
  0
LINE
  8
0
  6
BYLAYER
 62
     1
 10
558.448805
 20
-72.858362
 30
0.0
 11
558.448805
 21
-90.858362
 31
0.0
  0
LINE
  8
0
  6
BYLAYER
 62
     1
 10
576.448805
 20
-72.858362
 30
0.0
 11
576.448805
 21
-90.858362
 31
0.0
  0
LINE
  8
0
  6
BYLAYER
 62
     1
 10
318.448805
 20
-90.858362
 30
0.0
 11
318.448805
 21
-72.858362
 31
0.0
  0
LINE
  8
0
  6
BYLAYER
 62
     1
 10
336.448805
 20
-90.858362
 30
0.0
 11
336.448805
 21
-72.858362
 31
0.0
  0
LINE
  8
0
  6
BYLAYER
 62
     1
 10
612.448805
 20
-72.858362
 30
0.0
 11
537.601085
 21
-72.858362
 31
0.0
  0
LINE
  8
0
  6
BYLAYER
 62
     1
 10
399.448805
 20
-90.858362
 30
0.0
 11
300.448805
 21
-90.858362
 31
0.0
  0
LINE
  8
0
  6
BYLAYER
 62
     1
 10
594.448805
 20
-90.858362
 30
0.0
 11
529.448805
 21
-90.858362
 31
0.0
  0
LINE
  8
0
  6
BYLAYER
 62
     1
 10
530.351416
 20
-78.858362
 30
0.0
 11
364.546194
 21
-78.858362
 31
0.0
  0
ARC
  8
0
  6
BYLAYER
 62
     1
 10
364.546194
 20
-75.858362
 30
0.0
 40
3.0
 50
225.039288
 51
270.0
  0
LINE
  8
0
  6
BYLAYER
 62
     1
 10
357.296525
 20
-72.858362
 30
0.0
 11
282.448805
 21
-72.858362
 31
0.0
  0
ARC
  8
0
  6
BYLAYER
 62
     1
 10
365.448805
 20
-160.858362
 30
0.0
 40
10.000000
 50
270.0
 51
360.0
  0
LINE
  8
0
  6
BYLAYER
 62
     1
 10
365.448805
 20
-170.858362
 30
0.0
 11
305.448805
 21
-170.858362
 31
0.0
  0
ARC
  8
0
  6
BYLAYER
 62
     1
 10
305.448805
 20
-160.858362
 30
0.0
 40
10.000000
 50
180.000000
 51
270.000000
  0
LINE
  8
0
  6
BYLAYER
 62
     1
 10
529.448805
 20
-170.858362
 30
0.0
 11
596.448805
 21
-170.858362
 31
0.0
  0
LINE
  8
0
  6
BYLAYER
 62
     1
 10
311.559411
 20
-374.858362
 30
0.0
 11
305.448805
 21
-374.858362
 31
0.0
  0
LINE
  8
0
  6
BYLAYER
 62
     1
 10
375.448805
 20
-444.858362
 30
0.0
 11
375.448805
 21
-438.747756
 31
0.0
  0
ARC
  8
0
  6
BYLAYER
 62
     1
 10
365.448805
 20
-444.858362
 30
0.0
 40
10.000000
 50
270.0
 51
360.0
  0
ARC
  8
0
  6
BYLAYER
 62
     1
 10
589.448805
 20
-384.858362
 30
0.0
 40
10.000000
 50
0.0
 51
90.0
  0
LINE
  8
0
  6
BYLAYER
 62
     1
 10
583.338199
 20
-374.858362
 30
0.0
 11
589.448805
 21
-374.858362
 31
0.0
  0
LINE
  8
0
  6
BYLAYER
 62
     1
 10
519.448805
 20
-444.858362
 30
0.0
 11
519.448805
 21
-438.747756
 31
0.0
  0
ARC
  8
0
  6
BYLAYER
 62
     1
 10
529.448805
 20
-444.858362
 30
0.0
 40
10.000000
 50
180.000000
 51
270.000000
  0
LINE
  8
0
  6
BYLAYER
 62
     1
 10
277.448805
 20
-131.858362
 30
0.0
 11
295.448805
 21
-131.858362
 31
0.0
  0
LINE
  8
0
  6
BYLAYER
 62
     1
 10
277.448805
 20
-113.858362
 30
0.0
 11
295.448805
 21
-113.858362
 31
0.0
  0
LINE
  8
0
  6
BYLAYER
 62
     1
 10
277.448805
 20
-147.858362
 30
0.0
 11
295.448805
 21
-147.858362
 31
0.0
  0
LINE
  8
0
  6
BYLAYER
 62
     1
 10
277.448805
 20
-397.858362
 30
0.0
 11
295.448805
 21
-397.858362
 31
0.0
  0
LINE
  8
0
  6
BYLAYER
 62
     1
 10
617.448805
 20
-147.858362
 30
0.0
 11
599.448805
 21
-147.858362
 31
0.0
  0
LINE
  8
0
  6
BYLAYER
 62
     1
 10
613.949344
 20
-397.858362
 30
0.0
 11
599.448805
 21
-397.858362
 31
0.0
  0
LINE
  8
0
  6
BYLAYER
 62
     1
 10
352.448805
 20
-72.858362
 30
0.0
 11
352.448805
 21
-90.858362
 31
0.0
  0
LINE
  8
0
  6
BYLAYER
 62
     1
 10
542.448805
 20
-72.858362
 30
0.0
 11
542.448805
 21
-90.858362
 31
0.0
  0
LINE
  8
0
  6
BYLAYER
 62
     1
 10
542.448805
 20
-472.858362
 30
0.0
 11
542.448805
 21
-454.858362
 31
0.0
  0
LINE
  8
0
  6
BYLAYER
 62
     1
 10
352.448805
 20
-472.858362
 30
0.0
 11
352.448805
 21
-454.858362
 31
0.0
  0
ARC
  8
0
  6
BYLAYER
 62
     1
 10
529.448805
 20
-160.858362
 30
0.0
 40
10.000000
 50
180.000000
 51
270.000000
  0
ARC
  8
0
  6
BYLAYER
 62
     1
 10
529.448805
 20
-100.858362
 30
0.0
 40
10.000000
 50
90.0
 51
180.0
  0
LINE
  8
0
  6
BYLAYER
 62
     1
 10
519.448805
 20
-100.858362
 30
0.0
 11
519.448805
 21
-160.858362
 31
0.0
  0
ARC
  8
0
  6
BYLAYER
 62
     1
 10
522.448805
 20
-145.002629
 30
0.0
 40
3.000000
 50
180.000000
 51
260.000000
  0
ARC
  8
0
  6
BYLAYER
 62
     1
 10
447.448805
 20
-252.858362
 30
0.0
 40
217.000000
 50
260.461721
 51
279.538279
  0
ARC
  8
0
  6
BYLAYER
 62
     1
 10
397.448805
 20
-302.858362
 30
0.0
 40
217.000000
 50
350.461721
 51
369.538279
  0
LINE
  8
0
  6
BYLAYER
 62
     1
 10
288.242805
 20
-160.358362
 30
0.0
 11
295.448805
 21
-160.358362
 31
0.0
  0
LINE
  8
0
  6
BYLAYER
 62
     1
 10
295.448805
 20
-385.358362
 30
0.0
 11
288.242805
 21
-385.358362
 31
0.0
  0
LINE
  8
0
  6
BYLAYER
 62
     1
 10
606.654805
 20
-385.358362
 30
0.0
 11
599.448805
 21
-385.358362
 31
0.0
  0
LINE
  8
0
  6
BYLAYER
 62
     1
 10
283.448805
 20
-213.519702
 30
0.0
 11
283.448805
 21
-266.900053
 31
0.0
  0
LINE
  8
0
  6
BYLAYER
 62
     1
 10
277.448805
 20
-210.358362
 30
0.0
 11
280.605813
 21
-210.523814
 31
0.0
  0
ARC
  8
0
  6
BYLAYER
 62
     1
 10
280.448805
 20
-213.519702
 30
0.0
 40
3.0
 50
0.0
 51
87.0
  0
LINE
  8
0
  6
BYLAYER
 62
     1
 10
277.448805
 20
-77.858362
 30
0.0
 11
277.448805
 21
-210.358362
 31
0.0
  0
ARC
  8
0
  6
BYLAYER
 62
     1
 10
399.448805
 20
-93.858362
 30
0.0
 40
3.0
 50
0.0
 51
90.0
  0
CIRCLE
  8
0
  6
BYLAYER
 62
     1
 10
497.448805
 20
-106.858362
 30
0.0
 40
15.0
  0
ARC
  8
0
  6
BYLAYER
 62
     1
 10
607.654805
 20
-240.631722
 30
0.0
 40
1.000000
 50
180.000000
 51
270.000000
  0
ARC
  8
0
  6
BYLAYER
 62
     1
 10
607.654805
 20
-242.631722
 30
0.0
 40
1.000000
 50
0.0
 51
90.0
  0
LINE
  8
0
  6
BYLAYER
 62
     1
 10
610.409398
 20
-314.085002
 30
0.0
 11
610.303938
 21
-314.085002
 31
0.0
  0
ARC
  8
0
  6
BYLAYER
 62
     1
 10
610.409398
 20
-313.085002
 30
0.0
 40
1.000000
 50
270.0
 51
357.250695
  0
ARC
  8
0
  6
BYLAYER
 62
     1
 10
610.303938
 20
-315.085002
 30
0.0
 40
1.000000
 50
90.0
 51
176.712478
  0
ARC
  8
0
  6
BYLAYER
 62
     1
 10
607.654805
 20
-340.631722
 30
0.0
 40
1.000000
 50
180.000000
 51
270.000000
  0
ARC
  8
0
  6
BYLAYER
 62
     1
 10
607.654805
 20
-342.631722
 30
0.0
 40
1.000000
 50
0.0
 51
90.0
  0
ARC
  8
0
  6
BYLAYER
 62
     1
 10
607.654805
 20
-365.085002
 30
0.0
 40
1.000000
 50
90.0
 51
180.0
  0
LINE
  8
0
  6
BYLAYER
 62
     1
 10
609.169805
 20
-231.836916
 30
0.0
 11
609.169805
 21
-216.681875
 31
0.0
  0
ARC
  8
0
  6
BYLAYER
 62
     1
 10
610.169805
 20
-231.836916
 30
0.0
 40
1.000000
 50
180.000000
 51
273.000000
  0
ARC
  8
0
  6
BYLAYER
 62
     1
 10
610.169805
 20
-216.681875
 30
0.0
 40
1.0
 50
102.511107
 51
180.000000
  0
ARC
  8
0
  6
BYLAYER
 62
     1
 10
609.736547
 20
-214.729367
 30
0.0
 40
1.000000
 50
282.511107
 51
362.209270
  0
LINE
  8
0
  6
BYLAYER
 62
     1
 10
608.654805
 20
-213.085002
 30
0.0
 11
608.654805
 21
-163.358362
 31
0.0
  0
ARC
  8
0
  6
BYLAYER
 62
     1
 10
607.654805
 20
-213.085002
 30
0.0
 40
1.000000
 50
270.0
 51
360.0
  0
LINE
  8
0
  6
BYLAYER
 62
     1
 10
608.654805
 20
-263.085002
 30
0.0
 11
608.654805
 21
-242.631722
 31
0.0
  0
LINE
  8
0
  6
BYLAYER
 62
     1
 10
608.654805
 20
-363.085002
 30
0.0
 11
608.654805
 21
-342.631722
 31
0.0
  0
ARC
  8
0
  6
BYLAYER
 62
     1
 10
607.654805
 20
-363.085002
 30
0.0
 40
1.000000
 50
270.0
 51
360.0
  0
LINE
  8
0
  6
BYLAYER
 62
     1
 10
606.654805
 20
-338.414459
 30
0.0
 11
606.654805
 21
-340.631722
 31
0.0
  0
ARC
  8
0
  6
BYLAYER
 62
     1
 10
397.448805
 20
-302.858362
 30
0.0
 40
212.206000
 50
350.354330
 51
356.712478
  0
LINE
  8
0
  6
BYLAYER
 62
     1
 10
606.654805
 20
-240.631722
 30
0.0
 11
606.654805
 21
-215.085002
 31
0.0
  0
ARC
  8
0
  6
BYLAYER
 62
     1
 10
607.654805
 20
-215.085002
 30
0.0
 40
1.000000
 50
90.0
 51
180.0
  0
LINE
  8
0
  6
BYLAYER
 62
     1
 10
606.654805
 20
-365.085002
 30
0.0
 11
606.654805
 21
-389.880148
 31
0.0
  0
ARC
  8
0
  6
BYLAYER
 62
     1
 10
397.448805
 20
-302.858362
 30
0.0
 40
214.206000
 50
357.250695
 51
362.749305
  0
LINE
  8
0
  6
BYLAYER
 62
     1
 10
610.409398
 20
-291.631722
 30
0.0
 11
610.303938
 21
-291.631722
 31
0.0
  0
ARC
  8
0
  6
BYLAYER
 62
     1
 10
610.409398
 20
-292.631722
 30
0.0
 40
1.000000
 50
2.749305
 51
90.000000
  0
ARC
  8
0
  6
BYLAYER
 62
     1
 10
610.303938
 20
-290.631722
 30
0.0
 40
1.0
 50
183.287522
 51
270.0
  0
ARC
  8
0
  6
BYLAYER
 62
     1
 10
607.654805
 20
-265.085002
 30
0.0
 40
1.000000
 50
90.0
 51
180.0
  0
ARC
  8
0
  6
BYLAYER
 62
     1
 10
607.654805
 20
-263.085002
 30
0.0
 40
1.000000
 50
270.0
 51
360.0
  0
LINE
  8
0
  6
BYLAYER
 62
     1
 10
606.654805
 20
-267.302265
 30
0.0
 11
606.654805
 21
-265.085002
 31
0.0
  0
ARC
  8
0
  6
BYLAYER
 62
     1
 10
397.448805
 20
-302.858362
 30
0.0
 40
212.206000
 50
3.287522
 51
9.645670
  0
LINE
  8
0
  6
BYLAYER
 62
     1
 10
436.222165
 20
-465.818955
 30
0.0
 11
436.222165
 21
-465.713495
 31
0.0
  0
ARC
  8
0
  6
BYLAYER
 62
     1
 10
437.222165
 20
-465.818955
 30
0.0
 40
1.000000
 50
180.000000
 51
267.250695
  0
ARC
  8
0
  6
BYLAYER
 62
     1
 10
435.222165
 20
-465.713495
 30
0.0
 40
1.000000
 50
0.0
 51
86.712478
  0
ARC
  8
0
  6
BYLAYER
 62
     1
 10
409.675445
 20
-463.064362
 30
0.0
 40
1.000000
 50
90.0
 51
180.0
  0
ARC
  8
0
  6
BYLAYER
 62
     1
 10
407.675445
 20
-463.064362
 30
0.0
 40
1.000000
 50
270.0
 51
360.0
  0
ARC
  8
0
  6
BYLAYER
 62
     1
 10
385.222165
 20
-463.064362
 30
0.0
 40
1.000000
 50
0.0
 51
90.0
  0
LINE
  8
0
  6
BYLAYER
 62
     1
 10
487.222165
 20
-464.064362
 30
0.0
 11
507.675445
 21
-464.064362
 31
0.0
  0
LINE
  8
0
  6
BYLAYER
 62
     1
 10
387.222165
 20
-464.064362
 30
0.0
 11
407.675445
 21
-464.064362
 31
0.0
  0
ARC
  8
0
  6
BYLAYER
 62
     1
 10
387.222165
 20
-463.064362
 30
0.0
 40
1.000000
 50
180.000000
 51
270.000000
  0
LINE
  8
0
  6
BYLAYER
 62
     1
 10
411.892708
 20
-462.064362
 30
0.0
 11
409.675445
 21
-462.064362
 31
0.0
  0
ARC
  8
0
  6
BYLAYER
 62
     1
 10
447.448805
 20
-252.858362
 30
0.0
 40
212.206000
 50
260.354330
 51
266.712478
  0
LINE
  8
0
  6
BYLAYER
 62
     1
 10
385.222165
 20
-462.064362
 30
0.0
 11
359.789332
 21
-462.064362
 31
0.0
  0
ARC
  8
0
  6
BYLAYER
 62
     1
 10
359.789332
 20
-463.064362
 30
0.0
 40
1.000000
 50
90.0
 51
180.0
  0
ARC
  8
0
  6
BYLAYER
 62
     1
 10
447.448805
 20
-252.858362
 30
0.0
 40
214.206000
 50
267.250695
 51
272.749305
  0
LINE
  8
0
  6
BYLAYER
 62
     1
 10
458.675445
 20
-465.818955
 30
0.0
 11
458.675445
 21
-465.713495
 31
0.0
  0
ARC
  8
0
  6
BYLAYER
 62
     1
 10
457.675445
 20
-465.818955
 30
0.0
 40
1.000000
 50
272.749305
 51
360.000000
  0
ARC
  8
0
  6
BYLAYER
 62
     1
 10
459.675445
 20
-465.713495
 30
0.0
 40
1.000000
 50
93.287522
 51
180.000000
  0
ARC
  8
0
  6
BYLAYER
 62
     1
 10
485.222165
 20
-463.064362
 30
0.0
 40
1.000000
 50
0.0
 51
90.0
  0
ARC
  8
0
  6
BYLAYER
 62
     1
 10
487.222165
 20
-463.064362
 30
0.0
 40
1.000000
 50
180.000000
 51
270.000000
  0
LINE
  8
0
  6
BYLAYER
 62
     1
 10
483.004902
 20
-462.064362
 30
0.0
 11
485.222165
 21
-462.064362
 31
0.0
  0
ARC
  8
0
  6
BYLAYER
 62
     1
 10
447.448805
 20
-252.858362
 30
0.0
 40
212.206000
 50
273.287522
 51
279.645670
  0
LINE
  8
0
  6
BYLAYER
 62
     1
 10
614.218805
 20
-399.101003
 30
0.0
 11
614.218805
 21
-464.998002
 31
0.0
  0
ARC
  8
0
  6
BYLAYER
 62
     1
 10
611.218805
 20
-399.101003
 30
0.0
 40
3.0
 50
0.0
 51
45.0
  0
LINE
  8
0
  6
BYLAYER
 62
     1
 10
613.340125
 20
-396.979682
 30
0.0
 11
606.947698
 21
-390.587255
 31
0.0
  0
ARC
  8
0
  6
BYLAYER
 62
     1
 10
607.654805
 20
-389.880148
 30
0.0
 40
1.0
 50
180.000000
 51
225.000000
  0
LINE
  8
0
  6
BYLAYER
 62
     1
 10
616.570125
 20
-392.131963
 30
0.0
 11
611.448805
 21
-387.010642
 31
0.0
  0
ARC
  8
0
  6
BYLAYER
 62
     1
 10
614.448805
 20
-394.253283
 30
0.0
 40
3.0
 50
0.0
 51
45.0
  0
ARC
  8
0
  6
BYLAYER
 62
     1
 10
611.373735
 20
-388.744351
 30
0.0
 40
1.0
 50
45.000000
 51
90.000000
  0
LINE
  8
0
  6
BYLAYER
 62
     1
 10
610.169805
 20
-387.744351
 30
0.0
 11
611.373735
 21
-387.744351
 31
0.0
  0
LINE
  8
0
  6
BYLAYER
 62
     1
 10
614.012797
 20
-232.636885
 30
0.0
 11
610.222141
 21
-232.835545
 31
0.0
  0
LINE
  8
0
  6
BYLAYER
 62
     1
 10
610.735804
 20
-214.690817
 30
0.0
 11
608.654805
 21
-163.358362
 31
0.0
  0
ARC
  8
0
  6
BYLAYER
 62
     1
 10
605.652341
 20
-163.358362
 30
0.0
 40
3.0
 50
2.321479
 51
90.0
  0
ARC
  8
0
  6
BYLAYER
 62
     1
 10
497.448805
 20
-302.858362
 30
0.0
 40
217.0
 50
170.461721
 51
189.538279
  0
LINE
  8
0
  6
BYLAYER
 62
     1
 10
284.488212
 20
-314.085002
 30
0.0
 11
284.593672
 21
-314.085002
 31
0.0
  0
ARC
  8
0
  6
BYLAYER
 62
     1
 10
284.488212
 20
-313.085002
 30
0.0
 40
1.000000
 50
182.749305
 51
270.000000
  0
ARC
  8
0
  6
BYLAYER
 62
     1
 10
284.593672
 20
-315.085002
 30
0.0
 40
1.000000
 50
3.287522
 51
90.000000
  0
ARC
  8
0
  6
BYLAYER
 62
     1
 10
287.242805
 20
-340.631722
 30
0.0
 40
1.000000
 50
270.0
 51
360.0
  0
ARC
  8
0
  6
BYLAYER
 62
     1
 10
287.242805
 20
-342.631722
 30
0.0
 40
1.000000
 50
90.0
 51
180.0
  0
LINE
  8
0
  6
BYLAYER
 62
     1
 10
288.242805
 20
-338.414459
 30
0.0
 11
288.242805
 21
-340.631722
 31
0.0
  0
ARC
  8
0
  6
BYLAYER
 62
     1
 10
497.448805
 20
-302.858362
 30
0.0
 40
212.206000
 50
183.287522
 51
189.645670
  0
ARC
  8
0
  6
BYLAYER
 62
     1
 10
497.448805
 20
-302.858362
 30
0.0
 40
214.206000
 50
177.250695
 51
182.749305
  0
LINE
  8
0
  6
BYLAYER
 62
     1
 10
284.488212
 20
-291.631722
 30
0.0
 11
284.593672
 21
-291.631722
 31
0.0
  0
ARC
  8
0
  6
BYLAYER
 62
     1
 10
284.488212
 20
-292.631722
 30
0.0
 40
1.000000
 50
90.0
 51
177.250695
  0
ARC
  8
0
  6
BYLAYER
 62
     1
 10
284.593672
 20
-290.631722
 30
0.0
 40
1.000000
 50
270.0
 51
356.712478
  0
ARC
  8
0
  6
BYLAYER
 62
     1
 10
287.242805
 20
-265.085002
 30
0.0
 40
1.000000
 50
0.0
 51
90.0
  0
ARC
  8
0
  6
BYLAYER
 62
     1
 10
287.242805
 20
-263.085002
 30
0.0
 40
1.000000
 50
180.000000
 51
270.000000
  0
LINE
  8
0
  6
BYLAYER
 62
     1
 10
288.242805
 20
-267.302265
 30
0.0
 11
288.242805
 21
-265.085002
 31
0.0
  0
ARC
  8
0
  6
BYLAYER
 62
     1
 10
497.448805
 20
-302.858362
 30
0.0
 40
212.206000
 50
170.354330
 51
176.712478
  0
LINE
  8
0
  6
BYLAYER
 62
     1
 10
287.242805
 20
-391.858362
 30
0.0
 11
283.863019
 21
-391.858362
 31
0.0
  0
ARC
  8
0
  6
BYLAYER
 62
     1
 10
287.242805
 20
-365.085002
 30
0.0
 40
1.000000
 50
0.0
 51
90.0
  0
LINE
  8
0
  6
BYLAYER
 62
     1
 10
288.242805
 20
-365.085002
 30
0.0
 11
288.242805
 21
-390.858362
 31
0.0
  0
ARC
  8
0
  6
BYLAYER
 62
     1
 10
287.242805
 20
-390.858362
 30
0.0
 40
1.000000
 50
270.0
 51
360.0
  0
LINE
  8
0
  6
BYLAYER
 62
     1
 10
287.020805
 20
-366.919274
 30
0.0
 11
287.020805
 21
-373.858362
 31
0.0
  0
ARC
  8
0
  6
BYLAYER
 62
     1
 10
286.020805
 20
-373.858362
 30
0.0
 40
1.000000
 50
0.0
 51
90.0
  0
ARC
  8
0
  6
BYLAYER
 62
     1
 10
286.020805
 20
-366.919274
 30
0.0
 40
1.000000
 50
0.0
 51
90.0
  0
ARC
  8
0
  6
BYLAYER
 62
     1
 10
287.242805
 20
-363.085002
 30
0.0
 40
1.000000
 50
180.000000
 51
270.000000
  0
LINE
  8
0
  6
BYLAYER
 62
     1
 10
286.242805
 20
-363.085002
 30
0.0
 11
286.242805
 21
-342.631722
 31
0.0
  0
ARC
  8
0
  6
BYLAYER
 62
     1
 10
287.242805
 20
-240.631722
 30
0.0
 40
1.000000
 50
270.0
 51
360.0
  0
ARC
  8
0
  6
BYLAYER
 62
     1
 10
287.242805
 20
-242.631722
 30
0.0
 40
1.0
 50
90.0
 51
180.0
  0
LINE
  8
0
  6
BYLAYER
 62
     1
 10
288.242805
 20
-240.631722
 30
0.0
 11
288.242805
 21
-215.085002
 31
0.0
  0
ARC
  8
0
  6
BYLAYER
 62
     1
 10
287.242805
 20
-215.085002
 30
0.0
 40
1.000000
 50
0.0
 51
90.0
  0
LINE
  8
0
  6
BYLAYER
 62
     1
 10
286.242805
 20
-263.085002
 30
0.0
 11
286.242805
 21
-242.631722
 31
0.0
  0
LINE
  8
0
  6
BYLAYER
 62
     1
 10
285.242427
 20
-189.750525
 30
0.0
 11
285.170083
 21
-189.750525
 31
0.0
  0
LINE
  8
0
  6
BYLAYER
 62
     1
 10
286.242805
 20
-213.085002
 30
0.0
 11
286.242805
 21
-192.631722
 31
0.0
  0
ARC
  8
0
  6
BYLAYER
 62
     1
 10
287.242805
 20
-192.631722
 30
0.0
 40
1.000000
 50
90.0
 51
180.0
  0
ARC
  8
0
  6
BYLAYER
 62
     1
 10
287.242805
 20
-213.085002
 30
0.0
 40
1.000000
 50
180.000000
 51
270.000000
  0
LINE
  8
0
  6
BYLAYER
 62
     1
 10
288.242805
 20
-190.631722
 30
0.0
 11
288.242805
 21
-159.066576
 31
0.0
  0
ARC
  8
0
  6
BYLAYER
 62
     1
 10
287.242805
 20
-190.631722
 30
0.0
 40
1.000000
 50
270.0
 51
360.0
  0
LINE
  8
0
  6
BYLAYER
 62
     1
 10
277.448805
 20
-149.697192
 30
0.0
 11
287.076424
 21
-159.324811
 31
0.0
  0
LINE
  8
0
  6
BYLAYER
 62
     1
 10
277.448805
 20
-147.858362
 30
0.0
 11
287.949912
 21
-158.359469
 31
0.0
  0
LINE
  8
0
  6
BYLAYER
 62
     1
 10
283.367222
 20
-212.824833
 30
0.0
 11
284.205494
 21
-190.712643
 31
0.0
  0
LINE
  8
0
  6
BYLAYER
 62
     1
 10
286.279878
 20
-188.788408
 30
0.0
 11
287.368599
 21
-160.069800
 31
0.0
  0
ARC
  8
0
  6
BYLAYER
 62
     1
 10
286.369317
 20
-160.031918
 30
0.0
 40
1.000000
 50
357.828959
 51
405.0
  0
LINE
  8
0
  6
BYLAYER
 62
     1
 10
285.280596
 20
-189.750525
 30
0.0
 11
285.204776
 21
-189.750525
 31
0.0
  0
ARC
  8
0
  6
BYLAYER
 62
     1
 10
285.204776
 20
-190.750525
 30
0.0
 40
1.0
 50
90.0
 51
177.828959
  0
ARC
  8
0
  6
BYLAYER
 62
     1
 10
285.280596
 20
-188.750525
 30
0.0
 40
1.0
 50
270.0
 51
357.828959
  0
LINE
  8
0
  6
BYLAYER
 62
     1
 10
277.448805
 20
-393.010642
 30
0.0
 11
282.570125
 21
-387.889322
 31
0.0
  0
ARC
  8
0
  6
BYLAYER
 62
     1
 10
280.448805
 20
-385.768002
 30
0.0
 40
3.0
 50
315.000000
 51
360.000000
  0
LINE
  8
0
  6
BYLAYER
 62
     1
 10
362.426329
 20
-467.735588
 30
0.0
 11
357.296525
 21
-472.858362
 31
0.0
  0
ARC
  8
0
  6
BYLAYER
 62
     1
 10
364.546194
 20
-469.858362
 30
0.0
 40
3.0
 50
90.0
 51
134.960712
  0
LINE
  8
0
  6
BYLAYER
 62
     1
 10
358.789332
 20
-466.103621
 30
0.0
 11
358.789332
 21
-463.064362
 31
0.0
  0
LINE
  8
0
  6
BYLAYER
 62
     1
 10
364.948805
 20
-462.064362
 30
0.0
 11
364.948805
 21
-454.858362
 31
0.0
  0
LINE
  8
0
  6
BYLAYER
 62
     1
 10
542.448805
 20
-472.858362
 30
0.0
 11
536.401171
 21
-466.810728
 31
0.0
  0
ARC
  8
0
  6
BYLAYER
 62
     1
 10
509.675445
 20
-463.064362
 30
0.0
 40
1.000000
 50
90.0
 51
180.0
  0
ARC
  8
0
  6
BYLAYER
 62
     1
 10
507.675445
 20
-463.064362
 30
0.0
 40
1.000000
 50
270.0
 51
360.0
  0
LINE
  8
0
  6
BYLAYER
 62
     1
 10
509.675445
 20
-462.064362
 30
0.0
 11
535.108278
 21
-462.064362
 31
0.0
  0
ARC
  8
0
  6
BYLAYER
 62
     1
 10
535.108278
 20
-463.064362
 30
0.0
 40
1.000000
 50
0.0
 51
90.0
  0
LINE
  8
0
  6
BYLAYER
 62
     1
 10
532.471281
 20
-467.735588
 30
0.0
 11
537.601085
 21
-472.858362
 31
0.0
  0
ARC
  8
0
  6
BYLAYER
 62
     1
 10
530.351416
 20
-469.858362
 30
0.0
 40
3.000000
 50
45.039288
 51
90.000000
  0
LINE
  8
0
  6
BYLAYER
 62
     1
 10
536.108278
 20
-466.103621
 30
0.0
 11
536.108278
 21
-463.064362
 31
0.0
  0
ARC
  8
0
  6
BYLAYER
 62
     1
 10
537.108278
 20
-466.103621
 30
0.0
 40
1.000000
 50
180.000000
 51
225.000000
  0
LINE
  8
0
  6
BYLAYER
 62
     1
 10
529.948805
 20
-462.064362
 30
0.0
 11
529.948805
 21
-454.858362
 31
0.0
  0
LINE
  8
0
  6
BYLAYER
 62
     1
 10
352.448805
 20
-72.858362
 30
0.0
 11
358.496439
 21
-78.905996
 31
0.0
  0
LINE
  8
0
  6
BYLAYER
 62
     1
 10
362.426329
 20
-77.981136
 30
0.0
 11
357.296525
 21
-72.858362
 31
0.0
  0
LINE
  8
0
  6
BYLAYER
 62
     1
 10
542.448805
 20
-72.858362
 30
0.0
 11
536.401171
 21
-78.905996
 31
0.0
  0
LINE
  8
0
  6
BYLAYER
 62
     1
 10
532.471281
 20
-77.981136
 30
0.0
 11
537.601085
 21
-72.858362
 31
0.0
  0
ARC
  8
0
  6
BYLAYER
 62
     1
 10
530.351416
 20
-75.858362
 30
0.0
 40
3.000000
 50
270.0
 51
314.960712
  0
ARC
  8
0
  6
BYLAYER
 62
     1
 10
576.550436
 20
-154.542206
 30
0.0
 40
3.000000
 50
260.000000
 51
366.907950
  0
LINE
  8
0
  6
BYLAYER
 62
     1
 10
617.448805
 20
-82.706082
 30
0.0
 11
607.601085
 21
-72.858362
 31
0.0
  0
LINE
  8
0
  6
BYLAYER
 62
     1
 10
277.448805
 20
-82.706082
 30
0.0
 11
287.296525
 21
-72.858362
 31
0.0
  0
LINE
  8
0
  6
BYLAYER
 62
     1
 10
277.448805
 20
-463.010642
 30
0.0
 11
287.296525
 21
-472.858362
 31
0.0
  0
LINE
  8
0
  6
BYLAYER
 62
     1
 10
613.340125
 20
-467.119322
 30
0.0
 11
607.601085
 21
-472.858362
 31
0.0
  0
ARC
  8
0
  6
BYLAYER
 62
     1
 10
611.218805
 20
-464.998002
 30
0.0
 40
3.000000
 50
315.000000
 51
360.000000
  0
LINE
  8
0
  6
BYLAYER
 62
     1
 10
315.448805
 20
-207.858362
 30
0.0
 11
297.448805
 21
-207.858362
 31
0.0
  0
ARC
  8
0
  6
BYLAYER
 62
     1
 10
297.448805
 20
-205.858362
 30
0.0
 40
2.000000
 50
180.000000
 51
270.000000
  0
LINE
  8
0
  6
BYLAYER
 62
     1
 10
315.448805
 20
-211.858362
 30
0.0
 11
297.448805
 21
-211.858362
 31
0.0
  0
ARC
  8
0
  6
BYLAYER
 62
     1
 10
297.448805
 20
-213.858362
 30
0.0
 40
2.000000
 50
90.0
 51
180.0
  0
ARC
  8
0
  6
BYLAYER
 62
     1
 10
315.448805
 20
-209.858362
 30
0.0
 40
2.000000
 50
270.0
 51
360.0
  0
ARC
  8
0
  6
BYLAYER
 62
     1
 10
315.448805
 20
-209.858362
 30
0.0
 40
2.000000
 50
0.0
 51
90.0
  0
ARC
  8
0
  6
BYLAYER
 62
     1
 10
365.448805
 20
-100.858362
 30
0.0
 40
10.000000
 50
0.0
 51
90.0
  0
LINE
  8
0
  6
BYLAYER
 62
     1
 10
375.448805
 20
-100.858362
 30
0.0
 11
375.448805
 21
-160.858362
 31
0.0
  0
LINE
  8
0
  6
BYLAYER
 62
     1
 10
400.448805
 20
-105.858362
 30
0.0
 11
377.448805
 21
-105.858362
 31
0.0
  0
ARC
  8
0
  6
BYLAYER
 62
     1
 10
377.448805
 20
-107.858362
 30
0.0
 40
2.0
 50
90.0
 51
180.0
  0
ARC
  8
0
  6
BYLAYER
 62
     1
 10
400.448805
 20
-103.858362
 30
0.0
 40
2.000000
 50
270.0
 51
360.0
  0
LINE
  8
0
  6
BYLAYER
 62
     1
 10
400.448805
 20
-109.858362
 30
0.0
 11
377.448805
 21
-109.858362
 31
0.0
  0
ARC
  8
0
  6
BYLAYER
 62
     1
 10
377.448805
 20
-107.858362
 30
0.0
 40
2.0
 50
180.000000
 51
270.000000
  0
ARC
  8
0
  6
BYLAYER
 62
     1
 10
400.448805
 20
-111.858362
 30
0.0
 40
2.000000
 50
0.0
 51
90.0
  0
LINE
  8
0
  6
BYLAYER
 62
     1
 10
402.448805
 20
-103.858362
 30
0.0
 11
402.448805
 21
-93.858362
 31
0.0
  0
ARC
  8
0
  6
BYLAYER
 62
     1
 10
377.448805
 20
-123.858362
 30
0.0
 40
2.0
 50
180.000000
 51
270.000000
  0
LINE
  8
0
  6
BYLAYER
 62
     1
 10
400.448805
 20
-121.858362
 30
0.0
 11
377.448805
 21
-121.858362
 31
0.0
  0
ARC
  8
0
  6
BYLAYER
 62
     1
 10
377.448805
 20
-123.858362
 30
0.0
 40
2.0
 50
90.0
 51
180.0
  0
ARC
  8
0
  6
BYLAYER
 62
     1
 10
400.448805
 20
-119.858362
 30
0.0
 40
2.000000
 50
270.0
 51
360.0
  0
LINE
  8
0
  6
BYLAYER
 62
     1
 10
402.448805
 20
-119.858362
 30
0.0
 11
402.448805
 21
-111.858362
 31
0.0
  0
ARC
  8
0
  6
BYLAYER
 62
     1
 10
297.448805
 20
-189.858362
 30
0.0
 40
2.000000
 50
180.000000
 51
270.000000
  0
ARC
  8
0
  6
BYLAYER
 62
     1
 10
297.448805
 20
-197.858362
 30
0.0
 40
2.000000
 50
90.0
 51
180.0
  0
LINE
  8
0
  6
BYLAYER
 62
     1
 10
579.448805
 20
-207.858362
 30
0.0
 11
597.448805
 21
-207.858362
 31
0.0
  0
ARC
  8
0
  6
BYLAYER
 62
     1
 10
597.448805
 20
-205.858362
 30
0.0
 40
2.0
 50
270.0
 51
360.0
  0
LINE
  8
0
  6
BYLAYER
 62
     1
 10
579.448805
 20
-211.858362
 30
0.0
 11
597.448805
 21
-211.858362
 31
0.0
  0
ARC
  8
0
  6
BYLAYER
 62
     1
 10
597.448805
 20
-213.858362
 30
0.0
 40
2.0
 50
0.0
 51
90.0
  0
ARC
  8
0
  6
BYLAYER
 62
     1
 10
579.448805
 20
-209.858362
 30
0.0
 40
2.000000
 50
180.000000
 51
270.000000
  0
ARC
  8
0
  6
BYLAYER
 62
     1
 10
579.448805
 20
-209.858362
 30
0.0
 40
2.000000
 50
90.0
 51
180.0
  0
ARC
  8
0
  6
BYLAYER
 62
     1
 10
597.448805
 20
-189.858362
 30
0.0
 40
2.0
 50
270.0
 51
360.0
  0
ARC
  8
0
  6
BYLAYER
 62
     1
 10
597.448805
 20
-197.858362
 30
0.0
 40
2.0
 50
0.0
 51
90.0
  0
LINE
  8
0
  6
BYLAYER
 62
     1
 10
377.448805
 20
-125.858362
 30
0.0
 11
484.487324
 21
-125.858362
 31
0.0
  0
LINE
  8
0
  6
BYLAYER
 62
     1
 10
521.927860
 20
-147.957052
 30
0.0
 11
576.029491
 21
-157.496630
 31
0.0
  0
ARC
  8
0
  6
BYLAYER
 62
     1
 10
497.448805
 20
-302.858362
 30
0.0
 40
207.000000
 50
167.381273
 51
192.618727
  0
ARC
  8
0
  6
BYLAYER
 62
     1
 10
397.448805
 20
-302.858362
 30
0.0
 40
207.0
 50
347.381273
 51
372.618727
  0
ARC
  8
0
  6
BYLAYER
 62
     1
 10
447.448805
 20
-252.858362
 30
0.0
 40
207.0
 50
257.381273
 51
282.618727
  0
ARC
  8
0
  6
BYLAYER
 62
     1
 10
497.448805
 20
-106.858362
 30
0.0
 40
23.000000
 50
235.698847
 51
270.000000
  0
LINE
  8
0
  6
BYLAYER
 62
     1
 10
497.448805
 20
-129.858362
 30
0.0
 11
509.448805
 21
-129.858362
 31
0.0
  0
ARC
  8
0
  6
BYLAYER
 62
     1
 10
509.448805
 20
-119.858362
 30
0.0
 40
10.0
 50
270.0
 51
360.0
  0
ARC
  8
0
  6
BYLAYER
 62
     1
 10
298.448805
 20
-158.050826
 30
0.0
 40
3.000000
 50
180.000000
 51
280.0
  0
ARC
  8
0
  6
BYLAYER
 62
     1
 10
522.448805
 20
-145.002629
 30
0.0
 40
3.000000
 50
180.000000
 51
260.000000
  0
LINE
  8
0
  6
BYLAYER
 62
     1
 10
372.969750
 20
-147.957052
 30
0.0
 11
298.969750
 21
-161.005249
 31
0.0
  0
ARC
  8
0
  6
BYLAYER
 62
     1
 10
372.448805
 20
-145.002629
 30
0.0
 40
3.0
 50
280.000000
 51
360.000000
  0
LINE
  8
0
  6
BYLAYER
 62
     1
 10
364.948805
 20
-85.052362
 30
0.0
 11
359.789332
 21
-85.052362
 31
0.0
  0
LINE
  8
0
  6
BYLAYER
 62
     1
 10
358.789332
 20
-79.613103
 30
0.0
 11
358.789332
 21
-84.052362
 31
0.0
  0
ARC
  8
0
  6
BYLAYER
 62
     1
 10
357.789332
 20
-79.613103
 30
0.0
 40
1.0
 50
0.0
 51
45.0
  0
ARC
  8
0
  6
BYLAYER
 62
     1
 10
359.789332
 20
-84.052362
 30
0.0
 40
1.000000
 50
180.000000
 51
270.000000
  0
LINE
  8
0
  6
BYLAYER
 62
     1
 10
364.948805
 20
-85.052362
 30
0.0
 11
364.948805
 21
-90.858362
 31
0.0
  0
LINE
  8
0
  6
BYLAYER
 62
     1
 10
529.948805
 20
-85.052362
 30
0.0
 11
529.948805
 21
-90.858362
 31
0.0
  0
LINE
  8
0
  6
BYLAYER
 62
     1
 10
529.948805
 20
-85.052362
 30
0.0
 11
535.108278
 21
-85.052362
 31
0.0
  0
LINE
  8
0
  6
BYLAYER
 62
     1
 10
536.108278
 20
-79.613103
 30
0.0
 11
536.108278
 21
-84.052362
 31
0.0
  0
ARC
  8
0
  6
BYLAYER
 62
     1
 10
537.108278
 20
-79.613103
 30
0.0
 40
1.000000
 50
135.000000
 51
180.000000
  0
ARC
  8
0
  6
BYLAYER
 62
     1
 10
535.108278
 20
-84.052362
 30
0.0
 40
1.0
 50
270.0
 51
360.0
  0
LINE
  8
0
  6
BYLAYER
 62
     1
 10
577.448805
 20
-128.770362
 30
0.0
 11
523.496805
 21
-128.770362
 31
0.0
  0
ARC
  8
0
  6
BYLAYER
 62
     1
 10
577.448805
 20
-126.770362
 30
0.0
 40
2.000000
 50
270.0
 51
360.0
  0
ARC
  8
0
  6
BYLAYER
 62
     1
 10
523.496805
 20
-125.770362
 30
0.0
 40
3.0
 50
180.000000
 51
270.000000
  0
LINE
  8
0
  6
BYLAYER
 62
     1
 10
594.964805
 20
-123.464362
 30
0.0
 11
581.448805
 21
-123.464362
 31
0.0
  0
ARC
  8
0
  6
BYLAYER
 62
     1
 10
594.964805
 20
-120.464362
 30
0.0
 40
3.000000
 50
270.0
 51
360.0
  0
LINE
  8
0
  6
BYLAYER
 62
     1
 10
579.448805
 20
-125.464362
 30
0.0
 11
579.448805
 21
-159.113539
 31
0.0
  0
ARC
  8
0
  6
BYLAYER
 62
     1
 10
581.448805
 20
-125.464362
 30
0.0
 40
2.0
 50
90.0
 51
180.0
  0
LINE
  8
0
  6
BYLAYER
 62
     1
 10
345.448805
 20
-175.858362
 30
0.0
 11
297.448805
 21
-175.858362
 31
0.0
  0
ARC
  8
0
  6
BYLAYER
 62
     1
 10
297.448805
 20
-173.858362
 30
0.0
 40
2.000000
 50
180.000000
 51
270.000000
  0
LINE
  8
0
  6
BYLAYER
 62
     1
 10
345.448805
 20
-179.858362
 30
0.0
 11
297.448805
 21
-179.858362
 31
0.0
  0
ARC
  8
0
  6
BYLAYER
 62
     1
 10
297.448805
 20
-181.858362
 30
0.0
 40
2.000000
 50
90.0
 51
180.0
  0
ARC
  8
0
  6
BYLAYER
 62
     1
 10
345.448805
 20
-177.858362
 30
0.0
 40
2.000000
 50
0.0
 51
90.0
  0
ARC
  8
0
  6
BYLAYER
 62
     1
 10
345.448805
 20
-177.858362
 30
0.0
 40
2.000000
 50
270.0
 51
360.0
  0
LINE
  8
0
  6
BYLAYER
 62
     1
 10
549.448805
 20
-175.858362
 30
0.0
 11
597.448805
 21
-175.858362
 31
0.0
  0
ARC
  8
0
  6
BYLAYER
 62
     1
 10
597.448805
 20
-173.858362
 30
0.0
 40
2.0
 50
270.0
 51
360.0
  0
LINE
  8
0
  6
BYLAYER
 62
     1
 10
549.448805
 20
-179.858362
 30
0.0
 11
597.448805
 21
-179.858362
 31
0.0
  0
ARC
  8
0
  6
BYLAYER
 62
     1
 10
597.448805
 20
-181.858362
 30
0.0
 40
2.0
 50
0.0
 51
90.0
  0
ARC
  8
0
  6
BYLAYER
 62
     1
 10
549.448805
 20
-177.858362
 30
0.0
 40
2.000000
 50
90.0
 51
180.0
  0
ARC
  8
0
  6
BYLAYER
 62
     1
 10
549.448805
 20
-177.858362
 30
0.0
 40
2.000000
 50
180.000000
 51
270.000000
  0
LINE
  8
0
  6
BYLAYER
 62
     1
 10
327.948805
 20
-191.858362
 30
0.0
 11
297.448805
 21
-191.858362
 31
0.0
  0
LINE
  8
0
  6
BYLAYER
 62
     1
 10
327.948805
 20
-195.858362
 30
0.0
 11
297.448805
 21
-195.858362
 31
0.0
  0
ARC
  8
0
  6
BYLAYER
 62
     1
 10
327.948805
 20
-193.858362
 30
0.0
 40
2.000000
 50
270.0
 51
360.0
  0
ARC
  8
0
  6
BYLAYER
 62
     1
 10
327.948805
 20
-193.858362
 30
0.0
 40
2.000000
 50
0.0
 51
90.0
  0
LINE
  8
0
  6
BYLAYER
 62
     1
 10
566.948805
 20
-191.858362
 30
0.0
 11
597.448805
 21
-191.858362
 31
0.0
  0
LINE
  8
0
  6
BYLAYER
 62
     1
 10
566.948805
 20
-195.858362
 30
0.0
 11
597.448805
 21
-195.858362
 31
0.0
  0
ARC
  8
0
  6
BYLAYER
 62
     1
 10
566.948805
 20
-193.858362
 30
0.0
 40
2.0
 50
180.000000
 51
270.000000
  0
ARC
  8
0
  6
BYLAYER
 62
     1
 10
566.948805
 20
-193.858362
 30
0.0
 40
2.0
 50
90.0
 51
180.0
  0
LINE
  8
0
  6
BYLAYER
 62
     1
 10
517.448805
 20
-137.858362
 30
0.0
 11
377.448805
 21
-137.858362
 31
0.0
  0
ARC
  8
0
  6
BYLAYER
 62
     1
 10
517.448805
 20
-139.858362
 30
0.0
 40
2.0
 50
0.0
 51
90.0
  0
ARC
  8
0
  6
BYLAYER
 62
     1
 10
377.448805
 20
-139.858362
 30
0.0
 40
2.0
 50
90.0
 51
180.0
  0
LINE
  8
0
  6
BYLAYER
 62
     1
 10
517.448805
 20
-141.858362
 30
0.0
 11
377.448805
 21
-141.858362
 31
0.0
  0
ARC
  8
0
  6
BYLAYER
 62
     1
 10
517.448805
 20
-139.858362
 30
0.0
 40
2.0
 50
270.0
 51
360.0
  0
ARC
  8
0
  6
BYLAYER
 62
     1
 10
377.448805
 20
-139.858362
 30
0.0
 40
2.0
 50
180.000000
 51
270.000000
  0
LINE
  8
0
  6
BYLAYER
 62
     1
 10
422.448805
 20
-135.858362
 30
0.0
 11
422.448805
 21
-135.858362
 31
0.0
  0
LINE
  8
0
  6
BYLAYER
 62
     1
 10
617.448805
 20
-160.358362
 30
0.0
 11
599.448805
 21
-160.358362
 31
0.0
  0
LINE
  8
0
  6
BYLAYER
 62
     1
 10
584.187125
 20
-141.610037
 30
0.0
 11
596.605813
 21
-140.959201
 31
0.0
  0
ARC
  8
0
  6
BYLAYER
 62
     1
 10
594.964805
 20
-138.041086
 30
0.0
 40
3.0
 50
273.000000
 51
360.000000
  0
ARC
  8
0
  6
BYLAYER
 62
     1
 10
584.448805
 20
-146.603185
 30
0.0
 40
5.0
 50
93.000000
 51
180.000000
  0
ARC
  8
0
  6
BYLAYER
 62
     1
 10
596.448805
 20
-167.753411
 30
0.0
 40
3.0
 50
0.0
 51
87.0
  0
LINE
  8
0
  6
BYLAYER
 62
     1
 10
584.187125
 20
-164.106687
 30
0.0
 11
596.605813
 21
-164.757523
 31
0.0
  0
ARC
  8
0
  6
BYLAYER
 62
     1
 10
584.448805
 20
-159.113539
 30
0.0
 40
5.000000
 50
180.000000
 51
267.0
  0
CIRCLE
  8
0
  6
BYLAYER
 62
     1
 10
447.448805
 20
-302.858362
 30
0.0
 40
90.0
  0
CIRCLE
  8
0
  6
BYLAYER
 62
     1
 10
447.448805
 20
-302.858362
 30
0.0
 40
60.0
  0
CIRCLE
  8
0
  6
BYLAYER
 62
     1
 10
447.448805
 20
-302.858362
 30
0.0
 40
67.0
  0
CIRCLE
  8
0
  6
BYLAYER
 62
     1
 10
447.448805
 20
-302.858362
 30
0.0
 40
82.5
  0
ARC
  8
0
  6
BYLAYER
 62
     1
 10
447.448805
 20
-302.858362
 30
0.0
 40
125.0
 50
29.268939
 51
375.731061
  0
ARC
  8
0
  6
BYLAYER
 62
     1
 10
559.107615
 20
-240.277932
 30
0.0
 40
3.000000
 50
209.268939
 51
248.424116
  0
ARC
  8
0
  6
BYLAYER
 62
     1
 10
389.268690
 20
-222.757959
 30
0.0
 40
3.000025
 50
224.999996
 51
305.992912
  0
ARC
  8
0
  6
BYLAYER
 62
     1
 10
447.448805
 20
-302.858362
 30
0.0
 40
96.000008
 50
99.007595
 51
125.992374
  0
ARC
  8
0
  6
BYLAYER
 62
     1
 10
431.948805
 20
-205.079248
 30
0.0
 40
3.000015
 50
279.008146
 51
360.000003
  0
LINE
  8
0
  6
BYLAYER
 62
     1
 10
378.483839
 20
-216.215784
 30
0.0
 11
387.147352
 21
-224.879297
 31
0.0
  0
ARC
  8
0
  6
BYLAYER
 62
     1
 10
380.605177
 20
-214.094446
 30
0.0
 40
3.000025
 50
95.764771
 51
224.999996
  0
ARC
  8
0
  6
BYLAYER
 62
     1
 10
370.912062
 20
-118.082544
 30
0.0
 40
93.499985
 50
275.764899
 51
309.235175
  0
LINE
  8
0
  6
BYLAYER
 62
     1
 10
434.948805
 20
-192.827173
 30
0.0
 11
434.948805
 21
-205.079248
 31
0.0
  0
ARC
  8
0
  6
BYLAYER
 62
     1
 10
431.948805
 20
-192.827173
 30
0.0
 40
3.000005
 50
0.0
 51
129.235280
  0
ARC
  8
0
  6
BYLAYER
 62
     1
 10
370.912062
 20
-118.082544
 30
0.0
 40
87.499977
 50
268.731083
 51
316.268966
  0
ARC
  8
0
  6
BYLAYER
 62
     1
 10
349.669713
 20
-287.358378
 30
0.0
 40
3.000025
 50
270.0
 51
350.992916
  0
ARC
  8
0
  6
BYLAYER
 62
     1
 10
447.448805
 20
-302.858362
 30
0.0
 40
96.000008
 50
144.007595
 51
170.992374
  0
ARC
  8
0
  6
BYLAYER
 62
     1
 10
367.348375
 20
-244.678243
 30
0.0
 40
3.000015
 50
324.008146
 51
405.000003
  0
LINE
  8
0
  6
BYLAYER
 62
     1
 10
337.417655
 20
-290.358402
 30
0.0
 11
349.669713
 21
-290.358402
 31
0.0
  0
ARC
  8
0
  6
BYLAYER
 62
     1
 10
337.417655
 20
-287.358378
 30
0.0
 40
3.000025
 50
140.764775
 51
270.0
  0
ARC
  8
0
  6
BYLAYER
 62
     1
 10
262.672921
 20
-226.321778
 30
0.0
 40
93.499985
 50
320.764899
 51
354.235175
  0
LINE
  8
0
  6
BYLAYER
 62
     1
 10
360.806170
 20
-233.893397
 30
0.0
 11
369.469696
 21
-242.556922
 31
0.0
  0
ARC
  8
0
  6
BYLAYER
 62
     1
 10
358.684850
 20
-236.014717
 30
0.0
 40
3.000005
 50
45.000000
 51
174.23528
  0
ARC
  8
0
  6
BYLAYER
 62
     1
 10
262.672921
 20
-226.321778
 30
0.0
 40
87.499977
 50
313.731083
 51
361.268966
  0
ARC
  8
0
  6
BYLAYER
 62
     1
 10
367.348402
 20
-361.038477
 30
0.0
 40
3.000025
 50
314.999996
 51
395.992912
  0
ARC
  8
0
  6
BYLAYER
 62
     1
 10
447.448805
 20
-302.858362
 30
0.0
 40
96.000008
 50
189.007595
 51
215.992374
  0
ARC
  8
0
  6
BYLAYER
 62
     1
 10
349.669691
 20
-318.358362
 30
0.0
 40
3.000015
 50
9.008146
 51
90.000003
  0
LINE
  8
0
  6
BYLAYER
 62
     1
 10
360.806227
 20
-371.823328
 30
0.0
 11
369.469740
 21
-363.159815
 31
0.0
  0
ARC
  8
0
  6
BYLAYER
 62
     1
 10
358.684889
 20
-369.701990
 30
0.0
 40
3.000025
 50
185.764771
 51
314.999996
  0
ARC
  8
0
  6
BYLAYER
 62
     1
 10
262.672987
 20
-379.395105
 30
0.0
 40
93.499985
 50
5.764899
 51
39.235175
  0
LINE
  8
0
  6
BYLAYER
 62
     1
 10
337.417616
 20
-315.358362
 30
0.0
 11
349.669691
 21
-315.358362
 31
0.0
  0
ARC
  8
0
  6
BYLAYER
 62
     1
 10
337.417616
 20
-318.358362
 30
0.0
 40
3.000005
 50
90.0
 51
219.23528
  0
ARC
  8
0
  6
BYLAYER
 62
     1
 10
262.672987
 20
-379.395105
 30
0.0
 40
87.499977
 50
358.731083
 51
406.268966
  0
ARC
  8
0
  6
BYLAYER
 62
     1
 10
431.948821
 20
-400.637454
 30
0.0
 40
3.000025
 50
0.0
 51
80.992916
  0
ARC
  8
0
  6
BYLAYER
 62
     1
 10
447.448805
 20
-302.858362
 30
0.0
 40
96.000008
 50
234.007595
 51
260.992374
  0
ARC
  8
0
  6
BYLAYER
 62
     1
 10
389.268686
 20
-382.958792
 30
0.0
 40
3.000015
 50
54.008146
 51
135.000003
  0
LINE
  8
0
  6
BYLAYER
 62
     1
 10
434.948845
 20
-412.889512
 30
0.0
 11
434.948845
 21
-400.637454
 31
0.0
  0
ARC
  8
0
  6
BYLAYER
 62
     1
 10
431.948821
 20
-412.889512
 30
0.0
 40
3.000025
 50
230.764775
 51
360.0
  0
ARC
  8
0
  6
BYLAYER
 62
     1
 10
370.912221
 20
-487.634246
 30
0.0
 40
93.499985
 50
50.764899
 51
84.235175
  0
LINE
  8
0
  6
BYLAYER
 62
     1
 10
378.483840
 20
-389.500997
 30
0.0
 11
387.147365
 21
-380.837471
 31
0.0
  0
ARC
  8
0
  6
BYLAYER
 62
     1
 10
380.605160
 20
-391.622317
 30
0.0
 40
3.000005
 50
135.000000
 51
264.235280
  0
ARC
  8
0
  6
BYLAYER
 62
     1
 10
370.912221
 20
-487.634246
 30
0.0
 40
87.499977
 50
43.731083
 51
91.268966
  0
ARC
  8
0
  6
BYLAYER
 62
     1
 10
505.628920
 20
-382.958765
 30
0.0
 40
3.000025
 50
44.999996
 51
125.992912
  0
ARC
  8
0
  6
BYLAYER
 62
     1
 10
447.448805
 20
-302.858362
 30
0.0
 40
96.000008
 50
279.007595
 51
305.992374
  0
ARC
  8
0
  6
BYLAYER
 62
     1
 10
462.948805
 20
-400.637476
 30
0.0
 40
3.000015
 50
99.008146
 51
180.000003
  0
LINE
  8
0
  6
BYLAYER
 62
     1
 10
516.413771
 20
-389.500940
 30
0.0
 11
507.750258
 21
-380.837427
 31
0.0
  0
ARC
  8
0
  6
BYLAYER
 62
     1
 10
514.292433
 20
-391.622278
 30
0.0
 40
3.000025
 50
275.764771
 51
404.999996
  0
ARC
  8
0
  6
BYLAYER
 62
     1
 10
523.985548
 20
-487.634180
 30
0.0
 40
93.499985
 50
95.764899
 51
129.235175
  0
LINE
  8
0
  6
BYLAYER
 62
     1
 10
459.948805
 20
-412.889551
 30
0.0
 11
459.948805
 21
-400.637476
 31
0.0
  0
ARC
  8
0
  6
BYLAYER
 62
     1
 10
462.948805
 20
-412.889551
 30
0.0
 40
3.000005
 50
180.000000
 51
309.235280
  0
ARC
  8
0
  6
BYLAYER
 62
     1
 10
523.985548
 20
-487.634180
 30
0.0
 40
87.499977
 50
88.731083
 51
136.268966
  0
ARC
  8
0
  6
BYLAYER
 62
     1
 10
545.227897
 20
-318.358346
 30
0.0
 40
3.000025
 50
90.0
 51
170.992916
  0
ARC
  8
0
  6
BYLAYER
 62
     1
 10
447.448805
 20
-302.858362
 30
0.0
 40
96.000008
 50
324.007595
 51
350.992374
  0
ARC
  8
0
  6
BYLAYER
 62
     1
 10
527.549235
 20
-361.038481
 30
0.0
 40
3.000015
 50
144.008146
 51
225.000003
  0
LINE
  8
0
  6
BYLAYER
 62
     1
 10
557.479955
 20
-315.358322
 30
0.0
 11
545.227897
 21
-315.358322
 31
0.0
  0
ARC
  8
0
  6
BYLAYER
 62
     1
 10
557.479955
 20
-318.358346
 30
0.0
 40
3.000025
 50
320.764775
 51
450.000000
  0
ARC
  8
0
  6
BYLAYER
 62
     1
 10
632.224689
 20
-379.394946
 30
0.0
 40
93.499985
 50
140.764899
 51
174.235175
  0
LINE
  8
0
  6
BYLAYER
 62
     1
 10
534.091440
 20
-371.823327
 30
0.0
 11
525.427914
 21
-363.159802
 31
0.0
  0
ARC
  8
0
  6
BYLAYER
 62
     1
 10
536.212760
 20
-369.702007
 30
0.0
 40
3.000005
 50
225.000000
 51
354.235280
  0
ARC
  8
0
  6
BYLAYER
 62
     1
 10
632.224689
 20
-379.394946
 30
0.0
 40
87.499977
 50
133.731083
 51
181.268966
  0
ARC
  8
0
  6
BYLAYER
 62
     1
 10
527.549208
 20
-244.678247
 30
0.0
 40
3.000025
 50
134.999996
 51
215.992912
  0
ARC
  8
0
  6
BYLAYER
 62
     1
 10
447.448805
 20
-302.858362
 30
0.0
 40
96.000008
 50
9.007595
 51
35.992374
  0
ARC
  8
0
  6
BYLAYER
 62
     1
 10
545.227919
 20
-287.358362
 30
0.0
 40
3.000015
 50
189.008146
 51
270.000003
  0
LINE
  8
0
  6
BYLAYER
 62
     1
 10
534.091383
 20
-233.893396
 30
0.0
 11
525.427870
 21
-242.556909
 31
0.0
  0
ARC
  8
0
  6
BYLAYER
 62
     1
 10
536.212721
 20
-236.014734
 30
0.0
 40
3.000025
 50
5.764771
 51
134.999996
  0
ARC
  8
0
  6
BYLAYER
 62
     1
 10
632.224623
 20
-226.321619
 30
0.0
 40
93.499985
 50
185.764899
 51
219.235175
  0
LINE
  8
0
  6
BYLAYER
 62
     1
 10
557.479994
 20
-290.358362
 30
0.0
 11
545.227919
 21
-290.358362
 31
0.0
  0
ARC
  8
0
  6
BYLAYER
 62
     1
 10
557.479994
 20
-287.358362
 30
0.0
 40
3.000005
 50
270.0
 51
399.23528
  0
ARC
  8
0
  6
BYLAYER
 62
     1
 10
632.224623
 20
-226.321619
 30
0.0
 40
87.499977
 50
178.731083
 51
226.268966
  0
ARC
  8
0
  6
BYLAYER
 62
     1
 10
462.948789
 20
-205.079270
 30
0.0
 40
3.000025
 50
180.000000
 51
260.992916
  0
ARC
  8
0
  6
BYLAYER
 62
     1
 10
447.448805
 20
-302.858362
 30
0.0
 40
96.000008
 50
54.007595
 51
80.992374
  0
ARC
  8
0
  6
BYLAYER
 62
     1
 10
505.628924
 20
-222.757932
 30
0.0
 40
3.000015
 50
234.008146
 51
315.000003
  0
LINE
  8
0
  6
BYLAYER
 62
     1
 10
459.948765
 20
-192.827212
 30
0.0
 11
459.948765
 21
-205.079270
 31
0.0
  0
ARC
  8
0
  6
BYLAYER
 62
     1
 10
462.948789
 20
-192.827212
 30
0.0
 40
3.000025
 50
50.764775
 51
180.000000
  0
ARC
  8
0
  6
BYLAYER
 62
     1
 10
523.985389
 20
-118.082478
 30
0.0
 40
93.499985
 50
230.764899
 51
264.235175
  0
LINE
  8
0
  6
BYLAYER
 62
     1
 10
516.413770
 20
-216.215727
 30
0.0
 11
507.750245
 21
-224.879253
 31
0.0
  0
ARC
  8
0
  6
BYLAYER
 62
     1
 10
514.292450
 20
-214.094407
 30
0.0
 40
3.000005
 50
315.000000
 51
444.235280
  0
ARC
  8
0
  6
BYLAYER
 62
     1
 10
523.985389
 20
-118.082478
 30
0.0
 40
87.499977
 50
223.731083
 51
271.268966
  0
ARC
  8
0
  6
BYLAYER
 62
     1
 10
551.385218
 20
-259.806490
 30
0.0
 40
18.000000
 50
336.575884
 51
428.424116
  0
ARC
  8
0
  6
BYLAYER
 62
     1
 10
570.654553
 20
-268.154707
 30
0.0
 40
3.000000
 50
156.575884
 51
195.731061
  0
LINE
  8
0
  6
BYLAYER
 62
     1
 10
378.260403
 20
-441.559353
 30
0.0
 11
308.747814
 21
-372.046764
 31
0.0
  0
LINE
  8
0
  6
BYLAYER
 62
     1
 10
496.601628
 20
-449.858362
 30
0.0
 11
398.295982
 21
-449.858362
 31
0.0
  0
LINE
  8
0
  6
BYLAYER
 62
     1
 10
586.149796
 20
-372.046764
 30
0.0
 11
516.637207
 21
-441.559353
 31
0.0
  0
LINE
  8
0
  6
BYLAYER
 62
     1
 10
594.448805
 20
-253.705539
 30
0.0
 11
594.448805
 21
-352.011185
 31
0.0
  0
LINE
  8
0
  6
BYLAYER
 62
     1
 10
516.637207
 20
-164.157371
 30
0.0
 11
586.149796
 21
-233.669960
 31
0.0
  0
LINE
  8
0
  6
BYLAYER
 62
     1
 10
398.295982
 20
-155.858362
 30
0.0
 11
496.601628
 21
-155.858362
 31
0.0
  0
LINE
  8
0
  6
BYLAYER
 62
     1
 10
308.747814
 20
-233.669960
 30
0.0
 11
378.260403
 21
-164.157371
 31
0.0
  0
ARC
  8
0
  6
BYLAYER
 62
     1
 10
447.448805
 20
-302.858362
 30
0.0
 40
155.0
 50
243.488541
 51
251.511459
  0
ARC
  8
0
  6
BYLAYER
 62
     1
 10
447.448805
 20
-302.858362
 30
0.0
 40
155.000000
 50
288.488541
 51
296.511459
  0
ARC
  8
0
  6
BYLAYER
 62
     1
 10
447.448805
 20
-302.858362
 30
0.0
 40
155.0
 50
333.488541
 51
341.511459
  0
ARC
  8
0
  6
BYLAYER
 62
     1
 10
447.448805
 20
-302.858362
 30
0.0
 40
155.0
 50
18.488541
 51
26.511459
  0
ARC
  8
0
  6
BYLAYER
 62
     1
 10
447.448805
 20
-302.858362
 30
0.0
 40
155.000000
 50
63.488541
 51
71.511459
  0
ARC
  8
0
  6
BYLAYER
 62
     1
 10
447.448805
 20
-302.858362
 30
0.0
 40
155.000000
 50
108.488541
 51
116.511459
  0
ARC
  8
0
  6
BYLAYER
 62
     1
 10
447.448805
 20
-302.858362
 30
0.0
 40
155.000000
 50
153.488541
 51
161.511459
  0
ARC
  8
0
  6
BYLAYER
 62
     1
 10
447.448805
 20
-302.858362
 30
0.0
 40
155.000000
 50
198.488541
 51
206.511459
  0
LINE
  8
0
  6
BYLAYER
 62
     1
 10
300.448805
 20
-352.011185
 30
0.0
 11
300.448805
 21
-253.705539
 31
0.0
  0
CIRCLE
  8
0
  6
BYLAYER
 62
     1
 10
447.448805
 20
-195.358362
 30
0.0
 40
5.125
  0
ARC
  8
0
  6
BYLAYER
 62
     1
 10
447.448805
 20
-195.358362
 30
0.0
 40
6.000000
 50
352.999995
 51
636.999988
  0
CIRCLE
  8
0
  6
BYLAYER
 62
     1
 10
523.462784
 20
-226.844383
 30
0.0
 40
5.125
  0
ARC
  8
0
  6
BYLAYER
 62
     1
 10
523.462784
 20
-226.844383
 30
0.0
 40
6.0
 50
352.999995
 51
636.999988
  0
CIRCLE
  8
0
  6
BYLAYER
 62
     1
 10
371.434826
 20
-226.844383
 30
0.0
 40
5.125
  0
ARC
  8
0
  6
BYLAYER
 62
     1
 10
371.434826
 20
-226.844383
 30
0.0
 40
6.0
 50
352.999995
 51
636.999988
  0
CIRCLE
  8
0
  6
BYLAYER
 62
     1
 10
339.948805
 20
-302.858362
 30
0.0
 40
5.125
  0
ARC
  8
0
  6
BYLAYER
 62
     1
 10
339.948805
 20
-302.858362
 30
0.0
 40
6.000000
 50
352.999995
 51
636.999988
  0
CIRCLE
  8
0
  6
BYLAYER
 62
     1
 10
371.434826
 20
-378.872341
 30
0.0
 40
5.125
  0
ARC
  8
0
  6
BYLAYER
 62
     1
 10
371.434826
 20
-378.872341
 30
0.0
 40
6.0
 50
352.999995
 51
636.999988
  0
CIRCLE
  8
0
  6
BYLAYER
 62
     1
 10
447.448805
 20
-410.358362
 30
0.0
 40
5.125
  0
ARC
  8
0
  6
BYLAYER
 62
     1
 10
447.448805
 20
-410.358362
 30
0.0
 40
6.000000
 50
352.999995
 51
636.999988
  0
CIRCLE
  8
0
  6
BYLAYER
 62
     1
 10
523.462784
 20
-378.872341
 30
0.0
 40
5.125
  0
ARC
  8
0
  6
BYLAYER
 62
     1
 10
523.462784
 20
-378.872341
 30
0.0
 40
6.0
 50
352.999995
 51
636.999988
  0
CIRCLE
  8
0
  6
BYLAYER
 62
     1
 10
554.948805
 20
-302.858362
 30
0.0
 40
5.125
  0
ARC
  8
0
  6
BYLAYER
 62
     1
 10
554.948805
 20
-302.858362
 30
0.0
 40
6.000000
 50
352.999995
 51
636.999988
  0
ARC
  8
0
  6
BYLAYER
 62
     1
 10
424.326459
 20
-116.672588
 30
0.0
 40
4.041492
 50
270.0
 51
316.109984
  0
ARC
  8
0
  6
BYLAYER
 62
     1
 10
423.914418
 20
-116.276210
 30
0.0
 40
4.613237
 50
316.109984
 51
360.000000
  0
ARC
  8
0
  6
BYLAYER
 62
     1
 10
423.914418
 20
-116.276210
 30
0.0
 40
4.613237
 50
0.0
 51
43.890016
  0
ARC
  8
0
  6
BYLAYER
 62
     1
 10
424.326459
 20
-115.879833
 30
0.0
 40
4.041492
 50
43.890016
 51
90.0
  0
ARC
  8
0
  6
BYLAYER
 62
     1
 10
424.326459
 20
-115.879797
 30
0.0
 40
4.041457
 50
90.0
 51
136.110087
  0
ARC
  8
0
  6
BYLAYER
 62
     1
 10
424.738538
 20
-116.276210
 30
0.0
 40
4.613254
 50
136.110087
 51
180.000000
  0
ARC
  8
0
  6
BYLAYER
 62
     1
 10
424.738538
 20
-116.276210
 30
0.0
 40
4.613254
 50
180.000000
 51
223.889913
  0
ARC
  8
0
  6
BYLAYER
 62
     1
 10
424.326459
 20
-116.672623
 30
0.0
 40
4.041457
 50
223.889913
 51
270.000000
  0
ARC
  8
0
  6
BYLAYER
 62
     1
 10
424.326459
 20
-115.095799
 30
0.0
 40
1.861645
 50
90.0
 51
140.793201
  0
ARC
  8
0
  6
BYLAYER
 62
     1
 10
425.773435
 20
-116.276210
 30
0.0
 40
3.729026
 50
140.793201
 51
180.000000
  0
ARC
  8
0
  6
BYLAYER
 62
     1
 10
425.773413
 20
-116.276210
 30
0.0
 40
3.729004
 50
180.000000
 51
219.206869
  0
ARC
  8
0
  6
BYLAYER
 62
     1
 10
424.326459
 20
-117.456606
 30
0.0
 40
1.861650
 50
219.206869
 51
270.000000
  0
ARC
  8
0
  6
BYLAYER
 62
     1
 10
424.326459
 20
-117.456606
 30
0.0
 40
1.861650
 50
270.0
 51
320.793131
  0
ARC
  8
0
  6
BYLAYER
 62
     1
 10
422.879505
 20
-116.276210
 30
0.0
 40
3.729004
 50
320.793131
 51
360.0
  0
ARC
  8
0
  6
BYLAYER
 62
     1
 10
422.879482
 20
-116.276210
 30
0.0
 40
3.729026
 50
0.0
 51
39.206799
  0
ARC
  8
0
  6
BYLAYER
 62
     1
 10
424.326459
 20
-115.095799
 30
0.0
 40
1.861645
 50
39.206799
 51
90.000000
  0
LINE
  8
0
  6
BYLAYER
 62
     1
 10
410.539484
 20
-120.418211
 30
0.0
 11
410.539484
 21
-112.015840
 31
0.0
  0
LINE
  8
0
  6
BYLAYER
 62
     1
 10
410.539484
 20
-112.015840
 30
0.0
 11
413.955658
 21
-112.015840
 31
0.0
  0
LINE
  8
0
  6
BYLAYER
 62
     1
 10
413.955658
 20
-112.015840
 30
0.0
 11
415.095700
 21
-116.394557
 31
0.0
  0
LINE
  8
0
  6
BYLAYER
 62
     1
 10
410.539484
 20
-120.418211
 30
0.0
 11
412.590778
 21
-120.418211
 31
0.0
  0
LINE
  8
0
  6
BYLAYER
 62
     1
 10
412.590778
 20
-120.418211
 30
0.0
 11
412.590778
 21
-115.566148
 31
0.0
  0
LINE
  8
0
  6
BYLAYER
 62
     1
 10
414.208118
 20
-120.418211
 30
0.0
 11
412.590778
 21
-115.566148
 31
0.0
  0
LINE
  8
0
  6
BYLAYER
 62
     1
 10
419.651917
 20
-120.418211
 30
0.0
 11
419.651917
 21
-112.015840
 31
0.0
  0
LINE
  8
0
  6
BYLAYER
 62
     1
 10
419.651917
 20
-112.015840
 30
0.0
 11
416.235742
 21
-112.015840
 31
0.0
  0
LINE
  8
0
  6
BYLAYER
 62
     1
 10
416.235742
 20
-112.015840
 30
0.0
 11
415.095700
 21
-116.394557
 31
0.0
  0
LINE
  8
0
  6
BYLAYER
 62
     1
 10
419.651917
 20
-120.418211
 30
0.0
 11
417.600623
 21
-120.418211
 31
0.0
  0
LINE
  8
0
  6
BYLAYER
 62
     1
 10
417.600623
 20
-120.418211
 30
0.0
 11
417.600623
 21
-115.566148
 31
0.0
  0
LINE
  8
0
  6
BYLAYER
 62
     1
 10
415.983283
 20
-120.418211
 30
0.0
 11
417.600623
 21
-115.566148
 31
0.0
  0
LINE
  8
0
  6
BYLAYER
 62
     1
 10
415.983283
 20
-120.418211
 30
0.0
 11
414.208118
 21
-120.418211
 31
0.0
  0
LINE
  8
0
  6
BYLAYER
 62
     1
 10
449.711093
 20
-120.418211
 30
0.0
 11
452.906339
 21
-112.015840
 31
0.0
  0
LINE
  8
0
  6
BYLAYER
 62
     1
 10
449.711093
 20
-120.418211
 30
0.0
 11
452.432993
 21
-120.418211
 31
0.0
  0
LINE
  8
0
  6
BYLAYER
 62
     1
 10
452.906339
 20
-112.015840
 30
0.0
 11
455.509891
 21
-112.015840
 31
0.0
  0
LINE
  8
0
  6
BYLAYER
 62
     1
 10
452.432993
 20
-120.418211
 30
0.0
 11
452.836441
 21
-119.234782
 31
0.0
  0
LINE
  8
0
  6
BYLAYER
 62
     1
 10
453.481925
 20
-117.341292
 30
0.0
 11
454.208115
 21
-115.211107
 31
0.0
  0
LINE
  8
0
  6
BYLAYER
 62
     1
 10
458.705179
 20
-120.418211
 30
0.0
 11
455.509891
 21
-112.015840
 31
0.0
  0
LINE
  8
0
  6
BYLAYER
 62
     1
 10
458.705179
 20
-120.418211
 30
0.0
 11
455.983280
 21
-120.418211
 31
0.0
  0
LINE
  8
0
  6
BYLAYER
 62
     1
 10
455.579831
 20
-119.234782
 30
0.0
 11
452.836441
 21
-119.234782
 31
0.0
  0
LINE
  8
0
  6
BYLAYER
 62
     1
 10
454.934305
 20
-117.341292
 30
0.0
 11
453.481925
 21
-117.341292
 31
0.0
  0
LINE
  8
0
  6
BYLAYER
 62
     1
 10
455.983280
 20
-120.418211
 30
0.0
 11
455.579831
 21
-119.234782
 31
0.0
  0
LINE
  8
0
  6
BYLAYER
 62
     1
 10
454.934305
 20
-117.341292
 30
0.0
 11
454.208115
 21
-115.211107
 31
0.0
  0
LINE
  8
0
  6
BYLAYER
 62
     1
 10
428.527655
 20
-114.086852
 30
0.0
 11
430.894513
 21
-114.086852
 31
0.0
  0
LINE
  8
0
  6
BYLAYER
 62
     1
 10
430.894513
 20
-114.086852
 30
0.0
 11
430.894513
 21
-120.418211
 31
0.0
  0
LINE
  8
0
  6
BYLAYER
 62
     1
 10
430.894513
 20
-120.418211
 30
0.0
 11
433.498087
 21
-120.418211
 31
0.0
  0
LINE
  8
0
  6
BYLAYER
 62
     1
 10
433.498087
 20
-120.418211
 30
0.0
 11
433.498087
 21
-114.086852
 31
0.0
  0
LINE
  8
0
  6
BYLAYER
 62
     1
 10
433.498087
 20
-114.086852
 30
0.0
 11
435.864945
 21
-114.086852
 31
0.0
  0
LINE
  8
0
  6
BYLAYER
 62
     1
 10
435.864945
 20
-114.086852
 30
0.0
 11
435.864945
 21
-112.015840
 31
0.0
  0
LINE
  8
0
  6
BYLAYER
 62
     1
 10
435.864945
 20
-112.015840
 30
0.0
 11
428.527655
 21
-112.015840
 31
0.0
  0
LINE
  8
0
  6
BYLAYER
 62
     1
 10
428.527655
 20
-112.015840
 30
0.0
 11
428.527655
 21
-114.086852
 31
0.0
  0
ARC
  8
0
  6
BYLAYER
 62
     1
 10
440.066119
 20
-116.672623
 30
0.0
 40
4.041457
 50
270.0
 51
316.110087
  0
ARC
  8
0
  6
BYLAYER
 62
     1
 10
439.654041
 20
-116.276210
 30
0.0
 40
4.613254
 50
316.110087
 51
360.000000
  0
ARC
  8
0
  6
BYLAYER
 62
     1
 10
439.654057
 20
-116.276210
 30
0.0
 40
4.613237
 50
0.0
 51
43.890016
  0
ARC
  8
0
  6
BYLAYER
 62
     1
 10
440.066098
 20
-115.879833
 30
0.0
 40
4.041492
 50
43.890016
 51
90.0
  0
ARC
  8
0
  6
BYLAYER
 62
     1
 10
440.066098
 20
-115.879797
 30
0.0
 40
4.041457
 50
90.0
 51
136.110087
  0
ARC
  8
0
  6
BYLAYER
 62
     1
 10
440.478177
 20
-116.276210
 30
0.0
 40
4.613254
 50
136.110087
 51
180.000000
  0
ARC
  8
0
  6
BYLAYER
 62
     1
 10
440.478160
 20
-116.276210
 30
0.0
 40
4.613237
 50
180.000000
 51
223.890016
  0
ARC
  8
0
  6
BYLAYER
 62
     1
 10
440.066119
 20
-116.672588
 30
0.0
 40
4.041492
 50
223.890016
 51
270.000000
  0
ARC
  8
0
  6
BYLAYER
 62
     1
 10
440.066098
 20
-115.095799
 30
0.0
 40
1.861645
 50
90.0
 51
140.793201
  0
ARC
  8
0
  6
BYLAYER
 62
     1
 10
441.513075
 20
-116.276210
 30
0.0
 40
3.729026
 50
140.793201
 51
180.000000
  0
ARC
  8
0
  6
BYLAYER
 62
     1
 10
441.513027
 20
-116.276210
 30
0.0
 40
3.728979
 50
180.000000
 51
219.207055
  0
ARC
  8
0
  6
BYLAYER
 62
     1
 10
440.066119
 20
-117.456576
 30
0.0
 40
1.861680
 50
219.207055
 51
270.000000
  0
ARC
  8
0
  6
BYLAYER
 62
     1
 10
440.066119
 20
-117.456606
 30
0.0
 40
1.861650
 50
270.0
 51
320.793131
  0
ARC
  8
0
  6
BYLAYER
 62
     1
 10
438.619165
 20
-116.276210
 30
0.0
 40
3.729004
 50
320.793131
 51
360.000000
  0
ARC
  8
0
  6
BYLAYER
 62
     1
 10
438.619168
 20
-116.276210
 30
0.0
 40
3.729001
 50
0.0
 51
39.206985
  0
ARC
  8
0
  6
BYLAYER
 62
     1
 10
440.066098
 20
-115.095829
 30
0.0
 40
1.861675
 50
39.206985
 51
90.000000
  0
LINE
  8
0
  6
BYLAYER
 62
     1
 10
458.931961
 20
-120.418211
 30
0.0
 11
458.931961
 21
-112.015840
 31
0.0
  0
LINE
  8
0
  6
BYLAYER
 62
     1
 10
458.931961
 20
-112.015840
 30
0.0
 11
464.139044
 21
-112.015840
 31
0.0
  0
ARC
  8
0
  6
BYLAYER
 62
     1
 10
464.139044
 20
-114.382719
 30
0.0
 40
2.366854
 50
287.134650
 51
450.000006
  0
ARC
  8
0
  6
BYLAYER
 62
     1
 10
464.612433
 20
-118.524721
 30
0.0
 40
1.893491
 50
0.0
 51
83.207557
  0
LINE
  8
0
  6
BYLAYER
 62
     1
 10
466.505924
 20
-118.524721
 30
0.0
 11
466.505924
 21
-119.708150
 31
0.0
  0
ARC
  8
0
  6
BYLAYER
 62
     1
 10
468.399414
 20
-119.708150
 30
0.0
 40
1.893491
 50
180.000000
 51
202.024314
  0
LINE
  8
0
  6
BYLAYER
 62
     1
 10
464.040543
 20
-120.418211
 30
0.0
 11
466.644095
 21
-120.418211
 31
0.0
  0
ARC
  8
0
  6
BYLAYER
 62
     1
 10
465.795862
 20
-119.708150
 30
0.0
 40
1.893491
 50
180.000000
 51
202.024314
  0
LINE
  8
0
  6
BYLAYER
 62
     1
 10
463.902371
 20
-119.708150
 30
0.0
 11
463.902371
 21
-118.761415
 31
0.0
  0
LINE
  8
0
  6
BYLAYER
 62
     1
 10
458.931961
 20
-120.418211
 30
0.0
 11
461.417166
 21
-120.418211
 31
0.0
  0
LINE
  8
0
  6
BYLAYER
 62
     1
 10
461.417166
 20
-120.418211
 30
0.0
 11
461.417166
 21
-117.577986
 31
0.0
  0
LINE
  8
0
  6
BYLAYER
 62
     1
 10
462.718942
 20
-117.577986
 30
0.0
 11
461.417166
 21
-117.577986
 31
0.0
  0
ARC
  8
0
  6
BYLAYER
 62
     1
 10
462.718942
 20
-118.761415
 30
0.0
 40
1.183429
 50
0.0
 51
90.000003
  0
LINE
  8
0
  6
BYLAYER
 62
     1
 10
461.417166
 20
-115.684496
 30
0.0
 11
461.417166
 21
-113.909331
 31
0.0
  0
LINE
  8
0
  6
BYLAYER
 62
     1
 10
461.417166
 20
-113.909331
 30
0.0
 11
463.073962
 21
-113.909331
 31
0.0
  0
LINE
  8
0
  6
BYLAYER
 62
     1
 10
461.417166
 20
-115.684496
 30
0.0
 11
463.073962
 21
-115.684496
 31
0.0
  0
ARC
  8
0
  6
BYLAYER
 62
     1
 10
463.073962
 20
-114.796913
 30
0.0
 40
0.887582
 50
270.0
 51
450.000005
  0
LINE
  8
0
  6
BYLAYER
 62
     1
 10
447.640103
 20
-117.761296
 30
0.0
 11
446.101633
 21
-112.015840
 31
0.0
  0
LINE
  8
0
  6
BYLAYER
 62
     1
 10
446.101633
 20
-112.015840
 30
0.0
 11
443.616428
 21
-112.015840
 31
0.0
  0
LINE
  8
0
  6
BYLAYER
 62
     1
 10
443.616428
 20
-112.015840
 30
0.0
 11
446.219980
 21
-120.418211
 31
0.0
  0
LINE
  8
0
  6
BYLAYER
 62
     1
 10
447.640103
 20
-117.761296
 30
0.0
 11
449.178531
 21
-112.015840
 31
0.0
  0
LINE
  8
0
  6
BYLAYER
 62
     1
 10
449.178531
 20
-112.015840
 30
0.0
 11
451.663736
 21
-112.015840
 31
0.0
  0
LINE
  8
0
  6
BYLAYER
 62
     1
 10
451.663736
 20
-112.015840
 30
0.0
 11
449.060184
 21
-120.418211
 31
0.0
  0
LINE
  8
0
  6
BYLAYER
 62
     1
 10
449.060184
 20
-120.418211
 30
0.0
 11
446.219980
 21
-120.418211
 31
0.0
  0
LINE
  8
0
  6
BYLAYER
 62
     1
 10
466.870877
 20
-120.418211
 30
0.0
 11
469.356082
 21
-120.418211
 31
0.0
  0
LINE
  8
0
  6
BYLAYER
 62
     1
 10
469.356082
 20
-120.418211
 30
0.0
 11
469.356082
 21
-112.015840
 31
0.0
  0
LINE
  8
0
  6
BYLAYER
 62
     1
 10
469.356082
 20
-112.015840
 30
0.0
 11
466.870877
 21
-112.015840
 31
0.0
  0
LINE
  8
0
  6
BYLAYER
 62
     1
 10
466.870877
 20
-112.015840
 30
0.0
 11
466.870877
 21
-120.418211
 31
0.0
  0
ARC
  8
0
  6
BYLAYER
 62
     1
 10
474.030646
 20
-116.672623
 30
0.0
 40
4.041457
 50
270.0
 51
316.110087
  0
ARC
  8
0
  6
BYLAYER
 62
     1
 10
473.618567
 20
-116.276210
 30
0.0
 40
4.613254
 50
316.110087
 51
360.0
  0
ARC
  8
0
  6
BYLAYER
 62
     1
 10
473.618567
 20
-116.276210
 30
0.0
 40
4.613254
 50
0.0
 51
43.889913
  0
ARC
  8
0
  6
BYLAYER
 62
     1
 10
474.030646
 20
-115.879797
 30
0.0
 40
4.041457
 50
43.889913
 51
90.0
  0
ARC
  8
0
  6
BYLAYER
 62
     1
 10
474.030646
 20
-115.879797
 30
0.0
 40
4.041457
 50
90.0
 51
136.110087
  0
ARC
  8
0
  6
BYLAYER
 62
     1
 10
474.442725
 20
-116.276210
 30
0.0
 40
4.613254
 50
136.110087
 51
180.0
  0
ARC
  8
0
  6
BYLAYER
 62
     1
 10
474.442725
 20
-116.276210
 30
0.0
 40
4.613254
 50
180.000000
 51
223.889913
  0
ARC
  8
0
  6
BYLAYER
 62
     1
 10
474.030646
 20
-116.672623
 30
0.0
 40
4.041457
 50
223.889913
 51
270.0
  0
ARC
  8
0
  6
BYLAYER
 62
     1
 10
474.030646
 20
-115.095799
 30
0.0
 40
1.861645
 50
39.206799
 51
90.000000
  0
ARC
  8
0
  6
BYLAYER
 62
     1
 10
472.583669
 20
-116.276210
 30
0.0
 40
3.729026
 50
0.0
 51
39.206799
  0
ARC
  8
0
  6
BYLAYER
 62
     1
 10
472.583692
 20
-116.276210
 30
0.0
 40
3.729004
 50
320.793131
 51
360.0
  0
ARC
  8
0
  6
BYLAYER
 62
     1
 10
474.030646
 20
-117.456606
 30
0.0
 40
1.861650
 50
270.0
 51
320.793131
  0
ARC
  8
0
  6
BYLAYER
 62
     1
 10
474.030646
 20
-117.456606
 30
0.0
 40
1.861650
 50
219.206869
 51
270.000000
  0
ARC
  8
0
  6
BYLAYER
 62
     1
 10
475.477600
 20
-116.276210
 30
0.0
 40
3.729004
 50
180.000000
 51
219.206869
  0
ARC
  8
0
  6
BYLAYER
 62
     1
 10
475.477622
 20
-116.276210
 30
0.0
 40
3.729026
 50
140.793201
 51
180.0
  0
ARC
  8
0
  6
BYLAYER
 62
     1
 10
474.030646
 20
-115.095799
 30
0.0
 40
1.861645
 50
90.0
 51
140.793201
  0
ARC
  8
0
  6
BYLAYER
 62
     1
 10
432.070038
 20
-102.396822
 30
0.0
 40
10.401993
 50
174.535650
 51
180.000000
  0
LINE
  8
0
  6
BYLAYER
 62
     1
 10
421.715312
 20
-101.406273
 30
0.0
 11
421.715312
 21
-101.406262
 31
0.0
  0
LINE
  8
0
  6
BYLAYER
 62
     1
 10
421.726631
 20
-101.294370
 30
0.0
 11
422.719375
 21
-100.876410
 31
0.0
  0
ARC
  8
0
  6
BYLAYER
 62
     1
 10
432.070081
 20
-102.396907
 30
0.0
 40
9.473494
 50
159.235383
 51
170.763998
  0
LINE
  8
0
  6
BYLAYER
 62
     1
 10
423.211896
 20
-99.038216
 30
0.0
 11
422.561178
 21
-98.179857
 31
0.0
  0
ARC
  8
0
  6
BYLAYER
 62
     1
 10
432.070038
 20
-102.396822
 30
0.0
 40
10.401981
 50
144.139514
 51
156.083795
  0
LINE
  8
0
  6
BYLAYER
 62
     1
 10
423.571387
 20
-96.398949
 30
0.0
 11
423.572006
 21
-96.398073
 31
0.0
  0
LINE
  8
0
  6
BYLAYER
 62
     1
 10
423.639796
 20
-96.303200
 30
0.0
 11
424.696691
 21
-96.448610
 31
0.0
  0
ARC
  8
0
  6
BYLAYER
 62
     1
 10
432.070038
 20
-102.396822
 30
0.0
 40
9.473437
 50
129.235643
 51
141.105976
  0
LINE
  8
0
  6
BYLAYER
 62
     1
 10
425.923077
 20
-95.188422
 30
0.0
 11
425.924103
 21
-95.187535
 31
0.0
  0
LINE
  8
0
  6
BYLAYER
 62
     1
 10
426.077982
 20
-95.059160
 30
0.0
 11
425.943591
 21
-93.990391
 31
0.0
  0
ARC
  8
0
  6
BYLAYER
 62
     1
 10
432.070038
 20
-102.396822
 30
0.0
 40
10.401992
 50
114.139607
 51
126.083853
  0
LINE
  8
0
  6
BYLAYER
 62
     1
 10
427.709671
 20
-92.952846
 30
0.0
 11
427.710376
 21
-92.952515
 31
0.0
  0
LINE
  8
0
  6
BYLAYER
 62
     1
 10
427.816025
 20
-92.904466
 30
0.0
 11
428.658586
 21
-93.558818
 31
0.0
  0
LINE
  8
0
  6
BYLAYER
 62
     1
 10
428.851230
 20
-93.486967
 30
0.0
 11
428.852298
 21
-93.486594
 31
0.0
  0
ARC
  8
0
  6
BYLAYER
 62
     1
 10
432.070038
 20
-102.396822
 30
0.0
 40
9.473434
 50
99.235601
 51
111.106038
  0
ARC
  8
0
  6
BYLAYER
 62
     1
 10
432.070038
 20
-102.396822
 30
0.0
 40
10.401993
 50
90.0
 51
96.083892
  0
LINE
  8
0
  6
BYLAYER
 62
     1
 10
430.967587
 20
-92.053415
 30
0.0
 11
430.549604
 21
-93.046194
 31
0.0
  0
LINE
  8
0
  6
BYLAYER
 62
     1
 10
442.424753
 20
-101.406273
 30
0.0
 11
442.424753
 21
-101.406262
 31
0.0
  0
LINE
  8
0
  6
BYLAYER
 62
     1
 10
442.413444
 20
-101.294369
 30
0.0
 11
441.420650
 21
-100.876400
 31
0.0
  0
ARC
  8
0
  6
BYLAYER
 62
     1
 10
432.069974
 20
-102.396907
 30
0.0
 40
9.473494
 50
9.235986
 51
20.764650
  0
LINE
  8
0
  6
BYLAYER
 62
     1
 10
440.928227
 20
-99.038117
 30
0.0
 11
441.578899
 21
-98.179860
 31
0.0
  0
ARC
  8
0
  6
BYLAYER
 62
     1
 10
432.070038
 20
-102.396822
 30
0.0
 40
10.401981
 50
23.916189
 51
35.860484
  0
LINE
  8
0
  6
BYLAYER
 62
     1
 10
440.568668
 20
-96.398949
 30
0.0
 11
440.568048
 21
-96.398073
 31
0.0
  0
LINE
  8
0
  6
BYLAYER
 62
     1
 10
440.500280
 20
-96.303200
 30
0.0
 11
439.443459
 21
-96.448596
 31
0.0
  0
ARC
  8
0
  6
BYLAYER
 62
     1
 10
432.070038
 20
-102.396822
 30
0.0
 40
9.473437
 50
38.894050
 51
50.764315
  0
LINE
  8
0
  6
BYLAYER
 62
     1
 10
438.216998
 20
-95.188422
 30
0.0
 11
438.215973
 21
-95.187535
 31
0.0
  0
LINE
  8
0
  6
BYLAYER
 62
     1
 10
438.062121
 20
-95.058989
 30
0.0
 11
438.196462
 21
-93.990374
 31
0.0
  0
ARC
  8
0
  6
BYLAYER
 62
     1
 10
432.070038
 20
-102.396822
 30
0.0
 40
10.401992
 50
53.916300
 51
65.860381
  0
LINE
  8
0
  6
BYLAYER
 62
     1
 10
436.430405
 20
-92.952846
 30
0.0
 11
436.429678
 21
-92.952515
 31
0.0
  0
LINE
  8
0
  6
BYLAYER
 62
     1
 10
436.324053
 20
-92.904467
 30
0.0
 11
435.481500
 21
-93.558789
 31
0.0
  0
LINE
  8
0
  6
BYLAYER
 62
     1
 10
435.288825
 20
-93.486967
 30
0.0
 11
435.287778
 21
-93.486594
 31
0.0
  0
ARC
  8
0
  6
BYLAYER
 62
     1
 10
432.070038
 20
-102.396822
 30
0.0
 40
9.473434
 50
68.894081
 51
80.764578
  0
ARC
  8
0
  6
BYLAYER
 62
     1
 10
432.070038
 20
-102.396822
 30
0.0
 40
10.401993
 50
84.535428
 51
90.000003
  0
LINE
  8
0
  6
BYLAYER
 62
     1
 10
433.172492
 20
-92.053415
 30
0.0
 11
433.590374
 21
-93.046025
 31
0.0
  0
ARC
  8
0
  6
BYLAYER
 62
     1
 10
432.070038
 20
-102.396822
 30
0.0
 40
10.401993
 50
180.000000
 51
186.083899
  0
LINE
  8
0
  6
BYLAYER
 62
     1
 10
421.715312
 20
-103.387360
 30
0.0
 11
421.715312
 21
-103.387381
 31
0.0
  0
LINE
  8
0
  6
BYLAYER
 62
     1
 10
421.726631
 20
-103.499273
 30
0.0
 11
422.719405
 21
-103.917245
 31
0.0
  0
ARC
  8
0
  6
BYLAYER
 62
     1
 10
432.070081
 20
-102.396736
 30
0.0
 40
9.473494
 50
189.236002
 51
200.764629
  0
LINE
  8
0
  6
BYLAYER
 62
     1
 10
423.211931
 20
-105.755385
 30
0.0
 11
422.561174
 21
-106.613779
 31
0.0
  0
ARC
  8
0
  6
BYLAYER
 62
     1
 10
432.070038
 20
-102.396822
 30
0.0
 40
10.401981
 50
203.916158
 51
215.860410
  0
LINE
  8
0
  6
BYLAYER
 62
     1
 10
423.571387
 20
-108.394684
 30
0.0
 11
423.572006
 21
-108.395560
 31
0.0
  0
LINE
  8
0
  6
BYLAYER
 62
     1
 10
423.639788
 20
-108.490432
 30
0.0
 11
424.696782
 21
-108.345024
 31
0.0
  0
ARC
  8
0
  6
BYLAYER
 62
     1
 10
432.070038
 20
-102.396822
 30
0.0
 40
9.473437
 50
218.894045
 51
230.764345
  0
LINE
  8
0
  6
BYLAYER
 62
     1
 10
425.923077
 20
-109.605211
 30
0.0
 11
425.924103
 21
-109.606097
 31
0.0
  0
LINE
  8
0
  6
BYLAYER
 62
     1
 10
426.077981
 20
-109.734482
 30
0.0
 11
425.943591
 21
-110.803253
 31
0.0
  0
ARC
  8
0
  6
BYLAYER
 62
     1
 10
432.070038
 20
-102.396822
 30
0.0
 40
10.401992
 50
233.916148
 51
245.860401
  0
LINE
  8
0
  6
BYLAYER
 62
     1
 10
427.709671
 20
-111.840787
 30
0.0
 11
427.710376
 21
-111.841129
 31
0.0
  0
LINE
  8
0
  6
BYLAYER
 62
     1
 10
427.816026
 20
-111.889177
 30
0.0
 11
428.658686
 21
-111.234733
 31
0.0
  0
LINE
  8
0
  6
BYLAYER
 62
     1
 10
428.851230
 20
-111.306665
 30
0.0
 11
428.852298
 21
-111.307050
 31
0.0
  0
LINE
  8
0
  6
BYLAYER
 62
     1
 10
442.424753
 20
-103.387360
 30
0.0
 11
442.424753
 21
-103.387381
 31
0.0
  0
LINE
  8
0
  6
BYLAYER
 62
     1
 10
442.413443
 20
-103.499275
 30
0.0
 11
441.420650
 21
-103.917243
 31
0.0
  0
LINE
  8
0
  6
BYLAYER
 62
     1
 10
440.928136
 20
-105.755409
 30
0.0
 11
441.578910
 21
-106.613786
 31
0.0
  0
LINE
  8
0
  6
BYLAYER
 62
     1
 10
440.568668
 20
-108.394684
 30
0.0
 11
440.568048
 21
-108.395560
 31
0.0
  0
LINE
  8
0
  6
BYLAYER
 62
     1
 10
440.500301
 20
-108.490433
 30
0.0
 11
439.443237
 21
-108.345020
 31
0.0
  0
LINE
  8
0
  6
BYLAYER
 62
     1
 10
438.216998
 20
-109.605211
 30
0.0
 11
438.215973
 21
-109.606097
 31
0.0
  0
LINE
  8
0
  6
BYLAYER
 62
     1
 10
438.062101
 20
-109.734478
 30
0.0
 11
438.196462
 21
-110.803269
 31
0.0
  0
LINE
  8
0
  6
BYLAYER
 62
     1
 10
436.324052
 20
-111.889176
 30
0.0
 11
435.481372
 21
-111.234741
 31
0.0
  0
ARC
  8
0
  6
BYLAYER
 62
     1
 10
432.070038
 20
-102.396822
 30
0.0
 40
9.473437
 50
309.235697
 51
321.105929
  0
ARC
  8
0
  6
BYLAYER
 62
     1
 10
432.070038
 20
-102.396822
 30
0.0
 40
9.473434
 50
248.893873
 51
270.0
  0
ARC
  8
0
  6
BYLAYER
 62
     1
 10
432.070038
 20
-102.396822
 30
0.0
 40
10.401992
 50
294.783232
 51
306.083699
  0
LINE
  8
0
  6
BYLAYER
 62
     1
 10
436.429678
 20
-111.841129
 30
0.0
 11
436.324692
 21
-111.890533
 31
0.0
  0
ARC
  8
0
  6
BYLAYER
 62
     1
 10
432.070038
 20
-102.396822
 30
0.0
 40
10.401981
 50
324.139593
 51
336.083825
  0
ARC
  8
0
  6
BYLAYER
 62
     1
 10
432.069974
 20
-102.396736
 30
0.0
 40
9.473494
 50
339.235210
 51
350.764014
  0
ARC
  8
0
  6
BYLAYER
 62
     1
 10
432.070038
 20
-102.396822
 30
0.0
 40
10.401993
 50
353.916089
 51
360.0
  0
ARC
  8
0
  6
BYLAYER
 62
     1
 10
432.070038
 20
-102.396822
 30
0.0
 40
10.401993
 50
0.0
 51
6.083907
  0
ARC
  8
0
  6
BYLAYER
 62
     1
 10
432.070038
 20
-102.396822
 30
0.0
 40
9.473434
 50
270.0
 51
291.106008
  0
CIRCLE
  8
0
  6
BYLAYER
 62
     1
 10
432.070038
 20
-102.396822
 30
0.0
 40
5.082113
  0
CIRCLE
  8
0
  6
BYLAYER
 62
     1
 10
432.070038
 20
-102.396822
 30
0.0
 40
7.414445
  0
LINE
  8
0
  6
BYLAYER
 62
     1
 10
1489.948805
 20
-817.858362
 30
0.0
 11
1489.948805
 21
-742.858362
 31
0.0
  0
LINE
  8
0
  6
BYLAYER
 62
     1
 10
1489.948805
 20
-1142.858362
 30
0.0
 11
1304.948805
 21
-1142.858362
 31
0.0
  0
LINE
  8
0
  6
BYLAYER
 62
     1
 10
1489.948805
 20
-742.858362
 30
0.0
 11
1304.948805
 21
-742.858362
 31
0.0
  0
LINE
  8
0
  6
BYLAYER
 62
     1
 10
1304.948805
 20
-817.858362
 30
0.0
 11
1304.948805
 21
-742.858362
 31
0.0
  0
LINE
  8
0
  6
BYLAYER
 62
     1
 10
1301.448805
 20
-847.858362
 30
0.0
 11
1317.448805
 21
-847.019838
 31
0.0
  0
LINE
  8
0
  6
BYLAYER
 62
     1
 10
1304.948805
 20
-817.858362
 30
0.0
 11
1317.448805
 21
-830.358362
 31
0.0
  0
LINE
  8
0
  6
BYLAYER
 62
     1
 10
1317.448805
 20
-1055.358362
 30
0.0
 11
1317.448805
 21
-830.358362
 31
0.0
  0
LINE
  8
0
  6
BYLAYER
 62
     1
 10
1489.948805
 20
-817.858362
 30
0.0
 11
1477.448805
 21
-830.358362
 31
0.0
  0
LINE
  8
0
  6
BYLAYER
 62
     1
 10
1477.448805
 20
-830.358362
 30
0.0
 11
1477.448805
 21
-1055.358362
 31
0.0
  0
LINE
  8
0
  6
BYLAYER
 62
     1
 10
1489.948805
 20
-1067.858362
 30
0.0
 11
1489.948805
 21
-1142.858362
 31
0.0
  0
LINE
  8
0
  6
BYLAYER
 62
     1
 10
1489.948805
 20
-1067.858362
 30
0.0
 11
1477.448805
 21
-1055.358362
 31
0.0
  0
LINE
  8
0
  6
BYLAYER
 62
     1
 10
1304.948805
 20
-1067.858362
 30
0.0
 11
1304.948805
 21
-1142.858362
 31
0.0
  0
LINE
  8
0
  6
BYLAYER
 62
     1
 10
1304.948805
 20
-1067.858362
 30
0.0
 11
1317.448805
 21
-1055.358362
 31
0.0
  0
LINE
  8
0
  6
BYLAYER
 62
     1
 10
1304.948805
 20
-1067.858362
 30
0.0
 11
1397.448805
 21
-1063.010642
 31
0.0
  0
LINE
  8
0
  6
BYLAYER
 62
     1
 10
1489.948805
 20
-1067.858362
 30
0.0
 11
1397.448805
 21
-1063.010642
 31
0.0
  0
LINE
  8
0
  6
BYLAYER
 62
     1
 10
1304.948805
 20
-817.858362
 30
0.0
 11
1337.106653
 21
-819.543683
 31
0.0
  0
ARC
  8
0
  6
BYLAYER
 62
     1
 10
1336.949645
 20
-822.539572
 30
0.0
 40
3.000000
 50
359.698092
 51
447.000000
  0
LINE
  8
0
  6
BYLAYER
 62
     1
 10
1489.948805
 20
-817.858362
 30
0.0
 11
1457.790957
 21
-819.543683
 31
0.0
  0
ARC
  8
0
  6
BYLAYER
 62
     1
 10
1457.947965
 20
-822.539572
 30
0.0
 40
3.0
 50
93.000000
 51
180.301908
  0
CIRCLE
  8
0
  6
BYLAYER
 62
     1
 10
1397.448805
 20
-822.858362
 30
0.0
 40
42.5
  0
ARC
  8
0
  6
BYLAYER
 62
     1
 10
1457.170749
 20
-832.529940
 30
0.0
 40
3.0
 50
93.000000
 51
170.801184
  0
CIRCLE
  8
0
  6
BYLAYER
 62
     1
 10
1324.948805
 20
-792.858362
 30
0.0
 40
9.0
  0
CIRCLE
  8
0
  6
BYLAYER
 62
     1
 10
1469.948805
 20
-792.858362
 30
0.0
 40
9.0
  0
CIRCLE
  8
0
  6
BYLAYER
 62
     1
 10
1324.948805
 20
-1092.858362
 30
0.0
 40
9.0
  0
CIRCLE
  8
0
  6
BYLAYER
 62
     1
 10
1469.948805
 20
-1092.858362
 30
0.0
 40
9.0
  0
LINE
  8
0
  6
BYLAYER
 62
     1
 10
1297.948805
 20
-882.858362
 30
0.0
 11
1301.448805
 21
-882.858362
 31
0.0
  0
LINE
  8
0
  6
BYLAYER
 62
     1
 10
1297.948805
 20
-882.858362
 30
0.0
 11
1297.448805
 21
-883.358362
 31
0.0
  0
LINE
  8
0
  6
BYLAYER
 62
     1
 10
1297.948805
 20
-1062.858362
 30
0.0
 11
1301.448805
 21
-1062.858362
 31
0.0
  0
LINE
  8
0
  6
BYLAYER
 62
     1
 10
1297.948805
 20
-1062.858362
 30
0.0
 11
1297.448805
 21
-1062.358362
 31
0.0
  0
LINE
  8
0
  6
BYLAYER
 62
     1
 10
1301.448805
 20
-847.858362
 30
0.0
 11
1301.448805
 21
-1097.858362
 31
0.0
  0
LINE
  8
0
  6
BYLAYER
 62
     1
 10
1301.448805
 20
-1097.858362
 30
0.0
 11
1304.948805
 21
-1098.041789
 31
0.0
  0
LINE
  8
0
  6
BYLAYER
 62
     1
 10
1305.448805
 20
-896.491495
 30
0.0
 11
1305.448805
 21
-957.447970
 31
0.0
  0
ARC
  8
0
  6
BYLAYER
 62
     1
 10
1303.448805
 20
-896.491495
 30
0.0
 40
2.0
 50
0.0
 51
87.0
  0
LINE
  8
0
  6
BYLAYER
 62
     1
 10
1305.448805
 20
-850.466912
 30
0.0
 11
1305.448805
 21
-873.453436
 31
0.0
  0
ARC
  8
0
  6
BYLAYER
 62
     1
 10
1303.448805
 20
-873.453436
 30
0.0
 40
2.0
 50
273.000000
 51
360.000000
  0
ARC
  8
0
  6
BYLAYER
 62
     1
 10
1303.448805
 20
-850.466912
 30
0.0
 40
2.000000
 50
0.0
 51
93.0
  0
LINE
  8
0
  6
BYLAYER
 62
     1
 10
1301.448805
 20
-848.568983
 30
0.0
 11
1303.344133
 21
-848.469653
 31
0.0
  0
LINE
  8
0
  6
BYLAYER
 62
     1
 10
1301.448805
 20
-875.560996
 30
0.0
 11
1303.553477
 21
-875.450695
 31
0.0
  0
LINE
  8
0
  6
BYLAYER
 62
     1
 10
1301.583435
 20
-959.548475
 30
0.0
 11
1303.553477
 21
-959.445229
 31
0.0
  0
ARC
  8
0
  6
BYLAYER
 62
     1
 10
1303.448805
 20
-957.447970
 30
0.0
 40
2.0
 50
273.000000
 51
360.000000
  0
LINE
  8
0
  6
BYLAYER
 62
     1
 10
1301.583435
 20
-986.168142
 30
0.0
 11
1303.553477
 21
-986.271387
 31
0.0
  0
ARC
  8
0
  6
BYLAYER
 62
     1
 10
1303.448805
 20
-988.268646
 30
0.0
 40
2.0
 50
0.0
 51
87.0
  0
LINE
  8
0
  6
BYLAYER
 62
     1
 10
1301.448805
 20
-894.383935
 30
0.0
 11
1303.553477
 21
-894.494236
 31
0.0
  0
LINE
  8
0
  6
BYLAYER
 62
     1
 10
1305.448805
 20
-1049.225229
 30
0.0
 11
1305.448805
 21
-988.268646
 31
0.0
  0
ARC
  8
0
  6
BYLAYER
 62
     1
 10
1303.448805
 20
-1049.225229
 30
0.0
 40
2.0
 50
273.000000
 51
360.000000
  0
LINE
  8
0
  6
BYLAYER
 62
     1
 10
1301.448805
 20
-1097.147741
 30
0.0
 11
1304.948805
 21
-1097.331168
 31
0.0
  0
LINE
  8
0
  6
BYLAYER
 62
     1
 10
1301.448805
 20
-1070.155728
 30
0.0
 11
1304.948805
 21
-1070.339155
 31
0.0
  0
LINE
  8
0
  6
BYLAYER
 62
     1
 10
1301.448805
 20
-1051.332789
 30
0.0
 11
1303.553477
 21
-1051.222488
 31
0.0
  0
LINE
  8
0
  6
BYLAYER
 62
     1
 10
1408.291797
 20
-987.709367
 30
0.0
 11
1474.605813
 21
-984.233997
 31
0.0
  0
ARC
  8
0
  6
BYLAYER
 62
     1
 10
1474.448805
 20
-981.238108
 30
0.0
 40
3.0
 50
273.000000
 51
360.000000
  0
LINE
  8
0
  6
BYLAYER
 62
     1
 10
1386.605813
 20
-987.709367
 30
0.0
 11
1320.291797
 21
-984.233997
 31
0.0
  0
ARC
  8
0
  6
BYLAYER
 62
     1
 10
1320.448805
 20
-981.238108
 30
0.0
 40
3.0
 50
180.000000
 51
267.0
  0
ARC
  8
0
  6
BYLAYER
 62
     1
 10
1386.448805
 20
-990.705256
 30
0.0
 40
3.000000
 50
0.0
 51
87.0
  0
LINE
  8
0
  6
BYLAYER
 62
     1
 10
1405.448805
 20
-990.705256
 30
0.0
 11
1405.448805
 21
-1005.011468
 31
0.0
  0
ARC
  8
0
  6
BYLAYER
 62
     1
 10
1408.448805
 20
-1005.011468
 30
0.0
 40
3.000000
 50
180.000000
 51
267.0
  0
ARC
  8
0
  6
BYLAYER
 62
     1
 10
1408.448805
 20
-990.705256
 30
0.0
 40
3.0
 50
93.000000
 51
180.000000
  0
LINE
  8
0
  6
BYLAYER
 62
     1
 10
1408.291797
 20
-1008.007357
 30
0.0
 11
1474.605813
 21
-1011.482727
 31
0.0
  0
ARC
  8
0
  6
BYLAYER
 62
     1
 10
1474.448805
 20
-1014.478616
 30
0.0
 40
3.000000
 50
0.0
 51
87.0
  0
LINE
  8
0
  6
BYLAYER
 62
     1
 10
1389.448805
 20
-990.705256
 30
0.0
 11
1389.448805
 21
-1005.011468
 31
0.0
  0
ARC
  8
0
  6
BYLAYER
 62
     1
 10
1386.448805
 20
-1005.011468
 30
0.0
 40
3.0
 50
273.000000
 51
360.000000
  0
LINE
  8
0
  6
BYLAYER
 62
     1
 10
1386.605813
 20
-1008.007357
 30
0.0
 11
1320.291797
 21
-1011.482727
 31
0.0
  0
ARC
  8
0
  6
BYLAYER
 62
     1
 10
1320.448805
 20
-1014.478616
 30
0.0
 40
3.000000
 50
93.000000
 51
180.000000
  0
LINE
  8
0
  6
BYLAYER
 62
     1
 10
1445.291797
 20
-1035.770279
 30
0.0
 11
1474.605813
 21
-1034.233997
 31
0.0
  0
ARC
  8
0
  6
BYLAYER
 62
     1
 10
1474.448805
 20
-1031.238108
 30
0.0
 40
3.0
 50
273.000000
 51
360.000000
  0
ARC
  8
0
  6
BYLAYER
 62
     1
 10
1445.448805
 20
-1038.766168
 30
0.0
 40
3.0
 50
93.000000
 51
180.000000
  0
LINE
  8
0
  6
BYLAYER
 62
     1
 10
1386.605813
 20
-1037.709367
 30
0.0
 11
1320.291797
 21
-1034.233997
 31
0.0
  0
ARC
  8
0
  6
BYLAYER
 62
     1
 10
1320.448805
 20
-1031.238108
 30
0.0
 40
3.0
 50
180.000000
 51
267.0
  0
LINE
  8
0
  6
BYLAYER
 62
     1
 10
1405.448805
 20
-1047.644344
 30
0.0
 11
1405.448805
 21
-1054.574777
 31
0.0
  0
ARC
  8
0
  6
BYLAYER
 62
     1
 10
1408.448805
 20
-1054.574777
 30
0.0
 40
3.000000
 50
180.000000
 51
267.0
  0
ARC
  8
0
  6
BYLAYER
 62
     1
 10
1408.448805
 20
-1047.644344
 30
0.0
 40
3.0
 50
93.000000
 51
180.000000
  0
LINE
  8
0
  6
BYLAYER
 62
     1
 10
1389.448805
 20
-1040.705256
 30
0.0
 11
1389.448805
 21
-1054.574777
 31
0.0
  0
ARC
  8
0
  6
BYLAYER
 62
     1
 10
1386.448805
 20
-1054.574777
 30
0.0
 40
3.0
 50
273.000000
 51
360.000000
  0
ARC
  8
0
  6
BYLAYER
 62
     1
 10
1386.448805
 20
-1040.705256
 30
0.0
 40
3.0
 50
0.0
 51
87.0
  0
LINE
  8
0
  6
BYLAYER
 62
     1
 10
1408.291797
 20
-958.007357
 30
0.0
 11
1474.605813
 21
-961.482727
 31
0.0
  0
ARC
  8
0
  6
BYLAYER
 62
     1
 10
1474.448805
 20
-964.478616
 30
0.0
 40
3.000000
 50
0.0
 51
87.0
  0
LINE
  8
0
  6
BYLAYER
 62
     1
 10
1386.605813
 20
-958.007357
 30
0.0
 11
1320.291797
 21
-961.482727
 31
0.0
  0
ARC
  8
0
  6
BYLAYER
 62
     1
 10
1320.448805
 20
-964.478616
 30
0.0
 40
3.0
 50
93.000000
 51
180.000000
  0
ARC
  8
0
  6
BYLAYER
 62
     1
 10
1386.448805
 20
-955.011468
 30
0.0
 40
3.0
 50
273.000000
 51
360.000000
  0
LINE
  8
0
  6
BYLAYER
 62
     1
 10
1405.448805
 20
-955.011468
 30
0.0
 11
1405.448805
 21
-940.705256
 31
0.0
  0
ARC
  8
0
  6
BYLAYER
 62
     1
 10
1408.448805
 20
-955.011468
 30
0.0
 40
3.000000
 50
180.000000
 51
267.0
  0
ARC
  8
0
  6
BYLAYER
 62
     1
 10
1408.448805
 20
-940.705256
 30
0.0
 40
3.0
 50
93.000000
 51
180.000000
  0
LINE
  8
0
  6
BYLAYER
 62
     1
 10
1408.291797
 20
-937.709367
 30
0.0
 11
1474.605813
 21
-934.233997
 31
0.0
  0
ARC
  8
0
  6
BYLAYER
 62
     1
 10
1474.448805
 20
-931.238108
 30
0.0
 40
3.0
 50
273.000000
 51
360.000000
  0
LINE
  8
0
  6
BYLAYER
 62
     1
 10
1389.448805
 20
-955.011468
 30
0.0
 11
1389.448805
 21
-940.705256
 31
0.0
  0
ARC
  8
0
  6
BYLAYER
 62
     1
 10
1386.448805
 20
-940.705256
 30
0.0
 40
3.000000
 50
0.0
 51
87.0
  0
LINE
  8
0
  6
BYLAYER
 62
     1
 10
1386.605813
 20
-937.709367
 30
0.0
 11
1320.291797
 21
-934.233997
 31
0.0
  0
ARC
  8
0
  6
BYLAYER
 62
     1
 10
1320.448805
 20
-931.238108
 30
0.0
 40
3.0
 50
180.000000
 51
267.0
  0
LINE
  8
0
  6
BYLAYER
 62
     1
 10
1408.291797
 20
-908.007357
 30
0.0
 11
1474.605813
 21
-911.482727
 31
0.0
  0
ARC
  8
0
  6
BYLAYER
 62
     1
 10
1474.448805
 20
-914.478616
 30
0.0
 40
3.000000
 50
0.0
 51
87.0
  0
ARC
  8
0
  6
BYLAYER
 62
     1
 10
1408.448805
 20
-905.011468
 30
0.0
 40
3.000000
 50
180.000000
 51
267.0
  0
LINE
  8
0
  6
BYLAYER
 62
     1
 10
1386.605813
 20
-908.007357
 30
0.0
 11
1320.291797
 21
-911.482727
 31
0.0
  0
ARC
  8
0
  6
BYLAYER
 62
     1
 10
1320.448805
 20
-914.478616
 30
0.0
 40
3.0
 50
93.000000
 51
180.000000
  0
LINE
  8
0
  6
BYLAYER
 62
     1
 10
1405.448805
 20
-905.011468
 30
0.0
 11
1405.448805
 21
-890.705256
 31
0.0
  0
LINE
  8
0
  6
BYLAYER
 62
     1
 10
1389.448805
 20
-905.011468
 30
0.0
 11
1389.448805
 21
-890.705256
 31
0.0
  0
ARC
  8
0
  6
BYLAYER
 62
     1
 10
1386.448805
 20
-905.011468
 30
0.0
 40
3.0
 50
273.000000
 51
360.000000
  0
ARC
  8
0
  6
BYLAYER
 62
     1
 10
1386.448805
 20
-890.705256
 30
0.0
 40
3.000000
 50
0.0
 51
87.0
  0
LINE
  8
0
  6
BYLAYER
 62
     1
 10
1408.291797
 20
-887.709367
 30
0.0
 11
1474.605813
 21
-884.233997
 31
0.0
  0
ARC
  8
0
  6
BYLAYER
 62
     1
 10
1474.448805
 20
-881.238108
 30
0.0
 40
3.0
 50
273.000000
 51
360.000000
  0
ARC
  8
0
  6
BYLAYER
 62
     1
 10
1408.448805
 20
-890.705256
 30
0.0
 40
3.0
 50
93.000000
 51
180.000000
  0
LINE
  8
0
  6
BYLAYER
 62
     1
 10
1386.605813
 20
-887.709367
 30
0.0
 11
1320.291797
 21
-884.233997
 31
0.0
  0
ARC
  8
0
  6
BYLAYER
 62
     1
 10
1320.448805
 20
-881.238108
 30
0.0
 40
3.0
 50
180.000000
 51
267.0
  0
LINE
  8
0
  6
BYLAYER
 62
     1
 10
1447.203045
 20
-860.046609
 30
0.0
 11
1474.605813
 21
-861.482727
 31
0.0
  0
ARC
  8
0
  6
BYLAYER
 62
     1
 10
1447.360053
 20
-857.050720
 30
0.0
 40
3.000000
 50
145.586393
 51
267.000000
  0
ARC
  8
0
  6
BYLAYER
 62
     1
 10
1474.448805
 20
-864.478616
 30
0.0
 40
3.000000
 50
0.0
 51
87.0
  0
LINE
  8
0
  6
BYLAYER
 62
     1
 10
1347.694565
 20
-860.046609
 30
0.0
 11
1317.448805
 21
-861.631722
 31
0.0
  0
ARC
  8
0
  6
BYLAYER
 62
     1
 10
1320.448805
 20
-864.478616
 30
0.0
 40
3.0
 50
93.000000
 51
180.000000
  0
ARC
  8
0
  6
BYLAYER
 62
     1
 10
1347.537557
 20
-857.050720
 30
0.0
 40
3.0
 50
273.000000
 51
394.413607
  0
LINE
  8
0
  6
BYLAYER
 62
     1
 10
1397.448805
 20
-880.358362
 30
0.0
 11
1397.448805
 21
-1063.010642
 31
0.0
  0
LINE
  8
0
  6
BYLAYER
 62
     1
 10
1442.448805
 20
-1038.766168
 30
0.0
 11
1442.448805
 21
-1040.011468
 31
0.0
  0
ARC
  8
0
  6
BYLAYER
 62
     1
 10
1439.448805
 20
-1040.011468
 30
0.0
 40
3.000000
 50
273.000000
 51
360.000000
  0
LINE
  8
0
  6
BYLAYER
 62
     1
 10
1439.605813
 20
-1043.007357
 30
0.0
 11
1408.291797
 21
-1044.648455
 31
0.0
  0
LINE
  8
0
  6
BYLAYER
 62
     1
 10
1479.448892
 20
-828.358275
 30
0.0
 11
1457.013741
 21
-829.534051
 31
0.0
  0
LINE
  8
0
  6
BYLAYER
 62
     1
 10
1311.289332
 20
-1061.517835
 30
0.0
 11
1397.134789
 21
-1057.018865
 31
0.0
  0
LINE
  8
0
  6
BYLAYER
 62
     1
 10
1483.608278
 20
-1061.517835
 30
0.0
 11
1397.762821
 21
-1057.018865
 31
0.0
  0
LINE
  8
0
  6
BYLAYER
 62
     1
 10
1315.448718
 20
-828.358275
 30
0.0
 11
1337.883869
 21
-829.534051
 31
0.0
  0
LINE
  8
0
  6
BYLAYER
 62
     1
 10
1397.448805
 20
-747.858362
 30
0.0
 11
1304.948805
 21
-752.706082
 31
0.0
  0
LINE
  8
0
  6
BYLAYER
 62
     1
 10
1397.448805
 20
-747.858362
 30
0.0
 11
1489.948805
 21
-752.706082
 31
0.0
  0
LINE
  8
0
  6
BYLAYER
 62
     1
 10
1397.448805
 20
-1137.858362
 30
0.0
 11
1304.948805
 21
-1133.010642
 31
0.0
  0
LINE
  8
0
  6
BYLAYER
 62
     1
 10
1397.448805
 20
-1137.858362
 30
0.0
 11
1489.948805
 21
-1133.010642
 31
0.0
  0
ARC
  8
0
  6
BYLAYER
 62
     1
 10
1337.726861
 20
-832.529940
 30
0.0
 40
3.0
 50
9.198816
 51
87.000000
  0
ARC
  8
0
  6
BYLAYER
 62
     1
 10
1397.448805
 20
-822.858362
 30
0.0
 40
57.5
 50
179.698092
 51
360.301908
  0
LINE
  8
0
  6
BYLAYER
 62
     1
 10
1297.448805
 20
-883.358362
 30
0.0
 11
1297.448805
 21
-1062.358362
 31
0.0
  0
LINE
  8
0
  6
BYLAYER
 62
     1
 10
1493.448805
 20
-847.858362
 30
0.0
 11
1477.448805
 21
-847.019838
 31
0.0
  0
LINE
  8
0
  6
BYLAYER
 62
     1
 10
1496.948805
 20
-882.858362
 30
0.0
 11
1493.448805
 21
-882.858362
 31
0.0
  0
LINE
  8
0
  6
BYLAYER
 62
     1
 10
1496.948805
 20
-882.858362
 30
0.0
 11
1497.448805
 21
-883.358362
 31
0.0
  0
LINE
  8
0
  6
BYLAYER
 62
     1
 10
1496.948805
 20
-1062.858362
 30
0.0
 11
1493.448805
 21
-1062.858362
 31
0.0
  0
LINE
  8
0
  6
BYLAYER
 62
     1
 10
1496.948805
 20
-1062.858362
 30
0.0
 11
1497.448805
 21
-1062.358362
 31
0.0
  0
LINE
  8
0
  6
BYLAYER
 62
     1
 10
1493.448805
 20
-847.858362
 30
0.0
 11
1493.448805
 21
-1097.858362
 31
0.0
  0
LINE
  8
0
  6
BYLAYER
 62
     1
 10
1493.448805
 20
-1097.858362
 30
0.0
 11
1489.948805
 21
-1098.041789
 31
0.0
  0
LINE
  8
0
  6
BYLAYER
 62
     1
 10
1489.448805
 20
-896.491495
 30
0.0
 11
1489.448805
 21
-957.447970
 31
0.0
  0
ARC
  8
0
  6
BYLAYER
 62
     1
 10
1491.448805
 20
-896.491495
 30
0.0
 40
2.0
 50
93.000000
 51
180.000000
  0
LINE
  8
0
  6
BYLAYER
 62
     1
 10
1489.448805
 20
-850.466912
 30
0.0
 11
1489.448805
 21
-873.453436
 31
0.0
  0
ARC
  8
0
  6
BYLAYER
 62
     1
 10
1491.448805
 20
-873.453436
 30
0.0
 40
2.0
 50
180.000000
 51
267.0
  0
ARC
  8
0
  6
BYLAYER
 62
     1
 10
1491.448805
 20
-850.466912
 30
0.0
 40
2.000000
 50
87.000000
 51
180.000000
  0
LINE
  8
0
  6
BYLAYER
 62
     1
 10
1493.448805
 20
-848.568983
 30
0.0
 11
1491.553477
 21
-848.469653
 31
0.0
  0
LINE
  8
0
  6
BYLAYER
 62
     1
 10
1493.448805
 20
-875.560996
 30
0.0
 11
1491.344133
 21
-875.450695
 31
0.0
  0
LINE
  8
0
  6
BYLAYER
 62
     1
 10
1493.314175
 20
-959.548475
 30
0.0
 11
1491.344133
 21
-959.445229
 31
0.0
  0
ARC
  8
0
  6
BYLAYER
 62
     1
 10
1491.448805
 20
-957.447970
 30
0.0
 40
2.0
 50
180.000000
 51
267.0
  0
LINE
  8
0
  6
BYLAYER
 62
     1
 10
1493.314175
 20
-986.168142
 30
0.0
 11
1491.344133
 21
-986.271387
 31
0.0
  0
ARC
  8
0
  6
BYLAYER
 62
     1
 10
1491.448805
 20
-988.268646
 30
0.0
 40
2.0
 50
93.000000
 51
180.000000
  0
LINE
  8
0
  6
BYLAYER
 62
     1
 10
1493.448805
 20
-894.383935
 30
0.0
 11
1491.344133
 21
-894.494236
 31
0.0
  0
LINE
  8
0
  6
BYLAYER
 62
     1
 10
1489.448805
 20
-1049.225229
 30
0.0
 11
1489.448805
 21
-988.268646
 31
0.0
  0
ARC
  8
0
  6
BYLAYER
 62
     1
 10
1491.448805
 20
-1049.225229
 30
0.0
 40
2.0
 50
180.000000
 51
267.0
  0
LINE
  8
0
  6
BYLAYER
 62
     1
 10
1493.448805
 20
-1097.147741
 30
0.0
 11
1489.948805
 21
-1097.331168
 31
0.0
  0
LINE
  8
0
  6
BYLAYER
 62
     1
 10
1493.448805
 20
-1070.155728
 30
0.0
 11
1489.948805
 21
-1070.339155
 31
0.0
  0
LINE
  8
0
  6
BYLAYER
 62
     1
 10
1493.448805
 20
-1051.332789
 30
0.0
 11
1491.344133
 21
-1051.222488
 31
0.0
  0
LINE
  8
0
  6
BYLAYER
 62
     1
 10
1497.448805
 20
-883.358362
 30
0.0
 11
1497.448805
 21
-1062.358362
 31
0.0
  0
LINE
  8
0
  6
BYLAYER
 62
     1
 10
277.448805
 20
-880.358362
 30
0.0
 11
277.448805
 21
-1065.358362
 31
0.0
  0
LINE
  8
0
  6
BYLAYER
 62
     1
 10
617.448805
 20
-880.358362
 30
0.0
 11
617.448805
 21
-1065.358362
 31
0.0
  0
LINE
  8
0
  6
BYLAYER
 62
     1
 10
352.448805
 20
-880.358362
 30
0.0
 11
277.448805
 21
-880.358362
 31
0.0
  0
LINE
  8
0
  6
BYLAYER
 62
     1
 10
617.448805
 20
-880.358362
 30
0.0
 11
542.448805
 21
-880.358362
 31
0.0
  0
LINE
  8
0
  6
BYLAYER
 62
     1
 10
352.448805
 20
-1065.358362
 30
0.0
 11
277.448805
 21
-1065.358362
 31
0.0
  0
LINE
  8
0
  6
BYLAYER
 62
     1
 10
617.448805
 20
-1065.358362
 30
0.0
 11
542.448805
 21
-1065.358362
 31
0.0
  0
LINE
  8
0
  6
BYLAYER
 62
     1
 10
352.448805
 20
-880.358362
 30
0.0
 11
364.948805
 21
-892.858362
 31
0.0
  0
LINE
  8
0
  6
BYLAYER
 62
     1
 10
542.448805
 20
-1065.358362
 30
0.0
 11
529.948805
 21
-1052.858362
 31
0.0
  0
LINE
  8
0
  6
BYLAYER
 62
     1
 10
542.448805
 20
-880.358362
 30
0.0
 11
529.948805
 21
-892.858362
 31
0.0
  0
LINE
  8
0
  6
BYLAYER
 62
     1
 10
352.448805
 20
-1065.358362
 30
0.0
 11
364.948805
 21
-1052.858362
 31
0.0
  0
LINE
  8
0
  6
BYLAYER
 62
     1
 10
529.948805
 20
-892.858362
 30
0.0
 11
364.948805
 21
-892.858362
 31
0.0
  0
LINE
  8
0
  6
BYLAYER
 62
     1
 10
529.948805
 20
-1052.858362
 30
0.0
 11
364.948805
 21
-1052.858362
 31
0.0
  0
LINE
  8
0
  6
BYLAYER
 62
     1
 10
352.448805
 20
-1065.358362
 30
0.0
 11
357.296525
 21
-972.858362
 31
0.0
  0
LINE
  8
0
  6
BYLAYER
 62
     1
 10
542.448805
 20
-880.358362
 30
0.0
 11
538.151853
 21
-962.349092
 31
0.0
  0
LINE
  8
0
  6
BYLAYER
 62
     1
 10
352.448805
 20
-880.358362
 30
0.0
 11
357.296525
 21
-972.858362
 31
0.0
  0
LINE
  8
0
  6
BYLAYER
 62
     1
 10
542.448805
 20
-1065.358362
 30
0.0
 11
538.151853
 21
-983.367632
 31
0.0
  0
CIRCLE
  8
0
  6
BYLAYER
 62
     1
 10
327.448805
 20
-1045.358362
 30
0.0
 40
9.0
  0
CIRCLE
  8
0
  6
BYLAYER
 62
     1
 10
327.448805
 20
-900.358362
 30
0.0
 40
9.0
  0
CIRCLE
  8
0
  6
BYLAYER
 62
     1
 10
567.448805
 20
-1045.358362
 30
0.0
 40
9.0
  0
CIRCLE
  8
0
  6
BYLAYER
 62
     1
 10
567.448805
 20
-900.358362
 30
0.0
 40
9.0
  0
CIRCLE
  8
0
  6
BYLAYER
 62
     1
 10
527.448805
 20
-972.858362
 30
0.0
 40
15.0
  0
LINE
  8
0
  6
BYLAYER
 62
     1
 10
429.601911
 20
-964.858362
 30
0.0
 11
415.295699
 21
-964.858362
 31
0.0
  0
LINE
  8
0
  6
BYLAYER
 62
     1
 10
379.601911
 20
-964.858362
 30
0.0
 11
365.732390
 21
-964.858362
 31
0.0
  0
ARC
  8
0
  6
BYLAYER
 62
     1
 10
365.732390
 20
-961.858362
 30
0.0
 40
3.0
 50
183.000000
 51
270.000000
  0
ARC
  8
0
  6
BYLAYER
 62
     1
 10
379.601911
 20
-961.858362
 30
0.0
 40
3.0
 50
270.0
 51
357.0
  0
LINE
  8
0
  6
BYLAYER
 62
     1
 10
479.601911
 20
-964.858362
 30
0.0
 11
465.295699
 21
-964.858362
 31
0.0
  0
ARC
  8
0
  6
BYLAYER
 62
     1
 10
465.295699
 20
-961.858362
 30
0.0
 40
3.0
 50
183.000000
 51
270.000000
  0
LINE
  8
0
  6
BYLAYER
 62
     1
 10
379.601911
 20
-980.858362
 30
0.0
 11
365.732390
 21
-980.858362
 31
0.0
  0
ARC
  8
0
  6
BYLAYER
 62
     1
 10
365.732390
 20
-983.858362
 30
0.0
 40
3.0
 50
90.0
 51
177.0
  0
ARC
  8
0
  6
BYLAYER
 62
     1
 10
379.601911
 20
-983.858362
 30
0.0
 40
3.0
 50
3.000000
 51
90.000000
  0
LINE
  8
0
  6
BYLAYER
 62
     1
 10
429.601911
 20
-980.858362
 30
0.0
 11
415.295699
 21
-980.858362
 31
0.0
  0
LINE
  8
0
  6
BYLAYER
 62
     1
 10
479.601911
 20
-980.858362
 30
0.0
 11
465.295699
 21
-980.858362
 31
0.0
  0
ARC
  8
0
  6
BYLAYER
 62
     1
 10
465.295699
 20
-983.858362
 30
0.0
 40
3.0
 50
90.0
 51
177.0
  0
LINE
  8
0
  6
BYLAYER
 62
     1
 10
462.299810
 20
-983.701354
 30
0.0
 11
458.824440
 21
-1050.015370
 31
0.0
  0
ARC
  8
0
  6
BYLAYER
 62
     1
 10
455.828551
 20
-1049.858362
 30
0.0
 40
3.0
 50
270.0
 51
357.0
  0
LINE
  8
0
  6
BYLAYER
 62
     1
 10
432.597800
 20
-962.015370
 30
0.0
 11
436.073170
 21
-895.701354
 31
0.0
  0
ARC
  8
0
  6
BYLAYER
 62
     1
 10
439.069059
 20
-895.858362
 30
0.0
 40
3.0
 50
90.0
 51
177.0
  0
ARC
  8
0
  6
BYLAYER
 62
     1
 10
429.601911
 20
-961.858362
 30
0.0
 40
3.0
 50
270.0
 51
357.0
  0
LINE
  8
0
  6
BYLAYER
 62
     1
 10
462.299810
 20
-962.015370
 30
0.0
 11
458.824440
 21
-895.701354
 31
0.0
  0
ARC
  8
0
  6
BYLAYER
 62
     1
 10
455.828551
 20
-895.858362
 30
0.0
 40
3.0
 50
3.000000
 51
90.000000
  0
LINE
  8
0
  6
BYLAYER
 62
     1
 10
432.597800
 20
-983.701354
 30
0.0
 11
436.073170
 21
-1050.015370
 31
0.0
  0
ARC
  8
0
  6
BYLAYER
 62
     1
 10
439.069059
 20
-1049.858362
 30
0.0
 40
3.000000
 50
183.000000
 51
270.000000
  0
ARC
  8
0
  6
BYLAYER
 62
     1
 10
429.601911
 20
-983.858362
 30
0.0
 40
3.0
 50
3.000000
 51
90.000000
  0
LINE
  8
0
  6
BYLAYER
 62
     1
 10
382.597800
 20
-983.701354
 30
0.0
 11
386.073170
 21
-1050.015370
 31
0.0
  0
ARC
  8
0
  6
BYLAYER
 62
     1
 10
389.069059
 20
-1049.858362
 30
0.0
 40
3.000000
 50
183.000000
 51
270.000000
  0
LINE
  8
0
  6
BYLAYER
 62
     1
 10
412.299810
 20
-962.015370
 30
0.0
 11
408.824440
 21
-895.701354
 31
0.0
  0
ARC
  8
0
  6
BYLAYER
 62
     1
 10
405.828551
 20
-895.858362
 30
0.0
 40
3.0
 50
3.000000
 51
90.000000
  0
ARC
  8
0
  6
BYLAYER
 62
     1
 10
415.295699
 20
-961.858362
 30
0.0
 40
3.0
 50
183.000000
 51
270.000000
  0
LINE
  8
0
  6
BYLAYER
 62
     1
 10
511.990484
 20
-956.113069
 30
0.0
 11
508.824440
 21
-895.701354
 31
0.0
  0
ARC
  8
0
  6
BYLAYER
 62
     1
 10
514.986372
 20
-955.956061
 30
0.0
 40
3.0
 50
183.000000
 51
306.402156
  0
ARC
  8
0
  6
BYLAYER
 62
     1
 10
505.828551
 20
-895.858362
 30
0.0
 40
3.000000
 50
3.000000
 51
90.000000
  0
LINE
  8
0
  6
BYLAYER
 62
     1
 10
482.597800
 20
-983.701354
 30
0.0
 11
486.073170
 21
-1050.015370
 31
0.0
  0
ARC
  8
0
  6
BYLAYER
 62
     1
 10
489.069059
 20
-1049.858362
 30
0.0
 40
3.000000
 50
183.000000
 51
270.000000
  0
ARC
  8
0
  6
BYLAYER
 62
     1
 10
479.601911
 20
-983.858362
 30
0.0
 40
3.0
 50
3.000000
 51
90.000000
  0
LINE
  8
0
  6
BYLAYER
 62
     1
 10
382.597800
 20
-962.015370
 30
0.0
 11
386.073170
 21
-895.701354
 31
0.0
  0
ARC
  8
0
  6
BYLAYER
 62
     1
 10
389.069059
 20
-895.858362
 30
0.0
 40
3.0
 50
90.0
 51
177.0
  0
LINE
  8
0
  6
BYLAYER
 62
     1
 10
482.597800
 20
-962.015370
 30
0.0
 11
486.073170
 21
-895.701354
 31
0.0
  0
ARC
  8
0
  6
BYLAYER
 62
     1
 10
489.069059
 20
-895.858362
 30
0.0
 40
3.0
 50
90.0
 51
177.0
  0
ARC
  8
0
  6
BYLAYER
 62
     1
 10
479.601911
 20
-961.858362
 30
0.0
 40
3.0
 50
270.0
 51
357.0
  0
LINE
  8
0
  6
BYLAYER
 62
     1
 10
511.990484
 20
-989.603655
 30
0.0
 11
508.824440
 21
-1050.015370
 31
0.0
  0
ARC
  8
0
  6
BYLAYER
 62
     1
 10
514.986372
 20
-989.760663
 30
0.0
 40
3.0
 50
53.597844
 51
177.000000
  0
ARC
  8
0
  6
BYLAYER
 62
     1
 10
505.828551
 20
-1049.858362
 30
0.0
 40
3.0
 50
270.0
 51
357.0
  0
LINE
  8
0
  6
BYLAYER
 62
     1
 10
412.299810
 20
-983.701354
 30
0.0
 11
408.824440
 21
-1050.015370
 31
0.0
  0
ARC
  8
0
  6
BYLAYER
 62
     1
 10
405.828551
 20
-1049.858362
 30
0.0
 40
3.0
 50
270.0
 51
357.0
  0
ARC
  8
0
  6
BYLAYER
 62
     1
 10
415.295699
 20
-983.858362
 30
0.0
 40
3.0
 50
90.0
 51
177.0
  0
LINE
  8
0
  6
BYLAYER
 62
     1
 10
358.789332
 20
-1059.017835
 30
0.0
 11
363.304759
 21
-972.858362
 31
0.0
  0
LINE
  8
0
  6
BYLAYER
 62
     1
 10
358.789332
 20
-886.698889
 30
0.0
 11
363.304759
 21
-972.858362
 31
0.0
  0
LINE
  8
0
  6
BYLAYER
 62
     1
 10
536.108278
 20
-1059.017835
 30
0.0
 11
532.336072
 21
-987.039851
 31
0.0
  0
LINE
  8
0
  6
BYLAYER
 62
     1
 10
536.108278
 20
-886.698889
 30
0.0
 11
532.336072
 21
-958.676873
 31
0.0
  0
LINE
  8
0
  6
BYLAYER
 62
     1
 10
572.448805
 20
-876.858362
 30
0.0
 11
572.632232
 21
-880.358362
 31
0.0
  0
LINE
  8
0
  6
BYLAYER
 62
     1
 10
537.448805
 20
-872.858362
 30
0.0
 11
357.448805
 21
-872.858362
 31
0.0
  0
LINE
  8
0
  6
BYLAYER
 62
     1
 10
537.448805
 20
-872.858362
 30
0.0
 11
537.448805
 21
-876.858362
 31
0.0
  0
LINE
  8
0
  6
BYLAYER
 62
     1
 10
357.448805
 20
-872.858362
 30
0.0
 11
357.448805
 21
-876.858362
 31
0.0
  0
LINE
  8
0
  6
BYLAYER
 62
     1
 10
572.448805
 20
-876.858362
 30
0.0
 11
322.448805
 21
-876.858362
 31
0.0
  0
LINE
  8
0
  6
BYLAYER
 62
     1
 10
322.448805
 20
-876.858362
 30
0.0
 11
322.265378
 21
-880.358362
 31
0.0
  0
LINE
  8
0
  6
BYLAYER
 62
     1
 10
523.815672
 20
-880.858362
 30
0.0
 11
462.859197
 21
-880.858362
 31
0.0
  0
ARC
  8
0
  6
BYLAYER
 62
     1
 10
462.859197
 20
-878.858362
 30
0.0
 40
2.0
 50
183.000000
 51
270.000000
  0
ARC
  8
0
  6
BYLAYER
 62
     1
 10
523.815672
 20
-878.858362
 30
0.0
 40
2.0
 50
270.0
 51
357.0
  0
LINE
  8
0
  6
BYLAYER
 62
     1
 10
571.738184
 20
-876.858362
 30
0.0
 11
571.921611
 21
-880.358362
 31
0.0
  0
LINE
  8
0
  6
BYLAYER
 62
     1
 10
544.746171
 20
-876.858362
 30
0.0
 11
544.929598
 21
-880.358362
 31
0.0
  0
LINE
  8
0
  6
BYLAYER
 62
     1
 10
460.758692
 20
-876.992992
 30
0.0
 11
460.861938
 21
-878.963034
 31
0.0
  0
LINE
  8
0
  6
BYLAYER
 62
     1
 10
434.139025
 20
-876.992992
 30
0.0
 11
434.035780
 21
-878.963034
 31
0.0
  0
LINE
  8
0
  6
BYLAYER
 62
     1
 10
525.923232
 20
-876.858362
 30
0.0
 11
525.812931
 21
-878.963034
 31
0.0
  0
LINE
  8
0
  6
BYLAYER
 62
     1
 10
371.081938
 20
-880.858362
 30
0.0
 11
432.038521
 21
-880.858362
 31
0.0
  0
ARC
  8
0
  6
BYLAYER
 62
     1
 10
371.081938
 20
-878.858362
 30
0.0
 40
2.0
 50
183.000000
 51
270.000000
  0
ARC
  8
0
  6
BYLAYER
 62
     1
 10
432.038521
 20
-878.858362
 30
0.0
 40
2.0
 50
270.0
 51
357.0
  0
LINE
  8
0
  6
BYLAYER
 62
     1
 10
323.159426
 20
-876.858362
 30
0.0
 11
322.975999
 21
-880.358362
 31
0.0
  0
LINE
  8
0
  6
BYLAYER
 62
     1
 10
350.151439
 20
-876.858362
 30
0.0
 11
349.968012
 21
-880.358362
 31
0.0
  0
LINE
  8
0
  6
BYLAYER
 62
     1
 10
368.974378
 20
-876.858362
 30
0.0
 11
369.084679
 21
-878.963034
 31
0.0
  0
LINE
  8
0
  6
BYLAYER
 62
     1
 10
282.448805
 20
-972.858362
 30
0.0
 11
287.296525
 21
-880.358362
 31
0.0
  0
LINE
  8
0
  6
BYLAYER
 62
     1
 10
612.448805
 20
-972.858362
 30
0.0
 11
607.601085
 21
-1065.358362
 31
0.0
  0
LINE
  8
0
  6
BYLAYER
 62
     1
 10
282.448805
 20
-972.858362
 30
0.0
 11
287.296525
 21
-1065.358362
 31
0.0
  0
LINE
  8
0
  6
BYLAYER
 62
     1
 10
612.448805
 20
-972.858362
 30
0.0
 11
607.601085
 21
-880.358362
 31
0.0
  0
ARC
  8
0
  6
BYLAYER
 62
     1
 10
527.448805
 20
-972.858362
 30
0.0
 40
18.000000
 50
233.597844
 51
276.107410
  0
ARC
  8
0
  6
BYLAYER
 62
     1
 10
529.683051
 20
-993.739170
 30
0.0
 40
3.0
 50
3.000000
 51
96.107410
  0
ARC
  8
0
  6
BYLAYER
 62
     1
 10
527.448805
 20
-972.858362
 30
0.0
 40
18.0
 50
83.892590
 51
126.402156
  0
ARC
  8
0
  6
BYLAYER
 62
     1
 10
529.683051
 20
-951.977554
 30
0.0
 40
3.000000
 50
263.892590
 51
357.000000
  0
LINE
  8
0
  6
BYLAYER
 62
     1
 10
572.448805
 20
-1068.858362
 30
0.0
 11
572.632232
 21
-1065.358362
 31
0.0
  0
LINE
  8
0
  6
BYLAYER
 62
     1
 10
537.448805
 20
-1072.858362
 30
0.0
 11
357.448805
 21
-1072.858362
 31
0.0
  0
LINE
  8
0
  6
BYLAYER
 62
     1
 10
537.448805
 20
-1072.858362
 30
0.0
 11
537.448805
 21
-1068.858362
 31
0.0
  0
LINE
  8
0
  6
BYLAYER
 62
     1
 10
357.448805
 20
-1072.858362
 30
0.0
 11
357.448805
 21
-1068.858362
 31
0.0
  0
LINE
  8
0
  6
BYLAYER
 62
     1
 10
572.448805
 20
-1068.858362
 30
0.0
 11
322.448805
 21
-1068.858362
 31
0.0
  0
LINE
  8
0
  6
BYLAYER
 62
     1
 10
322.448805
 20
-1068.858362
 30
0.0
 11
322.265378
 21
-1065.358362
 31
0.0
  0
LINE
  8
0
  6
BYLAYER
 62
     1
 10
523.815672
 20
-1064.858362
 30
0.0
 11
462.859197
 21
-1064.858362
 31
0.0
  0
ARC
  8
0
  6
BYLAYER
 62
     1
 10
462.859197
 20
-1066.858362
 30
0.0
 40
2.0
 50
90.0
 51
177.0
  0
ARC
  8
0
  6
BYLAYER
 62
     1
 10
523.815672
 20
-1066.858362
 30
0.0
 40
2.0
 50
3.000000
 51
90.000000
  0
LINE
  8
0
  6
BYLAYER
 62
     1
 10
571.738184
 20
-1068.858362
 30
0.0
 11
571.921611
 21
-1065.358362
 31
0.0
  0
LINE
  8
0
  6
BYLAYER
 62
     1
 10
544.746171
 20
-1068.858362
 30
0.0
 11
544.929598
 21
-1065.358362
 31
0.0
  0
LINE
  8
0
  6
BYLAYER
 62
     1
 10
460.758692
 20
-1068.723732
 30
0.0
 11
460.861938
 21
-1066.753690
 31
0.0
  0
LINE
  8
0
  6
BYLAYER
 62
     1
 10
434.139025
 20
-1068.723732
 30
0.0
 11
434.035780
 21
-1066.753690
 31
0.0
  0
LINE
  8
0
  6
BYLAYER
 62
     1
 10
525.923232
 20
-1068.858362
 30
0.0
 11
525.812931
 21
-1066.753690
 31
0.0
  0
LINE
  8
0
  6
BYLAYER
 62
     1
 10
371.081938
 20
-1064.858362
 30
0.0
 11
432.038521
 21
-1064.858362
 31
0.0
  0
ARC
  8
0
  6
BYLAYER
 62
     1
 10
371.081938
 20
-1066.858362
 30
0.0
 40
2.0
 50
90.0
 51
177.0
  0
ARC
  8
0
  6
BYLAYER
 62
     1
 10
432.038521
 20
-1066.858362
 30
0.0
 40
2.0
 50
3.000000
 51
90.000000
  0
LINE
  8
0
  6
BYLAYER
 62
     1
 10
323.159426
 20
-1068.858362
 30
0.0
 11
322.975999
 21
-1065.358362
 31
0.0
  0
LINE
  8
0
  6
BYLAYER
 62
     1
 10
350.151439
 20
-1068.858362
 30
0.0
 11
349.968012
 21
-1065.358362
 31
0.0
  0
LINE
  8
0
  6
BYLAYER
 62
     1
 10
368.974378
 20
-1068.858362
 30
0.0
 11
369.084679
 21
-1066.753690
 31
0.0
  0
LINE
  8
0
  6
BYLAYER
 62
     1
 10
617.448805
 20
-72.858362
 30
0.0
 11
617.448805
 21
-152.858362
 31
0.0
  0
LINE
  8
0
  6
BYLAYER
 62
     1
 10
657.448805
 20
-27.858362
 30
0.0
 11
657.448805
 21
-152.858362
 31
0.0
  0
LINE
  8
0
  6
BYLAYER
 62
     1
 10
617.448805
 20
-102.458338
 30
0.0
 11
617.448805
 21
-72.858362
 31
0.0
  0
LINE
  8
0
  6
BYLAYER
 62
     1
 10
642.448805
 20
-152.858362
 30
0.0
 11
642.448805
 21
-31.491373
 31
0.0
  0
ARC
  8
0
  6
BYLAYER
 62
     1
 10
639.448805
 20
-56.692529
 30
0.0
 40
3.0
 50
299.999978
 51
360.0
  0
LINE
  8
0
  6
BYLAYER
 62
     1
 10
657.448805
 20
-27.858362
 30
0.0
 11
645.291792
 21
-28.495477
 31
0.0
  0
ARC
  8
0
  6
BYLAYER
 62
     1
 10
645.448805
 20
-31.491373
 30
0.0
 40
3.0
 50
93.000010
 51
180.000009
  0
LINE
  8
0
  6
BYLAYER
 62
     1
 10
617.448805
 20
-72.858331
 30
0.0
 11
640.948805
 21
-59.290613
 31
0.0
  0
LINE
  8
0
  6
BYLAYER
 62
     1
 10
617.448805
 20
-232.858362
 30
0.0
 11
617.448805
 21
-152.858362
 31
0.0
  0
LINE
  8
0
  6
BYLAYER
 62
     1
 10
657.448805
 20
-277.858362
 30
0.0
 11
657.448805
 21
-152.858362
 31
0.0
  0
LINE
  8
0
  6
BYLAYER
 62
     1
 10
617.448805
 20
-203.258386
 30
0.0
 11
617.448805
 21
-232.858362
 31
0.0
  0
LINE
  8
0
  6
BYLAYER
 62
     1
 10
642.448805
 20
-152.858362
 30
0.0
 11
642.448805
 21
-274.225351
 31
0.0
  0
ARC
  8
0
  6
BYLAYER
 62
     1
 10
639.448805
 20
-249.024195
 30
0.0
 40
3.000000
 50
0.0
 51
60.000022
  0
LINE
  8
0
  6
BYLAYER
 62
     1
 10
657.448805
 20
-277.858362
 30
0.0
 11
645.291792
 21
-277.221247
 31
0.0
  0
ARC
  8
0
  6
BYLAYER
 62
     1
 10
645.448805
 20
-274.225351
 30
0.0
 40
3.000000
 50
180.000000
 51
266.999999
  0
LINE
  8
0
  6
BYLAYER
 62
     1
 10
617.448805
 20
-232.858393
 30
0.0
 11
640.948805
 21
-246.426111
 31
0.0
  0
LINE
  8
0
  6
BYLAYER
 62
     1
 10
1497.448805
 20
-227.858362
 30
0.0
 11
1497.448805
 21
-392.358362
 31
0.0
  0
LINE
  8
0
  6
BYLAYER
 62
     1
 10
1497.448805
 20
-392.358362
 30
0.0
 11
1496.948805
 21
-392.858362
 31
0.0
  0
LINE
  8
0
  6
BYLAYER
 62
     1
 10
1496.948805
 20
-392.858362
 30
0.0
 11
1493.448805
 21
-392.858362
 31
0.0
  0
LINE
  8
0
  6
BYLAYER
 62
     1
 10
1493.448805
 20
-232.914592
 30
0.0
 11
1493.448805
 21
-427.858362
 31
0.0
  0
LINE
  8
0
  6
BYLAYER
 62
     1
 10
1304.948805
 20
-472.858362
 30
0.0
 11
1489.948805
 21
-472.858362
 31
0.0
  0
LINE
  8
0
  6
BYLAYER
 62
     1
 10
1493.448805
 20
-427.858362
 30
0.0
 11
1489.948805
 21
-428.041789
 31
0.0
  0
LINE
  8
0
  6
BYLAYER
 62
     1
 10
1477.448805
 20
-385.358362
 30
0.0
 11
1477.448805
 21
-248.905226
 31
0.0
  0
LINE
  8
0
  6
BYLAYER
 62
     1
 10
1317.448805
 20
-248.905226
 30
0.0
 11
1317.448805
 21
-385.358362
 31
0.0
  0
LINE
  8
0
  6
BYLAYER
 62
     1
 10
1304.948805
 20
-397.858362
 30
0.0
 11
1304.948805
 21
-472.858362
 31
0.0
  0
LINE
  8
0
  6
BYLAYER
 62
     1
 10
1304.948805
 20
-397.858362
 30
0.0
 11
1317.448805
 21
-385.358362
 31
0.0
  0
LINE
  8
0
  6
BYLAYER
 62
     1
 10
1489.948805
 20
-397.858362
 30
0.0
 11
1489.948805
 21
-472.858362
 31
0.0
  0
LINE
  8
0
  6
BYLAYER
 62
     1
 10
1489.948805
 20
-397.858362
 30
0.0
 11
1477.448805
 21
-385.358362
 31
0.0
  0
LINE
  8
0
  6
BYLAYER
 62
     1
 10
1489.948805
 20
-397.858362
 30
0.0
 11
1397.448805
 21
-393.010642
 31
0.0
  0
LINE
  8
0
  6
BYLAYER
 62
     1
 10
1304.948805
 20
-397.858362
 30
0.0
 11
1397.448805
 21
-393.010642
 31
0.0
  0
LINE
  8
0
  6
BYLAYER
 62
     1
 10
1483.948805
 20
-391.858362
 30
0.0
 11
1397.448805
 21
-387.325089
 31
0.0
  0
LINE
  8
0
  6
BYLAYER
 62
     1
 10
1310.948805
 20
-391.858362
 30
0.0
 11
1397.448805
 21
-387.325089
 31
0.0
  0
CIRCLE
  8
0
  6
BYLAYER
 62
     1
 10
1397.448805
 20
-445.358362
 30
0.0
 40
15.0
  0
LINE
  8
0
  6
BYLAYER
 62
     1
 10
1489.448805
 20
-237.481054
 30
0.0
 11
1489.448805
 21
-287.447970
 31
0.0
  0
ARC
  8
0
  6
BYLAYER
 62
     1
 10
1491.448805
 20
-287.447970
 30
0.0
 40
2.000000
 50
180.000000
 51
267.0
  0
LINE
  8
0
  6
BYLAYER
 62
     1
 10
1493.314175
 20
-289.548475
 30
0.0
 11
1491.344133
 21
-289.445229
 31
0.0
  0
LINE
  8
0
  6
BYLAYER
 62
     1
 10
1493.314175
 20
-316.168142
 30
0.0
 11
1491.344133
 21
-316.271387
 31
0.0
  0
LINE
  8
0
  6
BYLAYER
 62
     1
 10
1489.448805
 20
-379.225229
 30
0.0
 11
1489.448805
 21
-318.268646
 31
0.0
  0
ARC
  8
0
  6
BYLAYER
 62
     1
 10
1491.448805
 20
-379.225229
 30
0.0
 40
2.000000
 50
180.000000
 51
267.0
  0
ARC
  8
0
  6
BYLAYER
 62
     1
 10
1491.448805
 20
-318.268646
 30
0.0
 40
2.0
 50
93.000000
 51
180.000000
  0
LINE
  8
0
  6
BYLAYER
 62
     1
 10
1493.448805
 20
-427.147741
 30
0.0
 11
1489.948805
 21
-427.331168
 31
0.0
  0
LINE
  8
0
  6
BYLAYER
 62
     1
 10
1493.448805
 20
-400.155728
 30
0.0
 11
1489.948805
 21
-400.339155
 31
0.0
  0
LINE
  8
0
  6
BYLAYER
 62
     1
 10
1493.448805
 20
-381.332789
 30
0.0
 11
1491.344133
 21
-381.222488
 31
0.0
  0
LINE
  8
0
  6
BYLAYER
 62
     1
 10
1408.291797
 20
-317.709367
 30
0.0
 11
1474.605813
 21
-314.233997
 31
0.0
  0
ARC
  8
0
  6
BYLAYER
 62
     1
 10
1408.448805
 20
-320.705256
 30
0.0
 40
3.0
 50
93.000000
 51
180.000000
  0
ARC
  8
0
  6
BYLAYER
 62
     1
 10
1474.448805
 20
-311.238108
 30
0.0
 40
3.0
 50
273.000000
 51
360.000000
  0
LINE
  8
0
  6
BYLAYER
 62
     1
 10
1386.605813
 20
-317.709367
 30
0.0
 11
1320.291797
 21
-314.233997
 31
0.0
  0
ARC
  8
0
  6
BYLAYER
 62
     1
 10
1386.448805
 20
-320.705256
 30
0.0
 40
3.000000
 50
0.0
 51
87.0
  0
ARC
  8
0
  6
BYLAYER
 62
     1
 10
1320.448805
 20
-311.238108
 30
0.0
 40
3.0
 50
180.000000
 51
267.0
  0
LINE
  8
0
  6
BYLAYER
 62
     1
 10
1405.448805
 20
-320.705256
 30
0.0
 11
1405.448805
 21
-335.011468
 31
0.0
  0
ARC
  8
0
  6
BYLAYER
 62
     1
 10
1408.448805
 20
-335.011468
 30
0.0
 40
3.000000
 50
180.000000
 51
267.0
  0
LINE
  8
0
  6
BYLAYER
 62
     1
 10
1408.291797
 20
-338.007357
 30
0.0
 11
1474.605813
 21
-341.482727
 31
0.0
  0
ARC
  8
0
  6
BYLAYER
 62
     1
 10
1474.448805
 20
-344.478616
 30
0.0
 40
3.000000
 50
0.0
 51
87.0
  0
LINE
  8
0
  6
BYLAYER
 62
     1
 10
1389.448805
 20
-320.705256
 30
0.0
 11
1389.448805
 21
-335.011468
 31
0.0
  0
ARC
  8
0
  6
BYLAYER
 62
     1
 10
1386.448805
 20
-335.011468
 30
0.0
 40
3.0
 50
273.000000
 51
360.000000
  0
LINE
  8
0
  6
BYLAYER
 62
     1
 10
1386.605813
 20
-338.007357
 30
0.0
 11
1320.291797
 21
-341.482727
 31
0.0
  0
ARC
  8
0
  6
BYLAYER
 62
     1
 10
1320.448805
 20
-344.478616
 30
0.0
 40
3.0
 50
93.000000
 51
180.000000
  0
LINE
  8
0
  6
BYLAYER
 62
     1
 10
1408.291797
 20
-367.709367
 30
0.0
 11
1474.605813
 21
-364.233997
 31
0.0
  0
ARC
  8
0
  6
BYLAYER
 62
     1
 10
1474.448805
 20
-361.238108
 30
0.0
 40
3.0
 50
273.000000
 51
360.000000
  0
LINE
  8
0
  6
BYLAYER
 62
     1
 10
1386.605813
 20
-367.709367
 30
0.0
 11
1320.291797
 21
-364.233997
 31
0.0
  0
ARC
  8
0
  6
BYLAYER
 62
     1
 10
1386.448805
 20
-370.705256
 30
0.0
 40
3.000000
 50
0.0
 51
87.0
  0
ARC
  8
0
  6
BYLAYER
 62
     1
 10
1320.448805
 20
-361.238108
 30
0.0
 40
3.000000
 50
180.000000
 51
267.0
  0
LINE
  8
0
  6
BYLAYER
 62
     1
 10
1405.448805
 20
-370.705256
 30
0.0
 11
1405.448805
 21
-384.897458
 31
0.0
  0
ARC
  8
0
  6
BYLAYER
 62
     1
 10
1408.448805
 20
-384.897458
 30
0.0
 40
3.000000
 50
180.000000
 51
267.0
  0
ARC
  8
0
  6
BYLAYER
 62
     1
 10
1408.448805
 20
-370.705256
 30
0.0
 40
3.0
 50
93.000000
 51
180.000000
  0
LINE
  8
0
  6
BYLAYER
 62
     1
 10
1389.448805
 20
-370.705256
 30
0.0
 11
1389.448805
 21
-384.897458
 31
0.0
  0
ARC
  8
0
  6
BYLAYER
 62
     1
 10
1386.448805
 20
-384.897458
 30
0.0
 40
3.0
 50
273.000000
 51
360.000000
  0
LINE
  8
0
  6
BYLAYER
 62
     1
 10
1408.291797
 20
-288.007357
 30
0.0
 11
1474.605813
 21
-291.482727
 31
0.0
  0
ARC
  8
0
  6
BYLAYER
 62
     1
 10
1474.448805
 20
-294.478616
 30
0.0
 40
3.000000
 50
0.0
 51
87.0
  0
LINE
  8
0
  6
BYLAYER
 62
     1
 10
1386.605813
 20
-288.007357
 30
0.0
 11
1320.291797
 21
-291.482727
 31
0.0
  0
ARC
  8
0
  6
BYLAYER
 62
     1
 10
1320.448805
 20
-294.478616
 30
0.0
 40
3.0
 50
93.000000
 51
180.000000
  0
ARC
  8
0
  6
BYLAYER
 62
     1
 10
1386.448805
 20
-285.011468
 30
0.0
 40
3.0
 50
273.000000
 51
360.000000
  0
LINE
  8
0
  6
BYLAYER
 62
     1
 10
1405.448805
 20
-285.011468
 30
0.0
 11
1405.448805
 21
-277.602099
 31
0.0
  0
ARC
  8
0
  6
BYLAYER
 62
     1
 10
1408.448805
 20
-285.011468
 30
0.0
 40
3.000000
 50
180.000000
 51
267.0
  0
LINE
  8
0
  6
BYLAYER
 62
     1
 10
1451.787143
 20
-265.429873
 30
0.0
 11
1474.605813
 21
-264.233997
 31
0.0
  0
ARC
  8
0
  6
BYLAYER
 62
     1
 10
1474.448805
 20
-261.238108
 30
0.0
 40
3.0
 50
273.000000
 51
360.000000
  0
LINE
  8
0
  6
BYLAYER
 62
     1
 10
1389.448805
 20
-285.011468
 30
0.0
 11
1389.448805
 21
-277.602099
 31
0.0
  0
LINE
  8
0
  6
BYLAYER
 62
     1
 10
1343.110467
 20
-265.429873
 30
0.0
 11
1320.291797
 21
-264.233997
 31
0.0
  0
ARC
  8
0
  6
BYLAYER
 62
     1
 10
1320.448805
 20
-261.238108
 30
0.0
 40
3.0
 50
180.000000
 51
267.0
  0
LINE
  8
0
  6
BYLAYER
 62
     1
 10
1397.448805
 20
-277.858362
 30
0.0
 11
1397.448805
 21
-430.358362
 31
0.0
  0
LINE
  8
0
  6
BYLAYER
 62
     1
 10
1397.448805
 20
-472.858362
 30
0.0
 11
1397.448805
 21
-460.358362
 31
0.0
  0
LINE
  8
0
  6
BYLAYER
 62
     1
 10
1397.448805
 20
-467.858362
 30
0.0
 11
1489.948805
 21
-463.010642
 31
0.0
  0
LINE
  8
0
  6
BYLAYER
 62
     1
 10
1397.448805
 20
-467.858362
 30
0.0
 11
1304.948805
 21
-463.010642
 31
0.0
  0
LINE
  8
0
  6
BYLAYER
 62
     1
 10
1297.448805
 20
-227.858362
 30
0.0
 11
1297.448805
 21
-392.358362
 31
0.0
  0
LINE
  8
0
  6
BYLAYER
 62
     1
 10
1297.448805
 20
-392.358362
 30
0.0
 11
1297.948805
 21
-392.858362
 31
0.0
  0
LINE
  8
0
  6
BYLAYER
 62
     1
 10
1297.948805
 20
-392.858362
 30
0.0
 11
1301.448805
 21
-392.858362
 31
0.0
  0
LINE
  8
0
  6
BYLAYER
 62
     1
 10
1301.448805
 20
-232.914592
 30
0.0
 11
1301.448805
 21
-427.858362
 31
0.0
  0
LINE
  8
0
  6
BYLAYER
 62
     1
 10
1301.448805
 20
-427.858362
 30
0.0
 11
1304.948805
 21
-428.041789
 31
0.0
  0
LINE
  8
0
  6
BYLAYER
 62
     1
 10
1305.448805
 20
-237.481054
 30
0.0
 11
1305.448805
 21
-287.447970
 31
0.0
  0
ARC
  8
0
  6
BYLAYER
 62
     1
 10
1303.448805
 20
-287.447970
 30
0.0
 40
2.0
 50
273.000000
 51
360.000000
  0
LINE
  8
0
  6
BYLAYER
 62
     1
 10
1301.583435
 20
-289.548475
 30
0.0
 11
1303.553477
 21
-289.445229
 31
0.0
  0
LINE
  8
0
  6
BYLAYER
 62
     1
 10
1301.583435
 20
-316.168142
 30
0.0
 11
1303.553477
 21
-316.271387
 31
0.0
  0
LINE
  8
0
  6
BYLAYER
 62
     1
 10
1305.448805
 20
-379.225229
 30
0.0
 11
1305.448805
 21
-318.268646
 31
0.0
  0
ARC
  8
0
  6
BYLAYER
 62
     1
 10
1303.448805
 20
-379.225229
 30
0.0
 40
2.0
 50
273.000000
 51
360.000000
  0
ARC
  8
0
  6
BYLAYER
 62
     1
 10
1303.448805
 20
-318.268646
 30
0.0
 40
2.0
 50
0.0
 51
87.0
  0
LINE
  8
0
  6
BYLAYER
 62
     1
 10
1301.448805
 20
-427.147741
 30
0.0
 11
1304.948805
 21
-427.331168
 31
0.0
  0
LINE
  8
0
  6
BYLAYER
 62
     1
 10
1301.448805
 20
-400.155728
 30
0.0
 11
1304.948805
 21
-400.339155
 31
0.0
  0
LINE
  8
0
  6
BYLAYER
 62
     1
 10
1301.448805
 20
-381.332789
 30
0.0
 11
1303.553477
 21
-381.222488
 31
0.0
  0
LINE
  8
0
  6
BYLAYER
 62
     7
 10
1348.448805
 20
-38.858362
 30
0.0
 11
1351.448805
 21
-44.054529
 31
0.0
  0
LINE
  8
0
  6
BYLAYER
 62
     7
 10
1348.448805
 20
-59.540219
 30
0.0
 11
1348.448805
 21
-32.858362
 31
0.0
  0
LINE
  8
0
  6
BYLAYER
 62
     7
 10
1446.448774
 20
-59.540203
 30
0.0
 11
1446.448774
 21
-32.858362
 31
0.0
  0
LINE
  8
0
  6
BYLAYER
 62
     7
 10
1351.448805
 20
-47.858362
 30
0.0
 11
1351.448805
 21
-44.054529
 31
0.0
  0
ARC
  8
0
  6
BYLAYER
 62
     7
 10
1444.698774
 20
-48.858362
 30
0.0
 40
1.000000
 50
0.0
 51
90.000003
  0
LINE
  8
0
  6
BYLAYER
 62
     7
 10
1440.164472
 20
-47.858362
 30
0.0
 11
1444.698774
 21
-47.858362
 31
0.0
  0
ARC
  8
0
  6
BYLAYER
 62
     7
 10
1440.164472
 20
-48.858362
 30
0.0
 40
1.0
 50
90.0
 51
178.00015
  0
LINE
  8
0
  6
BYLAYER
 62
     7
 10
1438.915943
 20
-55.957628
 30
0.0
 11
1439.165083
 21
-48.823450
 31
0.0
  0
LINE
  8
0
  6
BYLAYER
 62
     7
 10
1445.698774
 20
-59.150218
 30
0.0
 11
1445.698774
 21
-48.858362
 31
0.0
  0
LINE
  8
0
  6
BYLAYER
 62
     7
 10
1350.198805
 20
-47.858362
 30
0.0
 11
1351.448805
 21
-47.858362
 31
0.0
  0
ARC
  8
0
  6
BYLAYER
 62
     7
 10
1350.198805
 20
-48.858362
 30
0.0
 40
1.0
 50
90.0
 51
180.000003
  0
LINE
  8
0
  6
BYLAYER
 62
     7
 10
1349.198805
 20
-48.858362
 30
0.0
 11
1349.198805
 21
-59.150234
 31
0.0
  0
LINE
  8
0
  6
BYLAYER
 62
     7
 10
1353.948805
 20
-22.358362
 30
0.0
 11
1353.948805
 21
-0.858362
 31
0.0
  0
ARC
  8
0
  6
BYLAYER
 62
     7
 10
1352.448805
 20
-22.358362
 30
0.0
 40
1.500000
 50
270.0
 51
360.0
  0
ARC
  8
0
  6
BYLAYER
 62
     7
 10
1355.448805
 20
-0.858362
 30
0.0
 40
1.5
 50
90.0
 51
180.0
  0
LINE
  8
0
  6
BYLAYER
 62
     7
 10
1397.448805
 20
0.641638
 30
0.0
 11
1355.448805
 21
0.641638
 31
0.0
  0
LINE
  8
0
  6
BYLAYER
 62
     7
 10
1359.321046
 20
-22.358362
 30
0.0
 11
1359.321046
 21
-0.858362
 31
0.0
  0
ARC
  8
0
  6
BYLAYER
 62
     7
 10
1357.821046
 20
-22.358362
 30
0.0
 40
1.500000
 50
270.0
 51
360.0
  0
ARC
  8
0
  6
BYLAYER
 62
     7
 10
1360.821046
 20
-0.858362
 30
0.0
 40
1.500000
 50
90.0
 51
180.0
  0
LINE
  8
0
  6
BYLAYER
 62
     7
 10
1384.355152
 20
0.641638
 30
0.0
 11
1384.847699
 21
-13.463060
 31
0.0
  0
ARC
  8
0
  6
BYLAYER
 62
     7
 10
1387.845871
 20
-13.358362
 30
0.0
 40
3.0
 50
182.000000
 51
270.000000
  0
LINE
  8
0
  6
BYLAYER
 62
     7
 10
1395.049911
 20
-13.463060
 30
0.0
 11
1395.542458
 21
0.641638
 31
0.0
  0
ARC
  8
0
  6
BYLAYER
 62
     7
 10
1392.051739
 20
-13.358362
 30
0.0
 40
3.0
 50
270.0
 51
358.0
  0
LINE
  8
0
  6
BYLAYER
 62
     7
 10
1387.845871
 20
-16.358362
 30
0.0
 11
1392.051739
 21
-16.358362
 31
0.0
  0
LINE
  8
0
  6
BYLAYER
 62
     7
 10
1369.355152
 20
0.641638
 30
0.0
 11
1369.847699
 21
-13.463060
 31
0.0
  0
ARC
  8
0
  6
BYLAYER
 62
     7
 10
1372.845871
 20
-13.358362
 30
0.0
 40
3.0
 50
182.000000
 51
270.000000
  0
LINE
  8
0
  6
BYLAYER
 62
     7
 10
1380.049911
 20
-13.463060
 30
0.0
 11
1380.542458
 21
0.641638
 31
0.0
  0
ARC
  8
0
  6
BYLAYER
 62
     7
 10
1377.051739
 20
-13.358362
 30
0.0
 40
3.0
 50
270.0
 51
358.0
  0
LINE
  8
0
  6
BYLAYER
 62
     7
 10
1372.845871
 20
-16.358362
 30
0.0
 11
1377.051739
 21
-16.358362
 31
0.0
  0
LINE
  8
0
  6
BYLAYER
 62
     7
 10
1369.390073
 20
-0.358362
 30
0.0
 11
1380.507537
 21
-0.358362
 31
0.0
  0
LINE
  8
0
  6
BYLAYER
 62
     7
 10
1384.390073
 20
-0.358362
 30
0.0
 11
1395.507537
 21
-0.358362
 31
0.0
  0
LINE
  8
0
  6
BYLAYER
 62
     7
 10
1397.448805
 20
-23.858362
 30
0.0
 11
1349.948805
 21
-23.858362
 31
0.0
  0
ARC
  8
0
  6
BYLAYER
 62
     7
 10
1349.948805
 20
-25.358362
 30
0.0
 40
1.5
 50
90.0
 51
180.0
  0
LINE
  8
0
  6
BYLAYER
 62
     7
 10
1348.448805
 20
-30.858362
 30
0.0
 11
1348.448805
 21
-25.358362
 31
0.0
  0
LINE
  8
0
  6
BYLAYER
 62
     7
 10
1348.448805
 20
-30.858362
 30
0.0
 11
1397.448805
 21
-30.858362
 31
0.0
  0
LINE
  8
0
  6
BYLAYER
 62
     7
 10
1440.948805
 20
-22.358362
 30
0.0
 11
1440.948805
 21
-0.858362
 31
0.0
  0
ARC
  8
0
  6
BYLAYER
 62
     7
 10
1442.448805
 20
-22.358362
 30
0.0
 40
1.500000
 50
180.000000
 51
270.000000
  0
ARC
  8
0
  6
BYLAYER
 62
     7
 10
1439.448805
 20
-0.858362
 30
0.0
 40
1.5
 50
0.0
 51
90.0
  0
LINE
  8
0
  6
BYLAYER
 62
     7
 10
1397.448805
 20
0.641638
 30
0.0
 11
1439.448805
 21
0.641638
 31
0.0
  0
LINE
  8
0
  6
BYLAYER
 62
     7
 10
1435.576564
 20
-22.358362
 30
0.0
 11
1435.576564
 21
-0.858362
 31
0.0
  0
ARC
  8
0
  6
BYLAYER
 62
     7
 10
1437.076564
 20
-22.358362
 30
0.0
 40
1.5
 50
180.000000
 51
270.000000
  0
ARC
  8
0
  6
BYLAYER
 62
     7
 10
1434.076564
 20
-0.858362
 30
0.0
 40
1.500000
 50
0.0
 51
90.0
  0
LINE
  8
0
  6
BYLAYER
 62
     7
 10
1410.542458
 20
0.641638
 30
0.0
 11
1410.049911
 21
-13.463060
 31
0.0
  0
ARC
  8
0
  6
BYLAYER
 62
     7
 10
1407.051739
 20
-13.358362
 30
0.0
 40
3.0
 50
270.0
 51
358.0
  0
LINE
  8
0
  6
BYLAYER
 62
     7
 10
1399.847699
 20
-13.463060
 30
0.0
 11
1399.355152
 21
0.641638
 31
0.0
  0
ARC
  8
0
  6
BYLAYER
 62
     7
 10
1402.845871
 20
-13.358362
 30
0.0
 40
3.0
 50
182.000000
 51
270.000000
  0
LINE
  8
0
  6
BYLAYER
 62
     7
 10
1407.051739
 20
-16.358362
 30
0.0
 11
1402.845871
 21
-16.358362
 31
0.0
  0
LINE
  8
0
  6
BYLAYER
 62
     7
 10
1425.542458
 20
0.641638
 30
0.0
 11
1425.049911
 21
-13.463060
 31
0.0
  0
ARC
  8
0
  6
BYLAYER
 62
     7
 10
1422.051739
 20
-13.358362
 30
0.0
 40
3.000000
 50
270.0
 51
358.0
  0
LINE
  8
0
  6
BYLAYER
 62
     7
 10
1414.847699
 20
-13.463060
 30
0.0
 11
1414.355152
 21
0.641638
 31
0.0
  0
ARC
  8
0
  6
BYLAYER
 62
     7
 10
1417.845871
 20
-13.358362
 30
0.0
 40
3.0
 50
182.000000
 51
270.000000
  0
LINE
  8
0
  6
BYLAYER
 62
     7
 10
1422.051739
 20
-16.358362
 30
0.0
 11
1417.845871
 21
-16.358362
 31
0.0
  0
LINE
  8
0
  6
BYLAYER
 62
     7
 10
1425.507537
 20
-0.358362
 30
0.0
 11
1414.390073
 21
-0.358362
 31
0.0
  0
LINE
  8
0
  6
BYLAYER
 62
     7
 10
1410.507537
 20
-0.358362
 30
0.0
 11
1399.390073
 21
-0.358362
 31
0.0
  0
LINE
  8
0
  6
BYLAYER
 62
     7
 10
1397.448805
 20
-23.858362
 30
0.0
 11
1444.948805
 21
-23.858362
 31
0.0
  0
ARC
  8
0
  6
BYLAYER
 62
     7
 10
1444.948805
 20
-25.358362
 30
0.0
 40
1.5
 50
0.0
 51
90.0
  0
LINE
  8
0
  6
BYLAYER
 62
     7
 10
1446.448805
 20
-32.858362
 30
0.0
 11
1446.448805
 21
-25.358362
 31
0.0
  0
LINE
  8
0
  6
BYLAYER
 62
     7
 10
1446.448805
 20
-30.858362
 30
0.0
 11
1397.448805
 21
-30.858362
 31
0.0
  0
LINE
  8
0
  6
BYLAYER
 62
     7
 10
1348.448805
 20
-32.858362
 30
0.0
 11
1397.448789
 21
-32.858362
 31
0.0
  0
LINE
  8
0
  6
BYLAYER
 62
     7
 10
1446.448789
 20
-32.858240
 30
0.0
 11
1397.448789
 21
-32.858362
 31
0.0
  0
LINE
  8
0
  6
BYLAYER
 62
     7
 10
1348.448805
 20
-30.858362
 30
0.0
 11
1348.448805
 21
-32.858362
 31
0.0
  0
LINE
  8
0
  6
BYLAYER
 62
     7
 10
1398.448805
 20
-123.858362
 30
0.0
 11
1398.448805
 21
-131.858362
 31
0.0
  0
LINE
  8
0
  6
BYLAYER
 62
     7
 10
1398.448805
 20
-113.858362
 30
0.0
 11
1398.448805
 21
-121.858362
 31
0.0
  0
LINE
  8
0
  6
BYLAYER
 62
     7
 10
1406.448805
 20
-121.858362
 30
0.0
 11
1406.448805
 21
-113.858362
 31
0.0
  0
LINE
  8
0
  6
BYLAYER
 62
     7
 10
1408.448805
 20
-121.858362
 30
0.0
 11
1408.448805
 21
-113.858362
 31
0.0
  0
LINE
  8
0
  6
BYLAYER
 62
     7
 10
1398.448805
 20
-131.858362
 30
0.0
 11
1406.448805
 21
-131.858362
 31
0.0
  0
LINE
  8
0
  6
BYLAYER
 62
     7
 10
1398.448805
 20
-123.858362
 30
0.0
 11
1406.448805
 21
-123.858362
 31
0.0
  0
LINE
  8
0
  6
BYLAYER
 62
     7
 10
1408.448805
 20
-121.858362
 30
0.0
 11
1416.286804
 21
-121.858362
 31
0.0
  0
LINE
  8
0
  6
BYLAYER
 62
     7
 10
1398.448805
 20
-121.858362
 30
0.0
 11
1406.448805
 21
-121.858362
 31
0.0
  0
LINE
  8
0
  6
BYLAYER
 62
     7
 10
1408.448805
 20
-113.858362
 30
0.0
 11
1416.286804
 21
-113.858362
 31
0.0
  0
LINE
  8
0
  6
BYLAYER
 62
     7
 10
1398.448805
 20
-113.858362
 30
0.0
 11
1406.448805
 21
-113.858362
 31
0.0
  0
LINE
  8
0
  6
BYLAYER
 62
     7
 10
1416.286804
 20
-121.858362
 30
0.0
 11
1416.286804
 21
-113.858362
 31
0.0
  0
LINE
  8
0
  6
BYLAYER
 62
     7
 10
1406.448805
 20
-131.858362
 30
0.0
 11
1406.448805
 21
-123.858362
 31
0.0
  0
LINE
  8
0
  6
BYLAYER
 62
     7
 10
1408.448805
 20
-123.858362
 30
0.0
 11
1408.448805
 21
-131.858362
 31
0.0
  0
LINE
  8
0
  6
BYLAYER
 62
     7
 10
1408.448805
 20
-131.858362
 30
0.0
 11
1416.448805
 21
-131.858362
 31
0.0
  0
LINE
  8
0
  6
BYLAYER
 62
     7
 10
1408.448805
 20
-123.858362
 30
0.0
 11
1416.448805
 21
-123.858362
 31
0.0
  0
LINE
  8
0
  6
BYLAYER
 62
     7
 10
1416.448805
 20
-131.858362
 30
0.0
 11
1416.448805
 21
-123.858362
 31
0.0
  0
LINE
  8
0
  6
BYLAYER
 62
     7
 10
1418.448805
 20
-141.858362
 30
0.0
 11
1426.448805
 21
-141.858362
 31
0.0
  0
LINE
  8
0
  6
BYLAYER
 62
     7
 10
1418.448805
 20
-123.858362
 30
0.0
 11
1418.448805
 21
-131.858362
 31
0.0
  0
LINE
  8
0
  6
BYLAYER
 62
     7
 10
1418.448805
 20
-133.858362
 30
0.0
 11
1418.448805
 21
-141.858362
 31
0.0
  0
LINE
  8
0
  6
BYLAYER
 62
     7
 10
1418.448805
 20
-133.858362
 30
0.0
 11
1426.448805
 21
-133.858362
 31
0.0
  0
LINE
  8
0
  6
BYLAYER
 62
     7
 10
1418.448805
 20
-131.858362
 30
0.0
 11
1426.448805
 21
-131.858362
 31
0.0
  0
LINE
  8
0
  6
BYLAYER
 62
     7
 10
1418.448805
 20
-123.858362
 30
0.0
 11
1426.448805
 21
-123.858362
 31
0.0
  0
LINE
  8
0
  6
BYLAYER
 62
     7
 10
1426.448805
 20
-141.858362
 30
0.0
 11
1426.448805
 21
-133.858362
 31
0.0
  0
LINE
  8
0
  6
BYLAYER
 62
     7
 10
1426.448805
 20
-131.858362
 30
0.0
 11
1426.448805
 21
-123.858362
 31
0.0
  0
LINE
  8
0
  6
BYLAYER
 62
     7
 10
1418.448805
 20
-151.858362
 30
0.0
 11
1426.448805
 21
-151.858362
 31
0.0
  0
LINE
  8
0
  6
BYLAYER
 62
     7
 10
1418.448805
 20
-143.858362
 30
0.0
 11
1418.448805
 21
-151.858362
 31
0.0
  0
LINE
  8
0
  6
BYLAYER
 62
     7
 10
1418.448805
 20
-143.858362
 30
0.0
 11
1426.448805
 21
-143.858362
 31
0.0
  0
LINE
  8
0
  6
BYLAYER
 62
     7
 10
1426.448805
 20
-151.858362
 30
0.0
 11
1426.448805
 21
-143.858362
 31
0.0
  0
LINE
  8
0
  6
BYLAYER
 62
     7
 10
1428.448805
 20
-141.858362
 30
0.0
 11
1436.448805
 21
-141.858362
 31
0.0
  0
LINE
  8
0
  6
BYLAYER
 62
     7
 10
1428.448805
 20
-133.858362
 30
0.0
 11
1428.448805
 21
-141.858362
 31
0.0
  0
LINE
  8
0
  6
BYLAYER
 62
     7
 10
1428.448805
 20
-133.858362
 30
0.0
 11
1436.448805
 21
-133.858362
 31
0.0
  0
LINE
  8
0
  6
BYLAYER
 62
     7
 10
1436.448805
 20
-141.858362
 30
0.0
 11
1436.448805
 21
-133.858362
 31
0.0
  0
LINE
  8
0
  6
BYLAYER
 62
     7
 10
1428.448805
 20
-151.858362
 30
0.0
 11
1436.448805
 21
-151.858362
 31
0.0
  0
LINE
  8
0
  6
BYLAYER
 62
     7
 10
1428.448805
 20
-143.858362
 30
0.0
 11
1428.448805
 21
-151.858362
 31
0.0
  0
LINE
  8
0
  6
BYLAYER
 62
     7
 10
1428.448805
 20
-143.858362
 30
0.0
 11
1436.448805
 21
-143.858362
 31
0.0
  0
LINE
  8
0
  6
BYLAYER
 62
     7
 10
1436.448805
 20
-151.858362
 30
0.0
 11
1436.448805
 21
-143.858362
 31
0.0
  0
LINE
  8
0
  6
BYLAYER
 62
     7
 10
1438.448805
 20
-141.858362
 30
0.0
 11
1446.448805
 21
-141.858362
 31
0.0
  0
LINE
  8
0
  6
BYLAYER
 62
     7
 10
1438.448805
 20
-133.858362
 30
0.0
 11
1438.448805
 21
-141.858362
 31
0.0
  0
LINE
  8
0
  6
BYLAYER
 62
     7
 10
1438.448805
 20
-133.858362
 30
0.0
 11
1446.448805
 21
-133.858362
 31
0.0
  0
LINE
  8
0
  6
BYLAYER
 62
     7
 10
1446.448805
 20
-141.858362
 30
0.0
 11
1446.448805
 21
-133.858362
 31
0.0
  0
LINE
  8
0
  6
BYLAYER
 62
     7
 10
1438.448805
 20
-151.858362
 30
0.0
 11
1446.448805
 21
-151.858362
 31
0.0
  0
LINE
  8
0
  6
BYLAYER
 62
     7
 10
1438.448805
 20
-143.858362
 30
0.0
 11
1438.448805
 21
-151.858362
 31
0.0
  0
LINE
  8
0
  6
BYLAYER
 62
     7
 10
1438.448805
 20
-143.858362
 30
0.0
 11
1446.448805
 21
-143.858362
 31
0.0
  0
LINE
  8
0
  6
BYLAYER
 62
     7
 10
1446.448805
 20
-151.858362
 30
0.0
 11
1446.448805
 21
-143.858362
 31
0.0
  0
LINE
  8
0
  6
BYLAYER
 62
     7
 10
1398.448805
 20
-103.858362
 30
0.0
 11
1398.448805
 21
-111.858362
 31
0.0
  0
LINE
  8
0
  6
BYLAYER
 62
     7
 10
1406.448805
 20
-111.858362
 30
0.0
 11
1406.448805
 21
-103.858362
 31
0.0
  0
LINE
  8
0
  6
BYLAYER
 62
     7
 10
1408.448805
 20
-111.858362
 30
0.0
 11
1408.448805
 21
-103.858362
 31
0.0
  0
LINE
  8
0
  6
BYLAYER
 62
     7
 10
1408.448805
 20
-111.858362
 30
0.0
 11
1416.286804
 21
-111.858362
 31
0.0
  0
LINE
  8
0
  6
BYLAYER
 62
     7
 10
1398.448805
 20
-111.858362
 30
0.0
 11
1406.448805
 21
-111.858362
 31
0.0
  0
LINE
  8
0
  6
BYLAYER
 62
     7
 10
1408.448805
 20
-103.858362
 30
0.0
 11
1416.286804
 21
-103.858362
 31
0.0
  0
LINE
  8
0
  6
BYLAYER
 62
     7
 10
1398.448805
 20
-103.858362
 30
0.0
 11
1406.448805
 21
-103.858362
 31
0.0
  0
LINE
  8
0
  6
BYLAYER
 62
     7
 10
1416.286804
 20
-111.858362
 30
0.0
 11
1416.286804
 21
-103.858362
 31
0.0
  0
LINE
  8
0
  6
BYLAYER
 62
     7
 10
1418.448805
 20
-113.858362
 30
0.0
 11
1418.448805
 21
-121.858362
 31
0.0
  0
LINE
  8
0
  6
BYLAYER
 62
     7
 10
1418.448805
 20
-121.858362
 30
0.0
 11
1426.448805
 21
-121.858362
 31
0.0
  0
LINE
  8
0
  6
BYLAYER
 62
     7
 10
1418.448805
 20
-113.858362
 30
0.0
 11
1426.448805
 21
-113.858362
 31
0.0
  0
LINE
  8
0
  6
BYLAYER
 62
     7
 10
1426.448805
 20
-121.858362
 30
0.0
 11
1426.448805
 21
-113.858362
 31
0.0
  0
LINE
  8
0
  6
BYLAYER
 62
     7
 10
1418.448805
 20
-103.858362
 30
0.0
 11
1418.448805
 21
-111.858362
 31
0.0
  0
LINE
  8
0
  6
BYLAYER
 62
     7
 10
1418.448805
 20
-111.858362
 30
0.0
 11
1426.448805
 21
-111.858362
 31
0.0
  0
LINE
  8
0
  6
BYLAYER
 62
     7
 10
1418.448805
 20
-103.858362
 30
0.0
 11
1426.448805
 21
-103.858362
 31
0.0
  0
LINE
  8
0
  6
BYLAYER
 62
     7
 10
1426.448805
 20
-111.858362
 30
0.0
 11
1426.448805
 21
-103.858362
 31
0.0
  0
LINE
  8
0
  6
BYLAYER
 62
     7
 10
1428.448805
 20
-123.858362
 30
0.0
 11
1428.448805
 21
-131.858362
 31
0.0
  0
LINE
  8
0
  6
BYLAYER
 62
     7
 10
1428.448805
 20
-131.858362
 30
0.0
 11
1436.448805
 21
-131.858362
 31
0.0
  0
LINE
  8
0
  6
BYLAYER
 62
     7
 10
1428.448805
 20
-123.858362
 30
0.0
 11
1436.448805
 21
-123.858362
 31
0.0
  0
LINE
  8
0
  6
BYLAYER
 62
     7
 10
1436.448805
 20
-131.858362
 30
0.0
 11
1436.448805
 21
-123.858362
 31
0.0
  0
LINE
  8
0
  6
BYLAYER
 62
     7
 10
1428.448805
 20
-113.858362
 30
0.0
 11
1428.448805
 21
-121.858362
 31
0.0
  0
LINE
  8
0
  6
BYLAYER
 62
     7
 10
1428.448805
 20
-121.858362
 30
0.0
 11
1436.448805
 21
-121.858362
 31
0.0
  0
LINE
  8
0
  6
BYLAYER
 62
     7
 10
1428.448805
 20
-113.858362
 30
0.0
 11
1436.448805
 21
-113.858362
 31
0.0
  0
LINE
  8
0
  6
BYLAYER
 62
     7
 10
1436.448805
 20
-121.858362
 30
0.0
 11
1436.448805
 21
-113.858362
 31
0.0
  0
LINE
  8
0
  6
BYLAYER
 62
     7
 10
1438.448805
 20
-123.858362
 30
0.0
 11
1438.448805
 21
-131.858362
 31
0.0
  0
LINE
  8
0
  6
BYLAYER
 62
     7
 10
1438.448805
 20
-131.858362
 30
0.0
 11
1446.448805
 21
-131.858362
 31
0.0
  0
LINE
  8
0
  6
BYLAYER
 62
     7
 10
1438.448805
 20
-123.858362
 30
0.0
 11
1446.448805
 21
-123.858362
 31
0.0
  0
LINE
  8
0
  6
BYLAYER
 62
     7
 10
1446.448805
 20
-131.858362
 30
0.0
 11
1446.448805
 21
-123.858362
 31
0.0
  0
CIRCLE
  8
0
  6
BYLAYER
 62
     7
 10
1397.448805
 20
-152.858362
 30
0.0
 40
4.0
  0
LINE
  8
0
  6
BYLAYER
 62
     7
 10
1448.448805
 20
-141.858362
 30
0.0
 11
1456.448805
 21
-141.858362
 31
0.0
  0
LINE
  8
0
  6
BYLAYER
 62
     7
 10
1448.448805
 20
-133.858362
 30
0.0
 11
1448.448805
 21
-141.858362
 31
0.0
  0
LINE
  8
0
  6
BYLAYER
 62
     7
 10
1448.448805
 20
-133.858362
 30
0.0
 11
1456.448805
 21
-133.858362
 31
0.0
  0
LINE
  8
0
  6
BYLAYER
 62
     7
 10
1456.448805
 20
-141.858362
 30
0.0
 11
1456.448805
 21
-133.858362
 31
0.0
  0
LINE
  8
0
  6
BYLAYER
 62
     7
 10
1448.448805
 20
-151.858362
 30
0.0
 11
1456.448805
 21
-151.858362
 31
0.0
  0
LINE
  8
0
  6
BYLAYER
 62
     7
 10
1448.448805
 20
-143.858362
 30
0.0
 11
1448.448805
 21
-151.858362
 31
0.0
  0
LINE
  8
0
  6
BYLAYER
 62
     7
 10
1448.448805
 20
-143.858362
 30
0.0
 11
1456.448805
 21
-143.858362
 31
0.0
  0
LINE
  8
0
  6
BYLAYER
 62
     7
 10
1456.448805
 20
-151.858362
 30
0.0
 11
1456.448805
 21
-143.858362
 31
0.0
  0
LINE
  8
0
  6
BYLAYER
 62
     7
 10
1448.448805
 20
-123.858362
 30
0.0
 11
1448.448805
 21
-131.858362
 31
0.0
  0
LINE
  8
0
  6
BYLAYER
 62
     7
 10
1448.448805
 20
-131.858362
 30
0.0
 11
1456.448805
 21
-131.858362
 31
0.0
  0
LINE
  8
0
  6
BYLAYER
 62
     7
 10
1448.448805
 20
-123.858362
 30
0.0
 11
1456.448805
 21
-123.858362
 31
0.0
  0
LINE
  8
0
  6
BYLAYER
 62
     7
 10
1456.448805
 20
-131.858362
 30
0.0
 11
1456.448805
 21
-123.858362
 31
0.0
  0
LINE
  8
0
  6
BYLAYER
 62
     7
 10
1398.448805
 20
-93.858362
 30
0.0
 11
1398.448805
 21
-101.858362
 31
0.0
  0
LINE
  8
0
  6
BYLAYER
 62
     7
 10
1406.448805
 20
-101.858362
 30
0.0
 11
1406.448805
 21
-93.858362
 31
0.0
  0
LINE
  8
0
  6
BYLAYER
 62
     7
 10
1408.448805
 20
-101.858362
 30
0.0
 11
1408.448805
 21
-93.858362
 31
0.0
  0
LINE
  8
0
  6
BYLAYER
 62
     7
 10
1408.448805
 20
-101.858362
 30
0.0
 11
1416.286804
 21
-101.858362
 31
0.0
  0
LINE
  8
0
  6
BYLAYER
 62
     7
 10
1398.448805
 20
-101.858362
 30
0.0
 11
1406.448805
 21
-101.858362
 31
0.0
  0
LINE
  8
0
  6
BYLAYER
 62
     7
 10
1408.448805
 20
-93.858362
 30
0.0
 11
1416.286804
 21
-93.858362
 31
0.0
  0
LINE
  8
0
  6
BYLAYER
 62
     7
 10
1398.448805
 20
-93.858362
 30
0.0
 11
1406.448805
 21
-93.858362
 31
0.0
  0
LINE
  8
0
  6
BYLAYER
 62
     7
 10
1416.286804
 20
-101.858362
 30
0.0
 11
1416.286804
 21
-93.858362
 31
0.0
  0
LINE
  8
0
  6
BYLAYER
 62
     7
 10
1418.448805
 20
-93.858362
 30
0.0
 11
1418.448805
 21
-101.858362
 31
0.0
  0
LINE
  8
0
  6
BYLAYER
 62
     7
 10
1418.448805
 20
-101.858362
 30
0.0
 11
1426.448805
 21
-101.858362
 31
0.0
  0
LINE
  8
0
  6
BYLAYER
 62
     7
 10
1418.448805
 20
-93.858362
 30
0.0
 11
1426.448805
 21
-93.858362
 31
0.0
  0
LINE
  8
0
  6
BYLAYER
 62
     7
 10
1426.448805
 20
-101.858362
 30
0.0
 11
1426.448805
 21
-93.858362
 31
0.0
  0
LINE
  8
0
  6
BYLAYER
 62
     7
 10
1428.448805
 20
-103.858362
 30
0.0
 11
1428.448805
 21
-111.858362
 31
0.0
  0
LINE
  8
0
  6
BYLAYER
 62
     7
 10
1428.448805
 20
-111.858362
 30
0.0
 11
1436.448805
 21
-111.858362
 31
0.0
  0
LINE
  8
0
  6
BYLAYER
 62
     7
 10
1428.448805
 20
-103.858362
 30
0.0
 11
1436.448805
 21
-103.858362
 31
0.0
  0
LINE
  8
0
  6
BYLAYER
 62
     7
 10
1436.448805
 20
-111.858362
 30
0.0
 11
1436.448805
 21
-103.858362
 31
0.0
  0
LINE
  8
0
  6
BYLAYER
 62
     7
 10
1438.448805
 20
-113.858362
 30
0.0
 11
1438.448805
 21
-121.858362
 31
0.0
  0
LINE
  8
0
  6
BYLAYER
 62
     7
 10
1438.448805
 20
-121.858362
 30
0.0
 11
1446.448805
 21
-121.858362
 31
0.0
  0
LINE
  8
0
  6
BYLAYER
 62
     7
 10
1438.448805
 20
-113.858362
 30
0.0
 11
1446.448805
 21
-113.858362
 31
0.0
  0
LINE
  8
0
  6
BYLAYER
 62
     7
 10
1446.448805
 20
-121.858362
 30
0.0
 11
1446.448805
 21
-113.858362
 31
0.0
  0
LINE
  8
0
  6
BYLAYER
 62
     7
 10
1398.448805
 20
-83.858362
 30
0.0
 11
1398.448805
 21
-91.858362
 31
0.0
  0
LINE
  8
0
  6
BYLAYER
 62
     7
 10
1406.448805
 20
-91.858362
 30
0.0
 11
1406.448805
 21
-83.858362
 31
0.0
  0
LINE
  8
0
  6
BYLAYER
 62
     7
 10
1408.448805
 20
-91.858362
 30
0.0
 11
1408.448805
 21
-83.858362
 31
0.0
  0
LINE
  8
0
  6
BYLAYER
 62
     7
 10
1408.448805
 20
-91.858362
 30
0.0
 11
1416.286804
 21
-91.858362
 31
0.0
  0
LINE
  8
0
  6
BYLAYER
 62
     7
 10
1398.448805
 20
-91.858362
 30
0.0
 11
1406.448805
 21
-91.858362
 31
0.0
  0
LINE
  8
0
  6
BYLAYER
 62
     7
 10
1408.448805
 20
-83.858362
 30
0.0
 11
1416.286804
 21
-83.858362
 31
0.0
  0
LINE
  8
0
  6
BYLAYER
 62
     7
 10
1398.448805
 20
-83.858362
 30
0.0
 11
1406.448805
 21
-83.858362
 31
0.0
  0
LINE
  8
0
  6
BYLAYER
 62
     7
 10
1416.286804
 20
-91.858362
 30
0.0
 11
1416.286804
 21
-83.858362
 31
0.0
  0
LINE
  8
0
  6
BYLAYER
 62
     7
 10
1458.448805
 20
-141.858362
 30
0.0
 11
1466.448805
 21
-141.858362
 31
0.0
  0
LINE
  8
0
  6
BYLAYER
 62
     7
 10
1458.448805
 20
-133.858362
 30
0.0
 11
1458.448805
 21
-141.858362
 31
0.0
  0
LINE
  8
0
  6
BYLAYER
 62
     7
 10
1458.448805
 20
-133.858362
 30
0.0
 11
1466.448805
 21
-133.858362
 31
0.0
  0
LINE
  8
0
  6
BYLAYER
 62
     7
 10
1466.448805
 20
-141.858362
 30
0.0
 11
1466.448805
 21
-133.858362
 31
0.0
  0
LINE
  8
0
  6
BYLAYER
 62
     7
 10
1458.448805
 20
-151.858362
 30
0.0
 11
1466.448805
 21
-151.858362
 31
0.0
  0
LINE
  8
0
  6
BYLAYER
 62
     7
 10
1458.448805
 20
-143.858362
 30
0.0
 11
1458.448805
 21
-151.858362
 31
0.0
  0
LINE
  8
0
  6
BYLAYER
 62
     7
 10
1458.448805
 20
-143.858362
 30
0.0
 11
1466.448805
 21
-143.858362
 31
0.0
  0
LINE
  8
0
  6
BYLAYER
 62
     7
 10
1466.448805
 20
-151.858362
 30
0.0
 11
1466.448805
 21
-143.858362
 31
0.0
  0
LINE
  8
0
  6
BYLAYER
 62
     7
 10
1428.448805
 20
-93.858362
 30
0.0
 11
1428.448805
 21
-101.858362
 31
0.0
  0
LINE
  8
0
  6
BYLAYER
 62
     7
 10
1428.448805
 20
-101.858362
 30
0.0
 11
1436.448805
 21
-101.858362
 31
0.0
  0
LINE
  8
0
  6
BYLAYER
 62
     7
 10
1428.448805
 20
-93.858362
 30
0.0
 11
1436.448805
 21
-93.858362
 31
0.0
  0
LINE
  8
0
  6
BYLAYER
 62
     7
 10
1436.448805
 20
-101.858362
 30
0.0
 11
1436.448805
 21
-93.858362
 31
0.0
  0
LINE
  8
0
  6
BYLAYER
 62
     7
 10
1438.448805
 20
-103.858362
 30
0.0
 11
1438.448805
 21
-111.858362
 31
0.0
  0
LINE
  8
0
  6
BYLAYER
 62
     7
 10
1438.448805
 20
-111.858362
 30
0.0
 11
1446.448805
 21
-111.858362
 31
0.0
  0
LINE
  8
0
  6
BYLAYER
 62
     7
 10
1438.448805
 20
-103.858362
 30
0.0
 11
1446.448805
 21
-103.858362
 31
0.0
  0
LINE
  8
0
  6
BYLAYER
 62
     7
 10
1446.448805
 20
-111.858362
 30
0.0
 11
1446.448805
 21
-103.858362
 31
0.0
  0
LINE
  8
0
  6
BYLAYER
 62
     7
 10
1448.448805
 20
-113.858362
 30
0.0
 11
1448.448805
 21
-121.858362
 31
0.0
  0
LINE
  8
0
  6
BYLAYER
 62
     7
 10
1448.448805
 20
-121.858362
 30
0.0
 11
1456.448805
 21
-121.858362
 31
0.0
  0
LINE
  8
0
  6
BYLAYER
 62
     7
 10
1448.448805
 20
-113.858362
 30
0.0
 11
1456.448805
 21
-113.858362
 31
0.0
  0
LINE
  8
0
  6
BYLAYER
 62
     7
 10
1456.448805
 20
-121.858362
 30
0.0
 11
1456.448805
 21
-113.858362
 31
0.0
  0
LINE
  8
0
  6
BYLAYER
 62
     7
 10
1398.448805
 20
-73.858362
 30
0.0
 11
1398.448805
 21
-81.858362
 31
0.0
  0
LINE
  8
0
  6
BYLAYER
 62
     7
 10
1406.448805
 20
-81.858362
 30
0.0
 11
1406.448805
 21
-73.858362
 31
0.0
  0
LINE
  8
0
  6
BYLAYER
 62
     7
 10
1398.448805
 20
-81.858362
 30
0.0
 11
1406.448805
 21
-81.858362
 31
0.0
  0
LINE
  8
0
  6
BYLAYER
 62
     7
 10
1398.448805
 20
-73.858362
 30
0.0
 11
1406.448805
 21
-73.858362
 31
0.0
  0
LINE
  8
0
  6
BYLAYER
 62
     7
 10
1468.448805
 20
-151.858362
 30
0.0
 11
1476.448805
 21
-151.858362
 31
0.0
  0
LINE
  8
0
  6
BYLAYER
 62
     7
 10
1468.448805
 20
-143.858362
 30
0.0
 11
1468.448805
 21
-151.858362
 31
0.0
  0
LINE
  8
0
  6
BYLAYER
 62
     7
 10
1468.448805
 20
-143.858362
 30
0.0
 11
1476.448805
 21
-143.858362
 31
0.0
  0
LINE
  8
0
  6
BYLAYER
 62
     7
 10
1476.448805
 20
-151.858362
 30
0.0
 11
1476.448805
 21
-143.858362
 31
0.0
  0
LINE
  8
0
  6
BYLAYER
 62
     7
 10
1418.448805
 20
-83.858362
 30
0.0
 11
1418.448805
 21
-91.858362
 31
0.0
  0
LINE
  8
0
  6
BYLAYER
 62
     7
 10
1418.448805
 20
-91.858362
 30
0.0
 11
1426.448805
 21
-91.858362
 31
0.0
  0
LINE
  8
0
  6
BYLAYER
 62
     7
 10
1418.448805
 20
-83.858362
 30
0.0
 11
1426.448805
 21
-83.858362
 31
0.0
  0
LINE
  8
0
  6
BYLAYER
 62
     7
 10
1426.448805
 20
-91.858362
 30
0.0
 11
1426.448805
 21
-83.858362
 31
0.0
  0
LINE
  8
0
  6
BYLAYER
 62
     7
 10
1458.448805
 20
-123.858362
 30
0.0
 11
1458.448805
 21
-131.858362
 31
0.0
  0
LINE
  8
0
  6
BYLAYER
 62
     7
 10
1458.448805
 20
-131.858362
 30
0.0
 11
1466.448805
 21
-131.858362
 31
0.0
  0
LINE
  8
0
  6
BYLAYER
 62
     7
 10
1458.448805
 20
-123.858362
 30
0.0
 11
1466.448805
 21
-123.858362
 31
0.0
  0
LINE
  8
0
  6
BYLAYER
 62
     7
 10
1466.448805
 20
-131.858362
 30
0.0
 11
1466.448805
 21
-123.858362
 31
0.0
  0
CIRCLE
  8
0
  6
BYLAYER
 62
     7
 10
1397.448805
 20
-152.858362
 30
0.0
 40
84.000549
  0
CIRCLE
  8
0
  6
BYLAYER
 62
     7
 10
1397.448805
 20
-152.858362
 30
0.0
 40
105.400549
  0
LINE
  8
0
  6
BYLAYER
 62
     7
 10
1428.448805
 20
-83.858362
 30
0.0
 11
1428.448805
 21
-91.858362
 31
0.0
  0
LINE
  8
0
  6
BYLAYER
 62
     7
 10
1428.448805
 20
-91.858362
 30
0.0
 11
1436.448805
 21
-91.858362
 31
0.0
  0
LINE
  8
0
  6
BYLAYER
 62
     7
 10
1428.448805
 20
-83.858362
 30
0.0
 11
1436.448805
 21
-83.858362
 31
0.0
  0
LINE
  8
0
  6
BYLAYER
 62
     7
 10
1436.448805
 20
-91.858362
 30
0.0
 11
1436.448805
 21
-83.858362
 31
0.0
  0
LINE
  8
0
  6
BYLAYER
 62
     7
 10
1438.448805
 20
-93.858362
 30
0.0
 11
1438.448805
 21
-101.858362
 31
0.0
  0
LINE
  8
0
  6
BYLAYER
 62
     7
 10
1438.448805
 20
-101.858362
 30
0.0
 11
1446.448805
 21
-101.858362
 31
0.0
  0
LINE
  8
0
  6
BYLAYER
 62
     7
 10
1438.448805
 20
-93.858362
 30
0.0
 11
1446.448805
 21
-93.858362
 31
0.0
  0
LINE
  8
0
  6
BYLAYER
 62
     7
 10
1446.448805
 20
-101.858362
 30
0.0
 11
1446.448805
 21
-93.858362
 31
0.0
  0
LINE
  8
0
  6
BYLAYER
 62
     7
 10
1448.448805
 20
-103.858362
 30
0.0
 11
1448.448805
 21
-111.858362
 31
0.0
  0
LINE
  8
0
  6
BYLAYER
 62
     7
 10
1448.448805
 20
-111.858362
 30
0.0
 11
1456.448805
 21
-111.858362
 31
0.0
  0
LINE
  8
0
  6
BYLAYER
 62
     7
 10
1448.448805
 20
-103.858362
 30
0.0
 11
1456.448805
 21
-103.858362
 31
0.0
  0
LINE
  8
0
  6
BYLAYER
 62
     7
 10
1456.448805
 20
-111.858362
 30
0.0
 11
1456.448805
 21
-103.858362
 31
0.0
  0
LINE
  8
0
  6
BYLAYER
 62
     7
 10
1458.448805
 20
-113.858362
 30
0.0
 11
1458.448805
 21
-121.858362
 31
0.0
  0
LINE
  8
0
  6
BYLAYER
 62
     7
 10
1458.448805
 20
-121.858362
 30
0.0
 11
1466.448805
 21
-121.858362
 31
0.0
  0
LINE
  8
0
  6
BYLAYER
 62
     7
 10
1458.448805
 20
-113.858362
 30
0.0
 11
1466.448805
 21
-113.858362
 31
0.0
  0
LINE
  8
0
  6
BYLAYER
 62
     7
 10
1466.448805
 20
-121.858362
 30
0.0
 11
1466.448805
 21
-113.858362
 31
0.0
  0
LINE
  8
0
  6
BYLAYER
 62
     7
 10
1408.448805
 20
-81.858362
 30
0.0
 11
1408.448805
 21
-73.858362
 31
0.0
  0
LINE
  8
0
  6
BYLAYER
 62
     7
 10
1408.448805
 20
-81.858362
 30
0.0
 11
1416.286804
 21
-81.858362
 31
0.0
  0
LINE
  8
0
  6
BYLAYER
 62
     7
 10
1408.448805
 20
-73.858362
 30
0.0
 11
1416.286804
 21
-73.858362
 31
0.0
  0
LINE
  8
0
  6
BYLAYER
 62
     7
 10
1416.286804
 20
-81.858362
 30
0.0
 11
1416.286804
 21
-73.858362
 31
0.0
  0
LINE
  8
0
  6
BYLAYER
 62
     7
 10
1468.448805
 20
-141.858362
 30
0.0
 11
1476.448805
 21
-141.858362
 31
0.0
  0
LINE
  8
0
  6
BYLAYER
 62
     7
 10
1468.448805
 20
-133.858362
 30
0.0
 11
1468.448805
 21
-141.858362
 31
0.0
  0
LINE
  8
0
  6
BYLAYER
 62
     7
 10
1468.448805
 20
-133.858362
 30
0.0
 11
1476.448805
 21
-133.858362
 31
0.0
  0
LINE
  8
0
  6
BYLAYER
 62
     7
 10
1476.448805
 20
-141.858362
 30
0.0
 11
1476.448805
 21
-133.858362
 31
0.0
  0
LINE
  8
0
  6
BYLAYER
 62
     7
 10
1398.448805
 20
-181.858362
 30
0.0
 11
1398.448805
 21
-173.858362
 31
0.0
  0
LINE
  8
0
  6
BYLAYER
 62
     7
 10
1398.448805
 20
-191.858362
 30
0.0
 11
1398.448805
 21
-183.858362
 31
0.0
  0
LINE
  8
0
  6
BYLAYER
 62
     7
 10
1406.448805
 20
-183.858362
 30
0.0
 11
1406.448805
 21
-191.858362
 31
0.0
  0
LINE
  8
0
  6
BYLAYER
 62
     7
 10
1408.448805
 20
-183.858362
 30
0.0
 11
1408.448805
 21
-191.858362
 31
0.0
  0
LINE
  8
0
  6
BYLAYER
 62
     7
 10
1398.448805
 20
-173.858362
 30
0.0
 11
1406.448805
 21
-173.858362
 31
0.0
  0
LINE
  8
0
  6
BYLAYER
 62
     7
 10
1398.448805
 20
-181.858362
 30
0.0
 11
1406.448805
 21
-181.858362
 31
0.0
  0
LINE
  8
0
  6
BYLAYER
 62
     7
 10
1408.448805
 20
-183.858362
 30
0.0
 11
1416.286804
 21
-183.858362
 31
0.0
  0
LINE
  8
0
  6
BYLAYER
 62
     7
 10
1398.448805
 20
-183.858362
 30
0.0
 11
1406.448805
 21
-183.858362
 31
0.0
  0
LINE
  8
0
  6
BYLAYER
 62
     7
 10
1408.448805
 20
-191.858362
 30
0.0
 11
1416.286804
 21
-191.858362
 31
0.0
  0
LINE
  8
0
  6
BYLAYER
 62
     7
 10
1398.448805
 20
-191.858362
 30
0.0
 11
1406.448805
 21
-191.858362
 31
0.0
  0
LINE
  8
0
  6
BYLAYER
 62
     7
 10
1416.286804
 20
-183.858362
 30
0.0
 11
1416.286804
 21
-191.858362
 31
0.0
  0
LINE
  8
0
  6
BYLAYER
 62
     7
 10
1406.448805
 20
-173.858362
 30
0.0
 11
1406.448805
 21
-181.858362
 31
0.0
  0
LINE
  8
0
  6
BYLAYER
 62
     7
 10
1408.448805
 20
-181.858362
 30
0.0
 11
1408.448805
 21
-173.858362
 31
0.0
  0
LINE
  8
0
  6
BYLAYER
 62
     7
 10
1408.448805
 20
-173.858362
 30
0.0
 11
1416.448805
 21
-173.858362
 31
0.0
  0
LINE
  8
0
  6
BYLAYER
 62
     7
 10
1408.448805
 20
-181.858362
 30
0.0
 11
1416.448805
 21
-181.858362
 31
0.0
  0
LINE
  8
0
  6
BYLAYER
 62
     7
 10
1416.448805
 20
-173.858362
 30
0.0
 11
1416.448805
 21
-181.858362
 31
0.0
  0
LINE
  8
0
  6
BYLAYER
 62
     7
 10
1418.448805
 20
-163.858362
 30
0.0
 11
1426.448805
 21
-163.858362
 31
0.0
  0
LINE
  8
0
  6
BYLAYER
 62
     7
 10
1418.448805
 20
-181.858362
 30
0.0
 11
1418.448805
 21
-173.858362
 31
0.0
  0
LINE
  8
0
  6
BYLAYER
 62
     7
 10
1418.448805
 20
-171.858362
 30
0.0
 11
1418.448805
 21
-163.858362
 31
0.0
  0
LINE
  8
0
  6
BYLAYER
 62
     7
 10
1418.448805
 20
-171.858362
 30
0.0
 11
1426.448805
 21
-171.858362
 31
0.0
  0
LINE
  8
0
  6
BYLAYER
 62
     7
 10
1418.448805
 20
-173.858362
 30
0.0
 11
1426.448805
 21
-173.858362
 31
0.0
  0
LINE
  8
0
  6
BYLAYER
 62
     7
 10
1418.448805
 20
-181.858362
 30
0.0
 11
1426.448805
 21
-181.858362
 31
0.0
  0
LINE
  8
0
  6
BYLAYER
 62
     7
 10
1426.448805
 20
-163.858362
 30
0.0
 11
1426.448805
 21
-171.858362
 31
0.0
  0
LINE
  8
0
  6
BYLAYER
 62
     7
 10
1426.448805
 20
-173.858362
 30
0.0
 11
1426.448805
 21
-181.858362
 31
0.0
  0
LINE
  8
0
  6
BYLAYER
 62
     7
 10
1418.448805
 20
-153.858362
 30
0.0
 11
1426.448805
 21
-153.858362
 31
0.0
  0
LINE
  8
0
  6
BYLAYER
 62
     7
 10
1418.448805
 20
-161.858362
 30
0.0
 11
1418.448805
 21
-153.858362
 31
0.0
  0
LINE
  8
0
  6
BYLAYER
 62
     7
 10
1418.448805
 20
-161.858362
 30
0.0
 11
1426.448805
 21
-161.858362
 31
0.0
  0
LINE
  8
0
  6
BYLAYER
 62
     7
 10
1426.448805
 20
-153.858362
 30
0.0
 11
1426.448805
 21
-161.858362
 31
0.0
  0
LINE
  8
0
  6
BYLAYER
 62
     7
 10
1428.448805
 20
-163.858362
 30
0.0
 11
1436.448805
 21
-163.858362
 31
0.0
  0
LINE
  8
0
  6
BYLAYER
 62
     7
 10
1428.448805
 20
-171.858362
 30
0.0
 11
1428.448805
 21
-163.858362
 31
0.0
  0
LINE
  8
0
  6
BYLAYER
 62
     7
 10
1428.448805
 20
-171.858362
 30
0.0
 11
1436.448805
 21
-171.858362
 31
0.0
  0
LINE
  8
0
  6
BYLAYER
 62
     7
 10
1436.448805
 20
-163.858362
 30
0.0
 11
1436.448805
 21
-171.858362
 31
0.0
  0
LINE
  8
0
  6
BYLAYER
 62
     7
 10
1428.448805
 20
-153.858362
 30
0.0
 11
1436.448805
 21
-153.858362
 31
0.0
  0
LINE
  8
0
  6
BYLAYER
 62
     7
 10
1428.448805
 20
-161.858362
 30
0.0
 11
1428.448805
 21
-153.858362
 31
0.0
  0
LINE
  8
0
  6
BYLAYER
 62
     7
 10
1428.448805
 20
-161.858362
 30
0.0
 11
1436.448805
 21
-161.858362
 31
0.0
  0
LINE
  8
0
  6
BYLAYER
 62
     7
 10
1436.448805
 20
-153.858362
 30
0.0
 11
1436.448805
 21
-161.858362
 31
0.0
  0
LINE
  8
0
  6
BYLAYER
 62
     7
 10
1438.448805
 20
-163.858362
 30
0.0
 11
1446.448805
 21
-163.858362
 31
0.0
  0
LINE
  8
0
  6
BYLAYER
 62
     7
 10
1438.448805
 20
-171.858362
 30
0.0
 11
1438.448805
 21
-163.858362
 31
0.0
  0
LINE
  8
0
  6
BYLAYER
 62
     7
 10
1438.448805
 20
-171.858362
 30
0.0
 11
1446.448805
 21
-171.858362
 31
0.0
  0
LINE
  8
0
  6
BYLAYER
 62
     7
 10
1446.448805
 20
-163.858362
 30
0.0
 11
1446.448805
 21
-171.858362
 31
0.0
  0
LINE
  8
0
  6
BYLAYER
 62
     7
 10
1438.448805
 20
-153.858362
 30
0.0
 11
1446.448805
 21
-153.858362
 31
0.0
  0
LINE
  8
0
  6
BYLAYER
 62
     7
 10
1438.448805
 20
-161.858362
 30
0.0
 11
1438.448805
 21
-153.858362
 31
0.0
  0
LINE
  8
0
  6
BYLAYER
 62
     7
 10
1438.448805
 20
-161.858362
 30
0.0
 11
1446.448805
 21
-161.858362
 31
0.0
  0
LINE
  8
0
  6
BYLAYER
 62
     7
 10
1446.448805
 20
-153.858362
 30
0.0
 11
1446.448805
 21
-161.858362
 31
0.0
  0
LINE
  8
0
  6
BYLAYER
 62
     7
 10
1398.448805
 20
-201.858362
 30
0.0
 11
1398.448805
 21
-193.858362
 31
0.0
  0
LINE
  8
0
  6
BYLAYER
 62
     7
 10
1406.448805
 20
-193.858362
 30
0.0
 11
1406.448805
 21
-201.858362
 31
0.0
  0
LINE
  8
0
  6
BYLAYER
 62
     7
 10
1408.448805
 20
-193.858362
 30
0.0
 11
1408.448805
 21
-201.858362
 31
0.0
  0
LINE
  8
0
  6
BYLAYER
 62
     7
 10
1408.448805
 20
-193.858362
 30
0.0
 11
1416.286804
 21
-193.858362
 31
0.0
  0
LINE
  8
0
  6
BYLAYER
 62
     7
 10
1398.448805
 20
-193.858362
 30
0.0
 11
1406.448805
 21
-193.858362
 31
0.0
  0
LINE
  8
0
  6
BYLAYER
 62
     7
 10
1408.448805
 20
-201.858362
 30
0.0
 11
1416.286804
 21
-201.858362
 31
0.0
  0
LINE
  8
0
  6
BYLAYER
 62
     7
 10
1398.448805
 20
-201.858362
 30
0.0
 11
1406.448805
 21
-201.858362
 31
0.0
  0
LINE
  8
0
  6
BYLAYER
 62
     7
 10
1416.286804
 20
-193.858362
 30
0.0
 11
1416.286804
 21
-201.858362
 31
0.0
  0
LINE
  8
0
  6
BYLAYER
 62
     7
 10
1418.448805
 20
-191.858362
 30
0.0
 11
1418.448805
 21
-183.858362
 31
0.0
  0
LINE
  8
0
  6
BYLAYER
 62
     7
 10
1418.448805
 20
-183.858362
 30
0.0
 11
1426.448805
 21
-183.858362
 31
0.0
  0
LINE
  8
0
  6
BYLAYER
 62
     7
 10
1418.448805
 20
-191.858362
 30
0.0
 11
1426.448805
 21
-191.858362
 31
0.0
  0
LINE
  8
0
  6
BYLAYER
 62
     7
 10
1426.448805
 20
-183.858362
 30
0.0
 11
1426.448805
 21
-191.858362
 31
0.0
  0
LINE
  8
0
  6
BYLAYER
 62
     7
 10
1418.448805
 20
-201.858362
 30
0.0
 11
1418.448805
 21
-193.858362
 31
0.0
  0
LINE
  8
0
  6
BYLAYER
 62
     7
 10
1418.448805
 20
-193.858362
 30
0.0
 11
1426.448805
 21
-193.858362
 31
0.0
  0
LINE
  8
0
  6
BYLAYER
 62
     7
 10
1418.448805
 20
-201.858362
 30
0.0
 11
1426.448805
 21
-201.858362
 31
0.0
  0
LINE
  8
0
  6
BYLAYER
 62
     7
 10
1426.448805
 20
-193.858362
 30
0.0
 11
1426.448805
 21
-201.858362
 31
0.0
  0
LINE
  8
0
  6
BYLAYER
 62
     7
 10
1428.448805
 20
-181.858362
 30
0.0
 11
1428.448805
 21
-173.858362
 31
0.0
  0
LINE
  8
0
  6
BYLAYER
 62
     7
 10
1428.448805
 20
-173.858362
 30
0.0
 11
1436.448805
 21
-173.858362
 31
0.0
  0
LINE
  8
0
  6
BYLAYER
 62
     7
 10
1428.448805
 20
-181.858362
 30
0.0
 11
1436.448805
 21
-181.858362
 31
0.0
  0
LINE
  8
0
  6
BYLAYER
 62
     7
 10
1436.448805
 20
-173.858362
 30
0.0
 11
1436.448805
 21
-181.858362
 31
0.0
  0
LINE
  8
0
  6
BYLAYER
 62
     7
 10
1428.448805
 20
-191.858362
 30
0.0
 11
1428.448805
 21
-183.858362
 31
0.0
  0
LINE
  8
0
  6
BYLAYER
 62
     7
 10
1428.448805
 20
-183.858362
 30
0.0
 11
1436.448805
 21
-183.858362
 31
0.0
  0
LINE
  8
0
  6
BYLAYER
 62
     7
 10
1428.448805
 20
-191.858362
 30
0.0
 11
1436.448805
 21
-191.858362
 31
0.0
  0
LINE
  8
0
  6
BYLAYER
 62
     7
 10
1436.448805
 20
-183.858362
 30
0.0
 11
1436.448805
 21
-191.858362
 31
0.0
  0
LINE
  8
0
  6
BYLAYER
 62
     7
 10
1438.448805
 20
-181.858362
 30
0.0
 11
1438.448805
 21
-173.858362
 31
0.0
  0
LINE
  8
0
  6
BYLAYER
 62
     7
 10
1438.448805
 20
-173.858362
 30
0.0
 11
1446.448805
 21
-173.858362
 31
0.0
  0
LINE
  8
0
  6
BYLAYER
 62
     7
 10
1438.448805
 20
-181.858362
 30
0.0
 11
1446.448805
 21
-181.858362
 31
0.0
  0
LINE
  8
0
  6
BYLAYER
 62
     7
 10
1446.448805
 20
-173.858362
 30
0.0
 11
1446.448805
 21
-181.858362
 31
0.0
  0
LINE
  8
0
  6
BYLAYER
 62
     7
 10
1448.448805
 20
-163.858362
 30
0.0
 11
1456.448805
 21
-163.858362
 31
0.0
  0
LINE
  8
0
  6
BYLAYER
 62
     7
 10
1448.448805
 20
-171.858362
 30
0.0
 11
1448.448805
 21
-163.858362
 31
0.0
  0
LINE
  8
0
  6
BYLAYER
 62
     7
 10
1448.448805
 20
-171.858362
 30
0.0
 11
1456.448805
 21
-171.858362
 31
0.0
  0
LINE
  8
0
  6
BYLAYER
 62
     7
 10
1456.448805
 20
-163.858362
 30
0.0
 11
1456.448805
 21
-171.858362
 31
0.0
  0
LINE
  8
0
  6
BYLAYER
 62
     7
 10
1448.448805
 20
-153.858362
 30
0.0
 11
1456.448805
 21
-153.858362
 31
0.0
  0
LINE
  8
0
  6
BYLAYER
 62
     7
 10
1448.448805
 20
-161.858362
 30
0.0
 11
1448.448805
 21
-153.858362
 31
0.0
  0
LINE
  8
0
  6
BYLAYER
 62
     7
 10
1448.448805
 20
-161.858362
 30
0.0
 11
1456.448805
 21
-161.858362
 31
0.0
  0
LINE
  8
0
  6
BYLAYER
 62
     7
 10
1456.448805
 20
-153.858362
 30
0.0
 11
1456.448805
 21
-161.858362
 31
0.0
  0
LINE
  8
0
  6
BYLAYER
 62
     7
 10
1448.448805
 20
-181.858362
 30
0.0
 11
1448.448805
 21
-173.858362
 31
0.0
  0
LINE
  8
0
  6
BYLAYER
 62
     7
 10
1448.448805
 20
-173.858362
 30
0.0
 11
1456.448805
 21
-173.858362
 31
0.0
  0
LINE
  8
0
  6
BYLAYER
 62
     7
 10
1448.448805
 20
-181.858362
 30
0.0
 11
1456.448805
 21
-181.858362
 31
0.0
  0
LINE
  8
0
  6
BYLAYER
 62
     7
 10
1456.448805
 20
-173.858362
 30
0.0
 11
1456.448805
 21
-181.858362
 31
0.0
  0
LINE
  8
0
  6
BYLAYER
 62
     7
 10
1398.448805
 20
-211.858362
 30
0.0
 11
1398.448805
 21
-203.858362
 31
0.0
  0
LINE
  8
0
  6
BYLAYER
 62
     7
 10
1406.448805
 20
-203.858362
 30
0.0
 11
1406.448805
 21
-211.858362
 31
0.0
  0
LINE
  8
0
  6
BYLAYER
 62
     7
 10
1408.448805
 20
-203.858362
 30
0.0
 11
1408.448805
 21
-211.858362
 31
0.0
  0
LINE
  8
0
  6
BYLAYER
 62
     7
 10
1408.448805
 20
-203.858362
 30
0.0
 11
1416.286804
 21
-203.858362
 31
0.0
  0
LINE
  8
0
  6
BYLAYER
 62
     7
 10
1398.448805
 20
-203.858362
 30
0.0
 11
1406.448805
 21
-203.858362
 31
0.0
  0
LINE
  8
0
  6
BYLAYER
 62
     7
 10
1408.448805
 20
-211.858362
 30
0.0
 11
1416.286804
 21
-211.858362
 31
0.0
  0
LINE
  8
0
  6
BYLAYER
 62
     7
 10
1398.448805
 20
-211.858362
 30
0.0
 11
1406.448805
 21
-211.858362
 31
0.0
  0
LINE
  8
0
  6
BYLAYER
 62
     7
 10
1416.286804
 20
-203.858362
 30
0.0
 11
1416.286804
 21
-211.858362
 31
0.0
  0
LINE
  8
0
  6
BYLAYER
 62
     7
 10
1418.448805
 20
-211.858362
 30
0.0
 11
1418.448805
 21
-203.858362
 31
0.0
  0
LINE
  8
0
  6
BYLAYER
 62
     7
 10
1418.448805
 20
-203.858362
 30
0.0
 11
1426.448805
 21
-203.858362
 31
0.0
  0
LINE
  8
0
  6
BYLAYER
 62
     7
 10
1418.448805
 20
-211.858362
 30
0.0
 11
1426.448805
 21
-211.858362
 31
0.0
  0
LINE
  8
0
  6
BYLAYER
 62
     7
 10
1426.448805
 20
-203.858362
 30
0.0
 11
1426.448805
 21
-211.858362
 31
0.0
  0
LINE
  8
0
  6
BYLAYER
 62
     7
 10
1428.448805
 20
-201.858362
 30
0.0
 11
1428.448805
 21
-193.858362
 31
0.0
  0
LINE
  8
0
  6
BYLAYER
 62
     7
 10
1428.448805
 20
-193.858362
 30
0.0
 11
1436.448805
 21
-193.858362
 31
0.0
  0
LINE
  8
0
  6
BYLAYER
 62
     7
 10
1428.448805
 20
-201.858362
 30
0.0
 11
1436.448805
 21
-201.858362
 31
0.0
  0
LINE
  8
0
  6
BYLAYER
 62
     7
 10
1436.448805
 20
-193.858362
 30
0.0
 11
1436.448805
 21
-201.858362
 31
0.0
  0
LINE
  8
0
  6
BYLAYER
 62
     7
 10
1438.448805
 20
-191.858362
 30
0.0
 11
1438.448805
 21
-183.858362
 31
0.0
  0
LINE
  8
0
  6
BYLAYER
 62
     7
 10
1438.448805
 20
-183.858362
 30
0.0
 11
1446.448805
 21
-183.858362
 31
0.0
  0
LINE
  8
0
  6
BYLAYER
 62
     7
 10
1438.448805
 20
-191.858362
 30
0.0
 11
1446.448805
 21
-191.858362
 31
0.0
  0
LINE
  8
0
  6
BYLAYER
 62
     7
 10
1446.448805
 20
-183.858362
 30
0.0
 11
1446.448805
 21
-191.858362
 31
0.0
  0
LINE
  8
0
  6
BYLAYER
 62
     7
 10
1398.448805
 20
-221.858362
 30
0.0
 11
1398.448805
 21
-213.858362
 31
0.0
  0
LINE
  8
0
  6
BYLAYER
 62
     7
 10
1406.448805
 20
-213.858362
 30
0.0
 11
1406.448805
 21
-221.858362
 31
0.0
  0
LINE
  8
0
  6
BYLAYER
 62
     7
 10
1408.448805
 20
-213.858362
 30
0.0
 11
1408.448805
 21
-221.858362
 31
0.0
  0
LINE
  8
0
  6
BYLAYER
 62
     7
 10
1408.448805
 20
-213.858362
 30
0.0
 11
1416.286804
 21
-213.858362
 31
0.0
  0
LINE
  8
0
  6
BYLAYER
 62
     7
 10
1398.448805
 20
-213.858362
 30
0.0
 11
1406.448805
 21
-213.858362
 31
0.0
  0
LINE
  8
0
  6
BYLAYER
 62
     7
 10
1408.448805
 20
-221.858362
 30
0.0
 11
1416.286804
 21
-221.858362
 31
0.0
  0
LINE
  8
0
  6
BYLAYER
 62
     7
 10
1398.448805
 20
-221.858362
 30
0.0
 11
1406.448805
 21
-221.858362
 31
0.0
  0
LINE
  8
0
  6
BYLAYER
 62
     7
 10
1416.286804
 20
-213.858362
 30
0.0
 11
1416.286804
 21
-221.858362
 31
0.0
  0
LINE
  8
0
  6
BYLAYER
 62
     7
 10
1458.448805
 20
-163.858362
 30
0.0
 11
1466.448805
 21
-163.858362
 31
0.0
  0
LINE
  8
0
  6
BYLAYER
 62
     7
 10
1458.448805
 20
-171.858362
 30
0.0
 11
1458.448805
 21
-163.858362
 31
0.0
  0
LINE
  8
0
  6
BYLAYER
 62
     7
 10
1458.448805
 20
-171.858362
 30
0.0
 11
1466.448805
 21
-171.858362
 31
0.0
  0
LINE
  8
0
  6
BYLAYER
 62
     7
 10
1466.448805
 20
-163.858362
 30
0.0
 11
1466.448805
 21
-171.858362
 31
0.0
  0
LINE
  8
0
  6
BYLAYER
 62
     7
 10
1458.448805
 20
-153.858362
 30
0.0
 11
1466.448805
 21
-153.858362
 31
0.0
  0
LINE
  8
0
  6
BYLAYER
 62
     7
 10
1458.448805
 20
-161.858362
 30
0.0
 11
1458.448805
 21
-153.858362
 31
0.0
  0
LINE
  8
0
  6
BYLAYER
 62
     7
 10
1458.448805
 20
-161.858362
 30
0.0
 11
1466.448805
 21
-161.858362
 31
0.0
  0
LINE
  8
0
  6
BYLAYER
 62
     7
 10
1466.448805
 20
-153.858362
 30
0.0
 11
1466.448805
 21
-161.858362
 31
0.0
  0
LINE
  8
0
  6
BYLAYER
 62
     7
 10
1428.448805
 20
-211.858362
 30
0.0
 11
1428.448805
 21
-203.858362
 31
0.0
  0
LINE
  8
0
  6
BYLAYER
 62
     7
 10
1428.448805
 20
-203.858362
 30
0.0
 11
1436.448805
 21
-203.858362
 31
0.0
  0
LINE
  8
0
  6
BYLAYER
 62
     7
 10
1428.448805
 20
-211.858362
 30
0.0
 11
1436.448805
 21
-211.858362
 31
0.0
  0
LINE
  8
0
  6
BYLAYER
 62
     7
 10
1436.448805
 20
-203.858362
 30
0.0
 11
1436.448805
 21
-211.858362
 31
0.0
  0
LINE
  8
0
  6
BYLAYER
 62
     7
 10
1438.448805
 20
-201.858362
 30
0.0
 11
1438.448805
 21
-193.858362
 31
0.0
  0
LINE
  8
0
  6
BYLAYER
 62
     7
 10
1438.448805
 20
-193.858362
 30
0.0
 11
1446.448805
 21
-193.858362
 31
0.0
  0
LINE
  8
0
  6
BYLAYER
 62
     7
 10
1438.448805
 20
-201.858362
 30
0.0
 11
1446.448805
 21
-201.858362
 31
0.0
  0
LINE
  8
0
  6
BYLAYER
 62
     7
 10
1446.448805
 20
-193.858362
 30
0.0
 11
1446.448805
 21
-201.858362
 31
0.0
  0
LINE
  8
0
  6
BYLAYER
 62
     7
 10
1448.448805
 20
-191.858362
 30
0.0
 11
1448.448805
 21
-183.858362
 31
0.0
  0
LINE
  8
0
  6
BYLAYER
 62
     7
 10
1448.448805
 20
-183.858362
 30
0.0
 11
1456.448805
 21
-183.858362
 31
0.0
  0
LINE
  8
0
  6
BYLAYER
 62
     7
 10
1448.448805
 20
-191.858362
 30
0.0
 11
1456.448805
 21
-191.858362
 31
0.0
  0
LINE
  8
0
  6
BYLAYER
 62
     7
 10
1456.448805
 20
-183.858362
 30
0.0
 11
1456.448805
 21
-191.858362
 31
0.0
  0
LINE
  8
0
  6
BYLAYER
 62
     7
 10
1398.448805
 20
-231.858362
 30
0.0
 11
1398.448805
 21
-223.858362
 31
0.0
  0
LINE
  8
0
  6
BYLAYER
 62
     7
 10
1406.448805
 20
-223.858362
 30
0.0
 11
1406.448805
 21
-231.858362
 31
0.0
  0
LINE
  8
0
  6
BYLAYER
 62
     7
 10
1398.448805
 20
-223.858362
 30
0.0
 11
1406.448805
 21
-223.858362
 31
0.0
  0
LINE
  8
0
  6
BYLAYER
 62
     7
 10
1398.448805
 20
-231.858362
 30
0.0
 11
1406.448805
 21
-231.858362
 31
0.0
  0
LINE
  8
0
  6
BYLAYER
 62
     7
 10
1468.448805
 20
-153.858362
 30
0.0
 11
1476.448805
 21
-153.858362
 31
0.0
  0
LINE
  8
0
  6
BYLAYER
 62
     7
 10
1468.448805
 20
-161.858362
 30
0.0
 11
1468.448805
 21
-153.858362
 31
0.0
  0
LINE
  8
0
  6
BYLAYER
 62
     7
 10
1468.448805
 20
-161.858362
 30
0.0
 11
1476.448805
 21
-161.858362
 31
0.0
  0
LINE
  8
0
  6
BYLAYER
 62
     7
 10
1476.448805
 20
-153.858362
 30
0.0
 11
1476.448805
 21
-161.858362
 31
0.0
  0
LINE
  8
0
  6
BYLAYER
 62
     7
 10
1418.448805
 20
-221.858362
 30
0.0
 11
1418.448805
 21
-213.858362
 31
0.0
  0
LINE
  8
0
  6
BYLAYER
 62
     7
 10
1418.448805
 20
-213.858362
 30
0.0
 11
1426.448805
 21
-213.858362
 31
0.0
  0
LINE
  8
0
  6
BYLAYER
 62
     7
 10
1418.448805
 20
-221.858362
 30
0.0
 11
1426.448805
 21
-221.858362
 31
0.0
  0
LINE
  8
0
  6
BYLAYER
 62
     7
 10
1426.448805
 20
-213.858362
 30
0.0
 11
1426.448805
 21
-221.858362
 31
0.0
  0
LINE
  8
0
  6
BYLAYER
 62
     7
 10
1458.448805
 20
-181.858362
 30
0.0
 11
1458.448805
 21
-173.858362
 31
0.0
  0
LINE
  8
0
  6
BYLAYER
 62
     7
 10
1458.448805
 20
-173.858362
 30
0.0
 11
1466.448805
 21
-173.858362
 31
0.0
  0
LINE
  8
0
  6
BYLAYER
 62
     7
 10
1458.448805
 20
-181.858362
 30
0.0
 11
1466.448805
 21
-181.858362
 31
0.0
  0
LINE
  8
0
  6
BYLAYER
 62
     7
 10
1466.448805
 20
-173.858362
 30
0.0
 11
1466.448805
 21
-181.858362
 31
0.0
  0
LINE
  8
0
  6
BYLAYER
 62
     7
 10
1428.448805
 20
-221.858362
 30
0.0
 11
1428.448805
 21
-213.858362
 31
0.0
  0
LINE
  8
0
  6
BYLAYER
 62
     7
 10
1428.448805
 20
-213.858362
 30
0.0
 11
1436.448805
 21
-213.858362
 31
0.0
  0
LINE
  8
0
  6
BYLAYER
 62
     7
 10
1428.448805
 20
-221.858362
 30
0.0
 11
1436.448805
 21
-221.858362
 31
0.0
  0
LINE
  8
0
  6
BYLAYER
 62
     7
 10
1436.448805
 20
-213.858362
 30
0.0
 11
1436.448805
 21
-221.858362
 31
0.0
  0
LINE
  8
0
  6
BYLAYER
 62
     7
 10
1438.448805
 20
-211.858362
 30
0.0
 11
1438.448805
 21
-203.858362
 31
0.0
  0
LINE
  8
0
  6
BYLAYER
 62
     7
 10
1438.448805
 20
-203.858362
 30
0.0
 11
1446.448805
 21
-203.858362
 31
0.0
  0
LINE
  8
0
  6
BYLAYER
 62
     7
 10
1438.448805
 20
-211.858362
 30
0.0
 11
1446.448805
 21
-211.858362
 31
0.0
  0
LINE
  8
0
  6
BYLAYER
 62
     7
 10
1446.448805
 20
-203.858362
 30
0.0
 11
1446.448805
 21
-211.858362
 31
0.0
  0
LINE
  8
0
  6
BYLAYER
 62
     7
 10
1448.448805
 20
-201.858362
 30
0.0
 11
1448.448805
 21
-193.858362
 31
0.0
  0
LINE
  8
0
  6
BYLAYER
 62
     7
 10
1448.448805
 20
-193.858362
 30
0.0
 11
1456.448805
 21
-193.858362
 31
0.0
  0
LINE
  8
0
  6
BYLAYER
 62
     7
 10
1448.448805
 20
-201.858362
 30
0.0
 11
1456.448805
 21
-201.858362
 31
0.0
  0
LINE
  8
0
  6
BYLAYER
 62
     7
 10
1456.448805
 20
-193.858362
 30
0.0
 11
1456.448805
 21
-201.858362
 31
0.0
  0
LINE
  8
0
  6
BYLAYER
 62
     7
 10
1458.448805
 20
-191.858362
 30
0.0
 11
1458.448805
 21
-183.858362
 31
0.0
  0
LINE
  8
0
  6
BYLAYER
 62
     7
 10
1458.448805
 20
-183.858362
 30
0.0
 11
1466.448805
 21
-183.858362
 31
0.0
  0
LINE
  8
0
  6
BYLAYER
 62
     7
 10
1458.448805
 20
-191.858362
 30
0.0
 11
1466.448805
 21
-191.858362
 31
0.0
  0
LINE
  8
0
  6
BYLAYER
 62
     7
 10
1466.448805
 20
-183.858362
 30
0.0
 11
1466.448805
 21
-191.858362
 31
0.0
  0
LINE
  8
0
  6
BYLAYER
 62
     7
 10
1408.448805
 20
-223.858362
 30
0.0
 11
1408.448805
 21
-231.858362
 31
0.0
  0
LINE
  8
0
  6
BYLAYER
 62
     7
 10
1408.448805
 20
-223.858362
 30
0.0
 11
1416.286804
 21
-223.858362
 31
0.0
  0
LINE
  8
0
  6
BYLAYER
 62
     7
 10
1408.448805
 20
-231.858362
 30
0.0
 11
1416.286804
 21
-231.858362
 31
0.0
  0
LINE
  8
0
  6
BYLAYER
 62
     7
 10
1416.286804
 20
-223.858362
 30
0.0
 11
1416.286804
 21
-231.858362
 31
0.0
  0
LINE
  8
0
  6
BYLAYER
 62
     7
 10
1468.448805
 20
-163.858362
 30
0.0
 11
1476.448805
 21
-163.858362
 31
0.0
  0
LINE
  8
0
  6
BYLAYER
 62
     7
 10
1468.448805
 20
-171.858362
 30
0.0
 11
1468.448805
 21
-163.858362
 31
0.0
  0
LINE
  8
0
  6
BYLAYER
 62
     7
 10
1468.448805
 20
-171.858362
 30
0.0
 11
1476.448805
 21
-171.858362
 31
0.0
  0
LINE
  8
0
  6
BYLAYER
 62
     7
 10
1476.448805
 20
-163.858362
 30
0.0
 11
1476.448805
 21
-171.858362
 31
0.0
  0
LINE
  8
0
  6
BYLAYER
 62
     7
 10
1396.448805
 20
-123.858362
 30
0.0
 11
1396.448805
 21
-131.858362
 31
0.0
  0
LINE
  8
0
  6
BYLAYER
 62
     7
 10
1396.448805
 20
-113.858362
 30
0.0
 11
1396.448805
 21
-121.858362
 31
0.0
  0
LINE
  8
0
  6
BYLAYER
 62
     7
 10
1388.448805
 20
-121.858362
 30
0.0
 11
1388.448805
 21
-113.858362
 31
0.0
  0
LINE
  8
0
  6
BYLAYER
 62
     7
 10
1386.448805
 20
-121.858362
 30
0.0
 11
1386.448805
 21
-113.858362
 31
0.0
  0
LINE
  8
0
  6
BYLAYER
 62
     7
 10
1396.448805
 20
-131.858362
 30
0.0
 11
1388.448805
 21
-131.858362
 31
0.0
  0
LINE
  8
0
  6
BYLAYER
 62
     7
 10
1396.448805
 20
-123.858362
 30
0.0
 11
1388.448805
 21
-123.858362
 31
0.0
  0
LINE
  8
0
  6
BYLAYER
 62
     7
 10
1386.448805
 20
-121.858362
 30
0.0
 11
1378.610806
 21
-121.858362
 31
0.0
  0
LINE
  8
0
  6
BYLAYER
 62
     7
 10
1396.448805
 20
-121.858362
 30
0.0
 11
1388.448805
 21
-121.858362
 31
0.0
  0
LINE
  8
0
  6
BYLAYER
 62
     7
 10
1386.448805
 20
-113.858362
 30
0.0
 11
1378.610806
 21
-113.858362
 31
0.0
  0
LINE
  8
0
  6
BYLAYER
 62
     7
 10
1396.448805
 20
-113.858362
 30
0.0
 11
1388.448805
 21
-113.858362
 31
0.0
  0
LINE
  8
0
  6
BYLAYER
 62
     7
 10
1378.610806
 20
-121.858362
 30
0.0
 11
1378.610806
 21
-113.858362
 31
0.0
  0
LINE
  8
0
  6
BYLAYER
 62
     7
 10
1388.448805
 20
-131.858362
 30
0.0
 11
1388.448805
 21
-123.858362
 31
0.0
  0
LINE
  8
0
  6
BYLAYER
 62
     7
 10
1386.448805
 20
-123.858362
 30
0.0
 11
1386.448805
 21
-131.858362
 31
0.0
  0
LINE
  8
0
  6
BYLAYER
 62
     7
 10
1386.448805
 20
-131.858362
 30
0.0
 11
1378.448805
 21
-131.858362
 31
0.0
  0
LINE
  8
0
  6
BYLAYER
 62
     7
 10
1386.448805
 20
-123.858362
 30
0.0
 11
1378.448805
 21
-123.858362
 31
0.0
  0
LINE
  8
0
  6
BYLAYER
 62
     7
 10
1378.448805
 20
-131.858362
 30
0.0
 11
1378.448805
 21
-123.858362
 31
0.0
  0
LINE
  8
0
  6
BYLAYER
 62
     7
 10
1376.448805
 20
-141.858362
 30
0.0
 11
1368.448805
 21
-141.858362
 31
0.0
  0
LINE
  8
0
  6
BYLAYER
 62
     7
 10
1376.448805
 20
-123.858362
 30
0.0
 11
1376.448805
 21
-131.858362
 31
0.0
  0
LINE
  8
0
  6
BYLAYER
 62
     7
 10
1376.448805
 20
-133.858362
 30
0.0
 11
1376.448805
 21
-141.858362
 31
0.0
  0
LINE
  8
0
  6
BYLAYER
 62
     7
 10
1376.448805
 20
-133.858362
 30
0.0
 11
1368.448805
 21
-133.858362
 31
0.0
  0
LINE
  8
0
  6
BYLAYER
 62
     7
 10
1376.448805
 20
-131.858362
 30
0.0
 11
1368.448805
 21
-131.858362
 31
0.0
  0
LINE
  8
0
  6
BYLAYER
 62
     7
 10
1376.448805
 20
-123.858362
 30
0.0
 11
1368.448805
 21
-123.858362
 31
0.0
  0
LINE
  8
0
  6
BYLAYER
 62
     7
 10
1368.448805
 20
-141.858362
 30
0.0
 11
1368.448805
 21
-133.858362
 31
0.0
  0
LINE
  8
0
  6
BYLAYER
 62
     7
 10
1368.448805
 20
-131.858362
 30
0.0
 11
1368.448805
 21
-123.858362
 31
0.0
  0
LINE
  8
0
  6
BYLAYER
 62
     7
 10
1376.448805
 20
-151.858362
 30
0.0
 11
1368.448805
 21
-151.858362
 31
0.0
  0
LINE
  8
0
  6
BYLAYER
 62
     7
 10
1376.448805
 20
-143.858362
 30
0.0
 11
1376.448805
 21
-151.858362
 31
0.0
  0
LINE
  8
0
  6
BYLAYER
 62
     7
 10
1376.448805
 20
-143.858362
 30
0.0
 11
1368.448805
 21
-143.858362
 31
0.0
  0
LINE
  8
0
  6
BYLAYER
 62
     7
 10
1368.448805
 20
-151.858362
 30
0.0
 11
1368.448805
 21
-143.858362
 31
0.0
  0
LINE
  8
0
  6
BYLAYER
 62
     7
 10
1366.448805
 20
-141.858362
 30
0.0
 11
1358.448805
 21
-141.858362
 31
0.0
  0
LINE
  8
0
  6
BYLAYER
 62
     7
 10
1366.448805
 20
-133.858362
 30
0.0
 11
1366.448805
 21
-141.858362
 31
0.0
  0
LINE
  8
0
  6
BYLAYER
 62
     7
 10
1366.448805
 20
-133.858362
 30
0.0
 11
1358.448805
 21
-133.858362
 31
0.0
  0
LINE
  8
0
  6
BYLAYER
 62
     7
 10
1358.448805
 20
-141.858362
 30
0.0
 11
1358.448805
 21
-133.858362
 31
0.0
  0
LINE
  8
0
  6
BYLAYER
 62
     7
 10
1366.448805
 20
-151.858362
 30
0.0
 11
1358.448805
 21
-151.858362
 31
0.0
  0
LINE
  8
0
  6
BYLAYER
 62
     7
 10
1366.448805
 20
-143.858362
 30
0.0
 11
1366.448805
 21
-151.858362
 31
0.0
  0
LINE
  8
0
  6
BYLAYER
 62
     7
 10
1366.448805
 20
-143.858362
 30
0.0
 11
1358.448805
 21
-143.858362
 31
0.0
  0
LINE
  8
0
  6
BYLAYER
 62
     7
 10
1358.448805
 20
-151.858362
 30
0.0
 11
1358.448805
 21
-143.858362
 31
0.0
  0
LINE
  8
0
  6
BYLAYER
 62
     7
 10
1356.448805
 20
-141.858362
 30
0.0
 11
1348.448805
 21
-141.858362
 31
0.0
  0
LINE
  8
0
  6
BYLAYER
 62
     7
 10
1356.448805
 20
-133.858362
 30
0.0
 11
1356.448805
 21
-141.858362
 31
0.0
  0
LINE
  8
0
  6
BYLAYER
 62
     7
 10
1356.448805
 20
-133.858362
 30
0.0
 11
1348.448805
 21
-133.858362
 31
0.0
  0
LINE
  8
0
  6
BYLAYER
 62
     7
 10
1348.448805
 20
-141.858362
 30
0.0
 11
1348.448805
 21
-133.858362
 31
0.0
  0
LINE
  8
0
  6
BYLAYER
 62
     7
 10
1356.448805
 20
-151.858362
 30
0.0
 11
1348.448805
 21
-151.858362
 31
0.0
  0
LINE
  8
0
  6
BYLAYER
 62
     7
 10
1356.448805
 20
-143.858362
 30
0.0
 11
1356.448805
 21
-151.858362
 31
0.0
  0
LINE
  8
0
  6
BYLAYER
 62
     7
 10
1356.448805
 20
-143.858362
 30
0.0
 11
1348.448805
 21
-143.858362
 31
0.0
  0
LINE
  8
0
  6
BYLAYER
 62
     7
 10
1348.448805
 20
-151.858362
 30
0.0
 11
1348.448805
 21
-143.858362
 31
0.0
  0
LINE
  8
0
  6
BYLAYER
 62
     7
 10
1396.448805
 20
-103.858362
 30
0.0
 11
1396.448805
 21
-111.858362
 31
0.0
  0
LINE
  8
0
  6
BYLAYER
 62
     7
 10
1388.448805
 20
-111.858362
 30
0.0
 11
1388.448805
 21
-103.858362
 31
0.0
  0
LINE
  8
0
  6
BYLAYER
 62
     7
 10
1386.448805
 20
-111.858362
 30
0.0
 11
1386.448805
 21
-103.858362
 31
0.0
  0
LINE
  8
0
  6
BYLAYER
 62
     7
 10
1386.448805
 20
-111.858362
 30
0.0
 11
1378.610806
 21
-111.858362
 31
0.0
  0
LINE
  8
0
  6
BYLAYER
 62
     7
 10
1396.448805
 20
-111.858362
 30
0.0
 11
1388.448805
 21
-111.858362
 31
0.0
  0
LINE
  8
0
  6
BYLAYER
 62
     7
 10
1386.448805
 20
-103.858362
 30
0.0
 11
1378.610806
 21
-103.858362
 31
0.0
  0
LINE
  8
0
  6
BYLAYER
 62
     7
 10
1396.448805
 20
-103.858362
 30
0.0
 11
1388.448805
 21
-103.858362
 31
0.0
  0
LINE
  8
0
  6
BYLAYER
 62
     7
 10
1378.610806
 20
-111.858362
 30
0.0
 11
1378.610806
 21
-103.858362
 31
0.0
  0
LINE
  8
0
  6
BYLAYER
 62
     7
 10
1376.448805
 20
-113.858362
 30
0.0
 11
1376.448805
 21
-121.858362
 31
0.0
  0
LINE
  8
0
  6
BYLAYER
 62
     7
 10
1376.448805
 20
-121.858362
 30
0.0
 11
1368.448805
 21
-121.858362
 31
0.0
  0
LINE
  8
0
  6
BYLAYER
 62
     7
 10
1376.448805
 20
-113.858362
 30
0.0
 11
1368.448805
 21
-113.858362
 31
0.0
  0
LINE
  8
0
  6
BYLAYER
 62
     7
 10
1368.448805
 20
-121.858362
 30
0.0
 11
1368.448805
 21
-113.858362
 31
0.0
  0
LINE
  8
0
  6
BYLAYER
 62
     7
 10
1376.448805
 20
-103.858362
 30
0.0
 11
1376.448805
 21
-111.858362
 31
0.0
  0
LINE
  8
0
  6
BYLAYER
 62
     7
 10
1376.448805
 20
-111.858362
 30
0.0
 11
1368.448805
 21
-111.858362
 31
0.0
  0
LINE
  8
0
  6
BYLAYER
 62
     7
 10
1376.448805
 20
-103.858362
 30
0.0
 11
1368.448805
 21
-103.858362
 31
0.0
  0
LINE
  8
0
  6
BYLAYER
 62
     7
 10
1368.448805
 20
-111.858362
 30
0.0
 11
1368.448805
 21
-103.858362
 31
0.0
  0
LINE
  8
0
  6
BYLAYER
 62
     7
 10
1366.448805
 20
-123.858362
 30
0.0
 11
1366.448805
 21
-131.858362
 31
0.0
  0
LINE
  8
0
  6
BYLAYER
 62
     7
 10
1366.448805
 20
-131.858362
 30
0.0
 11
1358.448805
 21
-131.858362
 31
0.0
  0
LINE
  8
0
  6
BYLAYER
 62
     7
 10
1366.448805
 20
-123.858362
 30
0.0
 11
1358.448805
 21
-123.858362
 31
0.0
  0
LINE
  8
0
  6
BYLAYER
 62
     7
 10
1358.448805
 20
-131.858362
 30
0.0
 11
1358.448805
 21
-123.858362
 31
0.0
  0
LINE
  8
0
  6
BYLAYER
 62
     7
 10
1366.448805
 20
-113.858362
 30
0.0
 11
1366.448805
 21
-121.858362
 31
0.0
  0
LINE
  8
0
  6
BYLAYER
 62
     7
 10
1366.448805
 20
-121.858362
 30
0.0
 11
1358.448805
 21
-121.858362
 31
0.0
  0
LINE
  8
0
  6
BYLAYER
 62
     7
 10
1366.448805
 20
-113.858362
 30
0.0
 11
1358.448805
 21
-113.858362
 31
0.0
  0
LINE
  8
0
  6
BYLAYER
 62
     7
 10
1358.448805
 20
-121.858362
 30
0.0
 11
1358.448805
 21
-113.858362
 31
0.0
  0
LINE
  8
0
  6
BYLAYER
 62
     7
 10
1356.448805
 20
-123.858362
 30
0.0
 11
1356.448805
 21
-131.858362
 31
0.0
  0
LINE
  8
0
  6
BYLAYER
 62
     7
 10
1356.448805
 20
-131.858362
 30
0.0
 11
1348.448805
 21
-131.858362
 31
0.0
  0
LINE
  8
0
  6
BYLAYER
 62
     7
 10
1356.448805
 20
-123.858362
 30
0.0
 11
1348.448805
 21
-123.858362
 31
0.0
  0
LINE
  8
0
  6
BYLAYER
 62
     7
 10
1348.448805
 20
-131.858362
 30
0.0
 11
1348.448805
 21
-123.858362
 31
0.0
  0
LINE
  8
0
  6
BYLAYER
 62
     7
 10
1346.448805
 20
-141.858362
 30
0.0
 11
1338.448805
 21
-141.858362
 31
0.0
  0
LINE
  8
0
  6
BYLAYER
 62
     7
 10
1346.448805
 20
-133.858362
 30
0.0
 11
1346.448805
 21
-141.858362
 31
0.0
  0
LINE
  8
0
  6
BYLAYER
 62
     7
 10
1346.448805
 20
-133.858362
 30
0.0
 11
1338.448805
 21
-133.858362
 31
0.0
  0
LINE
  8
0
  6
BYLAYER
 62
     7
 10
1338.448805
 20
-141.858362
 30
0.0
 11
1338.448805
 21
-133.858362
 31
0.0
  0
LINE
  8
0
  6
BYLAYER
 62
     7
 10
1346.448805
 20
-151.858362
 30
0.0
 11
1338.448805
 21
-151.858362
 31
0.0
  0
LINE
  8
0
  6
BYLAYER
 62
     7
 10
1346.448805
 20
-143.858362
 30
0.0
 11
1346.448805
 21
-151.858362
 31
0.0
  0
LINE
  8
0
  6
BYLAYER
 62
     7
 10
1346.448805
 20
-143.858362
 30
0.0
 11
1338.448805
 21
-143.858362
 31
0.0
  0
LINE
  8
0
  6
BYLAYER
 62
     7
 10
1338.448805
 20
-151.858362
 30
0.0
 11
1338.448805
 21
-143.858362
 31
0.0
  0
LINE
  8
0
  6
BYLAYER
 62
     7
 10
1346.448805
 20
-123.858362
 30
0.0
 11
1346.448805
 21
-131.858362
 31
0.0
  0
LINE
  8
0
  6
BYLAYER
 62
     7
 10
1346.448805
 20
-131.858362
 30
0.0
 11
1338.448805
 21
-131.858362
 31
0.0
  0
LINE
  8
0
  6
BYLAYER
 62
     7
 10
1346.448805
 20
-123.858362
 30
0.0
 11
1338.448805
 21
-123.858362
 31
0.0
  0
LINE
  8
0
  6
BYLAYER
 62
     7
 10
1338.448805
 20
-131.858362
 30
0.0
 11
1338.448805
 21
-123.858362
 31
0.0
  0
LINE
  8
0
  6
BYLAYER
 62
     7
 10
1396.448805
 20
-93.858362
 30
0.0
 11
1396.448805
 21
-101.858362
 31
0.0
  0
LINE
  8
0
  6
BYLAYER
 62
     7
 10
1388.448805
 20
-101.858362
 30
0.0
 11
1388.448805
 21
-93.858362
 31
0.0
  0
LINE
  8
0
  6
BYLAYER
 62
     7
 10
1386.448805
 20
-101.858362
 30
0.0
 11
1386.448805
 21
-93.858362
 31
0.0
  0
LINE
  8
0
  6
BYLAYER
 62
     7
 10
1386.448805
 20
-101.858362
 30
0.0
 11
1378.610806
 21
-101.858362
 31
0.0
  0
LINE
  8
0
  6
BYLAYER
 62
     7
 10
1396.448805
 20
-101.858362
 30
0.0
 11
1388.448805
 21
-101.858362
 31
0.0
  0
LINE
  8
0
  6
BYLAYER
 62
     7
 10
1386.448805
 20
-93.858362
 30
0.0
 11
1378.610806
 21
-93.858362
 31
0.0
  0
LINE
  8
0
  6
BYLAYER
 62
     7
 10
1396.448805
 20
-93.858362
 30
0.0
 11
1388.448805
 21
-93.858362
 31
0.0
  0
LINE
  8
0
  6
BYLAYER
 62
     7
 10
1378.610806
 20
-101.858362
 30
0.0
 11
1378.610806
 21
-93.858362
 31
0.0
  0
LINE
  8
0
  6
BYLAYER
 62
     7
 10
1376.448805
 20
-93.858362
 30
0.0
 11
1376.448805
 21
-101.858362
 31
0.0
  0
LINE
  8
0
  6
BYLAYER
 62
     7
 10
1376.448805
 20
-101.858362
 30
0.0
 11
1368.448805
 21
-101.858362
 31
0.0
  0
LINE
  8
0
  6
BYLAYER
 62
     7
 10
1376.448805
 20
-93.858362
 30
0.0
 11
1368.448805
 21
-93.858362
 31
0.0
  0
LINE
  8
0
  6
BYLAYER
 62
     7
 10
1368.448805
 20
-101.858362
 30
0.0
 11
1368.448805
 21
-93.858362
 31
0.0
  0
LINE
  8
0
  6
BYLAYER
 62
     7
 10
1366.448805
 20
-103.858362
 30
0.0
 11
1366.448805
 21
-111.858362
 31
0.0
  0
LINE
  8
0
  6
BYLAYER
 62
     7
 10
1366.448805
 20
-111.858362
 30
0.0
 11
1358.448805
 21
-111.858362
 31
0.0
  0
LINE
  8
0
  6
BYLAYER
 62
     7
 10
1366.448805
 20
-103.858362
 30
0.0
 11
1358.448805
 21
-103.858362
 31
0.0
  0
LINE
  8
0
  6
BYLAYER
 62
     7
 10
1358.448805
 20
-111.858362
 30
0.0
 11
1358.448805
 21
-103.858362
 31
0.0
  0
LINE
  8
0
  6
BYLAYER
 62
     7
 10
1356.448805
 20
-113.858362
 30
0.0
 11
1356.448805
 21
-121.858362
 31
0.0
  0
LINE
  8
0
  6
BYLAYER
 62
     7
 10
1356.448805
 20
-121.858362
 30
0.0
 11
1348.448805
 21
-121.858362
 31
0.0
  0
LINE
  8
0
  6
BYLAYER
 62
     7
 10
1356.448805
 20
-113.858362
 30
0.0
 11
1348.448805
 21
-113.858362
 31
0.0
  0
LINE
  8
0
  6
BYLAYER
 62
     7
 10
1348.448805
 20
-121.858362
 30
0.0
 11
1348.448805
 21
-113.858362
 31
0.0
  0
LINE
  8
0
  6
BYLAYER
 62
     7
 10
1396.448805
 20
-83.858362
 30
0.0
 11
1396.448805
 21
-91.858362
 31
0.0
  0
LINE
  8
0
  6
BYLAYER
 62
     7
 10
1388.448805
 20
-91.858362
 30
0.0
 11
1388.448805
 21
-83.858362
 31
0.0
  0
LINE
  8
0
  6
BYLAYER
 62
     7
 10
1386.448805
 20
-91.858362
 30
0.0
 11
1386.448805
 21
-83.858362
 31
0.0
  0
LINE
  8
0
  6
BYLAYER
 62
     7
 10
1386.448805
 20
-91.858362
 30
0.0
 11
1378.610806
 21
-91.858362
 31
0.0
  0
LINE
  8
0
  6
BYLAYER
 62
     7
 10
1396.448805
 20
-91.858362
 30
0.0
 11
1388.448805
 21
-91.858362
 31
0.0
  0
LINE
  8
0
  6
BYLAYER
 62
     7
 10
1386.448805
 20
-83.858362
 30
0.0
 11
1378.610806
 21
-83.858362
 31
0.0
  0
LINE
  8
0
  6
BYLAYER
 62
     7
 10
1396.448805
 20
-83.858362
 30
0.0
 11
1388.448805
 21
-83.858362
 31
0.0
  0
LINE
  8
0
  6
BYLAYER
 62
     7
 10
1378.610806
 20
-91.858362
 30
0.0
 11
1378.610806
 21
-83.858362
 31
0.0
  0
LINE
  8
0
  6
BYLAYER
 62
     7
 10
1336.448805
 20
-141.858362
 30
0.0
 11
1328.448805
 21
-141.858362
 31
0.0
  0
LINE
  8
0
  6
BYLAYER
 62
     7
 10
1336.448805
 20
-133.858362
 30
0.0
 11
1336.448805
 21
-141.858362
 31
0.0
  0
LINE
  8
0
  6
BYLAYER
 62
     7
 10
1336.448805
 20
-133.858362
 30
0.0
 11
1328.448805
 21
-133.858362
 31
0.0
  0
LINE
  8
0
  6
BYLAYER
 62
     7
 10
1328.448805
 20
-141.858362
 30
0.0
 11
1328.448805
 21
-133.858362
 31
0.0
  0
LINE
  8
0
  6
BYLAYER
 62
     7
 10
1336.448805
 20
-151.858362
 30
0.0
 11
1328.448805
 21
-151.858362
 31
0.0
  0
LINE
  8
0
  6
BYLAYER
 62
     7
 10
1336.448805
 20
-143.858362
 30
0.0
 11
1336.448805
 21
-151.858362
 31
0.0
  0
LINE
  8
0
  6
BYLAYER
 62
     7
 10
1336.448805
 20
-143.858362
 30
0.0
 11
1328.448805
 21
-143.858362
 31
0.0
  0
LINE
  8
0
  6
BYLAYER
 62
     7
 10
1328.448805
 20
-151.858362
 30
0.0
 11
1328.448805
 21
-143.858362
 31
0.0
  0
LINE
  8
0
  6
BYLAYER
 62
     7
 10
1366.448805
 20
-93.858362
 30
0.0
 11
1366.448805
 21
-101.858362
 31
0.0
  0
LINE
  8
0
  6
BYLAYER
 62
     7
 10
1366.448805
 20
-101.858362
 30
0.0
 11
1358.448805
 21
-101.858362
 31
0.0
  0
LINE
  8
0
  6
BYLAYER
 62
     7
 10
1366.448805
 20
-93.858362
 30
0.0
 11
1358.448805
 21
-93.858362
 31
0.0
  0
LINE
  8
0
  6
BYLAYER
 62
     7
 10
1358.448805
 20
-101.858362
 30
0.0
 11
1358.448805
 21
-93.858362
 31
0.0
  0
LINE
  8
0
  6
BYLAYER
 62
     7
 10
1356.448805
 20
-103.858362
 30
0.0
 11
1356.448805
 21
-111.858362
 31
0.0
  0
LINE
  8
0
  6
BYLAYER
 62
     7
 10
1356.448805
 20
-111.858362
 30
0.0
 11
1348.448805
 21
-111.858362
 31
0.0
  0
LINE
  8
0
  6
BYLAYER
 62
     7
 10
1356.448805
 20
-103.858362
 30
0.0
 11
1348.448805
 21
-103.858362
 31
0.0
  0
LINE
  8
0
  6
BYLAYER
 62
     7
 10
1348.448805
 20
-111.858362
 30
0.0
 11
1348.448805
 21
-103.858362
 31
0.0
  0
LINE
  8
0
  6
BYLAYER
 62
     7
 10
1346.448805
 20
-113.858362
 30
0.0
 11
1346.448805
 21
-121.858362
 31
0.0
  0
LINE
  8
0
  6
BYLAYER
 62
     7
 10
1346.448805
 20
-121.858362
 30
0.0
 11
1338.448805
 21
-121.858362
 31
0.0
  0
LINE
  8
0
  6
BYLAYER
 62
     7
 10
1346.448805
 20
-113.858362
 30
0.0
 11
1338.448805
 21
-113.858362
 31
0.0
  0
LINE
  8
0
  6
BYLAYER
 62
     7
 10
1338.448805
 20
-121.858362
 30
0.0
 11
1338.448805
 21
-113.858362
 31
0.0
  0
LINE
  8
0
  6
BYLAYER
 62
     7
 10
1396.448805
 20
-73.858362
 30
0.0
 11
1396.448805
 21
-81.858362
 31
0.0
  0
LINE
  8
0
  6
BYLAYER
 62
     7
 10
1388.448805
 20
-81.858362
 30
0.0
 11
1388.448805
 21
-73.858362
 31
0.0
  0
LINE
  8
0
  6
BYLAYER
 62
     7
 10
1396.448805
 20
-81.858362
 30
0.0
 11
1388.448805
 21
-81.858362
 31
0.0
  0
LINE
  8
0
  6
BYLAYER
 62
     7
 10
1396.448805
 20
-73.858362
 30
0.0
 11
1388.448805
 21
-73.858362
 31
0.0
  0
LINE
  8
0
  6
BYLAYER
 62
     7
 10
1326.448805
 20
-151.858362
 30
0.0
 11
1318.448805
 21
-151.858362
 31
0.0
  0
LINE
  8
0
  6
BYLAYER
 62
     7
 10
1326.448805
 20
-143.858362
 30
0.0
 11
1326.448805
 21
-151.858362
 31
0.0
  0
LINE
  8
0
  6
BYLAYER
 62
     7
 10
1326.448805
 20
-143.858362
 30
0.0
 11
1318.448805
 21
-143.858362
 31
0.0
  0
LINE
  8
0
  6
BYLAYER
 62
     7
 10
1318.448805
 20
-151.858362
 30
0.0
 11
1318.448805
 21
-143.858362
 31
0.0
  0
LINE
  8
0
  6
BYLAYER
 62
     7
 10
1376.448805
 20
-83.858362
 30
0.0
 11
1376.448805
 21
-91.858362
 31
0.0
  0
LINE
  8
0
  6
BYLAYER
 62
     7
 10
1376.448805
 20
-91.858362
 30
0.0
 11
1368.448805
 21
-91.858362
 31
0.0
  0
LINE
  8
0
  6
BYLAYER
 62
     7
 10
1376.448805
 20
-83.858362
 30
0.0
 11
1368.448805
 21
-83.858362
 31
0.0
  0
LINE
  8
0
  6
BYLAYER
 62
     7
 10
1368.448805
 20
-91.858362
 30
0.0
 11
1368.448805
 21
-83.858362
 31
0.0
  0
LINE
  8
0
  6
BYLAYER
 62
     7
 10
1336.448805
 20
-123.858362
 30
0.0
 11
1336.448805
 21
-131.858362
 31
0.0
  0
LINE
  8
0
  6
BYLAYER
 62
     7
 10
1336.448805
 20
-131.858362
 30
0.0
 11
1328.448805
 21
-131.858362
 31
0.0
  0
LINE
  8
0
  6
BYLAYER
 62
     7
 10
1336.448805
 20
-123.858362
 30
0.0
 11
1328.448805
 21
-123.858362
 31
0.0
  0
LINE
  8
0
  6
BYLAYER
 62
     7
 10
1328.448805
 20
-131.858362
 30
0.0
 11
1328.448805
 21
-123.858362
 31
0.0
  0
LINE
  8
0
  6
BYLAYER
 62
     7
 10
1366.448805
 20
-83.858362
 30
0.0
 11
1366.448805
 21
-91.858362
 31
0.0
  0
LINE
  8
0
  6
BYLAYER
 62
     7
 10
1366.448805
 20
-91.858362
 30
0.0
 11
1358.448805
 21
-91.858362
 31
0.0
  0
LINE
  8
0
  6
BYLAYER
 62
     7
 10
1366.448805
 20
-83.858362
 30
0.0
 11
1358.448805
 21
-83.858362
 31
0.0
  0
LINE
  8
0
  6
BYLAYER
 62
     7
 10
1358.448805
 20
-91.858362
 30
0.0
 11
1358.448805
 21
-83.858362
 31
0.0
  0
LINE
  8
0
  6
BYLAYER
 62
     7
 10
1356.448805
 20
-93.858362
 30
0.0
 11
1356.448805
 21
-101.858362
 31
0.0
  0
LINE
  8
0
  6
BYLAYER
 62
     7
 10
1356.448805
 20
-101.858362
 30
0.0
 11
1348.448805
 21
-101.858362
 31
0.0
  0
LINE
  8
0
  6
BYLAYER
 62
     7
 10
1356.448805
 20
-93.858362
 30
0.0
 11
1348.448805
 21
-93.858362
 31
0.0
  0
LINE
  8
0
  6
BYLAYER
 62
     7
 10
1348.448805
 20
-101.858362
 30
0.0
 11
1348.448805
 21
-93.858362
 31
0.0
  0
LINE
  8
0
  6
BYLAYER
 62
     7
 10
1346.448805
 20
-103.858362
 30
0.0
 11
1346.448805
 21
-111.858362
 31
0.0
  0
LINE
  8
0
  6
BYLAYER
 62
     7
 10
1346.448805
 20
-111.858362
 30
0.0
 11
1338.448805
 21
-111.858362
 31
0.0
  0
LINE
  8
0
  6
BYLAYER
 62
     7
 10
1346.448805
 20
-103.858362
 30
0.0
 11
1338.448805
 21
-103.858362
 31
0.0
  0
LINE
  8
0
  6
BYLAYER
 62
     7
 10
1338.448805
 20
-111.858362
 30
0.0
 11
1338.448805
 21
-103.858362
 31
0.0
  0
LINE
  8
0
  6
BYLAYER
 62
     7
 10
1336.448805
 20
-113.858362
 30
0.0
 11
1336.448805
 21
-121.858362
 31
0.0
  0
LINE
  8
0
  6
BYLAYER
 62
     7
 10
1336.448805
 20
-121.858362
 30
0.0
 11
1328.448805
 21
-121.858362
 31
0.0
  0
LINE
  8
0
  6
BYLAYER
 62
     7
 10
1336.448805
 20
-113.858362
 30
0.0
 11
1328.448805
 21
-113.858362
 31
0.0
  0
LINE
  8
0
  6
BYLAYER
 62
     7
 10
1328.448805
 20
-121.858362
 30
0.0
 11
1328.448805
 21
-113.858362
 31
0.0
  0
LINE
  8
0
  6
BYLAYER
 62
     7
 10
1386.448805
 20
-81.858362
 30
0.0
 11
1386.448805
 21
-73.858362
 31
0.0
  0
LINE
  8
0
  6
BYLAYER
 62
     7
 10
1386.448805
 20
-81.858362
 30
0.0
 11
1378.610806
 21
-81.858362
 31
0.0
  0
LINE
  8
0
  6
BYLAYER
 62
     7
 10
1386.448805
 20
-73.858362
 30
0.0
 11
1378.610806
 21
-73.858362
 31
0.0
  0
LINE
  8
0
  6
BYLAYER
 62
     7
 10
1378.610806
 20
-81.858362
 30
0.0
 11
1378.610806
 21
-73.858362
 31
0.0
  0
LINE
  8
0
  6
BYLAYER
 62
     7
 10
1326.448805
 20
-141.858362
 30
0.0
 11
1318.448805
 21
-141.858362
 31
0.0
  0
LINE
  8
0
  6
BYLAYER
 62
     7
 10
1326.448805
 20
-133.858362
 30
0.0
 11
1326.448805
 21
-141.858362
 31
0.0
  0
LINE
  8
0
  6
BYLAYER
 62
     7
 10
1326.448805
 20
-133.858362
 30
0.0
 11
1318.448805
 21
-133.858362
 31
0.0
  0
LINE
  8
0
  6
BYLAYER
 62
     7
 10
1318.448805
 20
-141.858362
 30
0.0
 11
1318.448805
 21
-133.858362
 31
0.0
  0
LINE
  8
0
  6
BYLAYER
 62
     7
 10
1396.448805
 20
-181.858362
 30
0.0
 11
1396.448805
 21
-173.858362
 31
0.0
  0
LINE
  8
0
  6
BYLAYER
 62
     7
 10
1396.448805
 20
-191.858362
 30
0.0
 11
1396.448805
 21
-183.858362
 31
0.0
  0
LINE
  8
0
  6
BYLAYER
 62
     7
 10
1388.448805
 20
-183.858362
 30
0.0
 11
1388.448805
 21
-191.858362
 31
0.0
  0
LINE
  8
0
  6
BYLAYER
 62
     7
 10
1386.448805
 20
-183.858362
 30
0.0
 11
1386.448805
 21
-191.858362
 31
0.0
  0
LINE
  8
0
  6
BYLAYER
 62
     7
 10
1396.448805
 20
-173.858362
 30
0.0
 11
1388.448805
 21
-173.858362
 31
0.0
  0
LINE
  8
0
  6
BYLAYER
 62
     7
 10
1396.448805
 20
-181.858362
 30
0.0
 11
1388.448805
 21
-181.858362
 31
0.0
  0
LINE
  8
0
  6
BYLAYER
 62
     7
 10
1386.448805
 20
-183.858362
 30
0.0
 11
1378.610806
 21
-183.858362
 31
0.0
  0
LINE
  8
0
  6
BYLAYER
 62
     7
 10
1396.448805
 20
-183.858362
 30
0.0
 11
1388.448805
 21
-183.858362
 31
0.0
  0
LINE
  8
0
  6
BYLAYER
 62
     7
 10
1386.448805
 20
-191.858362
 30
0.0
 11
1378.610806
 21
-191.858362
 31
0.0
  0
LINE
  8
0
  6
BYLAYER
 62
     7
 10
1396.448805
 20
-191.858362
 30
0.0
 11
1388.448805
 21
-191.858362
 31
0.0
  0
LINE
  8
0
  6
BYLAYER
 62
     7
 10
1378.610806
 20
-183.858362
 30
0.0
 11
1378.610806
 21
-191.858362
 31
0.0
  0
LINE
  8
0
  6
BYLAYER
 62
     7
 10
1388.448805
 20
-173.858362
 30
0.0
 11
1388.448805
 21
-181.858362
 31
0.0
  0
LINE
  8
0
  6
BYLAYER
 62
     7
 10
1386.448805
 20
-181.858362
 30
0.0
 11
1386.448805
 21
-173.858362
 31
0.0
  0
LINE
  8
0
  6
BYLAYER
 62
     7
 10
1386.448805
 20
-173.858362
 30
0.0
 11
1378.448805
 21
-173.858362
 31
0.0
  0
LINE
  8
0
  6
BYLAYER
 62
     7
 10
1386.448805
 20
-181.858362
 30
0.0
 11
1378.448805
 21
-181.858362
 31
0.0
  0
LINE
  8
0
  6
BYLAYER
 62
     7
 10
1378.448805
 20
-173.858362
 30
0.0
 11
1378.448805
 21
-181.858362
 31
0.0
  0
LINE
  8
0
  6
BYLAYER
 62
     7
 10
1376.448805
 20
-163.858362
 30
0.0
 11
1368.448805
 21
-163.858362
 31
0.0
  0
LINE
  8
0
  6
BYLAYER
 62
     7
 10
1376.448805
 20
-181.858362
 30
0.0
 11
1376.448805
 21
-173.858362
 31
0.0
  0
LINE
  8
0
  6
BYLAYER
 62
     7
 10
1376.448805
 20
-171.858362
 30
0.0
 11
1376.448805
 21
-163.858362
 31
0.0
  0
LINE
  8
0
  6
BYLAYER
 62
     7
 10
1376.448805
 20
-171.858362
 30
0.0
 11
1368.448805
 21
-171.858362
 31
0.0
  0
LINE
  8
0
  6
BYLAYER
 62
     7
 10
1376.448805
 20
-173.858362
 30
0.0
 11
1368.448805
 21
-173.858362
 31
0.0
  0
LINE
  8
0
  6
BYLAYER
 62
     7
 10
1376.448805
 20
-181.858362
 30
0.0
 11
1368.448805
 21
-181.858362
 31
0.0
  0
LINE
  8
0
  6
BYLAYER
 62
     7
 10
1368.448805
 20
-163.858362
 30
0.0
 11
1368.448805
 21
-171.858362
 31
0.0
  0
LINE
  8
0
  6
BYLAYER
 62
     7
 10
1368.448805
 20
-173.858362
 30
0.0
 11
1368.448805
 21
-181.858362
 31
0.0
  0
LINE
  8
0
  6
BYLAYER
 62
     7
 10
1376.448805
 20
-153.858362
 30
0.0
 11
1368.448805
 21
-153.858362
 31
0.0
  0
LINE
  8
0
  6
BYLAYER
 62
     7
 10
1376.448805
 20
-161.858362
 30
0.0
 11
1376.448805
 21
-153.858362
 31
0.0
  0
LINE
  8
0
  6
BYLAYER
 62
     7
 10
1376.448805
 20
-161.858362
 30
0.0
 11
1368.448805
 21
-161.858362
 31
0.0
  0
LINE
  8
0
  6
BYLAYER
 62
     7
 10
1368.448805
 20
-153.858362
 30
0.0
 11
1368.448805
 21
-161.858362
 31
0.0
  0
LINE
  8
0
  6
BYLAYER
 62
     7
 10
1366.448805
 20
-163.858362
 30
0.0
 11
1358.448805
 21
-163.858362
 31
0.0
  0
LINE
  8
0
  6
BYLAYER
 62
     7
 10
1366.448805
 20
-171.858362
 30
0.0
 11
1366.448805
 21
-163.858362
 31
0.0
  0
LINE
  8
0
  6
BYLAYER
 62
     7
 10
1366.448805
 20
-171.858362
 30
0.0
 11
1358.448805
 21
-171.858362
 31
0.0
  0
LINE
  8
0
  6
BYLAYER
 62
     7
 10
1358.448805
 20
-163.858362
 30
0.0
 11
1358.448805
 21
-171.858362
 31
0.0
  0
LINE
  8
0
  6
BYLAYER
 62
     7
 10
1366.448805
 20
-153.858362
 30
0.0
 11
1358.448805
 21
-153.858362
 31
0.0
  0
LINE
  8
0
  6
BYLAYER
 62
     7
 10
1366.448805
 20
-161.858362
 30
0.0
 11
1366.448805
 21
-153.858362
 31
0.0
  0
LINE
  8
0
  6
BYLAYER
 62
     7
 10
1366.448805
 20
-161.858362
 30
0.0
 11
1358.448805
 21
-161.858362
 31
0.0
  0
LINE
  8
0
  6
BYLAYER
 62
     7
 10
1358.448805
 20
-153.858362
 30
0.0
 11
1358.448805
 21
-161.858362
 31
0.0
  0
LINE
  8
0
  6
BYLAYER
 62
     7
 10
1356.448805
 20
-163.858362
 30
0.0
 11
1348.448805
 21
-163.858362
 31
0.0
  0
LINE
  8
0
  6
BYLAYER
 62
     7
 10
1356.448805
 20
-171.858362
 30
0.0
 11
1356.448805
 21
-163.858362
 31
0.0
  0
LINE
  8
0
  6
BYLAYER
 62
     7
 10
1356.448805
 20
-171.858362
 30
0.0
 11
1348.448805
 21
-171.858362
 31
0.0
  0
LINE
  8
0
  6
BYLAYER
 62
     7
 10
1348.448805
 20
-163.858362
 30
0.0
 11
1348.448805
 21
-171.858362
 31
0.0
  0
LINE
  8
0
  6
BYLAYER
 62
     7
 10
1356.448805
 20
-153.858362
 30
0.0
 11
1348.448805
 21
-153.858362
 31
0.0
  0
LINE
  8
0
  6
BYLAYER
 62
     7
 10
1356.448805
 20
-161.858362
 30
0.0
 11
1356.448805
 21
-153.858362
 31
0.0
  0
LINE
  8
0
  6
BYLAYER
 62
     7
 10
1356.448805
 20
-161.858362
 30
0.0
 11
1348.448805
 21
-161.858362
 31
0.0
  0
LINE
  8
0
  6
BYLAYER
 62
     7
 10
1348.448805
 20
-153.858362
 30
0.0
 11
1348.448805
 21
-161.858362
 31
0.0
  0
LINE
  8
0
  6
BYLAYER
 62
     7
 10
1396.448805
 20
-201.858362
 30
0.0
 11
1396.448805
 21
-193.858362
 31
0.0
  0
LINE
  8
0
  6
BYLAYER
 62
     7
 10
1388.448805
 20
-193.858362
 30
0.0
 11
1388.448805
 21
-201.858362
 31
0.0
  0
LINE
  8
0
  6
BYLAYER
 62
     7
 10
1386.448805
 20
-193.858362
 30
0.0
 11
1386.448805
 21
-201.858362
 31
0.0
  0
LINE
  8
0
  6
BYLAYER
 62
     7
 10
1386.448805
 20
-193.858362
 30
0.0
 11
1378.610806
 21
-193.858362
 31
0.0
  0
LINE
  8
0
  6
BYLAYER
 62
     7
 10
1396.448805
 20
-193.858362
 30
0.0
 11
1388.448805
 21
-193.858362
 31
0.0
  0
LINE
  8
0
  6
BYLAYER
 62
     7
 10
1386.448805
 20
-201.858362
 30
0.0
 11
1378.610806
 21
-201.858362
 31
0.0
  0
LINE
  8
0
  6
BYLAYER
 62
     7
 10
1396.448805
 20
-201.858362
 30
0.0
 11
1388.448805
 21
-201.858362
 31
0.0
  0
LINE
  8
0
  6
BYLAYER
 62
     7
 10
1378.610806
 20
-193.858362
 30
0.0
 11
1378.610806
 21
-201.858362
 31
0.0
  0
LINE
  8
0
  6
BYLAYER
 62
     7
 10
1376.448805
 20
-191.858362
 30
0.0
 11
1376.448805
 21
-183.858362
 31
0.0
  0
LINE
  8
0
  6
BYLAYER
 62
     7
 10
1376.448805
 20
-183.858362
 30
0.0
 11
1368.448805
 21
-183.858362
 31
0.0
  0
LINE
  8
0
  6
BYLAYER
 62
     7
 10
1376.448805
 20
-191.858362
 30
0.0
 11
1368.448805
 21
-191.858362
 31
0.0
  0
LINE
  8
0
  6
BYLAYER
 62
     7
 10
1368.448805
 20
-183.858362
 30
0.0
 11
1368.448805
 21
-191.858362
 31
0.0
  0
LINE
  8
0
  6
BYLAYER
 62
     7
 10
1376.448805
 20
-201.858362
 30
0.0
 11
1376.448805
 21
-193.858362
 31
0.0
  0
LINE
  8
0
  6
BYLAYER
 62
     7
 10
1376.448805
 20
-193.858362
 30
0.0
 11
1368.448805
 21
-193.858362
 31
0.0
  0
LINE
  8
0
  6
BYLAYER
 62
     7
 10
1376.448805
 20
-201.858362
 30
0.0
 11
1368.448805
 21
-201.858362
 31
0.0
  0
LINE
  8
0
  6
BYLAYER
 62
     7
 10
1368.448805
 20
-193.858362
 30
0.0
 11
1368.448805
 21
-201.858362
 31
0.0
  0
LINE
  8
0
  6
BYLAYER
 62
     7
 10
1366.448805
 20
-181.858362
 30
0.0
 11
1366.448805
 21
-173.858362
 31
0.0
  0
LINE
  8
0
  6
BYLAYER
 62
     7
 10
1366.448805
 20
-173.858362
 30
0.0
 11
1358.448805
 21
-173.858362
 31
0.0
  0
LINE
  8
0
  6
BYLAYER
 62
     7
 10
1366.448805
 20
-181.858362
 30
0.0
 11
1358.448805
 21
-181.858362
 31
0.0
  0
LINE
  8
0
  6
BYLAYER
 62
     7
 10
1358.448805
 20
-173.858362
 30
0.0
 11
1358.448805
 21
-181.858362
 31
0.0
  0
LINE
  8
0
  6
BYLAYER
 62
     7
 10
1366.448805
 20
-191.858362
 30
0.0
 11
1366.448805
 21
-183.858362
 31
0.0
  0
LINE
  8
0
  6
BYLAYER
 62
     7
 10
1366.448805
 20
-183.858362
 30
0.0
 11
1358.448805
 21
-183.858362
 31
0.0
  0
LINE
  8
0
  6
BYLAYER
 62
     7
 10
1366.448805
 20
-191.858362
 30
0.0
 11
1358.448805
 21
-191.858362
 31
0.0
  0
LINE
  8
0
  6
BYLAYER
 62
     7
 10
1358.448805
 20
-183.858362
 30
0.0
 11
1358.448805
 21
-191.858362
 31
0.0
  0
LINE
  8
0
  6
BYLAYER
 62
     7
 10
1356.448805
 20
-181.858362
 30
0.0
 11
1356.448805
 21
-173.858362
 31
0.0
  0
LINE
  8
0
  6
BYLAYER
 62
     7
 10
1356.448805
 20
-173.858362
 30
0.0
 11
1348.448805
 21
-173.858362
 31
0.0
  0
LINE
  8
0
  6
BYLAYER
 62
     7
 10
1356.448805
 20
-181.858362
 30
0.0
 11
1348.448805
 21
-181.858362
 31
0.0
  0
LINE
  8
0
  6
BYLAYER
 62
     7
 10
1348.448805
 20
-173.858362
 30
0.0
 11
1348.448805
 21
-181.858362
 31
0.0
  0
LINE
  8
0
  6
BYLAYER
 62
     7
 10
1346.448805
 20
-163.858362
 30
0.0
 11
1338.448805
 21
-163.858362
 31
0.0
  0
LINE
  8
0
  6
BYLAYER
 62
     7
 10
1346.448805
 20
-171.858362
 30
0.0
 11
1346.448805
 21
-163.858362
 31
0.0
  0
LINE
  8
0
  6
BYLAYER
 62
     7
 10
1346.448805
 20
-171.858362
 30
0.0
 11
1338.448805
 21
-171.858362
 31
0.0
  0
LINE
  8
0
  6
BYLAYER
 62
     7
 10
1338.448805
 20
-163.858362
 30
0.0
 11
1338.448805
 21
-171.858362
 31
0.0
  0
LINE
  8
0
  6
BYLAYER
 62
     7
 10
1346.448805
 20
-153.858362
 30
0.0
 11
1338.448805
 21
-153.858362
 31
0.0
  0
LINE
  8
0
  6
BYLAYER
 62
     7
 10
1346.448805
 20
-161.858362
 30
0.0
 11
1346.448805
 21
-153.858362
 31
0.0
  0
LINE
  8
0
  6
BYLAYER
 62
     7
 10
1346.448805
 20
-161.858362
 30
0.0
 11
1338.448805
 21
-161.858362
 31
0.0
  0
LINE
  8
0
  6
BYLAYER
 62
     7
 10
1338.448805
 20
-153.858362
 30
0.0
 11
1338.448805
 21
-161.858362
 31
0.0
  0
LINE
  8
0
  6
BYLAYER
 62
     7
 10
1346.448805
 20
-181.858362
 30
0.0
 11
1346.448805
 21
-173.858362
 31
0.0
  0
LINE
  8
0
  6
BYLAYER
 62
     7
 10
1346.448805
 20
-173.858362
 30
0.0
 11
1338.448805
 21
-173.858362
 31
0.0
  0
LINE
  8
0
  6
BYLAYER
 62
     7
 10
1346.448805
 20
-181.858362
 30
0.0
 11
1338.448805
 21
-181.858362
 31
0.0
  0
LINE
  8
0
  6
BYLAYER
 62
     7
 10
1338.448805
 20
-173.858362
 30
0.0
 11
1338.448805
 21
-181.858362
 31
0.0
  0
LINE
  8
0
  6
BYLAYER
 62
     7
 10
1396.448805
 20
-211.858362
 30
0.0
 11
1396.448805
 21
-203.858362
 31
0.0
  0
LINE
  8
0
  6
BYLAYER
 62
     7
 10
1388.448805
 20
-203.858362
 30
0.0
 11
1388.448805
 21
-211.858362
 31
0.0
  0
LINE
  8
0
  6
BYLAYER
 62
     7
 10
1386.448805
 20
-203.858362
 30
0.0
 11
1386.448805
 21
-211.858362
 31
0.0
  0
LINE
  8
0
  6
BYLAYER
 62
     7
 10
1386.448805
 20
-203.858362
 30
0.0
 11
1378.610806
 21
-203.858362
 31
0.0
  0
LINE
  8
0
  6
BYLAYER
 62
     7
 10
1396.448805
 20
-203.858362
 30
0.0
 11
1388.448805
 21
-203.858362
 31
0.0
  0
LINE
  8
0
  6
BYLAYER
 62
     7
 10
1386.448805
 20
-211.858362
 30
0.0
 11
1378.610806
 21
-211.858362
 31
0.0
  0
LINE
  8
0
  6
BYLAYER
 62
     7
 10
1396.448805
 20
-211.858362
 30
0.0
 11
1388.448805
 21
-211.858362
 31
0.0
  0
LINE
  8
0
  6
BYLAYER
 62
     7
 10
1378.610806
 20
-203.858362
 30
0.0
 11
1378.610806
 21
-211.858362
 31
0.0
  0
LINE
  8
0
  6
BYLAYER
 62
     7
 10
1376.448805
 20
-211.858362
 30
0.0
 11
1376.448805
 21
-203.858362
 31
0.0
  0
LINE
  8
0
  6
BYLAYER
 62
     7
 10
1376.448805
 20
-203.858362
 30
0.0
 11
1368.448805
 21
-203.858362
 31
0.0
  0
LINE
  8
0
  6
BYLAYER
 62
     7
 10
1376.448805
 20
-211.858362
 30
0.0
 11
1368.448805
 21
-211.858362
 31
0.0
  0
LINE
  8
0
  6
BYLAYER
 62
     7
 10
1368.448805
 20
-203.858362
 30
0.0
 11
1368.448805
 21
-211.858362
 31
0.0
  0
LINE
  8
0
  6
BYLAYER
 62
     7
 10
1366.448805
 20
-201.858362
 30
0.0
 11
1366.448805
 21
-193.858362
 31
0.0
  0
LINE
  8
0
  6
BYLAYER
 62
     7
 10
1366.448805
 20
-193.858362
 30
0.0
 11
1358.448805
 21
-193.858362
 31
0.0
  0
LINE
  8
0
  6
BYLAYER
 62
     7
 10
1366.448805
 20
-201.858362
 30
0.0
 11
1358.448805
 21
-201.858362
 31
0.0
  0
LINE
  8
0
  6
BYLAYER
 62
     7
 10
1358.448805
 20
-193.858362
 30
0.0
 11
1358.448805
 21
-201.858362
 31
0.0
  0
LINE
  8
0
  6
BYLAYER
 62
     7
 10
1356.448805
 20
-191.858362
 30
0.0
 11
1356.448805
 21
-183.858362
 31
0.0
  0
LINE
  8
0
  6
BYLAYER
 62
     7
 10
1356.448805
 20
-183.858362
 30
0.0
 11
1348.448805
 21
-183.858362
 31
0.0
  0
LINE
  8
0
  6
BYLAYER
 62
     7
 10
1356.448805
 20
-191.858362
 30
0.0
 11
1348.448805
 21
-191.858362
 31
0.0
  0
LINE
  8
0
  6
BYLAYER
 62
     7
 10
1348.448805
 20
-183.858362
 30
0.0
 11
1348.448805
 21
-191.858362
 31
0.0
  0
LINE
  8
0
  6
BYLAYER
 62
     7
 10
1396.448805
 20
-221.858362
 30
0.0
 11
1396.448805
 21
-213.858362
 31
0.0
  0
LINE
  8
0
  6
BYLAYER
 62
     7
 10
1388.448805
 20
-213.858362
 30
0.0
 11
1388.448805
 21
-221.858362
 31
0.0
  0
LINE
  8
0
  6
BYLAYER
 62
     7
 10
1386.448805
 20
-213.858362
 30
0.0
 11
1386.448805
 21
-221.858362
 31
0.0
  0
LINE
  8
0
  6
BYLAYER
 62
     7
 10
1386.448805
 20
-213.858362
 30
0.0
 11
1378.610806
 21
-213.858362
 31
0.0
  0
LINE
  8
0
  6
BYLAYER
 62
     7
 10
1396.448805
 20
-213.858362
 30
0.0
 11
1388.448805
 21
-213.858362
 31
0.0
  0
LINE
  8
0
  6
BYLAYER
 62
     7
 10
1386.448805
 20
-221.858362
 30
0.0
 11
1378.610806
 21
-221.858362
 31
0.0
  0
LINE
  8
0
  6
BYLAYER
 62
     7
 10
1396.448805
 20
-221.858362
 30
0.0
 11
1388.448805
 21
-221.858362
 31
0.0
  0
LINE
  8
0
  6
BYLAYER
 62
     7
 10
1378.610806
 20
-213.858362
 30
0.0
 11
1378.610806
 21
-221.858362
 31
0.0
  0
LINE
  8
0
  6
BYLAYER
 62
     7
 10
1336.448805
 20
-163.858362
 30
0.0
 11
1328.448805
 21
-163.858362
 31
0.0
  0
LINE
  8
0
  6
BYLAYER
 62
     7
 10
1336.448805
 20
-171.858362
 30
0.0
 11
1336.448805
 21
-163.858362
 31
0.0
  0
LINE
  8
0
  6
BYLAYER
 62
     7
 10
1336.448805
 20
-171.858362
 30
0.0
 11
1328.448805
 21
-171.858362
 31
0.0
  0
LINE
  8
0
  6
BYLAYER
 62
     7
 10
1328.448805
 20
-163.858362
 30
0.0
 11
1328.448805
 21
-171.858362
 31
0.0
  0
LINE
  8
0
  6
BYLAYER
 62
     7
 10
1336.448805
 20
-153.858362
 30
0.0
 11
1328.448805
 21
-153.858362
 31
0.0
  0
LINE
  8
0
  6
BYLAYER
 62
     7
 10
1336.448805
 20
-161.858362
 30
0.0
 11
1336.448805
 21
-153.858362
 31
0.0
  0
LINE
  8
0
  6
BYLAYER
 62
     7
 10
1336.448805
 20
-161.858362
 30
0.0
 11
1328.448805
 21
-161.858362
 31
0.0
  0
LINE
  8
0
  6
BYLAYER
 62
     7
 10
1328.448805
 20
-153.858362
 30
0.0
 11
1328.448805
 21
-161.858362
 31
0.0
  0
LINE
  8
0
  6
BYLAYER
 62
     7
 10
1366.448805
 20
-211.858362
 30
0.0
 11
1366.448805
 21
-203.858362
 31
0.0
  0
LINE
  8
0
  6
BYLAYER
 62
     7
 10
1366.448805
 20
-203.858362
 30
0.0
 11
1358.448805
 21
-203.858362
 31
0.0
  0
LINE
  8
0
  6
BYLAYER
 62
     7
 10
1366.448805
 20
-211.858362
 30
0.0
 11
1358.448805
 21
-211.858362
 31
0.0
  0
LINE
  8
0
  6
BYLAYER
 62
     7
 10
1358.448805
 20
-203.858362
 30
0.0
 11
1358.448805
 21
-211.858362
 31
0.0
  0
LINE
  8
0
  6
BYLAYER
 62
     7
 10
1356.448805
 20
-201.858362
 30
0.0
 11
1356.448805
 21
-193.858362
 31
0.0
  0
LINE
  8
0
  6
BYLAYER
 62
     7
 10
1356.448805
 20
-193.858362
 30
0.0
 11
1348.448805
 21
-193.858362
 31
0.0
  0
LINE
  8
0
  6
BYLAYER
 62
     7
 10
1356.448805
 20
-201.858362
 30
0.0
 11
1348.448805
 21
-201.858362
 31
0.0
  0
LINE
  8
0
  6
BYLAYER
 62
     7
 10
1348.448805
 20
-193.858362
 30
0.0
 11
1348.448805
 21
-201.858362
 31
0.0
  0
LINE
  8
0
  6
BYLAYER
 62
     7
 10
1346.448805
 20
-191.858362
 30
0.0
 11
1346.448805
 21
-183.858362
 31
0.0
  0
LINE
  8
0
  6
BYLAYER
 62
     7
 10
1346.448805
 20
-183.858362
 30
0.0
 11
1338.448805
 21
-183.858362
 31
0.0
  0
LINE
  8
0
  6
BYLAYER
 62
     7
 10
1346.448805
 20
-191.858362
 30
0.0
 11
1338.448805
 21
-191.858362
 31
0.0
  0
LINE
  8
0
  6
BYLAYER
 62
     7
 10
1338.448805
 20
-183.858362
 30
0.0
 11
1338.448805
 21
-191.858362
 31
0.0
  0
LINE
  8
0
  6
BYLAYER
 62
     7
 10
1396.448805
 20
-231.858362
 30
0.0
 11
1396.448805
 21
-223.858362
 31
0.0
  0
LINE
  8
0
  6
BYLAYER
 62
     7
 10
1388.448805
 20
-223.858362
 30
0.0
 11
1388.448805
 21
-231.858362
 31
0.0
  0
LINE
  8
0
  6
BYLAYER
 62
     7
 10
1396.448805
 20
-223.858362
 30
0.0
 11
1388.448805
 21
-223.858362
 31
0.0
  0
LINE
  8
0
  6
BYLAYER
 62
     7
 10
1396.448805
 20
-231.858362
 30
0.0
 11
1388.448805
 21
-231.858362
 31
0.0
  0
LINE
  8
0
  6
BYLAYER
 62
     7
 10
1326.448805
 20
-153.858362
 30
0.0
 11
1318.448805
 21
-153.858362
 31
0.0
  0
LINE
  8
0
  6
BYLAYER
 62
     7
 10
1326.448805
 20
-161.858362
 30
0.0
 11
1326.448805
 21
-153.858362
 31
0.0
  0
LINE
  8
0
  6
BYLAYER
 62
     7
 10
1326.448805
 20
-161.858362
 30
0.0
 11
1318.448805
 21
-161.858362
 31
0.0
  0
LINE
  8
0
  6
BYLAYER
 62
     7
 10
1318.448805
 20
-153.858362
 30
0.0
 11
1318.448805
 21
-161.858362
 31
0.0
  0
LINE
  8
0
  6
BYLAYER
 62
     7
 10
1376.448805
 20
-221.858362
 30
0.0
 11
1376.448805
 21
-213.858362
 31
0.0
  0
LINE
  8
0
  6
BYLAYER
 62
     7
 10
1376.448805
 20
-213.858362
 30
0.0
 11
1368.448805
 21
-213.858362
 31
0.0
  0
LINE
  8
0
  6
BYLAYER
 62
     7
 10
1376.448805
 20
-221.858362
 30
0.0
 11
1368.448805
 21
-221.858362
 31
0.0
  0
LINE
  8
0
  6
BYLAYER
 62
     7
 10
1368.448805
 20
-213.858362
 30
0.0
 11
1368.448805
 21
-221.858362
 31
0.0
  0
LINE
  8
0
  6
BYLAYER
 62
     7
 10
1336.448805
 20
-181.858362
 30
0.0
 11
1336.448805
 21
-173.858362
 31
0.0
  0
LINE
  8
0
  6
BYLAYER
 62
     7
 10
1336.448805
 20
-173.858362
 30
0.0
 11
1328.448805
 21
-173.858362
 31
0.0
  0
LINE
  8
0
  6
BYLAYER
 62
     7
 10
1336.448805
 20
-181.858362
 30
0.0
 11
1328.448805
 21
-181.858362
 31
0.0
  0
LINE
  8
0
  6
BYLAYER
 62
     7
 10
1328.448805
 20
-173.858362
 30
0.0
 11
1328.448805
 21
-181.858362
 31
0.0
  0
LINE
  8
0
  6
BYLAYER
 62
     7
 10
1366.448805
 20
-221.858362
 30
0.0
 11
1366.448805
 21
-213.858362
 31
0.0
  0
LINE
  8
0
  6
BYLAYER
 62
     7
 10
1366.448805
 20
-213.858362
 30
0.0
 11
1358.448805
 21
-213.858362
 31
0.0
  0
LINE
  8
0
  6
BYLAYER
 62
     7
 10
1366.448805
 20
-221.858362
 30
0.0
 11
1358.448805
 21
-221.858362
 31
0.0
  0
LINE
  8
0
  6
BYLAYER
 62
     7
 10
1358.448805
 20
-213.858362
 30
0.0
 11
1358.448805
 21
-221.858362
 31
0.0
  0
LINE
  8
0
  6
BYLAYER
 62
     7
 10
1356.448805
 20
-211.858362
 30
0.0
 11
1356.448805
 21
-203.858362
 31
0.0
  0
LINE
  8
0
  6
BYLAYER
 62
     7
 10
1356.448805
 20
-203.858362
 30
0.0
 11
1348.448805
 21
-203.858362
 31
0.0
  0
LINE
  8
0
  6
BYLAYER
 62
     7
 10
1356.448805
 20
-211.858362
 30
0.0
 11
1348.448805
 21
-211.858362
 31
0.0
  0
LINE
  8
0
  6
BYLAYER
 62
     7
 10
1348.448805
 20
-203.858362
 30
0.0
 11
1348.448805
 21
-211.858362
 31
0.0
  0
LINE
  8
0
  6
BYLAYER
 62
     7
 10
1346.448805
 20
-201.858362
 30
0.0
 11
1346.448805
 21
-193.858362
 31
0.0
  0
LINE
  8
0
  6
BYLAYER
 62
     7
 10
1346.448805
 20
-193.858362
 30
0.0
 11
1338.448805
 21
-193.858362
 31
0.0
  0
LINE
  8
0
  6
BYLAYER
 62
     7
 10
1346.448805
 20
-201.858362
 30
0.0
 11
1338.448805
 21
-201.858362
 31
0.0
  0
LINE
  8
0
  6
BYLAYER
 62
     7
 10
1338.448805
 20
-193.858362
 30
0.0
 11
1338.448805
 21
-201.858362
 31
0.0
  0
LINE
  8
0
  6
BYLAYER
 62
     7
 10
1336.448805
 20
-191.858362
 30
0.0
 11
1336.448805
 21
-183.858362
 31
0.0
  0
LINE
  8
0
  6
BYLAYER
 62
     7
 10
1336.448805
 20
-183.858362
 30
0.0
 11
1328.448805
 21
-183.858362
 31
0.0
  0
LINE
  8
0
  6
BYLAYER
 62
     7
 10
1336.448805
 20
-191.858362
 30
0.0
 11
1328.448805
 21
-191.858362
 31
0.0
  0
LINE
  8
0
  6
BYLAYER
 62
     7
 10
1328.448805
 20
-183.858362
 30
0.0
 11
1328.448805
 21
-191.858362
 31
0.0
  0
LINE
  8
0
  6
BYLAYER
 62
     7
 10
1386.448805
 20
-223.858362
 30
0.0
 11
1386.448805
 21
-231.858362
 31
0.0
  0
LINE
  8
0
  6
BYLAYER
 62
     7
 10
1386.448805
 20
-223.858362
 30
0.0
 11
1378.610806
 21
-223.858362
 31
0.0
  0
LINE
  8
0
  6
BYLAYER
 62
     7
 10
1386.448805
 20
-231.858362
 30
0.0
 11
1378.610806
 21
-231.858362
 31
0.0
  0
LINE
  8
0
  6
BYLAYER
 62
     7
 10
1378.610806
 20
-223.858362
 30
0.0
 11
1378.610806
 21
-231.858362
 31
0.0
  0
LINE
  8
0
  6
BYLAYER
 62
     7
 10
1326.448805
 20
-163.858362
 30
0.0
 11
1318.448805
 21
-163.858362
 31
0.0
  0
LINE
  8
0
  6
BYLAYER
 62
     7
 10
1326.448805
 20
-171.858362
 30
0.0
 11
1326.448805
 21
-163.858362
 31
0.0
  0
LINE
  8
0
  6
BYLAYER
 62
     7
 10
1326.448805
 20
-171.858362
 30
0.0
 11
1318.448805
 21
-171.858362
 31
0.0
  0
LINE
  8
0
  6
BYLAYER
 62
     7
 10
1318.448805
 20
-163.858362
 30
0.0
 11
1318.448805
 21
-171.858362
 31
0.0
  0
CIRCLE
  8
0
  6
BYLAYER
 62
     7
 10
1397.448805
 20
-152.858362
 30
0.0
 40
82.542439
  0
ARC
  8
0
  6
BYLAYER
 62
     7
 10
1397.448805
 20
-152.858362
 30
0.0
 40
125.000000
 50
113.079003
 51
426.921013
  0
LINE
  8
0
  6
BYLAYER
 62
     7
 10
1394.448805
 20
-258.184595
 30
0.0
 11
1394.448805
 21
-268.646951
 31
0.0
  0
LINE
  8
0
  6
BYLAYER
 62
     7
 10
1400.448805
 20
-258.184595
 30
0.0
 11
1400.448805
 21
-268.646951
 31
0.0
  0
ARC
  8
0
  6
BYLAYER
 62
     7
 10
1404.448805
 20
-268.646951
 30
0.0
 40
4.0
 50
180.000000
 51
273.459814
  0
ARC
  8
0
  6
BYLAYER
 62
     7
 10
1397.448805
 20
-152.858362
 30
0.0
 40
120.000000
 50
273.459601
 51
306.572850
  0
ARC
  8
0
  6
BYLAYER
 62
     7
 10
1466.566755
 20
-246.017954
 30
0.0
 40
4.0
 50
306.572822
 51
405.000076
  0
LINE
  8
0
  6
BYLAYER
 62
     7
 10
1469.395186
 20
-243.189523
 30
0.0
 11
1462.216791
 21
-236.011136
 31
0.0
  0
LINE
  8
0
  6
BYLAYER
 62
     7
 10
1325.502455
 20
-243.189508
 30
0.0
 11
1332.680828
 21
-236.011143
 31
0.0
  0
ARC
  8
0
  6
BYLAYER
 62
     7
 10
1328.330885
 20
-246.017938
 30
0.0
 40
4.000000
 50
135.0
 51
233.427015
  0
ARC
  8
0
  6
BYLAYER
 62
     7
 10
1397.448805
 20
-152.858362
 30
0.0
 40
120.000000
 50
233.427152
 51
266.540401
  0
ARC
  8
0
  6
BYLAYER
 62
     7
 10
1390.448805
 20
-268.646951
 30
0.0
 40
4.000000
 50
266.540182
 51
360.000000
  0
LINE
  8
0
  6
BYLAYER
 62
     7
 10
1502.806651
 20
-155.858357
 30
0.0
 11
1513.237410
 21
-155.858357
 31
0.0
  0
LINE
  8
0
  6
BYLAYER
 62
     7
 10
1502.806651
 20
-149.858358
 30
0.0
 11
1513.237410
 21
-149.858357
 31
0.0
  0
ARC
  8
0
  6
BYLAYER
 62
     7
 10
1513.237410
 20
-145.858357
 30
0.0
 40
4.0
 50
270.0
 51
363.459828
  0
ARC
  8
0
  6
BYLAYER
 62
     7
 10
1397.448805
 20
-152.858362
 30
0.0
 40
120.000000
 50
3.459610
 51
36.572859
  0
ARC
  8
0
  6
BYLAYER
 62
     7
 10
1490.608412
 20
-83.740412
 30
0.0
 40
4.000000
 50
36.572832
 51
135.000082
  0
LINE
  8
0
  6
BYLAYER
 62
     7
 10
1487.779982
 20
-80.911997
 30
0.0
 11
1480.601586
 21
-88.090385
 31
0.0
  0
LINE
  8
0
  6
BYLAYER
 62
     7
 10
1487.779951
 20
-224.804727
 30
0.0
 11
1480.601581
 21
-217.626345
 31
0.0
  0
ARC
  8
0
  6
BYLAYER
 62
     7
 10
1490.608381
 20
-221.976297
 30
0.0
 40
4.000000
 50
225.000010
 51
323.427024
  0
ARC
  8
0
  6
BYLAYER
 62
     7
 10
1397.448805
 20
-152.858362
 30
0.0
 40
120.0
 50
323.427161
 51
356.540410
  0
ARC
  8
0
  6
BYLAYER
 62
     7
 10
1513.237410
 20
-159.858356
 30
0.0
 40
4.0
 50
356.540191
 51
450.000003
  0
ARC
  8
0
  6
BYLAYER
 62
     7
 10
1397.448805
 20
-152.858362
 30
0.0
 40
120.0
 50
114.100180
 51
126.572841
  0
ARC
  8
0
  6
BYLAYER
 62
     7
 10
1328.330885
 20
-59.698786
 30
0.0
 40
4.0
 50
126.572841
 51
225.000078
  0
LINE
  8
0
  6
BYLAYER
 62
     7
 10
1325.502455
 20
-62.527201
 30
0.0
 11
1332.680833
 21
-69.705578
 31
0.0
  0
LINE
  8
0
  6
BYLAYER
 62
     7
 10
1469.395186
 20
-62.527201
 30
0.0
 11
1462.216795
 21
-69.705592
 31
0.0
  0
ARC
  8
0
  6
BYLAYER
 62
     7
 10
1466.566755
 20
-59.698770
 30
0.0
 40
4.0
 50
315.000019
 51
413.427034
  0
ARC
  8
0
  6
BYLAYER
 62
     7
 10
1397.448805
 20
-152.858362
 30
0.0
 40
120.000000
 50
53.427143
 51
65.899836
  0
LINE
  8
0
  6
BYLAYER
 62
     7
 10
1292.090959
 20
-149.858363
 30
0.0
 11
1281.660231
 21
-149.858363
 31
0.0
  0
LINE
  8
0
  6
BYLAYER
 62
     7
 10
1292.090959
 20
-155.858363
 30
0.0
 11
1281.660231
 21
-155.858363
 31
0.0
  0
ARC
  8
0
  6
BYLAYER
 62
     7
 10
1281.660231
 20
-159.858363
 30
0.0
 40
4.000000
 50
90.0
 51
183.459774
  0
ARC
  8
0
  6
BYLAYER
 62
     7
 10
1397.448805
 20
-152.858362
 30
0.0
 40
120.000000
 50
183.459574
 51
216.572878
  0
ARC
  8
0
  6
BYLAYER
 62
     7
 10
1304.289198
 20
-221.976312
 30
0.0
 40
4.000000
 50
216.572823
 51
315.000074
  0
LINE
  8
0
  6
BYLAYER
 62
     7
 10
1307.117628
 20
-224.804727
 30
0.0
 11
1314.296024
 21
-217.626339
 31
0.0
  0
LINE
  8
0
  6
BYLAYER
 62
     7
 10
1307.117689
 20
-80.911981
 30
0.0
 11
1314.296041
 21
-88.090364
 31
0.0
  0
ARC
  8
0
  6
BYLAYER
 62
     7
 10
1304.289259
 20
-83.740412
 30
0.0
 40
4.0
 50
45.000001
 51
143.427016
  0
ARC
  8
0
  6
BYLAYER
 62
     7
 10
1397.448805
 20
-152.858362
 30
0.0
 40
120.000000
 50
143.427125
 51
176.540429
  0
ARC
  8
0
  6
BYLAYER
 62
     7
 10
1281.660231
 20
-145.858364
 30
0.0
 40
4.000000
 50
176.540210
 51
270.000001
  0
ARC
  8
0
  6
BYLAYER
 62
     7
 10
1473.462782
 20
-228.872354
 30
0.0
 40
7.0
 50
205.758402
 51
424.241587
  0
ARC
  8
0
  6
BYLAYER
 62
     7
 10
1473.462782
 20
-76.844385
 30
0.0
 40
7.0
 50
295.758498
 51
514.241502
  0
ARC
  8
0
  6
BYLAYER
 62
     7
 10
1321.434828
 20
-76.844370
 30
0.0
 40
7.000000
 50
25.758402
 51
244.241587
  0
ARC
  8
0
  6
BYLAYER
 62
     7
 10
1321.434828
 20
-228.872339
 30
0.0
 40
7.0
 50
115.758498
 51
334.241502
  0
LINE
  8
0
  6
BYLAYER
 62
     7
 10
1348.448805
 20
-702.858362
 30
0.0
 11
1362.448805
 21
-702.858362
 31
0.0
  0
LINE
  8
0
  6
BYLAYER
 62
     7
 10
1432.448805
 20
-702.858362
 30
0.0
 11
1446.448774
 21
-702.858362
 31
0.0
  0
LINE
  8
0
  6
BYLAYER
 62
     7
 10
1348.448805
 20
-707.862710
 30
0.0
 11
1348.448805
 21
-702.858362
 31
0.0
  0
LINE
  8
0
  6
BYLAYER
 62
     7
 10
1446.448774
 20
-707.862697
 30
0.0
 11
1446.448774
 21
-702.858362
 31
0.0
  0
LINE
  8
0
  6
BYLAYER
 62
     7
 10
1353.948805
 20
-692.358362
 30
0.0
 11
1353.948805
 21
-670.858362
 31
0.0
  0
ARC
  8
0
  6
BYLAYER
 62
     7
 10
1352.448805
 20
-692.358362
 30
0.0
 40
1.5
 50
270.0
 51
360.0
  0
ARC
  8
0
  6
BYLAYER
 62
     7
 10
1355.448805
 20
-670.858362
 30
0.0
 40
1.5
 50
90.0
 51
180.0
  0
LINE
  8
0
  6
BYLAYER
 62
     7
 10
1397.448805
 20
-669.358362
 30
0.0
 11
1355.448805
 21
-669.358362
 31
0.0
  0
LINE
  8
0
  6
BYLAYER
 62
     7
 10
1359.321046
 20
-692.358362
 30
0.0
 11
1359.321046
 21
-670.858362
 31
0.0
  0
ARC
  8
0
  6
BYLAYER
 62
     7
 10
1357.821046
 20
-692.358362
 30
0.0
 40
1.5
 50
270.0
 51
360.0
  0
ARC
  8
0
  6
BYLAYER
 62
     7
 10
1360.821046
 20
-670.858362
 30
0.0
 40
1.500000
 50
90.0
 51
180.0
  0
LINE
  8
0
  6
BYLAYER
 62
     7
 10
1384.355152
 20
-669.358362
 30
0.0
 11
1384.847699
 21
-683.463060
 31
0.0
  0
ARC
  8
0
  6
BYLAYER
 62
     7
 10
1387.845871
 20
-683.358362
 30
0.0
 40
3.0
 50
182.000000
 51
270.000000
  0
LINE
  8
0
  6
BYLAYER
 62
     7
 10
1395.049911
 20
-683.463060
 30
0.0
 11
1395.542458
 21
-669.358362
 31
0.0
  0
ARC
  8
0
  6
BYLAYER
 62
     7
 10
1392.051739
 20
-683.358362
 30
0.0
 40
3.0
 50
270.0
 51
358.0
  0
LINE
  8
0
  6
BYLAYER
 62
     7
 10
1387.845871
 20
-686.358362
 30
0.0
 11
1392.051739
 21
-686.358362
 31
0.0
  0
LINE
  8
0
  6
BYLAYER
 62
     7
 10
1369.355152
 20
-669.358362
 30
0.0
 11
1369.847699
 21
-683.463060
 31
0.0
  0
ARC
  8
0
  6
BYLAYER
 62
     7
 10
1372.845871
 20
-683.358362
 30
0.0
 40
3.0
 50
182.000000
 51
270.000000
  0
LINE
  8
0
  6
BYLAYER
 62
     7
 10
1380.049911
 20
-683.463060
 30
0.0
 11
1380.542458
 21
-669.358362
 31
0.0
  0
ARC
  8
0
  6
BYLAYER
 62
     7
 10
1377.051739
 20
-683.358362
 30
0.0
 40
3.0
 50
270.0
 51
358.0
  0
LINE
  8
0
  6
BYLAYER
 62
     7
 10
1372.845871
 20
-686.358362
 30
0.0
 11
1377.051739
 21
-686.358362
 31
0.0
  0
LINE
  8
0
  6
BYLAYER
 62
     7
 10
1369.390073
 20
-670.358362
 30
0.0
 11
1380.507537
 21
-670.358362
 31
0.0
  0
LINE
  8
0
  6
BYLAYER
 62
     7
 10
1384.390073
 20
-670.358362
 30
0.0
 11
1395.507537
 21
-670.358362
 31
0.0
  0
LINE
  8
0
  6
BYLAYER
 62
     7
 10
1397.448805
 20
-693.858362
 30
0.0
 11
1349.948805
 21
-693.858362
 31
0.0
  0
ARC
  8
0
  6
BYLAYER
 62
     7
 10
1349.948805
 20
-695.358362
 30
0.0
 40
1.5
 50
90.0
 51
180.0
  0
LINE
  8
0
  6
BYLAYER
 62
     7
 10
1348.448805
 20
-700.858362
 30
0.0
 11
1348.448805
 21
-695.358362
 31
0.0
  0
LINE
  8
0
  6
BYLAYER
 62
     7
 10
1348.448805
 20
-700.858362
 30
0.0
 11
1370.227490
 21
-700.858362
 31
0.0
  0
LINE
  8
0
  6
BYLAYER
 62
     7
 10
1440.948805
 20
-692.358362
 30
0.0
 11
1440.948805
 21
-670.858362
 31
0.0
  0
ARC
  8
0
  6
BYLAYER
 62
     7
 10
1442.448805
 20
-692.358362
 30
0.0
 40
1.5
 50
180.000000
 51
270.000000
  0
ARC
  8
0
  6
BYLAYER
 62
     7
 10
1439.448805
 20
-670.858362
 30
0.0
 40
1.5
 50
0.0
 51
90.0
  0
LINE
  8
0
  6
BYLAYER
 62
     7
 10
1397.448805
 20
-669.358362
 30
0.0
 11
1439.448805
 21
-669.358362
 31
0.0
  0
LINE
  8
0
  6
BYLAYER
 62
     7
 10
1435.576564
 20
-692.358362
 30
0.0
 11
1435.576564
 21
-670.858362
 31
0.0
  0
ARC
  8
0
  6
BYLAYER
 62
     7
 10
1437.076564
 20
-692.358362
 30
0.0
 40
1.5
 50
180.000000
 51
270.000000
  0
ARC
  8
0
  6
BYLAYER
 62
     7
 10
1434.076564
 20
-670.858362
 30
0.0
 40
1.500000
 50
0.0
 51
90.0
  0
LINE
  8
0
  6
BYLAYER
 62
     7
 10
1410.542458
 20
-669.358362
 30
0.0
 11
1410.049911
 21
-683.463060
 31
0.0
  0
ARC
  8
0
  6
BYLAYER
 62
     7
 10
1407.051739
 20
-683.358362
 30
0.0
 40
3.0
 50
270.0
 51
358.0
  0
LINE
  8
0
  6
BYLAYER
 62
     7
 10
1399.847699
 20
-683.463060
 30
0.0
 11
1399.355152
 21
-669.358362
 31
0.0
  0
ARC
  8
0
  6
BYLAYER
 62
     7
 10
1402.845871
 20
-683.358362
 30
0.0
 40
3.0
 50
182.000000
 51
270.000000
  0
LINE
  8
0
  6
BYLAYER
 62
     7
 10
1407.051739
 20
-686.358362
 30
0.0
 11
1402.845871
 21
-686.358362
 31
0.0
  0
LINE
  8
0
  6
BYLAYER
 62
     7
 10
1425.542458
 20
-669.358362
 30
0.0
 11
1425.049911
 21
-683.463060
 31
0.0
  0
ARC
  8
0
  6
BYLAYER
 62
     7
 10
1422.051739
 20
-683.358362
 30
0.0
 40
3.0
 50
270.0
 51
358.0
  0
LINE
  8
0
  6
BYLAYER
 62
     7
 10
1414.847699
 20
-683.463060
 30
0.0
 11
1414.355152
 21
-669.358362
 31
0.0
  0
ARC
  8
0
  6
BYLAYER
 62
     7
 10
1417.845871
 20
-683.358362
 30
0.0
 40
3.0
 50
182.000000
 51
270.000000
  0
LINE
  8
0
  6
BYLAYER
 62
     7
 10
1422.051739
 20
-686.358362
 30
0.0
 11
1417.845871
 21
-686.358362
 31
0.0
  0
LINE
  8
0
  6
BYLAYER
 62
     7
 10
1425.507537
 20
-670.358362
 30
0.0
 11
1414.390073
 21
-670.358362
 31
0.0
  0
LINE
  8
0
  6
BYLAYER
 62
     7
 10
1410.507537
 20
-670.358362
 30
0.0
 11
1399.390073
 21
-670.358362
 31
0.0
  0
LINE
  8
0
  6
BYLAYER
 62
     7
 10
1397.448805
 20
-693.858362
 30
0.0
 11
1444.948805
 21
-693.858362
 31
0.0
  0
ARC
  8
0
  6
BYLAYER
 62
     7
 10
1444.948805
 20
-695.358362
 30
0.0
 40
1.5
 50
0.0
 51
90.0
  0
LINE
  8
0
  6
BYLAYER
 62
     7
 10
1446.448805
 20
-702.858362
 30
0.0
 11
1446.448805
 21
-695.358362
 31
0.0
  0
LINE
  8
0
  6
BYLAYER
 62
     7
 10
1446.448805
 20
-700.858362
 30
0.0
 11
1424.670120
 21
-700.858362
 31
0.0
  0
LINE
  8
0
  6
BYLAYER
 62
     7
 10
1348.448805
 20
-700.858362
 30
0.0
 11
1348.448805
 21
-702.858362
 31
0.0
  0
ARC
  8
0
  6
BYLAYER
 62
     1
 10
1397.448805
 20
-822.858362
 30
0.0
 40
125.0
 50
323.130102
 51
576.869898
  0
ARC
  8
0
  6
BYLAYER
 62
     1
 10
1397.448805
 20
-822.858362
 30
0.0
 40
94.433998
 50
168.384298
 51
176.387579
  0
ARC
  8
0
  6
BYLAYER
 62
     1
 10
1300.208388
 20
-816.719354
 30
0.0
 40
3.000000
 50
270.0
 51
356.387584
  0
ARC
  8
0
  6
BYLAYER
 62
     1
 10
1397.448805
 20
-822.858362
 30
0.0
 40
94.433998
 50
183.612410
 51
195.190839
  0
ARC
  8
0
  6
BYLAYER
 62
     1
 10
1300.208388
 20
-828.997370
 30
0.0
 40
3.000000
 50
3.612414
 51
89.999998
  0
ARC
  8
0
  6
BYLAYER
 62
     1
 10
1397.448805
 20
-822.858362
 30
0.0
 40
94.433998
 50
344.809161
 51
356.387598
  0
ARC
  8
0
  6
BYLAYER
 62
     1
 10
1397.448805
 20
-822.858362
 30
0.0
 40
94.433998
 50
3.612414
 51
11.615702
  0
ARC
  8
0
  6
BYLAYER
 62
     1
 10
1397.448805
 20
-822.858362
 30
0.0
 40
94.433998
 50
63.612414
 51
116.387585
  0
ARC
  8
0
  6
BYLAYER
 62
     1
 10
1397.448805
 20
-822.858362
 30
0.0
 40
115.704002
 50
177.202838
 51
182.797173
  0
LINE
  8
0
  6
BYLAYER
 62
     1
 10
1307.448805
 20
-820.358362
 30
0.0
 11
1284.879103
 21
-820.358362
 31
0.0
  0
ARC
  8
0
  6
BYLAYER
 62
     1
 10
1284.879103
 20
-817.358362
 30
0.0
 40
3.000000
 50
177.202830
 51
270.000000
  0
LINE
  8
0
  6
BYLAYER
 62
     1
 10
1312.448805
 20
-825.358362
 30
0.0
 11
1284.879103
 21
-825.358362
 31
0.0
  0
ARC
  8
0
  6
BYLAYER
 62
     1
 10
1284.879103
 20
-828.358362
 30
0.0
 40
3.000000
 50
90.0
 51
182.79717
  0
LINE
  8
0
  6
BYLAYER
 62
     1
 10
1300.208388
 20
-819.719354
 30
0.0
 11
1307.115833
 21
-820.025390
 31
0.0
  0
LINE
  8
0
  6
BYLAYER
 62
     1
 10
1300.208388
 20
-825.997370
 30
0.0
 11
1312.541396
 21
-825.450953
 31
0.0
  0
LINE
  8
0
  6
BYLAYER
 62
     1
 10
1300.208388
 20
-819.719354
 30
0.0
 11
1284.879103
 21
-820.358362
 31
0.0
  0
LINE
  8
0
  6
BYLAYER
 62
     1
 10
1300.208388
 20
-825.997370
 30
0.0
 11
1284.879103
 21
-825.358362
 31
0.0
  0
ARC
  8
0
  6
BYLAYER
 62
     1
 10
1494.689222
 20
-828.997370
 30
0.0
 40
3.0
 50
90.0
 51
176.387584
  0
ARC
  8
0
  6
BYLAYER
 62
     1
 10
1494.689222
 20
-816.719354
 30
0.0
 40
3.000000
 50
183.612410
 51
269.999994
  0
ARC
  8
0
  6
BYLAYER
 62
     1
 10
1397.448805
 20
-822.858362
 30
0.0
 40
115.704002
 50
357.202829
 51
362.797165
  0
LINE
  8
0
  6
BYLAYER
 62
     1
 10
1482.448805
 20
-825.358362
 30
0.0
 11
1510.018507
 21
-825.358362
 31
0.0
  0
ARC
  8
0
  6
BYLAYER
 62
     1
 10
1510.018507
 20
-828.358362
 30
0.0
 40
3.000000
 50
357.202830
 51
450.000000
  0
LINE
  8
0
  6
BYLAYER
 62
     1
 10
1487.448805
 20
-820.358362
 30
0.0
 11
1510.018507
 21
-820.358362
 31
0.0
  0
ARC
  8
0
  6
BYLAYER
 62
     1
 10
1510.018507
 20
-817.358362
 30
0.0
 40
3.000000
 50
270.0
 51
362.79717
  0
LINE
  8
0
  6
BYLAYER
 62
     1
 10
1494.689222
 20
-825.997370
 30
0.0
 11
1482.356214
 21
-825.450953
 31
0.0
  0
LINE
  8
0
  6
BYLAYER
 62
     1
 10
1494.689222
 20
-819.719354
 30
0.0
 11
1487.781777
 21
-820.025390
 31
0.0
  0
LINE
  8
0
  6
BYLAYER
 62
     1
 10
1494.689222
 20
-825.997370
 30
0.0
 11
1510.018507
 21
-825.358362
 31
0.0
  0
LINE
  8
0
  6
BYLAYER
 62
     1
 10
1494.689222
 20
-819.719354
 30
0.0
 11
1510.018507
 21
-820.358362
 31
0.0
  0
ARC
  8
0
  6
BYLAYER
 62
     1
 10
1451.385512
 20
-741.715204
 30
0.0
 40
3.0
 50
149.999991
 51
202.398902
  0
ARC
  8
0
  6
BYLAYER
 62
     1
 10
1440.752455
 20
-735.576196
 30
0.0
 40
3.000000
 50
243.612412
 51
329.999996
  0
ARC
  8
0
  6
BYLAYER
 62
     1
 10
1397.448805
 20
-822.858362
 30
0.0
 40
115.704002
 50
57.202831
 51
62.797166
  0
LINE
  8
0
  6
BYLAYER
 62
     1
 10
1446.523592
 20
-742.858362
 30
0.0
 11
1455.898756
 21
-726.620111
 31
0.0
  0
ARC
  8
0
  6
BYLAYER
 62
     1
 10
1458.496779
 20
-728.120111
 30
0.0
 40
3.0
 50
57.202827
 51
149.999997
  0
LINE
  8
0
  6
BYLAYER
 62
     1
 10
1440.750077
 20
-742.858362
 30
0.0
 11
1451.568617
 21
-724.120111
 31
0.0
  0
ARC
  8
0
  6
BYLAYER
 62
     1
 10
1448.970534
 20
-722.620111
 30
0.0
 40
3.000000
 50
329.999989
 51
422.797159
  0
LINE
  8
0
  6
BYLAYER
 62
     1
 10
1448.787489
 20
-740.215204
 30
0.0
 11
1447.101219
 21
-742.858362
 31
0.0
  0
LINE
  8
0
  6
BYLAYER
 62
     1
 10
1443.350538
 20
-737.076196
 30
0.0
 11
1440.345261
 21
-742.858362
 31
0.0
  0
LINE
  8
0
  6
BYLAYER
 62
     1
 10
1448.787489
 20
-740.215204
 30
0.0
 11
1455.898756
 21
-726.620111
 31
0.0
  0
LINE
  8
0
  6
BYLAYER
 62
     1
 10
1443.350538
 20
-737.076196
 30
0.0
 11
1451.568617
 21
-724.120111
 31
0.0
  0
ARC
  8
0
  6
BYLAYER
 62
     1
 10
1354.145155
 20
-735.576196
 30
0.0
 40
3.000000
 50
210.000006
 51
296.387590
  0
ARC
  8
0
  6
BYLAYER
 62
     1
 10
1343.512098
 20
-741.715204
 30
0.0
 40
3.0
 50
337.601098
 51
390.000011
  0
ARC
  8
0
  6
BYLAYER
 62
     1
 10
1397.448805
 20
-822.858362
 30
0.0
 40
115.704002
 50
117.202836
 51
122.797172
  0
LINE
  8
0
  6
BYLAYER
 62
     1
 10
1354.147533
 20
-742.858362
 30
0.0
 11
1343.328993
 21
-724.120111
 31
0.0
  0
ARC
  8
0
  6
BYLAYER
 62
     1
 10
1345.927076
 20
-722.620111
 30
0.0
 40
3.000000
 50
117.202829
 51
209.999999
  0
LINE
  8
0
  6
BYLAYER
 62
     1
 10
1348.374018
 20
-742.858362
 30
0.0
 11
1338.998854
 21
-726.620111
 31
0.0
  0
ARC
  8
0
  6
BYLAYER
 62
     1
 10
1336.400831
 20
-728.120111
 30
0.0
 40
3.000000
 50
30.000001
 51
122.797171
  0
LINE
  8
0
  6
BYLAYER
 62
     1
 10
1351.547072
 20
-737.076196
 30
0.0
 11
1354.552349
 21
-742.858362
 31
0.0
  0
LINE
  8
0
  6
BYLAYER
 62
     1
 10
1346.110121
 20
-740.215204
 30
0.0
 11
1347.796391
 21
-742.858362
 31
0.0
  0
LINE
  8
0
  6
BYLAYER
 62
     1
 10
1351.547072
 20
-737.076196
 30
0.0
 11
1343.328993
 21
-724.120111
 31
0.0
  0
LINE
  8
0
  6
BYLAYER
 62
     1
 10
1346.110121
 20
-740.215204
 30
0.0
 11
1338.998854
 21
-726.620111
 31
0.0
  0
LINE
  8
0
  6
BYLAYER
 62
     2
 10
1330.201899
 20
-742.858362
 30
0.0
 11
1329.191543
 21
-739.087666
 31
0.0
  0
LINE
  8
0
  6
BYLAYER
 62
     2
 10
1329.191543
 20
-739.087666
 30
0.0
 11
1318.595672
 21
-736.248509
 31
0.0
  0
LINE
  8
0
  6
BYLAYER
 62
     2
 10
1318.595672
 20
-736.248509
 30
0.0
 11
1311.985819
 21
-742.858362
 31
0.0
  0
LINE
  8
0
  6
BYLAYER
 62
     2
 10
1482.911792
 20
-742.858362
 30
0.0
 11
1476.301939
 21
-736.248509
 31
0.0
  0
LINE
  8
0
  6
BYLAYER
 62
     2
 10
1476.301939
 20
-736.248509
 30
0.0
 11
1465.706067
 21
-739.087666
 31
0.0
  0
LINE
  8
0
  6
BYLAYER
 62
     2
 10
1465.706067
 20
-739.087666
 30
0.0
 11
1464.695712
 21
-742.858362
 31
0.0
  0
ARC
  8
0
  6
BYLAYER
 62
     2
 10
1473.462784
 20
-746.844383
 30
0.0
 40
9.500000
 50
24.808147
 51
155.191853
  0
LINE
  8
0
  6
BYLAYER
 62
     1
 10
617.448805
 20
-892.858362
 30
0.0
 11
617.448805
 21
-972.858362
 31
0.0
  0
LINE
  8
0
  6
BYLAYER
 62
     1
 10
657.448805
 20
-847.858362
 30
0.0
 11
657.448805
 21
-972.858362
 31
0.0
  0
LINE
  8
0
  6
BYLAYER
 62
     1
 10
617.448805
 20
-922.458338
 30
0.0
 11
617.448805
 21
-892.858362
 31
0.0
  0
LINE
  8
0
  6
BYLAYER
 62
     1
 10
642.448805
 20
-972.858362
 30
0.0
 11
642.448805
 21
-851.491373
 31
0.0
  0
ARC
  8
0
  6
BYLAYER
 62
     1
 10
639.448805
 20
-876.692529
 30
0.0
 40
3.0
 50
299.999978
 51
360.0
  0
LINE
  8
0
  6
BYLAYER
 62
     1
 10
657.448805
 20
-847.858362
 30
0.0
 11
645.291792
 21
-848.495477
 31
0.0
  0
ARC
  8
0
  6
BYLAYER
 62
     1
 10
645.448805
 20
-851.491373
 30
0.0
 40
3.0
 50
93.000010
 51
180.000009
  0
LINE
  8
0
  6
BYLAYER
 62
     1
 10
617.448805
 20
-892.858331
 30
0.0
 11
640.948805
 21
-879.290613
 31
0.0
  0
LINE
  8
0
  6
BYLAYER
 62
     1
 10
617.448805
 20
-1052.858362
 30
0.0
 11
617.448805
 21
-972.858362
 31
0.0
  0
LINE
  8
0
  6
BYLAYER
 62
     1
 10
657.448805
 20
-1097.858362
 30
0.0
 11
657.448805
 21
-972.858362
 31
0.0
  0
LINE
  8
0
  6
BYLAYER
 62
     1
 10
617.448805
 20
-1023.258386
 30
0.0
 11
617.448805
 21
-1052.858362
 31
0.0
  0
LINE
  8
0
  6
BYLAYER
 62
     1
 10
642.448805
 20
-972.858362
 30
0.0
 11
642.448805
 21
-1094.225351
 31
0.0
  0
ARC
  8
0
  6
BYLAYER
 62
     1
 10
639.448805
 20
-1069.024195
 30
0.0
 40
3.0
 50
0.0
 51
60.000022
  0
LINE
  8
0
  6
BYLAYER
 62
     1
 10
657.448805
 20
-1097.858362
 30
0.0
 11
645.291792
 21
-1097.221247
 31
0.0
  0
ARC
  8
0
  6
BYLAYER
 62
     1
 10
645.448805
 20
-1094.225351
 30
0.0
 40
3.000000
 50
180.000000
 51
266.999999
  0
LINE
  8
0
  6
BYLAYER
 62
     1
 10
617.448805
 20
-1052.858393
 30
0.0
 11
640.948805
 21
-1066.426111
 31
0.0
  0
ENDSEC
  0
EOF
