  0
SECTION
  2
HEADER
  9
$EXTMIN
 10
242.324232
 20
1029.0
 30
0.0
  9
$EXTMAX
 10
1376.682594
 20
0.0
 30
0.0
  0
ENDSEC
  0
SECTION
  2
TABLES
  0
ENDSEC
  0
SECTION
  2
BLOCKS
  0
ENDSEC
  0
SECTION
  2
ENTITIES
  0
LINE
  8
0
  6
BYLAYER
 62
     7
 10
606.081911
 20
-201.377986
 30
0.0
 11
606.081911
 21
-213.627986
 31
0.0
  0
LINE
  8
0
  6
BYLAYER
 62
     7
 10
608.581911
 20
-201.377986
 30
0.0
 11
606.081911
 21
-201.377986
 31
0.0
  0
LINE
  8
0
  6
BYLAYER
 62
     7
 10
606.081911
 20
-213.627986
 30
0.0
 11
583.581911
 21
-214.020725
 31
0.0
  0
LINE
  8
0
  6
BYLAYER
 62
     7
 10
583.581911
 20
-228.127986
 30
0.0
 11
571.581911
 21
-228.127986
 31
0.0
  0
LINE
  8
0
  6
BYLAYER
 62
     7
 10
583.581911
 20
-28.127986
 30
0.0
 11
571.581911
 21
-28.127986
 31
0.0
  0
LINE
  8
0
  6
BYLAYER
 62
     7
 10
583.581911
 20
-28.127986
 30
0.0
 11
583.581911
 21
-128.127986
 31
0.0
  0
ARC
  8
0
  6
BYLAYER
 62
     7
 10
584.581911
 20
-54.645289
 30
0.0
 40
1.000000
 50
180.000000
 51
269.000000
  0
LINE
  8
0
  6
BYLAYER
 62
     7
 10
583.581911
 20
-128.127986
 30
0.0
 11
583.581911
 21
-228.127986
 31
0.0
  0
LINE
  8
0
  6
BYLAYER
 62
     7
 10
584.564459
 20
-55.645136
 30
0.0
 11
608.581911
 21
-56.064363
 31
0.0
  0
LINE
  8
0
  6
BYLAYER
 62
     7
 10
608.581911
 20
-56.064363
 30
0.0
 11
608.581911
 21
-201.377986
 31
0.0
  0
LINE
  8
0
  6
BYLAYER
 62
     7
 10
571.581911
 20
-128.127986
 30
0.0
 11
571.581911
 21
-228.127986
 31
0.0
  0
LINE
  8
0
  6
BYLAYER
 62
     7
 10
571.581911
 20
-28.127986
 30
0.0
 11
571.581911
 21
-128.127986
 31
0.0
  0
LINE
  8
0
  6
BYLAYER
 62
     7
 10
688.081880
 20
-121.727947
 30
0.0
 11
612.881868
 21
-121.727947
 31
0.0
  0
LINE
  8
0
  6
BYLAYER
 62
     7
 10
688.081880
 20
-123.327953
 30
0.0
 11
612.881868
 21
-123.327953
 31
0.0
  0
ARC
  8
0
  6
BYLAYER
 62
     7
 10
616.881868
 20
-77.727947
 30
0.0
 40
0.799927
 50
90.0
 51
270.000012
  0
ARC
  8
0
  6
BYLAYER
 62
     7
 10
612.881868
 20
-122.527935
 30
0.0
 40
0.800018
 50
90.0
 51
270.000012
  0
ARC
  8
0
  6
BYLAYER
 62
     7
 10
616.881868
 20
-122.527935
 30
0.0
 40
0.800018
 50
90.0
 51
270.000012
  0
ARC
  8
0
  6
BYLAYER
 62
     7
 10
612.881868
 20
-111.327953
 30
0.0
 40
0.799988
 50
90.0
 51
270.000012
  0
ARC
  8
0
  6
BYLAYER
 62
     7
 10
616.881868
 20
-111.327953
 30
0.0
 40
0.799988
 50
90.0
 51
270.000012
  0
ARC
  8
0
  6
BYLAYER
 62
     7
 10
612.881868
 20
-100.127972
 30
0.0
 40
0.799927
 50
90.0
 51
270.000012
  0
ARC
  8
0
  6
BYLAYER
 62
     7
 10
616.881868
 20
-100.127972
 30
0.0
 40
0.799927
 50
90.0
 51
270.000012
  0
LINE
  8
0
  6
BYLAYER
 62
     7
 10
688.081880
 20
-99.327923
 30
0.0
 11
612.881868
 21
-99.327923
 31
0.0
  0
LINE
  8
0
  6
BYLAYER
 62
     7
 10
688.081880
 20
-100.927898
 30
0.0
 11
612.881868
 21
-100.927898
 31
0.0
  0
ARC
  8
0
  6
BYLAYER
 62
     7
 10
612.881868
 20
-88.927898
 30
0.0
 40
0.800049
 50
90.0
 51
270.000012
  0
ARC
  8
0
  6
BYLAYER
 62
     7
 10
616.881868
 20
-88.927898
 30
0.0
 40
0.800049
 50
90.0
 51
270.000012
  0
LINE
  8
0
  6
BYLAYER
 62
     7
 10
688.081880
 20
-88.127972
 30
0.0
 11
612.881868
 21
-88.127972
 31
0.0
  0
LINE
  8
0
  6
BYLAYER
 62
     7
 10
688.081880
 20
-89.727947
 30
0.0
 11
612.881868
 21
-89.727947
 31
0.0
  0
ARC
  8
0
  6
BYLAYER
 62
     7
 10
612.881868
 20
-77.727947
 30
0.0
 40
0.799927
 50
90.0
 51
270.000012
  0
LINE
  8
0
  6
BYLAYER
 62
     7
 10
688.081880
 20
-76.927898
 30
0.0
 11
612.881868
 21
-76.927898
 31
0.0
  0
LINE
  8
0
  6
BYLAYER
 62
     7
 10
688.081880
 20
-78.527874
 30
0.0
 11
612.881868
 21
-78.527874
 31
0.0
  0
LINE
  8
0
  6
BYLAYER
 62
     7
 10
612.081880
 20
-32.127941
 30
0.0
 11
710.081941
 21
-32.127941
 31
0.0
  0
LINE
  8
0
  6
BYLAYER
 62
     7
 10
710.081941
 20
-32.127941
 30
0.0
 11
710.081941
 21
-76.927898
 31
0.0
  0
LINE
  8
0
  6
BYLAYER
 62
     7
 10
612.081880
 20
-55.377972
 30
0.0
 11
608.581880
 21
-55.377972
 31
0.0
  0
ARC
  8
0
  6
BYLAYER
 62
     7
 10
641.581880
 20
-46.127941
 30
0.0
 40
13.0
 50
180.000019
 51
360.000018
  0
ARC
  8
0
  6
BYLAYER
 62
     7
 10
680.581880
 20
-46.127941
 30
0.0
 40
12.999985
 50
180.000019
 51
360.000018
  0
LINE
  8
0
  6
BYLAYER
 62
     7
 10
617.581880
 20
-78.527874
 30
0.0
 11
617.581880
 21
-88.127972
 31
0.0
  0
LINE
  8
0
  6
BYLAYER
 62
     7
 10
617.581880
 20
-89.727947
 30
0.0
 11
617.581880
 21
-99.327923
 31
0.0
  0
LINE
  8
0
  6
BYLAYER
 62
     7
 10
617.581880
 20
-100.927898
 30
0.0
 11
617.581880
 21
-110.527935
 31
0.0
  0
LINE
  8
0
  6
BYLAYER
 62
     7
 10
617.581880
 20
-112.127941
 30
0.0
 11
617.581880
 21
-121.727947
 31
0.0
  0
LINE
  8
0
  6
BYLAYER
 62
     7
 10
617.581880
 20
-123.327953
 30
0.0
 11
617.581941
 21
-132.927929
 31
0.0
  0
LINE
  8
0
  6
BYLAYER
 62
     7
 10
612.081880
 20
-37.627941
 30
0.0
 11
626.581880
 21
-37.627941
 31
0.0
  0
LINE
  8
0
  6
BYLAYER
 62
     7
 10
628.581880
 20
-46.127941
 30
0.0
 11
628.581880
 21
-39.627941
 31
0.0
  0
ARC
  8
0
  6
BYLAYER
 62
     7
 10
626.581880
 20
-39.627941
 30
0.0
 40
2.0
 50
0.0
 51
90.000003
  0
LINE
  8
0
  6
BYLAYER
 62
     7
 10
654.581880
 20
-46.127941
 30
0.0
 11
654.581880
 21
-39.627941
 31
0.0
  0
ARC
  8
0
  6
BYLAYER
 62
     7
 10
656.581880
 20
-39.627941
 30
0.0
 40
2.000000
 50
90.0
 51
180.000003
  0
LINE
  8
0
  6
BYLAYER
 62
     7
 10
656.581880
 20
-37.627941
 30
0.0
 11
665.581880
 21
-37.627941
 31
0.0
  0
LINE
  8
0
  6
BYLAYER
 62
     7
 10
667.581880
 20
-46.127941
 30
0.0
 11
667.581880
 21
-39.627941
 31
0.0
  0
ARC
  8
0
  6
BYLAYER
 62
     7
 10
665.581880
 20
-39.627941
 30
0.0
 40
2.0
 50
0.0
 51
90.000003
  0
LINE
  8
0
  6
BYLAYER
 62
     7
 10
693.581880
 20
-46.127941
 30
0.0
 11
693.581880
 21
-39.627941
 31
0.0
  0
LINE
  8
0
  6
BYLAYER
 62
     7
 10
695.581941
 20
-37.627941
 30
0.0
 11
710.081941
 21
-37.627941
 31
0.0
  0
ARC
  8
0
  6
BYLAYER
 62
     7
 10
695.581941
 20
-39.627941
 30
0.0
 40
2.000061
 50
90.0
 51
180.000003
  0
LINE
  8
0
  6
BYLAYER
 62
     7
 10
612.081880
 20
-43.627941
 30
0.0
 11
628.581880
 21
-43.627941
 31
0.0
  0
LINE
  8
0
  6
BYLAYER
 62
     7
 10
654.581880
 20
-43.627941
 30
0.0
 11
667.581880
 21
-43.627941
 31
0.0
  0
LINE
  8
0
  6
BYLAYER
 62
     7
 10
693.581880
 20
-43.627941
 30
0.0
 11
710.081941
 21
-43.627941
 31
0.0
  0
LINE
  8
0
  6
BYLAYER
 62
     7
 10
688.081880
 20
-132.927959
 30
0.0
 11
612.881868
 21
-132.927959
 31
0.0
  0
LINE
  8
0
  6
BYLAYER
 62
     7
 10
688.081880
 20
-134.527965
 30
0.0
 11
612.881868
 21
-134.527965
 31
0.0
  0
ARC
  8
0
  6
BYLAYER
 62
     7
 10
612.881868
 20
-133.727947
 30
0.0
 40
0.800018
 50
90.0
 51
270.000012
  0
ARC
  8
0
  6
BYLAYER
 62
     7
 10
616.881868
 20
-133.727947
 30
0.0
 40
0.800018
 50
90.0
 51
270.000012
  0
LINE
  8
0
  6
BYLAYER
 62
     7
 10
688.081880
 20
-144.127941
 30
0.0
 11
612.881868
 21
-144.127941
 31
0.0
  0
LINE
  8
0
  6
BYLAYER
 62
     7
 10
688.081880
 20
-145.727947
 30
0.0
 11
612.881868
 21
-145.727947
 31
0.0
  0
ARC
  8
0
  6
BYLAYER
 62
     7
 10
612.881868
 20
-144.927929
 30
0.0
 40
0.800018
 50
90.0
 51
270.000012
  0
ARC
  8
0
  6
BYLAYER
 62
     7
 10
616.881868
 20
-144.927929
 30
0.0
 40
0.800018
 50
90.0
 51
270.000012
  0
LINE
  8
0
  6
BYLAYER
 62
     7
 10
688.081880
 20
-155.327953
 30
0.0
 11
612.881868
 21
-155.327953
 31
0.0
  0
LINE
  8
0
  6
BYLAYER
 62
     7
 10
688.081880
 20
-156.927959
 30
0.0
 11
612.881868
 21
-156.927959
 31
0.0
  0
ARC
  8
0
  6
BYLAYER
 62
     7
 10
612.881868
 20
-156.127941
 30
0.0
 40
0.800018
 50
90.0
 51
270.000012
  0
ARC
  8
0
  6
BYLAYER
 62
     7
 10
616.881868
 20
-156.127941
 30
0.0
 40
0.800018
 50
90.0
 51
270.000012
  0
LINE
  8
0
  6
BYLAYER
 62
     7
 10
688.081880
 20
-166.527935
 30
0.0
 11
612.881868
 21
-166.527935
 31
0.0
  0
LINE
  8
0
  6
BYLAYER
 62
     7
 10
688.081880
 20
-168.127941
 30
0.0
 11
612.881868
 21
-168.127941
 31
0.0
  0
ARC
  8
0
  6
BYLAYER
 62
     7
 10
612.881868
 20
-167.327923
 30
0.0
 40
0.800018
 50
90.0
 51
270.000012
  0
ARC
  8
0
  6
BYLAYER
 62
     7
 10
616.881868
 20
-167.327923
 30
0.0
 40
0.800018
 50
90.0
 51
270.000012
  0
LINE
  8
0
  6
BYLAYER
 62
     7
 10
688.081880
 20
-177.727947
 30
0.0
 11
612.881868
 21
-177.727947
 31
0.0
  0
ARC
  8
0
  6
BYLAYER
 62
     7
 10
612.881868
 20
-178.527935
 30
0.0
 40
0.800018
 50
90.0
 51
270.000012
  0
ARC
  8
0
  6
BYLAYER
 62
     7
 10
616.881868
 20
-178.527935
 30
0.0
 40
0.800018
 50
90.0
 51
270.000012
  0
LINE
  8
0
  6
BYLAYER
 62
     7
 10
612.081880
 20
-32.127941
 30
0.0
 11
612.081941
 21
-200.877941
 31
0.0
  0
LINE
  8
0
  6
BYLAYER
 62
     7
 10
688.081880
 20
-155.327953
 30
0.0
 11
754.616913
 21
-155.327907
 31
0.0
  0
LINE
  8
0
  6
BYLAYER
 62
     7
 10
688.081880
 20
-156.927959
 30
0.0
 11
754.616913
 21
-156.927913
 31
0.0
  0
LINE
  8
0
  6
BYLAYER
 62
     7
 10
617.581880
 20
-134.527935
 30
0.0
 11
617.581941
 21
-144.127941
 31
0.0
  0
LINE
  8
0
  6
BYLAYER
 62
     7
 10
617.581880
 20
-145.727947
 30
0.0
 11
617.581941
 21
-155.327923
 31
0.0
  0
LINE
  8
0
  6
BYLAYER
 62
     7
 10
617.581880
 20
-156.927959
 30
0.0
 11
617.581941
 21
-166.527935
 31
0.0
  0
LINE
  8
0
  6
BYLAYER
 62
     7
 10
617.581880
 20
-168.127941
 30
0.0
 11
617.581941
 21
-177.727917
 31
0.0
  0
ARC
  8
0
  6
BYLAYER
 62
     7
 10
648.081880
 20
-111.327953
 30
0.0
 40
3.000015
 50
13.212986
 51
166.787045
  0
ARC
  8
0
  6
BYLAYER
 62
     7
 10
703.081941
 20
-111.327923
 30
0.0
 40
3.000015
 50
13.213048
 51
166.786990
  0
ARC
  8
0
  6
BYLAYER
 62
     7
 10
703.081941
 20
-111.327923
 30
0.0
 40
3.000008
 50
193.212979
 51
346.787064
  0
ARC
  8
0
  6
BYLAYER
 62
     7
 10
648.081880
 20
-111.327953
 30
0.0
 40
3.000008
 50
193.212979
 51
346.787064
  0
LINE
  8
0
  6
BYLAYER
 62
     7
 10
700.190584
 20
-110.527904
 30
0.0
 11
675.581880
 21
-110.527935
 31
0.0
  0
LINE
  8
0
  6
BYLAYER
 62
     7
 10
700.190584
 20
-112.127910
 30
0.0
 11
675.581880
 21
-112.127941
 31
0.0
  0
LINE
  8
0
  6
BYLAYER
 62
     7
 10
612.881868
 20
-110.527935
 30
0.0
 11
645.190523
 21
-110.527935
 31
0.0
  0
LINE
  8
0
  6
BYLAYER
 62
     7
 10
612.881868
 20
-112.127941
 30
0.0
 11
645.190523
 21
-112.127941
 31
0.0
  0
LINE
  8
0
  6
BYLAYER
 62
     7
 10
675.581880
 20
-110.527935
 30
0.0
 11
650.973268
 21
-110.527935
 31
0.0
  0
LINE
  8
0
  6
BYLAYER
 62
     7
 10
650.973268
 20
-112.127941
 30
0.0
 11
675.581880
 21
-112.127941
 31
0.0
  0
LINE
  8
0
  6
BYLAYER
 62
     7
 10
617.581941
 20
-181.069164
 30
0.0
 11
612.081941
 21
-183.908733
 31
0.0
  0
LINE
  8
0
  6
BYLAYER
 62
     7
 10
612.081941
 20
-183.908733
 30
0.0
 11
615.583955
 21
-192.841778
 31
0.0
  0
ARC
  8
0
  6
BYLAYER
 62
     7
 10
617.445985
 20
-192.111797
 30
0.0
 40
2.000007
 50
201.406501
 51
270.000001
  0
LINE
  8
0
  6
BYLAYER
 62
     7
 10
612.081941
 20
-200.877972
 30
0.0
 11
608.581941
 21
-200.877972
 31
0.0
  0
LINE
  8
0
  6
BYLAYER
 62
     7
 10
612.081941
 20
-188.578075
 30
0.0
 11
615.675111
 21
-201.519634
 31
0.0
  0
ARC
  8
0
  6
BYLAYER
 62
     7
 10
617.602205
 20
-200.984569
 30
0.0
 40
2.000010
 50
195.517184
 51
270.000001
  0
LINE
  8
0
  6
BYLAYER
 62
     7
 10
612.081941
 20
-194.746868
 30
0.0
 11
615.649629
 21
-206.437237
 31
0.0
  0
ARC
  8
0
  6
BYLAYER
 62
     7
 10
617.562532
 20
-205.853466
 30
0.0
 40
1.999996
 50
196.971318
 51
270.000001
  0
LINE
  8
0
  6
BYLAYER
 62
     7
 10
612.081941
 20
-198.614696
 30
0.0
 11
615.633149
 21
-209.557842
 31
0.0
  0
ARC
  8
0
  6
BYLAYER
 62
     7
 10
617.535493
 20
-208.940502
 30
0.0
 40
2.000005
 50
197.979057
 51
270.000001
  0
ARC
  8
0
  6
BYLAYER
 62
     7
 10
616.971284
 20
-210.441631
 30
0.0
 40
2.000005
 50
197.979057
 51
270.000001
  0
LINE
  8
0
  6
BYLAYER
 62
     7
 10
615.068941
 20
-211.058971
 30
0.0
 11
611.765046
 21
-200.877972
 31
0.0
  0
LINE
  8
0
  6
BYLAYER
 62
     7
 10
710.081941
 20
-56.572857
 30
0.0
 11
754.616913
 21
-56.572857
 31
0.0
  0
LINE
  8
0
  6
BYLAYER
 62
     7
 10
710.081941
 20
-47.115795
 30
0.0
 11
754.616913
 21
-47.115795
 31
0.0
  0
LINE
  8
0
  6
BYLAYER
 62
     7
 10
710.081941
 20
-48.616955
 30
0.0
 11
754.616913
 21
-48.616955
 31
0.0
  0
LINE
  8
0
  6
BYLAYER
 62
     7
 10
608.581941
 20
-200.877972
 30
0.0
 11
608.581880
 21
-55.377970
 31
0.0
  0
LINE
  8
0
  6
BYLAYER
 62
     7
 10
710.081941
 20
-51.703960
 30
0.0
 11
754.616913
 21
-51.703960
 31
0.0
  0
LINE
  8
0
  6
BYLAYER
 62
     7
 10
688.081880
 20
-76.927898
 30
0.0
 11
754.616913
 21
-76.927898
 31
0.0
  0
LINE
  8
0
  6
BYLAYER
 62
     7
 10
688.081880
 20
-78.527874
 30
0.0
 11
754.616913
 21
-78.527874
 31
0.0
  0
LINE
  8
0
  6
BYLAYER
 62
     7
 10
688.081880
 20
-88.127972
 30
0.0
 11
754.616913
 21
-88.127809
 31
0.0
  0
LINE
  8
0
  6
BYLAYER
 62
     7
 10
688.081880
 20
-89.727947
 30
0.0
 11
754.616913
 21
-89.727947
 31
0.0
  0
LINE
  8
0
  6
BYLAYER
 62
     7
 10
688.081880
 20
-99.327923
 30
0.0
 11
754.616913
 21
-99.327923
 31
0.0
  0
LINE
  8
0
  6
BYLAYER
 62
     7
 10
688.081880
 20
-100.927898
 30
0.0
 11
754.616913
 21
-100.927898
 31
0.0
  0
LINE
  8
0
  6
BYLAYER
 62
     7
 10
705.973298
 20
-110.527904
 30
0.0
 11
754.616913
 21
-110.527904
 31
0.0
  0
LINE
  8
0
  6
BYLAYER
 62
     7
 10
705.973298
 20
-112.127910
 30
0.0
 11
754.616913
 21
-112.127910
 31
0.0
  0
LINE
  8
0
  6
BYLAYER
 62
     7
 10
688.081880
 20
-121.727947
 30
0.0
 11
754.616913
 21
-121.727907
 31
0.0
  0
LINE
  8
0
  6
BYLAYER
 62
     7
 10
688.081880
 20
-123.327953
 30
0.0
 11
754.616913
 21
-123.327913
 31
0.0
  0
LINE
  8
0
  6
BYLAYER
 62
     7
 10
688.081880
 20
-132.927959
 30
0.0
 11
754.616913
 21
-132.927919
 31
0.0
  0
LINE
  8
0
  6
BYLAYER
 62
     7
 10
688.081880
 20
-134.527965
 30
0.0
 11
754.616913
 21
-134.527925
 31
0.0
  0
LINE
  8
0
  6
BYLAYER
 62
     7
 10
688.081880
 20
-144.127941
 30
0.0
 11
754.616913
 21
-144.127900
 31
0.0
  0
LINE
  8
0
  6
BYLAYER
 62
     7
 10
688.081880
 20
-145.727947
 30
0.0
 11
754.616913
 21
-145.727907
 31
0.0
  0
LINE
  8
0
  6
BYLAYER
 62
     7
 10
688.081880
 20
-166.527935
 30
0.0
 11
754.616913
 21
-166.527894
 31
0.0
  0
LINE
  8
0
  6
BYLAYER
 62
     7
 10
688.081880
 20
-168.127941
 30
0.0
 11
754.616913
 21
-168.127900
 31
0.0
  0
LINE
  8
0
  6
BYLAYER
 62
     7
 10
688.081880
 20
-177.727947
 30
0.0
 11
754.616913
 21
-177.727907
 31
0.0
  0
LINE
  8
0
  6
BYLAYER
 62
     7
 10
612.881868
 20
-179.327923
 30
0.0
 11
754.616913
 21
-179.327923
 31
0.0
  0
LINE
  8
0
  6
BYLAYER
 62
     7
 10
617.581941
 20
-181.069164
 30
0.0
 11
754.616913
 21
-181.069164
 31
0.0
  0
LINE
  8
0
  6
BYLAYER
 62
     7
 10
617.445985
 20
-194.111797
 30
0.0
 11
754.616913
 21
-194.111797
 31
0.0
  0
LINE
  8
0
  6
BYLAYER
 62
     7
 10
617.602205
 20
-202.984569
 30
0.0
 11
754.616913
 21
-202.984569
 31
0.0
  0
LINE
  8
0
  6
BYLAYER
 62
     7
 10
617.562532
 20
-207.853466
 30
0.0
 11
754.616913
 21
-207.853466
 31
0.0
  0
LINE
  8
0
  6
BYLAYER
 62
     7
 10
617.535493
 20
-210.940502
 30
0.0
 11
754.616913
 21
-210.940502
 31
0.0
  0
LINE
  8
0
  6
BYLAYER
 62
     7
 10
616.971284
 20
-212.441631
 30
0.0
 11
754.616913
 21
-212.441631
 31
0.0
  0
LINE
  8
0
  6
BYLAYER
 62
     7
 10
754.616913
 20
-214.677941
 30
0.0
 11
754.616913
 21
-128.127986
 31
0.0
  0
LINE
  8
0
  6
BYLAYER
 62
     7
 10
844.616913
 20
-128.127986
 30
0.0
 11
844.616913
 21
-200.127941
 31
0.0
  0
LINE
  8
0
  6
BYLAYER
 62
     7
 10
844.616913
 20
-200.127941
 30
0.0
 11
830.066913
 21
-214.677941
 31
0.0
  0
LINE
  8
0
  6
BYLAYER
 62
     7
 10
830.066913
 20
-214.677941
 30
0.0
 11
754.616913
 21
-214.677941
 31
0.0
  0
LINE
  8
0
  6
BYLAYER
 62
     7
 10
754.616913
 20
-41.578031
 30
0.0
 11
754.616913
 21
-128.127986
 31
0.0
  0
LINE
  8
0
  6
BYLAYER
 62
     7
 10
844.616913
 20
-128.127986
 30
0.0
 11
844.616913
 21
-56.128031
 31
0.0
  0
LINE
  8
0
  6
BYLAYER
 62
     7
 10
844.616913
 20
-56.128031
 30
0.0
 11
830.066913
 21
-41.578031
 31
0.0
  0
LINE
  8
0
  6
BYLAYER
 62
     7
 10
830.066913
 20
-41.578031
 30
0.0
 11
754.616913
 21
-41.578031
 31
0.0
  0
LINE
  8
0
  6
BYLAYER
 62
     7
 10
704.581880
 20
-21.627941
 30
0.0
 11
704.581880
 21
-0.127941
 31
0.0
  0
ARC
  8
0
  6
BYLAYER
 62
     7
 10
706.081880
 20
-21.627941
 30
0.0
 40
1.500000
 50
180.000000
 51
270.000000
  0
ARC
  8
0
  6
BYLAYER
 62
     7
 10
703.081880
 20
-0.127941
 30
0.0
 40
1.500000
 50
0.0
 51
90.0
  0
LINE
  8
0
  6
BYLAYER
 62
     7
 10
617.581880
 20
-21.627941
 30
0.0
 11
617.581880
 21
-0.127941
 31
0.0
  0
ARC
  8
0
  6
BYLAYER
 62
     7
 10
616.081880
 20
-21.627941
 30
0.0
 40
1.500000
 50
270.0
 51
360.0
  0
ARC
  8
0
  6
BYLAYER
 62
     7
 10
619.081880
 20
-0.127941
 30
0.0
 40
1.500000
 50
90.0
 51
180.0
  0
LINE
  8
0
  6
BYLAYER
 62
     7
 10
619.081880
 20
1.372059
 30
0.0
 11
703.081880
 21
1.372059
 31
0.0
  0
LINE
  8
0
  6
BYLAYER
 62
     7
 10
622.954121
 20
-21.627941
 30
0.0
 11
622.954121
 21
-0.127941
 31
0.0
  0
ARC
  8
0
  6
BYLAYER
 62
     7
 10
621.454121
 20
-21.627941
 30
0.0
 40
1.500000
 50
270.0
 51
360.0
  0
ARC
  8
0
  6
BYLAYER
 62
     7
 10
624.454121
 20
-0.127941
 30
0.0
 40
1.500000
 50
90.0
 51
180.0
  0
LINE
  8
0
  6
BYLAYER
 62
     7
 10
699.209640
 20
-21.627941
 30
0.0
 11
699.209640
 21
-0.127941
 31
0.0
  0
ARC
  8
0
  6
BYLAYER
 62
     7
 10
700.709640
 20
-21.627941
 30
0.0
 40
1.5
 50
180.000000
 51
270.000000
  0
ARC
  8
0
  6
BYLAYER
 62
     7
 10
697.709640
 20
-0.127941
 30
0.0
 40
1.5
 50
0.0
 51
90.0
  0
LINE
  8
0
  6
BYLAYER
 62
     7
 10
661.081880
 20
-23.127941
 30
0.0
 11
708.581880
 21
-23.127941
 31
0.0
  0
ARC
  8
0
  6
BYLAYER
 62
     7
 10
708.581880
 20
-24.627941
 30
0.0
 40
1.500000
 50
0.0
 51
90.0
  0
LINE
  8
0
  6
BYLAYER
 62
     7
 10
710.081880
 20
-32.127941
 30
0.0
 11
710.081880
 21
-24.627941
 31
0.0
  0
LINE
  8
0
  6
BYLAYER
 62
     7
 10
613.581880
 20
-23.127941
 30
0.0
 11
661.081880
 21
-23.127941
 31
0.0
  0
ARC
  8
0
  6
BYLAYER
 62
     7
 10
613.581880
 20
-24.627941
 30
0.0
 40
1.5
 50
90.0
 51
180.0
  0
LINE
  8
0
  6
BYLAYER
 62
     7
 10
612.081880
 20
-30.127941
 30
0.0
 11
612.081880
 21
-24.627941
 31
0.0
  0
LINE
  8
0
  6
BYLAYER
 62
     7
 10
710.081880
 20
-30.127941
 30
0.0
 11
612.081880
 21
-30.127941
 31
0.0
  0
LINE
  8
0
  6
BYLAYER
 62
     7
 10
612.081880
 20
-30.127941
 30
0.0
 11
612.081880
 21
-32.127941
 31
0.0
  0
LINE
  8
0
  6
BYLAYER
 62
     7
 10
612.081880
 20
-32.127941
 30
0.0
 11
710.081880
 21
-32.127941
 31
0.0
  0
LINE
  8
0
  6
BYLAYER
 62
     7
 10
830.066913
 20
-214.677941
 30
0.0
 11
830.066913
 21
-41.578031
 31
0.0
  0
LINE
  8
0
  6
BYLAYER
 62
     7
 10
583.581911
 20
-778.127986
 30
0.0
 11
571.581911
 21
-778.127986
 31
0.0
  0
LINE
  8
0
  6
BYLAYER
 62
     7
 10
583.581911
 20
-778.127986
 30
0.0
 11
583.581911
 21
-878.127986
 31
0.0
  0
ARC
  8
0
  6
BYLAYER
 62
     7
 10
584.581911
 20
-804.645289
 30
0.0
 40
1.000000
 50
180.000000
 51
269.000000
  0
LINE
  8
0
  6
BYLAYER
 62
     7
 10
584.564459
 20
-805.645136
 30
0.0
 11
608.581911
 21
-806.064363
 31
0.0
  0
LINE
  8
0
  6
BYLAYER
 62
     7
 10
608.581911
 20
-806.064363
 30
0.0
 11
608.581911
 21
-878.127986
 31
0.0
  0
LINE
  8
0
  6
BYLAYER
 62
     7
 10
571.581911
 20
-778.127986
 30
0.0
 11
571.581911
 21
-878.127986
 31
0.0
  0
LINE
  8
0
  6
BYLAYER
 62
     7
 10
583.581911
 20
-978.127986
 30
0.0
 11
571.581911
 21
-978.127986
 31
0.0
  0
LINE
  8
0
  6
BYLAYER
 62
     7
 10
583.581911
 20
-978.127986
 30
0.0
 11
583.581911
 21
-878.127986
 31
0.0
  0
ARC
  8
0
  6
BYLAYER
 62
     7
 10
584.581911
 20
-951.610683
 30
0.0
 40
1.000000
 50
91.000000
 51
180.000000
  0
LINE
  8
0
  6
BYLAYER
 62
     7
 10
584.564459
 20
-950.610836
 30
0.0
 11
608.581911
 21
-950.191609
 31
0.0
  0
LINE
  8
0
  6
BYLAYER
 62
     7
 10
608.581911
 20
-950.191609
 30
0.0
 11
608.581911
 21
-878.127986
 31
0.0
  0
LINE
  8
0
  6
BYLAYER
 62
     7
 10
571.581911
 20
-978.127986
 30
0.0
 11
571.581911
 21
-878.127986
 31
0.0
  0
LINE
  8
0
  6
BYLAYER
 62
     7
 10
688.081880
 20
-927.727947
 30
0.0
 11
612.881868
 21
-927.727947
 31
0.0
  0
ARC
  8
0
  6
BYLAYER
 62
     7
 10
612.881868
 20
-928.527935
 30
0.0
 40
0.800018
 50
90.0
 51
270.000012
  0
ARC
  8
0
  6
BYLAYER
 62
     7
 10
616.881868
 20
-928.527935
 30
0.0
 40
0.800018
 50
90.0
 51
270.000012
  0
LINE
  8
0
  6
BYLAYER
 62
     7
 10
612.081915
 20
-878.127986
 30
0.0
 11
612.081941
 21
-950.877941
 31
0.0
  0
LINE
  8
0
  6
BYLAYER
 62
     7
 10
710.081915
 20
-905.327938
 30
0.0
 11
754.616913
 21
-905.327907
 31
0.0
  0
LINE
  8
0
  6
BYLAYER
 62
     7
 10
710.081915
 20
-906.927944
 30
0.0
 11
754.616913
 21
-906.927913
 31
0.0
  0
LINE
  8
0
  6
BYLAYER
 62
     7
 10
617.581941
 20
-931.069164
 30
0.0
 11
612.081941
 21
-933.908733
 31
0.0
  0
LINE
  8
0
  6
BYLAYER
 62
     7
 10
612.081941
 20
-933.908733
 30
0.0
 11
615.583955
 21
-942.841778
 31
0.0
  0
ARC
  8
0
  6
BYLAYER
 62
     7
 10
617.445985
 20
-942.111797
 30
0.0
 40
2.000007
 50
201.406501
 51
270.000001
  0
LINE
  8
0
  6
BYLAYER
 62
     7
 10
612.081941
 20
-950.877972
 30
0.0
 11
608.581941
 21
-950.877972
 31
0.0
  0
LINE
  8
0
  6
BYLAYER
 62
     7
 10
612.081941
 20
-938.578075
 30
0.0
 11
615.675111
 21
-951.519634
 31
0.0
  0
ARC
  8
0
  6
BYLAYER
 62
     7
 10
617.602205
 20
-950.984569
 30
0.0
 40
2.000010
 50
195.517184
 51
270.000001
  0
LINE
  8
0
  6
BYLAYER
 62
     7
 10
612.081941
 20
-944.746868
 30
0.0
 11
615.649629
 21
-956.437237
 31
0.0
  0
ARC
  8
0
  6
BYLAYER
 62
     7
 10
617.562532
 20
-955.853466
 30
0.0
 40
1.999996
 50
196.971318
 51
270.000001
  0
LINE
  8
0
  6
BYLAYER
 62
     7
 10
612.081941
 20
-948.614696
 30
0.0
 11
615.633149
 21
-959.557842
 31
0.0
  0
ARC
  8
0
  6
BYLAYER
 62
     7
 10
617.535493
 20
-958.940502
 30
0.0
 40
2.000005
 50
197.979057
 51
270.000001
  0
ARC
  8
0
  6
BYLAYER
 62
     7
 10
616.971284
 20
-960.441631
 30
0.0
 40
2.000005
 50
197.979057
 51
270.000001
  0
LINE
  8
0
  6
BYLAYER
 62
     7
 10
615.068941
 20
-961.058971
 30
0.0
 11
611.765046
 21
-950.877972
 31
0.0
  0
LINE
  8
0
  6
BYLAYER
 62
     7
 10
608.581941
 20
-950.877972
 30
0.0
 11
608.581911
 21
-878.127986
 31
0.0
  0
LINE
  8
0
  6
BYLAYER
 62
     7
 10
710.081915
 20
-882.927946
 30
0.0
 11
754.616913
 21
-882.927919
 31
0.0
  0
LINE
  8
0
  6
BYLAYER
 62
     7
 10
710.081915
 20
-884.527952
 30
0.0
 11
754.616913
 21
-884.527925
 31
0.0
  0
LINE
  8
0
  6
BYLAYER
 62
     7
 10
710.081915
 20
-894.127928
 30
0.0
 11
754.616913
 21
-894.127900
 31
0.0
  0
LINE
  8
0
  6
BYLAYER
 62
     7
 10
710.081915
 20
-895.727934
 30
0.0
 11
754.616913
 21
-895.727907
 31
0.0
  0
LINE
  8
0
  6
BYLAYER
 62
     7
 10
710.081915
 20
-916.527922
 30
0.0
 11
754.616913
 21
-916.527894
 31
0.0
  0
LINE
  8
0
  6
BYLAYER
 62
     7
 10
710.081915
 20
-918.127928
 30
0.0
 11
754.616913
 21
-918.127900
 31
0.0
  0
LINE
  8
0
  6
BYLAYER
 62
     7
 10
688.081880
 20
-927.727947
 30
0.0
 11
754.616913
 21
-927.727907
 31
0.0
  0
LINE
  8
0
  6
BYLAYER
 62
     7
 10
612.881868
 20
-929.327923
 30
0.0
 11
754.616913
 21
-929.327923
 31
0.0
  0
LINE
  8
0
  6
BYLAYER
 62
     7
 10
617.581941
 20
-931.069164
 30
0.0
 11
754.616913
 21
-931.069164
 31
0.0
  0
LINE
  8
0
  6
BYLAYER
 62
     7
 10
617.445985
 20
-944.111797
 30
0.0
 11
754.616913
 21
-944.111797
 31
0.0
  0
LINE
  8
0
  6
BYLAYER
 62
     7
 10
617.602205
 20
-952.984569
 30
0.0
 11
754.616913
 21
-952.984569
 31
0.0
  0
LINE
  8
0
  6
BYLAYER
 62
     7
 10
617.562532
 20
-957.853466
 30
0.0
 11
754.616913
 21
-957.853466
 31
0.0
  0
LINE
  8
0
  6
BYLAYER
 62
     7
 10
617.535493
 20
-960.940502
 30
0.0
 11
754.616913
 21
-960.940502
 31
0.0
  0
LINE
  8
0
  6
BYLAYER
 62
     7
 10
616.971284
 20
-962.441631
 30
0.0
 11
754.616913
 21
-962.441631
 31
0.0
  0
LINE
  8
0
  6
BYLAYER
 62
     7
 10
754.616913
 20
-964.677941
 30
0.0
 11
754.616913
 21
-878.127986
 31
0.0
  0
LINE
  8
0
  6
BYLAYER
 62
     7
 10
844.616913
 20
-878.127986
 30
0.0
 11
844.616913
 21
-950.127941
 31
0.0
  0
LINE
  8
0
  6
BYLAYER
 62
     7
 10
844.616913
 20
-950.127941
 30
0.0
 11
830.066913
 21
-964.677941
 31
0.0
  0
LINE
  8
0
  6
BYLAYER
 62
     7
 10
830.066913
 20
-964.677941
 30
0.0
 11
754.616913
 21
-964.677941
 31
0.0
  0
LINE
  8
0
  6
BYLAYER
 62
     7
 10
624.930384
 20
-921.627986
 30
0.0
 11
661.081915
 21
-921.627986
 31
0.0
  0
ARC
  8
0
  6
BYLAYER
 62
     7
 10
624.930384
 20
-920.127986
 30
0.0
 40
1.500000
 50
191.536959
 51
270.000000
  0
LINE
  8
0
  6
BYLAYER
 62
     7
 10
617.581915
 20
-878.127986
 30
0.0
 11
617.581915
 21
-914.279517
 31
0.0
  0
LINE
  8
0
  6
BYLAYER
 62
     7
 10
661.081915
 20
-921.627986
 30
0.0
 11
697.233446
 21
-921.627986
 31
0.0
  0
LINE
  8
0
  6
BYLAYER
 62
     7
 10
704.581915
 20
-914.279517
 30
0.0
 11
704.581915
 21
-878.127986
 31
0.0
  0
LINE
  8
0
  6
BYLAYER
 62
     7
 10
631.686614
 20
-890.729092
 30
0.0
 11
617.581915
 21
-891.221639
 31
0.0
  0
ARC
  8
0
  6
BYLAYER
 62
     7
 10
631.581915
 20
-887.730920
 30
0.0
 40
3.0
 50
272.000000
 51
360.000000
  0
LINE
  8
0
  6
BYLAYER
 62
     7
 10
631.686614
 20
-905.729092
 30
0.0
 11
617.581915
 21
-906.221639
 31
0.0
  0
ARC
  8
0
  6
BYLAYER
 62
     7
 10
631.581915
 20
-902.730920
 30
0.0
 40
3.0
 50
272.000000
 51
360.000000
  0
LINE
  8
0
  6
BYLAYER
 62
     7
 10
617.581915
 20
-895.034333
 30
0.0
 11
631.686614
 21
-895.526880
 31
0.0
  0
ARC
  8
0
  6
BYLAYER
 62
     7
 10
631.581915
 20
-898.525052
 30
0.0
 40
3.0
 50
0.0
 51
88.0
  0
LINE
  8
0
  6
BYLAYER
 62
     7
 10
617.581915
 20
-880.034333
 30
0.0
 11
631.686614
 21
-880.526880
 31
0.0
  0
ARC
  8
0
  6
BYLAYER
 62
     7
 10
631.581915
 20
-883.525052
 30
0.0
 40
3.0
 50
0.0
 51
88.0
  0
LINE
  8
0
  6
BYLAYER
 62
     7
 10
634.581915
 20
-898.525052
 30
0.0
 11
634.581915
 21
-902.730920
 31
0.0
  0
LINE
  8
0
  6
BYLAYER
 62
     7
 10
634.581915
 20
-883.525052
 30
0.0
 11
634.581915
 21
-887.730920
 31
0.0
  0
LINE
  8
0
  6
BYLAYER
 62
     7
 10
618.581915
 20
-880.069254
 30
0.0
 11
618.581915
 21
-891.186718
 31
0.0
  0
LINE
  8
0
  6
BYLAYER
 62
     7
 10
618.581915
 20
-895.069254
 30
0.0
 11
618.581915
 21
-906.186718
 31
0.0
  0
LINE
  8
0
  6
BYLAYER
 62
     7
 10
690.477217
 20
-890.729092
 30
0.0
 11
704.581915
 21
-891.221639
 31
0.0
  0
ARC
  8
0
  6
BYLAYER
 62
     7
 10
690.581915
 20
-887.730920
 30
0.0
 40
3.0
 50
180.000000
 51
268.000000
  0
LINE
  8
0
  6
BYLAYER
 62
     7
 10
690.477217
 20
-905.729092
 30
0.0
 11
704.581915
 21
-906.221639
 31
0.0
  0
ARC
  8
0
  6
BYLAYER
 62
     7
 10
690.581915
 20
-902.730920
 30
0.0
 40
3.0
 50
180.000000
 51
268.000000
  0
LINE
  8
0
  6
BYLAYER
 62
     7
 10
704.581915
 20
-895.034333
 30
0.0
 11
690.477217
 21
-895.526880
 31
0.0
  0
ARC
  8
0
  6
BYLAYER
 62
     7
 10
690.581915
 20
-898.525052
 30
0.0
 40
3.0
 50
92.000000
 51
180.000000
  0
LINE
  8
0
  6
BYLAYER
 62
     7
 10
704.581915
 20
-880.034333
 30
0.0
 11
690.477217
 21
-880.526880
 31
0.0
  0
ARC
  8
0
  6
BYLAYER
 62
     7
 10
690.581915
 20
-883.525052
 30
0.0
 40
3.0
 50
92.000000
 51
180.000000
  0
LINE
  8
0
  6
BYLAYER
 62
     7
 10
687.581915
 20
-898.525052
 30
0.0
 11
687.581915
 21
-902.730920
 31
0.0
  0
LINE
  8
0
  6
BYLAYER
 62
     7
 10
687.581915
 20
-883.525052
 30
0.0
 11
687.581915
 21
-887.730920
 31
0.0
  0
LINE
  8
0
  6
BYLAYER
 62
     7
 10
703.581915
 20
-880.069254
 30
0.0
 11
703.581915
 21
-891.186718
 31
0.0
  0
LINE
  8
0
  6
BYLAYER
 62
     7
 10
703.581915
 20
-895.069254
 30
0.0
 11
703.581915
 21
-906.186718
 31
0.0
  0
LINE
  8
0
  6
BYLAYER
 62
     7
 10
648.081915
 20
-908.127986
 30
0.0
 11
674.081915
 21
-908.127986
 31
0.0
  0
ARC
  8
0
  6
BYLAYER
 62
     7
 10
674.081915
 20
-905.127986
 30
0.0
 40
3.0
 50
270.0
 51
360.0
  0
ARC
  8
0
  6
BYLAYER
 62
     7
 10
648.081915
 20
-905.127986
 30
0.0
 40
3.0
 50
180.000000
 51
270.000000
  0
LINE
  8
0
  6
BYLAYER
 62
     7
 10
645.081915
 20
-878.127986
 30
0.0
 11
645.081915
 21
-905.127986
 31
0.0
  0
LINE
  8
0
  6
BYLAYER
 62
     7
 10
677.081915
 20
-905.127986
 30
0.0
 11
677.081915
 21
-878.127986
 31
0.0
  0
ARC
  8
0
  6
BYLAYER
 62
     7
 10
617.581915
 20
-921.627986
 30
0.0
 40
6.0
 50
11.536959
 51
78.463041
  0
ARC
  8
0
  6
BYLAYER
 62
     7
 10
619.081915
 20
-914.279517
 30
0.0
 40
1.5
 50
180.000000
 51
258.463041
  0
ARC
  8
0
  6
BYLAYER
 62
     7
 10
704.581915
 20
-921.627986
 30
0.0
 40
6.0
 50
101.536959
 51
168.463041
  0
ARC
  8
0
  6
BYLAYER
 62
     7
 10
703.081915
 20
-914.279517
 30
0.0
 40
1.5
 50
281.536959
 51
360.000000
  0
ARC
  8
0
  6
BYLAYER
 62
     7
 10
697.233446
 20
-920.127986
 30
0.0
 40
1.5
 50
270.0
 51
348.463041
  0
LINE
  8
0
  6
BYLAYER
 62
     7
 10
612.081915
 20
-878.127986
 30
0.0
 11
612.081915
 21
-925.627986
 31
0.0
  0
LINE
  8
0
  6
BYLAYER
 62
     7
 10
613.581915
 20
-927.127986
 30
0.0
 11
708.581915
 21
-927.127986
 31
0.0
  0
ARC
  8
0
  6
BYLAYER
 62
     7
 10
613.581915
 20
-925.627986
 30
0.0
 40
1.5
 50
180.000000
 51
270.000000
  0
LINE
  8
0
  6
BYLAYER
 62
     7
 10
710.081915
 20
-925.627986
 30
0.0
 11
710.081915
 21
-878.127986
 31
0.0
  0
ARC
  8
0
  6
BYLAYER
 62
     7
 10
708.581915
 20
-925.627986
 30
0.0
 40
1.5
 50
270.0
 51
360.0
  0
LINE
  8
0
  6
BYLAYER
 62
     7
 10
688.081880
 20
-828.528025
 30
0.0
 11
612.881868
 21
-828.528025
 31
0.0
  0
ARC
  8
0
  6
BYLAYER
 62
     7
 10
612.881868
 20
-827.728037
 30
0.0
 40
0.800018
 50
90.0
 51
270.000012
  0
ARC
  8
0
  6
BYLAYER
 62
     7
 10
616.881868
 20
-827.728037
 30
0.0
 40
0.800018
 50
90.0
 51
270.000012
  0
LINE
  8
0
  6
BYLAYER
 62
     7
 10
612.081915
 20
-878.127986
 30
0.0
 11
612.081941
 21
-805.378031
 31
0.0
  0
LINE
  8
0
  6
BYLAYER
 62
     7
 10
710.081915
 20
-850.928034
 30
0.0
 11
754.616913
 21
-850.928065
 31
0.0
  0
LINE
  8
0
  6
BYLAYER
 62
     7
 10
710.081915
 20
-849.328028
 30
0.0
 11
754.616913
 21
-849.328059
 31
0.0
  0
LINE
  8
0
  6
BYLAYER
 62
     7
 10
617.581941
 20
-825.186808
 30
0.0
 11
612.081941
 21
-822.347239
 31
0.0
  0
LINE
  8
0
  6
BYLAYER
 62
     7
 10
612.081941
 20
-822.347239
 30
0.0
 11
615.583955
 21
-813.414194
 31
0.0
  0
ARC
  8
0
  6
BYLAYER
 62
     7
 10
617.445985
 20
-814.144175
 30
0.0
 40
2.000007
 50
90.0
 51
158.593500
  0
LINE
  8
0
  6
BYLAYER
 62
     7
 10
612.081941
 20
-805.378000
 30
0.0
 11
608.581941
 21
-805.378000
 31
0.0
  0
LINE
  8
0
  6
BYLAYER
 62
     7
 10
612.081941
 20
-817.677897
 30
0.0
 11
615.675111
 21
-804.736338
 31
0.0
  0
ARC
  8
0
  6
BYLAYER
 62
     7
 10
617.602205
 20
-805.271403
 30
0.0
 40
2.000010
 50
90.0
 51
164.482817
  0
LINE
  8
0
  6
BYLAYER
 62
     7
 10
612.081941
 20
-811.509104
 30
0.0
 11
615.649629
 21
-799.818735
 31
0.0
  0
ARC
  8
0
  6
BYLAYER
 62
     7
 10
617.562532
 20
-800.402506
 30
0.0
 40
1.999996
 50
90.0
 51
163.028683
  0
LINE
  8
0
  6
BYLAYER
 62
     7
 10
612.081941
 20
-807.641276
 30
0.0
 11
615.633149
 21
-796.698130
 31
0.0
  0
ARC
  8
0
  6
BYLAYER
 62
     7
 10
617.535493
 20
-797.315470
 30
0.0
 40
2.000005
 50
90.0
 51
162.020944
  0
ARC
  8
0
  6
BYLAYER
 62
     7
 10
616.971284
 20
-795.814341
 30
0.0
 40
2.000005
 50
90.0
 51
162.020944
  0
LINE
  8
0
  6
BYLAYER
 62
     7
 10
615.068941
 20
-795.197001
 30
0.0
 11
611.765046
 21
-805.378000
 31
0.0
  0
LINE
  8
0
  6
BYLAYER
 62
     7
 10
608.581941
 20
-805.378000
 30
0.0
 11
608.581911
 21
-878.127986
 31
0.0
  0
LINE
  8
0
  6
BYLAYER
 62
     7
 10
710.081915
 20
-873.328026
 30
0.0
 11
754.616913
 21
-873.328053
 31
0.0
  0
LINE
  8
0
  6
BYLAYER
 62
     7
 10
710.081915
 20
-871.728020
 30
0.0
 11
754.616913
 21
-871.728047
 31
0.0
  0
LINE
  8
0
  6
BYLAYER
 62
     7
 10
710.081915
 20
-862.128044
 30
0.0
 11
754.616913
 21
-862.128072
 31
0.0
  0
LINE
  8
0
  6
BYLAYER
 62
     7
 10
710.081915
 20
-860.528038
 30
0.0
 11
754.616913
 21
-860.528065
 31
0.0
  0
LINE
  8
0
  6
BYLAYER
 62
     7
 10
710.081915
 20
-839.728050
 30
0.0
 11
754.616913
 21
-839.728078
 31
0.0
  0
LINE
  8
0
  6
BYLAYER
 62
     7
 10
710.081915
 20
-838.128044
 30
0.0
 11
754.616913
 21
-838.128072
 31
0.0
  0
LINE
  8
0
  6
BYLAYER
 62
     7
 10
688.081880
 20
-828.528025
 30
0.0
 11
754.616913
 21
-828.528065
 31
0.0
  0
LINE
  8
0
  6
BYLAYER
 62
     7
 10
612.881868
 20
-826.928049
 30
0.0
 11
754.616913
 21
-826.928049
 31
0.0
  0
LINE
  8
0
  6
BYLAYER
 62
     7
 10
617.581941
 20
-825.186808
 30
0.0
 11
754.616913
 21
-825.186808
 31
0.0
  0
LINE
  8
0
  6
BYLAYER
 62
     7
 10
617.445985
 20
-812.144175
 30
0.0
 11
754.616913
 21
-812.144175
 31
0.0
  0
LINE
  8
0
  6
BYLAYER
 62
     7
 10
617.602205
 20
-803.271403
 30
0.0
 11
754.616913
 21
-803.271403
 31
0.0
  0
LINE
  8
0
  6
BYLAYER
 62
     7
 10
617.562532
 20
-798.402506
 30
0.0
 11
754.616913
 21
-798.402506
 31
0.0
  0
LINE
  8
0
  6
BYLAYER
 62
     7
 10
617.535493
 20
-795.315470
 30
0.0
 11
754.616913
 21
-795.315470
 31
0.0
  0
LINE
  8
0
  6
BYLAYER
 62
     7
 10
616.971284
 20
-793.814341
 30
0.0
 11
754.616913
 21
-793.814341
 31
0.0
  0
LINE
  8
0
  6
BYLAYER
 62
     7
 10
754.616913
 20
-791.578031
 30
0.0
 11
754.616913
 21
-878.127986
 31
0.0
  0
LINE
  8
0
  6
BYLAYER
 62
     7
 10
844.616913
 20
-878.127986
 30
0.0
 11
844.616913
 21
-806.128031
 31
0.0
  0
LINE
  8
0
  6
BYLAYER
 62
     7
 10
844.616913
 20
-806.128031
 30
0.0
 11
830.066913
 21
-791.578031
 31
0.0
  0
LINE
  8
0
  6
BYLAYER
 62
     7
 10
830.066913
 20
-791.578031
 30
0.0
 11
754.616913
 21
-791.578031
 31
0.0
  0
LINE
  8
0
  6
BYLAYER
 62
     7
 10
624.930384
 20
-834.627986
 30
0.0
 11
661.081915
 21
-834.627986
 31
0.0
  0
ARC
  8
0
  6
BYLAYER
 62
     7
 10
624.930384
 20
-836.127986
 30
0.0
 40
1.500000
 50
90.0
 51
168.463041
  0
LINE
  8
0
  6
BYLAYER
 62
     7
 10
617.581915
 20
-878.127986
 30
0.0
 11
617.581915
 21
-841.976455
 31
0.0
  0
LINE
  8
0
  6
BYLAYER
 62
     7
 10
661.081915
 20
-834.627986
 30
0.0
 11
697.233446
 21
-834.627986
 31
0.0
  0
LINE
  8
0
  6
BYLAYER
 62
     7
 10
704.581915
 20
-841.976455
 30
0.0
 11
704.581915
 21
-878.127986
 31
0.0
  0
LINE
  8
0
  6
BYLAYER
 62
     7
 10
631.686614
 20
-865.526880
 30
0.0
 11
617.581915
 21
-865.034333
 31
0.0
  0
ARC
  8
0
  6
BYLAYER
 62
     7
 10
631.581915
 20
-868.525052
 30
0.0
 40
3.0
 50
0.0
 51
88.0
  0
LINE
  8
0
  6
BYLAYER
 62
     7
 10
631.686614
 20
-850.526880
 30
0.0
 11
617.581915
 21
-850.034333
 31
0.0
  0
ARC
  8
0
  6
BYLAYER
 62
     7
 10
631.581915
 20
-853.525052
 30
0.0
 40
3.0
 50
0.0
 51
88.0
  0
LINE
  8
0
  6
BYLAYER
 62
     7
 10
617.581915
 20
-861.221639
 30
0.0
 11
631.686614
 21
-860.729092
 31
0.0
  0
ARC
  8
0
  6
BYLAYER
 62
     7
 10
631.581915
 20
-857.730920
 30
0.0
 40
3.0
 50
272.000000
 51
360.000000
  0
LINE
  8
0
  6
BYLAYER
 62
     7
 10
617.581915
 20
-876.221639
 30
0.0
 11
631.686614
 21
-875.729092
 31
0.0
  0
ARC
  8
0
  6
BYLAYER
 62
     7
 10
631.581915
 20
-872.730920
 30
0.0
 40
3.0
 50
272.000000
 51
360.000000
  0
LINE
  8
0
  6
BYLAYER
 62
     7
 10
634.581915
 20
-857.730920
 30
0.0
 11
634.581915
 21
-853.525052
 31
0.0
  0
LINE
  8
0
  6
BYLAYER
 62
     7
 10
634.581915
 20
-872.730920
 30
0.0
 11
634.581915
 21
-868.525052
 31
0.0
  0
LINE
  8
0
  6
BYLAYER
 62
     7
 10
618.581915
 20
-876.186718
 30
0.0
 11
618.581915
 21
-865.069254
 31
0.0
  0
LINE
  8
0
  6
BYLAYER
 62
     7
 10
618.581915
 20
-861.186718
 30
0.0
 11
618.581915
 21
-850.069254
 31
0.0
  0
LINE
  8
0
  6
BYLAYER
 62
     7
 10
690.477217
 20
-865.526880
 30
0.0
 11
704.581915
 21
-865.034333
 31
0.0
  0
ARC
  8
0
  6
BYLAYER
 62
     7
 10
690.581915
 20
-868.525052
 30
0.0
 40
3.0
 50
92.000000
 51
180.000000
  0
LINE
  8
0
  6
BYLAYER
 62
     7
 10
690.477217
 20
-850.526880
 30
0.0
 11
704.581915
 21
-850.034333
 31
0.0
  0
ARC
  8
0
  6
BYLAYER
 62
     7
 10
690.581915
 20
-853.525052
 30
0.0
 40
3.0
 50
92.000000
 51
180.000000
  0
LINE
  8
0
  6
BYLAYER
 62
     7
 10
704.581915
 20
-861.221639
 30
0.0
 11
690.477217
 21
-860.729092
 31
0.0
  0
ARC
  8
0
  6
BYLAYER
 62
     7
 10
690.581915
 20
-857.730920
 30
0.0
 40
3.0
 50
180.000000
 51
268.000000
  0
LINE
  8
0
  6
BYLAYER
 62
     7
 10
704.581915
 20
-876.221639
 30
0.0
 11
690.477217
 21
-875.729092
 31
0.0
  0
ARC
  8
0
  6
BYLAYER
 62
     7
 10
690.581915
 20
-872.730920
 30
0.0
 40
3.0
 50
180.000000
 51
268.000000
  0
LINE
  8
0
  6
BYLAYER
 62
     7
 10
687.581915
 20
-857.730920
 30
0.0
 11
687.581915
 21
-853.525052
 31
0.0
  0
LINE
  8
0
  6
BYLAYER
 62
     7
 10
687.581915
 20
-872.730920
 30
0.0
 11
687.581915
 21
-868.525052
 31
0.0
  0
LINE
  8
0
  6
BYLAYER
 62
     7
 10
703.581915
 20
-876.186718
 30
0.0
 11
703.581915
 21
-865.069254
 31
0.0
  0
LINE
  8
0
  6
BYLAYER
 62
     7
 10
703.581915
 20
-861.186718
 30
0.0
 11
703.581915
 21
-850.069254
 31
0.0
  0
LINE
  8
0
  6
BYLAYER
 62
     7
 10
648.081915
 20
-848.127986
 30
0.0
 11
674.081915
 21
-848.127986
 31
0.0
  0
ARC
  8
0
  6
BYLAYER
 62
     7
 10
674.081915
 20
-851.127986
 30
0.0
 40
3.0
 50
0.0
 51
90.0
  0
ARC
  8
0
  6
BYLAYER
 62
     7
 10
648.081915
 20
-851.127986
 30
0.0
 40
3.0
 50
90.0
 51
180.0
  0
LINE
  8
0
  6
BYLAYER
 62
     7
 10
645.081915
 20
-878.127986
 30
0.0
 11
645.081915
 21
-851.127986
 31
0.0
  0
LINE
  8
0
  6
BYLAYER
 62
     7
 10
677.081915
 20
-851.127986
 30
0.0
 11
677.081915
 21
-878.127986
 31
0.0
  0
ARC
  8
0
  6
BYLAYER
 62
     7
 10
617.581915
 20
-834.627986
 30
0.0
 40
6.000000
 50
281.536959
 51
348.463041
  0
ARC
  8
0
  6
BYLAYER
 62
     7
 10
619.081915
 20
-841.976455
 30
0.0
 40
1.5
 50
101.536959
 51
180.000000
  0
ARC
  8
0
  6
BYLAYER
 62
     7
 10
704.581915
 20
-834.627986
 30
0.0
 40
6.0
 50
191.536959
 51
258.463041
  0
ARC
  8
0
  6
BYLAYER
 62
     7
 10
703.081915
 20
-841.976455
 30
0.0
 40
1.5
 50
0.0
 51
78.463041
  0
ARC
  8
0
  6
BYLAYER
 62
     7
 10
697.233446
 20
-836.127986
 30
0.0
 40
1.500000
 50
11.536959
 51
90.000000
  0
LINE
  8
0
  6
BYLAYER
 62
     7
 10
612.081915
 20
-878.127986
 30
0.0
 11
612.081915
 21
-830.627986
 31
0.0
  0
LINE
  8
0
  6
BYLAYER
 62
     7
 10
613.581915
 20
-829.127986
 30
0.0
 11
708.581915
 21
-829.127986
 31
0.0
  0
ARC
  8
0
  6
BYLAYER
 62
     7
 10
613.581915
 20
-830.627986
 30
0.0
 40
1.5
 50
90.0
 51
180.0
  0
LINE
  8
0
  6
BYLAYER
 62
     7
 10
710.081915
 20
-830.627986
 30
0.0
 11
710.081915
 21
-878.127986
 31
0.0
  0
ARC
  8
0
  6
BYLAYER
 62
     7
 10
708.581915
 20
-830.627986
 30
0.0
 40
1.5
 50
0.0
 51
90.0
  0
LINE
  8
0
  6
BYLAYER
 62
     7
 10
830.066913
 20
-791.578031
 30
0.0
 11
830.066913
 21
-964.677941
 31
0.0
  0
LINE
  8
0
  6
BYLAYER
 62
     1
 10
536.581850
 20
-182.127986
 30
0.0
 11
536.424807
 21
-182.136226
 31
0.0
  0
ARC
  8
0
  6
BYLAYER
 62
     1
 10
536.581850
 20
-185.132075
 30
0.0
 40
2.999963
 50
93.000102
 51
180.000005
  0
ARC
  8
0
  6
BYLAYER
 62
     1
 10
536.581850
 20
-329.823298
 30
0.0
 40
3.000025
 50
180.000000
 51
225.000005
  0
ARC
  8
0
  6
BYLAYER
 62
     1
 10
520.581911
 20
-89.127986
 30
0.0
 40
3.0
 50
0.0
 51
90.000016
  0
ARC
  8
0
  6
BYLAYER
 62
     1
 10
262.581789
 20
-89.127986
 30
0.0
 40
3.0
 50
90.0
 51
180.000009
  0
ARC
  8
0
  6
BYLAYER
 62
     1
 10
262.581789
 20
-387.128017
 30
0.0
 40
3.000000
 50
180.000000
 51
269.999996
  0
ARC
  8
0
  6
BYLAYER
 62
     1
 10
520.581911
 20
-387.128017
 30
0.0
 40
3.0
 50
270.0
 51
359.999982
  0
LINE
  8
0
  6
BYLAYER
 62
     1
 10
536.581850
 20
-139.422175
 30
0.0
 11
533.598940
 21
-141.422420
 31
0.0
  0
LINE
  8
0
  6
BYLAYER
 62
     1
 10
259.581789
 20
-138.127986
 30
0.0
 11
244.081789
 21
-138.127986
 31
0.0
  0
ARC
  8
0
  6
BYLAYER
 62
     1
 10
468.581911
 20
-96.127986
 30
0.0
 40
10.000000
 50
90.0
 51
180.000009
  0
ARC
  8
0
  6
BYLAYER
 62
     1
 10
314.581911
 20
-96.127986
 30
0.0
 40
10.000000
 50
0.0
 51
90.000023
  0
ARC
  8
0
  6
BYLAYER
 62
     1
 10
468.581911
 20
-380.128017
 30
0.0
 40
10.0
 50
180.000000
 51
270.000003
  0
ARC
  8
0
  6
BYLAYER
 62
     1
 10
513.581911
 20
-335.127925
 30
0.0
 40
10.000000
 50
0.0
 51
89.999989
  0
ARC
  8
0
  6
BYLAYER
 62
     1
 10
314.581911
 20
-380.128017
 30
0.0
 40
10.0
 50
270.0
 51
360.000009
  0
ARC
  8
0
  6
BYLAYER
 62
     1
 10
269.581911
 20
-335.127925
 30
0.0
 40
10.000122
 50
90.283095
 51
180.0
  0
LINE
  8
0
  6
BYLAYER
 62
     1
 10
508.494539
 20
-325.127925
 30
0.0
 11
513.581911
 21
-325.127925
 31
0.0
  0
LINE
  8
0
  6
BYLAYER
 62
     1
 10
458.581911
 20
-375.040546
 30
0.0
 11
458.581911
 21
-380.128017
 31
0.0
  0
LINE
  8
0
  6
BYLAYER
 62
     1
 10
324.581911
 20
-380.128017
 30
0.0
 11
324.581911
 21
-375.040523
 31
0.0
  0
LINE
  8
0
  6
BYLAYER
 62
     1
 10
274.669245
 20
-325.127925
 30
0.0
 11
269.581911
 21
-325.127925
 31
0.0
  0
LINE
  8
0
  6
BYLAYER
 62
     1
 10
324.581911
 20
-141.215289
 30
0.0
 11
324.581911
 21
-96.127986
 31
0.0
  0
ARC
  8
0
  6
BYLAYER
 62
     1
 10
262.581789
 20
-148.627986
 30
0.0
 40
3.000000
 50
180.000000
 51
269.999996
  0
ARC
  8
0
  6
BYLAYER
 62
     1
 10
262.581789
 20
-160.627986
 30
0.0
 40
3.000000
 50
180.000000
 51
269.999996
  0
ARC
  8
0
  6
BYLAYER
 62
     1
 10
262.581789
 20
-172.627986
 30
0.0
 40
3.000000
 50
180.000000
 51
269.999996
  0
ARC
  8
0
  6
BYLAYER
 62
     1
 10
262.581789
 20
-159.627986
 30
0.0
 40
3.000000
 50
90.0
 51
180.000003
  0
ARC
  8
0
  6
BYLAYER
 62
     1
 10
262.581789
 20
-171.627986
 30
0.0
 40
3.000000
 50
90.0
 51
180.000003
  0
ARC
  8
0
  6
BYLAYER
 62
     1
 10
262.581789
 20
-183.627986
 30
0.0
 40
3.000000
 50
90.0
 51
180.000003
  0
LINE
  8
0
  6
BYLAYER
 62
     1
 10
262.581789
 20
-151.627986
 30
0.0
 11
298.081911
 21
-151.627986
 31
0.0
  0
LINE
  8
0
  6
BYLAYER
 62
     1
 10
262.581789
 20
-156.627986
 30
0.0
 11
298.081911
 21
-156.627986
 31
0.0
  0
ARC
  8
0
  6
BYLAYER
 62
     1
 10
298.081911
 20
-154.127986
 30
0.0
 40
2.5
 50
270.0
 51
450.000005
  0
LINE
  8
0
  6
BYLAYER
 62
     1
 10
262.581789
 20
-163.627986
 30
0.0
 11
286.081911
 21
-163.627986
 31
0.0
  0
LINE
  8
0
  6
BYLAYER
 62
     1
 10
262.581789
 20
-168.627986
 30
0.0
 11
286.081911
 21
-168.627986
 31
0.0
  0
ARC
  8
0
  6
BYLAYER
 62
     1
 10
286.081911
 20
-166.127986
 30
0.0
 40
2.500000
 50
270.0
 51
450.000005
  0
LINE
  8
0
  6
BYLAYER
 62
     1
 10
262.581789
 20
-175.627986
 30
0.0
 11
276.081911
 21
-175.627986
 31
0.0
  0
LINE
  8
0
  6
BYLAYER
 62
     1
 10
262.581789
 20
-180.627986
 30
0.0
 11
276.081911
 21
-180.627986
 31
0.0
  0
ARC
  8
0
  6
BYLAYER
 62
     1
 10
276.081911
 20
-178.127986
 30
0.0
 40
2.500000
 50
270.0
 51
450.000005
  0
ARC
  8
0
  6
BYLAYER
 62
     1
 10
520.581911
 20
-159.627986
 30
0.0
 40
3.0
 50
0.0
 51
90.000016
  0
ARC
  8
0
  6
BYLAYER
 62
     1
 10
520.581911
 20
-171.627986
 30
0.0
 40
3.0
 50
0.0
 51
90.000016
  0
ARC
  8
0
  6
BYLAYER
 62
     1
 10
520.581911
 20
-183.627986
 30
0.0
 40
3.0
 50
0.0
 51
90.000016
  0
ARC
  8
0
  6
BYLAYER
 62
     1
 10
520.581911
 20
-148.627986
 30
0.0
 40
3.0
 50
270.0
 51
359.999982
  0
ARC
  8
0
  6
BYLAYER
 62
     1
 10
520.581911
 20
-160.627986
 30
0.0
 40
3.0
 50
270.0
 51
359.999982
  0
ARC
  8
0
  6
BYLAYER
 62
     1
 10
520.581911
 20
-172.627986
 30
0.0
 40
3.0
 50
270.0
 51
359.999982
  0
LINE
  8
0
  6
BYLAYER
 62
     1
 10
520.581911
 20
-151.627986
 30
0.0
 11
485.081911
 21
-151.627986
 31
0.0
  0
LINE
  8
0
  6
BYLAYER
 62
     1
 10
520.581911
 20
-156.627986
 30
0.0
 11
485.081911
 21
-156.627986
 31
0.0
  0
ARC
  8
0
  6
BYLAYER
 62
     1
 10
485.081911
 20
-154.127986
 30
0.0
 40
2.5
 50
90.0
 51
269.999991
  0
LINE
  8
0
  6
BYLAYER
 62
     1
 10
520.581911
 20
-163.627986
 30
0.0
 11
497.081911
 21
-163.627986
 31
0.0
  0
LINE
  8
0
  6
BYLAYER
 62
     1
 10
520.581911
 20
-168.627986
 30
0.0
 11
497.081911
 21
-168.627986
 31
0.0
  0
ARC
  8
0
  6
BYLAYER
 62
     1
 10
497.081911
 20
-166.127986
 30
0.0
 40
2.5
 50
90.0
 51
269.999991
  0
LINE
  8
0
  6
BYLAYER
 62
     1
 10
520.581911
 20
-175.627986
 30
0.0
 11
507.081911
 21
-175.627986
 31
0.0
  0
LINE
  8
0
  6
BYLAYER
 62
     1
 10
520.581911
 20
-180.627986
 30
0.0
 11
507.081911
 21
-180.627986
 31
0.0
  0
ARC
  8
0
  6
BYLAYER
 62
     1
 10
507.081911
 20
-178.127986
 30
0.0
 40
2.5
 50
90.0
 51
269.999991
  0
ARC
  8
0
  6
BYLAYER
 62
     1
 10
326.581911
 20
-120.127986
 30
0.0
 40
2.000000
 50
180.000000
 51
270.000009
  0
LINE
  8
0
  6
BYLAYER
 62
     1
 10
262.581789
 20
-86.127986
 30
0.0
 11
314.581911
 21
-86.127986
 31
0.0
  0
LINE
  8
0
  6
BYLAYER
 62
     1
 10
458.581911
 20
-141.215251
 30
0.0
 11
458.581911
 21
-96.127986
 31
0.0
  0
LINE
  8
0
  6
BYLAYER
 62
     1
 10
436.581911
 20
-126.127986
 30
0.0
 11
448.581911
 21
-126.127986
 31
0.0
  0
ARC
  8
0
  6
BYLAYER
 62
     1
 10
448.581911
 20
-116.127986
 30
0.0
 40
10.0
 50
270.0
 51
360.000003
  0
LINE
  8
0
  6
BYLAYER
 62
     1
 10
326.581911
 20
-122.127986
 30
0.0
 11
423.620424
 21
-122.127986
 31
0.0
  0
ARC
  8
0
  6
BYLAYER
 62
     1
 10
436.581911
 20
-106.127986
 30
0.0
 40
19.999994
 50
235.698818
 51
270.000001
  0
ARC
  8
0
  6
BYLAYER
 62
     1
 10
246.581789
 20
-329.823299
 30
0.0
 40
3.000002
 50
314.999992
 51
345.522495
  0
ARC
  8
0
  6
BYLAYER
 62
     1
 10
247.907717
 20
-144.011592
 30
0.0
 40
2.999953
 50
11.543804
 51
55.016575
  0
ARC
  8
0
  6
BYLAYER
 62
     1
 10
535.269716
 20
-143.914058
 30
0.0
 40
2.999959
 50
123.843966
 51
169.087289
  0
LINE
  8
0
  6
BYLAYER
 62
     1
 10
244.081789
 20
-338.127986
 30
0.0
 11
259.581789
 21
-338.127986
 31
0.0
  0
LINE
  8
0
  6
BYLAYER
 62
     1
 10
534.460512
 20
-331.944636
 30
0.0
 11
536.142488
 21
-333.626582
 31
0.0
  0
ARC
  8
0
  6
BYLAYER
 62
     1
 10
535.081850
 20
-334.687251
 30
0.0
 40
1.499991
 50
0.0
 51
45.000824
  0
LINE
  8
0
  6
BYLAYER
 62
     1
 10
533.875856
 20
-338.127986
 30
0.0
 11
523.581911
 21
-338.127986
 31
0.0
  0
ARC
  8
0
  6
BYLAYER
 62
     1
 10
532.375856
 20
-338.549251
 30
0.0
 40
1.500007
 50
0.0
 51
31.372982
  0
LINE
  8
0
  6
BYLAYER
 62
     1
 10
314.581911
 20
-86.127986
 30
0.0
 11
520.581911
 21
-86.127986
 31
0.0
  0
LINE
  8
0
  6
BYLAYER
 62
     1
 10
262.581789
 20
-390.128017
 30
0.0
 11
350.419603
 21
-390.128017
 31
0.0
  0
LINE
  8
0
  6
BYLAYER
 62
     1
 10
432.744295
 20
-390.128017
 30
0.0
 11
520.581911
 21
-390.128017
 31
0.0
  0
LINE
  8
0
  6
BYLAYER
 62
     1
 10
523.581911
 20
-299.290431
 30
0.0
 11
523.581911
 21
-387.128017
 31
0.0
  0
ARC
  8
0
  6
BYLAYER
 62
     1
 10
526.581911
 20
-299.290431
 30
0.0
 40
2.999983
 50
167.456267
 51
180.000005
  0
ARC
  8
0
  6
BYLAYER
 62
     1
 10
341.581911
 20
-258.127986
 30
0.0
 40
186.524017
 50
347.456040
 51
372.54397
  0
ARC
  8
0
  6
BYLAYER
 62
     1
 10
526.581911
 20
-216.965449
 30
0.0
 40
2.999996
 50
180.000000
 51
192.544858
  0
LINE
  8
0
  6
BYLAYER
 62
     1
 10
259.581789
 20
-299.289973
 30
0.0
 11
259.581789
 21
-387.128017
 31
0.0
  0
ARC
  8
0
  6
BYLAYER
 62
     1
 10
256.581789
 20
-299.289973
 30
0.0
 40
3.000005
 50
0.0
 51
12.544233
  0
ARC
  8
0
  6
BYLAYER
 62
     1
 10
441.581911
 20
-258.127986
 30
0.0
 40
186.524017
 50
167.456185
 51
192.543811
  0
ARC
  8
0
  6
BYLAYER
 62
     1
 10
256.581789
 20
-216.965999
 30
0.0
 40
2.999998
 50
347.456340
 51
360.000000
  0
ARC
  8
0
  6
BYLAYER
 62
     1
 10
319.886591
 20
-403.127925
 30
0.0
 40
3.000025
 50
90.0
 51
134.999998
  0
ARC
  8
0
  6
BYLAYER
 62
     1
 10
350.419466
 20
-393.127986
 30
0.0
 40
2.999983
 50
77.456264
 51
90.000003
  0
ARC
  8
0
  6
BYLAYER
 62
     1
 10
391.581911
 20
-208.127986
 30
0.0
 40
186.524017
 50
257.456030
 51
282.543971
  0
LINE
  8
0
  6
BYLAYER
 62
     1
 10
311.581903
 20
-390.127986
 30
0.0
 11
311.581903
 21
-405.628017
 31
0.0
  0
ARC
  8
0
  6
BYLAYER
 62
     1
 10
463.277223
 20
-403.127925
 30
0.0
 40
3.000025
 50
45.000001
 51
89.999996
  0
ARC
  8
0
  6
BYLAYER
 62
     1
 10
432.744356
 20
-393.127986
 30
0.0
 40
2.999983
 50
90.0
 51
102.543738
  0
LINE
  8
0
  6
BYLAYER
 62
     1
 10
471.581911
 20
-390.127986
 30
0.0
 11
471.581911
 21
-405.628017
 31
0.0
  0
LINE
  8
0
  6
BYLAYER
 62
     1
 10
463.277285
 20
-76.128047
 30
0.0
 11
319.886599
 21
-76.128047
 31
0.0
  0
ARC
  8
0
  6
BYLAYER
 62
     1
 10
463.277224
 20
-73.128108
 30
0.0
 40
3.000025
 50
270.0
 51
315.000018
  0
ARC
  8
0
  6
BYLAYER
 62
     1
 10
319.886599
 20
-73.128108
 30
0.0
 40
3.000025
 50
224.999982
 51
270.000001
  0
LINE
  8
0
  6
BYLAYER
 62
     1
 10
259.581789
 20
-89.127986
 30
0.0
 11
259.581789
 21
-148.627986
 31
0.0
  0
LINE
  8
0
  6
BYLAYER
 62
     1
 10
259.581789
 20
-159.627986
 30
0.0
 11
259.581789
 21
-160.627986
 31
0.0
  0
LINE
  8
0
  6
BYLAYER
 62
     1
 10
259.581789
 20
-171.627986
 30
0.0
 11
259.581789
 21
-172.627986
 31
0.0
  0
LINE
  8
0
  6
BYLAYER
 62
     1
 10
259.581789
 20
-183.627986
 30
0.0
 11
259.581789
 21
-216.965999
 31
0.0
  0
LINE
  8
0
  6
BYLAYER
 62
     1
 10
523.581911
 20
-89.127986
 30
0.0
 11
523.581911
 21
-148.627986
 31
0.0
  0
LINE
  8
0
  6
BYLAYER
 62
     1
 10
523.581911
 20
-159.627986
 30
0.0
 11
523.581911
 21
-160.627986
 31
0.0
  0
LINE
  8
0
  6
BYLAYER
 62
     1
 10
523.581911
 20
-171.627986
 30
0.0
 11
523.581911
 21
-172.627986
 31
0.0
  0
LINE
  8
0
  6
BYLAYER
 62
     1
 10
523.581911
 20
-183.627986
 30
0.0
 11
523.581911
 21
-216.965449
 31
0.0
  0
LINE
  8
0
  6
BYLAYER
 62
     1
 10
536.581850
 20
-75.627986
 30
0.0
 11
531.581850
 21
-70.627986
 31
0.0
  0
LINE
  8
0
  6
BYLAYER
 62
     1
 10
536.581850
 20
-400.628017
 30
0.0
 11
536.581850
 21
-334.687251
 31
0.0
  0
LINE
  8
0
  6
BYLAYER
 62
     1
 10
536.581850
 20
-400.628017
 30
0.0
 11
531.581850
 21
-405.628017
 31
0.0
  0
LINE
  8
0
  6
BYLAYER
 62
     1
 10
249.581789
 20
-286.127101
 30
0.0
 11
249.581789
 21
-330.335536
 31
0.0
  0
ARC
  8
0
  6
BYLAYER
 62
     1
 10
441.581911
 20
-258.127986
 30
0.0
 40
194.000000
 50
171.828640
 51
188.170974
  0
ARC
  8
0
  6
BYLAYER
 62
     1
 10
363.581484
 20
-403.127925
 30
0.0
 40
3.0
 50
81.828840
 51
90.000000
  0
ARC
  8
0
  6
BYLAYER
 62
     1
 10
391.581911
 20
-208.127986
 30
0.0
 40
194.000000
 50
261.828636
 51
278.170983
  0
ARC
  8
0
  6
BYLAYER
 62
     1
 10
419.582338
 20
-403.127925
 30
0.0
 40
3.0
 50
90.0
 51
98.171167
  0
ARC
  8
0
  6
BYLAYER
 62
     1
 10
341.581911
 20
-258.127986
 30
0.0
 40
194.0
 50
351.828645
 51
368.170965
  0
LINE
  8
0
  6
BYLAYER
 62
     1
 10
319.886591
 20
-400.127925
 30
0.0
 11
363.581484
 21
-400.127925
 31
0.0
  0
LINE
  8
0
  6
BYLAYER
 62
     1
 10
463.277223
 20
-400.127925
 30
0.0
 11
419.582338
 21
-400.127925
 31
0.0
  0
LINE
  8
0
  6
BYLAYER
 62
     1
 10
533.581850
 20
-230.127559
 30
0.0
 11
533.581850
 21
-185.132075
 31
0.0
  0
LINE
  8
0
  6
BYLAYER
 62
     1
 10
533.581850
 20
-329.823298
 30
0.0
 11
533.581850
 21
-286.128413
 31
0.0
  0
LINE
  8
0
  6
BYLAYER
 62
     1
 10
317.765261
 20
-75.249446
 30
0.0
 11
313.143930
 21
-70.627986
 31
0.0
  0
LINE
  8
0
  6
BYLAYER
 62
     1
 10
311.581911
 20
-70.627986
 30
0.0
 11
311.581911
 21
-86.127986
 31
0.0
  0
LINE
  8
0
  6
BYLAYER
 62
     1
 10
244.081789
 20
-179.627986
 30
0.0
 11
244.081789
 21
-75.627986
 31
0.0
  0
LINE
  8
0
  6
BYLAYER
 62
     1
 10
536.581850
 20
-182.127986
 30
0.0
 11
536.581850
 21
-75.627986
 31
0.0
  0
LINE
  8
0
  6
BYLAYER
 62
     1
 10
471.581911
 20
-70.627986
 30
0.0
 11
471.581911
 21
-86.127986
 31
0.0
  0
LINE
  8
0
  6
BYLAYER
 62
     1
 10
465.398561
 20
-75.249446
 30
0.0
 11
470.019899
 21
-70.627986
 31
0.0
  0
LINE
  8
0
  6
BYLAYER
 62
     1
 10
531.581850
 20
-70.627986
 30
0.0
 11
470.019899
 21
-70.627986
 31
0.0
  0
LINE
  8
0
  6
BYLAYER
 62
     1
 10
317.765253
 20
-401.006587
 30
0.0
 11
313.143907
 21
-405.628017
 31
0.0
  0
LINE
  8
0
  6
BYLAYER
 62
     1
 10
470.019930
 20
-405.628017
 30
0.0
 11
531.581850
 21
-405.628017
 31
0.0
  0
LINE
  8
0
  6
BYLAYER
 62
     1
 10
465.398561
 20
-401.006587
 30
0.0
 11
470.019930
 21
-405.628017
 31
0.0
  0
LINE
  8
0
  6
BYLAYER
 62
     1
 10
533.875856
 20
-338.549251
 30
0.0
 11
533.875856
 21
-403.334010
 31
0.0
  0
LINE
  8
0
  6
BYLAYER
 62
     1
 10
313.143907
 20
-405.628017
 30
0.0
 11
249.081789
 21
-405.627955
 31
0.0
  0
LINE
  8
0
  6
BYLAYER
 62
     1
 10
244.081789
 20
-400.627955
 30
0.0
 11
249.081789
 21
-405.627955
 31
0.0
  0
LINE
  8
0
  6
BYLAYER
 62
     1
 10
244.081789
 20
-336.565852
 30
0.0
 11
248.703127
 21
-331.944636
 31
0.0
  0
LINE
  8
0
  6
BYLAYER
 62
     1
 10
244.081789
 20
-336.565852
 30
0.0
 11
244.081789
 21
-400.627955
 31
0.0
  0
LINE
  8
0
  6
BYLAYER
 62
     1
 10
244.081789
 20
-179.627986
 30
0.0
 11
246.739229
 21
-179.767451
 31
0.0
  0
ARC
  8
0
  6
BYLAYER
 62
     1
 10
246.581972
 20
-182.763362
 30
0.0
 40
3.0
 50
0.0
 51
86.995416
  0
LINE
  8
0
  6
BYLAYER
 62
     1
 10
249.581972
 20
-230.127559
 30
0.0
 11
249.581972
 21
-182.629512
 31
0.0
  0
LINE
  8
0
  6
BYLAYER
 62
     1
 10
244.081789
 20
-138.127986
 30
0.0
 11
249.627687
 21
-141.553706
 31
0.0
  0
LINE
  8
0
  6
BYLAYER
 62
     1
 10
249.081804
 20
-70.627986
 30
0.0
 11
313.143930
 21
-70.627986
 31
0.0
  0
LINE
  8
0
  6
BYLAYER
 62
     1
 10
244.081789
 20
-75.627986
 30
0.0
 11
249.081804
 21
-70.627986
 31
0.0
  0
ARC
  8
0
  6
BYLAYER
 62
     1
 10
423.620424
 20
-125.127986
 30
0.0
 40
3.0
 50
55.698957
 51
90.000000
  0
CIRCLE
  8
0
  6
BYLAYER
 62
     1
 10
391.581911
 20
-258.127986
 30
0.0
 40
45.0
  0
ARC
  8
0
  6
BYLAYER
 62
     1
 10
391.581911
 20
-150.627986
 30
0.0
 40
6.000077
 50
353.660000
 51
636.340001
  0
CIRCLE
  8
0
  6
BYLAYER
 62
     1
 10
391.581911
 20
-150.627986
 30
0.0
 40
5.4
  0
ARC
  8
0
  6
BYLAYER
 62
     1
 10
315.567934
 20
-182.114070
 30
0.0
 40
5.999946
 50
38.659991
 51
321.339992
  0
CIRCLE
  8
0
  6
BYLAYER
 62
     1
 10
315.567934
 20
-182.114070
 30
0.0
 40
5.4
  0
ARC
  8
0
  6
BYLAYER
 62
     1
 10
284.081911
 20
-258.127986
 30
0.0
 40
6.000016
 50
83.660009
 51
366.340010
  0
CIRCLE
  8
0
  6
BYLAYER
 62
     1
 10
284.081911
 20
-258.127986
 30
0.0
 40
5.400000
  0
ARC
  8
0
  6
BYLAYER
 62
     1
 10
315.567934
 20
-334.141902
 30
0.0
 40
6.000069
 50
128.660028
 51
411.340001
  0
CIRCLE
  8
0
  6
BYLAYER
 62
     1
 10
315.567934
 20
-334.141902
 30
0.0
 40
5.4
  0
ARC
  8
0
  6
BYLAYER
 62
     1
 10
391.581911
 20
-365.627986
 30
0.0
 40
6.000077
 50
173.660015
 51
456.340016
  0
CIRCLE
  8
0
  6
BYLAYER
 62
     1
 10
391.581911
 20
-365.627986
 30
0.0
 40
5.4
  0
ARC
  8
0
  6
BYLAYER
 62
     1
 10
467.595888
 20
-334.141902
 30
0.0
 40
6.000021
 50
218.660013
 51
501.340041
  0
CIRCLE
  8
0
  6
BYLAYER
 62
     1
 10
467.595888
 20
-334.141902
 30
0.0
 40
5.4
  0
ARC
  8
0
  6
BYLAYER
 62
     1
 10
499.081911
 20
-258.127986
 30
0.0
 40
6.000016
 50
263.659977
 51
546.340005
  0
CIRCLE
  8
0
  6
BYLAYER
 62
     1
 10
499.081911
 20
-258.127986
 30
0.0
 40
5.4
  0
ARC
  8
0
  6
BYLAYER
 62
     1
 10
467.595888
 20
-182.114070
 30
0.0
 40
5.999879
 50
308.659982
 51
591.339955
  0
CIRCLE
  8
0
  6
BYLAYER
 62
     1
 10
467.595888
 20
-182.114070
 30
0.0
 40
5.4
  0
ARC
  8
0
  6
BYLAYER
 62
     1
 10
315.045168
 20
-73.352107
 30
0.0
 40
87.500099
 50
269.435199
 51
315.564848
  0
ARC
  8
0
  6
BYLAYER
 62
     1
 10
379.666078
 20
-136.711238
 30
0.0
 40
2.999941
 50
95.605388
 51
135.564229
  0
ARC
  8
0
  6
BYLAYER
 62
     1
 10
314.153017
 20
-163.847713
 30
0.0
 40
2.999902
 50
89.434634
 51
129.395133
  0
ARC
  8
0
  6
BYLAYER
 62
     1
 10
206.805971
 20
-181.591365
 30
0.0
 40
87.5
 50
314.435190
 51
360.564839
  0
ARC
  8
0
  6
BYLAYER
 62
     1
 10
297.301577
 20
-180.699275
 30
0.0
 40
3.000035
 50
140.605386
 51
180.564233
  0
ARC
  8
0
  6
BYLAYER
 62
     1
 10
270.165224
 20
-246.212215
 30
0.0
 40
2.999997
 50
134.434638
 51
174.395138
  0
ARC
  8
0
  6
BYLAYER
 62
     1
 10
270.165224
 20
-270.043757
 30
0.0
 40
2.999996
 50
185.605391
 51
225.564238
  0
ARC
  8
0
  6
BYLAYER
 62
     1
 10
314.153139
 20
-352.408259
 30
0.0
 40
2.999996
 50
230.605382
 51
270.564229
  0
ARC
  8
0
  6
BYLAYER
 62
     1
 10
469.010805
 20
-352.408259
 30
0.0
 40
2.999902
 50
269.434625
 51
309.395138
  0
ARC
  8
0
  6
BYLAYER
 62
     1
 10
485.862245
 20
-335.556697
 30
0.0
 40
3.000035
 50
320.605391
 51
360.564238
  0
ARC
  8
0
  6
BYLAYER
 62
     1
 10
512.998598
 20
-270.043757
 30
0.0
 40
2.999997
 50
314.434643
 51
354.395129
  0
ARC
  8
0
  6
BYLAYER
 62
     1
 10
468.118593
 20
-73.352107
 30
0.0
 40
87.499954
 50
224.435194
 51
270.564803
  0
ARC
  8
0
  6
BYLAYER
 62
     1
 10
469.010744
 20
-163.847713
 30
0.0
 40
2.999957
 50
50.605374
 51
90.564217
  0
ARC
  8
0
  6
BYLAYER
 62
     1
 10
403.497682
 20
-136.711238
 30
0.0
 40
2.999997
 50
44.434626
 51
84.395108
  0
ARC
  8
0
  6
BYLAYER
 62
     1
 10
391.581911
 20
-258.127986
 30
0.0
 40
125.000000
 50
90.000003
 51
95.605061
  0
ARC
  8
0
  6
BYLAYER
 62
     1
 10
391.581911
 20
-258.127986
 30
0.0
 40
125.0
 50
84.394938
 51
89.999996
  0
ARC
  8
0
  6
BYLAYER
 62
     1
 10
391.581911
 20
-258.127986
 30
0.0
 40
125.000069
 50
135.0
 51
140.605058
  0
ARC
  8
0
  6
BYLAYER
 62
     1
 10
391.581911
 20
-258.127986
 30
0.0
 40
125.000000
 50
180.000005
 51
185.605063
  0
ARC
  8
0
  6
BYLAYER
 62
     1
 10
391.581911
 20
-258.127986
 30
0.0
 40
124.999985
 50
225.000010
 51
230.605054
  0
ARC
  8
0
  6
BYLAYER
 62
     1
 10
391.581911
 20
-258.127986
 30
0.0
 40
124.999901
 50
315.000019
 51
320.605063
  0
ARC
  8
0
  6
BYLAYER
 62
     1
 10
391.581911
 20
-258.127986
 30
0.0
 40
125.0
 50
0.000010
 51
5.605054
  0
ARC
  8
0
  6
BYLAYER
 62
     1
 10
391.581911
 20
-258.127986
 30
0.0
 40
125.000069
 50
45.000001
 51
50.605046
  0
ARC
  8
0
  6
BYLAYER
 62
     1
 10
391.581911
 20
-258.127986
 30
0.0
 40
125.000069
 50
129.394942
 51
135.0
  0
ARC
  8
0
  6
BYLAYER
 62
     1
 10
391.581911
 20
-258.127986
 30
0.0
 40
125.000000
 50
174.394947
 51
179.999991
  0
ARC
  8
0
  6
BYLAYER
 62
     1
 10
391.581911
 20
-258.127986
 30
0.0
 40
124.999901
 50
309.394947
 51
315.000019
  0
ARC
  8
0
  6
BYLAYER
 62
     1
 10
391.581911
 20
-258.127986
 30
0.0
 40
125.0
 50
354.394938
 51
359.999983
  0
ARC
  8
0
  6
BYLAYER
 62
     1
 10
391.581911
 20
-258.127986
 30
0.0
 40
125.000069
 50
39.394929
 51
45.000001
  0
ARC
  8
0
  6
BYLAYER
 62
     1
 10
512.998598
 20
-246.212215
 30
0.0
 40
2.999997
 50
5.604860
 51
45.565363
  0
ARC
  8
0
  6
BYLAYER
 62
     1
 10
485.862245
 20
-180.699275
 30
0.0
 40
3.000035
 50
359.435755
 51
399.394615
  0
ARC
  8
0
  6
BYLAYER
 62
     1
 10
391.581911
 20
-258.127986
 30
0.0
 40
125.0
 50
264.394956
 51
270.000001
  0
ARC
  8
0
  6
BYLAYER
 62
     1
 10
315.045290
 20
-442.903865
 30
0.0
 40
87.500038
 50
44.435257
 51
90.564852
  0
ARC
  8
0
  6
BYLAYER
 62
     1
 10
379.666078
 20
-379.544612
 30
0.0
 40
3.000057
 50
224.435303
 51
264.394956
  0
ARC
  8
0
  6
BYLAYER
 62
     1
 10
391.581911
 20
-258.127986
 30
0.0
 40
125.0
 50
270.0
 51
275.605071
  0
ARC
  8
0
  6
BYLAYER
 62
     1
 10
468.118654
 20
-442.903865
 30
0.0
 40
87.500099
 50
89.435187
 51
135.564843
  0
ARC
  8
0
  6
BYLAYER
 62
     1
 10
403.497744
 20
-379.544612
 30
0.0
 40
3.000063
 50
275.605072
 51
315.564739
  0
ARC
  8
0
  6
BYLAYER
 62
     1
 10
391.581911
 20
-258.127986
 30
0.0
 40
124.999985
 50
219.394938
 51
224.999996
  0
ARC
  8
0
  6
BYLAYER
 62
     1
 10
206.805971
 20
-334.664607
 30
0.0
 40
87.500000
 50
359.435154
 51
405.564824
  0
ARC
  8
0
  6
BYLAYER
 62
     1
 10
297.301577
 20
-335.556697
 30
0.0
 40
3.000035
 50
179.435217
 51
219.394938
  0
ARC
  8
0
  6
BYLAYER
 62
     1
 10
391.581911
 20
-258.127986
 30
0.0
 40
84.000099
 50
22.500098
 51
90.000003
  0
ARC
  8
0
  6
BYLAYER
 62
     1
 10
391.581911
 20
-258.127986
 30
0.0
 40
84.000122
 50
90.000003
 51
382.500094
  0
ARC
  8
0
  6
BYLAYER
 62
     1
 10
504.359865
 20
-225.824031
 30
0.0
 40
3.000030
 50
158.015894
 51
211.564508
  0
ARC
  8
0
  6
BYLAYER
 62
     1
 10
486.741457
 20
-218.711482
 30
0.0
 40
15.999915
 50
338.015707
 51
426.984024
  0
ARC
  8
0
  6
BYLAYER
 62
     1
 10
494.170229
 20
-201.223933
 30
0.0
 40
3.000043
 50
193.434891
 51
246.983711
  0
LINE
  8
0
  6
BYLAYER
 62
     1
 10
360.371950
 20
-127.127986
 30
0.0
 11
422.791933
 21
-127.127986
 31
0.0
  0
ARC
  8
0
  6
BYLAYER
 62
     1
 10
360.371950
 20
-130.127986
 30
0.0
 40
3.0
 50
90.0
 51
103.703477
  0
ARC
  8
0
  6
BYLAYER
 62
     1
 10
422.791933
 20
-130.127986
 30
0.0
 40
3.000000
 50
76.296516
 51
90.000000
  0
LINE
  8
0
  6
BYLAYER
 62
     1
 10
276.882143
 20
-187.565730
 30
0.0
 11
321.019716
 21
-143.428035
 31
0.0
  0
LINE
  8
0
  6
BYLAYER
 62
     1
 10
260.581911
 20
-289.337947
 30
0.0
 11
260.581911
 21
-226.917903
 31
0.0
  0
LINE
  8
0
  6
BYLAYER
 62
     1
 10
321.019716
 20
-372.827693
 30
0.0
 11
276.882082
 21
-328.690120
 31
0.0
  0
LINE
  8
0
  6
BYLAYER
 62
     1
 10
422.791872
 20
-389.127986
 30
0.0
 11
360.371889
 21
-389.127986
 31
0.0
  0
LINE
  8
0
  6
BYLAYER
 62
     1
 10
506.281679
 20
-328.690120
 30
0.0
 11
462.144106
 21
-372.827693
 31
0.0
  0
LINE
  8
0
  6
BYLAYER
 62
     1
 10
522.581911
 20
-226.918025
 30
0.0
 11
522.581911
 21
-289.337947
 31
0.0
  0
LINE
  8
0
  6
BYLAYER
 62
     1
 10
462.144167
 20
-143.428157
 30
0.0
 11
506.281740
 21
-187.565730
 31
0.0
  0
ARC
  8
0
  6
BYLAYER
 62
     1
 10
263.581911
 20
-226.918025
 30
0.0
 40
3.0
 50
166.296510
 51
180.000000
  0
ARC
  8
0
  6
BYLAYER
 62
     1
 10
391.581911
 20
-258.127986
 30
0.0
 40
134.749969
 50
148.702944
 51
166.297061
  0
ARC
  8
0
  6
BYLAYER
 62
     1
 10
279.003420
 20
-189.687068
 30
0.0
 40
2.999925
 50
134.999181
 51
148.702780
  0
ARC
  8
0
  6
BYLAYER
 62
     1
 10
391.581911
 20
-258.127986
 30
0.0
 40
134.750061
 50
103.702940
 51
121.297138
  0
ARC
  8
0
  6
BYLAYER
 62
     1
 10
323.140932
 20
-145.549617
 30
0.0
 40
3.000025
 50
121.297603
 51
135.0
  0
ARC
  8
0
  6
BYLAYER
 62
     1
 10
263.581911
 20
-289.337947
 30
0.0
 40
3.000008
 50
180.000000
 51
193.702903
  0
ARC
  8
0
  6
BYLAYER
 62
     1
 10
391.581911
 20
-258.127986
 30
0.0
 40
134.750000
 50
193.702935
 51
211.297093
  0
ARC
  8
0
  6
BYLAYER
 62
     1
 10
279.003481
 20
-326.568904
 30
0.0
 40
3.000025
 50
211.297107
 51
224.999996
  0
ARC
  8
0
  6
BYLAYER
 62
     1
 10
391.581911
 20
-258.127986
 30
0.0
 40
134.749924
 50
238.702954
 51
256.297002
  0
ARC
  8
0
  6
BYLAYER
 62
     1
 10
360.371828
 20
-386.127986
 30
0.0
 40
2.999949
 50
256.296510
 51
270.000001
  0
ARC
  8
0
  6
BYLAYER
 62
     1
 10
422.791933
 20
-386.127986
 30
0.0
 40
3.0
 50
270.0
 51
283.702343
  0
ARC
  8
0
  6
BYLAYER
 62
     1
 10
391.581911
 20
-258.127986
 30
0.0
 40
134.749939
 50
283.702945
 51
301.297075
  0
ARC
  8
0
  6
BYLAYER
 62
     1
 10
460.022829
 20
-370.706355
 30
0.0
 40
3.000009
 50
301.296911
 51
315.000402
  0
ARC
  8
0
  6
BYLAYER
 62
     1
 10
504.160463
 20
-326.568660
 30
0.0
 40
2.999982
 50
314.999582
 51
328.702772
  0
ARC
  8
0
  6
BYLAYER
 62
     1
 10
391.581911
 20
-258.127986
 30
0.0
 40
134.749969
 50
328.70299
 51
346.297066
  0
ARC
  8
0
  6
BYLAYER
 62
     1
 10
519.581911
 20
-289.337947
 30
0.0
 40
2.999979
 50
346.297093
 51
360.000000
  0
ARC
  8
0
  6
BYLAYER
 62
     1
 10
519.581911
 20
-226.918025
 30
0.0
 40
3.000000
 50
0.0
 51
13.703481
  0
ARC
  8
0
  6
BYLAYER
 62
     1
 10
391.581911
 20
-258.127986
 30
0.0
 40
134.750000
 50
13.702938
 51
31.297053
  0
ARC
  8
0
  6
BYLAYER
 62
     1
 10
504.160402
 20
-189.687068
 30
0.0
 40
2.999925
 50
31.297218
 51
45.000824
  0
ARC
  8
0
  6
BYLAYER
 62
     1
 10
391.581911
 20
-258.127986
 30
0.0
 40
134.750092
 50
58.702901
 51
76.297038
  0
CIRCLE
  8
0
  6
BYLAYER
 62
     1
 10
391.581911
 20
-258.127986
 30
0.0
 40
90.000053
  0
ARC
  8
0
  6
BYLAYER
 62
     1
 10
576.357851
 20
-334.664607
 30
0.0
 40
87.5
 50
134.435212
 51
180.564889
  0
ARC
  8
0
  6
BYLAYER
 62
     1
 10
576.357851
 20
-181.591365
 30
0.0
 40
87.500000
 50
202.499864
 51
225.564825
  0
ARC
  8
0
  6
BYLAYER
 62
     1
 10
576.357851
 20
-181.591365
 30
0.0
 40
87.500008
 50
179.435189
 51
202.499864
  0
ARC
  8
0
  6
BYLAYER
 62
     1
 10
371.469412
 20
-113.488207
 30
0.0
 40
4.041492
 50
270.0
 51
316.109984
  0
ARC
  8
0
  6
BYLAYER
 62
     1
 10
371.057371
 20
-113.091830
 30
0.0
 40
4.613237
 50
316.109984
 51
360.000000
  0
ARC
  8
0
  6
BYLAYER
 62
     1
 10
371.057371
 20
-113.091830
 30
0.0
 40
4.613237
 50
0.0
 51
43.890016
  0
ARC
  8
0
  6
BYLAYER
 62
     1
 10
371.469412
 20
-112.695452
 30
0.0
 40
4.041492
 50
43.890016
 51
90.000000
  0
ARC
  8
0
  6
BYLAYER
 62
     1
 10
371.469412
 20
-112.695417
 30
0.0
 40
4.041457
 50
90.0
 51
136.110087
  0
ARC
  8
0
  6
BYLAYER
 62
     1
 10
371.881491
 20
-113.091830
 30
0.0
 40
4.613254
 50
136.110087
 51
180.000000
  0
ARC
  8
0
  6
BYLAYER
 62
     1
 10
371.881491
 20
-113.091830
 30
0.0
 40
4.613254
 50
180.000000
 51
223.889913
  0
ARC
  8
0
  6
BYLAYER
 62
     1
 10
371.469412
 20
-113.488242
 30
0.0
 40
4.041457
 50
223.889913
 51
270.000000
  0
ARC
  8
0
  6
BYLAYER
 62
     1
 10
371.469412
 20
-111.911419
 30
0.0
 40
1.861645
 50
90.0
 51
140.793201
  0
ARC
  8
0
  6
BYLAYER
 62
     1
 10
372.916389
 20
-113.091830
 30
0.0
 40
3.729026
 50
140.793201
 51
180.000000
  0
ARC
  8
0
  6
BYLAYER
 62
     1
 10
372.916366
 20
-113.091830
 30
0.0
 40
3.729004
 50
180.000000
 51
219.206869
  0
ARC
  8
0
  6
BYLAYER
 62
     1
 10
371.469412
 20
-114.272226
 30
0.0
 40
1.861650
 50
219.206869
 51
270.000000
  0
ARC
  8
0
  6
BYLAYER
 62
     1
 10
371.469412
 20
-114.272226
 30
0.0
 40
1.861650
 50
270.0
 51
320.793131
  0
ARC
  8
0
  6
BYLAYER
 62
     1
 10
370.022458
 20
-113.091830
 30
0.0
 40
3.729004
 50
320.793131
 51
360.000000
  0
ARC
  8
0
  6
BYLAYER
 62
     1
 10
370.022436
 20
-113.091830
 30
0.0
 40
3.729026
 50
0.0
 51
39.206799
  0
ARC
  8
0
  6
BYLAYER
 62
     1
 10
371.469412
 20
-111.911419
 30
0.0
 40
1.861645
 50
39.206799
 51
90.0
  0
LINE
  8
0
  6
BYLAYER
 62
     1
 10
357.682437
 20
-117.233831
 30
0.0
 11
357.682437
 21
-108.831460
 31
0.0
  0
LINE
  8
0
  6
BYLAYER
 62
     1
 10
357.682437
 20
-108.831460
 30
0.0
 11
361.098611
 21
-108.831460
 31
0.0
  0
LINE
  8
0
  6
BYLAYER
 62
     1
 10
361.098611
 20
-108.831460
 30
0.0
 11
362.238654
 21
-113.210177
 31
0.0
  0
LINE
  8
0
  6
BYLAYER
 62
     1
 10
357.682437
 20
-117.233831
 30
0.0
 11
359.733731
 21
-117.233831
 31
0.0
  0
LINE
  8
0
  6
BYLAYER
 62
     1
 10
359.733731
 20
-117.233831
 30
0.0
 11
359.733731
 21
-112.381768
 31
0.0
  0
LINE
  8
0
  6
BYLAYER
 62
     1
 10
361.351071
 20
-117.233831
 30
0.0
 11
359.733731
 21
-112.381768
 31
0.0
  0
LINE
  8
0
  6
BYLAYER
 62
     1
 10
366.794870
 20
-117.233831
 30
0.0
 11
366.794870
 21
-108.831460
 31
0.0
  0
LINE
  8
0
  6
BYLAYER
 62
     1
 10
366.794870
 20
-108.831460
 30
0.0
 11
363.378696
 21
-108.831460
 31
0.0
  0
LINE
  8
0
  6
BYLAYER
 62
     1
 10
363.378696
 20
-108.831460
 30
0.0
 11
362.238654
 21
-113.210177
 31
0.0
  0
LINE
  8
0
  6
BYLAYER
 62
     1
 10
366.794870
 20
-117.233831
 30
0.0
 11
364.743576
 21
-117.233831
 31
0.0
  0
LINE
  8
0
  6
BYLAYER
 62
     1
 10
364.743576
 20
-117.233831
 30
0.0
 11
364.743576
 21
-112.381768
 31
0.0
  0
LINE
  8
0
  6
BYLAYER
 62
     1
 10
363.126236
 20
-117.233831
 30
0.0
 11
364.743576
 21
-112.381768
 31
0.0
  0
LINE
  8
0
  6
BYLAYER
 62
     1
 10
363.126236
 20
-117.233831
 30
0.0
 11
361.351071
 21
-117.233831
 31
0.0
  0
LINE
  8
0
  6
BYLAYER
 62
     1
 10
396.854047
 20
-117.233831
 30
0.0
 11
400.049292
 21
-108.831460
 31
0.0
  0
LINE
  8
0
  6
BYLAYER
 62
     1
 10
396.854047
 20
-117.233831
 30
0.0
 11
399.575946
 21
-117.233831
 31
0.0
  0
LINE
  8
0
  6
BYLAYER
 62
     1
 10
400.049292
 20
-108.831460
 30
0.0
 11
402.652844
 21
-108.831460
 31
0.0
  0
LINE
  8
0
  6
BYLAYER
 62
     1
 10
399.575946
 20
-117.233831
 30
0.0
 11
399.979395
 21
-116.050402
 31
0.0
  0
LINE
  8
0
  6
BYLAYER
 62
     1
 10
400.624878
 20
-114.156912
 30
0.0
 11
401.351068
 21
-112.026727
 31
0.0
  0
LINE
  8
0
  6
BYLAYER
 62
     1
 10
405.848133
 20
-117.233831
 30
0.0
 11
402.652844
 21
-108.831460
 31
0.0
  0
LINE
  8
0
  6
BYLAYER
 62
     1
 10
405.848133
 20
-117.233831
 30
0.0
 11
403.126233
 21
-117.233831
 31
0.0
  0
LINE
  8
0
  6
BYLAYER
 62
     1
 10
402.722785
 20
-116.050402
 30
0.0
 11
399.979395
 21
-116.050402
 31
0.0
  0
LINE
  8
0
  6
BYLAYER
 62
     1
 10
402.077258
 20
-114.156912
 30
0.0
 11
400.624878
 21
-114.156912
 31
0.0
  0
LINE
  8
0
  6
BYLAYER
 62
     1
 10
403.126233
 20
-117.233831
 30
0.0
 11
402.722785
 21
-116.050402
 31
0.0
  0
LINE
  8
0
  6
BYLAYER
 62
     1
 10
402.077258
 20
-114.156912
 30
0.0
 11
401.351068
 21
-112.026727
 31
0.0
  0
LINE
  8
0
  6
BYLAYER
 62
     1
 10
375.670609
 20
-110.902471
 30
0.0
 11
378.037467
 21
-110.902471
 31
0.0
  0
LINE
  8
0
  6
BYLAYER
 62
     1
 10
378.037467
 20
-110.902471
 30
0.0
 11
378.037467
 21
-117.233831
 31
0.0
  0
LINE
  8
0
  6
BYLAYER
 62
     1
 10
378.037467
 20
-117.233831
 30
0.0
 11
380.641040
 21
-117.233831
 31
0.0
  0
LINE
  8
0
  6
BYLAYER
 62
     1
 10
380.641040
 20
-117.233831
 30
0.0
 11
380.641040
 21
-110.902471
 31
0.0
  0
LINE
  8
0
  6
BYLAYER
 62
     1
 10
380.641040
 20
-110.902471
 30
0.0
 11
383.007898
 21
-110.902471
 31
0.0
  0
LINE
  8
0
  6
BYLAYER
 62
     1
 10
383.007898
 20
-110.902471
 30
0.0
 11
383.007898
 21
-108.831460
 31
0.0
  0
LINE
  8
0
  6
BYLAYER
 62
     1
 10
383.007898
 20
-108.831460
 30
0.0
 11
375.670609
 21
-108.831460
 31
0.0
  0
LINE
  8
0
  6
BYLAYER
 62
     1
 10
375.670609
 20
-108.831460
 30
0.0
 11
375.670609
 21
-110.902471
 31
0.0
  0
ARC
  8
0
  6
BYLAYER
 62
     1
 10
387.209073
 20
-113.488242
 30
0.0
 40
4.041457
 50
270.0
 51
316.110087
  0
ARC
  8
0
  6
BYLAYER
 62
     1
 10
386.796994
 20
-113.091830
 30
0.0
 40
4.613254
 50
316.110087
 51
360.0
  0
ARC
  8
0
  6
BYLAYER
 62
     1
 10
386.797011
 20
-113.091830
 30
0.0
 40
4.613237
 50
0.0
 51
43.890016
  0
ARC
  8
0
  6
BYLAYER
 62
     1
 10
387.209052
 20
-112.695452
 30
0.0
 40
4.041492
 50
43.890016
 51
90.0
  0
ARC
  8
0
  6
BYLAYER
 62
     1
 10
387.209052
 20
-112.695417
 30
0.0
 40
4.041457
 50
90.0
 51
136.110087
  0
ARC
  8
0
  6
BYLAYER
 62
     1
 10
387.621130
 20
-113.091830
 30
0.0
 40
4.613254
 50
136.110087
 51
180.000000
  0
ARC
  8
0
  6
BYLAYER
 62
     1
 10
387.621114
 20
-113.091830
 30
0.0
 40
4.613237
 50
180.000000
 51
223.890016
  0
ARC
  8
0
  6
BYLAYER
 62
     1
 10
387.209073
 20
-113.488207
 30
0.0
 40
4.041492
 50
223.890016
 51
270.000000
  0
ARC
  8
0
  6
BYLAYER
 62
     1
 10
387.209052
 20
-111.911419
 30
0.0
 40
1.861645
 50
90.0
 51
140.793201
  0
ARC
  8
0
  6
BYLAYER
 62
     1
 10
388.656028
 20
-113.091830
 30
0.0
 40
3.729026
 50
140.793201
 51
180.000000
  0
ARC
  8
0
  6
BYLAYER
 62
     1
 10
388.655981
 20
-113.091830
 30
0.0
 40
3.728979
 50
180.000000
 51
219.207055
  0
ARC
  8
0
  6
BYLAYER
 62
     1
 10
387.209073
 20
-114.272196
 30
0.0
 40
1.861680
 50
219.207055
 51
270.000000
  0
ARC
  8
0
  6
BYLAYER
 62
     1
 10
387.209073
 20
-114.272226
 30
0.0
 40
1.861650
 50
270.0
 51
320.793131
  0
ARC
  8
0
  6
BYLAYER
 62
     1
 10
385.762119
 20
-113.091830
 30
0.0
 40
3.729004
 50
320.793131
 51
360.0
  0
ARC
  8
0
  6
BYLAYER
 62
     1
 10
385.762121
 20
-113.091830
 30
0.0
 40
3.729001
 50
0.0
 51
39.206985
  0
ARC
  8
0
  6
BYLAYER
 62
     1
 10
387.209052
 20
-111.911449
 30
0.0
 40
1.861675
 50
39.206985
 51
90.000000
  0
LINE
  8
0
  6
BYLAYER
 62
     1
 10
406.074915
 20
-117.233831
 30
0.0
 11
406.074915
 21
-108.831460
 31
0.0
  0
LINE
  8
0
  6
BYLAYER
 62
     1
 10
406.074915
 20
-108.831460
 30
0.0
 11
411.281998
 21
-108.831460
 31
0.0
  0
ARC
  8
0
  6
BYLAYER
 62
     1
 10
411.281998
 20
-111.198339
 30
0.0
 40
2.366854
 50
287.134650
 51
450.000006
  0
ARC
  8
0
  6
BYLAYER
 62
     1
 10
411.755387
 20
-115.340341
 30
0.0
 40
1.893491
 50
0.0
 51
83.207557
  0
LINE
  8
0
  6
BYLAYER
 62
     1
 10
413.648877
 20
-115.340341
 30
0.0
 11
413.648877
 21
-116.523770
 31
0.0
  0
ARC
  8
0
  6
BYLAYER
 62
     1
 10
415.542368
 20
-116.523770
 30
0.0
 40
1.893491
 50
180.000000
 51
202.024314
  0
LINE
  8
0
  6
BYLAYER
 62
     1
 10
411.183496
 20
-117.233831
 30
0.0
 11
413.787049
 21
-117.233831
 31
0.0
  0
ARC
  8
0
  6
BYLAYER
 62
     1
 10
412.938816
 20
-116.523770
 30
0.0
 40
1.893491
 50
180.000000
 51
202.024314
  0
LINE
  8
0
  6
BYLAYER
 62
     1
 10
411.045325
 20
-116.523770
 30
0.0
 11
411.045325
 21
-115.577035
 31
0.0
  0
LINE
  8
0
  6
BYLAYER
 62
     1
 10
406.074915
 20
-117.233831
 30
0.0
 11
408.560120
 21
-117.233831
 31
0.0
  0
LINE
  8
0
  6
BYLAYER
 62
     1
 10
408.560120
 20
-117.233831
 30
0.0
 11
408.560120
 21
-114.393606
 31
0.0
  0
LINE
  8
0
  6
BYLAYER
 62
     1
 10
409.861896
 20
-114.393606
 30
0.0
 11
408.560120
 21
-114.393606
 31
0.0
  0
ARC
  8
0
  6
BYLAYER
 62
     1
 10
409.861896
 20
-115.577035
 30
0.0
 40
1.183429
 50
0.0
 51
90.000003
  0
LINE
  8
0
  6
BYLAYER
 62
     1
 10
408.560120
 20
-112.500115
 30
0.0
 11
408.560120
 21
-110.724951
 31
0.0
  0
LINE
  8
0
  6
BYLAYER
 62
     1
 10
408.560120
 20
-110.724951
 30
0.0
 11
410.216916
 21
-110.724951
 31
0.0
  0
LINE
  8
0
  6
BYLAYER
 62
     1
 10
408.560120
 20
-112.500115
 30
0.0
 11
410.216916
 21
-112.500115
 31
0.0
  0
ARC
  8
0
  6
BYLAYER
 62
     1
 10
410.216916
 20
-111.612533
 30
0.0
 40
0.887582
 50
270.0
 51
450.000005
  0
LINE
  8
0
  6
BYLAYER
 62
     1
 10
394.783057
 20
-114.576916
 30
0.0
 11
393.244586
 21
-108.831460
 31
0.0
  0
LINE
  8
0
  6
BYLAYER
 62
     1
 10
393.244586
 20
-108.831460
 30
0.0
 11
390.759381
 21
-108.831460
 31
0.0
  0
LINE
  8
0
  6
BYLAYER
 62
     1
 10
390.759381
 20
-108.831460
 30
0.0
 11
393.362933
 21
-117.233831
 31
0.0
  0
LINE
  8
0
  6
BYLAYER
 62
     1
 10
394.783057
 20
-114.576916
 30
0.0
 11
396.321485
 21
-108.831460
 31
0.0
  0
LINE
  8
0
  6
BYLAYER
 62
     1
 10
396.321485
 20
-108.831460
 30
0.0
 11
398.806690
 21
-108.831460
 31
0.0
  0
LINE
  8
0
  6
BYLAYER
 62
     1
 10
398.806690
 20
-108.831460
 30
0.0
 11
396.203137
 21
-117.233831
 31
0.0
  0
LINE
  8
0
  6
BYLAYER
 62
     1
 10
396.203137
 20
-117.233831
 30
0.0
 11
393.362933
 21
-117.233831
 31
0.0
  0
LINE
  8
0
  6
BYLAYER
 62
     1
 10
414.013831
 20
-117.233831
 30
0.0
 11
416.499036
 21
-117.233831
 31
0.0
  0
LINE
  8
0
  6
BYLAYER
 62
     1
 10
416.499036
 20
-117.233831
 30
0.0
 11
416.499036
 21
-108.831460
 31
0.0
  0
LINE
  8
0
  6
BYLAYER
 62
     1
 10
416.499036
 20
-108.831460
 30
0.0
 11
414.013831
 21
-108.831460
 31
0.0
  0
LINE
  8
0
  6
BYLAYER
 62
     1
 10
414.013831
 20
-108.831460
 30
0.0
 11
414.013831
 21
-117.233831
 31
0.0
  0
ARC
  8
0
  6
BYLAYER
 62
     1
 10
421.173600
 20
-113.488242
 30
0.0
 40
4.041457
 50
270.0
 51
316.110087
  0
ARC
  8
0
  6
BYLAYER
 62
     1
 10
420.761521
 20
-113.091830
 30
0.0
 40
4.613254
 50
316.110087
 51
360.0
  0
ARC
  8
0
  6
BYLAYER
 62
     1
 10
420.761521
 20
-113.091830
 30
0.0
 40
4.613254
 50
0.0
 51
43.889913
  0
ARC
  8
0
  6
BYLAYER
 62
     1
 10
421.173600
 20
-112.695417
 30
0.0
 40
4.041457
 50
43.889913
 51
90.0
  0
ARC
  8
0
  6
BYLAYER
 62
     1
 10
421.173600
 20
-112.695417
 30
0.0
 40
4.041457
 50
90.0
 51
136.110087
  0
ARC
  8
0
  6
BYLAYER
 62
     1
 10
421.585678
 20
-113.091830
 30
0.0
 40
4.613254
 50
136.110087
 51
180.000000
  0
ARC
  8
0
  6
BYLAYER
 62
     1
 10
421.585678
 20
-113.091830
 30
0.0
 40
4.613254
 50
180.000000
 51
223.889913
  0
ARC
  8
0
  6
BYLAYER
 62
     1
 10
421.173600
 20
-113.488242
 30
0.0
 40
4.041457
 50
223.889913
 51
270.0
  0
ARC
  8
0
  6
BYLAYER
 62
     1
 10
421.173600
 20
-111.911419
 30
0.0
 40
1.861645
 50
39.206799
 51
90.000000
  0
ARC
  8
0
  6
BYLAYER
 62
     1
 10
419.726623
 20
-113.091830
 30
0.0
 40
3.729026
 50
0.0
 51
39.206799
  0
ARC
  8
0
  6
BYLAYER
 62
     1
 10
419.726645
 20
-113.091830
 30
0.0
 40
3.729004
 50
320.793131
 51
360.000000
  0
ARC
  8
0
  6
BYLAYER
 62
     1
 10
421.173600
 20
-114.272226
 30
0.0
 40
1.861650
 50
270.0
 51
320.793131
  0
ARC
  8
0
  6
BYLAYER
 62
     1
 10
421.173600
 20
-114.272226
 30
0.0
 40
1.861650
 50
219.206869
 51
270.000000
  0
ARC
  8
0
  6
BYLAYER
 62
     1
 10
422.620554
 20
-113.091830
 30
0.0
 40
3.729004
 50
180.000000
 51
219.206869
  0
ARC
  8
0
  6
BYLAYER
 62
     1
 10
422.620576
 20
-113.091830
 30
0.0
 40
3.729026
 50
140.793201
 51
180.000000
  0
ARC
  8
0
  6
BYLAYER
 62
     1
 10
421.173600
 20
-111.911419
 30
0.0
 40
1.861645
 50
90.0
 51
140.793201
  0
ARC
  8
0
  6
BYLAYER
 62
     1
 10
379.212991
 20
-99.212441
 30
0.0
 40
10.401993
 50
174.535650
 51
180.000000
  0
LINE
  8
0
  6
BYLAYER
 62
     1
 10
368.858266
 20
-98.221893
 30
0.0
 11
368.858266
 21
-98.221882
 31
0.0
  0
LINE
  8
0
  6
BYLAYER
 62
     1
 10
368.869585
 20
-98.109990
 30
0.0
 11
369.862328
 21
-97.692030
 31
0.0
  0
ARC
  8
0
  6
BYLAYER
 62
     1
 10
379.213034
 20
-99.212527
 30
0.0
 40
9.473494
 50
159.235383
 51
170.763998
  0
LINE
  8
0
  6
BYLAYER
 62
     1
 10
370.354850
 20
-95.853836
 30
0.0
 11
369.704131
 21
-94.995477
 31
0.0
  0
ARC
  8
0
  6
BYLAYER
 62
     1
 10
379.212991
 20
-99.212441
 30
0.0
 40
10.401981
 50
144.139514
 51
156.083795
  0
LINE
  8
0
  6
BYLAYER
 62
     1
 10
370.714340
 20
-93.214568
 30
0.0
 11
370.714960
 21
-93.213693
 31
0.0
  0
LINE
  8
0
  6
BYLAYER
 62
     1
 10
370.782749
 20
-93.118820
 30
0.0
 11
371.839644
 21
-93.264230
 31
0.0
  0
ARC
  8
0
  6
BYLAYER
 62
     1
 10
379.212991
 20
-99.212441
 30
0.0
 40
9.473437
 50
129.235643
 51
141.105976
  0
LINE
  8
0
  6
BYLAYER
 62
     1
 10
373.066031
 20
-92.004041
 30
0.0
 11
373.067056
 21
-92.003155
 31
0.0
  0
LINE
  8
0
  6
BYLAYER
 62
     1
 10
373.220936
 20
-91.874780
 30
0.0
 11
373.086545
 21
-90.806010
 31
0.0
  0
ARC
  8
0
  6
BYLAYER
 62
     1
 10
379.212991
 20
-99.212441
 30
0.0
 40
10.401992
 50
114.139607
 51
126.083853
  0
LINE
  8
0
  6
BYLAYER
 62
     1
 10
374.852625
 20
-89.768466
 30
0.0
 11
374.853330
 21
-89.768134
 31
0.0
  0
LINE
  8
0
  6
BYLAYER
 62
     1
 10
374.958979
 20
-89.720086
 30
0.0
 11
375.801539
 21
-90.374438
 31
0.0
  0
LINE
  8
0
  6
BYLAYER
 62
     1
 10
375.994183
 20
-90.302587
 30
0.0
 11
375.995252
 21
-90.302213
 31
0.0
  0
ARC
  8
0
  6
BYLAYER
 62
     1
 10
379.212991
 20
-99.212441
 30
0.0
 40
9.473434
 50
99.235601
 51
111.106038
  0
ARC
  8
0
  6
BYLAYER
 62
     1
 10
379.212991
 20
-99.212441
 30
0.0
 40
10.401993
 50
90.0
 51
96.083892
  0
LINE
  8
0
  6
BYLAYER
 62
     1
 10
378.110541
 20
-88.869035
 30
0.0
 11
377.692557
 21
-89.861814
 31
0.0
  0
LINE
  8
0
  6
BYLAYER
 62
     1
 10
389.567706
 20
-98.221893
 30
0.0
 11
389.567706
 21
-98.221882
 31
0.0
  0
LINE
  8
0
  6
BYLAYER
 62
     1
 10
389.556398
 20
-98.109988
 30
0.0
 11
388.563604
 21
-97.692020
 31
0.0
  0
ARC
  8
0
  6
BYLAYER
 62
     1
 10
379.212927
 20
-99.212527
 30
0.0
 40
9.473494
 50
9.235986
 51
20.764650
  0
LINE
  8
0
  6
BYLAYER
 62
     1
 10
388.071181
 20
-95.853737
 30
0.0
 11
388.721853
 21
-94.995479
 31
0.0
  0
ARC
  8
0
  6
BYLAYER
 62
     1
 10
379.212991
 20
-99.212441
 30
0.0
 40
10.401981
 50
23.916189
 51
35.860484
  0
LINE
  8
0
  6
BYLAYER
 62
     1
 10
387.711621
 20
-93.214568
 30
0.0
 11
387.711002
 21
-93.213693
 31
0.0
  0
LINE
  8
0
  6
BYLAYER
 62
     1
 10
387.643234
 20
-93.118820
 30
0.0
 11
386.586413
 21
-93.264216
 31
0.0
  0
ARC
  8
0
  6
BYLAYER
 62
     1
 10
379.212991
 20
-99.212441
 30
0.0
 40
9.473437
 50
38.894050
 51
50.764315
  0
LINE
  8
0
  6
BYLAYER
 62
     1
 10
385.359952
 20
-92.004041
 30
0.0
 11
385.358926
 21
-92.003155
 31
0.0
  0
LINE
  8
0
  6
BYLAYER
 62
     1
 10
385.205075
 20
-91.874608
 30
0.0
 11
385.339416
 21
-90.805994
 31
0.0
  0
ARC
  8
0
  6
BYLAYER
 62
     1
 10
379.212991
 20
-99.212441
 30
0.0
 40
10.401992
 50
53.916300
 51
65.860381
  0
LINE
  8
0
  6
BYLAYER
 62
     1
 10
383.573358
 20
-89.768466
 30
0.0
 11
383.572632
 21
-89.768134
 31
0.0
  0
LINE
  8
0
  6
BYLAYER
 62
     1
 10
383.467006
 20
-89.720087
 30
0.0
 11
382.624454
 21
-90.374409
 31
0.0
  0
LINE
  8
0
  6
BYLAYER
 62
     1
 10
382.431778
 20
-90.302587
 30
0.0
 11
382.430731
 21
-90.302213
 31
0.0
  0
ARC
  8
0
  6
BYLAYER
 62
     1
 10
379.212991
 20
-99.212441
 30
0.0
 40
9.473434
 50
68.894081
 51
80.764578
  0
ARC
  8
0
  6
BYLAYER
 62
     1
 10
379.212991
 20
-99.212441
 30
0.0
 40
10.401993
 50
84.535428
 51
90.000003
  0
LINE
  8
0
  6
BYLAYER
 62
     1
 10
380.315445
 20
-88.869035
 30
0.0
 11
380.733327
 21
-89.861645
 31
0.0
  0
ARC
  8
0
  6
BYLAYER
 62
     1
 10
379.212991
 20
-99.212441
 30
0.0
 40
10.401993
 50
180.000000
 51
186.083899
  0
LINE
  8
0
  6
BYLAYER
 62
     1
 10
368.858266
 20
-100.202979
 30
0.0
 11
368.858266
 21
-100.203001
 31
0.0
  0
LINE
  8
0
  6
BYLAYER
 62
     1
 10
368.869585
 20
-100.314893
 30
0.0
 11
369.862358
 21
-100.732865
 31
0.0
  0
ARC
  8
0
  6
BYLAYER
 62
     1
 10
379.213034
 20
-99.212356
 30
0.0
 40
9.473494
 50
189.236002
 51
200.764629
  0
LINE
  8
0
  6
BYLAYER
 62
     1
 10
370.354884
 20
-102.571004
 30
0.0
 11
369.704128
 21
-103.429398
 31
0.0
  0
ARC
  8
0
  6
BYLAYER
 62
     1
 10
379.212991
 20
-99.212441
 30
0.0
 40
10.401981
 50
203.916158
 51
215.860410
  0
LINE
  8
0
  6
BYLAYER
 62
     1
 10
370.714340
 20
-105.210304
 30
0.0
 11
370.714960
 21
-105.211180
 31
0.0
  0
LINE
  8
0
  6
BYLAYER
 62
     1
 10
370.782741
 20
-105.306052
 30
0.0
 11
371.839736
 21
-105.160644
 31
0.0
  0
ARC
  8
0
  6
BYLAYER
 62
     1
 10
379.212991
 20
-99.212441
 30
0.0
 40
9.473437
 50
218.894045
 51
230.764345
  0
LINE
  8
0
  6
BYLAYER
 62
     1
 10
373.066031
 20
-106.420831
 30
0.0
 11
373.067056
 21
-106.421717
 31
0.0
  0
LINE
  8
0
  6
BYLAYER
 62
     1
 10
373.220934
 20
-106.550102
 30
0.0
 11
373.086545
 21
-107.618873
 31
0.0
  0
ARC
  8
0
  6
BYLAYER
 62
     1
 10
379.212991
 20
-99.212441
 30
0.0
 40
10.401992
 50
233.916148
 51
245.860401
  0
LINE
  8
0
  6
BYLAYER
 62
     1
 10
374.852625
 20
-108.656407
 30
0.0
 11
374.853330
 21
-108.656748
 31
0.0
  0
LINE
  8
0
  6
BYLAYER
 62
     1
 10
374.958980
 20
-108.704797
 30
0.0
 11
375.801639
 21
-108.050353
 31
0.0
  0
LINE
  8
0
  6
BYLAYER
 62
     1
 10
375.994183
 20
-108.122285
 30
0.0
 11
375.995252
 21
-108.122669
 31
0.0
  0
LINE
  8
0
  6
BYLAYER
 62
     1
 10
389.567706
 20
-100.202979
 30
0.0
 11
389.567706
 21
-100.203001
 31
0.0
  0
LINE
  8
0
  6
BYLAYER
 62
     1
 10
389.556397
 20
-100.314895
 30
0.0
 11
388.563604
 21
-100.732863
 31
0.0
  0
LINE
  8
0
  6
BYLAYER
 62
     1
 10
388.071090
 20
-102.571028
 30
0.0
 11
388.721863
 21
-103.429405
 31
0.0
  0
LINE
  8
0
  6
BYLAYER
 62
     1
 10
387.711621
 20
-105.210304
 30
0.0
 11
387.711002
 21
-105.211180
 31
0.0
  0
LINE
  8
0
  6
BYLAYER
 62
     1
 10
387.643254
 20
-105.306053
 30
0.0
 11
386.586190
 21
-105.160640
 31
0.0
  0
LINE
  8
0
  6
BYLAYER
 62
     1
 10
385.359952
 20
-106.420831
 30
0.0
 11
385.358926
 21
-106.421717
 31
0.0
  0
LINE
  8
0
  6
BYLAYER
 62
     1
 10
385.205054
 20
-106.550098
 30
0.0
 11
385.339416
 21
-107.618889
 31
0.0
  0
LINE
  8
0
  6
BYLAYER
 62
     1
 10
383.467005
 20
-108.704796
 30
0.0
 11
382.624325
 21
-108.050360
 31
0.0
  0
ARC
  8
0
  6
BYLAYER
 62
     1
 10
379.212991
 20
-99.212441
 30
0.0
 40
9.473437
 50
309.235697
 51
321.105929
  0
ARC
  8
0
  6
BYLAYER
 62
     1
 10
379.212991
 20
-99.212441
 30
0.0
 40
9.473434
 50
248.893873
 51
270.000000
  0
ARC
  8
0
  6
BYLAYER
 62
     1
 10
379.212991
 20
-99.212441
 30
0.0
 40
10.401992
 50
294.783232
 51
306.083699
  0
LINE
  8
0
  6
BYLAYER
 62
     1
 10
383.572632
 20
-108.656748
 30
0.0
 11
383.467646
 21
-108.706153
 31
0.0
  0
ARC
  8
0
  6
BYLAYER
 62
     1
 10
379.212991
 20
-99.212441
 30
0.0
 40
10.401981
 50
324.139593
 51
336.083825
  0
ARC
  8
0
  6
BYLAYER
 62
     1
 10
379.212927
 20
-99.212356
 30
0.0
 40
9.473494
 50
339.235210
 51
350.764014
  0
ARC
  8
0
  6
BYLAYER
 62
     1
 10
379.212991
 20
-99.212441
 30
0.0
 40
10.401993
 50
353.916089
 51
360.0
  0
ARC
  8
0
  6
BYLAYER
 62
     1
 10
379.212991
 20
-99.212441
 30
0.0
 40
10.401993
 50
0.0
 51
6.083907
  0
ARC
  8
0
  6
BYLAYER
 62
     1
 10
379.212991
 20
-99.212441
 30
0.0
 40
9.473434
 50
270.0
 51
291.106008
  0
CIRCLE
  8
0
  6
BYLAYER
 62
     1
 10
379.212991
 20
-99.212441
 30
0.0
 40
5.082113
  0
CIRCLE
  8
0
  6
BYLAYER
 62
     1
 10
379.212991
 20
-99.212441
 30
0.0
 40
7.414445
  0
LINE
  8
0
  6
BYLAYER
 62
     1
 10
250.846987
 20
-143.411250
 30
0.0
 11
249.581972
 21
-182.763362
 31
0.0
  0
LINE
  8
0
  6
BYLAYER
 62
     1
 10
532.324006
 20
-143.346126
 30
0.0
 11
533.581887
 21
-185.132076
 31
0.0
  0
LINE
  8
0
  6
BYLAYER
 62
     1
 10
391.581911
 20
-258.127986
 30
0.0
 11
398.581911
 21
-258.127986
 31
0.0
  0
LINE
  8
0
  6
BYLAYER
 62
     1
 10
391.581911
 20
-258.127986
 30
0.0
 11
391.581911
 21
-251.127986
 31
0.0
  0
LINE
  8
0
  6
BYLAYER
 62
     1
 10
391.581911
 20
-258.127986
 30
0.0
 11
391.581911
 21
-265.127986
 31
0.0
  0
LINE
  8
0
  6
BYLAYER
 62
     1
 10
391.581911
 20
-258.127986
 30
0.0
 11
384.581911
 21
-258.127986
 31
0.0
  0
LINE
  8
0
  6
BYLAYER
 62
     1
 10
1187.581911
 20
-788.127681
 30
0.0
 11
1186.581911
 21
-789.127681
 31
0.0
  0
LINE
  8
0
  6
BYLAYER
 62
     1
 10
1187.581911
 20
-968.127711
 30
0.0
 11
1186.581911
 21
-967.127711
 31
0.0
  0
LINE
  8
0
  6
BYLAYER
 62
     1
 10
1190.581911
 20
-788.127681
 30
0.0
 11
1187.581911
 21
-788.127681
 31
0.0
  0
LINE
  8
0
  6
BYLAYER
 62
     1
 10
1190.581911
 20
-968.127711
 30
0.0
 11
1187.581911
 21
-968.127711
 31
0.0
  0
LINE
  8
0
  6
BYLAYER
 62
     1
 10
1186.581911
 20
-789.127681
 30
0.0
 11
1186.581911
 21
-967.127711
 31
0.0
  0
LINE
  8
0
  6
BYLAYER
 62
     1
 10
1349.081911
 20
-1025.628017
 30
0.0
 11
1194.081911
 21
-1025.628017
 31
0.0
  0
LINE
  8
0
  6
BYLAYER
 62
     1
 10
1349.081911
 20
-690.628047
 30
0.0
 11
1194.081911
 21
-690.628047
 31
0.0
  0
ARC
  8
0
  6
BYLAYER
 62
     1
 10
1346.081911
 20
-959.370631
 30
0.0
 40
3.000046
 50
0.0
 51
44.999609
  0
ARC
  8
0
  6
BYLAYER
 62
     1
 10
1346.081911
 20
-756.885371
 30
0.0
 40
2.999982
 50
315.000402
 51
359.999983
  0
LINE
  8
0
  6
BYLAYER
 62
     1
 10
1349.081911
 20
-690.628047
 30
0.0
 11
1349.081911
 21
-756.885371
 31
0.0
  0
LINE
  8
0
  6
BYLAYER
 62
     1
 10
1349.081911
 20
-959.370631
 30
0.0
 11
1349.081911
 21
-1025.628017
 31
0.0
  0
ARC
  8
0
  6
BYLAYER
 62
     1
 10
1197.081911
 20
-756.885371
 30
0.0
 40
2.999982
 50
180.000000
 51
224.999581
  0
ARC
  8
0
  6
BYLAYER
 62
     1
 10
1197.081911
 20
-959.370631
 30
0.0
 40
3.000046
 50
135.000410
 51
180.000019
  0
LINE
  8
0
  6
BYLAYER
 62
     1
 10
1194.081911
 20
-690.628047
 30
0.0
 11
1194.081911
 21
-756.885371
 31
0.0
  0
LINE
  8
0
  6
BYLAYER
 62
     1
 10
1194.081911
 20
-1025.628017
 30
0.0
 11
1194.081911
 21
-959.370631
 31
0.0
  0
LINE
  8
0
  6
BYLAYER
 62
     1
 10
1194.081911
 20
-1003.311183
 30
0.0
 11
1190.581911
 21
-1003.127711
 31
0.0
  0
LINE
  8
0
  6
BYLAYER
 62
     1
 10
1190.581911
 20
-753.127681
 30
0.0
 11
1194.081911
 21
-752.944270
 31
0.0
  0
LINE
  8
0
  6
BYLAYER
 62
     1
 10
1190.581911
 20
-1003.127711
 30
0.0
 11
1190.581911
 21
-753.127681
 31
0.0
  0
CIRCLE
  8
0
  6
BYLAYER
 62
     1
 10
1331.581911
 20
-978.127711
 30
0.0
 40
8.0
  0
CIRCLE
  8
0
  6
BYLAYER
 62
     1
 10
1211.581911
 20
-978.127711
 30
0.0
 40
8.0
  0
CIRCLE
  8
0
  6
BYLAYER
 62
     1
 10
1271.581911
 20
-748.127681
 30
0.0
 40
36.0
  0
ARC
  8
0
  6
BYLAYER
 62
     1
 10
1323.297121
 20
-765.326167
 30
0.0
 40
3.000034
 50
93.000095
 51
161.604953
  0
ARC
  8
0
  6
BYLAYER
 62
     1
 10
1219.866701
 20
-765.326167
 30
0.0
 40
3.000024
 50
18.395045
 51
86.999903
  0
LINE
  8
0
  6
BYLAYER
 62
     1
 10
1194.358034
 20
-758.142512
 30
0.0
 11
1219.151247
 21
-759.441890
 31
0.0
  0
ARC
  8
0
  6
BYLAYER
 62
     1
 10
1218.994142
 20
-762.437739
 30
0.0
 40
2.999963
 50
15.222620
 51
86.999903
  0
ARC
  8
0
  6
BYLAYER
 62
     1
 10
1271.581911
 20
-748.127681
 30
0.0
 40
51.500031
 50
195.222584
 51
344.777403
  0
LINE
  8
0
  6
BYLAYER
 62
     1
 10
1348.805788
 20
-758.142512
 30
0.0
 11
1324.012575
 21
-759.441890
 31
0.0
  0
ARC
  8
0
  6
BYLAYER
 62
     1
 10
1324.169680
 20
-762.437739
 30
0.0
 40
2.999979
 50
93.000095
 51
164.777385
  0
CIRCLE
  8
0
  6
BYLAYER
 62
     1
 10
1211.581911
 20
-738.127315
 30
0.0
 40
8.0
  0
CIRCLE
  8
0
  6
BYLAYER
 62
     1
 10
1331.581911
 20
-738.127315
 30
0.0
 40
8.0
  0
ARC
  8
0
  6
BYLAYER
 62
     1
 10
1281.581911
 20
-819.779231
 30
0.0
 40
3.000000
 50
180.000000
 51
267.032019
  0
ARC
  8
0
  6
BYLAYER
 62
     1
 10
1281.581911
 20
-905.779231
 30
0.0
 40
3.000000
 50
180.000000
 51
267.032019
  0
ARC
  8
0
  6
BYLAYER
 62
     1
 10
1281.581911
 20
-948.743587
 30
0.0
 40
3.000021
 50
180.000000
 51
267.000491
  0
ARC
  8
0
  6
BYLAYER
 62
     1
 10
1261.581911
 20
-819.779231
 30
0.0
 40
3.0
 50
272.968008
 51
360.0
  0
LINE
  8
0
  6
BYLAYER
 62
     1
 10
1264.581911
 20
-893.476131
 30
0.0
 11
1264.581911
 21
-905.779231
 31
0.0
  0
ARC
  8
0
  6
BYLAYER
 62
     1
 10
1261.581911
 20
-905.779231
 30
0.0
 40
3.000000
 50
272.968008
 51
360.000000
  0
ARC
  8
0
  6
BYLAYER
 62
     1
 10
1261.581911
 20
-936.476161
 30
0.0
 40
3.0
 50
0.0
 51
87.032033
  0
LINE
  8
0
  6
BYLAYER
 62
     1
 10
1264.581911
 20
-948.743587
 30
0.0
 11
1264.581911
 21
-936.476161
 31
0.0
  0
ARC
  8
0
  6
BYLAYER
 62
     1
 10
1261.581911
 20
-948.743587
 30
0.0
 40
3.000021
 50
272.999519
 51
359.999983
  0
LINE
  8
0
  6
BYLAYER
 62
     1
 10
1264.581911
 20
-819.779231
 30
0.0
 11
1264.581911
 21
-807.476131
 31
0.0
  0
ARC
  8
0
  6
BYLAYER
 62
     1
 10
1261.581911
 20
-807.476131
 30
0.0
 40
2.999996
 50
0.0
 51
87.031998
  0
ARC
  8
0
  6
BYLAYER
 62
     1
 10
1226.399172
 20
-778.603450
 30
0.0
 40
3.000057
 50
272.967964
 51
393.999804
  0
ARC
  8
0
  6
BYLAYER
 62
     1
 10
1316.764528
 20
-778.603450
 30
0.0
 40
3.000054
 50
146.000198
 51
267.032038
  0
ARC
  8
0
  6
BYLAYER
 62
     1
 10
1281.581911
 20
-807.476131
 30
0.0
 40
2.999996
 50
92.968000
 51
180.000005
  0
LINE
  8
0
  6
BYLAYER
 62
     1
 10
1278.581911
 20
-819.779231
 30
0.0
 11
1278.581911
 21
-807.476131
 31
0.0
  0
LINE
  8
0
  6
BYLAYER
 62
     1
 10
1278.581911
 20
-893.476069
 30
0.0
 11
1278.581911
 21
-905.779231
 31
0.0
  0
ARC
  8
0
  6
BYLAYER
 62
     1
 10
1319.581911
 20
-934.505794
 30
0.0
 40
3.000000
 50
92.967995
 51
180.000000
  0
LINE
  8
0
  6
BYLAYER
 62
     1
 10
1316.581911
 20
-934.505794
 30
0.0
 11
1316.581911
 21
-937.280788
 31
0.0
  0
ARC
  8
0
  6
BYLAYER
 62
     1
 10
1313.581911
 20
-937.280788
 30
0.0
 40
3.0
 50
272.999516
 51
360.000000
  0
LINE
  8
0
  6
BYLAYER
 62
     1
 10
1313.738893
 20
-940.276668
 30
0.0
 11
1281.424929
 21
-941.970180
 31
0.0
  0
LINE
  8
0
  6
BYLAYER
 62
     1
 10
1278.581911
 20
-948.743587
 30
0.0
 11
1278.581911
 21
-944.966060
 31
0.0
  0
ARC
  8
0
  6
BYLAYER
 62
     1
 10
1281.581911
 20
-944.966060
 30
0.0
 40
2.999993
 50
93.000108
 51
180.000005
  0
LINE
  8
0
  6
BYLAYER
 62
     1
 10
1264.581911
 20
-862.779231
 30
0.0
 11
1264.581911
 21
-850.476131
 31
0.0
  0
ARC
  8
0
  6
BYLAYER
 62
     1
 10
1261.581911
 20
-850.476131
 30
0.0
 40
3.000057
 50
0.0
 51
87.03206
  0
LINE
  8
0
  6
BYLAYER
 62
     1
 10
1278.581911
 20
-862.779170
 30
0.0
 11
1278.581911
 21
-850.476131
 31
0.0
  0
ARC
  8
0
  6
BYLAYER
 62
     1
 10
1281.581911
 20
-850.476131
 30
0.0
 40
3.0
 50
92.967933
 51
180.000000
  0
LINE
  8
0
  6
BYLAYER
 62
     1
 10
1194.960573
 20
-957.249263
 30
0.0
 11
1203.703249
 21
-948.506618
 31
0.0
  0
LINE
  8
0
  6
BYLAYER
 62
     1
 10
1194.960573
 20
-759.006648
 30
0.0
 11
1203.703249
 21
-767.749385
 31
0.0
  0
ARC
  8
0
  6
BYLAYER
 62
     1
 10
1201.581911
 20
-769.870662
 30
0.0
 40
3.000000
 50
0.0
 51
44.999848
  0
LINE
  8
0
  6
BYLAYER
 62
     1
 10
1339.460573
 20
-767.749690
 30
0.0
 11
1348.203249
 21
-759.006648
 31
0.0
  0
ARC
  8
0
  6
BYLAYER
 62
     1
 10
1341.581911
 20
-769.870967
 30
0.0
 40
3.000000
 50
135.001216
 51
179.999998
  0
LINE
  8
0
  6
BYLAYER
 62
     1
 10
1348.203249
 20
-957.249263
 30
0.0
 11
1339.460573
 21
-948.506618
 31
0.0
  0
LINE
  8
0
  6
BYLAYER
 62
     1
 10
1226.554567
 20
-781.599483
 30
0.0
 11
1207.426638
 21
-782.591243
 31
0.0
  0
ARC
  8
0
  6
BYLAYER
 62
     1
 10
1207.581911
 20
-785.587276
 30
0.0
 40
3.0
 50
92.968136
 51
179.999998
  0
LINE
  8
0
  6
BYLAYER
 62
     1
 10
1261.737184
 20
-804.480159
 30
0.0
 11
1207.426638
 21
-801.664119
 31
0.0
  0
ARC
  8
0
  6
BYLAYER
 62
     1
 10
1207.581911
 20
-798.668147
 30
0.0
 40
3.000000
 50
180.000000
 51
267.031814
  0
LINE
  8
0
  6
BYLAYER
 62
     1
 10
1261.737307
 20
-822.775203
 30
0.0
 11
1207.426638
 21
-825.591243
 31
0.0
  0
ARC
  8
0
  6
BYLAYER
 62
     1
 10
1207.581911
 20
-828.587215
 30
0.0
 40
3.0
 50
92.968184
 51
179.999998
  0
LINE
  8
0
  6
BYLAYER
 62
     1
 10
1261.737184
 20
-847.480098
 30
0.0
 11
1207.426638
 21
-844.664119
 31
0.0
  0
LINE
  8
0
  6
BYLAYER
 62
     1
 10
1261.737307
 20
-865.775203
 30
0.0
 11
1207.426638
 21
-868.591243
 31
0.0
  0
ARC
  8
0
  6
BYLAYER
 62
     1
 10
1207.581911
 20
-871.587215
 30
0.0
 40
3.0
 50
92.968184
 51
179.999998
  0
LINE
  8
0
  6
BYLAYER
 62
     1
 10
1261.737307
 20
-890.480159
 30
0.0
 11
1207.426638
 21
-887.664119
 31
0.0
  0
LINE
  8
0
  6
BYLAYER
 62
     1
 10
1261.737307
 20
-908.775203
 30
0.0
 11
1207.426638
 21
-911.591304
 31
0.0
  0
ARC
  8
0
  6
BYLAYER
 62
     1
 10
1207.581911
 20
-914.587276
 30
0.0
 40
3.0
 50
92.968218
 51
180.000005
  0
LINE
  8
0
  6
BYLAYER
 62
     1
 10
1261.737307
 20
-933.480159
 30
0.0
 11
1207.426638
 21
-930.664058
 31
0.0
  0
LINE
  8
0
  6
BYLAYER
 62
     1
 10
1316.609255
 20
-781.599483
 30
0.0
 11
1335.737184
 21
-782.591243
 31
0.0
  0
ARC
  8
0
  6
BYLAYER
 62
     1
 10
1335.581911
 20
-785.587276
 30
0.0
 40
3.000000
 50
0.0
 51
87.031855
  0
LINE
  8
0
  6
BYLAYER
 62
     1
 10
1281.426638
 20
-804.480159
 30
0.0
 11
1335.737184
 21
-801.664119
 31
0.0
  0
LINE
  8
0
  6
BYLAYER
 62
     1
 10
1281.426638
 20
-822.775203
 30
0.0
 11
1335.737184
 21
-825.591243
 31
0.0
  0
ARC
  8
0
  6
BYLAYER
 62
     1
 10
1335.581911
 20
-828.587215
 30
0.0
 40
3.000000
 50
0.0
 51
87.031807
  0
LINE
  8
0
  6
BYLAYER
 62
     1
 10
1281.426638
 20
-847.480098
 30
0.0
 11
1335.737184
 21
-844.664119
 31
0.0
  0
LINE
  8
0
  6
BYLAYER
 62
     1
 10
1281.426638
 20
-865.775142
 30
0.0
 11
1335.737184
 21
-868.591243
 31
0.0
  0
ARC
  8
0
  6
BYLAYER
 62
     1
 10
1335.581911
 20
-871.587215
 30
0.0
 40
3.0
 50
0.0
 51
87.031753
  0
LINE
  8
0
  6
BYLAYER
 62
     1
 10
1281.426638
 20
-890.480098
 30
0.0
 11
1335.737184
 21
-887.664119
 31
0.0
  0
LINE
  8
0
  6
BYLAYER
 62
     1
 10
1281.426638
 20
-908.775203
 30
0.0
 11
1335.737184
 21
-911.591273
 31
0.0
  0
ARC
  8
0
  6
BYLAYER
 62
     1
 10
1335.581911
 20
-914.587245
 30
0.0
 40
3.000000
 50
0.0
 51
87.031807
  0
LINE
  8
0
  6
BYLAYER
 62
     1
 10
1319.426638
 20
-931.509822
 30
0.0
 11
1335.737184
 21
-930.664088
 31
0.0
  0
LINE
  8
0
  6
BYLAYER
 62
     1
 10
1220.023806
 20
-762.330257
 30
0.0
 11
1197.081911
 21
-761.127925
 31
0.0
  0
LINE
  8
0
  6
BYLAYER
 62
     1
 10
1323.140016
 20
-762.330257
 30
0.0
 11
1346.081911
 21
-761.127925
 31
0.0
  0
LINE
  8
0
  6
BYLAYER
 62
     1
 10
1197.081789
 20
-955.128047
 30
0.0
 11
1271.582033
 21
-951.223628
 31
0.0
  0
LINE
  8
0
  6
BYLAYER
 62
     1
 10
1346.082033
 20
-955.128047
 30
0.0
 11
1271.581911
 21
-951.223628
 31
0.0
  0
LINE
  8
0
  6
BYLAYER
 62
     1
 10
1204.581911
 20
-769.870662
 30
0.0
 11
1204.581911
 21
-946.385280
 31
0.0
  0
ARC
  8
0
  6
BYLAYER
 62
     1
 10
1207.581911
 20
-927.668086
 30
0.0
 40
3.0
 50
180.000000
 51
267.031787
  0
ARC
  8
0
  6
BYLAYER
 62
     1
 10
1207.581911
 20
-884.668147
 30
0.0
 40
3.000000
 50
180.000000
 51
267.031814
  0
ARC
  8
0
  6
BYLAYER
 62
     1
 10
1207.581911
 20
-841.668086
 30
0.0
 40
3.000000
 50
180.000000
 51
267.031875
  0
ARC
  8
0
  6
BYLAYER
 62
     1
 10
1201.581911
 20
-946.385280
 30
0.0
 40
3.0
 50
314.999999
 51
360.000000
  0
LINE
  8
0
  6
BYLAYER
 62
     1
 10
1338.581911
 20
-769.870967
 30
0.0
 11
1338.581911
 21
-946.385280
 31
0.0
  0
ARC
  8
0
  6
BYLAYER
 62
     1
 10
1335.581911
 20
-927.668117
 30
0.0
 40
3.000000
 50
272.968200
 51
360.000000
  0
ARC
  8
0
  6
BYLAYER
 62
     1
 10
1335.581911
 20
-884.668086
 30
0.0
 40
3.000000
 50
272.968125
 51
360.000000
  0
ARC
  8
0
  6
BYLAYER
 62
     1
 10
1335.581911
 20
-841.668086
 30
0.0
 40
3.000000
 50
272.968125
 51
360.000000
  0
ARC
  8
0
  6
BYLAYER
 62
     1
 10
1335.581911
 20
-798.668147
 30
0.0
 40
3.000000
 50
272.968186
 51
360.0
  0
ARC
  8
0
  6
BYLAYER
 62
     1
 10
1341.581911
 20
-946.385280
 30
0.0
 40
3.000000
 50
180.000000
 51
225.000001
  0
LINE
  8
0
  6
BYLAYER
 62
     1
 10
1355.581911
 20
-788.127681
 30
0.0
 11
1356.581911
 21
-789.127681
 31
0.0
  0
LINE
  8
0
  6
BYLAYER
 62
     1
 10
1355.581911
 20
-968.127711
 30
0.0
 11
1356.581911
 21
-967.127711
 31
0.0
  0
LINE
  8
0
  6
BYLAYER
 62
     1
 10
1352.581911
 20
-788.127681
 30
0.0
 11
1355.581911
 21
-788.127681
 31
0.0
  0
LINE
  8
0
  6
BYLAYER
 62
     1
 10
1352.581911
 20
-968.127711
 30
0.0
 11
1355.581911
 21
-968.127711
 31
0.0
  0
LINE
  8
0
  6
BYLAYER
 62
     1
 10
1356.581911
 20
-789.127681
 30
0.0
 11
1356.581911
 21
-967.127711
 31
0.0
  0
LINE
  8
0
  6
BYLAYER
 62
     1
 10
1349.081911
 20
-1003.311183
 30
0.0
 11
1352.581911
 21
-1003.127711
 31
0.0
  0
LINE
  8
0
  6
BYLAYER
 62
     1
 10
1352.581911
 20
-753.127681
 30
0.0
 11
1349.081911
 21
-752.944270
 31
0.0
  0
LINE
  8
0
  6
BYLAYER
 62
     1
 10
1352.581911
 20
-1003.127711
 30
0.0
 11
1352.581911
 21
-753.127681
 31
0.0
  0
ARC
  8
0
  6
BYLAYER
 62
     1
 10
1261.581911
 20
-893.476131
 30
0.0
 40
3.0
 50
0.0
 51
87.032033
  0
ARC
  8
0
  6
BYLAYER
 62
     1
 10
1261.581911
 20
-862.779231
 30
0.0
 40
3.0
 50
272.968008
 51
360.0
  0
ARC
  8
0
  6
BYLAYER
 62
     1
 10
1281.581911
 20
-893.476069
 30
0.0
 40
3.000000
 50
92.967995
 51
180.000000
  0
ARC
  8
0
  6
BYLAYER
 62
     1
 10
1281.581911
 20
-862.779170
 30
0.0
 40
3.000000
 50
180.000000
 51
267.032005
  0
LINE
  8
0
  6
BYLAYER
 62
     1
 10
481.581911
 20
-794.128017
 30
0.0
 11
480.581911
 21
-793.128017
 31
0.0
  0
LINE
  8
0
  6
BYLAYER
 62
     1
 10
301.581911
 20
-794.127986
 30
0.0
 11
302.581911
 21
-793.127986
 31
0.0
  0
LINE
  8
0
  6
BYLAYER
 62
     1
 10
481.581911
 20
-797.128017
 30
0.0
 11
481.581911
 21
-794.128017
 31
0.0
  0
LINE
  8
0
  6
BYLAYER
 62
     1
 10
301.581911
 20
-797.127986
 30
0.0
 11
301.581911
 21
-794.127986
 31
0.0
  0
LINE
  8
0
  6
BYLAYER
 62
     1
 10
480.581911
 20
-793.128017
 30
0.0
 11
302.581911
 21
-793.127986
 31
0.0
  0
LINE
  8
0
  6
BYLAYER
 62
     1
 10
244.081667
 20
-955.627955
 30
0.0
 11
244.081667
 21
-800.627986
 31
0.0
  0
ARC
  8
0
  6
BYLAYER
 62
     1
 10
310.338991
 20
-952.627955
 30
0.0
 40
3.000025
 50
270.0
 51
314.999609
  0
LINE
  8
0
  6
BYLAYER
 62
     1
 10
310.338991
 20
-955.627955
 30
0.0
 11
244.081667
 21
-955.627955
 31
0.0
  0
ARC
  8
0
  6
BYLAYER
 62
     1
 10
310.338991
 20
-803.627986
 30
0.0
 40
3.000025
 50
45.000408
 51
90.000016
  0
LINE
  8
0
  6
BYLAYER
 62
     1
 10
244.081667
 20
-800.627986
 30
0.0
 11
310.338991
 21
-800.627986
 31
0.0
  0
LINE
  8
0
  6
BYLAYER
 62
     1
 10
266.398439
 20
-800.627986
 30
0.0
 11
266.581911
 21
-797.127986
 31
0.0
  0
LINE
  8
0
  6
BYLAYER
 62
     1
 10
516.581911
 20
-797.128017
 30
0.0
 11
516.765383
 21
-800.628017
 31
0.0
  0
LINE
  8
0
  6
BYLAYER
 62
     1
 10
315.643190
 20
-878.127986
 30
0.0
 11
311.596071
 21
-800.904109
 31
0.0
  0
LINE
  8
0
  6
BYLAYER
 62
     1
 10
315.643190
 20
-878.128108
 30
0.0
 11
311.596071
 21
-955.351832
 31
0.0
  0
LINE
  8
0
  6
BYLAYER
 62
     1
 10
266.581911
 20
-797.127986
 30
0.0
 11
516.581911
 21
-797.128017
 31
0.0
  0
CIRCLE
  8
0
  6
BYLAYER
 62
     1
 10
291.581911
 20
-938.127986
 30
0.0
 40
8.0
  0
CIRCLE
  8
0
  6
BYLAYER
 62
     1
 10
291.581911
 20
-818.127986
 30
0.0
 40
8.0
  0
ARC
  8
0
  6
BYLAYER
 62
     1
 10
472.824343
 20
-803.627986
 30
0.0
 40
3.000025
 50
90.0
 51
134.999609
  0
ARC
  8
0
  6
BYLAYER
 62
     1
 10
472.824343
 20
-952.627955
 30
0.0
 40
3.000025
 50
225.000419
 51
270.000028
  0
LINE
  8
0
  6
BYLAYER
 62
     1
 10
472.824343
 20
-955.627955
 30
0.0
 11
536.581667
 21
-955.627955
 31
0.0
  0
LINE
  8
0
  6
BYLAYER
 62
     1
 10
536.581667
 20
-955.627955
 30
0.0
 11
536.581667
 21
-800.627986
 31
0.0
  0
LINE
  8
0
  6
BYLAYER
 62
     1
 10
536.581667
 20
-800.627986
 30
0.0
 11
472.824343
 21
-800.627986
 31
0.0
  0
CIRCLE
  8
0
  6
BYLAYER
 62
     1
 10
491.581423
 20
-818.127986
 30
0.0
 40
8.0
  0
CIRCLE
  8
0
  6
BYLAYER
 62
     1
 10
491.581423
 20
-938.127986
 30
0.0
 40
8.0
  0
ARC
  8
0
  6
BYLAYER
 62
     1
 10
320.966066
 20
-888.127986
 30
0.0
 40
3.000082
 50
90.0
 51
177.000484
  0
ARC
  8
0
  6
BYLAYER
 62
     1
 10
333.233522
 20
-888.127986
 30
0.0
 40
3.0
 50
2.967981
 51
90.000000
  0
ARC
  8
0
  6
BYLAYER
 62
     1
 10
363.930422
 20
-888.127986
 30
0.0
 40
3.0
 50
90.0
 51
177.032012
  0
LINE
  8
0
  6
BYLAYER
 62
     1
 10
376.233522
 20
-885.127986
 30
0.0
 11
363.930422
 21
-885.127986
 31
0.0
  0
ARC
  8
0
  6
BYLAYER
 62
     1
 10
320.966066
 20
-868.127986
 30
0.0
 40
3.000082
 50
182.999510
 51
270.000001
  0
ARC
  8
0
  6
BYLAYER
 62
     1
 10
333.233522
 20
-868.127986
 30
0.0
 40
3.0
 50
270.0
 51
357.032019
  0
ARC
  8
0
  6
BYLAYER
 62
     1
 10
363.930422
 20
-868.127986
 30
0.0
 40
3.0
 50
182.967981
 51
270.000000
  0
LINE
  8
0
  6
BYLAYER
 62
     1
 10
376.233522
 20
-871.127986
 30
0.0
 11
363.930422
 21
-871.127986
 31
0.0
  0
LINE
  8
0
  6
BYLAYER
 62
     1
 10
320.966066
 20
-885.127986
 30
0.0
 11
333.233522
 21
-885.127986
 31
0.0
  0
LINE
  8
0
  6
BYLAYER
 62
     1
 10
320.966066
 20
-871.127986
 30
0.0
 11
333.233522
 21
-871.127986
 31
0.0
  0
ARC
  8
0
  6
BYLAYER
 62
     1
 10
449.930422
 20
-868.128062
 30
0.0
 40
2.999997
 50
182.968296
 51
270.000001
  0
ARC
  8
0
  6
BYLAYER
 62
     1
 10
449.930422
 20
-888.128062
 30
0.0
 40
3.000259
 50
90.0
 51
177.031712
  0
LINE
  8
0
  6
BYLAYER
 62
     1
 10
449.930422
 20
-885.127803
 30
0.0
 11
453.115969
 21
-885.127971
 31
0.0
  0
ARC
  8
0
  6
BYLAYER
 62
     1
 10
453.115724
 20
-888.127971
 30
0.0
 40
3.000000
 50
28.436752
 51
90.0
  0
LINE
  8
0
  6
BYLAYER
 62
     1
 10
449.930422
 20
-871.127833
 30
0.0
 11
453.115602
 21
-871.127986
 31
0.0
  0
ARC
  8
0
  6
BYLAYER
 62
     1
 10
453.115724
 20
-868.127986
 30
0.0
 40
3.000000
 50
270.0
 51
331.563090
  0
ARC
  8
0
  6
BYLAYER
 62
     1
 10
471.581911
 20
-878.127986
 30
0.0
 40
18.000021
 50
115.112183
 51
151.563154
  0
ARC
  8
0
  6
BYLAYER
 62
     1
 10
462.669802
 20
-859.112895
 30
0.0
 40
2.999965
 50
295.111874
 51
356.999890
  0
ARC
  8
0
  6
BYLAYER
 62
     1
 10
471.581911
 20
-878.127986
 30
0.0
 40
17.999962
 50
208.436842
 51
244.887827
  0
ARC
  8
0
  6
BYLAYER
 62
     1
 10
462.669802
 20
-897.143031
 30
0.0
 40
2.999951
 50
2.999963
 51
64.887740
  0
LINE
  8
0
  6
BYLAYER
 62
     1
 10
470.055300
 20
-797.127986
 30
0.0
 11
469.942263
 21
-799.284968
 31
0.0
  0
ARC
  8
0
  6
BYLAYER
 62
     1
 10
466.946352
 20
-799.127986
 30
0.0
 40
3.000000
 50
270.0
 51
357.000518
  0
LINE
  8
0
  6
BYLAYER
 62
     1
 10
408.000246
 20
-802.127986
 30
0.0
 11
466.946352
 21
-802.127986
 31
0.0
  0
ARC
  8
0
  6
BYLAYER
 62
     1
 10
408.000246
 20
-799.127986
 30
0.0
 40
3.000000
 50
182.999496
 51
270.000000
  0
LINE
  8
0
  6
BYLAYER
 62
     1
 10
404.891298
 20
-797.127986
 30
0.0
 11
405.004335
 21
-799.284968
 31
0.0
  0
LINE
  8
0
  6
BYLAYER
 62
     1
 10
313.108522
 20
-797.127986
 30
0.0
 11
313.221559
 21
-799.284968
 31
0.0
  0
ARC
  8
0
  6
BYLAYER
 62
     1
 10
316.217470
 20
-799.127986
 30
0.0
 40
3.000000
 50
182.999482
 51
270.000000
  0
LINE
  8
0
  6
BYLAYER
 62
     1
 10
375.163576
 20
-802.127986
 30
0.0
 11
316.217470
 21
-802.127986
 31
0.0
  0
ARC
  8
0
  6
BYLAYER
 62
     1
 10
375.163576
 20
-799.127986
 30
0.0
 40
3.000000
 50
270.0
 51
357.000491
  0
LINE
  8
0
  6
BYLAYER
 62
     1
 10
378.272524
 20
-797.127986
 30
0.0
 11
378.159487
 21
-799.284968
 31
0.0
  0
LINE
  8
0
  6
BYLAYER
 62
     1
 10
379.229494
 20
-887.972652
 30
0.0
 11
382.201113
 21
-945.283298
 31
0.0
  0
ARC
  8
0
  6
BYLAYER
 62
     1
 10
385.197084
 20
-945.127955
 30
0.0
 40
2.999996
 50
182.968132
 51
270.000001
  0
LINE
  8
0
  6
BYLAYER
 62
     1
 10
403.934450
 20
-887.972652
 30
0.0
 11
400.962831
 21
-945.283298
 31
0.0
  0
ARC
  8
0
  6
BYLAYER
 62
     1
 10
397.966860
 20
-945.127955
 30
0.0
 40
3.0
 50
270.0
 51
357.031855
  0
LINE
  8
0
  6
BYLAYER
 62
     1
 10
471.567263
 20
-800.904109
 30
0.0
 11
468.286971
 21
-863.494348
 31
0.0
  0
LINE
  8
0
  6
BYLAYER
 62
     1
 10
471.567263
 20
-955.351832
 30
0.0
 11
468.286971
 21
-892.761624
 31
0.0
  0
LINE
  8
0
  6
BYLAYER
 62
     1
 10
464.960359
 20
-807.249293
 30
0.0
 11
470.703005
 21
-801.506648
 31
0.0
  0
ARC
  8
0
  6
BYLAYER
 62
     1
 10
462.839037
 20
-805.127986
 30
0.0
 40
3.000015
 50
270.0
 51
315.000210
  0
LINE
  8
0
  6
BYLAYER
 62
     1
 10
462.839037
 20
-808.128001
 30
0.0
 11
320.324297
 21
-808.128001
 31
0.0
  0
LINE
  8
0
  6
BYLAYER
 62
     1
 10
312.460337
 20
-801.506648
 30
0.0
 11
318.202967
 21
-807.249309
 31
0.0
  0
ARC
  8
0
  6
BYLAYER
 62
     1
 10
320.324297
 20
-805.128001
 30
0.0
 40
3.000000
 50
224.999695
 51
270.000000
  0
LINE
  8
0
  6
BYLAYER
 62
     1
 10
314.581606
 20
-803.627925
 30
0.0
 11
318.485964
 21
-878.128108
 31
0.0
  0
LINE
  8
0
  6
BYLAYER
 62
     1
 10
468.581728
 20
-803.627925
 30
0.0
 11
465.393431
 21
-864.464066
 31
0.0
  0
LINE
  8
0
  6
BYLAYER
 62
     1
 10
318.202951
 20
-949.006671
 30
0.0
 11
312.460329
 21
-954.749293
 31
0.0
  0
ARC
  8
0
  6
BYLAYER
 62
     1
 10
320.324274
 20
-951.127990
 30
0.0
 40
2.999989
 50
90.0
 51
135.000052
  0
LINE
  8
0
  6
BYLAYER
 62
     1
 10
462.839037
 20
-948.128024
 30
0.0
 11
320.324274
 21
-948.128001
 31
0.0
  0
LINE
  8
0
  6
BYLAYER
 62
     1
 10
464.960359
 20
-949.006648
 30
0.0
 11
470.703005
 21
-954.749293
 31
0.0
  0
ARC
  8
0
  6
BYLAYER
 62
     1
 10
462.839037
 20
-951.127971
 30
0.0
 40
2.999947
 50
44.999999
 51
90.000000
  0
LINE
  8
0
  6
BYLAYER
 62
     1
 10
446.934450
 20
-887.972713
 30
0.0
 11
443.962816
 21
-945.283366
 31
0.0
  0
ARC
  8
0
  6
BYLAYER
 62
     1
 10
440.966844
 20
-945.128020
 30
0.0
 40
3.0
 50
270.0
 51
357.031773
  0
LINE
  8
0
  6
BYLAYER
 62
     1
 10
422.229494
 20
-887.972652
 30
0.0
 11
425.201113
 21
-945.283366
 31
0.0
  0
ARC
  8
0
  6
BYLAYER
 62
     1
 10
428.197100
 20
-945.128020
 30
0.0
 40
3.000012
 50
182.968200
 51
270.000001
  0
LINE
  8
0
  6
BYLAYER
 62
     1
 10
360.934450
 20
-887.972652
 30
0.0
 11
357.962816
 21
-945.283347
 31
0.0
  0
ARC
  8
0
  6
BYLAYER
 62
     1
 10
354.966844
 20
-945.128005
 30
0.0
 40
3.000004
 50
270.0
 51
357.031855
  0
LINE
  8
0
  6
BYLAYER
 62
     1
 10
336.229494
 20
-887.972652
 30
0.0
 11
339.201113
 21
-945.283351
 31
0.0
  0
ARC
  8
0
  6
BYLAYER
 62
     1
 10
342.197100
 20
-945.128005
 30
0.0
 40
3.000012
 50
182.968200
 51
270.000001
  0
LINE
  8
0
  6
BYLAYER
 62
     1
 10
314.581606
 20
-952.628013
 30
0.0
 11
318.485964
 21
-878.127986
 31
0.0
  0
LINE
  8
0
  6
BYLAYER
 62
     1
 10
465.393431
 20
-891.791906
 30
0.0
 11
468.581728
 21
-952.628013
 31
0.0
  0
ARC
  8
0
  6
BYLAYER
 62
     1
 10
342.197100
 20
-811.127971
 30
0.0
 40
3.000012
 50
90.0
 51
177.031794
  0
ARC
  8
0
  6
BYLAYER
 62
     1
 10
354.966844
 20
-811.127971
 30
0.0
 40
3.000015
 50
2.968145
 51
90.000000
  0
ARC
  8
0
  6
BYLAYER
 62
     1
 10
385.197084
 20
-811.128017
 30
0.0
 40
2.999996
 50
90.0
 51
177.031862
  0
ARC
  8
0
  6
BYLAYER
 62
     1
 10
397.966860
 20
-811.128017
 30
0.0
 40
3.000000
 50
2.968145
 51
90.000000
  0
ARC
  8
0
  6
BYLAYER
 62
     1
 10
428.197100
 20
-811.127955
 30
0.0
 40
3.000012
 50
90.0
 51
177.031794
  0
ARC
  8
0
  6
BYLAYER
 62
     1
 10
440.966844
 20
-811.127955
 30
0.0
 40
3.0
 50
2.968227
 51
90.000000
  0
LINE
  8
0
  6
BYLAYER
 62
     1
 10
446.934450
 20
-868.283412
 30
0.0
 11
443.962816
 21
-810.972606
 31
0.0
  0
LINE
  8
0
  6
BYLAYER
 62
     1
 10
422.229494
 20
-868.283320
 30
0.0
 11
425.201113
 21
-810.972606
 31
0.0
  0
LINE
  8
0
  6
BYLAYER
 62
     1
 10
403.934450
 20
-868.283320
 30
0.0
 11
400.962816
 21
-810.972667
 31
0.0
  0
LINE
  8
0
  6
BYLAYER
 62
     1
 10
379.229494
 20
-868.283320
 30
0.0
 11
382.201113
 21
-810.972667
 31
0.0
  0
LINE
  8
0
  6
BYLAYER
 62
     1
 10
360.934450
 20
-868.283320
 30
0.0
 11
357.962816
 21
-810.972621
 31
0.0
  0
LINE
  8
0
  6
BYLAYER
 62
     1
 10
336.229494
 20
-868.283320
 30
0.0
 11
339.201113
 21
-810.972621
 31
0.0
  0
LINE
  8
0
  6
BYLAYER
 62
     1
 10
249.081667
 20
-955.627955
 30
0.0
 11
249.081667
 21
-800.627986
 31
0.0
  0
LINE
  8
0
  6
BYLAYER
 62
     1
 10
531.581667
 20
-955.627955
 30
0.0
 11
531.581667
 21
-800.627986
 31
0.0
  0
CIRCLE
  8
0
  6
BYLAYER
 62
     1
 10
471.581911
 20
-878.127986
 30
0.0
 40
15.0
  0
LINE
  8
0
  6
BYLAYER
 62
     1
 10
481.581911
 20
-962.127955
 30
0.0
 11
480.581911
 21
-963.127955
 31
0.0
  0
LINE
  8
0
  6
BYLAYER
 62
     1
 10
301.581911
 20
-962.127986
 30
0.0
 11
302.581911
 21
-963.127986
 31
0.0
  0
LINE
  8
0
  6
BYLAYER
 62
     1
 10
481.581911
 20
-959.127955
 30
0.0
 11
481.581911
 21
-962.127955
 31
0.0
  0
LINE
  8
0
  6
BYLAYER
 62
     1
 10
301.581911
 20
-959.127986
 30
0.0
 11
301.581911
 21
-962.127986
 31
0.0
  0
LINE
  8
0
  6
BYLAYER
 62
     1
 10
480.581911
 20
-963.127955
 30
0.0
 11
302.581911
 21
-963.127986
 31
0.0
  0
LINE
  8
0
  6
BYLAYER
 62
     1
 10
266.398439
 20
-955.627986
 30
0.0
 11
266.581911
 21
-959.127986
 31
0.0
  0
LINE
  8
0
  6
BYLAYER
 62
     1
 10
516.581911
 20
-959.127955
 30
0.0
 11
516.765383
 21
-955.627955
 31
0.0
  0
LINE
  8
0
  6
BYLAYER
 62
     1
 10
266.581911
 20
-959.127986
 30
0.0
 11
516.581911
 21
-959.127955
 31
0.0
  0
LINE
  8
0
  6
BYLAYER
 62
     1
 10
470.055300
 20
-959.127986
 30
0.0
 11
469.942263
 21
-956.971004
 31
0.0
  0
ARC
  8
0
  6
BYLAYER
 62
     1
 10
466.946352
 20
-957.127986
 30
0.0
 40
3.0
 50
2.999482
 51
90.000000
  0
LINE
  8
0
  6
BYLAYER
 62
     1
 10
408.000246
 20
-954.127986
 30
0.0
 11
466.946352
 21
-954.127986
 31
0.0
  0
ARC
  8
0
  6
BYLAYER
 62
     1
 10
408.000246
 20
-957.127986
 30
0.0
 40
3.000000
 50
90.0
 51
177.000504
  0
LINE
  8
0
  6
BYLAYER
 62
     1
 10
404.891298
 20
-959.127986
 30
0.0
 11
405.004335
 21
-956.971004
 31
0.0
  0
LINE
  8
0
  6
BYLAYER
 62
     1
 10
313.108522
 20
-959.127986
 30
0.0
 11
313.221559
 21
-956.971004
 31
0.0
  0
ARC
  8
0
  6
BYLAYER
 62
     1
 10
316.217470
 20
-957.127986
 30
0.0
 40
3.0
 50
90.0
 51
177.000518
  0
LINE
  8
0
  6
BYLAYER
 62
     1
 10
375.163576
 20
-954.127986
 30
0.0
 11
316.217470
 21
-954.127986
 31
0.0
  0
ARC
  8
0
  6
BYLAYER
 62
     1
 10
375.163576
 20
-957.127986
 30
0.0
 40
3.000000
 50
2.999509
 51
90.0
  0
LINE
  8
0
  6
BYLAYER
 62
     1
 10
378.272524
 20
-959.127986
 30
0.0
 11
378.159487
 21
-956.971004
 31
0.0
  0
ARC
  8
0
  6
BYLAYER
 62
     1
 10
376.233522
 20
-888.127986
 30
0.0
 40
3.0
 50
2.967981
 51
90.000000
  0
ARC
  8
0
  6
BYLAYER
 62
     1
 10
376.233522
 20
-868.127986
 30
0.0
 40
3.0
 50
270.0
 51
357.032019
  0
LINE
  8
0
  6
BYLAYER
 62
     1
 10
406.930422
 20
-885.127986
 30
0.0
 11
419.233522
 21
-885.127986
 31
0.0
  0
ARC
  8
0
  6
BYLAYER
 62
     1
 10
406.930422
 20
-888.127986
 30
0.0
 40
3.0
 50
90.0
 51
177.032012
  0
ARC
  8
0
  6
BYLAYER
 62
     1
 10
419.233522
 20
-888.127986
 30
0.0
 40
3.0
 50
2.967981
 51
90.000000
  0
LINE
  8
0
  6
BYLAYER
 62
     1
 10
406.930422
 20
-871.127986
 30
0.0
 11
419.233522
 21
-871.127986
 31
0.0
  0
ARC
  8
0
  6
BYLAYER
 62
     1
 10
406.930422
 20
-868.127986
 30
0.0
 40
3.0
 50
182.967981
 51
270.000000
  0
ARC
  8
0
  6
BYLAYER
 62
     1
 10
419.233522
 20
-868.127986
 30
0.0
 40
3.0
 50
270.0
 51
357.032019
  0
LINE
  8
0
  6
BYLAYER
 62
     1
 10
536.581911
 20
-181.877986
 30
0.0
 11
536.581911
 21
-128.127986
 31
0.0
  0
ARC
  8
0
  6
BYLAYER
 62
     1
 10
563.081911
 20
-226.127986
 30
0.0
 40
2.000000
 50
180.000000
 51
270.000009
  0
LINE
  8
0
  6
BYLAYER
 62
     1
 10
571.581911
 20
-228.127986
 30
0.0
 11
563.081911
 21
-228.127986
 31
0.0
  0
LINE
  8
0
  6
BYLAYER
 62
     1
 10
561.081911
 20
-128.127986
 30
0.0
 11
561.081911
 21
-226.127986
 31
0.0
  0
ARC
  8
0
  6
BYLAYER
 62
     1
 10
559.081911
 20
-196.532680
 30
0.0
 40
2.000004
 50
0.0
 51
60.000063
  0
LINE
  8
0
  6
BYLAYER
 62
     1
 10
537.331240
 20
-181.917262
 30
0.0
 11
536.581911
 21
-181.877986
 31
0.0
  0
LINE
  8
0
  6
BYLAYER
 62
     1
 10
560.081911
 20
-194.800624
 30
0.0
 11
538.226595
 21
-182.182460
 31
0.0
  0
ARC
  8
0
  6
BYLAYER
 62
     1
 10
537.226595
 20
-183.914516
 30
0.0
 40
1.999993
 50
60.000063
 51
87.000784
  0
LINE
  8
0
  6
BYLAYER
 62
     1
 10
571.581911
 20
-128.127986
 30
0.0
 11
571.581911
 21
-228.127986
 31
0.0
  0
LINE
  8
0
  6
BYLAYER
 62
     1
 10
547.696962
 20
-187.650172
 30
0.0
 11
561.081911
 21
-210.400294
 31
0.0
  0
LINE
  8
0
  6
BYLAYER
 62
     1
 10
538.226595
 20
-182.182460
 30
0.0
 11
538.226595
 21
-128.127986
 31
0.0
  0
LINE
  8
0
  6
BYLAYER
 62
     1
 10
536.581911
 20
-74.377986
 30
0.0
 11
536.581911
 21
-128.127986
 31
0.0
  0
ARC
  8
0
  6
BYLAYER
 62
     1
 10
563.081911
 20
-30.127986
 30
0.0
 40
2.000000
 50
90.0
 51
180.000009
  0
LINE
  8
0
  6
BYLAYER
 62
     1
 10
571.581911
 20
-28.127986
 30
0.0
 11
563.081911
 21
-28.127986
 31
0.0
  0
LINE
  8
0
  6
BYLAYER
 62
     1
 10
561.081911
 20
-128.127986
 30
0.0
 11
561.081911
 21
-30.127986
 31
0.0
  0
ARC
  8
0
  6
BYLAYER
 62
     1
 10
559.081911
 20
-59.723292
 30
0.0
 40
2.000004
 50
299.999937
 51
360.000000
  0
LINE
  8
0
  6
BYLAYER
 62
     1
 10
537.331240
 20
-74.338710
 30
0.0
 11
536.581911
 21
-74.377986
 31
0.0
  0
LINE
  8
0
  6
BYLAYER
 62
     1
 10
560.081911
 20
-61.455348
 30
0.0
 11
538.226595
 21
-74.073512
 31
0.0
  0
ARC
  8
0
  6
BYLAYER
 62
     1
 10
537.226595
 20
-72.341456
 30
0.0
 40
1.999993
 50
272.999216
 51
299.999937
  0
LINE
  8
0
  6
BYLAYER
 62
     1
 10
571.581911
 20
-128.127986
 30
0.0
 11
571.581911
 21
-28.127986
 31
0.0
  0
LINE
  8
0
  6
BYLAYER
 62
     1
 10
547.696962
 20
-68.605800
 30
0.0
 11
561.081911
 21
-45.855678
 31
0.0
  0
LINE
  8
0
  6
BYLAYER
 62
     1
 10
538.226595
 20
-74.073512
 30
0.0
 11
538.226595
 21
-128.127986
 31
0.0
  0
LINE
  8
0
  6
BYLAYER
 62
     1
 10
1355.581911
 20
-348.128016
 30
0.0
 11
1356.581911
 21
-347.128016
 31
0.0
  0
LINE
  8
0
  6
BYLAYER
 62
     1
 10
1352.581911
 20
-348.128016
 30
0.0
 11
1355.581911
 21
-348.128016
 31
0.0
  0
LINE
  8
0
  6
BYLAYER
 62
     1
 10
1356.581911
 20
-180.806255
 30
0.0
 11
1356.581911
 21
-347.128016
 31
0.0
  0
LINE
  8
0
  6
BYLAYER
 62
     1
 10
1194.081972
 20
-405.628322
 30
0.0
 11
1349.081911
 21
-405.628322
 31
0.0
  0
ARC
  8
0
  6
BYLAYER
 62
     1
 10
1197.081972
 20
-339.370936
 30
0.0
 40
3.000046
 50
135.000410
 51
180.000005
  0
LINE
  8
0
  6
BYLAYER
 62
     1
 10
1194.081972
 20
-339.370936
 30
0.0
 11
1194.081972
 21
-405.628322
 31
0.0
  0
ARC
  8
0
  6
BYLAYER
 62
     1
 10
1346.081911
 20
-339.370936
 30
0.0
 40
3.000046
 50
0.0
 51
44.999609
  0
LINE
  8
0
  6
BYLAYER
 62
     1
 10
1349.081911
 20
-405.628322
 30
0.0
 11
1349.081911
 21
-339.370936
 31
0.0
  0
LINE
  8
0
  6
BYLAYER
 62
     1
 10
1349.081911
 20
-383.311488
 30
0.0
 11
1352.581911
 21
-383.128016
 31
0.0
  0
LINE
  8
0
  6
BYLAYER
 62
     1
 10
1352.581911
 20
-383.128016
 30
0.0
 11
1352.581911
 21
-186.770974
 31
0.0
  0
ARC
  8
0
  6
BYLAYER
 62
     1
 10
1261.581911
 20
-328.743892
 30
0.0
 40
3.000021
 50
272.999519
 51
360.000010
  0
LINE
  8
0
  6
BYLAYER
 62
     1
 10
1264.581911
 20
-328.743892
 30
0.0
 11
1264.581911
 21
-316.476466
 31
0.0
  0
ARC
  8
0
  6
BYLAYER
 62
     1
 10
1261.581911
 20
-316.476466
 30
0.0
 40
3.0
 50
0.0
 51
87.032019
  0
ARC
  8
0
  6
BYLAYER
 62
     1
 10
1261.581911
 20
-285.779536
 30
0.0
 40
3.0
 50
272.967981
 51
360.000000
  0
LINE
  8
0
  6
BYLAYER
 62
     1
 10
1264.581911
 20
-273.476436
 30
0.0
 11
1264.581911
 21
-285.779536
 31
0.0
  0
LINE
  8
0
  6
BYLAYER
 62
     1
 10
1264.581911
 20
-242.779536
 30
0.0
 11
1264.581911
 21
-230.476436
 31
0.0
  0
ARC
  8
0
  6
BYLAYER
 62
     1
 10
1261.581911
 20
-230.476436
 30
0.0
 40
3.0
 50
0.0
 51
65.650898
  0
ARC
  8
0
  6
BYLAYER
 62
     1
 10
1281.581911
 20
-328.743892
 30
0.0
 40
3.000021
 50
180.000000
 51
267.000477
  0
LINE
  8
0
  6
BYLAYER
 62
     1
 10
1278.581911
 20
-328.743892
 30
0.0
 11
1278.581911
 21
-316.476466
 31
0.0
  0
ARC
  8
0
  6
BYLAYER
 62
     1
 10
1281.581911
 20
-316.476466
 30
0.0
 40
3.000000
 50
92.967981
 51
180.000000
  0
ARC
  8
0
  6
BYLAYER
 62
     1
 10
1281.581911
 20
-285.779536
 30
0.0
 40
3.0
 50
180.000000
 51
267.032005
  0
LINE
  8
0
  6
BYLAYER
 62
     1
 10
1278.581911
 20
-273.476436
 30
0.0
 11
1278.581911
 21
-285.779536
 31
0.0
  0
LINE
  8
0
  6
BYLAYER
 62
     1
 10
1278.581911
 20
-242.779536
 30
0.0
 11
1278.581911
 21
-230.476436
 31
0.0
  0
ARC
  8
0
  6
BYLAYER
 62
     1
 10
1281.581911
 20
-230.476436
 30
0.0
 40
3.0
 50
114.349102
 51
180.000000
  0
LINE
  8
0
  6
BYLAYER
 62
     1
 10
1194.960634
 20
-337.249568
 30
0.0
 11
1203.703249
 21
-328.506984
 31
0.0
  0
LINE
  8
0
  6
BYLAYER
 62
     1
 10
1348.203249
 20
-337.249568
 30
0.0
 11
1339.460573
 21
-328.506923
 31
0.0
  0
ARC
  8
0
  6
BYLAYER
 62
     1
 10
1341.581911
 20
-326.385585
 30
0.0
 40
3.000000
 50
180.000000
 51
225.000001
  0
LINE
  8
0
  6
BYLAYER
 62
     1
 10
1197.081850
 20
-335.128352
 30
0.0
 11
1271.581911
 21
-331.223933
 31
0.0
  0
LINE
  8
0
  6
BYLAYER
 62
     1
 10
1346.082033
 20
-335.128352
 30
0.0
 11
1271.581911
 21
-331.223933
 31
0.0
  0
LINE
  8
0
  6
BYLAYER
 62
     1
 10
1261.737184
 20
-313.480464
 30
0.0
 11
1207.426577
 21
-310.664393
 31
0.0
  0
LINE
  8
0
  6
BYLAYER
 62
     1
 10
1261.737184
 20
-288.775508
 30
0.0
 11
1207.426577
 21
-291.591578
 31
0.0
  0
ARC
  8
0
  6
BYLAYER
 62
     1
 10
1207.581911
 20
-294.587550
 30
0.0
 40
3.000000
 50
92.968191
 51
179.999998
  0
LINE
  8
0
  6
BYLAYER
 62
     1
 10
1261.737184
 20
-270.480464
 30
0.0
 11
1207.426577
 21
-267.664424
 31
0.0
  0
LINE
  8
0
  6
BYLAYER
 62
     1
 10
1261.737184
 20
-245.775508
 30
0.0
 11
1207.426577
 21
-248.591548
 31
0.0
  0
ARC
  8
0
  6
BYLAYER
 62
     1
 10
1207.581911
 20
-251.587520
 30
0.0
 40
3.000000
 50
92.968191
 51
179.999998
  0
LINE
  8
0
  6
BYLAYER
 62
     1
 10
1259.070135
 20
-227.342176
 30
0.0
 11
1207.426577
 21
-224.664424
 31
0.0
  0
LINE
  8
0
  6
BYLAYER
 62
     1
 10
1208.286549
 20
-205.546958
 30
0.0
 11
1207.426577
 21
-205.591548
 31
0.0
  0
ARC
  8
0
  6
BYLAYER
 62
     1
 10
1207.581911
 20
-208.587520
 30
0.0
 40
3.000000
 50
92.968191
 51
179.999998
  0
LINE
  8
0
  6
BYLAYER
 62
     1
 10
1334.877276
 20
-205.546955
 30
0.0
 11
1335.737307
 21
-205.591548
 31
0.0
  0
ARC
  8
0
  6
BYLAYER
 62
     1
 10
1335.581911
 20
-208.587520
 30
0.0
 40
3.0
 50
0.0
 51
87.031821
  0
LINE
  8
0
  6
BYLAYER
 62
     1
 10
1284.093767
 20
-227.342166
 30
0.0
 11
1335.737307
 21
-224.664424
 31
0.0
  0
LINE
  8
0
  6
BYLAYER
 62
     1
 10
1281.426515
 20
-245.775508
 30
0.0
 11
1335.737307
 21
-248.591548
 31
0.0
  0
ARC
  8
0
  6
BYLAYER
 62
     1
 10
1335.581911
 20
-251.587520
 30
0.0
 40
3.0
 50
0.0
 51
87.031821
  0
LINE
  8
0
  6
BYLAYER
 62
     1
 10
1281.426515
 20
-270.480464
 30
0.0
 11
1335.737307
 21
-267.664424
 31
0.0
  0
LINE
  8
0
  6
BYLAYER
 62
     1
 10
1281.426515
 20
-288.775508
 30
0.0
 11
1335.737307
 21
-291.591578
 31
0.0
  0
ARC
  8
0
  6
BYLAYER
 62
     1
 10
1335.581911
 20
-294.587550
 30
0.0
 40
3.0
 50
0.0
 51
87.031821
  0
LINE
  8
0
  6
BYLAYER
 62
     1
 10
1281.426515
 20
-313.480464
 30
0.0
 11
1335.737307
 21
-310.664363
 31
0.0
  0
LINE
  8
0
  6
BYLAYER
 62
     1
 10
1204.581911
 20
-202.364096
 30
0.0
 11
1204.581911
 21
-326.385646
 31
0.0
  0
ARC
  8
0
  6
BYLAYER
 62
     1
 10
1207.581911
 20
-307.668422
 30
0.0
 40
3.000000
 50
180.000000
 51
267.031807
  0
ARC
  8
0
  6
BYLAYER
 62
     1
 10
1207.581911
 20
-264.668452
 30
0.0
 40
3.000000
 50
180.000000
 51
267.031807
  0
ARC
  8
0
  6
BYLAYER
 62
     1
 10
1207.581911
 20
-221.668452
 30
0.0
 40
3.000000
 50
180.000000
 51
267.031807
  0
ARC
  8
0
  6
BYLAYER
 62
     1
 10
1201.581911
 20
-326.385646
 30
0.0
 40
3.0
 50
314.999999
 51
360.000000
  0
LINE
  8
0
  6
BYLAYER
 62
     1
 10
1338.581911
 20
-202.364096
 30
0.0
 11
1338.581911
 21
-326.385585
 31
0.0
  0
ARC
  8
0
  6
BYLAYER
 62
     1
 10
1335.581911
 20
-307.668391
 30
0.0
 40
3.0
 50
272.968213
 51
360.000000
  0
ARC
  8
0
  6
BYLAYER
 62
     1
 10
1335.581911
 20
-264.668452
 30
0.0
 40
3.0
 50
272.968179
 51
360.000000
  0
ARC
  8
0
  6
BYLAYER
 62
     1
 10
1335.581911
 20
-221.668452
 30
0.0
 40
3.0
 50
272.968179
 51
360.000000
  0
LINE
  8
0
  6
BYLAYER
 62
     1
 10
1187.581911
 20
-348.128016
 30
0.0
 11
1186.581911
 21
-347.128016
 31
0.0
  0
LINE
  8
0
  6
BYLAYER
 62
     1
 10
1190.581911
 20
-348.128016
 30
0.0
 11
1187.581911
 21
-348.128016
 31
0.0
  0
LINE
  8
0
  6
BYLAYER
 62
     1
 10
1186.581911
 20
-180.806255
 30
0.0
 11
1186.581911
 21
-347.128016
 31
0.0
  0
LINE
  8
0
  6
BYLAYER
 62
     1
 10
1194.081911
 20
-383.311488
 30
0.0
 11
1190.581911
 21
-383.128016
 31
0.0
  0
LINE
  8
0
  6
BYLAYER
 62
     1
 10
1190.581911
 20
-383.128016
 30
0.0
 11
1190.581911
 21
-186.770974
 31
0.0
  0
ARC
  8
0
  6
BYLAYER
 62
     1
 10
1261.581911
 20
-273.476436
 30
0.0
 40
3.0
 50
0.0
 51
87.032019
  0
ARC
  8
0
  6
BYLAYER
 62
     1
 10
1261.581911
 20
-242.779536
 30
0.0
 40
3.0
 50
272.967981
 51
360.000000
  0
ARC
  8
0
  6
BYLAYER
 62
     1
 10
1281.581911
 20
-273.476436
 30
0.0
 40
3.000000
 50
92.967981
 51
180.000000
  0
ARC
  8
0
  6
BYLAYER
 62
     1
 10
1281.581911
 20
-242.779536
 30
0.0
 40
3.0
 50
180.000000
 51
267.032005
  0
LINE
  8
0
  6
BYLAYER
 62
     7
 10
1228.081804
 20
-21.628017
 30
0.0
 11
1228.081804
 21
-0.128017
 31
0.0
  0
ARC
  8
0
  6
BYLAYER
 62
     7
 10
1226.581804
 20
-21.628017
 30
0.0
 40
1.5
 50
270.0
 51
360.0
  0
ARC
  8
0
  6
BYLAYER
 62
     7
 10
1229.581804
 20
-0.128017
 30
0.0
 40
1.500000
 50
90.0
 51
180.0
  0
LINE
  8
0
  6
BYLAYER
 62
     7
 10
1271.581804
 20
1.371983
 30
0.0
 11
1229.581804
 21
1.371983
 31
0.0
  0
LINE
  8
0
  6
BYLAYER
 62
     7
 10
1233.454045
 20
-21.628017
 30
0.0
 11
1233.454045
 21
-0.128017
 31
0.0
  0
ARC
  8
0
  6
BYLAYER
 62
     7
 10
1231.954045
 20
-21.628017
 30
0.0
 40
1.500000
 50
270.0
 51
360.0
  0
ARC
  8
0
  6
BYLAYER
 62
     7
 10
1234.954045
 20
-0.128017
 30
0.0
 40
1.5
 50
90.0
 51
180.0
  0
LINE
  8
0
  6
BYLAYER
 62
     7
 10
1258.488151
 20
1.371983
 30
0.0
 11
1258.980698
 21
-12.732715
 31
0.0
  0
ARC
  8
0
  6
BYLAYER
 62
     7
 10
1261.978870
 20
-12.628017
 30
0.0
 40
3.000000
 50
182.0
 51
270.0
  0
LINE
  8
0
  6
BYLAYER
 62
     7
 10
1269.182910
 20
-12.732715
 30
0.0
 11
1269.675457
 21
1.371983
 31
0.0
  0
ARC
  8
0
  6
BYLAYER
 62
     7
 10
1266.184738
 20
-12.628017
 30
0.0
 40
3.000000
 50
270.0
 51
358.0
  0
LINE
  8
0
  6
BYLAYER
 62
     7
 10
1261.978870
 20
-15.628017
 30
0.0
 11
1266.184738
 21
-15.628017
 31
0.0
  0
LINE
  8
0
  6
BYLAYER
 62
     7
 10
1243.488151
 20
1.371983
 30
0.0
 11
1243.980698
 21
-12.732715
 31
0.0
  0
ARC
  8
0
  6
BYLAYER
 62
     7
 10
1246.978870
 20
-12.628017
 30
0.0
 40
3.000000
 50
182.0
 51
270.0
  0
LINE
  8
0
  6
BYLAYER
 62
     7
 10
1254.182910
 20
-12.732715
 30
0.0
 11
1254.675457
 21
1.371983
 31
0.0
  0
ARC
  8
0
  6
BYLAYER
 62
     7
 10
1251.184738
 20
-12.628017
 30
0.0
 40
3.0
 50
270.0
 51
358.0
  0
LINE
  8
0
  6
BYLAYER
 62
     7
 10
1246.978870
 20
-15.628017
 30
0.0
 11
1251.184738
 21
-15.628017
 31
0.0
  0
LINE
  8
0
  6
BYLAYER
 62
     7
 10
1243.523072
 20
0.371983
 30
0.0
 11
1254.640536
 21
0.371983
 31
0.0
  0
LINE
  8
0
  6
BYLAYER
 62
     7
 10
1258.523072
 20
0.371983
 30
0.0
 11
1269.640536
 21
0.371983
 31
0.0
  0
LINE
  8
0
  6
BYLAYER
 62
     7
 10
1271.581804
 20
-23.128017
 30
0.0
 11
1224.081804
 21
-23.128017
 31
0.0
  0
ARC
  8
0
  6
BYLAYER
 62
     7
 10
1224.081804
 20
-24.628017
 30
0.0
 40
1.500000
 50
90.0
 51
180.0
  0
LINE
  8
0
  6
BYLAYER
 62
     7
 10
1222.581804
 20
-30.128017
 30
0.0
 11
1222.581804
 21
-24.628017
 31
0.0
  0
LINE
  8
0
  6
BYLAYER
 62
     7
 10
1222.581804
 20
-30.128017
 30
0.0
 11
1271.581804
 21
-30.128017
 31
0.0
  0
LINE
  8
0
  6
BYLAYER
 62
     7
 10
1315.081804
 20
-21.628017
 30
0.0
 11
1315.081804
 21
-0.128017
 31
0.0
  0
ARC
  8
0
  6
BYLAYER
 62
     7
 10
1316.581804
 20
-21.628017
 30
0.0
 40
1.500000
 50
180.000000
 51
270.000000
  0
ARC
  8
0
  6
BYLAYER
 62
     7
 10
1313.581804
 20
-0.128017
 30
0.0
 40
1.500000
 50
0.0
 51
90.0
  0
LINE
  8
0
  6
BYLAYER
 62
     7
 10
1271.581804
 20
1.371983
 30
0.0
 11
1313.581804
 21
1.371983
 31
0.0
  0
LINE
  8
0
  6
BYLAYER
 62
     7
 10
1309.709563
 20
-21.628017
 30
0.0
 11
1309.709563
 21
-0.128017
 31
0.0
  0
ARC
  8
0
  6
BYLAYER
 62
     7
 10
1311.209563
 20
-21.628017
 30
0.0
 40
1.500000
 50
180.000000
 51
270.000000
  0
ARC
  8
0
  6
BYLAYER
 62
     7
 10
1308.209563
 20
-0.128017
 30
0.0
 40
1.500000
 50
0.0
 51
90.0
  0
LINE
  8
0
  6
BYLAYER
 62
     7
 10
1284.675457
 20
1.371983
 30
0.0
 11
1284.182910
 21
-12.732715
 31
0.0
  0
ARC
  8
0
  6
BYLAYER
 62
     7
 10
1281.184738
 20
-12.628017
 30
0.0
 40
3.000000
 50
270.0
 51
358.0
  0
LINE
  8
0
  6
BYLAYER
 62
     7
 10
1273.980698
 20
-12.732715
 30
0.0
 11
1273.488151
 21
1.371983
 31
0.0
  0
ARC
  8
0
  6
BYLAYER
 62
     7
 10
1276.978870
 20
-12.628017
 30
0.0
 40
3.000000
 50
182.0
 51
270.0
  0
LINE
  8
0
  6
BYLAYER
 62
     7
 10
1281.184738
 20
-15.628017
 30
0.0
 11
1276.978870
 21
-15.628017
 31
0.0
  0
LINE
  8
0
  6
BYLAYER
 62
     7
 10
1299.675457
 20
1.371983
 30
0.0
 11
1299.182910
 21
-12.732715
 31
0.0
  0
ARC
  8
0
  6
BYLAYER
 62
     7
 10
1296.184738
 20
-12.628017
 30
0.0
 40
3.000000
 50
270.0
 51
358.0
  0
LINE
  8
0
  6
BYLAYER
 62
     7
 10
1288.980698
 20
-12.732715
 30
0.0
 11
1288.488151
 21
1.371983
 31
0.0
  0
ARC
  8
0
  6
BYLAYER
 62
     7
 10
1291.978870
 20
-12.628017
 30
0.0
 40
3.000000
 50
182.0
 51
270.0
  0
LINE
  8
0
  6
BYLAYER
 62
     7
 10
1296.184738
 20
-15.628017
 30
0.0
 11
1291.978870
 21
-15.628017
 31
0.0
  0
LINE
  8
0
  6
BYLAYER
 62
     7
 10
1299.640536
 20
0.371983
 30
0.0
 11
1288.523072
 21
0.371983
 31
0.0
  0
LINE
  8
0
  6
BYLAYER
 62
     7
 10
1284.640536
 20
0.371983
 30
0.0
 11
1273.523072
 21
0.371983
 31
0.0
  0
LINE
  8
0
  6
BYLAYER
 62
     7
 10
1271.581804
 20
-23.128017
 30
0.0
 11
1319.081804
 21
-23.128017
 31
0.0
  0
ARC
  8
0
  6
BYLAYER
 62
     7
 10
1319.081804
 20
-24.628017
 30
0.0
 40
1.500000
 50
0.0
 51
90.0
  0
LINE
  8
0
  6
BYLAYER
 62
     7
 10
1320.581804
 20
-32.128017
 30
0.0
 11
1320.581804
 21
-24.628017
 31
0.0
  0
LINE
  8
0
  6
BYLAYER
 62
     7
 10
1320.581804
 20
-30.128017
 30
0.0
 11
1271.581804
 21
-30.128017
 31
0.0
  0
LINE
  8
0
  6
BYLAYER
 62
     7
 10
1222.581804
 20
-32.128017
 30
0.0
 11
1271.581788
 21
-32.128017
 31
0.0
  0
LINE
  8
0
  6
BYLAYER
 62
     7
 10
1222.581804
 20
-37.628017
 30
0.0
 11
1225.581804
 21
-42.824184
 31
0.0
  0
LINE
  8
0
  6
BYLAYER
 62
     7
 10
1320.581788
 20
-32.127895
 30
0.0
 11
1271.581788
 21
-32.128017
 31
0.0
  0
LINE
  8
0
  6
BYLAYER
 62
     7
 10
1320.581788
 20
-37.627895
 30
0.0
 11
1317.581788
 21
-42.824062
 31
0.0
  0
LINE
  8
0
  6
BYLAYER
 62
     7
 10
1225.581804
 20
-42.824184
 30
0.0
 11
1225.581804
 21
-54.814420
 31
0.0
  0
LINE
  8
0
  6
BYLAYER
 62
     7
 10
1222.581804
 20
-32.128017
 30
0.0
 11
1222.581804
 21
-56.784603
 31
0.0
  0
LINE
  8
0
  6
BYLAYER
 62
     7
 10
1320.581788
 20
-32.127895
 30
0.0
 11
1320.581817
 21
-56.784465
 31
0.0
  0
LINE
  8
0
  6
BYLAYER
 62
     7
 10
1317.581788
 20
-42.824062
 30
0.0
 11
1317.581799
 21
-54.814283
 31
0.0
  0
LINE
  8
0
  6
BYLAYER
 62
     7
 10
1222.581804
 20
-30.128017
 30
0.0
 11
1222.581804
 21
-32.128017
 31
0.0
  0
LINE
  8
0
  6
BYLAYER
 62
     7
 10
1222.581804
 20
-32.128017
 30
0.0
 11
1320.581804
 21
-32.128017
 31
0.0
  0
LINE
  8
0
  6
BYLAYER
 62
     7
 10
1272.581911
 20
-99.127986
 30
0.0
 11
1272.581911
 21
-107.127986
 31
0.0
  0
LINE
  8
0
  6
BYLAYER
 62
     7
 10
1272.581911
 20
-89.127986
 30
0.0
 11
1272.581911
 21
-97.127986
 31
0.0
  0
LINE
  8
0
  6
BYLAYER
 62
     7
 10
1280.581911
 20
-97.127986
 30
0.0
 11
1280.581911
 21
-89.127986
 31
0.0
  0
LINE
  8
0
  6
BYLAYER
 62
     7
 10
1282.581911
 20
-97.127986
 30
0.0
 11
1282.581911
 21
-89.127986
 31
0.0
  0
LINE
  8
0
  6
BYLAYER
 62
     7
 10
1272.581911
 20
-107.127986
 30
0.0
 11
1280.581911
 21
-107.127986
 31
0.0
  0
LINE
  8
0
  6
BYLAYER
 62
     7
 10
1272.581911
 20
-99.127986
 30
0.0
 11
1280.581911
 21
-99.127986
 31
0.0
  0
LINE
  8
0
  6
BYLAYER
 62
     7
 10
1282.581911
 20
-97.127986
 30
0.0
 11
1290.419910
 21
-97.127986
 31
0.0
  0
LINE
  8
0
  6
BYLAYER
 62
     7
 10
1272.581911
 20
-97.127986
 30
0.0
 11
1280.581911
 21
-97.127986
 31
0.0
  0
LINE
  8
0
  6
BYLAYER
 62
     7
 10
1282.581911
 20
-89.127986
 30
0.0
 11
1290.419910
 21
-89.127986
 31
0.0
  0
LINE
  8
0
  6
BYLAYER
 62
     7
 10
1272.581911
 20
-89.127986
 30
0.0
 11
1280.581911
 21
-89.127986
 31
0.0
  0
LINE
  8
0
  6
BYLAYER
 62
     7
 10
1290.419910
 20
-97.127986
 30
0.0
 11
1290.419910
 21
-89.127986
 31
0.0
  0
LINE
  8
0
  6
BYLAYER
 62
     7
 10
1280.581911
 20
-107.127986
 30
0.0
 11
1280.581911
 21
-99.127986
 31
0.0
  0
LINE
  8
0
  6
BYLAYER
 62
     7
 10
1282.581911
 20
-99.127986
 30
0.0
 11
1282.581911
 21
-107.127986
 31
0.0
  0
LINE
  8
0
  6
BYLAYER
 62
     7
 10
1282.581911
 20
-107.127986
 30
0.0
 11
1290.581911
 21
-107.127986
 31
0.0
  0
LINE
  8
0
  6
BYLAYER
 62
     7
 10
1282.581911
 20
-99.127986
 30
0.0
 11
1290.581911
 21
-99.127986
 31
0.0
  0
LINE
  8
0
  6
BYLAYER
 62
     7
 10
1290.581911
 20
-107.127986
 30
0.0
 11
1290.581911
 21
-99.127986
 31
0.0
  0
LINE
  8
0
  6
BYLAYER
 62
     7
 10
1292.581911
 20
-117.127986
 30
0.0
 11
1300.581911
 21
-117.127986
 31
0.0
  0
LINE
  8
0
  6
BYLAYER
 62
     7
 10
1292.581911
 20
-99.127986
 30
0.0
 11
1292.581911
 21
-107.127986
 31
0.0
  0
LINE
  8
0
  6
BYLAYER
 62
     7
 10
1292.581911
 20
-109.127986
 30
0.0
 11
1292.581911
 21
-117.127986
 31
0.0
  0
LINE
  8
0
  6
BYLAYER
 62
     7
 10
1292.581911
 20
-109.127986
 30
0.0
 11
1300.581911
 21
-109.127986
 31
0.0
  0
LINE
  8
0
  6
BYLAYER
 62
     7
 10
1292.581911
 20
-107.127986
 30
0.0
 11
1300.581911
 21
-107.127986
 31
0.0
  0
LINE
  8
0
  6
BYLAYER
 62
     7
 10
1292.581911
 20
-99.127986
 30
0.0
 11
1300.581911
 21
-99.127986
 31
0.0
  0
LINE
  8
0
  6
BYLAYER
 62
     7
 10
1300.581911
 20
-117.127986
 30
0.0
 11
1300.581911
 21
-109.127986
 31
0.0
  0
LINE
  8
0
  6
BYLAYER
 62
     7
 10
1300.581911
 20
-107.127986
 30
0.0
 11
1300.581911
 21
-99.127986
 31
0.0
  0
LINE
  8
0
  6
BYLAYER
 62
     7
 10
1292.581911
 20
-127.127986
 30
0.0
 11
1300.581911
 21
-127.127986
 31
0.0
  0
LINE
  8
0
  6
BYLAYER
 62
     7
 10
1292.581911
 20
-119.127986
 30
0.0
 11
1292.581911
 21
-127.127986
 31
0.0
  0
LINE
  8
0
  6
BYLAYER
 62
     7
 10
1292.581911
 20
-119.127986
 30
0.0
 11
1300.581911
 21
-119.127986
 31
0.0
  0
LINE
  8
0
  6
BYLAYER
 62
     7
 10
1300.581911
 20
-127.127986
 30
0.0
 11
1300.581911
 21
-119.127986
 31
0.0
  0
LINE
  8
0
  6
BYLAYER
 62
     7
 10
1302.581911
 20
-117.127986
 30
0.0
 11
1310.581911
 21
-117.127986
 31
0.0
  0
LINE
  8
0
  6
BYLAYER
 62
     7
 10
1302.581911
 20
-109.127986
 30
0.0
 11
1302.581911
 21
-117.127986
 31
0.0
  0
LINE
  8
0
  6
BYLAYER
 62
     7
 10
1302.581911
 20
-109.127986
 30
0.0
 11
1310.581911
 21
-109.127986
 31
0.0
  0
LINE
  8
0
  6
BYLAYER
 62
     7
 10
1310.581911
 20
-117.127986
 30
0.0
 11
1310.581911
 21
-109.127986
 31
0.0
  0
LINE
  8
0
  6
BYLAYER
 62
     7
 10
1302.581911
 20
-127.127986
 30
0.0
 11
1310.581911
 21
-127.127986
 31
0.0
  0
LINE
  8
0
  6
BYLAYER
 62
     7
 10
1302.581911
 20
-119.127986
 30
0.0
 11
1302.581911
 21
-127.127986
 31
0.0
  0
LINE
  8
0
  6
BYLAYER
 62
     7
 10
1302.581911
 20
-119.127986
 30
0.0
 11
1310.581911
 21
-119.127986
 31
0.0
  0
LINE
  8
0
  6
BYLAYER
 62
     7
 10
1310.581911
 20
-127.127986
 30
0.0
 11
1310.581911
 21
-119.127986
 31
0.0
  0
LINE
  8
0
  6
BYLAYER
 62
     7
 10
1312.581911
 20
-117.127986
 30
0.0
 11
1320.581911
 21
-117.127986
 31
0.0
  0
LINE
  8
0
  6
BYLAYER
 62
     7
 10
1312.581911
 20
-109.127986
 30
0.0
 11
1312.581911
 21
-117.127986
 31
0.0
  0
LINE
  8
0
  6
BYLAYER
 62
     7
 10
1312.581911
 20
-109.127986
 30
0.0
 11
1320.581911
 21
-109.127986
 31
0.0
  0
LINE
  8
0
  6
BYLAYER
 62
     7
 10
1320.581911
 20
-117.127986
 30
0.0
 11
1320.581911
 21
-109.127986
 31
0.0
  0
LINE
  8
0
  6
BYLAYER
 62
     7
 10
1312.581911
 20
-127.127986
 30
0.0
 11
1320.581911
 21
-127.127986
 31
0.0
  0
LINE
  8
0
  6
BYLAYER
 62
     7
 10
1312.581911
 20
-119.127986
 30
0.0
 11
1312.581911
 21
-127.127986
 31
0.0
  0
LINE
  8
0
  6
BYLAYER
 62
     7
 10
1312.581911
 20
-119.127986
 30
0.0
 11
1320.581911
 21
-119.127986
 31
0.0
  0
LINE
  8
0
  6
BYLAYER
 62
     7
 10
1320.581911
 20
-127.127986
 30
0.0
 11
1320.581911
 21
-119.127986
 31
0.0
  0
LINE
  8
0
  6
BYLAYER
 62
     7
 10
1272.581911
 20
-79.127986
 30
0.0
 11
1272.581911
 21
-87.127986
 31
0.0
  0
LINE
  8
0
  6
BYLAYER
 62
     7
 10
1280.581911
 20
-87.127986
 30
0.0
 11
1280.581911
 21
-79.127986
 31
0.0
  0
LINE
  8
0
  6
BYLAYER
 62
     7
 10
1282.581911
 20
-87.127986
 30
0.0
 11
1282.581911
 21
-79.127986
 31
0.0
  0
LINE
  8
0
  6
BYLAYER
 62
     7
 10
1282.581911
 20
-87.127986
 30
0.0
 11
1290.419910
 21
-87.127986
 31
0.0
  0
LINE
  8
0
  6
BYLAYER
 62
     7
 10
1272.581911
 20
-87.127986
 30
0.0
 11
1280.581911
 21
-87.127986
 31
0.0
  0
LINE
  8
0
  6
BYLAYER
 62
     7
 10
1282.581911
 20
-79.127986
 30
0.0
 11
1290.419910
 21
-79.127986
 31
0.0
  0
LINE
  8
0
  6
BYLAYER
 62
     7
 10
1272.581911
 20
-79.127986
 30
0.0
 11
1280.581911
 21
-79.127986
 31
0.0
  0
LINE
  8
0
  6
BYLAYER
 62
     7
 10
1290.419910
 20
-87.127986
 30
0.0
 11
1290.419910
 21
-79.127986
 31
0.0
  0
LINE
  8
0
  6
BYLAYER
 62
     7
 10
1292.581911
 20
-89.127986
 30
0.0
 11
1292.581911
 21
-97.127986
 31
0.0
  0
LINE
  8
0
  6
BYLAYER
 62
     7
 10
1292.581911
 20
-97.127986
 30
0.0
 11
1300.581911
 21
-97.127986
 31
0.0
  0
LINE
  8
0
  6
BYLAYER
 62
     7
 10
1292.581911
 20
-89.127986
 30
0.0
 11
1300.581911
 21
-89.127986
 31
0.0
  0
LINE
  8
0
  6
BYLAYER
 62
     7
 10
1300.581911
 20
-97.127986
 30
0.0
 11
1300.581911
 21
-89.127986
 31
0.0
  0
LINE
  8
0
  6
BYLAYER
 62
     7
 10
1292.581911
 20
-79.127986
 30
0.0
 11
1292.581911
 21
-87.127986
 31
0.0
  0
LINE
  8
0
  6
BYLAYER
 62
     7
 10
1292.581911
 20
-87.127986
 30
0.0
 11
1300.581911
 21
-87.127986
 31
0.0
  0
LINE
  8
0
  6
BYLAYER
 62
     7
 10
1292.581911
 20
-79.127986
 30
0.0
 11
1300.581911
 21
-79.127986
 31
0.0
  0
LINE
  8
0
  6
BYLAYER
 62
     7
 10
1300.581911
 20
-87.127986
 30
0.0
 11
1300.581911
 21
-79.127986
 31
0.0
  0
LINE
  8
0
  6
BYLAYER
 62
     7
 10
1302.581911
 20
-99.127986
 30
0.0
 11
1302.581911
 21
-107.127986
 31
0.0
  0
LINE
  8
0
  6
BYLAYER
 62
     7
 10
1302.581911
 20
-107.127986
 30
0.0
 11
1310.581911
 21
-107.127986
 31
0.0
  0
LINE
  8
0
  6
BYLAYER
 62
     7
 10
1302.581911
 20
-99.127986
 30
0.0
 11
1310.581911
 21
-99.127986
 31
0.0
  0
LINE
  8
0
  6
BYLAYER
 62
     7
 10
1310.581911
 20
-107.127986
 30
0.0
 11
1310.581911
 21
-99.127986
 31
0.0
  0
LINE
  8
0
  6
BYLAYER
 62
     7
 10
1302.581911
 20
-89.127986
 30
0.0
 11
1302.581911
 21
-97.127986
 31
0.0
  0
LINE
  8
0
  6
BYLAYER
 62
     7
 10
1302.581911
 20
-97.127986
 30
0.0
 11
1310.581911
 21
-97.127986
 31
0.0
  0
LINE
  8
0
  6
BYLAYER
 62
     7
 10
1302.581911
 20
-89.127986
 30
0.0
 11
1310.581911
 21
-89.127986
 31
0.0
  0
LINE
  8
0
  6
BYLAYER
 62
     7
 10
1310.581911
 20
-97.127986
 30
0.0
 11
1310.581911
 21
-89.127986
 31
0.0
  0
LINE
  8
0
  6
BYLAYER
 62
     7
 10
1312.581911
 20
-99.127986
 30
0.0
 11
1312.581911
 21
-107.127986
 31
0.0
  0
LINE
  8
0
  6
BYLAYER
 62
     7
 10
1312.581911
 20
-107.127986
 30
0.0
 11
1320.581911
 21
-107.127986
 31
0.0
  0
LINE
  8
0
  6
BYLAYER
 62
     7
 10
1312.581911
 20
-99.127986
 30
0.0
 11
1320.581911
 21
-99.127986
 31
0.0
  0
LINE
  8
0
  6
BYLAYER
 62
     7
 10
1320.581911
 20
-107.127986
 30
0.0
 11
1320.581911
 21
-99.127986
 31
0.0
  0
CIRCLE
  8
0
  6
BYLAYER
 62
     7
 10
1271.581911
 20
-128.127986
 30
0.0
 40
4.0
  0
LINE
  8
0
  6
BYLAYER
 62
     7
 10
1322.581911
 20
-117.127986
 30
0.0
 11
1330.581911
 21
-117.127986
 31
0.0
  0
LINE
  8
0
  6
BYLAYER
 62
     7
 10
1322.581911
 20
-109.127986
 30
0.0
 11
1322.581911
 21
-117.127986
 31
0.0
  0
LINE
  8
0
  6
BYLAYER
 62
     7
 10
1322.581911
 20
-109.127986
 30
0.0
 11
1330.581911
 21
-109.127986
 31
0.0
  0
LINE
  8
0
  6
BYLAYER
 62
     7
 10
1330.581911
 20
-117.127986
 30
0.0
 11
1330.581911
 21
-109.127986
 31
0.0
  0
LINE
  8
0
  6
BYLAYER
 62
     7
 10
1322.581911
 20
-127.127986
 30
0.0
 11
1330.581911
 21
-127.127986
 31
0.0
  0
LINE
  8
0
  6
BYLAYER
 62
     7
 10
1322.581911
 20
-119.127986
 30
0.0
 11
1322.581911
 21
-127.127986
 31
0.0
  0
LINE
  8
0
  6
BYLAYER
 62
     7
 10
1322.581911
 20
-119.127986
 30
0.0
 11
1330.581911
 21
-119.127986
 31
0.0
  0
LINE
  8
0
  6
BYLAYER
 62
     7
 10
1330.581911
 20
-127.127986
 30
0.0
 11
1330.581911
 21
-119.127986
 31
0.0
  0
LINE
  8
0
  6
BYLAYER
 62
     7
 10
1322.581911
 20
-99.127986
 30
0.0
 11
1322.581911
 21
-107.127986
 31
0.0
  0
LINE
  8
0
  6
BYLAYER
 62
     7
 10
1322.581911
 20
-107.127986
 30
0.0
 11
1330.581911
 21
-107.127986
 31
0.0
  0
LINE
  8
0
  6
BYLAYER
 62
     7
 10
1322.581911
 20
-99.127986
 30
0.0
 11
1330.581911
 21
-99.127986
 31
0.0
  0
LINE
  8
0
  6
BYLAYER
 62
     7
 10
1330.581911
 20
-107.127986
 30
0.0
 11
1330.581911
 21
-99.127986
 31
0.0
  0
LINE
  8
0
  6
BYLAYER
 62
     7
 10
1272.581911
 20
-69.127986
 30
0.0
 11
1272.581911
 21
-77.127986
 31
0.0
  0
LINE
  8
0
  6
BYLAYER
 62
     7
 10
1280.581911
 20
-77.127986
 30
0.0
 11
1280.581911
 21
-69.127986
 31
0.0
  0
LINE
  8
0
  6
BYLAYER
 62
     7
 10
1282.581911
 20
-77.127986
 30
0.0
 11
1282.581911
 21
-69.127986
 31
0.0
  0
LINE
  8
0
  6
BYLAYER
 62
     7
 10
1282.581911
 20
-77.127986
 30
0.0
 11
1290.419910
 21
-77.127986
 31
0.0
  0
LINE
  8
0
  6
BYLAYER
 62
     7
 10
1272.581911
 20
-77.127986
 30
0.0
 11
1280.581911
 21
-77.127986
 31
0.0
  0
LINE
  8
0
  6
BYLAYER
 62
     7
 10
1282.581911
 20
-69.127986
 30
0.0
 11
1290.419910
 21
-69.127986
 31
0.0
  0
LINE
  8
0
  6
BYLAYER
 62
     7
 10
1272.581911
 20
-69.127986
 30
0.0
 11
1280.581911
 21
-69.127986
 31
0.0
  0
LINE
  8
0
  6
BYLAYER
 62
     7
 10
1290.419910
 20
-77.127986
 30
0.0
 11
1290.419910
 21
-69.127986
 31
0.0
  0
LINE
  8
0
  6
BYLAYER
 62
     7
 10
1292.581911
 20
-69.127986
 30
0.0
 11
1292.581911
 21
-77.127986
 31
0.0
  0
LINE
  8
0
  6
BYLAYER
 62
     7
 10
1292.581911
 20
-77.127986
 30
0.0
 11
1300.581911
 21
-77.127986
 31
0.0
  0
LINE
  8
0
  6
BYLAYER
 62
     7
 10
1292.581911
 20
-69.127986
 30
0.0
 11
1300.581911
 21
-69.127986
 31
0.0
  0
LINE
  8
0
  6
BYLAYER
 62
     7
 10
1300.581911
 20
-77.127986
 30
0.0
 11
1300.581911
 21
-69.127986
 31
0.0
  0
LINE
  8
0
  6
BYLAYER
 62
     7
 10
1302.581911
 20
-79.127986
 30
0.0
 11
1302.581911
 21
-87.127986
 31
0.0
  0
LINE
  8
0
  6
BYLAYER
 62
     7
 10
1302.581911
 20
-87.127986
 30
0.0
 11
1310.581911
 21
-87.127986
 31
0.0
  0
LINE
  8
0
  6
BYLAYER
 62
     7
 10
1302.581911
 20
-79.127986
 30
0.0
 11
1310.581911
 21
-79.127986
 31
0.0
  0
LINE
  8
0
  6
BYLAYER
 62
     7
 10
1310.581911
 20
-87.127986
 30
0.0
 11
1310.581911
 21
-79.127986
 31
0.0
  0
LINE
  8
0
  6
BYLAYER
 62
     7
 10
1312.581911
 20
-89.127986
 30
0.0
 11
1312.581911
 21
-97.127986
 31
0.0
  0
LINE
  8
0
  6
BYLAYER
 62
     7
 10
1312.581911
 20
-97.127986
 30
0.0
 11
1320.581911
 21
-97.127986
 31
0.0
  0
LINE
  8
0
  6
BYLAYER
 62
     7
 10
1312.581911
 20
-89.127986
 30
0.0
 11
1320.581911
 21
-89.127986
 31
0.0
  0
LINE
  8
0
  6
BYLAYER
 62
     7
 10
1320.581911
 20
-97.127986
 30
0.0
 11
1320.581911
 21
-89.127986
 31
0.0
  0
LINE
  8
0
  6
BYLAYER
 62
     7
 10
1272.581911
 20
-157.127986
 30
0.0
 11
1272.581911
 21
-149.127986
 31
0.0
  0
LINE
  8
0
  6
BYLAYER
 62
     7
 10
1272.581911
 20
-167.127986
 30
0.0
 11
1272.581911
 21
-159.127986
 31
0.0
  0
LINE
  8
0
  6
BYLAYER
 62
     7
 10
1280.581911
 20
-159.127986
 30
0.0
 11
1280.581911
 21
-167.127986
 31
0.0
  0
LINE
  8
0
  6
BYLAYER
 62
     7
 10
1282.581911
 20
-159.127986
 30
0.0
 11
1282.581911
 21
-167.127986
 31
0.0
  0
LINE
  8
0
  6
BYLAYER
 62
     7
 10
1272.581911
 20
-149.127986
 30
0.0
 11
1280.581911
 21
-149.127986
 31
0.0
  0
LINE
  8
0
  6
BYLAYER
 62
     7
 10
1272.581911
 20
-157.127986
 30
0.0
 11
1280.581911
 21
-157.127986
 31
0.0
  0
LINE
  8
0
  6
BYLAYER
 62
     7
 10
1282.581911
 20
-159.127986
 30
0.0
 11
1290.419910
 21
-159.127986
 31
0.0
  0
LINE
  8
0
  6
BYLAYER
 62
     7
 10
1272.581911
 20
-159.127986
 30
0.0
 11
1280.581911
 21
-159.127986
 31
0.0
  0
LINE
  8
0
  6
BYLAYER
 62
     7
 10
1282.581911
 20
-167.127986
 30
0.0
 11
1290.419910
 21
-167.127986
 31
0.0
  0
LINE
  8
0
  6
BYLAYER
 62
     7
 10
1272.581911
 20
-167.127986
 30
0.0
 11
1280.581911
 21
-167.127986
 31
0.0
  0
LINE
  8
0
  6
BYLAYER
 62
     7
 10
1290.419910
 20
-159.127986
 30
0.0
 11
1290.419910
 21
-167.127986
 31
0.0
  0
LINE
  8
0
  6
BYLAYER
 62
     7
 10
1280.581911
 20
-149.127986
 30
0.0
 11
1280.581911
 21
-157.127986
 31
0.0
  0
LINE
  8
0
  6
BYLAYER
 62
     7
 10
1282.581911
 20
-157.127986
 30
0.0
 11
1282.581911
 21
-149.127986
 31
0.0
  0
LINE
  8
0
  6
BYLAYER
 62
     7
 10
1282.581911
 20
-149.127986
 30
0.0
 11
1290.581911
 21
-149.127986
 31
0.0
  0
LINE
  8
0
  6
BYLAYER
 62
     7
 10
1282.581911
 20
-157.127986
 30
0.0
 11
1290.581911
 21
-157.127986
 31
0.0
  0
LINE
  8
0
  6
BYLAYER
 62
     7
 10
1290.581911
 20
-149.127986
 30
0.0
 11
1290.581911
 21
-157.127986
 31
0.0
  0
LINE
  8
0
  6
BYLAYER
 62
     7
 10
1292.581911
 20
-139.127986
 30
0.0
 11
1300.581911
 21
-139.127986
 31
0.0
  0
LINE
  8
0
  6
BYLAYER
 62
     7
 10
1292.581911
 20
-157.127986
 30
0.0
 11
1292.581911
 21
-149.127986
 31
0.0
  0
LINE
  8
0
  6
BYLAYER
 62
     7
 10
1292.581911
 20
-147.127986
 30
0.0
 11
1292.581911
 21
-139.127986
 31
0.0
  0
LINE
  8
0
  6
BYLAYER
 62
     7
 10
1292.581911
 20
-147.127986
 30
0.0
 11
1300.581911
 21
-147.127986
 31
0.0
  0
LINE
  8
0
  6
BYLAYER
 62
     7
 10
1292.581911
 20
-149.127986
 30
0.0
 11
1300.581911
 21
-149.127986
 31
0.0
  0
LINE
  8
0
  6
BYLAYER
 62
     7
 10
1292.581911
 20
-157.127986
 30
0.0
 11
1300.581911
 21
-157.127986
 31
0.0
  0
LINE
  8
0
  6
BYLAYER
 62
     7
 10
1300.581911
 20
-139.127986
 30
0.0
 11
1300.581911
 21
-147.127986
 31
0.0
  0
LINE
  8
0
  6
BYLAYER
 62
     7
 10
1300.581911
 20
-149.127986
 30
0.0
 11
1300.581911
 21
-157.127986
 31
0.0
  0
LINE
  8
0
  6
BYLAYER
 62
     7
 10
1292.581911
 20
-129.127986
 30
0.0
 11
1300.581911
 21
-129.127986
 31
0.0
  0
LINE
  8
0
  6
BYLAYER
 62
     7
 10
1292.581911
 20
-137.127986
 30
0.0
 11
1292.581911
 21
-129.127986
 31
0.0
  0
LINE
  8
0
  6
BYLAYER
 62
     7
 10
1292.581911
 20
-137.127986
 30
0.0
 11
1300.581911
 21
-137.127986
 31
0.0
  0
LINE
  8
0
  6
BYLAYER
 62
     7
 10
1300.581911
 20
-129.127986
 30
0.0
 11
1300.581911
 21
-137.127986
 31
0.0
  0
LINE
  8
0
  6
BYLAYER
 62
     7
 10
1302.581911
 20
-139.127986
 30
0.0
 11
1310.581911
 21
-139.127986
 31
0.0
  0
LINE
  8
0
  6
BYLAYER
 62
     7
 10
1302.581911
 20
-147.127986
 30
0.0
 11
1302.581911
 21
-139.127986
 31
0.0
  0
LINE
  8
0
  6
BYLAYER
 62
     7
 10
1302.581911
 20
-147.127986
 30
0.0
 11
1310.581911
 21
-147.127986
 31
0.0
  0
LINE
  8
0
  6
BYLAYER
 62
     7
 10
1310.581911
 20
-139.127986
 30
0.0
 11
1310.581911
 21
-147.127986
 31
0.0
  0
LINE
  8
0
  6
BYLAYER
 62
     7
 10
1302.581911
 20
-129.127986
 30
0.0
 11
1310.581911
 21
-129.127986
 31
0.0
  0
LINE
  8
0
  6
BYLAYER
 62
     7
 10
1302.581911
 20
-137.127986
 30
0.0
 11
1302.581911
 21
-129.127986
 31
0.0
  0
LINE
  8
0
  6
BYLAYER
 62
     7
 10
1302.581911
 20
-137.127986
 30
0.0
 11
1310.581911
 21
-137.127986
 31
0.0
  0
LINE
  8
0
  6
BYLAYER
 62
     7
 10
1310.581911
 20
-129.127986
 30
0.0
 11
1310.581911
 21
-137.127986
 31
0.0
  0
LINE
  8
0
  6
BYLAYER
 62
     7
 10
1312.581911
 20
-139.127986
 30
0.0
 11
1320.581911
 21
-139.127986
 31
0.0
  0
LINE
  8
0
  6
BYLAYER
 62
     7
 10
1312.581911
 20
-147.127986
 30
0.0
 11
1312.581911
 21
-139.127986
 31
0.0
  0
LINE
  8
0
  6
BYLAYER
 62
     7
 10
1312.581911
 20
-147.127986
 30
0.0
 11
1320.581911
 21
-147.127986
 31
0.0
  0
LINE
  8
0
  6
BYLAYER
 62
     7
 10
1320.581911
 20
-139.127986
 30
0.0
 11
1320.581911
 21
-147.127986
 31
0.0
  0
LINE
  8
0
  6
BYLAYER
 62
     7
 10
1312.581911
 20
-129.127986
 30
0.0
 11
1320.581911
 21
-129.127986
 31
0.0
  0
LINE
  8
0
  6
BYLAYER
 62
     7
 10
1312.581911
 20
-137.127986
 30
0.0
 11
1312.581911
 21
-129.127986
 31
0.0
  0
LINE
  8
0
  6
BYLAYER
 62
     7
 10
1312.581911
 20
-137.127986
 30
0.0
 11
1320.581911
 21
-137.127986
 31
0.0
  0
LINE
  8
0
  6
BYLAYER
 62
     7
 10
1320.581911
 20
-129.127986
 30
0.0
 11
1320.581911
 21
-137.127986
 31
0.0
  0
LINE
  8
0
  6
BYLAYER
 62
     7
 10
1272.581911
 20
-177.127986
 30
0.0
 11
1272.581911
 21
-169.127986
 31
0.0
  0
LINE
  8
0
  6
BYLAYER
 62
     7
 10
1280.581911
 20
-169.127986
 30
0.0
 11
1280.581911
 21
-177.127986
 31
0.0
  0
LINE
  8
0
  6
BYLAYER
 62
     7
 10
1282.581911
 20
-169.127986
 30
0.0
 11
1282.581911
 21
-177.127986
 31
0.0
  0
LINE
  8
0
  6
BYLAYER
 62
     7
 10
1282.581911
 20
-169.127986
 30
0.0
 11
1290.419910
 21
-169.127986
 31
0.0
  0
LINE
  8
0
  6
BYLAYER
 62
     7
 10
1272.581911
 20
-169.127986
 30
0.0
 11
1280.581911
 21
-169.127986
 31
0.0
  0
LINE
  8
0
  6
BYLAYER
 62
     7
 10
1282.581911
 20
-177.127986
 30
0.0
 11
1290.419910
 21
-177.127986
 31
0.0
  0
LINE
  8
0
  6
BYLAYER
 62
     7
 10
1272.581911
 20
-177.127986
 30
0.0
 11
1280.581911
 21
-177.127986
 31
0.0
  0
LINE
  8
0
  6
BYLAYER
 62
     7
 10
1290.419910
 20
-169.127986
 30
0.0
 11
1290.419910
 21
-177.127986
 31
0.0
  0
LINE
  8
0
  6
BYLAYER
 62
     7
 10
1292.581911
 20
-167.127986
 30
0.0
 11
1292.581911
 21
-159.127986
 31
0.0
  0
LINE
  8
0
  6
BYLAYER
 62
     7
 10
1292.581911
 20
-159.127986
 30
0.0
 11
1300.581911
 21
-159.127986
 31
0.0
  0
LINE
  8
0
  6
BYLAYER
 62
     7
 10
1292.581911
 20
-167.127986
 30
0.0
 11
1300.581911
 21
-167.127986
 31
0.0
  0
LINE
  8
0
  6
BYLAYER
 62
     7
 10
1300.581911
 20
-159.127986
 30
0.0
 11
1300.581911
 21
-167.127986
 31
0.0
  0
LINE
  8
0
  6
BYLAYER
 62
     7
 10
1292.581911
 20
-177.127986
 30
0.0
 11
1292.581911
 21
-169.127986
 31
0.0
  0
LINE
  8
0
  6
BYLAYER
 62
     7
 10
1292.581911
 20
-169.127986
 30
0.0
 11
1300.581911
 21
-169.127986
 31
0.0
  0
LINE
  8
0
  6
BYLAYER
 62
     7
 10
1292.581911
 20
-177.127986
 30
0.0
 11
1300.581911
 21
-177.127986
 31
0.0
  0
LINE
  8
0
  6
BYLAYER
 62
     7
 10
1300.581911
 20
-169.127986
 30
0.0
 11
1300.581911
 21
-177.127986
 31
0.0
  0
LINE
  8
0
  6
BYLAYER
 62
     7
 10
1302.581911
 20
-157.127986
 30
0.0
 11
1302.581911
 21
-149.127986
 31
0.0
  0
LINE
  8
0
  6
BYLAYER
 62
     7
 10
1302.581911
 20
-149.127986
 30
0.0
 11
1310.581911
 21
-149.127986
 31
0.0
  0
LINE
  8
0
  6
BYLAYER
 62
     7
 10
1302.581911
 20
-157.127986
 30
0.0
 11
1310.581911
 21
-157.127986
 31
0.0
  0
LINE
  8
0
  6
BYLAYER
 62
     7
 10
1310.581911
 20
-149.127986
 30
0.0
 11
1310.581911
 21
-157.127986
 31
0.0
  0
LINE
  8
0
  6
BYLAYER
 62
     7
 10
1302.581911
 20
-167.127986
 30
0.0
 11
1302.581911
 21
-159.127986
 31
0.0
  0
LINE
  8
0
  6
BYLAYER
 62
     7
 10
1302.581911
 20
-159.127986
 30
0.0
 11
1310.581911
 21
-159.127986
 31
0.0
  0
LINE
  8
0
  6
BYLAYER
 62
     7
 10
1302.581911
 20
-167.127986
 30
0.0
 11
1310.581911
 21
-167.127986
 31
0.0
  0
LINE
  8
0
  6
BYLAYER
 62
     7
 10
1310.581911
 20
-159.127986
 30
0.0
 11
1310.581911
 21
-167.127986
 31
0.0
  0
LINE
  8
0
  6
BYLAYER
 62
     7
 10
1312.581911
 20
-157.127986
 30
0.0
 11
1312.581911
 21
-149.127986
 31
0.0
  0
LINE
  8
0
  6
BYLAYER
 62
     7
 10
1312.581911
 20
-149.127986
 30
0.0
 11
1320.581911
 21
-149.127986
 31
0.0
  0
LINE
  8
0
  6
BYLAYER
 62
     7
 10
1312.581911
 20
-157.127986
 30
0.0
 11
1320.581911
 21
-157.127986
 31
0.0
  0
LINE
  8
0
  6
BYLAYER
 62
     7
 10
1320.581911
 20
-149.127986
 30
0.0
 11
1320.581911
 21
-157.127986
 31
0.0
  0
LINE
  8
0
  6
BYLAYER
 62
     7
 10
1322.581911
 20
-139.127986
 30
0.0
 11
1330.581911
 21
-139.127986
 31
0.0
  0
LINE
  8
0
  6
BYLAYER
 62
     7
 10
1322.581911
 20
-147.127986
 30
0.0
 11
1322.581911
 21
-139.127986
 31
0.0
  0
LINE
  8
0
  6
BYLAYER
 62
     7
 10
1322.581911
 20
-147.127986
 30
0.0
 11
1330.581911
 21
-147.127986
 31
0.0
  0
LINE
  8
0
  6
BYLAYER
 62
     7
 10
1330.581911
 20
-139.127986
 30
0.0
 11
1330.581911
 21
-147.127986
 31
0.0
  0
LINE
  8
0
  6
BYLAYER
 62
     7
 10
1322.581911
 20
-129.127986
 30
0.0
 11
1330.581911
 21
-129.127986
 31
0.0
  0
LINE
  8
0
  6
BYLAYER
 62
     7
 10
1322.581911
 20
-137.127986
 30
0.0
 11
1322.581911
 21
-129.127986
 31
0.0
  0
LINE
  8
0
  6
BYLAYER
 62
     7
 10
1322.581911
 20
-137.127986
 30
0.0
 11
1330.581911
 21
-137.127986
 31
0.0
  0
LINE
  8
0
  6
BYLAYER
 62
     7
 10
1330.581911
 20
-129.127986
 30
0.0
 11
1330.581911
 21
-137.127986
 31
0.0
  0
LINE
  8
0
  6
BYLAYER
 62
     7
 10
1322.581911
 20
-157.127986
 30
0.0
 11
1322.581911
 21
-149.127986
 31
0.0
  0
LINE
  8
0
  6
BYLAYER
 62
     7
 10
1322.581911
 20
-149.127986
 30
0.0
 11
1330.581911
 21
-149.127986
 31
0.0
  0
LINE
  8
0
  6
BYLAYER
 62
     7
 10
1322.581911
 20
-157.127986
 30
0.0
 11
1330.581911
 21
-157.127986
 31
0.0
  0
LINE
  8
0
  6
BYLAYER
 62
     7
 10
1330.581911
 20
-149.127986
 30
0.0
 11
1330.581911
 21
-157.127986
 31
0.0
  0
LINE
  8
0
  6
BYLAYER
 62
     7
 10
1272.581911
 20
-187.127986
 30
0.0
 11
1272.581911
 21
-179.127986
 31
0.0
  0
LINE
  8
0
  6
BYLAYER
 62
     7
 10
1280.581911
 20
-179.127986
 30
0.0
 11
1280.581911
 21
-187.127986
 31
0.0
  0
LINE
  8
0
  6
BYLAYER
 62
     7
 10
1282.581911
 20
-179.127986
 30
0.0
 11
1282.581911
 21
-187.127986
 31
0.0
  0
LINE
  8
0
  6
BYLAYER
 62
     7
 10
1282.581911
 20
-179.127986
 30
0.0
 11
1290.419910
 21
-179.127986
 31
0.0
  0
LINE
  8
0
  6
BYLAYER
 62
     7
 10
1272.581911
 20
-179.127986
 30
0.0
 11
1280.581911
 21
-179.127986
 31
0.0
  0
LINE
  8
0
  6
BYLAYER
 62
     7
 10
1282.581911
 20
-187.127986
 30
0.0
 11
1290.419910
 21
-187.127986
 31
0.0
  0
LINE
  8
0
  6
BYLAYER
 62
     7
 10
1272.581911
 20
-187.127986
 30
0.0
 11
1280.581911
 21
-187.127986
 31
0.0
  0
LINE
  8
0
  6
BYLAYER
 62
     7
 10
1290.419910
 20
-179.127986
 30
0.0
 11
1290.419910
 21
-187.127986
 31
0.0
  0
LINE
  8
0
  6
BYLAYER
 62
     7
 10
1292.581911
 20
-187.127986
 30
0.0
 11
1292.581911
 21
-179.127986
 31
0.0
  0
LINE
  8
0
  6
BYLAYER
 62
     7
 10
1292.581911
 20
-179.127986
 30
0.0
 11
1300.581911
 21
-179.127986
 31
0.0
  0
LINE
  8
0
  6
BYLAYER
 62
     7
 10
1292.581911
 20
-187.127986
 30
0.0
 11
1300.581911
 21
-187.127986
 31
0.0
  0
LINE
  8
0
  6
BYLAYER
 62
     7
 10
1300.581911
 20
-179.127986
 30
0.0
 11
1300.581911
 21
-187.127986
 31
0.0
  0
LINE
  8
0
  6
BYLAYER
 62
     7
 10
1302.581911
 20
-177.127986
 30
0.0
 11
1302.581911
 21
-169.127986
 31
0.0
  0
LINE
  8
0
  6
BYLAYER
 62
     7
 10
1302.581911
 20
-169.127986
 30
0.0
 11
1310.581911
 21
-169.127986
 31
0.0
  0
LINE
  8
0
  6
BYLAYER
 62
     7
 10
1302.581911
 20
-177.127986
 30
0.0
 11
1310.581911
 21
-177.127986
 31
0.0
  0
LINE
  8
0
  6
BYLAYER
 62
     7
 10
1310.581911
 20
-169.127986
 30
0.0
 11
1310.581911
 21
-177.127986
 31
0.0
  0
LINE
  8
0
  6
BYLAYER
 62
     7
 10
1312.581911
 20
-167.127986
 30
0.0
 11
1312.581911
 21
-159.127986
 31
0.0
  0
LINE
  8
0
  6
BYLAYER
 62
     7
 10
1312.581911
 20
-159.127986
 30
0.0
 11
1320.581911
 21
-159.127986
 31
0.0
  0
LINE
  8
0
  6
BYLAYER
 62
     7
 10
1312.581911
 20
-167.127986
 30
0.0
 11
1320.581911
 21
-167.127986
 31
0.0
  0
LINE
  8
0
  6
BYLAYER
 62
     7
 10
1320.581911
 20
-159.127986
 30
0.0
 11
1320.581911
 21
-167.127986
 31
0.0
  0
LINE
  8
0
  6
BYLAYER
 62
     7
 10
1270.581911
 20
-99.127986
 30
0.0
 11
1270.581911
 21
-107.127986
 31
0.0
  0
LINE
  8
0
  6
BYLAYER
 62
     7
 10
1270.581911
 20
-89.127986
 30
0.0
 11
1270.581911
 21
-97.127986
 31
0.0
  0
LINE
  8
0
  6
BYLAYER
 62
     7
 10
1262.581911
 20
-97.127986
 30
0.0
 11
1262.581911
 21
-89.127986
 31
0.0
  0
LINE
  8
0
  6
BYLAYER
 62
     7
 10
1260.581911
 20
-97.127986
 30
0.0
 11
1260.581911
 21
-89.127986
 31
0.0
  0
LINE
  8
0
  6
BYLAYER
 62
     7
 10
1270.581911
 20
-107.127986
 30
0.0
 11
1262.581911
 21
-107.127986
 31
0.0
  0
LINE
  8
0
  6
BYLAYER
 62
     7
 10
1270.581911
 20
-99.127986
 30
0.0
 11
1262.581911
 21
-99.127986
 31
0.0
  0
LINE
  8
0
  6
BYLAYER
 62
     7
 10
1260.581911
 20
-97.127986
 30
0.0
 11
1252.743912
 21
-97.127986
 31
0.0
  0
LINE
  8
0
  6
BYLAYER
 62
     7
 10
1270.581911
 20
-97.127986
 30
0.0
 11
1262.581911
 21
-97.127986
 31
0.0
  0
LINE
  8
0
  6
BYLAYER
 62
     7
 10
1260.581911
 20
-89.127986
 30
0.0
 11
1252.743912
 21
-89.127986
 31
0.0
  0
LINE
  8
0
  6
BYLAYER
 62
     7
 10
1270.581911
 20
-89.127986
 30
0.0
 11
1262.581911
 21
-89.127986
 31
0.0
  0
LINE
  8
0
  6
BYLAYER
 62
     7
 10
1252.743912
 20
-97.127986
 30
0.0
 11
1252.743912
 21
-89.127986
 31
0.0
  0
LINE
  8
0
  6
BYLAYER
 62
     7
 10
1262.581911
 20
-107.127986
 30
0.0
 11
1262.581911
 21
-99.127986
 31
0.0
  0
LINE
  8
0
  6
BYLAYER
 62
     7
 10
1260.581911
 20
-99.127986
 30
0.0
 11
1260.581911
 21
-107.127986
 31
0.0
  0
LINE
  8
0
  6
BYLAYER
 62
     7
 10
1260.581911
 20
-107.127986
 30
0.0
 11
1252.581911
 21
-107.127986
 31
0.0
  0
LINE
  8
0
  6
BYLAYER
 62
     7
 10
1260.581911
 20
-99.127986
 30
0.0
 11
1252.581911
 21
-99.127986
 31
0.0
  0
LINE
  8
0
  6
BYLAYER
 62
     7
 10
1252.581911
 20
-107.127986
 30
0.0
 11
1252.581911
 21
-99.127986
 31
0.0
  0
LINE
  8
0
  6
BYLAYER
 62
     7
 10
1250.581911
 20
-117.127986
 30
0.0
 11
1242.581911
 21
-117.127986
 31
0.0
  0
LINE
  8
0
  6
BYLAYER
 62
     7
 10
1250.581911
 20
-99.127986
 30
0.0
 11
1250.581911
 21
-107.127986
 31
0.0
  0
LINE
  8
0
  6
BYLAYER
 62
     7
 10
1250.581911
 20
-109.127986
 30
0.0
 11
1250.581911
 21
-117.127986
 31
0.0
  0
LINE
  8
0
  6
BYLAYER
 62
     7
 10
1250.581911
 20
-109.127986
 30
0.0
 11
1242.581911
 21
-109.127986
 31
0.0
  0
LINE
  8
0
  6
BYLAYER
 62
     7
 10
1250.581911
 20
-107.127986
 30
0.0
 11
1242.581911
 21
-107.127986
 31
0.0
  0
LINE
  8
0
  6
BYLAYER
 62
     7
 10
1250.581911
 20
-99.127986
 30
0.0
 11
1242.581911
 21
-99.127986
 31
0.0
  0
LINE
  8
0
  6
BYLAYER
 62
     7
 10
1242.581911
 20
-117.127986
 30
0.0
 11
1242.581911
 21
-109.127986
 31
0.0
  0
LINE
  8
0
  6
BYLAYER
 62
     7
 10
1242.581911
 20
-107.127986
 30
0.0
 11
1242.581911
 21
-99.127986
 31
0.0
  0
LINE
  8
0
  6
BYLAYER
 62
     7
 10
1250.581911
 20
-127.127986
 30
0.0
 11
1242.581911
 21
-127.127986
 31
0.0
  0
LINE
  8
0
  6
BYLAYER
 62
     7
 10
1250.581911
 20
-119.127986
 30
0.0
 11
1250.581911
 21
-127.127986
 31
0.0
  0
LINE
  8
0
  6
BYLAYER
 62
     7
 10
1250.581911
 20
-119.127986
 30
0.0
 11
1242.581911
 21
-119.127986
 31
0.0
  0
LINE
  8
0
  6
BYLAYER
 62
     7
 10
1242.581911
 20
-127.127986
 30
0.0
 11
1242.581911
 21
-119.127986
 31
0.0
  0
LINE
  8
0
  6
BYLAYER
 62
     7
 10
1240.581911
 20
-117.127986
 30
0.0
 11
1232.581911
 21
-117.127986
 31
0.0
  0
LINE
  8
0
  6
BYLAYER
 62
     7
 10
1240.581911
 20
-109.127986
 30
0.0
 11
1240.581911
 21
-117.127986
 31
0.0
  0
LINE
  8
0
  6
BYLAYER
 62
     7
 10
1240.581911
 20
-109.127986
 30
0.0
 11
1232.581911
 21
-109.127986
 31
0.0
  0
LINE
  8
0
  6
BYLAYER
 62
     7
 10
1232.581911
 20
-117.127986
 30
0.0
 11
1232.581911
 21
-109.127986
 31
0.0
  0
LINE
  8
0
  6
BYLAYER
 62
     7
 10
1240.581911
 20
-127.127986
 30
0.0
 11
1232.581911
 21
-127.127986
 31
0.0
  0
LINE
  8
0
  6
BYLAYER
 62
     7
 10
1240.581911
 20
-119.127986
 30
0.0
 11
1240.581911
 21
-127.127986
 31
0.0
  0
LINE
  8
0
  6
BYLAYER
 62
     7
 10
1240.581911
 20
-119.127986
 30
0.0
 11
1232.581911
 21
-119.127986
 31
0.0
  0
LINE
  8
0
  6
BYLAYER
 62
     7
 10
1232.581911
 20
-127.127986
 30
0.0
 11
1232.581911
 21
-119.127986
 31
0.0
  0
LINE
  8
0
  6
BYLAYER
 62
     7
 10
1230.581911
 20
-117.127986
 30
0.0
 11
1222.581911
 21
-117.127986
 31
0.0
  0
LINE
  8
0
  6
BYLAYER
 62
     7
 10
1230.581911
 20
-109.127986
 30
0.0
 11
1230.581911
 21
-117.127986
 31
0.0
  0
LINE
  8
0
  6
BYLAYER
 62
     7
 10
1230.581911
 20
-109.127986
 30
0.0
 11
1222.581911
 21
-109.127986
 31
0.0
  0
LINE
  8
0
  6
BYLAYER
 62
     7
 10
1222.581911
 20
-117.127986
 30
0.0
 11
1222.581911
 21
-109.127986
 31
0.0
  0
LINE
  8
0
  6
BYLAYER
 62
     7
 10
1230.581911
 20
-127.127986
 30
0.0
 11
1222.581911
 21
-127.127986
 31
0.0
  0
LINE
  8
0
  6
BYLAYER
 62
     7
 10
1230.581911
 20
-119.127986
 30
0.0
 11
1230.581911
 21
-127.127986
 31
0.0
  0
LINE
  8
0
  6
BYLAYER
 62
     7
 10
1230.581911
 20
-119.127986
 30
0.0
 11
1222.581911
 21
-119.127986
 31
0.0
  0
LINE
  8
0
  6
BYLAYER
 62
     7
 10
1222.581911
 20
-127.127986
 30
0.0
 11
1222.581911
 21
-119.127986
 31
0.0
  0
LINE
  8
0
  6
BYLAYER
 62
     7
 10
1270.581911
 20
-79.127986
 30
0.0
 11
1270.581911
 21
-87.127986
 31
0.0
  0
LINE
  8
0
  6
BYLAYER
 62
     7
 10
1262.581911
 20
-87.127986
 30
0.0
 11
1262.581911
 21
-79.127986
 31
0.0
  0
LINE
  8
0
  6
BYLAYER
 62
     7
 10
1260.581911
 20
-87.127986
 30
0.0
 11
1260.581911
 21
-79.127986
 31
0.0
  0
LINE
  8
0
  6
BYLAYER
 62
     7
 10
1260.581911
 20
-87.127986
 30
0.0
 11
1252.743912
 21
-87.127986
 31
0.0
  0
LINE
  8
0
  6
BYLAYER
 62
     7
 10
1270.581911
 20
-87.127986
 30
0.0
 11
1262.581911
 21
-87.127986
 31
0.0
  0
LINE
  8
0
  6
BYLAYER
 62
     7
 10
1260.581911
 20
-79.127986
 30
0.0
 11
1252.743912
 21
-79.127986
 31
0.0
  0
LINE
  8
0
  6
BYLAYER
 62
     7
 10
1270.581911
 20
-79.127986
 30
0.0
 11
1262.581911
 21
-79.127986
 31
0.0
  0
LINE
  8
0
  6
BYLAYER
 62
     7
 10
1252.743912
 20
-87.127986
 30
0.0
 11
1252.743912
 21
-79.127986
 31
0.0
  0
LINE
  8
0
  6
BYLAYER
 62
     7
 10
1250.581911
 20
-89.127986
 30
0.0
 11
1250.581911
 21
-97.127986
 31
0.0
  0
LINE
  8
0
  6
BYLAYER
 62
     7
 10
1250.581911
 20
-97.127986
 30
0.0
 11
1242.581911
 21
-97.127986
 31
0.0
  0
LINE
  8
0
  6
BYLAYER
 62
     7
 10
1250.581911
 20
-89.127986
 30
0.0
 11
1242.581911
 21
-89.127986
 31
0.0
  0
LINE
  8
0
  6
BYLAYER
 62
     7
 10
1242.581911
 20
-97.127986
 30
0.0
 11
1242.581911
 21
-89.127986
 31
0.0
  0
LINE
  8
0
  6
BYLAYER
 62
     7
 10
1250.581911
 20
-79.127986
 30
0.0
 11
1250.581911
 21
-87.127986
 31
0.0
  0
LINE
  8
0
  6
BYLAYER
 62
     7
 10
1250.581911
 20
-87.127986
 30
0.0
 11
1242.581911
 21
-87.127986
 31
0.0
  0
LINE
  8
0
  6
BYLAYER
 62
     7
 10
1250.581911
 20
-79.127986
 30
0.0
 11
1242.581911
 21
-79.127986
 31
0.0
  0
LINE
  8
0
  6
BYLAYER
 62
     7
 10
1242.581911
 20
-87.127986
 30
0.0
 11
1242.581911
 21
-79.127986
 31
0.0
  0
LINE
  8
0
  6
BYLAYER
 62
     7
 10
1240.581911
 20
-99.127986
 30
0.0
 11
1240.581911
 21
-107.127986
 31
0.0
  0
LINE
  8
0
  6
BYLAYER
 62
     7
 10
1240.581911
 20
-107.127986
 30
0.0
 11
1232.581911
 21
-107.127986
 31
0.0
  0
LINE
  8
0
  6
BYLAYER
 62
     7
 10
1240.581911
 20
-99.127986
 30
0.0
 11
1232.581911
 21
-99.127986
 31
0.0
  0
LINE
  8
0
  6
BYLAYER
 62
     7
 10
1232.581911
 20
-107.127986
 30
0.0
 11
1232.581911
 21
-99.127986
 31
0.0
  0
LINE
  8
0
  6
BYLAYER
 62
     7
 10
1240.581911
 20
-89.127986
 30
0.0
 11
1240.581911
 21
-97.127986
 31
0.0
  0
LINE
  8
0
  6
BYLAYER
 62
     7
 10
1240.581911
 20
-97.127986
 30
0.0
 11
1232.581911
 21
-97.127986
 31
0.0
  0
LINE
  8
0
  6
BYLAYER
 62
     7
 10
1240.581911
 20
-89.127986
 30
0.0
 11
1232.581911
 21
-89.127986
 31
0.0
  0
LINE
  8
0
  6
BYLAYER
 62
     7
 10
1232.581911
 20
-97.127986
 30
0.0
 11
1232.581911
 21
-89.127986
 31
0.0
  0
LINE
  8
0
  6
BYLAYER
 62
     7
 10
1230.581911
 20
-99.127986
 30
0.0
 11
1230.581911
 21
-107.127986
 31
0.0
  0
LINE
  8
0
  6
BYLAYER
 62
     7
 10
1230.581911
 20
-107.127986
 30
0.0
 11
1222.581911
 21
-107.127986
 31
0.0
  0
LINE
  8
0
  6
BYLAYER
 62
     7
 10
1230.581911
 20
-99.127986
 30
0.0
 11
1222.581911
 21
-99.127986
 31
0.0
  0
LINE
  8
0
  6
BYLAYER
 62
     7
 10
1222.581911
 20
-107.127986
 30
0.0
 11
1222.581911
 21
-99.127986
 31
0.0
  0
LINE
  8
0
  6
BYLAYER
 62
     7
 10
1220.581911
 20
-117.127986
 30
0.0
 11
1212.581911
 21
-117.127986
 31
0.0
  0
LINE
  8
0
  6
BYLAYER
 62
     7
 10
1220.581911
 20
-109.127986
 30
0.0
 11
1220.581911
 21
-117.127986
 31
0.0
  0
LINE
  8
0
  6
BYLAYER
 62
     7
 10
1220.581911
 20
-109.127986
 30
0.0
 11
1212.581911
 21
-109.127986
 31
0.0
  0
LINE
  8
0
  6
BYLAYER
 62
     7
 10
1212.581911
 20
-117.127986
 30
0.0
 11
1212.581911
 21
-109.127986
 31
0.0
  0
LINE
  8
0
  6
BYLAYER
 62
     7
 10
1220.581911
 20
-127.127986
 30
0.0
 11
1212.581911
 21
-127.127986
 31
0.0
  0
LINE
  8
0
  6
BYLAYER
 62
     7
 10
1220.581911
 20
-119.127986
 30
0.0
 11
1220.581911
 21
-127.127986
 31
0.0
  0
LINE
  8
0
  6
BYLAYER
 62
     7
 10
1220.581911
 20
-119.127986
 30
0.0
 11
1212.581911
 21
-119.127986
 31
0.0
  0
LINE
  8
0
  6
BYLAYER
 62
     7
 10
1212.581911
 20
-127.127986
 30
0.0
 11
1212.581911
 21
-119.127986
 31
0.0
  0
LINE
  8
0
  6
BYLAYER
 62
     7
 10
1220.581911
 20
-99.127986
 30
0.0
 11
1220.581911
 21
-107.127986
 31
0.0
  0
LINE
  8
0
  6
BYLAYER
 62
     7
 10
1220.581911
 20
-107.127986
 30
0.0
 11
1212.581911
 21
-107.127986
 31
0.0
  0
LINE
  8
0
  6
BYLAYER
 62
     7
 10
1220.581911
 20
-99.127986
 30
0.0
 11
1212.581911
 21
-99.127986
 31
0.0
  0
LINE
  8
0
  6
BYLAYER
 62
     7
 10
1212.581911
 20
-107.127986
 30
0.0
 11
1212.581911
 21
-99.127986
 31
0.0
  0
LINE
  8
0
  6
BYLAYER
 62
     7
 10
1270.581911
 20
-69.127986
 30
0.0
 11
1270.581911
 21
-77.127986
 31
0.0
  0
LINE
  8
0
  6
BYLAYER
 62
     7
 10
1262.581911
 20
-77.127986
 30
0.0
 11
1262.581911
 21
-69.127986
 31
0.0
  0
LINE
  8
0
  6
BYLAYER
 62
     7
 10
1260.581911
 20
-77.127986
 30
0.0
 11
1260.581911
 21
-69.127986
 31
0.0
  0
LINE
  8
0
  6
BYLAYER
 62
     7
 10
1260.581911
 20
-77.127986
 30
0.0
 11
1252.743912
 21
-77.127986
 31
0.0
  0
LINE
  8
0
  6
BYLAYER
 62
     7
 10
1270.581911
 20
-77.127986
 30
0.0
 11
1262.581911
 21
-77.127986
 31
0.0
  0
LINE
  8
0
  6
BYLAYER
 62
     7
 10
1260.581911
 20
-69.127986
 30
0.0
 11
1252.743912
 21
-69.127986
 31
0.0
  0
LINE
  8
0
  6
BYLAYER
 62
     7
 10
1270.581911
 20
-69.127986
 30
0.0
 11
1262.581911
 21
-69.127986
 31
0.0
  0
LINE
  8
0
  6
BYLAYER
 62
     7
 10
1252.743912
 20
-77.127986
 30
0.0
 11
1252.743912
 21
-69.127986
 31
0.0
  0
LINE
  8
0
  6
BYLAYER
 62
     7
 10
1250.581911
 20
-69.127986
 30
0.0
 11
1250.581911
 21
-77.127986
 31
0.0
  0
LINE
  8
0
  6
BYLAYER
 62
     7
 10
1250.581911
 20
-77.127986
 30
0.0
 11
1242.581911
 21
-77.127986
 31
0.0
  0
LINE
  8
0
  6
BYLAYER
 62
     7
 10
1250.581911
 20
-69.127986
 30
0.0
 11
1242.581911
 21
-69.127986
 31
0.0
  0
LINE
  8
0
  6
BYLAYER
 62
     7
 10
1242.581911
 20
-77.127986
 30
0.0
 11
1242.581911
 21
-69.127986
 31
0.0
  0
LINE
  8
0
  6
BYLAYER
 62
     7
 10
1240.581911
 20
-79.127986
 30
0.0
 11
1240.581911
 21
-87.127986
 31
0.0
  0
LINE
  8
0
  6
BYLAYER
 62
     7
 10
1240.581911
 20
-87.127986
 30
0.0
 11
1232.581911
 21
-87.127986
 31
0.0
  0
LINE
  8
0
  6
BYLAYER
 62
     7
 10
1240.581911
 20
-79.127986
 30
0.0
 11
1232.581911
 21
-79.127986
 31
0.0
  0
LINE
  8
0
  6
BYLAYER
 62
     7
 10
1232.581911
 20
-87.127986
 30
0.0
 11
1232.581911
 21
-79.127986
 31
0.0
  0
LINE
  8
0
  6
BYLAYER
 62
     7
 10
1230.581911
 20
-89.127986
 30
0.0
 11
1230.581911
 21
-97.127986
 31
0.0
  0
LINE
  8
0
  6
BYLAYER
 62
     7
 10
1230.581911
 20
-97.127986
 30
0.0
 11
1222.581911
 21
-97.127986
 31
0.0
  0
LINE
  8
0
  6
BYLAYER
 62
     7
 10
1230.581911
 20
-89.127986
 30
0.0
 11
1222.581911
 21
-89.127986
 31
0.0
  0
LINE
  8
0
  6
BYLAYER
 62
     7
 10
1222.581911
 20
-97.127986
 30
0.0
 11
1222.581911
 21
-89.127986
 31
0.0
  0
LINE
  8
0
  6
BYLAYER
 62
     7
 10
1270.581911
 20
-157.127986
 30
0.0
 11
1270.581911
 21
-149.127986
 31
0.0
  0
LINE
  8
0
  6
BYLAYER
 62
     7
 10
1270.581911
 20
-167.127986
 30
0.0
 11
1270.581911
 21
-159.127986
 31
0.0
  0
LINE
  8
0
  6
BYLAYER
 62
     7
 10
1262.581911
 20
-159.127986
 30
0.0
 11
1262.581911
 21
-167.127986
 31
0.0
  0
LINE
  8
0
  6
BYLAYER
 62
     7
 10
1260.581911
 20
-159.127986
 30
0.0
 11
1260.581911
 21
-167.127986
 31
0.0
  0
LINE
  8
0
  6
BYLAYER
 62
     7
 10
1270.581911
 20
-149.127986
 30
0.0
 11
1262.581911
 21
-149.127986
 31
0.0
  0
LINE
  8
0
  6
BYLAYER
 62
     7
 10
1270.581911
 20
-157.127986
 30
0.0
 11
1262.581911
 21
-157.127986
 31
0.0
  0
LINE
  8
0
  6
BYLAYER
 62
     7
 10
1260.581911
 20
-159.127986
 30
0.0
 11
1252.743912
 21
-159.127986
 31
0.0
  0
LINE
  8
0
  6
BYLAYER
 62
     7
 10
1270.581911
 20
-159.127986
 30
0.0
 11
1262.581911
 21
-159.127986
 31
0.0
  0
LINE
  8
0
  6
BYLAYER
 62
     7
 10
1260.581911
 20
-167.127986
 30
0.0
 11
1252.743912
 21
-167.127986
 31
0.0
  0
LINE
  8
0
  6
BYLAYER
 62
     7
 10
1270.581911
 20
-167.127986
 30
0.0
 11
1262.581911
 21
-167.127986
 31
0.0
  0
LINE
  8
0
  6
BYLAYER
 62
     7
 10
1252.743912
 20
-159.127986
 30
0.0
 11
1252.743912
 21
-167.127986
 31
0.0
  0
LINE
  8
0
  6
BYLAYER
 62
     7
 10
1262.581911
 20
-149.127986
 30
0.0
 11
1262.581911
 21
-157.127986
 31
0.0
  0
LINE
  8
0
  6
BYLAYER
 62
     7
 10
1260.581911
 20
-157.127986
 30
0.0
 11
1260.581911
 21
-149.127986
 31
0.0
  0
LINE
  8
0
  6
BYLAYER
 62
     7
 10
1260.581911
 20
-149.127986
 30
0.0
 11
1252.581911
 21
-149.127986
 31
0.0
  0
LINE
  8
0
  6
BYLAYER
 62
     7
 10
1260.581911
 20
-157.127986
 30
0.0
 11
1252.581911
 21
-157.127986
 31
0.0
  0
LINE
  8
0
  6
BYLAYER
 62
     7
 10
1252.581911
 20
-149.127986
 30
0.0
 11
1252.581911
 21
-157.127986
 31
0.0
  0
LINE
  8
0
  6
BYLAYER
 62
     7
 10
1250.581911
 20
-139.127986
 30
0.0
 11
1242.581911
 21
-139.127986
 31
0.0
  0
LINE
  8
0
  6
BYLAYER
 62
     7
 10
1250.581911
 20
-157.127986
 30
0.0
 11
1250.581911
 21
-149.127986
 31
0.0
  0
LINE
  8
0
  6
BYLAYER
 62
     7
 10
1250.581911
 20
-147.127986
 30
0.0
 11
1250.581911
 21
-139.127986
 31
0.0
  0
LINE
  8
0
  6
BYLAYER
 62
     7
 10
1250.581911
 20
-147.127986
 30
0.0
 11
1242.581911
 21
-147.127986
 31
0.0
  0
LINE
  8
0
  6
BYLAYER
 62
     7
 10
1250.581911
 20
-149.127986
 30
0.0
 11
1242.581911
 21
-149.127986
 31
0.0
  0
LINE
  8
0
  6
BYLAYER
 62
     7
 10
1250.581911
 20
-157.127986
 30
0.0
 11
1242.581911
 21
-157.127986
 31
0.0
  0
LINE
  8
0
  6
BYLAYER
 62
     7
 10
1242.581911
 20
-139.127986
 30
0.0
 11
1242.581911
 21
-147.127986
 31
0.0
  0
LINE
  8
0
  6
BYLAYER
 62
     7
 10
1242.581911
 20
-149.127986
 30
0.0
 11
1242.581911
 21
-157.127986
 31
0.0
  0
LINE
  8
0
  6
BYLAYER
 62
     7
 10
1250.581911
 20
-129.127986
 30
0.0
 11
1242.581911
 21
-129.127986
 31
0.0
  0
LINE
  8
0
  6
BYLAYER
 62
     7
 10
1250.581911
 20
-137.127986
 30
0.0
 11
1250.581911
 21
-129.127986
 31
0.0
  0
LINE
  8
0
  6
BYLAYER
 62
     7
 10
1250.581911
 20
-137.127986
 30
0.0
 11
1242.581911
 21
-137.127986
 31
0.0
  0
LINE
  8
0
  6
BYLAYER
 62
     7
 10
1242.581911
 20
-129.127986
 30
0.0
 11
1242.581911
 21
-137.127986
 31
0.0
  0
LINE
  8
0
  6
BYLAYER
 62
     7
 10
1240.581911
 20
-139.127986
 30
0.0
 11
1232.581911
 21
-139.127986
 31
0.0
  0
LINE
  8
0
  6
BYLAYER
 62
     7
 10
1240.581911
 20
-147.127986
 30
0.0
 11
1240.581911
 21
-139.127986
 31
0.0
  0
LINE
  8
0
  6
BYLAYER
 62
     7
 10
1240.581911
 20
-147.127986
 30
0.0
 11
1232.581911
 21
-147.127986
 31
0.0
  0
LINE
  8
0
  6
BYLAYER
 62
     7
 10
1232.581911
 20
-139.127986
 30
0.0
 11
1232.581911
 21
-147.127986
 31
0.0
  0
LINE
  8
0
  6
BYLAYER
 62
     7
 10
1240.581911
 20
-129.127986
 30
0.0
 11
1232.581911
 21
-129.127986
 31
0.0
  0
LINE
  8
0
  6
BYLAYER
 62
     7
 10
1240.581911
 20
-137.127986
 30
0.0
 11
1240.581911
 21
-129.127986
 31
0.0
  0
LINE
  8
0
  6
BYLAYER
 62
     7
 10
1240.581911
 20
-137.127986
 30
0.0
 11
1232.581911
 21
-137.127986
 31
0.0
  0
LINE
  8
0
  6
BYLAYER
 62
     7
 10
1232.581911
 20
-129.127986
 30
0.0
 11
1232.581911
 21
-137.127986
 31
0.0
  0
LINE
  8
0
  6
BYLAYER
 62
     7
 10
1230.581911
 20
-139.127986
 30
0.0
 11
1222.581911
 21
-139.127986
 31
0.0
  0
LINE
  8
0
  6
BYLAYER
 62
     7
 10
1230.581911
 20
-147.127986
 30
0.0
 11
1230.581911
 21
-139.127986
 31
0.0
  0
LINE
  8
0
  6
BYLAYER
 62
     7
 10
1230.581911
 20
-147.127986
 30
0.0
 11
1222.581911
 21
-147.127986
 31
0.0
  0
LINE
  8
0
  6
BYLAYER
 62
     7
 10
1222.581911
 20
-139.127986
 30
0.0
 11
1222.581911
 21
-147.127986
 31
0.0
  0
LINE
  8
0
  6
BYLAYER
 62
     7
 10
1230.581911
 20
-129.127986
 30
0.0
 11
1222.581911
 21
-129.127986
 31
0.0
  0
LINE
  8
0
  6
BYLAYER
 62
     7
 10
1230.581911
 20
-137.127986
 30
0.0
 11
1230.581911
 21
-129.127986
 31
0.0
  0
LINE
  8
0
  6
BYLAYER
 62
     7
 10
1230.581911
 20
-137.127986
 30
0.0
 11
1222.581911
 21
-137.127986
 31
0.0
  0
LINE
  8
0
  6
BYLAYER
 62
     7
 10
1222.581911
 20
-129.127986
 30
0.0
 11
1222.581911
 21
-137.127986
 31
0.0
  0
LINE
  8
0
  6
BYLAYER
 62
     7
 10
1270.581911
 20
-177.127986
 30
0.0
 11
1270.581911
 21
-169.127986
 31
0.0
  0
LINE
  8
0
  6
BYLAYER
 62
     7
 10
1262.581911
 20
-169.127986
 30
0.0
 11
1262.581911
 21
-177.127986
 31
0.0
  0
LINE
  8
0
  6
BYLAYER
 62
     7
 10
1260.581911
 20
-169.127986
 30
0.0
 11
1260.581911
 21
-177.127986
 31
0.0
  0
LINE
  8
0
  6
BYLAYER
 62
     7
 10
1260.581911
 20
-169.127986
 30
0.0
 11
1252.743912
 21
-169.127986
 31
0.0
  0
LINE
  8
0
  6
BYLAYER
 62
     7
 10
1270.581911
 20
-169.127986
 30
0.0
 11
1262.581911
 21
-169.127986
 31
0.0
  0
LINE
  8
0
  6
BYLAYER
 62
     7
 10
1260.581911
 20
-177.127986
 30
0.0
 11
1252.743912
 21
-177.127986
 31
0.0
  0
LINE
  8
0
  6
BYLAYER
 62
     7
 10
1270.581911
 20
-177.127986
 30
0.0
 11
1262.581911
 21
-177.127986
 31
0.0
  0
LINE
  8
0
  6
BYLAYER
 62
     7
 10
1252.743912
 20
-169.127986
 30
0.0
 11
1252.743912
 21
-177.127986
 31
0.0
  0
LINE
  8
0
  6
BYLAYER
 62
     7
 10
1250.581911
 20
-167.127986
 30
0.0
 11
1250.581911
 21
-159.127986
 31
0.0
  0
LINE
  8
0
  6
BYLAYER
 62
     7
 10
1250.581911
 20
-159.127986
 30
0.0
 11
1242.581911
 21
-159.127986
 31
0.0
  0
LINE
  8
0
  6
BYLAYER
 62
     7
 10
1250.581911
 20
-167.127986
 30
0.0
 11
1242.581911
 21
-167.127986
 31
0.0
  0
LINE
  8
0
  6
BYLAYER
 62
     7
 10
1242.581911
 20
-159.127986
 30
0.0
 11
1242.581911
 21
-167.127986
 31
0.0
  0
LINE
  8
0
  6
BYLAYER
 62
     7
 10
1250.581911
 20
-177.127986
 30
0.0
 11
1250.581911
 21
-169.127986
 31
0.0
  0
LINE
  8
0
  6
BYLAYER
 62
     7
 10
1250.581911
 20
-169.127986
 30
0.0
 11
1242.581911
 21
-169.127986
 31
0.0
  0
LINE
  8
0
  6
BYLAYER
 62
     7
 10
1250.581911
 20
-177.127986
 30
0.0
 11
1242.581911
 21
-177.127986
 31
0.0
  0
LINE
  8
0
  6
BYLAYER
 62
     7
 10
1242.581911
 20
-169.127986
 30
0.0
 11
1242.581911
 21
-177.127986
 31
0.0
  0
LINE
  8
0
  6
BYLAYER
 62
     7
 10
1240.581911
 20
-157.127986
 30
0.0
 11
1240.581911
 21
-149.127986
 31
0.0
  0
LINE
  8
0
  6
BYLAYER
 62
     7
 10
1240.581911
 20
-149.127986
 30
0.0
 11
1232.581911
 21
-149.127986
 31
0.0
  0
LINE
  8
0
  6
BYLAYER
 62
     7
 10
1240.581911
 20
-157.127986
 30
0.0
 11
1232.581911
 21
-157.127986
 31
0.0
  0
LINE
  8
0
  6
BYLAYER
 62
     7
 10
1232.581911
 20
-149.127986
 30
0.0
 11
1232.581911
 21
-157.127986
 31
0.0
  0
LINE
  8
0
  6
BYLAYER
 62
     7
 10
1240.581911
 20
-167.127986
 30
0.0
 11
1240.581911
 21
-159.127986
 31
0.0
  0
LINE
  8
0
  6
BYLAYER
 62
     7
 10
1240.581911
 20
-159.127986
 30
0.0
 11
1232.581911
 21
-159.127986
 31
0.0
  0
LINE
  8
0
  6
BYLAYER
 62
     7
 10
1240.581911
 20
-167.127986
 30
0.0
 11
1232.581911
 21
-167.127986
 31
0.0
  0
LINE
  8
0
  6
BYLAYER
 62
     7
 10
1232.581911
 20
-159.127986
 30
0.0
 11
1232.581911
 21
-167.127986
 31
0.0
  0
LINE
  8
0
  6
BYLAYER
 62
     7
 10
1230.581911
 20
-157.127986
 30
0.0
 11
1230.581911
 21
-149.127986
 31
0.0
  0
LINE
  8
0
  6
BYLAYER
 62
     7
 10
1230.581911
 20
-149.127986
 30
0.0
 11
1222.581911
 21
-149.127986
 31
0.0
  0
LINE
  8
0
  6
BYLAYER
 62
     7
 10
1230.581911
 20
-157.127986
 30
0.0
 11
1222.581911
 21
-157.127986
 31
0.0
  0
LINE
  8
0
  6
BYLAYER
 62
     7
 10
1222.581911
 20
-149.127986
 30
0.0
 11
1222.581911
 21
-157.127986
 31
0.0
  0
LINE
  8
0
  6
BYLAYER
 62
     7
 10
1220.581911
 20
-139.127986
 30
0.0
 11
1212.581911
 21
-139.127986
 31
0.0
  0
LINE
  8
0
  6
BYLAYER
 62
     7
 10
1220.581911
 20
-147.127986
 30
0.0
 11
1220.581911
 21
-139.127986
 31
0.0
  0
LINE
  8
0
  6
BYLAYER
 62
     7
 10
1220.581911
 20
-147.127986
 30
0.0
 11
1212.581911
 21
-147.127986
 31
0.0
  0
LINE
  8
0
  6
BYLAYER
 62
     7
 10
1212.581911
 20
-139.127986
 30
0.0
 11
1212.581911
 21
-147.127986
 31
0.0
  0
LINE
  8
0
  6
BYLAYER
 62
     7
 10
1220.581911
 20
-129.127986
 30
0.0
 11
1212.581911
 21
-129.127986
 31
0.0
  0
LINE
  8
0
  6
BYLAYER
 62
     7
 10
1220.581911
 20
-137.127986
 30
0.0
 11
1220.581911
 21
-129.127986
 31
0.0
  0
LINE
  8
0
  6
BYLAYER
 62
     7
 10
1220.581911
 20
-137.127986
 30
0.0
 11
1212.581911
 21
-137.127986
 31
0.0
  0
LINE
  8
0
  6
BYLAYER
 62
     7
 10
1212.581911
 20
-129.127986
 30
0.0
 11
1212.581911
 21
-137.127986
 31
0.0
  0
LINE
  8
0
  6
BYLAYER
 62
     7
 10
1220.581911
 20
-157.127986
 30
0.0
 11
1220.581911
 21
-149.127986
 31
0.0
  0
LINE
  8
0
  6
BYLAYER
 62
     7
 10
1220.581911
 20
-149.127986
 30
0.0
 11
1212.581911
 21
-149.127986
 31
0.0
  0
LINE
  8
0
  6
BYLAYER
 62
     7
 10
1220.581911
 20
-157.127986
 30
0.0
 11
1212.581911
 21
-157.127986
 31
0.0
  0
LINE
  8
0
  6
BYLAYER
 62
     7
 10
1212.581911
 20
-149.127986
 30
0.0
 11
1212.581911
 21
-157.127986
 31
0.0
  0
LINE
  8
0
  6
BYLAYER
 62
     7
 10
1270.581911
 20
-187.127986
 30
0.0
 11
1270.581911
 21
-179.127986
 31
0.0
  0
LINE
  8
0
  6
BYLAYER
 62
     7
 10
1262.581911
 20
-179.127986
 30
0.0
 11
1262.581911
 21
-187.127986
 31
0.0
  0
LINE
  8
0
  6
BYLAYER
 62
     7
 10
1260.581911
 20
-179.127986
 30
0.0
 11
1260.581911
 21
-187.127986
 31
0.0
  0
LINE
  8
0
  6
BYLAYER
 62
     7
 10
1260.581911
 20
-179.127986
 30
0.0
 11
1252.743912
 21
-179.127986
 31
0.0
  0
LINE
  8
0
  6
BYLAYER
 62
     7
 10
1270.581911
 20
-179.127986
 30
0.0
 11
1262.581911
 21
-179.127986
 31
0.0
  0
LINE
  8
0
  6
BYLAYER
 62
     7
 10
1260.581911
 20
-187.127986
 30
0.0
 11
1252.743912
 21
-187.127986
 31
0.0
  0
LINE
  8
0
  6
BYLAYER
 62
     7
 10
1270.581911
 20
-187.127986
 30
0.0
 11
1262.581911
 21
-187.127986
 31
0.0
  0
LINE
  8
0
  6
BYLAYER
 62
     7
 10
1252.743912
 20
-179.127986
 30
0.0
 11
1252.743912
 21
-187.127986
 31
0.0
  0
LINE
  8
0
  6
BYLAYER
 62
     7
 10
1250.581911
 20
-187.127986
 30
0.0
 11
1250.581911
 21
-179.127986
 31
0.0
  0
LINE
  8
0
  6
BYLAYER
 62
     7
 10
1250.581911
 20
-179.127986
 30
0.0
 11
1242.581911
 21
-179.127986
 31
0.0
  0
LINE
  8
0
  6
BYLAYER
 62
     7
 10
1250.581911
 20
-187.127986
 30
0.0
 11
1242.581911
 21
-187.127986
 31
0.0
  0
LINE
  8
0
  6
BYLAYER
 62
     7
 10
1242.581911
 20
-179.127986
 30
0.0
 11
1242.581911
 21
-187.127986
 31
0.0
  0
LINE
  8
0
  6
BYLAYER
 62
     7
 10
1240.581911
 20
-177.127986
 30
0.0
 11
1240.581911
 21
-169.127986
 31
0.0
  0
LINE
  8
0
  6
BYLAYER
 62
     7
 10
1240.581911
 20
-169.127986
 30
0.0
 11
1232.581911
 21
-169.127986
 31
0.0
  0
LINE
  8
0
  6
BYLAYER
 62
     7
 10
1240.581911
 20
-177.127986
 30
0.0
 11
1232.581911
 21
-177.127986
 31
0.0
  0
LINE
  8
0
  6
BYLAYER
 62
     7
 10
1232.581911
 20
-169.127986
 30
0.0
 11
1232.581911
 21
-177.127986
 31
0.0
  0
LINE
  8
0
  6
BYLAYER
 62
     7
 10
1230.581911
 20
-167.127986
 30
0.0
 11
1230.581911
 21
-159.127986
 31
0.0
  0
LINE
  8
0
  6
BYLAYER
 62
     7
 10
1230.581911
 20
-159.127986
 30
0.0
 11
1222.581911
 21
-159.127986
 31
0.0
  0
LINE
  8
0
  6
BYLAYER
 62
     7
 10
1230.581911
 20
-167.127986
 30
0.0
 11
1222.581911
 21
-167.127986
 31
0.0
  0
LINE
  8
0
  6
BYLAYER
 62
     7
 10
1222.581911
 20
-159.127986
 30
0.0
 11
1222.581911
 21
-167.127986
 31
0.0
  0
CIRCLE
  8
0
  6
BYLAYER
 62
     7
 10
1271.581911
 20
-128.127986
 30
0.0
 40
71.999936
  0
CIRCLE
  8
0
  6
BYLAYER
 62
     7
 10
1271.581911
 20
-128.127986
 30
0.0
 40
86.549921
  0
ARC
  8
0
  6
BYLAYER
 62
     7
 10
1271.581911
 20
-128.127986
 30
0.0
 40
100.000000
 50
119.340652
 51
420.659492
  0
ARC
  8
0
  6
BYLAYER
 62
     7
 10
1271.581911
 20
-128.127986
 30
0.0
 40
96.000000
 50
323.301669
 51
356.934592
  0
ARC
  8
0
  6
BYLAYER
 62
     7
 10
1271.581911
 20
-128.127986
 30
0.0
 40
96.000000
 50
3.065408
 51
36.698331
  0
ARC
  8
0
  6
BYLAYER
 62
     7
 10
1271.581911
 20
-128.127986
 30
0.0
 40
96.000000
 50
233.301669
 51
266.934592
  0
ARC
  8
0
  6
BYLAYER
 62
     7
 10
1271.581911
 20
-128.127986
 30
0.0
 40
96.0
 50
273.065408
 51
306.698331
  0
ARC
  8
0
  6
BYLAYER
 62
     7
 10
1271.581911
 20
-128.127986
 30
0.0
 40
96.0
 50
183.065408
 51
216.698331
  0
ARC
  8
0
  6
BYLAYER
 62
     7
 10
1271.581911
 20
-128.127986
 30
0.0
 40
96.000000
 50
143.301669
 51
176.934592
  0
ARC
  8
0
  6
BYLAYER
 62
     7
 10
1271.581911
 20
-128.127986
 30
0.0
 40
96.000000
 50
120.691662
 51
126.698331
  0
ARC
  8
0
  6
BYLAYER
 62
     7
 10
1271.581911
 20
-128.127986
 30
0.0
 40
96.0
 50
53.301669
 51
59.308487
  0
ARC
  8
0
  6
BYLAYER
 62
     7
 10
1327.457678
 20
-53.160336
 30
0.0
 40
2.500000
 50
315.000000
 51
413.301669
  0
ARC
  8
0
  6
BYLAYER
 62
     7
 10
1346.549561
 20
-72.252219
 30
0.0
 40
2.500000
 50
36.698331
 51
135.000000
  0
CIRCLE
  8
0
  6
BYLAYER
 62
     7
 10
1271.581911
 20
-128.127986
 30
0.0
 40
70.0
  0
ARC
  8
0
  6
BYLAYER
 62
     7
 10
1329.918220
 20
-69.791677
 30
0.0
 40
5.5
 50
1.144516
 51
88.855484
  0
LINE
  8
0
  6
BYLAYER
 62
     7
 10
1324.507479
 20
-59.646068
 30
0.0
 11
1329.225445
 21
-54.928102
 31
0.0
  0
LINE
  8
0
  6
BYLAYER
 62
     7
 10
1340.063829
 20
-75.202418
 30
0.0
 11
1344.781795
 21
-70.484452
 31
0.0
  0
ARC
  8
0
  6
BYLAYER
 62
     7
 10
1215.706144
 20
-53.160336
 30
0.0
 40
2.500000
 50
126.698331
 51
225.000000
  0
ARC
  8
0
  6
BYLAYER
 62
     7
 10
1196.614261
 20
-72.252219
 30
0.0
 40
2.500000
 50
45.000000
 51
143.301669
  0
ARC
  8
0
  6
BYLAYER
 62
     7
 10
1213.245602
 20
-69.791677
 30
0.0
 40
5.5
 50
91.144516
 51
178.855484
  0
LINE
  8
0
  6
BYLAYER
 62
     7
 10
1218.656343
 20
-59.646068
 30
0.0
 11
1213.938377
 21
-54.928102
 31
0.0
  0
LINE
  8
0
  6
BYLAYER
 62
     7
 10
1203.099993
 20
-75.202418
 30
0.0
 11
1198.382027
 21
-70.484452
 31
0.0
  0
ARC
  8
0
  6
BYLAYER
 62
     7
 10
1327.457678
 20
-203.095636
 30
0.0
 40
2.500000
 50
306.698331
 51
405.000000
  0
ARC
  8
0
  6
BYLAYER
 62
     7
 10
1346.549561
 20
-184.003753
 30
0.0
 40
2.500000
 50
225.000000
 51
323.301669
  0
ARC
  8
0
  6
BYLAYER
 62
     7
 10
1329.918220
 20
-186.464295
 30
0.0
 40
5.5
 50
271.144516
 51
358.855484
  0
LINE
  8
0
  6
BYLAYER
 62
     7
 10
1324.507479
 20
-196.609904
 30
0.0
 11
1329.225445
 21
-201.327870
 31
0.0
  0
LINE
  8
0
  6
BYLAYER
 62
     7
 10
1340.063829
 20
-181.053554
 30
0.0
 11
1344.781795
 21
-185.771520
 31
0.0
  0
ARC
  8
0
  6
BYLAYER
 62
     7
 10
1215.706144
 20
-203.095636
 30
0.0
 40
2.500000
 50
135.000000
 51
233.301669
  0
ARC
  8
0
  6
BYLAYER
 62
     7
 10
1196.614261
 20
-184.003753
 30
0.0
 40
2.500000
 50
216.698331
 51
315.000000
  0
ARC
  8
0
  6
BYLAYER
 62
     7
 10
1213.245602
 20
-186.464295
 30
0.0
 40
5.5
 50
181.144516
 51
268.855484
  0
LINE
  8
0
  6
BYLAYER
 62
     7
 10
1218.656343
 20
-196.609904
 30
0.0
 11
1213.938377
 21
-201.327870
 31
0.0
  0
LINE
  8
0
  6
BYLAYER
 62
     7
 10
1203.099993
 20
-181.053554
 30
0.0
 11
1198.382027
 21
-185.771520
 31
0.0
  0
ARC
  8
0
  6
BYLAYER
 62
     7
 10
1178.215697
 20
-133.127986
 30
0.0
 40
2.5
 50
90.0
 51
183.065408
  0
ARC
  8
0
  6
BYLAYER
 62
     7
 10
1178.215697
 20
-123.127986
 30
0.0
 40
2.5
 50
176.934592
 51
270.0
  0
LINE
  8
0
  6
BYLAYER
 62
     7
 10
1178.215697
 20
-130.627986
 30
0.0
 11
1185.068104
 21
-130.627986
 31
0.0
  0
LINE
  8
0
  6
BYLAYER
 62
     7
 10
1178.215697
 20
-125.627986
 30
0.0
 11
1185.068104
 21
-125.627986
 31
0.0
  0
ARC
  8
0
  6
BYLAYER
 62
     7
 10
1276.581911
 20
-221.494200
 30
0.0
 40
2.5
 50
180.000000
 51
273.065408
  0
ARC
  8
0
  6
BYLAYER
 62
     7
 10
1266.581911
 20
-221.494200
 30
0.0
 40
2.500000
 50
266.934592
 51
360.000000
  0
LINE
  8
0
  6
BYLAYER
 62
     7
 10
1274.081911
 20
-221.494200
 30
0.0
 11
1274.081911
 21
-214.641793
 31
0.0
  0
LINE
  8
0
  6
BYLAYER
 62
     7
 10
1269.081911
 20
-221.494200
 30
0.0
 11
1269.081911
 21
-214.641793
 31
0.0
  0
ARC
  8
0
  6
BYLAYER
 62
     7
 10
1364.948125
 20
-123.127986
 30
0.0
 40
2.5
 50
270.0
 51
363.065408
  0
ARC
  8
0
  6
BYLAYER
 62
     7
 10
1364.948125
 20
-133.127986
 30
0.0
 40
2.5
 50
356.934592
 51
450.0
  0
LINE
  8
0
  6
BYLAYER
 62
     7
 10
1364.948125
 20
-125.627986
 30
0.0
 11
1358.095718
 21
-125.627986
 31
0.0
  0
LINE
  8
0
  6
BYLAYER
 62
     7
 10
1364.948125
 20
-130.627986
 30
0.0
 11
1358.095718
 21
-130.627986
 31
0.0
  0
LINE
  8
0
  6
BYLAYER
 62
     7
 10
1228.081804
 20
-641.628017
 30
0.0
 11
1228.081804
 21
-620.128017
 31
0.0
  0
ARC
  8
0
  6
BYLAYER
 62
     7
 10
1226.581804
 20
-641.628017
 30
0.0
 40
1.5
 50
270.0
 51
360.0
  0
ARC
  8
0
  6
BYLAYER
 62
     7
 10
1229.581804
 20
-620.128017
 30
0.0
 40
1.5
 50
90.0
 51
180.0
  0
LINE
  8
0
  6
BYLAYER
 62
     7
 10
1271.581804
 20
-618.628017
 30
0.0
 11
1229.581804
 21
-618.628017
 31
0.0
  0
LINE
  8
0
  6
BYLAYER
 62
     7
 10
1233.454045
 20
-641.628017
 30
0.0
 11
1233.454045
 21
-620.128017
 31
0.0
  0
ARC
  8
0
  6
BYLAYER
 62
     7
 10
1231.954045
 20
-641.628017
 30
0.0
 40
1.500000
 50
270.0
 51
360.0
  0
ARC
  8
0
  6
BYLAYER
 62
     7
 10
1234.954045
 20
-620.128017
 30
0.0
 40
1.5
 50
90.0
 51
180.0
  0
LINE
  8
0
  6
BYLAYER
 62
     7
 10
1258.488151
 20
-618.628017
 30
0.0
 11
1258.980698
 21
-632.732715
 31
0.0
  0
ARC
  8
0
  6
BYLAYER
 62
     7
 10
1261.978870
 20
-632.628017
 30
0.0
 40
3.000000
 50
182.000000
 51
270.000000
  0
LINE
  8
0
  6
BYLAYER
 62
     7
 10
1269.182910
 20
-632.732715
 30
0.0
 11
1269.675457
 21
-618.628017
 31
0.0
  0
ARC
  8
0
  6
BYLAYER
 62
     7
 10
1266.184738
 20
-632.628017
 30
0.0
 40
3.000000
 50
270.0
 51
358.0
  0
LINE
  8
0
  6
BYLAYER
 62
     7
 10
1261.978870
 20
-635.628017
 30
0.0
 11
1266.184738
 21
-635.628017
 31
0.0
  0
LINE
  8
0
  6
BYLAYER
 62
     7
 10
1243.488151
 20
-618.628017
 30
0.0
 11
1243.980698
 21
-632.732715
 31
0.0
  0
ARC
  8
0
  6
BYLAYER
 62
     7
 10
1246.978870
 20
-632.628017
 30
0.0
 40
3.000000
 50
182.000000
 51
270.000000
  0
LINE
  8
0
  6
BYLAYER
 62
     7
 10
1254.182910
 20
-632.732715
 30
0.0
 11
1254.675457
 21
-618.628017
 31
0.0
  0
ARC
  8
0
  6
BYLAYER
 62
     7
 10
1251.184738
 20
-632.628017
 30
0.0
 40
3.0
 50
270.0
 51
358.0
  0
LINE
  8
0
  6
BYLAYER
 62
     7
 10
1246.978870
 20
-635.628017
 30
0.0
 11
1251.184738
 21
-635.628017
 31
0.0
  0
LINE
  8
0
  6
BYLAYER
 62
     7
 10
1243.523072
 20
-619.628017
 30
0.0
 11
1254.640536
 21
-619.628017
 31
0.0
  0
LINE
  8
0
  6
BYLAYER
 62
     7
 10
1258.523072
 20
-619.628017
 30
0.0
 11
1269.640536
 21
-619.628017
 31
0.0
  0
LINE
  8
0
  6
BYLAYER
 62
     7
 10
1271.581804
 20
-643.128017
 30
0.0
 11
1224.081804
 21
-643.128017
 31
0.0
  0
ARC
  8
0
  6
BYLAYER
 62
     7
 10
1224.081804
 20
-644.628017
 30
0.0
 40
1.5
 50
90.0
 51
180.0
  0
LINE
  8
0
  6
BYLAYER
 62
     7
 10
1222.581804
 20
-650.128017
 30
0.0
 11
1222.581804
 21
-644.628017
 31
0.0
  0
LINE
  8
0
  6
BYLAYER
 62
     7
 10
1222.581804
 20
-650.128017
 30
0.0
 11
1251.682010
 21
-650.128017
 31
0.0
  0
LINE
  8
0
  6
BYLAYER
 62
     7
 10
1315.081804
 20
-641.628017
 30
0.0
 11
1315.081804
 21
-620.128017
 31
0.0
  0
ARC
  8
0
  6
BYLAYER
 62
     7
 10
1316.581804
 20
-641.628017
 30
0.0
 40
1.5
 50
180.000000
 51
270.000000
  0
ARC
  8
0
  6
BYLAYER
 62
     7
 10
1313.581804
 20
-620.128017
 30
0.0
 40
1.5
 50
0.0
 51
90.0
  0
LINE
  8
0
  6
BYLAYER
 62
     7
 10
1271.581804
 20
-618.628017
 30
0.0
 11
1313.581804
 21
-618.628017
 31
0.0
  0
LINE
  8
0
  6
BYLAYER
 62
     7
 10
1309.709563
 20
-641.628017
 30
0.0
 11
1309.709563
 21
-620.128017
 31
0.0
  0
ARC
  8
0
  6
BYLAYER
 62
     7
 10
1311.209563
 20
-641.628017
 30
0.0
 40
1.5
 50
180.000000
 51
270.000000
  0
ARC
  8
0
  6
BYLAYER
 62
     7
 10
1308.209563
 20
-620.128017
 30
0.0
 40
1.5
 50
0.0
 51
90.0
  0
LINE
  8
0
  6
BYLAYER
 62
     7
 10
1284.675457
 20
-618.628017
 30
0.0
 11
1284.182910
 21
-632.732715
 31
0.0
  0
ARC
  8
0
  6
BYLAYER
 62
     7
 10
1281.184738
 20
-632.628017
 30
0.0
 40
3.0
 50
270.0
 51
358.0
  0
LINE
  8
0
  6
BYLAYER
 62
     7
 10
1273.980698
 20
-632.732715
 30
0.0
 11
1273.488151
 21
-618.628017
 31
0.0
  0
ARC
  8
0
  6
BYLAYER
 62
     7
 10
1276.978870
 20
-632.628017
 30
0.0
 40
3.000000
 50
182.000000
 51
270.000000
  0
LINE
  8
0
  6
BYLAYER
 62
     7
 10
1281.184738
 20
-635.628017
 30
0.0
 11
1276.978870
 21
-635.628017
 31
0.0
  0
LINE
  8
0
  6
BYLAYER
 62
     7
 10
1299.675457
 20
-618.628017
 30
0.0
 11
1299.182910
 21
-632.732715
 31
0.0
  0
ARC
  8
0
  6
BYLAYER
 62
     7
 10
1296.184738
 20
-632.628017
 30
0.0
 40
3.0
 50
270.0
 51
358.0
  0
LINE
  8
0
  6
BYLAYER
 62
     7
 10
1288.980698
 20
-632.732715
 30
0.0
 11
1288.488151
 21
-618.628017
 31
0.0
  0
ARC
  8
0
  6
BYLAYER
 62
     7
 10
1291.978870
 20
-632.628017
 30
0.0
 40
3.000000
 50
182.000000
 51
270.000000
  0
LINE
  8
0
  6
BYLAYER
 62
     7
 10
1296.184738
 20
-635.628017
 30
0.0
 11
1291.978870
 21
-635.628017
 31
0.0
  0
LINE
  8
0
  6
BYLAYER
 62
     7
 10
1299.640536
 20
-619.628017
 30
0.0
 11
1288.523072
 21
-619.628017
 31
0.0
  0
LINE
  8
0
  6
BYLAYER
 62
     7
 10
1284.640536
 20
-619.628017
 30
0.0
 11
1273.523072
 21
-619.628017
 31
0.0
  0
LINE
  8
0
  6
BYLAYER
 62
     7
 10
1271.581804
 20
-643.128017
 30
0.0
 11
1319.081804
 21
-643.128017
 31
0.0
  0
ARC
  8
0
  6
BYLAYER
 62
     7
 10
1319.081804
 20
-644.628017
 30
0.0
 40
1.5
 50
0.0
 51
90.0
  0
LINE
  8
0
  6
BYLAYER
 62
     7
 10
1320.581804
 20
-652.128017
 30
0.0
 11
1320.581804
 21
-644.628017
 31
0.0
  0
LINE
  8
0
  6
BYLAYER
 62
     7
 10
1320.581804
 20
-650.128017
 30
0.0
 11
1291.481812
 21
-650.128017
 31
0.0
  0
LINE
  8
0
  6
BYLAYER
 62
     7
 10
1222.581804
 20
-652.128017
 30
0.0
 11
1243.581805
 21
-652.128017
 31
0.0
  0
LINE
  8
0
  6
BYLAYER
 62
     7
 10
1222.581804
 20
-657.628017
 30
0.0
 11
1224.039273
 21
-660.152435
 31
0.0
  0
LINE
  8
0
  6
BYLAYER
 62
     7
 10
1320.581788
 20
-652.127895
 30
0.0
 11
1299.581778
 21
-652.127947
 31
0.0
  0
LINE
  8
0
  6
BYLAYER
 62
     7
 10
1320.581788
 20
-657.627895
 30
0.0
 11
1319.124320
 21
-660.152311
 31
0.0
  0
LINE
  8
0
  6
BYLAYER
 62
     7
 10
1222.581804
 20
-652.128017
 30
0.0
 11
1222.581804
 21
-660.955803
 31
0.0
  0
LINE
  8
0
  6
BYLAYER
 62
     7
 10
1320.581788
 20
-652.127895
 30
0.0
 11
1320.581799
 21
-660.955679
 31
0.0
  0
LINE
  8
0
  6
BYLAYER
 62
     7
 10
1222.581804
 20
-650.128017
 30
0.0
 11
1222.581804
 21
-652.128017
 31
0.0
  0
ARC
  8
0
  6
BYLAYER
 62
     1
 10
1271.581911
 20
-748.127986
 30
0.0
 40
100.0
 50
328.211669
 51
571.788331
  0
ARC
  8
0
  6
BYLAYER
 62
     2
 10
1320.660768
 20
-687.311153
 30
0.0
 40
0.300014
 50
135.004126
 51
194.997489
  0
LINE
  8
0
  6
BYLAYER
 62
     2
 10
1320.448610
 20
-687.099025
 30
0.0
 11
1327.225527
 21
-680.322108
 31
0.0
  0
ARC
  8
0
  6
BYLAYER
 62
     2
 10
1327.437685
 20
-680.534267
 30
0.0
 40
0.300037
 50
75.001003
 51
135.000000
  0
LINE
  8
0
  6
BYLAYER
 62
     2
 10
1336.772768
 20
-682.725032
 30
0.0
 11
1327.515322
 21
-680.244502
 31
0.0
  0
ARC
  8
0
  6
BYLAYER
 62
     2
 10
1336.695131
 20
-683.014796
 30
0.0
 40
0.299985
 50
14.997490
 51
75.001003
  0
LINE
  8
0
  6
BYLAYER
 62
     2
 10
1339.045671
 20
-690.627925
 30
0.0
 11
1336.984926
 21
-682.937160
 31
0.0
  0
LINE
  8
0
  6
BYLAYER
 62
     2
 10
1321.238899
 20
-690.627925
 30
0.0
 11
1320.370974
 21
-687.388789
 31
0.0
  0
LINE
  8
0
  6
BYLAYER
 62
     2
 10
1206.178957
 20
-682.937129
 30
0.0
 11
1204.118211
 21
-690.627925
 31
0.0
  0
ARC
  8
0
  6
BYLAYER
 62
     2
 10
1206.468752
 20
-683.014766
 30
0.0
 40
0.300014
 50
104.997493
 51
165.001005
  0
LINE
  8
0
  6
BYLAYER
 62
     2
 10
1215.648500
 20
-680.244441
 30
0.0
 11
1206.391115
 21
-682.724971
 31
0.0
  0
ARC
  8
0
  6
BYLAYER
 62
     2
 10
1215.726137
 20
-680.534236
 30
0.0
 40
0.300014
 50
45.004123
 51
104.997493
  0
LINE
  8
0
  6
BYLAYER
 62
     2
 10
1222.715151
 20
-687.098994
 30
0.0
 11
1215.938234
 21
-680.322078
 31
0.0
  0
ARC
  8
0
  6
BYLAYER
 62
     2
 10
1222.503054
 20
-687.311153
 30
0.0
 40
0.299994
 50
345.002527
 51
405.004127
  0
LINE
  8
0
  6
BYLAYER
 62
     2
 10
1222.792849
 20
-687.388789
 30
0.0
 11
1221.924923
 21
-690.627925
 31
0.0
  0
ARC
  8
0
  6
BYLAYER
 62
     1
 10
1219.500627
 20
-674.859466
 30
0.0
 40
10.969972
 50
29.999906
 51
49.079955
  0
ARC
  8
0
  6
BYLAYER
 62
     1
 10
1224.037899
 20
-669.625198
 30
0.0
 40
4.042895
 50
49.079955
 51
68.628836
  0
ARC
  8
0
  6
BYLAYER
 62
     1
 10
1224.638243
 20
-668.091027
 30
0.0
 40
2.395444
 50
68.628836
 51
89.602208
  0
ARC
  8
0
  6
BYLAYER
 62
     1
 10
1224.679221
 20
-666.889025
 30
0.0
 40
1.193633
 50
91.168755
 51
120.000280
  0
ARC
  8
0
  6
BYLAYER
 62
     1
 10
1224.679228
 20
-666.889066
 30
0.0
 40
1.193672
 50
119.999581
 51
148.831074
  0
ARC
  8
0
  6
BYLAYER
 62
     1
 10
1225.740686
 20
-667.454583
 30
0.0
 40
2.395490
 50
150.397673
 51
171.371284
  0
ARC
  8
0
  6
BYLAYER
 62
     1
 10
1227.369491
 20
-667.701752
 30
0.0
 40
4.042942
 50
171.371284
 51
190.920192
  0
ARC
  8
0
  6
BYLAYER
 62
     1
 10
1234.170995
 20
-666.389502
 30
0.0
 40
10.969879
 50
190.920192
 51
210.000394
  0
LINE
  8
0
  6
BYLAYER
 62
     1
 10
1224.670839
 20
-671.874507
 30
0.0
 11
1224.670845
 21
-671.874517
 31
0.0
  0
ARC
  8
0
  6
BYLAYER
 62
     1
 10
1182.088930
 20
-756.597488
 30
0.0
 40
10.970052
 50
90.0
 51
109.08015
  0
ARC
  8
0
  6
BYLAYER
 62
     1
 10
1179.824526
 20
-750.050945
 30
0.0
 40
4.042949
 50
109.080150
 51
128.628974
  0
ARC
  8
0
  6
BYLAYER
 62
     1
 10
1178.796054
 20
-748.763936
 30
0.0
 40
2.395482
 50
128.628974
 51
149.602171
  0
ARC
  8
0
  6
BYLAYER
 62
     1
 10
1177.775561
 20
-748.127437
 30
0.0
 40
1.193650
 50
151.168658
 51
180.0
  0
ARC
  8
0
  6
BYLAYER
 62
     1
 10
1177.775561
 20
-748.127437
 30
0.0
 40
1.193650
 50
180.000000
 51
208.831342
  0
ARC
  8
0
  6
BYLAYER
 62
     1
 10
1178.796054
 20
-747.490937
 30
0.0
 40
2.395482
 50
210.397829
 51
231.371026
  0
ARC
  8
0
  6
BYLAYER
 62
     1
 10
1179.824526
 20
-746.203928
 30
0.0
 40
4.042949
 50
231.371026
 51
250.919850
  0
ARC
  8
0
  6
BYLAYER
 62
     1
 10
1182.088930
 20
-739.657385
 30
0.0
 40
10.970052
 50
250.919850
 51
270.000000
  0
LINE
  8
0
  6
BYLAYER
 62
     1
 10
1182.088869
 20
-750.627772
 30
0.0
 11
1194.081911
 21
-750.627854
 31
0.0
  0
LINE
  8
0
  6
BYLAYER
 62
     1
 10
1182.088869
 20
-745.627772
 30
0.0
 11
1194.081911
 21
-745.627830
 31
0.0
  0
ARC
  8
0
  6
BYLAYER
 62
     1
 10
1361.074892
 20
-739.658453
 30
0.0
 40
10.970052
 50
270.0
 51
289.080150
  0
ARC
  8
0
  6
BYLAYER
 62
     1
 10
1363.339296
 20
-746.204997
 30
0.0
 40
4.042949
 50
289.080150
 51
308.628974
  0
ARC
  8
0
  6
BYLAYER
 62
     1
 10
1364.367768
 20
-747.492005
 30
0.0
 40
2.395482
 50
308.628974
 51
329.602171
  0
ARC
  8
0
  6
BYLAYER
 62
     1
 10
1365.388261
 20
-748.128505
 30
0.0
 40
1.193650
 50
331.168658
 51
360.000000
  0
ARC
  8
0
  6
BYLAYER
 62
     1
 10
1365.388261
 20
-748.128505
 30
0.0
 40
1.193650
 50
0.0
 51
28.831342
  0
ARC
  8
0
  6
BYLAYER
 62
     1
 10
1364.367768
 20
-748.765004
 30
0.0
 40
2.395482
 50
30.397829
 51
51.371026
  0
ARC
  8
0
  6
BYLAYER
 62
     1
 10
1363.339296
 20
-750.052013
 30
0.0
 40
4.042949
 50
51.371026
 51
70.919850
  0
ARC
  8
0
  6
BYLAYER
 62
     1
 10
1361.074892
 20
-756.598556
 30
0.0
 40
10.970052
 50
70.919850
 51
90.000000
  0
LINE
  8
0
  6
BYLAYER
 62
     1
 10
1361.074892
 20
-745.628200
 30
0.0
 11
1349.081911
 21
-745.628118
 31
0.0
  0
LINE
  8
0
  6
BYLAYER
 62
     1
 10
1361.074892
 20
-750.628200
 30
0.0
 11
1349.081911
 21
-750.628142
 31
0.0
  0
ARC
  8
0
  6
BYLAYER
 62
     1
 10
1308.993771
 20
-666.390063
 30
0.0
 40
10.969848
 50
329.999817
 51
349.079878
  0
ARC
  8
0
  6
BYLAYER
 62
     1
 10
1315.795256
 20
-667.702300
 30
0.0
 40
4.042932
 50
349.079878
 51
368.628767
  0
ARC
  8
0
  6
BYLAYER
 62
     1
 10
1317.424055
 20
-667.455131
 30
0.0
 40
2.395486
 50
8.628767
 51
29.602368
  0
ARC
  8
0
  6
BYLAYER
 62
     1
 10
1318.485510
 20
-666.889616
 30
0.0
 40
1.193672
 50
31.168964
 51
60.000419
  0
ARC
  8
0
  6
BYLAYER
 62
     1
 10
1318.485517
 20
-666.889574
 30
0.0
 40
1.193633
 50
59.999720
 51
88.831246
  0
ARC
  8
0
  6
BYLAYER
 62
     1
 10
1318.526494
 20
-668.091576
 30
0.0
 40
2.395444
 50
90.397793
 51
111.371166
  0
ARC
  8
0
  6
BYLAYER
 62
     1
 10
1319.126839
 20
-669.625748
 30
0.0
 40
4.042896
 50
111.371166
 51
130.920048
  0
ARC
  8
0
  6
BYLAYER
 62
     1
 10
1323.664111
 20
-674.860016
 30
0.0
 40
10.969973
 50
130.920048
 51
150.000100
  0
LINE
  8
0
  6
BYLAYER
 62
     1
 10
1314.163576
 20
-669.374873
 30
0.0
 11
1301.892939
 21
-690.627925
 31
0.0
  0
LINE
  8
0
  6
BYLAYER
 62
     1
 10
1318.493654
 20
-671.874904
 30
0.0
 11
1307.666450
 21
-690.627925
 31
0.0
  0
ARC
  8
0
  6
BYLAYER
 62
     1
 10
1240.533022
 20
-687.349544
 30
0.0
 40
0.999990
 50
209.998414
 51
297.062385
  0
LINE
  8
0
  6
BYLAYER
 62
     1
 10
1241.271080
 20
-690.627925
 30
0.0
 11
1229.000673
 21
-669.374660
 31
0.0
  0
LINE
  8
0
  6
BYLAYER
 62
     1
 10
1235.497573
 20
-690.627925
 30
0.0
 11
1224.670534
 21
-671.874660
 31
0.0
  0
ARC
  8
0
  6
BYLAYER
 62
     1
 10
1302.630983
 20
-687.349544
 30
0.0
 40
0.999990
 50
242.939365
 51
329.998404
  0
ARC
  8
0
  6
BYLAYER
 62
     1
 10
1271.581911
 20
-748.127986
 30
0.0
 40
67.249939
 50
62.939469
 51
117.060358
  0
LINE
  8
0
  6
BYLAYER
 62
     1
 10
536.581911
 20
-931.877986
 30
0.0
 11
536.581911
 21
-878.127986
 31
0.0
  0
ARC
  8
0
  6
BYLAYER
 62
     1
 10
563.081911
 20
-976.127986
 30
0.0
 40
2.0
 50
180.000000
 51
270.000009
  0
LINE
  8
0
  6
BYLAYER
 62
     1
 10
571.581911
 20
-978.127986
 30
0.0
 11
563.081911
 21
-978.127986
 31
0.0
  0
LINE
  8
0
  6
BYLAYER
 62
     1
 10
561.081911
 20
-878.127986
 30
0.0
 11
561.081911
 21
-976.127986
 31
0.0
  0
ARC
  8
0
  6
BYLAYER
 62
     1
 10
559.081911
 20
-946.532680
 30
0.0
 40
2.000004
 50
0.0
 51
60.000063
  0
LINE
  8
0
  6
BYLAYER
 62
     1
 10
537.331240
 20
-931.917262
 30
0.0
 11
536.581911
 21
-931.877986
 31
0.0
  0
LINE
  8
0
  6
BYLAYER
 62
     1
 10
560.081911
 20
-944.800624
 30
0.0
 11
538.226595
 21
-932.182460
 31
0.0
  0
ARC
  8
0
  6
BYLAYER
 62
     1
 10
537.226595
 20
-933.914516
 30
0.0
 40
1.999993
 50
60.000063
 51
87.000784
  0
LINE
  8
0
  6
BYLAYER
 62
     1
 10
571.581911
 20
-878.127986
 30
0.0
 11
571.581911
 21
-978.127986
 31
0.0
  0
LINE
  8
0
  6
BYLAYER
 62
     1
 10
547.696962
 20
-937.650172
 30
0.0
 11
561.081911
 21
-960.400294
 31
0.0
  0
LINE
  8
0
  6
BYLAYER
 62
     1
 10
538.226595
 20
-932.182460
 30
0.0
 11
538.226595
 21
-878.127986
 31
0.0
  0
LINE
  8
0
  6
BYLAYER
 62
     1
 10
536.581911
 20
-824.377986
 30
0.0
 11
536.581911
 21
-878.127986
 31
0.0
  0
ARC
  8
0
  6
BYLAYER
 62
     1
 10
563.081911
 20
-780.127986
 30
0.0
 40
2.0
 50
90.0
 51
180.000009
  0
LINE
  8
0
  6
BYLAYER
 62
     1
 10
571.581911
 20
-778.127986
 30
0.0
 11
563.081911
 21
-778.127986
 31
0.0
  0
LINE
  8
0
  6
BYLAYER
 62
     1
 10
561.081911
 20
-878.127986
 30
0.0
 11
561.081911
 21
-780.127986
 31
0.0
  0
ARC
  8
0
  6
BYLAYER
 62
     1
 10
559.081911
 20
-809.723292
 30
0.0
 40
2.000004
 50
299.999937
 51
360.000000
  0
LINE
  8
0
  6
BYLAYER
 62
     1
 10
537.331240
 20
-824.338710
 30
0.0
 11
536.581911
 21
-824.377986
 31
0.0
  0
LINE
  8
0
  6
BYLAYER
 62
     1
 10
560.081911
 20
-811.455348
 30
0.0
 11
538.226595
 21
-824.073512
 31
0.0
  0
ARC
  8
0
  6
BYLAYER
 62
     1
 10
537.226595
 20
-822.341456
 30
0.0
 40
1.999993
 50
272.999216
 51
299.999937
  0
LINE
  8
0
  6
BYLAYER
 62
     1
 10
571.581911
 20
-878.127986
 30
0.0
 11
571.581911
 21
-778.127986
 31
0.0
  0
LINE
  8
0
  6
BYLAYER
 62
     1
 10
547.696962
 20
-818.605800
 30
0.0
 11
561.081911
 21
-795.855678
 31
0.0
  0
LINE
  8
0
  6
BYLAYER
 62
     1
 10
538.226595
 20
-824.073512
 30
0.0
 11
538.226595
 21
-878.127986
 31
0.0
  0
ENDSEC
  0
EOF
