  0
SECTION
  2
HEADER
  9
$EXTMIN
 10
249.488055
 20
1075.0
 30
0.0
  9
$EXTMAX
 10
1434.556314
 20
0.0
 30
0.0
  0
ENDSEC
  0
SECTION
  2
TABLES
  0
ENDSEC
  0
SECTION
  2
BLOCKS
  0
ENDSEC
  0
SECTION
  2
ENTITIES
  0
ARC
  8
0
  6
BYLAYER
 62
     7
 10
667.749147
 20
-55.688232
 30
0.0
 40
13.000000
 50
180.000019
 51
360.000018
  0
ARC
  8
0
  6
BYLAYER
 62
     7
 10
706.749147
 20
-55.688232
 30
0.0
 40
13.000000
 50
180.000019
 51
360.000018
  0
LINE
  8
0
  6
BYLAYER
 62
     7
 10
638.249147
 20
-47.188232
 30
0.0
 11
652.749147
 21
-47.188232
 31
0.0
  0
LINE
  8
0
  6
BYLAYER
 62
     7
 10
654.749147
 20
-55.688232
 30
0.0
 11
654.749147
 21
-49.188232
 31
0.0
  0
ARC
  8
0
  6
BYLAYER
 62
     7
 10
652.749147
 20
-49.188232
 30
0.0
 40
2.0
 50
0.0
 51
90.000003
  0
LINE
  8
0
  6
BYLAYER
 62
     7
 10
680.749147
 20
-55.688232
 30
0.0
 11
680.749147
 21
-49.188232
 31
0.0
  0
ARC
  8
0
  6
BYLAYER
 62
     7
 10
682.749147
 20
-49.188232
 30
0.0
 40
2.000000
 50
90.0
 51
180.000003
  0
LINE
  8
0
  6
BYLAYER
 62
     7
 10
682.749147
 20
-47.188232
 30
0.0
 11
691.749147
 21
-47.188232
 31
0.0
  0
LINE
  8
0
  6
BYLAYER
 62
     7
 10
693.749147
 20
-55.688232
 30
0.0
 11
693.749147
 21
-49.188232
 31
0.0
  0
ARC
  8
0
  6
BYLAYER
 62
     7
 10
691.749147
 20
-49.188232
 30
0.0
 40
2.0
 50
0.0
 51
90.000003
  0
LINE
  8
0
  6
BYLAYER
 62
     7
 10
719.749147
 20
-55.688232
 30
0.0
 11
719.749147
 21
-49.188232
 31
0.0
  0
LINE
  8
0
  6
BYLAYER
 62
     7
 10
721.749177
 20
-47.188232
 30
0.0
 11
756.249177
 21
-47.188232
 31
0.0
  0
ARC
  8
0
  6
BYLAYER
 62
     7
 10
721.749177
 20
-49.188232
 30
0.0
 40
2.000031
 50
90.0
 51
180.000003
  0
ARC
  8
0
  6
BYLAYER
 62
     7
 10
639.249147
 20
-140.337707
 30
0.0
 40
1.000000
 50
90.0
 51
180.000003
  0
ARC
  8
0
  6
BYLAYER
 62
     7
 10
639.249147
 20
-140.337707
 30
0.0
 40
1.000000
 50
180.000000
 51
269.999996
  0
ARC
  8
0
  6
BYLAYER
 62
     7
 10
639.249147
 20
-127.637725
 30
0.0
 40
1.000000
 50
90.0
 51
180.000003
  0
ARC
  8
0
  6
BYLAYER
 62
     7
 10
639.249147
 20
-127.637725
 30
0.0
 40
1.000000
 50
180.000000
 51
269.999996
  0
ARC
  8
0
  6
BYLAYER
 62
     7
 10
639.249147
 20
-114.937713
 30
0.0
 40
1.0
 50
90.0
 51
180.000003
  0
ARC
  8
0
  6
BYLAYER
 62
     7
 10
639.249147
 20
-114.937713
 30
0.0
 40
1.000000
 50
180.000000
 51
269.999996
  0
ARC
  8
0
  6
BYLAYER
 62
     7
 10
639.249147
 20
-102.237701
 30
0.0
 40
1.0
 50
90.0
 51
180.000003
  0
ARC
  8
0
  6
BYLAYER
 62
     7
 10
639.249147
 20
-102.237701
 30
0.0
 40
1.000000
 50
180.000000
 51
269.999996
  0
ARC
  8
0
  6
BYLAYER
 62
     7
 10
639.249147
 20
-89.537719
 30
0.0
 40
1.000000
 50
90.0
 51
180.000003
  0
ARC
  8
0
  6
BYLAYER
 62
     7
 10
639.249147
 20
-89.537719
 30
0.0
 40
1.000000
 50
180.000000
 51
269.999996
  0
ARC
  8
0
  6
BYLAYER
 62
     7
 10
639.249147
 20
-205.037719
 30
0.0
 40
1.000000
 50
180.000000
 51
270.000009
  0
ARC
  8
0
  6
BYLAYER
 62
     7
 10
639.249147
 20
-205.037719
 30
0.0
 40
1.0
 50
90.0
 51
179.999989
  0
ARC
  8
0
  6
BYLAYER
 62
     7
 10
639.249147
 20
-217.737701
 30
0.0
 40
1.000000
 50
180.000000
 51
270.000009
  0
ARC
  8
0
  6
BYLAYER
 62
     7
 10
639.249147
 20
-217.737701
 30
0.0
 40
1.0
 50
90.0
 51
179.999989
  0
ARC
  8
0
  6
BYLAYER
 62
     7
 10
639.249147
 20
-230.437713
 30
0.0
 40
1.000000
 50
180.000000
 51
270.000009
  0
ARC
  8
0
  6
BYLAYER
 62
     7
 10
639.249147
 20
-230.437713
 30
0.0
 40
1.0
 50
90.0
 51
179.999989
  0
ARC
  8
0
  6
BYLAYER
 62
     7
 10
639.249147
 20
-243.137695
 30
0.0
 40
1.000000
 50
180.000000
 51
270.000009
  0
ARC
  8
0
  6
BYLAYER
 62
     7
 10
639.249147
 20
-243.137695
 30
0.0
 40
1.0
 50
90.0
 51
179.999989
  0
ARC
  8
0
  6
BYLAYER
 62
     7
 10
639.249147
 20
-255.837707
 30
0.0
 40
1.000000
 50
180.000000
 51
270.000009
  0
ARC
  8
0
  6
BYLAYER
 62
     7
 10
639.249147
 20
-255.837707
 30
0.0
 40
1.0
 50
90.0
 51
179.999989
  0
LINE
  8
0
  6
BYLAYER
 62
     7
 10
639.249147
 20
-229.437713
 30
0.0
 11
830.762727
 21
-229.437713
 31
0.0
  0
LINE
  8
0
  6
BYLAYER
 62
     7
 10
639.249147
 20
-231.437713
 30
0.0
 11
830.762727
 21
-231.437713
 31
0.0
  0
LINE
  8
0
  6
BYLAYER
 62
     7
 10
639.249147
 20
-126.637725
 30
0.0
 11
691.687410
 21
-126.637725
 31
0.0
  0
LINE
  8
0
  6
BYLAYER
 62
     7
 10
639.249147
 20
-128.637725
 30
0.0
 11
691.687410
 21
-128.637725
 31
0.0
  0
LINE
  8
0
  6
BYLAYER
 62
     7
 10
696.810884
 20
-126.637725
 30
0.0
 11
746.687410
 21
-126.637725
 31
0.0
  0
LINE
  8
0
  6
BYLAYER
 62
     7
 10
696.810884
 20
-128.637725
 30
0.0
 11
746.687410
 21
-128.637725
 31
0.0
  0
ARC
  8
0
  6
BYLAYER
 62
     7
 10
694.249147
 20
-127.637725
 30
0.0
 40
2.75
 50
21.323692
 51
158.676305
  0
ARC
  8
0
  6
BYLAYER
 62
     7
 10
749.249147
 20
-127.637725
 30
0.0
 40
2.750000
 50
21.323692
 51
158.676305
  0
ARC
  8
0
  6
BYLAYER
 62
     7
 10
694.249147
 20
-127.637725
 30
0.0
 40
2.75
 50
201.323692
 51
338.676296
  0
ARC
  8
0
  6
BYLAYER
 62
     7
 10
749.249147
 20
-127.637725
 30
0.0
 40
2.75
 50
201.323692
 51
338.676296
  0
LINE
  8
0
  6
BYLAYER
 62
     7
 10
638.249147
 20
-65.687744
 30
0.0
 11
633.749147
 21
-65.687744
 31
0.0
  0
LINE
  8
0
  6
BYLAYER
 62
     7
 10
644.249147
 20
-258.506591
 30
0.0
 11
638.249147
 21
-261.126983
 31
0.0
  0
LINE
  8
0
  6
BYLAYER
 62
     7
 10
638.249147
 20
-253.687713
 30
0.0
 11
638.249147
 21
-41.688232
 31
0.0
  0
LINE
  8
0
  6
BYLAYER
 62
     7
 10
633.749147
 20
-279.687713
 30
0.0
 11
638.249147
 21
-279.687713
 31
0.0
  0
LINE
  8
0
  6
BYLAYER
 62
     7
 10
638.249147
 20
-261.126983
 30
0.0
 11
641.609285
 21
-269.222625
 31
0.0
  0
ARC
  8
0
  6
BYLAYER
 62
     7
 10
643.918306
 20
-268.264251
 30
0.0
 40
2.500012
 50
202.541214
 51
270.000001
  0
LINE
  8
0
  6
BYLAYER
 62
     7
 10
638.249147
 20
-265.525421
 30
0.0
 11
641.732057
 21
-277.750457
 31
0.0
  0
ARC
  8
0
  6
BYLAYER
 62
     7
 10
644.136385
 20
-277.065460
 30
0.0
 40
2.500002
 50
195.902352
 51
270.000001
  0
LINE
  8
0
  6
BYLAYER
 62
     7
 10
638.249147
 20
-272.613037
 30
0.0
 11
641.699647
 21
-283.612457
 31
0.0
  0
ARC
  8
0
  6
BYLAYER
 62
     7
 10
644.085023
 20
-282.864166
 30
0.0
 40
2.499992
 50
197.416605
 51
270.000001
  0
ARC
  8
0
  6
BYLAYER
 62
     7
 10
644.189607
 20
-286.538513
 30
0.0
 40
2.499992
 50
197.416605
 51
270.000001
  0
LINE
  8
0
  6
BYLAYER
 62
     7
 10
638.249147
 20
-279.687713
 30
0.0
 11
641.517732
 21
-289.107299
 31
0.0
  0
ARC
  8
0
  6
BYLAYER
 62
     7
 10
643.879579
 20
-288.287750
 30
0.0
 40
2.499996
 50
199.136528
 51
270.000001
  0
LINE
  8
0
  6
BYLAYER
 62
     7
 10
641.804231
 20
-287.286804
 30
0.0
 11
638.249147
 21
-275.954010
 31
0.0
  0
ARC
  8
0
  6
BYLAYER
 62
     7
 10
643.249147
 20
-140.337707
 30
0.0
 40
1.000000
 50
90.0
 51
180.000003
  0
ARC
  8
0
  6
BYLAYER
 62
     7
 10
643.249147
 20
-140.337707
 30
0.0
 40
1.000000
 50
180.000000
 51
269.999996
  0
ARC
  8
0
  6
BYLAYER
 62
     7
 10
643.249147
 20
-205.037719
 30
0.0
 40
1.000000
 50
180.000000
 51
270.000009
  0
ARC
  8
0
  6
BYLAYER
 62
     7
 10
643.249147
 20
-205.037719
 30
0.0
 40
1.0
 50
90.0
 51
179.999989
  0
ARC
  8
0
  6
BYLAYER
 62
     7
 10
643.249147
 20
-217.737701
 30
0.0
 40
1.000000
 50
180.000000
 51
270.000009
  0
ARC
  8
0
  6
BYLAYER
 62
     7
 10
643.249147
 20
-217.737701
 30
0.0
 40
1.000000
 50
90.0
 51
179.999989
  0
ARC
  8
0
  6
BYLAYER
 62
     7
 10
643.249147
 20
-230.437713
 30
0.0
 40
1.000000
 50
180.000000
 51
270.000009
  0
ARC
  8
0
  6
BYLAYER
 62
     7
 10
643.249147
 20
-230.437713
 30
0.0
 40
1.000000
 50
90.0
 51
179.999989
  0
ARC
  8
0
  6
BYLAYER
 62
     7
 10
643.249147
 20
-243.137695
 30
0.0
 40
1.000000
 50
180.000000
 51
270.000009
  0
ARC
  8
0
  6
BYLAYER
 62
     7
 10
643.249147
 20
-243.137695
 30
0.0
 40
1.000000
 50
90.0
 51
179.999989
  0
ARC
  8
0
  6
BYLAYER
 62
     7
 10
643.249147
 20
-255.837707
 30
0.0
 40
1.000000
 50
180.000000
 51
270.000009
  0
ARC
  8
0
  6
BYLAYER
 62
     7
 10
643.249147
 20
-255.837707
 30
0.0
 40
1.000000
 50
90.0
 51
179.999989
  0
ARC
  8
0
  6
BYLAYER
 62
     7
 10
643.249147
 20
-127.637725
 30
0.0
 40
1.000000
 50
90.0
 51
180.000003
  0
ARC
  8
0
  6
BYLAYER
 62
     7
 10
643.249147
 20
-127.637725
 30
0.0
 40
1.000000
 50
180.000000
 51
269.999996
  0
ARC
  8
0
  6
BYLAYER
 62
     7
 10
643.249147
 20
-114.937713
 30
0.0
 40
1.000000
 50
90.0
 51
180.000003
  0
ARC
  8
0
  6
BYLAYER
 62
     7
 10
643.249147
 20
-114.937713
 30
0.0
 40
1.000000
 50
180.000000
 51
269.999996
  0
ARC
  8
0
  6
BYLAYER
 62
     7
 10
643.249147
 20
-102.237701
 30
0.0
 40
1.000000
 50
90.0
 51
180.000003
  0
ARC
  8
0
  6
BYLAYER
 62
     7
 10
643.249147
 20
-102.237701
 30
0.0
 40
1.000000
 50
180.000000
 51
269.999996
  0
ARC
  8
0
  6
BYLAYER
 62
     7
 10
643.249147
 20
-89.537719
 30
0.0
 40
1.000000
 50
90.0
 51
180.000003
  0
ARC
  8
0
  6
BYLAYER
 62
     7
 10
643.249147
 20
-89.537719
 30
0.0
 40
1.000000
 50
180.000000
 51
269.999996
  0
LINE
  8
0
  6
BYLAYER
 62
     7
 10
644.749147
 20
-254.837707
 30
0.0
 11
644.749147
 21
-244.137695
 31
0.0
  0
LINE
  8
0
  6
BYLAYER
 62
     7
 10
644.749147
 20
-242.137695
 30
0.0
 11
644.749147
 21
-231.437713
 31
0.0
  0
LINE
  8
0
  6
BYLAYER
 62
     7
 10
644.749147
 20
-229.437713
 30
0.0
 11
644.749147
 21
-218.737701
 31
0.0
  0
LINE
  8
0
  6
BYLAYER
 62
     7
 10
644.749147
 20
-204.037719
 30
0.0
 11
644.749147
 21
-193.337737
 31
0.0
  0
LINE
  8
0
  6
BYLAYER
 62
     7
 10
644.749147
 20
-216.737701
 30
0.0
 11
644.749147
 21
-206.037719
 31
0.0
  0
LINE
  8
0
  6
BYLAYER
 62
     7
 10
644.749147
 20
-166.737671
 30
0.0
 11
644.749147
 21
-172.687713
 31
0.0
  0
LINE
  8
0
  6
BYLAYER
 62
     7
 10
644.749147
 20
-154.037689
 30
0.0
 11
644.749147
 21
-164.737671
 31
0.0
  0
LINE
  8
0
  6
BYLAYER
 62
     7
 10
644.749147
 20
-178.637755
 30
0.0
 11
644.749147
 21
-172.687713
 31
0.0
  0
LINE
  8
0
  6
BYLAYER
 62
     7
 10
644.749147
 20
-191.337737
 30
0.0
 11
644.749147
 21
-180.637755
 31
0.0
  0
LINE
  8
0
  6
BYLAYER
 62
     7
 10
644.749147
 20
-141.337707
 30
0.0
 11
644.749147
 21
-152.037689
 31
0.0
  0
LINE
  8
0
  6
BYLAYER
 62
     7
 10
644.749147
 20
-128.637725
 30
0.0
 11
644.749147
 21
-139.337707
 31
0.0
  0
LINE
  8
0
  6
BYLAYER
 62
     7
 10
644.749147
 20
-115.937713
 30
0.0
 11
644.749147
 21
-126.637725
 31
0.0
  0
LINE
  8
0
  6
BYLAYER
 62
     7
 10
644.749147
 20
-103.237701
 30
0.0
 11
644.749147
 21
-113.937713
 31
0.0
  0
LINE
  8
0
  6
BYLAYER
 62
     7
 10
644.749147
 20
-90.537719
 30
0.0
 11
644.749147
 21
-101.237701
 31
0.0
  0
ARC
  8
0
  6
BYLAYER
 62
     7
 10
639.249147
 20
-153.037689
 30
0.0
 40
1.000000
 50
180.000000
 51
270.000003
  0
ARC
  8
0
  6
BYLAYER
 62
     7
 10
639.249147
 20
-153.037689
 30
0.0
 40
1.000000
 50
90.0
 51
179.999996
  0
ARC
  8
0
  6
BYLAYER
 62
     7
 10
643.249147
 20
-153.037689
 30
0.0
 40
1.000000
 50
180.000000
 51
270.000003
  0
ARC
  8
0
  6
BYLAYER
 62
     7
 10
643.249147
 20
-153.037689
 30
0.0
 40
1.000000
 50
90.0
 51
179.999996
  0
LINE
  8
0
  6
BYLAYER
 62
     7
 10
639.249147
 20
-152.037689
 30
0.0
 11
751.810884
 21
-152.037689
 31
0.0
  0
LINE
  8
0
  6
BYLAYER
 62
     7
 10
639.249147
 20
-154.037689
 30
0.0
 11
751.810884
 21
-154.037689
 31
0.0
  0
ARC
  8
0
  6
BYLAYER
 62
     7
 10
639.249147
 20
-192.337737
 30
0.0
 40
1.000000
 50
90.0
 51
180.000003
  0
ARC
  8
0
  6
BYLAYER
 62
     7
 10
639.249147
 20
-192.337737
 30
0.0
 40
1.000000
 50
180.000000
 51
269.999996
  0
ARC
  8
0
  6
BYLAYER
 62
     7
 10
643.249147
 20
-192.337737
 30
0.0
 40
1.000000
 50
90.0
 51
180.000003
  0
ARC
  8
0
  6
BYLAYER
 62
     7
 10
643.249147
 20
-192.337737
 30
0.0
 40
1.000000
 50
180.000000
 51
269.999996
  0
LINE
  8
0
  6
BYLAYER
 62
     7
 10
639.249147
 20
-193.337737
 30
0.0
 11
751.810884
 21
-193.337737
 31
0.0
  0
LINE
  8
0
  6
BYLAYER
 62
     7
 10
639.249147
 20
-191.337737
 30
0.0
 11
751.810884
 21
-191.337737
 31
0.0
  0
ARC
  8
0
  6
BYLAYER
 62
     7
 10
639.249147
 20
-165.737671
 30
0.0
 40
1.000000
 50
180.000000
 51
270.000003
  0
ARC
  8
0
  6
BYLAYER
 62
     7
 10
639.249147
 20
-165.737671
 30
0.0
 40
1.000000
 50
90.0
 51
179.999996
  0
ARC
  8
0
  6
BYLAYER
 62
     7
 10
643.249147
 20
-165.737671
 30
0.0
 40
1.000000
 50
180.000000
 51
270.000003
  0
ARC
  8
0
  6
BYLAYER
 62
     7
 10
643.249147
 20
-165.737671
 30
0.0
 40
1.000000
 50
90.0
 51
179.999996
  0
ARC
  8
0
  6
BYLAYER
 62
     7
 10
639.249147
 20
-179.637755
 30
0.0
 40
1.0
 50
90.0
 51
180.000009
  0
ARC
  8
0
  6
BYLAYER
 62
     7
 10
639.249147
 20
-179.637755
 30
0.0
 40
1.000000
 50
180.000000
 51
269.999989
  0
ARC
  8
0
  6
BYLAYER
 62
     7
 10
643.249147
 20
-179.637755
 30
0.0
 40
1.000000
 50
90.0
 51
180.000009
  0
ARC
  8
0
  6
BYLAYER
 62
     7
 10
643.249147
 20
-179.637755
 30
0.0
 40
1.000000
 50
180.000000
 51
269.999989
  0
LINE
  8
0
  6
BYLAYER
 62
     7
 10
756.249177
 20
-88.537719
 30
0.0
 11
756.249177
 21
-41.688232
 31
0.0
  0
LINE
  8
0
  6
BYLAYER
 62
     7
 10
756.249177
 20
-52.688193
 30
0.0
 11
830.762727
 21
-52.688046
 31
0.0
  0
LINE
  8
0
  6
BYLAYER
 62
     7
 10
756.249177
 20
-55.688192
 30
0.0
 11
830.762727
 21
-55.688044
 31
0.0
  0
LINE
  8
0
  6
BYLAYER
 62
     7
 10
756.249177
 20
-59.688193
 30
0.0
 11
830.762727
 21
-59.688046
 31
0.0
  0
LINE
  8
0
  6
BYLAYER
 62
     7
 10
756.249177
 20
-65.688171
 30
0.0
 11
830.762727
 21
-65.688171
 31
0.0
  0
LINE
  8
0
  6
BYLAYER
 62
     7
 10
639.249147
 20
-88.537719
 30
0.0
 11
830.762727
 21
-88.537719
 31
0.0
  0
LINE
  8
0
  6
BYLAYER
 62
     7
 10
639.249147
 20
-90.537719
 30
0.0
 11
830.762727
 21
-90.537719
 31
0.0
  0
LINE
  8
0
  6
BYLAYER
 62
     7
 10
639.249147
 20
-101.237701
 30
0.0
 11
830.762727
 21
-101.237701
 31
0.0
  0
LINE
  8
0
  6
BYLAYER
 62
     7
 10
639.249147
 20
-103.237701
 30
0.0
 11
830.762727
 21
-103.237701
 31
0.0
  0
LINE
  8
0
  6
BYLAYER
 62
     7
 10
639.249147
 20
-113.937713
 30
0.0
 11
830.762727
 21
-113.937713
 31
0.0
  0
LINE
  8
0
  6
BYLAYER
 62
     7
 10
639.249147
 20
-115.937713
 30
0.0
 11
830.762727
 21
-115.937713
 31
0.0
  0
LINE
  8
0
  6
BYLAYER
 62
     7
 10
751.810884
 20
-126.637725
 30
0.0
 11
830.762727
 21
-126.637725
 31
0.0
  0
LINE
  8
0
  6
BYLAYER
 62
     7
 10
751.810884
 20
-128.637725
 30
0.0
 11
830.762727
 21
-128.637725
 31
0.0
  0
LINE
  8
0
  6
BYLAYER
 62
     7
 10
639.249147
 20
-139.337707
 30
0.0
 11
830.762727
 21
-139.337707
 31
0.0
  0
LINE
  8
0
  6
BYLAYER
 62
     7
 10
639.249147
 20
-141.337707
 30
0.0
 11
830.762727
 21
-141.337707
 31
0.0
  0
LINE
  8
0
  6
BYLAYER
 62
     7
 10
751.810884
 20
-152.037689
 30
0.0
 11
830.762727
 21
-152.037689
 31
0.0
  0
LINE
  8
0
  6
BYLAYER
 62
     7
 10
751.810884
 20
-154.037689
 30
0.0
 11
830.762727
 21
-154.037689
 31
0.0
  0
LINE
  8
0
  6
BYLAYER
 62
     7
 10
639.249147
 20
-164.737671
 30
0.0
 11
830.762727
 21
-164.737671
 31
0.0
  0
LINE
  8
0
  6
BYLAYER
 62
     7
 10
639.249147
 20
-166.737671
 30
0.0
 11
830.762727
 21
-166.737671
 31
0.0
  0
LINE
  8
0
  6
BYLAYER
 62
     7
 10
639.249147
 20
-178.637755
 30
0.0
 11
830.762727
 21
-178.637755
 31
0.0
  0
LINE
  8
0
  6
BYLAYER
 62
     7
 10
639.249147
 20
-180.637755
 30
0.0
 11
830.762727
 21
-180.637755
 31
0.0
  0
LINE
  8
0
  6
BYLAYER
 62
     7
 10
751.810884
 20
-191.337737
 30
0.0
 11
830.762727
 21
-191.337737
 31
0.0
  0
LINE
  8
0
  6
BYLAYER
 62
     7
 10
751.810884
 20
-193.337737
 30
0.0
 11
830.762727
 21
-193.337737
 31
0.0
  0
LINE
  8
0
  6
BYLAYER
 62
     7
 10
639.249147
 20
-204.037719
 30
0.0
 11
830.762727
 21
-204.037719
 31
0.0
  0
LINE
  8
0
  6
BYLAYER
 62
     7
 10
639.249147
 20
-206.037719
 30
0.0
 11
830.762727
 21
-206.037719
 31
0.0
  0
LINE
  8
0
  6
BYLAYER
 62
     7
 10
639.249147
 20
-216.737701
 30
0.0
 11
830.762727
 21
-216.737701
 31
0.0
  0
LINE
  8
0
  6
BYLAYER
 62
     7
 10
639.249147
 20
-218.737701
 30
0.0
 11
830.762727
 21
-218.737701
 31
0.0
  0
LINE
  8
0
  6
BYLAYER
 62
     7
 10
639.249147
 20
-242.137695
 30
0.0
 11
830.762727
 21
-242.137695
 31
0.0
  0
LINE
  8
0
  6
BYLAYER
 62
     7
 10
639.249147
 20
-244.137695
 30
0.0
 11
830.762727
 21
-244.137695
 31
0.0
  0
LINE
  8
0
  6
BYLAYER
 62
     7
 10
639.249147
 20
-254.837707
 30
0.0
 11
830.762727
 21
-254.837707
 31
0.0
  0
LINE
  8
0
  6
BYLAYER
 62
     7
 10
639.249147
 20
-256.837707
 30
0.0
 11
830.762727
 21
-256.837707
 31
0.0
  0
LINE
  8
0
  6
BYLAYER
 62
     7
 10
644.249147
 20
-258.506591
 30
0.0
 11
830.762727
 21
-258.506591
 31
0.0
  0
LINE
  8
0
  6
BYLAYER
 62
     7
 10
643.918306
 20
-270.764251
 30
0.0
 11
830.762727
 21
-270.764251
 31
0.0
  0
LINE
  8
0
  6
BYLAYER
 62
     7
 10
644.136385
 20
-279.565460
 30
0.0
 11
830.762727
 21
-279.565460
 31
0.0
  0
LINE
  8
0
  6
BYLAYER
 62
     7
 10
644.085023
 20
-285.364166
 30
0.0
 11
830.762727
 21
-285.364166
 31
0.0
  0
LINE
  8
0
  6
BYLAYER
 62
     7
 10
644.189607
 20
-289.038513
 30
0.0
 11
830.762727
 21
-289.038513
 31
0.0
  0
LINE
  8
0
  6
BYLAYER
 62
     7
 10
643.879579
 20
-290.787750
 30
0.0
 11
830.762727
 21
-290.787750
 31
0.0
  0
LINE
  8
0
  6
BYLAYER
 62
     7
 10
830.762727
 20
-48.288262
 30
0.0
 11
830.762727
 21
-172.687713
 31
0.0
  0
LINE
  8
0
  6
BYLAYER
 62
     7
 10
830.762727
 20
-172.687713
 30
0.0
 11
830.762727
 21
-297.088262
 31
0.0
  0
LINE
  8
0
  6
BYLAYER
 62
     7
 10
750.249147
 20
-31.188232
 30
0.0
 11
750.249147
 21
-9.688232
 31
0.0
  0
ARC
  8
0
  6
BYLAYER
 62
     7
 10
751.749147
 20
-31.188232
 30
0.0
 40
1.5
 50
180.000000
 51
270.000000
  0
ARC
  8
0
  6
BYLAYER
 62
     7
 10
748.749147
 20
-9.688232
 30
0.0
 40
1.500000
 50
0.0
 51
90.0
  0
LINE
  8
0
  6
BYLAYER
 62
     7
 10
697.249147
 20
-8.188232
 30
0.0
 11
748.749147
 21
-8.188232
 31
0.0
  0
LINE
  8
0
  6
BYLAYER
 62
     7
 10
743.864427
 20
-31.188232
 30
0.0
 11
743.864427
 21
-9.688232
 31
0.0
  0
ARC
  8
0
  6
BYLAYER
 62
     7
 10
745.364427
 20
-31.188232
 30
0.0
 40
1.500000
 50
180.000000
 51
270.000000
  0
ARC
  8
0
  6
BYLAYER
 62
     7
 10
742.364427
 20
-9.688232
 30
0.0
 40
1.5
 50
0.0
 51
90.0
  0
LINE
  8
0
  6
BYLAYER
 62
     7
 10
754.749147
 20
-32.688232
 30
0.0
 11
697.249147
 21
-32.688232
 31
0.0
  0
ARC
  8
0
  6
BYLAYER
 62
     7
 10
754.749147
 20
-34.188232
 30
0.0
 40
1.5
 50
0.0
 51
90.0
  0
LINE
  8
0
  6
BYLAYER
 62
     7
 10
756.249147
 20
-41.688232
 30
0.0
 11
756.249147
 21
-34.188232
 31
0.0
  0
LINE
  8
0
  6
BYLAYER
 62
     7
 10
697.249147
 20
-39.688232
 30
0.0
 11
756.249147
 21
-39.688232
 31
0.0
  0
LINE
  8
0
  6
BYLAYER
 62
     7
 10
644.249147
 20
-31.188232
 30
0.0
 11
644.249147
 21
-9.688232
 31
0.0
  0
ARC
  8
0
  6
BYLAYER
 62
     7
 10
642.749147
 20
-31.188232
 30
0.0
 40
1.5
 50
270.0
 51
360.0
  0
ARC
  8
0
  6
BYLAYER
 62
     7
 10
645.749147
 20
-9.688232
 30
0.0
 40
1.500000
 50
90.0
 51
180.0
  0
LINE
  8
0
  6
BYLAYER
 62
     7
 10
697.249147
 20
-8.188232
 30
0.0
 11
645.749147
 21
-8.188232
 31
0.0
  0
LINE
  8
0
  6
BYLAYER
 62
     7
 10
650.633867
 20
-31.188232
 30
0.0
 11
650.633867
 21
-9.688232
 31
0.0
  0
ARC
  8
0
  6
BYLAYER
 62
     7
 10
649.133867
 20
-31.188232
 30
0.0
 40
1.500000
 50
270.0
 51
360.0
  0
ARC
  8
0
  6
BYLAYER
 62
     7
 10
652.133867
 20
-9.688232
 30
0.0
 40
1.5
 50
90.0
 51
180.0
  0
LINE
  8
0
  6
BYLAYER
 62
     7
 10
639.749147
 20
-32.688232
 30
0.0
 11
697.249147
 21
-32.688232
 31
0.0
  0
ARC
  8
0
  6
BYLAYER
 62
     7
 10
639.749147
 20
-34.188232
 30
0.0
 40
1.5
 50
90.0
 51
180.0
  0
LINE
  8
0
  6
BYLAYER
 62
     7
 10
638.249147
 20
-39.688232
 30
0.0
 11
638.249147
 21
-34.188232
 31
0.0
  0
LINE
  8
0
  6
BYLAYER
 62
     7
 10
697.249147
 20
-39.688232
 30
0.0
 11
638.249147
 21
-39.688232
 31
0.0
  0
LINE
  8
0
  6
BYLAYER
 62
     7
 10
638.249147
 20
-39.688232
 30
0.0
 11
638.249147
 21
-41.688232
 31
0.0
  0
LINE
  8
0
  6
BYLAYER
 62
     7
 10
638.249147
 20
-41.688232
 30
0.0
 11
756.249147
 21
-41.688232
 31
0.0
  0
LINE
  8
0
  6
BYLAYER
 62
     7
 10
941.762727
 20
-270.188262
 30
0.0
 11
941.762727
 21
-75.188262
 31
0.0
  0
LINE
  8
0
  6
BYLAYER
 62
     7
 10
941.762727
 20
-75.188262
 30
0.0
 11
914.862727
 21
-48.288262
 31
0.0
  0
LINE
  8
0
  6
BYLAYER
 62
     7
 10
914.862727
 20
-297.088262
 30
0.0
 11
941.762727
 21
-270.188262
 31
0.0
  0
LINE
  8
0
  6
BYLAYER
 62
     7
 10
914.862727
 20
-48.288262
 30
0.0
 11
830.762727
 21
-48.288262
 31
0.0
  0
LINE
  8
0
  6
BYLAYER
 62
     7
 10
830.762727
 20
-297.088262
 30
0.0
 11
914.862727
 21
-297.088262
 31
0.0
  0
LINE
  8
0
  6
BYLAYER
 62
     7
 10
581.749147
 20
-22.687713
 30
0.0
 11
600.749147
 21
-22.687713
 31
0.0
  0
LINE
  8
0
  6
BYLAYER
 62
     7
 10
581.749147
 20
-322.687713
 30
0.0
 11
600.749147
 21
-322.687713
 31
0.0
  0
LINE
  8
0
  6
BYLAYER
 62
     7
 10
600.749147
 20
-22.687713
 30
0.0
 11
600.749147
 21
-172.687713
 31
0.0
  0
ARC
  8
0
  6
BYLAYER
 62
     7
 10
602.749147
 20
-61.964267
 30
0.0
 40
2.000000
 50
180.000000
 51
268.000000
  0
LINE
  8
0
  6
BYLAYER
 62
     7
 10
600.749147
 20
-172.687713
 30
0.0
 11
600.749147
 21
-322.687713
 31
0.0
  0
ARC
  8
0
  6
BYLAYER
 62
     7
 10
602.749147
 20
-297.736555
 30
0.0
 40
2.000000
 50
92.0
 51
180.0
  0
LINE
  8
0
  6
BYLAYER
 62
     7
 10
633.749147
 20
-280.327396
 30
0.0
 11
632.749147
 21
-280.362317
 31
0.0
  0
LINE
  8
0
  6
BYLAYER
 62
     7
 10
633.749147
 20
-65.048030
 30
0.0
 11
602.679348
 21
-63.963049
 31
0.0
  0
LINE
  8
0
  6
BYLAYER
 62
     7
 10
632.749147
 20
-280.362317
 30
0.0
 11
632.749147
 21
-294.687713
 31
0.0
  0
LINE
  8
0
  6
BYLAYER
 62
     7
 10
632.749147
 20
-294.687713
 30
0.0
 11
602.679348
 21
-295.737774
 31
0.0
  0
LINE
  8
0
  6
BYLAYER
 62
     7
 10
581.749147
 20
-22.687713
 30
0.0
 11
581.749147
 21
-172.687713
 31
0.0
  0
LINE
  8
0
  6
BYLAYER
 62
     7
 10
581.749147
 20
-322.687713
 30
0.0
 11
581.749147
 21
-172.687713
 31
0.0
  0
LINE
  8
0
  6
BYLAYER
 62
     7
 10
633.749147
 20
-280.327396
 30
0.0
 11
633.749147
 21
-65.048030
 31
0.0
  0
LINE
  8
0
  6
BYLAYER
 62
     7
 10
914.862727
 20
-297.088262
 30
0.0
 11
914.862727
 21
-48.288262
 31
0.0
  0
ARC
  8
0
  6
BYLAYER
 62
     7
 10
639.249147
 20
-993.137695
 30
0.0
 40
1.0
 50
180.000000
 51
270.000009
  0
ARC
  8
0
  6
BYLAYER
 62
     7
 10
639.249147
 20
-993.137695
 30
0.0
 40
1.000000
 50
90.0
 51
179.999989
  0
ARC
  8
0
  6
BYLAYER
 62
     7
 10
639.249147
 20
-1005.837707
 30
0.0
 40
1.000000
 50
180.000000
 51
270.000009
  0
ARC
  8
0
  6
BYLAYER
 62
     7
 10
639.249147
 20
-1005.837707
 30
0.0
 40
1.000000
 50
90.0
 51
179.999989
  0
LINE
  8
0
  6
BYLAYER
 62
     7
 10
756.249147
 20
-979.437713
 30
0.0
 11
830.762727
 21
-979.437713
 31
0.0
  0
LINE
  8
0
  6
BYLAYER
 62
     7
 10
756.249147
 20
-981.437713
 30
0.0
 11
830.762727
 21
-981.437713
 31
0.0
  0
LINE
  8
0
  6
BYLAYER
 62
     7
 10
644.249147
 20
-1008.506591
 30
0.0
 11
638.249147
 21
-1011.126983
 31
0.0
  0
LINE
  8
0
  6
BYLAYER
 62
     7
 10
638.249147
 20
-1003.687713
 30
0.0
 11
638.249147
 21
-922.687713
 31
0.0
  0
LINE
  8
0
  6
BYLAYER
 62
     7
 10
633.749147
 20
-1029.687713
 30
0.0
 11
638.249147
 21
-1029.687713
 31
0.0
  0
LINE
  8
0
  6
BYLAYER
 62
     7
 10
638.249147
 20
-1011.126983
 30
0.0
 11
641.609285
 21
-1019.222625
 31
0.0
  0
ARC
  8
0
  6
BYLAYER
 62
     7
 10
643.918306
 20
-1018.264251
 30
0.0
 40
2.500012
 50
202.541214
 51
270.000001
  0
LINE
  8
0
  6
BYLAYER
 62
     7
 10
638.249147
 20
-1015.525421
 30
0.0
 11
641.732057
 21
-1027.750457
 31
0.0
  0
ARC
  8
0
  6
BYLAYER
 62
     7
 10
644.136385
 20
-1027.065460
 30
0.0
 40
2.500002
 50
195.902352
 51
270.000001
  0
LINE
  8
0
  6
BYLAYER
 62
     7
 10
638.249147
 20
-1022.613037
 30
0.0
 11
641.699647
 21
-1033.612457
 31
0.0
  0
ARC
  8
0
  6
BYLAYER
 62
     7
 10
644.085023
 20
-1032.864166
 30
0.0
 40
2.499992
 50
197.416605
 51
270.000001
  0
ARC
  8
0
  6
BYLAYER
 62
     7
 10
644.189607
 20
-1036.538513
 30
0.0
 40
2.499992
 50
197.416605
 51
270.000001
  0
LINE
  8
0
  6
BYLAYER
 62
     7
 10
638.249147
 20
-1029.687713
 30
0.0
 11
641.517732
 21
-1039.107299
 31
0.0
  0
ARC
  8
0
  6
BYLAYER
 62
     7
 10
643.879579
 20
-1038.287750
 30
0.0
 40
2.499996
 50
199.136528
 51
270.000001
  0
LINE
  8
0
  6
BYLAYER
 62
     7
 10
641.804231
 20
-1037.286804
 30
0.0
 11
638.249147
 21
-1025.954010
 31
0.0
  0
ARC
  8
0
  6
BYLAYER
 62
     7
 10
643.249147
 20
-993.137695
 30
0.0
 40
1.0
 50
180.000000
 51
270.000009
  0
ARC
  8
0
  6
BYLAYER
 62
     7
 10
643.249147
 20
-993.137695
 30
0.0
 40
1.000000
 50
90.0
 51
179.999989
  0
ARC
  8
0
  6
BYLAYER
 62
     7
 10
643.249147
 20
-1005.837707
 30
0.0
 40
1.000000
 50
180.000000
 51
270.000009
  0
ARC
  8
0
  6
BYLAYER
 62
     7
 10
643.249147
 20
-1005.837707
 30
0.0
 40
1.000000
 50
90.0
 51
179.999989
  0
LINE
  8
0
  6
BYLAYER
 62
     7
 10
644.749147
 20
-1004.837707
 30
0.0
 11
644.749147
 21
-994.137695
 31
0.0
  0
LINE
  8
0
  6
BYLAYER
 62
     7
 10
644.749147
 20
-992.137695
 30
0.0
 11
644.749147
 21
-981.437713
 31
0.0
  0
LINE
  8
0
  6
BYLAYER
 62
     7
 10
756.249147
 20
-928.637755
 30
0.0
 11
830.762727
 21
-928.637755
 31
0.0
  0
LINE
  8
0
  6
BYLAYER
 62
     7
 10
756.249147
 20
-930.637755
 30
0.0
 11
830.762727
 21
-930.637755
 31
0.0
  0
LINE
  8
0
  6
BYLAYER
 62
     7
 10
756.249147
 20
-941.337737
 30
0.0
 11
830.762727
 21
-941.337737
 31
0.0
  0
LINE
  8
0
  6
BYLAYER
 62
     7
 10
756.249147
 20
-943.337737
 30
0.0
 11
830.762727
 21
-943.337737
 31
0.0
  0
LINE
  8
0
  6
BYLAYER
 62
     7
 10
756.249147
 20
-954.037719
 30
0.0
 11
830.762727
 21
-954.037719
 31
0.0
  0
LINE
  8
0
  6
BYLAYER
 62
     7
 10
756.249147
 20
-956.037719
 30
0.0
 11
830.762727
 21
-956.037719
 31
0.0
  0
LINE
  8
0
  6
BYLAYER
 62
     7
 10
756.249147
 20
-966.737701
 30
0.0
 11
830.762727
 21
-966.737701
 31
0.0
  0
LINE
  8
0
  6
BYLAYER
 62
     7
 10
756.249147
 20
-968.737701
 30
0.0
 11
830.762727
 21
-968.737701
 31
0.0
  0
LINE
  8
0
  6
BYLAYER
 62
     7
 10
639.249147
 20
-992.137695
 30
0.0
 11
830.762727
 21
-992.137695
 31
0.0
  0
LINE
  8
0
  6
BYLAYER
 62
     7
 10
639.249147
 20
-994.137695
 30
0.0
 11
830.762727
 21
-994.137695
 31
0.0
  0
LINE
  8
0
  6
BYLAYER
 62
     7
 10
639.249147
 20
-1004.837707
 30
0.0
 11
830.762727
 21
-1004.837707
 31
0.0
  0
LINE
  8
0
  6
BYLAYER
 62
     7
 10
639.249147
 20
-1006.837707
 30
0.0
 11
830.762727
 21
-1006.837707
 31
0.0
  0
LINE
  8
0
  6
BYLAYER
 62
     7
 10
644.249147
 20
-1008.506591
 30
0.0
 11
830.762727
 21
-1008.506591
 31
0.0
  0
LINE
  8
0
  6
BYLAYER
 62
     7
 10
643.918306
 20
-1020.764251
 30
0.0
 11
830.762727
 21
-1020.764251
 31
0.0
  0
LINE
  8
0
  6
BYLAYER
 62
     7
 10
644.136385
 20
-1029.565460
 30
0.0
 11
830.762727
 21
-1029.565460
 31
0.0
  0
LINE
  8
0
  6
BYLAYER
 62
     7
 10
644.085023
 20
-1035.364166
 30
0.0
 11
830.762727
 21
-1035.364166
 31
0.0
  0
LINE
  8
0
  6
BYLAYER
 62
     7
 10
644.189607
 20
-1039.038513
 30
0.0
 11
830.762727
 21
-1039.038513
 31
0.0
  0
LINE
  8
0
  6
BYLAYER
 62
     7
 10
643.879579
 20
-1040.787750
 30
0.0
 11
830.762727
 21
-1040.787750
 31
0.0
  0
LINE
  8
0
  6
BYLAYER
 62
     7
 10
830.762727
 20
-922.687713
 30
0.0
 11
830.762727
 21
-1047.088262
 31
0.0
  0
ARC
  8
0
  6
BYLAYER
 62
     7
 10
750.249147
 20
-975.687713
 30
0.0
 40
6.5
 50
100.806923
 51
169.193077
  0
ARC
  8
0
  6
BYLAYER
 62
     7
 10
748.749147
 20
-967.829596
 30
0.0
 40
1.5
 50
280.806923
 51
360.000000
  0
ARC
  8
0
  6
BYLAYER
 62
     7
 10
644.249147
 20
-975.687713
 30
0.0
 40
6.5
 50
10.806923
 51
79.193077
  0
ARC
  8
0
  6
BYLAYER
 62
     7
 10
652.107264
 20
-974.187713
 30
0.0
 40
1.500000
 50
190.806923
 51
270.000000
  0
ARC
  8
0
  6
BYLAYER
 62
     7
 10
645.749147
 20
-967.829596
 30
0.0
 40
1.5
 50
180.000000
 51
259.193077
  0
LINE
  8
0
  6
BYLAYER
 62
     7
 10
644.249147
 20
-922.687713
 30
0.0
 11
644.249147
 21
-967.829596
 31
0.0
  0
LINE
  8
0
  6
BYLAYER
 62
     7
 10
750.249147
 20
-967.829596
 30
0.0
 11
750.249147
 21
-922.687713
 31
0.0
  0
LINE
  8
0
  6
BYLAYER
 62
     7
 10
652.107264
 20
-975.687713
 30
0.0
 11
742.391030
 21
-975.687713
 31
0.0
  0
ARC
  8
0
  6
BYLAYER
 62
     7
 10
742.391030
 20
-974.187713
 30
0.0
 40
1.5
 50
270.0
 51
349.193077
  0
LINE
  8
0
  6
BYLAYER
 62
     7
 10
710.249147
 20
-952.687713
 30
0.0
 11
684.249147
 21
-952.687713
 31
0.0
  0
ARC
  8
0
  6
BYLAYER
 62
     7
 10
684.249147
 20
-949.687713
 30
0.0
 40
3.000000
 50
180.000000
 51
270.000000
  0
ARC
  8
0
  6
BYLAYER
 62
     7
 10
710.249147
 20
-949.687713
 30
0.0
 40
3.000000
 50
270.0
 51
360.0
  0
LINE
  8
0
  6
BYLAYER
 62
     7
 10
681.249147
 20
-949.687713
 30
0.0
 11
681.249147
 21
-922.687713
 31
0.0
  0
LINE
  8
0
  6
BYLAYER
 62
     7
 10
713.249147
 20
-922.687713
 30
0.0
 11
713.249147
 21
-949.687713
 31
0.0
  0
LINE
  8
0
  6
BYLAYER
 62
     7
 10
736.144449
 20
-927.788819
 30
0.0
 11
750.249147
 21
-928.281366
 31
0.0
  0
ARC
  8
0
  6
BYLAYER
 62
     7
 10
736.249147
 20
-924.790647
 30
0.0
 40
3.0
 50
180.000000
 51
268.000000
  0
LINE
  8
0
  6
BYLAYER
 62
     7
 10
733.249147
 20
-922.687713
 30
0.0
 11
733.249147
 21
-924.790647
 31
0.0
  0
LINE
  8
0
  6
BYLAYER
 62
     7
 10
749.249147
 20
-922.687713
 30
0.0
 11
749.249147
 21
-928.246445
 31
0.0
  0
LINE
  8
0
  6
BYLAYER
 62
     7
 10
750.249147
 20
-943.281366
 30
0.0
 11
736.144449
 21
-942.788819
 31
0.0
  0
ARC
  8
0
  6
BYLAYER
 62
     7
 10
736.249147
 20
-939.790647
 30
0.0
 40
3.0
 50
180.000000
 51
268.000000
  0
LINE
  8
0
  6
BYLAYER
 62
     7
 10
736.144449
 20
-932.586607
 30
0.0
 11
750.249147
 21
-932.094060
 31
0.0
  0
ARC
  8
0
  6
BYLAYER
 62
     7
 10
736.249147
 20
-935.584779
 30
0.0
 40
3.0
 50
92.000000
 51
180.000000
  0
LINE
  8
0
  6
BYLAYER
 62
     7
 10
733.249147
 20
-939.790647
 30
0.0
 11
733.249147
 21
-935.584779
 31
0.0
  0
LINE
  8
0
  6
BYLAYER
 62
     7
 10
749.249147
 20
-943.246445
 30
0.0
 11
749.249147
 21
-932.128981
 31
0.0
  0
LINE
  8
0
  6
BYLAYER
 62
     7
 10
750.249147
 20
-958.281366
 30
0.0
 11
736.144449
 21
-957.788819
 31
0.0
  0
ARC
  8
0
  6
BYLAYER
 62
     7
 10
736.249147
 20
-954.790647
 30
0.0
 40
3.0
 50
180.000000
 51
268.000000
  0
LINE
  8
0
  6
BYLAYER
 62
     7
 10
736.144449
 20
-947.586607
 30
0.0
 11
750.249147
 21
-947.094060
 31
0.0
  0
ARC
  8
0
  6
BYLAYER
 62
     7
 10
736.249147
 20
-950.584779
 30
0.0
 40
3.0
 50
92.000000
 51
180.000000
  0
LINE
  8
0
  6
BYLAYER
 62
     7
 10
733.249147
 20
-954.790647
 30
0.0
 11
733.249147
 21
-950.584779
 31
0.0
  0
LINE
  8
0
  6
BYLAYER
 62
     7
 10
749.249147
 20
-958.246445
 30
0.0
 11
749.249147
 21
-947.128981
 31
0.0
  0
LINE
  8
0
  6
BYLAYER
 62
     7
 10
658.353845
 20
-927.788819
 30
0.0
 11
644.249147
 21
-928.281366
 31
0.0
  0
ARC
  8
0
  6
BYLAYER
 62
     7
 10
658.249147
 20
-924.790647
 30
0.0
 40
3.0
 50
272.000000
 51
360.000000
  0
LINE
  8
0
  6
BYLAYER
 62
     7
 10
661.249147
 20
-922.687713
 30
0.0
 11
661.249147
 21
-924.790647
 31
0.0
  0
LINE
  8
0
  6
BYLAYER
 62
     7
 10
645.249147
 20
-922.687713
 30
0.0
 11
645.249147
 21
-928.246445
 31
0.0
  0
LINE
  8
0
  6
BYLAYER
 62
     7
 10
644.249147
 20
-943.281366
 30
0.0
 11
658.353845
 21
-942.788819
 31
0.0
  0
ARC
  8
0
  6
BYLAYER
 62
     7
 10
658.249147
 20
-939.790647
 30
0.0
 40
3.000000
 50
272.000000
 51
360.000000
  0
LINE
  8
0
  6
BYLAYER
 62
     7
 10
658.353845
 20
-932.586607
 30
0.0
 11
644.249147
 21
-932.094060
 31
0.0
  0
ARC
  8
0
  6
BYLAYER
 62
     7
 10
658.249147
 20
-935.584779
 30
0.0
 40
3.0
 50
0.0
 51
88.0
  0
LINE
  8
0
  6
BYLAYER
 62
     7
 10
661.249147
 20
-939.790647
 30
0.0
 11
661.249147
 21
-935.584779
 31
0.0
  0
LINE
  8
0
  6
BYLAYER
 62
     7
 10
645.249147
 20
-943.246445
 30
0.0
 11
645.249147
 21
-932.128981
 31
0.0
  0
LINE
  8
0
  6
BYLAYER
 62
     7
 10
644.249147
 20
-958.281366
 30
0.0
 11
658.353845
 21
-957.788819
 31
0.0
  0
ARC
  8
0
  6
BYLAYER
 62
     7
 10
658.249147
 20
-954.790647
 30
0.0
 40
3.0
 50
272.000000
 51
360.000000
  0
LINE
  8
0
  6
BYLAYER
 62
     7
 10
658.353845
 20
-947.586607
 30
0.0
 11
644.249147
 21
-947.094060
 31
0.0
  0
ARC
  8
0
  6
BYLAYER
 62
     7
 10
658.249147
 20
-950.584779
 30
0.0
 40
3.0
 50
0.0
 51
88.0
  0
LINE
  8
0
  6
BYLAYER
 62
     7
 10
661.249147
 20
-954.790647
 30
0.0
 11
661.249147
 21
-950.584779
 31
0.0
  0
LINE
  8
0
  6
BYLAYER
 62
     7
 10
645.249147
 20
-958.246445
 30
0.0
 11
645.249147
 21
-947.128981
 31
0.0
  0
LINE
  8
0
  6
BYLAYER
 62
     7
 10
638.249147
 20
-922.687713
 30
0.0
 11
638.249147
 21
-980.187713
 31
0.0
  0
LINE
  8
0
  6
BYLAYER
 62
     7
 10
639.749147
 20
-981.687713
 30
0.0
 11
754.749147
 21
-981.687713
 31
0.0
  0
ARC
  8
0
  6
BYLAYER
 62
     7
 10
754.749147
 20
-980.187713
 30
0.0
 40
1.5
 50
270.0
 51
360.0
  0
ARC
  8
0
  6
BYLAYER
 62
     7
 10
639.749147
 20
-980.187713
 30
0.0
 40
1.5
 50
180.000000
 51
270.000000
  0
LINE
  8
0
  6
BYLAYER
 62
     7
 10
756.249147
 20
-980.187713
 30
0.0
 11
756.249147
 21
-922.687713
 31
0.0
  0
ARC
  8
0
  6
BYLAYER
 62
     7
 10
639.249147
 20
-852.237731
 30
0.0
 40
1.0
 50
90.0
 51
180.000009
  0
ARC
  8
0
  6
BYLAYER
 62
     7
 10
639.249147
 20
-852.237731
 30
0.0
 40
1.000000
 50
180.000000
 51
269.999989
  0
ARC
  8
0
  6
BYLAYER
 62
     7
 10
639.249147
 20
-839.537719
 30
0.0
 40
1.0
 50
90.0
 51
180.000009
  0
ARC
  8
0
  6
BYLAYER
 62
     7
 10
639.249147
 20
-839.537719
 30
0.0
 40
1.000000
 50
180.000000
 51
269.999989
  0
LINE
  8
0
  6
BYLAYER
 62
     7
 10
756.249147
 20
-865.937713
 30
0.0
 11
830.762727
 21
-865.937713
 31
0.0
  0
LINE
  8
0
  6
BYLAYER
 62
     7
 10
756.249147
 20
-863.937713
 30
0.0
 11
830.762727
 21
-863.937713
 31
0.0
  0
LINE
  8
0
  6
BYLAYER
 62
     7
 10
644.249147
 20
-836.868835
 30
0.0
 11
638.249147
 21
-834.248443
 31
0.0
  0
LINE
  8
0
  6
BYLAYER
 62
     7
 10
638.249147
 20
-841.687713
 30
0.0
 11
638.249147
 21
-922.687713
 31
0.0
  0
LINE
  8
0
  6
BYLAYER
 62
     7
 10
633.749147
 20
-815.687713
 30
0.0
 11
638.249147
 21
-815.687713
 31
0.0
  0
LINE
  8
0
  6
BYLAYER
 62
     7
 10
638.249147
 20
-834.248443
 30
0.0
 11
641.609285
 21
-826.152801
 31
0.0
  0
ARC
  8
0
  6
BYLAYER
 62
     7
 10
643.918306
 20
-827.111175
 30
0.0
 40
2.500012
 50
90.0
 51
157.458787
  0
LINE
  8
0
  6
BYLAYER
 62
     7
 10
638.249147
 20
-829.850005
 30
0.0
 11
641.732057
 21
-817.624969
 31
0.0
  0
ARC
  8
0
  6
BYLAYER
 62
     7
 10
644.136385
 20
-818.309966
 30
0.0
 40
2.500002
 50
90.0
 51
164.097649
  0
LINE
  8
0
  6
BYLAYER
 62
     7
 10
638.249147
 20
-822.762389
 30
0.0
 11
641.699647
 21
-811.762969
 31
0.0
  0
ARC
  8
0
  6
BYLAYER
 62
     7
 10
644.085023
 20
-812.511260
 30
0.0
 40
2.499992
 50
90.0
 51
162.583396
  0
ARC
  8
0
  6
BYLAYER
 62
     7
 10
644.189607
 20
-808.836913
 30
0.0
 40
2.499992
 50
90.0
 51
162.583396
  0
LINE
  8
0
  6
BYLAYER
 62
     7
 10
638.249147
 20
-815.687713
 30
0.0
 11
641.517732
 21
-806.268127
 31
0.0
  0
ARC
  8
0
  6
BYLAYER
 62
     7
 10
643.879579
 20
-807.087676
 30
0.0
 40
2.499996
 50
90.0
 51
160.863473
  0
LINE
  8
0
  6
BYLAYER
 62
     7
 10
641.804231
 20
-808.088622
 30
0.0
 11
638.249147
 21
-819.421416
 31
0.0
  0
ARC
  8
0
  6
BYLAYER
 62
     7
 10
643.249147
 20
-852.237731
 30
0.0
 40
1.000000
 50
90.0
 51
180.000009
  0
ARC
  8
0
  6
BYLAYER
 62
     7
 10
643.249147
 20
-852.237731
 30
0.0
 40
1.000000
 50
180.000000
 51
269.999989
  0
ARC
  8
0
  6
BYLAYER
 62
     7
 10
643.249147
 20
-839.537719
 30
0.0
 40
1.000000
 50
90.0
 51
180.000009
  0
ARC
  8
0
  6
BYLAYER
 62
     7
 10
643.249147
 20
-839.537719
 30
0.0
 40
1.000000
 50
180.000000
 51
269.999989
  0
LINE
  8
0
  6
BYLAYER
 62
     7
 10
644.749147
 20
-840.537719
 30
0.0
 11
644.749147
 21
-851.237731
 31
0.0
  0
LINE
  8
0
  6
BYLAYER
 62
     7
 10
644.749147
 20
-853.237731
 30
0.0
 11
644.749147
 21
-863.937713
 31
0.0
  0
LINE
  8
0
  6
BYLAYER
 62
     7
 10
756.249147
 20
-916.737671
 30
0.0
 11
830.762727
 21
-916.737671
 31
0.0
  0
LINE
  8
0
  6
BYLAYER
 62
     7
 10
756.249147
 20
-914.737671
 30
0.0
 11
830.762727
 21
-914.737671
 31
0.0
  0
LINE
  8
0
  6
BYLAYER
 62
     7
 10
756.249147
 20
-904.037689
 30
0.0
 11
830.762727
 21
-904.037689
 31
0.0
  0
LINE
  8
0
  6
BYLAYER
 62
     7
 10
756.249147
 20
-902.037689
 30
0.0
 11
830.762727
 21
-902.037689
 31
0.0
  0
LINE
  8
0
  6
BYLAYER
 62
     7
 10
756.249147
 20
-891.337707
 30
0.0
 11
830.762727
 21
-891.337707
 31
0.0
  0
LINE
  8
0
  6
BYLAYER
 62
     7
 10
756.249147
 20
-889.337707
 30
0.0
 11
830.762727
 21
-889.337707
 31
0.0
  0
LINE
  8
0
  6
BYLAYER
 62
     7
 10
756.249147
 20
-878.637725
 30
0.0
 11
830.762727
 21
-878.637725
 31
0.0
  0
LINE
  8
0
  6
BYLAYER
 62
     7
 10
756.249147
 20
-876.637725
 30
0.0
 11
830.762727
 21
-876.637725
 31
0.0
  0
LINE
  8
0
  6
BYLAYER
 62
     7
 10
639.249147
 20
-853.237731
 30
0.0
 11
830.762727
 21
-853.237731
 31
0.0
  0
LINE
  8
0
  6
BYLAYER
 62
     7
 10
639.249147
 20
-851.237731
 30
0.0
 11
830.762727
 21
-851.237731
 31
0.0
  0
LINE
  8
0
  6
BYLAYER
 62
     7
 10
639.249147
 20
-840.537719
 30
0.0
 11
830.762727
 21
-840.537719
 31
0.0
  0
LINE
  8
0
  6
BYLAYER
 62
     7
 10
639.249147
 20
-838.537719
 30
0.0
 11
830.762727
 21
-838.537719
 31
0.0
  0
LINE
  8
0
  6
BYLAYER
 62
     7
 10
644.249147
 20
-836.868835
 30
0.0
 11
830.762727
 21
-836.868835
 31
0.0
  0
LINE
  8
0
  6
BYLAYER
 62
     7
 10
643.918306
 20
-824.611175
 30
0.0
 11
830.762727
 21
-824.611175
 31
0.0
  0
LINE
  8
0
  6
BYLAYER
 62
     7
 10
644.136385
 20
-815.809966
 30
0.0
 11
830.762727
 21
-815.809966
 31
0.0
  0
LINE
  8
0
  6
BYLAYER
 62
     7
 10
644.085023
 20
-810.011260
 30
0.0
 11
830.762727
 21
-810.011260
 31
0.0
  0
LINE
  8
0
  6
BYLAYER
 62
     7
 10
644.189607
 20
-806.336913
 30
0.0
 11
830.762727
 21
-806.336913
 31
0.0
  0
LINE
  8
0
  6
BYLAYER
 62
     7
 10
643.879579
 20
-804.587676
 30
0.0
 11
830.762727
 21
-804.587676
 31
0.0
  0
LINE
  8
0
  6
BYLAYER
 62
     7
 10
830.762727
 20
-922.687713
 30
0.0
 11
830.762727
 21
-798.287164
 31
0.0
  0
ARC
  8
0
  6
BYLAYER
 62
     7
 10
750.249147
 20
-869.687713
 30
0.0
 40
6.5
 50
190.806923
 51
259.193077
  0
ARC
  8
0
  6
BYLAYER
 62
     7
 10
748.749147
 20
-877.545830
 30
0.0
 40
1.5
 50
0.0
 51
79.193077
  0
ARC
  8
0
  6
BYLAYER
 62
     7
 10
644.249147
 20
-869.687713
 30
0.0
 40
6.5
 50
280.806923
 51
349.193077
  0
ARC
  8
0
  6
BYLAYER
 62
     7
 10
652.107264
 20
-871.187713
 30
0.0
 40
1.5
 50
90.0
 51
169.193077
  0
ARC
  8
0
  6
BYLAYER
 62
     7
 10
645.749147
 20
-877.545830
 30
0.0
 40
1.5
 50
100.806923
 51
180.000000
  0
LINE
  8
0
  6
BYLAYER
 62
     7
 10
644.249147
 20
-922.687713
 30
0.0
 11
644.249147
 21
-877.545830
 31
0.0
  0
LINE
  8
0
  6
BYLAYER
 62
     7
 10
750.249147
 20
-877.545830
 30
0.0
 11
750.249147
 21
-922.687713
 31
0.0
  0
LINE
  8
0
  6
BYLAYER
 62
     7
 10
652.107264
 20
-869.687713
 30
0.0
 11
742.391030
 21
-869.687713
 31
0.0
  0
ARC
  8
0
  6
BYLAYER
 62
     7
 10
742.391030
 20
-871.187713
 30
0.0
 40
1.5
 50
10.806923
 51
90.000000
  0
LINE
  8
0
  6
BYLAYER
 62
     7
 10
710.249147
 20
-892.687713
 30
0.0
 11
684.249147
 21
-892.687713
 31
0.0
  0
ARC
  8
0
  6
BYLAYER
 62
     7
 10
684.249147
 20
-895.687713
 30
0.0
 40
3.0
 50
90.0
 51
180.0
  0
ARC
  8
0
  6
BYLAYER
 62
     7
 10
710.249147
 20
-895.687713
 30
0.0
 40
3.0
 50
0.0
 51
90.0
  0
LINE
  8
0
  6
BYLAYER
 62
     7
 10
681.249147
 20
-895.687713
 30
0.0
 11
681.249147
 21
-922.687713
 31
0.0
  0
LINE
  8
0
  6
BYLAYER
 62
     7
 10
713.249147
 20
-922.687713
 30
0.0
 11
713.249147
 21
-895.687713
 31
0.0
  0
LINE
  8
0
  6
BYLAYER
 62
     7
 10
736.144449
 20
-917.586607
 30
0.0
 11
750.249147
 21
-917.094060
 31
0.0
  0
ARC
  8
0
  6
BYLAYER
 62
     7
 10
736.249147
 20
-920.584779
 30
0.0
 40
3.0
 50
92.000000
 51
180.000000
  0
LINE
  8
0
  6
BYLAYER
 62
     7
 10
733.249147
 20
-922.687713
 30
0.0
 11
733.249147
 21
-920.584779
 31
0.0
  0
LINE
  8
0
  6
BYLAYER
 62
     7
 10
749.249147
 20
-922.687713
 30
0.0
 11
749.249147
 21
-917.128981
 31
0.0
  0
LINE
  8
0
  6
BYLAYER
 62
     7
 10
750.249147
 20
-902.094060
 30
0.0
 11
736.144449
 21
-902.586607
 31
0.0
  0
ARC
  8
0
  6
BYLAYER
 62
     7
 10
736.249147
 20
-905.584779
 30
0.0
 40
3.0
 50
92.000000
 51
180.000000
  0
LINE
  8
0
  6
BYLAYER
 62
     7
 10
736.144449
 20
-912.788819
 30
0.0
 11
750.249147
 21
-913.281366
 31
0.0
  0
ARC
  8
0
  6
BYLAYER
 62
     7
 10
736.249147
 20
-909.790647
 30
0.0
 40
3.0
 50
180.000000
 51
268.000000
  0
LINE
  8
0
  6
BYLAYER
 62
     7
 10
733.249147
 20
-905.584779
 30
0.0
 11
733.249147
 21
-909.790647
 31
0.0
  0
LINE
  8
0
  6
BYLAYER
 62
     7
 10
749.249147
 20
-902.128981
 30
0.0
 11
749.249147
 21
-913.246445
 31
0.0
  0
LINE
  8
0
  6
BYLAYER
 62
     7
 10
750.249147
 20
-887.094060
 30
0.0
 11
736.144449
 21
-887.586607
 31
0.0
  0
ARC
  8
0
  6
BYLAYER
 62
     7
 10
736.249147
 20
-890.584779
 30
0.0
 40
3.0
 50
92.000000
 51
180.000000
  0
LINE
  8
0
  6
BYLAYER
 62
     7
 10
736.144449
 20
-897.788819
 30
0.0
 11
750.249147
 21
-898.281366
 31
0.0
  0
ARC
  8
0
  6
BYLAYER
 62
     7
 10
736.249147
 20
-894.790647
 30
0.0
 40
3.0
 50
180.000000
 51
268.000000
  0
LINE
  8
0
  6
BYLAYER
 62
     7
 10
733.249147
 20
-890.584779
 30
0.0
 11
733.249147
 21
-894.790647
 31
0.0
  0
LINE
  8
0
  6
BYLAYER
 62
     7
 10
749.249147
 20
-887.128981
 30
0.0
 11
749.249147
 21
-898.246445
 31
0.0
  0
LINE
  8
0
  6
BYLAYER
 62
     7
 10
658.353845
 20
-917.586607
 30
0.0
 11
644.249147
 21
-917.094060
 31
0.0
  0
ARC
  8
0
  6
BYLAYER
 62
     7
 10
658.249147
 20
-920.584779
 30
0.0
 40
3.0
 50
0.0
 51
88.0
  0
LINE
  8
0
  6
BYLAYER
 62
     7
 10
661.249147
 20
-922.687713
 30
0.0
 11
661.249147
 21
-920.584779
 31
0.0
  0
LINE
  8
0
  6
BYLAYER
 62
     7
 10
645.249147
 20
-922.687713
 30
0.0
 11
645.249147
 21
-917.128981
 31
0.0
  0
LINE
  8
0
  6
BYLAYER
 62
     7
 10
644.249147
 20
-902.094060
 30
0.0
 11
658.353845
 21
-902.586607
 31
0.0
  0
ARC
  8
0
  6
BYLAYER
 62
     7
 10
658.249147
 20
-905.584779
 30
0.0
 40
3.0
 50
0.0
 51
88.0
  0
LINE
  8
0
  6
BYLAYER
 62
     7
 10
658.353845
 20
-912.788819
 30
0.0
 11
644.249147
 21
-913.281366
 31
0.0
  0
ARC
  8
0
  6
BYLAYER
 62
     7
 10
658.249147
 20
-909.790647
 30
0.0
 40
3.0
 50
272.000000
 51
360.000000
  0
LINE
  8
0
  6
BYLAYER
 62
     7
 10
661.249147
 20
-905.584779
 30
0.0
 11
661.249147
 21
-909.790647
 31
0.0
  0
LINE
  8
0
  6
BYLAYER
 62
     7
 10
645.249147
 20
-902.128981
 30
0.0
 11
645.249147
 21
-913.246445
 31
0.0
  0
LINE
  8
0
  6
BYLAYER
 62
     7
 10
644.249147
 20
-887.094060
 30
0.0
 11
658.353845
 21
-887.586607
 31
0.0
  0
ARC
  8
0
  6
BYLAYER
 62
     7
 10
658.249147
 20
-890.584779
 30
0.0
 40
3.0
 50
0.0
 51
88.0
  0
LINE
  8
0
  6
BYLAYER
 62
     7
 10
658.353845
 20
-897.788819
 30
0.0
 11
644.249147
 21
-898.281366
 31
0.0
  0
ARC
  8
0
  6
BYLAYER
 62
     7
 10
658.249147
 20
-894.790647
 30
0.0
 40
3.0
 50
272.000000
 51
360.000000
  0
LINE
  8
0
  6
BYLAYER
 62
     7
 10
661.249147
 20
-890.584779
 30
0.0
 11
661.249147
 21
-894.790647
 31
0.0
  0
LINE
  8
0
  6
BYLAYER
 62
     7
 10
645.249147
 20
-887.128981
 30
0.0
 11
645.249147
 21
-898.246445
 31
0.0
  0
LINE
  8
0
  6
BYLAYER
 62
     7
 10
638.249147
 20
-922.687713
 30
0.0
 11
638.249147
 21
-865.187713
 31
0.0
  0
LINE
  8
0
  6
BYLAYER
 62
     7
 10
639.749147
 20
-863.687713
 30
0.0
 11
754.749147
 21
-863.687713
 31
0.0
  0
ARC
  8
0
  6
BYLAYER
 62
     7
 10
754.749147
 20
-865.187713
 30
0.0
 40
1.5
 50
0.0
 51
90.0
  0
ARC
  8
0
  6
BYLAYER
 62
     7
 10
639.749147
 20
-865.187713
 30
0.0
 40
1.5
 50
90.0
 51
180.0
  0
LINE
  8
0
  6
BYLAYER
 62
     7
 10
756.249147
 20
-865.187713
 30
0.0
 11
756.249147
 21
-922.687713
 31
0.0
  0
LINE
  8
0
  6
BYLAYER
 62
     7
 10
941.762727
 20
-1020.188262
 30
0.0
 11
941.762727
 21
-922.687713
 31
0.0
  0
LINE
  8
0
  6
BYLAYER
 62
     7
 10
914.862727
 20
-1047.088262
 30
0.0
 11
941.762727
 21
-1020.188262
 31
0.0
  0
LINE
  8
0
  6
BYLAYER
 62
     7
 10
830.762727
 20
-1047.088262
 30
0.0
 11
914.862727
 21
-1047.088262
 31
0.0
  0
LINE
  8
0
  6
BYLAYER
 62
     7
 10
941.762727
 20
-825.187164
 30
0.0
 11
941.762727
 21
-922.687713
 31
0.0
  0
LINE
  8
0
  6
BYLAYER
 62
     7
 10
914.862727
 20
-798.287164
 30
0.0
 11
941.762727
 21
-825.187164
 31
0.0
  0
LINE
  8
0
  6
BYLAYER
 62
     7
 10
830.762727
 20
-798.287164
 30
0.0
 11
914.862727
 21
-798.287164
 31
0.0
  0
LINE
  8
0
  6
BYLAYER
 62
     7
 10
581.749147
 20
-772.687713
 30
0.0
 11
600.749147
 21
-772.687713
 31
0.0
  0
LINE
  8
0
  6
BYLAYER
 62
     7
 10
600.749147
 20
-772.687713
 30
0.0
 11
600.749147
 21
-922.687713
 31
0.0
  0
ARC
  8
0
  6
BYLAYER
 62
     7
 10
602.749147
 20
-811.964267
 30
0.0
 40
2.000000
 50
180.000000
 51
268.000000
  0
LINE
  8
0
  6
BYLAYER
 62
     7
 10
633.749147
 20
-815.048030
 30
0.0
 11
602.679348
 21
-813.963049
 31
0.0
  0
LINE
  8
0
  6
BYLAYER
 62
     7
 10
581.749147
 20
-772.687713
 30
0.0
 11
581.749147
 21
-922.687713
 31
0.0
  0
LINE
  8
0
  6
BYLAYER
 62
     7
 10
633.749147
 20
-922.687713
 30
0.0
 11
633.749147
 21
-815.048030
 31
0.0
  0
LINE
  8
0
  6
BYLAYER
 62
     7
 10
581.749147
 20
-1072.687713
 30
0.0
 11
600.749147
 21
-1072.687713
 31
0.0
  0
LINE
  8
0
  6
BYLAYER
 62
     7
 10
600.749147
 20
-1072.687713
 30
0.0
 11
600.749147
 21
-922.687713
 31
0.0
  0
ARC
  8
0
  6
BYLAYER
 62
     7
 10
602.749147
 20
-1033.411159
 30
0.0
 40
2.000000
 50
92.000000
 51
180.000000
  0
LINE
  8
0
  6
BYLAYER
 62
     7
 10
633.749147
 20
-1030.327396
 30
0.0
 11
602.679348
 21
-1031.412377
 31
0.0
  0
LINE
  8
0
  6
BYLAYER
 62
     7
 10
581.749147
 20
-1072.687713
 30
0.0
 11
581.749147
 21
-922.687713
 31
0.0
  0
LINE
  8
0
  6
BYLAYER
 62
     7
 10
633.749147
 20
-922.687713
 30
0.0
 11
633.749147
 21
-1030.327396
 31
0.0
  0
LINE
  8
0
  6
BYLAYER
 62
     7
 10
914.862727
 20
-1047.088262
 30
0.0
 11
914.862727
 21
-798.287164
 31
0.0
  0
LINE
  8
0
  6
BYLAYER
 62
     1
 10
546.749086
 20
-226.687713
 30
0.0
 11
546.592043
 21
-226.695953
 31
0.0
  0
ARC
  8
0
  6
BYLAYER
 62
     1
 10
546.749086
 20
-229.691802
 30
0.0
 40
2.999963
 50
93.000102
 51
180.000005
  0
ARC
  8
0
  6
BYLAYER
 62
     1
 10
546.749086
 20
-374.383025
 30
0.0
 40
3.000025
 50
180.000000
 51
225.000005
  0
ARC
  8
0
  6
BYLAYER
 62
     1
 10
530.749147
 20
-133.687713
 30
0.0
 40
3.0
 50
0.0
 51
90.000016
  0
ARC
  8
0
  6
BYLAYER
 62
     1
 10
272.749025
 20
-133.687713
 30
0.0
 40
3.000000
 50
90.0
 51
180.000009
  0
ARC
  8
0
  6
BYLAYER
 62
     1
 10
272.749025
 20
-431.687744
 30
0.0
 40
3.000000
 50
180.000000
 51
269.999996
  0
ARC
  8
0
  6
BYLAYER
 62
     1
 10
530.749147
 20
-431.687744
 30
0.0
 40
3.0
 50
270.0
 51
359.999982
  0
LINE
  8
0
  6
BYLAYER
 62
     1
 10
546.749086
 20
-183.981902
 30
0.0
 11
543.766176
 21
-185.982147
 31
0.0
  0
LINE
  8
0
  6
BYLAYER
 62
     1
 10
269.749025
 20
-182.687713
 30
0.0
 11
254.249025
 21
-182.687713
 31
0.0
  0
ARC
  8
0
  6
BYLAYER
 62
     1
 10
478.749147
 20
-140.687713
 30
0.0
 40
10.000000
 50
90.0
 51
180.000009
  0
ARC
  8
0
  6
BYLAYER
 62
     1
 10
324.749147
 20
-140.687713
 30
0.0
 40
10.000000
 50
0.0
 51
90.000023
  0
ARC
  8
0
  6
BYLAYER
 62
     1
 10
478.749147
 20
-424.687744
 30
0.0
 40
10.000000
 50
180.000000
 51
270.000003
  0
ARC
  8
0
  6
BYLAYER
 62
     1
 10
523.749147
 20
-379.687652
 30
0.0
 40
10.0
 50
0.0
 51
89.999989
  0
ARC
  8
0
  6
BYLAYER
 62
     1
 10
324.749147
 20
-424.687744
 30
0.0
 40
10.0
 50
270.0
 51
360.000009
  0
ARC
  8
0
  6
BYLAYER
 62
     1
 10
279.749147
 20
-379.687652
 30
0.0
 40
10.000122
 50
90.283095
 51
180.000000
  0
LINE
  8
0
  6
BYLAYER
 62
     1
 10
518.661775
 20
-369.687652
 30
0.0
 11
523.749147
 21
-369.687652
 31
0.0
  0
LINE
  8
0
  6
BYLAYER
 62
     1
 10
468.749147
 20
-419.600273
 30
0.0
 11
468.749147
 21
-424.687744
 31
0.0
  0
LINE
  8
0
  6
BYLAYER
 62
     1
 10
334.749147
 20
-424.687744
 30
0.0
 11
334.749147
 21
-419.600250
 31
0.0
  0
LINE
  8
0
  6
BYLAYER
 62
     1
 10
284.836481
 20
-369.687652
 30
0.0
 11
279.749147
 21
-369.687652
 31
0.0
  0
LINE
  8
0
  6
BYLAYER
 62
     1
 10
334.749147
 20
-185.775016
 30
0.0
 11
334.749147
 21
-140.687713
 31
0.0
  0
ARC
  8
0
  6
BYLAYER
 62
     1
 10
272.749025
 20
-193.187713
 30
0.0
 40
3.000000
 50
180.000000
 51
269.999996
  0
ARC
  8
0
  6
BYLAYER
 62
     1
 10
272.749025
 20
-205.187713
 30
0.0
 40
3.000000
 50
180.000000
 51
269.999996
  0
ARC
  8
0
  6
BYLAYER
 62
     1
 10
272.749025
 20
-217.187713
 30
0.0
 40
3.000000
 50
180.000000
 51
269.999996
  0
ARC
  8
0
  6
BYLAYER
 62
     1
 10
272.749025
 20
-204.187713
 30
0.0
 40
3.000000
 50
90.0
 51
180.000003
  0
ARC
  8
0
  6
BYLAYER
 62
     1
 10
272.749025
 20
-216.187713
 30
0.0
 40
3.000000
 50
90.0
 51
180.000003
  0
ARC
  8
0
  6
BYLAYER
 62
     1
 10
272.749025
 20
-228.187713
 30
0.0
 40
3.000000
 50
90.0
 51
180.000003
  0
LINE
  8
0
  6
BYLAYER
 62
     1
 10
272.749025
 20
-196.187713
 30
0.0
 11
308.249147
 21
-196.187713
 31
0.0
  0
LINE
  8
0
  6
BYLAYER
 62
     1
 10
272.749025
 20
-201.187713
 30
0.0
 11
308.249147
 21
-201.187713
 31
0.0
  0
ARC
  8
0
  6
BYLAYER
 62
     1
 10
308.249147
 20
-198.687713
 30
0.0
 40
2.5
 50
270.0
 51
450.000005
  0
LINE
  8
0
  6
BYLAYER
 62
     1
 10
272.749025
 20
-208.187713
 30
0.0
 11
296.249147
 21
-208.187713
 31
0.0
  0
LINE
  8
0
  6
BYLAYER
 62
     1
 10
272.749025
 20
-213.187713
 30
0.0
 11
296.249147
 21
-213.187713
 31
0.0
  0
ARC
  8
0
  6
BYLAYER
 62
     1
 10
296.249147
 20
-210.687713
 30
0.0
 40
2.5
 50
270.0
 51
450.000005
  0
LINE
  8
0
  6
BYLAYER
 62
     1
 10
272.749025
 20
-220.187713
 30
0.0
 11
286.249147
 21
-220.187713
 31
0.0
  0
LINE
  8
0
  6
BYLAYER
 62
     1
 10
272.749025
 20
-225.187713
 30
0.0
 11
286.249147
 21
-225.187713
 31
0.0
  0
ARC
  8
0
  6
BYLAYER
 62
     1
 10
286.249147
 20
-222.687713
 30
0.0
 40
2.500000
 50
270.0
 51
450.000005
  0
ARC
  8
0
  6
BYLAYER
 62
     1
 10
530.749147
 20
-204.187713
 30
0.0
 40
3.0
 50
0.0
 51
90.000016
  0
ARC
  8
0
  6
BYLAYER
 62
     1
 10
530.749147
 20
-216.187713
 30
0.0
 40
3.0
 50
0.0
 51
90.000016
  0
ARC
  8
0
  6
BYLAYER
 62
     1
 10
530.749147
 20
-228.187713
 30
0.0
 40
3.0
 50
0.0
 51
90.000016
  0
ARC
  8
0
  6
BYLAYER
 62
     1
 10
530.749147
 20
-193.187713
 30
0.0
 40
3.0
 50
270.0
 51
359.999982
  0
ARC
  8
0
  6
BYLAYER
 62
     1
 10
530.749147
 20
-205.187713
 30
0.0
 40
3.0
 50
270.0
 51
359.999982
  0
ARC
  8
0
  6
BYLAYER
 62
     1
 10
530.749147
 20
-217.187713
 30
0.0
 40
3.0
 50
270.0
 51
359.999982
  0
LINE
  8
0
  6
BYLAYER
 62
     1
 10
530.749147
 20
-196.187713
 30
0.0
 11
495.249147
 21
-196.187713
 31
0.0
  0
LINE
  8
0
  6
BYLAYER
 62
     1
 10
530.749147
 20
-201.187713
 30
0.0
 11
495.249147
 21
-201.187713
 31
0.0
  0
ARC
  8
0
  6
BYLAYER
 62
     1
 10
495.249147
 20
-198.687713
 30
0.0
 40
2.5
 50
90.0
 51
269.999991
  0
LINE
  8
0
  6
BYLAYER
 62
     1
 10
530.749147
 20
-208.187713
 30
0.0
 11
507.249147
 21
-208.187713
 31
0.0
  0
LINE
  8
0
  6
BYLAYER
 62
     1
 10
530.749147
 20
-213.187713
 30
0.0
 11
507.249147
 21
-213.187713
 31
0.0
  0
ARC
  8
0
  6
BYLAYER
 62
     1
 10
507.249147
 20
-210.687713
 30
0.0
 40
2.5
 50
90.0
 51
269.999991
  0
LINE
  8
0
  6
BYLAYER
 62
     1
 10
530.749147
 20
-220.187713
 30
0.0
 11
517.249147
 21
-220.187713
 31
0.0
  0
LINE
  8
0
  6
BYLAYER
 62
     1
 10
530.749147
 20
-225.187713
 30
0.0
 11
517.249147
 21
-225.187713
 31
0.0
  0
ARC
  8
0
  6
BYLAYER
 62
     1
 10
517.249147
 20
-222.687713
 30
0.0
 40
2.5
 50
90.0
 51
269.999991
  0
ARC
  8
0
  6
BYLAYER
 62
     1
 10
336.749147
 20
-164.687713
 30
0.0
 40
2.000000
 50
180.000000
 51
270.000009
  0
LINE
  8
0
  6
BYLAYER
 62
     1
 10
272.749025
 20
-130.687713
 30
0.0
 11
324.749147
 21
-130.687713
 31
0.0
  0
LINE
  8
0
  6
BYLAYER
 62
     1
 10
468.749147
 20
-185.774978
 30
0.0
 11
468.749147
 21
-140.687713
 31
0.0
  0
LINE
  8
0
  6
BYLAYER
 62
     1
 10
446.749147
 20
-170.687713
 30
0.0
 11
458.749147
 21
-170.687713
 31
0.0
  0
ARC
  8
0
  6
BYLAYER
 62
     1
 10
458.749147
 20
-160.687713
 30
0.0
 40
10.000000
 50
270.0
 51
360.000003
  0
LINE
  8
0
  6
BYLAYER
 62
     1
 10
336.749147
 20
-166.687713
 30
0.0
 11
433.787660
 21
-166.687713
 31
0.0
  0
ARC
  8
0
  6
BYLAYER
 62
     1
 10
446.749147
 20
-150.687713
 30
0.0
 40
19.999994
 50
235.698818
 51
270.000001
  0
ARC
  8
0
  6
BYLAYER
 62
     1
 10
256.749025
 20
-374.383026
 30
0.0
 40
3.000002
 50
314.999992
 51
345.522495
  0
ARC
  8
0
  6
BYLAYER
 62
     1
 10
258.074953
 20
-188.571319
 30
0.0
 40
2.999953
 50
11.543804
 51
55.016575
  0
ARC
  8
0
  6
BYLAYER
 62
     1
 10
545.436952
 20
-188.473785
 30
0.0
 40
2.999959
 50
123.843966
 51
169.087289
  0
LINE
  8
0
  6
BYLAYER
 62
     1
 10
254.249025
 20
-382.687713
 30
0.0
 11
269.749025
 21
-382.687713
 31
0.0
  0
LINE
  8
0
  6
BYLAYER
 62
     1
 10
544.627748
 20
-376.504363
 30
0.0
 11
546.309724
 21
-378.186309
 31
0.0
  0
ARC
  8
0
  6
BYLAYER
 62
     1
 10
545.249086
 20
-379.246978
 30
0.0
 40
1.499991
 50
0.0
 51
45.000824
  0
LINE
  8
0
  6
BYLAYER
 62
     1
 10
544.043092
 20
-382.687713
 30
0.0
 11
533.749147
 21
-382.687713
 31
0.0
  0
ARC
  8
0
  6
BYLAYER
 62
     1
 10
542.543092
 20
-383.108978
 30
0.0
 40
1.500007
 50
0.0
 51
31.372982
  0
LINE
  8
0
  6
BYLAYER
 62
     1
 10
324.749147
 20
-130.687713
 30
0.0
 11
530.749147
 21
-130.687713
 31
0.0
  0
LINE
  8
0
  6
BYLAYER
 62
     1
 10
272.749025
 20
-434.687744
 30
0.0
 11
360.586839
 21
-434.687744
 31
0.0
  0
LINE
  8
0
  6
BYLAYER
 62
     1
 10
442.911531
 20
-434.687744
 30
0.0
 11
530.749147
 21
-434.687744
 31
0.0
  0
LINE
  8
0
  6
BYLAYER
 62
     1
 10
533.749147
 20
-343.850158
 30
0.0
 11
533.749147
 21
-431.687744
 31
0.0
  0
ARC
  8
0
  6
BYLAYER
 62
     1
 10
536.749147
 20
-343.850158
 30
0.0
 40
2.999983
 50
167.456267
 51
180.000005
  0
ARC
  8
0
  6
BYLAYER
 62
     1
 10
351.749147
 20
-302.687713
 30
0.0
 40
186.524017
 50
347.456040
 51
372.54397
  0
ARC
  8
0
  6
BYLAYER
 62
     1
 10
536.749147
 20
-261.525176
 30
0.0
 40
2.999996
 50
180.000000
 51
192.544858
  0
LINE
  8
0
  6
BYLAYER
 62
     1
 10
269.749025
 20
-343.849700
 30
0.0
 11
269.749025
 21
-431.687744
 31
0.0
  0
ARC
  8
0
  6
BYLAYER
 62
     1
 10
266.749025
 20
-343.849700
 30
0.0
 40
3.000005
 50
0.0
 51
12.544233
  0
ARC
  8
0
  6
BYLAYER
 62
     1
 10
451.749147
 20
-302.687713
 30
0.0
 40
186.524017
 50
167.456185
 51
192.543811
  0
ARC
  8
0
  6
BYLAYER
 62
     1
 10
266.749025
 20
-261.525726
 30
0.0
 40
2.999998
 50
347.456340
 51
360.000000
  0
ARC
  8
0
  6
BYLAYER
 62
     1
 10
330.053827
 20
-447.687652
 30
0.0
 40
3.000025
 50
90.0
 51
134.999998
  0
ARC
  8
0
  6
BYLAYER
 62
     1
 10
360.586702
 20
-437.687713
 30
0.0
 40
2.999983
 50
77.456264
 51
90.000003
  0
ARC
  8
0
  6
BYLAYER
 62
     1
 10
401.749147
 20
-252.687713
 30
0.0
 40
186.524017
 50
257.456030
 51
282.543971
  0
LINE
  8
0
  6
BYLAYER
 62
     1
 10
321.749139
 20
-434.687713
 30
0.0
 11
321.749139
 21
-450.187744
 31
0.0
  0
ARC
  8
0
  6
BYLAYER
 62
     1
 10
473.444459
 20
-447.687652
 30
0.0
 40
3.000025
 50
45.000001
 51
89.999996
  0
ARC
  8
0
  6
BYLAYER
 62
     1
 10
442.911592
 20
-437.687713
 30
0.0
 40
2.999983
 50
90.0
 51
102.543738
  0
LINE
  8
0
  6
BYLAYER
 62
     1
 10
481.749147
 20
-434.687713
 30
0.0
 11
481.749147
 21
-450.187744
 31
0.0
  0
LINE
  8
0
  6
BYLAYER
 62
     1
 10
473.444521
 20
-120.687774
 30
0.0
 11
330.053835
 21
-120.687774
 31
0.0
  0
ARC
  8
0
  6
BYLAYER
 62
     1
 10
473.444460
 20
-117.687835
 30
0.0
 40
3.000025
 50
270.0
 51
315.000018
  0
ARC
  8
0
  6
BYLAYER
 62
     1
 10
330.053835
 20
-117.687835
 30
0.0
 40
3.000025
 50
224.999982
 51
270.000001
  0
LINE
  8
0
  6
BYLAYER
 62
     1
 10
269.749025
 20
-133.687713
 30
0.0
 11
269.749025
 21
-193.187713
 31
0.0
  0
LINE
  8
0
  6
BYLAYER
 62
     1
 10
269.749025
 20
-204.187713
 30
0.0
 11
269.749025
 21
-205.187713
 31
0.0
  0
LINE
  8
0
  6
BYLAYER
 62
     1
 10
269.749025
 20
-216.187713
 30
0.0
 11
269.749025
 21
-217.187713
 31
0.0
  0
LINE
  8
0
  6
BYLAYER
 62
     1
 10
269.749025
 20
-228.187713
 30
0.0
 11
269.749025
 21
-261.525726
 31
0.0
  0
LINE
  8
0
  6
BYLAYER
 62
     1
 10
533.749147
 20
-133.687713
 30
0.0
 11
533.749147
 21
-193.187713
 31
0.0
  0
LINE
  8
0
  6
BYLAYER
 62
     1
 10
533.749147
 20
-204.187713
 30
0.0
 11
533.749147
 21
-205.187713
 31
0.0
  0
LINE
  8
0
  6
BYLAYER
 62
     1
 10
533.749147
 20
-216.187713
 30
0.0
 11
533.749147
 21
-217.187713
 31
0.0
  0
LINE
  8
0
  6
BYLAYER
 62
     1
 10
533.749147
 20
-228.187713
 30
0.0
 11
533.749147
 21
-261.525176
 31
0.0
  0
LINE
  8
0
  6
BYLAYER
 62
     1
 10
546.749086
 20
-120.187713
 30
0.0
 11
541.749086
 21
-115.187713
 31
0.0
  0
LINE
  8
0
  6
BYLAYER
 62
     1
 10
546.749086
 20
-445.187744
 30
0.0
 11
546.749086
 21
-379.246978
 31
0.0
  0
LINE
  8
0
  6
BYLAYER
 62
     1
 10
546.749086
 20
-445.187744
 30
0.0
 11
541.749086
 21
-450.187744
 31
0.0
  0
LINE
  8
0
  6
BYLAYER
 62
     1
 10
259.749025
 20
-330.686828
 30
0.0
 11
259.749025
 21
-374.895263
 31
0.0
  0
ARC
  8
0
  6
BYLAYER
 62
     1
 10
451.749147
 20
-302.687713
 30
0.0
 40
194.000000
 50
171.82864
 51
188.170974
  0
ARC
  8
0
  6
BYLAYER
 62
     1
 10
373.748720
 20
-447.687652
 30
0.0
 40
3.0
 50
81.828840
 51
90.000000
  0
ARC
  8
0
  6
BYLAYER
 62
     1
 10
401.749147
 20
-252.687713
 30
0.0
 40
194.000000
 50
261.828636
 51
278.170983
  0
ARC
  8
0
  6
BYLAYER
 62
     1
 10
429.749574
 20
-447.687652
 30
0.0
 40
3.0
 50
90.0
 51
98.171167
  0
ARC
  8
0
  6
BYLAYER
 62
     1
 10
351.749147
 20
-302.687713
 30
0.0
 40
194.0
 50
351.828645
 51
368.170965
  0
LINE
  8
0
  6
BYLAYER
 62
     1
 10
330.053827
 20
-444.687652
 30
0.0
 11
373.748720
 21
-444.687652
 31
0.0
  0
LINE
  8
0
  6
BYLAYER
 62
     1
 10
473.444459
 20
-444.687652
 30
0.0
 11
429.749574
 21
-444.687652
 31
0.0
  0
LINE
  8
0
  6
BYLAYER
 62
     1
 10
543.749086
 20
-274.687286
 30
0.0
 11
543.749086
 21
-229.691802
 31
0.0
  0
LINE
  8
0
  6
BYLAYER
 62
     1
 10
543.749086
 20
-374.383025
 30
0.0
 11
543.749086
 21
-330.688140
 31
0.0
  0
LINE
  8
0
  6
BYLAYER
 62
     1
 10
327.932497
 20
-119.809173
 30
0.0
 11
323.311166
 21
-115.187713
 31
0.0
  0
LINE
  8
0
  6
BYLAYER
 62
     1
 10
321.749147
 20
-115.187713
 30
0.0
 11
321.749147
 21
-130.687713
 31
0.0
  0
LINE
  8
0
  6
BYLAYER
 62
     1
 10
254.249025
 20
-224.187713
 30
0.0
 11
254.249025
 21
-120.187713
 31
0.0
  0
LINE
  8
0
  6
BYLAYER
 62
     1
 10
546.749086
 20
-226.687713
 30
0.0
 11
546.749086
 21
-120.187713
 31
0.0
  0
LINE
  8
0
  6
BYLAYER
 62
     1
 10
481.749147
 20
-115.187713
 30
0.0
 11
481.749147
 21
-130.687713
 31
0.0
  0
LINE
  8
0
  6
BYLAYER
 62
     1
 10
475.565797
 20
-119.809173
 30
0.0
 11
480.187135
 21
-115.187713
 31
0.0
  0
LINE
  8
0
  6
BYLAYER
 62
     1
 10
541.749086
 20
-115.187713
 30
0.0
 11
480.187135
 21
-115.187713
 31
0.0
  0
LINE
  8
0
  6
BYLAYER
 62
     1
 10
327.932489
 20
-445.566314
 30
0.0
 11
323.311143
 21
-450.187744
 31
0.0
  0
LINE
  8
0
  6
BYLAYER
 62
     1
 10
480.187166
 20
-450.187744
 30
0.0
 11
541.749086
 21
-450.187744
 31
0.0
  0
LINE
  8
0
  6
BYLAYER
 62
     1
 10
475.565797
 20
-445.566314
 30
0.0
 11
480.187166
 21
-450.187744
 31
0.0
  0
LINE
  8
0
  6
BYLAYER
 62
     1
 10
544.043092
 20
-383.108978
 30
0.0
 11
544.043092
 21
-447.893737
 31
0.0
  0
LINE
  8
0
  6
BYLAYER
 62
     1
 10
323.311143
 20
-450.187744
 30
0.0
 11
259.249025
 21
-450.187682
 31
0.0
  0
LINE
  8
0
  6
BYLAYER
 62
     1
 10
254.249025
 20
-445.187682
 30
0.0
 11
259.249025
 21
-450.187682
 31
0.0
  0
LINE
  8
0
  6
BYLAYER
 62
     1
 10
254.249025
 20
-381.125579
 30
0.0
 11
258.870363
 21
-376.504363
 31
0.0
  0
LINE
  8
0
  6
BYLAYER
 62
     1
 10
254.249025
 20
-381.125579
 30
0.0
 11
254.249025
 21
-445.187682
 31
0.0
  0
LINE
  8
0
  6
BYLAYER
 62
     1
 10
254.249025
 20
-224.187713
 30
0.0
 11
256.906465
 21
-224.327178
 31
0.0
  0
ARC
  8
0
  6
BYLAYER
 62
     1
 10
256.749208
 20
-227.323089
 30
0.0
 40
3.0
 50
0.0
 51
86.995416
  0
LINE
  8
0
  6
BYLAYER
 62
     1
 10
259.749208
 20
-274.687286
 30
0.0
 11
259.749208
 21
-227.189239
 31
0.0
  0
LINE
  8
0
  6
BYLAYER
 62
     1
 10
254.249025
 20
-182.687713
 30
0.0
 11
259.794923
 21
-186.113433
 31
0.0
  0
LINE
  8
0
  6
BYLAYER
 62
     1
 10
259.249040
 20
-115.187713
 30
0.0
 11
323.311166
 21
-115.187713
 31
0.0
  0
LINE
  8
0
  6
BYLAYER
 62
     1
 10
254.249025
 20
-120.187713
 30
0.0
 11
259.249040
 21
-115.187713
 31
0.0
  0
ARC
  8
0
  6
BYLAYER
 62
     1
 10
433.787660
 20
-169.687713
 30
0.0
 40
3.000000
 50
55.698957
 51
90.000000
  0
CIRCLE
  8
0
  6
BYLAYER
 62
     1
 10
401.749147
 20
-302.687713
 30
0.0
 40
45.0
  0
ARC
  8
0
  6
BYLAYER
 62
     1
 10
401.749147
 20
-195.187713
 30
0.0
 40
6.000077
 50
353.660000
 51
636.340001
  0
CIRCLE
  8
0
  6
BYLAYER
 62
     1
 10
401.749147
 20
-195.187713
 30
0.0
 40
5.4
  0
ARC
  8
0
  6
BYLAYER
 62
     1
 10
325.735170
 20
-226.673797
 30
0.0
 40
5.999946
 50
38.659991
 51
321.339992
  0
CIRCLE
  8
0
  6
BYLAYER
 62
     1
 10
325.735170
 20
-226.673797
 30
0.0
 40
5.4
  0
ARC
  8
0
  6
BYLAYER
 62
     1
 10
294.249147
 20
-302.687713
 30
0.0
 40
6.000016
 50
83.660009
 51
366.340010
  0
CIRCLE
  8
0
  6
BYLAYER
 62
     1
 10
294.249147
 20
-302.687713
 30
0.0
 40
5.400000
  0
ARC
  8
0
  6
BYLAYER
 62
     1
 10
325.735170
 20
-378.701629
 30
0.0
 40
6.000069
 50
128.660028
 51
411.340001
  0
CIRCLE
  8
0
  6
BYLAYER
 62
     1
 10
325.735170
 20
-378.701629
 30
0.0
 40
5.4
  0
ARC
  8
0
  6
BYLAYER
 62
     1
 10
401.749147
 20
-410.187713
 30
0.0
 40
6.000077
 50
173.660015
 51
456.340016
  0
CIRCLE
  8
0
  6
BYLAYER
 62
     1
 10
401.749147
 20
-410.187713
 30
0.0
 40
5.4
  0
ARC
  8
0
  6
BYLAYER
 62
     1
 10
477.763124
 20
-378.701629
 30
0.0
 40
6.000021
 50
218.660013
 51
501.340041
  0
CIRCLE
  8
0
  6
BYLAYER
 62
     1
 10
477.763124
 20
-378.701629
 30
0.0
 40
5.4
  0
ARC
  8
0
  6
BYLAYER
 62
     1
 10
509.249147
 20
-302.687713
 30
0.0
 40
6.000016
 50
263.659977
 51
546.340005
  0
CIRCLE
  8
0
  6
BYLAYER
 62
     1
 10
509.249147
 20
-302.687713
 30
0.0
 40
5.4
  0
ARC
  8
0
  6
BYLAYER
 62
     1
 10
477.763124
 20
-226.673797
 30
0.0
 40
5.999879
 50
308.659982
 51
591.339955
  0
CIRCLE
  8
0
  6
BYLAYER
 62
     1
 10
477.763124
 20
-226.673797
 30
0.0
 40
5.4
  0
ARC
  8
0
  6
BYLAYER
 62
     1
 10
325.212404
 20
-117.911834
 30
0.0
 40
87.500099
 50
269.435199
 51
315.564848
  0
ARC
  8
0
  6
BYLAYER
 62
     1
 10
389.833314
 20
-181.270965
 30
0.0
 40
2.999941
 50
95.605388
 51
135.564229
  0
ARC
  8
0
  6
BYLAYER
 62
     1
 10
324.320253
 20
-208.407440
 30
0.0
 40
2.999902
 50
89.434634
 51
129.395133
  0
ARC
  8
0
  6
BYLAYER
 62
     1
 10
216.973207
 20
-226.151092
 30
0.0
 40
87.5
 50
314.435190
 51
360.564839
  0
ARC
  8
0
  6
BYLAYER
 62
     1
 10
307.468813
 20
-225.259002
 30
0.0
 40
3.000035
 50
140.605386
 51
180.564233
  0
ARC
  8
0
  6
BYLAYER
 62
     1
 10
280.332460
 20
-290.771942
 30
0.0
 40
2.999997
 50
134.434638
 51
174.395138
  0
ARC
  8
0
  6
BYLAYER
 62
     1
 10
280.332460
 20
-314.603484
 30
0.0
 40
2.999996
 50
185.605391
 51
225.564238
  0
ARC
  8
0
  6
BYLAYER
 62
     1
 10
324.320375
 20
-396.967986
 30
0.0
 40
2.999996
 50
230.605382
 51
270.564229
  0
ARC
  8
0
  6
BYLAYER
 62
     1
 10
479.178041
 20
-396.967986
 30
0.0
 40
2.999902
 50
269.434625
 51
309.395138
  0
ARC
  8
0
  6
BYLAYER
 62
     1
 10
496.029481
 20
-380.116424
 30
0.0
 40
3.000035
 50
320.605391
 51
360.564238
  0
ARC
  8
0
  6
BYLAYER
 62
     1
 10
523.165834
 20
-314.603484
 30
0.0
 40
2.999997
 50
314.434643
 51
354.395129
  0
ARC
  8
0
  6
BYLAYER
 62
     1
 10
478.285829
 20
-117.911834
 30
0.0
 40
87.499954
 50
224.435194
 51
270.564803
  0
ARC
  8
0
  6
BYLAYER
 62
     1
 10
479.177980
 20
-208.407440
 30
0.0
 40
2.999957
 50
50.605374
 51
90.564217
  0
ARC
  8
0
  6
BYLAYER
 62
     1
 10
413.664918
 20
-181.270965
 30
0.0
 40
2.999997
 50
44.434626
 51
84.395108
  0
ARC
  8
0
  6
BYLAYER
 62
     1
 10
401.749147
 20
-302.687713
 30
0.0
 40
125.0
 50
90.000003
 51
95.605061
  0
ARC
  8
0
  6
BYLAYER
 62
     1
 10
401.749147
 20
-302.687713
 30
0.0
 40
125.0
 50
84.394938
 51
89.999996
  0
ARC
  8
0
  6
BYLAYER
 62
     1
 10
401.749147
 20
-302.687713
 30
0.0
 40
125.000069
 50
135.000000
 51
140.605058
  0
ARC
  8
0
  6
BYLAYER
 62
     1
 10
401.749147
 20
-302.687713
 30
0.0
 40
125.000000
 50
180.000005
 51
185.605063
  0
ARC
  8
0
  6
BYLAYER
 62
     1
 10
401.749147
 20
-302.687713
 30
0.0
 40
124.999985
 50
225.000010
 51
230.605054
  0
ARC
  8
0
  6
BYLAYER
 62
     1
 10
401.749147
 20
-302.687713
 30
0.0
 40
124.999901
 50
315.000019
 51
320.605063
  0
ARC
  8
0
  6
BYLAYER
 62
     1
 10
401.749147
 20
-302.687713
 30
0.0
 40
125.0
 50
0.000010
 51
5.605054
  0
ARC
  8
0
  6
BYLAYER
 62
     1
 10
401.749147
 20
-302.687713
 30
0.0
 40
125.000069
 50
45.000001
 51
50.605046
  0
ARC
  8
0
  6
BYLAYER
 62
     1
 10
401.749147
 20
-302.687713
 30
0.0
 40
125.000069
 50
129.394942
 51
135.000000
  0
ARC
  8
0
  6
BYLAYER
 62
     1
 10
401.749147
 20
-302.687713
 30
0.0
 40
125.0
 50
174.394947
 51
179.999991
  0
ARC
  8
0
  6
BYLAYER
 62
     1
 10
401.749147
 20
-302.687713
 30
0.0
 40
124.999901
 50
309.394947
 51
315.000019
  0
ARC
  8
0
  6
BYLAYER
 62
     1
 10
401.749147
 20
-302.687713
 30
0.0
 40
125.0
 50
354.394938
 51
359.999983
  0
ARC
  8
0
  6
BYLAYER
 62
     1
 10
401.749147
 20
-302.687713
 30
0.0
 40
125.000069
 50
39.394929
 51
45.000001
  0
ARC
  8
0
  6
BYLAYER
 62
     1
 10
523.165834
 20
-290.771942
 30
0.0
 40
2.999997
 50
5.604860
 51
45.565363
  0
ARC
  8
0
  6
BYLAYER
 62
     1
 10
496.029481
 20
-225.259002
 30
0.0
 40
3.000035
 50
359.435755
 51
399.394615
  0
ARC
  8
0
  6
BYLAYER
 62
     1
 10
401.749147
 20
-302.687713
 30
0.0
 40
125.0
 50
264.394956
 51
270.000001
  0
ARC
  8
0
  6
BYLAYER
 62
     1
 10
325.212526
 20
-487.463592
 30
0.0
 40
87.500038
 50
44.435257
 51
90.564852
  0
ARC
  8
0
  6
BYLAYER
 62
     1
 10
389.833314
 20
-424.104339
 30
0.0
 40
3.000057
 50
224.435303
 51
264.394956
  0
ARC
  8
0
  6
BYLAYER
 62
     1
 10
401.749147
 20
-302.687713
 30
0.0
 40
125.000000
 50
270.0
 51
275.605071
  0
ARC
  8
0
  6
BYLAYER
 62
     1
 10
478.285890
 20
-487.463592
 30
0.0
 40
87.500099
 50
89.435187
 51
135.564843
  0
ARC
  8
0
  6
BYLAYER
 62
     1
 10
413.664980
 20
-424.104339
 30
0.0
 40
3.000063
 50
275.605072
 51
315.564739
  0
ARC
  8
0
  6
BYLAYER
 62
     1
 10
401.749147
 20
-302.687713
 30
0.0
 40
124.999985
 50
219.394938
 51
224.999996
  0
ARC
  8
0
  6
BYLAYER
 62
     1
 10
216.973207
 20
-379.224334
 30
0.0
 40
87.500000
 50
359.435154
 51
405.564824
  0
ARC
  8
0
  6
BYLAYER
 62
     1
 10
307.468813
 20
-380.116424
 30
0.0
 40
3.000035
 50
179.435217
 51
219.394938
  0
ARC
  8
0
  6
BYLAYER
 62
     1
 10
401.749147
 20
-302.687713
 30
0.0
 40
84.000099
 50
22.500098
 51
90.000003
  0
ARC
  8
0
  6
BYLAYER
 62
     1
 10
401.749147
 20
-302.687713
 30
0.0
 40
84.000122
 50
90.000003
 51
382.500094
  0
ARC
  8
0
  6
BYLAYER
 62
     1
 10
514.527101
 20
-270.383758
 30
0.0
 40
3.000030
 50
158.015894
 51
211.564508
  0
ARC
  8
0
  6
BYLAYER
 62
     1
 10
496.908693
 20
-263.271209
 30
0.0
 40
15.999915
 50
338.015707
 51
426.984024
  0
ARC
  8
0
  6
BYLAYER
 62
     1
 10
504.337465
 20
-245.783660
 30
0.0
 40
3.000043
 50
193.434891
 51
246.983711
  0
LINE
  8
0
  6
BYLAYER
 62
     1
 10
370.539186
 20
-171.687713
 30
0.0
 11
432.959169
 21
-171.687713
 31
0.0
  0
ARC
  8
0
  6
BYLAYER
 62
     1
 10
370.539186
 20
-174.687713
 30
0.0
 40
3.000000
 50
90.0
 51
103.703477
  0
ARC
  8
0
  6
BYLAYER
 62
     1
 10
432.959169
 20
-174.687713
 30
0.0
 40
3.0
 50
76.296516
 51
90.000000
  0
LINE
  8
0
  6
BYLAYER
 62
     1
 10
287.049379
 20
-232.125457
 30
0.0
 11
331.186952
 21
-187.987762
 31
0.0
  0
LINE
  8
0
  6
BYLAYER
 62
     1
 10
270.749147
 20
-333.897674
 30
0.0
 11
270.749147
 21
-271.477630
 31
0.0
  0
LINE
  8
0
  6
BYLAYER
 62
     1
 10
331.186952
 20
-417.387420
 30
0.0
 11
287.049318
 21
-373.249847
 31
0.0
  0
LINE
  8
0
  6
BYLAYER
 62
     1
 10
432.959108
 20
-433.687713
 30
0.0
 11
370.539125
 21
-433.687713
 31
0.0
  0
LINE
  8
0
  6
BYLAYER
 62
     1
 10
516.448915
 20
-373.249847
 30
0.0
 11
472.311342
 21
-417.387420
 31
0.0
  0
LINE
  8
0
  6
BYLAYER
 62
     1
 10
532.749147
 20
-271.477752
 30
0.0
 11
532.749147
 21
-333.897674
 31
0.0
  0
LINE
  8
0
  6
BYLAYER
 62
     1
 10
472.311403
 20
-187.987884
 30
0.0
 11
516.448976
 21
-232.125457
 31
0.0
  0
ARC
  8
0
  6
BYLAYER
 62
     1
 10
273.749147
 20
-271.477752
 30
0.0
 40
3.000000
 50
166.296510
 51
180.0
  0
ARC
  8
0
  6
BYLAYER
 62
     1
 10
401.749147
 20
-302.687713
 30
0.0
 40
134.749969
 50
148.702944
 51
166.297061
  0
ARC
  8
0
  6
BYLAYER
 62
     1
 10
289.170656
 20
-234.246795
 30
0.0
 40
2.999925
 50
134.999181
 51
148.702780
  0
ARC
  8
0
  6
BYLAYER
 62
     1
 10
401.749147
 20
-302.687713
 30
0.0
 40
134.750061
 50
103.702940
 51
121.297138
  0
ARC
  8
0
  6
BYLAYER
 62
     1
 10
333.308168
 20
-190.109344
 30
0.0
 40
3.000025
 50
121.297603
 51
135.0
  0
ARC
  8
0
  6
BYLAYER
 62
     1
 10
273.749147
 20
-333.897674
 30
0.0
 40
3.000008
 50
180.000000
 51
193.702903
  0
ARC
  8
0
  6
BYLAYER
 62
     1
 10
401.749147
 20
-302.687713
 30
0.0
 40
134.750000
 50
193.702935
 51
211.297093
  0
ARC
  8
0
  6
BYLAYER
 62
     1
 10
289.170717
 20
-371.128631
 30
0.0
 40
3.000025
 50
211.297107
 51
224.999996
  0
ARC
  8
0
  6
BYLAYER
 62
     1
 10
401.749147
 20
-302.687713
 30
0.0
 40
134.749924
 50
238.702954
 51
256.297002
  0
ARC
  8
0
  6
BYLAYER
 62
     1
 10
370.539064
 20
-430.687713
 30
0.0
 40
2.999949
 50
256.296510
 51
270.000001
  0
ARC
  8
0
  6
BYLAYER
 62
     1
 10
432.959169
 20
-430.687713
 30
0.0
 40
3.0
 50
270.0
 51
283.702343
  0
ARC
  8
0
  6
BYLAYER
 62
     1
 10
401.749147
 20
-302.687713
 30
0.0
 40
134.749939
 50
283.702945
 51
301.297075
  0
ARC
  8
0
  6
BYLAYER
 62
     1
 10
470.190065
 20
-415.266082
 30
0.0
 40
3.000009
 50
301.296911
 51
315.000402
  0
ARC
  8
0
  6
BYLAYER
 62
     1
 10
514.327699
 20
-371.128387
 30
0.0
 40
2.999982
 50
314.999582
 51
328.702772
  0
ARC
  8
0
  6
BYLAYER
 62
     1
 10
401.749147
 20
-302.687713
 30
0.0
 40
134.749969
 50
328.702990
 51
346.297066
  0
ARC
  8
0
  6
BYLAYER
 62
     1
 10
529.749147
 20
-333.897674
 30
0.0
 40
2.999979
 50
346.297093
 51
360.000000
  0
ARC
  8
0
  6
BYLAYER
 62
     1
 10
529.749147
 20
-271.477752
 30
0.0
 40
3.000000
 50
0.0
 51
13.703481
  0
ARC
  8
0
  6
BYLAYER
 62
     1
 10
401.749147
 20
-302.687713
 30
0.0
 40
134.750000
 50
13.702938
 51
31.297053
  0
ARC
  8
0
  6
BYLAYER
 62
     1
 10
514.327638
 20
-234.246795
 30
0.0
 40
2.999925
 50
31.297218
 51
45.000824
  0
ARC
  8
0
  6
BYLAYER
 62
     1
 10
401.749147
 20
-302.687713
 30
0.0
 40
134.750092
 50
58.702901
 51
76.297038
  0
CIRCLE
  8
0
  6
BYLAYER
 62
     1
 10
401.749147
 20
-302.687713
 30
0.0
 40
90.000053
  0
ARC
  8
0
  6
BYLAYER
 62
     1
 10
586.525087
 20
-379.224334
 30
0.0
 40
87.5
 50
134.435212
 51
180.564889
  0
ARC
  8
0
  6
BYLAYER
 62
     1
 10
586.525087
 20
-226.151092
 30
0.0
 40
87.5
 50
202.499864
 51
225.564825
  0
ARC
  8
0
  6
BYLAYER
 62
     1
 10
586.525087
 20
-226.151092
 30
0.0
 40
87.500008
 50
179.435189
 51
202.499864
  0
ARC
  8
0
  6
BYLAYER
 62
     1
 10
381.636648
 20
-158.047934
 30
0.0
 40
4.041492
 50
270.0
 51
316.109984
  0
ARC
  8
0
  6
BYLAYER
 62
     1
 10
381.224607
 20
-157.651557
 30
0.0
 40
4.613237
 50
316.109984
 51
360.000000
  0
ARC
  8
0
  6
BYLAYER
 62
     1
 10
381.224607
 20
-157.651557
 30
0.0
 40
4.613237
 50
0.0
 51
43.890016
  0
ARC
  8
0
  6
BYLAYER
 62
     1
 10
381.636648
 20
-157.255179
 30
0.0
 40
4.041492
 50
43.890016
 51
90.0
  0
ARC
  8
0
  6
BYLAYER
 62
     1
 10
381.636648
 20
-157.255144
 30
0.0
 40
4.041457
 50
90.0
 51
136.110087
  0
ARC
  8
0
  6
BYLAYER
 62
     1
 10
382.048727
 20
-157.651557
 30
0.0
 40
4.613254
 50
136.110087
 51
180.000000
  0
ARC
  8
0
  6
BYLAYER
 62
     1
 10
382.048727
 20
-157.651557
 30
0.0
 40
4.613254
 50
180.000000
 51
223.889913
  0
ARC
  8
0
  6
BYLAYER
 62
     1
 10
381.636648
 20
-158.047969
 30
0.0
 40
4.041457
 50
223.889913
 51
270.000000
  0
ARC
  8
0
  6
BYLAYER
 62
     1
 10
381.636648
 20
-156.471146
 30
0.0
 40
1.861645
 50
90.0
 51
140.793201
  0
ARC
  8
0
  6
BYLAYER
 62
     1
 10
383.083625
 20
-157.651557
 30
0.0
 40
3.729026
 50
140.793201
 51
180.0
  0
ARC
  8
0
  6
BYLAYER
 62
     1
 10
383.083602
 20
-157.651557
 30
0.0
 40
3.729004
 50
180.000000
 51
219.206869
  0
ARC
  8
0
  6
BYLAYER
 62
     1
 10
381.636648
 20
-158.831953
 30
0.0
 40
1.861650
 50
219.206869
 51
270.000000
  0
ARC
  8
0
  6
BYLAYER
 62
     1
 10
381.636648
 20
-158.831953
 30
0.0
 40
1.861650
 50
270.0
 51
320.793131
  0
ARC
  8
0
  6
BYLAYER
 62
     1
 10
380.189694
 20
-157.651557
 30
0.0
 40
3.729004
 50
320.793131
 51
360.0
  0
ARC
  8
0
  6
BYLAYER
 62
     1
 10
380.189672
 20
-157.651557
 30
0.0
 40
3.729026
 50
0.0
 51
39.206799
  0
ARC
  8
0
  6
BYLAYER
 62
     1
 10
381.636648
 20
-156.471146
 30
0.0
 40
1.861645
 50
39.206799
 51
90.0
  0
LINE
  8
0
  6
BYLAYER
 62
     1
 10
367.849673
 20
-161.793558
 30
0.0
 11
367.849673
 21
-153.391187
 31
0.0
  0
LINE
  8
0
  6
BYLAYER
 62
     1
 10
367.849673
 20
-153.391187
 30
0.0
 11
371.265847
 21
-153.391187
 31
0.0
  0
LINE
  8
0
  6
BYLAYER
 62
     1
 10
371.265847
 20
-153.391187
 30
0.0
 11
372.405890
 21
-157.769904
 31
0.0
  0
LINE
  8
0
  6
BYLAYER
 62
     1
 10
367.849673
 20
-161.793558
 30
0.0
 11
369.900967
 21
-161.793558
 31
0.0
  0
LINE
  8
0
  6
BYLAYER
 62
     1
 10
369.900967
 20
-161.793558
 30
0.0
 11
369.900967
 21
-156.941495
 31
0.0
  0
LINE
  8
0
  6
BYLAYER
 62
     1
 10
371.518307
 20
-161.793558
 30
0.0
 11
369.900967
 21
-156.941495
 31
0.0
  0
LINE
  8
0
  6
BYLAYER
 62
     1
 10
376.962106
 20
-161.793558
 30
0.0
 11
376.962106
 21
-153.391187
 31
0.0
  0
LINE
  8
0
  6
BYLAYER
 62
     1
 10
376.962106
 20
-153.391187
 30
0.0
 11
373.545932
 21
-153.391187
 31
0.0
  0
LINE
  8
0
  6
BYLAYER
 62
     1
 10
373.545932
 20
-153.391187
 30
0.0
 11
372.405890
 21
-157.769904
 31
0.0
  0
LINE
  8
0
  6
BYLAYER
 62
     1
 10
376.962106
 20
-161.793558
 30
0.0
 11
374.910812
 21
-161.793558
 31
0.0
  0
LINE
  8
0
  6
BYLAYER
 62
     1
 10
374.910812
 20
-161.793558
 30
0.0
 11
374.910812
 21
-156.941495
 31
0.0
  0
LINE
  8
0
  6
BYLAYER
 62
     1
 10
373.293472
 20
-161.793558
 30
0.0
 11
374.910812
 21
-156.941495
 31
0.0
  0
LINE
  8
0
  6
BYLAYER
 62
     1
 10
373.293472
 20
-161.793558
 30
0.0
 11
371.518307
 21
-161.793558
 31
0.0
  0
LINE
  8
0
  6
BYLAYER
 62
     1
 10
407.021283
 20
-161.793558
 30
0.0
 11
410.216528
 21
-153.391187
 31
0.0
  0
LINE
  8
0
  6
BYLAYER
 62
     1
 10
407.021283
 20
-161.793558
 30
0.0
 11
409.743182
 21
-161.793558
 31
0.0
  0
LINE
  8
0
  6
BYLAYER
 62
     1
 10
410.216528
 20
-153.391187
 30
0.0
 11
412.820080
 21
-153.391187
 31
0.0
  0
LINE
  8
0
  6
BYLAYER
 62
     1
 10
409.743182
 20
-161.793558
 30
0.0
 11
410.146631
 21
-160.610129
 31
0.0
  0
LINE
  8
0
  6
BYLAYER
 62
     1
 10
410.792114
 20
-158.716639
 30
0.0
 11
411.518304
 21
-156.586454
 31
0.0
  0
LINE
  8
0
  6
BYLAYER
 62
     1
 10
416.015369
 20
-161.793558
 30
0.0
 11
412.820080
 21
-153.391187
 31
0.0
  0
LINE
  8
0
  6
BYLAYER
 62
     1
 10
416.015369
 20
-161.793558
 30
0.0
 11
413.293469
 21
-161.793558
 31
0.0
  0
LINE
  8
0
  6
BYLAYER
 62
     1
 10
412.890021
 20
-160.610129
 30
0.0
 11
410.146631
 21
-160.610129
 31
0.0
  0
LINE
  8
0
  6
BYLAYER
 62
     1
 10
412.244494
 20
-158.716639
 30
0.0
 11
410.792114
 21
-158.716639
 31
0.0
  0
LINE
  8
0
  6
BYLAYER
 62
     1
 10
413.293469
 20
-161.793558
 30
0.0
 11
412.890021
 21
-160.610129
 31
0.0
  0
LINE
  8
0
  6
BYLAYER
 62
     1
 10
412.244494
 20
-158.716639
 30
0.0
 11
411.518304
 21
-156.586454
 31
0.0
  0
LINE
  8
0
  6
BYLAYER
 62
     1
 10
385.837845
 20
-155.462198
 30
0.0
 11
388.204703
 21
-155.462198
 31
0.0
  0
LINE
  8
0
  6
BYLAYER
 62
     1
 10
388.204703
 20
-155.462198
 30
0.0
 11
388.204703
 21
-161.793558
 31
0.0
  0
LINE
  8
0
  6
BYLAYER
 62
     1
 10
388.204703
 20
-161.793558
 30
0.0
 11
390.808276
 21
-161.793558
 31
0.0
  0
LINE
  8
0
  6
BYLAYER
 62
     1
 10
390.808276
 20
-161.793558
 30
0.0
 11
390.808276
 21
-155.462198
 31
0.0
  0
LINE
  8
0
  6
BYLAYER
 62
     1
 10
390.808276
 20
-155.462198
 30
0.0
 11
393.175134
 21
-155.462198
 31
0.0
  0
LINE
  8
0
  6
BYLAYER
 62
     1
 10
393.175134
 20
-155.462198
 30
0.0
 11
393.175134
 21
-153.391187
 31
0.0
  0
LINE
  8
0
  6
BYLAYER
 62
     1
 10
393.175134
 20
-153.391187
 30
0.0
 11
385.837845
 21
-153.391187
 31
0.0
  0
LINE
  8
0
  6
BYLAYER
 62
     1
 10
385.837845
 20
-153.391187
 30
0.0
 11
385.837845
 21
-155.462198
 31
0.0
  0
ARC
  8
0
  6
BYLAYER
 62
     1
 10
397.376309
 20
-158.047969
 30
0.0
 40
4.041457
 50
270.0
 51
316.110087
  0
ARC
  8
0
  6
BYLAYER
 62
     1
 10
396.964230
 20
-157.651557
 30
0.0
 40
4.613254
 50
316.110087
 51
360.0
  0
ARC
  8
0
  6
BYLAYER
 62
     1
 10
396.964247
 20
-157.651557
 30
0.0
 40
4.613237
 50
0.0
 51
43.890016
  0
ARC
  8
0
  6
BYLAYER
 62
     1
 10
397.376288
 20
-157.255179
 30
0.0
 40
4.041492
 50
43.890016
 51
90.000000
  0
ARC
  8
0
  6
BYLAYER
 62
     1
 10
397.376288
 20
-157.255144
 30
0.0
 40
4.041457
 50
90.0
 51
136.110087
  0
ARC
  8
0
  6
BYLAYER
 62
     1
 10
397.788366
 20
-157.651557
 30
0.0
 40
4.613254
 50
136.110087
 51
180.000000
  0
ARC
  8
0
  6
BYLAYER
 62
     1
 10
397.788350
 20
-157.651557
 30
0.0
 40
4.613237
 50
180.000000
 51
223.890016
  0
ARC
  8
0
  6
BYLAYER
 62
     1
 10
397.376309
 20
-158.047934
 30
0.0
 40
4.041492
 50
223.890016
 51
270.000000
  0
ARC
  8
0
  6
BYLAYER
 62
     1
 10
397.376288
 20
-156.471146
 30
0.0
 40
1.861645
 50
90.0
 51
140.793201
  0
ARC
  8
0
  6
BYLAYER
 62
     1
 10
398.823264
 20
-157.651557
 30
0.0
 40
3.729026
 50
140.793201
 51
180.0
  0
ARC
  8
0
  6
BYLAYER
 62
     1
 10
398.823217
 20
-157.651557
 30
0.0
 40
3.728979
 50
180.000000
 51
219.207055
  0
ARC
  8
0
  6
BYLAYER
 62
     1
 10
397.376309
 20
-158.831923
 30
0.0
 40
1.861680
 50
219.207055
 51
270.000000
  0
ARC
  8
0
  6
BYLAYER
 62
     1
 10
397.376309
 20
-158.831953
 30
0.0
 40
1.861650
 50
270.0
 51
320.793131
  0
ARC
  8
0
  6
BYLAYER
 62
     1
 10
395.929355
 20
-157.651557
 30
0.0
 40
3.729004
 50
320.793131
 51
360.000000
  0
ARC
  8
0
  6
BYLAYER
 62
     1
 10
395.929357
 20
-157.651557
 30
0.0
 40
3.729001
 50
0.0
 51
39.206985
  0
ARC
  8
0
  6
BYLAYER
 62
     1
 10
397.376288
 20
-156.471176
 30
0.0
 40
1.861675
 50
39.206985
 51
90.000000
  0
LINE
  8
0
  6
BYLAYER
 62
     1
 10
416.242151
 20
-161.793558
 30
0.0
 11
416.242151
 21
-153.391187
 31
0.0
  0
LINE
  8
0
  6
BYLAYER
 62
     1
 10
416.242151
 20
-153.391187
 30
0.0
 11
421.449234
 21
-153.391187
 31
0.0
  0
ARC
  8
0
  6
BYLAYER
 62
     1
 10
421.449234
 20
-155.758066
 30
0.0
 40
2.366854
 50
287.134650
 51
450.000006
  0
ARC
  8
0
  6
BYLAYER
 62
     1
 10
421.922623
 20
-159.900068
 30
0.0
 40
1.893491
 50
0.0
 51
83.207557
  0
LINE
  8
0
  6
BYLAYER
 62
     1
 10
423.816113
 20
-159.900068
 30
0.0
 11
423.816113
 21
-161.083497
 31
0.0
  0
ARC
  8
0
  6
BYLAYER
 62
     1
 10
425.709604
 20
-161.083497
 30
0.0
 40
1.893491
 50
180.000000
 51
202.024314
  0
LINE
  8
0
  6
BYLAYER
 62
     1
 10
421.350732
 20
-161.793558
 30
0.0
 11
423.954285
 21
-161.793558
 31
0.0
  0
ARC
  8
0
  6
BYLAYER
 62
     1
 10
423.106052
 20
-161.083497
 30
0.0
 40
1.893491
 50
180.000000
 51
202.024314
  0
LINE
  8
0
  6
BYLAYER
 62
     1
 10
421.212561
 20
-161.083497
 30
0.0
 11
421.212561
 21
-160.136762
 31
0.0
  0
LINE
  8
0
  6
BYLAYER
 62
     1
 10
416.242151
 20
-161.793558
 30
0.0
 11
418.727356
 21
-161.793558
 31
0.0
  0
LINE
  8
0
  6
BYLAYER
 62
     1
 10
418.727356
 20
-161.793558
 30
0.0
 11
418.727356
 21
-158.953333
 31
0.0
  0
LINE
  8
0
  6
BYLAYER
 62
     1
 10
420.029132
 20
-158.953333
 30
0.0
 11
418.727356
 21
-158.953333
 31
0.0
  0
ARC
  8
0
  6
BYLAYER
 62
     1
 10
420.029132
 20
-160.136762
 30
0.0
 40
1.183429
 50
0.0
 51
90.000003
  0
LINE
  8
0
  6
BYLAYER
 62
     1
 10
418.727356
 20
-157.059842
 30
0.0
 11
418.727356
 21
-155.284678
 31
0.0
  0
LINE
  8
0
  6
BYLAYER
 62
     1
 10
418.727356
 20
-155.284678
 30
0.0
 11
420.384152
 21
-155.284678
 31
0.0
  0
LINE
  8
0
  6
BYLAYER
 62
     1
 10
418.727356
 20
-157.059842
 30
0.0
 11
420.384152
 21
-157.059842
 31
0.0
  0
ARC
  8
0
  6
BYLAYER
 62
     1
 10
420.384152
 20
-156.172260
 30
0.0
 40
0.887582
 50
270.0
 51
450.000005
  0
LINE
  8
0
  6
BYLAYER
 62
     1
 10
404.950293
 20
-159.136643
 30
0.0
 11
403.411822
 21
-153.391187
 31
0.0
  0
LINE
  8
0
  6
BYLAYER
 62
     1
 10
403.411822
 20
-153.391187
 30
0.0
 11
400.926617
 21
-153.391187
 31
0.0
  0
LINE
  8
0
  6
BYLAYER
 62
     1
 10
400.926617
 20
-153.391187
 30
0.0
 11
403.530169
 21
-161.793558
 31
0.0
  0
LINE
  8
0
  6
BYLAYER
 62
     1
 10
404.950293
 20
-159.136643
 30
0.0
 11
406.488721
 21
-153.391187
 31
0.0
  0
LINE
  8
0
  6
BYLAYER
 62
     1
 10
406.488721
 20
-153.391187
 30
0.0
 11
408.973926
 21
-153.391187
 31
0.0
  0
LINE
  8
0
  6
BYLAYER
 62
     1
 10
408.973926
 20
-153.391187
 30
0.0
 11
406.370373
 21
-161.793558
 31
0.0
  0
LINE
  8
0
  6
BYLAYER
 62
     1
 10
406.370373
 20
-161.793558
 30
0.0
 11
403.530169
 21
-161.793558
 31
0.0
  0
LINE
  8
0
  6
BYLAYER
 62
     1
 10
424.181067
 20
-161.793558
 30
0.0
 11
426.666272
 21
-161.793558
 31
0.0
  0
LINE
  8
0
  6
BYLAYER
 62
     1
 10
426.666272
 20
-161.793558
 30
0.0
 11
426.666272
 21
-153.391187
 31
0.0
  0
LINE
  8
0
  6
BYLAYER
 62
     1
 10
426.666272
 20
-153.391187
 30
0.0
 11
424.181067
 21
-153.391187
 31
0.0
  0
LINE
  8
0
  6
BYLAYER
 62
     1
 10
424.181067
 20
-153.391187
 30
0.0
 11
424.181067
 21
-161.793558
 31
0.0
  0
ARC
  8
0
  6
BYLAYER
 62
     1
 10
431.340836
 20
-158.047969
 30
0.0
 40
4.041457
 50
270.0
 51
316.110087
  0
ARC
  8
0
  6
BYLAYER
 62
     1
 10
430.928757
 20
-157.651557
 30
0.0
 40
4.613254
 50
316.110087
 51
360.000000
  0
ARC
  8
0
  6
BYLAYER
 62
     1
 10
430.928757
 20
-157.651557
 30
0.0
 40
4.613254
 50
0.0
 51
43.889913
  0
ARC
  8
0
  6
BYLAYER
 62
     1
 10
431.340836
 20
-157.255144
 30
0.0
 40
4.041457
 50
43.889913
 51
90.000000
  0
ARC
  8
0
  6
BYLAYER
 62
     1
 10
431.340836
 20
-157.255144
 30
0.0
 40
4.041457
 50
90.0
 51
136.110087
  0
ARC
  8
0
  6
BYLAYER
 62
     1
 10
431.752914
 20
-157.651557
 30
0.0
 40
4.613254
 50
136.110087
 51
180.0
  0
ARC
  8
0
  6
BYLAYER
 62
     1
 10
431.752914
 20
-157.651557
 30
0.0
 40
4.613254
 50
180.000000
 51
223.889913
  0
ARC
  8
0
  6
BYLAYER
 62
     1
 10
431.340836
 20
-158.047969
 30
0.0
 40
4.041457
 50
223.889913
 51
270.000000
  0
ARC
  8
0
  6
BYLAYER
 62
     1
 10
431.340836
 20
-156.471146
 30
0.0
 40
1.861645
 50
39.206799
 51
90.000000
  0
ARC
  8
0
  6
BYLAYER
 62
     1
 10
429.893859
 20
-157.651557
 30
0.0
 40
3.729026
 50
0.0
 51
39.206799
  0
ARC
  8
0
  6
BYLAYER
 62
     1
 10
429.893881
 20
-157.651557
 30
0.0
 40
3.729004
 50
320.793131
 51
360.0
  0
ARC
  8
0
  6
BYLAYER
 62
     1
 10
431.340836
 20
-158.831953
 30
0.0
 40
1.861650
 50
270.0
 51
320.793131
  0
ARC
  8
0
  6
BYLAYER
 62
     1
 10
431.340836
 20
-158.831953
 30
0.0
 40
1.861650
 50
219.206869
 51
270.000000
  0
ARC
  8
0
  6
BYLAYER
 62
     1
 10
432.787790
 20
-157.651557
 30
0.0
 40
3.729004
 50
180.000000
 51
219.206869
  0
ARC
  8
0
  6
BYLAYER
 62
     1
 10
432.787812
 20
-157.651557
 30
0.0
 40
3.729026
 50
140.793201
 51
180.000000
  0
ARC
  8
0
  6
BYLAYER
 62
     1
 10
431.340836
 20
-156.471146
 30
0.0
 40
1.861645
 50
90.0
 51
140.793201
  0
ARC
  8
0
  6
BYLAYER
 62
     1
 10
389.380227
 20
-143.772168
 30
0.0
 40
10.401993
 50
174.535650
 51
180.000000
  0
LINE
  8
0
  6
BYLAYER
 62
     1
 10
379.025502
 20
-142.781620
 30
0.0
 11
379.025502
 21
-142.781609
 31
0.0
  0
LINE
  8
0
  6
BYLAYER
 62
     1
 10
379.036821
 20
-142.669717
 30
0.0
 11
380.029564
 21
-142.251757
 31
0.0
  0
ARC
  8
0
  6
BYLAYER
 62
     1
 10
389.380270
 20
-143.772254
 30
0.0
 40
9.473494
 50
159.235383
 51
170.763998
  0
LINE
  8
0
  6
BYLAYER
 62
     1
 10
380.522086
 20
-140.413563
 30
0.0
 11
379.871367
 21
-139.555204
 31
0.0
  0
ARC
  8
0
  6
BYLAYER
 62
     1
 10
389.380227
 20
-143.772168
 30
0.0
 40
10.401981
 50
144.139514
 51
156.083795
  0
LINE
  8
0
  6
BYLAYER
 62
     1
 10
380.881576
 20
-137.774295
 30
0.0
 11
380.882196
 21
-137.773420
 31
0.0
  0
LINE
  8
0
  6
BYLAYER
 62
     1
 10
380.949985
 20
-137.678547
 30
0.0
 11
382.006880
 21
-137.823957
 31
0.0
  0
ARC
  8
0
  6
BYLAYER
 62
     1
 10
389.380227
 20
-143.772168
 30
0.0
 40
9.473437
 50
129.235643
 51
141.105976
  0
LINE
  8
0
  6
BYLAYER
 62
     1
 10
383.233267
 20
-136.563768
 30
0.0
 11
383.234292
 21
-136.562882
 31
0.0
  0
LINE
  8
0
  6
BYLAYER
 62
     1
 10
383.388172
 20
-136.434507
 30
0.0
 11
383.253781
 21
-135.365737
 31
0.0
  0
ARC
  8
0
  6
BYLAYER
 62
     1
 10
389.380227
 20
-143.772168
 30
0.0
 40
10.401992
 50
114.139607
 51
126.083853
  0
LINE
  8
0
  6
BYLAYER
 62
     1
 10
385.019861
 20
-134.328193
 30
0.0
 11
385.020566
 21
-134.327861
 31
0.0
  0
LINE
  8
0
  6
BYLAYER
 62
     1
 10
385.126215
 20
-134.279813
 30
0.0
 11
385.968775
 21
-134.934165
 31
0.0
  0
LINE
  8
0
  6
BYLAYER
 62
     1
 10
386.161419
 20
-134.862314
 30
0.0
 11
386.162488
 21
-134.861940
 31
0.0
  0
ARC
  8
0
  6
BYLAYER
 62
     1
 10
389.380227
 20
-143.772168
 30
0.0
 40
9.473434
 50
99.235601
 51
111.106038
  0
ARC
  8
0
  6
BYLAYER
 62
     1
 10
389.380227
 20
-143.772168
 30
0.0
 40
10.401993
 50
90.0
 51
96.083892
  0
LINE
  8
0
  6
BYLAYER
 62
     1
 10
388.277777
 20
-133.428762
 30
0.0
 11
387.859793
 21
-134.421541
 31
0.0
  0
LINE
  8
0
  6
BYLAYER
 62
     1
 10
399.734942
 20
-142.781620
 30
0.0
 11
399.734942
 21
-142.781609
 31
0.0
  0
LINE
  8
0
  6
BYLAYER
 62
     1
 10
399.723634
 20
-142.669715
 30
0.0
 11
398.730840
 21
-142.251747
 31
0.0
  0
ARC
  8
0
  6
BYLAYER
 62
     1
 10
389.380163
 20
-143.772254
 30
0.0
 40
9.473494
 50
9.235986
 51
20.764650
  0
LINE
  8
0
  6
BYLAYER
 62
     1
 10
398.238417
 20
-140.413464
 30
0.0
 11
398.889089
 21
-139.555206
 31
0.0
  0
ARC
  8
0
  6
BYLAYER
 62
     1
 10
389.380227
 20
-143.772168
 30
0.0
 40
10.401981
 50
23.916189
 51
35.860484
  0
LINE
  8
0
  6
BYLAYER
 62
     1
 10
397.878857
 20
-137.774295
 30
0.0
 11
397.878238
 21
-137.773420
 31
0.0
  0
LINE
  8
0
  6
BYLAYER
 62
     1
 10
397.810470
 20
-137.678547
 30
0.0
 11
396.753649
 21
-137.823943
 31
0.0
  0
ARC
  8
0
  6
BYLAYER
 62
     1
 10
389.380227
 20
-143.772168
 30
0.0
 40
9.473437
 50
38.894050
 51
50.764315
  0
LINE
  8
0
  6
BYLAYER
 62
     1
 10
395.527188
 20
-136.563768
 30
0.0
 11
395.526162
 21
-136.562882
 31
0.0
  0
LINE
  8
0
  6
BYLAYER
 62
     1
 10
395.372311
 20
-136.434335
 30
0.0
 11
395.506652
 21
-135.365721
 31
0.0
  0
ARC
  8
0
  6
BYLAYER
 62
     1
 10
389.380227
 20
-143.772168
 30
0.0
 40
10.401992
 50
53.916300
 51
65.860381
  0
LINE
  8
0
  6
BYLAYER
 62
     1
 10
393.740594
 20
-134.328193
 30
0.0
 11
393.739868
 21
-134.327861
 31
0.0
  0
LINE
  8
0
  6
BYLAYER
 62
     1
 10
393.634242
 20
-134.279814
 30
0.0
 11
392.791690
 21
-134.934136
 31
0.0
  0
LINE
  8
0
  6
BYLAYER
 62
     1
 10
392.599014
 20
-134.862314
 30
0.0
 11
392.597967
 21
-134.861940
 31
0.0
  0
ARC
  8
0
  6
BYLAYER
 62
     1
 10
389.380227
 20
-143.772168
 30
0.0
 40
9.473434
 50
68.894081
 51
80.764578
  0
ARC
  8
0
  6
BYLAYER
 62
     1
 10
389.380227
 20
-143.772168
 30
0.0
 40
10.401993
 50
84.535428
 51
90.000003
  0
LINE
  8
0
  6
BYLAYER
 62
     1
 10
390.482681
 20
-133.428762
 30
0.0
 11
390.900563
 21
-134.421372
 31
0.0
  0
ARC
  8
0
  6
BYLAYER
 62
     1
 10
389.380227
 20
-143.772168
 30
0.0
 40
10.401993
 50
180.000000
 51
186.083899
  0
LINE
  8
0
  6
BYLAYER
 62
     1
 10
379.025502
 20
-144.762706
 30
0.0
 11
379.025502
 21
-144.762728
 31
0.0
  0
LINE
  8
0
  6
BYLAYER
 62
     1
 10
379.036821
 20
-144.874620
 30
0.0
 11
380.029594
 21
-145.292592
 31
0.0
  0
ARC
  8
0
  6
BYLAYER
 62
     1
 10
389.380270
 20
-143.772083
 30
0.0
 40
9.473494
 50
189.236002
 51
200.764629
  0
LINE
  8
0
  6
BYLAYER
 62
     1
 10
380.522120
 20
-147.130731
 30
0.0
 11
379.871364
 21
-147.989125
 31
0.0
  0
ARC
  8
0
  6
BYLAYER
 62
     1
 10
389.380227
 20
-143.772168
 30
0.0
 40
10.401981
 50
203.916158
 51
215.860410
  0
LINE
  8
0
  6
BYLAYER
 62
     1
 10
380.881576
 20
-149.770031
 30
0.0
 11
380.882196
 21
-149.770907
 31
0.0
  0
LINE
  8
0
  6
BYLAYER
 62
     1
 10
380.949977
 20
-149.865779
 30
0.0
 11
382.006972
 21
-149.720371
 31
0.0
  0
ARC
  8
0
  6
BYLAYER
 62
     1
 10
389.380227
 20
-143.772168
 30
0.0
 40
9.473437
 50
218.894045
 51
230.764345
  0
LINE
  8
0
  6
BYLAYER
 62
     1
 10
383.233267
 20
-150.980558
 30
0.0
 11
383.234292
 21
-150.981444
 31
0.0
  0
LINE
  8
0
  6
BYLAYER
 62
     1
 10
383.388170
 20
-151.109829
 30
0.0
 11
383.253781
 21
-152.178600
 31
0.0
  0
ARC
  8
0
  6
BYLAYER
 62
     1
 10
389.380227
 20
-143.772168
 30
0.0
 40
10.401992
 50
233.916148
 51
245.860401
  0
LINE
  8
0
  6
BYLAYER
 62
     1
 10
385.019861
 20
-153.216134
 30
0.0
 11
385.020566
 21
-153.216475
 31
0.0
  0
LINE
  8
0
  6
BYLAYER
 62
     1
 10
385.126216
 20
-153.264524
 30
0.0
 11
385.968875
 21
-152.610080
 31
0.0
  0
LINE
  8
0
  6
BYLAYER
 62
     1
 10
386.161419
 20
-152.682012
 30
0.0
 11
386.162488
 21
-152.682396
 31
0.0
  0
LINE
  8
0
  6
BYLAYER
 62
     1
 10
399.734942
 20
-144.762706
 30
0.0
 11
399.734942
 21
-144.762728
 31
0.0
  0
LINE
  8
0
  6
BYLAYER
 62
     1
 10
399.723633
 20
-144.874622
 30
0.0
 11
398.730840
 21
-145.292590
 31
0.0
  0
LINE
  8
0
  6
BYLAYER
 62
     1
 10
398.238326
 20
-147.130755
 30
0.0
 11
398.889099
 21
-147.989132
 31
0.0
  0
LINE
  8
0
  6
BYLAYER
 62
     1
 10
397.878857
 20
-149.770031
 30
0.0
 11
397.878238
 21
-149.770907
 31
0.0
  0
LINE
  8
0
  6
BYLAYER
 62
     1
 10
397.810490
 20
-149.865780
 30
0.0
 11
396.753426
 21
-149.720367
 31
0.0
  0
LINE
  8
0
  6
BYLAYER
 62
     1
 10
395.527188
 20
-150.980558
 30
0.0
 11
395.526162
 21
-150.981444
 31
0.0
  0
LINE
  8
0
  6
BYLAYER
 62
     1
 10
395.372290
 20
-151.109825
 30
0.0
 11
395.506652
 21
-152.178616
 31
0.0
  0
LINE
  8
0
  6
BYLAYER
 62
     1
 10
393.634241
 20
-153.264523
 30
0.0
 11
392.791561
 21
-152.610087
 31
0.0
  0
ARC
  8
0
  6
BYLAYER
 62
     1
 10
389.380227
 20
-143.772168
 30
0.0
 40
9.473437
 50
309.235697
 51
321.105929
  0
ARC
  8
0
  6
BYLAYER
 62
     1
 10
389.380227
 20
-143.772168
 30
0.0
 40
9.473434
 50
248.893873
 51
270.0
  0
ARC
  8
0
  6
BYLAYER
 62
     1
 10
389.380227
 20
-143.772168
 30
0.0
 40
10.401992
 50
294.783232
 51
306.083699
  0
LINE
  8
0
  6
BYLAYER
 62
     1
 10
393.739868
 20
-153.216475
 30
0.0
 11
393.634882
 21
-153.265880
 31
0.0
  0
ARC
  8
0
  6
BYLAYER
 62
     1
 10
389.380227
 20
-143.772168
 30
0.0
 40
10.401981
 50
324.139593
 51
336.083825
  0
ARC
  8
0
  6
BYLAYER
 62
     1
 10
389.380163
 20
-143.772083
 30
0.0
 40
9.473494
 50
339.235210
 51
350.764014
  0
ARC
  8
0
  6
BYLAYER
 62
     1
 10
389.380227
 20
-143.772168
 30
0.0
 40
10.401993
 50
353.916089
 51
360.000000
  0
ARC
  8
0
  6
BYLAYER
 62
     1
 10
389.380227
 20
-143.772168
 30
0.0
 40
10.401993
 50
0.0
 51
6.083907
  0
ARC
  8
0
  6
BYLAYER
 62
     1
 10
389.380227
 20
-143.772168
 30
0.0
 40
9.473434
 50
270.0
 51
291.106008
  0
CIRCLE
  8
0
  6
BYLAYER
 62
     1
 10
389.380227
 20
-143.772168
 30
0.0
 40
5.082113
  0
CIRCLE
  8
0
  6
BYLAYER
 62
     1
 10
389.380227
 20
-143.772168
 30
0.0
 40
7.414445
  0
LINE
  8
0
  6
BYLAYER
 62
     1
 10
261.014223
 20
-187.970977
 30
0.0
 11
259.749208
 21
-227.323089
 31
0.0
  0
LINE
  8
0
  6
BYLAYER
 62
     1
 10
542.491242
 20
-187.905853
 30
0.0
 11
543.749123
 21
-229.691803
 31
0.0
  0
LINE
  8
0
  6
BYLAYER
 62
     1
 10
401.749147
 20
-302.687713
 30
0.0
 11
408.749147
 21
-302.687713
 31
0.0
  0
LINE
  8
0
  6
BYLAYER
 62
     1
 10
401.749147
 20
-302.687713
 30
0.0
 11
401.749147
 21
-295.687713
 31
0.0
  0
LINE
  8
0
  6
BYLAYER
 62
     1
 10
401.749147
 20
-302.687713
 30
0.0
 11
401.749147
 21
-309.687713
 31
0.0
  0
LINE
  8
0
  6
BYLAYER
 62
     1
 10
401.749147
 20
-302.687713
 30
0.0
 11
394.749147
 21
-302.687713
 31
0.0
  0
LINE
  8
0
  6
BYLAYER
 62
     1
 10
1197.749147
 20
-832.687408
 30
0.0
 11
1196.749147
 21
-833.687408
 31
0.0
  0
LINE
  8
0
  6
BYLAYER
 62
     1
 10
1197.749147
 20
-1012.687438
 30
0.0
 11
1196.749147
 21
-1011.687438
 31
0.0
  0
LINE
  8
0
  6
BYLAYER
 62
     1
 10
1200.749147
 20
-832.687408
 30
0.0
 11
1197.749147
 21
-832.687408
 31
0.0
  0
LINE
  8
0
  6
BYLAYER
 62
     1
 10
1200.749147
 20
-1012.687438
 30
0.0
 11
1197.749147
 21
-1012.687438
 31
0.0
  0
LINE
  8
0
  6
BYLAYER
 62
     1
 10
1196.749147
 20
-833.687408
 30
0.0
 11
1196.749147
 21
-1011.687438
 31
0.0
  0
LINE
  8
0
  6
BYLAYER
 62
     1
 10
1359.249147
 20
-1070.187744
 30
0.0
 11
1204.249147
 21
-1070.187744
 31
0.0
  0
LINE
  8
0
  6
BYLAYER
 62
     1
 10
1359.249147
 20
-735.187774
 30
0.0
 11
1204.249147
 21
-735.187774
 31
0.0
  0
ARC
  8
0
  6
BYLAYER
 62
     1
 10
1356.249147
 20
-1003.930358
 30
0.0
 40
3.000046
 50
0.0
 51
44.999609
  0
ARC
  8
0
  6
BYLAYER
 62
     1
 10
1356.249147
 20
-801.445098
 30
0.0
 40
2.999982
 50
315.000402
 51
359.999983
  0
LINE
  8
0
  6
BYLAYER
 62
     1
 10
1359.249147
 20
-735.187774
 30
0.0
 11
1359.249147
 21
-801.445098
 31
0.0
  0
LINE
  8
0
  6
BYLAYER
 62
     1
 10
1359.249147
 20
-1003.930358
 30
0.0
 11
1359.249147
 21
-1070.187744
 31
0.0
  0
ARC
  8
0
  6
BYLAYER
 62
     1
 10
1207.249147
 20
-801.445098
 30
0.0
 40
2.999982
 50
180.000000
 51
224.999581
  0
ARC
  8
0
  6
BYLAYER
 62
     1
 10
1207.249147
 20
-1003.930358
 30
0.0
 40
3.000046
 50
135.000410
 51
180.000019
  0
LINE
  8
0
  6
BYLAYER
 62
     1
 10
1204.249147
 20
-735.187774
 30
0.0
 11
1204.249147
 21
-801.445098
 31
0.0
  0
LINE
  8
0
  6
BYLAYER
 62
     1
 10
1204.249147
 20
-1070.187744
 30
0.0
 11
1204.249147
 21
-1003.930358
 31
0.0
  0
LINE
  8
0
  6
BYLAYER
 62
     1
 10
1204.249147
 20
-1047.870910
 30
0.0
 11
1200.749147
 21
-1047.687438
 31
0.0
  0
LINE
  8
0
  6
BYLAYER
 62
     1
 10
1200.749147
 20
-797.687408
 30
0.0
 11
1204.249147
 21
-797.503997
 31
0.0
  0
LINE
  8
0
  6
BYLAYER
 62
     1
 10
1200.749147
 20
-1047.687438
 30
0.0
 11
1200.749147
 21
-797.687408
 31
0.0
  0
CIRCLE
  8
0
  6
BYLAYER
 62
     1
 10
1341.749147
 20
-1022.687438
 30
0.0
 40
8.0
  0
CIRCLE
  8
0
  6
BYLAYER
 62
     1
 10
1221.749147
 20
-1022.687438
 30
0.0
 40
8.0
  0
CIRCLE
  8
0
  6
BYLAYER
 62
     1
 10
1281.749147
 20
-792.687408
 30
0.0
 40
36.0
  0
ARC
  8
0
  6
BYLAYER
 62
     1
 10
1333.464357
 20
-809.885894
 30
0.0
 40
3.000034
 50
93.000095
 51
161.604953
  0
ARC
  8
0
  6
BYLAYER
 62
     1
 10
1230.033937
 20
-809.885894
 30
0.0
 40
3.000024
 50
18.395045
 51
86.999903
  0
LINE
  8
0
  6
BYLAYER
 62
     1
 10
1204.525270
 20
-802.702239
 30
0.0
 11
1229.318483
 21
-804.001617
 31
0.0
  0
ARC
  8
0
  6
BYLAYER
 62
     1
 10
1229.161378
 20
-806.997466
 30
0.0
 40
2.999963
 50
15.222620
 51
86.999903
  0
ARC
  8
0
  6
BYLAYER
 62
     1
 10
1281.749147
 20
-792.687408
 30
0.0
 40
51.500031
 50
195.222584
 51
344.777403
  0
LINE
  8
0
  6
BYLAYER
 62
     1
 10
1358.973024
 20
-802.702239
 30
0.0
 11
1334.179811
 21
-804.001617
 31
0.0
  0
ARC
  8
0
  6
BYLAYER
 62
     1
 10
1334.336916
 20
-806.997466
 30
0.0
 40
2.999979
 50
93.000095
 51
164.777385
  0
CIRCLE
  8
0
  6
BYLAYER
 62
     1
 10
1221.749147
 20
-782.687042
 30
0.0
 40
8.0
  0
CIRCLE
  8
0
  6
BYLAYER
 62
     1
 10
1341.749147
 20
-782.687042
 30
0.0
 40
8.0
  0
ARC
  8
0
  6
BYLAYER
 62
     1
 10
1291.749147
 20
-864.338958
 30
0.0
 40
3.000000
 50
180.000000
 51
267.032019
  0
ARC
  8
0
  6
BYLAYER
 62
     1
 10
1291.749147
 20
-950.338958
 30
0.0
 40
3.000000
 50
180.000000
 51
267.032019
  0
ARC
  8
0
  6
BYLAYER
 62
     1
 10
1291.749147
 20
-993.303314
 30
0.0
 40
3.000021
 50
180.000000
 51
267.000491
  0
ARC
  8
0
  6
BYLAYER
 62
     1
 10
1271.749147
 20
-864.338958
 30
0.0
 40
3.000000
 50
272.968008
 51
360.000000
  0
LINE
  8
0
  6
BYLAYER
 62
     1
 10
1274.749147
 20
-938.035858
 30
0.0
 11
1274.749147
 21
-950.338958
 31
0.0
  0
ARC
  8
0
  6
BYLAYER
 62
     1
 10
1271.749147
 20
-950.338958
 30
0.0
 40
3.000000
 50
272.968008
 51
360.000000
  0
ARC
  8
0
  6
BYLAYER
 62
     1
 10
1271.749147
 20
-981.035888
 30
0.0
 40
3.0
 50
0.0
 51
87.032033
  0
LINE
  8
0
  6
BYLAYER
 62
     1
 10
1274.749147
 20
-993.303314
 30
0.0
 11
1274.749147
 21
-981.035888
 31
0.0
  0
ARC
  8
0
  6
BYLAYER
 62
     1
 10
1271.749147
 20
-993.303314
 30
0.0
 40
3.000021
 50
272.999519
 51
359.999983
  0
LINE
  8
0
  6
BYLAYER
 62
     1
 10
1274.749147
 20
-864.338958
 30
0.0
 11
1274.749147
 21
-852.035858
 31
0.0
  0
ARC
  8
0
  6
BYLAYER
 62
     1
 10
1271.749147
 20
-852.035858
 30
0.0
 40
2.999996
 50
0.0
 51
87.031998
  0
ARC
  8
0
  6
BYLAYER
 62
     1
 10
1236.566408
 20
-823.163177
 30
0.0
 40
3.000057
 50
272.967964
 51
393.999804
  0
ARC
  8
0
  6
BYLAYER
 62
     1
 10
1326.931764
 20
-823.163177
 30
0.0
 40
3.000054
 50
146.000198
 51
267.032038
  0
ARC
  8
0
  6
BYLAYER
 62
     1
 10
1291.749147
 20
-852.035858
 30
0.0
 40
2.999996
 50
92.968000
 51
180.000005
  0
LINE
  8
0
  6
BYLAYER
 62
     1
 10
1288.749147
 20
-864.338958
 30
0.0
 11
1288.749147
 21
-852.035858
 31
0.0
  0
LINE
  8
0
  6
BYLAYER
 62
     1
 10
1288.749147
 20
-938.035796
 30
0.0
 11
1288.749147
 21
-950.338958
 31
0.0
  0
ARC
  8
0
  6
BYLAYER
 62
     1
 10
1329.749147
 20
-979.065521
 30
0.0
 40
3.0
 50
92.967995
 51
180.000000
  0
LINE
  8
0
  6
BYLAYER
 62
     1
 10
1326.749147
 20
-979.065521
 30
0.0
 11
1326.749147
 21
-981.840515
 31
0.0
  0
ARC
  8
0
  6
BYLAYER
 62
     1
 10
1323.749147
 20
-981.840515
 30
0.0
 40
3.000000
 50
272.999516
 51
360.000000
  0
LINE
  8
0
  6
BYLAYER
 62
     1
 10
1323.906129
 20
-984.836395
 30
0.0
 11
1291.592165
 21
-986.529907
 31
0.0
  0
LINE
  8
0
  6
BYLAYER
 62
     1
 10
1288.749147
 20
-993.303314
 30
0.0
 11
1288.749147
 21
-989.525787
 31
0.0
  0
ARC
  8
0
  6
BYLAYER
 62
     1
 10
1291.749147
 20
-989.525787
 30
0.0
 40
2.999993
 50
93.000108
 51
180.000005
  0
LINE
  8
0
  6
BYLAYER
 62
     1
 10
1274.749147
 20
-907.338958
 30
0.0
 11
1274.749147
 21
-895.035858
 31
0.0
  0
ARC
  8
0
  6
BYLAYER
 62
     1
 10
1271.749147
 20
-895.035858
 30
0.0
 40
3.000057
 50
0.0
 51
87.03206
  0
LINE
  8
0
  6
BYLAYER
 62
     1
 10
1288.749147
 20
-907.338897
 30
0.0
 11
1288.749147
 21
-895.035858
 31
0.0
  0
ARC
  8
0
  6
BYLAYER
 62
     1
 10
1291.749147
 20
-895.035858
 30
0.0
 40
3.0
 50
92.967933
 51
180.000000
  0
LINE
  8
0
  6
BYLAYER
 62
     1
 10
1205.127809
 20
-1001.808990
 30
0.0
 11
1213.870485
 21
-993.066345
 31
0.0
  0
LINE
  8
0
  6
BYLAYER
 62
     1
 10
1205.127809
 20
-803.566375
 30
0.0
 11
1213.870485
 21
-812.309112
 31
0.0
  0
ARC
  8
0
  6
BYLAYER
 62
     1
 10
1211.749147
 20
-814.430389
 30
0.0
 40
3.0
 50
0.0
 51
44.999848
  0
LINE
  8
0
  6
BYLAYER
 62
     1
 10
1349.627809
 20
-812.309417
 30
0.0
 11
1358.370485
 21
-803.566375
 31
0.0
  0
ARC
  8
0
  6
BYLAYER
 62
     1
 10
1351.749147
 20
-814.430694
 30
0.0
 40
3.000000
 50
135.001216
 51
179.999998
  0
LINE
  8
0
  6
BYLAYER
 62
     1
 10
1358.370485
 20
-1001.808990
 30
0.0
 11
1349.627809
 21
-993.066345
 31
0.0
  0
LINE
  8
0
  6
BYLAYER
 62
     1
 10
1236.721803
 20
-826.159210
 30
0.0
 11
1217.593874
 21
-827.150970
 31
0.0
  0
ARC
  8
0
  6
BYLAYER
 62
     1
 10
1217.749147
 20
-830.147003
 30
0.0
 40
3.0
 50
92.968136
 51
179.999998
  0
LINE
  8
0
  6
BYLAYER
 62
     1
 10
1271.904420
 20
-849.039886
 30
0.0
 11
1217.593874
 21
-846.223846
 31
0.0
  0
ARC
  8
0
  6
BYLAYER
 62
     1
 10
1217.749147
 20
-843.227874
 30
0.0
 40
3.000000
 50
180.000000
 51
267.031814
  0
LINE
  8
0
  6
BYLAYER
 62
     1
 10
1271.904543
 20
-867.334930
 30
0.0
 11
1217.593874
 21
-870.150970
 31
0.0
  0
ARC
  8
0
  6
BYLAYER
 62
     1
 10
1217.749147
 20
-873.146942
 30
0.0
 40
3.0
 50
92.968184
 51
179.999998
  0
LINE
  8
0
  6
BYLAYER
 62
     1
 10
1271.904420
 20
-892.039825
 30
0.0
 11
1217.593874
 21
-889.223846
 31
0.0
  0
LINE
  8
0
  6
BYLAYER
 62
     1
 10
1271.904543
 20
-910.334930
 30
0.0
 11
1217.593874
 21
-913.150970
 31
0.0
  0
ARC
  8
0
  6
BYLAYER
 62
     1
 10
1217.749147
 20
-916.146942
 30
0.0
 40
3.0
 50
92.968184
 51
179.999998
  0
LINE
  8
0
  6
BYLAYER
 62
     1
 10
1271.904543
 20
-935.039886
 30
0.0
 11
1217.593874
 21
-932.223846
 31
0.0
  0
LINE
  8
0
  6
BYLAYER
 62
     1
 10
1271.904543
 20
-953.334930
 30
0.0
 11
1217.593874
 21
-956.151031
 31
0.0
  0
ARC
  8
0
  6
BYLAYER
 62
     1
 10
1217.749147
 20
-959.147003
 30
0.0
 40
3.0
 50
92.968218
 51
180.000005
  0
LINE
  8
0
  6
BYLAYER
 62
     1
 10
1271.904543
 20
-978.039886
 30
0.0
 11
1217.593874
 21
-975.223785
 31
0.0
  0
LINE
  8
0
  6
BYLAYER
 62
     1
 10
1326.776491
 20
-826.159210
 30
0.0
 11
1345.904420
 21
-827.150970
 31
0.0
  0
ARC
  8
0
  6
BYLAYER
 62
     1
 10
1345.749147
 20
-830.147003
 30
0.0
 40
3.0
 50
0.0
 51
87.031855
  0
LINE
  8
0
  6
BYLAYER
 62
     1
 10
1291.593874
 20
-849.039886
 30
0.0
 11
1345.904420
 21
-846.223846
 31
0.0
  0
LINE
  8
0
  6
BYLAYER
 62
     1
 10
1291.593874
 20
-867.334930
 30
0.0
 11
1345.904420
 21
-870.150970
 31
0.0
  0
ARC
  8
0
  6
BYLAYER
 62
     1
 10
1345.749147
 20
-873.146942
 30
0.0
 40
3.000000
 50
0.0
 51
87.031807
  0
LINE
  8
0
  6
BYLAYER
 62
     1
 10
1291.593874
 20
-892.039825
 30
0.0
 11
1345.904420
 21
-889.223846
 31
0.0
  0
LINE
  8
0
  6
BYLAYER
 62
     1
 10
1291.593874
 20
-910.334869
 30
0.0
 11
1345.904420
 21
-913.150970
 31
0.0
  0
ARC
  8
0
  6
BYLAYER
 62
     1
 10
1345.749147
 20
-916.146942
 30
0.0
 40
3.0
 50
0.0
 51
87.031753
  0
LINE
  8
0
  6
BYLAYER
 62
     1
 10
1291.593874
 20
-935.039825
 30
0.0
 11
1345.904420
 21
-932.223846
 31
0.0
  0
LINE
  8
0
  6
BYLAYER
 62
     1
 10
1291.593874
 20
-953.334930
 30
0.0
 11
1345.904420
 21
-956.151000
 31
0.0
  0
ARC
  8
0
  6
BYLAYER
 62
     1
 10
1345.749147
 20
-959.146972
 30
0.0
 40
3.0
 50
0.0
 51
87.031807
  0
LINE
  8
0
  6
BYLAYER
 62
     1
 10
1329.593874
 20
-976.069549
 30
0.0
 11
1345.904420
 21
-975.223815
 31
0.0
  0
LINE
  8
0
  6
BYLAYER
 62
     1
 10
1230.191042
 20
-806.889984
 30
0.0
 11
1207.249147
 21
-805.687652
 31
0.0
  0
LINE
  8
0
  6
BYLAYER
 62
     1
 10
1333.307252
 20
-806.889984
 30
0.0
 11
1356.249147
 21
-805.687652
 31
0.0
  0
LINE
  8
0
  6
BYLAYER
 62
     1
 10
1207.249025
 20
-999.687774
 30
0.0
 11
1281.749269
 21
-995.783355
 31
0.0
  0
LINE
  8
0
  6
BYLAYER
 62
     1
 10
1356.249269
 20
-999.687774
 30
0.0
 11
1281.749147
 21
-995.783355
 31
0.0
  0
LINE
  8
0
  6
BYLAYER
 62
     1
 10
1214.749147
 20
-814.430389
 30
0.0
 11
1214.749147
 21
-990.945007
 31
0.0
  0
ARC
  8
0
  6
BYLAYER
 62
     1
 10
1217.749147
 20
-972.227813
 30
0.0
 40
3.0
 50
180.000000
 51
267.031787
  0
ARC
  8
0
  6
BYLAYER
 62
     1
 10
1217.749147
 20
-929.227874
 30
0.0
 40
3.000000
 50
180.000000
 51
267.031814
  0
ARC
  8
0
  6
BYLAYER
 62
     1
 10
1217.749147
 20
-886.227813
 30
0.0
 40
3.0
 50
180.000000
 51
267.031875
  0
ARC
  8
0
  6
BYLAYER
 62
     1
 10
1211.749147
 20
-990.945007
 30
0.0
 40
3.000000
 50
314.999999
 51
360.000000
  0
LINE
  8
0
  6
BYLAYER
 62
     1
 10
1348.749147
 20
-814.430694
 30
0.0
 11
1348.749147
 21
-990.945007
 31
0.0
  0
ARC
  8
0
  6
BYLAYER
 62
     1
 10
1345.749147
 20
-972.227844
 30
0.0
 40
3.0
 50
272.968200
 51
360.000000
  0
ARC
  8
0
  6
BYLAYER
 62
     1
 10
1345.749147
 20
-929.227813
 30
0.0
 40
3.0
 50
272.968125
 51
360.0
  0
ARC
  8
0
  6
BYLAYER
 62
     1
 10
1345.749147
 20
-886.227813
 30
0.0
 40
3.0
 50
272.968125
 51
360.0
  0
ARC
  8
0
  6
BYLAYER
 62
     1
 10
1345.749147
 20
-843.227874
 30
0.0
 40
3.000000
 50
272.968186
 51
360.000000
  0
ARC
  8
0
  6
BYLAYER
 62
     1
 10
1351.749147
 20
-990.945007
 30
0.0
 40
3.0
 50
180.000000
 51
225.000001
  0
LINE
  8
0
  6
BYLAYER
 62
     1
 10
1365.749147
 20
-832.687408
 30
0.0
 11
1366.749147
 21
-833.687408
 31
0.0
  0
LINE
  8
0
  6
BYLAYER
 62
     1
 10
1365.749147
 20
-1012.687438
 30
0.0
 11
1366.749147
 21
-1011.687438
 31
0.0
  0
LINE
  8
0
  6
BYLAYER
 62
     1
 10
1362.749147
 20
-832.687408
 30
0.0
 11
1365.749147
 21
-832.687408
 31
0.0
  0
LINE
  8
0
  6
BYLAYER
 62
     1
 10
1362.749147
 20
-1012.687438
 30
0.0
 11
1365.749147
 21
-1012.687438
 31
0.0
  0
LINE
  8
0
  6
BYLAYER
 62
     1
 10
1366.749147
 20
-833.687408
 30
0.0
 11
1366.749147
 21
-1011.687438
 31
0.0
  0
LINE
  8
0
  6
BYLAYER
 62
     1
 10
1359.249147
 20
-1047.870910
 30
0.0
 11
1362.749147
 21
-1047.687438
 31
0.0
  0
LINE
  8
0
  6
BYLAYER
 62
     1
 10
1362.749147
 20
-797.687408
 30
0.0
 11
1359.249147
 21
-797.503997
 31
0.0
  0
LINE
  8
0
  6
BYLAYER
 62
     1
 10
1362.749147
 20
-1047.687438
 30
0.0
 11
1362.749147
 21
-797.687408
 31
0.0
  0
ARC
  8
0
  6
BYLAYER
 62
     1
 10
1271.749147
 20
-938.035858
 30
0.0
 40
3.0
 50
0.0
 51
87.032033
  0
ARC
  8
0
  6
BYLAYER
 62
     1
 10
1271.749147
 20
-907.338958
 30
0.0
 40
3.000000
 50
272.968008
 51
360.000000
  0
ARC
  8
0
  6
BYLAYER
 62
     1
 10
1291.749147
 20
-938.035796
 30
0.0
 40
3.000000
 50
92.967995
 51
180.000000
  0
ARC
  8
0
  6
BYLAYER
 62
     1
 10
1291.749147
 20
-907.338897
 30
0.0
 40
3.000000
 50
180.000000
 51
267.032005
  0
LINE
  8
0
  6
BYLAYER
 62
     1
 10
491.749147
 20
-838.687744
 30
0.0
 11
490.749147
 21
-837.687744
 31
0.0
  0
LINE
  8
0
  6
BYLAYER
 62
     1
 10
311.749147
 20
-838.687713
 30
0.0
 11
312.749147
 21
-837.687713
 31
0.0
  0
LINE
  8
0
  6
BYLAYER
 62
     1
 10
491.749147
 20
-841.687744
 30
0.0
 11
491.749147
 21
-838.687744
 31
0.0
  0
LINE
  8
0
  6
BYLAYER
 62
     1
 10
311.749147
 20
-841.687713
 30
0.0
 11
311.749147
 21
-838.687713
 31
0.0
  0
LINE
  8
0
  6
BYLAYER
 62
     1
 10
490.749147
 20
-837.687744
 30
0.0
 11
312.749147
 21
-837.687713
 31
0.0
  0
LINE
  8
0
  6
BYLAYER
 62
     1
 10
254.248903
 20
-1000.187682
 30
0.0
 11
254.248903
 21
-845.187713
 31
0.0
  0
ARC
  8
0
  6
BYLAYER
 62
     1
 10
320.506227
 20
-997.187682
 30
0.0
 40
3.000025
 50
270.0
 51
314.999609
  0
LINE
  8
0
  6
BYLAYER
 62
     1
 10
320.506227
 20
-1000.187682
 30
0.0
 11
254.248903
 21
-1000.187682
 31
0.0
  0
ARC
  8
0
  6
BYLAYER
 62
     1
 10
320.506227
 20
-848.187713
 30
0.0
 40
3.000025
 50
45.000408
 51
90.000016
  0
LINE
  8
0
  6
BYLAYER
 62
     1
 10
254.248903
 20
-845.187713
 30
0.0
 11
320.506227
 21
-845.187713
 31
0.0
  0
LINE
  8
0
  6
BYLAYER
 62
     1
 10
276.565675
 20
-845.187713
 30
0.0
 11
276.749147
 21
-841.687713
 31
0.0
  0
LINE
  8
0
  6
BYLAYER
 62
     1
 10
526.749147
 20
-841.687744
 30
0.0
 11
526.932619
 21
-845.187744
 31
0.0
  0
LINE
  8
0
  6
BYLAYER
 62
     1
 10
325.810426
 20
-922.687713
 30
0.0
 11
321.763307
 21
-845.463836
 31
0.0
  0
LINE
  8
0
  6
BYLAYER
 62
     1
 10
325.810426
 20
-922.687835
 30
0.0
 11
321.763307
 21
-999.911559
 31
0.0
  0
LINE
  8
0
  6
BYLAYER
 62
     1
 10
276.749147
 20
-841.687713
 30
0.0
 11
526.749147
 21
-841.687744
 31
0.0
  0
CIRCLE
  8
0
  6
BYLAYER
 62
     1
 10
301.749147
 20
-982.687713
 30
0.0
 40
8.0
  0
CIRCLE
  8
0
  6
BYLAYER
 62
     1
 10
301.749147
 20
-862.687713
 30
0.0
 40
8.0
  0
ARC
  8
0
  6
BYLAYER
 62
     1
 10
482.991579
 20
-848.187713
 30
0.0
 40
3.000025
 50
90.0
 51
134.999609
  0
ARC
  8
0
  6
BYLAYER
 62
     1
 10
482.991579
 20
-997.187682
 30
0.0
 40
3.000025
 50
225.000419
 51
270.000028
  0
LINE
  8
0
  6
BYLAYER
 62
     1
 10
482.991579
 20
-1000.187682
 30
0.0
 11
546.748903
 21
-1000.187682
 31
0.0
  0
LINE
  8
0
  6
BYLAYER
 62
     1
 10
546.748903
 20
-1000.187682
 30
0.0
 11
546.748903
 21
-845.187713
 31
0.0
  0
LINE
  8
0
  6
BYLAYER
 62
     1
 10
546.748903
 20
-845.187713
 30
0.0
 11
482.991579
 21
-845.187713
 31
0.0
  0
CIRCLE
  8
0
  6
BYLAYER
 62
     1
 10
501.748659
 20
-862.687713
 30
0.0
 40
8.0
  0
CIRCLE
  8
0
  6
BYLAYER
 62
     1
 10
501.748659
 20
-982.687713
 30
0.0
 40
8.0
  0
ARC
  8
0
  6
BYLAYER
 62
     1
 10
331.133302
 20
-932.687713
 30
0.0
 40
3.000082
 50
90.0
 51
177.000484
  0
ARC
  8
0
  6
BYLAYER
 62
     1
 10
343.400758
 20
-932.687713
 30
0.0
 40
3.0
 50
2.967981
 51
90.000000
  0
ARC
  8
0
  6
BYLAYER
 62
     1
 10
374.097658
 20
-932.687713
 30
0.0
 40
3.0
 50
90.0
 51
177.032012
  0
LINE
  8
0
  6
BYLAYER
 62
     1
 10
386.400758
 20
-929.687713
 30
0.0
 11
374.097658
 21
-929.687713
 31
0.0
  0
ARC
  8
0
  6
BYLAYER
 62
     1
 10
331.133302
 20
-912.687713
 30
0.0
 40
3.000082
 50
182.999510
 51
270.000001
  0
ARC
  8
0
  6
BYLAYER
 62
     1
 10
343.400758
 20
-912.687713
 30
0.0
 40
3.0
 50
270.0
 51
357.032019
  0
ARC
  8
0
  6
BYLAYER
 62
     1
 10
374.097658
 20
-912.687713
 30
0.0
 40
3.0
 50
182.967981
 51
270.000000
  0
LINE
  8
0
  6
BYLAYER
 62
     1
 10
386.400758
 20
-915.687713
 30
0.0
 11
374.097658
 21
-915.687713
 31
0.0
  0
LINE
  8
0
  6
BYLAYER
 62
     1
 10
331.133302
 20
-929.687713
 30
0.0
 11
343.400758
 21
-929.687713
 31
0.0
  0
LINE
  8
0
  6
BYLAYER
 62
     1
 10
331.133302
 20
-915.687713
 30
0.0
 11
343.400758
 21
-915.687713
 31
0.0
  0
ARC
  8
0
  6
BYLAYER
 62
     1
 10
460.097658
 20
-912.687789
 30
0.0
 40
2.999997
 50
182.968296
 51
270.000001
  0
ARC
  8
0
  6
BYLAYER
 62
     1
 10
460.097658
 20
-932.687789
 30
0.0
 40
3.000259
 50
90.0
 51
177.031712
  0
LINE
  8
0
  6
BYLAYER
 62
     1
 10
460.097658
 20
-929.687530
 30
0.0
 11
463.283205
 21
-929.687698
 31
0.0
  0
ARC
  8
0
  6
BYLAYER
 62
     1
 10
463.282960
 20
-932.687698
 30
0.0
 40
3.000000
 50
28.436752
 51
90.0
  0
LINE
  8
0
  6
BYLAYER
 62
     1
 10
460.097658
 20
-915.687560
 30
0.0
 11
463.282838
 21
-915.687713
 31
0.0
  0
ARC
  8
0
  6
BYLAYER
 62
     1
 10
463.282960
 20
-912.687713
 30
0.0
 40
3.000000
 50
270.0
 51
331.563090
  0
ARC
  8
0
  6
BYLAYER
 62
     1
 10
481.749147
 20
-922.687713
 30
0.0
 40
18.000021
 50
115.112183
 51
151.563154
  0
ARC
  8
0
  6
BYLAYER
 62
     1
 10
472.837038
 20
-903.672622
 30
0.0
 40
2.999965
 50
295.111874
 51
356.99989
  0
ARC
  8
0
  6
BYLAYER
 62
     1
 10
481.749147
 20
-922.687713
 30
0.0
 40
17.999962
 50
208.436842
 51
244.887827
  0
ARC
  8
0
  6
BYLAYER
 62
     1
 10
472.837038
 20
-941.702758
 30
0.0
 40
2.999951
 50
2.999963
 51
64.887740
  0
LINE
  8
0
  6
BYLAYER
 62
     1
 10
480.222536
 20
-841.687713
 30
0.0
 11
480.109499
 21
-843.844695
 31
0.0
  0
ARC
  8
0
  6
BYLAYER
 62
     1
 10
477.113588
 20
-843.687713
 30
0.0
 40
3.0
 50
270.0
 51
357.000518
  0
LINE
  8
0
  6
BYLAYER
 62
     1
 10
418.167482
 20
-846.687713
 30
0.0
 11
477.113588
 21
-846.687713
 31
0.0
  0
ARC
  8
0
  6
BYLAYER
 62
     1
 10
418.167482
 20
-843.687713
 30
0.0
 40
3.000000
 50
182.999496
 51
270.000000
  0
LINE
  8
0
  6
BYLAYER
 62
     1
 10
415.058534
 20
-841.687713
 30
0.0
 11
415.171571
 21
-843.844695
 31
0.0
  0
LINE
  8
0
  6
BYLAYER
 62
     1
 10
323.275758
 20
-841.687713
 30
0.0
 11
323.388795
 21
-843.844695
 31
0.0
  0
ARC
  8
0
  6
BYLAYER
 62
     1
 10
326.384706
 20
-843.687713
 30
0.0
 40
3.000000
 50
182.999482
 51
270.000000
  0
LINE
  8
0
  6
BYLAYER
 62
     1
 10
385.330812
 20
-846.687713
 30
0.0
 11
326.384706
 21
-846.687713
 31
0.0
  0
ARC
  8
0
  6
BYLAYER
 62
     1
 10
385.330812
 20
-843.687713
 30
0.0
 40
3.000000
 50
270.0
 51
357.000491
  0
LINE
  8
0
  6
BYLAYER
 62
     1
 10
388.439760
 20
-841.687713
 30
0.0
 11
388.326723
 21
-843.844695
 31
0.0
  0
LINE
  8
0
  6
BYLAYER
 62
     1
 10
389.396730
 20
-932.532379
 30
0.0
 11
392.368349
 21
-989.843025
 31
0.0
  0
ARC
  8
0
  6
BYLAYER
 62
     1
 10
395.364320
 20
-989.687682
 30
0.0
 40
2.999996
 50
182.968132
 51
270.000001
  0
LINE
  8
0
  6
BYLAYER
 62
     1
 10
414.101686
 20
-932.532379
 30
0.0
 11
411.130067
 21
-989.843025
 31
0.0
  0
ARC
  8
0
  6
BYLAYER
 62
     1
 10
408.134096
 20
-989.687682
 30
0.0
 40
3.000000
 50
270.0
 51
357.031855
  0
LINE
  8
0
  6
BYLAYER
 62
     1
 10
481.734499
 20
-845.463836
 30
0.0
 11
478.454207
 21
-908.054075
 31
0.0
  0
LINE
  8
0
  6
BYLAYER
 62
     1
 10
481.734499
 20
-999.911559
 30
0.0
 11
478.454207
 21
-937.321351
 31
0.0
  0
LINE
  8
0
  6
BYLAYER
 62
     1
 10
475.127595
 20
-851.809020
 30
0.0
 11
480.870241
 21
-846.066375
 31
0.0
  0
ARC
  8
0
  6
BYLAYER
 62
     1
 10
473.006273
 20
-849.687713
 30
0.0
 40
3.000015
 50
270.0
 51
315.000210
  0
LINE
  8
0
  6
BYLAYER
 62
     1
 10
473.006273
 20
-852.687728
 30
0.0
 11
330.491533
 21
-852.687728
 31
0.0
  0
LINE
  8
0
  6
BYLAYER
 62
     1
 10
322.627573
 20
-846.066375
 30
0.0
 11
328.370203
 21
-851.809036
 31
0.0
  0
ARC
  8
0
  6
BYLAYER
 62
     1
 10
330.491533
 20
-849.687728
 30
0.0
 40
3.000000
 50
224.999695
 51
270.000000
  0
LINE
  8
0
  6
BYLAYER
 62
     1
 10
324.748842
 20
-848.187652
 30
0.0
 11
328.653200
 21
-922.687835
 31
0.0
  0
LINE
  8
0
  6
BYLAYER
 62
     1
 10
478.748964
 20
-848.187652
 30
0.0
 11
475.560667
 21
-909.023793
 31
0.0
  0
LINE
  8
0
  6
BYLAYER
 62
     1
 10
328.370187
 20
-993.566398
 30
0.0
 11
322.627565
 21
-999.309020
 31
0.0
  0
ARC
  8
0
  6
BYLAYER
 62
     1
 10
330.491510
 20
-995.687717
 30
0.0
 40
2.999989
 50
90.0
 51
135.000052
  0
LINE
  8
0
  6
BYLAYER
 62
     1
 10
473.006273
 20
-992.687751
 30
0.0
 11
330.491510
 21
-992.687728
 31
0.0
  0
LINE
  8
0
  6
BYLAYER
 62
     1
 10
475.127595
 20
-993.566375
 30
0.0
 11
480.870241
 21
-999.309020
 31
0.0
  0
ARC
  8
0
  6
BYLAYER
 62
     1
 10
473.006273
 20
-995.687698
 30
0.0
 40
2.999947
 50
44.999999
 51
90.000000
  0
LINE
  8
0
  6
BYLAYER
 62
     1
 10
457.101686
 20
-932.532440
 30
0.0
 11
454.130052
 21
-989.843093
 31
0.0
  0
ARC
  8
0
  6
BYLAYER
 62
     1
 10
451.134080
 20
-989.687747
 30
0.0
 40
3.0
 50
270.0
 51
357.031773
  0
LINE
  8
0
  6
BYLAYER
 62
     1
 10
432.396730
 20
-932.532379
 30
0.0
 11
435.368349
 21
-989.843093
 31
0.0
  0
ARC
  8
0
  6
BYLAYER
 62
     1
 10
438.364336
 20
-989.687747
 30
0.0
 40
3.000012
 50
182.968200
 51
270.000001
  0
LINE
  8
0
  6
BYLAYER
 62
     1
 10
371.101686
 20
-932.532379
 30
0.0
 11
368.130052
 21
-989.843074
 31
0.0
  0
ARC
  8
0
  6
BYLAYER
 62
     1
 10
365.134080
 20
-989.687732
 30
0.0
 40
3.000004
 50
270.0
 51
357.031855
  0
LINE
  8
0
  6
BYLAYER
 62
     1
 10
346.396730
 20
-932.532379
 30
0.0
 11
349.368349
 21
-989.843078
 31
0.0
  0
ARC
  8
0
  6
BYLAYER
 62
     1
 10
352.364336
 20
-989.687732
 30
0.0
 40
3.000012
 50
182.968200
 51
270.000001
  0
LINE
  8
0
  6
BYLAYER
 62
     1
 10
324.748842
 20
-997.187740
 30
0.0
 11
328.653200
 21
-922.687713
 31
0.0
  0
LINE
  8
0
  6
BYLAYER
 62
     1
 10
475.560667
 20
-936.351633
 30
0.0
 11
478.748964
 21
-997.187740
 31
0.0
  0
ARC
  8
0
  6
BYLAYER
 62
     1
 10
352.364336
 20
-855.687698
 30
0.0
 40
3.000012
 50
90.0
 51
177.031794
  0
ARC
  8
0
  6
BYLAYER
 62
     1
 10
365.134080
 20
-855.687698
 30
0.0
 40
3.000015
 50
2.968145
 51
90.000000
  0
ARC
  8
0
  6
BYLAYER
 62
     1
 10
395.364320
 20
-855.687744
 30
0.0
 40
2.999996
 50
90.0
 51
177.031862
  0
ARC
  8
0
  6
BYLAYER
 62
     1
 10
408.134096
 20
-855.687744
 30
0.0
 40
3.000000
 50
2.968145
 51
90.0
  0
ARC
  8
0
  6
BYLAYER
 62
     1
 10
438.364336
 20
-855.687682
 30
0.0
 40
3.000012
 50
90.0
 51
177.031794
  0
ARC
  8
0
  6
BYLAYER
 62
     1
 10
451.134080
 20
-855.687682
 30
0.0
 40
3.0
 50
2.968227
 51
90.000000
  0
LINE
  8
0
  6
BYLAYER
 62
     1
 10
457.101686
 20
-912.843139
 30
0.0
 11
454.130052
 21
-855.532333
 31
0.0
  0
LINE
  8
0
  6
BYLAYER
 62
     1
 10
432.396730
 20
-912.843047
 30
0.0
 11
435.368349
 21
-855.532333
 31
0.0
  0
LINE
  8
0
  6
BYLAYER
 62
     1
 10
414.101686
 20
-912.843047
 30
0.0
 11
411.130052
 21
-855.532394
 31
0.0
  0
LINE
  8
0
  6
BYLAYER
 62
     1
 10
389.396730
 20
-912.843047
 30
0.0
 11
392.368349
 21
-855.532394
 31
0.0
  0
LINE
  8
0
  6
BYLAYER
 62
     1
 10
371.101686
 20
-912.843047
 30
0.0
 11
368.130052
 21
-855.532348
 31
0.0
  0
LINE
  8
0
  6
BYLAYER
 62
     1
 10
346.396730
 20
-912.843047
 30
0.0
 11
349.368349
 21
-855.532348
 31
0.0
  0
LINE
  8
0
  6
BYLAYER
 62
     1
 10
259.248903
 20
-1000.187682
 30
0.0
 11
259.248903
 21
-845.187713
 31
0.0
  0
LINE
  8
0
  6
BYLAYER
 62
     1
 10
541.748903
 20
-1000.187682
 30
0.0
 11
541.748903
 21
-845.187713
 31
0.0
  0
CIRCLE
  8
0
  6
BYLAYER
 62
     1
 10
481.749147
 20
-922.687713
 30
0.0
 40
15.0
  0
LINE
  8
0
  6
BYLAYER
 62
     1
 10
491.749147
 20
-1006.687682
 30
0.0
 11
490.749147
 21
-1007.687682
 31
0.0
  0
LINE
  8
0
  6
BYLAYER
 62
     1
 10
311.749147
 20
-1006.687713
 30
0.0
 11
312.749147
 21
-1007.687713
 31
0.0
  0
LINE
  8
0
  6
BYLAYER
 62
     1
 10
491.749147
 20
-1003.687682
 30
0.0
 11
491.749147
 21
-1006.687682
 31
0.0
  0
LINE
  8
0
  6
BYLAYER
 62
     1
 10
311.749147
 20
-1003.687713
 30
0.0
 11
311.749147
 21
-1006.687713
 31
0.0
  0
LINE
  8
0
  6
BYLAYER
 62
     1
 10
490.749147
 20
-1007.687682
 30
0.0
 11
312.749147
 21
-1007.687713
 31
0.0
  0
LINE
  8
0
  6
BYLAYER
 62
     1
 10
276.565675
 20
-1000.187713
 30
0.0
 11
276.749147
 21
-1003.687713
 31
0.0
  0
LINE
  8
0
  6
BYLAYER
 62
     1
 10
526.749147
 20
-1003.687682
 30
0.0
 11
526.932619
 21
-1000.187682
 31
0.0
  0
LINE
  8
0
  6
BYLAYER
 62
     1
 10
276.749147
 20
-1003.687713
 30
0.0
 11
526.749147
 21
-1003.687682
 31
0.0
  0
LINE
  8
0
  6
BYLAYER
 62
     1
 10
480.222536
 20
-1003.687713
 30
0.0
 11
480.109499
 21
-1001.530731
 31
0.0
  0
ARC
  8
0
  6
BYLAYER
 62
     1
 10
477.113588
 20
-1001.687713
 30
0.0
 40
3.0
 50
2.999482
 51
90.000000
  0
LINE
  8
0
  6
BYLAYER
 62
     1
 10
418.167482
 20
-998.687713
 30
0.0
 11
477.113588
 21
-998.687713
 31
0.0
  0
ARC
  8
0
  6
BYLAYER
 62
     1
 10
418.167482
 20
-1001.687713
 30
0.0
 40
3.0
 50
90.0
 51
177.000504
  0
LINE
  8
0
  6
BYLAYER
 62
     1
 10
415.058534
 20
-1003.687713
 30
0.0
 11
415.171571
 21
-1001.530731
 31
0.0
  0
LINE
  8
0
  6
BYLAYER
 62
     1
 10
323.275758
 20
-1003.687713
 30
0.0
 11
323.388795
 21
-1001.530731
 31
0.0
  0
ARC
  8
0
  6
BYLAYER
 62
     1
 10
326.384706
 20
-1001.687713
 30
0.0
 40
3.000000
 50
90.0
 51
177.000518
  0
LINE
  8
0
  6
BYLAYER
 62
     1
 10
385.330812
 20
-998.687713
 30
0.0
 11
326.384706
 21
-998.687713
 31
0.0
  0
ARC
  8
0
  6
BYLAYER
 62
     1
 10
385.330812
 20
-1001.687713
 30
0.0
 40
3.0
 50
2.999509
 51
90.000000
  0
LINE
  8
0
  6
BYLAYER
 62
     1
 10
388.439760
 20
-1003.687713
 30
0.0
 11
388.326723
 21
-1001.530731
 31
0.0
  0
ARC
  8
0
  6
BYLAYER
 62
     1
 10
386.400758
 20
-932.687713
 30
0.0
 40
3.0
 50
2.967981
 51
90.000000
  0
ARC
  8
0
  6
BYLAYER
 62
     1
 10
386.400758
 20
-912.687713
 30
0.0
 40
3.0
 50
270.0
 51
357.032019
  0
LINE
  8
0
  6
BYLAYER
 62
     1
 10
417.097658
 20
-929.687713
 30
0.0
 11
429.400758
 21
-929.687713
 31
0.0
  0
ARC
  8
0
  6
BYLAYER
 62
     1
 10
417.097658
 20
-932.687713
 30
0.0
 40
3.0
 50
90.0
 51
177.032012
  0
ARC
  8
0
  6
BYLAYER
 62
     1
 10
429.400758
 20
-932.687713
 30
0.0
 40
3.0
 50
2.967981
 51
90.000000
  0
LINE
  8
0
  6
BYLAYER
 62
     1
 10
417.097658
 20
-915.687713
 30
0.0
 11
429.400758
 21
-915.687713
 31
0.0
  0
ARC
  8
0
  6
BYLAYER
 62
     1
 10
417.097658
 20
-912.687713
 30
0.0
 40
3.0
 50
182.967981
 51
270.000000
  0
ARC
  8
0
  6
BYLAYER
 62
     1
 10
429.400758
 20
-912.687713
 30
0.0
 40
3.0
 50
270.0
 51
357.032019
  0
ARC
  8
0
  6
BYLAYER
 62
     1
 10
571.249147
 20
-318.687713
 30
0.0
 40
4.000000
 50
180.000000
 51
269.999996
  0
ARC
  8
0
  6
BYLAYER
 62
     1
 10
547.027223
 20
-229.687713
 30
0.0
 40
2.999946
 50
13.796774
 51
89.999992
  0
LINE
  8
0
  6
BYLAYER
 62
     1
 10
549.940614
 20
-228.972289
 30
0.0
 11
567.162599
 21
-299.105224
 31
0.0
  0
ARC
  8
0
  6
BYLAYER
 62
     1
 10
564.249147
 20
-299.820709
 30
0.0
 40
3.000020
 50
0.0
 51
13.796518
  0
LINE
  8
0
  6
BYLAYER
 62
     1
 10
581.749147
 20
-322.687747
 30
0.0
 11
571.249147
 21
-322.687713
 31
0.0
  0
LINE
  8
0
  6
BYLAYER
 62
     1
 10
581.749147
 20
-172.687713
 30
0.0
 11
581.749147
 21
-322.687747
 31
0.0
  0
LINE
  8
0
  6
BYLAYER
 62
     1
 10
546.749147
 20
-226.687713
 30
0.0
 11
546.749147
 21
-172.687713
 31
0.0
  0
LINE
  8
0
  6
BYLAYER
 62
     1
 10
567.102296
 20
-281.235900
 30
0.0
 11
550.052248
 21
-228.760894
 31
0.0
  0
LINE
  8
0
  6
BYLAYER
 62
     1
 10
547.198976
 20
-226.687713
 30
0.0
 11
546.749147
 21
-226.687713
 31
0.0
  0
ARC
  8
0
  6
BYLAYER
 62
     1
 10
547.198976
 20
-229.687713
 30
0.0
 40
3.0
 50
17.999971
 51
90.000000
  0
LINE
  8
0
  6
BYLAYER
 62
     1
 10
567.249147
 20
-318.687713
 30
0.0
 11
567.249147
 21
-172.687713
 31
0.0
  0
ARC
  8
0
  6
BYLAYER
 62
     1
 10
564.249147
 20
-282.163024
 30
0.0
 40
3.0
 50
0.0
 51
17.999782
  0
LINE
  8
0
  6
BYLAYER
 62
     1
 10
549.940614
 20
-228.972289
 30
0.0
 11
549.940614
 21
-172.687713
 31
0.0
  0
ARC
  8
0
  6
BYLAYER
 62
     1
 10
571.249147
 20
-26.687713
 30
0.0
 40
4.000000
 50
90.0
 51
179.999996
  0
ARC
  8
0
  6
BYLAYER
 62
     1
 10
547.027223
 20
-115.687713
 30
0.0
 40
2.999946
 50
270.0
 51
346.203218
  0
LINE
  8
0
  6
BYLAYER
 62
     1
 10
549.940614
 20
-116.403137
 30
0.0
 11
567.162599
 21
-46.270202
 31
0.0
  0
ARC
  8
0
  6
BYLAYER
 62
     1
 10
564.249147
 20
-45.554717
 30
0.0
 40
3.000020
 50
346.203499
 51
360.000017
  0
LINE
  8
0
  6
BYLAYER
 62
     1
 10
581.749147
 20
-22.687679
 30
0.0
 11
571.249147
 21
-22.687713
 31
0.0
  0
LINE
  8
0
  6
BYLAYER
 62
     1
 10
581.749147
 20
-172.687713
 30
0.0
 11
581.749147
 21
-22.687679
 31
0.0
  0
LINE
  8
0
  6
BYLAYER
 62
     1
 10
546.749147
 20
-118.687713
 30
0.0
 11
546.749147
 21
-172.687713
 31
0.0
  0
LINE
  8
0
  6
BYLAYER
 62
     1
 10
567.102296
 20
-64.139526
 30
0.0
 11
550.052248
 21
-116.614532
 31
0.0
  0
LINE
  8
0
  6
BYLAYER
 62
     1
 10
547.198976
 20
-118.687713
 30
0.0
 11
546.749147
 21
-118.687713
 31
0.0
  0
ARC
  8
0
  6
BYLAYER
 62
     1
 10
547.198976
 20
-115.687713
 30
0.0
 40
3.0
 50
270.0
 51
342.000029
  0
LINE
  8
0
  6
BYLAYER
 62
     1
 10
567.249147
 20
-26.687713
 30
0.0
 11
567.249147
 21
-172.687713
 31
0.0
  0
ARC
  8
0
  6
BYLAYER
 62
     1
 10
564.249147
 20
-63.212402
 30
0.0
 40
3.0
 50
342.000218
 51
360.000000
  0
LINE
  8
0
  6
BYLAYER
 62
     1
 10
549.940614
 20
-116.403137
 30
0.0
 11
549.940614
 21
-172.687713
 31
0.0
  0
LINE
  8
0
  6
BYLAYER
 62
     1
 10
1365.749147
 20
-392.687743
 30
0.0
 11
1366.749147
 21
-391.687743
 31
0.0
  0
LINE
  8
0
  6
BYLAYER
 62
     1
 10
1362.749147
 20
-392.687743
 30
0.0
 11
1365.749147
 21
-392.687743
 31
0.0
  0
LINE
  8
0
  6
BYLAYER
 62
     1
 10
1366.749147
 20
-296.279784
 30
0.0
 11
1366.749147
 21
-391.687743
 31
0.0
  0
LINE
  8
0
  6
BYLAYER
 62
     1
 10
1204.249208
 20
-450.188049
 30
0.0
 11
1359.249147
 21
-450.188049
 31
0.0
  0
ARC
  8
0
  6
BYLAYER
 62
     1
 10
1207.249208
 20
-383.930663
 30
0.0
 40
3.000046
 50
135.000410
 51
180.000005
  0
LINE
  8
0
  6
BYLAYER
 62
     1
 10
1204.249208
 20
-383.930663
 30
0.0
 11
1204.249208
 21
-450.188049
 31
0.0
  0
ARC
  8
0
  6
BYLAYER
 62
     1
 10
1356.249147
 20
-383.930663
 30
0.0
 40
3.000046
 50
0.0
 51
44.999609
  0
LINE
  8
0
  6
BYLAYER
 62
     1
 10
1359.249147
 20
-450.188049
 30
0.0
 11
1359.249147
 21
-383.930663
 31
0.0
  0
LINE
  8
0
  6
BYLAYER
 62
     1
 10
1359.249147
 20
-427.871215
 30
0.0
 11
1362.749147
 21
-427.687743
 31
0.0
  0
LINE
  8
0
  6
BYLAYER
 62
     1
 10
1362.749147
 20
-427.687743
 30
0.0
 11
1362.749147
 21
-298.937465
 31
0.0
  0
ARC
  8
0
  6
BYLAYER
 62
     1
 10
1271.749147
 20
-373.303619
 30
0.0
 40
3.000021
 50
272.999519
 51
360.000010
  0
LINE
  8
0
  6
BYLAYER
 62
     1
 10
1274.749147
 20
-373.303619
 30
0.0
 11
1274.749147
 21
-361.036193
 31
0.0
  0
ARC
  8
0
  6
BYLAYER
 62
     1
 10
1271.749147
 20
-361.036193
 30
0.0
 40
3.0
 50
0.0
 51
87.032019
  0
ARC
  8
0
  6
BYLAYER
 62
     1
 10
1271.749147
 20
-330.339263
 30
0.0
 40
3.0
 50
272.967981
 51
360.000000
  0
LINE
  8
0
  6
BYLAYER
 62
     1
 10
1274.749147
 20
-322.524291
 30
0.0
 11
1274.749147
 21
-330.339263
 31
0.0
  0
ARC
  8
0
  6
BYLAYER
 62
     1
 10
1291.749147
 20
-373.303619
 30
0.0
 40
3.000021
 50
180.000000
 51
267.000477
  0
LINE
  8
0
  6
BYLAYER
 62
     1
 10
1288.749147
 20
-373.303619
 30
0.0
 11
1288.749147
 21
-361.036193
 31
0.0
  0
ARC
  8
0
  6
BYLAYER
 62
     1
 10
1291.749147
 20
-361.036193
 30
0.0
 40
3.0
 50
92.967981
 51
180.000000
  0
ARC
  8
0
  6
BYLAYER
 62
     1
 10
1291.749147
 20
-330.339263
 30
0.0
 40
3.0
 50
180.000000
 51
267.032005
  0
LINE
  8
0
  6
BYLAYER
 62
     1
 10
1288.749147
 20
-322.524291
 30
0.0
 11
1288.749147
 21
-330.339263
 31
0.0
  0
LINE
  8
0
  6
BYLAYER
 62
     1
 10
1205.127870
 20
-381.809295
 30
0.0
 11
1213.870485
 21
-373.066711
 31
0.0
  0
LINE
  8
0
  6
BYLAYER
 62
     1
 10
1358.370485
 20
-381.809295
 30
0.0
 11
1349.627809
 21
-373.066650
 31
0.0
  0
ARC
  8
0
  6
BYLAYER
 62
     1
 10
1351.749147
 20
-370.945312
 30
0.0
 40
3.000000
 50
180.000000
 51
225.000001
  0
LINE
  8
0
  6
BYLAYER
 62
     1
 10
1207.249086
 20
-379.688079
 30
0.0
 11
1281.749147
 21
-375.783660
 31
0.0
  0
LINE
  8
0
  6
BYLAYER
 62
     1
 10
1356.249269
 20
-379.688079
 30
0.0
 11
1281.749147
 21
-375.783660
 31
0.0
  0
LINE
  8
0
  6
BYLAYER
 62
     1
 10
1271.904420
 20
-358.040191
 30
0.0
 11
1217.593813
 21
-355.224120
 31
0.0
  0
LINE
  8
0
  6
BYLAYER
 62
     1
 10
1271.904420
 20
-333.335235
 30
0.0
 11
1217.593813
 21
-336.151305
 31
0.0
  0
ARC
  8
0
  6
BYLAYER
 62
     1
 10
1217.749147
 20
-339.147277
 30
0.0
 40
3.0
 50
92.968191
 51
179.999998
  0
LINE
  8
0
  6
BYLAYER
 62
     1
 10
1228.110467
 20
-312.769446
 30
0.0
 11
1217.593813
 21
-312.224151
 31
0.0
  0
LINE
  8
0
  6
BYLAYER
 62
     1
 10
1335.387823
 20
-312.769448
 30
0.0
 11
1345.904543
 21
-312.224151
 31
0.0
  0
LINE
  8
0
  6
BYLAYER
 62
     1
 10
1291.593751
 20
-333.335235
 30
0.0
 11
1345.904543
 21
-336.151305
 31
0.0
  0
ARC
  8
0
  6
BYLAYER
 62
     1
 10
1345.749147
 20
-339.147277
 30
0.0
 40
3.0
 50
0.0
 51
87.031821
  0
LINE
  8
0
  6
BYLAYER
 62
     1
 10
1291.593751
 20
-358.040191
 30
0.0
 11
1345.904543
 21
-355.224090
 31
0.0
  0
LINE
  8
0
  6
BYLAYER
 62
     1
 10
1214.749147
 20
-306.892780
 30
0.0
 11
1214.749147
 21
-370.945373
 31
0.0
  0
ARC
  8
0
  6
BYLAYER
 62
     1
 10
1217.749147
 20
-352.228149
 30
0.0
 40
3.000000
 50
180.000000
 51
267.031807
  0
ARC
  8
0
  6
BYLAYER
 62
     1
 10
1217.749147
 20
-309.228179
 30
0.0
 40
3.000000
 50
180.000000
 51
267.031807
  0
ARC
  8
0
  6
BYLAYER
 62
     1
 10
1211.749147
 20
-370.945373
 30
0.0
 40
3.000000
 50
314.999999
 51
360.000000
  0
LINE
  8
0
  6
BYLAYER
 62
     1
 10
1348.749147
 20
-306.892780
 30
0.0
 11
1348.749147
 21
-370.945312
 31
0.0
  0
ARC
  8
0
  6
BYLAYER
 62
     1
 10
1345.749147
 20
-352.228118
 30
0.0
 40
3.0
 50
272.968213
 51
360.000000
  0
ARC
  8
0
  6
BYLAYER
 62
     1
 10
1345.749147
 20
-309.228179
 30
0.0
 40
3.0
 50
272.968179
 51
360.000000
  0
LINE
  8
0
  6
BYLAYER
 62
     1
 10
1197.749147
 20
-392.687743
 30
0.0
 11
1196.749147
 21
-391.687743
 31
0.0
  0
LINE
  8
0
  6
BYLAYER
 62
     1
 10
1200.749147
 20
-392.687743
 30
0.0
 11
1197.749147
 21
-392.687743
 31
0.0
  0
LINE
  8
0
  6
BYLAYER
 62
     1
 10
1196.749147
 20
-296.279784
 30
0.0
 11
1196.749147
 21
-391.687743
 31
0.0
  0
LINE
  8
0
  6
BYLAYER
 62
     1
 10
1204.249147
 20
-427.871215
 30
0.0
 11
1200.749147
 21
-427.687743
 31
0.0
  0
LINE
  8
0
  6
BYLAYER
 62
     1
 10
1200.749147
 20
-427.687743
 30
0.0
 11
1200.749147
 21
-298.937465
 31
0.0
  0
LINE
  8
0
  6
BYLAYER
 62
     7
 10
1354.374877
 20
-273.687713
 30
0.0
 11
1356.749147
 21
-273.687713
 31
0.0
  0
LINE
  8
0
  6
BYLAYER
 62
     7
 10
1357.749147
 20
-272.687713
 30
0.0
 11
1357.749147
 21
-271.173735
 31
0.0
  0
ARC
  8
0
  6
BYLAYER
 62
     7
 10
1356.749147
 20
-272.687713
 30
0.0
 40
1.0
 50
270.0
 51
359.999999
  0
LINE
  8
0
  6
BYLAYER
 62
     7
 10
1383.766603
 20
-247.954864
 30
0.0
 11
1380.756422
 21
-248.007406
 31
0.0
  0
LINE
  8
0
  6
BYLAYER
 62
     7
 10
1384.749147
 20
-246.955016
 30
0.0
 11
1384.749147
 21
-242.447992
 31
0.0
  0
ARC
  8
0
  6
BYLAYER
 62
     7
 10
1383.749147
 20
-246.955016
 30
0.0
 40
1.0
 50
271.000214
 51
360.000000
  0
LINE
  8
0
  6
BYLAYER
 62
     7
 10
1206.749147
 20
-273.687713
 30
0.0
 11
1209.123417
 21
-273.687713
 31
0.0
  0
LINE
  8
0
  6
BYLAYER
 62
     7
 10
1205.749147
 20
-272.687713
 30
0.0
 11
1205.749147
 21
-271.173735
 31
0.0
  0
ARC
  8
0
  6
BYLAYER
 62
     7
 10
1206.749147
 20
-272.687713
 30
0.0
 40
1.0
 50
180.000000
 51
269.999996
  0
LINE
  8
0
  6
BYLAYER
 62
     7
 10
1179.731691
 20
-247.954864
 30
0.0
 11
1182.741872
 21
-248.007406
 31
0.0
  0
LINE
  8
0
  6
BYLAYER
 62
     7
 10
1178.749147
 20
-246.955016
 30
0.0
 11
1178.749147
 21
-242.447992
 31
0.0
  0
ARC
  8
0
  6
BYLAYER
 62
     7
 10
1179.749147
 20
-246.955016
 30
0.0
 40
1.0
 50
180.000000
 51
268.999783
  0
LINE
  8
0
  6
BYLAYER
 62
     7
 10
1222.749147
 20
-31.687713
 30
0.0
 11
1222.749147
 21
-63.168324
 31
0.0
  0
LINE
  8
0
  6
BYLAYER
 62
     7
 10
1340.749147
 20
-63.168324
 30
0.0
 11
1340.749147
 21
-31.687713
 31
0.0
  0
LINE
  8
0
  6
BYLAYER
 62
     7
 10
1336.464845
 20
-31.687713
 30
0.0
 11
1340.749147
 21
-31.687713
 31
0.0
  0
LINE
  8
0
  6
BYLAYER
 62
     7
 10
1228.749147
 20
-21.437713
 30
0.0
 11
1228.749147
 21
0.062287
 31
0.0
  0
ARC
  8
0
  6
BYLAYER
 62
     7
 10
1227.249147
 20
-21.437713
 30
0.0
 40
1.5
 50
270.0
 51
360.0
  0
ARC
  8
0
  6
BYLAYER
 62
     7
 10
1230.249147
 20
0.062287
 30
0.0
 40
1.5
 50
90.0
 51
180.0
  0
LINE
  8
0
  6
BYLAYER
 62
     7
 10
1230.249147
 20
1.562287
 30
0.0
 11
1281.749147
 21
1.562287
 31
0.0
  0
LINE
  8
0
  6
BYLAYER
 62
     7
 10
1235.133867
 20
-21.437713
 30
0.0
 11
1235.133867
 21
0.062287
 31
0.0
  0
ARC
  8
0
  6
BYLAYER
 62
     7
 10
1233.633867
 20
-21.437713
 30
0.0
 40
1.500000
 50
270.0
 51
360.0
  0
ARC
  8
0
  6
BYLAYER
 62
     7
 10
1236.633867
 20
0.062287
 30
0.0
 40
1.500000
 50
90.0
 51
180.0
  0
LINE
  8
0
  6
BYLAYER
 62
     7
 10
1276.155494
 20
1.562287
 30
0.0
 11
1276.648041
 21
-12.542411
 31
0.0
  0
ARC
  8
0
  6
BYLAYER
 62
     7
 10
1279.646213
 20
-12.437713
 30
0.0
 40
3.0
 50
182.000000
 51
270.000000
  0
LINE
  8
0
  6
BYLAYER
 62
     7
 10
1279.646213
 20
-15.437713
 30
0.0
 11
1281.749147
 21
-15.437713
 31
0.0
  0
LINE
  8
0
  6
BYLAYER
 62
     7
 10
1276.190415
 20
0.562287
 30
0.0
 11
1281.749147
 21
0.562287
 31
0.0
  0
LINE
  8
0
  6
BYLAYER
 62
     7
 10
1261.155494
 20
1.562287
 30
0.0
 11
1261.648041
 21
-12.542411
 31
0.0
  0
ARC
  8
0
  6
BYLAYER
 62
     7
 10
1264.646213
 20
-12.437713
 30
0.0
 40
3.0
 50
182.000000
 51
270.000000
  0
LINE
  8
0
  6
BYLAYER
 62
     7
 10
1271.850253
 20
-12.542411
 30
0.0
 11
1272.342800
 21
1.562287
 31
0.0
  0
ARC
  8
0
  6
BYLAYER
 62
     7
 10
1268.852081
 20
-12.437713
 30
0.0
 40
3.0
 50
270.0
 51
358.0
  0
LINE
  8
0
  6
BYLAYER
 62
     7
 10
1264.646213
 20
-15.437713
 30
0.0
 11
1268.852081
 21
-15.437713
 31
0.0
  0
LINE
  8
0
  6
BYLAYER
 62
     7
 10
1261.190415
 20
0.562287
 30
0.0
 11
1272.307879
 21
0.562287
 31
0.0
  0
LINE
  8
0
  6
BYLAYER
 62
     7
 10
1246.155494
 20
1.562287
 30
0.0
 11
1246.648041
 21
-12.542411
 31
0.0
  0
ARC
  8
0
  6
BYLAYER
 62
     7
 10
1249.646213
 20
-12.437713
 30
0.0
 40
3.0
 50
182.000000
 51
270.000000
  0
LINE
  8
0
  6
BYLAYER
 62
     7
 10
1256.850253
 20
-12.542411
 30
0.0
 11
1257.342800
 21
1.562287
 31
0.0
  0
ARC
  8
0
  6
BYLAYER
 62
     7
 10
1253.852081
 20
-12.437713
 30
0.0
 40
3.0
 50
270.0
 51
358.0
  0
LINE
  8
0
  6
BYLAYER
 62
     7
 10
1249.646213
 20
-15.437713
 30
0.0
 11
1253.852081
 21
-15.437713
 31
0.0
  0
LINE
  8
0
  6
BYLAYER
 62
     7
 10
1246.190415
 20
0.562287
 30
0.0
 11
1257.307879
 21
0.562287
 31
0.0
  0
LINE
  8
0
  6
BYLAYER
 62
     7
 10
1224.249147
 20
-22.937713
 30
0.0
 11
1281.749147
 21
-22.937713
 31
0.0
  0
ARC
  8
0
  6
BYLAYER
 62
     7
 10
1224.249147
 20
-24.437713
 30
0.0
 40
1.5
 50
90.0
 51
180.0
  0
LINE
  8
0
  6
BYLAYER
 62
     7
 10
1222.749147
 20
-29.687713
 30
0.0
 11
1222.749147
 21
-24.437713
 31
0.0
  0
LINE
  8
0
  6
BYLAYER
 62
     7
 10
1222.749147
 20
-29.687713
 30
0.0
 11
1281.749147
 21
-29.687713
 31
0.0
  0
LINE
  8
0
  6
BYLAYER
 62
     7
 10
1334.749147
 20
-21.437713
 30
0.0
 11
1334.749147
 21
0.062287
 31
0.0
  0
ARC
  8
0
  6
BYLAYER
 62
     7
 10
1336.249147
 20
-21.437713
 30
0.0
 40
1.5
 50
180.000000
 51
270.000000
  0
ARC
  8
0
  6
BYLAYER
 62
     7
 10
1333.249147
 20
0.062287
 30
0.0
 40
1.5
 50
0.0
 51
90.0
  0
LINE
  8
0
  6
BYLAYER
 62
     7
 10
1333.249147
 20
1.562287
 30
0.0
 11
1281.749147
 21
1.562287
 31
0.0
  0
LINE
  8
0
  6
BYLAYER
 62
     7
 10
1328.364427
 20
-21.437713
 30
0.0
 11
1328.364427
 21
0.062287
 31
0.0
  0
ARC
  8
0
  6
BYLAYER
 62
     7
 10
1329.864427
 20
-21.437713
 30
0.0
 40
1.500000
 50
180.000000
 51
270.000000
  0
ARC
  8
0
  6
BYLAYER
 62
     7
 10
1326.864427
 20
0.062287
 30
0.0
 40
1.5
 50
0.0
 51
90.0
  0
LINE
  8
0
  6
BYLAYER
 62
     7
 10
1287.342800
 20
1.562287
 30
0.0
 11
1286.850253
 21
-12.542411
 31
0.0
  0
ARC
  8
0
  6
BYLAYER
 62
     7
 10
1283.852081
 20
-12.437713
 30
0.0
 40
3.0
 50
270.0
 51
358.0
  0
LINE
  8
0
  6
BYLAYER
 62
     7
 10
1283.852081
 20
-15.437713
 30
0.0
 11
1281.749147
 21
-15.437713
 31
0.0
  0
LINE
  8
0
  6
BYLAYER
 62
     7
 10
1287.307879
 20
0.562287
 30
0.0
 11
1281.749147
 21
0.562287
 31
0.0
  0
LINE
  8
0
  6
BYLAYER
 62
     7
 10
1302.342800
 20
1.562287
 30
0.0
 11
1301.850253
 21
-12.542411
 31
0.0
  0
ARC
  8
0
  6
BYLAYER
 62
     7
 10
1298.852081
 20
-12.437713
 30
0.0
 40
3.0
 50
270.0
 51
358.0
  0
LINE
  8
0
  6
BYLAYER
 62
     7
 10
1291.648041
 20
-12.542411
 30
0.0
 11
1291.155494
 21
1.562287
 31
0.0
  0
ARC
  8
0
  6
BYLAYER
 62
     7
 10
1294.646213
 20
-12.437713
 30
0.0
 40
3.0
 50
182.000000
 51
270.000000
  0
LINE
  8
0
  6
BYLAYER
 62
     7
 10
1298.852081
 20
-15.437713
 30
0.0
 11
1294.646213
 21
-15.437713
 31
0.0
  0
LINE
  8
0
  6
BYLAYER
 62
     7
 10
1302.307879
 20
0.562287
 30
0.0
 11
1291.190415
 21
0.562287
 31
0.0
  0
LINE
  8
0
  6
BYLAYER
 62
     7
 10
1317.342800
 20
1.562287
 30
0.0
 11
1316.850253
 21
-12.542411
 31
0.0
  0
ARC
  8
0
  6
BYLAYER
 62
     7
 10
1313.852081
 20
-12.437713
 30
0.0
 40
3.0
 50
270.0
 51
358.0
  0
LINE
  8
0
  6
BYLAYER
 62
     7
 10
1306.648041
 20
-12.542411
 30
0.0
 11
1306.155494
 21
1.562287
 31
0.0
  0
ARC
  8
0
  6
BYLAYER
 62
     7
 10
1309.646213
 20
-12.437713
 30
0.0
 40
3.0
 50
182.000000
 51
270.000000
  0
LINE
  8
0
  6
BYLAYER
 62
     7
 10
1313.852081
 20
-15.437713
 30
0.0
 11
1309.646213
 21
-15.437713
 31
0.0
  0
LINE
  8
0
  6
BYLAYER
 62
     7
 10
1317.307879
 20
0.562287
 30
0.0
 11
1306.190415
 21
0.562287
 31
0.0
  0
LINE
  8
0
  6
BYLAYER
 62
     7
 10
1339.249147
 20
-22.937713
 30
0.0
 11
1281.749147
 21
-22.937713
 31
0.0
  0
ARC
  8
0
  6
BYLAYER
 62
     7
 10
1339.249147
 20
-24.437713
 30
0.0
 40
1.500000
 50
0.0
 51
90.0
  0
LINE
  8
0
  6
BYLAYER
 62
     7
 10
1340.749147
 20
-29.687713
 30
0.0
 11
1340.749147
 21
-24.437713
 31
0.0
  0
LINE
  8
0
  6
BYLAYER
 62
     7
 10
1340.749147
 20
-29.687713
 30
0.0
 11
1281.749147
 21
-29.687713
 31
0.0
  0
LINE
  8
0
  6
BYLAYER
 62
     7
 10
1222.749147
 20
-29.687713
 30
0.0
 11
1222.749147
 21
-31.687713
 31
0.0
  0
LINE
  8
0
  6
BYLAYER
 62
     7
 10
1222.749147
 20
-31.687713
 30
0.0
 11
1340.749147
 21
-31.687713
 31
0.0
  0
LINE
  8
0
  6
BYLAYER
 62
     7
 10
1340.749147
 20
-29.687713
 30
0.0
 11
1340.749147
 21
-31.687713
 31
0.0
  0
LINE
  8
0
  6
BYLAYER
 62
     7
 10
1282.749147
 20
-143.687713
 30
0.0
 11
1282.749147
 21
-151.687713
 31
0.0
  0
LINE
  8
0
  6
BYLAYER
 62
     7
 10
1282.749147
 20
-133.687713
 30
0.0
 11
1282.749147
 21
-141.687713
 31
0.0
  0
LINE
  8
0
  6
BYLAYER
 62
     7
 10
1290.749147
 20
-141.687713
 30
0.0
 11
1290.749147
 21
-133.687713
 31
0.0
  0
LINE
  8
0
  6
BYLAYER
 62
     7
 10
1292.749147
 20
-141.687713
 30
0.0
 11
1292.749147
 21
-133.687713
 31
0.0
  0
LINE
  8
0
  6
BYLAYER
 62
     7
 10
1282.749147
 20
-151.687713
 30
0.0
 11
1290.749147
 21
-151.687713
 31
0.0
  0
LINE
  8
0
  6
BYLAYER
 62
     7
 10
1282.749147
 20
-143.687713
 30
0.0
 11
1290.749147
 21
-143.687713
 31
0.0
  0
LINE
  8
0
  6
BYLAYER
 62
     7
 10
1292.749147
 20
-141.687713
 30
0.0
 11
1300.587146
 21
-141.687713
 31
0.0
  0
LINE
  8
0
  6
BYLAYER
 62
     7
 10
1282.749147
 20
-141.687713
 30
0.0
 11
1290.749147
 21
-141.687713
 31
0.0
  0
LINE
  8
0
  6
BYLAYER
 62
     7
 10
1292.749147
 20
-133.687713
 30
0.0
 11
1300.587146
 21
-133.687713
 31
0.0
  0
LINE
  8
0
  6
BYLAYER
 62
     7
 10
1282.749147
 20
-133.687713
 30
0.0
 11
1290.749147
 21
-133.687713
 31
0.0
  0
LINE
  8
0
  6
BYLAYER
 62
     7
 10
1300.587146
 20
-141.687713
 30
0.0
 11
1300.587146
 21
-133.687713
 31
0.0
  0
LINE
  8
0
  6
BYLAYER
 62
     7
 10
1290.749147
 20
-151.687713
 30
0.0
 11
1290.749147
 21
-143.687713
 31
0.0
  0
LINE
  8
0
  6
BYLAYER
 62
     7
 10
1292.749147
 20
-143.687713
 30
0.0
 11
1292.749147
 21
-151.687713
 31
0.0
  0
LINE
  8
0
  6
BYLAYER
 62
     7
 10
1292.749147
 20
-151.687713
 30
0.0
 11
1300.749147
 21
-151.687713
 31
0.0
  0
LINE
  8
0
  6
BYLAYER
 62
     7
 10
1292.749147
 20
-143.687713
 30
0.0
 11
1300.749147
 21
-143.687713
 31
0.0
  0
LINE
  8
0
  6
BYLAYER
 62
     7
 10
1300.749147
 20
-151.687713
 30
0.0
 11
1300.749147
 21
-143.687713
 31
0.0
  0
LINE
  8
0
  6
BYLAYER
 62
     7
 10
1302.749147
 20
-161.687713
 30
0.0
 11
1310.749147
 21
-161.687713
 31
0.0
  0
LINE
  8
0
  6
BYLAYER
 62
     7
 10
1302.749147
 20
-143.687713
 30
0.0
 11
1302.749147
 21
-151.687713
 31
0.0
  0
LINE
  8
0
  6
BYLAYER
 62
     7
 10
1302.749147
 20
-153.687713
 30
0.0
 11
1302.749147
 21
-161.687713
 31
0.0
  0
LINE
  8
0
  6
BYLAYER
 62
     7
 10
1302.749147
 20
-153.687713
 30
0.0
 11
1310.749147
 21
-153.687713
 31
0.0
  0
LINE
  8
0
  6
BYLAYER
 62
     7
 10
1302.749147
 20
-151.687713
 30
0.0
 11
1310.749147
 21
-151.687713
 31
0.0
  0
LINE
  8
0
  6
BYLAYER
 62
     7
 10
1302.749147
 20
-143.687713
 30
0.0
 11
1310.749147
 21
-143.687713
 31
0.0
  0
LINE
  8
0
  6
BYLAYER
 62
     7
 10
1310.749147
 20
-161.687713
 30
0.0
 11
1310.749147
 21
-153.687713
 31
0.0
  0
LINE
  8
0
  6
BYLAYER
 62
     7
 10
1310.749147
 20
-151.687713
 30
0.0
 11
1310.749147
 21
-143.687713
 31
0.0
  0
LINE
  8
0
  6
BYLAYER
 62
     7
 10
1302.749147
 20
-171.687713
 30
0.0
 11
1310.749147
 21
-171.687713
 31
0.0
  0
LINE
  8
0
  6
BYLAYER
 62
     7
 10
1302.749147
 20
-163.687713
 30
0.0
 11
1302.749147
 21
-171.687713
 31
0.0
  0
LINE
  8
0
  6
BYLAYER
 62
     7
 10
1302.749147
 20
-163.687713
 30
0.0
 11
1310.749147
 21
-163.687713
 31
0.0
  0
LINE
  8
0
  6
BYLAYER
 62
     7
 10
1310.749147
 20
-171.687713
 30
0.0
 11
1310.749147
 21
-163.687713
 31
0.0
  0
LINE
  8
0
  6
BYLAYER
 62
     7
 10
1312.749147
 20
-161.687713
 30
0.0
 11
1320.749147
 21
-161.687713
 31
0.0
  0
LINE
  8
0
  6
BYLAYER
 62
     7
 10
1312.749147
 20
-153.687713
 30
0.0
 11
1312.749147
 21
-161.687713
 31
0.0
  0
LINE
  8
0
  6
BYLAYER
 62
     7
 10
1312.749147
 20
-153.687713
 30
0.0
 11
1320.749147
 21
-153.687713
 31
0.0
  0
LINE
  8
0
  6
BYLAYER
 62
     7
 10
1320.749147
 20
-161.687713
 30
0.0
 11
1320.749147
 21
-153.687713
 31
0.0
  0
LINE
  8
0
  6
BYLAYER
 62
     7
 10
1312.749147
 20
-171.687713
 30
0.0
 11
1320.749147
 21
-171.687713
 31
0.0
  0
LINE
  8
0
  6
BYLAYER
 62
     7
 10
1312.749147
 20
-163.687713
 30
0.0
 11
1312.749147
 21
-171.687713
 31
0.0
  0
LINE
  8
0
  6
BYLAYER
 62
     7
 10
1312.749147
 20
-163.687713
 30
0.0
 11
1320.749147
 21
-163.687713
 31
0.0
  0
LINE
  8
0
  6
BYLAYER
 62
     7
 10
1320.749147
 20
-171.687713
 30
0.0
 11
1320.749147
 21
-163.687713
 31
0.0
  0
LINE
  8
0
  6
BYLAYER
 62
     7
 10
1322.749147
 20
-161.687713
 30
0.0
 11
1330.749147
 21
-161.687713
 31
0.0
  0
LINE
  8
0
  6
BYLAYER
 62
     7
 10
1322.749147
 20
-153.687713
 30
0.0
 11
1322.749147
 21
-161.687713
 31
0.0
  0
LINE
  8
0
  6
BYLAYER
 62
     7
 10
1322.749147
 20
-153.687713
 30
0.0
 11
1330.749147
 21
-153.687713
 31
0.0
  0
LINE
  8
0
  6
BYLAYER
 62
     7
 10
1330.749147
 20
-161.687713
 30
0.0
 11
1330.749147
 21
-153.687713
 31
0.0
  0
LINE
  8
0
  6
BYLAYER
 62
     7
 10
1322.749147
 20
-171.687713
 30
0.0
 11
1330.749147
 21
-171.687713
 31
0.0
  0
LINE
  8
0
  6
BYLAYER
 62
     7
 10
1322.749147
 20
-163.687713
 30
0.0
 11
1322.749147
 21
-171.687713
 31
0.0
  0
LINE
  8
0
  6
BYLAYER
 62
     7
 10
1322.749147
 20
-163.687713
 30
0.0
 11
1330.749147
 21
-163.687713
 31
0.0
  0
LINE
  8
0
  6
BYLAYER
 62
     7
 10
1330.749147
 20
-171.687713
 30
0.0
 11
1330.749147
 21
-163.687713
 31
0.0
  0
LINE
  8
0
  6
BYLAYER
 62
     7
 10
1282.749147
 20
-123.687713
 30
0.0
 11
1282.749147
 21
-131.687713
 31
0.0
  0
LINE
  8
0
  6
BYLAYER
 62
     7
 10
1290.749147
 20
-131.687713
 30
0.0
 11
1290.749147
 21
-123.687713
 31
0.0
  0
LINE
  8
0
  6
BYLAYER
 62
     7
 10
1292.749147
 20
-131.687713
 30
0.0
 11
1292.749147
 21
-123.687713
 31
0.0
  0
LINE
  8
0
  6
BYLAYER
 62
     7
 10
1292.749147
 20
-131.687713
 30
0.0
 11
1300.587146
 21
-131.687713
 31
0.0
  0
LINE
  8
0
  6
BYLAYER
 62
     7
 10
1282.749147
 20
-131.687713
 30
0.0
 11
1290.749147
 21
-131.687713
 31
0.0
  0
LINE
  8
0
  6
BYLAYER
 62
     7
 10
1292.749147
 20
-123.687713
 30
0.0
 11
1300.587146
 21
-123.687713
 31
0.0
  0
LINE
  8
0
  6
BYLAYER
 62
     7
 10
1282.749147
 20
-123.687713
 30
0.0
 11
1290.749147
 21
-123.687713
 31
0.0
  0
LINE
  8
0
  6
BYLAYER
 62
     7
 10
1300.587146
 20
-131.687713
 30
0.0
 11
1300.587146
 21
-123.687713
 31
0.0
  0
LINE
  8
0
  6
BYLAYER
 62
     7
 10
1302.749147
 20
-133.687713
 30
0.0
 11
1302.749147
 21
-141.687713
 31
0.0
  0
LINE
  8
0
  6
BYLAYER
 62
     7
 10
1302.749147
 20
-141.687713
 30
0.0
 11
1310.749147
 21
-141.687713
 31
0.0
  0
LINE
  8
0
  6
BYLAYER
 62
     7
 10
1302.749147
 20
-133.687713
 30
0.0
 11
1310.749147
 21
-133.687713
 31
0.0
  0
LINE
  8
0
  6
BYLAYER
 62
     7
 10
1310.749147
 20
-141.687713
 30
0.0
 11
1310.749147
 21
-133.687713
 31
0.0
  0
LINE
  8
0
  6
BYLAYER
 62
     7
 10
1302.749147
 20
-123.687713
 30
0.0
 11
1302.749147
 21
-131.687713
 31
0.0
  0
LINE
  8
0
  6
BYLAYER
 62
     7
 10
1302.749147
 20
-131.687713
 30
0.0
 11
1310.749147
 21
-131.687713
 31
0.0
  0
LINE
  8
0
  6
BYLAYER
 62
     7
 10
1302.749147
 20
-123.687713
 30
0.0
 11
1310.749147
 21
-123.687713
 31
0.0
  0
LINE
  8
0
  6
BYLAYER
 62
     7
 10
1310.749147
 20
-131.687713
 30
0.0
 11
1310.749147
 21
-123.687713
 31
0.0
  0
LINE
  8
0
  6
BYLAYER
 62
     7
 10
1312.749147
 20
-143.687713
 30
0.0
 11
1312.749147
 21
-151.687713
 31
0.0
  0
LINE
  8
0
  6
BYLAYER
 62
     7
 10
1312.749147
 20
-151.687713
 30
0.0
 11
1320.749147
 21
-151.687713
 31
0.0
  0
LINE
  8
0
  6
BYLAYER
 62
     7
 10
1312.749147
 20
-143.687713
 30
0.0
 11
1320.749147
 21
-143.687713
 31
0.0
  0
LINE
  8
0
  6
BYLAYER
 62
     7
 10
1320.749147
 20
-151.687713
 30
0.0
 11
1320.749147
 21
-143.687713
 31
0.0
  0
LINE
  8
0
  6
BYLAYER
 62
     7
 10
1312.749147
 20
-133.687713
 30
0.0
 11
1312.749147
 21
-141.687713
 31
0.0
  0
LINE
  8
0
  6
BYLAYER
 62
     7
 10
1312.749147
 20
-141.687713
 30
0.0
 11
1320.749147
 21
-141.687713
 31
0.0
  0
LINE
  8
0
  6
BYLAYER
 62
     7
 10
1312.749147
 20
-133.687713
 30
0.0
 11
1320.749147
 21
-133.687713
 31
0.0
  0
LINE
  8
0
  6
BYLAYER
 62
     7
 10
1320.749147
 20
-141.687713
 30
0.0
 11
1320.749147
 21
-133.687713
 31
0.0
  0
LINE
  8
0
  6
BYLAYER
 62
     7
 10
1322.749147
 20
-143.687713
 30
0.0
 11
1322.749147
 21
-151.687713
 31
0.0
  0
LINE
  8
0
  6
BYLAYER
 62
     7
 10
1322.749147
 20
-151.687713
 30
0.0
 11
1330.749147
 21
-151.687713
 31
0.0
  0
LINE
  8
0
  6
BYLAYER
 62
     7
 10
1322.749147
 20
-143.687713
 30
0.0
 11
1330.749147
 21
-143.687713
 31
0.0
  0
LINE
  8
0
  6
BYLAYER
 62
     7
 10
1330.749147
 20
-151.687713
 30
0.0
 11
1330.749147
 21
-143.687713
 31
0.0
  0
CIRCLE
  8
0
  6
BYLAYER
 62
     7
 10
1281.749147
 20
-172.687713
 30
0.0
 40
4.0
  0
LINE
  8
0
  6
BYLAYER
 62
     7
 10
1332.749147
 20
-161.687713
 30
0.0
 11
1340.749147
 21
-161.687713
 31
0.0
  0
LINE
  8
0
  6
BYLAYER
 62
     7
 10
1332.749147
 20
-153.687713
 30
0.0
 11
1332.749147
 21
-161.687713
 31
0.0
  0
LINE
  8
0
  6
BYLAYER
 62
     7
 10
1332.749147
 20
-153.687713
 30
0.0
 11
1340.749147
 21
-153.687713
 31
0.0
  0
LINE
  8
0
  6
BYLAYER
 62
     7
 10
1340.749147
 20
-161.687713
 30
0.0
 11
1340.749147
 21
-153.687713
 31
0.0
  0
LINE
  8
0
  6
BYLAYER
 62
     7
 10
1332.749147
 20
-171.687713
 30
0.0
 11
1340.749147
 21
-171.687713
 31
0.0
  0
LINE
  8
0
  6
BYLAYER
 62
     7
 10
1332.749147
 20
-163.687713
 30
0.0
 11
1332.749147
 21
-171.687713
 31
0.0
  0
LINE
  8
0
  6
BYLAYER
 62
     7
 10
1332.749147
 20
-163.687713
 30
0.0
 11
1340.749147
 21
-163.687713
 31
0.0
  0
LINE
  8
0
  6
BYLAYER
 62
     7
 10
1340.749147
 20
-171.687713
 30
0.0
 11
1340.749147
 21
-163.687713
 31
0.0
  0
LINE
  8
0
  6
BYLAYER
 62
     7
 10
1332.749147
 20
-143.687713
 30
0.0
 11
1332.749147
 21
-151.687713
 31
0.0
  0
LINE
  8
0
  6
BYLAYER
 62
     7
 10
1332.749147
 20
-151.687713
 30
0.0
 11
1340.749147
 21
-151.687713
 31
0.0
  0
LINE
  8
0
  6
BYLAYER
 62
     7
 10
1332.749147
 20
-143.687713
 30
0.0
 11
1340.749147
 21
-143.687713
 31
0.0
  0
LINE
  8
0
  6
BYLAYER
 62
     7
 10
1340.749147
 20
-151.687713
 30
0.0
 11
1340.749147
 21
-143.687713
 31
0.0
  0
LINE
  8
0
  6
BYLAYER
 62
     7
 10
1282.749147
 20
-113.687713
 30
0.0
 11
1282.749147
 21
-121.687713
 31
0.0
  0
LINE
  8
0
  6
BYLAYER
 62
     7
 10
1290.749147
 20
-121.687713
 30
0.0
 11
1290.749147
 21
-113.687713
 31
0.0
  0
LINE
  8
0
  6
BYLAYER
 62
     7
 10
1292.749147
 20
-121.687713
 30
0.0
 11
1292.749147
 21
-113.687713
 31
0.0
  0
LINE
  8
0
  6
BYLAYER
 62
     7
 10
1292.749147
 20
-121.687713
 30
0.0
 11
1300.587146
 21
-121.687713
 31
0.0
  0
LINE
  8
0
  6
BYLAYER
 62
     7
 10
1282.749147
 20
-121.687713
 30
0.0
 11
1290.749147
 21
-121.687713
 31
0.0
  0
LINE
  8
0
  6
BYLAYER
 62
     7
 10
1292.749147
 20
-113.687713
 30
0.0
 11
1300.587146
 21
-113.687713
 31
0.0
  0
LINE
  8
0
  6
BYLAYER
 62
     7
 10
1282.749147
 20
-113.687713
 30
0.0
 11
1290.749147
 21
-113.687713
 31
0.0
  0
LINE
  8
0
  6
BYLAYER
 62
     7
 10
1300.587146
 20
-121.687713
 30
0.0
 11
1300.587146
 21
-113.687713
 31
0.0
  0
LINE
  8
0
  6
BYLAYER
 62
     7
 10
1302.749147
 20
-113.687713
 30
0.0
 11
1302.749147
 21
-121.687713
 31
0.0
  0
LINE
  8
0
  6
BYLAYER
 62
     7
 10
1302.749147
 20
-121.687713
 30
0.0
 11
1310.749147
 21
-121.687713
 31
0.0
  0
LINE
  8
0
  6
BYLAYER
 62
     7
 10
1302.749147
 20
-113.687713
 30
0.0
 11
1310.749147
 21
-113.687713
 31
0.0
  0
LINE
  8
0
  6
BYLAYER
 62
     7
 10
1310.749147
 20
-121.687713
 30
0.0
 11
1310.749147
 21
-113.687713
 31
0.0
  0
LINE
  8
0
  6
BYLAYER
 62
     7
 10
1312.749147
 20
-123.687713
 30
0.0
 11
1312.749147
 21
-131.687713
 31
0.0
  0
LINE
  8
0
  6
BYLAYER
 62
     7
 10
1312.749147
 20
-131.687713
 30
0.0
 11
1320.749147
 21
-131.687713
 31
0.0
  0
LINE
  8
0
  6
BYLAYER
 62
     7
 10
1312.749147
 20
-123.687713
 30
0.0
 11
1320.749147
 21
-123.687713
 31
0.0
  0
LINE
  8
0
  6
BYLAYER
 62
     7
 10
1320.749147
 20
-131.687713
 30
0.0
 11
1320.749147
 21
-123.687713
 31
0.0
  0
LINE
  8
0
  6
BYLAYER
 62
     7
 10
1322.749147
 20
-133.687713
 30
0.0
 11
1322.749147
 21
-141.687713
 31
0.0
  0
LINE
  8
0
  6
BYLAYER
 62
     7
 10
1322.749147
 20
-141.687713
 30
0.0
 11
1330.749147
 21
-141.687713
 31
0.0
  0
LINE
  8
0
  6
BYLAYER
 62
     7
 10
1322.749147
 20
-133.687713
 30
0.0
 11
1330.749147
 21
-133.687713
 31
0.0
  0
LINE
  8
0
  6
BYLAYER
 62
     7
 10
1330.749147
 20
-141.687713
 30
0.0
 11
1330.749147
 21
-133.687713
 31
0.0
  0
LINE
  8
0
  6
BYLAYER
 62
     7
 10
1282.749147
 20
-103.687713
 30
0.0
 11
1282.749147
 21
-111.687713
 31
0.0
  0
LINE
  8
0
  6
BYLAYER
 62
     7
 10
1290.749147
 20
-111.687713
 30
0.0
 11
1290.749147
 21
-103.687713
 31
0.0
  0
LINE
  8
0
  6
BYLAYER
 62
     7
 10
1292.749147
 20
-111.687713
 30
0.0
 11
1292.749147
 21
-103.687713
 31
0.0
  0
LINE
  8
0
  6
BYLAYER
 62
     7
 10
1292.749147
 20
-111.687713
 30
0.0
 11
1300.587146
 21
-111.687713
 31
0.0
  0
LINE
  8
0
  6
BYLAYER
 62
     7
 10
1282.749147
 20
-111.687713
 30
0.0
 11
1290.749147
 21
-111.687713
 31
0.0
  0
LINE
  8
0
  6
BYLAYER
 62
     7
 10
1292.749147
 20
-103.687713
 30
0.0
 11
1300.587146
 21
-103.687713
 31
0.0
  0
LINE
  8
0
  6
BYLAYER
 62
     7
 10
1282.749147
 20
-103.687713
 30
0.0
 11
1290.749147
 21
-103.687713
 31
0.0
  0
LINE
  8
0
  6
BYLAYER
 62
     7
 10
1300.587146
 20
-111.687713
 30
0.0
 11
1300.587146
 21
-103.687713
 31
0.0
  0
LINE
  8
0
  6
BYLAYER
 62
     7
 10
1342.749147
 20
-161.687713
 30
0.0
 11
1350.749147
 21
-161.687713
 31
0.0
  0
LINE
  8
0
  6
BYLAYER
 62
     7
 10
1342.749147
 20
-153.687713
 30
0.0
 11
1342.749147
 21
-161.687713
 31
0.0
  0
LINE
  8
0
  6
BYLAYER
 62
     7
 10
1342.749147
 20
-153.687713
 30
0.0
 11
1350.749147
 21
-153.687713
 31
0.0
  0
LINE
  8
0
  6
BYLAYER
 62
     7
 10
1350.749147
 20
-161.687713
 30
0.0
 11
1350.749147
 21
-153.687713
 31
0.0
  0
LINE
  8
0
  6
BYLAYER
 62
     7
 10
1342.749147
 20
-171.687713
 30
0.0
 11
1350.749147
 21
-171.687713
 31
0.0
  0
LINE
  8
0
  6
BYLAYER
 62
     7
 10
1342.749147
 20
-163.687713
 30
0.0
 11
1342.749147
 21
-171.687713
 31
0.0
  0
LINE
  8
0
  6
BYLAYER
 62
     7
 10
1342.749147
 20
-163.687713
 30
0.0
 11
1350.749147
 21
-163.687713
 31
0.0
  0
LINE
  8
0
  6
BYLAYER
 62
     7
 10
1350.749147
 20
-171.687713
 30
0.0
 11
1350.749147
 21
-163.687713
 31
0.0
  0
LINE
  8
0
  6
BYLAYER
 62
     7
 10
1312.749147
 20
-113.687713
 30
0.0
 11
1312.749147
 21
-121.687713
 31
0.0
  0
LINE
  8
0
  6
BYLAYER
 62
     7
 10
1312.749147
 20
-121.687713
 30
0.0
 11
1320.749147
 21
-121.687713
 31
0.0
  0
LINE
  8
0
  6
BYLAYER
 62
     7
 10
1312.749147
 20
-113.687713
 30
0.0
 11
1320.749147
 21
-113.687713
 31
0.0
  0
LINE
  8
0
  6
BYLAYER
 62
     7
 10
1320.749147
 20
-121.687713
 30
0.0
 11
1320.749147
 21
-113.687713
 31
0.0
  0
LINE
  8
0
  6
BYLAYER
 62
     7
 10
1322.749147
 20
-123.687713
 30
0.0
 11
1322.749147
 21
-131.687713
 31
0.0
  0
LINE
  8
0
  6
BYLAYER
 62
     7
 10
1322.749147
 20
-131.687713
 30
0.0
 11
1330.749147
 21
-131.687713
 31
0.0
  0
LINE
  8
0
  6
BYLAYER
 62
     7
 10
1322.749147
 20
-123.687713
 30
0.0
 11
1330.749147
 21
-123.687713
 31
0.0
  0
LINE
  8
0
  6
BYLAYER
 62
     7
 10
1330.749147
 20
-131.687713
 30
0.0
 11
1330.749147
 21
-123.687713
 31
0.0
  0
LINE
  8
0
  6
BYLAYER
 62
     7
 10
1332.749147
 20
-133.687713
 30
0.0
 11
1332.749147
 21
-141.687713
 31
0.0
  0
LINE
  8
0
  6
BYLAYER
 62
     7
 10
1332.749147
 20
-141.687713
 30
0.0
 11
1340.749147
 21
-141.687713
 31
0.0
  0
LINE
  8
0
  6
BYLAYER
 62
     7
 10
1332.749147
 20
-133.687713
 30
0.0
 11
1340.749147
 21
-133.687713
 31
0.0
  0
LINE
  8
0
  6
BYLAYER
 62
     7
 10
1340.749147
 20
-141.687713
 30
0.0
 11
1340.749147
 21
-133.687713
 31
0.0
  0
LINE
  8
0
  6
BYLAYER
 62
     7
 10
1282.749147
 20
-93.687713
 30
0.0
 11
1282.749147
 21
-101.687713
 31
0.0
  0
LINE
  8
0
  6
BYLAYER
 62
     7
 10
1290.749147
 20
-101.687713
 30
0.0
 11
1290.749147
 21
-93.687713
 31
0.0
  0
LINE
  8
0
  6
BYLAYER
 62
     7
 10
1282.749147
 20
-101.687713
 30
0.0
 11
1290.749147
 21
-101.687713
 31
0.0
  0
LINE
  8
0
  6
BYLAYER
 62
     7
 10
1282.749147
 20
-93.687713
 30
0.0
 11
1290.749147
 21
-93.687713
 31
0.0
  0
LINE
  8
0
  6
BYLAYER
 62
     7
 10
1352.749147
 20
-171.687713
 30
0.0
 11
1360.749147
 21
-171.687713
 31
0.0
  0
LINE
  8
0
  6
BYLAYER
 62
     7
 10
1352.749147
 20
-163.687713
 30
0.0
 11
1352.749147
 21
-171.687713
 31
0.0
  0
LINE
  8
0
  6
BYLAYER
 62
     7
 10
1352.749147
 20
-163.687713
 30
0.0
 11
1360.749147
 21
-163.687713
 31
0.0
  0
LINE
  8
0
  6
BYLAYER
 62
     7
 10
1360.749147
 20
-171.687713
 30
0.0
 11
1360.749147
 21
-163.687713
 31
0.0
  0
LINE
  8
0
  6
BYLAYER
 62
     7
 10
1302.749147
 20
-103.687713
 30
0.0
 11
1302.749147
 21
-111.687713
 31
0.0
  0
LINE
  8
0
  6
BYLAYER
 62
     7
 10
1302.749147
 20
-111.687713
 30
0.0
 11
1310.749147
 21
-111.687713
 31
0.0
  0
LINE
  8
0
  6
BYLAYER
 62
     7
 10
1302.749147
 20
-103.687713
 30
0.0
 11
1310.749147
 21
-103.687713
 31
0.0
  0
LINE
  8
0
  6
BYLAYER
 62
     7
 10
1310.749147
 20
-111.687713
 30
0.0
 11
1310.749147
 21
-103.687713
 31
0.0
  0
LINE
  8
0
  6
BYLAYER
 62
     7
 10
1342.749147
 20
-143.687713
 30
0.0
 11
1342.749147
 21
-151.687713
 31
0.0
  0
LINE
  8
0
  6
BYLAYER
 62
     7
 10
1342.749147
 20
-151.687713
 30
0.0
 11
1350.749147
 21
-151.687713
 31
0.0
  0
LINE
  8
0
  6
BYLAYER
 62
     7
 10
1342.749147
 20
-143.687713
 30
0.0
 11
1350.749147
 21
-143.687713
 31
0.0
  0
LINE
  8
0
  6
BYLAYER
 62
     7
 10
1350.749147
 20
-151.687713
 30
0.0
 11
1350.749147
 21
-143.687713
 31
0.0
  0
LINE
  8
0
  6
BYLAYER
 62
     7
 10
1312.749147
 20
-103.687713
 30
0.0
 11
1312.749147
 21
-111.687713
 31
0.0
  0
LINE
  8
0
  6
BYLAYER
 62
     7
 10
1312.749147
 20
-111.687713
 30
0.0
 11
1320.749147
 21
-111.687713
 31
0.0
  0
LINE
  8
0
  6
BYLAYER
 62
     7
 10
1312.749147
 20
-103.687713
 30
0.0
 11
1320.749147
 21
-103.687713
 31
0.0
  0
LINE
  8
0
  6
BYLAYER
 62
     7
 10
1320.749147
 20
-111.687713
 30
0.0
 11
1320.749147
 21
-103.687713
 31
0.0
  0
LINE
  8
0
  6
BYLAYER
 62
     7
 10
1322.749147
 20
-113.687713
 30
0.0
 11
1322.749147
 21
-121.687713
 31
0.0
  0
LINE
  8
0
  6
BYLAYER
 62
     7
 10
1322.749147
 20
-121.687713
 30
0.0
 11
1330.749147
 21
-121.687713
 31
0.0
  0
LINE
  8
0
  6
BYLAYER
 62
     7
 10
1322.749147
 20
-113.687713
 30
0.0
 11
1330.749147
 21
-113.687713
 31
0.0
  0
LINE
  8
0
  6
BYLAYER
 62
     7
 10
1330.749147
 20
-121.687713
 30
0.0
 11
1330.749147
 21
-113.687713
 31
0.0
  0
LINE
  8
0
  6
BYLAYER
 62
     7
 10
1332.749147
 20
-123.687713
 30
0.0
 11
1332.749147
 21
-131.687713
 31
0.0
  0
LINE
  8
0
  6
BYLAYER
 62
     7
 10
1332.749147
 20
-131.687713
 30
0.0
 11
1340.749147
 21
-131.687713
 31
0.0
  0
LINE
  8
0
  6
BYLAYER
 62
     7
 10
1332.749147
 20
-123.687713
 30
0.0
 11
1340.749147
 21
-123.687713
 31
0.0
  0
LINE
  8
0
  6
BYLAYER
 62
     7
 10
1340.749147
 20
-131.687713
 30
0.0
 11
1340.749147
 21
-123.687713
 31
0.0
  0
LINE
  8
0
  6
BYLAYER
 62
     7
 10
1342.749147
 20
-133.687713
 30
0.0
 11
1342.749147
 21
-141.687713
 31
0.0
  0
LINE
  8
0
  6
BYLAYER
 62
     7
 10
1342.749147
 20
-141.687713
 30
0.0
 11
1350.749147
 21
-141.687713
 31
0.0
  0
LINE
  8
0
  6
BYLAYER
 62
     7
 10
1342.749147
 20
-133.687713
 30
0.0
 11
1350.749147
 21
-133.687713
 31
0.0
  0
LINE
  8
0
  6
BYLAYER
 62
     7
 10
1350.749147
 20
-141.687713
 30
0.0
 11
1350.749147
 21
-133.687713
 31
0.0
  0
LINE
  8
0
  6
BYLAYER
 62
     7
 10
1292.749147
 20
-101.687713
 30
0.0
 11
1292.749147
 21
-93.687713
 31
0.0
  0
LINE
  8
0
  6
BYLAYER
 62
     7
 10
1292.749147
 20
-101.687713
 30
0.0
 11
1300.587146
 21
-101.687713
 31
0.0
  0
LINE
  8
0
  6
BYLAYER
 62
     7
 10
1292.749147
 20
-93.687713
 30
0.0
 11
1300.587146
 21
-93.687713
 31
0.0
  0
LINE
  8
0
  6
BYLAYER
 62
     7
 10
1300.587146
 20
-101.687713
 30
0.0
 11
1300.587146
 21
-93.687713
 31
0.0
  0
LINE
  8
0
  6
BYLAYER
 62
     7
 10
1352.749147
 20
-161.687713
 30
0.0
 11
1360.749147
 21
-161.687713
 31
0.0
  0
LINE
  8
0
  6
BYLAYER
 62
     7
 10
1352.749147
 20
-153.687713
 30
0.0
 11
1352.749147
 21
-161.687713
 31
0.0
  0
LINE
  8
0
  6
BYLAYER
 62
     7
 10
1352.749147
 20
-153.687713
 30
0.0
 11
1360.749147
 21
-153.687713
 31
0.0
  0
LINE
  8
0
  6
BYLAYER
 62
     7
 10
1360.749147
 20
-161.687713
 30
0.0
 11
1360.749147
 21
-153.687713
 31
0.0
  0
LINE
  8
0
  6
BYLAYER
 62
     7
 10
1282.749147
 20
-83.687713
 30
0.0
 11
1282.749147
 21
-91.687713
 31
0.0
  0
LINE
  8
0
  6
BYLAYER
 62
     7
 10
1290.749147
 20
-91.687713
 30
0.0
 11
1290.749147
 21
-83.687713
 31
0.0
  0
LINE
  8
0
  6
BYLAYER
 62
     7
 10
1282.749147
 20
-91.687713
 30
0.0
 11
1290.749147
 21
-91.687713
 31
0.0
  0
LINE
  8
0
  6
BYLAYER
 62
     7
 10
1282.749147
 20
-83.687713
 30
0.0
 11
1290.749147
 21
-83.687713
 31
0.0
  0
LINE
  8
0
  6
BYLAYER
 62
     7
 10
1292.749147
 20
-91.687713
 30
0.0
 11
1292.749147
 21
-83.687713
 31
0.0
  0
LINE
  8
0
  6
BYLAYER
 62
     7
 10
1292.749147
 20
-91.687713
 30
0.0
 11
1300.587146
 21
-91.687713
 31
0.0
  0
LINE
  8
0
  6
BYLAYER
 62
     7
 10
1292.749147
 20
-83.687713
 30
0.0
 11
1300.587146
 21
-83.687713
 31
0.0
  0
LINE
  8
0
  6
BYLAYER
 62
     7
 10
1300.587146
 20
-91.687713
 30
0.0
 11
1300.587146
 21
-83.687713
 31
0.0
  0
LINE
  8
0
  6
BYLAYER
 62
     7
 10
1302.749147
 20
-93.687713
 30
0.0
 11
1302.749147
 21
-101.687713
 31
0.0
  0
LINE
  8
0
  6
BYLAYER
 62
     7
 10
1302.749147
 20
-101.687713
 30
0.0
 11
1310.749147
 21
-101.687713
 31
0.0
  0
LINE
  8
0
  6
BYLAYER
 62
     7
 10
1302.749147
 20
-93.687713
 30
0.0
 11
1310.749147
 21
-93.687713
 31
0.0
  0
LINE
  8
0
  6
BYLAYER
 62
     7
 10
1310.749147
 20
-101.687713
 30
0.0
 11
1310.749147
 21
-93.687713
 31
0.0
  0
LINE
  8
0
  6
BYLAYER
 62
     7
 10
1312.749147
 20
-93.687713
 30
0.0
 11
1312.749147
 21
-101.687713
 31
0.0
  0
LINE
  8
0
  6
BYLAYER
 62
     7
 10
1312.749147
 20
-101.687713
 30
0.0
 11
1320.749147
 21
-101.687713
 31
0.0
  0
LINE
  8
0
  6
BYLAYER
 62
     7
 10
1312.749147
 20
-93.687713
 30
0.0
 11
1320.749147
 21
-93.687713
 31
0.0
  0
LINE
  8
0
  6
BYLAYER
 62
     7
 10
1320.749147
 20
-101.687713
 30
0.0
 11
1320.749147
 21
-93.687713
 31
0.0
  0
LINE
  8
0
  6
BYLAYER
 62
     7
 10
1322.749147
 20
-103.687713
 30
0.0
 11
1322.749147
 21
-111.687713
 31
0.0
  0
LINE
  8
0
  6
BYLAYER
 62
     7
 10
1322.749147
 20
-111.687713
 30
0.0
 11
1330.749147
 21
-111.687713
 31
0.0
  0
LINE
  8
0
  6
BYLAYER
 62
     7
 10
1322.749147
 20
-103.687713
 30
0.0
 11
1330.749147
 21
-103.687713
 31
0.0
  0
LINE
  8
0
  6
BYLAYER
 62
     7
 10
1330.749147
 20
-111.687713
 30
0.0
 11
1330.749147
 21
-103.687713
 31
0.0
  0
LINE
  8
0
  6
BYLAYER
 62
     7
 10
1332.749147
 20
-113.687713
 30
0.0
 11
1332.749147
 21
-121.687713
 31
0.0
  0
LINE
  8
0
  6
BYLAYER
 62
     7
 10
1332.749147
 20
-121.687713
 30
0.0
 11
1340.749147
 21
-121.687713
 31
0.0
  0
LINE
  8
0
  6
BYLAYER
 62
     7
 10
1332.749147
 20
-113.687713
 30
0.0
 11
1340.749147
 21
-113.687713
 31
0.0
  0
LINE
  8
0
  6
BYLAYER
 62
     7
 10
1340.749147
 20
-121.687713
 30
0.0
 11
1340.749147
 21
-113.687713
 31
0.0
  0
LINE
  8
0
  6
BYLAYER
 62
     7
 10
1342.749147
 20
-123.687713
 30
0.0
 11
1342.749147
 21
-131.687713
 31
0.0
  0
LINE
  8
0
  6
BYLAYER
 62
     7
 10
1342.749147
 20
-131.687713
 30
0.0
 11
1350.749147
 21
-131.687713
 31
0.0
  0
LINE
  8
0
  6
BYLAYER
 62
     7
 10
1342.749147
 20
-123.687713
 30
0.0
 11
1350.749147
 21
-123.687713
 31
0.0
  0
LINE
  8
0
  6
BYLAYER
 62
     7
 10
1350.749147
 20
-131.687713
 30
0.0
 11
1350.749147
 21
-123.687713
 31
0.0
  0
LINE
  8
0
  6
BYLAYER
 62
     7
 10
1352.749147
 20
-151.687713
 30
0.0
 11
1360.749147
 21
-151.687713
 31
0.0
  0
LINE
  8
0
  6
BYLAYER
 62
     7
 10
1352.749147
 20
-143.687713
 30
0.0
 11
1352.749147
 21
-151.687713
 31
0.0
  0
LINE
  8
0
  6
BYLAYER
 62
     7
 10
1352.749147
 20
-143.687713
 30
0.0
 11
1360.749147
 21
-143.687713
 31
0.0
  0
LINE
  8
0
  6
BYLAYER
 62
     7
 10
1360.749147
 20
-151.687713
 30
0.0
 11
1360.749147
 21
-143.687713
 31
0.0
  0
LINE
  8
0
  6
BYLAYER
 62
     7
 10
1352.749147
 20
-141.687713
 30
0.0
 11
1360.749147
 21
-141.687713
 31
0.0
  0
LINE
  8
0
  6
BYLAYER
 62
     7
 10
1352.749147
 20
-133.687713
 30
0.0
 11
1352.749147
 21
-141.687713
 31
0.0
  0
LINE
  8
0
  6
BYLAYER
 62
     7
 10
1352.749147
 20
-133.687713
 30
0.0
 11
1360.749147
 21
-133.687713
 31
0.0
  0
LINE
  8
0
  6
BYLAYER
 62
     7
 10
1360.749147
 20
-141.687713
 30
0.0
 11
1360.749147
 21
-133.687713
 31
0.0
  0
LINE
  8
0
  6
BYLAYER
 62
     7
 10
1362.749147
 20
-171.687713
 30
0.0
 11
1370.749147
 21
-171.687713
 31
0.0
  0
LINE
  8
0
  6
BYLAYER
 62
     7
 10
1362.749147
 20
-163.687713
 30
0.0
 11
1362.749147
 21
-171.687713
 31
0.0
  0
LINE
  8
0
  6
BYLAYER
 62
     7
 10
1362.749147
 20
-163.687713
 30
0.0
 11
1370.749147
 21
-163.687713
 31
0.0
  0
LINE
  8
0
  6
BYLAYER
 62
     7
 10
1370.749147
 20
-171.687713
 30
0.0
 11
1370.749147
 21
-163.687713
 31
0.0
  0
LINE
  8
0
  6
BYLAYER
 62
     7
 10
1362.749147
 20
-161.687713
 30
0.0
 11
1370.749147
 21
-161.687713
 31
0.0
  0
LINE
  8
0
  6
BYLAYER
 62
     7
 10
1362.749147
 20
-153.687713
 30
0.0
 11
1362.749147
 21
-161.687713
 31
0.0
  0
LINE
  8
0
  6
BYLAYER
 62
     7
 10
1362.749147
 20
-153.687713
 30
0.0
 11
1370.749147
 21
-153.687713
 31
0.0
  0
LINE
  8
0
  6
BYLAYER
 62
     7
 10
1370.749147
 20
-161.687713
 30
0.0
 11
1370.749147
 21
-153.687713
 31
0.0
  0
LINE
  8
0
  6
BYLAYER
 62
     7
 10
1280.749147
 20
-143.687713
 30
0.0
 11
1280.749147
 21
-151.687713
 31
0.0
  0
LINE
  8
0
  6
BYLAYER
 62
     7
 10
1280.749147
 20
-133.687713
 30
0.0
 11
1280.749147
 21
-141.687713
 31
0.0
  0
LINE
  8
0
  6
BYLAYER
 62
     7
 10
1272.749147
 20
-141.687713
 30
0.0
 11
1272.749147
 21
-133.687713
 31
0.0
  0
LINE
  8
0
  6
BYLAYER
 62
     7
 10
1270.749147
 20
-141.687713
 30
0.0
 11
1270.749147
 21
-133.687713
 31
0.0
  0
LINE
  8
0
  6
BYLAYER
 62
     7
 10
1280.749147
 20
-151.687713
 30
0.0
 11
1272.749147
 21
-151.687713
 31
0.0
  0
LINE
  8
0
  6
BYLAYER
 62
     7
 10
1280.749147
 20
-143.687713
 30
0.0
 11
1272.749147
 21
-143.687713
 31
0.0
  0
LINE
  8
0
  6
BYLAYER
 62
     7
 10
1270.749147
 20
-141.687713
 30
0.0
 11
1262.911148
 21
-141.687713
 31
0.0
  0
LINE
  8
0
  6
BYLAYER
 62
     7
 10
1280.749147
 20
-141.687713
 30
0.0
 11
1272.749147
 21
-141.687713
 31
0.0
  0
LINE
  8
0
  6
BYLAYER
 62
     7
 10
1270.749147
 20
-133.687713
 30
0.0
 11
1262.911148
 21
-133.687713
 31
0.0
  0
LINE
  8
0
  6
BYLAYER
 62
     7
 10
1280.749147
 20
-133.687713
 30
0.0
 11
1272.749147
 21
-133.687713
 31
0.0
  0
LINE
  8
0
  6
BYLAYER
 62
     7
 10
1262.911148
 20
-141.687713
 30
0.0
 11
1262.911148
 21
-133.687713
 31
0.0
  0
LINE
  8
0
  6
BYLAYER
 62
     7
 10
1272.749147
 20
-151.687713
 30
0.0
 11
1272.749147
 21
-143.687713
 31
0.0
  0
LINE
  8
0
  6
BYLAYER
 62
     7
 10
1270.749147
 20
-143.687713
 30
0.0
 11
1270.749147
 21
-151.687713
 31
0.0
  0
LINE
  8
0
  6
BYLAYER
 62
     7
 10
1270.749147
 20
-151.687713
 30
0.0
 11
1262.749147
 21
-151.687713
 31
0.0
  0
LINE
  8
0
  6
BYLAYER
 62
     7
 10
1270.749147
 20
-143.687713
 30
0.0
 11
1262.749147
 21
-143.687713
 31
0.0
  0
LINE
  8
0
  6
BYLAYER
 62
     7
 10
1262.749147
 20
-151.687713
 30
0.0
 11
1262.749147
 21
-143.687713
 31
0.0
  0
LINE
  8
0
  6
BYLAYER
 62
     7
 10
1260.749147
 20
-161.687713
 30
0.0
 11
1252.749147
 21
-161.687713
 31
0.0
  0
LINE
  8
0
  6
BYLAYER
 62
     7
 10
1260.749147
 20
-143.687713
 30
0.0
 11
1260.749147
 21
-151.687713
 31
0.0
  0
LINE
  8
0
  6
BYLAYER
 62
     7
 10
1260.749147
 20
-153.687713
 30
0.0
 11
1260.749147
 21
-161.687713
 31
0.0
  0
LINE
  8
0
  6
BYLAYER
 62
     7
 10
1260.749147
 20
-153.687713
 30
0.0
 11
1252.749147
 21
-153.687713
 31
0.0
  0
LINE
  8
0
  6
BYLAYER
 62
     7
 10
1260.749147
 20
-151.687713
 30
0.0
 11
1252.749147
 21
-151.687713
 31
0.0
  0
LINE
  8
0
  6
BYLAYER
 62
     7
 10
1260.749147
 20
-143.687713
 30
0.0
 11
1252.749147
 21
-143.687713
 31
0.0
  0
LINE
  8
0
  6
BYLAYER
 62
     7
 10
1252.749147
 20
-161.687713
 30
0.0
 11
1252.749147
 21
-153.687713
 31
0.0
  0
LINE
  8
0
  6
BYLAYER
 62
     7
 10
1252.749147
 20
-151.687713
 30
0.0
 11
1252.749147
 21
-143.687713
 31
0.0
  0
LINE
  8
0
  6
BYLAYER
 62
     7
 10
1260.749147
 20
-171.687713
 30
0.0
 11
1252.749147
 21
-171.687713
 31
0.0
  0
LINE
  8
0
  6
BYLAYER
 62
     7
 10
1260.749147
 20
-163.687713
 30
0.0
 11
1260.749147
 21
-171.687713
 31
0.0
  0
LINE
  8
0
  6
BYLAYER
 62
     7
 10
1260.749147
 20
-163.687713
 30
0.0
 11
1252.749147
 21
-163.687713
 31
0.0
  0
LINE
  8
0
  6
BYLAYER
 62
     7
 10
1252.749147
 20
-171.687713
 30
0.0
 11
1252.749147
 21
-163.687713
 31
0.0
  0
LINE
  8
0
  6
BYLAYER
 62
     7
 10
1250.749147
 20
-161.687713
 30
0.0
 11
1242.749147
 21
-161.687713
 31
0.0
  0
LINE
  8
0
  6
BYLAYER
 62
     7
 10
1250.749147
 20
-153.687713
 30
0.0
 11
1250.749147
 21
-161.687713
 31
0.0
  0
LINE
  8
0
  6
BYLAYER
 62
     7
 10
1250.749147
 20
-153.687713
 30
0.0
 11
1242.749147
 21
-153.687713
 31
0.0
  0
LINE
  8
0
  6
BYLAYER
 62
     7
 10
1242.749147
 20
-161.687713
 30
0.0
 11
1242.749147
 21
-153.687713
 31
0.0
  0
LINE
  8
0
  6
BYLAYER
 62
     7
 10
1250.749147
 20
-171.687713
 30
0.0
 11
1242.749147
 21
-171.687713
 31
0.0
  0
LINE
  8
0
  6
BYLAYER
 62
     7
 10
1250.749147
 20
-163.687713
 30
0.0
 11
1250.749147
 21
-171.687713
 31
0.0
  0
LINE
  8
0
  6
BYLAYER
 62
     7
 10
1250.749147
 20
-163.687713
 30
0.0
 11
1242.749147
 21
-163.687713
 31
0.0
  0
LINE
  8
0
  6
BYLAYER
 62
     7
 10
1242.749147
 20
-171.687713
 30
0.0
 11
1242.749147
 21
-163.687713
 31
0.0
  0
LINE
  8
0
  6
BYLAYER
 62
     7
 10
1240.749147
 20
-161.687713
 30
0.0
 11
1232.749147
 21
-161.687713
 31
0.0
  0
LINE
  8
0
  6
BYLAYER
 62
     7
 10
1240.749147
 20
-153.687713
 30
0.0
 11
1240.749147
 21
-161.687713
 31
0.0
  0
LINE
  8
0
  6
BYLAYER
 62
     7
 10
1240.749147
 20
-153.687713
 30
0.0
 11
1232.749147
 21
-153.687713
 31
0.0
  0
LINE
  8
0
  6
BYLAYER
 62
     7
 10
1232.749147
 20
-161.687713
 30
0.0
 11
1232.749147
 21
-153.687713
 31
0.0
  0
LINE
  8
0
  6
BYLAYER
 62
     7
 10
1240.749147
 20
-171.687713
 30
0.0
 11
1232.749147
 21
-171.687713
 31
0.0
  0
LINE
  8
0
  6
BYLAYER
 62
     7
 10
1240.749147
 20
-163.687713
 30
0.0
 11
1240.749147
 21
-171.687713
 31
0.0
  0
LINE
  8
0
  6
BYLAYER
 62
     7
 10
1240.749147
 20
-163.687713
 30
0.0
 11
1232.749147
 21
-163.687713
 31
0.0
  0
LINE
  8
0
  6
BYLAYER
 62
     7
 10
1232.749147
 20
-171.687713
 30
0.0
 11
1232.749147
 21
-163.687713
 31
0.0
  0
LINE
  8
0
  6
BYLAYER
 62
     7
 10
1280.749147
 20
-123.687713
 30
0.0
 11
1280.749147
 21
-131.687713
 31
0.0
  0
LINE
  8
0
  6
BYLAYER
 62
     7
 10
1272.749147
 20
-131.687713
 30
0.0
 11
1272.749147
 21
-123.687713
 31
0.0
  0
LINE
  8
0
  6
BYLAYER
 62
     7
 10
1270.749147
 20
-131.687713
 30
0.0
 11
1270.749147
 21
-123.687713
 31
0.0
  0
LINE
  8
0
  6
BYLAYER
 62
     7
 10
1270.749147
 20
-131.687713
 30
0.0
 11
1262.911148
 21
-131.687713
 31
0.0
  0
LINE
  8
0
  6
BYLAYER
 62
     7
 10
1280.749147
 20
-131.687713
 30
0.0
 11
1272.749147
 21
-131.687713
 31
0.0
  0
LINE
  8
0
  6
BYLAYER
 62
     7
 10
1270.749147
 20
-123.687713
 30
0.0
 11
1262.911148
 21
-123.687713
 31
0.0
  0
LINE
  8
0
  6
BYLAYER
 62
     7
 10
1280.749147
 20
-123.687713
 30
0.0
 11
1272.749147
 21
-123.687713
 31
0.0
  0
LINE
  8
0
  6
BYLAYER
 62
     7
 10
1262.911148
 20
-131.687713
 30
0.0
 11
1262.911148
 21
-123.687713
 31
0.0
  0
LINE
  8
0
  6
BYLAYER
 62
     7
 10
1260.749147
 20
-133.687713
 30
0.0
 11
1260.749147
 21
-141.687713
 31
0.0
  0
LINE
  8
0
  6
BYLAYER
 62
     7
 10
1260.749147
 20
-141.687713
 30
0.0
 11
1252.749147
 21
-141.687713
 31
0.0
  0
LINE
  8
0
  6
BYLAYER
 62
     7
 10
1260.749147
 20
-133.687713
 30
0.0
 11
1252.749147
 21
-133.687713
 31
0.0
  0
LINE
  8
0
  6
BYLAYER
 62
     7
 10
1252.749147
 20
-141.687713
 30
0.0
 11
1252.749147
 21
-133.687713
 31
0.0
  0
LINE
  8
0
  6
BYLAYER
 62
     7
 10
1260.749147
 20
-123.687713
 30
0.0
 11
1260.749147
 21
-131.687713
 31
0.0
  0
LINE
  8
0
  6
BYLAYER
 62
     7
 10
1260.749147
 20
-131.687713
 30
0.0
 11
1252.749147
 21
-131.687713
 31
0.0
  0
LINE
  8
0
  6
BYLAYER
 62
     7
 10
1260.749147
 20
-123.687713
 30
0.0
 11
1252.749147
 21
-123.687713
 31
0.0
  0
LINE
  8
0
  6
BYLAYER
 62
     7
 10
1252.749147
 20
-131.687713
 30
0.0
 11
1252.749147
 21
-123.687713
 31
0.0
  0
LINE
  8
0
  6
BYLAYER
 62
     7
 10
1250.749147
 20
-143.687713
 30
0.0
 11
1250.749147
 21
-151.687713
 31
0.0
  0
LINE
  8
0
  6
BYLAYER
 62
     7
 10
1250.749147
 20
-151.687713
 30
0.0
 11
1242.749147
 21
-151.687713
 31
0.0
  0
LINE
  8
0
  6
BYLAYER
 62
     7
 10
1250.749147
 20
-143.687713
 30
0.0
 11
1242.749147
 21
-143.687713
 31
0.0
  0
LINE
  8
0
  6
BYLAYER
 62
     7
 10
1242.749147
 20
-151.687713
 30
0.0
 11
1242.749147
 21
-143.687713
 31
0.0
  0
LINE
  8
0
  6
BYLAYER
 62
     7
 10
1250.749147
 20
-133.687713
 30
0.0
 11
1250.749147
 21
-141.687713
 31
0.0
  0
LINE
  8
0
  6
BYLAYER
 62
     7
 10
1250.749147
 20
-141.687713
 30
0.0
 11
1242.749147
 21
-141.687713
 31
0.0
  0
LINE
  8
0
  6
BYLAYER
 62
     7
 10
1250.749147
 20
-133.687713
 30
0.0
 11
1242.749147
 21
-133.687713
 31
0.0
  0
LINE
  8
0
  6
BYLAYER
 62
     7
 10
1242.749147
 20
-141.687713
 30
0.0
 11
1242.749147
 21
-133.687713
 31
0.0
  0
LINE
  8
0
  6
BYLAYER
 62
     7
 10
1240.749147
 20
-143.687713
 30
0.0
 11
1240.749147
 21
-151.687713
 31
0.0
  0
LINE
  8
0
  6
BYLAYER
 62
     7
 10
1240.749147
 20
-151.687713
 30
0.0
 11
1232.749147
 21
-151.687713
 31
0.0
  0
LINE
  8
0
  6
BYLAYER
 62
     7
 10
1240.749147
 20
-143.687713
 30
0.0
 11
1232.749147
 21
-143.687713
 31
0.0
  0
LINE
  8
0
  6
BYLAYER
 62
     7
 10
1232.749147
 20
-151.687713
 30
0.0
 11
1232.749147
 21
-143.687713
 31
0.0
  0
LINE
  8
0
  6
BYLAYER
 62
     7
 10
1230.749147
 20
-161.687713
 30
0.0
 11
1222.749147
 21
-161.687713
 31
0.0
  0
LINE
  8
0
  6
BYLAYER
 62
     7
 10
1230.749147
 20
-153.687713
 30
0.0
 11
1230.749147
 21
-161.687713
 31
0.0
  0
LINE
  8
0
  6
BYLAYER
 62
     7
 10
1230.749147
 20
-153.687713
 30
0.0
 11
1222.749147
 21
-153.687713
 31
0.0
  0
LINE
  8
0
  6
BYLAYER
 62
     7
 10
1222.749147
 20
-161.687713
 30
0.0
 11
1222.749147
 21
-153.687713
 31
0.0
  0
LINE
  8
0
  6
BYLAYER
 62
     7
 10
1230.749147
 20
-171.687713
 30
0.0
 11
1222.749147
 21
-171.687713
 31
0.0
  0
LINE
  8
0
  6
BYLAYER
 62
     7
 10
1230.749147
 20
-163.687713
 30
0.0
 11
1230.749147
 21
-171.687713
 31
0.0
  0
LINE
  8
0
  6
BYLAYER
 62
     7
 10
1230.749147
 20
-163.687713
 30
0.0
 11
1222.749147
 21
-163.687713
 31
0.0
  0
LINE
  8
0
  6
BYLAYER
 62
     7
 10
1222.749147
 20
-171.687713
 30
0.0
 11
1222.749147
 21
-163.687713
 31
0.0
  0
LINE
  8
0
  6
BYLAYER
 62
     7
 10
1230.749147
 20
-143.687713
 30
0.0
 11
1230.749147
 21
-151.687713
 31
0.0
  0
LINE
  8
0
  6
BYLAYER
 62
     7
 10
1230.749147
 20
-151.687713
 30
0.0
 11
1222.749147
 21
-151.687713
 31
0.0
  0
LINE
  8
0
  6
BYLAYER
 62
     7
 10
1230.749147
 20
-143.687713
 30
0.0
 11
1222.749147
 21
-143.687713
 31
0.0
  0
LINE
  8
0
  6
BYLAYER
 62
     7
 10
1222.749147
 20
-151.687713
 30
0.0
 11
1222.749147
 21
-143.687713
 31
0.0
  0
LINE
  8
0
  6
BYLAYER
 62
     7
 10
1280.749147
 20
-113.687713
 30
0.0
 11
1280.749147
 21
-121.687713
 31
0.0
  0
LINE
  8
0
  6
BYLAYER
 62
     7
 10
1272.749147
 20
-121.687713
 30
0.0
 11
1272.749147
 21
-113.687713
 31
0.0
  0
LINE
  8
0
  6
BYLAYER
 62
     7
 10
1270.749147
 20
-121.687713
 30
0.0
 11
1270.749147
 21
-113.687713
 31
0.0
  0
LINE
  8
0
  6
BYLAYER
 62
     7
 10
1270.749147
 20
-121.687713
 30
0.0
 11
1262.911148
 21
-121.687713
 31
0.0
  0
LINE
  8
0
  6
BYLAYER
 62
     7
 10
1280.749147
 20
-121.687713
 30
0.0
 11
1272.749147
 21
-121.687713
 31
0.0
  0
LINE
  8
0
  6
BYLAYER
 62
     7
 10
1270.749147
 20
-113.687713
 30
0.0
 11
1262.911148
 21
-113.687713
 31
0.0
  0
LINE
  8
0
  6
BYLAYER
 62
     7
 10
1280.749147
 20
-113.687713
 30
0.0
 11
1272.749147
 21
-113.687713
 31
0.0
  0
LINE
  8
0
  6
BYLAYER
 62
     7
 10
1262.911148
 20
-121.687713
 30
0.0
 11
1262.911148
 21
-113.687713
 31
0.0
  0
LINE
  8
0
  6
BYLAYER
 62
     7
 10
1260.749147
 20
-113.687713
 30
0.0
 11
1260.749147
 21
-121.687713
 31
0.0
  0
LINE
  8
0
  6
BYLAYER
 62
     7
 10
1260.749147
 20
-121.687713
 30
0.0
 11
1252.749147
 21
-121.687713
 31
0.0
  0
LINE
  8
0
  6
BYLAYER
 62
     7
 10
1260.749147
 20
-113.687713
 30
0.0
 11
1252.749147
 21
-113.687713
 31
0.0
  0
LINE
  8
0
  6
BYLAYER
 62
     7
 10
1252.749147
 20
-121.687713
 30
0.0
 11
1252.749147
 21
-113.687713
 31
0.0
  0
LINE
  8
0
  6
BYLAYER
 62
     7
 10
1250.749147
 20
-123.687713
 30
0.0
 11
1250.749147
 21
-131.687713
 31
0.0
  0
LINE
  8
0
  6
BYLAYER
 62
     7
 10
1250.749147
 20
-131.687713
 30
0.0
 11
1242.749147
 21
-131.687713
 31
0.0
  0
LINE
  8
0
  6
BYLAYER
 62
     7
 10
1250.749147
 20
-123.687713
 30
0.0
 11
1242.749147
 21
-123.687713
 31
0.0
  0
LINE
  8
0
  6
BYLAYER
 62
     7
 10
1242.749147
 20
-131.687713
 30
0.0
 11
1242.749147
 21
-123.687713
 31
0.0
  0
LINE
  8
0
  6
BYLAYER
 62
     7
 10
1240.749147
 20
-133.687713
 30
0.0
 11
1240.749147
 21
-141.687713
 31
0.0
  0
LINE
  8
0
  6
BYLAYER
 62
     7
 10
1240.749147
 20
-141.687713
 30
0.0
 11
1232.749147
 21
-141.687713
 31
0.0
  0
LINE
  8
0
  6
BYLAYER
 62
     7
 10
1240.749147
 20
-133.687713
 30
0.0
 11
1232.749147
 21
-133.687713
 31
0.0
  0
LINE
  8
0
  6
BYLAYER
 62
     7
 10
1232.749147
 20
-141.687713
 30
0.0
 11
1232.749147
 21
-133.687713
 31
0.0
  0
LINE
  8
0
  6
BYLAYER
 62
     7
 10
1280.749147
 20
-103.687713
 30
0.0
 11
1280.749147
 21
-111.687713
 31
0.0
  0
LINE
  8
0
  6
BYLAYER
 62
     7
 10
1272.749147
 20
-111.687713
 30
0.0
 11
1272.749147
 21
-103.687713
 31
0.0
  0
LINE
  8
0
  6
BYLAYER
 62
     7
 10
1270.749147
 20
-111.687713
 30
0.0
 11
1270.749147
 21
-103.687713
 31
0.0
  0
LINE
  8
0
  6
BYLAYER
 62
     7
 10
1270.749147
 20
-111.687713
 30
0.0
 11
1262.911148
 21
-111.687713
 31
0.0
  0
LINE
  8
0
  6
BYLAYER
 62
     7
 10
1280.749147
 20
-111.687713
 30
0.0
 11
1272.749147
 21
-111.687713
 31
0.0
  0
LINE
  8
0
  6
BYLAYER
 62
     7
 10
1270.749147
 20
-103.687713
 30
0.0
 11
1262.911148
 21
-103.687713
 31
0.0
  0
LINE
  8
0
  6
BYLAYER
 62
     7
 10
1280.749147
 20
-103.687713
 30
0.0
 11
1272.749147
 21
-103.687713
 31
0.0
  0
LINE
  8
0
  6
BYLAYER
 62
     7
 10
1262.911148
 20
-111.687713
 30
0.0
 11
1262.911148
 21
-103.687713
 31
0.0
  0
LINE
  8
0
  6
BYLAYER
 62
     7
 10
1220.749147
 20
-161.687713
 30
0.0
 11
1212.749147
 21
-161.687713
 31
0.0
  0
LINE
  8
0
  6
BYLAYER
 62
     7
 10
1220.749147
 20
-153.687713
 30
0.0
 11
1220.749147
 21
-161.687713
 31
0.0
  0
LINE
  8
0
  6
BYLAYER
 62
     7
 10
1220.749147
 20
-153.687713
 30
0.0
 11
1212.749147
 21
-153.687713
 31
0.0
  0
LINE
  8
0
  6
BYLAYER
 62
     7
 10
1212.749147
 20
-161.687713
 30
0.0
 11
1212.749147
 21
-153.687713
 31
0.0
  0
LINE
  8
0
  6
BYLAYER
 62
     7
 10
1220.749147
 20
-171.687713
 30
0.0
 11
1212.749147
 21
-171.687713
 31
0.0
  0
LINE
  8
0
  6
BYLAYER
 62
     7
 10
1220.749147
 20
-163.687713
 30
0.0
 11
1220.749147
 21
-171.687713
 31
0.0
  0
LINE
  8
0
  6
BYLAYER
 62
     7
 10
1220.749147
 20
-163.687713
 30
0.0
 11
1212.749147
 21
-163.687713
 31
0.0
  0
LINE
  8
0
  6
BYLAYER
 62
     7
 10
1212.749147
 20
-171.687713
 30
0.0
 11
1212.749147
 21
-163.687713
 31
0.0
  0
LINE
  8
0
  6
BYLAYER
 62
     7
 10
1250.749147
 20
-113.687713
 30
0.0
 11
1250.749147
 21
-121.687713
 31
0.0
  0
LINE
  8
0
  6
BYLAYER
 62
     7
 10
1250.749147
 20
-121.687713
 30
0.0
 11
1242.749147
 21
-121.687713
 31
0.0
  0
LINE
  8
0
  6
BYLAYER
 62
     7
 10
1250.749147
 20
-113.687713
 30
0.0
 11
1242.749147
 21
-113.687713
 31
0.0
  0
LINE
  8
0
  6
BYLAYER
 62
     7
 10
1242.749147
 20
-121.687713
 30
0.0
 11
1242.749147
 21
-113.687713
 31
0.0
  0
LINE
  8
0
  6
BYLAYER
 62
     7
 10
1240.749147
 20
-123.687713
 30
0.0
 11
1240.749147
 21
-131.687713
 31
0.0
  0
LINE
  8
0
  6
BYLAYER
 62
     7
 10
1240.749147
 20
-131.687713
 30
0.0
 11
1232.749147
 21
-131.687713
 31
0.0
  0
LINE
  8
0
  6
BYLAYER
 62
     7
 10
1240.749147
 20
-123.687713
 30
0.0
 11
1232.749147
 21
-123.687713
 31
0.0
  0
LINE
  8
0
  6
BYLAYER
 62
     7
 10
1232.749147
 20
-131.687713
 30
0.0
 11
1232.749147
 21
-123.687713
 31
0.0
  0
LINE
  8
0
  6
BYLAYER
 62
     7
 10
1230.749147
 20
-133.687713
 30
0.0
 11
1230.749147
 21
-141.687713
 31
0.0
  0
LINE
  8
0
  6
BYLAYER
 62
     7
 10
1230.749147
 20
-141.687713
 30
0.0
 11
1222.749147
 21
-141.687713
 31
0.0
  0
LINE
  8
0
  6
BYLAYER
 62
     7
 10
1230.749147
 20
-133.687713
 30
0.0
 11
1222.749147
 21
-133.687713
 31
0.0
  0
LINE
  8
0
  6
BYLAYER
 62
     7
 10
1222.749147
 20
-141.687713
 30
0.0
 11
1222.749147
 21
-133.687713
 31
0.0
  0
LINE
  8
0
  6
BYLAYER
 62
     7
 10
1280.749147
 20
-93.687713
 30
0.0
 11
1280.749147
 21
-101.687713
 31
0.0
  0
LINE
  8
0
  6
BYLAYER
 62
     7
 10
1272.749147
 20
-101.687713
 30
0.0
 11
1272.749147
 21
-93.687713
 31
0.0
  0
LINE
  8
0
  6
BYLAYER
 62
     7
 10
1280.749147
 20
-101.687713
 30
0.0
 11
1272.749147
 21
-101.687713
 31
0.0
  0
LINE
  8
0
  6
BYLAYER
 62
     7
 10
1280.749147
 20
-93.687713
 30
0.0
 11
1272.749147
 21
-93.687713
 31
0.0
  0
LINE
  8
0
  6
BYLAYER
 62
     7
 10
1210.749147
 20
-171.687713
 30
0.0
 11
1202.749147
 21
-171.687713
 31
0.0
  0
LINE
  8
0
  6
BYLAYER
 62
     7
 10
1210.749147
 20
-163.687713
 30
0.0
 11
1210.749147
 21
-171.687713
 31
0.0
  0
LINE
  8
0
  6
BYLAYER
 62
     7
 10
1210.749147
 20
-163.687713
 30
0.0
 11
1202.749147
 21
-163.687713
 31
0.0
  0
LINE
  8
0
  6
BYLAYER
 62
     7
 10
1202.749147
 20
-171.687713
 30
0.0
 11
1202.749147
 21
-163.687713
 31
0.0
  0
LINE
  8
0
  6
BYLAYER
 62
     7
 10
1260.749147
 20
-103.687713
 30
0.0
 11
1260.749147
 21
-111.687713
 31
0.0
  0
LINE
  8
0
  6
BYLAYER
 62
     7
 10
1260.749147
 20
-111.687713
 30
0.0
 11
1252.749147
 21
-111.687713
 31
0.0
  0
LINE
  8
0
  6
BYLAYER
 62
     7
 10
1260.749147
 20
-103.687713
 30
0.0
 11
1252.749147
 21
-103.687713
 31
0.0
  0
LINE
  8
0
  6
BYLAYER
 62
     7
 10
1252.749147
 20
-111.687713
 30
0.0
 11
1252.749147
 21
-103.687713
 31
0.0
  0
LINE
  8
0
  6
BYLAYER
 62
     7
 10
1220.749147
 20
-143.687713
 30
0.0
 11
1220.749147
 21
-151.687713
 31
0.0
  0
LINE
  8
0
  6
BYLAYER
 62
     7
 10
1220.749147
 20
-151.687713
 30
0.0
 11
1212.749147
 21
-151.687713
 31
0.0
  0
LINE
  8
0
  6
BYLAYER
 62
     7
 10
1220.749147
 20
-143.687713
 30
0.0
 11
1212.749147
 21
-143.687713
 31
0.0
  0
LINE
  8
0
  6
BYLAYER
 62
     7
 10
1212.749147
 20
-151.687713
 30
0.0
 11
1212.749147
 21
-143.687713
 31
0.0
  0
LINE
  8
0
  6
BYLAYER
 62
     7
 10
1250.749147
 20
-103.687713
 30
0.0
 11
1250.749147
 21
-111.687713
 31
0.0
  0
LINE
  8
0
  6
BYLAYER
 62
     7
 10
1250.749147
 20
-111.687713
 30
0.0
 11
1242.749147
 21
-111.687713
 31
0.0
  0
LINE
  8
0
  6
BYLAYER
 62
     7
 10
1250.749147
 20
-103.687713
 30
0.0
 11
1242.749147
 21
-103.687713
 31
0.0
  0
LINE
  8
0
  6
BYLAYER
 62
     7
 10
1242.749147
 20
-111.687713
 30
0.0
 11
1242.749147
 21
-103.687713
 31
0.0
  0
LINE
  8
0
  6
BYLAYER
 62
     7
 10
1240.749147
 20
-113.687713
 30
0.0
 11
1240.749147
 21
-121.687713
 31
0.0
  0
LINE
  8
0
  6
BYLAYER
 62
     7
 10
1240.749147
 20
-121.687713
 30
0.0
 11
1232.749147
 21
-121.687713
 31
0.0
  0
LINE
  8
0
  6
BYLAYER
 62
     7
 10
1240.749147
 20
-113.687713
 30
0.0
 11
1232.749147
 21
-113.687713
 31
0.0
  0
LINE
  8
0
  6
BYLAYER
 62
     7
 10
1232.749147
 20
-121.687713
 30
0.0
 11
1232.749147
 21
-113.687713
 31
0.0
  0
LINE
  8
0
  6
BYLAYER
 62
     7
 10
1230.749147
 20
-123.687713
 30
0.0
 11
1230.749147
 21
-131.687713
 31
0.0
  0
LINE
  8
0
  6
BYLAYER
 62
     7
 10
1230.749147
 20
-131.687713
 30
0.0
 11
1222.749147
 21
-131.687713
 31
0.0
  0
LINE
  8
0
  6
BYLAYER
 62
     7
 10
1230.749147
 20
-123.687713
 30
0.0
 11
1222.749147
 21
-123.687713
 31
0.0
  0
LINE
  8
0
  6
BYLAYER
 62
     7
 10
1222.749147
 20
-131.687713
 30
0.0
 11
1222.749147
 21
-123.687713
 31
0.0
  0
LINE
  8
0
  6
BYLAYER
 62
     7
 10
1220.749147
 20
-133.687713
 30
0.0
 11
1220.749147
 21
-141.687713
 31
0.0
  0
LINE
  8
0
  6
BYLAYER
 62
     7
 10
1220.749147
 20
-141.687713
 30
0.0
 11
1212.749147
 21
-141.687713
 31
0.0
  0
LINE
  8
0
  6
BYLAYER
 62
     7
 10
1220.749147
 20
-133.687713
 30
0.0
 11
1212.749147
 21
-133.687713
 31
0.0
  0
LINE
  8
0
  6
BYLAYER
 62
     7
 10
1212.749147
 20
-141.687713
 30
0.0
 11
1212.749147
 21
-133.687713
 31
0.0
  0
LINE
  8
0
  6
BYLAYER
 62
     7
 10
1270.749147
 20
-101.687713
 30
0.0
 11
1270.749147
 21
-93.687713
 31
0.0
  0
LINE
  8
0
  6
BYLAYER
 62
     7
 10
1270.749147
 20
-101.687713
 30
0.0
 11
1262.911148
 21
-101.687713
 31
0.0
  0
LINE
  8
0
  6
BYLAYER
 62
     7
 10
1270.749147
 20
-93.687713
 30
0.0
 11
1262.911148
 21
-93.687713
 31
0.0
  0
LINE
  8
0
  6
BYLAYER
 62
     7
 10
1262.911148
 20
-101.687713
 30
0.0
 11
1262.911148
 21
-93.687713
 31
0.0
  0
LINE
  8
0
  6
BYLAYER
 62
     7
 10
1210.749147
 20
-161.687713
 30
0.0
 11
1202.749147
 21
-161.687713
 31
0.0
  0
LINE
  8
0
  6
BYLAYER
 62
     7
 10
1210.749147
 20
-153.687713
 30
0.0
 11
1210.749147
 21
-161.687713
 31
0.0
  0
LINE
  8
0
  6
BYLAYER
 62
     7
 10
1210.749147
 20
-153.687713
 30
0.0
 11
1202.749147
 21
-153.687713
 31
0.0
  0
LINE
  8
0
  6
BYLAYER
 62
     7
 10
1202.749147
 20
-161.687713
 30
0.0
 11
1202.749147
 21
-153.687713
 31
0.0
  0
LINE
  8
0
  6
BYLAYER
 62
     7
 10
1280.749147
 20
-83.687713
 30
0.0
 11
1280.749147
 21
-91.687713
 31
0.0
  0
LINE
  8
0
  6
BYLAYER
 62
     7
 10
1272.749147
 20
-91.687713
 30
0.0
 11
1272.749147
 21
-83.687713
 31
0.0
  0
LINE
  8
0
  6
BYLAYER
 62
     7
 10
1280.749147
 20
-91.687713
 30
0.0
 11
1272.749147
 21
-91.687713
 31
0.0
  0
LINE
  8
0
  6
BYLAYER
 62
     7
 10
1280.749147
 20
-83.687713
 30
0.0
 11
1272.749147
 21
-83.687713
 31
0.0
  0
LINE
  8
0
  6
BYLAYER
 62
     7
 10
1270.749147
 20
-91.687713
 30
0.0
 11
1270.749147
 21
-83.687713
 31
0.0
  0
LINE
  8
0
  6
BYLAYER
 62
     7
 10
1270.749147
 20
-91.687713
 30
0.0
 11
1262.911148
 21
-91.687713
 31
0.0
  0
LINE
  8
0
  6
BYLAYER
 62
     7
 10
1270.749147
 20
-83.687713
 30
0.0
 11
1262.911148
 21
-83.687713
 31
0.0
  0
LINE
  8
0
  6
BYLAYER
 62
     7
 10
1262.911148
 20
-91.687713
 30
0.0
 11
1262.911148
 21
-83.687713
 31
0.0
  0
LINE
  8
0
  6
BYLAYER
 62
     7
 10
1260.749147
 20
-93.687713
 30
0.0
 11
1260.749147
 21
-101.687713
 31
0.0
  0
LINE
  8
0
  6
BYLAYER
 62
     7
 10
1260.749147
 20
-101.687713
 30
0.0
 11
1252.749147
 21
-101.687713
 31
0.0
  0
LINE
  8
0
  6
BYLAYER
 62
     7
 10
1260.749147
 20
-93.687713
 30
0.0
 11
1252.749147
 21
-93.687713
 31
0.0
  0
LINE
  8
0
  6
BYLAYER
 62
     7
 10
1252.749147
 20
-101.687713
 30
0.0
 11
1252.749147
 21
-93.687713
 31
0.0
  0
LINE
  8
0
  6
BYLAYER
 62
     7
 10
1250.749147
 20
-93.687713
 30
0.0
 11
1250.749147
 21
-101.687713
 31
0.0
  0
LINE
  8
0
  6
BYLAYER
 62
     7
 10
1250.749147
 20
-101.687713
 30
0.0
 11
1242.749147
 21
-101.687713
 31
0.0
  0
LINE
  8
0
  6
BYLAYER
 62
     7
 10
1250.749147
 20
-93.687713
 30
0.0
 11
1242.749147
 21
-93.687713
 31
0.0
  0
LINE
  8
0
  6
BYLAYER
 62
     7
 10
1242.749147
 20
-101.687713
 30
0.0
 11
1242.749147
 21
-93.687713
 31
0.0
  0
LINE
  8
0
  6
BYLAYER
 62
     7
 10
1240.749147
 20
-103.687713
 30
0.0
 11
1240.749147
 21
-111.687713
 31
0.0
  0
LINE
  8
0
  6
BYLAYER
 62
     7
 10
1240.749147
 20
-111.687713
 30
0.0
 11
1232.749147
 21
-111.687713
 31
0.0
  0
LINE
  8
0
  6
BYLAYER
 62
     7
 10
1240.749147
 20
-103.687713
 30
0.0
 11
1232.749147
 21
-103.687713
 31
0.0
  0
LINE
  8
0
  6
BYLAYER
 62
     7
 10
1232.749147
 20
-111.687713
 30
0.0
 11
1232.749147
 21
-103.687713
 31
0.0
  0
LINE
  8
0
  6
BYLAYER
 62
     7
 10
1230.749147
 20
-113.687713
 30
0.0
 11
1230.749147
 21
-121.687713
 31
0.0
  0
LINE
  8
0
  6
BYLAYER
 62
     7
 10
1230.749147
 20
-121.687713
 30
0.0
 11
1222.749147
 21
-121.687713
 31
0.0
  0
LINE
  8
0
  6
BYLAYER
 62
     7
 10
1230.749147
 20
-113.687713
 30
0.0
 11
1222.749147
 21
-113.687713
 31
0.0
  0
LINE
  8
0
  6
BYLAYER
 62
     7
 10
1222.749147
 20
-121.687713
 30
0.0
 11
1222.749147
 21
-113.687713
 31
0.0
  0
LINE
  8
0
  6
BYLAYER
 62
     7
 10
1220.749147
 20
-123.687713
 30
0.0
 11
1220.749147
 21
-131.687713
 31
0.0
  0
LINE
  8
0
  6
BYLAYER
 62
     7
 10
1220.749147
 20
-131.687713
 30
0.0
 11
1212.749147
 21
-131.687713
 31
0.0
  0
LINE
  8
0
  6
BYLAYER
 62
     7
 10
1220.749147
 20
-123.687713
 30
0.0
 11
1212.749147
 21
-123.687713
 31
0.0
  0
LINE
  8
0
  6
BYLAYER
 62
     7
 10
1212.749147
 20
-131.687713
 30
0.0
 11
1212.749147
 21
-123.687713
 31
0.0
  0
LINE
  8
0
  6
BYLAYER
 62
     7
 10
1210.749147
 20
-151.687713
 30
0.0
 11
1202.749147
 21
-151.687713
 31
0.0
  0
LINE
  8
0
  6
BYLAYER
 62
     7
 10
1210.749147
 20
-143.687713
 30
0.0
 11
1210.749147
 21
-151.687713
 31
0.0
  0
LINE
  8
0
  6
BYLAYER
 62
     7
 10
1210.749147
 20
-143.687713
 30
0.0
 11
1202.749147
 21
-143.687713
 31
0.0
  0
LINE
  8
0
  6
BYLAYER
 62
     7
 10
1202.749147
 20
-151.687713
 30
0.0
 11
1202.749147
 21
-143.687713
 31
0.0
  0
LINE
  8
0
  6
BYLAYER
 62
     7
 10
1210.749147
 20
-141.687713
 30
0.0
 11
1202.749147
 21
-141.687713
 31
0.0
  0
LINE
  8
0
  6
BYLAYER
 62
     7
 10
1210.749147
 20
-133.687713
 30
0.0
 11
1210.749147
 21
-141.687713
 31
0.0
  0
LINE
  8
0
  6
BYLAYER
 62
     7
 10
1210.749147
 20
-133.687713
 30
0.0
 11
1202.749147
 21
-133.687713
 31
0.0
  0
LINE
  8
0
  6
BYLAYER
 62
     7
 10
1202.749147
 20
-141.687713
 30
0.0
 11
1202.749147
 21
-133.687713
 31
0.0
  0
LINE
  8
0
  6
BYLAYER
 62
     7
 10
1200.749147
 20
-171.687713
 30
0.0
 11
1192.749147
 21
-171.687713
 31
0.0
  0
LINE
  8
0
  6
BYLAYER
 62
     7
 10
1200.749147
 20
-163.687713
 30
0.0
 11
1200.749147
 21
-171.687713
 31
0.0
  0
LINE
  8
0
  6
BYLAYER
 62
     7
 10
1200.749147
 20
-163.687713
 30
0.0
 11
1192.749147
 21
-163.687713
 31
0.0
  0
LINE
  8
0
  6
BYLAYER
 62
     7
 10
1192.749147
 20
-171.687713
 30
0.0
 11
1192.749147
 21
-163.687713
 31
0.0
  0
LINE
  8
0
  6
BYLAYER
 62
     7
 10
1200.749147
 20
-161.687713
 30
0.0
 11
1192.749147
 21
-161.687713
 31
0.0
  0
LINE
  8
0
  6
BYLAYER
 62
     7
 10
1200.749147
 20
-153.687713
 30
0.0
 11
1200.749147
 21
-161.687713
 31
0.0
  0
LINE
  8
0
  6
BYLAYER
 62
     7
 10
1200.749147
 20
-153.687713
 30
0.0
 11
1192.749147
 21
-153.687713
 31
0.0
  0
LINE
  8
0
  6
BYLAYER
 62
     7
 10
1192.749147
 20
-161.687713
 30
0.0
 11
1192.749147
 21
-153.687713
 31
0.0
  0
LINE
  8
0
  6
BYLAYER
 62
     7
 10
1282.749147
 20
-201.687713
 30
0.0
 11
1282.749147
 21
-193.687713
 31
0.0
  0
LINE
  8
0
  6
BYLAYER
 62
     7
 10
1282.749147
 20
-211.687713
 30
0.0
 11
1282.749147
 21
-203.687713
 31
0.0
  0
LINE
  8
0
  6
BYLAYER
 62
     7
 10
1290.749147
 20
-203.687713
 30
0.0
 11
1290.749147
 21
-211.687713
 31
0.0
  0
LINE
  8
0
  6
BYLAYER
 62
     7
 10
1292.749147
 20
-203.687713
 30
0.0
 11
1292.749147
 21
-211.687713
 31
0.0
  0
LINE
  8
0
  6
BYLAYER
 62
     7
 10
1282.749147
 20
-193.687713
 30
0.0
 11
1290.749147
 21
-193.687713
 31
0.0
  0
LINE
  8
0
  6
BYLAYER
 62
     7
 10
1282.749147
 20
-201.687713
 30
0.0
 11
1290.749147
 21
-201.687713
 31
0.0
  0
LINE
  8
0
  6
BYLAYER
 62
     7
 10
1292.749147
 20
-203.687713
 30
0.0
 11
1300.587146
 21
-203.687713
 31
0.0
  0
LINE
  8
0
  6
BYLAYER
 62
     7
 10
1282.749147
 20
-203.687713
 30
0.0
 11
1290.749147
 21
-203.687713
 31
0.0
  0
LINE
  8
0
  6
BYLAYER
 62
     7
 10
1292.749147
 20
-211.687713
 30
0.0
 11
1300.587146
 21
-211.687713
 31
0.0
  0
LINE
  8
0
  6
BYLAYER
 62
     7
 10
1282.749147
 20
-211.687713
 30
0.0
 11
1290.749147
 21
-211.687713
 31
0.0
  0
LINE
  8
0
  6
BYLAYER
 62
     7
 10
1300.587146
 20
-203.687713
 30
0.0
 11
1300.587146
 21
-211.687713
 31
0.0
  0
LINE
  8
0
  6
BYLAYER
 62
     7
 10
1290.749147
 20
-193.687713
 30
0.0
 11
1290.749147
 21
-201.687713
 31
0.0
  0
LINE
  8
0
  6
BYLAYER
 62
     7
 10
1292.749147
 20
-201.687713
 30
0.0
 11
1292.749147
 21
-193.687713
 31
0.0
  0
LINE
  8
0
  6
BYLAYER
 62
     7
 10
1292.749147
 20
-193.687713
 30
0.0
 11
1300.749147
 21
-193.687713
 31
0.0
  0
LINE
  8
0
  6
BYLAYER
 62
     7
 10
1292.749147
 20
-201.687713
 30
0.0
 11
1300.749147
 21
-201.687713
 31
0.0
  0
LINE
  8
0
  6
BYLAYER
 62
     7
 10
1300.749147
 20
-193.687713
 30
0.0
 11
1300.749147
 21
-201.687713
 31
0.0
  0
LINE
  8
0
  6
BYLAYER
 62
     7
 10
1302.749147
 20
-183.687713
 30
0.0
 11
1310.749147
 21
-183.687713
 31
0.0
  0
LINE
  8
0
  6
BYLAYER
 62
     7
 10
1302.749147
 20
-201.687713
 30
0.0
 11
1302.749147
 21
-193.687713
 31
0.0
  0
LINE
  8
0
  6
BYLAYER
 62
     7
 10
1302.749147
 20
-191.687713
 30
0.0
 11
1302.749147
 21
-183.687713
 31
0.0
  0
LINE
  8
0
  6
BYLAYER
 62
     7
 10
1302.749147
 20
-191.687713
 30
0.0
 11
1310.749147
 21
-191.687713
 31
0.0
  0
LINE
  8
0
  6
BYLAYER
 62
     7
 10
1302.749147
 20
-193.687713
 30
0.0
 11
1310.749147
 21
-193.687713
 31
0.0
  0
LINE
  8
0
  6
BYLAYER
 62
     7
 10
1302.749147
 20
-201.687713
 30
0.0
 11
1310.749147
 21
-201.687713
 31
0.0
  0
LINE
  8
0
  6
BYLAYER
 62
     7
 10
1310.749147
 20
-183.687713
 30
0.0
 11
1310.749147
 21
-191.687713
 31
0.0
  0
LINE
  8
0
  6
BYLAYER
 62
     7
 10
1310.749147
 20
-193.687713
 30
0.0
 11
1310.749147
 21
-201.687713
 31
0.0
  0
LINE
  8
0
  6
BYLAYER
 62
     7
 10
1302.749147
 20
-173.687713
 30
0.0
 11
1310.749147
 21
-173.687713
 31
0.0
  0
LINE
  8
0
  6
BYLAYER
 62
     7
 10
1302.749147
 20
-181.687713
 30
0.0
 11
1302.749147
 21
-173.687713
 31
0.0
  0
LINE
  8
0
  6
BYLAYER
 62
     7
 10
1302.749147
 20
-181.687713
 30
0.0
 11
1310.749147
 21
-181.687713
 31
0.0
  0
LINE
  8
0
  6
BYLAYER
 62
     7
 10
1310.749147
 20
-173.687713
 30
0.0
 11
1310.749147
 21
-181.687713
 31
0.0
  0
LINE
  8
0
  6
BYLAYER
 62
     7
 10
1312.749147
 20
-183.687713
 30
0.0
 11
1320.749147
 21
-183.687713
 31
0.0
  0
LINE
  8
0
  6
BYLAYER
 62
     7
 10
1312.749147
 20
-191.687713
 30
0.0
 11
1312.749147
 21
-183.687713
 31
0.0
  0
LINE
  8
0
  6
BYLAYER
 62
     7
 10
1312.749147
 20
-191.687713
 30
0.0
 11
1320.749147
 21
-191.687713
 31
0.0
  0
LINE
  8
0
  6
BYLAYER
 62
     7
 10
1320.749147
 20
-183.687713
 30
0.0
 11
1320.749147
 21
-191.687713
 31
0.0
  0
LINE
  8
0
  6
BYLAYER
 62
     7
 10
1312.749147
 20
-173.687713
 30
0.0
 11
1320.749147
 21
-173.687713
 31
0.0
  0
LINE
  8
0
  6
BYLAYER
 62
     7
 10
1312.749147
 20
-181.687713
 30
0.0
 11
1312.749147
 21
-173.687713
 31
0.0
  0
LINE
  8
0
  6
BYLAYER
 62
     7
 10
1312.749147
 20
-181.687713
 30
0.0
 11
1320.749147
 21
-181.687713
 31
0.0
  0
LINE
  8
0
  6
BYLAYER
 62
     7
 10
1320.749147
 20
-173.687713
 30
0.0
 11
1320.749147
 21
-181.687713
 31
0.0
  0
LINE
  8
0
  6
BYLAYER
 62
     7
 10
1322.749147
 20
-183.687713
 30
0.0
 11
1330.749147
 21
-183.687713
 31
0.0
  0
LINE
  8
0
  6
BYLAYER
 62
     7
 10
1322.749147
 20
-191.687713
 30
0.0
 11
1322.749147
 21
-183.687713
 31
0.0
  0
LINE
  8
0
  6
BYLAYER
 62
     7
 10
1322.749147
 20
-191.687713
 30
0.0
 11
1330.749147
 21
-191.687713
 31
0.0
  0
LINE
  8
0
  6
BYLAYER
 62
     7
 10
1330.749147
 20
-183.687713
 30
0.0
 11
1330.749147
 21
-191.687713
 31
0.0
  0
LINE
  8
0
  6
BYLAYER
 62
     7
 10
1322.749147
 20
-173.687713
 30
0.0
 11
1330.749147
 21
-173.687713
 31
0.0
  0
LINE
  8
0
  6
BYLAYER
 62
     7
 10
1322.749147
 20
-181.687713
 30
0.0
 11
1322.749147
 21
-173.687713
 31
0.0
  0
LINE
  8
0
  6
BYLAYER
 62
     7
 10
1322.749147
 20
-181.687713
 30
0.0
 11
1330.749147
 21
-181.687713
 31
0.0
  0
LINE
  8
0
  6
BYLAYER
 62
     7
 10
1330.749147
 20
-173.687713
 30
0.0
 11
1330.749147
 21
-181.687713
 31
0.0
  0
LINE
  8
0
  6
BYLAYER
 62
     7
 10
1282.749147
 20
-221.687713
 30
0.0
 11
1282.749147
 21
-213.687713
 31
0.0
  0
LINE
  8
0
  6
BYLAYER
 62
     7
 10
1290.749147
 20
-213.687713
 30
0.0
 11
1290.749147
 21
-221.687713
 31
0.0
  0
LINE
  8
0
  6
BYLAYER
 62
     7
 10
1292.749147
 20
-213.687713
 30
0.0
 11
1292.749147
 21
-221.687713
 31
0.0
  0
LINE
  8
0
  6
BYLAYER
 62
     7
 10
1292.749147
 20
-213.687713
 30
0.0
 11
1300.587146
 21
-213.687713
 31
0.0
  0
LINE
  8
0
  6
BYLAYER
 62
     7
 10
1282.749147
 20
-213.687713
 30
0.0
 11
1290.749147
 21
-213.687713
 31
0.0
  0
LINE
  8
0
  6
BYLAYER
 62
     7
 10
1292.749147
 20
-221.687713
 30
0.0
 11
1300.587146
 21
-221.687713
 31
0.0
  0
LINE
  8
0
  6
BYLAYER
 62
     7
 10
1282.749147
 20
-221.687713
 30
0.0
 11
1290.749147
 21
-221.687713
 31
0.0
  0
LINE
  8
0
  6
BYLAYER
 62
     7
 10
1300.587146
 20
-213.687713
 30
0.0
 11
1300.587146
 21
-221.687713
 31
0.0
  0
LINE
  8
0
  6
BYLAYER
 62
     7
 10
1302.749147
 20
-211.687713
 30
0.0
 11
1302.749147
 21
-203.687713
 31
0.0
  0
LINE
  8
0
  6
BYLAYER
 62
     7
 10
1302.749147
 20
-203.687713
 30
0.0
 11
1310.749147
 21
-203.687713
 31
0.0
  0
LINE
  8
0
  6
BYLAYER
 62
     7
 10
1302.749147
 20
-211.687713
 30
0.0
 11
1310.749147
 21
-211.687713
 31
0.0
  0
LINE
  8
0
  6
BYLAYER
 62
     7
 10
1310.749147
 20
-203.687713
 30
0.0
 11
1310.749147
 21
-211.687713
 31
0.0
  0
LINE
  8
0
  6
BYLAYER
 62
     7
 10
1302.749147
 20
-221.687713
 30
0.0
 11
1302.749147
 21
-213.687713
 31
0.0
  0
LINE
  8
0
  6
BYLAYER
 62
     7
 10
1302.749147
 20
-213.687713
 30
0.0
 11
1310.749147
 21
-213.687713
 31
0.0
  0
LINE
  8
0
  6
BYLAYER
 62
     7
 10
1302.749147
 20
-221.687713
 30
0.0
 11
1310.749147
 21
-221.687713
 31
0.0
  0
LINE
  8
0
  6
BYLAYER
 62
     7
 10
1310.749147
 20
-213.687713
 30
0.0
 11
1310.749147
 21
-221.687713
 31
0.0
  0
LINE
  8
0
  6
BYLAYER
 62
     7
 10
1312.749147
 20
-201.687713
 30
0.0
 11
1312.749147
 21
-193.687713
 31
0.0
  0
LINE
  8
0
  6
BYLAYER
 62
     7
 10
1312.749147
 20
-193.687713
 30
0.0
 11
1320.749147
 21
-193.687713
 31
0.0
  0
LINE
  8
0
  6
BYLAYER
 62
     7
 10
1312.749147
 20
-201.687713
 30
0.0
 11
1320.749147
 21
-201.687713
 31
0.0
  0
LINE
  8
0
  6
BYLAYER
 62
     7
 10
1320.749147
 20
-193.687713
 30
0.0
 11
1320.749147
 21
-201.687713
 31
0.0
  0
LINE
  8
0
  6
BYLAYER
 62
     7
 10
1312.749147
 20
-211.687713
 30
0.0
 11
1312.749147
 21
-203.687713
 31
0.0
  0
LINE
  8
0
  6
BYLAYER
 62
     7
 10
1312.749147
 20
-203.687713
 30
0.0
 11
1320.749147
 21
-203.687713
 31
0.0
  0
LINE
  8
0
  6
BYLAYER
 62
     7
 10
1312.749147
 20
-211.687713
 30
0.0
 11
1320.749147
 21
-211.687713
 31
0.0
  0
LINE
  8
0
  6
BYLAYER
 62
     7
 10
1320.749147
 20
-203.687713
 30
0.0
 11
1320.749147
 21
-211.687713
 31
0.0
  0
LINE
  8
0
  6
BYLAYER
 62
     7
 10
1322.749147
 20
-201.687713
 30
0.0
 11
1322.749147
 21
-193.687713
 31
0.0
  0
LINE
  8
0
  6
BYLAYER
 62
     7
 10
1322.749147
 20
-193.687713
 30
0.0
 11
1330.749147
 21
-193.687713
 31
0.0
  0
LINE
  8
0
  6
BYLAYER
 62
     7
 10
1322.749147
 20
-201.687713
 30
0.0
 11
1330.749147
 21
-201.687713
 31
0.0
  0
LINE
  8
0
  6
BYLAYER
 62
     7
 10
1330.749147
 20
-193.687713
 30
0.0
 11
1330.749147
 21
-201.687713
 31
0.0
  0
LINE
  8
0
  6
BYLAYER
 62
     7
 10
1332.749147
 20
-183.687713
 30
0.0
 11
1340.749147
 21
-183.687713
 31
0.0
  0
LINE
  8
0
  6
BYLAYER
 62
     7
 10
1332.749147
 20
-191.687713
 30
0.0
 11
1332.749147
 21
-183.687713
 31
0.0
  0
LINE
  8
0
  6
BYLAYER
 62
     7
 10
1332.749147
 20
-191.687713
 30
0.0
 11
1340.749147
 21
-191.687713
 31
0.0
  0
LINE
  8
0
  6
BYLAYER
 62
     7
 10
1340.749147
 20
-183.687713
 30
0.0
 11
1340.749147
 21
-191.687713
 31
0.0
  0
LINE
  8
0
  6
BYLAYER
 62
     7
 10
1332.749147
 20
-173.687713
 30
0.0
 11
1340.749147
 21
-173.687713
 31
0.0
  0
LINE
  8
0
  6
BYLAYER
 62
     7
 10
1332.749147
 20
-181.687713
 30
0.0
 11
1332.749147
 21
-173.687713
 31
0.0
  0
LINE
  8
0
  6
BYLAYER
 62
     7
 10
1332.749147
 20
-181.687713
 30
0.0
 11
1340.749147
 21
-181.687713
 31
0.0
  0
LINE
  8
0
  6
BYLAYER
 62
     7
 10
1340.749147
 20
-173.687713
 30
0.0
 11
1340.749147
 21
-181.687713
 31
0.0
  0
LINE
  8
0
  6
BYLAYER
 62
     7
 10
1332.749147
 20
-201.687713
 30
0.0
 11
1332.749147
 21
-193.687713
 31
0.0
  0
LINE
  8
0
  6
BYLAYER
 62
     7
 10
1332.749147
 20
-193.687713
 30
0.0
 11
1340.749147
 21
-193.687713
 31
0.0
  0
LINE
  8
0
  6
BYLAYER
 62
     7
 10
1332.749147
 20
-201.687713
 30
0.0
 11
1340.749147
 21
-201.687713
 31
0.0
  0
LINE
  8
0
  6
BYLAYER
 62
     7
 10
1340.749147
 20
-193.687713
 30
0.0
 11
1340.749147
 21
-201.687713
 31
0.0
  0
LINE
  8
0
  6
BYLAYER
 62
     7
 10
1282.749147
 20
-231.687713
 30
0.0
 11
1282.749147
 21
-223.687713
 31
0.0
  0
LINE
  8
0
  6
BYLAYER
 62
     7
 10
1290.749147
 20
-223.687713
 30
0.0
 11
1290.749147
 21
-231.687713
 31
0.0
  0
LINE
  8
0
  6
BYLAYER
 62
     7
 10
1292.749147
 20
-223.687713
 30
0.0
 11
1292.749147
 21
-231.687713
 31
0.0
  0
LINE
  8
0
  6
BYLAYER
 62
     7
 10
1292.749147
 20
-223.687713
 30
0.0
 11
1300.587146
 21
-223.687713
 31
0.0
  0
LINE
  8
0
  6
BYLAYER
 62
     7
 10
1282.749147
 20
-223.687713
 30
0.0
 11
1290.749147
 21
-223.687713
 31
0.0
  0
LINE
  8
0
  6
BYLAYER
 62
     7
 10
1292.749147
 20
-231.687713
 30
0.0
 11
1300.587146
 21
-231.687713
 31
0.0
  0
LINE
  8
0
  6
BYLAYER
 62
     7
 10
1282.749147
 20
-231.687713
 30
0.0
 11
1290.749147
 21
-231.687713
 31
0.0
  0
LINE
  8
0
  6
BYLAYER
 62
     7
 10
1300.587146
 20
-223.687713
 30
0.0
 11
1300.587146
 21
-231.687713
 31
0.0
  0
LINE
  8
0
  6
BYLAYER
 62
     7
 10
1302.749147
 20
-231.687713
 30
0.0
 11
1302.749147
 21
-223.687713
 31
0.0
  0
LINE
  8
0
  6
BYLAYER
 62
     7
 10
1302.749147
 20
-223.687713
 30
0.0
 11
1310.749147
 21
-223.687713
 31
0.0
  0
LINE
  8
0
  6
BYLAYER
 62
     7
 10
1302.749147
 20
-231.687713
 30
0.0
 11
1310.749147
 21
-231.687713
 31
0.0
  0
LINE
  8
0
  6
BYLAYER
 62
     7
 10
1310.749147
 20
-223.687713
 30
0.0
 11
1310.749147
 21
-231.687713
 31
0.0
  0
LINE
  8
0
  6
BYLAYER
 62
     7
 10
1312.749147
 20
-221.687713
 30
0.0
 11
1312.749147
 21
-213.687713
 31
0.0
  0
LINE
  8
0
  6
BYLAYER
 62
     7
 10
1312.749147
 20
-213.687713
 30
0.0
 11
1320.749147
 21
-213.687713
 31
0.0
  0
LINE
  8
0
  6
BYLAYER
 62
     7
 10
1312.749147
 20
-221.687713
 30
0.0
 11
1320.749147
 21
-221.687713
 31
0.0
  0
LINE
  8
0
  6
BYLAYER
 62
     7
 10
1320.749147
 20
-213.687713
 30
0.0
 11
1320.749147
 21
-221.687713
 31
0.0
  0
LINE
  8
0
  6
BYLAYER
 62
     7
 10
1322.749147
 20
-211.687713
 30
0.0
 11
1322.749147
 21
-203.687713
 31
0.0
  0
LINE
  8
0
  6
BYLAYER
 62
     7
 10
1322.749147
 20
-203.687713
 30
0.0
 11
1330.749147
 21
-203.687713
 31
0.0
  0
LINE
  8
0
  6
BYLAYER
 62
     7
 10
1322.749147
 20
-211.687713
 30
0.0
 11
1330.749147
 21
-211.687713
 31
0.0
  0
LINE
  8
0
  6
BYLAYER
 62
     7
 10
1330.749147
 20
-203.687713
 30
0.0
 11
1330.749147
 21
-211.687713
 31
0.0
  0
LINE
  8
0
  6
BYLAYER
 62
     7
 10
1282.749147
 20
-241.687713
 30
0.0
 11
1282.749147
 21
-233.687713
 31
0.0
  0
LINE
  8
0
  6
BYLAYER
 62
     7
 10
1290.749147
 20
-233.687713
 30
0.0
 11
1290.749147
 21
-241.687713
 31
0.0
  0
LINE
  8
0
  6
BYLAYER
 62
     7
 10
1292.749147
 20
-233.687713
 30
0.0
 11
1292.749147
 21
-241.687713
 31
0.0
  0
LINE
  8
0
  6
BYLAYER
 62
     7
 10
1292.749147
 20
-233.687713
 30
0.0
 11
1300.587146
 21
-233.687713
 31
0.0
  0
LINE
  8
0
  6
BYLAYER
 62
     7
 10
1282.749147
 20
-233.687713
 30
0.0
 11
1290.749147
 21
-233.687713
 31
0.0
  0
LINE
  8
0
  6
BYLAYER
 62
     7
 10
1292.749147
 20
-241.687713
 30
0.0
 11
1300.587146
 21
-241.687713
 31
0.0
  0
LINE
  8
0
  6
BYLAYER
 62
     7
 10
1282.749147
 20
-241.687713
 30
0.0
 11
1290.749147
 21
-241.687713
 31
0.0
  0
LINE
  8
0
  6
BYLAYER
 62
     7
 10
1300.587146
 20
-233.687713
 30
0.0
 11
1300.587146
 21
-241.687713
 31
0.0
  0
LINE
  8
0
  6
BYLAYER
 62
     7
 10
1342.749147
 20
-183.687713
 30
0.0
 11
1350.749147
 21
-183.687713
 31
0.0
  0
LINE
  8
0
  6
BYLAYER
 62
     7
 10
1342.749147
 20
-191.687713
 30
0.0
 11
1342.749147
 21
-183.687713
 31
0.0
  0
LINE
  8
0
  6
BYLAYER
 62
     7
 10
1342.749147
 20
-191.687713
 30
0.0
 11
1350.749147
 21
-191.687713
 31
0.0
  0
LINE
  8
0
  6
BYLAYER
 62
     7
 10
1350.749147
 20
-183.687713
 30
0.0
 11
1350.749147
 21
-191.687713
 31
0.0
  0
LINE
  8
0
  6
BYLAYER
 62
     7
 10
1342.749147
 20
-173.687713
 30
0.0
 11
1350.749147
 21
-173.687713
 31
0.0
  0
LINE
  8
0
  6
BYLAYER
 62
     7
 10
1342.749147
 20
-181.687713
 30
0.0
 11
1342.749147
 21
-173.687713
 31
0.0
  0
LINE
  8
0
  6
BYLAYER
 62
     7
 10
1342.749147
 20
-181.687713
 30
0.0
 11
1350.749147
 21
-181.687713
 31
0.0
  0
LINE
  8
0
  6
BYLAYER
 62
     7
 10
1350.749147
 20
-173.687713
 30
0.0
 11
1350.749147
 21
-181.687713
 31
0.0
  0
LINE
  8
0
  6
BYLAYER
 62
     7
 10
1312.749147
 20
-231.687713
 30
0.0
 11
1312.749147
 21
-223.687713
 31
0.0
  0
LINE
  8
0
  6
BYLAYER
 62
     7
 10
1312.749147
 20
-223.687713
 30
0.0
 11
1320.749147
 21
-223.687713
 31
0.0
  0
LINE
  8
0
  6
BYLAYER
 62
     7
 10
1312.749147
 20
-231.687713
 30
0.0
 11
1320.749147
 21
-231.687713
 31
0.0
  0
LINE
  8
0
  6
BYLAYER
 62
     7
 10
1320.749147
 20
-223.687713
 30
0.0
 11
1320.749147
 21
-231.687713
 31
0.0
  0
LINE
  8
0
  6
BYLAYER
 62
     7
 10
1322.749147
 20
-221.687713
 30
0.0
 11
1322.749147
 21
-213.687713
 31
0.0
  0
LINE
  8
0
  6
BYLAYER
 62
     7
 10
1322.749147
 20
-213.687713
 30
0.0
 11
1330.749147
 21
-213.687713
 31
0.0
  0
LINE
  8
0
  6
BYLAYER
 62
     7
 10
1322.749147
 20
-221.687713
 30
0.0
 11
1330.749147
 21
-221.687713
 31
0.0
  0
LINE
  8
0
  6
BYLAYER
 62
     7
 10
1330.749147
 20
-213.687713
 30
0.0
 11
1330.749147
 21
-221.687713
 31
0.0
  0
LINE
  8
0
  6
BYLAYER
 62
     7
 10
1332.749147
 20
-211.687713
 30
0.0
 11
1332.749147
 21
-203.687713
 31
0.0
  0
LINE
  8
0
  6
BYLAYER
 62
     7
 10
1332.749147
 20
-203.687713
 30
0.0
 11
1340.749147
 21
-203.687713
 31
0.0
  0
LINE
  8
0
  6
BYLAYER
 62
     7
 10
1332.749147
 20
-211.687713
 30
0.0
 11
1340.749147
 21
-211.687713
 31
0.0
  0
LINE
  8
0
  6
BYLAYER
 62
     7
 10
1340.749147
 20
-203.687713
 30
0.0
 11
1340.749147
 21
-211.687713
 31
0.0
  0
LINE
  8
0
  6
BYLAYER
 62
     7
 10
1282.749147
 20
-251.687713
 30
0.0
 11
1282.749147
 21
-243.687713
 31
0.0
  0
LINE
  8
0
  6
BYLAYER
 62
     7
 10
1290.749147
 20
-243.687713
 30
0.0
 11
1290.749147
 21
-251.687713
 31
0.0
  0
LINE
  8
0
  6
BYLAYER
 62
     7
 10
1282.749147
 20
-243.687713
 30
0.0
 11
1290.749147
 21
-243.687713
 31
0.0
  0
LINE
  8
0
  6
BYLAYER
 62
     7
 10
1282.749147
 20
-251.687713
 30
0.0
 11
1290.749147
 21
-251.687713
 31
0.0
  0
LINE
  8
0
  6
BYLAYER
 62
     7
 10
1352.749147
 20
-173.687713
 30
0.0
 11
1360.749147
 21
-173.687713
 31
0.0
  0
LINE
  8
0
  6
BYLAYER
 62
     7
 10
1352.749147
 20
-181.687713
 30
0.0
 11
1352.749147
 21
-173.687713
 31
0.0
  0
LINE
  8
0
  6
BYLAYER
 62
     7
 10
1352.749147
 20
-181.687713
 30
0.0
 11
1360.749147
 21
-181.687713
 31
0.0
  0
LINE
  8
0
  6
BYLAYER
 62
     7
 10
1360.749147
 20
-173.687713
 30
0.0
 11
1360.749147
 21
-181.687713
 31
0.0
  0
LINE
  8
0
  6
BYLAYER
 62
     7
 10
1302.749147
 20
-241.687713
 30
0.0
 11
1302.749147
 21
-233.687713
 31
0.0
  0
LINE
  8
0
  6
BYLAYER
 62
     7
 10
1302.749147
 20
-233.687713
 30
0.0
 11
1310.749147
 21
-233.687713
 31
0.0
  0
LINE
  8
0
  6
BYLAYER
 62
     7
 10
1302.749147
 20
-241.687713
 30
0.0
 11
1310.749147
 21
-241.687713
 31
0.0
  0
LINE
  8
0
  6
BYLAYER
 62
     7
 10
1310.749147
 20
-233.687713
 30
0.0
 11
1310.749147
 21
-241.687713
 31
0.0
  0
LINE
  8
0
  6
BYLAYER
 62
     7
 10
1342.749147
 20
-201.687713
 30
0.0
 11
1342.749147
 21
-193.687713
 31
0.0
  0
LINE
  8
0
  6
BYLAYER
 62
     7
 10
1342.749147
 20
-193.687713
 30
0.0
 11
1350.749147
 21
-193.687713
 31
0.0
  0
LINE
  8
0
  6
BYLAYER
 62
     7
 10
1342.749147
 20
-201.687713
 30
0.0
 11
1350.749147
 21
-201.687713
 31
0.0
  0
LINE
  8
0
  6
BYLAYER
 62
     7
 10
1350.749147
 20
-193.687713
 30
0.0
 11
1350.749147
 21
-201.687713
 31
0.0
  0
LINE
  8
0
  6
BYLAYER
 62
     7
 10
1312.749147
 20
-241.687713
 30
0.0
 11
1312.749147
 21
-233.687713
 31
0.0
  0
LINE
  8
0
  6
BYLAYER
 62
     7
 10
1312.749147
 20
-233.687713
 30
0.0
 11
1320.749147
 21
-233.687713
 31
0.0
  0
LINE
  8
0
  6
BYLAYER
 62
     7
 10
1312.749147
 20
-241.687713
 30
0.0
 11
1320.749147
 21
-241.687713
 31
0.0
  0
LINE
  8
0
  6
BYLAYER
 62
     7
 10
1320.749147
 20
-233.687713
 30
0.0
 11
1320.749147
 21
-241.687713
 31
0.0
  0
LINE
  8
0
  6
BYLAYER
 62
     7
 10
1322.749147
 20
-231.687713
 30
0.0
 11
1322.749147
 21
-223.687713
 31
0.0
  0
LINE
  8
0
  6
BYLAYER
 62
     7
 10
1322.749147
 20
-223.687713
 30
0.0
 11
1330.749147
 21
-223.687713
 31
0.0
  0
LINE
  8
0
  6
BYLAYER
 62
     7
 10
1322.749147
 20
-231.687713
 30
0.0
 11
1330.749147
 21
-231.687713
 31
0.0
  0
LINE
  8
0
  6
BYLAYER
 62
     7
 10
1330.749147
 20
-223.687713
 30
0.0
 11
1330.749147
 21
-231.687713
 31
0.0
  0
LINE
  8
0
  6
BYLAYER
 62
     7
 10
1332.749147
 20
-221.687713
 30
0.0
 11
1332.749147
 21
-213.687713
 31
0.0
  0
LINE
  8
0
  6
BYLAYER
 62
     7
 10
1332.749147
 20
-213.687713
 30
0.0
 11
1340.749147
 21
-213.687713
 31
0.0
  0
LINE
  8
0
  6
BYLAYER
 62
     7
 10
1332.749147
 20
-221.687713
 30
0.0
 11
1340.749147
 21
-221.687713
 31
0.0
  0
LINE
  8
0
  6
BYLAYER
 62
     7
 10
1340.749147
 20
-213.687713
 30
0.0
 11
1340.749147
 21
-221.687713
 31
0.0
  0
LINE
  8
0
  6
BYLAYER
 62
     7
 10
1342.749147
 20
-211.687713
 30
0.0
 11
1342.749147
 21
-203.687713
 31
0.0
  0
LINE
  8
0
  6
BYLAYER
 62
     7
 10
1342.749147
 20
-203.687713
 30
0.0
 11
1350.749147
 21
-203.687713
 31
0.0
  0
LINE
  8
0
  6
BYLAYER
 62
     7
 10
1342.749147
 20
-211.687713
 30
0.0
 11
1350.749147
 21
-211.687713
 31
0.0
  0
LINE
  8
0
  6
BYLAYER
 62
     7
 10
1350.749147
 20
-203.687713
 30
0.0
 11
1350.749147
 21
-211.687713
 31
0.0
  0
LINE
  8
0
  6
BYLAYER
 62
     7
 10
1292.749147
 20
-243.687713
 30
0.0
 11
1292.749147
 21
-251.687713
 31
0.0
  0
LINE
  8
0
  6
BYLAYER
 62
     7
 10
1292.749147
 20
-243.687713
 30
0.0
 11
1300.587146
 21
-243.687713
 31
0.0
  0
LINE
  8
0
  6
BYLAYER
 62
     7
 10
1292.749147
 20
-251.687713
 30
0.0
 11
1300.587146
 21
-251.687713
 31
0.0
  0
LINE
  8
0
  6
BYLAYER
 62
     7
 10
1300.587146
 20
-243.687713
 30
0.0
 11
1300.587146
 21
-251.687713
 31
0.0
  0
LINE
  8
0
  6
BYLAYER
 62
     7
 10
1352.749147
 20
-183.687713
 30
0.0
 11
1360.749147
 21
-183.687713
 31
0.0
  0
LINE
  8
0
  6
BYLAYER
 62
     7
 10
1352.749147
 20
-191.687713
 30
0.0
 11
1352.749147
 21
-183.687713
 31
0.0
  0
LINE
  8
0
  6
BYLAYER
 62
     7
 10
1352.749147
 20
-191.687713
 30
0.0
 11
1360.749147
 21
-191.687713
 31
0.0
  0
LINE
  8
0
  6
BYLAYER
 62
     7
 10
1360.749147
 20
-183.687713
 30
0.0
 11
1360.749147
 21
-191.687713
 31
0.0
  0
LINE
  8
0
  6
BYLAYER
 62
     7
 10
1282.749147
 20
-261.687713
 30
0.0
 11
1282.749147
 21
-253.687713
 31
0.0
  0
LINE
  8
0
  6
BYLAYER
 62
     7
 10
1290.749147
 20
-253.687713
 30
0.0
 11
1290.749147
 21
-261.687713
 31
0.0
  0
LINE
  8
0
  6
BYLAYER
 62
     7
 10
1282.749147
 20
-253.687713
 30
0.0
 11
1290.749147
 21
-253.687713
 31
0.0
  0
LINE
  8
0
  6
BYLAYER
 62
     7
 10
1282.749147
 20
-261.687713
 30
0.0
 11
1290.749147
 21
-261.687713
 31
0.0
  0
LINE
  8
0
  6
BYLAYER
 62
     7
 10
1292.749147
 20
-253.687713
 30
0.0
 11
1292.749147
 21
-261.687713
 31
0.0
  0
LINE
  8
0
  6
BYLAYER
 62
     7
 10
1292.749147
 20
-253.687713
 30
0.0
 11
1300.587146
 21
-253.687713
 31
0.0
  0
LINE
  8
0
  6
BYLAYER
 62
     7
 10
1292.749147
 20
-261.687713
 30
0.0
 11
1300.587146
 21
-261.687713
 31
0.0
  0
LINE
  8
0
  6
BYLAYER
 62
     7
 10
1300.587146
 20
-253.687713
 30
0.0
 11
1300.587146
 21
-261.687713
 31
0.0
  0
LINE
  8
0
  6
BYLAYER
 62
     7
 10
1302.749147
 20
-251.687713
 30
0.0
 11
1302.749147
 21
-243.687713
 31
0.0
  0
LINE
  8
0
  6
BYLAYER
 62
     7
 10
1302.749147
 20
-243.687713
 30
0.0
 11
1310.749147
 21
-243.687713
 31
0.0
  0
LINE
  8
0
  6
BYLAYER
 62
     7
 10
1302.749147
 20
-251.687713
 30
0.0
 11
1310.749147
 21
-251.687713
 31
0.0
  0
LINE
  8
0
  6
BYLAYER
 62
     7
 10
1310.749147
 20
-243.687713
 30
0.0
 11
1310.749147
 21
-251.687713
 31
0.0
  0
LINE
  8
0
  6
BYLAYER
 62
     7
 10
1312.749147
 20
-251.687713
 30
0.0
 11
1312.749147
 21
-243.687713
 31
0.0
  0
LINE
  8
0
  6
BYLAYER
 62
     7
 10
1312.749147
 20
-243.687713
 30
0.0
 11
1320.749147
 21
-243.687713
 31
0.0
  0
LINE
  8
0
  6
BYLAYER
 62
     7
 10
1312.749147
 20
-251.687713
 30
0.0
 11
1320.749147
 21
-251.687713
 31
0.0
  0
LINE
  8
0
  6
BYLAYER
 62
     7
 10
1320.749147
 20
-243.687713
 30
0.0
 11
1320.749147
 21
-251.687713
 31
0.0
  0
LINE
  8
0
  6
BYLAYER
 62
     7
 10
1322.749147
 20
-241.687713
 30
0.0
 11
1322.749147
 21
-233.687713
 31
0.0
  0
LINE
  8
0
  6
BYLAYER
 62
     7
 10
1322.749147
 20
-233.687713
 30
0.0
 11
1330.749147
 21
-233.687713
 31
0.0
  0
LINE
  8
0
  6
BYLAYER
 62
     7
 10
1322.749147
 20
-241.687713
 30
0.0
 11
1330.749147
 21
-241.687713
 31
0.0
  0
LINE
  8
0
  6
BYLAYER
 62
     7
 10
1330.749147
 20
-233.687713
 30
0.0
 11
1330.749147
 21
-241.687713
 31
0.0
  0
LINE
  8
0
  6
BYLAYER
 62
     7
 10
1332.749147
 20
-231.687713
 30
0.0
 11
1332.749147
 21
-223.687713
 31
0.0
  0
LINE
  8
0
  6
BYLAYER
 62
     7
 10
1332.749147
 20
-223.687713
 30
0.0
 11
1340.749147
 21
-223.687713
 31
0.0
  0
LINE
  8
0
  6
BYLAYER
 62
     7
 10
1332.749147
 20
-231.687713
 30
0.0
 11
1340.749147
 21
-231.687713
 31
0.0
  0
LINE
  8
0
  6
BYLAYER
 62
     7
 10
1340.749147
 20
-223.687713
 30
0.0
 11
1340.749147
 21
-231.687713
 31
0.0
  0
LINE
  8
0
  6
BYLAYER
 62
     7
 10
1342.749147
 20
-221.687713
 30
0.0
 11
1342.749147
 21
-213.687713
 31
0.0
  0
LINE
  8
0
  6
BYLAYER
 62
     7
 10
1342.749147
 20
-213.687713
 30
0.0
 11
1350.749147
 21
-213.687713
 31
0.0
  0
LINE
  8
0
  6
BYLAYER
 62
     7
 10
1342.749147
 20
-221.687713
 30
0.0
 11
1350.749147
 21
-221.687713
 31
0.0
  0
LINE
  8
0
  6
BYLAYER
 62
     7
 10
1350.749147
 20
-213.687713
 30
0.0
 11
1350.749147
 21
-221.687713
 31
0.0
  0
LINE
  8
0
  6
BYLAYER
 62
     7
 10
1352.749147
 20
-193.687713
 30
0.0
 11
1360.749147
 21
-193.687713
 31
0.0
  0
LINE
  8
0
  6
BYLAYER
 62
     7
 10
1352.749147
 20
-201.687713
 30
0.0
 11
1352.749147
 21
-193.687713
 31
0.0
  0
LINE
  8
0
  6
BYLAYER
 62
     7
 10
1352.749147
 20
-201.687713
 30
0.0
 11
1360.749147
 21
-201.687713
 31
0.0
  0
LINE
  8
0
  6
BYLAYER
 62
     7
 10
1360.749147
 20
-193.687713
 30
0.0
 11
1360.749147
 21
-201.687713
 31
0.0
  0
LINE
  8
0
  6
BYLAYER
 62
     7
 10
1352.749147
 20
-203.687713
 30
0.0
 11
1360.749147
 21
-203.687713
 31
0.0
  0
LINE
  8
0
  6
BYLAYER
 62
     7
 10
1352.749147
 20
-211.687713
 30
0.0
 11
1352.749147
 21
-203.687713
 31
0.0
  0
LINE
  8
0
  6
BYLAYER
 62
     7
 10
1352.749147
 20
-211.687713
 30
0.0
 11
1360.749147
 21
-211.687713
 31
0.0
  0
LINE
  8
0
  6
BYLAYER
 62
     7
 10
1360.749147
 20
-203.687713
 30
0.0
 11
1360.749147
 21
-211.687713
 31
0.0
  0
LINE
  8
0
  6
BYLAYER
 62
     7
 10
1362.749147
 20
-173.687713
 30
0.0
 11
1370.749147
 21
-173.687713
 31
0.0
  0
LINE
  8
0
  6
BYLAYER
 62
     7
 10
1362.749147
 20
-181.687713
 30
0.0
 11
1362.749147
 21
-173.687713
 31
0.0
  0
LINE
  8
0
  6
BYLAYER
 62
     7
 10
1362.749147
 20
-181.687713
 30
0.0
 11
1370.749147
 21
-181.687713
 31
0.0
  0
LINE
  8
0
  6
BYLAYER
 62
     7
 10
1370.749147
 20
-173.687713
 30
0.0
 11
1370.749147
 21
-181.687713
 31
0.0
  0
LINE
  8
0
  6
BYLAYER
 62
     7
 10
1362.749147
 20
-183.687713
 30
0.0
 11
1370.749147
 21
-183.687713
 31
0.0
  0
LINE
  8
0
  6
BYLAYER
 62
     7
 10
1362.749147
 20
-191.687713
 30
0.0
 11
1362.749147
 21
-183.687713
 31
0.0
  0
LINE
  8
0
  6
BYLAYER
 62
     7
 10
1362.749147
 20
-191.687713
 30
0.0
 11
1370.749147
 21
-191.687713
 31
0.0
  0
LINE
  8
0
  6
BYLAYER
 62
     7
 10
1370.749147
 20
-183.687713
 30
0.0
 11
1370.749147
 21
-191.687713
 31
0.0
  0
LINE
  8
0
  6
BYLAYER
 62
     7
 10
1280.749147
 20
-201.687713
 30
0.0
 11
1280.749147
 21
-193.687713
 31
0.0
  0
LINE
  8
0
  6
BYLAYER
 62
     7
 10
1280.749147
 20
-211.687713
 30
0.0
 11
1280.749147
 21
-203.687713
 31
0.0
  0
LINE
  8
0
  6
BYLAYER
 62
     7
 10
1272.749147
 20
-203.687713
 30
0.0
 11
1272.749147
 21
-211.687713
 31
0.0
  0
LINE
  8
0
  6
BYLAYER
 62
     7
 10
1270.749147
 20
-203.687713
 30
0.0
 11
1270.749147
 21
-211.687713
 31
0.0
  0
LINE
  8
0
  6
BYLAYER
 62
     7
 10
1280.749147
 20
-193.687713
 30
0.0
 11
1272.749147
 21
-193.687713
 31
0.0
  0
LINE
  8
0
  6
BYLAYER
 62
     7
 10
1280.749147
 20
-201.687713
 30
0.0
 11
1272.749147
 21
-201.687713
 31
0.0
  0
LINE
  8
0
  6
BYLAYER
 62
     7
 10
1270.749147
 20
-203.687713
 30
0.0
 11
1262.911148
 21
-203.687713
 31
0.0
  0
LINE
  8
0
  6
BYLAYER
 62
     7
 10
1280.749147
 20
-203.687713
 30
0.0
 11
1272.749147
 21
-203.687713
 31
0.0
  0
LINE
  8
0
  6
BYLAYER
 62
     7
 10
1270.749147
 20
-211.687713
 30
0.0
 11
1262.911148
 21
-211.687713
 31
0.0
  0
LINE
  8
0
  6
BYLAYER
 62
     7
 10
1280.749147
 20
-211.687713
 30
0.0
 11
1272.749147
 21
-211.687713
 31
0.0
  0
LINE
  8
0
  6
BYLAYER
 62
     7
 10
1262.911148
 20
-203.687713
 30
0.0
 11
1262.911148
 21
-211.687713
 31
0.0
  0
LINE
  8
0
  6
BYLAYER
 62
     7
 10
1272.749147
 20
-193.687713
 30
0.0
 11
1272.749147
 21
-201.687713
 31
0.0
  0
LINE
  8
0
  6
BYLAYER
 62
     7
 10
1270.749147
 20
-201.687713
 30
0.0
 11
1270.749147
 21
-193.687713
 31
0.0
  0
LINE
  8
0
  6
BYLAYER
 62
     7
 10
1270.749147
 20
-193.687713
 30
0.0
 11
1262.749147
 21
-193.687713
 31
0.0
  0
LINE
  8
0
  6
BYLAYER
 62
     7
 10
1270.749147
 20
-201.687713
 30
0.0
 11
1262.749147
 21
-201.687713
 31
0.0
  0
LINE
  8
0
  6
BYLAYER
 62
     7
 10
1262.749147
 20
-193.687713
 30
0.0
 11
1262.749147
 21
-201.687713
 31
0.0
  0
LINE
  8
0
  6
BYLAYER
 62
     7
 10
1260.749147
 20
-183.687713
 30
0.0
 11
1252.749147
 21
-183.687713
 31
0.0
  0
LINE
  8
0
  6
BYLAYER
 62
     7
 10
1260.749147
 20
-201.687713
 30
0.0
 11
1260.749147
 21
-193.687713
 31
0.0
  0
LINE
  8
0
  6
BYLAYER
 62
     7
 10
1260.749147
 20
-191.687713
 30
0.0
 11
1260.749147
 21
-183.687713
 31
0.0
  0
LINE
  8
0
  6
BYLAYER
 62
     7
 10
1260.749147
 20
-191.687713
 30
0.0
 11
1252.749147
 21
-191.687713
 31
0.0
  0
LINE
  8
0
  6
BYLAYER
 62
     7
 10
1260.749147
 20
-193.687713
 30
0.0
 11
1252.749147
 21
-193.687713
 31
0.0
  0
LINE
  8
0
  6
BYLAYER
 62
     7
 10
1260.749147
 20
-201.687713
 30
0.0
 11
1252.749147
 21
-201.687713
 31
0.0
  0
LINE
  8
0
  6
BYLAYER
 62
     7
 10
1252.749147
 20
-183.687713
 30
0.0
 11
1252.749147
 21
-191.687713
 31
0.0
  0
LINE
  8
0
  6
BYLAYER
 62
     7
 10
1252.749147
 20
-193.687713
 30
0.0
 11
1252.749147
 21
-201.687713
 31
0.0
  0
LINE
  8
0
  6
BYLAYER
 62
     7
 10
1260.749147
 20
-173.687713
 30
0.0
 11
1252.749147
 21
-173.687713
 31
0.0
  0
LINE
  8
0
  6
BYLAYER
 62
     7
 10
1260.749147
 20
-181.687713
 30
0.0
 11
1260.749147
 21
-173.687713
 31
0.0
  0
LINE
  8
0
  6
BYLAYER
 62
     7
 10
1260.749147
 20
-181.687713
 30
0.0
 11
1252.749147
 21
-181.687713
 31
0.0
  0
LINE
  8
0
  6
BYLAYER
 62
     7
 10
1252.749147
 20
-173.687713
 30
0.0
 11
1252.749147
 21
-181.687713
 31
0.0
  0
LINE
  8
0
  6
BYLAYER
 62
     7
 10
1250.749147
 20
-183.687713
 30
0.0
 11
1242.749147
 21
-183.687713
 31
0.0
  0
LINE
  8
0
  6
BYLAYER
 62
     7
 10
1250.749147
 20
-191.687713
 30
0.0
 11
1250.749147
 21
-183.687713
 31
0.0
  0
LINE
  8
0
  6
BYLAYER
 62
     7
 10
1250.749147
 20
-191.687713
 30
0.0
 11
1242.749147
 21
-191.687713
 31
0.0
  0
LINE
  8
0
  6
BYLAYER
 62
     7
 10
1242.749147
 20
-183.687713
 30
0.0
 11
1242.749147
 21
-191.687713
 31
0.0
  0
LINE
  8
0
  6
BYLAYER
 62
     7
 10
1250.749147
 20
-173.687713
 30
0.0
 11
1242.749147
 21
-173.687713
 31
0.0
  0
LINE
  8
0
  6
BYLAYER
 62
     7
 10
1250.749147
 20
-181.687713
 30
0.0
 11
1250.749147
 21
-173.687713
 31
0.0
  0
LINE
  8
0
  6
BYLAYER
 62
     7
 10
1250.749147
 20
-181.687713
 30
0.0
 11
1242.749147
 21
-181.687713
 31
0.0
  0
LINE
  8
0
  6
BYLAYER
 62
     7
 10
1242.749147
 20
-173.687713
 30
0.0
 11
1242.749147
 21
-181.687713
 31
0.0
  0
LINE
  8
0
  6
BYLAYER
 62
     7
 10
1240.749147
 20
-183.687713
 30
0.0
 11
1232.749147
 21
-183.687713
 31
0.0
  0
LINE
  8
0
  6
BYLAYER
 62
     7
 10
1240.749147
 20
-191.687713
 30
0.0
 11
1240.749147
 21
-183.687713
 31
0.0
  0
LINE
  8
0
  6
BYLAYER
 62
     7
 10
1240.749147
 20
-191.687713
 30
0.0
 11
1232.749147
 21
-191.687713
 31
0.0
  0
LINE
  8
0
  6
BYLAYER
 62
     7
 10
1232.749147
 20
-183.687713
 30
0.0
 11
1232.749147
 21
-191.687713
 31
0.0
  0
LINE
  8
0
  6
BYLAYER
 62
     7
 10
1240.749147
 20
-173.687713
 30
0.0
 11
1232.749147
 21
-173.687713
 31
0.0
  0
LINE
  8
0
  6
BYLAYER
 62
     7
 10
1240.749147
 20
-181.687713
 30
0.0
 11
1240.749147
 21
-173.687713
 31
0.0
  0
LINE
  8
0
  6
BYLAYER
 62
     7
 10
1240.749147
 20
-181.687713
 30
0.0
 11
1232.749147
 21
-181.687713
 31
0.0
  0
LINE
  8
0
  6
BYLAYER
 62
     7
 10
1232.749147
 20
-173.687713
 30
0.0
 11
1232.749147
 21
-181.687713
 31
0.0
  0
LINE
  8
0
  6
BYLAYER
 62
     7
 10
1280.749147
 20
-221.687713
 30
0.0
 11
1280.749147
 21
-213.687713
 31
0.0
  0
LINE
  8
0
  6
BYLAYER
 62
     7
 10
1272.749147
 20
-213.687713
 30
0.0
 11
1272.749147
 21
-221.687713
 31
0.0
  0
LINE
  8
0
  6
BYLAYER
 62
     7
 10
1270.749147
 20
-213.687713
 30
0.0
 11
1270.749147
 21
-221.687713
 31
0.0
  0
LINE
  8
0
  6
BYLAYER
 62
     7
 10
1270.749147
 20
-213.687713
 30
0.0
 11
1262.911148
 21
-213.687713
 31
0.0
  0
LINE
  8
0
  6
BYLAYER
 62
     7
 10
1280.749147
 20
-213.687713
 30
0.0
 11
1272.749147
 21
-213.687713
 31
0.0
  0
LINE
  8
0
  6
BYLAYER
 62
     7
 10
1270.749147
 20
-221.687713
 30
0.0
 11
1262.911148
 21
-221.687713
 31
0.0
  0
LINE
  8
0
  6
BYLAYER
 62
     7
 10
1280.749147
 20
-221.687713
 30
0.0
 11
1272.749147
 21
-221.687713
 31
0.0
  0
LINE
  8
0
  6
BYLAYER
 62
     7
 10
1262.911148
 20
-213.687713
 30
0.0
 11
1262.911148
 21
-221.687713
 31
0.0
  0
LINE
  8
0
  6
BYLAYER
 62
     7
 10
1260.749147
 20
-211.687713
 30
0.0
 11
1260.749147
 21
-203.687713
 31
0.0
  0
LINE
  8
0
  6
BYLAYER
 62
     7
 10
1260.749147
 20
-203.687713
 30
0.0
 11
1252.749147
 21
-203.687713
 31
0.0
  0
LINE
  8
0
  6
BYLAYER
 62
     7
 10
1260.749147
 20
-211.687713
 30
0.0
 11
1252.749147
 21
-211.687713
 31
0.0
  0
LINE
  8
0
  6
BYLAYER
 62
     7
 10
1252.749147
 20
-203.687713
 30
0.0
 11
1252.749147
 21
-211.687713
 31
0.0
  0
LINE
  8
0
  6
BYLAYER
 62
     7
 10
1260.749147
 20
-221.687713
 30
0.0
 11
1260.749147
 21
-213.687713
 31
0.0
  0
LINE
  8
0
  6
BYLAYER
 62
     7
 10
1260.749147
 20
-213.687713
 30
0.0
 11
1252.749147
 21
-213.687713
 31
0.0
  0
LINE
  8
0
  6
BYLAYER
 62
     7
 10
1260.749147
 20
-221.687713
 30
0.0
 11
1252.749147
 21
-221.687713
 31
0.0
  0
LINE
  8
0
  6
BYLAYER
 62
     7
 10
1252.749147
 20
-213.687713
 30
0.0
 11
1252.749147
 21
-221.687713
 31
0.0
  0
LINE
  8
0
  6
BYLAYER
 62
     7
 10
1250.749147
 20
-201.687713
 30
0.0
 11
1250.749147
 21
-193.687713
 31
0.0
  0
LINE
  8
0
  6
BYLAYER
 62
     7
 10
1250.749147
 20
-193.687713
 30
0.0
 11
1242.749147
 21
-193.687713
 31
0.0
  0
LINE
  8
0
  6
BYLAYER
 62
     7
 10
1250.749147
 20
-201.687713
 30
0.0
 11
1242.749147
 21
-201.687713
 31
0.0
  0
LINE
  8
0
  6
BYLAYER
 62
     7
 10
1242.749147
 20
-193.687713
 30
0.0
 11
1242.749147
 21
-201.687713
 31
0.0
  0
LINE
  8
0
  6
BYLAYER
 62
     7
 10
1250.749147
 20
-211.687713
 30
0.0
 11
1250.749147
 21
-203.687713
 31
0.0
  0
LINE
  8
0
  6
BYLAYER
 62
     7
 10
1250.749147
 20
-203.687713
 30
0.0
 11
1242.749147
 21
-203.687713
 31
0.0
  0
LINE
  8
0
  6
BYLAYER
 62
     7
 10
1250.749147
 20
-211.687713
 30
0.0
 11
1242.749147
 21
-211.687713
 31
0.0
  0
LINE
  8
0
  6
BYLAYER
 62
     7
 10
1242.749147
 20
-203.687713
 30
0.0
 11
1242.749147
 21
-211.687713
 31
0.0
  0
LINE
  8
0
  6
BYLAYER
 62
     7
 10
1240.749147
 20
-201.687713
 30
0.0
 11
1240.749147
 21
-193.687713
 31
0.0
  0
LINE
  8
0
  6
BYLAYER
 62
     7
 10
1240.749147
 20
-193.687713
 30
0.0
 11
1232.749147
 21
-193.687713
 31
0.0
  0
LINE
  8
0
  6
BYLAYER
 62
     7
 10
1240.749147
 20
-201.687713
 30
0.0
 11
1232.749147
 21
-201.687713
 31
0.0
  0
LINE
  8
0
  6
BYLAYER
 62
     7
 10
1232.749147
 20
-193.687713
 30
0.0
 11
1232.749147
 21
-201.687713
 31
0.0
  0
LINE
  8
0
  6
BYLAYER
 62
     7
 10
1230.749147
 20
-183.687713
 30
0.0
 11
1222.749147
 21
-183.687713
 31
0.0
  0
LINE
  8
0
  6
BYLAYER
 62
     7
 10
1230.749147
 20
-191.687713
 30
0.0
 11
1230.749147
 21
-183.687713
 31
0.0
  0
LINE
  8
0
  6
BYLAYER
 62
     7
 10
1230.749147
 20
-191.687713
 30
0.0
 11
1222.749147
 21
-191.687713
 31
0.0
  0
LINE
  8
0
  6
BYLAYER
 62
     7
 10
1222.749147
 20
-183.687713
 30
0.0
 11
1222.749147
 21
-191.687713
 31
0.0
  0
LINE
  8
0
  6
BYLAYER
 62
     7
 10
1230.749147
 20
-173.687713
 30
0.0
 11
1222.749147
 21
-173.687713
 31
0.0
  0
LINE
  8
0
  6
BYLAYER
 62
     7
 10
1230.749147
 20
-181.687713
 30
0.0
 11
1230.749147
 21
-173.687713
 31
0.0
  0
LINE
  8
0
  6
BYLAYER
 62
     7
 10
1230.749147
 20
-181.687713
 30
0.0
 11
1222.749147
 21
-181.687713
 31
0.0
  0
LINE
  8
0
  6
BYLAYER
 62
     7
 10
1222.749147
 20
-173.687713
 30
0.0
 11
1222.749147
 21
-181.687713
 31
0.0
  0
LINE
  8
0
  6
BYLAYER
 62
     7
 10
1230.749147
 20
-201.687713
 30
0.0
 11
1230.749147
 21
-193.687713
 31
0.0
  0
LINE
  8
0
  6
BYLAYER
 62
     7
 10
1230.749147
 20
-193.687713
 30
0.0
 11
1222.749147
 21
-193.687713
 31
0.0
  0
LINE
  8
0
  6
BYLAYER
 62
     7
 10
1230.749147
 20
-201.687713
 30
0.0
 11
1222.749147
 21
-201.687713
 31
0.0
  0
LINE
  8
0
  6
BYLAYER
 62
     7
 10
1222.749147
 20
-193.687713
 30
0.0
 11
1222.749147
 21
-201.687713
 31
0.0
  0
LINE
  8
0
  6
BYLAYER
 62
     7
 10
1280.749147
 20
-231.687713
 30
0.0
 11
1280.749147
 21
-223.687713
 31
0.0
  0
LINE
  8
0
  6
BYLAYER
 62
     7
 10
1272.749147
 20
-223.687713
 30
0.0
 11
1272.749147
 21
-231.687713
 31
0.0
  0
LINE
  8
0
  6
BYLAYER
 62
     7
 10
1270.749147
 20
-223.687713
 30
0.0
 11
1270.749147
 21
-231.687713
 31
0.0
  0
LINE
  8
0
  6
BYLAYER
 62
     7
 10
1270.749147
 20
-223.687713
 30
0.0
 11
1262.911148
 21
-223.687713
 31
0.0
  0
LINE
  8
0
  6
BYLAYER
 62
     7
 10
1280.749147
 20
-223.687713
 30
0.0
 11
1272.749147
 21
-223.687713
 31
0.0
  0
LINE
  8
0
  6
BYLAYER
 62
     7
 10
1270.749147
 20
-231.687713
 30
0.0
 11
1262.911148
 21
-231.687713
 31
0.0
  0
LINE
  8
0
  6
BYLAYER
 62
     7
 10
1280.749147
 20
-231.687713
 30
0.0
 11
1272.749147
 21
-231.687713
 31
0.0
  0
LINE
  8
0
  6
BYLAYER
 62
     7
 10
1262.911148
 20
-223.687713
 30
0.0
 11
1262.911148
 21
-231.687713
 31
0.0
  0
LINE
  8
0
  6
BYLAYER
 62
     7
 10
1260.749147
 20
-231.687713
 30
0.0
 11
1260.749147
 21
-223.687713
 31
0.0
  0
LINE
  8
0
  6
BYLAYER
 62
     7
 10
1260.749147
 20
-223.687713
 30
0.0
 11
1252.749147
 21
-223.687713
 31
0.0
  0
LINE
  8
0
  6
BYLAYER
 62
     7
 10
1260.749147
 20
-231.687713
 30
0.0
 11
1252.749147
 21
-231.687713
 31
0.0
  0
LINE
  8
0
  6
BYLAYER
 62
     7
 10
1252.749147
 20
-223.687713
 30
0.0
 11
1252.749147
 21
-231.687713
 31
0.0
  0
LINE
  8
0
  6
BYLAYER
 62
     7
 10
1250.749147
 20
-221.687713
 30
0.0
 11
1250.749147
 21
-213.687713
 31
0.0
  0
LINE
  8
0
  6
BYLAYER
 62
     7
 10
1250.749147
 20
-213.687713
 30
0.0
 11
1242.749147
 21
-213.687713
 31
0.0
  0
LINE
  8
0
  6
BYLAYER
 62
     7
 10
1250.749147
 20
-221.687713
 30
0.0
 11
1242.749147
 21
-221.687713
 31
0.0
  0
LINE
  8
0
  6
BYLAYER
 62
     7
 10
1242.749147
 20
-213.687713
 30
0.0
 11
1242.749147
 21
-221.687713
 31
0.0
  0
LINE
  8
0
  6
BYLAYER
 62
     7
 10
1240.749147
 20
-211.687713
 30
0.0
 11
1240.749147
 21
-203.687713
 31
0.0
  0
LINE
  8
0
  6
BYLAYER
 62
     7
 10
1240.749147
 20
-203.687713
 30
0.0
 11
1232.749147
 21
-203.687713
 31
0.0
  0
LINE
  8
0
  6
BYLAYER
 62
     7
 10
1240.749147
 20
-211.687713
 30
0.0
 11
1232.749147
 21
-211.687713
 31
0.0
  0
LINE
  8
0
  6
BYLAYER
 62
     7
 10
1232.749147
 20
-203.687713
 30
0.0
 11
1232.749147
 21
-211.687713
 31
0.0
  0
LINE
  8
0
  6
BYLAYER
 62
     7
 10
1280.749147
 20
-241.687713
 30
0.0
 11
1280.749147
 21
-233.687713
 31
0.0
  0
LINE
  8
0
  6
BYLAYER
 62
     7
 10
1272.749147
 20
-233.687713
 30
0.0
 11
1272.749147
 21
-241.687713
 31
0.0
  0
LINE
  8
0
  6
BYLAYER
 62
     7
 10
1270.749147
 20
-233.687713
 30
0.0
 11
1270.749147
 21
-241.687713
 31
0.0
  0
LINE
  8
0
  6
BYLAYER
 62
     7
 10
1270.749147
 20
-233.687713
 30
0.0
 11
1262.911148
 21
-233.687713
 31
0.0
  0
LINE
  8
0
  6
BYLAYER
 62
     7
 10
1280.749147
 20
-233.687713
 30
0.0
 11
1272.749147
 21
-233.687713
 31
0.0
  0
LINE
  8
0
  6
BYLAYER
 62
     7
 10
1270.749147
 20
-241.687713
 30
0.0
 11
1262.911148
 21
-241.687713
 31
0.0
  0
LINE
  8
0
  6
BYLAYER
 62
     7
 10
1280.749147
 20
-241.687713
 30
0.0
 11
1272.749147
 21
-241.687713
 31
0.0
  0
LINE
  8
0
  6
BYLAYER
 62
     7
 10
1262.911148
 20
-233.687713
 30
0.0
 11
1262.911148
 21
-241.687713
 31
0.0
  0
LINE
  8
0
  6
BYLAYER
 62
     7
 10
1220.749147
 20
-183.687713
 30
0.0
 11
1212.749147
 21
-183.687713
 31
0.0
  0
LINE
  8
0
  6
BYLAYER
 62
     7
 10
1220.749147
 20
-191.687713
 30
0.0
 11
1220.749147
 21
-183.687713
 31
0.0
  0
LINE
  8
0
  6
BYLAYER
 62
     7
 10
1220.749147
 20
-191.687713
 30
0.0
 11
1212.749147
 21
-191.687713
 31
0.0
  0
LINE
  8
0
  6
BYLAYER
 62
     7
 10
1212.749147
 20
-183.687713
 30
0.0
 11
1212.749147
 21
-191.687713
 31
0.0
  0
LINE
  8
0
  6
BYLAYER
 62
     7
 10
1220.749147
 20
-173.687713
 30
0.0
 11
1212.749147
 21
-173.687713
 31
0.0
  0
LINE
  8
0
  6
BYLAYER
 62
     7
 10
1220.749147
 20
-181.687713
 30
0.0
 11
1220.749147
 21
-173.687713
 31
0.0
  0
LINE
  8
0
  6
BYLAYER
 62
     7
 10
1220.749147
 20
-181.687713
 30
0.0
 11
1212.749147
 21
-181.687713
 31
0.0
  0
LINE
  8
0
  6
BYLAYER
 62
     7
 10
1212.749147
 20
-173.687713
 30
0.0
 11
1212.749147
 21
-181.687713
 31
0.0
  0
LINE
  8
0
  6
BYLAYER
 62
     7
 10
1250.749147
 20
-231.687713
 30
0.0
 11
1250.749147
 21
-223.687713
 31
0.0
  0
LINE
  8
0
  6
BYLAYER
 62
     7
 10
1250.749147
 20
-223.687713
 30
0.0
 11
1242.749147
 21
-223.687713
 31
0.0
  0
LINE
  8
0
  6
BYLAYER
 62
     7
 10
1250.749147
 20
-231.687713
 30
0.0
 11
1242.749147
 21
-231.687713
 31
0.0
  0
LINE
  8
0
  6
BYLAYER
 62
     7
 10
1242.749147
 20
-223.687713
 30
0.0
 11
1242.749147
 21
-231.687713
 31
0.0
  0
LINE
  8
0
  6
BYLAYER
 62
     7
 10
1240.749147
 20
-221.687713
 30
0.0
 11
1240.749147
 21
-213.687713
 31
0.0
  0
LINE
  8
0
  6
BYLAYER
 62
     7
 10
1240.749147
 20
-213.687713
 30
0.0
 11
1232.749147
 21
-213.687713
 31
0.0
  0
LINE
  8
0
  6
BYLAYER
 62
     7
 10
1240.749147
 20
-221.687713
 30
0.0
 11
1232.749147
 21
-221.687713
 31
0.0
  0
LINE
  8
0
  6
BYLAYER
 62
     7
 10
1232.749147
 20
-213.687713
 30
0.0
 11
1232.749147
 21
-221.687713
 31
0.0
  0
LINE
  8
0
  6
BYLAYER
 62
     7
 10
1230.749147
 20
-211.687713
 30
0.0
 11
1230.749147
 21
-203.687713
 31
0.0
  0
LINE
  8
0
  6
BYLAYER
 62
     7
 10
1230.749147
 20
-203.687713
 30
0.0
 11
1222.749147
 21
-203.687713
 31
0.0
  0
LINE
  8
0
  6
BYLAYER
 62
     7
 10
1230.749147
 20
-211.687713
 30
0.0
 11
1222.749147
 21
-211.687713
 31
0.0
  0
LINE
  8
0
  6
BYLAYER
 62
     7
 10
1222.749147
 20
-203.687713
 30
0.0
 11
1222.749147
 21
-211.687713
 31
0.0
  0
LINE
  8
0
  6
BYLAYER
 62
     7
 10
1280.749147
 20
-251.687713
 30
0.0
 11
1280.749147
 21
-243.687713
 31
0.0
  0
LINE
  8
0
  6
BYLAYER
 62
     7
 10
1272.749147
 20
-243.687713
 30
0.0
 11
1272.749147
 21
-251.687713
 31
0.0
  0
LINE
  8
0
  6
BYLAYER
 62
     7
 10
1280.749147
 20
-243.687713
 30
0.0
 11
1272.749147
 21
-243.687713
 31
0.0
  0
LINE
  8
0
  6
BYLAYER
 62
     7
 10
1280.749147
 20
-251.687713
 30
0.0
 11
1272.749147
 21
-251.687713
 31
0.0
  0
LINE
  8
0
  6
BYLAYER
 62
     7
 10
1210.749147
 20
-173.687713
 30
0.0
 11
1202.749147
 21
-173.687713
 31
0.0
  0
LINE
  8
0
  6
BYLAYER
 62
     7
 10
1210.749147
 20
-181.687713
 30
0.0
 11
1210.749147
 21
-173.687713
 31
0.0
  0
LINE
  8
0
  6
BYLAYER
 62
     7
 10
1210.749147
 20
-181.687713
 30
0.0
 11
1202.749147
 21
-181.687713
 31
0.0
  0
LINE
  8
0
  6
BYLAYER
 62
     7
 10
1202.749147
 20
-173.687713
 30
0.0
 11
1202.749147
 21
-181.687713
 31
0.0
  0
LINE
  8
0
  6
BYLAYER
 62
     7
 10
1260.749147
 20
-241.687713
 30
0.0
 11
1260.749147
 21
-233.687713
 31
0.0
  0
LINE
  8
0
  6
BYLAYER
 62
     7
 10
1260.749147
 20
-233.687713
 30
0.0
 11
1252.749147
 21
-233.687713
 31
0.0
  0
LINE
  8
0
  6
BYLAYER
 62
     7
 10
1260.749147
 20
-241.687713
 30
0.0
 11
1252.749147
 21
-241.687713
 31
0.0
  0
LINE
  8
0
  6
BYLAYER
 62
     7
 10
1252.749147
 20
-233.687713
 30
0.0
 11
1252.749147
 21
-241.687713
 31
0.0
  0
LINE
  8
0
  6
BYLAYER
 62
     7
 10
1220.749147
 20
-201.687713
 30
0.0
 11
1220.749147
 21
-193.687713
 31
0.0
  0
LINE
  8
0
  6
BYLAYER
 62
     7
 10
1220.749147
 20
-193.687713
 30
0.0
 11
1212.749147
 21
-193.687713
 31
0.0
  0
LINE
  8
0
  6
BYLAYER
 62
     7
 10
1220.749147
 20
-201.687713
 30
0.0
 11
1212.749147
 21
-201.687713
 31
0.0
  0
LINE
  8
0
  6
BYLAYER
 62
     7
 10
1212.749147
 20
-193.687713
 30
0.0
 11
1212.749147
 21
-201.687713
 31
0.0
  0
LINE
  8
0
  6
BYLAYER
 62
     7
 10
1250.749147
 20
-241.687713
 30
0.0
 11
1250.749147
 21
-233.687713
 31
0.0
  0
LINE
  8
0
  6
BYLAYER
 62
     7
 10
1250.749147
 20
-233.687713
 30
0.0
 11
1242.749147
 21
-233.687713
 31
0.0
  0
LINE
  8
0
  6
BYLAYER
 62
     7
 10
1250.749147
 20
-241.687713
 30
0.0
 11
1242.749147
 21
-241.687713
 31
0.0
  0
LINE
  8
0
  6
BYLAYER
 62
     7
 10
1242.749147
 20
-233.687713
 30
0.0
 11
1242.749147
 21
-241.687713
 31
0.0
  0
LINE
  8
0
  6
BYLAYER
 62
     7
 10
1240.749147
 20
-231.687713
 30
0.0
 11
1240.749147
 21
-223.687713
 31
0.0
  0
LINE
  8
0
  6
BYLAYER
 62
     7
 10
1240.749147
 20
-223.687713
 30
0.0
 11
1232.749147
 21
-223.687713
 31
0.0
  0
LINE
  8
0
  6
BYLAYER
 62
     7
 10
1240.749147
 20
-231.687713
 30
0.0
 11
1232.749147
 21
-231.687713
 31
0.0
  0
LINE
  8
0
  6
BYLAYER
 62
     7
 10
1232.749147
 20
-223.687713
 30
0.0
 11
1232.749147
 21
-231.687713
 31
0.0
  0
LINE
  8
0
  6
BYLAYER
 62
     7
 10
1230.749147
 20
-221.687713
 30
0.0
 11
1230.749147
 21
-213.687713
 31
0.0
  0
LINE
  8
0
  6
BYLAYER
 62
     7
 10
1230.749147
 20
-213.687713
 30
0.0
 11
1222.749147
 21
-213.687713
 31
0.0
  0
LINE
  8
0
  6
BYLAYER
 62
     7
 10
1230.749147
 20
-221.687713
 30
0.0
 11
1222.749147
 21
-221.687713
 31
0.0
  0
LINE
  8
0
  6
BYLAYER
 62
     7
 10
1222.749147
 20
-213.687713
 30
0.0
 11
1222.749147
 21
-221.687713
 31
0.0
  0
LINE
  8
0
  6
BYLAYER
 62
     7
 10
1220.749147
 20
-211.687713
 30
0.0
 11
1220.749147
 21
-203.687713
 31
0.0
  0
LINE
  8
0
  6
BYLAYER
 62
     7
 10
1220.749147
 20
-203.687713
 30
0.0
 11
1212.749147
 21
-203.687713
 31
0.0
  0
LINE
  8
0
  6
BYLAYER
 62
     7
 10
1220.749147
 20
-211.687713
 30
0.0
 11
1212.749147
 21
-211.687713
 31
0.0
  0
LINE
  8
0
  6
BYLAYER
 62
     7
 10
1212.749147
 20
-203.687713
 30
0.0
 11
1212.749147
 21
-211.687713
 31
0.0
  0
LINE
  8
0
  6
BYLAYER
 62
     7
 10
1270.749147
 20
-243.687713
 30
0.0
 11
1270.749147
 21
-251.687713
 31
0.0
  0
LINE
  8
0
  6
BYLAYER
 62
     7
 10
1270.749147
 20
-243.687713
 30
0.0
 11
1262.911148
 21
-243.687713
 31
0.0
  0
LINE
  8
0
  6
BYLAYER
 62
     7
 10
1270.749147
 20
-251.687713
 30
0.0
 11
1262.911148
 21
-251.687713
 31
0.0
  0
LINE
  8
0
  6
BYLAYER
 62
     7
 10
1262.911148
 20
-243.687713
 30
0.0
 11
1262.911148
 21
-251.687713
 31
0.0
  0
LINE
  8
0
  6
BYLAYER
 62
     7
 10
1210.749147
 20
-183.687713
 30
0.0
 11
1202.749147
 21
-183.687713
 31
0.0
  0
LINE
  8
0
  6
BYLAYER
 62
     7
 10
1210.749147
 20
-191.687713
 30
0.0
 11
1210.749147
 21
-183.687713
 31
0.0
  0
LINE
  8
0
  6
BYLAYER
 62
     7
 10
1210.749147
 20
-191.687713
 30
0.0
 11
1202.749147
 21
-191.687713
 31
0.0
  0
LINE
  8
0
  6
BYLAYER
 62
     7
 10
1202.749147
 20
-183.687713
 30
0.0
 11
1202.749147
 21
-191.687713
 31
0.0
  0
LINE
  8
0
  6
BYLAYER
 62
     7
 10
1280.749147
 20
-261.687713
 30
0.0
 11
1280.749147
 21
-253.687713
 31
0.0
  0
LINE
  8
0
  6
BYLAYER
 62
     7
 10
1272.749147
 20
-253.687713
 30
0.0
 11
1272.749147
 21
-261.687713
 31
0.0
  0
LINE
  8
0
  6
BYLAYER
 62
     7
 10
1280.749147
 20
-253.687713
 30
0.0
 11
1272.749147
 21
-253.687713
 31
0.0
  0
LINE
  8
0
  6
BYLAYER
 62
     7
 10
1280.749147
 20
-261.687713
 30
0.0
 11
1272.749147
 21
-261.687713
 31
0.0
  0
LINE
  8
0
  6
BYLAYER
 62
     7
 10
1270.749147
 20
-253.687713
 30
0.0
 11
1270.749147
 21
-261.687713
 31
0.0
  0
LINE
  8
0
  6
BYLAYER
 62
     7
 10
1270.749147
 20
-253.687713
 30
0.0
 11
1262.911148
 21
-253.687713
 31
0.0
  0
LINE
  8
0
  6
BYLAYER
 62
     7
 10
1270.749147
 20
-261.687713
 30
0.0
 11
1262.911148
 21
-261.687713
 31
0.0
  0
LINE
  8
0
  6
BYLAYER
 62
     7
 10
1262.911148
 20
-253.687713
 30
0.0
 11
1262.911148
 21
-261.687713
 31
0.0
  0
LINE
  8
0
  6
BYLAYER
 62
     7
 10
1260.749147
 20
-251.687713
 30
0.0
 11
1260.749147
 21
-243.687713
 31
0.0
  0
LINE
  8
0
  6
BYLAYER
 62
     7
 10
1260.749147
 20
-243.687713
 30
0.0
 11
1252.749147
 21
-243.687713
 31
0.0
  0
LINE
  8
0
  6
BYLAYER
 62
     7
 10
1260.749147
 20
-251.687713
 30
0.0
 11
1252.749147
 21
-251.687713
 31
0.0
  0
LINE
  8
0
  6
BYLAYER
 62
     7
 10
1252.749147
 20
-243.687713
 30
0.0
 11
1252.749147
 21
-251.687713
 31
0.0
  0
LINE
  8
0
  6
BYLAYER
 62
     7
 10
1250.749147
 20
-251.687713
 30
0.0
 11
1250.749147
 21
-243.687713
 31
0.0
  0
LINE
  8
0
  6
BYLAYER
 62
     7
 10
1250.749147
 20
-243.687713
 30
0.0
 11
1242.749147
 21
-243.687713
 31
0.0
  0
LINE
  8
0
  6
BYLAYER
 62
     7
 10
1250.749147
 20
-251.687713
 30
0.0
 11
1242.749147
 21
-251.687713
 31
0.0
  0
LINE
  8
0
  6
BYLAYER
 62
     7
 10
1242.749147
 20
-243.687713
 30
0.0
 11
1242.749147
 21
-251.687713
 31
0.0
  0
LINE
  8
0
  6
BYLAYER
 62
     7
 10
1240.749147
 20
-241.687713
 30
0.0
 11
1240.749147
 21
-233.687713
 31
0.0
  0
LINE
  8
0
  6
BYLAYER
 62
     7
 10
1240.749147
 20
-233.687713
 30
0.0
 11
1232.749147
 21
-233.687713
 31
0.0
  0
LINE
  8
0
  6
BYLAYER
 62
     7
 10
1240.749147
 20
-241.687713
 30
0.0
 11
1232.749147
 21
-241.687713
 31
0.0
  0
LINE
  8
0
  6
BYLAYER
 62
     7
 10
1232.749147
 20
-233.687713
 30
0.0
 11
1232.749147
 21
-241.687713
 31
0.0
  0
LINE
  8
0
  6
BYLAYER
 62
     7
 10
1230.749147
 20
-231.687713
 30
0.0
 11
1230.749147
 21
-223.687713
 31
0.0
  0
LINE
  8
0
  6
BYLAYER
 62
     7
 10
1230.749147
 20
-223.687713
 30
0.0
 11
1222.749147
 21
-223.687713
 31
0.0
  0
LINE
  8
0
  6
BYLAYER
 62
     7
 10
1230.749147
 20
-231.687713
 30
0.0
 11
1222.749147
 21
-231.687713
 31
0.0
  0
LINE
  8
0
  6
BYLAYER
 62
     7
 10
1222.749147
 20
-223.687713
 30
0.0
 11
1222.749147
 21
-231.687713
 31
0.0
  0
LINE
  8
0
  6
BYLAYER
 62
     7
 10
1220.749147
 20
-221.687713
 30
0.0
 11
1220.749147
 21
-213.687713
 31
0.0
  0
LINE
  8
0
  6
BYLAYER
 62
     7
 10
1220.749147
 20
-213.687713
 30
0.0
 11
1212.749147
 21
-213.687713
 31
0.0
  0
LINE
  8
0
  6
BYLAYER
 62
     7
 10
1220.749147
 20
-221.687713
 30
0.0
 11
1212.749147
 21
-221.687713
 31
0.0
  0
LINE
  8
0
  6
BYLAYER
 62
     7
 10
1212.749147
 20
-213.687713
 30
0.0
 11
1212.749147
 21
-221.687713
 31
0.0
  0
LINE
  8
0
  6
BYLAYER
 62
     7
 10
1210.749147
 20
-193.687713
 30
0.0
 11
1202.749147
 21
-193.687713
 31
0.0
  0
LINE
  8
0
  6
BYLAYER
 62
     7
 10
1210.749147
 20
-201.687713
 30
0.0
 11
1210.749147
 21
-193.687713
 31
0.0
  0
LINE
  8
0
  6
BYLAYER
 62
     7
 10
1210.749147
 20
-201.687713
 30
0.0
 11
1202.749147
 21
-201.687713
 31
0.0
  0
LINE
  8
0
  6
BYLAYER
 62
     7
 10
1202.749147
 20
-193.687713
 30
0.0
 11
1202.749147
 21
-201.687713
 31
0.0
  0
LINE
  8
0
  6
BYLAYER
 62
     7
 10
1210.749147
 20
-203.687713
 30
0.0
 11
1202.749147
 21
-203.687713
 31
0.0
  0
LINE
  8
0
  6
BYLAYER
 62
     7
 10
1210.749147
 20
-211.687713
 30
0.0
 11
1210.749147
 21
-203.687713
 31
0.0
  0
LINE
  8
0
  6
BYLAYER
 62
     7
 10
1210.749147
 20
-211.687713
 30
0.0
 11
1202.749147
 21
-211.687713
 31
0.0
  0
LINE
  8
0
  6
BYLAYER
 62
     7
 10
1202.749147
 20
-203.687713
 30
0.0
 11
1202.749147
 21
-211.687713
 31
0.0
  0
LINE
  8
0
  6
BYLAYER
 62
     7
 10
1200.749147
 20
-173.687713
 30
0.0
 11
1192.749147
 21
-173.687713
 31
0.0
  0
LINE
  8
0
  6
BYLAYER
 62
     7
 10
1200.749147
 20
-181.687713
 30
0.0
 11
1200.749147
 21
-173.687713
 31
0.0
  0
LINE
  8
0
  6
BYLAYER
 62
     7
 10
1200.749147
 20
-181.687713
 30
0.0
 11
1192.749147
 21
-181.687713
 31
0.0
  0
LINE
  8
0
  6
BYLAYER
 62
     7
 10
1192.749147
 20
-173.687713
 30
0.0
 11
1192.749147
 21
-181.687713
 31
0.0
  0
LINE
  8
0
  6
BYLAYER
 62
     7
 10
1200.749147
 20
-183.687713
 30
0.0
 11
1192.749147
 21
-183.687713
 31
0.0
  0
LINE
  8
0
  6
BYLAYER
 62
     7
 10
1200.749147
 20
-191.687713
 30
0.0
 11
1200.749147
 21
-183.687713
 31
0.0
  0
LINE
  8
0
  6
BYLAYER
 62
     7
 10
1200.749147
 20
-191.687713
 30
0.0
 11
1192.749147
 21
-191.687713
 31
0.0
  0
LINE
  8
0
  6
BYLAYER
 62
     7
 10
1192.749147
 20
-183.687713
 30
0.0
 11
1192.749147
 21
-191.687713
 31
0.0
  0
CIRCLE
  8
0
  6
BYLAYER
 62
     7
 10
1281.749147
 20
-172.687713
 30
0.0
 40
97.500549
  0
CIRCLE
  8
0
  6
BYLAYER
 62
     7
 10
1281.749147
 20
-172.687713
 30
0.0
 40
124.400549
  0
ARC
  8
0
  6
BYLAYER
 62
     7
 10
1281.749147
 20
-172.687713
 30
0.0
 40
150.000000
 50
113.162069
 51
426.837931
  0
ARC
  8
0
  6
BYLAYER
 62
     7
 10
1281.749147
 20
-172.687713
 30
0.0
 40
146.0
 50
271.691267
 51
313.523961
  0
ARC
  8
0
  6
BYLAYER
 62
     7
 10
1281.749147
 20
-172.687713
 30
0.0
 40
146.0
 50
226.476039
 51
268.308733
  0
ARC
  8
0
  6
BYLAYER
 62
     7
 10
1281.749147
 20
-172.687713
 30
0.0
 40
146.000000
 50
181.691267
 51
223.523961
  0
ARC
  8
0
  6
BYLAYER
 62
     7
 10
1281.749147
 20
-172.687713
 30
0.0
 40
146.000000
 50
136.476039
 51
178.308733
  0
ARC
  8
0
  6
BYLAYER
 62
     7
 10
1281.749147
 20
-172.687713
 30
0.0
 40
146.000000
 50
113.835341
 51
133.523961
  0
ARC
  8
0
  6
BYLAYER
 62
     7
 10
1281.749147
 20
-172.687713
 30
0.0
 40
146.000000
 50
46.476039
 51
66.164659
  0
ARC
  8
0
  6
BYLAYER
 62
     7
 10
1281.749147
 20
-172.687713
 30
0.0
 40
146.0
 50
1.691267
 51
43.523961
  0
ARC
  8
0
  6
BYLAYER
 62
     7
 10
1281.749147
 20
-172.687713
 30
0.0
 40
146.0
 50
316.476039
 51
358.308733
  0
ARC
  8
0
  6
BYLAYER
 62
     7
 10
1137.811878
 20
-176.937713
 30
0.0
 40
2.000000
 50
90.0
 51
181.691267
  0
ARC
  8
0
  6
BYLAYER
 62
     7
 10
1137.811878
 20
-168.437713
 30
0.0
 40
2.000000
 50
178.308733
 51
270.000000
  0
LINE
  8
0
  6
BYLAYER
 62
     7
 10
1137.811878
 20
-170.437713
 30
0.0
 11
1157.368947
 21
-170.437713
 31
0.0
  0
LINE
  8
0
  6
BYLAYER
 62
     7
 10
1137.811878
 20
-174.937713
 30
0.0
 11
1157.368947
 21
-174.937713
 31
0.0
  0
ARC
  8
0
  6
BYLAYER
 62
     7
 10
1285.999147
 20
-316.624982
 30
0.0
 40
2.000000
 50
180.000000
 51
271.691267
  0
ARC
  8
0
  6
BYLAYER
 62
     7
 10
1277.499147
 20
-316.624982
 30
0.0
 40
2.000000
 50
268.308733
 51
360.000000
  0
LINE
  8
0
  6
BYLAYER
 62
     7
 10
1279.499147
 20
-316.624982
 30
0.0
 11
1279.499147
 21
-297.067913
 31
0.0
  0
LINE
  8
0
  6
BYLAYER
 62
     7
 10
1283.999147
 20
-316.624982
 30
0.0
 11
1283.999147
 21
-297.067913
 31
0.0
  0
ARC
  8
0
  6
BYLAYER
 62
     7
 10
1425.686416
 20
-168.437713
 30
0.0
 40
2.000000
 50
270.0
 51
361.691267
  0
ARC
  8
0
  6
BYLAYER
 62
     7
 10
1425.686416
 20
-176.937713
 30
0.0
 40
2.000000
 50
358.308733
 51
450.000000
  0
LINE
  8
0
  6
BYLAYER
 62
     7
 10
1425.686416
 20
-174.937713
 30
0.0
 11
1406.129347
 21
-174.937713
 31
0.0
  0
LINE
  8
0
  6
BYLAYER
 62
     7
 10
1425.686416
 20
-170.437713
 30
0.0
 11
1406.129347
 21
-170.437713
 31
0.0
  0
CIRCLE
  8
0
  6
BYLAYER
 62
     7
 10
1375.440796
 20
-78.996064
 30
0.0
 40
7.0
  0
ARC
  8
0
  6
BYLAYER
 62
     7
 10
1375.440796
 20
-78.996064
 30
0.0
 40
12.000000
 50
61.697019
 51
179.395561
  0
ARC
  8
0
  6
BYLAYER
 62
     7
 10
1375.440796
 20
-78.996064
 30
0.0
 40
12.0
 50
270.604439
 51
388.302981
  0
ARC
  8
0
  6
BYLAYER
 62
     7
 10
1381.604538
 20
-67.550180
 30
0.0
 40
1.000000
 50
241.697019
 51
406.476039
  0
ARC
  8
0
  6
BYLAYER
 62
     7
 10
1386.886680
 20
-72.832322
 30
0.0
 40
1.000000
 50
43.523961
 51
208.302981
  0
CIRCLE
  8
0
  6
BYLAYER
 62
     7
 10
1188.057498
 20
-78.996064
 30
0.0
 40
7.0
  0
ARC
  8
0
  6
BYLAYER
 62
     7
 10
1188.057498
 20
-78.996064
 30
0.0
 40
12.0
 50
151.697019
 51
269.395561
  0
ARC
  8
0
  6
BYLAYER
 62
     7
 10
1188.057498
 20
-78.996064
 30
0.0
 40
12.000000
 50
0.604439
 51
118.302981
  0
ARC
  8
0
  6
BYLAYER
 62
     7
 10
1176.611614
 20
-72.832322
 30
0.0
 40
1.000000
 50
331.697019
 51
496.476039
  0
ARC
  8
0
  6
BYLAYER
 62
     7
 10
1181.893756
 20
-67.550180
 30
0.0
 40
1.000000
 50
133.523961
 51
298.302981
  0
CIRCLE
  8
0
  6
BYLAYER
 62
     7
 10
1188.057498
 20
-266.379362
 30
0.0
 40
7.0
  0
ARC
  8
0
  6
BYLAYER
 62
     7
 10
1188.057498
 20
-266.379362
 30
0.0
 40
12.0
 50
241.697019
 51
359.395561
  0
ARC
  8
0
  6
BYLAYER
 62
     7
 10
1188.057498
 20
-266.379362
 30
0.0
 40
12.0
 50
90.604439
 51
208.302981
  0
ARC
  8
0
  6
BYLAYER
 62
     7
 10
1181.893756
 20
-277.825246
 30
0.0
 40
1.000000
 50
61.697019
 51
226.476039
  0
ARC
  8
0
  6
BYLAYER
 62
     7
 10
1176.611614
 20
-272.543104
 30
0.0
 40
1.000000
 50
223.523961
 51
388.302981
  0
CIRCLE
  8
0
  6
BYLAYER
 62
     7
 10
1375.440796
 20
-266.379362
 30
0.0
 40
7.0
  0
ARC
  8
0
  6
BYLAYER
 62
     7
 10
1375.440796
 20
-266.379362
 30
0.0
 40
12.000000
 50
331.697019
 51
449.395561
  0
ARC
  8
0
  6
BYLAYER
 62
     7
 10
1375.440796
 20
-266.379362
 30
0.0
 40
12.000000
 50
180.604439
 51
298.302981
  0
ARC
  8
0
  6
BYLAYER
 62
     7
 10
1386.886680
 20
-272.543104
 30
0.0
 40
1.000000
 50
151.697019
 51
316.476039
  0
ARC
  8
0
  6
BYLAYER
 62
     7
 10
1381.604538
 20
-277.825246
 30
0.0
 40
1.000000
 50
313.523961
 51
478.302981
  0
LINE
  8
0
  6
BYLAYER
 62
     7
 10
1222.749147
 20
-651.687713
 30
0.0
 11
1222.749147
 21
-654.778322
 31
0.0
  0
LINE
  8
0
  6
BYLAYER
 62
     7
 10
1340.749147
 20
-654.778322
 30
0.0
 11
1340.749147
 21
-651.687713
 31
0.0
  0
LINE
  8
0
  6
BYLAYER
 62
     7
 10
1228.749147
 20
-641.437713
 30
0.0
 11
1228.749147
 21
-619.937713
 31
0.0
  0
ARC
  8
0
  6
BYLAYER
 62
     7
 10
1227.249147
 20
-641.437713
 30
0.0
 40
1.5
 50
270.0
 51
360.0
  0
ARC
  8
0
  6
BYLAYER
 62
     7
 10
1230.249147
 20
-619.937713
 30
0.0
 40
1.5
 50
90.0
 51
180.0
  0
LINE
  8
0
  6
BYLAYER
 62
     7
 10
1230.249147
 20
-618.437713
 30
0.0
 11
1281.749147
 21
-618.437713
 31
0.0
  0
LINE
  8
0
  6
BYLAYER
 62
     7
 10
1235.133867
 20
-641.437713
 30
0.0
 11
1235.133867
 21
-619.937713
 31
0.0
  0
ARC
  8
0
  6
BYLAYER
 62
     7
 10
1233.633867
 20
-641.437713
 30
0.0
 40
1.500000
 50
270.0
 51
360.0
  0
ARC
  8
0
  6
BYLAYER
 62
     7
 10
1236.633867
 20
-619.937713
 30
0.0
 40
1.500000
 50
90.0
 51
180.0
  0
LINE
  8
0
  6
BYLAYER
 62
     7
 10
1276.155494
 20
-618.437713
 30
0.0
 11
1276.648041
 21
-632.542411
 31
0.0
  0
ARC
  8
0
  6
BYLAYER
 62
     7
 10
1279.646213
 20
-632.437713
 30
0.0
 40
3.0
 50
182.000000
 51
270.000000
  0
LINE
  8
0
  6
BYLAYER
 62
     7
 10
1279.646213
 20
-635.437713
 30
0.0
 11
1281.749147
 21
-635.437713
 31
0.0
  0
LINE
  8
0
  6
BYLAYER
 62
     7
 10
1276.190415
 20
-619.437713
 30
0.0
 11
1281.749147
 21
-619.437713
 31
0.0
  0
LINE
  8
0
  6
BYLAYER
 62
     7
 10
1261.155494
 20
-618.437713
 30
0.0
 11
1261.648041
 21
-632.542411
 31
0.0
  0
ARC
  8
0
  6
BYLAYER
 62
     7
 10
1264.646213
 20
-632.437713
 30
0.0
 40
3.0
 50
182.000000
 51
270.000000
  0
LINE
  8
0
  6
BYLAYER
 62
     7
 10
1271.850253
 20
-632.542411
 30
0.0
 11
1272.342800
 21
-618.437713
 31
0.0
  0
ARC
  8
0
  6
BYLAYER
 62
     7
 10
1268.852081
 20
-632.437713
 30
0.0
 40
3.0
 50
270.0
 51
358.0
  0
LINE
  8
0
  6
BYLAYER
 62
     7
 10
1264.646213
 20
-635.437713
 30
0.0
 11
1268.852081
 21
-635.437713
 31
0.0
  0
LINE
  8
0
  6
BYLAYER
 62
     7
 10
1261.190415
 20
-619.437713
 30
0.0
 11
1272.307879
 21
-619.437713
 31
0.0
  0
LINE
  8
0
  6
BYLAYER
 62
     7
 10
1246.155494
 20
-618.437713
 30
0.0
 11
1246.648041
 21
-632.542411
 31
0.0
  0
ARC
  8
0
  6
BYLAYER
 62
     7
 10
1249.646213
 20
-632.437713
 30
0.0
 40
3.0
 50
182.000000
 51
270.000000
  0
LINE
  8
0
  6
BYLAYER
 62
     7
 10
1256.850253
 20
-632.542411
 30
0.0
 11
1257.342800
 21
-618.437713
 31
0.0
  0
ARC
  8
0
  6
BYLAYER
 62
     7
 10
1253.852081
 20
-632.437713
 30
0.0
 40
3.0
 50
270.0
 51
358.0
  0
LINE
  8
0
  6
BYLAYER
 62
     7
 10
1249.646213
 20
-635.437713
 30
0.0
 11
1253.852081
 21
-635.437713
 31
0.0
  0
LINE
  8
0
  6
BYLAYER
 62
     7
 10
1246.190415
 20
-619.437713
 30
0.0
 11
1257.307879
 21
-619.437713
 31
0.0
  0
LINE
  8
0
  6
BYLAYER
 62
     7
 10
1224.249147
 20
-642.937713
 30
0.0
 11
1281.749147
 21
-642.937713
 31
0.0
  0
ARC
  8
0
  6
BYLAYER
 62
     7
 10
1224.249147
 20
-644.437713
 30
0.0
 40
1.5
 50
90.0
 51
180.0
  0
LINE
  8
0
  6
BYLAYER
 62
     7
 10
1222.749147
 20
-649.687713
 30
0.0
 11
1222.749147
 21
-644.437713
 31
0.0
  0
LINE
  8
0
  6
BYLAYER
 62
     7
 10
1222.749147
 20
-649.687713
 30
0.0
 11
1236.461180
 21
-649.687713
 31
0.0
  0
LINE
  8
0
  6
BYLAYER
 62
     7
 10
1334.749147
 20
-641.437713
 30
0.0
 11
1334.749147
 21
-619.937713
 31
0.0
  0
ARC
  8
0
  6
BYLAYER
 62
     7
 10
1336.249147
 20
-641.437713
 30
0.0
 40
1.5
 50
180.000000
 51
270.000000
  0
ARC
  8
0
  6
BYLAYER
 62
     7
 10
1333.249147
 20
-619.937713
 30
0.0
 40
1.5
 50
0.0
 51
90.0
  0
LINE
  8
0
  6
BYLAYER
 62
     7
 10
1333.249147
 20
-618.437713
 30
0.0
 11
1281.749147
 21
-618.437713
 31
0.0
  0
LINE
  8
0
  6
BYLAYER
 62
     7
 10
1328.364427
 20
-641.437713
 30
0.0
 11
1328.364427
 21
-619.937713
 31
0.0
  0
ARC
  8
0
  6
BYLAYER
 62
     7
 10
1329.864427
 20
-641.437713
 30
0.0
 40
1.500000
 50
180.000000
 51
270.000000
  0
ARC
  8
0
  6
BYLAYER
 62
     7
 10
1326.864427
 20
-619.937713
 30
0.0
 40
1.5
 50
0.0
 51
90.0
  0
LINE
  8
0
  6
BYLAYER
 62
     7
 10
1287.342800
 20
-618.437713
 30
0.0
 11
1286.850253
 21
-632.542411
 31
0.0
  0
ARC
  8
0
  6
BYLAYER
 62
     7
 10
1283.852081
 20
-632.437713
 30
0.0
 40
3.0
 50
270.0
 51
358.0
  0
LINE
  8
0
  6
BYLAYER
 62
     7
 10
1283.852081
 20
-635.437713
 30
0.0
 11
1281.749147
 21
-635.437713
 31
0.0
  0
LINE
  8
0
  6
BYLAYER
 62
     7
 10
1287.307879
 20
-619.437713
 30
0.0
 11
1281.749147
 21
-619.437713
 31
0.0
  0
LINE
  8
0
  6
BYLAYER
 62
     7
 10
1302.342800
 20
-618.437713
 30
0.0
 11
1301.850253
 21
-632.542411
 31
0.0
  0
ARC
  8
0
  6
BYLAYER
 62
     7
 10
1298.852081
 20
-632.437713
 30
0.0
 40
3.0
 50
270.0
 51
358.0
  0
LINE
  8
0
  6
BYLAYER
 62
     7
 10
1291.648041
 20
-632.542411
 30
0.0
 11
1291.155494
 21
-618.437713
 31
0.0
  0
ARC
  8
0
  6
BYLAYER
 62
     7
 10
1294.646213
 20
-632.437713
 30
0.0
 40
3.0
 50
182.000000
 51
270.000000
  0
LINE
  8
0
  6
BYLAYER
 62
     7
 10
1298.852081
 20
-635.437713
 30
0.0
 11
1294.646213
 21
-635.437713
 31
0.0
  0
LINE
  8
0
  6
BYLAYER
 62
     7
 10
1302.307879
 20
-619.437713
 30
0.0
 11
1291.190415
 21
-619.437713
 31
0.0
  0
LINE
  8
0
  6
BYLAYER
 62
     7
 10
1317.342800
 20
-618.437713
 30
0.0
 11
1316.850253
 21
-632.542411
 31
0.0
  0
ARC
  8
0
  6
BYLAYER
 62
     7
 10
1313.852081
 20
-632.437713
 30
0.0
 40
3.0
 50
270.0
 51
358.0
  0
LINE
  8
0
  6
BYLAYER
 62
     7
 10
1306.648041
 20
-632.542411
 30
0.0
 11
1306.155494
 21
-618.437713
 31
0.0
  0
ARC
  8
0
  6
BYLAYER
 62
     7
 10
1309.646213
 20
-632.437713
 30
0.0
 40
3.0
 50
182.000000
 51
270.000000
  0
LINE
  8
0
  6
BYLAYER
 62
     7
 10
1313.852081
 20
-635.437713
 30
0.0
 11
1309.646213
 21
-635.437713
 31
0.0
  0
LINE
  8
0
  6
BYLAYER
 62
     7
 10
1317.307879
 20
-619.437713
 30
0.0
 11
1306.190415
 21
-619.437713
 31
0.0
  0
LINE
  8
0
  6
BYLAYER
 62
     7
 10
1339.249147
 20
-642.937713
 30
0.0
 11
1281.749147
 21
-642.937713
 31
0.0
  0
ARC
  8
0
  6
BYLAYER
 62
     7
 10
1339.249147
 20
-644.437713
 30
0.0
 40
1.5
 50
0.0
 51
90.0
  0
LINE
  8
0
  6
BYLAYER
 62
     7
 10
1340.749147
 20
-649.687713
 30
0.0
 11
1340.749147
 21
-644.437713
 31
0.0
  0
LINE
  8
0
  6
BYLAYER
 62
     7
 10
1340.749147
 20
-649.687713
 30
0.0
 11
1327.037114
 21
-649.687713
 31
0.0
  0
LINE
  8
0
  6
BYLAYER
 62
     7
 10
1222.749147
 20
-649.687713
 30
0.0
 11
1222.749147
 21
-651.687713
 31
0.0
  0
LINE
  8
0
  6
BYLAYER
 62
     7
 10
1332.925313
 20
-651.687713
 30
0.0
 11
1340.749147
 21
-651.687713
 31
0.0
  0
LINE
  8
0
  6
BYLAYER
 62
     7
 10
1222.749147
 20
-651.687713
 30
0.0
 11
1230.572981
 21
-651.687713
 31
0.0
  0
LINE
  8
0
  6
BYLAYER
 62
     7
 10
1340.749147
 20
-649.687713
 30
0.0
 11
1340.749147
 21
-651.687713
 31
0.0
  0
LINE
  8
0
  6
BYLAYER
 62
     1
 10
1279.249025
 20
-649.187530
 30
0.0
 11
1279.249145
 21
-735.187652
 31
0.0
  0
LINE
  8
0
  6
BYLAYER
 62
     1
 10
1284.249025
 20
-649.187652
 30
0.0
 11
1284.249145
 21
-735.187652
 31
0.0
  0
ARC
  8
0
  6
BYLAYER
 62
     1
 10
1157.474489
 20
-720.937652
 30
0.0
 40
2.500085
 50
60.000002
 51
240.000007
  0
LINE
  8
0
  6
BYLAYER
 62
     1
 10
1156.224367
 20
-723.102691
 30
0.0
 11
1204.249147
 21
-750.829775
 31
0.0
  0
LINE
  8
0
  6
BYLAYER
 62
     1
 10
1158.724489
 20
-718.772491
 30
0.0
 11
1204.249147
 21
-745.056173
 31
0.0
  0
ARC
  8
0
  6
BYLAYER
 62
     1
 10
1406.023744
 20
-864.437530
 30
0.0
 40
2.499979
 50
240.000010
 51
420.000002
  0
LINE
  8
0
  6
BYLAYER
 62
     1
 10
1404.773744
 20
-866.602661
 30
0.0
 11
1366.749147
 21
-844.649125
 31
0.0
  0
LINE
  8
0
  6
BYLAYER
 62
     1
 10
1407.273744
 20
-862.272491
 30
0.0
 11
1366.749147
 21
-838.875627
 31
0.0
  0
ARC
  8
0
  6
BYLAYER
 62
     1
 10
1406.023744
 20
-720.937530
 30
0.0
 40
2.500085
 50
300.000022
 51
479.999986
  0
LINE
  8
0
  6
BYLAYER
 62
     1
 10
1404.773744
 20
-718.772491
 30
0.0
 11
1359.249147
 21
-745.056195
 31
0.0
  0
LINE
  8
0
  6
BYLAYER
 62
     1
 10
1407.273744
 20
-723.102691
 30
0.0
 11
1359.249147
 21
-750.829794
 31
0.0
  0
ARC
  8
0
  6
BYLAYER
 62
     1
 10
1157.474367
 20
-864.437621
 30
0.0
 40
2.500040
 50
119.999990
 51
300.000022
  0
LINE
  8
0
  6
BYLAYER
 62
     1
 10
1156.224367
 20
-862.272491
 30
0.0
 11
1196.749147
 21
-838.875631
 31
0.0
  0
LINE
  8
0
  6
BYLAYER
 62
     1
 10
1158.724489
 20
-866.602661
 30
0.0
 11
1196.749147
 21
-844.649158
 31
0.0
  0
ARC
  8
0
  6
BYLAYER
 62
     1
 10
1281.749147
 20
-649.187530
 30
0.0
 40
2.499878
 50
359.998617
 51
449.999999
  0
ARC
  8
0
  6
BYLAYER
 62
     1
 10
1281.749147
 20
-649.187530
 30
0.0
 40
2.5
 50
90.0
 51
180.001403
  0
ARC
  8
0
  6
BYLAYER
 62
     1
 10
1281.749147
 20
-792.687713
 30
0.0
 40
108.999962
 50
151.314221
 51
208.685693
  0
ARC
  8
0
  6
BYLAYER
 62
     1
 10
1281.749147
 20
-792.687713
 30
0.0
 40
108.999977
 50
211.314209
 51
218.756206
  0
ARC
  8
0
  6
BYLAYER
 62
     1
 10
1281.749147
 20
-792.687713
 30
0.0
 40
108.999985
 50
321.243789
 51
328.685833
  0
ARC
  8
0
  6
BYLAYER
 62
     1
 10
1281.749147
 20
-792.687713
 30
0.0
 40
109.000031
 50
331.314281
 51
388.685800
  0
ARC
  8
0
  6
BYLAYER
 62
     1
 10
1281.749147
 20
-792.687713
 30
0.0
 40
109.000008
 50
31.314293
 51
88.685826
  0
ARC
  8
0
  6
BYLAYER
 62
     1
 10
1281.749147
 20
-792.687713
 30
0.0
 40
108.999992
 50
91.314302
 51
148.685705
  0
ARC
  8
0
  6
BYLAYER
 62
     1
 10
1281.749147
 20
-792.687713
 30
0.0
 40
149.999939
 50
304.518124
 51
595.481876
  0
LINE
  8
0
  6
BYLAYER
 62
     2
 10
1177.087843
 20
-698.996002
 30
0.0
 11
1182.572668
 21
-708.496002
 31
0.0
  0
LINE
  8
0
  6
BYLAYER
 62
     2
 10
1182.572668
 20
-708.496002
 30
0.0
 11
1193.542326
 21
-708.496002
 31
0.0
  0
LINE
  8
0
  6
BYLAYER
 62
     2
 10
1193.542326
 20
-708.496002
 30
0.0
 11
1199.027151
 21
-698.996002
 31
0.0
  0
LINE
  8
0
  6
BYLAYER
 62
     2
 10
1199.027151
 20
-698.996002
 30
0.0
 11
1193.542326
 21
-689.496002
 31
0.0
  0
LINE
  8
0
  6
BYLAYER
 62
     2
 10
1193.542326
 20
-689.496002
 30
0.0
 11
1182.572668
 21
-689.496002
 31
0.0
  0
LINE
  8
0
  6
BYLAYER
 62
     2
 10
1182.572668
 20
-689.496002
 30
0.0
 11
1177.087843
 21
-698.996002
 31
0.0
  0
LINE
  8
0
  6
BYLAYER
 62
     2
 10
1364.471082
 20
-698.995880
 30
0.0
 11
1369.955907
 21
-708.495880
 31
0.0
  0
LINE
  8
0
  6
BYLAYER
 62
     2
 10
1369.955907
 20
-708.495880
 30
0.0
 11
1380.925565
 21
-708.495880
 31
0.0
  0
LINE
  8
0
  6
BYLAYER
 62
     2
 10
1380.925565
 20
-708.495880
 30
0.0
 11
1386.410390
 21
-698.995880
 31
0.0
  0
LINE
  8
0
  6
BYLAYER
 62
     2
 10
1386.410390
 20
-698.995880
 30
0.0
 11
1380.925565
 21
-689.495880
 31
0.0
  0
LINE
  8
0
  6
BYLAYER
 62
     2
 10
1380.925565
 20
-689.495880
 30
0.0
 11
1369.955907
 21
-689.495880
 31
0.0
  0
LINE
  8
0
  6
BYLAYER
 62
     2
 10
1369.955907
 20
-689.495880
 30
0.0
 11
1364.471082
 21
-698.995880
 31
0.0
  0
LINE
  8
0
  6
BYLAYER
 62
     2
 10
1366.749147
 20
-890.324937
 30
0.0
 11
1369.955907
 21
-895.879211
 31
0.0
  0
LINE
  8
0
  6
BYLAYER
 62
     2
 10
1369.955907
 20
-895.879211
 30
0.0
 11
1380.925565
 21
-895.879211
 31
0.0
  0
LINE
  8
0
  6
BYLAYER
 62
     2
 10
1380.925565
 20
-895.879211
 30
0.0
 11
1386.410390
 21
-886.379211
 31
0.0
  0
LINE
  8
0
  6
BYLAYER
 62
     2
 10
1386.410390
 20
-886.379211
 30
0.0
 11
1380.925565
 21
-876.879211
 31
0.0
  0
LINE
  8
0
  6
BYLAYER
 62
     2
 10
1380.925565
 20
-876.879211
 30
0.0
 11
1369.955907
 21
-876.879211
 31
0.0
  0
LINE
  8
0
  6
BYLAYER
 62
     2
 10
1369.955907
 20
-876.879211
 30
0.0
 11
1366.749147
 21
-882.433485
 31
0.0
  0
LINE
  8
0
  6
BYLAYER
 62
     2
 10
1177.087843
 20
-886.379180
 30
0.0
 11
1182.572668
 21
-895.879181
 31
0.0
  0
LINE
  8
0
  6
BYLAYER
 62
     2
 10
1182.572668
 20
-895.879181
 30
0.0
 11
1193.542326
 21
-895.879181
 31
0.0
  0
LINE
  8
0
  6
BYLAYER
 62
     2
 10
1193.542326
 20
-895.879181
 30
0.0
 11
1196.749147
 21
-890.324800
 31
0.0
  0
LINE
  8
0
  6
BYLAYER
 62
     2
 10
1196.749147
 20
-882.433561
 30
0.0
 11
1193.542326
 21
-876.879181
 31
0.0
  0
LINE
  8
0
  6
BYLAYER
 62
     2
 10
1193.542326
 20
-876.879181
 30
0.0
 11
1182.572668
 21
-876.879181
 31
0.0
  0
LINE
  8
0
  6
BYLAYER
 62
     2
 10
1182.572668
 20
-876.879181
 30
0.0
 11
1177.087843
 21
-886.379180
 31
0.0
  0
ARC
  8
0
  6
BYLAYER
 62
     1
 10
571.249147
 20
-1068.687713
 30
0.0
 40
4.000000
 50
180.000000
 51
269.999996
  0
ARC
  8
0
  6
BYLAYER
 62
     1
 10
547.027223
 20
-979.687713
 30
0.0
 40
2.999946
 50
13.796774
 51
89.999992
  0
LINE
  8
0
  6
BYLAYER
 62
     1
 10
549.940614
 20
-978.972289
 30
0.0
 11
567.162599
 21
-1049.105224
 31
0.0
  0
ARC
  8
0
  6
BYLAYER
 62
     1
 10
564.249147
 20
-1049.820709
 30
0.0
 40
3.000020
 50
0.0
 51
13.796518
  0
LINE
  8
0
  6
BYLAYER
 62
     1
 10
581.749147
 20
-1072.687747
 30
0.0
 11
571.249147
 21
-1072.687713
 31
0.0
  0
LINE
  8
0
  6
BYLAYER
 62
     1
 10
581.749147
 20
-922.687713
 30
0.0
 11
581.749147
 21
-1072.687747
 31
0.0
  0
LINE
  8
0
  6
BYLAYER
 62
     1
 10
546.749147
 20
-976.687713
 30
0.0
 11
546.749147
 21
-922.687713
 31
0.0
  0
LINE
  8
0
  6
BYLAYER
 62
     1
 10
567.102296
 20
-1031.235900
 30
0.0
 11
550.052248
 21
-978.760894
 31
0.0
  0
LINE
  8
0
  6
BYLAYER
 62
     1
 10
547.198976
 20
-976.687713
 30
0.0
 11
546.749147
 21
-976.687713
 31
0.0
  0
ARC
  8
0
  6
BYLAYER
 62
     1
 10
547.198976
 20
-979.687713
 30
0.0
 40
3.0
 50
17.999971
 51
90.000000
  0
LINE
  8
0
  6
BYLAYER
 62
     1
 10
567.249147
 20
-1068.687713
 30
0.0
 11
567.249147
 21
-922.687713
 31
0.0
  0
ARC
  8
0
  6
BYLAYER
 62
     1
 10
564.249147
 20
-1032.163024
 30
0.0
 40
3.000000
 50
0.0
 51
17.999782
  0
LINE
  8
0
  6
BYLAYER
 62
     1
 10
549.940614
 20
-978.972289
 30
0.0
 11
549.940614
 21
-922.687713
 31
0.0
  0
ARC
  8
0
  6
BYLAYER
 62
     1
 10
571.249147
 20
-776.687713
 30
0.0
 40
4.000000
 50
90.0
 51
179.999996
  0
ARC
  8
0
  6
BYLAYER
 62
     1
 10
547.027223
 20
-865.687713
 30
0.0
 40
2.999946
 50
270.0
 51
346.203218
  0
LINE
  8
0
  6
BYLAYER
 62
     1
 10
549.940614
 20
-866.403137
 30
0.0
 11
567.162599
 21
-796.270202
 31
0.0
  0
ARC
  8
0
  6
BYLAYER
 62
     1
 10
564.249147
 20
-795.554717
 30
0.0
 40
3.000020
 50
346.203499
 51
360.000017
  0
LINE
  8
0
  6
BYLAYER
 62
     1
 10
581.749147
 20
-772.687679
 30
0.0
 11
571.249147
 21
-772.687713
 31
0.0
  0
LINE
  8
0
  6
BYLAYER
 62
     1
 10
581.749147
 20
-922.687713
 30
0.0
 11
581.749147
 21
-772.687679
 31
0.0
  0
LINE
  8
0
  6
BYLAYER
 62
     1
 10
546.749147
 20
-868.687713
 30
0.0
 11
546.749147
 21
-922.687713
 31
0.0
  0
LINE
  8
0
  6
BYLAYER
 62
     1
 10
567.102296
 20
-814.139526
 30
0.0
 11
550.052248
 21
-866.614532
 31
0.0
  0
LINE
  8
0
  6
BYLAYER
 62
     1
 10
547.198976
 20
-868.687713
 30
0.0
 11
546.749147
 21
-868.687713
 31
0.0
  0
ARC
  8
0
  6
BYLAYER
 62
     1
 10
547.198976
 20
-865.687713
 30
0.0
 40
3.000000
 50
270.0
 51
342.000029
  0
LINE
  8
0
  6
BYLAYER
 62
     1
 10
567.249147
 20
-776.687713
 30
0.0
 11
567.249147
 21
-922.687713
 31
0.0
  0
ARC
  8
0
  6
BYLAYER
 62
     1
 10
564.249147
 20
-813.212402
 30
0.0
 40
3.000000
 50
342.000218
 51
360.000000
  0
LINE
  8
0
  6
BYLAYER
 62
     1
 10
549.940614
 20
-866.403137
 30
0.0
 11
549.940614
 21
-922.687713
 31
0.0
  0
ENDSEC
  0
EOF
