  0
SECTION
  2
HEADER
  9
$EXTMIN
 10
244.477816
 20
968.000000
 30
0.0
  9
$EXTMAX
 10
1278.552901
 20
0.0
 30
0.0
  0
ENDSEC
  0
SECTION
  2
TABLES
  0
ENDSEC
  0
SECTION
  2
BLOCKS
  0
ENDSEC
  0
SECTION
  2
ENTITIES
  0
LINE
  8
0
  6
BYLAYER
 62
     7
 10
569.476109
 20
-201.120307
 30
0.0
 11
569.476109
 21
-213.370307
 31
0.0
  0
LINE
  8
0
  6
BYLAYER
 62
     7
 10
571.976109
 20
-201.120307
 30
0.0
 11
569.476109
 21
-201.120307
 31
0.0
  0
LINE
  8
0
  6
BYLAYER
 62
     7
 10
569.476109
 20
-213.370307
 30
0.0
 11
546.976109
 21
-213.763046
 31
0.0
  0
LINE
  8
0
  6
BYLAYER
 62
     7
 10
546.976109
 20
-227.870307
 30
0.0
 11
534.976109
 21
-227.870307
 31
0.0
  0
LINE
  8
0
  6
BYLAYER
 62
     7
 10
546.976109
 20
-27.870307
 30
0.0
 11
534.976109
 21
-27.870307
 31
0.0
  0
LINE
  8
0
  6
BYLAYER
 62
     7
 10
546.976109
 20
-27.870307
 30
0.0
 11
546.976109
 21
-127.870307
 31
0.0
  0
ARC
  8
0
  6
BYLAYER
 62
     7
 10
547.976109
 20
-54.387610
 30
0.0
 40
1.0
 50
180.000000
 51
269.000000
  0
LINE
  8
0
  6
BYLAYER
 62
     7
 10
546.976109
 20
-127.870307
 30
0.0
 11
546.976109
 21
-227.870307
 31
0.0
  0
LINE
  8
0
  6
BYLAYER
 62
     7
 10
547.958657
 20
-55.387457
 30
0.0
 11
571.976109
 21
-55.806684
 31
0.0
  0
LINE
  8
0
  6
BYLAYER
 62
     7
 10
571.976109
 20
-55.806684
 30
0.0
 11
571.976109
 21
-201.120307
 31
0.0
  0
LINE
  8
0
  6
BYLAYER
 62
     7
 10
534.976109
 20
-127.870307
 30
0.0
 11
534.976109
 21
-227.870307
 31
0.0
  0
LINE
  8
0
  6
BYLAYER
 62
     7
 10
534.976109
 20
-27.870307
 30
0.0
 11
534.976109
 21
-127.870307
 31
0.0
  0
LINE
  8
0
  6
BYLAYER
 62
     7
 10
651.476078
 20
-121.470268
 30
0.0
 11
576.276066
 21
-121.470268
 31
0.0
  0
LINE
  8
0
  6
BYLAYER
 62
     7
 10
651.476078
 20
-123.070274
 30
0.0
 11
576.276066
 21
-123.070274
 31
0.0
  0
ARC
  8
0
  6
BYLAYER
 62
     7
 10
580.276066
 20
-77.470268
 30
0.0
 40
0.799927
 50
90.0
 51
270.000012
  0
ARC
  8
0
  6
BYLAYER
 62
     7
 10
576.276066
 20
-122.270256
 30
0.0
 40
0.800018
 50
90.0
 51
270.000012
  0
ARC
  8
0
  6
BYLAYER
 62
     7
 10
580.276066
 20
-122.270256
 30
0.0
 40
0.800018
 50
90.0
 51
270.000012
  0
ARC
  8
0
  6
BYLAYER
 62
     7
 10
576.276066
 20
-111.070274
 30
0.0
 40
0.799988
 50
90.0
 51
270.000012
  0
ARC
  8
0
  6
BYLAYER
 62
     7
 10
580.276066
 20
-111.070274
 30
0.0
 40
0.799988
 50
90.0
 51
270.000012
  0
ARC
  8
0
  6
BYLAYER
 62
     7
 10
576.276066
 20
-99.870293
 30
0.0
 40
0.799927
 50
90.0
 51
270.000012
  0
ARC
  8
0
  6
BYLAYER
 62
     7
 10
580.276066
 20
-99.870293
 30
0.0
 40
0.799927
 50
90.0
 51
270.000012
  0
LINE
  8
0
  6
BYLAYER
 62
     7
 10
651.476078
 20
-99.070244
 30
0.0
 11
576.276066
 21
-99.070244
 31
0.0
  0
LINE
  8
0
  6
BYLAYER
 62
     7
 10
651.476078
 20
-100.670219
 30
0.0
 11
576.276066
 21
-100.670219
 31
0.0
  0
ARC
  8
0
  6
BYLAYER
 62
     7
 10
576.276066
 20
-88.670219
 30
0.0
 40
0.800049
 50
90.0
 51
270.000012
  0
ARC
  8
0
  6
BYLAYER
 62
     7
 10
580.276066
 20
-88.670219
 30
0.0
 40
0.800049
 50
90.0
 51
270.000012
  0
LINE
  8
0
  6
BYLAYER
 62
     7
 10
651.476078
 20
-87.870293
 30
0.0
 11
576.276066
 21
-87.870293
 31
0.0
  0
LINE
  8
0
  6
BYLAYER
 62
     7
 10
651.476078
 20
-89.470268
 30
0.0
 11
576.276066
 21
-89.470268
 31
0.0
  0
ARC
  8
0
  6
BYLAYER
 62
     7
 10
576.276066
 20
-77.470268
 30
0.0
 40
0.799927
 50
90.0
 51
270.000012
  0
LINE
  8
0
  6
BYLAYER
 62
     7
 10
651.476078
 20
-76.670219
 30
0.0
 11
576.276066
 21
-76.670219
 31
0.0
  0
LINE
  8
0
  6
BYLAYER
 62
     7
 10
651.476078
 20
-78.270195
 30
0.0
 11
576.276066
 21
-78.270195
 31
0.0
  0
LINE
  8
0
  6
BYLAYER
 62
     7
 10
575.476078
 20
-31.870262
 30
0.0
 11
673.476139
 21
-31.870262
 31
0.0
  0
LINE
  8
0
  6
BYLAYER
 62
     7
 10
673.476139
 20
-31.870262
 30
0.0
 11
673.476139
 21
-76.670219
 31
0.0
  0
LINE
  8
0
  6
BYLAYER
 62
     7
 10
575.476078
 20
-55.120293
 30
0.0
 11
571.976078
 21
-55.120293
 31
0.0
  0
ARC
  8
0
  6
BYLAYER
 62
     7
 10
604.976078
 20
-45.870262
 30
0.0
 40
13.0
 50
180.000019
 51
360.000018
  0
ARC
  8
0
  6
BYLAYER
 62
     7
 10
643.976078
 20
-45.870262
 30
0.0
 40
12.999985
 50
180.000019
 51
360.000018
  0
LINE
  8
0
  6
BYLAYER
 62
     7
 10
580.976078
 20
-78.270195
 30
0.0
 11
580.976078
 21
-87.870293
 31
0.0
  0
LINE
  8
0
  6
BYLAYER
 62
     7
 10
580.976078
 20
-89.470268
 30
0.0
 11
580.976078
 21
-99.070244
 31
0.0
  0
LINE
  8
0
  6
BYLAYER
 62
     7
 10
580.976078
 20
-100.670219
 30
0.0
 11
580.976078
 21
-110.270256
 31
0.0
  0
LINE
  8
0
  6
BYLAYER
 62
     7
 10
580.976078
 20
-111.870262
 30
0.0
 11
580.976078
 21
-121.470268
 31
0.0
  0
LINE
  8
0
  6
BYLAYER
 62
     7
 10
580.976078
 20
-123.070274
 30
0.0
 11
580.976139
 21
-132.670250
 31
0.0
  0
LINE
  8
0
  6
BYLAYER
 62
     7
 10
575.476078
 20
-37.370262
 30
0.0
 11
589.976078
 21
-37.370262
 31
0.0
  0
LINE
  8
0
  6
BYLAYER
 62
     7
 10
591.976078
 20
-45.870262
 30
0.0
 11
591.976078
 21
-39.370262
 31
0.0
  0
ARC
  8
0
  6
BYLAYER
 62
     7
 10
589.976078
 20
-39.370262
 30
0.0
 40
2.000000
 50
0.0
 51
90.000003
  0
LINE
  8
0
  6
BYLAYER
 62
     7
 10
617.976078
 20
-45.870262
 30
0.0
 11
617.976078
 21
-39.370262
 31
0.0
  0
ARC
  8
0
  6
BYLAYER
 62
     7
 10
619.976078
 20
-39.370262
 30
0.0
 40
2.0
 50
90.0
 51
180.000003
  0
LINE
  8
0
  6
BYLAYER
 62
     7
 10
619.976078
 20
-37.370262
 30
0.0
 11
628.976078
 21
-37.370262
 31
0.0
  0
LINE
  8
0
  6
BYLAYER
 62
     7
 10
630.976078
 20
-45.870262
 30
0.0
 11
630.976078
 21
-39.370262
 31
0.0
  0
ARC
  8
0
  6
BYLAYER
 62
     7
 10
628.976078
 20
-39.370262
 30
0.0
 40
2.0
 50
0.0
 51
90.000003
  0
LINE
  8
0
  6
BYLAYER
 62
     7
 10
656.976078
 20
-45.870262
 30
0.0
 11
656.976078
 21
-39.370262
 31
0.0
  0
LINE
  8
0
  6
BYLAYER
 62
     7
 10
658.976139
 20
-37.370262
 30
0.0
 11
673.476139
 21
-37.370262
 31
0.0
  0
ARC
  8
0
  6
BYLAYER
 62
     7
 10
658.976139
 20
-39.370262
 30
0.0
 40
2.000061
 50
90.0
 51
180.000003
  0
LINE
  8
0
  6
BYLAYER
 62
     7
 10
575.476078
 20
-43.370262
 30
0.0
 11
591.976078
 21
-43.370262
 31
0.0
  0
LINE
  8
0
  6
BYLAYER
 62
     7
 10
617.976078
 20
-43.370262
 30
0.0
 11
630.976078
 21
-43.370262
 31
0.0
  0
LINE
  8
0
  6
BYLAYER
 62
     7
 10
656.976078
 20
-43.370262
 30
0.0
 11
673.476139
 21
-43.370262
 31
0.0
  0
LINE
  8
0
  6
BYLAYER
 62
     7
 10
651.476078
 20
-132.670280
 30
0.0
 11
576.276066
 21
-132.670280
 31
0.0
  0
LINE
  8
0
  6
BYLAYER
 62
     7
 10
651.476078
 20
-134.270286
 30
0.0
 11
576.276066
 21
-134.270286
 31
0.0
  0
ARC
  8
0
  6
BYLAYER
 62
     7
 10
576.276066
 20
-133.470268
 30
0.0
 40
0.800018
 50
90.0
 51
270.000012
  0
ARC
  8
0
  6
BYLAYER
 62
     7
 10
580.276066
 20
-133.470268
 30
0.0
 40
0.800018
 50
90.0
 51
270.000012
  0
LINE
  8
0
  6
BYLAYER
 62
     7
 10
651.476078
 20
-143.870262
 30
0.0
 11
576.276066
 21
-143.870262
 31
0.0
  0
LINE
  8
0
  6
BYLAYER
 62
     7
 10
651.476078
 20
-145.470268
 30
0.0
 11
576.276066
 21
-145.470268
 31
0.0
  0
ARC
  8
0
  6
BYLAYER
 62
     7
 10
576.276066
 20
-144.670250
 30
0.0
 40
0.800018
 50
90.0
 51
270.000012
  0
ARC
  8
0
  6
BYLAYER
 62
     7
 10
580.276066
 20
-144.670250
 30
0.0
 40
0.800018
 50
90.0
 51
270.000012
  0
LINE
  8
0
  6
BYLAYER
 62
     7
 10
651.476078
 20
-155.070274
 30
0.0
 11
576.276066
 21
-155.070274
 31
0.0
  0
LINE
  8
0
  6
BYLAYER
 62
     7
 10
651.476078
 20
-156.670280
 30
0.0
 11
576.276066
 21
-156.670280
 31
0.0
  0
ARC
  8
0
  6
BYLAYER
 62
     7
 10
576.276066
 20
-155.870262
 30
0.0
 40
0.800018
 50
90.0
 51
270.000012
  0
ARC
  8
0
  6
BYLAYER
 62
     7
 10
580.276066
 20
-155.870262
 30
0.0
 40
0.800018
 50
90.0
 51
270.000012
  0
LINE
  8
0
  6
BYLAYER
 62
     7
 10
651.476078
 20
-166.270256
 30
0.0
 11
576.276066
 21
-166.270256
 31
0.0
  0
LINE
  8
0
  6
BYLAYER
 62
     7
 10
651.476078
 20
-167.870262
 30
0.0
 11
576.276066
 21
-167.870262
 31
0.0
  0
ARC
  8
0
  6
BYLAYER
 62
     7
 10
576.276066
 20
-167.070244
 30
0.0
 40
0.800018
 50
90.0
 51
270.000012
  0
ARC
  8
0
  6
BYLAYER
 62
     7
 10
580.276066
 20
-167.070244
 30
0.0
 40
0.800018
 50
90.0
 51
270.000012
  0
LINE
  8
0
  6
BYLAYER
 62
     7
 10
651.476078
 20
-177.470268
 30
0.0
 11
576.276066
 21
-177.470268
 31
0.0
  0
ARC
  8
0
  6
BYLAYER
 62
     7
 10
576.276066
 20
-178.270256
 30
0.0
 40
0.800018
 50
90.0
 51
270.000012
  0
ARC
  8
0
  6
BYLAYER
 62
     7
 10
580.276066
 20
-178.270256
 30
0.0
 40
0.800018
 50
90.0
 51
270.000012
  0
LINE
  8
0
  6
BYLAYER
 62
     7
 10
575.476078
 20
-31.870262
 30
0.0
 11
575.476139
 21
-200.620262
 31
0.0
  0
LINE
  8
0
  6
BYLAYER
 62
     7
 10
651.476078
 20
-155.070274
 30
0.0
 11
718.011111
 21
-155.070228
 31
0.0
  0
LINE
  8
0
  6
BYLAYER
 62
     7
 10
651.476078
 20
-156.670280
 30
0.0
 11
718.011111
 21
-156.670234
 31
0.0
  0
LINE
  8
0
  6
BYLAYER
 62
     7
 10
580.976078
 20
-134.270256
 30
0.0
 11
580.976139
 21
-143.870262
 31
0.0
  0
LINE
  8
0
  6
BYLAYER
 62
     7
 10
580.976078
 20
-145.470268
 30
0.0
 11
580.976139
 21
-155.070244
 31
0.0
  0
LINE
  8
0
  6
BYLAYER
 62
     7
 10
580.976078
 20
-156.670280
 30
0.0
 11
580.976139
 21
-166.270256
 31
0.0
  0
LINE
  8
0
  6
BYLAYER
 62
     7
 10
580.976078
 20
-167.870262
 30
0.0
 11
580.976139
 21
-177.470238
 31
0.0
  0
ARC
  8
0
  6
BYLAYER
 62
     7
 10
611.476078
 20
-111.070274
 30
0.0
 40
3.000015
 50
13.212986
 51
166.787045
  0
ARC
  8
0
  6
BYLAYER
 62
     7
 10
666.476139
 20
-111.070244
 30
0.0
 40
3.000015
 50
13.213048
 51
166.786990
  0
ARC
  8
0
  6
BYLAYER
 62
     7
 10
666.476139
 20
-111.070244
 30
0.0
 40
3.000008
 50
193.212979
 51
346.787064
  0
ARC
  8
0
  6
BYLAYER
 62
     7
 10
611.476078
 20
-111.070274
 30
0.0
 40
3.000008
 50
193.212979
 51
346.787064
  0
LINE
  8
0
  6
BYLAYER
 62
     7
 10
663.584782
 20
-110.270225
 30
0.0
 11
638.976078
 21
-110.270256
 31
0.0
  0
LINE
  8
0
  6
BYLAYER
 62
     7
 10
663.584782
 20
-111.870231
 30
0.0
 11
638.976078
 21
-111.870262
 31
0.0
  0
LINE
  8
0
  6
BYLAYER
 62
     7
 10
576.276066
 20
-110.270256
 30
0.0
 11
608.584721
 21
-110.270256
 31
0.0
  0
LINE
  8
0
  6
BYLAYER
 62
     7
 10
576.276066
 20
-111.870262
 30
0.0
 11
608.584721
 21
-111.870262
 31
0.0
  0
LINE
  8
0
  6
BYLAYER
 62
     7
 10
638.976078
 20
-110.270256
 30
0.0
 11
614.367466
 21
-110.270256
 31
0.0
  0
LINE
  8
0
  6
BYLAYER
 62
     7
 10
614.367466
 20
-111.870262
 30
0.0
 11
638.976078
 21
-111.870262
 31
0.0
  0
LINE
  8
0
  6
BYLAYER
 62
     7
 10
580.976139
 20
-180.811485
 30
0.0
 11
575.476139
 21
-183.651054
 31
0.0
  0
LINE
  8
0
  6
BYLAYER
 62
     7
 10
575.476139
 20
-183.651054
 30
0.0
 11
578.978153
 21
-192.584099
 31
0.0
  0
ARC
  8
0
  6
BYLAYER
 62
     7
 10
580.840183
 20
-191.854118
 30
0.0
 40
2.000007
 50
201.406501
 51
270.000001
  0
LINE
  8
0
  6
BYLAYER
 62
     7
 10
575.476139
 20
-200.620293
 30
0.0
 11
571.976139
 21
-200.620293
 31
0.0
  0
LINE
  8
0
  6
BYLAYER
 62
     7
 10
575.476139
 20
-188.320396
 30
0.0
 11
579.069309
 21
-201.261955
 31
0.0
  0
ARC
  8
0
  6
BYLAYER
 62
     7
 10
580.996403
 20
-200.726890
 30
0.0
 40
2.000010
 50
195.517184
 51
270.000001
  0
LINE
  8
0
  6
BYLAYER
 62
     7
 10
575.476139
 20
-194.489189
 30
0.0
 11
579.043827
 21
-206.179558
 31
0.0
  0
ARC
  8
0
  6
BYLAYER
 62
     7
 10
580.956730
 20
-205.595787
 30
0.0
 40
1.999996
 50
196.971318
 51
270.000001
  0
LINE
  8
0
  6
BYLAYER
 62
     7
 10
575.476139
 20
-198.357017
 30
0.0
 11
579.027347
 21
-209.300163
 31
0.0
  0
ARC
  8
0
  6
BYLAYER
 62
     7
 10
580.929691
 20
-208.682823
 30
0.0
 40
2.000005
 50
197.979057
 51
270.000001
  0
ARC
  8
0
  6
BYLAYER
 62
     7
 10
580.365482
 20
-210.183952
 30
0.0
 40
2.000005
 50
197.979057
 51
270.000001
  0
LINE
  8
0
  6
BYLAYER
 62
     7
 10
578.463139
 20
-210.801292
 30
0.0
 11
575.159244
 21
-200.620293
 31
0.0
  0
LINE
  8
0
  6
BYLAYER
 62
     7
 10
673.476139
 20
-56.315178
 30
0.0
 11
718.011111
 21
-56.315178
 31
0.0
  0
LINE
  8
0
  6
BYLAYER
 62
     7
 10
673.476139
 20
-46.858116
 30
0.0
 11
718.011111
 21
-46.858116
 31
0.0
  0
LINE
  8
0
  6
BYLAYER
 62
     7
 10
673.476139
 20
-48.359276
 30
0.0
 11
718.011111
 21
-48.359276
 31
0.0
  0
LINE
  8
0
  6
BYLAYER
 62
     7
 10
571.976139
 20
-200.620293
 30
0.0
 11
571.976078
 21
-55.120291
 31
0.0
  0
LINE
  8
0
  6
BYLAYER
 62
     7
 10
673.476139
 20
-51.446281
 30
0.0
 11
718.011111
 21
-51.446281
 31
0.0
  0
LINE
  8
0
  6
BYLAYER
 62
     7
 10
651.476078
 20
-76.670219
 30
0.0
 11
718.011111
 21
-76.670219
 31
0.0
  0
LINE
  8
0
  6
BYLAYER
 62
     7
 10
651.476078
 20
-78.270195
 30
0.0
 11
718.011111
 21
-78.270195
 31
0.0
  0
LINE
  8
0
  6
BYLAYER
 62
     7
 10
651.476078
 20
-87.870293
 30
0.0
 11
718.011111
 21
-87.870130
 31
0.0
  0
LINE
  8
0
  6
BYLAYER
 62
     7
 10
651.476078
 20
-89.470268
 30
0.0
 11
718.011111
 21
-89.470268
 31
0.0
  0
LINE
  8
0
  6
BYLAYER
 62
     7
 10
651.476078
 20
-99.070244
 30
0.0
 11
718.011111
 21
-99.070244
 31
0.0
  0
LINE
  8
0
  6
BYLAYER
 62
     7
 10
651.476078
 20
-100.670219
 30
0.0
 11
718.011111
 21
-100.670219
 31
0.0
  0
LINE
  8
0
  6
BYLAYER
 62
     7
 10
669.367496
 20
-110.270225
 30
0.0
 11
718.011111
 21
-110.270225
 31
0.0
  0
LINE
  8
0
  6
BYLAYER
 62
     7
 10
669.367496
 20
-111.870231
 30
0.0
 11
718.011111
 21
-111.870231
 31
0.0
  0
LINE
  8
0
  6
BYLAYER
 62
     7
 10
651.476078
 20
-121.470268
 30
0.0
 11
718.011111
 21
-121.470228
 31
0.0
  0
LINE
  8
0
  6
BYLAYER
 62
     7
 10
651.476078
 20
-123.070274
 30
0.0
 11
718.011111
 21
-123.070234
 31
0.0
  0
LINE
  8
0
  6
BYLAYER
 62
     7
 10
651.476078
 20
-132.670280
 30
0.0
 11
718.011111
 21
-132.670240
 31
0.0
  0
LINE
  8
0
  6
BYLAYER
 62
     7
 10
651.476078
 20
-134.270286
 30
0.0
 11
718.011111
 21
-134.270246
 31
0.0
  0
LINE
  8
0
  6
BYLAYER
 62
     7
 10
651.476078
 20
-143.870262
 30
0.0
 11
718.011111
 21
-143.870221
 31
0.0
  0
LINE
  8
0
  6
BYLAYER
 62
     7
 10
651.476078
 20
-145.470268
 30
0.0
 11
718.011111
 21
-145.470228
 31
0.0
  0
LINE
  8
0
  6
BYLAYER
 62
     7
 10
651.476078
 20
-166.270256
 30
0.0
 11
718.011111
 21
-166.270215
 31
0.0
  0
LINE
  8
0
  6
BYLAYER
 62
     7
 10
651.476078
 20
-167.870262
 30
0.0
 11
718.011111
 21
-167.870221
 31
0.0
  0
LINE
  8
0
  6
BYLAYER
 62
     7
 10
651.476078
 20
-177.470268
 30
0.0
 11
718.011111
 21
-177.470228
 31
0.0
  0
LINE
  8
0
  6
BYLAYER
 62
     7
 10
576.276066
 20
-179.070244
 30
0.0
 11
718.011111
 21
-179.070244
 31
0.0
  0
LINE
  8
0
  6
BYLAYER
 62
     7
 10
580.976139
 20
-180.811485
 30
0.0
 11
718.011111
 21
-180.811485
 31
0.0
  0
LINE
  8
0
  6
BYLAYER
 62
     7
 10
580.840183
 20
-193.854118
 30
0.0
 11
718.011111
 21
-193.854118
 31
0.0
  0
LINE
  8
0
  6
BYLAYER
 62
     7
 10
580.996403
 20
-202.726890
 30
0.0
 11
718.011111
 21
-202.726890
 31
0.0
  0
LINE
  8
0
  6
BYLAYER
 62
     7
 10
580.956730
 20
-207.595787
 30
0.0
 11
718.011111
 21
-207.595787
 31
0.0
  0
LINE
  8
0
  6
BYLAYER
 62
     7
 10
580.929691
 20
-210.682823
 30
0.0
 11
718.011111
 21
-210.682823
 31
0.0
  0
LINE
  8
0
  6
BYLAYER
 62
     7
 10
580.365482
 20
-212.183952
 30
0.0
 11
718.011111
 21
-212.183952
 31
0.0
  0
LINE
  8
0
  6
BYLAYER
 62
     7
 10
718.011111
 20
-214.420262
 30
0.0
 11
718.011111
 21
-127.870307
 31
0.0
  0
LINE
  8
0
  6
BYLAYER
 62
     7
 10
808.011111
 20
-127.870307
 30
0.0
 11
808.011111
 21
-199.870262
 31
0.0
  0
LINE
  8
0
  6
BYLAYER
 62
     7
 10
808.011111
 20
-199.870262
 30
0.0
 11
793.461111
 21
-214.420262
 31
0.0
  0
LINE
  8
0
  6
BYLAYER
 62
     7
 10
793.461111
 20
-214.420262
 30
0.0
 11
718.011111
 21
-214.420262
 31
0.0
  0
LINE
  8
0
  6
BYLAYER
 62
     7
 10
718.011111
 20
-41.320352
 30
0.0
 11
718.011111
 21
-127.870307
 31
0.0
  0
LINE
  8
0
  6
BYLAYER
 62
     7
 10
808.011111
 20
-127.870307
 30
0.0
 11
808.011111
 21
-55.870352
 31
0.0
  0
LINE
  8
0
  6
BYLAYER
 62
     7
 10
808.011111
 20
-55.870352
 30
0.0
 11
793.461111
 21
-41.320352
 31
0.0
  0
LINE
  8
0
  6
BYLAYER
 62
     7
 10
793.461111
 20
-41.320352
 30
0.0
 11
718.011111
 21
-41.320352
 31
0.0
  0
LINE
  8
0
  6
BYLAYER
 62
     7
 10
667.976078
 20
-21.370262
 30
0.0
 11
667.976078
 21
0.129738
 31
0.0
  0
ARC
  8
0
  6
BYLAYER
 62
     7
 10
669.476078
 20
-21.370262
 30
0.0
 40
1.5
 50
180.000000
 51
270.000000
  0
ARC
  8
0
  6
BYLAYER
 62
     7
 10
666.476078
 20
0.129738
 30
0.0
 40
1.5
 50
0.0
 51
90.0
  0
LINE
  8
0
  6
BYLAYER
 62
     7
 10
580.976078
 20
-21.370262
 30
0.0
 11
580.976078
 21
0.129738
 31
0.0
  0
ARC
  8
0
  6
BYLAYER
 62
     7
 10
579.476078
 20
-21.370262
 30
0.0
 40
1.500000
 50
270.0
 51
360.0
  0
ARC
  8
0
  6
BYLAYER
 62
     7
 10
582.476078
 20
0.129738
 30
0.0
 40
1.5
 50
90.0
 51
180.0
  0
LINE
  8
0
  6
BYLAYER
 62
     7
 10
582.476078
 20
1.629738
 30
0.0
 11
666.476078
 21
1.629738
 31
0.0
  0
LINE
  8
0
  6
BYLAYER
 62
     7
 10
586.348319
 20
-21.370262
 30
0.0
 11
586.348319
 21
0.129738
 31
0.0
  0
ARC
  8
0
  6
BYLAYER
 62
     7
 10
584.848319
 20
-21.370262
 30
0.0
 40
1.5
 50
270.0
 51
360.0
  0
ARC
  8
0
  6
BYLAYER
 62
     7
 10
587.848319
 20
0.129738
 30
0.0
 40
1.5
 50
90.0
 51
180.0
  0
LINE
  8
0
  6
BYLAYER
 62
     7
 10
662.603838
 20
-21.370262
 30
0.0
 11
662.603838
 21
0.129738
 31
0.0
  0
ARC
  8
0
  6
BYLAYER
 62
     7
 10
664.103838
 20
-21.370262
 30
0.0
 40
1.5
 50
180.000000
 51
270.000000
  0
ARC
  8
0
  6
BYLAYER
 62
     7
 10
661.103838
 20
0.129738
 30
0.0
 40
1.5
 50
0.0
 51
90.0
  0
LINE
  8
0
  6
BYLAYER
 62
     7
 10
624.476078
 20
-22.870262
 30
0.0
 11
671.976078
 21
-22.870262
 31
0.0
  0
ARC
  8
0
  6
BYLAYER
 62
     7
 10
671.976078
 20
-24.370262
 30
0.0
 40
1.5
 50
0.0
 51
90.0
  0
LINE
  8
0
  6
BYLAYER
 62
     7
 10
673.476078
 20
-31.870262
 30
0.0
 11
673.476078
 21
-24.370262
 31
0.0
  0
LINE
  8
0
  6
BYLAYER
 62
     7
 10
576.976078
 20
-22.870262
 30
0.0
 11
624.476078
 21
-22.870262
 31
0.0
  0
ARC
  8
0
  6
BYLAYER
 62
     7
 10
576.976078
 20
-24.370262
 30
0.0
 40
1.5
 50
90.0
 51
180.0
  0
LINE
  8
0
  6
BYLAYER
 62
     7
 10
575.476078
 20
-29.870262
 30
0.0
 11
575.476078
 21
-24.370262
 31
0.0
  0
LINE
  8
0
  6
BYLAYER
 62
     7
 10
673.476078
 20
-29.870262
 30
0.0
 11
575.476078
 21
-29.870262
 31
0.0
  0
LINE
  8
0
  6
BYLAYER
 62
     7
 10
575.476078
 20
-29.870262
 30
0.0
 11
575.476078
 21
-31.870262
 31
0.0
  0
LINE
  8
0
  6
BYLAYER
 62
     7
 10
575.476078
 20
-31.870262
 30
0.0
 11
673.476078
 21
-31.870262
 31
0.0
  0
LINE
  8
0
  6
BYLAYER
 62
     7
 10
793.461111
 20
-214.420262
 30
0.0
 11
793.461111
 21
-41.320352
 31
0.0
  0
LINE
  8
0
  6
BYLAYER
 62
     7
 10
546.976109
 20
-737.870307
 30
0.0
 11
534.976109
 21
-737.870307
 31
0.0
  0
LINE
  8
0
  6
BYLAYER
 62
     7
 10
546.976109
 20
-737.870307
 30
0.0
 11
546.976109
 21
-837.870307
 31
0.0
  0
ARC
  8
0
  6
BYLAYER
 62
     7
 10
547.976109
 20
-764.387610
 30
0.0
 40
1.0
 50
180.000000
 51
269.000000
  0
LINE
  8
0
  6
BYLAYER
 62
     7
 10
547.958657
 20
-765.387457
 30
0.0
 11
571.976109
 21
-765.806684
 31
0.0
  0
LINE
  8
0
  6
BYLAYER
 62
     7
 10
571.976109
 20
-765.806684
 30
0.0
 11
571.976109
 21
-837.870307
 31
0.0
  0
LINE
  8
0
  6
BYLAYER
 62
     7
 10
534.976109
 20
-737.870307
 30
0.0
 11
534.976109
 21
-837.870307
 31
0.0
  0
LINE
  8
0
  6
BYLAYER
 62
     7
 10
546.976109
 20
-937.870307
 30
0.0
 11
534.976109
 21
-937.870307
 31
0.0
  0
LINE
  8
0
  6
BYLAYER
 62
     7
 10
546.976109
 20
-937.870307
 30
0.0
 11
546.976109
 21
-837.870307
 31
0.0
  0
ARC
  8
0
  6
BYLAYER
 62
     7
 10
547.976109
 20
-911.353004
 30
0.0
 40
1.0
 50
91.000000
 51
180.000000
  0
LINE
  8
0
  6
BYLAYER
 62
     7
 10
547.958657
 20
-910.353157
 30
0.0
 11
571.976109
 21
-909.933930
 31
0.0
  0
LINE
  8
0
  6
BYLAYER
 62
     7
 10
571.976109
 20
-909.933930
 30
0.0
 11
571.976109
 21
-837.870307
 31
0.0
  0
LINE
  8
0
  6
BYLAYER
 62
     7
 10
534.976109
 20
-937.870307
 30
0.0
 11
534.976109
 21
-837.870307
 31
0.0
  0
LINE
  8
0
  6
BYLAYER
 62
     7
 10
651.476078
 20
-887.470268
 30
0.0
 11
576.276066
 21
-887.470268
 31
0.0
  0
ARC
  8
0
  6
BYLAYER
 62
     7
 10
576.276066
 20
-888.270256
 30
0.0
 40
0.800018
 50
90.0
 51
270.000012
  0
ARC
  8
0
  6
BYLAYER
 62
     7
 10
580.276066
 20
-888.270256
 30
0.0
 40
0.800018
 50
90.0
 51
270.000012
  0
LINE
  8
0
  6
BYLAYER
 62
     7
 10
575.476113
 20
-837.870307
 30
0.0
 11
575.476139
 21
-910.620262
 31
0.0
  0
LINE
  8
0
  6
BYLAYER
 62
     7
 10
673.476113
 20
-865.070259
 30
0.0
 11
718.011111
 21
-865.070228
 31
0.0
  0
LINE
  8
0
  6
BYLAYER
 62
     7
 10
673.476113
 20
-866.670265
 30
0.0
 11
718.011111
 21
-866.670234
 31
0.0
  0
LINE
  8
0
  6
BYLAYER
 62
     7
 10
580.976139
 20
-890.811485
 30
0.0
 11
575.476139
 21
-893.651054
 31
0.0
  0
LINE
  8
0
  6
BYLAYER
 62
     7
 10
575.476139
 20
-893.651054
 30
0.0
 11
578.978153
 21
-902.584099
 31
0.0
  0
ARC
  8
0
  6
BYLAYER
 62
     7
 10
580.840183
 20
-901.854118
 30
0.0
 40
2.000007
 50
201.406501
 51
270.000001
  0
LINE
  8
0
  6
BYLAYER
 62
     7
 10
575.476139
 20
-910.620293
 30
0.0
 11
571.976139
 21
-910.620293
 31
0.0
  0
LINE
  8
0
  6
BYLAYER
 62
     7
 10
575.476139
 20
-898.320396
 30
0.0
 11
579.069309
 21
-911.261955
 31
0.0
  0
ARC
  8
0
  6
BYLAYER
 62
     7
 10
580.996403
 20
-910.726890
 30
0.0
 40
2.000010
 50
195.517184
 51
270.000001
  0
LINE
  8
0
  6
BYLAYER
 62
     7
 10
575.476139
 20
-904.489189
 30
0.0
 11
579.043827
 21
-916.179558
 31
0.0
  0
ARC
  8
0
  6
BYLAYER
 62
     7
 10
580.956730
 20
-915.595787
 30
0.0
 40
1.999996
 50
196.971318
 51
270.000001
  0
LINE
  8
0
  6
BYLAYER
 62
     7
 10
575.476139
 20
-908.357017
 30
0.0
 11
579.027347
 21
-919.300163
 31
0.0
  0
ARC
  8
0
  6
BYLAYER
 62
     7
 10
580.929691
 20
-918.682823
 30
0.0
 40
2.000005
 50
197.979057
 51
270.000001
  0
ARC
  8
0
  6
BYLAYER
 62
     7
 10
580.365482
 20
-920.183952
 30
0.0
 40
2.000005
 50
197.979057
 51
270.000001
  0
LINE
  8
0
  6
BYLAYER
 62
     7
 10
578.463139
 20
-920.801292
 30
0.0
 11
575.159244
 21
-910.620293
 31
0.0
  0
LINE
  8
0
  6
BYLAYER
 62
     7
 10
571.976139
 20
-910.620293
 30
0.0
 11
571.976109
 21
-837.870307
 31
0.0
  0
LINE
  8
0
  6
BYLAYER
 62
     7
 10
673.476113
 20
-842.670267
 30
0.0
 11
718.011111
 21
-842.670240
 31
0.0
  0
LINE
  8
0
  6
BYLAYER
 62
     7
 10
673.476113
 20
-844.270273
 30
0.0
 11
718.011111
 21
-844.270246
 31
0.0
  0
LINE
  8
0
  6
BYLAYER
 62
     7
 10
673.476113
 20
-853.870249
 30
0.0
 11
718.011111
 21
-853.870221
 31
0.0
  0
LINE
  8
0
  6
BYLAYER
 62
     7
 10
673.476113
 20
-855.470255
 30
0.0
 11
718.011111
 21
-855.470228
 31
0.0
  0
LINE
  8
0
  6
BYLAYER
 62
     7
 10
673.476113
 20
-876.270243
 30
0.0
 11
718.011111
 21
-876.270215
 31
0.0
  0
LINE
  8
0
  6
BYLAYER
 62
     7
 10
673.476113
 20
-877.870249
 30
0.0
 11
718.011111
 21
-877.870221
 31
0.0
  0
LINE
  8
0
  6
BYLAYER
 62
     7
 10
651.476078
 20
-887.470268
 30
0.0
 11
718.011111
 21
-887.470228
 31
0.0
  0
LINE
  8
0
  6
BYLAYER
 62
     7
 10
576.276066
 20
-889.070244
 30
0.0
 11
718.011111
 21
-889.070244
 31
0.0
  0
LINE
  8
0
  6
BYLAYER
 62
     7
 10
580.976139
 20
-890.811485
 30
0.0
 11
718.011111
 21
-890.811485
 31
0.0
  0
LINE
  8
0
  6
BYLAYER
 62
     7
 10
580.840183
 20
-903.854118
 30
0.0
 11
718.011111
 21
-903.854118
 31
0.0
  0
LINE
  8
0
  6
BYLAYER
 62
     7
 10
580.996403
 20
-912.726890
 30
0.0
 11
718.011111
 21
-912.726890
 31
0.0
  0
LINE
  8
0
  6
BYLAYER
 62
     7
 10
580.956730
 20
-917.595787
 30
0.0
 11
718.011111
 21
-917.595787
 31
0.0
  0
LINE
  8
0
  6
BYLAYER
 62
     7
 10
580.929691
 20
-920.682823
 30
0.0
 11
718.011111
 21
-920.682823
 31
0.0
  0
LINE
  8
0
  6
BYLAYER
 62
     7
 10
580.365482
 20
-922.183952
 30
0.0
 11
718.011111
 21
-922.183952
 31
0.0
  0
LINE
  8
0
  6
BYLAYER
 62
     7
 10
718.011111
 20
-924.420262
 30
0.0
 11
718.011111
 21
-837.870307
 31
0.0
  0
LINE
  8
0
  6
BYLAYER
 62
     7
 10
808.011111
 20
-837.870307
 30
0.0
 11
808.011111
 21
-909.870262
 31
0.0
  0
LINE
  8
0
  6
BYLAYER
 62
     7
 10
808.011111
 20
-909.870262
 30
0.0
 11
793.461111
 21
-924.420262
 31
0.0
  0
LINE
  8
0
  6
BYLAYER
 62
     7
 10
793.461111
 20
-924.420262
 30
0.0
 11
718.011111
 21
-924.420262
 31
0.0
  0
LINE
  8
0
  6
BYLAYER
 62
     7
 10
588.324582
 20
-881.370307
 30
0.0
 11
624.476113
 21
-881.370307
 31
0.0
  0
ARC
  8
0
  6
BYLAYER
 62
     7
 10
588.324582
 20
-879.870307
 30
0.0
 40
1.5
 50
191.536959
 51
270.000000
  0
LINE
  8
0
  6
BYLAYER
 62
     7
 10
580.976113
 20
-837.870307
 30
0.0
 11
580.976113
 21
-874.021838
 31
0.0
  0
LINE
  8
0
  6
BYLAYER
 62
     7
 10
624.476113
 20
-881.370307
 30
0.0
 11
660.627644
 21
-881.370307
 31
0.0
  0
LINE
  8
0
  6
BYLAYER
 62
     7
 10
667.976113
 20
-874.021838
 30
0.0
 11
667.976113
 21
-837.870307
 31
0.0
  0
LINE
  8
0
  6
BYLAYER
 62
     7
 10
595.080812
 20
-850.471413
 30
0.0
 11
580.976113
 21
-850.963960
 31
0.0
  0
ARC
  8
0
  6
BYLAYER
 62
     7
 10
594.976113
 20
-847.473241
 30
0.0
 40
3.000000
 50
272.000000
 51
360.000000
  0
LINE
  8
0
  6
BYLAYER
 62
     7
 10
595.080812
 20
-865.471413
 30
0.0
 11
580.976113
 21
-865.963960
 31
0.0
  0
ARC
  8
0
  6
BYLAYER
 62
     7
 10
594.976113
 20
-862.473241
 30
0.0
 40
3.000000
 50
272.000000
 51
360.000000
  0
LINE
  8
0
  6
BYLAYER
 62
     7
 10
580.976113
 20
-854.776654
 30
0.0
 11
595.080812
 21
-855.269201
 31
0.0
  0
ARC
  8
0
  6
BYLAYER
 62
     7
 10
594.976113
 20
-858.267373
 30
0.0
 40
3.0
 50
0.0
 51
88.0
  0
LINE
  8
0
  6
BYLAYER
 62
     7
 10
580.976113
 20
-839.776654
 30
0.0
 11
595.080812
 21
-840.269201
 31
0.0
  0
ARC
  8
0
  6
BYLAYER
 62
     7
 10
594.976113
 20
-843.267373
 30
0.0
 40
3.0
 50
0.0
 51
88.0
  0
LINE
  8
0
  6
BYLAYER
 62
     7
 10
597.976113
 20
-858.267373
 30
0.0
 11
597.976113
 21
-862.473241
 31
0.0
  0
LINE
  8
0
  6
BYLAYER
 62
     7
 10
597.976113
 20
-843.267373
 30
0.0
 11
597.976113
 21
-847.473241
 31
0.0
  0
LINE
  8
0
  6
BYLAYER
 62
     7
 10
581.976113
 20
-839.811575
 30
0.0
 11
581.976113
 21
-850.929039
 31
0.0
  0
LINE
  8
0
  6
BYLAYER
 62
     7
 10
581.976113
 20
-854.811575
 30
0.0
 11
581.976113
 21
-865.929039
 31
0.0
  0
LINE
  8
0
  6
BYLAYER
 62
     7
 10
653.871415
 20
-850.471413
 30
0.0
 11
667.976113
 21
-850.963960
 31
0.0
  0
ARC
  8
0
  6
BYLAYER
 62
     7
 10
653.976113
 20
-847.473241
 30
0.0
 40
3.0
 50
180.000000
 51
268.000000
  0
LINE
  8
0
  6
BYLAYER
 62
     7
 10
653.871415
 20
-865.471413
 30
0.0
 11
667.976113
 21
-865.963960
 31
0.0
  0
ARC
  8
0
  6
BYLAYER
 62
     7
 10
653.976113
 20
-862.473241
 30
0.0
 40
3.0
 50
180.000000
 51
268.000000
  0
LINE
  8
0
  6
BYLAYER
 62
     7
 10
667.976113
 20
-854.776654
 30
0.0
 11
653.871415
 21
-855.269201
 31
0.0
  0
ARC
  8
0
  6
BYLAYER
 62
     7
 10
653.976113
 20
-858.267373
 30
0.0
 40
3.0
 50
92.000000
 51
180.000000
  0
LINE
  8
0
  6
BYLAYER
 62
     7
 10
667.976113
 20
-839.776654
 30
0.0
 11
653.871415
 21
-840.269201
 31
0.0
  0
ARC
  8
0
  6
BYLAYER
 62
     7
 10
653.976113
 20
-843.267373
 30
0.0
 40
3.0
 50
92.000000
 51
180.000000
  0
LINE
  8
0
  6
BYLAYER
 62
     7
 10
650.976113
 20
-858.267373
 30
0.0
 11
650.976113
 21
-862.473241
 31
0.0
  0
LINE
  8
0
  6
BYLAYER
 62
     7
 10
650.976113
 20
-843.267373
 30
0.0
 11
650.976113
 21
-847.473241
 31
0.0
  0
LINE
  8
0
  6
BYLAYER
 62
     7
 10
666.976113
 20
-839.811575
 30
0.0
 11
666.976113
 21
-850.929039
 31
0.0
  0
LINE
  8
0
  6
BYLAYER
 62
     7
 10
666.976113
 20
-854.811575
 30
0.0
 11
666.976113
 21
-865.929039
 31
0.0
  0
LINE
  8
0
  6
BYLAYER
 62
     7
 10
611.476113
 20
-867.870307
 30
0.0
 11
637.476113
 21
-867.870307
 31
0.0
  0
ARC
  8
0
  6
BYLAYER
 62
     7
 10
637.476113
 20
-864.870307
 30
0.0
 40
3.0
 50
270.0
 51
360.0
  0
ARC
  8
0
  6
BYLAYER
 62
     7
 10
611.476113
 20
-864.870307
 30
0.0
 40
3.0
 50
180.000000
 51
270.000000
  0
LINE
  8
0
  6
BYLAYER
 62
     7
 10
608.476113
 20
-837.870307
 30
0.0
 11
608.476113
 21
-864.870307
 31
0.0
  0
LINE
  8
0
  6
BYLAYER
 62
     7
 10
640.476113
 20
-864.870307
 30
0.0
 11
640.476113
 21
-837.870307
 31
0.0
  0
ARC
  8
0
  6
BYLAYER
 62
     7
 10
580.976113
 20
-881.370307
 30
0.0
 40
6.000000
 50
11.536959
 51
78.463041
  0
ARC
  8
0
  6
BYLAYER
 62
     7
 10
582.476113
 20
-874.021838
 30
0.0
 40
1.5
 50
180.000000
 51
258.463041
  0
ARC
  8
0
  6
BYLAYER
 62
     7
 10
667.976113
 20
-881.370307
 30
0.0
 40
6.0
 50
101.536959
 51
168.463041
  0
ARC
  8
0
  6
BYLAYER
 62
     7
 10
666.476113
 20
-874.021838
 30
0.0
 40
1.500000
 50
281.536959
 51
360.000000
  0
ARC
  8
0
  6
BYLAYER
 62
     7
 10
660.627644
 20
-879.870307
 30
0.0
 40
1.5
 50
270.0
 51
348.463041
  0
LINE
  8
0
  6
BYLAYER
 62
     7
 10
575.476113
 20
-837.870307
 30
0.0
 11
575.476113
 21
-885.370307
 31
0.0
  0
LINE
  8
0
  6
BYLAYER
 62
     7
 10
576.976113
 20
-886.870307
 30
0.0
 11
671.976113
 21
-886.870307
 31
0.0
  0
ARC
  8
0
  6
BYLAYER
 62
     7
 10
576.976113
 20
-885.370307
 30
0.0
 40
1.5
 50
180.000000
 51
270.000000
  0
LINE
  8
0
  6
BYLAYER
 62
     7
 10
673.476113
 20
-885.370307
 30
0.0
 11
673.476113
 21
-837.870307
 31
0.0
  0
ARC
  8
0
  6
BYLAYER
 62
     7
 10
671.976113
 20
-885.370307
 30
0.0
 40
1.5
 50
270.0
 51
360.0
  0
LINE
  8
0
  6
BYLAYER
 62
     7
 10
651.476078
 20
-788.270346
 30
0.0
 11
576.276066
 21
-788.270346
 31
0.0
  0
ARC
  8
0
  6
BYLAYER
 62
     7
 10
576.276066
 20
-787.470358
 30
0.0
 40
0.800018
 50
90.0
 51
270.000012
  0
ARC
  8
0
  6
BYLAYER
 62
     7
 10
580.276066
 20
-787.470358
 30
0.0
 40
0.800018
 50
90.0
 51
270.000012
  0
LINE
  8
0
  6
BYLAYER
 62
     7
 10
575.476113
 20
-837.870307
 30
0.0
 11
575.476139
 21
-765.120352
 31
0.0
  0
LINE
  8
0
  6
BYLAYER
 62
     7
 10
673.476113
 20
-810.670355
 30
0.0
 11
718.011111
 21
-810.670386
 31
0.0
  0
LINE
  8
0
  6
BYLAYER
 62
     7
 10
673.476113
 20
-809.070349
 30
0.0
 11
718.011111
 21
-809.070380
 31
0.0
  0
LINE
  8
0
  6
BYLAYER
 62
     7
 10
580.976139
 20
-784.929129
 30
0.0
 11
575.476139
 21
-782.089560
 31
0.0
  0
LINE
  8
0
  6
BYLAYER
 62
     7
 10
575.476139
 20
-782.089560
 30
0.0
 11
578.978153
 21
-773.156515
 31
0.0
  0
ARC
  8
0
  6
BYLAYER
 62
     7
 10
580.840183
 20
-773.886496
 30
0.0
 40
2.000007
 50
90.0
 51
158.593500
  0
LINE
  8
0
  6
BYLAYER
 62
     7
 10
575.476139
 20
-765.120321
 30
0.0
 11
571.976139
 21
-765.120321
 31
0.0
  0
LINE
  8
0
  6
BYLAYER
 62
     7
 10
575.476139
 20
-777.420218
 30
0.0
 11
579.069309
 21
-764.478659
 31
0.0
  0
ARC
  8
0
  6
BYLAYER
 62
     7
 10
580.996403
 20
-765.013724
 30
0.0
 40
2.000010
 50
90.0
 51
164.482817
  0
LINE
  8
0
  6
BYLAYER
 62
     7
 10
575.476139
 20
-771.251425
 30
0.0
 11
579.043827
 21
-759.561056
 31
0.0
  0
ARC
  8
0
  6
BYLAYER
 62
     7
 10
580.956730
 20
-760.144827
 30
0.0
 40
1.999996
 50
90.0
 51
163.028683
  0
LINE
  8
0
  6
BYLAYER
 62
     7
 10
575.476139
 20
-767.383597
 30
0.0
 11
579.027347
 21
-756.440451
 31
0.0
  0
ARC
  8
0
  6
BYLAYER
 62
     7
 10
580.929691
 20
-757.057791
 30
0.0
 40
2.000005
 50
90.0
 51
162.020944
  0
ARC
  8
0
  6
BYLAYER
 62
     7
 10
580.365482
 20
-755.556662
 30
0.0
 40
2.000005
 50
90.0
 51
162.020944
  0
LINE
  8
0
  6
BYLAYER
 62
     7
 10
578.463139
 20
-754.939322
 30
0.0
 11
575.159244
 21
-765.120321
 31
0.0
  0
LINE
  8
0
  6
BYLAYER
 62
     7
 10
571.976139
 20
-765.120321
 30
0.0
 11
571.976109
 21
-837.870307
 31
0.0
  0
LINE
  8
0
  6
BYLAYER
 62
     7
 10
673.476113
 20
-833.070347
 30
0.0
 11
718.011111
 21
-833.070374
 31
0.0
  0
LINE
  8
0
  6
BYLAYER
 62
     7
 10
673.476113
 20
-831.470341
 30
0.0
 11
718.011111
 21
-831.470368
 31
0.0
  0
LINE
  8
0
  6
BYLAYER
 62
     7
 10
673.476113
 20
-821.870365
 30
0.0
 11
718.011111
 21
-821.870393
 31
0.0
  0
LINE
  8
0
  6
BYLAYER
 62
     7
 10
673.476113
 20
-820.270359
 30
0.0
 11
718.011111
 21
-820.270386
 31
0.0
  0
LINE
  8
0
  6
BYLAYER
 62
     7
 10
673.476113
 20
-799.470371
 30
0.0
 11
718.011111
 21
-799.470399
 31
0.0
  0
LINE
  8
0
  6
BYLAYER
 62
     7
 10
673.476113
 20
-797.870365
 30
0.0
 11
718.011111
 21
-797.870393
 31
0.0
  0
LINE
  8
0
  6
BYLAYER
 62
     7
 10
651.476078
 20
-788.270346
 30
0.0
 11
718.011111
 21
-788.270386
 31
0.0
  0
LINE
  8
0
  6
BYLAYER
 62
     7
 10
576.276066
 20
-786.670370
 30
0.0
 11
718.011111
 21
-786.670370
 31
0.0
  0
LINE
  8
0
  6
BYLAYER
 62
     7
 10
580.976139
 20
-784.929129
 30
0.0
 11
718.011111
 21
-784.929129
 31
0.0
  0
LINE
  8
0
  6
BYLAYER
 62
     7
 10
580.840183
 20
-771.886496
 30
0.0
 11
718.011111
 21
-771.886496
 31
0.0
  0
LINE
  8
0
  6
BYLAYER
 62
     7
 10
580.996403
 20
-763.013724
 30
0.0
 11
718.011111
 21
-763.013724
 31
0.0
  0
LINE
  8
0
  6
BYLAYER
 62
     7
 10
580.956730
 20
-758.144827
 30
0.0
 11
718.011111
 21
-758.144827
 31
0.0
  0
LINE
  8
0
  6
BYLAYER
 62
     7
 10
580.929691
 20
-755.057791
 30
0.0
 11
718.011111
 21
-755.057791
 31
0.0
  0
LINE
  8
0
  6
BYLAYER
 62
     7
 10
580.365482
 20
-753.556662
 30
0.0
 11
718.011111
 21
-753.556662
 31
0.0
  0
LINE
  8
0
  6
BYLAYER
 62
     7
 10
718.011111
 20
-751.320352
 30
0.0
 11
718.011111
 21
-837.870307
 31
0.0
  0
LINE
  8
0
  6
BYLAYER
 62
     7
 10
808.011111
 20
-837.870307
 30
0.0
 11
808.011111
 21
-765.870352
 31
0.0
  0
LINE
  8
0
  6
BYLAYER
 62
     7
 10
808.011111
 20
-765.870352
 30
0.0
 11
793.461111
 21
-751.320352
 31
0.0
  0
LINE
  8
0
  6
BYLAYER
 62
     7
 10
793.461111
 20
-751.320352
 30
0.0
 11
718.011111
 21
-751.320352
 31
0.0
  0
LINE
  8
0
  6
BYLAYER
 62
     7
 10
588.324582
 20
-794.370307
 30
0.0
 11
624.476113
 21
-794.370307
 31
0.0
  0
ARC
  8
0
  6
BYLAYER
 62
     7
 10
588.324582
 20
-795.870307
 30
0.0
 40
1.5
 50
90.0
 51
168.463041
  0
LINE
  8
0
  6
BYLAYER
 62
     7
 10
580.976113
 20
-837.870307
 30
0.0
 11
580.976113
 21
-801.718776
 31
0.0
  0
LINE
  8
0
  6
BYLAYER
 62
     7
 10
624.476113
 20
-794.370307
 30
0.0
 11
660.627644
 21
-794.370307
 31
0.0
  0
LINE
  8
0
  6
BYLAYER
 62
     7
 10
667.976113
 20
-801.718776
 30
0.0
 11
667.976113
 21
-837.870307
 31
0.0
  0
LINE
  8
0
  6
BYLAYER
 62
     7
 10
595.080812
 20
-825.269201
 30
0.0
 11
580.976113
 21
-824.776654
 31
0.0
  0
ARC
  8
0
  6
BYLAYER
 62
     7
 10
594.976113
 20
-828.267373
 30
0.0
 40
3.0
 50
0.0
 51
88.0
  0
LINE
  8
0
  6
BYLAYER
 62
     7
 10
595.080812
 20
-810.269201
 30
0.0
 11
580.976113
 21
-809.776654
 31
0.0
  0
ARC
  8
0
  6
BYLAYER
 62
     7
 10
594.976113
 20
-813.267373
 30
0.0
 40
3.0
 50
0.0
 51
88.0
  0
LINE
  8
0
  6
BYLAYER
 62
     7
 10
580.976113
 20
-820.963960
 30
0.0
 11
595.080812
 21
-820.471413
 31
0.0
  0
ARC
  8
0
  6
BYLAYER
 62
     7
 10
594.976113
 20
-817.473241
 30
0.0
 40
3.000000
 50
272.000000
 51
360.000000
  0
LINE
  8
0
  6
BYLAYER
 62
     7
 10
580.976113
 20
-835.963960
 30
0.0
 11
595.080812
 21
-835.471413
 31
0.0
  0
ARC
  8
0
  6
BYLAYER
 62
     7
 10
594.976113
 20
-832.473241
 30
0.0
 40
3.000000
 50
272.000000
 51
360.000000
  0
LINE
  8
0
  6
BYLAYER
 62
     7
 10
597.976113
 20
-817.473241
 30
0.0
 11
597.976113
 21
-813.267373
 31
0.0
  0
LINE
  8
0
  6
BYLAYER
 62
     7
 10
597.976113
 20
-832.473241
 30
0.0
 11
597.976113
 21
-828.267373
 31
0.0
  0
LINE
  8
0
  6
BYLAYER
 62
     7
 10
581.976113
 20
-835.929039
 30
0.0
 11
581.976113
 21
-824.811575
 31
0.0
  0
LINE
  8
0
  6
BYLAYER
 62
     7
 10
581.976113
 20
-820.929039
 30
0.0
 11
581.976113
 21
-809.811575
 31
0.0
  0
LINE
  8
0
  6
BYLAYER
 62
     7
 10
653.871415
 20
-825.269201
 30
0.0
 11
667.976113
 21
-824.776654
 31
0.0
  0
ARC
  8
0
  6
BYLAYER
 62
     7
 10
653.976113
 20
-828.267373
 30
0.0
 40
3.0
 50
92.000000
 51
180.000000
  0
LINE
  8
0
  6
BYLAYER
 62
     7
 10
653.871415
 20
-810.269201
 30
0.0
 11
667.976113
 21
-809.776654
 31
0.0
  0
ARC
  8
0
  6
BYLAYER
 62
     7
 10
653.976113
 20
-813.267373
 30
0.0
 40
3.0
 50
92.000000
 51
180.000000
  0
LINE
  8
0
  6
BYLAYER
 62
     7
 10
667.976113
 20
-820.963960
 30
0.0
 11
653.871415
 21
-820.471413
 31
0.0
  0
ARC
  8
0
  6
BYLAYER
 62
     7
 10
653.976113
 20
-817.473241
 30
0.0
 40
3.0
 50
180.000000
 51
268.000000
  0
LINE
  8
0
  6
BYLAYER
 62
     7
 10
667.976113
 20
-835.963960
 30
0.0
 11
653.871415
 21
-835.471413
 31
0.0
  0
ARC
  8
0
  6
BYLAYER
 62
     7
 10
653.976113
 20
-832.473241
 30
0.0
 40
3.0
 50
180.000000
 51
268.000000
  0
LINE
  8
0
  6
BYLAYER
 62
     7
 10
650.976113
 20
-817.473241
 30
0.0
 11
650.976113
 21
-813.267373
 31
0.0
  0
LINE
  8
0
  6
BYLAYER
 62
     7
 10
650.976113
 20
-832.473241
 30
0.0
 11
650.976113
 21
-828.267373
 31
0.0
  0
LINE
  8
0
  6
BYLAYER
 62
     7
 10
666.976113
 20
-835.929039
 30
0.0
 11
666.976113
 21
-824.811575
 31
0.0
  0
LINE
  8
0
  6
BYLAYER
 62
     7
 10
666.976113
 20
-820.929039
 30
0.0
 11
666.976113
 21
-809.811575
 31
0.0
  0
LINE
  8
0
  6
BYLAYER
 62
     7
 10
611.476113
 20
-807.870307
 30
0.0
 11
637.476113
 21
-807.870307
 31
0.0
  0
ARC
  8
0
  6
BYLAYER
 62
     7
 10
637.476113
 20
-810.870307
 30
0.0
 40
3.0
 50
0.0
 51
90.0
  0
ARC
  8
0
  6
BYLAYER
 62
     7
 10
611.476113
 20
-810.870307
 30
0.0
 40
3.0
 50
90.0
 51
180.0
  0
LINE
  8
0
  6
BYLAYER
 62
     7
 10
608.476113
 20
-837.870307
 30
0.0
 11
608.476113
 21
-810.870307
 31
0.0
  0
LINE
  8
0
  6
BYLAYER
 62
     7
 10
640.476113
 20
-810.870307
 30
0.0
 11
640.476113
 21
-837.870307
 31
0.0
  0
ARC
  8
0
  6
BYLAYER
 62
     7
 10
580.976113
 20
-794.370307
 30
0.0
 40
6.000000
 50
281.536959
 51
348.463041
  0
ARC
  8
0
  6
BYLAYER
 62
     7
 10
582.476113
 20
-801.718776
 30
0.0
 40
1.5
 50
101.536959
 51
180.000000
  0
ARC
  8
0
  6
BYLAYER
 62
     7
 10
667.976113
 20
-794.370307
 30
0.0
 40
6.0
 50
191.536959
 51
258.463041
  0
ARC
  8
0
  6
BYLAYER
 62
     7
 10
666.476113
 20
-801.718776
 30
0.0
 40
1.5
 50
0.0
 51
78.463041
  0
ARC
  8
0
  6
BYLAYER
 62
     7
 10
660.627644
 20
-795.870307
 30
0.0
 40
1.500000
 50
11.536959
 51
90.000000
  0
LINE
  8
0
  6
BYLAYER
 62
     7
 10
575.476113
 20
-837.870307
 30
0.0
 11
575.476113
 21
-790.370307
 31
0.0
  0
LINE
  8
0
  6
BYLAYER
 62
     7
 10
576.976113
 20
-788.870307
 30
0.0
 11
671.976113
 21
-788.870307
 31
0.0
  0
ARC
  8
0
  6
BYLAYER
 62
     7
 10
576.976113
 20
-790.370307
 30
0.0
 40
1.5
 50
90.0
 51
180.0
  0
LINE
  8
0
  6
BYLAYER
 62
     7
 10
673.476113
 20
-790.370307
 30
0.0
 11
673.476113
 21
-837.870307
 31
0.0
  0
ARC
  8
0
  6
BYLAYER
 62
     7
 10
671.976113
 20
-790.370307
 30
0.0
 40
1.5
 50
0.0
 51
90.0
  0
LINE
  8
0
  6
BYLAYER
 62
     7
 10
793.461111
 20
-751.320352
 30
0.0
 11
793.461111
 21
-924.420262
 31
0.0
  0
ARC
  8
0
  6
BYLAYER
 62
     1
 10
264.976094
 20
-87.870246
 30
0.0
 40
3.0
 50
90.0
 51
180.000003
  0
ARC
  8
0
  6
BYLAYER
 62
     1
 10
484.976094
 20
-87.870246
 30
0.0
 40
3.000000
 50
0.0
 51
90.000003
  0
ARC
  8
0
  6
BYLAYER
 62
     1
 10
484.976094
 20
-347.870246
 30
0.0
 40
3.000000
 50
270.0
 51
360.000003
  0
ARC
  8
0
  6
BYLAYER
 62
     1
 10
264.976094
 20
-347.870246
 30
0.0
 40
3.000000
 50
180.000000
 51
269.999996
  0
ARC
  8
0
  6
BYLAYER
 62
     1
 10
251.718495
 20
-138.508796
 30
0.0
 40
3.000008
 50
358.896607
 51
419.020549
  0
LINE
  8
0
  6
BYLAYER
 62
     1
 10
496.976124
 20
-294.854590
 30
0.0
 11
496.976124
 21
-264.402961
 31
0.0
  0
LINE
  8
0
  6
BYLAYER
 62
     1
 10
496.976124
 20
-211.337409
 30
0.0
 11
496.976124
 21
-182.027473
 31
0.0
  0
LINE
  8
0
  6
BYLAYER
 62
     1
 10
499.976124
 20
-133.831000
 30
0.0
 11
496.607960
 21
-135.815009
 31
0.0
  0
ARC
  8
0
  6
BYLAYER
 62
     1
 10
498.130604
 20
-138.399848
 30
0.0
 40
2.999973
 50
120.500656
 51
180.588098
  0
ARC
  8
0
  6
BYLAYER
 62
     1
 10
431.960499
 20
-72.870246
 30
0.0
 40
2.999982
 50
312.719473
 51
314.999172
  0
ARC
  8
0
  6
BYLAYER
 62
     1
 10
431.960499
 20
-72.870246
 30
0.0
 40
3.000025
 50
270.0
 51
315.000018
  0
LINE
  8
0
  6
BYLAYER
 62
     1
 10
431.960499
 20
-75.870246
 30
0.0
 11
317.991749
 21
-75.870246
 31
0.0
  0
ARC
  8
0
  6
BYLAYER
 62
     1
 10
317.991749
 20
-72.870246
 30
0.0
 40
2.999982
 50
225.000829
 51
227.280528
  0
ARC
  8
0
  6
BYLAYER
 62
     1
 10
317.991749
 20
-72.870246
 30
0.0
 40
3.000025
 50
224.999982
 51
270.000001
  0
ARC
  8
0
  6
BYLAYER
 62
     1
 10
272.976109
 20
-171.870246
 30
0.0
 40
2.0
 50
270.0
 51
450.000005
  0
ARC
  8
0
  6
BYLAYER
 62
     1
 10
280.476124
 20
-160.870246
 30
0.0
 40
2.0
 50
270.0
 51
450.000005
  0
LINE
  8
0
  6
BYLAYER
 62
     1
 10
264.976094
 20
-162.870246
 30
0.0
 11
280.476124
 21
-162.870246
 31
0.0
  0
ARC
  8
0
  6
BYLAYER
 62
     1
 10
264.976094
 20
-165.870246
 30
0.0
 40
3.000000
 50
90.0
 51
180.000003
  0
LINE
  8
0
  6
BYLAYER
 62
     1
 10
264.976094
 20
-158.870246
 30
0.0
 11
280.476124
 21
-158.870246
 31
0.0
  0
ARC
  8
0
  6
BYLAYER
 62
     1
 10
264.976094
 20
-155.870246
 30
0.0
 40
3.000000
 50
180.000000
 51
269.999996
  0
ARC
  8
0
  6
BYLAYER
 62
     1
 10
264.976094
 20
-166.870246
 30
0.0
 40
3.0
 50
180.000000
 51
269.999996
  0
ARC
  8
0
  6
BYLAYER
 62
     1
 10
264.976094
 20
-176.870246
 30
0.0
 40
3.000000
 50
90.0
 51
180.000003
  0
LINE
  8
0
  6
BYLAYER
 62
     1
 10
264.976094
 20
-169.870246
 30
0.0
 11
272.976109
 21
-169.870246
 31
0.0
  0
LINE
  8
0
  6
BYLAYER
 62
     1
 10
264.976094
 20
-173.870246
 30
0.0
 11
272.976109
 21
-173.870246
 31
0.0
  0
ARC
  8
0
  6
BYLAYER
 62
     1
 10
469.476094
 20
-160.870246
 30
0.0
 40
2.000000
 50
90.0
 51
270.000005
  0
LINE
  8
0
  6
BYLAYER
 62
     1
 10
484.976124
 20
-158.870246
 30
0.0
 11
469.476094
 21
-158.870246
 31
0.0
  0
LINE
  8
0
  6
BYLAYER
 62
     1
 10
484.976124
 20
-162.870246
 30
0.0
 11
469.476094
 21
-162.870246
 31
0.0
  0
ARC
  8
0
  6
BYLAYER
 62
     1
 10
484.976124
 20
-155.870246
 30
0.0
 40
3.000000
 50
270.0
 51
359.999982
  0
ARC
  8
0
  6
BYLAYER
 62
     1
 10
484.976124
 20
-165.870246
 30
0.0
 40
3.000000
 50
0.0
 51
90.000016
  0
ARC
  8
0
  6
BYLAYER
 62
     1
 10
484.976124
 20
-166.870246
 30
0.0
 40
3.000000
 50
270.0
 51
359.999982
  0
LINE
  8
0
  6
BYLAYER
 62
     1
 10
484.976124
 20
-169.870246
 30
0.0
 11
476.976124
 21
-169.870246
 31
0.0
  0
ARC
  8
0
  6
BYLAYER
 62
     1
 10
476.976124
 20
-171.870246
 30
0.0
 40
2.0
 50
90.0
 51
270.000005
  0
LINE
  8
0
  6
BYLAYER
 62
     1
 10
484.976124
 20
-173.870246
 30
0.0
 11
476.976124
 21
-173.870246
 31
0.0
  0
ARC
  8
0
  6
BYLAYER
 62
     1
 10
484.976124
 20
-176.870246
 30
0.0
 40
3.000000
 50
0.0
 51
90.000016
  0
ARC
  8
0
  6
BYLAYER
 62
     1
 10
499.976124
 20
-184.874335
 30
0.0
 40
2.999961
 50
93.000108
 51
180.000005
  0
LINE
  8
0
  6
BYLAYER
 62
     1
 10
499.976124
 20
-181.870246
 30
0.0
 11
499.819111
 21
-181.878486
 31
0.0
  0
ARC
  8
0
  6
BYLAYER
 62
     1
 10
490.976094
 20
-199.084113
 30
0.0
 40
3.0
 50
180.000000
 51
193.15101
  0
ARC
  8
0
  6
BYLAYER
 62
     1
 10
324.976109
 20
-237.870246
 30
0.0
 40
167.470993
 50
346.848700
 51
373.151311
  0
ARC
  8
0
  6
BYLAYER
 62
     1
 10
490.976094
 20
-276.656409
 30
0.0
 40
3.000011
 50
166.848421
 51
180.000005
  0
LINE
  8
0
  6
BYLAYER
 62
     1
 10
487.976094
 20
-302.870276
 30
0.0
 11
499.976094
 21
-302.870276
 31
0.0
  0
LINE
  8
0
  6
BYLAYER
 62
     1
 10
499.976094
 20
-299.097266
 30
0.0
 11
497.854756
 21
-296.975928
 31
0.0
  0
ARC
  8
0
  6
BYLAYER
 62
     1
 10
499.976094
 20
-294.854651
 30
0.0
 40
2.999982
 50
222.719464
 51
224.999163
  0
ARC
  8
0
  6
BYLAYER
 62
     1
 10
499.976094
 20
-294.854651
 30
0.0
 40
3.000025
 50
180.000000
 51
225.000018
  0
ARC
  8
0
  6
BYLAYER
 62
     1
 10
348.443394
 20
-362.870246
 30
0.0
 40
3.000023
 50
81.378801
 51
90.000003
  0
LINE
  8
0
  6
BYLAYER
 62
     1
 10
317.991765
 20
-359.870246
 30
0.0
 11
348.443394
 21
-359.870246
 31
0.0
  0
ARC
  8
0
  6
BYLAYER
 62
     1
 10
336.189946
 20
-353.870246
 30
0.0
 40
3.000011
 50
76.848419
 51
90.000003
  0
ARC
  8
0
  6
BYLAYER
 62
     1
 10
317.991703
 20
-362.870246
 30
0.0
 40
2.999982
 50
132.719455
 51
134.999153
  0
ARC
  8
0
  6
BYLAYER
 62
     1
 10
317.991703
 20
-362.870246
 30
0.0
 40
3.000025
 50
90.0
 51
135.000011
  0
ARC
  8
0
  6
BYLAYER
 62
     1
 10
374.976109
 20
-187.870246
 30
0.0
 40
167.471008
 50
256.848690
 51
283.151311
  0
ARC
  8
0
  6
BYLAYER
 62
     1
 10
401.508824
 20
-362.870246
 30
0.0
 40
3.000023
 50
90.0
 51
98.621201
  0
LINE
  8
0
  6
BYLAYER
 62
     1
 10
431.960453
 20
-359.870246
 30
0.0
 11
401.508824
 21
-359.870246
 31
0.0
  0
ARC
  8
0
  6
BYLAYER
 62
     1
 10
413.762272
 20
-353.870246
 30
0.0
 40
3.000011
 50
90.0
 51
103.151584
  0
ARC
  8
0
  6
BYLAYER
 62
     1
 10
431.960515
 20
-362.870246
 30
0.0
 40
2.999982
 50
45.000848
 51
47.280547
  0
ARC
  8
0
  6
BYLAYER
 62
     1
 10
431.960515
 20
-362.870246
 30
0.0
 40
3.000025
 50
45.000001
 51
90.000009
  0
ARC
  8
0
  6
BYLAYER
 62
     1
 10
249.976094
 20
-264.402961
 30
0.0
 40
3.000023
 50
0.0
 51
8.621213
  0
LINE
  8
0
  6
BYLAYER
 62
     1
 10
252.976094
 20
-294.854590
 30
0.0
 11
252.976094
 21
-264.402961
 31
0.0
  0
ARC
  8
0
  6
BYLAYER
 62
     1
 10
258.976124
 20
-276.656409
 30
0.0
 40
3.000011
 50
0.0
 51
13.151596
  0
ARC
  8
0
  6
BYLAYER
 62
     1
 10
249.976124
 20
-294.854651
 30
0.0
 40
2.999982
 50
315.000839
 51
317.280537
  0
ARC
  8
0
  6
BYLAYER
 62
     1
 10
249.976124
 20
-294.854651
 30
0.0
 40
3.000025
 50
314.999992
 51
360.000010
  0
ARC
  8
0
  6
BYLAYER
 62
     1
 10
424.976109
 20
-237.870246
 30
0.0
 40
167.471008
 50
166.848735
 51
193.151316
  0
ARC
  8
0
  6
BYLAYER
 62
     1
 10
258.976094
 20
-199.084235
 30
0.0
 40
2.999997
 50
346.848945
 51
360.000000
  0
LINE
  8
0
  6
BYLAYER
 62
     1
 10
321.976109
 20
-135.248267
 30
0.0
 11
321.976109
 21
-87.870246
 31
0.0
  0
ARC
  8
0
  6
BYLAYER
 62
     1
 10
318.976109
 20
-87.870246
 30
0.0
 40
3.000000
 50
0.0
 51
90.000003
  0
LINE
  8
0
  6
BYLAYER
 62
     1
 10
427.976109
 20
-87.870246
 30
0.0
 11
427.976109
 21
-135.248237
 31
0.0
  0
LINE
  8
0
  6
BYLAYER
 62
     1
 10
484.976094
 20
-84.870246
 30
0.0
 11
331.976094
 21
-84.870246
 31
0.0
  0
ARC
  8
0
  6
BYLAYER
 62
     1
 10
430.976109
 20
-87.870246
 30
0.0
 40
3.000000
 50
90.0
 51
180.000003
  0
LINE
  8
0
  6
BYLAYER
 62
     1
 10
264.976094
 20
-84.870246
 30
0.0
 11
331.976094
 21
-84.870246
 31
0.0
  0
LINE
  8
0
  6
BYLAYER
 62
     1
 10
303.877232
 20
-149.870307
 30
0.0
 11
264.976094
 21
-149.870307
 31
0.0
  0
ARC
  8
0
  6
BYLAYER
 62
     1
 10
264.976094
 20
-146.870307
 30
0.0
 40
3.000000
 50
180.000000
 51
269.999996
  0
LINE
  8
0
  6
BYLAYER
 62
     1
 10
446.075078
 20
-149.870307
 30
0.0
 11
484.976094
 21
-149.870307
 31
0.0
  0
ARC
  8
0
  6
BYLAYER
 62
     1
 10
484.976094
 20
-146.870307
 30
0.0
 40
3.000000
 50
270.0
 51
360.000003
  0
LINE
  8
0
  6
BYLAYER
 62
     1
 10
321.976109
 20
-340.491996
 30
0.0
 11
321.976109
 21
-347.870246
 31
0.0
  0
ARC
  8
0
  6
BYLAYER
 62
     1
 10
318.976109
 20
-347.870246
 30
0.0
 40
3.000000
 50
270.0
 51
360.000003
  0
LINE
  8
0
  6
BYLAYER
 62
     1
 10
427.976109
 20
-340.492026
 30
0.0
 11
427.976109
 21
-347.870246
 31
0.0
  0
ARC
  8
0
  6
BYLAYER
 62
     1
 10
430.976109
 20
-347.870246
 30
0.0
 40
3.000000
 50
180.000000
 51
269.999996
  0
LINE
  8
0
  6
BYLAYER
 62
     1
 10
413.762272
 20
-350.870246
 30
0.0
 11
484.976094
 21
-350.870246
 31
0.0
  0
LINE
  8
0
  6
BYLAYER
 62
     1
 10
487.976094
 20
-276.656409
 30
0.0
 11
487.976094
 21
-347.870246
 31
0.0
  0
LINE
  8
0
  6
BYLAYER
 62
     1
 10
336.189946
 20
-350.870246
 30
0.0
 11
264.976094
 21
-350.870246
 31
0.0
  0
LINE
  8
0
  6
BYLAYER
 62
     1
 10
261.976124
 20
-276.656409
 30
0.0
 11
261.976124
 21
-347.870246
 31
0.0
  0
LINE
  8
0
  6
BYLAYER
 62
     1
 10
261.976094
 20
-87.870246
 30
0.0
 11
261.976094
 21
-155.870246
 31
0.0
  0
LINE
  8
0
  6
BYLAYER
 62
     1
 10
261.976094
 20
-165.870246
 30
0.0
 11
261.976094
 21
-166.870246
 31
0.0
  0
LINE
  8
0
  6
BYLAYER
 62
     1
 10
261.976094
 20
-176.870246
 30
0.0
 11
261.976094
 21
-199.084235
 31
0.0
  0
LINE
  8
0
  6
BYLAYER
 62
     1
 10
487.976094
 20
-155.870246
 30
0.0
 11
487.976094
 21
-87.870246
 31
0.0
  0
LINE
  8
0
  6
BYLAYER
 62
     1
 10
487.976094
 20
-166.870246
 30
0.0
 11
487.976094
 21
-165.870246
 31
0.0
  0
LINE
  8
0
  6
BYLAYER
 62
     1
 10
487.976094
 20
-199.084113
 30
0.0
 11
487.976094
 21
-176.870246
 31
0.0
  0
ARC
  8
0
  6
BYLAYER
 62
     1
 10
249.976124
 20
-211.337348
 30
0.0
 40
3.0
 50
351.378727
 51
360.000000
  0
ARC
  8
0
  6
BYLAYER
 62
     1
 10
424.976094
 20
-237.870246
 30
0.0
 40
173.999969
 50
171.378667
 51
188.621275
  0
ARC
  8
0
  6
BYLAYER
 62
     1
 10
324.976124
 20
-237.870246
 30
0.0
 40
173.999954
 50
351.378727
 51
368.621311
  0
ARC
  8
0
  6
BYLAYER
 62
     1
 10
374.976109
 20
-187.870246
 30
0.0
 40
173.999969
 50
261.378717
 51
278.621284
  0
LINE
  8
0
  6
BYLAYER
 62
     1
 10
494.976063
 20
-70.370246
 30
0.0
 11
499.976063
 21
-75.370246
 31
0.0
  0
LINE
  8
0
  6
BYLAYER
 62
     1
 10
315.870472
 20
-74.991584
 30
0.0
 11
311.249135
 21
-70.370246
 31
0.0
  0
LINE
  8
0
  6
BYLAYER
 62
     1
 10
499.976094
 20
-181.870246
 30
0.0
 11
499.976094
 21
-75.370307
 31
0.0
  0
LINE
  8
0
  6
BYLAYER
 62
     1
 10
434.081776
 20
-74.991584
 30
0.0
 11
438.703114
 21
-70.370246
 31
0.0
  0
LINE
  8
0
  6
BYLAYER
 62
     1
 10
438.703114
 20
-70.370246
 30
0.0
 11
494.976063
 21
-70.370246
 31
0.0
  0
LINE
  8
0
  6
BYLAYER
 62
     1
 10
494.976063
 20
-365.370246
 30
0.0
 11
499.976094
 21
-360.370246
 31
0.0
  0
LINE
  8
0
  6
BYLAYER
 62
     1
 10
499.976094
 20
-360.370246
 30
0.0
 11
499.976094
 21
-299.097266
 31
0.0
  0
LINE
  8
0
  6
BYLAYER
 62
     1
 10
439.976155
 20
-365.370246
 30
0.0
 11
439.976155
 21
-350.870246
 31
0.0
  0
LINE
  8
0
  6
BYLAYER
 62
     1
 10
434.081791
 20
-360.748908
 30
0.0
 11
438.703129
 21
-365.370246
 31
0.0
  0
LINE
  8
0
  6
BYLAYER
 62
     1
 10
438.703129
 20
-365.370246
 30
0.0
 11
494.976063
 21
-365.370246
 31
0.0
  0
LINE
  8
0
  6
BYLAYER
 62
     1
 10
309.976071
 20
-365.370246
 30
0.0
 11
309.976071
 21
-350.870246
 31
0.0
  0
LINE
  8
0
  6
BYLAYER
 62
     1
 10
315.870427
 20
-360.748908
 30
0.0
 11
311.249089
 21
-365.370246
 31
0.0
  0
LINE
  8
0
  6
BYLAYER
 62
     1
 10
252.476124
 20
-70.370246
 30
0.0
 11
247.476124
 21
-75.370246
 31
0.0
  0
LINE
  8
0
  6
BYLAYER
 62
     1
 10
247.476109
 20
-170.370246
 30
0.0
 11
247.476109
 21
-75.370246
 31
0.0
  0
LINE
  8
0
  6
BYLAYER
 62
     1
 10
252.476124
 20
-365.370246
 30
0.0
 11
247.476109
 21
-360.370246
 31
0.0
  0
LINE
  8
0
  6
BYLAYER
 62
     1
 10
252.476124
 20
-70.370246
 30
0.0
 11
311.249135
 21
-70.370246
 31
0.0
  0
LINE
  8
0
  6
BYLAYER
 62
     1
 10
253.262684
 20
-135.936713
 30
0.0
 11
247.476109
 21
-132.870307
 31
0.0
  0
LINE
  8
0
  6
BYLAYER
 62
     1
 10
250.133343
 20
-170.509711
 30
0.0
 11
247.476124
 21
-170.370246
 31
0.0
  0
LINE
  8
0
  6
BYLAYER
 62
     1
 10
252.976124
 20
-211.337348
 30
0.0
 11
252.976124
 21
-173.505561
 31
0.0
  0
ARC
  8
0
  6
BYLAYER
 62
     1
 10
249.976124
 20
-173.505561
 30
0.0
 40
2.999972
 50
0.0
 51
86.995935
  0
LINE
  8
0
  6
BYLAYER
 62
     1
 10
252.476124
 20
-365.370246
 30
0.0
 11
311.249089
 21
-365.370246
 31
0.0
  0
LINE
  8
0
  6
BYLAYER
 62
     1
 10
247.476109
 20
-302.870276
 30
0.0
 11
261.976124
 21
-302.870276
 31
0.0
  0
LINE
  8
0
  6
BYLAYER
 62
     1
 10
252.097462
 20
-296.975928
 30
0.0
 11
247.476109
 21
-301.597297
 31
0.0
  0
LINE
  8
0
  6
BYLAYER
 62
     1
 10
247.476109
 20
-301.597297
 30
0.0
 11
247.476109
 21
-360.370246
 31
0.0
  0
ARC
  8
0
  6
BYLAYER
 62
     1
 10
292.476109
 20
-237.870307
 30
0.0
 40
5.000100
 50
88.263441
 51
359.999976
  0
CIRCLE
  8
0
  6
BYLAYER
 62
     1
 10
292.476109
 20
-237.870307
 30
0.0
 40
4.5
  0
ARC
  8
0
  6
BYLAYER
 62
     1
 10
316.639805
 20
-296.206733
 30
0.0
 40
5.000038
 50
133.263438
 51
404.999974
  0
CIRCLE
  8
0
  6
BYLAYER
 62
     1
 10
316.639805
 20
-296.206733
 30
0.0
 40
4.5
  0
CIRCLE
  8
0
  6
BYLAYER
 62
     1
 10
374.976109
 20
-320.370307
 30
0.0
 40
4.5
  0
CIRCLE
  8
0
  6
BYLAYER
 62
     1
 10
374.976109
 20
-237.870307
 30
0.0
 40
65.0
  0
ARC
  8
0
  6
BYLAYER
 62
     1
 10
457.476109
 20
-237.870307
 30
0.0
 40
5.000098
 50
180.000000
 51
451.736536
  0
CIRCLE
  8
0
  6
BYLAYER
 62
     1
 10
457.476109
 20
-237.870307
 30
0.0
 40
4.5
  0
ARC
  8
0
  6
BYLAYER
 62
     1
 10
433.312413
 20
-296.206733
 30
0.0
 40
5.000038
 50
135.000028
 51
406.736563
  0
CIRCLE
  8
0
  6
BYLAYER
 62
     1
 10
433.312413
 20
-296.206733
 30
0.0
 40
4.5
  0
CIRCLE
  8
0
  6
BYLAYER
 62
     1
 10
374.976109
 20
-320.370307
 30
0.0
 40
4.5
  0
ARC
  8
0
  6
BYLAYER
 62
     1
 10
374.976109
 20
-320.370307
 30
0.0
 40
4.999980
 50
90.0
 51
361.736535
  0
ARC
  8
0
  6
BYLAYER
 62
     1
 10
292.476109
 20
-237.870307
 30
0.0
 40
5.000100
 50
0.0
 51
271.736536
  0
CIRCLE
  8
0
  6
BYLAYER
 62
     1
 10
292.476109
 20
-237.870307
 30
0.0
 40
4.5
  0
ARC
  8
0
  6
BYLAYER
 62
     1
 10
316.639805
 20
-179.534186
 30
0.0
 40
4.999860
 50
315.000023
 51
586.736558
  0
CIRCLE
  8
0
  6
BYLAYER
 62
     1
 10
316.639805
 20
-179.534186
 30
0.0
 40
4.5
  0
CIRCLE
  8
0
  6
BYLAYER
 62
     1
 10
374.976109
 20
-155.370368
 30
0.0
 40
4.5
  0
ARC
  8
0
  6
BYLAYER
 62
     1
 10
457.476109
 20
-237.870307
 30
0.0
 40
5.000098
 50
268.263439
 51
539.999974
  0
CIRCLE
  8
0
  6
BYLAYER
 62
     1
 10
457.476109
 20
-237.870307
 30
0.0
 40
4.5
  0
ARC
  8
0
  6
BYLAYER
 62
     1
 10
433.312413
 20
-179.534186
 30
0.0
 40
4.999860
 50
313.263430
 51
584.999965
  0
CIRCLE
  8
0
  6
BYLAYER
 62
     1
 10
433.312413
 20
-179.534186
 30
0.0
 40
4.5
  0
CIRCLE
  8
0
  6
BYLAYER
 62
     1
 10
374.976109
 20
-155.370368
 30
0.0
 40
4.5
  0
ARC
  8
0
  6
BYLAYER
 62
     1
 10
374.976109
 20
-155.370368
 30
0.0
 40
4.999980
 50
358.263448
 51
629.999983
  0
CIRCLE
  8
0
  6
BYLAYER
 62
     1
 10
374.976109
 20
-237.870307
 30
0.0
 40
42.5
  0
ARC
  8
0
  6
BYLAYER
 62
     1
 10
436.189610
 20
-162.624763
 30
0.0
 40
2.999964
 50
50.871146
 51
102.667961
  0
ARC
  8
0
  6
BYLAYER
 62
     1
 10
450.007725
 20
-176.394782
 30
0.0
 40
3.000030
 50
347.532019
 51
399.328820
  0
ARC
  8
0
  6
BYLAYER
 62
     1
 10
425.443760
 20
-114.817390
 30
0.0
 40
46.00013
 50
212.731993
 51
282.668007
  0
ARC
  8
0
  6
BYLAYER
 62
     1
 10
384.224522
 20
-141.312263
 30
0.0
 40
2.999911
 50
32.732005
 51
84.528857
  0
ARC
  8
0
  6
BYLAYER
 62
     1
 10
324.508458
 20
-114.817390
 30
0.0
 40
46.00013
 50
257.331994
 51
327.268022
  0
ARC
  8
0
  6
BYLAYER
 62
     1
 10
365.727696
 20
-141.312263
 30
0.0
 40
2.999911
 50
95.471141
 51
147.267990
  0
ARC
  8
0
  6
BYLAYER
 62
     1
 10
313.762669
 20
-162.624763
 30
0.0
 40
2.999964
 50
77.332037
 51
129.128852
  0
ARC
  8
0
  6
BYLAYER
 62
     1
 10
299.944554
 20
-176.394782
 30
0.0
 40
3.000030
 50
140.671175
 51
192.467983
  0
ARC
  8
0
  6
BYLAYER
 62
     1
 10
252.100132
 20
-186.973395
 30
0.0
 40
45.999996
 50
302.532026
 51
372.467986
  0
ARC
  8
0
  6
BYLAYER
 62
     1
 10
278.450901
 20
-228.284858
 30
0.0
 40
3.000036
 50
122.532009
 51
174.328831
  0
ARC
  8
0
  6
BYLAYER
 62
     1
 10
425.443760
 20
-360.923286
 30
0.0
 40
46.000130
 50
77.331996
 51
147.268004
  0
ARC
  8
0
  6
BYLAYER
 62
     1
 10
436.189610
 20
-313.115912
 30
0.0
 40
3.000153
 50
257.332049
 51
309.128843
  0
ARC
  8
0
  6
BYLAYER
 62
     1
 10
299.944554
 20
-299.346137
 30
0.0
 40
2.999875
 50
167.532014
 51
219.328822
  0
ARC
  8
0
  6
BYLAYER
 62
     1
 10
252.100132
 20
-288.767280
 30
0.0
 40
45.999996
 50
347.532019
 51
417.467979
  0
ARC
  8
0
  6
BYLAYER
 62
     1
 10
278.450901
 20
-247.455756
 30
0.0
 40
3.000036
 50
185.671166
 51
237.468001
  0
ARC
  8
0
  6
BYLAYER
 62
     1
 10
464.211400
 20
-213.755927
 30
0.0
 40
3.000001
 50
150.189617
 51
218.524908
  0
ARC
  8
0
  6
BYLAYER
 62
     1
 10
451.196263
 20
-206.299018
 30
0.0
 40
11.999974
 50
330.189868
 51
434.810396
  0
ARC
  8
0
  6
BYLAYER
 62
     1
 10
455.126439
 20
-191.823066
 30
0.0
 40
3.000002
 50
186.476390
 51
254.811026
  0
ARC
  8
0
  6
BYLAYER
 62
     1
 10
497.852086
 20
-186.973395
 30
0.0
 40
45.999996
 50
167.531986
 51
202.500178
  0
ARC
  8
0
  6
BYLAYER
 62
     1
 10
384.224522
 20
-334.428351
 30
0.0
 40
2.999911
 50
275.471146
 51
327.267995
  0
ARC
  8
0
  6
BYLAYER
 62
     1
 10
365.727696
 20
-334.428351
 30
0.0
 40
2.999911
 50
212.732006
 51
264.528855
  0
ARC
  8
0
  6
BYLAYER
 62
     1
 10
299.944615
 20
-299.346076
 30
0.0
 40
2.999953
 50
167.531782
 51
219.328835
  0
ARC
  8
0
  6
BYLAYER
 62
     1
 10
374.976109
 20
-237.870307
 30
0.0
 40
99.999908
 50
264.328895
 51
275.871067
  0
ARC
  8
0
  6
BYLAYER
 62
     1
 10
374.976109
 20
-237.870307
 30
0.0
 40
99.999931
 50
39.328895
 51
50.871068
  0
ARC
  8
0
  6
BYLAYER
 62
     1
 10
374.976109
 20
-237.870307
 30
0.0
 40
99.999931
 50
129.328908
 51
140.871108
  0
ARC
  8
0
  6
BYLAYER
 62
     1
 10
374.976109
 20
-237.870307
 30
0.0
 40
99.999878
 50
174.328872
 51
185.871072
  0
ARC
  8
0
  6
BYLAYER
 62
     1
 10
324.508458
 20
-360.923286
 30
0.0
 40
46.000130
 50
32.732094
 51
102.667924
  0
ARC
  8
0
  6
BYLAYER
 62
     1
 10
374.976109
 20
-237.870307
 30
0.0
 40
99.999931
 50
219.128916
 51
230.871131
  0
ARC
  8
0
  6
BYLAYER
 62
     1
 10
313.762730
 20
-313.115943
 30
0.0
 40
2.999999
 50
230.870311
 51
282.667898
  0
ARC
  8
0
  6
BYLAYER
 62
     1
 10
450.007664
 20
-299.345954
 30
0.0
 40
2.999991
 50
320.671152
 51
372.468052
  0
ARC
  8
0
  6
BYLAYER
 62
     1
 10
497.852086
 20
-288.767280
 30
0.0
 40
46.000023
 50
122.532132
 51
192.467819
  0
ARC
  8
0
  6
BYLAYER
 62
     1
 10
471.501194
 20
-247.455878
 30
0.0
 40
2.999985
 50
302.532875
 51
354.329068
  0
ARC
  8
0
  6
BYLAYER
 62
     1
 10
374.976109
 20
-237.870307
 30
0.0
 40
99.999893
 50
354.328767
 51
365.671171
  0
ARC
  8
0
  6
BYLAYER
 62
     1
 10
497.852086
 20
-186.973395
 30
0.0
 40
46.000069
 50
202.500151
 51
237.467919
  0
ARC
  8
0
  6
BYLAYER
 62
     1
 10
471.501194
 20
-228.284858
 30
0.0
 40
3.000034
 50
5.670925
 51
57.467122
  0
ARC
  8
0
  6
BYLAYER
 62
     1
 10
374.976109
 20
-237.870307
 30
0.0
 40
99.999939
 50
309.128898
 51
320.671180
  0
ARC
  8
0
  6
BYLAYER
 62
     1
 10
374.976109
 20
-237.870307
 30
0.0
 40
99.999878
 50
84.528857
 51
95.471141
  0
ARC
  8
0
  6
BYLAYER
 62
     1
 10
349.168400
 20
-128.370307
 30
0.0
 40
3.0
 50
90.0
 51
103.261844
  0
LINE
  8
0
  6
BYLAYER
 62
     1
 10
349.168400
 20
-125.370307
 30
0.0
 11
400.783848
 21
-125.370307
 31
0.0
  0
ARC
  8
0
  6
BYLAYER
 62
     1
 10
400.783848
 20
-128.370307
 30
0.0
 40
3.000000
 50
76.738150
 51
90.000000
  0
LINE
  8
0
  6
BYLAYER
 62
     1
 10
277.177922
 20
-176.569617
 30
0.0
 11
313.675602
 21
-140.071937
 31
0.0
  0
LINE
  8
0
  6
BYLAYER
 62
     1
 10
262.476384
 20
-263.677924
 30
0.0
 11
262.476384
 21
-212.062446
 31
0.0
  0
LINE
  8
0
  6
BYLAYER
 62
     1
 10
313.675602
 20
-335.668372
 30
0.0
 11
277.177922
 21
-299.170722
 31
0.0
  0
LINE
  8
0
  6
BYLAYER
 62
     1
 10
400.783970
 20
-350.369941
 30
0.0
 11
349.168461
 21
-350.369941
 31
0.0
  0
LINE
  8
0
  6
BYLAYER
 62
     1
 10
472.774327
 20
-299.170630
 30
0.0
 11
436.276768
 21
-335.668281
 31
0.0
  0
LINE
  8
0
  6
BYLAYER
 62
     1
 10
487.475987
 20
-212.062324
 30
0.0
 11
487.475987
 21
-263.677802
 31
0.0
  0
LINE
  8
0
  6
BYLAYER
 62
     1
 10
436.276646
 20
-140.071876
 30
0.0
 11
472.774327
 21
-176.569556
 31
0.0
  0
ARC
  8
0
  6
BYLAYER
 62
     1
 10
484.475987
 20
-263.677802
 30
0.0
 40
3.000000
 50
346.738214
 51
360.000000
  0
ARC
  8
0
  6
BYLAYER
 62
     1
 10
484.475987
 20
-212.062446
 30
0.0
 40
3.000000
 50
0.0
 51
13.261779
  0
ARC
  8
0
  6
BYLAYER
 62
     1
 10
374.976140
 20
-237.870124
 30
0.0
 40
115.499939
 50
13.261844
 51
31.738130
  0
ARC
  8
0
  6
BYLAYER
 62
     1
 10
470.652989
 20
-178.690894
 30
0.0
 40
3.000013
 50
31.738393
 51
45.000411
  0
ARC
  8
0
  6
BYLAYER
 62
     1
 10
374.976140
 20
-237.870124
 30
0.0
 40
115.499992
 50
58.261773
 51
76.738145
  0
ARC
  8
0
  6
BYLAYER
 62
     1
 10
434.155552
 20
-142.193336
 30
0.0
 40
2.999917
 50
44.999793
 51
58.261452
  0
ARC
  8
0
  6
BYLAYER
 62
     1
 10
349.168461
 20
-347.369941
 30
0.0
 40
3.000000
 50
256.738231
 51
270.000000
  0
ARC
  8
0
  6
BYLAYER
 62
     1
 10
400.783848
 20
-347.369941
 30
0.0
 40
3.000000
 50
270.0
 51
283.261769
  0
ARC
  8
0
  6
BYLAYER
 62
     1
 10
349.168461
 20
-347.369941
 30
0.0
 40
3.000000
 50
256.738231
 51
270.000000
  0
ARC
  8
0
  6
BYLAYER
 62
     1
 10
374.976140
 20
-237.870124
 30
0.0
 40
115.500000
 50
283.261851
 51
301.738114
  0
ARC
  8
0
  6
BYLAYER
 62
     1
 10
434.155308
 20
-333.547019
 30
0.0
 40
3.000013
 50
301.738005
 51
314.999992
  0
ARC
  8
0
  6
BYLAYER
 62
     1
 10
374.976140
 20
-237.870124
 30
0.0
 40
115.499985
 50
328.261842
 51
346.738160
  0
ARC
  8
0
  6
BYLAYER
 62
     1
 10
470.652989
 20
-297.049415
 30
0.0
 40
3.000003
 50
315.000210
 51
328.262252
  0
ARC
  8
0
  6
BYLAYER
 62
     1
 10
265.476384
 20
-212.062446
 30
0.0
 40
3.000000
 50
166.738204
 51
180.000000
  0
ARC
  8
0
  6
BYLAYER
 62
     1
 10
265.476384
 20
-263.677833
 30
0.0
 40
3.000000
 50
180.000000
 51
193.261796
  0
ARC
  8
0
  6
BYLAYER
 62
     1
 10
374.976140
 20
-237.870124
 30
0.0
 40
115.499977
 50
193.261855
 51
211.738173
  0
ARC
  8
0
  6
BYLAYER
 62
     1
 10
279.299260
 20
-297.049415
 30
0.0
 40
2.999909
 50
211.738323
 51
225.000228
  0
ARC
  8
0
  6
BYLAYER
 62
     1
 10
374.976140
 20
-237.870124
 30
0.0
 40
115.500008
 50
238.261833
 51
256.73815
  0
ARC
  8
0
  6
BYLAYER
 62
     1
 10
315.796818
 20
-333.546958
 30
0.0
 40
3.000014
 50
224.999996
 51
238.261887
  0
ARC
  8
0
  6
BYLAYER
 62
     1
 10
374.976140
 20
-237.870124
 30
0.0
 40
115.499985
 50
148.261892
 51
166.738155
  0
ARC
  8
0
  6
BYLAYER
 62
     1
 10
279.299260
 20
-178.690894
 30
0.0
 40
3.000003
 50
135.000205
 51
148.262192
  0
ARC
  8
0
  6
BYLAYER
 62
     1
 10
374.976140
 20
-237.870124
 30
0.0
 40
115.499992
 50
103.261880
 51
121.738164
  0
ARC
  8
0
  6
BYLAYER
 62
     1
 10
315.796818
 20
-142.193275
 30
0.0
 40
3.000003
 50
121.738423
 51
135.000205
  0
ARC
  8
0
  6
BYLAYER
 62
     1
 10
354.111842
 20
-114.518780
 30
0.0
 40
4.330170
 50
270.0
 51
316.109984
  0
ARC
  8
0
  6
BYLAYER
 62
     1
 10
353.670369
 20
-114.094090
 30
0.0
 40
4.942754
 50
316.109984
 51
360.0
  0
ARC
  8
0
  6
BYLAYER
 62
     1
 10
353.670369
 20
-114.094090
 30
0.0
 40
4.942754
 50
0.0
 51
43.890016
  0
ARC
  8
0
  6
BYLAYER
 62
     1
 10
354.111842
 20
-113.669399
 30
0.0
 40
4.330170
 50
43.890016
 51
90.000000
  0
ARC
  8
0
  6
BYLAYER
 62
     1
 10
354.111842
 20
-113.669362
 30
0.0
 40
4.330132
 50
90.0
 51
136.110087
  0
ARC
  8
0
  6
BYLAYER
 62
     1
 10
354.553355
 20
-114.094090
 30
0.0
 40
4.942772
 50
136.110087
 51
180.0
  0
ARC
  8
0
  6
BYLAYER
 62
     1
 10
354.553355
 20
-114.094090
 30
0.0
 40
4.942772
 50
180.000000
 51
223.889913
  0
ARC
  8
0
  6
BYLAYER
 62
     1
 10
354.111842
 20
-114.518817
 30
0.0
 40
4.330132
 50
223.889913
 51
270.000000
  0
ARC
  8
0
  6
BYLAYER
 62
     1
 10
354.111842
 20
-112.829363
 30
0.0
 40
1.994620
 50
90.0
 51
140.793201
  0
ARC
  8
0
  6
BYLAYER
 62
     1
 10
355.662174
 20
-114.094090
 30
0.0
 40
3.995385
 50
140.793201
 51
180.0
  0
ARC
  8
0
  6
BYLAYER
 62
     1
 10
355.662150
 20
-114.094090
 30
0.0
 40
3.995361
 50
180.000000
 51
219.206869
  0
ARC
  8
0
  6
BYLAYER
 62
     1
 10
354.111842
 20
-115.358799
 30
0.0
 40
1.994625
 50
219.206869
 51
270.000000
  0
ARC
  8
0
  6
BYLAYER
 62
     1
 10
354.111842
 20
-115.358799
 30
0.0
 40
1.994625
 50
270.0
 51
320.793131
  0
ARC
  8
0
  6
BYLAYER
 62
     1
 10
352.561534
 20
-114.094090
 30
0.0
 40
3.995361
 50
320.793131
 51
360.000000
  0
ARC
  8
0
  6
BYLAYER
 62
     1
 10
352.561510
 20
-114.094090
 30
0.0
 40
3.995385
 50
0.0
 51
39.206799
  0
ARC
  8
0
  6
BYLAYER
 62
     1
 10
354.111842
 20
-112.829363
 30
0.0
 40
1.994620
 50
39.206799
 51
90.0
  0
LINE
  8
0
  6
BYLAYER
 62
     1
 10
339.340083
 20
-118.531948
 30
0.0
 11
339.340083
 21
-109.529407
 31
0.0
  0
LINE
  8
0
  6
BYLAYER
 62
     1
 10
339.340083
 20
-109.529407
 30
0.0
 11
343.000269
 21
-109.529407
 31
0.0
  0
LINE
  8
0
  6
BYLAYER
 62
     1
 10
343.000269
 20
-109.529407
 30
0.0
 11
344.221743
 21
-114.220890
 31
0.0
  0
LINE
  8
0
  6
BYLAYER
 62
     1
 10
339.340083
 20
-118.531948
 30
0.0
 11
341.537898
 21
-118.531948
 31
0.0
  0
LINE
  8
0
  6
BYLAYER
 62
     1
 10
341.537898
 20
-118.531948
 30
0.0
 11
341.537898
 21
-113.333309
 31
0.0
  0
LINE
  8
0
  6
BYLAYER
 62
     1
 10
343.270762
 20
-118.531948
 30
0.0
 11
341.537898
 21
-113.333309
 31
0.0
  0
LINE
  8
0
  6
BYLAYER
 62
     1
 10
349.103404
 20
-118.531948
 30
0.0
 11
349.103404
 21
-109.529407
 31
0.0
  0
LINE
  8
0
  6
BYLAYER
 62
     1
 10
349.103404
 20
-109.529407
 30
0.0
 11
345.443217
 21
-109.529407
 31
0.0
  0
LINE
  8
0
  6
BYLAYER
 62
     1
 10
345.443217
 20
-109.529407
 30
0.0
 11
344.221743
 21
-114.220890
 31
0.0
  0
LINE
  8
0
  6
BYLAYER
 62
     1
 10
349.103404
 20
-118.531948
 30
0.0
 11
346.905589
 21
-118.531948
 31
0.0
  0
LINE
  8
0
  6
BYLAYER
 62
     1
 10
346.905589
 20
-118.531948
 30
0.0
 11
346.905589
 21
-113.333309
 31
0.0
  0
LINE
  8
0
  6
BYLAYER
 62
     1
 10
345.172724
 20
-118.531948
 30
0.0
 11
346.905589
 21
-113.333309
 31
0.0
  0
LINE
  8
0
  6
BYLAYER
 62
     1
 10
345.172724
 20
-118.531948
 30
0.0
 11
343.270762
 21
-118.531948
 31
0.0
  0
LINE
  8
0
  6
BYLAYER
 62
     1
 10
381.309664
 20
-118.531948
 30
0.0
 11
384.733142
 21
-109.529407
 31
0.0
  0
LINE
  8
0
  6
BYLAYER
 62
     1
 10
381.309664
 20
-118.531948
 30
0.0
 11
384.225985
 21
-118.531948
 31
0.0
  0
LINE
  8
0
  6
BYLAYER
 62
     1
 10
384.733142
 20
-109.529407
 30
0.0
 11
387.522662
 21
-109.529407
 31
0.0
  0
LINE
  8
0
  6
BYLAYER
 62
     1
 10
384.225985
 20
-118.531948
 30
0.0
 11
384.658251
 21
-117.263989
 31
0.0
  0
LINE
  8
0
  6
BYLAYER
 62
     1
 10
385.349841
 20
-115.235249
 30
0.0
 11
386.127902
 21
-112.952908
 31
0.0
  0
LINE
  8
0
  6
BYLAYER
 62
     1
 10
390.946185
 20
-118.531948
 30
0.0
 11
387.522662
 21
-109.529407
 31
0.0
  0
LINE
  8
0
  6
BYLAYER
 62
     1
 10
390.946185
 20
-118.531948
 30
0.0
 11
388.029864
 21
-118.531948
 31
0.0
  0
LINE
  8
0
  6
BYLAYER
 62
     1
 10
387.597598
 20
-117.263989
 30
0.0
 11
384.658251
 21
-117.263989
 31
0.0
  0
LINE
  8
0
  6
BYLAYER
 62
     1
 10
386.905963
 20
-115.235249
 30
0.0
 11
385.349841
 21
-115.235249
 31
0.0
  0
LINE
  8
0
  6
BYLAYER
 62
     1
 10
388.029864
 20
-118.531948
 30
0.0
 11
387.597598
 21
-117.263989
 31
0.0
  0
LINE
  8
0
  6
BYLAYER
 62
     1
 10
386.905963
 20
-115.235249
 30
0.0
 11
386.127902
 21
-112.952908
 31
0.0
  0
LINE
  8
0
  6
BYLAYER
 62
     1
 10
358.613123
 20
-111.748348
 30
0.0
 11
361.149043
 21
-111.748348
 31
0.0
  0
LINE
  8
0
  6
BYLAYER
 62
     1
 10
361.149043
 20
-111.748348
 30
0.0
 11
361.149043
 21
-118.531948
 31
0.0
  0
LINE
  8
0
  6
BYLAYER
 62
     1
 10
361.149043
 20
-118.531948
 30
0.0
 11
363.938586
 21
-118.531948
 31
0.0
  0
LINE
  8
0
  6
BYLAYER
 62
     1
 10
363.938586
 20
-118.531948
 30
0.0
 11
363.938586
 21
-111.748348
 31
0.0
  0
LINE
  8
0
  6
BYLAYER
 62
     1
 10
363.938586
 20
-111.748348
 30
0.0
 11
366.474505
 21
-111.748348
 31
0.0
  0
LINE
  8
0
  6
BYLAYER
 62
     1
 10
366.474505
 20
-111.748348
 30
0.0
 11
366.474505
 21
-109.529407
 31
0.0
  0
LINE
  8
0
  6
BYLAYER
 62
     1
 10
366.474505
 20
-109.529407
 30
0.0
 11
358.613123
 21
-109.529407
 31
0.0
  0
LINE
  8
0
  6
BYLAYER
 62
     1
 10
358.613123
 20
-109.529407
 30
0.0
 11
358.613123
 21
-111.748348
 31
0.0
  0
ARC
  8
0
  6
BYLAYER
 62
     1
 10
370.975764
 20
-114.518817
 30
0.0
 40
4.330132
 50
270.0
 51
316.110087
  0
ARC
  8
0
  6
BYLAYER
 62
     1
 10
370.534251
 20
-114.094090
 30
0.0
 40
4.942772
 50
316.110087
 51
360.0
  0
ARC
  8
0
  6
BYLAYER
 62
     1
 10
370.534269
 20
-114.094090
 30
0.0
 40
4.942754
 50
0.0
 51
43.890016
  0
ARC
  8
0
  6
BYLAYER
 62
     1
 10
370.975741
 20
-113.669399
 30
0.0
 40
4.330170
 50
43.890016
 51
90.000000
  0
ARC
  8
0
  6
BYLAYER
 62
     1
 10
370.975741
 20
-113.669362
 30
0.0
 40
4.330132
 50
90.0
 51
136.110087
  0
ARC
  8
0
  6
BYLAYER
 62
     1
 10
371.417254
 20
-114.094090
 30
0.0
 40
4.942772
 50
136.110087
 51
180.0
  0
ARC
  8
0
  6
BYLAYER
 62
     1
 10
371.417236
 20
-114.094090
 30
0.0
 40
4.942754
 50
180.000000
 51
223.890016
  0
ARC
  8
0
  6
BYLAYER
 62
     1
 10
370.975764
 20
-114.518780
 30
0.0
 40
4.330170
 50
223.890016
 51
270.000000
  0
ARC
  8
0
  6
BYLAYER
 62
     1
 10
370.975741
 20
-112.829363
 30
0.0
 40
1.994620
 50
90.0
 51
140.793201
  0
ARC
  8
0
  6
BYLAYER
 62
     1
 10
372.526073
 20
-114.094090
 30
0.0
 40
3.995385
 50
140.793201
 51
180.0
  0
ARC
  8
0
  6
BYLAYER
 62
     1
 10
372.526022
 20
-114.094090
 30
0.0
 40
3.995334
 50
180.000000
 51
219.207055
  0
ARC
  8
0
  6
BYLAYER
 62
     1
 10
370.975764
 20
-115.358767
 30
0.0
 40
1.994657
 50
219.207055
 51
270.000000
  0
ARC
  8
0
  6
BYLAYER
 62
     1
 10
370.975764
 20
-115.358799
 30
0.0
 40
1.994625
 50
270.0
 51
320.793131
  0
ARC
  8
0
  6
BYLAYER
 62
     1
 10
369.425456
 20
-114.094090
 30
0.0
 40
3.995361
 50
320.793131
 51
360.000000
  0
ARC
  8
0
  6
BYLAYER
 62
     1
 10
369.425459
 20
-114.094090
 30
0.0
 40
3.995358
 50
0.0
 51
39.206985
  0
ARC
  8
0
  6
BYLAYER
 62
     1
 10
370.975741
 20
-112.829395
 30
0.0
 40
1.994652
 50
39.206985
 51
90.0
  0
LINE
  8
0
  6
BYLAYER
 62
     1
 10
391.189166
 20
-118.531948
 30
0.0
 11
391.189166
 21
-109.529407
 31
0.0
  0
LINE
  8
0
  6
BYLAYER
 62
     1
 10
391.189166
 20
-109.529407
 30
0.0
 11
396.768183
 21
-109.529407
 31
0.0
  0
ARC
  8
0
  6
BYLAYER
 62
     1
 10
396.768183
 20
-112.065350
 30
0.0
 40
2.535915
 50
287.134650
 51
450.000006
  0
ARC
  8
0
  6
BYLAYER
 62
     1
 10
397.275386
 20
-116.503208
 30
0.0
 40
2.028740
 50
0.0
 51
83.207557
  0
LINE
  8
0
  6
BYLAYER
 62
     1
 10
399.304126
 20
-116.503208
 30
0.0
 11
399.304126
 21
-117.771168
 31
0.0
  0
ARC
  8
0
  6
BYLAYER
 62
     1
 10
401.332865
 20
-117.771168
 30
0.0
 40
2.028740
 50
180.000000
 51
202.024314
  0
LINE
  8
0
  6
BYLAYER
 62
     1
 10
396.662646
 20
-118.531948
 30
0.0
 11
399.452166
 21
-118.531948
 31
0.0
  0
ARC
  8
0
  6
BYLAYER
 62
     1
 10
398.543345
 20
-117.771168
 30
0.0
 40
2.028740
 50
180.000000
 51
202.024314
  0
LINE
  8
0
  6
BYLAYER
 62
     1
 10
396.514605
 20
-117.771168
 30
0.0
 11
396.514605
 21
-116.756809
 31
0.0
  0
LINE
  8
0
  6
BYLAYER
 62
     1
 10
391.189166
 20
-118.531948
 30
0.0
 11
393.851886
 21
-118.531948
 31
0.0
  0
LINE
  8
0
  6
BYLAYER
 62
     1
 10
393.851886
 20
-118.531948
 30
0.0
 11
393.851886
 21
-115.488850
 31
0.0
  0
LINE
  8
0
  6
BYLAYER
 62
     1
 10
395.246646
 20
-115.488850
 30
0.0
 11
393.851886
 21
-115.488850
 31
0.0
  0
ARC
  8
0
  6
BYLAYER
 62
     1
 10
395.246646
 20
-116.756809
 30
0.0
 40
1.267960
 50
0.0
 51
90.000003
  0
LINE
  8
0
  6
BYLAYER
 62
     1
 10
393.851886
 20
-113.460110
 30
0.0
 11
393.851886
 21
-111.558147
 31
0.0
  0
LINE
  8
0
  6
BYLAYER
 62
     1
 10
393.851886
 20
-111.558147
 30
0.0
 11
395.627024
 21
-111.558147
 31
0.0
  0
LINE
  8
0
  6
BYLAYER
 62
     1
 10
393.851886
 20
-113.460110
 30
0.0
 11
395.627024
 21
-113.460110
 31
0.0
  0
ARC
  8
0
  6
BYLAYER
 62
     1
 10
395.627024
 20
-112.509129
 30
0.0
 40
0.950981
 50
270.0
 51
450.000005
  0
LINE
  8
0
  6
BYLAYER
 62
     1
 10
379.090747
 20
-115.685253
 30
0.0
 11
377.442385
 21
-109.529407
 31
0.0
  0
LINE
  8
0
  6
BYLAYER
 62
     1
 10
377.442385
 20
-109.529407
 30
0.0
 11
374.779666
 21
-109.529407
 31
0.0
  0
LINE
  8
0
  6
BYLAYER
 62
     1
 10
374.779666
 20
-109.529407
 30
0.0
 11
377.569186
 21
-118.531948
 31
0.0
  0
LINE
  8
0
  6
BYLAYER
 62
     1
 10
379.090747
 20
-115.685253
 30
0.0
 11
380.739062
 21
-109.529407
 31
0.0
  0
LINE
  8
0
  6
BYLAYER
 62
     1
 10
380.739062
 20
-109.529407
 30
0.0
 11
383.401782
 21
-109.529407
 31
0.0
  0
LINE
  8
0
  6
BYLAYER
 62
     1
 10
383.401782
 20
-109.529407
 30
0.0
 11
380.612261
 21
-118.531948
 31
0.0
  0
LINE
  8
0
  6
BYLAYER
 62
     1
 10
380.612261
 20
-118.531948
 30
0.0
 11
377.569186
 21
-118.531948
 31
0.0
  0
LINE
  8
0
  6
BYLAYER
 62
     1
 10
399.695147
 20
-118.531948
 30
0.0
 11
402.357867
 21
-118.531948
 31
0.0
  0
LINE
  8
0
  6
BYLAYER
 62
     1
 10
402.357867
 20
-118.531948
 30
0.0
 11
402.357867
 21
-109.529407
 31
0.0
  0
LINE
  8
0
  6
BYLAYER
 62
     1
 10
402.357867
 20
-109.529407
 30
0.0
 11
399.695147
 21
-109.529407
 31
0.0
  0
LINE
  8
0
  6
BYLAYER
 62
     1
 10
399.695147
 20
-109.529407
 30
0.0
 11
399.695147
 21
-118.531948
 31
0.0
  0
ARC
  8
0
  6
BYLAYER
 62
     1
 10
407.366328
 20
-114.518817
 30
0.0
 40
4.330132
 50
270.0
 51
316.110087
  0
ARC
  8
0
  6
BYLAYER
 62
     1
 10
406.924815
 20
-114.094090
 30
0.0
 40
4.942772
 50
316.110087
 51
360.0
  0
ARC
  8
0
  6
BYLAYER
 62
     1
 10
406.924815
 20
-114.094090
 30
0.0
 40
4.942772
 50
0.0
 51
43.889913
  0
ARC
  8
0
  6
BYLAYER
 62
     1
 10
407.366328
 20
-113.669362
 30
0.0
 40
4.330132
 50
43.889913
 51
90.000000
  0
ARC
  8
0
  6
BYLAYER
 62
     1
 10
407.366328
 20
-113.669362
 30
0.0
 40
4.330132
 50
90.0
 51
136.110087
  0
ARC
  8
0
  6
BYLAYER
 62
     1
 10
407.807841
 20
-114.094090
 30
0.0
 40
4.942772
 50
136.110087
 51
180.0
  0
ARC
  8
0
  6
BYLAYER
 62
     1
 10
407.807841
 20
-114.094090
 30
0.0
 40
4.942772
 50
180.000000
 51
223.889913
  0
ARC
  8
0
  6
BYLAYER
 62
     1
 10
407.366328
 20
-114.518817
 30
0.0
 40
4.330132
 50
223.889913
 51
270.000000
  0
ARC
  8
0
  6
BYLAYER
 62
     1
 10
407.366328
 20
-112.829363
 30
0.0
 40
1.994620
 50
39.206799
 51
90.0
  0
ARC
  8
0
  6
BYLAYER
 62
     1
 10
405.815996
 20
-114.094090
 30
0.0
 40
3.995385
 50
0.0
 51
39.206799
  0
ARC
  8
0
  6
BYLAYER
 62
     1
 10
405.816020
 20
-114.094090
 30
0.0
 40
3.995361
 50
320.793131
 51
360.000000
  0
ARC
  8
0
  6
BYLAYER
 62
     1
 10
407.366328
 20
-115.358799
 30
0.0
 40
1.994625
 50
270.0
 51
320.793131
  0
ARC
  8
0
  6
BYLAYER
 62
     1
 10
407.366328
 20
-115.358799
 30
0.0
 40
1.994625
 50
219.206869
 51
270.000000
  0
ARC
  8
0
  6
BYLAYER
 62
     1
 10
408.916636
 20
-114.094090
 30
0.0
 40
3.995361
 50
180.000000
 51
219.206869
  0
ARC
  8
0
  6
BYLAYER
 62
     1
 10
408.916660
 20
-114.094090
 30
0.0
 40
3.995385
 50
140.793201
 51
180.0
  0
ARC
  8
0
  6
BYLAYER
 62
     1
 10
407.366328
 20
-112.829363
 30
0.0
 40
1.994620
 50
90.0
 51
140.793201
  0
ARC
  8
0
  6
BYLAYER
 62
     1
 10
362.408534
 20
-99.223316
 30
0.0
 40
11.144993
 50
174.535650
 51
180.000000
  0
LINE
  8
0
  6
BYLAYER
 62
     1
 10
351.314185
 20
-98.162014
 30
0.0
 11
351.314185
 21
-98.162003
 31
0.0
  0
LINE
  8
0
  6
BYLAYER
 62
     1
 10
351.326312
 20
-98.042118
 30
0.0
 11
352.389966
 21
-97.594304
 31
0.0
  0
ARC
  8
0
  6
BYLAYER
 62
     1
 10
362.408579
 20
-99.223408
 30
0.0
 40
10.150172
 50
159.235383
 51
170.763998
  0
LINE
  8
0
  6
BYLAYER
 62
     1
 10
352.917668
 20
-95.624810
 30
0.0
 11
352.220469
 21
-94.705140
 31
0.0
  0
ARC
  8
0
  6
BYLAYER
 62
     1
 10
362.408534
 20
-99.223316
 30
0.0
 40
11.144980
 50
144.139514
 51
156.083795
  0
LINE
  8
0
  6
BYLAYER
 62
     1
 10
353.302836
 20
-92.797024
 30
0.0
 11
353.303500
 21
-92.796085
 31
0.0
  0
LINE
  8
0
  6
BYLAYER
 62
     1
 10
353.376131
 20
-92.694436
 30
0.0
 11
354.508519
 21
-92.850232
 31
0.0
  0
ARC
  8
0
  6
BYLAYER
 62
     1
 10
362.408534
 20
-99.223316
 30
0.0
 40
10.150111
 50
129.235643
 51
141.105976
  0
LINE
  8
0
  6
BYLAYER
 62
     1
 10
355.822505
 20
-91.500030
 30
0.0
 11
355.823603
 21
-91.499081
 31
0.0
  0
LINE
  8
0
  6
BYLAYER
 62
     1
 10
355.988474
 20
-91.361536
 30
0.0
 11
355.844483
 21
-90.216426
 31
0.0
  0
ARC
  8
0
  6
BYLAYER
 62
     1
 10
362.408534
 20
-99.223316
 30
0.0
 40
11.144991
 50
114.139607
 51
126.083853
  0
LINE
  8
0
  6
BYLAYER
 62
     1
 10
357.736712
 20
-89.104771
 30
0.0
 11
357.737467
 21
-89.104416
 31
0.0
  0
LINE
  8
0
  6
BYLAYER
 62
     1
 10
357.850663
 20
-89.052936
 30
0.0
 11
358.753406
 21
-89.754027
 31
0.0
  0
LINE
  8
0
  6
BYLAYER
 62
     1
 10
358.959811
 20
-89.677044
 30
0.0
 11
358.960955
 21
-89.676643
 31
0.0
  0
ARC
  8
0
  6
BYLAYER
 62
     1
 10
362.408534
 20
-99.223316
 30
0.0
 40
10.150108
 50
99.235601
 51
111.106038
  0
ARC
  8
0
  6
BYLAYER
 62
     1
 10
362.408534
 20
-99.223316
 30
0.0
 40
11.144993
 50
90.0
 51
96.083892
  0
LINE
  8
0
  6
BYLAYER
 62
     1
 10
361.227337
 20
-88.141095
 30
0.0
 11
360.779497
 21
-89.204787
 31
0.0
  0
LINE
  8
0
  6
BYLAYER
 62
     1
 10
373.502871
 20
-98.162014
 30
0.0
 11
373.502871
 21
-98.162003
 31
0.0
  0
LINE
  8
0
  6
BYLAYER
 62
     1
 10
373.490755
 20
-98.042117
 30
0.0
 11
372.427047
 21
-97.594293
 31
0.0
  0
ARC
  8
0
  6
BYLAYER
 62
     1
 10
362.408465
 20
-99.223408
 30
0.0
 40
10.150172
 50
9.235986
 51
20.764650
  0
LINE
  8
0
  6
BYLAYER
 62
     1
 10
371.899451
 20
-95.624704
 30
0.0
 11
372.596599
 21
-94.705142
 31
0.0
  0
ARC
  8
0
  6
BYLAYER
 62
     1
 10
362.408534
 20
-99.223316
 30
0.0
 40
11.144980
 50
23.916189
 51
35.860484
  0
LINE
  8
0
  6
BYLAYER
 62
     1
 10
371.514208
 20
-92.797024
 30
0.0
 11
371.513545
 21
-92.796085
 31
0.0
  0
LINE
  8
0
  6
BYLAYER
 62
     1
 10
371.440936
 20
-92.694436
 30
0.0
 11
370.308628
 21
-92.850217
 31
0.0
  0
ARC
  8
0
  6
BYLAYER
 62
     1
 10
362.408534
 20
-99.223316
 30
0.0
 40
10.150111
 50
38.894050
 51
50.764315
  0
LINE
  8
0
  6
BYLAYER
 62
     1
 10
368.994563
 20
-91.500030
 30
0.0
 11
368.993464
 21
-91.499081
 31
0.0
  0
LINE
  8
0
  6
BYLAYER
 62
     1
 10
368.828623
 20
-91.361352
 30
0.0
 11
368.972560
 21
-90.216408
 31
0.0
  0
ARC
  8
0
  6
BYLAYER
 62
     1
 10
362.408534
 20
-99.223316
 30
0.0
 40
11.144991
 50
53.916300
 51
65.860381
  0
LINE
  8
0
  6
BYLAYER
 62
     1
 10
367.080355
 20
-89.104771
 30
0.0
 11
367.079577
 21
-89.104416
 31
0.0
  0
LINE
  8
0
  6
BYLAYER
 62
     1
 10
366.966407
 20
-89.052937
 30
0.0
 11
366.063672
 21
-89.753996
 31
0.0
  0
LINE
  8
0
  6
BYLAYER
 62
     1
 10
365.857234
 20
-89.677044
 30
0.0
 11
365.856112
 21
-89.676643
 31
0.0
  0
ARC
  8
0
  6
BYLAYER
 62
     1
 10
362.408534
 20
-99.223316
 30
0.0
 40
10.150108
 50
68.894081
 51
80.764578
  0
ARC
  8
0
  6
BYLAYER
 62
     1
 10
362.408534
 20
-99.223316
 30
0.0
 40
11.144993
 50
84.535428
 51
90.000003
  0
LINE
  8
0
  6
BYLAYER
 62
     1
 10
363.589734
 20
-88.141095
 30
0.0
 11
364.037465
 21
-89.204606
 31
0.0
  0
ARC
  8
0
  6
BYLAYER
 62
     1
 10
362.408534
 20
-99.223316
 30
0.0
 40
11.144993
 50
180.000000
 51
186.083899
  0
LINE
  8
0
  6
BYLAYER
 62
     1
 10
351.314185
 20
-100.284607
 30
0.0
 11
351.314185
 21
-100.284630
 31
0.0
  0
LINE
  8
0
  6
BYLAYER
 62
     1
 10
351.326312
 20
-100.404514
 30
0.0
 11
352.389998
 21
-100.852342
 31
0.0
  0
ARC
  8
0
  6
BYLAYER
 62
     1
 10
362.408579
 20
-99.223225
 30
0.0
 40
10.150172
 50
189.236002
 51
200.764629
  0
LINE
  8
0
  6
BYLAYER
 62
     1
 10
352.917704
 20
-102.821777
 30
0.0
 11
352.220466
 21
-103.741484
 31
0.0
  0
ARC
  8
0
  6
BYLAYER
 62
     1
 10
362.408534
 20
-99.223316
 30
0.0
 40
11.144980
 50
203.916158
 51
215.860410
  0
LINE
  8
0
  6
BYLAYER
 62
     1
 10
353.302836
 20
-105.649597
 30
0.0
 11
353.303500
 21
-105.650536
 31
0.0
  0
LINE
  8
0
  6
BYLAYER
 62
     1
 10
353.376122
 20
-105.752185
 30
0.0
 11
354.508617
 21
-105.596390
 31
0.0
  0
ARC
  8
0
  6
BYLAYER
 62
     1
 10
362.408534
 20
-99.223316
 30
0.0
 40
10.150111
 50
218.894045
 51
230.764345
  0
LINE
  8
0
  6
BYLAYER
 62
     1
 10
355.822505
 20
-106.946590
 30
0.0
 11
355.823603
 21
-106.947540
 31
0.0
  0
LINE
  8
0
  6
BYLAYER
 62
     1
 10
355.988472
 20
-107.085095
 30
0.0
 11
355.844484
 21
-108.230207
 31
0.0
  0
ARC
  8
0
  6
BYLAYER
 62
     1
 10
362.408534
 20
-99.223316
 30
0.0
 40
11.144991
 50
233.916148
 51
245.860401
  0
LINE
  8
0
  6
BYLAYER
 62
     1
 10
357.736712
 20
-109.341850
 30
0.0
 11
357.737467
 21
-109.342216
 31
0.0
  0
LINE
  8
0
  6
BYLAYER
 62
     1
 10
357.850664
 20
-109.393697
 30
0.0
 11
358.753513
 21
-108.692508
 31
0.0
  0
LINE
  8
0
  6
BYLAYER
 62
     1
 10
358.959811
 20
-108.769577
 30
0.0
 11
358.960955
 21
-108.769989
 31
0.0
  0
LINE
  8
0
  6
BYLAYER
 62
     1
 10
373.502871
 20
-100.284607
 30
0.0
 11
373.502871
 21
-100.284630
 31
0.0
  0
LINE
  8
0
  6
BYLAYER
 62
     1
 10
373.490753
 20
-100.404516
 30
0.0
 11
372.427047
 21
-100.852339
 31
0.0
  0
LINE
  8
0
  6
BYLAYER
 62
     1
 10
371.899353
 20
-102.821802
 30
0.0
 11
372.596611
 21
-103.741492
 31
0.0
  0
LINE
  8
0
  6
BYLAYER
 62
     1
 10
371.514208
 20
-105.649597
 30
0.0
 11
371.513545
 21
-105.650536
 31
0.0
  0
LINE
  8
0
  6
BYLAYER
 62
     1
 10
371.440958
 20
-105.752186
 30
0.0
 11
370.308390
 21
-105.596386
 31
0.0
  0
LINE
  8
0
  6
BYLAYER
 62
     1
 10
368.994563
 20
-106.946590
 30
0.0
 11
368.993464
 21
-106.947540
 31
0.0
  0
LINE
  8
0
  6
BYLAYER
 62
     1
 10
368.828601
 20
-107.085091
 30
0.0
 11
368.972560
 21
-108.230224
 31
0.0
  0
LINE
  8
0
  6
BYLAYER
 62
     1
 10
366.966405
 20
-109.393696
 30
0.0
 11
366.063534
 21
-108.692515
 31
0.0
  0
ARC
  8
0
  6
BYLAYER
 62
     1
 10
362.408534
 20
-99.223316
 30
0.0
 40
10.150111
 50
309.235697
 51
321.105929
  0
ARC
  8
0
  6
BYLAYER
 62
     1
 10
362.408534
 20
-99.223316
 30
0.0
 40
10.150108
 50
248.893873
 51
270.0
  0
ARC
  8
0
  6
BYLAYER
 62
     1
 10
362.408534
 20
-99.223316
 30
0.0
 40
11.144991
 50
294.783232
 51
306.083699
  0
LINE
  8
0
  6
BYLAYER
 62
     1
 10
367.079577
 20
-109.342216
 30
0.0
 11
366.967092
 21
-109.395150
 31
0.0
  0
ARC
  8
0
  6
BYLAYER
 62
     1
 10
362.408534
 20
-99.223316
 30
0.0
 40
11.144980
 50
324.139593
 51
336.083825
  0
ARC
  8
0
  6
BYLAYER
 62
     1
 10
362.408465
 20
-99.223225
 30
0.0
 40
10.150172
 50
339.235210
 51
350.764014
  0
ARC
  8
0
  6
BYLAYER
 62
     1
 10
362.408534
 20
-99.223316
 30
0.0
 40
11.144993
 50
353.916089
 51
360.0
  0
ARC
  8
0
  6
BYLAYER
 62
     1
 10
362.408534
 20
-99.223316
 30
0.0
 40
11.144993
 50
0.0
 51
6.083907
  0
ARC
  8
0
  6
BYLAYER
 62
     1
 10
362.408534
 20
-99.223316
 30
0.0
 40
10.150108
 50
270.0
 51
291.106008
  0
CIRCLE
  8
0
  6
BYLAYER
 62
     1
 10
362.408534
 20
-99.223316
 30
0.0
 40
5.445121
  0
CIRCLE
  8
0
  6
BYLAYER
 62
     1
 10
362.408534
 20
-99.223316
 30
0.0
 40
7.944049
  0
LINE
  8
0
  6
BYLAYER
 62
     1
 10
254.717946
 20
-138.566566
 30
0.0
 11
252.976124
 21
-173.505561
 31
0.0
  0
LINE
  8
0
  6
BYLAYER
 62
     1
 10
495.130789
 20
-138.430640
 30
0.0
 11
496.976124
 21
-182.027473
 31
0.0
  0
LINE
  8
0
  6
BYLAYER
 62
     1
 10
374.976109
 20
-237.870307
 30
0.0
 11
374.976109
 21
-231.870307
 31
0.0
  0
LINE
  8
0
  6
BYLAYER
 62
     1
 10
374.976109
 20
-237.870307
 30
0.0
 11
368.976109
 21
-237.870307
 31
0.0
  0
LINE
  8
0
  6
BYLAYER
 62
     1
 10
374.976109
 20
-237.870307
 30
0.0
 11
374.976109
 21
-243.870307
 31
0.0
  0
LINE
  8
0
  6
BYLAYER
 62
     1
 10
374.976109
 20
-237.870307
 30
0.0
 11
380.976109
 21
-237.870307
 31
0.0
  0
LINE
  8
0
  6
BYLAYER
 62
     1
 10
1098.476109
 20
-772.870307
 30
0.0
 11
1100.976109
 21
-772.870307
 31
0.0
  0
LINE
  8
0
  6
BYLAYER
 62
     1
 10
1097.476109
 20
-773.870307
 30
0.0
 11
1098.476109
 21
-772.870307
 31
0.0
  0
LINE
  8
0
  6
BYLAYER
 62
     1
 10
1097.476109
 20
-901.870185
 30
0.0
 11
1098.476109
 21
-902.870185
 31
0.0
  0
LINE
  8
0
  6
BYLAYER
 62
     1
 10
1098.476109
 20
-902.870185
 30
0.0
 11
1100.976109
 21
-902.870185
 31
0.0
  0
LINE
  8
0
  6
BYLAYER
 62
     1
 10
1097.476109
 20
-773.870307
 30
0.0
 11
1097.476109
 21
-901.870185
 31
0.0
  0
LINE
  8
0
  6
BYLAYER
 62
     1
 10
1102.976109
 20
-670.370246
 30
0.0
 11
1246.976109
 21
-670.370246
 31
0.0
  0
LINE
  8
0
  6
BYLAYER
 62
     1
 10
1102.976109
 20
-965.370246
 30
0.0
 11
1246.976109
 21
-965.370246
 31
0.0
  0
LINE
  8
0
  6
BYLAYER
 62
     1
 10
1102.976109
 20
-937.975043
 30
0.0
 11
1100.976109
 21
-937.870185
 31
0.0
  0
LINE
  8
0
  6
BYLAYER
 62
     1
 10
1100.976109
 20
-937.870185
 30
0.0
 11
1100.976109
 21
-737.870307
 31
0.0
  0
CIRCLE
  8
0
  6
BYLAYER
 62
     1
 10
1117.476048
 20
-712.870246
 30
0.0
 40
7.0
  0
CIRCLE
  8
0
  6
BYLAYER
 62
     1
 10
1232.476109
 20
-712.870246
 30
0.0
 40
7.0
  0
CIRCLE
  8
0
  6
BYLAYER
 62
     1
 10
1174.976109
 20
-727.870307
 30
0.0
 40
36.0
  0
ARC
  8
0
  6
BYLAYER
 62
     1
 10
1121.217625
 20
-736.830512
 30
0.0
 40
3.000083
 50
9.462899
 51
86.999924
  0
ARC
  8
0
  6
BYLAYER
 62
     1
 10
1174.976109
 20
-727.870307
 30
0.0
 40
51.500031
 50
189.462740
 51
350.537275
  0
ARC
  8
0
  6
BYLAYER
 62
     1
 10
1228.734532
 20
-736.830512
 30
0.0
 40
3.000082
 50
92.999494
 51
170.537106
  0
LINE
  8
0
  6
BYLAYER
 62
     1
 10
1102.976109
 20
-670.370246
 30
0.0
 11
1102.976109
 21
-731.627631
 31
0.0
  0
ARC
  8
0
  6
BYLAYER
 62
     1
 10
1105.976048
 20
-731.627631
 30
0.0
 40
3.000000
 50
180.000000
 51
225.000401
  0
LINE
  8
0
  6
BYLAYER
 62
     1
 10
1246.976109
 20
-670.370246
 30
0.0
 11
1246.976109
 21
-731.627631
 31
0.0
  0
ARC
  8
0
  6
BYLAYER
 62
     1
 10
1243.976109
 20
-731.627631
 30
0.0
 40
3.000000
 50
314.999992
 51
360.000000
  0
LINE
  8
0
  6
BYLAYER
 62
     1
 10
1102.976109
 20
-965.370246
 30
0.0
 11
1102.976109
 21
-904.112830
 31
0.0
  0
ARC
  8
0
  6
BYLAYER
 62
     1
 10
1105.976109
 20
-904.112830
 30
0.0
 40
3.000003
 50
135.000410
 51
180.000005
  0
LINE
  8
0
  6
BYLAYER
 62
     1
 10
1246.976109
 20
-965.370246
 30
0.0
 11
1246.976109
 21
-904.112891
 31
0.0
  0
ARC
  8
0
  6
BYLAYER
 62
     1
 10
1243.976109
 20
-904.112891
 30
0.0
 40
2.999938
 50
0.0
 51
45.000411
  0
LINE
  8
0
  6
BYLAYER
 62
     1
 10
1103.252171
 20
-732.884833
 30
0.0
 11
1121.374669
 21
-733.834540
 31
0.0
  0
LINE
  8
0
  6
BYLAYER
 62
     1
 10
1228.577549
 20
-733.834540
 30
0.0
 11
1246.699986
 21
-732.884833
 31
0.0
  0
LINE
  8
0
  6
BYLAYER
 62
     1
 10
1103.252110
 20
-902.855781
 30
0.0
 11
1174.976109
 21
-899.096870
 31
0.0
  0
LINE
  8
0
  6
BYLAYER
 62
     1
 10
1174.975865
 20
-899.096870
 30
0.0
 11
1246.699986
 21
-902.855781
 31
0.0
  0
CIRCLE
  8
0
  6
BYLAYER
 62
     1
 10
1117.476048
 20
-922.870246
 30
0.0
 40
7.0
  0
CIRCLE
  8
0
  6
BYLAYER
 62
     1
 10
1232.476109
 20
-922.870246
 30
0.0
 40
7.0
  0
ARC
  8
0
  6
BYLAYER
 62
     1
 10
1165.976109
 20
-893.721625
 30
0.0
 40
2.999990
 50
272.999956
 51
360.000010
  0
LINE
  8
0
  6
BYLAYER
 62
     1
 10
1168.976109
 20
-884.730781
 30
0.0
 11
1168.976109
 21
-893.721625
 31
0.0
  0
ARC
  8
0
  6
BYLAYER
 62
     1
 10
1165.976109
 20
-884.730781
 30
0.0
 40
2.999978
 50
0.0
 51
87.273726
  0
ARC
  8
0
  6
BYLAYER
 62
     1
 10
1226.110875
 20
-746.724433
 30
0.0
 40
2.999978
 50
92.726395
 51
159.760351
  0
ARC
  8
0
  6
BYLAYER
 62
     1
 10
1219.903843
 20
-758.720588
 30
0.0
 40
2.999994
 50
145.523956
 51
267.273608
  0
ARC
  8
0
  6
BYLAYER
 62
     1
 10
1130.048253
 20
-758.720649
 30
0.0
 40
2.999978
 50
272.726394
 51
394.476046
  0
ARC
  8
0
  6
BYLAYER
 62
     1
 10
1123.841160
 20
-746.724433
 30
0.0
 40
2.999997
 50
20.239655
 51
87.273604
  0
ARC
  8
0
  6
BYLAYER
 62
     1
 10
1222.975987
 20
-882.873633
 30
0.0
 40
3.0
 50
92.726418
 51
180.000000
  0
LINE
  8
0
  6
BYLAYER
 62
     1
 10
1219.975987
 20
-882.873633
 30
0.0
 11
1219.975987
 21
-895.765571
 31
0.0
  0
ARC
  8
0
  6
BYLAYER
 62
     1
 10
1222.975987
 20
-895.765571
 30
0.0
 40
3.0
 50
180.000000
 51
267.000477
  0
ARC
  8
0
  6
BYLAYER
 62
     1
 10
1165.976109
 20
-782.730903
 30
0.0
 40
2.999978
 50
0.0
 51
87.273575
  0
LINE
  8
0
  6
BYLAYER
 62
     1
 10
1168.976109
 20
-791.009711
 30
0.0
 11
1168.976109
 21
-782.730903
 31
0.0
  0
ARC
  8
0
  6
BYLAYER
 62
     1
 10
1165.976109
 20
-791.009711
 30
0.0
 40
3.000000
 50
272.726390
 51
360.000000
  0
ARC
  8
0
  6
BYLAYER
 62
     1
 10
1183.976109
 20
-782.730903
 30
0.0
 40
3.000039
 50
92.726395
 51
180.000005
  0
LINE
  8
0
  6
BYLAYER
 62
     1
 10
1180.976109
 20
-791.009711
 30
0.0
 11
1180.976109
 21
-782.730903
 31
0.0
  0
ARC
  8
0
  6
BYLAYER
 62
     1
 10
1183.976109
 20
-791.009711
 30
0.0
 40
3.0
 50
180.000000
 51
267.273575
  0
LINE
  8
0
  6
BYLAYER
 62
     1
 10
1103.854771
 20
-733.748969
 30
0.0
 11
1115.597447
 21
-745.492194
 31
0.0
  0
ARC
  8
0
  6
BYLAYER
 62
     1
 10
1113.476048
 20
-747.613471
 30
0.0
 40
3.0
 50
0.0
 51
44.998533
  0
LINE
  8
0
  6
BYLAYER
 62
     1
 10
1103.854771
 20
-901.991523
 30
0.0
 11
1115.597325
 21
-890.248908
 31
0.0
  0
LINE
  8
0
  6
BYLAYER
 62
     1
 10
1174.975377
 20
-896.254096
 30
0.0
 11
1105.976109
 21
-899.870185
 31
0.0
  0
LINE
  8
0
  6
BYLAYER
 62
     1
 10
1100.976109
 20
-737.870307
 30
0.0
 11
1107.627476
 21
-737.521796
 31
0.0
  0
LINE
  8
0
  6
BYLAYER
 62
     1
 10
1119.333348
 20
-879.506324
 30
0.0
 11
1166.118809
 21
-881.734199
 31
0.0
  0
LINE
  8
0
  6
BYLAYER
 62
     1
 10
1119.333348
 20
-796.234199
 30
0.0
 11
1166.118809
 21
-794.006293
 31
0.0
  0
ARC
  8
0
  6
BYLAYER
 62
     1
 10
1119.476048
 20
-799.230842
 30
0.0
 40
3.000000
 50
92.726361
 51
180.000005
  0
LINE
  8
0
  6
BYLAYER
 62
     1
 10
1166.118809
 20
-779.734321
 30
0.0
 11
1119.333348
 21
-777.506415
 31
0.0
  0
LINE
  8
0
  6
BYLAYER
 62
     1
 10
1119.333348
 20
-762.234260
 30
0.0
 11
1130.190953
 21
-761.717231
 31
0.0
  0
ARC
  8
0
  6
BYLAYER
 62
     1
 10
1119.476048
 20
-765.230903
 30
0.0
 40
3.0
 50
92.726375
 51
180.000005
  0
LINE
  8
0
  6
BYLAYER
 62
     1
 10
1114.316197
 20
-743.267524
 30
0.0
 11
1123.983921
 21
-743.727851
 31
0.0
  0
ARC
  8
0
  6
BYLAYER
 62
     1
 10
1114.458897
 20
-740.270881
 30
0.0
 40
3.000039
 50
213.853018
 51
267.273635
  0
LINE
  8
0
  6
BYLAYER
 62
     1
 10
1234.354771
 20
-745.491584
 30
0.0
 11
1246.097447
 21
-733.748969
 31
0.0
  0
ARC
  8
0
  6
BYLAYER
 62
     1
 10
1236.476109
 20
-747.612861
 30
0.0
 40
3.0
 50
134.999768
 51
179.999995
  0
LINE
  8
0
  6
BYLAYER
 62
     1
 10
1234.354649
 20
-890.248328
 30
0.0
 11
1246.097447
 21
-901.991675
 31
0.0
  0
ARC
  8
0
  6
BYLAYER
 62
     1
 10
1236.476109
 20
-888.127051
 30
0.0
 40
3.0
 50
180.000000
 51
224.998533
  0
LINE
  8
0
  6
BYLAYER
 62
     1
 10
1235.635655
 20
-743.267463
 30
0.0
 11
1225.968174
 21
-743.727851
 31
0.0
  0
ARC
  8
0
  6
BYLAYER
 62
     1
 10
1235.492955
 20
-740.270881
 30
0.0
 40
2.999978
 50
272.726421
 51
326.150877
  0
LINE
  8
0
  6
BYLAYER
 62
     1
 10
1230.618687
 20
-762.234199
 30
0.0
 11
1219.761143
 21
-761.717231
 31
0.0
  0
ARC
  8
0
  6
BYLAYER
 62
     1
 10
1230.476109
 20
-765.230842
 30
0.0
 40
3.0
 50
0.0
 51
87.273855
  0
LINE
  8
0
  6
BYLAYER
 62
     1
 10
1183.833409
 20
-779.734260
 30
0.0
 11
1230.618687
 21
-777.506354
 31
0.0
  0
LINE
  8
0
  6
BYLAYER
 62
     1
 10
1230.618687
 20
-796.234199
 30
0.0
 11
1183.833409
 21
-794.006293
 31
0.0
  0
ARC
  8
0
  6
BYLAYER
 62
     1
 10
1230.475987
 20
-799.230842
 30
0.0
 40
3.0
 50
0.0
 51
87.273637
  0
LINE
  8
0
  6
BYLAYER
 62
     1
 10
1230.618687
 20
-879.506324
 30
0.0
 11
1222.833287
 21
-879.877051
 31
0.0
  0
LINE
  8
0
  6
BYLAYER
 62
     1
 10
1174.975499
 20
-896.254096
 30
0.0
 11
1243.976109
 21
-899.870246
 31
0.0
  0
LINE
  8
0
  6
BYLAYER
 62
     1
 10
1102.976109
 20
-675.370246
 30
0.0
 11
1246.976109
 21
-675.370246
 31
0.0
  0
LINE
  8
0
  6
BYLAYER
 62
     1
 10
1116.476048
 20
-888.127570
 30
0.0
 11
1116.476048
 21
-747.613471
 31
0.0
  0
ARC
  8
0
  6
BYLAYER
 62
     1
 10
1119.476048
 20
-876.509711
 30
0.0
 40
3.000000
 50
180.000000
 51
267.273678
  0
ARC
  8
0
  6
BYLAYER
 62
     1
 10
1119.476048
 20
-774.509772
 30
0.0
 40
3.000000
 50
180.000000
 51
267.273644
  0
ARC
  8
0
  6
BYLAYER
 62
     1
 10
1113.476048
 20
-888.127570
 30
0.0
 40
3.000000
 50
314.999999
 51
360.000000
  0
ARC
  8
0
  6
BYLAYER
 62
     1
 10
1230.475987
 20
-876.509711
 30
0.0
 40
3.000000
 50
272.726356
 51
360.000000
  0
ARC
  8
0
  6
BYLAYER
 62
     1
 10
1230.475987
 20
-774.509711
 30
0.0
 40
3.0
 50
272.726363
 51
360.000000
  0
LINE
  8
0
  6
BYLAYER
 62
     1
 10
1251.475987
 20
-772.870307
 30
0.0
 11
1248.975987
 21
-772.870307
 31
0.0
  0
LINE
  8
0
  6
BYLAYER
 62
     1
 10
1252.475987
 20
-773.870307
 30
0.0
 11
1251.475987
 21
-772.870307
 31
0.0
  0
LINE
  8
0
  6
BYLAYER
 62
     1
 10
1252.475987
 20
-901.870185
 30
0.0
 11
1251.475987
 21
-902.870185
 31
0.0
  0
LINE
  8
0
  6
BYLAYER
 62
     1
 10
1251.475987
 20
-902.870185
 30
0.0
 11
1248.975987
 21
-902.870185
 31
0.0
  0
LINE
  8
0
  6
BYLAYER
 62
     1
 10
1252.475987
 20
-773.870307
 30
0.0
 11
1252.475987
 21
-901.870185
 31
0.0
  0
LINE
  8
0
  6
BYLAYER
 62
     1
 10
1246.975987
 20
-937.975043
 30
0.0
 11
1248.975987
 21
-937.870185
 31
0.0
  0
LINE
  8
0
  6
BYLAYER
 62
     1
 10
1248.975987
 20
-937.870185
 30
0.0
 11
1248.975987
 21
-737.870307
 31
0.0
  0
LINE
  8
0
  6
BYLAYER
 62
     1
 10
1248.975987
 20
-737.870307
 30
0.0
 11
1242.324620
 21
-737.521796
 31
0.0
  0
LINE
  8
0
  6
BYLAYER
 62
     1
 10
1233.476109
 20
-747.612861
 30
0.0
 11
1233.476109
 21
-888.127051
 31
0.0
  0
LINE
  8
0
  6
BYLAYER
 62
     1
 10
247.476124
 20
-909.870322
 30
0.0
 11
247.476124
 21
-765.870307
 31
0.0
  0
LINE
  8
0
  6
BYLAYER
 62
     1
 10
499.976094
 20
-909.870322
 30
0.0
 11
499.976094
 21
-765.870307
 31
0.0
  0
LINE
  8
0
  6
BYLAYER
 62
     1
 10
439.976063
 20
-761.370307
 30
0.0
 11
439.976063
 21
-763.870307
 31
0.0
  0
LINE
  8
0
  6
BYLAYER
 62
     1
 10
438.976063
 20
-760.370307
 30
0.0
 11
439.976063
 21
-761.370307
 31
0.0
  0
LINE
  8
0
  6
BYLAYER
 62
     1
 10
309.976155
 20
-761.370307
 30
0.0
 11
309.976155
 21
-763.870307
 31
0.0
  0
LINE
  8
0
  6
BYLAYER
 62
     1
 10
310.976155
 20
-760.370307
 30
0.0
 11
309.976155
 21
-761.370307
 31
0.0
  0
LINE
  8
0
  6
BYLAYER
 62
     1
 10
438.976063
 20
-760.370307
 30
0.0
 11
310.976155
 21
-760.370307
 31
0.0
  0
LINE
  8
0
  6
BYLAYER
 62
     1
 10
363.609120
 20
-763.870368
 30
0.0
 11
363.577443
 21
-764.475043
 31
0.0
  0
ARC
  8
0
  6
BYLAYER
 62
     1
 10
361.580189
 20
-764.370368
 30
0.0
 40
1.999995
 50
270.0
 51
357.000791
  0
LINE
  8
0
  6
BYLAYER
 62
     1
 10
312.761372
 20
-763.870368
 30
0.0
 11
312.793049
 21
-764.475043
 31
0.0
  0
LINE
  8
0
  6
BYLAYER
 62
     1
 10
361.580189
 20
-766.370368
 30
0.0
 11
314.790303
 21
-766.370368
 31
0.0
  0
ARC
  8
0
  6
BYLAYER
 62
     1
 10
314.790303
 20
-764.370368
 30
0.0
 40
1.999995
 50
182.999237
 51
270.000001
  0
LINE
  8
0
  6
BYLAYER
 62
     1
 10
386.343129
 20
-763.870368
 30
0.0
 11
386.374806
 21
-764.475043
 31
0.0
  0
ARC
  8
0
  6
BYLAYER
 62
     1
 10
388.372059
 20
-764.370368
 30
0.0
 40
1.999995
 50
182.999209
 51
270.000001
  0
LINE
  8
0
  6
BYLAYER
 62
     1
 10
437.190846
 20
-763.870368
 30
0.0
 11
437.159169
 21
-764.475043
 31
0.0
  0
LINE
  8
0
  6
BYLAYER
 62
     1
 10
388.372059
 20
-766.370368
 30
0.0
 11
435.161915
 21
-766.370368
 31
0.0
  0
ARC
  8
0
  6
BYLAYER
 62
     1
 10
435.161915
 20
-764.370368
 30
0.0
 40
1.999995
 50
270.0
 51
357.000791
  0
LINE
  8
0
  6
BYLAYER
 62
     1
 10
474.976033
 20
-763.870307
 30
0.0
 11
274.976155
 21
-763.870307
 31
0.0
  0
LINE
  8
0
  6
BYLAYER
 62
     1
 10
274.976155
 20
-763.870307
 30
0.0
 11
274.871357
 21
-765.870307
 31
0.0
  0
LINE
  8
0
  6
BYLAYER
 62
     1
 10
474.976033
 20
-763.870307
 30
0.0
 11
475.080861
 21
-765.870307
 31
0.0
  0
CIRCLE
  8
0
  6
BYLAYER
 62
     1
 10
459.976094
 20
-780.370307
 30
0.0
 40
7.0
  0
CIRCLE
  8
0
  6
BYLAYER
 62
     1
 10
459.976094
 20
-895.370322
 30
0.0
 40
7.0
  0
LINE
  8
0
  6
BYLAYER
 62
     1
 10
247.476124
 20
-765.870307
 30
0.0
 11
308.733448
 21
-765.870307
 31
0.0
  0
ARC
  8
0
  6
BYLAYER
 62
     1
 10
308.733448
 20
-768.870307
 30
0.0
 40
3.0
 50
45.000101
 51
90.000000
  0
LINE
  8
0
  6
BYLAYER
 62
     1
 10
499.976094
 20
-765.870307
 30
0.0
 11
441.218739
 21
-765.870307
 31
0.0
  0
ARC
  8
0
  6
BYLAYER
 62
     1
 10
441.218739
 20
-768.870307
 30
0.0
 40
3.000003
 50
90.0
 51
134.999998
  0
LINE
  8
0
  6
BYLAYER
 62
     1
 10
499.976094
 20
-909.870322
 30
0.0
 11
441.218739
 21
-909.870322
 31
0.0
  0
ARC
  8
0
  6
BYLAYER
 62
     1
 10
441.218739
 20
-906.870322
 30
0.0
 40
3.0
 50
224.999995
 51
270.000000
  0
LINE
  8
0
  6
BYLAYER
 62
     1
 10
247.476124
 20
-909.870322
 30
0.0
 11
308.733448
 21
-909.870322
 31
0.0
  0
ARC
  8
0
  6
BYLAYER
 62
     1
 10
308.733448
 20
-906.870322
 30
0.0
 40
3.000014
 50
270.0
 51
314.999909
  0
LINE
  8
0
  6
BYLAYER
 62
     1
 10
309.990590
 20
-766.146400
 30
0.0
 11
313.749470
 21
-837.870429
 31
0.0
  0
LINE
  8
0
  6
BYLAYER
 62
     1
 10
309.990590
 20
-909.594230
 30
0.0
 11
313.749470
 21
-837.870307
 31
0.0
  0
CIRCLE
  8
0
  6
BYLAYER
 62
     1
 10
289.976094
 20
-780.370307
 30
0.0
 40
7.0
  0
CIRCLE
  8
0
  6
BYLAYER
 62
     1
 10
289.976094
 20
-895.370322
 30
0.0
 40
7.0
  0
ARC
  8
0
  6
BYLAYER
 62
     1
 10
353.836659
 20
-846.870322
 30
0.0
 40
3.0
 50
90.0
 51
177.273739
  0
ARC
  8
0
  6
BYLAYER
 62
     1
 10
328.115590
 20
-846.870322
 30
0.0
 40
2.999978
 50
2.726265
 51
89.999998
  0
LINE
  8
0
  6
BYLAYER
 62
     1
 10
328.115590
 20
-843.870322
 30
0.0
 11
319.124745
 21
-843.870322
 31
0.0
  0
ARC
  8
0
  6
BYLAYER
 62
     1
 10
319.124745
 20
-846.870322
 30
0.0
 40
3.000022
 50
90.0
 51
177.000047
  0
ARC
  8
0
  6
BYLAYER
 62
     1
 10
319.124745
 20
-828.870307
 30
0.0
 40
3.000022
 50
182.999947
 51
270.000001
  0
LINE
  8
0
  6
BYLAYER
 62
     1
 10
328.115590
 20
-831.870307
 30
0.0
 11
319.124745
 21
-831.870307
 31
0.0
  0
ARC
  8
0
  6
BYLAYER
 62
     1
 10
328.115590
 20
-828.870307
 30
0.0
 40
2.999978
 50
270.0
 51
357.273726
  0
ARC
  8
0
  6
BYLAYER
 62
     1
 10
353.836659
 20
-828.870307
 30
0.0
 40
3.0
 50
182.726261
 51
270.000000
  0
ARC
  8
0
  6
BYLAYER
 62
     1
 10
431.279103
 20
-820.254066
 30
0.0
 40
2.999990
 50
281.852483
 51
356.999918
  0
ARC
  8
0
  6
BYLAYER
 62
     1
 10
431.279042
 20
-855.486564
 30
0.0
 40
3.000005
 50
2.999942
 51
78.147486
  0
ARC
  8
0
  6
BYLAYER
 62
     1
 10
434.976124
 20
-837.870307
 30
0.0
 40
15.000008
 50
101.852293
 51
137.585022
  0
ARC
  8
0
  6
BYLAYER
 62
     1
 10
421.687092
 20
-825.729407
 30
0.0
 40
3.000008
 50
182.726398
 51
317.584945
  0
ARC
  8
0
  6
BYLAYER
 62
     1
 10
434.976124
 20
-837.870307
 30
0.0
 40
15.000025
 50
222.414947
 51
258.147464
  0
ARC
  8
0
  6
BYLAYER
 62
     1
 10
421.687062
 20
-850.011222
 30
0.0
 40
2.999978
 50
42.414846
 51
177.273612
  0
LINE
  8
0
  6
BYLAYER
 62
     1
 10
439.961659
 20
-909.594230
 30
0.0
 11
436.797825
 21
-849.225104
 31
0.0
  0
LINE
  8
0
  6
BYLAYER
 62
     1
 10
365.112172
 20
-846.727622
 30
0.0
 11
367.530507
 21
-897.513068
 31
0.0
  0
ARC
  8
0
  6
BYLAYER
 62
     1
 10
370.527150
 20
-897.370368
 30
0.0
 40
3.000039
 50
182.726316
 51
270.000001
  0
LINE
  8
0
  6
BYLAYER
 62
     1
 10
382.421681
 20
-897.513083
 30
0.0
 11
384.840046
 21
-846.727622
 31
0.0
  0
ARC
  8
0
  6
BYLAYER
 62
     1
 10
379.425099
 20
-897.370383
 30
0.0
 40
3.000000
 50
270.0
 51
357.273671
  0
LINE
  8
0
  6
BYLAYER
 62
     1
 10
401.530507
 20
-897.513114
 30
0.0
 11
399.112172
 21
-846.727622
 31
0.0
  0
LINE
  8
0
  6
BYLAYER
 62
     1
 10
348.421681
 20
-897.513038
 30
0.0
 11
350.840046
 21
-846.727622
 31
0.0
  0
LINE
  8
0
  6
BYLAYER
 62
     1
 10
439.961659
 20
-766.146400
 30
0.0
 11
436.797764
 21
-826.515494
 31
0.0
  0
LINE
  8
0
  6
BYLAYER
 62
     1
 10
310.854786
 20
-908.991645
 30
0.0
 11
318.597447
 21
-901.248984
 31
0.0
  0
ARC
  8
0
  6
BYLAYER
 62
     1
 10
320.718770
 20
-903.370307
 30
0.0
 40
3.000003
 50
90.0
 51
134.999998
  0
LINE
  8
0
  6
BYLAYER
 62
     1
 10
439.097432
 20
-908.991645
 30
0.0
 11
431.354908
 21
-901.249122
 31
0.0
  0
ARC
  8
0
  6
BYLAYER
 62
     1
 10
429.233586
 20
-903.370444
 30
0.0
 40
3.000003
 50
45.000001
 51
90.000003
  0
LINE
  8
0
  6
BYLAYER
 62
     1
 10
436.976063
 20
-906.870269
 30
0.0
 11
433.960255
 21
-849.325355
 31
0.0
  0
LINE
  8
0
  6
BYLAYER
 62
     1
 10
312.976162
 20
-906.870269
 30
0.0
 11
316.592274
 21
-837.870307
 31
0.0
  0
LINE
  8
0
  6
BYLAYER
 62
     1
 10
416.421696
 20
-897.513122
 30
0.0
 11
418.690480
 21
-849.868522
 31
0.0
  0
ARC
  8
0
  6
BYLAYER
 62
     1
 10
413.425084
 20
-897.370429
 30
0.0
 40
3.000008
 50
270.0
 51
357.273753
  0
ARC
  8
0
  6
BYLAYER
 62
     1
 10
404.527104
 20
-897.370414
 30
0.0
 40
2.999993
 50
182.726261
 51
270.000001
  0
ARC
  8
0
  6
BYLAYER
 62
     1
 10
345.425084
 20
-897.370338
 30
0.0
 40
2.999993
 50
270.0
 51
357.273726
  0
LINE
  8
0
  6
BYLAYER
 62
     1
 10
333.530522
 20
-897.513015
 30
0.0
 11
331.112172
 21
-846.727622
 31
0.0
  0
ARC
  8
0
  6
BYLAYER
 62
     1
 10
336.527134
 20
-897.370322
 30
0.0
 40
3.000008
 50
182.726248
 51
270.000001
  0
LINE
  8
0
  6
BYLAYER
 62
     1
 10
320.718777
 20
-900.370307
 30
0.0
 11
429.233586
 21
-900.370429
 31
0.0
  0
ARC
  8
0
  6
BYLAYER
 62
     1
 10
370.527150
 20
-778.370246
 30
0.0
 40
3.000039
 50
90.0
 51
177.273678
  0
ARC
  8
0
  6
BYLAYER
 62
     1
 10
379.425099
 20
-778.370231
 30
0.0
 40
3.0
 50
2.726329
 51
90.000000
  0
ARC
  8
0
  6
BYLAYER
 62
     1
 10
320.718770
 20
-772.370307
 30
0.0
 40
3.000003
 50
224.999996
 51
270.000001
  0
ARC
  8
0
  6
BYLAYER
 62
     1
 10
429.233586
 20
-772.370170
 30
0.0
 40
3.000003
 50
270.0
 51
314.999991
  0
ARC
  8
0
  6
BYLAYER
 62
     1
 10
413.425084
 20
-778.370185
 30
0.0
 40
3.000008
 50
2.726246
 51
89.999999
  0
ARC
  8
0
  6
BYLAYER
 62
     1
 10
404.527104
 20
-778.370200
 30
0.0
 40
2.999992
 50
90.0
 51
177.273732
  0
ARC
  8
0
  6
BYLAYER
 62
     1
 10
345.425084
 20
-778.370276
 30
0.0
 40
2.999993
 50
2.726274
 51
89.999999
  0
ARC
  8
0
  6
BYLAYER
 62
     1
 10
336.527134
 20
-778.370292
 30
0.0
 40
3.000008
 50
90.0
 51
177.273746
  0
LINE
  8
0
  6
BYLAYER
 62
     1
 10
320.718777
 20
-775.370307
 30
0.0
 11
429.233586
 21
-775.370185
 31
0.0
  0
LINE
  8
0
  6
BYLAYER
 62
     1
 10
310.854771
 20
-766.748969
 30
0.0
 11
318.597500
 21
-774.491599
 31
0.0
  0
LINE
  8
0
  6
BYLAYER
 62
     1
 10
316.592244
 20
-837.870856
 30
0.0
 11
312.976094
 21
-768.870261
 31
0.0
  0
LINE
  8
0
  6
BYLAYER
 62
     1
 10
439.097416
 20
-766.748969
 30
0.0
 11
431.354954
 21
-774.491523
 31
0.0
  0
LINE
  8
0
  6
BYLAYER
 62
     1
 10
433.960316
 20
-826.415259
 30
0.0
 11
436.976124
 21
-768.870292
 31
0.0
  0
LINE
  8
0
  6
BYLAYER
 62
     1
 10
416.421681
 20
-778.227485
 30
0.0
 11
418.690480
 21
-825.872108
 31
0.0
  0
LINE
  8
0
  6
BYLAYER
 62
     1
 10
401.530522
 20
-778.227500
 30
0.0
 11
399.112172
 21
-829.013007
 31
0.0
  0
LINE
  8
0
  6
BYLAYER
 62
     1
 10
382.421696
 20
-778.227531
 30
0.0
 11
384.840046
 21
-829.013007
 31
0.0
  0
LINE
  8
0
  6
BYLAYER
 62
     1
 10
365.112172
 20
-829.013007
 30
0.0
 11
367.530522
 21
-778.227546
 31
0.0
  0
LINE
  8
0
  6
BYLAYER
 62
     1
 10
348.421696
 20
-778.227576
 30
0.0
 11
350.840046
 21
-829.013007
 31
0.0
  0
LINE
  8
0
  6
BYLAYER
 62
     1
 10
333.530522
 20
-778.227592
 30
0.0
 11
331.112172
 21
-829.013007
 31
0.0
  0
LINE
  8
0
  6
BYLAYER
 62
     1
 10
252.476124
 20
-909.870307
 30
0.0
 11
252.476124
 21
-765.870307
 31
0.0
  0
LINE
  8
0
  6
BYLAYER
 62
     1
 10
494.976124
 20
-909.870307
 30
0.0
 11
494.976124
 21
-765.870307
 31
0.0
  0
CIRCLE
  8
0
  6
BYLAYER
 62
     1
 10
434.976124
 20
-837.870307
 30
0.0
 40
11.5
  0
LINE
  8
0
  6
BYLAYER
 62
     1
 10
439.976063
 20
-914.370307
 30
0.0
 11
439.976063
 21
-911.870307
 31
0.0
  0
LINE
  8
0
  6
BYLAYER
 62
     1
 10
438.976063
 20
-915.370307
 30
0.0
 11
439.976063
 21
-914.370307
 31
0.0
  0
LINE
  8
0
  6
BYLAYER
 62
     1
 10
309.976155
 20
-914.370307
 30
0.0
 11
309.976155
 21
-911.870307
 31
0.0
  0
LINE
  8
0
  6
BYLAYER
 62
     1
 10
310.976155
 20
-915.370307
 30
0.0
 11
309.976155
 21
-914.370307
 31
0.0
  0
LINE
  8
0
  6
BYLAYER
 62
     1
 10
438.976063
 20
-915.370307
 30
0.0
 11
310.976155
 21
-915.370307
 31
0.0
  0
LINE
  8
0
  6
BYLAYER
 62
     1
 10
363.609120
 20
-911.870246
 30
0.0
 11
363.577443
 21
-911.265571
 31
0.0
  0
ARC
  8
0
  6
BYLAYER
 62
     1
 10
361.580189
 20
-911.370246
 30
0.0
 40
1.999995
 50
2.999208
 51
89.999999
  0
LINE
  8
0
  6
BYLAYER
 62
     1
 10
312.761372
 20
-911.870246
 30
0.0
 11
312.793049
 21
-911.265571
 31
0.0
  0
LINE
  8
0
  6
BYLAYER
 62
     1
 10
361.580189
 20
-909.370246
 30
0.0
 11
314.790303
 21
-909.370246
 31
0.0
  0
ARC
  8
0
  6
BYLAYER
 62
     1
 10
314.790303
 20
-911.370246
 30
0.0
 40
1.999995
 50
90.0
 51
177.000764
  0
LINE
  8
0
  6
BYLAYER
 62
     1
 10
386.343129
 20
-911.870246
 30
0.0
 11
386.374806
 21
-911.265571
 31
0.0
  0
ARC
  8
0
  6
BYLAYER
 62
     1
 10
388.372059
 20
-911.370246
 30
0.0
 40
1.999995
 50
90.0
 51
177.000791
  0
LINE
  8
0
  6
BYLAYER
 62
     1
 10
437.190846
 20
-911.870246
 30
0.0
 11
437.159169
 21
-911.265571
 31
0.0
  0
LINE
  8
0
  6
BYLAYER
 62
     1
 10
388.372059
 20
-909.370246
 30
0.0
 11
435.161915
 21
-909.370246
 31
0.0
  0
ARC
  8
0
  6
BYLAYER
 62
     1
 10
435.161915
 20
-911.370246
 30
0.0
 40
1.999995
 50
2.999208
 51
89.999999
  0
LINE
  8
0
  6
BYLAYER
 62
     1
 10
474.976033
 20
-911.870307
 30
0.0
 11
274.976155
 21
-911.870307
 31
0.0
  0
LINE
  8
0
  6
BYLAYER
 62
     1
 10
274.976155
 20
-911.870307
 30
0.0
 11
274.871357
 21
-909.870307
 31
0.0
  0
LINE
  8
0
  6
BYLAYER
 62
     1
 10
474.976033
 20
-911.870307
 30
0.0
 11
475.080861
 21
-909.870307
 31
0.0
  0
ARC
  8
0
  6
BYLAYER
 62
     1
 10
362.115590
 20
-846.870322
 30
0.0
 40
2.999978
 50
2.726265
 51
89.999998
  0
LINE
  8
0
  6
BYLAYER
 62
     1
 10
362.115590
 20
-843.870322
 30
0.0
 11
353.836659
 21
-843.870322
 31
0.0
  0
LINE
  8
0
  6
BYLAYER
 62
     1
 10
362.115590
 20
-831.870307
 30
0.0
 11
353.836659
 21
-831.870307
 31
0.0
  0
ARC
  8
0
  6
BYLAYER
 62
     1
 10
362.115590
 20
-828.870307
 30
0.0
 40
2.999978
 50
270.0
 51
357.273726
  0
LINE
  8
0
  6
BYLAYER
 62
     1
 10
387.836659
 20
-843.870322
 30
0.0
 11
396.115590
 21
-843.870322
 31
0.0
  0
ARC
  8
0
  6
BYLAYER
 62
     1
 10
387.836659
 20
-846.870322
 30
0.0
 40
3.000008
 50
90.0
 51
177.273732
  0
ARC
  8
0
  6
BYLAYER
 62
     1
 10
396.115590
 20
-846.870322
 30
0.0
 40
3.0
 50
2.726261
 51
90.000000
  0
LINE
  8
0
  6
BYLAYER
 62
     1
 10
387.836659
 20
-831.870307
 30
0.0
 11
396.115590
 21
-831.870307
 31
0.0
  0
ARC
  8
0
  6
BYLAYER
 62
     1
 10
387.836659
 20
-828.870307
 30
0.0
 40
3.000008
 50
182.726261
 51
270.000001
  0
ARC
  8
0
  6
BYLAYER
 62
     1
 10
396.115590
 20
-828.870307
 30
0.0
 40
3.0
 50
270.0
 51
357.273726
  0
LINE
  8
0
  6
BYLAYER
 62
     1
 10
499.976109
 20
-181.620307
 30
0.0
 11
499.976109
 21
-127.870307
 31
0.0
  0
ARC
  8
0
  6
BYLAYER
 62
     1
 10
526.476109
 20
-225.870307
 30
0.0
 40
2.000000
 50
180.000000
 51
270.000009
  0
LINE
  8
0
  6
BYLAYER
 62
     1
 10
534.976109
 20
-227.870307
 30
0.0
 11
526.476109
 21
-227.870307
 31
0.0
  0
LINE
  8
0
  6
BYLAYER
 62
     1
 10
524.476109
 20
-127.870307
 30
0.0
 11
524.476109
 21
-225.870307
 31
0.0
  0
ARC
  8
0
  6
BYLAYER
 62
     1
 10
522.476109
 20
-196.275001
 30
0.0
 40
2.000004
 50
0.0
 51
60.000063
  0
LINE
  8
0
  6
BYLAYER
 62
     1
 10
500.725438
 20
-181.659583
 30
0.0
 11
499.976109
 21
-181.620307
 31
0.0
  0
LINE
  8
0
  6
BYLAYER
 62
     1
 10
523.476109
 20
-194.542945
 30
0.0
 11
501.620793
 21
-181.924781
 31
0.0
  0
ARC
  8
0
  6
BYLAYER
 62
     1
 10
500.620793
 20
-183.656837
 30
0.0
 40
1.999993
 50
60.000063
 51
87.000784
  0
LINE
  8
0
  6
BYLAYER
 62
     1
 10
534.976109
 20
-127.870307
 30
0.0
 11
534.976109
 21
-227.870307
 31
0.0
  0
LINE
  8
0
  6
BYLAYER
 62
     1
 10
511.091160
 20
-187.392493
 30
0.0
 11
524.476109
 21
-210.142615
 31
0.0
  0
LINE
  8
0
  6
BYLAYER
 62
     1
 10
501.620793
 20
-181.924781
 30
0.0
 11
501.620793
 21
-127.870307
 31
0.0
  0
LINE
  8
0
  6
BYLAYER
 62
     1
 10
499.976109
 20
-74.120307
 30
0.0
 11
499.976109
 21
-127.870307
 31
0.0
  0
ARC
  8
0
  6
BYLAYER
 62
     1
 10
526.476109
 20
-29.870307
 30
0.0
 40
2.0
 50
90.0
 51
180.000009
  0
LINE
  8
0
  6
BYLAYER
 62
     1
 10
534.976109
 20
-27.870307
 30
0.0
 11
526.476109
 21
-27.870307
 31
0.0
  0
LINE
  8
0
  6
BYLAYER
 62
     1
 10
524.476109
 20
-127.870307
 30
0.0
 11
524.476109
 21
-29.870307
 31
0.0
  0
ARC
  8
0
  6
BYLAYER
 62
     1
 10
522.476109
 20
-59.465613
 30
0.0
 40
2.000004
 50
299.999937
 51
360.0
  0
LINE
  8
0
  6
BYLAYER
 62
     1
 10
500.725438
 20
-74.081031
 30
0.0
 11
499.976109
 21
-74.120307
 31
0.0
  0
LINE
  8
0
  6
BYLAYER
 62
     1
 10
523.476109
 20
-61.197669
 30
0.0
 11
501.620793
 21
-73.815833
 31
0.0
  0
ARC
  8
0
  6
BYLAYER
 62
     1
 10
500.620793
 20
-72.083777
 30
0.0
 40
1.999993
 50
272.999216
 51
299.999937
  0
LINE
  8
0
  6
BYLAYER
 62
     1
 10
534.976109
 20
-127.870307
 30
0.0
 11
534.976109
 21
-27.870307
 31
0.0
  0
LINE
  8
0
  6
BYLAYER
 62
     1
 10
511.091160
 20
-68.348121
 30
0.0
 11
524.476109
 21
-45.597999
 31
0.0
  0
LINE
  8
0
  6
BYLAYER
 62
     1
 10
501.620793
 20
-73.815833
 30
0.0
 11
501.620793
 21
-127.870307
 31
0.0
  0
LINE
  8
0
  6
BYLAYER
 62
     1
 10
1252.476109
 20
-301.870185
 30
0.0
 11
1251.476109
 21
-302.870185
 31
0.0
  0
LINE
  8
0
  6
BYLAYER
 62
     1
 10
1251.476109
 20
-302.870185
 30
0.0
 11
1248.976109
 21
-302.870185
 31
0.0
  0
LINE
  8
0
  6
BYLAYER
 62
     1
 10
1252.476109
 20
-191.066430
 30
0.0
 11
1252.476109
 21
-301.870185
 31
0.0
  0
LINE
  8
0
  6
BYLAYER
 62
     1
 10
1246.976109
 20
-365.370246
 30
0.0
 11
1102.976109
 21
-365.370246
 31
0.0
  0
LINE
  8
0
  6
BYLAYER
 62
     1
 10
1246.976109
 20
-337.975043
 30
0.0
 11
1248.976109
 21
-337.870185
 31
0.0
  0
LINE
  8
0
  6
BYLAYER
 62
     1
 10
1248.976109
 20
-337.870185
 30
0.0
 11
1248.976109
 21
-195.130994
 31
0.0
  0
LINE
  8
0
  6
BYLAYER
 62
     1
 10
1102.976109
 20
-365.370246
 30
0.0
 11
1102.976109
 21
-304.112891
 31
0.0
  0
ARC
  8
0
  6
BYLAYER
 62
     1
 10
1105.976109
 20
-304.112891
 30
0.0
 40
2.999938
 50
134.999181
 51
180.000005
  0
LINE
  8
0
  6
BYLAYER
 62
     1
 10
1246.976109
 20
-365.370246
 30
0.0
 11
1246.976109
 21
-304.112891
 31
0.0
  0
ARC
  8
0
  6
BYLAYER
 62
     1
 10
1243.976109
 20
-304.112891
 30
0.0
 40
3.000025
 50
0.0
 51
45.000824
  0
LINE
  8
0
  6
BYLAYER
 62
     1
 10
1174.976353
 20
-299.096869
 30
0.0
 11
1103.252232
 21
-302.855781
 31
0.0
  0
LINE
  8
0
  6
BYLAYER
 62
     1
 10
1246.699986
 20
-302.855781
 30
0.0
 11
1174.976109
 21
-299.096869
 31
0.0
  0
ARC
  8
0
  6
BYLAYER
 62
     1
 10
1183.976109
 20
-293.721625
 30
0.0
 40
2.999990
 50
180.000000
 51
267.000054
  0
LINE
  8
0
  6
BYLAYER
 62
     1
 10
1180.976109
 20
-284.730781
 30
0.0
 11
1180.976109
 21
-293.721625
 31
0.0
  0
ARC
  8
0
  6
BYLAYER
 62
     1
 10
1183.976109
 20
-284.730781
 30
0.0
 40
2.999978
 50
92.726266
 51
179.999991
  0
ARC
  8
0
  6
BYLAYER
 62
     1
 10
1165.976109
 20
-284.730781
 30
0.0
 40
2.999978
 50
0.0
 51
87.273726
  0
LINE
  8
0
  6
BYLAYER
 62
     1
 10
1168.976109
 20
-284.730781
 30
0.0
 11
1168.976109
 21
-293.721625
 31
0.0
  0
ARC
  8
0
  6
BYLAYER
 62
     1
 10
1165.976109
 20
-293.721625
 30
0.0
 40
2.999990
 50
272.999956
 51
359.999983
  0
LINE
  8
0
  6
BYLAYER
 62
     1
 10
1115.598240
 20
-290.247626
 30
0.0
 11
1103.854893
 21
-301.991553
 31
0.0
  0
LINE
  8
0
  6
BYLAYER
 62
     1
 10
1119.334141
 20
-279.506354
 30
0.0
 11
1166.118809
 21
-281.734199
 31
0.0
  0
LINE
  8
0
  6
BYLAYER
 62
     1
 10
1174.976841
 20
-296.254096
 30
0.0
 11
1105.976109
 21
-299.870246
 31
0.0
  0
LINE
  8
0
  6
BYLAYER
 62
     1
 10
1246.097447
 20
-301.991492
 30
0.0
 11
1234.355626
 21
-290.250831
 31
0.0
  0
ARC
  8
0
  6
BYLAYER
 62
     1
 10
1236.476841
 20
-288.129401
 30
0.0
 40
3.0
 50
180.000000
 51
225.002822
  0
LINE
  8
0
  6
BYLAYER
 62
     1
 10
1174.976841
 20
-296.254096
 30
0.0
 11
1243.975865
 21
-299.870154
 31
0.0
  0
LINE
  8
0
  6
BYLAYER
 62
     1
 10
1230.619542
 20
-279.506263
 30
0.0
 11
1183.833409
 21
-281.734199
 31
0.0
  0
ARC
  8
0
  6
BYLAYER
 62
     1
 10
1230.476841
 20
-276.509681
 30
0.0
 40
3.0
 50
272.726339
 51
360.000010
  0
LINE
  8
0
  6
BYLAYER
 62
     1
 10
1116.476841
 20
-208.974164
 30
0.0
 11
1116.476841
 21
-288.126349
 31
0.0
  0
ARC
  8
0
  6
BYLAYER
 62
     1
 10
1119.476841
 20
-276.509742
 30
0.0
 40
3.0
 50
180.000000
 51
267.273671
  0
ARC
  8
0
  6
BYLAYER
 62
     1
 10
1113.476841
 20
-288.126349
 30
0.0
 40
3.000000
 50
315.001467
 51
360.000000
  0
LINE
  8
0
  6
BYLAYER
 62
     1
 10
1233.476841
 20
-208.973108
 30
0.0
 11
1233.476841
 21
-288.129401
 31
0.0
  0
LINE
  8
0
  6
BYLAYER
 62
     1
 10
1097.476109
 20
-301.870185
 30
0.0
 11
1098.476109
 21
-302.870185
 31
0.0
  0
LINE
  8
0
  6
BYLAYER
 62
     1
 10
1098.476109
 20
-302.870185
 30
0.0
 11
1100.976109
 21
-302.870185
 31
0.0
  0
LINE
  8
0
  6
BYLAYER
 62
     1
 10
1097.476109
 20
-191.066430
 30
0.0
 11
1097.476109
 21
-301.870185
 31
0.0
  0
LINE
  8
0
  6
BYLAYER
 62
     1
 10
1102.976109
 20
-337.975043
 30
0.0
 11
1100.976109
 21
-337.870185
 31
0.0
  0
LINE
  8
0
  6
BYLAYER
 62
     1
 10
1100.976109
 20
-337.870185
 30
0.0
 11
1100.976109
 21
-195.130994
 31
0.0
  0
LINE
  8
0
  6
BYLAYER
 62
     7
 10
1131.476002
 20
-21.370338
 30
0.0
 11
1131.476002
 21
0.129662
 31
0.0
  0
ARC
  8
0
  6
BYLAYER
 62
     7
 10
1129.976002
 20
-21.370338
 30
0.0
 40
1.5
 50
270.0
 51
360.0
  0
ARC
  8
0
  6
BYLAYER
 62
     7
 10
1132.976002
 20
0.129662
 30
0.0
 40
1.500000
 50
90.0
 51
180.0
  0
LINE
  8
0
  6
BYLAYER
 62
     7
 10
1174.976002
 20
1.629662
 30
0.0
 11
1132.976002
 21
1.629662
 31
0.0
  0
LINE
  8
0
  6
BYLAYER
 62
     7
 10
1136.848243
 20
-21.370338
 30
0.0
 11
1136.848243
 21
0.129662
 31
0.0
  0
ARC
  8
0
  6
BYLAYER
 62
     7
 10
1135.348243
 20
-21.370338
 30
0.0
 40
1.5
 50
270.0
 51
360.0
  0
ARC
  8
0
  6
BYLAYER
 62
     7
 10
1138.348243
 20
0.129662
 30
0.0
 40
1.5
 50
90.0
 51
180.0
  0
LINE
  8
0
  6
BYLAYER
 62
     7
 10
1161.882349
 20
1.629662
 30
0.0
 11
1162.374896
 21
-12.475036
 31
0.0
  0
ARC
  8
0
  6
BYLAYER
 62
     7
 10
1165.373068
 20
-12.370338
 30
0.0
 40
3.0
 50
182.000000
 51
270.000000
  0
LINE
  8
0
  6
BYLAYER
 62
     7
 10
1172.577108
 20
-12.475036
 30
0.0
 11
1173.069655
 21
1.629662
 31
0.0
  0
ARC
  8
0
  6
BYLAYER
 62
     7
 10
1169.578936
 20
-12.370338
 30
0.0
 40
3.000000
 50
270.0
 51
358.0
  0
LINE
  8
0
  6
BYLAYER
 62
     7
 10
1165.373068
 20
-15.370338
 30
0.0
 11
1169.578936
 21
-15.370338
 31
0.0
  0
LINE
  8
0
  6
BYLAYER
 62
     7
 10
1146.882349
 20
1.629662
 30
0.0
 11
1147.374896
 21
-12.475036
 31
0.0
  0
ARC
  8
0
  6
BYLAYER
 62
     7
 10
1150.373068
 20
-12.370338
 30
0.0
 40
3.0
 50
182.000000
 51
270.000000
  0
LINE
  8
0
  6
BYLAYER
 62
     7
 10
1157.577108
 20
-12.475036
 30
0.0
 11
1158.069655
 21
1.629662
 31
0.0
  0
ARC
  8
0
  6
BYLAYER
 62
     7
 10
1154.578936
 20
-12.370338
 30
0.0
 40
3.000000
 50
270.0
 51
358.0
  0
LINE
  8
0
  6
BYLAYER
 62
     7
 10
1150.373068
 20
-15.370338
 30
0.0
 11
1154.578936
 21
-15.370338
 31
0.0
  0
LINE
  8
0
  6
BYLAYER
 62
     7
 10
1146.917270
 20
0.629662
 30
0.0
 11
1158.034734
 21
0.629662
 31
0.0
  0
LINE
  8
0
  6
BYLAYER
 62
     7
 10
1161.917270
 20
0.629662
 30
0.0
 11
1173.034734
 21
0.629662
 31
0.0
  0
LINE
  8
0
  6
BYLAYER
 62
     7
 10
1174.976002
 20
-22.870338
 30
0.0
 11
1127.476002
 21
-22.870338
 31
0.0
  0
ARC
  8
0
  6
BYLAYER
 62
     7
 10
1127.476002
 20
-24.370338
 30
0.0
 40
1.500000
 50
90.0
 51
180.0
  0
LINE
  8
0
  6
BYLAYER
 62
     7
 10
1125.976002
 20
-29.870338
 30
0.0
 11
1125.976002
 21
-24.370338
 31
0.0
  0
LINE
  8
0
  6
BYLAYER
 62
     7
 10
1125.976002
 20
-29.870338
 30
0.0
 11
1174.976002
 21
-29.870338
 31
0.0
  0
LINE
  8
0
  6
BYLAYER
 62
     7
 10
1218.476002
 20
-21.370338
 30
0.0
 11
1218.476002
 21
0.129662
 31
0.0
  0
ARC
  8
0
  6
BYLAYER
 62
     7
 10
1219.976002
 20
-21.370338
 30
0.0
 40
1.500000
 50
180.000000
 51
270.000000
  0
ARC
  8
0
  6
BYLAYER
 62
     7
 10
1216.976002
 20
0.129662
 30
0.0
 40
1.5
 50
0.0
 51
90.0
  0
LINE
  8
0
  6
BYLAYER
 62
     7
 10
1174.976002
 20
1.629662
 30
0.0
 11
1216.976002
 21
1.629662
 31
0.0
  0
LINE
  8
0
  6
BYLAYER
 62
     7
 10
1213.103761
 20
-21.370338
 30
0.0
 11
1213.103761
 21
0.129662
 31
0.0
  0
ARC
  8
0
  6
BYLAYER
 62
     7
 10
1214.603761
 20
-21.370338
 30
0.0
 40
1.5
 50
180.000000
 51
270.000000
  0
ARC
  8
0
  6
BYLAYER
 62
     7
 10
1211.603761
 20
0.129662
 30
0.0
 40
1.5
 50
0.0
 51
90.0
  0
LINE
  8
0
  6
BYLAYER
 62
     7
 10
1188.069655
 20
1.629662
 30
0.0
 11
1187.577108
 21
-12.475036
 31
0.0
  0
ARC
  8
0
  6
BYLAYER
 62
     7
 10
1184.578936
 20
-12.370338
 30
0.0
 40
3.000000
 50
270.0
 51
358.0
  0
LINE
  8
0
  6
BYLAYER
 62
     7
 10
1177.374896
 20
-12.475036
 30
0.0
 11
1176.882349
 21
1.629662
 31
0.0
  0
ARC
  8
0
  6
BYLAYER
 62
     7
 10
1180.373068
 20
-12.370338
 30
0.0
 40
3.0
 50
182.000000
 51
270.000000
  0
LINE
  8
0
  6
BYLAYER
 62
     7
 10
1184.578936
 20
-15.370338
 30
0.0
 11
1180.373068
 21
-15.370338
 31
0.0
  0
LINE
  8
0
  6
BYLAYER
 62
     7
 10
1203.069655
 20
1.629662
 30
0.0
 11
1202.577108
 21
-12.475036
 31
0.0
  0
ARC
  8
0
  6
BYLAYER
 62
     7
 10
1199.578936
 20
-12.370338
 30
0.0
 40
3.000000
 50
270.0
 51
358.0
  0
LINE
  8
0
  6
BYLAYER
 62
     7
 10
1192.374896
 20
-12.475036
 30
0.0
 11
1191.882349
 21
1.629662
 31
0.0
  0
ARC
  8
0
  6
BYLAYER
 62
     7
 10
1195.373068
 20
-12.370338
 30
0.0
 40
3.0
 50
182.000000
 51
270.000000
  0
LINE
  8
0
  6
BYLAYER
 62
     7
 10
1199.578936
 20
-15.370338
 30
0.0
 11
1195.373068
 21
-15.370338
 31
0.0
  0
LINE
  8
0
  6
BYLAYER
 62
     7
 10
1203.034734
 20
0.629662
 30
0.0
 11
1191.917270
 21
0.629662
 31
0.0
  0
LINE
  8
0
  6
BYLAYER
 62
     7
 10
1188.034734
 20
0.629662
 30
0.0
 11
1176.917270
 21
0.629662
 31
0.0
  0
LINE
  8
0
  6
BYLAYER
 62
     7
 10
1174.976002
 20
-22.870338
 30
0.0
 11
1222.476002
 21
-22.870338
 31
0.0
  0
ARC
  8
0
  6
BYLAYER
 62
     7
 10
1222.476002
 20
-24.370338
 30
0.0
 40
1.500000
 50
0.0
 51
90.0
  0
LINE
  8
0
  6
BYLAYER
 62
     7
 10
1223.976002
 20
-31.870338
 30
0.0
 11
1223.976002
 21
-24.370338
 31
0.0
  0
LINE
  8
0
  6
BYLAYER
 62
     7
 10
1223.976002
 20
-29.870338
 30
0.0
 11
1174.976002
 21
-29.870338
 31
0.0
  0
LINE
  8
0
  6
BYLAYER
 62
     7
 10
1125.976002
 20
-31.870338
 30
0.0
 11
1174.975986
 21
-31.870338
 31
0.0
  0
LINE
  8
0
  6
BYLAYER
 62
     7
 10
1125.976002
 20
-37.370338
 30
0.0
 11
1128.976002
 21
-42.566505
 31
0.0
  0
LINE
  8
0
  6
BYLAYER
 62
     7
 10
1223.975986
 20
-31.870216
 30
0.0
 11
1174.975986
 21
-31.870338
 31
0.0
  0
LINE
  8
0
  6
BYLAYER
 62
     7
 10
1223.975986
 20
-37.370216
 30
0.0
 11
1220.975986
 21
-42.566383
 31
0.0
  0
LINE
  8
0
  6
BYLAYER
 62
     7
 10
1128.976002
 20
-42.566505
 30
0.0
 11
1128.976002
 21
-54.556741
 31
0.0
  0
LINE
  8
0
  6
BYLAYER
 62
     7
 10
1125.976002
 20
-31.870338
 30
0.0
 11
1125.976002
 21
-56.526924
 31
0.0
  0
LINE
  8
0
  6
BYLAYER
 62
     7
 10
1223.975986
 20
-31.870216
 30
0.0
 11
1223.976015
 21
-56.526786
 31
0.0
  0
LINE
  8
0
  6
BYLAYER
 62
     7
 10
1220.975986
 20
-42.566383
 30
0.0
 11
1220.975997
 21
-54.556604
 31
0.0
  0
LINE
  8
0
  6
BYLAYER
 62
     7
 10
1125.976002
 20
-29.870338
 30
0.0
 11
1125.976002
 21
-31.870338
 31
0.0
  0
LINE
  8
0
  6
BYLAYER
 62
     7
 10
1125.976002
 20
-31.870338
 30
0.0
 11
1223.976002
 21
-31.870338
 31
0.0
  0
LINE
  8
0
  6
BYLAYER
 62
     7
 10
1175.976109
 20
-98.870307
 30
0.0
 11
1175.976109
 21
-106.870307
 31
0.0
  0
LINE
  8
0
  6
BYLAYER
 62
     7
 10
1175.976109
 20
-88.870307
 30
0.0
 11
1175.976109
 21
-96.870307
 31
0.0
  0
LINE
  8
0
  6
BYLAYER
 62
     7
 10
1183.976109
 20
-96.870307
 30
0.0
 11
1183.976109
 21
-88.870307
 31
0.0
  0
LINE
  8
0
  6
BYLAYER
 62
     7
 10
1185.976109
 20
-96.870307
 30
0.0
 11
1185.976109
 21
-88.870307
 31
0.0
  0
LINE
  8
0
  6
BYLAYER
 62
     7
 10
1175.976109
 20
-106.870307
 30
0.0
 11
1183.976109
 21
-106.870307
 31
0.0
  0
LINE
  8
0
  6
BYLAYER
 62
     7
 10
1175.976109
 20
-98.870307
 30
0.0
 11
1183.976109
 21
-98.870307
 31
0.0
  0
LINE
  8
0
  6
BYLAYER
 62
     7
 10
1185.976109
 20
-96.870307
 30
0.0
 11
1193.814108
 21
-96.870307
 31
0.0
  0
LINE
  8
0
  6
BYLAYER
 62
     7
 10
1175.976109
 20
-96.870307
 30
0.0
 11
1183.976109
 21
-96.870307
 31
0.0
  0
LINE
  8
0
  6
BYLAYER
 62
     7
 10
1185.976109
 20
-88.870307
 30
0.0
 11
1193.814108
 21
-88.870307
 31
0.0
  0
LINE
  8
0
  6
BYLAYER
 62
     7
 10
1175.976109
 20
-88.870307
 30
0.0
 11
1183.976109
 21
-88.870307
 31
0.0
  0
LINE
  8
0
  6
BYLAYER
 62
     7
 10
1193.814108
 20
-96.870307
 30
0.0
 11
1193.814108
 21
-88.870307
 31
0.0
  0
LINE
  8
0
  6
BYLAYER
 62
     7
 10
1183.976109
 20
-106.870307
 30
0.0
 11
1183.976109
 21
-98.870307
 31
0.0
  0
LINE
  8
0
  6
BYLAYER
 62
     7
 10
1185.976109
 20
-98.870307
 30
0.0
 11
1185.976109
 21
-106.870307
 31
0.0
  0
LINE
  8
0
  6
BYLAYER
 62
     7
 10
1185.976109
 20
-106.870307
 30
0.0
 11
1193.976109
 21
-106.870307
 31
0.0
  0
LINE
  8
0
  6
BYLAYER
 62
     7
 10
1185.976109
 20
-98.870307
 30
0.0
 11
1193.976109
 21
-98.870307
 31
0.0
  0
LINE
  8
0
  6
BYLAYER
 62
     7
 10
1193.976109
 20
-106.870307
 30
0.0
 11
1193.976109
 21
-98.870307
 31
0.0
  0
LINE
  8
0
  6
BYLAYER
 62
     7
 10
1195.976109
 20
-116.870307
 30
0.0
 11
1203.976109
 21
-116.870307
 31
0.0
  0
LINE
  8
0
  6
BYLAYER
 62
     7
 10
1195.976109
 20
-98.870307
 30
0.0
 11
1195.976109
 21
-106.870307
 31
0.0
  0
LINE
  8
0
  6
BYLAYER
 62
     7
 10
1195.976109
 20
-108.870307
 30
0.0
 11
1195.976109
 21
-116.870307
 31
0.0
  0
LINE
  8
0
  6
BYLAYER
 62
     7
 10
1195.976109
 20
-108.870307
 30
0.0
 11
1203.976109
 21
-108.870307
 31
0.0
  0
LINE
  8
0
  6
BYLAYER
 62
     7
 10
1195.976109
 20
-106.870307
 30
0.0
 11
1203.976109
 21
-106.870307
 31
0.0
  0
LINE
  8
0
  6
BYLAYER
 62
     7
 10
1195.976109
 20
-98.870307
 30
0.0
 11
1203.976109
 21
-98.870307
 31
0.0
  0
LINE
  8
0
  6
BYLAYER
 62
     7
 10
1203.976109
 20
-116.870307
 30
0.0
 11
1203.976109
 21
-108.870307
 31
0.0
  0
LINE
  8
0
  6
BYLAYER
 62
     7
 10
1203.976109
 20
-106.870307
 30
0.0
 11
1203.976109
 21
-98.870307
 31
0.0
  0
LINE
  8
0
  6
BYLAYER
 62
     7
 10
1195.976109
 20
-126.870307
 30
0.0
 11
1203.976109
 21
-126.870307
 31
0.0
  0
LINE
  8
0
  6
BYLAYER
 62
     7
 10
1195.976109
 20
-118.870307
 30
0.0
 11
1195.976109
 21
-126.870307
 31
0.0
  0
LINE
  8
0
  6
BYLAYER
 62
     7
 10
1195.976109
 20
-118.870307
 30
0.0
 11
1203.976109
 21
-118.870307
 31
0.0
  0
LINE
  8
0
  6
BYLAYER
 62
     7
 10
1203.976109
 20
-126.870307
 30
0.0
 11
1203.976109
 21
-118.870307
 31
0.0
  0
LINE
  8
0
  6
BYLAYER
 62
     7
 10
1205.976109
 20
-116.870307
 30
0.0
 11
1213.976109
 21
-116.870307
 31
0.0
  0
LINE
  8
0
  6
BYLAYER
 62
     7
 10
1205.976109
 20
-108.870307
 30
0.0
 11
1205.976109
 21
-116.870307
 31
0.0
  0
LINE
  8
0
  6
BYLAYER
 62
     7
 10
1205.976109
 20
-108.870307
 30
0.0
 11
1213.976109
 21
-108.870307
 31
0.0
  0
LINE
  8
0
  6
BYLAYER
 62
     7
 10
1213.976109
 20
-116.870307
 30
0.0
 11
1213.976109
 21
-108.870307
 31
0.0
  0
LINE
  8
0
  6
BYLAYER
 62
     7
 10
1205.976109
 20
-126.870307
 30
0.0
 11
1213.976109
 21
-126.870307
 31
0.0
  0
LINE
  8
0
  6
BYLAYER
 62
     7
 10
1205.976109
 20
-118.870307
 30
0.0
 11
1205.976109
 21
-126.870307
 31
0.0
  0
LINE
  8
0
  6
BYLAYER
 62
     7
 10
1205.976109
 20
-118.870307
 30
0.0
 11
1213.976109
 21
-118.870307
 31
0.0
  0
LINE
  8
0
  6
BYLAYER
 62
     7
 10
1213.976109
 20
-126.870307
 30
0.0
 11
1213.976109
 21
-118.870307
 31
0.0
  0
LINE
  8
0
  6
BYLAYER
 62
     7
 10
1215.976109
 20
-116.870307
 30
0.0
 11
1223.976109
 21
-116.870307
 31
0.0
  0
LINE
  8
0
  6
BYLAYER
 62
     7
 10
1215.976109
 20
-108.870307
 30
0.0
 11
1215.976109
 21
-116.870307
 31
0.0
  0
LINE
  8
0
  6
BYLAYER
 62
     7
 10
1215.976109
 20
-108.870307
 30
0.0
 11
1223.976109
 21
-108.870307
 31
0.0
  0
LINE
  8
0
  6
BYLAYER
 62
     7
 10
1223.976109
 20
-116.870307
 30
0.0
 11
1223.976109
 21
-108.870307
 31
0.0
  0
LINE
  8
0
  6
BYLAYER
 62
     7
 10
1215.976109
 20
-126.870307
 30
0.0
 11
1223.976109
 21
-126.870307
 31
0.0
  0
LINE
  8
0
  6
BYLAYER
 62
     7
 10
1215.976109
 20
-118.870307
 30
0.0
 11
1215.976109
 21
-126.870307
 31
0.0
  0
LINE
  8
0
  6
BYLAYER
 62
     7
 10
1215.976109
 20
-118.870307
 30
0.0
 11
1223.976109
 21
-118.870307
 31
0.0
  0
LINE
  8
0
  6
BYLAYER
 62
     7
 10
1223.976109
 20
-126.870307
 30
0.0
 11
1223.976109
 21
-118.870307
 31
0.0
  0
LINE
  8
0
  6
BYLAYER
 62
     7
 10
1175.976109
 20
-78.870307
 30
0.0
 11
1175.976109
 21
-86.870307
 31
0.0
  0
LINE
  8
0
  6
BYLAYER
 62
     7
 10
1183.976109
 20
-86.870307
 30
0.0
 11
1183.976109
 21
-78.870307
 31
0.0
  0
LINE
  8
0
  6
BYLAYER
 62
     7
 10
1185.976109
 20
-86.870307
 30
0.0
 11
1185.976109
 21
-78.870307
 31
0.0
  0
LINE
  8
0
  6
BYLAYER
 62
     7
 10
1185.976109
 20
-86.870307
 30
0.0
 11
1193.814108
 21
-86.870307
 31
0.0
  0
LINE
  8
0
  6
BYLAYER
 62
     7
 10
1175.976109
 20
-86.870307
 30
0.0
 11
1183.976109
 21
-86.870307
 31
0.0
  0
LINE
  8
0
  6
BYLAYER
 62
     7
 10
1185.976109
 20
-78.870307
 30
0.0
 11
1193.814108
 21
-78.870307
 31
0.0
  0
LINE
  8
0
  6
BYLAYER
 62
     7
 10
1175.976109
 20
-78.870307
 30
0.0
 11
1183.976109
 21
-78.870307
 31
0.0
  0
LINE
  8
0
  6
BYLAYER
 62
     7
 10
1193.814108
 20
-86.870307
 30
0.0
 11
1193.814108
 21
-78.870307
 31
0.0
  0
LINE
  8
0
  6
BYLAYER
 62
     7
 10
1195.976109
 20
-88.870307
 30
0.0
 11
1195.976109
 21
-96.870307
 31
0.0
  0
LINE
  8
0
  6
BYLAYER
 62
     7
 10
1195.976109
 20
-96.870307
 30
0.0
 11
1203.976109
 21
-96.870307
 31
0.0
  0
LINE
  8
0
  6
BYLAYER
 62
     7
 10
1195.976109
 20
-88.870307
 30
0.0
 11
1203.976109
 21
-88.870307
 31
0.0
  0
LINE
  8
0
  6
BYLAYER
 62
     7
 10
1203.976109
 20
-96.870307
 30
0.0
 11
1203.976109
 21
-88.870307
 31
0.0
  0
LINE
  8
0
  6
BYLAYER
 62
     7
 10
1195.976109
 20
-78.870307
 30
0.0
 11
1195.976109
 21
-86.870307
 31
0.0
  0
LINE
  8
0
  6
BYLAYER
 62
     7
 10
1195.976109
 20
-86.870307
 30
0.0
 11
1203.976109
 21
-86.870307
 31
0.0
  0
LINE
  8
0
  6
BYLAYER
 62
     7
 10
1195.976109
 20
-78.870307
 30
0.0
 11
1203.976109
 21
-78.870307
 31
0.0
  0
LINE
  8
0
  6
BYLAYER
 62
     7
 10
1203.976109
 20
-86.870307
 30
0.0
 11
1203.976109
 21
-78.870307
 31
0.0
  0
LINE
  8
0
  6
BYLAYER
 62
     7
 10
1205.976109
 20
-98.870307
 30
0.0
 11
1205.976109
 21
-106.870307
 31
0.0
  0
LINE
  8
0
  6
BYLAYER
 62
     7
 10
1205.976109
 20
-106.870307
 30
0.0
 11
1213.976109
 21
-106.870307
 31
0.0
  0
LINE
  8
0
  6
BYLAYER
 62
     7
 10
1205.976109
 20
-98.870307
 30
0.0
 11
1213.976109
 21
-98.870307
 31
0.0
  0
LINE
  8
0
  6
BYLAYER
 62
     7
 10
1213.976109
 20
-106.870307
 30
0.0
 11
1213.976109
 21
-98.870307
 31
0.0
  0
LINE
  8
0
  6
BYLAYER
 62
     7
 10
1205.976109
 20
-88.870307
 30
0.0
 11
1205.976109
 21
-96.870307
 31
0.0
  0
LINE
  8
0
  6
BYLAYER
 62
     7
 10
1205.976109
 20
-96.870307
 30
0.0
 11
1213.976109
 21
-96.870307
 31
0.0
  0
LINE
  8
0
  6
BYLAYER
 62
     7
 10
1205.976109
 20
-88.870307
 30
0.0
 11
1213.976109
 21
-88.870307
 31
0.0
  0
LINE
  8
0
  6
BYLAYER
 62
     7
 10
1213.976109
 20
-96.870307
 30
0.0
 11
1213.976109
 21
-88.870307
 31
0.0
  0
LINE
  8
0
  6
BYLAYER
 62
     7
 10
1215.976109
 20
-98.870307
 30
0.0
 11
1215.976109
 21
-106.870307
 31
0.0
  0
LINE
  8
0
  6
BYLAYER
 62
     7
 10
1215.976109
 20
-106.870307
 30
0.0
 11
1223.976109
 21
-106.870307
 31
0.0
  0
LINE
  8
0
  6
BYLAYER
 62
     7
 10
1215.976109
 20
-98.870307
 30
0.0
 11
1223.976109
 21
-98.870307
 31
0.0
  0
LINE
  8
0
  6
BYLAYER
 62
     7
 10
1223.976109
 20
-106.870307
 30
0.0
 11
1223.976109
 21
-98.870307
 31
0.0
  0
CIRCLE
  8
0
  6
BYLAYER
 62
     7
 10
1174.976109
 20
-127.870307
 30
0.0
 40
4.0
  0
LINE
  8
0
  6
BYLAYER
 62
     7
 10
1225.976109
 20
-116.870307
 30
0.0
 11
1233.976109
 21
-116.870307
 31
0.0
  0
LINE
  8
0
  6
BYLAYER
 62
     7
 10
1225.976109
 20
-108.870307
 30
0.0
 11
1225.976109
 21
-116.870307
 31
0.0
  0
LINE
  8
0
  6
BYLAYER
 62
     7
 10
1225.976109
 20
-108.870307
 30
0.0
 11
1233.976109
 21
-108.870307
 31
0.0
  0
LINE
  8
0
  6
BYLAYER
 62
     7
 10
1233.976109
 20
-116.870307
 30
0.0
 11
1233.976109
 21
-108.870307
 31
0.0
  0
LINE
  8
0
  6
BYLAYER
 62
     7
 10
1225.976109
 20
-126.870307
 30
0.0
 11
1233.976109
 21
-126.870307
 31
0.0
  0
LINE
  8
0
  6
BYLAYER
 62
     7
 10
1225.976109
 20
-118.870307
 30
0.0
 11
1225.976109
 21
-126.870307
 31
0.0
  0
LINE
  8
0
  6
BYLAYER
 62
     7
 10
1225.976109
 20
-118.870307
 30
0.0
 11
1233.976109
 21
-118.870307
 31
0.0
  0
LINE
  8
0
  6
BYLAYER
 62
     7
 10
1233.976109
 20
-126.870307
 30
0.0
 11
1233.976109
 21
-118.870307
 31
0.0
  0
LINE
  8
0
  6
BYLAYER
 62
     7
 10
1225.976109
 20
-98.870307
 30
0.0
 11
1225.976109
 21
-106.870307
 31
0.0
  0
LINE
  8
0
  6
BYLAYER
 62
     7
 10
1225.976109
 20
-106.870307
 30
0.0
 11
1233.976109
 21
-106.870307
 31
0.0
  0
LINE
  8
0
  6
BYLAYER
 62
     7
 10
1225.976109
 20
-98.870307
 30
0.0
 11
1233.976109
 21
-98.870307
 31
0.0
  0
LINE
  8
0
  6
BYLAYER
 62
     7
 10
1233.976109
 20
-106.870307
 30
0.0
 11
1233.976109
 21
-98.870307
 31
0.0
  0
LINE
  8
0
  6
BYLAYER
 62
     7
 10
1175.976109
 20
-68.870307
 30
0.0
 11
1175.976109
 21
-76.870307
 31
0.0
  0
LINE
  8
0
  6
BYLAYER
 62
     7
 10
1183.976109
 20
-76.870307
 30
0.0
 11
1183.976109
 21
-68.870307
 31
0.0
  0
LINE
  8
0
  6
BYLAYER
 62
     7
 10
1185.976109
 20
-76.870307
 30
0.0
 11
1185.976109
 21
-68.870307
 31
0.0
  0
LINE
  8
0
  6
BYLAYER
 62
     7
 10
1185.976109
 20
-76.870307
 30
0.0
 11
1193.814108
 21
-76.870307
 31
0.0
  0
LINE
  8
0
  6
BYLAYER
 62
     7
 10
1175.976109
 20
-76.870307
 30
0.0
 11
1183.976109
 21
-76.870307
 31
0.0
  0
LINE
  8
0
  6
BYLAYER
 62
     7
 10
1185.976109
 20
-68.870307
 30
0.0
 11
1193.814108
 21
-68.870307
 31
0.0
  0
LINE
  8
0
  6
BYLAYER
 62
     7
 10
1175.976109
 20
-68.870307
 30
0.0
 11
1183.976109
 21
-68.870307
 31
0.0
  0
LINE
  8
0
  6
BYLAYER
 62
     7
 10
1193.814108
 20
-76.870307
 30
0.0
 11
1193.814108
 21
-68.870307
 31
0.0
  0
LINE
  8
0
  6
BYLAYER
 62
     7
 10
1195.976109
 20
-68.870307
 30
0.0
 11
1195.976109
 21
-76.870307
 31
0.0
  0
LINE
  8
0
  6
BYLAYER
 62
     7
 10
1195.976109
 20
-76.870307
 30
0.0
 11
1203.976109
 21
-76.870307
 31
0.0
  0
LINE
  8
0
  6
BYLAYER
 62
     7
 10
1195.976109
 20
-68.870307
 30
0.0
 11
1203.976109
 21
-68.870307
 31
0.0
  0
LINE
  8
0
  6
BYLAYER
 62
     7
 10
1203.976109
 20
-76.870307
 30
0.0
 11
1203.976109
 21
-68.870307
 31
0.0
  0
LINE
  8
0
  6
BYLAYER
 62
     7
 10
1205.976109
 20
-78.870307
 30
0.0
 11
1205.976109
 21
-86.870307
 31
0.0
  0
LINE
  8
0
  6
BYLAYER
 62
     7
 10
1205.976109
 20
-86.870307
 30
0.0
 11
1213.976109
 21
-86.870307
 31
0.0
  0
LINE
  8
0
  6
BYLAYER
 62
     7
 10
1205.976109
 20
-78.870307
 30
0.0
 11
1213.976109
 21
-78.870307
 31
0.0
  0
LINE
  8
0
  6
BYLAYER
 62
     7
 10
1213.976109
 20
-86.870307
 30
0.0
 11
1213.976109
 21
-78.870307
 31
0.0
  0
LINE
  8
0
  6
BYLAYER
 62
     7
 10
1215.976109
 20
-88.870307
 30
0.0
 11
1215.976109
 21
-96.870307
 31
0.0
  0
LINE
  8
0
  6
BYLAYER
 62
     7
 10
1215.976109
 20
-96.870307
 30
0.0
 11
1223.976109
 21
-96.870307
 31
0.0
  0
LINE
  8
0
  6
BYLAYER
 62
     7
 10
1215.976109
 20
-88.870307
 30
0.0
 11
1223.976109
 21
-88.870307
 31
0.0
  0
LINE
  8
0
  6
BYLAYER
 62
     7
 10
1223.976109
 20
-96.870307
 30
0.0
 11
1223.976109
 21
-88.870307
 31
0.0
  0
LINE
  8
0
  6
BYLAYER
 62
     7
 10
1175.976109
 20
-156.870307
 30
0.0
 11
1175.976109
 21
-148.870307
 31
0.0
  0
LINE
  8
0
  6
BYLAYER
 62
     7
 10
1175.976109
 20
-166.870307
 30
0.0
 11
1175.976109
 21
-158.870307
 31
0.0
  0
LINE
  8
0
  6
BYLAYER
 62
     7
 10
1183.976109
 20
-158.870307
 30
0.0
 11
1183.976109
 21
-166.870307
 31
0.0
  0
LINE
  8
0
  6
BYLAYER
 62
     7
 10
1185.976109
 20
-158.870307
 30
0.0
 11
1185.976109
 21
-166.870307
 31
0.0
  0
LINE
  8
0
  6
BYLAYER
 62
     7
 10
1175.976109
 20
-148.870307
 30
0.0
 11
1183.976109
 21
-148.870307
 31
0.0
  0
LINE
  8
0
  6
BYLAYER
 62
     7
 10
1175.976109
 20
-156.870307
 30
0.0
 11
1183.976109
 21
-156.870307
 31
0.0
  0
LINE
  8
0
  6
BYLAYER
 62
     7
 10
1185.976109
 20
-158.870307
 30
0.0
 11
1193.814108
 21
-158.870307
 31
0.0
  0
LINE
  8
0
  6
BYLAYER
 62
     7
 10
1175.976109
 20
-158.870307
 30
0.0
 11
1183.976109
 21
-158.870307
 31
0.0
  0
LINE
  8
0
  6
BYLAYER
 62
     7
 10
1185.976109
 20
-166.870307
 30
0.0
 11
1193.814108
 21
-166.870307
 31
0.0
  0
LINE
  8
0
  6
BYLAYER
 62
     7
 10
1175.976109
 20
-166.870307
 30
0.0
 11
1183.976109
 21
-166.870307
 31
0.0
  0
LINE
  8
0
  6
BYLAYER
 62
     7
 10
1193.814108
 20
-158.870307
 30
0.0
 11
1193.814108
 21
-166.870307
 31
0.0
  0
LINE
  8
0
  6
BYLAYER
 62
     7
 10
1183.976109
 20
-148.870307
 30
0.0
 11
1183.976109
 21
-156.870307
 31
0.0
  0
LINE
  8
0
  6
BYLAYER
 62
     7
 10
1185.976109
 20
-156.870307
 30
0.0
 11
1185.976109
 21
-148.870307
 31
0.0
  0
LINE
  8
0
  6
BYLAYER
 62
     7
 10
1185.976109
 20
-148.870307
 30
0.0
 11
1193.976109
 21
-148.870307
 31
0.0
  0
LINE
  8
0
  6
BYLAYER
 62
     7
 10
1185.976109
 20
-156.870307
 30
0.0
 11
1193.976109
 21
-156.870307
 31
0.0
  0
LINE
  8
0
  6
BYLAYER
 62
     7
 10
1193.976109
 20
-148.870307
 30
0.0
 11
1193.976109
 21
-156.870307
 31
0.0
  0
LINE
  8
0
  6
BYLAYER
 62
     7
 10
1195.976109
 20
-138.870307
 30
0.0
 11
1203.976109
 21
-138.870307
 31
0.0
  0
LINE
  8
0
  6
BYLAYER
 62
     7
 10
1195.976109
 20
-156.870307
 30
0.0
 11
1195.976109
 21
-148.870307
 31
0.0
  0
LINE
  8
0
  6
BYLAYER
 62
     7
 10
1195.976109
 20
-146.870307
 30
0.0
 11
1195.976109
 21
-138.870307
 31
0.0
  0
LINE
  8
0
  6
BYLAYER
 62
     7
 10
1195.976109
 20
-146.870307
 30
0.0
 11
1203.976109
 21
-146.870307
 31
0.0
  0
LINE
  8
0
  6
BYLAYER
 62
     7
 10
1195.976109
 20
-148.870307
 30
0.0
 11
1203.976109
 21
-148.870307
 31
0.0
  0
LINE
  8
0
  6
BYLAYER
 62
     7
 10
1195.976109
 20
-156.870307
 30
0.0
 11
1203.976109
 21
-156.870307
 31
0.0
  0
LINE
  8
0
  6
BYLAYER
 62
     7
 10
1203.976109
 20
-138.870307
 30
0.0
 11
1203.976109
 21
-146.870307
 31
0.0
  0
LINE
  8
0
  6
BYLAYER
 62
     7
 10
1203.976109
 20
-148.870307
 30
0.0
 11
1203.976109
 21
-156.870307
 31
0.0
  0
LINE
  8
0
  6
BYLAYER
 62
     7
 10
1195.976109
 20
-128.870307
 30
0.0
 11
1203.976109
 21
-128.870307
 31
0.0
  0
LINE
  8
0
  6
BYLAYER
 62
     7
 10
1195.976109
 20
-136.870307
 30
0.0
 11
1195.976109
 21
-128.870307
 31
0.0
  0
LINE
  8
0
  6
BYLAYER
 62
     7
 10
1195.976109
 20
-136.870307
 30
0.0
 11
1203.976109
 21
-136.870307
 31
0.0
  0
LINE
  8
0
  6
BYLAYER
 62
     7
 10
1203.976109
 20
-128.870307
 30
0.0
 11
1203.976109
 21
-136.870307
 31
0.0
  0
LINE
  8
0
  6
BYLAYER
 62
     7
 10
1205.976109
 20
-138.870307
 30
0.0
 11
1213.976109
 21
-138.870307
 31
0.0
  0
LINE
  8
0
  6
BYLAYER
 62
     7
 10
1205.976109
 20
-146.870307
 30
0.0
 11
1205.976109
 21
-138.870307
 31
0.0
  0
LINE
  8
0
  6
BYLAYER
 62
     7
 10
1205.976109
 20
-146.870307
 30
0.0
 11
1213.976109
 21
-146.870307
 31
0.0
  0
LINE
  8
0
  6
BYLAYER
 62
     7
 10
1213.976109
 20
-138.870307
 30
0.0
 11
1213.976109
 21
-146.870307
 31
0.0
  0
LINE
  8
0
  6
BYLAYER
 62
     7
 10
1205.976109
 20
-128.870307
 30
0.0
 11
1213.976109
 21
-128.870307
 31
0.0
  0
LINE
  8
0
  6
BYLAYER
 62
     7
 10
1205.976109
 20
-136.870307
 30
0.0
 11
1205.976109
 21
-128.870307
 31
0.0
  0
LINE
  8
0
  6
BYLAYER
 62
     7
 10
1205.976109
 20
-136.870307
 30
0.0
 11
1213.976109
 21
-136.870307
 31
0.0
  0
LINE
  8
0
  6
BYLAYER
 62
     7
 10
1213.976109
 20
-128.870307
 30
0.0
 11
1213.976109
 21
-136.870307
 31
0.0
  0
LINE
  8
0
  6
BYLAYER
 62
     7
 10
1215.976109
 20
-138.870307
 30
0.0
 11
1223.976109
 21
-138.870307
 31
0.0
  0
LINE
  8
0
  6
BYLAYER
 62
     7
 10
1215.976109
 20
-146.870307
 30
0.0
 11
1215.976109
 21
-138.870307
 31
0.0
  0
LINE
  8
0
  6
BYLAYER
 62
     7
 10
1215.976109
 20
-146.870307
 30
0.0
 11
1223.976109
 21
-146.870307
 31
0.0
  0
LINE
  8
0
  6
BYLAYER
 62
     7
 10
1223.976109
 20
-138.870307
 30
0.0
 11
1223.976109
 21
-146.870307
 31
0.0
  0
LINE
  8
0
  6
BYLAYER
 62
     7
 10
1215.976109
 20
-128.870307
 30
0.0
 11
1223.976109
 21
-128.870307
 31
0.0
  0
LINE
  8
0
  6
BYLAYER
 62
     7
 10
1215.976109
 20
-136.870307
 30
0.0
 11
1215.976109
 21
-128.870307
 31
0.0
  0
LINE
  8
0
  6
BYLAYER
 62
     7
 10
1215.976109
 20
-136.870307
 30
0.0
 11
1223.976109
 21
-136.870307
 31
0.0
  0
LINE
  8
0
  6
BYLAYER
 62
     7
 10
1223.976109
 20
-128.870307
 30
0.0
 11
1223.976109
 21
-136.870307
 31
0.0
  0
LINE
  8
0
  6
BYLAYER
 62
     7
 10
1175.976109
 20
-176.870307
 30
0.0
 11
1175.976109
 21
-168.870307
 31
0.0
  0
LINE
  8
0
  6
BYLAYER
 62
     7
 10
1183.976109
 20
-168.870307
 30
0.0
 11
1183.976109
 21
-176.870307
 31
0.0
  0
LINE
  8
0
  6
BYLAYER
 62
     7
 10
1185.976109
 20
-168.870307
 30
0.0
 11
1185.976109
 21
-176.870307
 31
0.0
  0
LINE
  8
0
  6
BYLAYER
 62
     7
 10
1185.976109
 20
-168.870307
 30
0.0
 11
1193.814108
 21
-168.870307
 31
0.0
  0
LINE
  8
0
  6
BYLAYER
 62
     7
 10
1175.976109
 20
-168.870307
 30
0.0
 11
1183.976109
 21
-168.870307
 31
0.0
  0
LINE
  8
0
  6
BYLAYER
 62
     7
 10
1185.976109
 20
-176.870307
 30
0.0
 11
1193.814108
 21
-176.870307
 31
0.0
  0
LINE
  8
0
  6
BYLAYER
 62
     7
 10
1175.976109
 20
-176.870307
 30
0.0
 11
1183.976109
 21
-176.870307
 31
0.0
  0
LINE
  8
0
  6
BYLAYER
 62
     7
 10
1193.814108
 20
-168.870307
 30
0.0
 11
1193.814108
 21
-176.870307
 31
0.0
  0
LINE
  8
0
  6
BYLAYER
 62
     7
 10
1195.976109
 20
-166.870307
 30
0.0
 11
1195.976109
 21
-158.870307
 31
0.0
  0
LINE
  8
0
  6
BYLAYER
 62
     7
 10
1195.976109
 20
-158.870307
 30
0.0
 11
1203.976109
 21
-158.870307
 31
0.0
  0
LINE
  8
0
  6
BYLAYER
 62
     7
 10
1195.976109
 20
-166.870307
 30
0.0
 11
1203.976109
 21
-166.870307
 31
0.0
  0
LINE
  8
0
  6
BYLAYER
 62
     7
 10
1203.976109
 20
-158.870307
 30
0.0
 11
1203.976109
 21
-166.870307
 31
0.0
  0
LINE
  8
0
  6
BYLAYER
 62
     7
 10
1195.976109
 20
-176.870307
 30
0.0
 11
1195.976109
 21
-168.870307
 31
0.0
  0
LINE
  8
0
  6
BYLAYER
 62
     7
 10
1195.976109
 20
-168.870307
 30
0.0
 11
1203.976109
 21
-168.870307
 31
0.0
  0
LINE
  8
0
  6
BYLAYER
 62
     7
 10
1195.976109
 20
-176.870307
 30
0.0
 11
1203.976109
 21
-176.870307
 31
0.0
  0
LINE
  8
0
  6
BYLAYER
 62
     7
 10
1203.976109
 20
-168.870307
 30
0.0
 11
1203.976109
 21
-176.870307
 31
0.0
  0
LINE
  8
0
  6
BYLAYER
 62
     7
 10
1205.976109
 20
-156.870307
 30
0.0
 11
1205.976109
 21
-148.870307
 31
0.0
  0
LINE
  8
0
  6
BYLAYER
 62
     7
 10
1205.976109
 20
-148.870307
 30
0.0
 11
1213.976109
 21
-148.870307
 31
0.0
  0
LINE
  8
0
  6
BYLAYER
 62
     7
 10
1205.976109
 20
-156.870307
 30
0.0
 11
1213.976109
 21
-156.870307
 31
0.0
  0
LINE
  8
0
  6
BYLAYER
 62
     7
 10
1213.976109
 20
-148.870307
 30
0.0
 11
1213.976109
 21
-156.870307
 31
0.0
  0
LINE
  8
0
  6
BYLAYER
 62
     7
 10
1205.976109
 20
-166.870307
 30
0.0
 11
1205.976109
 21
-158.870307
 31
0.0
  0
LINE
  8
0
  6
BYLAYER
 62
     7
 10
1205.976109
 20
-158.870307
 30
0.0
 11
1213.976109
 21
-158.870307
 31
0.0
  0
LINE
  8
0
  6
BYLAYER
 62
     7
 10
1205.976109
 20
-166.870307
 30
0.0
 11
1213.976109
 21
-166.870307
 31
0.0
  0
LINE
  8
0
  6
BYLAYER
 62
     7
 10
1213.976109
 20
-158.870307
 30
0.0
 11
1213.976109
 21
-166.870307
 31
0.0
  0
LINE
  8
0
  6
BYLAYER
 62
     7
 10
1215.976109
 20
-156.870307
 30
0.0
 11
1215.976109
 21
-148.870307
 31
0.0
  0
LINE
  8
0
  6
BYLAYER
 62
     7
 10
1215.976109
 20
-148.870307
 30
0.0
 11
1223.976109
 21
-148.870307
 31
0.0
  0
LINE
  8
0
  6
BYLAYER
 62
     7
 10
1215.976109
 20
-156.870307
 30
0.0
 11
1223.976109
 21
-156.870307
 31
0.0
  0
LINE
  8
0
  6
BYLAYER
 62
     7
 10
1223.976109
 20
-148.870307
 30
0.0
 11
1223.976109
 21
-156.870307
 31
0.0
  0
LINE
  8
0
  6
BYLAYER
 62
     7
 10
1225.976109
 20
-138.870307
 30
0.0
 11
1233.976109
 21
-138.870307
 31
0.0
  0
LINE
  8
0
  6
BYLAYER
 62
     7
 10
1225.976109
 20
-146.870307
 30
0.0
 11
1225.976109
 21
-138.870307
 31
0.0
  0
LINE
  8
0
  6
BYLAYER
 62
     7
 10
1225.976109
 20
-146.870307
 30
0.0
 11
1233.976109
 21
-146.870307
 31
0.0
  0
LINE
  8
0
  6
BYLAYER
 62
     7
 10
1233.976109
 20
-138.870307
 30
0.0
 11
1233.976109
 21
-146.870307
 31
0.0
  0
LINE
  8
0
  6
BYLAYER
 62
     7
 10
1225.976109
 20
-128.870307
 30
0.0
 11
1233.976109
 21
-128.870307
 31
0.0
  0
LINE
  8
0
  6
BYLAYER
 62
     7
 10
1225.976109
 20
-136.870307
 30
0.0
 11
1225.976109
 21
-128.870307
 31
0.0
  0
LINE
  8
0
  6
BYLAYER
 62
     7
 10
1225.976109
 20
-136.870307
 30
0.0
 11
1233.976109
 21
-136.870307
 31
0.0
  0
LINE
  8
0
  6
BYLAYER
 62
     7
 10
1233.976109
 20
-128.870307
 30
0.0
 11
1233.976109
 21
-136.870307
 31
0.0
  0
LINE
  8
0
  6
BYLAYER
 62
     7
 10
1225.976109
 20
-156.870307
 30
0.0
 11
1225.976109
 21
-148.870307
 31
0.0
  0
LINE
  8
0
  6
BYLAYER
 62
     7
 10
1225.976109
 20
-148.870307
 30
0.0
 11
1233.976109
 21
-148.870307
 31
0.0
  0
LINE
  8
0
  6
BYLAYER
 62
     7
 10
1225.976109
 20
-156.870307
 30
0.0
 11
1233.976109
 21
-156.870307
 31
0.0
  0
LINE
  8
0
  6
BYLAYER
 62
     7
 10
1233.976109
 20
-148.870307
 30
0.0
 11
1233.976109
 21
-156.870307
 31
0.0
  0
LINE
  8
0
  6
BYLAYER
 62
     7
 10
1175.976109
 20
-186.870307
 30
0.0
 11
1175.976109
 21
-178.870307
 31
0.0
  0
LINE
  8
0
  6
BYLAYER
 62
     7
 10
1183.976109
 20
-178.870307
 30
0.0
 11
1183.976109
 21
-186.870307
 31
0.0
  0
LINE
  8
0
  6
BYLAYER
 62
     7
 10
1185.976109
 20
-178.870307
 30
0.0
 11
1185.976109
 21
-186.870307
 31
0.0
  0
LINE
  8
0
  6
BYLAYER
 62
     7
 10
1185.976109
 20
-178.870307
 30
0.0
 11
1193.814108
 21
-178.870307
 31
0.0
  0
LINE
  8
0
  6
BYLAYER
 62
     7
 10
1175.976109
 20
-178.870307
 30
0.0
 11
1183.976109
 21
-178.870307
 31
0.0
  0
LINE
  8
0
  6
BYLAYER
 62
     7
 10
1185.976109
 20
-186.870307
 30
0.0
 11
1193.814108
 21
-186.870307
 31
0.0
  0
LINE
  8
0
  6
BYLAYER
 62
     7
 10
1175.976109
 20
-186.870307
 30
0.0
 11
1183.976109
 21
-186.870307
 31
0.0
  0
LINE
  8
0
  6
BYLAYER
 62
     7
 10
1193.814108
 20
-178.870307
 30
0.0
 11
1193.814108
 21
-186.870307
 31
0.0
  0
LINE
  8
0
  6
BYLAYER
 62
     7
 10
1195.976109
 20
-186.870307
 30
0.0
 11
1195.976109
 21
-178.870307
 31
0.0
  0
LINE
  8
0
  6
BYLAYER
 62
     7
 10
1195.976109
 20
-178.870307
 30
0.0
 11
1203.976109
 21
-178.870307
 31
0.0
  0
LINE
  8
0
  6
BYLAYER
 62
     7
 10
1195.976109
 20
-186.870307
 30
0.0
 11
1203.976109
 21
-186.870307
 31
0.0
  0
LINE
  8
0
  6
BYLAYER
 62
     7
 10
1203.976109
 20
-178.870307
 30
0.0
 11
1203.976109
 21
-186.870307
 31
0.0
  0
LINE
  8
0
  6
BYLAYER
 62
     7
 10
1205.976109
 20
-176.870307
 30
0.0
 11
1205.976109
 21
-168.870307
 31
0.0
  0
LINE
  8
0
  6
BYLAYER
 62
     7
 10
1205.976109
 20
-168.870307
 30
0.0
 11
1213.976109
 21
-168.870307
 31
0.0
  0
LINE
  8
0
  6
BYLAYER
 62
     7
 10
1205.976109
 20
-176.870307
 30
0.0
 11
1213.976109
 21
-176.870307
 31
0.0
  0
LINE
  8
0
  6
BYLAYER
 62
     7
 10
1213.976109
 20
-168.870307
 30
0.0
 11
1213.976109
 21
-176.870307
 31
0.0
  0
LINE
  8
0
  6
BYLAYER
 62
     7
 10
1215.976109
 20
-166.870307
 30
0.0
 11
1215.976109
 21
-158.870307
 31
0.0
  0
LINE
  8
0
  6
BYLAYER
 62
     7
 10
1215.976109
 20
-158.870307
 30
0.0
 11
1223.976109
 21
-158.870307
 31
0.0
  0
LINE
  8
0
  6
BYLAYER
 62
     7
 10
1215.976109
 20
-166.870307
 30
0.0
 11
1223.976109
 21
-166.870307
 31
0.0
  0
LINE
  8
0
  6
BYLAYER
 62
     7
 10
1223.976109
 20
-158.870307
 30
0.0
 11
1223.976109
 21
-166.870307
 31
0.0
  0
LINE
  8
0
  6
BYLAYER
 62
     7
 10
1173.976109
 20
-98.870307
 30
0.0
 11
1173.976109
 21
-106.870307
 31
0.0
  0
LINE
  8
0
  6
BYLAYER
 62
     7
 10
1173.976109
 20
-88.870307
 30
0.0
 11
1173.976109
 21
-96.870307
 31
0.0
  0
LINE
  8
0
  6
BYLAYER
 62
     7
 10
1165.976109
 20
-96.870307
 30
0.0
 11
1165.976109
 21
-88.870307
 31
0.0
  0
LINE
  8
0
  6
BYLAYER
 62
     7
 10
1163.976109
 20
-96.870307
 30
0.0
 11
1163.976109
 21
-88.870307
 31
0.0
  0
LINE
  8
0
  6
BYLAYER
 62
     7
 10
1173.976109
 20
-106.870307
 30
0.0
 11
1165.976109
 21
-106.870307
 31
0.0
  0
LINE
  8
0
  6
BYLAYER
 62
     7
 10
1173.976109
 20
-98.870307
 30
0.0
 11
1165.976109
 21
-98.870307
 31
0.0
  0
LINE
  8
0
  6
BYLAYER
 62
     7
 10
1163.976109
 20
-96.870307
 30
0.0
 11
1156.138110
 21
-96.870307
 31
0.0
  0
LINE
  8
0
  6
BYLAYER
 62
     7
 10
1173.976109
 20
-96.870307
 30
0.0
 11
1165.976109
 21
-96.870307
 31
0.0
  0
LINE
  8
0
  6
BYLAYER
 62
     7
 10
1163.976109
 20
-88.870307
 30
0.0
 11
1156.138110
 21
-88.870307
 31
0.0
  0
LINE
  8
0
  6
BYLAYER
 62
     7
 10
1173.976109
 20
-88.870307
 30
0.0
 11
1165.976109
 21
-88.870307
 31
0.0
  0
LINE
  8
0
  6
BYLAYER
 62
     7
 10
1156.138110
 20
-96.870307
 30
0.0
 11
1156.138110
 21
-88.870307
 31
0.0
  0
LINE
  8
0
  6
BYLAYER
 62
     7
 10
1165.976109
 20
-106.870307
 30
0.0
 11
1165.976109
 21
-98.870307
 31
0.0
  0
LINE
  8
0
  6
BYLAYER
 62
     7
 10
1163.976109
 20
-98.870307
 30
0.0
 11
1163.976109
 21
-106.870307
 31
0.0
  0
LINE
  8
0
  6
BYLAYER
 62
     7
 10
1163.976109
 20
-106.870307
 30
0.0
 11
1155.976109
 21
-106.870307
 31
0.0
  0
LINE
  8
0
  6
BYLAYER
 62
     7
 10
1163.976109
 20
-98.870307
 30
0.0
 11
1155.976109
 21
-98.870307
 31
0.0
  0
LINE
  8
0
  6
BYLAYER
 62
     7
 10
1155.976109
 20
-106.870307
 30
0.0
 11
1155.976109
 21
-98.870307
 31
0.0
  0
LINE
  8
0
  6
BYLAYER
 62
     7
 10
1153.976109
 20
-116.870307
 30
0.0
 11
1145.976109
 21
-116.870307
 31
0.0
  0
LINE
  8
0
  6
BYLAYER
 62
     7
 10
1153.976109
 20
-98.870307
 30
0.0
 11
1153.976109
 21
-106.870307
 31
0.0
  0
LINE
  8
0
  6
BYLAYER
 62
     7
 10
1153.976109
 20
-108.870307
 30
0.0
 11
1153.976109
 21
-116.870307
 31
0.0
  0
LINE
  8
0
  6
BYLAYER
 62
     7
 10
1153.976109
 20
-108.870307
 30
0.0
 11
1145.976109
 21
-108.870307
 31
0.0
  0
LINE
  8
0
  6
BYLAYER
 62
     7
 10
1153.976109
 20
-106.870307
 30
0.0
 11
1145.976109
 21
-106.870307
 31
0.0
  0
LINE
  8
0
  6
BYLAYER
 62
     7
 10
1153.976109
 20
-98.870307
 30
0.0
 11
1145.976109
 21
-98.870307
 31
0.0
  0
LINE
  8
0
  6
BYLAYER
 62
     7
 10
1145.976109
 20
-116.870307
 30
0.0
 11
1145.976109
 21
-108.870307
 31
0.0
  0
LINE
  8
0
  6
BYLAYER
 62
     7
 10
1145.976109
 20
-106.870307
 30
0.0
 11
1145.976109
 21
-98.870307
 31
0.0
  0
LINE
  8
0
  6
BYLAYER
 62
     7
 10
1153.976109
 20
-126.870307
 30
0.0
 11
1145.976109
 21
-126.870307
 31
0.0
  0
LINE
  8
0
  6
BYLAYER
 62
     7
 10
1153.976109
 20
-118.870307
 30
0.0
 11
1153.976109
 21
-126.870307
 31
0.0
  0
LINE
  8
0
  6
BYLAYER
 62
     7
 10
1153.976109
 20
-118.870307
 30
0.0
 11
1145.976109
 21
-118.870307
 31
0.0
  0
LINE
  8
0
  6
BYLAYER
 62
     7
 10
1145.976109
 20
-126.870307
 30
0.0
 11
1145.976109
 21
-118.870307
 31
0.0
  0
LINE
  8
0
  6
BYLAYER
 62
     7
 10
1143.976109
 20
-116.870307
 30
0.0
 11
1135.976109
 21
-116.870307
 31
0.0
  0
LINE
  8
0
  6
BYLAYER
 62
     7
 10
1143.976109
 20
-108.870307
 30
0.0
 11
1143.976109
 21
-116.870307
 31
0.0
  0
LINE
  8
0
  6
BYLAYER
 62
     7
 10
1143.976109
 20
-108.870307
 30
0.0
 11
1135.976109
 21
-108.870307
 31
0.0
  0
LINE
  8
0
  6
BYLAYER
 62
     7
 10
1135.976109
 20
-116.870307
 30
0.0
 11
1135.976109
 21
-108.870307
 31
0.0
  0
LINE
  8
0
  6
BYLAYER
 62
     7
 10
1143.976109
 20
-126.870307
 30
0.0
 11
1135.976109
 21
-126.870307
 31
0.0
  0
LINE
  8
0
  6
BYLAYER
 62
     7
 10
1143.976109
 20
-118.870307
 30
0.0
 11
1143.976109
 21
-126.870307
 31
0.0
  0
LINE
  8
0
  6
BYLAYER
 62
     7
 10
1143.976109
 20
-118.870307
 30
0.0
 11
1135.976109
 21
-118.870307
 31
0.0
  0
LINE
  8
0
  6
BYLAYER
 62
     7
 10
1135.976109
 20
-126.870307
 30
0.0
 11
1135.976109
 21
-118.870307
 31
0.0
  0
LINE
  8
0
  6
BYLAYER
 62
     7
 10
1133.976109
 20
-116.870307
 30
0.0
 11
1125.976109
 21
-116.870307
 31
0.0
  0
LINE
  8
0
  6
BYLAYER
 62
     7
 10
1133.976109
 20
-108.870307
 30
0.0
 11
1133.976109
 21
-116.870307
 31
0.0
  0
LINE
  8
0
  6
BYLAYER
 62
     7
 10
1133.976109
 20
-108.870307
 30
0.0
 11
1125.976109
 21
-108.870307
 31
0.0
  0
LINE
  8
0
  6
BYLAYER
 62
     7
 10
1125.976109
 20
-116.870307
 30
0.0
 11
1125.976109
 21
-108.870307
 31
0.0
  0
LINE
  8
0
  6
BYLAYER
 62
     7
 10
1133.976109
 20
-126.870307
 30
0.0
 11
1125.976109
 21
-126.870307
 31
0.0
  0
LINE
  8
0
  6
BYLAYER
 62
     7
 10
1133.976109
 20
-118.870307
 30
0.0
 11
1133.976109
 21
-126.870307
 31
0.0
  0
LINE
  8
0
  6
BYLAYER
 62
     7
 10
1133.976109
 20
-118.870307
 30
0.0
 11
1125.976109
 21
-118.870307
 31
0.0
  0
LINE
  8
0
  6
BYLAYER
 62
     7
 10
1125.976109
 20
-126.870307
 30
0.0
 11
1125.976109
 21
-118.870307
 31
0.0
  0
LINE
  8
0
  6
BYLAYER
 62
     7
 10
1173.976109
 20
-78.870307
 30
0.0
 11
1173.976109
 21
-86.870307
 31
0.0
  0
LINE
  8
0
  6
BYLAYER
 62
     7
 10
1165.976109
 20
-86.870307
 30
0.0
 11
1165.976109
 21
-78.870307
 31
0.0
  0
LINE
  8
0
  6
BYLAYER
 62
     7
 10
1163.976109
 20
-86.870307
 30
0.0
 11
1163.976109
 21
-78.870307
 31
0.0
  0
LINE
  8
0
  6
BYLAYER
 62
     7
 10
1163.976109
 20
-86.870307
 30
0.0
 11
1156.138110
 21
-86.870307
 31
0.0
  0
LINE
  8
0
  6
BYLAYER
 62
     7
 10
1173.976109
 20
-86.870307
 30
0.0
 11
1165.976109
 21
-86.870307
 31
0.0
  0
LINE
  8
0
  6
BYLAYER
 62
     7
 10
1163.976109
 20
-78.870307
 30
0.0
 11
1156.138110
 21
-78.870307
 31
0.0
  0
LINE
  8
0
  6
BYLAYER
 62
     7
 10
1173.976109
 20
-78.870307
 30
0.0
 11
1165.976109
 21
-78.870307
 31
0.0
  0
LINE
  8
0
  6
BYLAYER
 62
     7
 10
1156.138110
 20
-86.870307
 30
0.0
 11
1156.138110
 21
-78.870307
 31
0.0
  0
LINE
  8
0
  6
BYLAYER
 62
     7
 10
1153.976109
 20
-88.870307
 30
0.0
 11
1153.976109
 21
-96.870307
 31
0.0
  0
LINE
  8
0
  6
BYLAYER
 62
     7
 10
1153.976109
 20
-96.870307
 30
0.0
 11
1145.976109
 21
-96.870307
 31
0.0
  0
LINE
  8
0
  6
BYLAYER
 62
     7
 10
1153.976109
 20
-88.870307
 30
0.0
 11
1145.976109
 21
-88.870307
 31
0.0
  0
LINE
  8
0
  6
BYLAYER
 62
     7
 10
1145.976109
 20
-96.870307
 30
0.0
 11
1145.976109
 21
-88.870307
 31
0.0
  0
LINE
  8
0
  6
BYLAYER
 62
     7
 10
1153.976109
 20
-78.870307
 30
0.0
 11
1153.976109
 21
-86.870307
 31
0.0
  0
LINE
  8
0
  6
BYLAYER
 62
     7
 10
1153.976109
 20
-86.870307
 30
0.0
 11
1145.976109
 21
-86.870307
 31
0.0
  0
LINE
  8
0
  6
BYLAYER
 62
     7
 10
1153.976109
 20
-78.870307
 30
0.0
 11
1145.976109
 21
-78.870307
 31
0.0
  0
LINE
  8
0
  6
BYLAYER
 62
     7
 10
1145.976109
 20
-86.870307
 30
0.0
 11
1145.976109
 21
-78.870307
 31
0.0
  0
LINE
  8
0
  6
BYLAYER
 62
     7
 10
1143.976109
 20
-98.870307
 30
0.0
 11
1143.976109
 21
-106.870307
 31
0.0
  0
LINE
  8
0
  6
BYLAYER
 62
     7
 10
1143.976109
 20
-106.870307
 30
0.0
 11
1135.976109
 21
-106.870307
 31
0.0
  0
LINE
  8
0
  6
BYLAYER
 62
     7
 10
1143.976109
 20
-98.870307
 30
0.0
 11
1135.976109
 21
-98.870307
 31
0.0
  0
LINE
  8
0
  6
BYLAYER
 62
     7
 10
1135.976109
 20
-106.870307
 30
0.0
 11
1135.976109
 21
-98.870307
 31
0.0
  0
LINE
  8
0
  6
BYLAYER
 62
     7
 10
1143.976109
 20
-88.870307
 30
0.0
 11
1143.976109
 21
-96.870307
 31
0.0
  0
LINE
  8
0
  6
BYLAYER
 62
     7
 10
1143.976109
 20
-96.870307
 30
0.0
 11
1135.976109
 21
-96.870307
 31
0.0
  0
LINE
  8
0
  6
BYLAYER
 62
     7
 10
1143.976109
 20
-88.870307
 30
0.0
 11
1135.976109
 21
-88.870307
 31
0.0
  0
LINE
  8
0
  6
BYLAYER
 62
     7
 10
1135.976109
 20
-96.870307
 30
0.0
 11
1135.976109
 21
-88.870307
 31
0.0
  0
LINE
  8
0
  6
BYLAYER
 62
     7
 10
1133.976109
 20
-98.870307
 30
0.0
 11
1133.976109
 21
-106.870307
 31
0.0
  0
LINE
  8
0
  6
BYLAYER
 62
     7
 10
1133.976109
 20
-106.870307
 30
0.0
 11
1125.976109
 21
-106.870307
 31
0.0
  0
LINE
  8
0
  6
BYLAYER
 62
     7
 10
1133.976109
 20
-98.870307
 30
0.0
 11
1125.976109
 21
-98.870307
 31
0.0
  0
LINE
  8
0
  6
BYLAYER
 62
     7
 10
1125.976109
 20
-106.870307
 30
0.0
 11
1125.976109
 21
-98.870307
 31
0.0
  0
LINE
  8
0
  6
BYLAYER
 62
     7
 10
1123.976109
 20
-116.870307
 30
0.0
 11
1115.976109
 21
-116.870307
 31
0.0
  0
LINE
  8
0
  6
BYLAYER
 62
     7
 10
1123.976109
 20
-108.870307
 30
0.0
 11
1123.976109
 21
-116.870307
 31
0.0
  0
LINE
  8
0
  6
BYLAYER
 62
     7
 10
1123.976109
 20
-108.870307
 30
0.0
 11
1115.976109
 21
-108.870307
 31
0.0
  0
LINE
  8
0
  6
BYLAYER
 62
     7
 10
1115.976109
 20
-116.870307
 30
0.0
 11
1115.976109
 21
-108.870307
 31
0.0
  0
LINE
  8
0
  6
BYLAYER
 62
     7
 10
1123.976109
 20
-126.870307
 30
0.0
 11
1115.976109
 21
-126.870307
 31
0.0
  0
LINE
  8
0
  6
BYLAYER
 62
     7
 10
1123.976109
 20
-118.870307
 30
0.0
 11
1123.976109
 21
-126.870307
 31
0.0
  0
LINE
  8
0
  6
BYLAYER
 62
     7
 10
1123.976109
 20
-118.870307
 30
0.0
 11
1115.976109
 21
-118.870307
 31
0.0
  0
LINE
  8
0
  6
BYLAYER
 62
     7
 10
1115.976109
 20
-126.870307
 30
0.0
 11
1115.976109
 21
-118.870307
 31
0.0
  0
LINE
  8
0
  6
BYLAYER
 62
     7
 10
1123.976109
 20
-98.870307
 30
0.0
 11
1123.976109
 21
-106.870307
 31
0.0
  0
LINE
  8
0
  6
BYLAYER
 62
     7
 10
1123.976109
 20
-106.870307
 30
0.0
 11
1115.976109
 21
-106.870307
 31
0.0
  0
LINE
  8
0
  6
BYLAYER
 62
     7
 10
1123.976109
 20
-98.870307
 30
0.0
 11
1115.976109
 21
-98.870307
 31
0.0
  0
LINE
  8
0
  6
BYLAYER
 62
     7
 10
1115.976109
 20
-106.870307
 30
0.0
 11
1115.976109
 21
-98.870307
 31
0.0
  0
LINE
  8
0
  6
BYLAYER
 62
     7
 10
1173.976109
 20
-68.870307
 30
0.0
 11
1173.976109
 21
-76.870307
 31
0.0
  0
LINE
  8
0
  6
BYLAYER
 62
     7
 10
1165.976109
 20
-76.870307
 30
0.0
 11
1165.976109
 21
-68.870307
 31
0.0
  0
LINE
  8
0
  6
BYLAYER
 62
     7
 10
1163.976109
 20
-76.870307
 30
0.0
 11
1163.976109
 21
-68.870307
 31
0.0
  0
LINE
  8
0
  6
BYLAYER
 62
     7
 10
1163.976109
 20
-76.870307
 30
0.0
 11
1156.138110
 21
-76.870307
 31
0.0
  0
LINE
  8
0
  6
BYLAYER
 62
     7
 10
1173.976109
 20
-76.870307
 30
0.0
 11
1165.976109
 21
-76.870307
 31
0.0
  0
LINE
  8
0
  6
BYLAYER
 62
     7
 10
1163.976109
 20
-68.870307
 30
0.0
 11
1156.138110
 21
-68.870307
 31
0.0
  0
LINE
  8
0
  6
BYLAYER
 62
     7
 10
1173.976109
 20
-68.870307
 30
0.0
 11
1165.976109
 21
-68.870307
 31
0.0
  0
LINE
  8
0
  6
BYLAYER
 62
     7
 10
1156.138110
 20
-76.870307
 30
0.0
 11
1156.138110
 21
-68.870307
 31
0.0
  0
LINE
  8
0
  6
BYLAYER
 62
     7
 10
1153.976109
 20
-68.870307
 30
0.0
 11
1153.976109
 21
-76.870307
 31
0.0
  0
LINE
  8
0
  6
BYLAYER
 62
     7
 10
1153.976109
 20
-76.870307
 30
0.0
 11
1145.976109
 21
-76.870307
 31
0.0
  0
LINE
  8
0
  6
BYLAYER
 62
     7
 10
1153.976109
 20
-68.870307
 30
0.0
 11
1145.976109
 21
-68.870307
 31
0.0
  0
LINE
  8
0
  6
BYLAYER
 62
     7
 10
1145.976109
 20
-76.870307
 30
0.0
 11
1145.976109
 21
-68.870307
 31
0.0
  0
LINE
  8
0
  6
BYLAYER
 62
     7
 10
1143.976109
 20
-78.870307
 30
0.0
 11
1143.976109
 21
-86.870307
 31
0.0
  0
LINE
  8
0
  6
BYLAYER
 62
     7
 10
1143.976109
 20
-86.870307
 30
0.0
 11
1135.976109
 21
-86.870307
 31
0.0
  0
LINE
  8
0
  6
BYLAYER
 62
     7
 10
1143.976109
 20
-78.870307
 30
0.0
 11
1135.976109
 21
-78.870307
 31
0.0
  0
LINE
  8
0
  6
BYLAYER
 62
     7
 10
1135.976109
 20
-86.870307
 30
0.0
 11
1135.976109
 21
-78.870307
 31
0.0
  0
LINE
  8
0
  6
BYLAYER
 62
     7
 10
1133.976109
 20
-88.870307
 30
0.0
 11
1133.976109
 21
-96.870307
 31
0.0
  0
LINE
  8
0
  6
BYLAYER
 62
     7
 10
1133.976109
 20
-96.870307
 30
0.0
 11
1125.976109
 21
-96.870307
 31
0.0
  0
LINE
  8
0
  6
BYLAYER
 62
     7
 10
1133.976109
 20
-88.870307
 30
0.0
 11
1125.976109
 21
-88.870307
 31
0.0
  0
LINE
  8
0
  6
BYLAYER
 62
     7
 10
1125.976109
 20
-96.870307
 30
0.0
 11
1125.976109
 21
-88.870307
 31
0.0
  0
LINE
  8
0
  6
BYLAYER
 62
     7
 10
1173.976109
 20
-156.870307
 30
0.0
 11
1173.976109
 21
-148.870307
 31
0.0
  0
LINE
  8
0
  6
BYLAYER
 62
     7
 10
1173.976109
 20
-166.870307
 30
0.0
 11
1173.976109
 21
-158.870307
 31
0.0
  0
LINE
  8
0
  6
BYLAYER
 62
     7
 10
1165.976109
 20
-158.870307
 30
0.0
 11
1165.976109
 21
-166.870307
 31
0.0
  0
LINE
  8
0
  6
BYLAYER
 62
     7
 10
1163.976109
 20
-158.870307
 30
0.0
 11
1163.976109
 21
-166.870307
 31
0.0
  0
LINE
  8
0
  6
BYLAYER
 62
     7
 10
1173.976109
 20
-148.870307
 30
0.0
 11
1165.976109
 21
-148.870307
 31
0.0
  0
LINE
  8
0
  6
BYLAYER
 62
     7
 10
1173.976109
 20
-156.870307
 30
0.0
 11
1165.976109
 21
-156.870307
 31
0.0
  0
LINE
  8
0
  6
BYLAYER
 62
     7
 10
1163.976109
 20
-158.870307
 30
0.0
 11
1156.138110
 21
-158.870307
 31
0.0
  0
LINE
  8
0
  6
BYLAYER
 62
     7
 10
1173.976109
 20
-158.870307
 30
0.0
 11
1165.976109
 21
-158.870307
 31
0.0
  0
LINE
  8
0
  6
BYLAYER
 62
     7
 10
1163.976109
 20
-166.870307
 30
0.0
 11
1156.138110
 21
-166.870307
 31
0.0
  0
LINE
  8
0
  6
BYLAYER
 62
     7
 10
1173.976109
 20
-166.870307
 30
0.0
 11
1165.976109
 21
-166.870307
 31
0.0
  0
LINE
  8
0
  6
BYLAYER
 62
     7
 10
1156.138110
 20
-158.870307
 30
0.0
 11
1156.138110
 21
-166.870307
 31
0.0
  0
LINE
  8
0
  6
BYLAYER
 62
     7
 10
1165.976109
 20
-148.870307
 30
0.0
 11
1165.976109
 21
-156.870307
 31
0.0
  0
LINE
  8
0
  6
BYLAYER
 62
     7
 10
1163.976109
 20
-156.870307
 30
0.0
 11
1163.976109
 21
-148.870307
 31
0.0
  0
LINE
  8
0
  6
BYLAYER
 62
     7
 10
1163.976109
 20
-148.870307
 30
0.0
 11
1155.976109
 21
-148.870307
 31
0.0
  0
LINE
  8
0
  6
BYLAYER
 62
     7
 10
1163.976109
 20
-156.870307
 30
0.0
 11
1155.976109
 21
-156.870307
 31
0.0
  0
LINE
  8
0
  6
BYLAYER
 62
     7
 10
1155.976109
 20
-148.870307
 30
0.0
 11
1155.976109
 21
-156.870307
 31
0.0
  0
LINE
  8
0
  6
BYLAYER
 62
     7
 10
1153.976109
 20
-138.870307
 30
0.0
 11
1145.976109
 21
-138.870307
 31
0.0
  0
LINE
  8
0
  6
BYLAYER
 62
     7
 10
1153.976109
 20
-156.870307
 30
0.0
 11
1153.976109
 21
-148.870307
 31
0.0
  0
LINE
  8
0
  6
BYLAYER
 62
     7
 10
1153.976109
 20
-146.870307
 30
0.0
 11
1153.976109
 21
-138.870307
 31
0.0
  0
LINE
  8
0
  6
BYLAYER
 62
     7
 10
1153.976109
 20
-146.870307
 30
0.0
 11
1145.976109
 21
-146.870307
 31
0.0
  0
LINE
  8
0
  6
BYLAYER
 62
     7
 10
1153.976109
 20
-148.870307
 30
0.0
 11
1145.976109
 21
-148.870307
 31
0.0
  0
LINE
  8
0
  6
BYLAYER
 62
     7
 10
1153.976109
 20
-156.870307
 30
0.0
 11
1145.976109
 21
-156.870307
 31
0.0
  0
LINE
  8
0
  6
BYLAYER
 62
     7
 10
1145.976109
 20
-138.870307
 30
0.0
 11
1145.976109
 21
-146.870307
 31
0.0
  0
LINE
  8
0
  6
BYLAYER
 62
     7
 10
1145.976109
 20
-148.870307
 30
0.0
 11
1145.976109
 21
-156.870307
 31
0.0
  0
LINE
  8
0
  6
BYLAYER
 62
     7
 10
1153.976109
 20
-128.870307
 30
0.0
 11
1145.976109
 21
-128.870307
 31
0.0
  0
LINE
  8
0
  6
BYLAYER
 62
     7
 10
1153.976109
 20
-136.870307
 30
0.0
 11
1153.976109
 21
-128.870307
 31
0.0
  0
LINE
  8
0
  6
BYLAYER
 62
     7
 10
1153.976109
 20
-136.870307
 30
0.0
 11
1145.976109
 21
-136.870307
 31
0.0
  0
LINE
  8
0
  6
BYLAYER
 62
     7
 10
1145.976109
 20
-128.870307
 30
0.0
 11
1145.976109
 21
-136.870307
 31
0.0
  0
LINE
  8
0
  6
BYLAYER
 62
     7
 10
1143.976109
 20
-138.870307
 30
0.0
 11
1135.976109
 21
-138.870307
 31
0.0
  0
LINE
  8
0
  6
BYLAYER
 62
     7
 10
1143.976109
 20
-146.870307
 30
0.0
 11
1143.976109
 21
-138.870307
 31
0.0
  0
LINE
  8
0
  6
BYLAYER
 62
     7
 10
1143.976109
 20
-146.870307
 30
0.0
 11
1135.976109
 21
-146.870307
 31
0.0
  0
LINE
  8
0
  6
BYLAYER
 62
     7
 10
1135.976109
 20
-138.870307
 30
0.0
 11
1135.976109
 21
-146.870307
 31
0.0
  0
LINE
  8
0
  6
BYLAYER
 62
     7
 10
1143.976109
 20
-128.870307
 30
0.0
 11
1135.976109
 21
-128.870307
 31
0.0
  0
LINE
  8
0
  6
BYLAYER
 62
     7
 10
1143.976109
 20
-136.870307
 30
0.0
 11
1143.976109
 21
-128.870307
 31
0.0
  0
LINE
  8
0
  6
BYLAYER
 62
     7
 10
1143.976109
 20
-136.870307
 30
0.0
 11
1135.976109
 21
-136.870307
 31
0.0
  0
LINE
  8
0
  6
BYLAYER
 62
     7
 10
1135.976109
 20
-128.870307
 30
0.0
 11
1135.976109
 21
-136.870307
 31
0.0
  0
LINE
  8
0
  6
BYLAYER
 62
     7
 10
1133.976109
 20
-138.870307
 30
0.0
 11
1125.976109
 21
-138.870307
 31
0.0
  0
LINE
  8
0
  6
BYLAYER
 62
     7
 10
1133.976109
 20
-146.870307
 30
0.0
 11
1133.976109
 21
-138.870307
 31
0.0
  0
LINE
  8
0
  6
BYLAYER
 62
     7
 10
1133.976109
 20
-146.870307
 30
0.0
 11
1125.976109
 21
-146.870307
 31
0.0
  0
LINE
  8
0
  6
BYLAYER
 62
     7
 10
1125.976109
 20
-138.870307
 30
0.0
 11
1125.976109
 21
-146.870307
 31
0.0
  0
LINE
  8
0
  6
BYLAYER
 62
     7
 10
1133.976109
 20
-128.870307
 30
0.0
 11
1125.976109
 21
-128.870307
 31
0.0
  0
LINE
  8
0
  6
BYLAYER
 62
     7
 10
1133.976109
 20
-136.870307
 30
0.0
 11
1133.976109
 21
-128.870307
 31
0.0
  0
LINE
  8
0
  6
BYLAYER
 62
     7
 10
1133.976109
 20
-136.870307
 30
0.0
 11
1125.976109
 21
-136.870307
 31
0.0
  0
LINE
  8
0
  6
BYLAYER
 62
     7
 10
1125.976109
 20
-128.870307
 30
0.0
 11
1125.976109
 21
-136.870307
 31
0.0
  0
LINE
  8
0
  6
BYLAYER
 62
     7
 10
1173.976109
 20
-176.870307
 30
0.0
 11
1173.976109
 21
-168.870307
 31
0.0
  0
LINE
  8
0
  6
BYLAYER
 62
     7
 10
1165.976109
 20
-168.870307
 30
0.0
 11
1165.976109
 21
-176.870307
 31
0.0
  0
LINE
  8
0
  6
BYLAYER
 62
     7
 10
1163.976109
 20
-168.870307
 30
0.0
 11
1163.976109
 21
-176.870307
 31
0.0
  0
LINE
  8
0
  6
BYLAYER
 62
     7
 10
1163.976109
 20
-168.870307
 30
0.0
 11
1156.138110
 21
-168.870307
 31
0.0
  0
LINE
  8
0
  6
BYLAYER
 62
     7
 10
1173.976109
 20
-168.870307
 30
0.0
 11
1165.976109
 21
-168.870307
 31
0.0
  0
LINE
  8
0
  6
BYLAYER
 62
     7
 10
1163.976109
 20
-176.870307
 30
0.0
 11
1156.138110
 21
-176.870307
 31
0.0
  0
LINE
  8
0
  6
BYLAYER
 62
     7
 10
1173.976109
 20
-176.870307
 30
0.0
 11
1165.976109
 21
-176.870307
 31
0.0
  0
LINE
  8
0
  6
BYLAYER
 62
     7
 10
1156.138110
 20
-168.870307
 30
0.0
 11
1156.138110
 21
-176.870307
 31
0.0
  0
LINE
  8
0
  6
BYLAYER
 62
     7
 10
1153.976109
 20
-166.870307
 30
0.0
 11
1153.976109
 21
-158.870307
 31
0.0
  0
LINE
  8
0
  6
BYLAYER
 62
     7
 10
1153.976109
 20
-158.870307
 30
0.0
 11
1145.976109
 21
-158.870307
 31
0.0
  0
LINE
  8
0
  6
BYLAYER
 62
     7
 10
1153.976109
 20
-166.870307
 30
0.0
 11
1145.976109
 21
-166.870307
 31
0.0
  0
LINE
  8
0
  6
BYLAYER
 62
     7
 10
1145.976109
 20
-158.870307
 30
0.0
 11
1145.976109
 21
-166.870307
 31
0.0
  0
LINE
  8
0
  6
BYLAYER
 62
     7
 10
1153.976109
 20
-176.870307
 30
0.0
 11
1153.976109
 21
-168.870307
 31
0.0
  0
LINE
  8
0
  6
BYLAYER
 62
     7
 10
1153.976109
 20
-168.870307
 30
0.0
 11
1145.976109
 21
-168.870307
 31
0.0
  0
LINE
  8
0
  6
BYLAYER
 62
     7
 10
1153.976109
 20
-176.870307
 30
0.0
 11
1145.976109
 21
-176.870307
 31
0.0
  0
LINE
  8
0
  6
BYLAYER
 62
     7
 10
1145.976109
 20
-168.870307
 30
0.0
 11
1145.976109
 21
-176.870307
 31
0.0
  0
LINE
  8
0
  6
BYLAYER
 62
     7
 10
1143.976109
 20
-156.870307
 30
0.0
 11
1143.976109
 21
-148.870307
 31
0.0
  0
LINE
  8
0
  6
BYLAYER
 62
     7
 10
1143.976109
 20
-148.870307
 30
0.0
 11
1135.976109
 21
-148.870307
 31
0.0
  0
LINE
  8
0
  6
BYLAYER
 62
     7
 10
1143.976109
 20
-156.870307
 30
0.0
 11
1135.976109
 21
-156.870307
 31
0.0
  0
LINE
  8
0
  6
BYLAYER
 62
     7
 10
1135.976109
 20
-148.870307
 30
0.0
 11
1135.976109
 21
-156.870307
 31
0.0
  0
LINE
  8
0
  6
BYLAYER
 62
     7
 10
1143.976109
 20
-166.870307
 30
0.0
 11
1143.976109
 21
-158.870307
 31
0.0
  0
LINE
  8
0
  6
BYLAYER
 62
     7
 10
1143.976109
 20
-158.870307
 30
0.0
 11
1135.976109
 21
-158.870307
 31
0.0
  0
LINE
  8
0
  6
BYLAYER
 62
     7
 10
1143.976109
 20
-166.870307
 30
0.0
 11
1135.976109
 21
-166.870307
 31
0.0
  0
LINE
  8
0
  6
BYLAYER
 62
     7
 10
1135.976109
 20
-158.870307
 30
0.0
 11
1135.976109
 21
-166.870307
 31
0.0
  0
LINE
  8
0
  6
BYLAYER
 62
     7
 10
1133.976109
 20
-156.870307
 30
0.0
 11
1133.976109
 21
-148.870307
 31
0.0
  0
LINE
  8
0
  6
BYLAYER
 62
     7
 10
1133.976109
 20
-148.870307
 30
0.0
 11
1125.976109
 21
-148.870307
 31
0.0
  0
LINE
  8
0
  6
BYLAYER
 62
     7
 10
1133.976109
 20
-156.870307
 30
0.0
 11
1125.976109
 21
-156.870307
 31
0.0
  0
LINE
  8
0
  6
BYLAYER
 62
     7
 10
1125.976109
 20
-148.870307
 30
0.0
 11
1125.976109
 21
-156.870307
 31
0.0
  0
LINE
  8
0
  6
BYLAYER
 62
     7
 10
1123.976109
 20
-138.870307
 30
0.0
 11
1115.976109
 21
-138.870307
 31
0.0
  0
LINE
  8
0
  6
BYLAYER
 62
     7
 10
1123.976109
 20
-146.870307
 30
0.0
 11
1123.976109
 21
-138.870307
 31
0.0
  0
LINE
  8
0
  6
BYLAYER
 62
     7
 10
1123.976109
 20
-146.870307
 30
0.0
 11
1115.976109
 21
-146.870307
 31
0.0
  0
LINE
  8
0
  6
BYLAYER
 62
     7
 10
1115.976109
 20
-138.870307
 30
0.0
 11
1115.976109
 21
-146.870307
 31
0.0
  0
LINE
  8
0
  6
BYLAYER
 62
     7
 10
1123.976109
 20
-128.870307
 30
0.0
 11
1115.976109
 21
-128.870307
 31
0.0
  0
LINE
  8
0
  6
BYLAYER
 62
     7
 10
1123.976109
 20
-136.870307
 30
0.0
 11
1123.976109
 21
-128.870307
 31
0.0
  0
LINE
  8
0
  6
BYLAYER
 62
     7
 10
1123.976109
 20
-136.870307
 30
0.0
 11
1115.976109
 21
-136.870307
 31
0.0
  0
LINE
  8
0
  6
BYLAYER
 62
     7
 10
1115.976109
 20
-128.870307
 30
0.0
 11
1115.976109
 21
-136.870307
 31
0.0
  0
LINE
  8
0
  6
BYLAYER
 62
     7
 10
1123.976109
 20
-156.870307
 30
0.0
 11
1123.976109
 21
-148.870307
 31
0.0
  0
LINE
  8
0
  6
BYLAYER
 62
     7
 10
1123.976109
 20
-148.870307
 30
0.0
 11
1115.976109
 21
-148.870307
 31
0.0
  0
LINE
  8
0
  6
BYLAYER
 62
     7
 10
1123.976109
 20
-156.870307
 30
0.0
 11
1115.976109
 21
-156.870307
 31
0.0
  0
LINE
  8
0
  6
BYLAYER
 62
     7
 10
1115.976109
 20
-148.870307
 30
0.0
 11
1115.976109
 21
-156.870307
 31
0.0
  0
LINE
  8
0
  6
BYLAYER
 62
     7
 10
1173.976109
 20
-186.870307
 30
0.0
 11
1173.976109
 21
-178.870307
 31
0.0
  0
LINE
  8
0
  6
BYLAYER
 62
     7
 10
1165.976109
 20
-178.870307
 30
0.0
 11
1165.976109
 21
-186.870307
 31
0.0
  0
LINE
  8
0
  6
BYLAYER
 62
     7
 10
1163.976109
 20
-178.870307
 30
0.0
 11
1163.976109
 21
-186.870307
 31
0.0
  0
LINE
  8
0
  6
BYLAYER
 62
     7
 10
1163.976109
 20
-178.870307
 30
0.0
 11
1156.138110
 21
-178.870307
 31
0.0
  0
LINE
  8
0
  6
BYLAYER
 62
     7
 10
1173.976109
 20
-178.870307
 30
0.0
 11
1165.976109
 21
-178.870307
 31
0.0
  0
LINE
  8
0
  6
BYLAYER
 62
     7
 10
1163.976109
 20
-186.870307
 30
0.0
 11
1156.138110
 21
-186.870307
 31
0.0
  0
LINE
  8
0
  6
BYLAYER
 62
     7
 10
1173.976109
 20
-186.870307
 30
0.0
 11
1165.976109
 21
-186.870307
 31
0.0
  0
LINE
  8
0
  6
BYLAYER
 62
     7
 10
1156.138110
 20
-178.870307
 30
0.0
 11
1156.138110
 21
-186.870307
 31
0.0
  0
LINE
  8
0
  6
BYLAYER
 62
     7
 10
1153.976109
 20
-186.870307
 30
0.0
 11
1153.976109
 21
-178.870307
 31
0.0
  0
LINE
  8
0
  6
BYLAYER
 62
     7
 10
1153.976109
 20
-178.870307
 30
0.0
 11
1145.976109
 21
-178.870307
 31
0.0
  0
LINE
  8
0
  6
BYLAYER
 62
     7
 10
1153.976109
 20
-186.870307
 30
0.0
 11
1145.976109
 21
-186.870307
 31
0.0
  0
LINE
  8
0
  6
BYLAYER
 62
     7
 10
1145.976109
 20
-178.870307
 30
0.0
 11
1145.976109
 21
-186.870307
 31
0.0
  0
LINE
  8
0
  6
BYLAYER
 62
     7
 10
1143.976109
 20
-176.870307
 30
0.0
 11
1143.976109
 21
-168.870307
 31
0.0
  0
LINE
  8
0
  6
BYLAYER
 62
     7
 10
1143.976109
 20
-168.870307
 30
0.0
 11
1135.976109
 21
-168.870307
 31
0.0
  0
LINE
  8
0
  6
BYLAYER
 62
     7
 10
1143.976109
 20
-176.870307
 30
0.0
 11
1135.976109
 21
-176.870307
 31
0.0
  0
LINE
  8
0
  6
BYLAYER
 62
     7
 10
1135.976109
 20
-168.870307
 30
0.0
 11
1135.976109
 21
-176.870307
 31
0.0
  0
LINE
  8
0
  6
BYLAYER
 62
     7
 10
1133.976109
 20
-166.870307
 30
0.0
 11
1133.976109
 21
-158.870307
 31
0.0
  0
LINE
  8
0
  6
BYLAYER
 62
     7
 10
1133.976109
 20
-158.870307
 30
0.0
 11
1125.976109
 21
-158.870307
 31
0.0
  0
LINE
  8
0
  6
BYLAYER
 62
     7
 10
1133.976109
 20
-166.870307
 30
0.0
 11
1125.976109
 21
-166.870307
 31
0.0
  0
LINE
  8
0
  6
BYLAYER
 62
     7
 10
1125.976109
 20
-158.870307
 30
0.0
 11
1125.976109
 21
-166.870307
 31
0.0
  0
CIRCLE
  8
0
  6
BYLAYER
 62
     7
 10
1174.976109
 20
-127.870307
 30
0.0
 40
71.999936
  0
CIRCLE
  8
0
  6
BYLAYER
 62
     7
 10
1174.976109
 20
-127.870307
 30
0.0
 40
86.549921
  0
ARC
  8
0
  6
BYLAYER
 62
     7
 10
1174.976109
 20
-127.870307
 30
0.0
 40
100.0
 50
119.340652
 51
420.659492
  0
ARC
  8
0
  6
BYLAYER
 62
     7
 10
1174.976109
 20
-127.870307
 30
0.0
 40
96.0
 50
323.301669
 51
356.934592
  0
ARC
  8
0
  6
BYLAYER
 62
     7
 10
1174.976109
 20
-127.870307
 30
0.0
 40
96.0
 50
3.065408
 51
36.698331
  0
ARC
  8
0
  6
BYLAYER
 62
     7
 10
1174.976109
 20
-127.870307
 30
0.0
 40
96.0
 50
233.301669
 51
266.934592
  0
ARC
  8
0
  6
BYLAYER
 62
     7
 10
1174.976109
 20
-127.870307
 30
0.0
 40
96.0
 50
273.065408
 51
306.698331
  0
ARC
  8
0
  6
BYLAYER
 62
     7
 10
1174.976109
 20
-127.870307
 30
0.0
 40
96.000000
 50
183.065408
 51
216.698331
  0
ARC
  8
0
  6
BYLAYER
 62
     7
 10
1174.976109
 20
-127.870307
 30
0.0
 40
96.0
 50
143.301669
 51
176.934592
  0
ARC
  8
0
  6
BYLAYER
 62
     7
 10
1174.976109
 20
-127.870307
 30
0.0
 40
96.000000
 50
120.691662
 51
126.698331
  0
ARC
  8
0
  6
BYLAYER
 62
     7
 10
1174.976109
 20
-127.870307
 30
0.0
 40
96.000000
 50
53.301669
 51
59.308487
  0
ARC
  8
0
  6
BYLAYER
 62
     7
 10
1230.851876
 20
-52.902657
 30
0.0
 40
2.500000
 50
315.000000
 51
413.301669
  0
ARC
  8
0
  6
BYLAYER
 62
     7
 10
1249.943759
 20
-71.994540
 30
0.0
 40
2.5
 50
36.698331
 51
135.0
  0
CIRCLE
  8
0
  6
BYLAYER
 62
     7
 10
1174.976109
 20
-127.870307
 30
0.0
 40
70.0
  0
ARC
  8
0
  6
BYLAYER
 62
     7
 10
1233.312418
 20
-69.533998
 30
0.0
 40
5.5
 50
1.144516
 51
88.855484
  0
LINE
  8
0
  6
BYLAYER
 62
     7
 10
1227.901677
 20
-59.388389
 30
0.0
 11
1232.619643
 21
-54.670423
 31
0.0
  0
LINE
  8
0
  6
BYLAYER
 62
     7
 10
1243.458027
 20
-74.944739
 30
0.0
 11
1248.175993
 21
-70.226773
 31
0.0
  0
ARC
  8
0
  6
BYLAYER
 62
     7
 10
1119.100342
 20
-52.902657
 30
0.0
 40
2.500000
 50
126.698331
 51
225.000000
  0
ARC
  8
0
  6
BYLAYER
 62
     7
 10
1100.008459
 20
-71.994540
 30
0.0
 40
2.500000
 50
45.000000
 51
143.301669
  0
ARC
  8
0
  6
BYLAYER
 62
     7
 10
1116.639800
 20
-69.533998
 30
0.0
 40
5.500000
 50
91.144516
 51
178.855484
  0
LINE
  8
0
  6
BYLAYER
 62
     7
 10
1122.050541
 20
-59.388389
 30
0.0
 11
1117.332575
 21
-54.670423
 31
0.0
  0
LINE
  8
0
  6
BYLAYER
 62
     7
 10
1106.494191
 20
-74.944739
 30
0.0
 11
1101.776225
 21
-70.226773
 31
0.0
  0
ARC
  8
0
  6
BYLAYER
 62
     7
 10
1230.851876
 20
-202.837957
 30
0.0
 40
2.500000
 50
306.698331
 51
405.000000
  0
ARC
  8
0
  6
BYLAYER
 62
     7
 10
1249.943759
 20
-183.746074
 30
0.0
 40
2.500000
 50
225.000000
 51
323.301669
  0
ARC
  8
0
  6
BYLAYER
 62
     7
 10
1233.312418
 20
-186.206616
 30
0.0
 40
5.5
 50
271.144516
 51
358.855484
  0
LINE
  8
0
  6
BYLAYER
 62
     7
 10
1227.901677
 20
-196.352225
 30
0.0
 11
1232.619643
 21
-201.070191
 31
0.0
  0
LINE
  8
0
  6
BYLAYER
 62
     7
 10
1243.458027
 20
-180.795875
 30
0.0
 11
1248.175993
 21
-185.513841
 31
0.0
  0
ARC
  8
0
  6
BYLAYER
 62
     7
 10
1119.100342
 20
-202.837957
 30
0.0
 40
2.500000
 50
135.000000
 51
233.301669
  0
ARC
  8
0
  6
BYLAYER
 62
     7
 10
1100.008459
 20
-183.746074
 30
0.0
 40
2.500000
 50
216.698331
 51
315.000000
  0
ARC
  8
0
  6
BYLAYER
 62
     7
 10
1116.639800
 20
-186.206616
 30
0.0
 40
5.5
 50
181.144516
 51
268.855484
  0
LINE
  8
0
  6
BYLAYER
 62
     7
 10
1122.050541
 20
-196.352225
 30
0.0
 11
1117.332575
 21
-201.070191
 31
0.0
  0
LINE
  8
0
  6
BYLAYER
 62
     7
 10
1106.494191
 20
-180.795875
 30
0.0
 11
1101.776225
 21
-185.513841
 31
0.0
  0
ARC
  8
0
  6
BYLAYER
 62
     7
 10
1081.609895
 20
-132.870307
 30
0.0
 40
2.500000
 50
90.0
 51
183.065408
  0
ARC
  8
0
  6
BYLAYER
 62
     7
 10
1081.609895
 20
-122.870307
 30
0.0
 40
2.500000
 50
176.934592
 51
270.000000
  0
LINE
  8
0
  6
BYLAYER
 62
     7
 10
1081.609895
 20
-130.370307
 30
0.0
 11
1088.462302
 21
-130.370307
 31
0.0
  0
LINE
  8
0
  6
BYLAYER
 62
     7
 10
1081.609895
 20
-125.370307
 30
0.0
 11
1088.462302
 21
-125.370307
 31
0.0
  0
ARC
  8
0
  6
BYLAYER
 62
     7
 10
1179.976109
 20
-221.236521
 30
0.0
 40
2.5
 50
180.000000
 51
273.065408
  0
ARC
  8
0
  6
BYLAYER
 62
     7
 10
1169.976109
 20
-221.236521
 30
0.0
 40
2.5
 50
266.934592
 51
360.000000
  0
LINE
  8
0
  6
BYLAYER
 62
     7
 10
1177.476109
 20
-221.236521
 30
0.0
 11
1177.476109
 21
-214.384114
 31
0.0
  0
LINE
  8
0
  6
BYLAYER
 62
     7
 10
1172.476109
 20
-221.236521
 30
0.0
 11
1172.476109
 21
-214.384114
 31
0.0
  0
ARC
  8
0
  6
BYLAYER
 62
     7
 10
1268.342323
 20
-122.870307
 30
0.0
 40
2.5
 50
270.0
 51
363.065408
  0
ARC
  8
0
  6
BYLAYER
 62
     7
 10
1268.342323
 20
-132.870307
 30
0.0
 40
2.5
 50
356.934592
 51
450.000000
  0
LINE
  8
0
  6
BYLAYER
 62
     7
 10
1268.342323
 20
-125.370307
 30
0.0
 11
1261.489916
 21
-125.370307
 31
0.0
  0
LINE
  8
0
  6
BYLAYER
 62
     7
 10
1268.342323
 20
-130.370307
 30
0.0
 11
1261.489916
 21
-130.370307
 31
0.0
  0
LINE
  8
0
  6
BYLAYER
 62
     7
 10
1131.476002
 20
-621.370338
 30
0.0
 11
1131.476002
 21
-599.870338
 31
0.0
  0
ARC
  8
0
  6
BYLAYER
 62
     7
 10
1129.976002
 20
-621.370338
 30
0.0
 40
1.5
 50
270.0
 51
360.0
  0
ARC
  8
0
  6
BYLAYER
 62
     7
 10
1132.976002
 20
-599.870338
 30
0.0
 40
1.500000
 50
90.0
 51
180.0
  0
LINE
  8
0
  6
BYLAYER
 62
     7
 10
1174.976002
 20
-598.370338
 30
0.0
 11
1132.976002
 21
-598.370338
 31
0.0
  0
LINE
  8
0
  6
BYLAYER
 62
     7
 10
1136.848243
 20
-621.370338
 30
0.0
 11
1136.848243
 21
-599.870338
 31
0.0
  0
ARC
  8
0
  6
BYLAYER
 62
     7
 10
1135.348243
 20
-621.370338
 30
0.0
 40
1.5
 50
270.0
 51
360.0
  0
ARC
  8
0
  6
BYLAYER
 62
     7
 10
1138.348243
 20
-599.870338
 30
0.0
 40
1.5
 50
90.0
 51
180.0
  0
LINE
  8
0
  6
BYLAYER
 62
     7
 10
1161.882349
 20
-598.370338
 30
0.0
 11
1162.374896
 21
-612.475036
 31
0.0
  0
ARC
  8
0
  6
BYLAYER
 62
     7
 10
1165.373068
 20
-612.370338
 30
0.0
 40
3.0
 50
182.000000
 51
270.000000
  0
LINE
  8
0
  6
BYLAYER
 62
     7
 10
1172.577108
 20
-612.475036
 30
0.0
 11
1173.069655
 21
-598.370338
 31
0.0
  0
ARC
  8
0
  6
BYLAYER
 62
     7
 10
1169.578936
 20
-612.370338
 30
0.0
 40
3.0
 50
270.0
 51
358.0
  0
LINE
  8
0
  6
BYLAYER
 62
     7
 10
1165.373068
 20
-615.370338
 30
0.0
 11
1169.578936
 21
-615.370338
 31
0.0
  0
LINE
  8
0
  6
BYLAYER
 62
     7
 10
1146.882349
 20
-598.370338
 30
0.0
 11
1147.374896
 21
-612.475036
 31
0.0
  0
ARC
  8
0
  6
BYLAYER
 62
     7
 10
1150.373068
 20
-612.370338
 30
0.0
 40
3.0
 50
182.000000
 51
270.000000
  0
LINE
  8
0
  6
BYLAYER
 62
     7
 10
1157.577108
 20
-612.475036
 30
0.0
 11
1158.069655
 21
-598.370338
 31
0.0
  0
ARC
  8
0
  6
BYLAYER
 62
     7
 10
1154.578936
 20
-612.370338
 30
0.0
 40
3.0
 50
270.0
 51
358.0
  0
LINE
  8
0
  6
BYLAYER
 62
     7
 10
1150.373068
 20
-615.370338
 30
0.0
 11
1154.578936
 21
-615.370338
 31
0.0
  0
LINE
  8
0
  6
BYLAYER
 62
     7
 10
1146.917270
 20
-599.370338
 30
0.0
 11
1158.034734
 21
-599.370338
 31
0.0
  0
LINE
  8
0
  6
BYLAYER
 62
     7
 10
1161.917270
 20
-599.370338
 30
0.0
 11
1173.034734
 21
-599.370338
 31
0.0
  0
LINE
  8
0
  6
BYLAYER
 62
     7
 10
1174.976002
 20
-622.870338
 30
0.0
 11
1127.476002
 21
-622.870338
 31
0.0
  0
ARC
  8
0
  6
BYLAYER
 62
     7
 10
1127.476002
 20
-624.370338
 30
0.0
 40
1.5
 50
90.0
 51
180.0
  0
LINE
  8
0
  6
BYLAYER
 62
     7
 10
1125.976002
 20
-629.870338
 30
0.0
 11
1125.976002
 21
-624.370338
 31
0.0
  0
LINE
  8
0
  6
BYLAYER
 62
     7
 10
1125.976002
 20
-629.870338
 30
0.0
 11
1155.076208
 21
-629.870338
 31
0.0
  0
LINE
  8
0
  6
BYLAYER
 62
     7
 10
1218.476002
 20
-621.370338
 30
0.0
 11
1218.476002
 21
-599.870338
 31
0.0
  0
ARC
  8
0
  6
BYLAYER
 62
     7
 10
1219.976002
 20
-621.370338
 30
0.0
 40
1.5
 50
180.000000
 51
270.000000
  0
ARC
  8
0
  6
BYLAYER
 62
     7
 10
1216.976002
 20
-599.870338
 30
0.0
 40
1.5
 50
0.0
 51
90.0
  0
LINE
  8
0
  6
BYLAYER
 62
     7
 10
1174.976002
 20
-598.370338
 30
0.0
 11
1216.976002
 21
-598.370338
 31
0.0
  0
LINE
  8
0
  6
BYLAYER
 62
     7
 10
1213.103761
 20
-621.370338
 30
0.0
 11
1213.103761
 21
-599.870338
 31
0.0
  0
ARC
  8
0
  6
BYLAYER
 62
     7
 10
1214.603761
 20
-621.370338
 30
0.0
 40
1.5
 50
180.000000
 51
270.000000
  0
ARC
  8
0
  6
BYLAYER
 62
     7
 10
1211.603761
 20
-599.870338
 30
0.0
 40
1.5
 50
0.0
 51
90.0
  0
LINE
  8
0
  6
BYLAYER
 62
     7
 10
1188.069655
 20
-598.370338
 30
0.0
 11
1187.577108
 21
-612.475036
 31
0.0
  0
ARC
  8
0
  6
BYLAYER
 62
     7
 10
1184.578936
 20
-612.370338
 30
0.0
 40
3.0
 50
270.0
 51
358.0
  0
LINE
  8
0
  6
BYLAYER
 62
     7
 10
1177.374896
 20
-612.475036
 30
0.0
 11
1176.882349
 21
-598.370338
 31
0.0
  0
ARC
  8
0
  6
BYLAYER
 62
     7
 10
1180.373068
 20
-612.370338
 30
0.0
 40
3.0
 50
182.000000
 51
270.000000
  0
LINE
  8
0
  6
BYLAYER
 62
     7
 10
1184.578936
 20
-615.370338
 30
0.0
 11
1180.373068
 21
-615.370338
 31
0.0
  0
LINE
  8
0
  6
BYLAYER
 62
     7
 10
1203.069655
 20
-598.370338
 30
0.0
 11
1202.577108
 21
-612.475036
 31
0.0
  0
ARC
  8
0
  6
BYLAYER
 62
     7
 10
1199.578936
 20
-612.370338
 30
0.0
 40
3.0
 50
270.0
 51
358.0
  0
LINE
  8
0
  6
BYLAYER
 62
     7
 10
1192.374896
 20
-612.475036
 30
0.0
 11
1191.882349
 21
-598.370338
 31
0.0
  0
ARC
  8
0
  6
BYLAYER
 62
     7
 10
1195.373068
 20
-612.370338
 30
0.0
 40
3.0
 50
182.000000
 51
270.000000
  0
LINE
  8
0
  6
BYLAYER
 62
     7
 10
1199.578936
 20
-615.370338
 30
0.0
 11
1195.373068
 21
-615.370338
 31
0.0
  0
LINE
  8
0
  6
BYLAYER
 62
     7
 10
1203.034734
 20
-599.370338
 30
0.0
 11
1191.917270
 21
-599.370338
 31
0.0
  0
LINE
  8
0
  6
BYLAYER
 62
     7
 10
1188.034734
 20
-599.370338
 30
0.0
 11
1176.917270
 21
-599.370338
 31
0.0
  0
LINE
  8
0
  6
BYLAYER
 62
     7
 10
1174.976002
 20
-622.870338
 30
0.0
 11
1222.476002
 21
-622.870338
 31
0.0
  0
ARC
  8
0
  6
BYLAYER
 62
     7
 10
1222.476002
 20
-624.370338
 30
0.0
 40
1.5
 50
0.0
 51
90.0
  0
LINE
  8
0
  6
BYLAYER
 62
     7
 10
1223.976002
 20
-631.870338
 30
0.0
 11
1223.976002
 21
-624.370338
 31
0.0
  0
LINE
  8
0
  6
BYLAYER
 62
     7
 10
1223.976002
 20
-629.870338
 30
0.0
 11
1194.876010
 21
-629.870338
 31
0.0
  0
LINE
  8
0
  6
BYLAYER
 62
     7
 10
1125.976002
 20
-631.870338
 30
0.0
 11
1146.976003
 21
-631.870338
 31
0.0
  0
LINE
  8
0
  6
BYLAYER
 62
     7
 10
1125.976002
 20
-637.370338
 30
0.0
 11
1127.433471
 21
-639.894756
 31
0.0
  0
LINE
  8
0
  6
BYLAYER
 62
     7
 10
1223.975986
 20
-631.870216
 30
0.0
 11
1202.975976
 21
-631.870268
 31
0.0
  0
LINE
  8
0
  6
BYLAYER
 62
     7
 10
1223.975986
 20
-637.370216
 30
0.0
 11
1222.518518
 21
-639.894632
 31
0.0
  0
LINE
  8
0
  6
BYLAYER
 62
     7
 10
1125.976002
 20
-631.870338
 30
0.0
 11
1125.976002
 21
-640.698124
 31
0.0
  0
LINE
  8
0
  6
BYLAYER
 62
     7
 10
1223.975986
 20
-631.870216
 30
0.0
 11
1223.975997
 21
-640.698000
 31
0.0
  0
LINE
  8
0
  6
BYLAYER
 62
     7
 10
1125.976002
 20
-629.870338
 30
0.0
 11
1125.976002
 21
-631.870338
 31
0.0
  0
ARC
  8
0
  6
BYLAYER
 62
     1
 10
1174.976109
 20
-727.870307
 30
0.0
 40
100.000000
 50
320.805033
 51
579.194967
  0
ARC
  8
0
  6
BYLAYER
 62
     2
 10
1224.054966
 20
-667.053474
 30
0.0
 40
0.300014
 50
135.004126
 51
194.997489
  0
LINE
  8
0
  6
BYLAYER
 62
     2
 10
1223.842808
 20
-666.841346
 30
0.0
 11
1230.619725
 21
-660.064429
 31
0.0
  0
ARC
  8
0
  6
BYLAYER
 62
     2
 10
1230.831883
 20
-660.276588
 30
0.0
 40
0.300037
 50
75.001003
 51
135.000000
  0
LINE
  8
0
  6
BYLAYER
 62
     2
 10
1240.166966
 20
-662.467353
 30
0.0
 11
1230.909520
 21
-659.986823
 31
0.0
  0
ARC
  8
0
  6
BYLAYER
 62
     2
 10
1240.089329
 20
-662.757117
 30
0.0
 40
0.299985
 50
14.997490
 51
75.001003
  0
LINE
  8
0
  6
BYLAYER
 62
     2
 10
1242.439869
 20
-670.370246
 30
0.0
 11
1240.379124
 21
-662.679481
 31
0.0
  0
LINE
  8
0
  6
BYLAYER
 62
     2
 10
1224.633097
 20
-670.370246
 30
0.0
 11
1223.765172
 21
-667.131110
 31
0.0
  0
LINE
  8
0
  6
BYLAYER
 62
     2
 10
1109.573155
 20
-662.679450
 30
0.0
 11
1107.512409
 21
-670.370246
 31
0.0
  0
ARC
  8
0
  6
BYLAYER
 62
     2
 10
1109.862950
 20
-662.757087
 30
0.0
 40
0.300014
 50
104.997493
 51
165.001005
  0
LINE
  8
0
  6
BYLAYER
 62
     2
 10
1119.042698
 20
-659.986762
 30
0.0
 11
1109.785313
 21
-662.467292
 31
0.0
  0
ARC
  8
0
  6
BYLAYER
 62
     2
 10
1119.120335
 20
-660.276557
 30
0.0
 40
0.300014
 50
45.004123
 51
104.997493
  0
LINE
  8
0
  6
BYLAYER
 62
     2
 10
1126.109349
 20
-666.841315
 30
0.0
 11
1119.332432
 21
-660.064399
 31
0.0
  0
ARC
  8
0
  6
BYLAYER
 62
     2
 10
1125.897252
 20
-667.053474
 30
0.0
 40
0.299994
 50
345.002527
 51
405.004127
  0
LINE
  8
0
  6
BYLAYER
 62
     2
 10
1126.187047
 20
-667.131110
 30
0.0
 11
1125.319121
 21
-670.370246
 31
0.0
  0
ARC
  8
0
  6
BYLAYER
 62
     1
 10
1122.894825
 20
-654.601787
 30
0.0
 40
10.969972
 50
29.999906
 51
49.079955
  0
ARC
  8
0
  6
BYLAYER
 62
     1
 10
1127.432097
 20
-649.367519
 30
0.0
 40
4.042895
 50
49.079955
 51
68.628836
  0
ARC
  8
0
  6
BYLAYER
 62
     1
 10
1128.032441
 20
-647.833348
 30
0.0
 40
2.395444
 50
68.628836
 51
89.602208
  0
ARC
  8
0
  6
BYLAYER
 62
     1
 10
1128.073419
 20
-646.631346
 30
0.0
 40
1.193633
 50
91.168755
 51
120.000280
  0
ARC
  8
0
  6
BYLAYER
 62
     1
 10
1128.073426
 20
-646.631387
 30
0.0
 40
1.193672
 50
119.999581
 51
148.831074
  0
ARC
  8
0
  6
BYLAYER
 62
     1
 10
1129.134884
 20
-647.196904
 30
0.0
 40
2.395490
 50
150.397673
 51
171.371284
  0
ARC
  8
0
  6
BYLAYER
 62
     1
 10
1130.763689
 20
-647.444073
 30
0.0
 40
4.042942
 50
171.371284
 51
190.920192
  0
ARC
  8
0
  6
BYLAYER
 62
     1
 10
1137.565193
 20
-646.131823
 30
0.0
 40
10.969879
 50
190.920192
 51
210.000394
  0
LINE
  8
0
  6
BYLAYER
 62
     1
 10
1128.065037
 20
-651.616828
 30
0.0
 11
1128.065043
 21
-651.616838
 31
0.0
  0
ARC
  8
0
  6
BYLAYER
 62
     1
 10
1085.483128
 20
-736.339809
 30
0.0
 40
10.970052
 50
90.0
 51
109.08015
  0
ARC
  8
0
  6
BYLAYER
 62
     1
 10
1083.218724
 20
-729.793266
 30
0.0
 40
4.042949
 50
109.080150
 51
128.628974
  0
ARC
  8
0
  6
BYLAYER
 62
     1
 10
1082.190252
 20
-728.506257
 30
0.0
 40
2.395482
 50
128.628974
 51
149.602171
  0
ARC
  8
0
  6
BYLAYER
 62
     1
 10
1081.169759
 20
-727.869758
 30
0.0
 40
1.193650
 50
151.168658
 51
180.0
  0
ARC
  8
0
  6
BYLAYER
 62
     1
 10
1081.169759
 20
-727.869758
 30
0.0
 40
1.193650
 50
180.000000
 51
208.831342
  0
ARC
  8
0
  6
BYLAYER
 62
     1
 10
1082.190252
 20
-727.233258
 30
0.0
 40
2.395482
 50
210.397829
 51
231.371026
  0
ARC
  8
0
  6
BYLAYER
 62
     1
 10
1083.218724
 20
-725.946249
 30
0.0
 40
4.042949
 50
231.371026
 51
250.919850
  0
ARC
  8
0
  6
BYLAYER
 62
     1
 10
1085.483128
 20
-719.399706
 30
0.0
 40
10.970052
 50
250.919850
 51
270.000000
  0
LINE
  8
0
  6
BYLAYER
 62
     1
 10
1085.483067
 20
-730.370093
 30
0.0
 11
1102.976109
 21
-730.370212
 31
0.0
  0
LINE
  8
0
  6
BYLAYER
 62
     1
 10
1085.483067
 20
-725.370093
 30
0.0
 11
1102.976109
 21
-725.370178
 31
0.0
  0
ARC
  8
0
  6
BYLAYER
 62
     1
 10
1264.469090
 20
-719.400774
 30
0.0
 40
10.970052
 50
270.0
 51
289.080150
  0
ARC
  8
0
  6
BYLAYER
 62
     1
 10
1266.733494
 20
-725.947318
 30
0.0
 40
4.042949
 50
289.080150
 51
308.628974
  0
ARC
  8
0
  6
BYLAYER
 62
     1
 10
1267.761966
 20
-727.234326
 30
0.0
 40
2.395482
 50
308.628974
 51
329.602171
  0
ARC
  8
0
  6
BYLAYER
 62
     1
 10
1268.782459
 20
-727.870826
 30
0.0
 40
1.193650
 50
331.168658
 51
360.000000
  0
ARC
  8
0
  6
BYLAYER
 62
     1
 10
1268.782459
 20
-727.870826
 30
0.0
 40
1.193650
 50
0.0
 51
28.831342
  0
ARC
  8
0
  6
BYLAYER
 62
     1
 10
1267.761966
 20
-728.507325
 30
0.0
 40
2.395482
 50
30.397829
 51
51.371026
  0
ARC
  8
0
  6
BYLAYER
 62
     1
 10
1266.733494
 20
-729.794334
 30
0.0
 40
4.042949
 50
51.371026
 51
70.919850
  0
ARC
  8
0
  6
BYLAYER
 62
     1
 10
1264.469090
 20
-736.340877
 30
0.0
 40
10.970052
 50
70.919850
 51
90.000000
  0
LINE
  8
0
  6
BYLAYER
 62
     1
 10
1264.469090
 20
-725.370521
 30
0.0
 11
1246.976109
 21
-725.370402
 31
0.0
  0
LINE
  8
0
  6
BYLAYER
 62
     1
 10
1264.469090
 20
-730.370521
 30
0.0
 11
1246.976109
 21
-730.370436
 31
0.0
  0
ARC
  8
0
  6
BYLAYER
 62
     1
 10
1212.387969
 20
-646.132384
 30
0.0
 40
10.969848
 50
329.999817
 51
349.079878
  0
ARC
  8
0
  6
BYLAYER
 62
     1
 10
1219.189454
 20
-647.444621
 30
0.0
 40
4.042932
 50
349.079878
 51
368.628767
  0
ARC
  8
0
  6
BYLAYER
 62
     1
 10
1220.818253
 20
-647.197452
 30
0.0
 40
2.395486
 50
8.628767
 51
29.602368
  0
ARC
  8
0
  6
BYLAYER
 62
     1
 10
1221.879708
 20
-646.631937
 30
0.0
 40
1.193672
 50
31.168964
 51
60.000419
  0
ARC
  8
0
  6
BYLAYER
 62
     1
 10
1221.879715
 20
-646.631895
 30
0.0
 40
1.193633
 50
59.999720
 51
88.831246
  0
ARC
  8
0
  6
BYLAYER
 62
     1
 10
1221.920692
 20
-647.833897
 30
0.0
 40
2.395444
 50
90.397793
 51
111.371166
  0
ARC
  8
0
  6
BYLAYER
 62
     1
 10
1222.521037
 20
-649.368069
 30
0.0
 40
4.042896
 50
111.371166
 51
130.920048
  0
ARC
  8
0
  6
BYLAYER
 62
     1
 10
1227.058309
 20
-654.602337
 30
0.0
 40
10.969973
 50
130.920048
 51
150.000100
  0
LINE
  8
0
  6
BYLAYER
 62
     1
 10
1217.557774
 20
-649.117194
 30
0.0
 11
1205.287137
 21
-670.370246
 31
0.0
  0
LINE
  8
0
  6
BYLAYER
 62
     1
 10
1221.887852
 20
-651.617225
 30
0.0
 11
1211.060648
 21
-670.370246
 31
0.0
  0
ARC
  8
0
  6
BYLAYER
 62
     1
 10
1143.927220
 20
-667.091865
 30
0.0
 40
0.999990
 50
209.998414
 51
297.062385
  0
LINE
  8
0
  6
BYLAYER
 62
     1
 10
1144.665278
 20
-670.370246
 30
0.0
 11
1132.394871
 21
-649.116981
 31
0.0
  0
LINE
  8
0
  6
BYLAYER
 62
     1
 10
1138.891771
 20
-670.370246
 30
0.0
 11
1128.064732
 21
-651.616981
 31
0.0
  0
ARC
  8
0
  6
BYLAYER
 62
     1
 10
1206.025181
 20
-667.091865
 30
0.0
 40
0.999990
 50
242.939365
 51
329.998404
  0
ARC
  8
0
  6
BYLAYER
 62
     1
 10
1174.976109
 20
-727.870307
 30
0.0
 40
67.249939
 50
62.939469
 51
117.060358
  0
LINE
  8
0
  6
BYLAYER
 62
     1
 10
499.976109
 20
-891.620307
 30
0.0
 11
499.976109
 21
-837.870307
 31
0.0
  0
ARC
  8
0
  6
BYLAYER
 62
     1
 10
526.476109
 20
-935.870307
 30
0.0
 40
2.000000
 50
180.000000
 51
270.000009
  0
LINE
  8
0
  6
BYLAYER
 62
     1
 10
534.976109
 20
-937.870307
 30
0.0
 11
526.476109
 21
-937.870307
 31
0.0
  0
LINE
  8
0
  6
BYLAYER
 62
     1
 10
524.476109
 20
-837.870307
 30
0.0
 11
524.476109
 21
-935.870307
 31
0.0
  0
ARC
  8
0
  6
BYLAYER
 62
     1
 10
522.476109
 20
-906.275001
 30
0.0
 40
2.000004
 50
0.0
 51
60.000063
  0
LINE
  8
0
  6
BYLAYER
 62
     1
 10
500.725438
 20
-891.659583
 30
0.0
 11
499.976109
 21
-891.620307
 31
0.0
  0
LINE
  8
0
  6
BYLAYER
 62
     1
 10
523.476109
 20
-904.542945
 30
0.0
 11
501.620793
 21
-891.924781
 31
0.0
  0
ARC
  8
0
  6
BYLAYER
 62
     1
 10
500.620793
 20
-893.656837
 30
0.0
 40
1.999993
 50
60.000063
 51
87.000784
  0
LINE
  8
0
  6
BYLAYER
 62
     1
 10
534.976109
 20
-837.870307
 30
0.0
 11
534.976109
 21
-937.870307
 31
0.0
  0
LINE
  8
0
  6
BYLAYER
 62
     1
 10
511.091160
 20
-897.392493
 30
0.0
 11
524.476109
 21
-920.142615
 31
0.0
  0
LINE
  8
0
  6
BYLAYER
 62
     1
 10
501.620793
 20
-891.924781
 30
0.0
 11
501.620793
 21
-837.870307
 31
0.0
  0
LINE
  8
0
  6
BYLAYER
 62
     1
 10
499.976109
 20
-784.120307
 30
0.0
 11
499.976109
 21
-837.870307
 31
0.0
  0
ARC
  8
0
  6
BYLAYER
 62
     1
 10
526.476109
 20
-739.870307
 30
0.0
 40
2.0
 50
90.0
 51
180.000009
  0
LINE
  8
0
  6
BYLAYER
 62
     1
 10
534.976109
 20
-737.870307
 30
0.0
 11
526.476109
 21
-737.870307
 31
0.0
  0
LINE
  8
0
  6
BYLAYER
 62
     1
 10
524.476109
 20
-837.870307
 30
0.0
 11
524.476109
 21
-739.870307
 31
0.0
  0
ARC
  8
0
  6
BYLAYER
 62
     1
 10
522.476109
 20
-769.465613
 30
0.0
 40
2.000004
 50
299.999937
 51
360.0
  0
LINE
  8
0
  6
BYLAYER
 62
     1
 10
500.725438
 20
-784.081031
 30
0.0
 11
499.976109
 21
-784.120307
 31
0.0
  0
LINE
  8
0
  6
BYLAYER
 62
     1
 10
523.476109
 20
-771.197669
 30
0.0
 11
501.620793
 21
-783.815833
 31
0.0
  0
ARC
  8
0
  6
BYLAYER
 62
     1
 10
500.620793
 20
-782.083777
 30
0.0
 40
1.999993
 50
272.999216
 51
299.999937
  0
LINE
  8
0
  6
BYLAYER
 62
     1
 10
534.976109
 20
-837.870307
 30
0.0
 11
534.976109
 21
-737.870307
 31
0.0
  0
LINE
  8
0
  6
BYLAYER
 62
     1
 10
511.091160
 20
-778.348121
 30
0.0
 11
524.476109
 21
-755.597999
 31
0.0
  0
LINE
  8
0
  6
BYLAYER
 62
     1
 10
501.620793
 20
-783.815833
 30
0.0
 11
501.620793
 21
-837.870307
 31
0.0
  0
ENDSEC
  0
EOF
