  0
SECTION
  2
HEADER
  9
$EXTMIN
 10
250.539249
 20
992.0
 30
0.0
  9
$EXTMAX
 10
1310.252560
 20
0.0
 30
0.0
  0
ENDSEC
  0
SECTION
  2
TABLES
  0
ENDSEC
  0
SECTION
  2
BLOCKS
  0
ENDSEC
  0
SECTION
  2
ENTITIES
  0
LINE
  8
0
  6
BYLAYER
 62
     7
 10
584.887372
 20
-256.389082
 30
0.0
 11
555.387372
 21
-256.904000
 31
0.0
  0
LINE
  8
0
  6
BYLAYER
 62
     7
 10
584.887372
 20
-244.441450
 30
0.0
 11
584.887372
 21
-256.389082
 31
0.0
  0
LINE
  8
0
  6
BYLAYER
 62
     7
 10
587.387372
 20
-60.389082
 30
0.0
 11
556.369920
 21
-59.847670
 31
0.0
  0
ARC
  8
0
  6
BYLAYER
 62
     7
 10
556.387372
 20
-58.847822
 30
0.0
 40
1.000000
 50
180.000000
 51
269.000015
  0
LINE
  8
0
  6
BYLAYER
 62
     7
 10
587.387372
 20
-244.389082
 30
0.0
 11
584.887372
 21
-244.432722
 31
0.0
  0
LINE
  8
0
  6
BYLAYER
 62
     7
 10
540.887372
 20
-152.389078
 30
0.0
 11
540.887372
 21
-28.389082
 31
0.0
  0
ARC
  8
0
  6
BYLAYER
 62
     7
 10
541.887372
 20
-28.389082
 30
0.0
 40
1.0
 50
90.0
 51
179.999996
  0
LINE
  8
0
  6
BYLAYER
 62
     7
 10
541.887372
 20
-27.389082
 30
0.0
 11
554.387372
 21
-27.389082
 31
0.0
  0
LINE
  8
0
  6
BYLAYER
 62
     7
 10
555.387372
 20
-28.389082
 30
0.0
 11
555.387372
 21
-152.389078
 31
0.0
  0
ARC
  8
0
  6
BYLAYER
 62
     7
 10
554.387372
 20
-28.389082
 30
0.0
 40
1.000000
 50
0.0
 51
89.999999
  0
LINE
  8
0
  6
BYLAYER
 62
     7
 10
540.887372
 20
-152.389078
 30
0.0
 11
540.887372
 21
-276.389082
 31
0.0
  0
ARC
  8
0
  6
BYLAYER
 62
     7
 10
541.887372
 20
-276.389082
 30
0.0
 40
1.000000
 50
180.000000
 51
270.000003
  0
LINE
  8
0
  6
BYLAYER
 62
     7
 10
541.887372
 20
-277.389082
 30
0.0
 11
554.387372
 21
-277.389082
 31
0.0
  0
LINE
  8
0
  6
BYLAYER
 62
     7
 10
555.387372
 20
-276.389082
 30
0.0
 11
555.387372
 21
-152.389078
 31
0.0
  0
ARC
  8
0
  6
BYLAYER
 62
     7
 10
554.387372
 20
-276.389082
 30
0.0
 40
1.0
 50
270.0
 51
360.000003
  0
LINE
  8
0
  6
BYLAYER
 62
     7
 10
587.387372
 20
-244.389082
 30
0.0
 11
587.387372
 21
-60.389078
 31
0.0
  0
ARC
  8
0
  6
BYLAYER
 62
     7
 10
621.387372
 20
-50.389597
 30
0.0
 40
13.0
 50
180.000019
 51
360.000018
  0
ARC
  8
0
  6
BYLAYER
 62
     7
 10
660.387372
 20
-50.389597
 30
0.0
 40
13.0
 50
180.000019
 51
360.000018
  0
LINE
  8
0
  6
BYLAYER
 62
     7
 10
591.887372
 20
-41.889597
 30
0.0
 11
606.387372
 21
-41.889597
 31
0.0
  0
LINE
  8
0
  6
BYLAYER
 62
     7
 10
608.387372
 20
-50.389597
 30
0.0
 11
608.387372
 21
-43.889597
 31
0.0
  0
ARC
  8
0
  6
BYLAYER
 62
     7
 10
606.387372
 20
-43.889597
 30
0.0
 40
2.0
 50
0.0
 51
90.000003
  0
LINE
  8
0
  6
BYLAYER
 62
     7
 10
634.387372
 20
-50.389597
 30
0.0
 11
634.387372
 21
-43.889597
 31
0.0
  0
ARC
  8
0
  6
BYLAYER
 62
     7
 10
636.387372
 20
-43.889597
 30
0.0
 40
2.000000
 50
90.0
 51
180.000003
  0
LINE
  8
0
  6
BYLAYER
 62
     7
 10
636.387372
 20
-41.889597
 30
0.0
 11
645.387372
 21
-41.889597
 31
0.0
  0
LINE
  8
0
  6
BYLAYER
 62
     7
 10
647.387372
 20
-50.389597
 30
0.0
 11
647.387372
 21
-43.889597
 31
0.0
  0
ARC
  8
0
  6
BYLAYER
 62
     7
 10
645.387372
 20
-43.889597
 30
0.0
 40
2.0
 50
0.0
 51
90.000003
  0
LINE
  8
0
  6
BYLAYER
 62
     7
 10
673.387372
 20
-50.389597
 30
0.0
 11
673.387372
 21
-43.889597
 31
0.0
  0
LINE
  8
0
  6
BYLAYER
 62
     7
 10
675.387402
 20
-41.889597
 30
0.0
 11
689.887402
 21
-41.889597
 31
0.0
  0
ARC
  8
0
  6
BYLAYER
 62
     7
 10
675.387402
 20
-43.889597
 30
0.0
 40
2.000031
 50
90.0
 51
180.000003
  0
ARC
  8
0
  6
BYLAYER
 62
     7
 10
592.887372
 20
-135.039072
 30
0.0
 40
1.0
 50
90.0
 51
180.000003
  0
ARC
  8
0
  6
BYLAYER
 62
     7
 10
592.887372
 20
-135.039072
 30
0.0
 40
1.0
 50
180.000000
 51
269.999996
  0
ARC
  8
0
  6
BYLAYER
 62
     7
 10
592.887372
 20
-122.339090
 30
0.0
 40
1.0
 50
90.0
 51
180.000003
  0
ARC
  8
0
  6
BYLAYER
 62
     7
 10
592.887372
 20
-122.339090
 30
0.0
 40
1.0
 50
180.000000
 51
269.999996
  0
ARC
  8
0
  6
BYLAYER
 62
     7
 10
592.887372
 20
-109.639078
 30
0.0
 40
1.0
 50
90.0
 51
180.000003
  0
ARC
  8
0
  6
BYLAYER
 62
     7
 10
592.887372
 20
-109.639078
 30
0.0
 40
1.0
 50
180.000000
 51
269.999996
  0
ARC
  8
0
  6
BYLAYER
 62
     7
 10
592.887372
 20
-96.939066
 30
0.0
 40
1.0
 50
90.0
 51
180.000003
  0
ARC
  8
0
  6
BYLAYER
 62
     7
 10
592.887372
 20
-96.939066
 30
0.0
 40
1.0
 50
180.000000
 51
269.999996
  0
ARC
  8
0
  6
BYLAYER
 62
     7
 10
592.887372
 20
-84.239084
 30
0.0
 40
1.0
 50
90.0
 51
180.000003
  0
ARC
  8
0
  6
BYLAYER
 62
     7
 10
592.887372
 20
-84.239084
 30
0.0
 40
1.0
 50
180.000000
 51
269.999996
  0
LINE
  8
0
  6
BYLAYER
 62
     7
 10
689.887402
 20
-83.239084
 30
0.0
 11
689.887402
 21
-36.389597
 31
0.0
  0
ARC
  8
0
  6
BYLAYER
 62
     7
 10
592.887372
 20
-169.739084
 30
0.0
 40
1.0
 50
180.000000
 51
270.000009
  0
ARC
  8
0
  6
BYLAYER
 62
     7
 10
592.887372
 20
-169.739084
 30
0.0
 40
1.000000
 50
90.0
 51
179.999989
  0
ARC
  8
0
  6
BYLAYER
 62
     7
 10
592.887372
 20
-182.439066
 30
0.0
 40
1.0
 50
180.000000
 51
270.000009
  0
ARC
  8
0
  6
BYLAYER
 62
     7
 10
592.887372
 20
-182.439066
 30
0.0
 40
1.0
 50
90.0
 51
179.999989
  0
ARC
  8
0
  6
BYLAYER
 62
     7
 10
592.887372
 20
-195.139078
 30
0.0
 40
1.0
 50
180.000000
 51
270.000009
  0
ARC
  8
0
  6
BYLAYER
 62
     7
 10
592.887372
 20
-195.139078
 30
0.0
 40
1.000000
 50
90.0
 51
179.999989
  0
ARC
  8
0
  6
BYLAYER
 62
     7
 10
592.887372
 20
-207.839060
 30
0.0
 40
1.0
 50
180.000000
 51
270.000009
  0
ARC
  8
0
  6
BYLAYER
 62
     7
 10
592.887372
 20
-207.839060
 30
0.0
 40
1.000000
 50
90.0
 51
179.999989
  0
ARC
  8
0
  6
BYLAYER
 62
     7
 10
592.887372
 20
-220.539072
 30
0.0
 40
1.0
 50
180.000000
 51
270.000009
  0
ARC
  8
0
  6
BYLAYER
 62
     7
 10
592.887372
 20
-220.539072
 30
0.0
 40
1.0
 50
90.0
 51
179.999989
  0
LINE
  8
0
  6
BYLAYER
 62
     7
 10
592.887372
 20
-194.139078
 30
0.0
 11
760.366040
 21
-194.139078
 31
0.0
  0
LINE
  8
0
  6
BYLAYER
 62
     7
 10
592.887372
 20
-196.139078
 30
0.0
 11
760.366040
 21
-196.139078
 31
0.0
  0
LINE
  8
0
  6
BYLAYER
 62
     7
 10
592.887372
 20
-121.339090
 30
0.0
 11
645.325635
 21
-121.339090
 31
0.0
  0
LINE
  8
0
  6
BYLAYER
 62
     7
 10
592.887372
 20
-123.339090
 30
0.0
 11
645.325635
 21
-123.339090
 31
0.0
  0
LINE
  8
0
  6
BYLAYER
 62
     7
 10
650.449109
 20
-121.339090
 30
0.0
 11
700.325635
 21
-121.339090
 31
0.0
  0
LINE
  8
0
  6
BYLAYER
 62
     7
 10
650.449109
 20
-123.339090
 30
0.0
 11
700.325635
 21
-123.339090
 31
0.0
  0
ARC
  8
0
  6
BYLAYER
 62
     7
 10
647.887372
 20
-122.339090
 30
0.0
 40
2.750000
 50
21.323692
 51
158.676305
  0
ARC
  8
0
  6
BYLAYER
 62
     7
 10
702.887372
 20
-122.339090
 30
0.0
 40
2.75
 50
21.323692
 51
158.676305
  0
ARC
  8
0
  6
BYLAYER
 62
     7
 10
647.887372
 20
-122.339090
 30
0.0
 40
2.75
 50
201.323692
 51
338.676296
  0
ARC
  8
0
  6
BYLAYER
 62
     7
 10
702.887372
 20
-122.339090
 30
0.0
 40
2.75
 50
201.323692
 51
338.676296
  0
LINE
  8
0
  6
BYLAYER
 62
     7
 10
591.887372
 20
-60.389109
 30
0.0
 11
587.387372
 21
-60.389109
 31
0.0
  0
LINE
  8
0
  6
BYLAYER
 62
     7
 10
597.887372
 20
-223.207956
 30
0.0
 11
591.887372
 21
-225.828348
 31
0.0
  0
LINE
  8
0
  6
BYLAYER
 62
     7
 10
591.887372
 20
-244.389078
 30
0.0
 11
591.887372
 21
-36.389597
 31
0.0
  0
LINE
  8
0
  6
BYLAYER
 62
     7
 10
587.387372
 20
-244.389078
 30
0.0
 11
591.887372
 21
-244.389078
 31
0.0
  0
LINE
  8
0
  6
BYLAYER
 62
     7
 10
591.887372
 20
-225.828348
 30
0.0
 11
595.247510
 21
-233.923990
 31
0.0
  0
ARC
  8
0
  6
BYLAYER
 62
     7
 10
597.556531
 20
-232.965616
 30
0.0
 40
2.500012
 50
202.541214
 51
270.000001
  0
LINE
  8
0
  6
BYLAYER
 62
     7
 10
591.887372
 20
-230.226786
 30
0.0
 11
595.370282
 21
-242.451822
 31
0.0
  0
ARC
  8
0
  6
BYLAYER
 62
     7
 10
597.774610
 20
-241.766825
 30
0.0
 40
2.500002
 50
195.902352
 51
270.000001
  0
LINE
  8
0
  6
BYLAYER
 62
     7
 10
591.887372
 20
-237.314402
 30
0.0
 11
595.337872
 21
-248.313822
 31
0.0
  0
ARC
  8
0
  6
BYLAYER
 62
     7
 10
597.723248
 20
-247.565531
 30
0.0
 40
2.499992
 50
197.416605
 51
270.000001
  0
ARC
  8
0
  6
BYLAYER
 62
     7
 10
597.827832
 20
-251.239878
 30
0.0
 40
2.499992
 50
197.416605
 51
270.000001
  0
LINE
  8
0
  6
BYLAYER
 62
     7
 10
591.887372
 20
-244.389078
 30
0.0
 11
595.155957
 21
-253.808664
 31
0.0
  0
ARC
  8
0
  6
BYLAYER
 62
     7
 10
597.517804
 20
-252.989115
 30
0.0
 40
2.499996
 50
199.136528
 51
270.000001
  0
LINE
  8
0
  6
BYLAYER
 62
     7
 10
595.442456
 20
-251.988169
 30
0.0
 11
591.887372
 21
-240.655375
 31
0.0
  0
ARC
  8
0
  6
BYLAYER
 62
     7
 10
596.887372
 20
-135.039072
 30
0.0
 40
1.0
 50
90.0
 51
180.000003
  0
ARC
  8
0
  6
BYLAYER
 62
     7
 10
596.887372
 20
-135.039072
 30
0.0
 40
1.0
 50
180.000000
 51
269.999996
  0
ARC
  8
0
  6
BYLAYER
 62
     7
 10
596.887372
 20
-169.739084
 30
0.0
 40
1.0
 50
180.000000
 51
270.000009
  0
ARC
  8
0
  6
BYLAYER
 62
     7
 10
596.887372
 20
-169.739084
 30
0.0
 40
1.000000
 50
90.0
 51
179.999989
  0
ARC
  8
0
  6
BYLAYER
 62
     7
 10
596.887372
 20
-182.439066
 30
0.0
 40
1.0
 50
180.000000
 51
270.000009
  0
ARC
  8
0
  6
BYLAYER
 62
     7
 10
596.887372
 20
-182.439066
 30
0.0
 40
1.0
 50
90.0
 51
179.999989
  0
ARC
  8
0
  6
BYLAYER
 62
     7
 10
596.887372
 20
-195.139078
 30
0.0
 40
1.0
 50
180.000000
 51
270.000009
  0
ARC
  8
0
  6
BYLAYER
 62
     7
 10
596.887372
 20
-195.139078
 30
0.0
 40
1.0
 50
90.0
 51
179.999989
  0
ARC
  8
0
  6
BYLAYER
 62
     7
 10
596.887372
 20
-207.839060
 30
0.0
 40
1.0
 50
180.000000
 51
270.000009
  0
ARC
  8
0
  6
BYLAYER
 62
     7
 10
596.887372
 20
-207.839060
 30
0.0
 40
1.0
 50
90.0
 51
179.999989
  0
ARC
  8
0
  6
BYLAYER
 62
     7
 10
596.887372
 20
-220.539072
 30
0.0
 40
1.0
 50
180.000000
 51
270.000009
  0
ARC
  8
0
  6
BYLAYER
 62
     7
 10
596.887372
 20
-220.539072
 30
0.0
 40
1.0
 50
90.0
 51
179.999989
  0
ARC
  8
0
  6
BYLAYER
 62
     7
 10
596.887372
 20
-122.339090
 30
0.0
 40
1.0
 50
90.0
 51
180.000003
  0
ARC
  8
0
  6
BYLAYER
 62
     7
 10
596.887372
 20
-122.339090
 30
0.0
 40
1.0
 50
180.000000
 51
269.999996
  0
ARC
  8
0
  6
BYLAYER
 62
     7
 10
596.887372
 20
-109.639078
 30
0.0
 40
1.0
 50
90.0
 51
180.000003
  0
ARC
  8
0
  6
BYLAYER
 62
     7
 10
596.887372
 20
-109.639078
 30
0.0
 40
1.0
 50
180.000000
 51
269.999996
  0
ARC
  8
0
  6
BYLAYER
 62
     7
 10
596.887372
 20
-96.939066
 30
0.0
 40
1.0
 50
90.0
 51
180.000003
  0
ARC
  8
0
  6
BYLAYER
 62
     7
 10
596.887372
 20
-96.939066
 30
0.0
 40
1.0
 50
180.000000
 51
269.999996
  0
ARC
  8
0
  6
BYLAYER
 62
     7
 10
596.887372
 20
-84.239084
 30
0.0
 40
1.0
 50
90.0
 51
180.000003
  0
ARC
  8
0
  6
BYLAYER
 62
     7
 10
596.887372
 20
-84.239084
 30
0.0
 40
1.0
 50
180.000000
 51
269.999996
  0
LINE
  8
0
  6
BYLAYER
 62
     7
 10
598.387372
 20
-219.539072
 30
0.0
 11
598.387372
 21
-208.839060
 31
0.0
  0
LINE
  8
0
  6
BYLAYER
 62
     7
 10
598.387372
 20
-206.839060
 30
0.0
 11
598.387372
 21
-196.139078
 31
0.0
  0
LINE
  8
0
  6
BYLAYER
 62
     7
 10
598.387372
 20
-194.139078
 30
0.0
 11
598.387372
 21
-183.439066
 31
0.0
  0
LINE
  8
0
  6
BYLAYER
 62
     7
 10
598.387372
 20
-168.739084
 30
0.0
 11
598.387372
 21
-158.039102
 31
0.0
  0
LINE
  8
0
  6
BYLAYER
 62
     7
 10
598.387372
 20
-181.439066
 30
0.0
 11
598.387372
 21
-170.739084
 31
0.0
  0
LINE
  8
0
  6
BYLAYER
 62
     7
 10
598.387372
 20
-148.739054
 30
0.0
 11
598.387372
 21
-152.389078
 31
0.0
  0
LINE
  8
0
  6
BYLAYER
 62
     7
 10
598.387372
 20
-156.039102
 30
0.0
 11
598.387372
 21
-152.389078
 31
0.0
  0
LINE
  8
0
  6
BYLAYER
 62
     7
 10
598.387372
 20
-136.039072
 30
0.0
 11
598.387372
 21
-146.739054
 31
0.0
  0
LINE
  8
0
  6
BYLAYER
 62
     7
 10
598.387372
 20
-123.339090
 30
0.0
 11
598.387372
 21
-134.039072
 31
0.0
  0
LINE
  8
0
  6
BYLAYER
 62
     7
 10
598.387372
 20
-110.639078
 30
0.0
 11
598.387372
 21
-121.339090
 31
0.0
  0
LINE
  8
0
  6
BYLAYER
 62
     7
 10
598.387372
 20
-97.939066
 30
0.0
 11
598.387372
 21
-108.639078
 31
0.0
  0
LINE
  8
0
  6
BYLAYER
 62
     7
 10
598.387372
 20
-85.239084
 30
0.0
 11
598.387372
 21
-95.939066
 31
0.0
  0
LINE
  8
0
  6
BYLAYER
 62
     7
 10
587.387372
 20
-244.389078
 30
0.0
 11
587.387372
 21
-60.389109
 31
0.0
  0
LINE
  8
0
  6
BYLAYER
 62
     7
 10
689.887402
 20
-47.389597
 30
0.0
 11
760.366040
 21
-47.389458
 31
0.0
  0
LINE
  8
0
  6
BYLAYER
 62
     7
 10
689.887402
 20
-50.389597
 30
0.0
 11
760.366040
 21
-50.389457
 31
0.0
  0
LINE
  8
0
  6
BYLAYER
 62
     7
 10
689.887402
 20
-54.389597
 30
0.0
 11
760.366040
 21
-54.389458
 31
0.0
  0
LINE
  8
0
  6
BYLAYER
 62
     7
 10
689.887402
 20
-60.389536
 30
0.0
 11
760.366040
 21
-60.389536
 31
0.0
  0
LINE
  8
0
  6
BYLAYER
 62
     7
 10
592.887372
 20
-83.239084
 30
0.0
 11
760.366040
 21
-83.239084
 31
0.0
  0
LINE
  8
0
  6
BYLAYER
 62
     7
 10
592.887372
 20
-85.239084
 30
0.0
 11
760.366040
 21
-85.239084
 31
0.0
  0
LINE
  8
0
  6
BYLAYER
 62
     7
 10
592.887372
 20
-95.939066
 30
0.0
 11
760.366040
 21
-95.939066
 31
0.0
  0
LINE
  8
0
  6
BYLAYER
 62
     7
 10
592.887372
 20
-97.939066
 30
0.0
 11
760.366040
 21
-97.939066
 31
0.0
  0
LINE
  8
0
  6
BYLAYER
 62
     7
 10
592.887372
 20
-108.639078
 30
0.0
 11
760.366040
 21
-108.639078
 31
0.0
  0
LINE
  8
0
  6
BYLAYER
 62
     7
 10
592.887372
 20
-110.639078
 30
0.0
 11
760.366040
 21
-110.639078
 31
0.0
  0
LINE
  8
0
  6
BYLAYER
 62
     7
 10
705.449109
 20
-121.339090
 30
0.0
 11
760.366040
 21
-121.339090
 31
0.0
  0
LINE
  8
0
  6
BYLAYER
 62
     7
 10
705.449109
 20
-123.339090
 30
0.0
 11
760.366040
 21
-123.339090
 31
0.0
  0
LINE
  8
0
  6
BYLAYER
 62
     7
 10
592.887372
 20
-134.039072
 30
0.0
 11
760.366040
 21
-134.039072
 31
0.0
  0
LINE
  8
0
  6
BYLAYER
 62
     7
 10
592.887372
 20
-136.039072
 30
0.0
 11
760.366040
 21
-136.039072
 31
0.0
  0
LINE
  8
0
  6
BYLAYER
 62
     7
 10
592.887372
 20
-168.739084
 30
0.0
 11
760.366040
 21
-168.739084
 31
0.0
  0
LINE
  8
0
  6
BYLAYER
 62
     7
 10
592.887372
 20
-170.739084
 30
0.0
 11
760.366040
 21
-170.739084
 31
0.0
  0
LINE
  8
0
  6
BYLAYER
 62
     7
 10
592.887372
 20
-181.439066
 30
0.0
 11
760.366040
 21
-181.439066
 31
0.0
  0
LINE
  8
0
  6
BYLAYER
 62
     7
 10
592.887372
 20
-183.439066
 30
0.0
 11
760.366040
 21
-183.439066
 31
0.0
  0
LINE
  8
0
  6
BYLAYER
 62
     7
 10
592.887372
 20
-206.839060
 30
0.0
 11
760.366040
 21
-206.839060
 31
0.0
  0
LINE
  8
0
  6
BYLAYER
 62
     7
 10
592.887372
 20
-208.839060
 30
0.0
 11
760.366040
 21
-208.839060
 31
0.0
  0
LINE
  8
0
  6
BYLAYER
 62
     7
 10
592.887372
 20
-219.539072
 30
0.0
 11
760.366040
 21
-219.539072
 31
0.0
  0
LINE
  8
0
  6
BYLAYER
 62
     7
 10
592.887372
 20
-221.539072
 30
0.0
 11
760.366040
 21
-221.539072
 31
0.0
  0
LINE
  8
0
  6
BYLAYER
 62
     7
 10
597.887372
 20
-223.207956
 30
0.0
 11
760.366040
 21
-223.207956
 31
0.0
  0
LINE
  8
0
  6
BYLAYER
 62
     7
 10
597.556531
 20
-235.465616
 30
0.0
 11
760.366040
 21
-235.465616
 31
0.0
  0
LINE
  8
0
  6
BYLAYER
 62
     7
 10
597.774610
 20
-244.266825
 30
0.0
 11
760.366040
 21
-244.266825
 31
0.0
  0
LINE
  8
0
  6
BYLAYER
 62
     7
 10
597.723248
 20
-250.065531
 30
0.0
 11
760.366040
 21
-250.065531
 31
0.0
  0
LINE
  8
0
  6
BYLAYER
 62
     7
 10
597.827832
 20
-253.739878
 30
0.0
 11
760.366040
 21
-253.739878
 31
0.0
  0
LINE
  8
0
  6
BYLAYER
 62
     7
 10
597.517804
 20
-255.489115
 30
0.0
 11
760.366040
 21
-255.489115
 31
0.0
  0
ARC
  8
0
  6
BYLAYER
 62
     7
 10
592.887372
 20
-147.739054
 30
0.0
 40
1.000000
 50
180.000000
 51
270.000003
  0
ARC
  8
0
  6
BYLAYER
 62
     7
 10
592.887372
 20
-147.739054
 30
0.0
 40
1.0
 50
90.0
 51
179.999996
  0
ARC
  8
0
  6
BYLAYER
 62
     7
 10
596.887372
 20
-147.739054
 30
0.0
 40
1.000000
 50
180.000000
 51
270.000003
  0
ARC
  8
0
  6
BYLAYER
 62
     7
 10
596.887372
 20
-147.739054
 30
0.0
 40
1.0
 50
90.0
 51
179.999996
  0
LINE
  8
0
  6
BYLAYER
 62
     7
 10
705.449109
 20
-148.739054
 30
0.0
 11
760.366040
 21
-148.739054
 31
0.0
  0
LINE
  8
0
  6
BYLAYER
 62
     7
 10
705.449109
 20
-146.739054
 30
0.0
 11
760.366040
 21
-146.739054
 31
0.0
  0
LINE
  8
0
  6
BYLAYER
 62
     7
 10
592.887372
 20
-146.739054
 30
0.0
 11
705.449109
 21
-146.739054
 31
0.0
  0
LINE
  8
0
  6
BYLAYER
 62
     7
 10
592.887372
 20
-148.739054
 30
0.0
 11
705.449109
 21
-148.739054
 31
0.0
  0
ARC
  8
0
  6
BYLAYER
 62
     7
 10
592.887372
 20
-157.039102
 30
0.0
 40
1.0
 50
90.0
 51
180.000003
  0
ARC
  8
0
  6
BYLAYER
 62
     7
 10
592.887372
 20
-157.039102
 30
0.0
 40
1.0
 50
180.000000
 51
269.999996
  0
ARC
  8
0
  6
BYLAYER
 62
     7
 10
596.887372
 20
-157.039102
 30
0.0
 40
1.0
 50
90.0
 51
180.000003
  0
ARC
  8
0
  6
BYLAYER
 62
     7
 10
596.887372
 20
-157.039102
 30
0.0
 40
1.0
 50
180.000000
 51
269.999996
  0
LINE
  8
0
  6
BYLAYER
 62
     7
 10
705.449109
 20
-156.039102
 30
0.0
 11
760.366040
 21
-156.039102
 31
0.0
  0
LINE
  8
0
  6
BYLAYER
 62
     7
 10
705.449109
 20
-158.039102
 30
0.0
 11
760.366040
 21
-158.039102
 31
0.0
  0
LINE
  8
0
  6
BYLAYER
 62
     7
 10
592.887372
 20
-158.039102
 30
0.0
 11
705.449109
 21
-158.039102
 31
0.0
  0
LINE
  8
0
  6
BYLAYER
 62
     7
 10
592.887372
 20
-156.039102
 30
0.0
 11
705.449109
 21
-156.039102
 31
0.0
  0
LINE
  8
0
  6
BYLAYER
 62
     7
 10
760.366040
 20
-46.989627
 30
0.0
 11
760.366040
 21
-152.389078
 31
0.0
  0
LINE
  8
0
  6
BYLAYER
 62
     7
 10
760.366040
 20
-152.389078
 30
0.0
 11
760.366040
 21
-257.789627
 31
0.0
  0
LINE
  8
0
  6
BYLAYER
 62
     7
 10
843.966040
 20
-46.989627
 30
0.0
 11
760.366040
 21
-46.989627
 31
0.0
  0
LINE
  8
0
  6
BYLAYER
 62
     7
 10
760.366040
 20
-257.789627
 30
0.0
 11
843.966040
 21
-257.789627
 31
0.0
  0
LINE
  8
0
  6
BYLAYER
 62
     7
 10
865.366040
 20
-236.389627
 30
0.0
 11
865.366040
 21
-68.389627
 31
0.0
  0
LINE
  8
0
  6
BYLAYER
 62
     7
 10
843.966040
 20
-257.789627
 30
0.0
 11
865.366040
 21
-236.389627
 31
0.0
  0
LINE
  8
0
  6
BYLAYER
 62
     7
 10
865.366040
 20
-68.389627
 30
0.0
 11
843.966040
 21
-46.989627
 31
0.0
  0
LINE
  8
0
  6
BYLAYER
 62
     7
 10
684.387372
 20
-25.889597
 30
0.0
 11
684.387372
 21
-4.389597
 31
0.0
  0
ARC
  8
0
  6
BYLAYER
 62
     7
 10
685.887372
 20
-25.889597
 30
0.0
 40
1.5
 50
180.000000
 51
270.000000
  0
ARC
  8
0
  6
BYLAYER
 62
     7
 10
682.887372
 20
-4.389597
 30
0.0
 40
1.5
 50
0.0
 51
90.0
  0
LINE
  8
0
  6
BYLAYER
 62
     7
 10
597.387372
 20
-25.889597
 30
0.0
 11
597.387372
 21
-4.389597
 31
0.0
  0
ARC
  8
0
  6
BYLAYER
 62
     7
 10
595.887372
 20
-25.889597
 30
0.0
 40
1.5
 50
270.0
 51
360.0
  0
ARC
  8
0
  6
BYLAYER
 62
     7
 10
598.887372
 20
-4.389597
 30
0.0
 40
1.500000
 50
90.0
 51
180.0
  0
LINE
  8
0
  6
BYLAYER
 62
     7
 10
598.887372
 20
-2.889597
 30
0.0
 11
682.887372
 21
-2.889597
 31
0.0
  0
LINE
  8
0
  6
BYLAYER
 62
     7
 10
602.759613
 20
-25.889597
 30
0.0
 11
602.759613
 21
-4.389597
 31
0.0
  0
ARC
  8
0
  6
BYLAYER
 62
     7
 10
601.259613
 20
-25.889597
 30
0.0
 40
1.500000
 50
270.0
 51
360.0
  0
ARC
  8
0
  6
BYLAYER
 62
     7
 10
604.259613
 20
-4.389597
 30
0.0
 40
1.500000
 50
90.0
 51
180.0
  0
LINE
  8
0
  6
BYLAYER
 62
     7
 10
679.015131
 20
-25.889597
 30
0.0
 11
679.015131
 21
-4.389597
 31
0.0
  0
ARC
  8
0
  6
BYLAYER
 62
     7
 10
680.515131
 20
-25.889597
 30
0.0
 40
1.500000
 50
180.000000
 51
270.000000
  0
ARC
  8
0
  6
BYLAYER
 62
     7
 10
677.515131
 20
-4.389597
 30
0.0
 40
1.5
 50
0.0
 51
90.0
  0
LINE
  8
0
  6
BYLAYER
 62
     7
 10
640.887372
 20
-27.389597
 30
0.0
 11
688.387372
 21
-27.389597
 31
0.0
  0
ARC
  8
0
  6
BYLAYER
 62
     7
 10
688.387372
 20
-28.889597
 30
0.0
 40
1.500000
 50
0.0
 51
90.0
  0
LINE
  8
0
  6
BYLAYER
 62
     7
 10
689.887372
 20
-36.389597
 30
0.0
 11
689.887372
 21
-28.889597
 31
0.0
  0
LINE
  8
0
  6
BYLAYER
 62
     7
 10
593.387372
 20
-27.389597
 30
0.0
 11
640.887372
 21
-27.389597
 31
0.0
  0
ARC
  8
0
  6
BYLAYER
 62
     7
 10
593.387372
 20
-28.889597
 30
0.0
 40
1.5
 50
90.0
 51
180.0
  0
LINE
  8
0
  6
BYLAYER
 62
     7
 10
591.887372
 20
-34.389597
 30
0.0
 11
591.887372
 21
-28.889597
 31
0.0
  0
LINE
  8
0
  6
BYLAYER
 62
     7
 10
689.887372
 20
-34.389597
 30
0.0
 11
591.887372
 21
-34.389597
 31
0.0
  0
LINE
  8
0
  6
BYLAYER
 62
     7
 10
591.887372
 20
-34.389597
 30
0.0
 11
591.887372
 21
-36.389597
 31
0.0
  0
LINE
  8
0
  6
BYLAYER
 62
     7
 10
591.887372
 20
-36.389597
 30
0.0
 11
689.887372
 21
-36.389597
 31
0.0
  0
LINE
  8
0
  6
BYLAYER
 62
     7
 10
843.966040
 20
-257.789627
 30
0.0
 11
843.966040
 21
-46.989627
 31
0.0
  0
LINE
  8
0
  6
BYLAYER
 62
     7
 10
587.387372
 20
-770.389082
 30
0.0
 11
556.369920
 21
-769.847670
 31
0.0
  0
ARC
  8
0
  6
BYLAYER
 62
     7
 10
556.387372
 20
-768.847822
 30
0.0
 40
1.000000
 50
180.000000
 51
269.000015
  0
LINE
  8
0
  6
BYLAYER
 62
     7
 10
540.887372
 20
-862.389078
 30
0.0
 11
540.887372
 21
-738.389082
 31
0.0
  0
ARC
  8
0
  6
BYLAYER
 62
     7
 10
541.887372
 20
-738.389082
 30
0.0
 40
1.0
 50
90.0
 51
179.999996
  0
LINE
  8
0
  6
BYLAYER
 62
     7
 10
541.887372
 20
-737.389082
 30
0.0
 11
554.387372
 21
-737.389082
 31
0.0
  0
LINE
  8
0
  6
BYLAYER
 62
     7
 10
555.387372
 20
-738.389082
 30
0.0
 11
555.387372
 21
-862.389078
 31
0.0
  0
ARC
  8
0
  6
BYLAYER
 62
     7
 10
554.387372
 20
-738.389082
 30
0.0
 40
1.000000
 50
0.0
 51
89.999999
  0
LINE
  8
0
  6
BYLAYER
 62
     7
 10
587.387372
 20
-862.389078
 30
0.0
 11
587.387372
 21
-770.389078
 31
0.0
  0
LINE
  8
0
  6
BYLAYER
 62
     7
 10
587.387372
 20
-954.389074
 30
0.0
 11
556.369920
 21
-954.930486
 31
0.0
  0
ARC
  8
0
  6
BYLAYER
 62
     7
 10
556.387372
 20
-955.930334
 30
0.0
 40
1.000000
 50
90.999990
 51
180.000005
  0
LINE
  8
0
  6
BYLAYER
 62
     7
 10
540.887372
 20
-862.389078
 30
0.0
 11
540.887372
 21
-986.389074
 31
0.0
  0
ARC
  8
0
  6
BYLAYER
 62
     7
 10
541.887372
 20
-986.389074
 30
0.0
 40
1.0
 50
180.000000
 51
269.999996
  0
LINE
  8
0
  6
BYLAYER
 62
     7
 10
541.887372
 20
-987.389074
 30
0.0
 11
554.387372
 21
-987.389074
 31
0.0
  0
LINE
  8
0
  6
BYLAYER
 62
     7
 10
555.387372
 20
-986.389074
 30
0.0
 11
555.387372
 21
-862.389078
 31
0.0
  0
ARC
  8
0
  6
BYLAYER
 62
     7
 10
554.387372
 20
-986.389074
 30
0.0
 40
1.000000
 50
270.0
 51
359.999999
  0
LINE
  8
0
  6
BYLAYER
 62
     7
 10
587.387372
 20
-862.389078
 30
0.0
 11
587.387372
 21
-954.389078
 31
0.0
  0
ARC
  8
0
  6
BYLAYER
 62
     7
 10
592.887372
 20
-917.839060
 30
0.0
 40
1.000000
 50
180.000000
 51
270.000009
  0
ARC
  8
0
  6
BYLAYER
 62
     7
 10
592.887372
 20
-917.839060
 30
0.0
 40
1.000000
 50
90.0
 51
179.999989
  0
ARC
  8
0
  6
BYLAYER
 62
     7
 10
592.887372
 20
-930.539072
 30
0.0
 40
1.0
 50
180.000000
 51
270.000009
  0
ARC
  8
0
  6
BYLAYER
 62
     7
 10
592.887372
 20
-930.539072
 30
0.0
 40
1.000000
 50
90.0
 51
179.999989
  0
LINE
  8
0
  6
BYLAYER
 62
     7
 10
689.887372
 20
-904.139078
 30
0.0
 11
760.366040
 21
-904.139078
 31
0.0
  0
LINE
  8
0
  6
BYLAYER
 62
     7
 10
689.887372
 20
-906.139078
 30
0.0
 11
760.366040
 21
-906.139078
 31
0.0
  0
LINE
  8
0
  6
BYLAYER
 62
     7
 10
597.887372
 20
-933.207956
 30
0.0
 11
591.887372
 21
-935.828348
 31
0.0
  0
LINE
  8
0
  6
BYLAYER
 62
     7
 10
591.887372
 20
-954.389078
 30
0.0
 11
591.887372
 21
-862.389078
 31
0.0
  0
LINE
  8
0
  6
BYLAYER
 62
     7
 10
587.387372
 20
-954.389078
 30
0.0
 11
591.887372
 21
-954.389078
 31
0.0
  0
LINE
  8
0
  6
BYLAYER
 62
     7
 10
591.887372
 20
-935.828348
 30
0.0
 11
595.247510
 21
-943.923990
 31
0.0
  0
ARC
  8
0
  6
BYLAYER
 62
     7
 10
597.556531
 20
-942.965616
 30
0.0
 40
2.500012
 50
202.541214
 51
270.000001
  0
LINE
  8
0
  6
BYLAYER
 62
     7
 10
591.887372
 20
-940.226786
 30
0.0
 11
595.370282
 21
-952.451822
 31
0.0
  0
ARC
  8
0
  6
BYLAYER
 62
     7
 10
597.774610
 20
-951.766825
 30
0.0
 40
2.500002
 50
195.902352
 51
270.000001
  0
LINE
  8
0
  6
BYLAYER
 62
     7
 10
591.887372
 20
-947.314402
 30
0.0
 11
595.337872
 21
-958.313822
 31
0.0
  0
ARC
  8
0
  6
BYLAYER
 62
     7
 10
597.723248
 20
-957.565531
 30
0.0
 40
2.499992
 50
197.416605
 51
270.000001
  0
ARC
  8
0
  6
BYLAYER
 62
     7
 10
597.827832
 20
-961.239878
 30
0.0
 40
2.499992
 50
197.416605
 51
270.000001
  0
LINE
  8
0
  6
BYLAYER
 62
     7
 10
591.887372
 20
-954.389078
 30
0.0
 11
595.155957
 21
-963.808664
 31
0.0
  0
ARC
  8
0
  6
BYLAYER
 62
     7
 10
597.517804
 20
-962.989115
 30
0.0
 40
2.499996
 50
199.136528
 51
270.000001
  0
LINE
  8
0
  6
BYLAYER
 62
     7
 10
595.442456
 20
-961.988169
 30
0.0
 11
591.887372
 21
-950.655375
 31
0.0
  0
ARC
  8
0
  6
BYLAYER
 62
     7
 10
596.887372
 20
-917.839060
 30
0.0
 40
1.000000
 50
180.000000
 51
270.000009
  0
ARC
  8
0
  6
BYLAYER
 62
     7
 10
596.887372
 20
-917.839060
 30
0.0
 40
1.0
 50
90.0
 51
179.999989
  0
ARC
  8
0
  6
BYLAYER
 62
     7
 10
596.887372
 20
-930.539072
 30
0.0
 40
1.0
 50
180.000000
 51
270.000009
  0
ARC
  8
0
  6
BYLAYER
 62
     7
 10
596.887372
 20
-930.539072
 30
0.0
 40
1.000000
 50
90.0
 51
179.999989
  0
LINE
  8
0
  6
BYLAYER
 62
     7
 10
598.387372
 20
-929.539072
 30
0.0
 11
598.387372
 21
-918.839060
 31
0.0
  0
LINE
  8
0
  6
BYLAYER
 62
     7
 10
598.387372
 20
-916.839060
 30
0.0
 11
598.387372
 21
-911.389078
 31
0.0
  0
LINE
  8
0
  6
BYLAYER
 62
     7
 10
587.387372
 20
-954.389078
 30
0.0
 11
587.387372
 21
-862.389078
 31
0.0
  0
LINE
  8
0
  6
BYLAYER
 62
     7
 10
689.887372
 20
-878.739084
 30
0.0
 11
760.366040
 21
-878.739084
 31
0.0
  0
LINE
  8
0
  6
BYLAYER
 62
     7
 10
689.887372
 20
-880.739084
 30
0.0
 11
760.366040
 21
-880.739084
 31
0.0
  0
LINE
  8
0
  6
BYLAYER
 62
     7
 10
689.887372
 20
-891.439066
 30
0.0
 11
760.366040
 21
-891.439066
 31
0.0
  0
LINE
  8
0
  6
BYLAYER
 62
     7
 10
689.887372
 20
-893.439066
 30
0.0
 11
760.366040
 21
-893.439066
 31
0.0
  0
LINE
  8
0
  6
BYLAYER
 62
     7
 10
592.887372
 20
-916.839060
 30
0.0
 11
760.366040
 21
-916.839060
 31
0.0
  0
LINE
  8
0
  6
BYLAYER
 62
     7
 10
592.887372
 20
-918.839060
 30
0.0
 11
760.366040
 21
-918.839060
 31
0.0
  0
LINE
  8
0
  6
BYLAYER
 62
     7
 10
592.887372
 20
-929.539072
 30
0.0
 11
760.366040
 21
-929.539072
 31
0.0
  0
LINE
  8
0
  6
BYLAYER
 62
     7
 10
592.887372
 20
-931.539072
 30
0.0
 11
760.366040
 21
-931.539072
 31
0.0
  0
LINE
  8
0
  6
BYLAYER
 62
     7
 10
597.887372
 20
-933.207956
 30
0.0
 11
760.366040
 21
-933.207956
 31
0.0
  0
LINE
  8
0
  6
BYLAYER
 62
     7
 10
597.556531
 20
-945.465616
 30
0.0
 11
760.366040
 21
-945.465616
 31
0.0
  0
LINE
  8
0
  6
BYLAYER
 62
     7
 10
597.774610
 20
-954.266825
 30
0.0
 11
760.366040
 21
-954.266825
 31
0.0
  0
LINE
  8
0
  6
BYLAYER
 62
     7
 10
597.723248
 20
-960.065531
 30
0.0
 11
760.366040
 21
-960.065531
 31
0.0
  0
LINE
  8
0
  6
BYLAYER
 62
     7
 10
597.827832
 20
-963.739878
 30
0.0
 11
760.366040
 21
-963.739878
 31
0.0
  0
LINE
  8
0
  6
BYLAYER
 62
     7
 10
597.517804
 20
-965.489115
 30
0.0
 11
760.366040
 21
-965.489115
 31
0.0
  0
LINE
  8
0
  6
BYLAYER
 62
     7
 10
705.449109
 20
-866.039102
 30
0.0
 11
760.366040
 21
-866.039102
 31
0.0
  0
LINE
  8
0
  6
BYLAYER
 62
     7
 10
705.449109
 20
-868.039102
 30
0.0
 11
760.366040
 21
-868.039102
 31
0.0
  0
LINE
  8
0
  6
BYLAYER
 62
     7
 10
689.887372
 20
-868.039102
 30
0.0
 11
705.449109
 21
-868.039102
 31
0.0
  0
LINE
  8
0
  6
BYLAYER
 62
     7
 10
689.887372
 20
-866.039102
 30
0.0
 11
705.449109
 21
-866.039102
 31
0.0
  0
LINE
  8
0
  6
BYLAYER
 62
     7
 10
760.366040
 20
-862.389078
 30
0.0
 11
760.366040
 21
-967.789627
 31
0.0
  0
LINE
  8
0
  6
BYLAYER
 62
     7
 10
760.366040
 20
-967.789627
 30
0.0
 11
843.966040
 21
-967.789627
 31
0.0
  0
LINE
  8
0
  6
BYLAYER
 62
     7
 10
865.366040
 20
-946.389627
 30
0.0
 11
865.366040
 21
-862.389078
 31
0.0
  0
LINE
  8
0
  6
BYLAYER
 62
     7
 10
843.966040
 20
-967.789627
 30
0.0
 11
865.366040
 21
-946.389627
 31
0.0
  0
LINE
  8
0
  6
BYLAYER
 62
     7
 10
604.735841
 20
-905.889078
 30
0.0
 11
640.887372
 21
-905.889078
 31
0.0
  0
ARC
  8
0
  6
BYLAYER
 62
     7
 10
604.735841
 20
-904.389078
 30
0.0
 40
1.5
 50
191.536959
 51
270.000000
  0
LINE
  8
0
  6
BYLAYER
 62
     7
 10
597.387372
 20
-862.389078
 30
0.0
 11
597.387372
 21
-898.540609
 31
0.0
  0
LINE
  8
0
  6
BYLAYER
 62
     7
 10
640.887372
 20
-905.889078
 30
0.0
 11
677.038903
 21
-905.889078
 31
0.0
  0
LINE
  8
0
  6
BYLAYER
 62
     7
 10
684.387372
 20
-898.540609
 30
0.0
 11
684.387372
 21
-862.389078
 31
0.0
  0
LINE
  8
0
  6
BYLAYER
 62
     7
 10
611.492070
 20
-874.990184
 30
0.0
 11
597.387372
 21
-875.482731
 31
0.0
  0
ARC
  8
0
  6
BYLAYER
 62
     7
 10
611.387372
 20
-871.992012
 30
0.0
 40
3.0
 50
272.000000
 51
360.000000
  0
LINE
  8
0
  6
BYLAYER
 62
     7
 10
611.492070
 20
-889.990184
 30
0.0
 11
597.387372
 21
-890.482731
 31
0.0
  0
ARC
  8
0
  6
BYLAYER
 62
     7
 10
611.387372
 20
-886.992012
 30
0.0
 40
3.0
 50
272.000000
 51
360.000000
  0
LINE
  8
0
  6
BYLAYER
 62
     7
 10
597.387372
 20
-879.295425
 30
0.0
 11
611.492070
 21
-879.787972
 31
0.0
  0
ARC
  8
0
  6
BYLAYER
 62
     7
 10
611.387372
 20
-882.786144
 30
0.0
 40
3.0
 50
0.0
 51
88.0
  0
LINE
  8
0
  6
BYLAYER
 62
     7
 10
597.387372
 20
-864.295425
 30
0.0
 11
611.492070
 21
-864.787972
 31
0.0
  0
ARC
  8
0
  6
BYLAYER
 62
     7
 10
611.387372
 20
-867.786144
 30
0.0
 40
3.0
 50
0.0
 51
88.0
  0
LINE
  8
0
  6
BYLAYER
 62
     7
 10
614.387372
 20
-882.786144
 30
0.0
 11
614.387372
 21
-886.992012
 31
0.0
  0
LINE
  8
0
  6
BYLAYER
 62
     7
 10
614.387372
 20
-867.786144
 30
0.0
 11
614.387372
 21
-871.992012
 31
0.0
  0
LINE
  8
0
  6
BYLAYER
 62
     7
 10
598.387372
 20
-864.330346
 30
0.0
 11
598.387372
 21
-875.447810
 31
0.0
  0
LINE
  8
0
  6
BYLAYER
 62
     7
 10
598.387372
 20
-879.330346
 30
0.0
 11
598.387372
 21
-890.447810
 31
0.0
  0
LINE
  8
0
  6
BYLAYER
 62
     7
 10
670.282674
 20
-874.990184
 30
0.0
 11
684.387372
 21
-875.482731
 31
0.0
  0
ARC
  8
0
  6
BYLAYER
 62
     7
 10
670.387372
 20
-871.992012
 30
0.0
 40
3.0
 50
180.000000
 51
268.000000
  0
LINE
  8
0
  6
BYLAYER
 62
     7
 10
670.282674
 20
-889.990184
 30
0.0
 11
684.387372
 21
-890.482731
 31
0.0
  0
ARC
  8
0
  6
BYLAYER
 62
     7
 10
670.387372
 20
-886.992012
 30
0.0
 40
3.0
 50
180.000000
 51
268.000000
  0
LINE
  8
0
  6
BYLAYER
 62
     7
 10
684.387372
 20
-879.295425
 30
0.0
 11
670.282674
 21
-879.787972
 31
0.0
  0
ARC
  8
0
  6
BYLAYER
 62
     7
 10
670.387372
 20
-882.786144
 30
0.0
 40
3.000000
 50
92.000000
 51
180.000000
  0
LINE
  8
0
  6
BYLAYER
 62
     7
 10
684.387372
 20
-864.295425
 30
0.0
 11
670.282674
 21
-864.787972
 31
0.0
  0
ARC
  8
0
  6
BYLAYER
 62
     7
 10
670.387372
 20
-867.786144
 30
0.0
 40
3.0
 50
92.000000
 51
180.000000
  0
LINE
  8
0
  6
BYLAYER
 62
     7
 10
667.387372
 20
-882.786144
 30
0.0
 11
667.387372
 21
-886.992012
 31
0.0
  0
LINE
  8
0
  6
BYLAYER
 62
     7
 10
667.387372
 20
-867.786144
 30
0.0
 11
667.387372
 21
-871.992012
 31
0.0
  0
LINE
  8
0
  6
BYLAYER
 62
     7
 10
683.387372
 20
-864.330346
 30
0.0
 11
683.387372
 21
-875.447810
 31
0.0
  0
LINE
  8
0
  6
BYLAYER
 62
     7
 10
683.387372
 20
-879.330346
 30
0.0
 11
683.387372
 21
-890.447810
 31
0.0
  0
LINE
  8
0
  6
BYLAYER
 62
     7
 10
627.887372
 20
-892.389078
 30
0.0
 11
653.887372
 21
-892.389078
 31
0.0
  0
ARC
  8
0
  6
BYLAYER
 62
     7
 10
653.887372
 20
-889.389078
 30
0.0
 40
3.0
 50
270.0
 51
360.0
  0
ARC
  8
0
  6
BYLAYER
 62
     7
 10
627.887372
 20
-889.389078
 30
0.0
 40
3.0
 50
180.000000
 51
270.000000
  0
LINE
  8
0
  6
BYLAYER
 62
     7
 10
624.887372
 20
-862.389078
 30
0.0
 11
624.887372
 21
-889.389078
 31
0.0
  0
LINE
  8
0
  6
BYLAYER
 62
     7
 10
656.887372
 20
-889.389078
 30
0.0
 11
656.887372
 21
-862.389078
 31
0.0
  0
ARC
  8
0
  6
BYLAYER
 62
     7
 10
597.387372
 20
-905.889078
 30
0.0
 40
6.0
 50
11.536959
 51
78.463041
  0
ARC
  8
0
  6
BYLAYER
 62
     7
 10
598.887372
 20
-898.540609
 30
0.0
 40
1.5
 50
180.000000
 51
258.463041
  0
ARC
  8
0
  6
BYLAYER
 62
     7
 10
684.387372
 20
-905.889078
 30
0.0
 40
6.0
 50
101.536959
 51
168.463041
  0
ARC
  8
0
  6
BYLAYER
 62
     7
 10
682.887372
 20
-898.540609
 30
0.0
 40
1.5
 50
281.536959
 51
360.000000
  0
ARC
  8
0
  6
BYLAYER
 62
     7
 10
677.038903
 20
-904.389078
 30
0.0
 40
1.500000
 50
270.0
 51
348.463041
  0
LINE
  8
0
  6
BYLAYER
 62
     7
 10
591.887372
 20
-862.389078
 30
0.0
 11
591.887372
 21
-909.889078
 31
0.0
  0
LINE
  8
0
  6
BYLAYER
 62
     7
 10
593.387372
 20
-911.389078
 30
0.0
 11
688.387372
 21
-911.389078
 31
0.0
  0
ARC
  8
0
  6
BYLAYER
 62
     7
 10
593.387372
 20
-909.889078
 30
0.0
 40
1.5
 50
180.000000
 51
270.000000
  0
LINE
  8
0
  6
BYLAYER
 62
     7
 10
689.887372
 20
-909.889078
 30
0.0
 11
689.887372
 21
-862.389078
 31
0.0
  0
ARC
  8
0
  6
BYLAYER
 62
     7
 10
688.387372
 20
-909.889078
 30
0.0
 40
1.5
 50
270.0
 51
360.0
  0
ARC
  8
0
  6
BYLAYER
 62
     7
 10
592.887372
 20
-806.939096
 30
0.0
 40
1.000000
 50
90.0
 51
180.000009
  0
ARC
  8
0
  6
BYLAYER
 62
     7
 10
592.887372
 20
-806.939096
 30
0.0
 40
1.000000
 50
180.000000
 51
269.999989
  0
ARC
  8
0
  6
BYLAYER
 62
     7
 10
592.887372
 20
-794.239084
 30
0.0
 40
1.000000
 50
90.0
 51
180.000009
  0
ARC
  8
0
  6
BYLAYER
 62
     7
 10
592.887372
 20
-794.239084
 30
0.0
 40
1.000000
 50
180.000000
 51
269.999989
  0
LINE
  8
0
  6
BYLAYER
 62
     7
 10
689.887372
 20
-820.639078
 30
0.0
 11
760.366040
 21
-820.639078
 31
0.0
  0
LINE
  8
0
  6
BYLAYER
 62
     7
 10
689.887372
 20
-818.639078
 30
0.0
 11
760.366040
 21
-818.639078
 31
0.0
  0
LINE
  8
0
  6
BYLAYER
 62
     7
 10
597.887372
 20
-791.570200
 30
0.0
 11
591.887372
 21
-788.949808
 31
0.0
  0
LINE
  8
0
  6
BYLAYER
 62
     7
 10
591.887372
 20
-770.389078
 30
0.0
 11
591.887372
 21
-862.389078
 31
0.0
  0
LINE
  8
0
  6
BYLAYER
 62
     7
 10
587.387372
 20
-770.389078
 30
0.0
 11
591.887372
 21
-770.389078
 31
0.0
  0
LINE
  8
0
  6
BYLAYER
 62
     7
 10
591.887372
 20
-788.949808
 30
0.0
 11
595.247510
 21
-780.854166
 31
0.0
  0
ARC
  8
0
  6
BYLAYER
 62
     7
 10
597.556531
 20
-781.812540
 30
0.0
 40
2.500012
 50
90.0
 51
157.458787
  0
LINE
  8
0
  6
BYLAYER
 62
     7
 10
591.887372
 20
-784.551370
 30
0.0
 11
595.370282
 21
-772.326334
 31
0.0
  0
ARC
  8
0
  6
BYLAYER
 62
     7
 10
597.774610
 20
-773.011331
 30
0.0
 40
2.500002
 50
90.0
 51
164.097649
  0
LINE
  8
0
  6
BYLAYER
 62
     7
 10
591.887372
 20
-777.463754
 30
0.0
 11
595.337872
 21
-766.464334
 31
0.0
  0
ARC
  8
0
  6
BYLAYER
 62
     7
 10
597.723248
 20
-767.212625
 30
0.0
 40
2.499992
 50
90.0
 51
162.583396
  0
ARC
  8
0
  6
BYLAYER
 62
     7
 10
597.827832
 20
-763.538278
 30
0.0
 40
2.499992
 50
90.0
 51
162.583396
  0
LINE
  8
0
  6
BYLAYER
 62
     7
 10
591.887372
 20
-770.389078
 30
0.0
 11
595.155957
 21
-760.969492
 31
0.0
  0
ARC
  8
0
  6
BYLAYER
 62
     7
 10
597.517804
 20
-761.789041
 30
0.0
 40
2.499996
 50
90.0
 51
160.863473
  0
LINE
  8
0
  6
BYLAYER
 62
     7
 10
595.442456
 20
-762.789987
 30
0.0
 11
591.887372
 21
-774.122781
 31
0.0
  0
ARC
  8
0
  6
BYLAYER
 62
     7
 10
596.887372
 20
-806.939096
 30
0.0
 40
1.0
 50
90.0
 51
180.000009
  0
ARC
  8
0
  6
BYLAYER
 62
     7
 10
596.887372
 20
-806.939096
 30
0.0
 40
1.000000
 50
180.000000
 51
269.999989
  0
ARC
  8
0
  6
BYLAYER
 62
     7
 10
596.887372
 20
-794.239084
 30
0.0
 40
1.0
 50
90.0
 51
180.000009
  0
ARC
  8
0
  6
BYLAYER
 62
     7
 10
596.887372
 20
-794.239084
 30
0.0
 40
1.000000
 50
180.000000
 51
269.999989
  0
LINE
  8
0
  6
BYLAYER
 62
     7
 10
598.387372
 20
-795.239084
 30
0.0
 11
598.387372
 21
-805.939096
 31
0.0
  0
LINE
  8
0
  6
BYLAYER
 62
     7
 10
598.387372
 20
-807.939096
 30
0.0
 11
598.387372
 21
-813.389078
 31
0.0
  0
LINE
  8
0
  6
BYLAYER
 62
     7
 10
587.387372
 20
-770.389078
 30
0.0
 11
587.387372
 21
-862.389078
 31
0.0
  0
LINE
  8
0
  6
BYLAYER
 62
     7
 10
689.887372
 20
-846.039072
 30
0.0
 11
760.366040
 21
-846.039072
 31
0.0
  0
LINE
  8
0
  6
BYLAYER
 62
     7
 10
689.887372
 20
-844.039072
 30
0.0
 11
760.366040
 21
-844.039072
 31
0.0
  0
LINE
  8
0
  6
BYLAYER
 62
     7
 10
689.887372
 20
-833.339090
 30
0.0
 11
760.366040
 21
-833.339090
 31
0.0
  0
LINE
  8
0
  6
BYLAYER
 62
     7
 10
689.887372
 20
-831.339090
 30
0.0
 11
760.366040
 21
-831.339090
 31
0.0
  0
LINE
  8
0
  6
BYLAYER
 62
     7
 10
592.887372
 20
-807.939096
 30
0.0
 11
760.366040
 21
-807.939096
 31
0.0
  0
LINE
  8
0
  6
BYLAYER
 62
     7
 10
592.887372
 20
-805.939096
 30
0.0
 11
760.366040
 21
-805.939096
 31
0.0
  0
LINE
  8
0
  6
BYLAYER
 62
     7
 10
592.887372
 20
-795.239084
 30
0.0
 11
760.366040
 21
-795.239084
 31
0.0
  0
LINE
  8
0
  6
BYLAYER
 62
     7
 10
592.887372
 20
-793.239084
 30
0.0
 11
760.366040
 21
-793.239084
 31
0.0
  0
LINE
  8
0
  6
BYLAYER
 62
     7
 10
597.887372
 20
-791.570200
 30
0.0
 11
760.366040
 21
-791.570200
 31
0.0
  0
LINE
  8
0
  6
BYLAYER
 62
     7
 10
597.556531
 20
-779.312540
 30
0.0
 11
760.366040
 21
-779.312540
 31
0.0
  0
LINE
  8
0
  6
BYLAYER
 62
     7
 10
597.774610
 20
-770.511331
 30
0.0
 11
760.366040
 21
-770.511331
 31
0.0
  0
LINE
  8
0
  6
BYLAYER
 62
     7
 10
597.723248
 20
-764.712625
 30
0.0
 11
760.366040
 21
-764.712625
 31
0.0
  0
LINE
  8
0
  6
BYLAYER
 62
     7
 10
597.827832
 20
-761.038278
 30
0.0
 11
760.366040
 21
-761.038278
 31
0.0
  0
LINE
  8
0
  6
BYLAYER
 62
     7
 10
597.517804
 20
-759.289041
 30
0.0
 11
760.366040
 21
-759.289041
 31
0.0
  0
LINE
  8
0
  6
BYLAYER
 62
     7
 10
705.449109
 20
-858.739054
 30
0.0
 11
760.366040
 21
-858.739054
 31
0.0
  0
LINE
  8
0
  6
BYLAYER
 62
     7
 10
705.449109
 20
-856.739054
 30
0.0
 11
760.366040
 21
-856.739054
 31
0.0
  0
LINE
  8
0
  6
BYLAYER
 62
     7
 10
689.887372
 20
-856.739054
 30
0.0
 11
705.449109
 21
-856.739054
 31
0.0
  0
LINE
  8
0
  6
BYLAYER
 62
     7
 10
689.887372
 20
-858.739054
 30
0.0
 11
705.449109
 21
-858.739054
 31
0.0
  0
LINE
  8
0
  6
BYLAYER
 62
     7
 10
760.366040
 20
-862.389078
 30
0.0
 11
760.366040
 21
-756.988529
 31
0.0
  0
LINE
  8
0
  6
BYLAYER
 62
     7
 10
760.366040
 20
-756.988529
 30
0.0
 11
843.966040
 21
-756.988529
 31
0.0
  0
LINE
  8
0
  6
BYLAYER
 62
     7
 10
865.366040
 20
-778.388529
 30
0.0
 11
865.366040
 21
-862.389078
 31
0.0
  0
LINE
  8
0
  6
BYLAYER
 62
     7
 10
843.966040
 20
-756.988529
 30
0.0
 11
865.366040
 21
-778.388529
 31
0.0
  0
LINE
  8
0
  6
BYLAYER
 62
     7
 10
604.735841
 20
-818.889078
 30
0.0
 11
640.887372
 21
-818.889078
 31
0.0
  0
ARC
  8
0
  6
BYLAYER
 62
     7
 10
604.735841
 20
-820.389078
 30
0.0
 40
1.5
 50
90.0
 51
168.463041
  0
LINE
  8
0
  6
BYLAYER
 62
     7
 10
597.387372
 20
-862.389078
 30
0.0
 11
597.387372
 21
-826.237547
 31
0.0
  0
LINE
  8
0
  6
BYLAYER
 62
     7
 10
640.887372
 20
-818.889078
 30
0.0
 11
677.038903
 21
-818.889078
 31
0.0
  0
LINE
  8
0
  6
BYLAYER
 62
     7
 10
684.387372
 20
-826.237547
 30
0.0
 11
684.387372
 21
-862.389078
 31
0.0
  0
LINE
  8
0
  6
BYLAYER
 62
     7
 10
611.492070
 20
-849.787972
 30
0.0
 11
597.387372
 21
-849.295425
 31
0.0
  0
ARC
  8
0
  6
BYLAYER
 62
     7
 10
611.387372
 20
-852.786144
 30
0.0
 40
3.0
 50
0.0
 51
88.0
  0
LINE
  8
0
  6
BYLAYER
 62
     7
 10
611.492070
 20
-834.787972
 30
0.0
 11
597.387372
 21
-834.295425
 31
0.0
  0
ARC
  8
0
  6
BYLAYER
 62
     7
 10
611.387372
 20
-837.786144
 30
0.0
 40
3.0
 50
0.0
 51
88.0
  0
LINE
  8
0
  6
BYLAYER
 62
     7
 10
597.387372
 20
-845.482731
 30
0.0
 11
611.492070
 21
-844.990184
 31
0.0
  0
ARC
  8
0
  6
BYLAYER
 62
     7
 10
611.387372
 20
-841.992012
 30
0.0
 40
3.0
 50
272.000000
 51
360.000000
  0
LINE
  8
0
  6
BYLAYER
 62
     7
 10
597.387372
 20
-860.482731
 30
0.0
 11
611.492070
 21
-859.990184
 31
0.0
  0
ARC
  8
0
  6
BYLAYER
 62
     7
 10
611.387372
 20
-856.992012
 30
0.0
 40
3.0
 50
272.000000
 51
360.000000
  0
LINE
  8
0
  6
BYLAYER
 62
     7
 10
614.387372
 20
-841.992012
 30
0.0
 11
614.387372
 21
-837.786144
 31
0.0
  0
LINE
  8
0
  6
BYLAYER
 62
     7
 10
614.387372
 20
-856.992012
 30
0.0
 11
614.387372
 21
-852.786144
 31
0.0
  0
LINE
  8
0
  6
BYLAYER
 62
     7
 10
598.387372
 20
-860.447810
 30
0.0
 11
598.387372
 21
-849.330346
 31
0.0
  0
LINE
  8
0
  6
BYLAYER
 62
     7
 10
598.387372
 20
-845.447810
 30
0.0
 11
598.387372
 21
-834.330346
 31
0.0
  0
LINE
  8
0
  6
BYLAYER
 62
     7
 10
670.282674
 20
-849.787972
 30
0.0
 11
684.387372
 21
-849.295425
 31
0.0
  0
ARC
  8
0
  6
BYLAYER
 62
     7
 10
670.387372
 20
-852.786144
 30
0.0
 40
3.000000
 50
92.000000
 51
180.000000
  0
LINE
  8
0
  6
BYLAYER
 62
     7
 10
670.282674
 20
-834.787972
 30
0.0
 11
684.387372
 21
-834.295425
 31
0.0
  0
ARC
  8
0
  6
BYLAYER
 62
     7
 10
670.387372
 20
-837.786144
 30
0.0
 40
3.000000
 50
92.000000
 51
180.000000
  0
LINE
  8
0
  6
BYLAYER
 62
     7
 10
684.387372
 20
-845.482731
 30
0.0
 11
670.282674
 21
-844.990184
 31
0.0
  0
ARC
  8
0
  6
BYLAYER
 62
     7
 10
670.387372
 20
-841.992012
 30
0.0
 40
3.0
 50
180.000000
 51
268.000000
  0
LINE
  8
0
  6
BYLAYER
 62
     7
 10
684.387372
 20
-860.482731
 30
0.0
 11
670.282674
 21
-859.990184
 31
0.0
  0
ARC
  8
0
  6
BYLAYER
 62
     7
 10
670.387372
 20
-856.992012
 30
0.0
 40
3.0
 50
180.000000
 51
268.000000
  0
LINE
  8
0
  6
BYLAYER
 62
     7
 10
667.387372
 20
-841.992012
 30
0.0
 11
667.387372
 21
-837.786144
 31
0.0
  0
LINE
  8
0
  6
BYLAYER
 62
     7
 10
667.387372
 20
-856.992012
 30
0.0
 11
667.387372
 21
-852.786144
 31
0.0
  0
LINE
  8
0
  6
BYLAYER
 62
     7
 10
683.387372
 20
-860.447810
 30
0.0
 11
683.387372
 21
-849.330346
 31
0.0
  0
LINE
  8
0
  6
BYLAYER
 62
     7
 10
683.387372
 20
-845.447810
 30
0.0
 11
683.387372
 21
-834.330346
 31
0.0
  0
LINE
  8
0
  6
BYLAYER
 62
     7
 10
627.887372
 20
-832.389078
 30
0.0
 11
653.887372
 21
-832.389078
 31
0.0
  0
ARC
  8
0
  6
BYLAYER
 62
     7
 10
653.887372
 20
-835.389078
 30
0.0
 40
3.0
 50
0.0
 51
90.0
  0
ARC
  8
0
  6
BYLAYER
 62
     7
 10
627.887372
 20
-835.389078
 30
0.0
 40
3.0
 50
90.0
 51
180.0
  0
LINE
  8
0
  6
BYLAYER
 62
     7
 10
624.887372
 20
-862.389078
 30
0.0
 11
624.887372
 21
-835.389078
 31
0.0
  0
LINE
  8
0
  6
BYLAYER
 62
     7
 10
656.887372
 20
-835.389078
 30
0.0
 11
656.887372
 21
-862.389078
 31
0.0
  0
ARC
  8
0
  6
BYLAYER
 62
     7
 10
597.387372
 20
-818.889078
 30
0.0
 40
6.0
 50
281.536959
 51
348.463041
  0
ARC
  8
0
  6
BYLAYER
 62
     7
 10
598.887372
 20
-826.237547
 30
0.0
 40
1.5
 50
101.536959
 51
180.000000
  0
ARC
  8
0
  6
BYLAYER
 62
     7
 10
684.387372
 20
-818.889078
 30
0.0
 40
6.0
 50
191.536959
 51
258.463041
  0
ARC
  8
0
  6
BYLAYER
 62
     7
 10
682.887372
 20
-826.237547
 30
0.0
 40
1.5
 50
0.0
 51
78.463041
  0
ARC
  8
0
  6
BYLAYER
 62
     7
 10
677.038903
 20
-820.389078
 30
0.0
 40
1.500000
 50
11.536959
 51
90.000000
  0
LINE
  8
0
  6
BYLAYER
 62
     7
 10
591.887372
 20
-862.389078
 30
0.0
 11
591.887372
 21
-814.889078
 31
0.0
  0
LINE
  8
0
  6
BYLAYER
 62
     7
 10
593.387372
 20
-813.389078
 30
0.0
 11
688.387372
 21
-813.389078
 31
0.0
  0
ARC
  8
0
  6
BYLAYER
 62
     7
 10
593.387372
 20
-814.889078
 30
0.0
 40
1.5
 50
90.0
 51
180.0
  0
LINE
  8
0
  6
BYLAYER
 62
     7
 10
689.887372
 20
-814.889078
 30
0.0
 11
689.887372
 21
-862.389078
 31
0.0
  0
ARC
  8
0
  6
BYLAYER
 62
     7
 10
688.387372
 20
-814.889078
 30
0.0
 40
1.5
 50
0.0
 51
90.0
  0
LINE
  8
0
  6
BYLAYER
 62
     7
 10
843.966040
 20
-967.789627
 30
0.0
 11
843.966040
 21
-756.988529
 31
0.0
  0
ARC
  8
0
  6
BYLAYER
 62
     1
 10
270.887357
 20
-112.389017
 30
0.0
 40
3.000000
 50
90.0
 51
180.000003
  0
ARC
  8
0
  6
BYLAYER
 62
     1
 10
490.887357
 20
-112.389017
 30
0.0
 40
3.000000
 50
0.0
 51
90.000003
  0
ARC
  8
0
  6
BYLAYER
 62
     1
 10
490.887357
 20
-372.389017
 30
0.0
 40
3.000000
 50
270.0
 51
360.000003
  0
ARC
  8
0
  6
BYLAYER
 62
     1
 10
270.887357
 20
-372.389017
 30
0.0
 40
3.000000
 50
180.000000
 51
269.999996
  0
ARC
  8
0
  6
BYLAYER
 62
     1
 10
257.629758
 20
-163.027567
 30
0.0
 40
3.000008
 50
358.896607
 51
419.020549
  0
LINE
  8
0
  6
BYLAYER
 62
     1
 10
502.887387
 20
-319.373361
 30
0.0
 11
502.887387
 21
-288.921732
 31
0.0
  0
LINE
  8
0
  6
BYLAYER
 62
     1
 10
502.887387
 20
-235.856180
 30
0.0
 11
502.887387
 21
-206.546244
 31
0.0
  0
LINE
  8
0
  6
BYLAYER
 62
     1
 10
505.887387
 20
-158.349771
 30
0.0
 11
502.519223
 21
-160.333780
 31
0.0
  0
ARC
  8
0
  6
BYLAYER
 62
     1
 10
504.041867
 20
-162.918619
 30
0.0
 40
2.999973
 50
120.500656
 51
180.588098
  0
ARC
  8
0
  6
BYLAYER
 62
     1
 10
437.871762
 20
-97.389017
 30
0.0
 40
2.999982
 50
312.719473
 51
314.999172
  0
ARC
  8
0
  6
BYLAYER
 62
     1
 10
437.871762
 20
-97.389017
 30
0.0
 40
3.000025
 50
270.0
 51
315.000018
  0
LINE
  8
0
  6
BYLAYER
 62
     1
 10
437.871762
 20
-100.389017
 30
0.0
 11
323.903012
 21
-100.389017
 31
0.0
  0
ARC
  8
0
  6
BYLAYER
 62
     1
 10
323.903012
 20
-97.389017
 30
0.0
 40
2.999982
 50
225.000829
 51
227.280528
  0
ARC
  8
0
  6
BYLAYER
 62
     1
 10
323.903012
 20
-97.389017
 30
0.0
 40
3.000025
 50
224.999982
 51
270.000001
  0
ARC
  8
0
  6
BYLAYER
 62
     1
 10
278.887372
 20
-196.389017
 30
0.0
 40
2.000000
 50
270.0
 51
450.000005
  0
ARC
  8
0
  6
BYLAYER
 62
     1
 10
286.387387
 20
-185.389017
 30
0.0
 40
2.000000
 50
270.0
 51
450.000005
  0
LINE
  8
0
  6
BYLAYER
 62
     1
 10
270.887357
 20
-187.389017
 30
0.0
 11
286.387387
 21
-187.389017
 31
0.0
  0
ARC
  8
0
  6
BYLAYER
 62
     1
 10
270.887357
 20
-190.389017
 30
0.0
 40
3.000000
 50
90.0
 51
180.000003
  0
LINE
  8
0
  6
BYLAYER
 62
     1
 10
270.887357
 20
-183.389017
 30
0.0
 11
286.387387
 21
-183.389017
 31
0.0
  0
ARC
  8
0
  6
BYLAYER
 62
     1
 10
270.887357
 20
-180.389017
 30
0.0
 40
3.000000
 50
180.000000
 51
269.999996
  0
ARC
  8
0
  6
BYLAYER
 62
     1
 10
270.887357
 20
-191.389017
 30
0.0
 40
3.000000
 50
180.000000
 51
269.999996
  0
ARC
  8
0
  6
BYLAYER
 62
     1
 10
270.887357
 20
-201.389017
 30
0.0
 40
3.000000
 50
90.0
 51
180.000003
  0
LINE
  8
0
  6
BYLAYER
 62
     1
 10
270.887357
 20
-194.389017
 30
0.0
 11
278.887372
 21
-194.389017
 31
0.0
  0
LINE
  8
0
  6
BYLAYER
 62
     1
 10
270.887357
 20
-198.389017
 30
0.0
 11
278.887372
 21
-198.389017
 31
0.0
  0
ARC
  8
0
  6
BYLAYER
 62
     1
 10
475.387357
 20
-185.389017
 30
0.0
 40
2.0
 50
90.0
 51
270.000005
  0
LINE
  8
0
  6
BYLAYER
 62
     1
 10
490.887387
 20
-183.389017
 30
0.0
 11
475.387357
 21
-183.389017
 31
0.0
  0
LINE
  8
0
  6
BYLAYER
 62
     1
 10
490.887387
 20
-187.389017
 30
0.0
 11
475.387357
 21
-187.389017
 31
0.0
  0
ARC
  8
0
  6
BYLAYER
 62
     1
 10
490.887387
 20
-180.389017
 30
0.0
 40
3.000000
 50
270.0
 51
359.999982
  0
ARC
  8
0
  6
BYLAYER
 62
     1
 10
490.887387
 20
-190.389017
 30
0.0
 40
3.000000
 50
0.0
 51
90.000016
  0
ARC
  8
0
  6
BYLAYER
 62
     1
 10
490.887387
 20
-191.389017
 30
0.0
 40
3.000000
 50
270.0
 51
359.999982
  0
LINE
  8
0
  6
BYLAYER
 62
     1
 10
490.887387
 20
-194.389017
 30
0.0
 11
482.887387
 21
-194.389017
 31
0.0
  0
ARC
  8
0
  6
BYLAYER
 62
     1
 10
482.887387
 20
-196.389017
 30
0.0
 40
2.0
 50
90.0
 51
270.000005
  0
LINE
  8
0
  6
BYLAYER
 62
     1
 10
490.887387
 20
-198.389017
 30
0.0
 11
482.887387
 21
-198.389017
 31
0.0
  0
ARC
  8
0
  6
BYLAYER
 62
     1
 10
490.887387
 20
-201.389017
 30
0.0
 40
3.000000
 50
0.0
 51
90.000016
  0
ARC
  8
0
  6
BYLAYER
 62
     1
 10
505.887387
 20
-209.393106
 30
0.0
 40
2.999961
 50
93.000108
 51
180.000005
  0
LINE
  8
0
  6
BYLAYER
 62
     1
 10
505.887387
 20
-206.389017
 30
0.0
 11
505.730374
 21
-206.397257
 31
0.0
  0
ARC
  8
0
  6
BYLAYER
 62
     1
 10
496.887357
 20
-223.602884
 30
0.0
 40
3.000000
 50
180.000000
 51
193.15101
  0
ARC
  8
0
  6
BYLAYER
 62
     1
 10
330.887372
 20
-262.389017
 30
0.0
 40
167.470993
 50
346.848700
 51
373.151311
  0
ARC
  8
0
  6
BYLAYER
 62
     1
 10
496.887357
 20
-301.175180
 30
0.0
 40
3.000011
 50
166.848421
 51
180.000005
  0
LINE
  8
0
  6
BYLAYER
 62
     1
 10
493.887357
 20
-327.389047
 30
0.0
 11
505.887357
 21
-327.389047
 31
0.0
  0
LINE
  8
0
  6
BYLAYER
 62
     1
 10
505.887357
 20
-323.616037
 30
0.0
 11
503.766019
 21
-321.494699
 31
0.0
  0
ARC
  8
0
  6
BYLAYER
 62
     1
 10
505.887357
 20
-319.373422
 30
0.0
 40
2.999982
 50
222.719464
 51
224.999163
  0
ARC
  8
0
  6
BYLAYER
 62
     1
 10
505.887357
 20
-319.373422
 30
0.0
 40
3.000025
 50
180.000000
 51
225.000018
  0
ARC
  8
0
  6
BYLAYER
 62
     1
 10
354.354657
 20
-387.389017
 30
0.0
 40
3.000023
 50
81.378801
 51
90.000003
  0
LINE
  8
0
  6
BYLAYER
 62
     1
 10
323.903028
 20
-384.389017
 30
0.0
 11
354.354657
 21
-384.389017
 31
0.0
  0
ARC
  8
0
  6
BYLAYER
 62
     1
 10
342.101209
 20
-378.389017
 30
0.0
 40
3.000011
 50
76.848419
 51
90.000003
  0
ARC
  8
0
  6
BYLAYER
 62
     1
 10
323.902966
 20
-387.389017
 30
0.0
 40
2.999982
 50
132.719455
 51
134.999153
  0
ARC
  8
0
  6
BYLAYER
 62
     1
 10
323.902966
 20
-387.389017
 30
0.0
 40
3.000025
 50
90.0
 51
135.000011
  0
ARC
  8
0
  6
BYLAYER
 62
     1
 10
380.887372
 20
-212.389017
 30
0.0
 40
167.471008
 50
256.84869
 51
283.151311
  0
ARC
  8
0
  6
BYLAYER
 62
     1
 10
407.420087
 20
-387.389017
 30
0.0
 40
3.000023
 50
90.0
 51
98.621201
  0
LINE
  8
0
  6
BYLAYER
 62
     1
 10
437.871716
 20
-384.389017
 30
0.0
 11
407.420087
 21
-384.389017
 31
0.0
  0
ARC
  8
0
  6
BYLAYER
 62
     1
 10
419.673535
 20
-378.389017
 30
0.0
 40
3.000011
 50
90.0
 51
103.151584
  0
ARC
  8
0
  6
BYLAYER
 62
     1
 10
437.871778
 20
-387.389017
 30
0.0
 40
2.999982
 50
45.000848
 51
47.280547
  0
ARC
  8
0
  6
BYLAYER
 62
     1
 10
437.871778
 20
-387.389017
 30
0.0
 40
3.000025
 50
45.000001
 51
90.000009
  0
ARC
  8
0
  6
BYLAYER
 62
     1
 10
255.887357
 20
-288.921732
 30
0.0
 40
3.000023
 50
0.0
 51
8.621213
  0
LINE
  8
0
  6
BYLAYER
 62
     1
 10
258.887357
 20
-319.373361
 30
0.0
 11
258.887357
 21
-288.921732
 31
0.0
  0
ARC
  8
0
  6
BYLAYER
 62
     1
 10
264.887387
 20
-301.175180
 30
0.0
 40
3.000011
 50
0.0
 51
13.151596
  0
ARC
  8
0
  6
BYLAYER
 62
     1
 10
255.887387
 20
-319.373422
 30
0.0
 40
2.999982
 50
315.000839
 51
317.280537
  0
ARC
  8
0
  6
BYLAYER
 62
     1
 10
255.887387
 20
-319.373422
 30
0.0
 40
3.000025
 50
314.999992
 51
360.000010
  0
ARC
  8
0
  6
BYLAYER
 62
     1
 10
430.887372
 20
-262.389017
 30
0.0
 40
167.471008
 50
166.848735
 51
193.151316
  0
ARC
  8
0
  6
BYLAYER
 62
     1
 10
264.887357
 20
-223.603006
 30
0.0
 40
2.999997
 50
346.848945
 51
360.000000
  0
LINE
  8
0
  6
BYLAYER
 62
     1
 10
327.887372
 20
-159.767038
 30
0.0
 11
327.887372
 21
-112.389017
 31
0.0
  0
ARC
  8
0
  6
BYLAYER
 62
     1
 10
324.887372
 20
-112.389017
 30
0.0
 40
3.000000
 50
0.0
 51
90.000003
  0
LINE
  8
0
  6
BYLAYER
 62
     1
 10
433.887372
 20
-112.389017
 30
0.0
 11
433.887372
 21
-159.767008
 31
0.0
  0
LINE
  8
0
  6
BYLAYER
 62
     1
 10
490.887357
 20
-109.389017
 30
0.0
 11
337.887357
 21
-109.389017
 31
0.0
  0
ARC
  8
0
  6
BYLAYER
 62
     1
 10
436.887372
 20
-112.389017
 30
0.0
 40
3.000000
 50
90.0
 51
180.000003
  0
LINE
  8
0
  6
BYLAYER
 62
     1
 10
270.887357
 20
-109.389017
 30
0.0
 11
337.887357
 21
-109.389017
 31
0.0
  0
LINE
  8
0
  6
BYLAYER
 62
     1
 10
309.788495
 20
-174.389078
 30
0.0
 11
270.887357
 21
-174.389078
 31
0.0
  0
ARC
  8
0
  6
BYLAYER
 62
     1
 10
270.887357
 20
-171.389078
 30
0.0
 40
3.000000
 50
180.000000
 51
269.999996
  0
LINE
  8
0
  6
BYLAYER
 62
     1
 10
451.986341
 20
-174.389078
 30
0.0
 11
490.887357
 21
-174.389078
 31
0.0
  0
ARC
  8
0
  6
BYLAYER
 62
     1
 10
490.887357
 20
-171.389078
 30
0.0
 40
3.000000
 50
270.0
 51
360.000003
  0
LINE
  8
0
  6
BYLAYER
 62
     1
 10
327.887372
 20
-365.010767
 30
0.0
 11
327.887372
 21
-372.389017
 31
0.0
  0
ARC
  8
0
  6
BYLAYER
 62
     1
 10
324.887372
 20
-372.389017
 30
0.0
 40
3.000000
 50
270.0
 51
360.000003
  0
LINE
  8
0
  6
BYLAYER
 62
     1
 10
433.887372
 20
-365.010797
 30
0.0
 11
433.887372
 21
-372.389017
 31
0.0
  0
ARC
  8
0
  6
BYLAYER
 62
     1
 10
436.887372
 20
-372.389017
 30
0.0
 40
3.000000
 50
180.000000
 51
269.999996
  0
LINE
  8
0
  6
BYLAYER
 62
     1
 10
419.673535
 20
-375.389017
 30
0.0
 11
490.887357
 21
-375.389017
 31
0.0
  0
LINE
  8
0
  6
BYLAYER
 62
     1
 10
493.887357
 20
-301.175180
 30
0.0
 11
493.887357
 21
-372.389017
 31
0.0
  0
LINE
  8
0
  6
BYLAYER
 62
     1
 10
342.101209
 20
-375.389017
 30
0.0
 11
270.887357
 21
-375.389017
 31
0.0
  0
LINE
  8
0
  6
BYLAYER
 62
     1
 10
267.887387
 20
-301.175180
 30
0.0
 11
267.887387
 21
-372.389017
 31
0.0
  0
LINE
  8
0
  6
BYLAYER
 62
     1
 10
267.887357
 20
-112.389017
 30
0.0
 11
267.887357
 21
-180.389017
 31
0.0
  0
LINE
  8
0
  6
BYLAYER
 62
     1
 10
267.887357
 20
-190.389017
 30
0.0
 11
267.887357
 21
-191.389017
 31
0.0
  0
LINE
  8
0
  6
BYLAYER
 62
     1
 10
267.887357
 20
-201.389017
 30
0.0
 11
267.887357
 21
-223.603006
 31
0.0
  0
LINE
  8
0
  6
BYLAYER
 62
     1
 10
493.887357
 20
-180.389017
 30
0.0
 11
493.887357
 21
-112.389017
 31
0.0
  0
LINE
  8
0
  6
BYLAYER
 62
     1
 10
493.887357
 20
-191.389017
 30
0.0
 11
493.887357
 21
-190.389017
 31
0.0
  0
LINE
  8
0
  6
BYLAYER
 62
     1
 10
493.887357
 20
-223.602884
 30
0.0
 11
493.887357
 21
-201.389017
 31
0.0
  0
ARC
  8
0
  6
BYLAYER
 62
     1
 10
255.887387
 20
-235.856119
 30
0.0
 40
3.000000
 50
351.378727
 51
360.000000
  0
ARC
  8
0
  6
BYLAYER
 62
     1
 10
430.887357
 20
-262.389017
 30
0.0
 40
173.999969
 50
171.378667
 51
188.621275
  0
ARC
  8
0
  6
BYLAYER
 62
     1
 10
330.887387
 20
-262.389017
 30
0.0
 40
173.999954
 50
351.378727
 51
368.621311
  0
ARC
  8
0
  6
BYLAYER
 62
     1
 10
380.887372
 20
-212.389017
 30
0.0
 40
173.999969
 50
261.378717
 51
278.621284
  0
LINE
  8
0
  6
BYLAYER
 62
     1
 10
500.887326
 20
-94.889017
 30
0.0
 11
505.887326
 21
-99.889017
 31
0.0
  0
LINE
  8
0
  6
BYLAYER
 62
     1
 10
321.781735
 20
-99.510355
 30
0.0
 11
317.160398
 21
-94.889017
 31
0.0
  0
LINE
  8
0
  6
BYLAYER
 62
     1
 10
505.887357
 20
-206.389017
 30
0.0
 11
505.887357
 21
-99.889078
 31
0.0
  0
LINE
  8
0
  6
BYLAYER
 62
     1
 10
439.993039
 20
-99.510355
 30
0.0
 11
444.614377
 21
-94.889017
 31
0.0
  0
LINE
  8
0
  6
BYLAYER
 62
     1
 10
444.614377
 20
-94.889017
 30
0.0
 11
500.887326
 21
-94.889017
 31
0.0
  0
LINE
  8
0
  6
BYLAYER
 62
     1
 10
500.887326
 20
-389.889017
 30
0.0
 11
505.887357
 21
-384.889017
 31
0.0
  0
LINE
  8
0
  6
BYLAYER
 62
     1
 10
505.887357
 20
-384.889017
 30
0.0
 11
505.887357
 21
-323.616037
 31
0.0
  0
LINE
  8
0
  6
BYLAYER
 62
     1
 10
445.887418
 20
-389.889017
 30
0.0
 11
445.887418
 21
-375.389017
 31
0.0
  0
LINE
  8
0
  6
BYLAYER
 62
     1
 10
439.993054
 20
-385.267679
 30
0.0
 11
444.614392
 21
-389.889017
 31
0.0
  0
LINE
  8
0
  6
BYLAYER
 62
     1
 10
444.614392
 20
-389.889017
 30
0.0
 11
500.887326
 21
-389.889017
 31
0.0
  0
LINE
  8
0
  6
BYLAYER
 62
     1
 10
315.887334
 20
-389.889017
 30
0.0
 11
315.887334
 21
-375.389017
 31
0.0
  0
LINE
  8
0
  6
BYLAYER
 62
     1
 10
321.781690
 20
-385.267679
 30
0.0
 11
317.160352
 21
-389.889017
 31
0.0
  0
LINE
  8
0
  6
BYLAYER
 62
     1
 10
258.387387
 20
-94.889017
 30
0.0
 11
253.387387
 21
-99.889017
 31
0.0
  0
LINE
  8
0
  6
BYLAYER
 62
     1
 10
253.387372
 20
-194.889017
 30
0.0
 11
253.387372
 21
-99.889017
 31
0.0
  0
LINE
  8
0
  6
BYLAYER
 62
     1
 10
258.387387
 20
-389.889017
 30
0.0
 11
253.387372
 21
-384.889017
 31
0.0
  0
LINE
  8
0
  6
BYLAYER
 62
     1
 10
258.387387
 20
-94.889017
 30
0.0
 11
317.160398
 21
-94.889017
 31
0.0
  0
LINE
  8
0
  6
BYLAYER
 62
     1
 10
259.173947
 20
-160.455484
 30
0.0
 11
253.387372
 21
-157.389078
 31
0.0
  0
LINE
  8
0
  6
BYLAYER
 62
     1
 10
256.044606
 20
-195.028482
 30
0.0
 11
253.387387
 21
-194.889017
 31
0.0
  0
LINE
  8
0
  6
BYLAYER
 62
     1
 10
258.887387
 20
-235.856119
 30
0.0
 11
258.887387
 21
-198.024332
 31
0.0
  0
ARC
  8
0
  6
BYLAYER
 62
     1
 10
255.887387
 20
-198.024332
 30
0.0
 40
2.999972
 50
0.0
 51
86.995935
  0
LINE
  8
0
  6
BYLAYER
 62
     1
 10
258.387387
 20
-389.889017
 30
0.0
 11
317.160352
 21
-389.889017
 31
0.0
  0
LINE
  8
0
  6
BYLAYER
 62
     1
 10
253.387372
 20
-327.389047
 30
0.0
 11
267.887387
 21
-327.389047
 31
0.0
  0
LINE
  8
0
  6
BYLAYER
 62
     1
 10
258.008725
 20
-321.494699
 30
0.0
 11
253.387372
 21
-326.116068
 31
0.0
  0
LINE
  8
0
  6
BYLAYER
 62
     1
 10
253.387372
 20
-326.116068
 30
0.0
 11
253.387372
 21
-384.889017
 31
0.0
  0
ARC
  8
0
  6
BYLAYER
 62
     1
 10
298.387372
 20
-262.389078
 30
0.0
 40
5.000100
 50
88.263441
 51
359.999976
  0
CIRCLE
  8
0
  6
BYLAYER
 62
     1
 10
298.387372
 20
-262.389078
 30
0.0
 40
4.5
  0
ARC
  8
0
  6
BYLAYER
 62
     1
 10
322.551068
 20
-320.725504
 30
0.0
 40
5.000038
 50
133.263438
 51
404.999974
  0
CIRCLE
  8
0
  6
BYLAYER
 62
     1
 10
322.551068
 20
-320.725504
 30
0.0
 40
4.5
  0
CIRCLE
  8
0
  6
BYLAYER
 62
     1
 10
380.887372
 20
-344.889078
 30
0.0
 40
4.5
  0
CIRCLE
  8
0
  6
BYLAYER
 62
     1
 10
380.887372
 20
-262.389078
 30
0.0
 40
65.0
  0
ARC
  8
0
  6
BYLAYER
 62
     1
 10
463.387372
 20
-262.389078
 30
0.0
 40
5.000098
 50
180.000000
 51
451.736536
  0
CIRCLE
  8
0
  6
BYLAYER
 62
     1
 10
463.387372
 20
-262.389078
 30
0.0
 40
4.5
  0
ARC
  8
0
  6
BYLAYER
 62
     1
 10
439.223676
 20
-320.725504
 30
0.0
 40
5.000038
 50
135.000028
 51
406.736563
  0
CIRCLE
  8
0
  6
BYLAYER
 62
     1
 10
439.223676
 20
-320.725504
 30
0.0
 40
4.5
  0
CIRCLE
  8
0
  6
BYLAYER
 62
     1
 10
380.887372
 20
-344.889078
 30
0.0
 40
4.5
  0
ARC
  8
0
  6
BYLAYER
 62
     1
 10
380.887372
 20
-344.889078
 30
0.0
 40
4.999980
 50
90.0
 51
361.736535
  0
ARC
  8
0
  6
BYLAYER
 62
     1
 10
298.387372
 20
-262.389078
 30
0.0
 40
5.000100
 50
0.0
 51
271.736536
  0
CIRCLE
  8
0
  6
BYLAYER
 62
     1
 10
298.387372
 20
-262.389078
 30
0.0
 40
4.5
  0
ARC
  8
0
  6
BYLAYER
 62
     1
 10
322.551068
 20
-204.052957
 30
0.0
 40
4.999860
 50
315.000023
 51
586.736558
  0
CIRCLE
  8
0
  6
BYLAYER
 62
     1
 10
322.551068
 20
-204.052957
 30
0.0
 40
4.5
  0
CIRCLE
  8
0
  6
BYLAYER
 62
     1
 10
380.887372
 20
-179.889139
 30
0.0
 40
4.5
  0
ARC
  8
0
  6
BYLAYER
 62
     1
 10
463.387372
 20
-262.389078
 30
0.0
 40
5.000098
 50
268.263439
 51
539.999974
  0
CIRCLE
  8
0
  6
BYLAYER
 62
     1
 10
463.387372
 20
-262.389078
 30
0.0
 40
4.5
  0
ARC
  8
0
  6
BYLAYER
 62
     1
 10
439.223676
 20
-204.052957
 30
0.0
 40
4.999860
 50
313.263430
 51
584.999965
  0
CIRCLE
  8
0
  6
BYLAYER
 62
     1
 10
439.223676
 20
-204.052957
 30
0.0
 40
4.5
  0
CIRCLE
  8
0
  6
BYLAYER
 62
     1
 10
380.887372
 20
-179.889139
 30
0.0
 40
4.5
  0
ARC
  8
0
  6
BYLAYER
 62
     1
 10
380.887372
 20
-179.889139
 30
0.0
 40
4.999980
 50
358.263448
 51
629.999983
  0
CIRCLE
  8
0
  6
BYLAYER
 62
     1
 10
380.887372
 20
-262.389078
 30
0.0
 40
42.5
  0
ARC
  8
0
  6
BYLAYER
 62
     1
 10
442.100873
 20
-187.143534
 30
0.0
 40
2.999964
 50
50.871146
 51
102.667961
  0
ARC
  8
0
  6
BYLAYER
 62
     1
 10
455.918988
 20
-200.913553
 30
0.0
 40
3.000030
 50
347.532019
 51
399.328820
  0
ARC
  8
0
  6
BYLAYER
 62
     1
 10
431.355023
 20
-139.336161
 30
0.0
 40
46.00013
 50
212.731993
 51
282.668007
  0
ARC
  8
0
  6
BYLAYER
 62
     1
 10
390.135785
 20
-165.831034
 30
0.0
 40
2.999911
 50
32.732005
 51
84.528857
  0
ARC
  8
0
  6
BYLAYER
 62
     1
 10
330.419721
 20
-139.336161
 30
0.0
 40
46.000130
 50
257.331994
 51
327.268022
  0
ARC
  8
0
  6
BYLAYER
 62
     1
 10
371.638959
 20
-165.831034
 30
0.0
 40
2.999911
 50
95.471141
 51
147.267990
  0
ARC
  8
0
  6
BYLAYER
 62
     1
 10
319.673932
 20
-187.143534
 30
0.0
 40
2.999964
 50
77.332037
 51
129.128852
  0
ARC
  8
0
  6
BYLAYER
 62
     1
 10
305.855817
 20
-200.913553
 30
0.0
 40
3.000030
 50
140.671175
 51
192.467983
  0
ARC
  8
0
  6
BYLAYER
 62
     1
 10
258.011395
 20
-211.492166
 30
0.0
 40
45.999996
 50
302.532026
 51
372.467986
  0
ARC
  8
0
  6
BYLAYER
 62
     1
 10
284.362164
 20
-252.803629
 30
0.0
 40
3.000036
 50
122.532009
 51
174.328831
  0
ARC
  8
0
  6
BYLAYER
 62
     1
 10
431.355023
 20
-385.442057
 30
0.0
 40
46.000130
 50
77.331996
 51
147.268004
  0
ARC
  8
0
  6
BYLAYER
 62
     1
 10
442.100873
 20
-337.634683
 30
0.0
 40
3.000153
 50
257.332049
 51
309.128843
  0
ARC
  8
0
  6
BYLAYER
 62
     1
 10
305.855817
 20
-323.864908
 30
0.0
 40
2.999875
 50
167.532014
 51
219.328822
  0
ARC
  8
0
  6
BYLAYER
 62
     1
 10
258.011395
 20
-313.286051
 30
0.0
 40
45.999996
 50
347.532019
 51
417.467979
  0
ARC
  8
0
  6
BYLAYER
 62
     1
 10
284.362164
 20
-271.974527
 30
0.0
 40
3.000036
 50
185.671166
 51
237.468001
  0
ARC
  8
0
  6
BYLAYER
 62
     1
 10
470.122663
 20
-238.274698
 30
0.0
 40
3.000001
 50
150.189617
 51
218.524908
  0
ARC
  8
0
  6
BYLAYER
 62
     1
 10
457.107526
 20
-230.817789
 30
0.0
 40
11.999974
 50
330.189868
 51
434.810396
  0
ARC
  8
0
  6
BYLAYER
 62
     1
 10
461.037702
 20
-216.341837
 30
0.0
 40
3.000002
 50
186.476390
 51
254.811026
  0
ARC
  8
0
  6
BYLAYER
 62
     1
 10
503.763349
 20
-211.492166
 30
0.0
 40
45.999996
 50
167.531986
 51
202.500178
  0
ARC
  8
0
  6
BYLAYER
 62
     1
 10
390.135785
 20
-358.947122
 30
0.0
 40
2.999911
 50
275.471146
 51
327.267995
  0
ARC
  8
0
  6
BYLAYER
 62
     1
 10
371.638959
 20
-358.947122
 30
0.0
 40
2.999911
 50
212.732006
 51
264.528855
  0
ARC
  8
0
  6
BYLAYER
 62
     1
 10
305.855878
 20
-323.864847
 30
0.0
 40
2.999953
 50
167.531782
 51
219.328835
  0
ARC
  8
0
  6
BYLAYER
 62
     1
 10
380.887372
 20
-262.389078
 30
0.0
 40
99.999908
 50
264.328895
 51
275.871067
  0
ARC
  8
0
  6
BYLAYER
 62
     1
 10
380.887372
 20
-262.389078
 30
0.0
 40
99.999931
 50
39.328895
 51
50.871068
  0
ARC
  8
0
  6
BYLAYER
 62
     1
 10
380.887372
 20
-262.389078
 30
0.0
 40
99.999931
 50
129.328908
 51
140.871108
  0
ARC
  8
0
  6
BYLAYER
 62
     1
 10
380.887372
 20
-262.389078
 30
0.0
 40
99.999878
 50
174.328872
 51
185.871072
  0
ARC
  8
0
  6
BYLAYER
 62
     1
 10
330.419721
 20
-385.442057
 30
0.0
 40
46.000130
 50
32.732094
 51
102.667924
  0
ARC
  8
0
  6
BYLAYER
 62
     1
 10
380.887372
 20
-262.389078
 30
0.0
 40
99.999931
 50
219.128916
 51
230.871131
  0
ARC
  8
0
  6
BYLAYER
 62
     1
 10
319.673993
 20
-337.634714
 30
0.0
 40
2.999999
 50
230.870311
 51
282.667898
  0
ARC
  8
0
  6
BYLAYER
 62
     1
 10
455.918927
 20
-323.864725
 30
0.0
 40
2.999991
 50
320.671152
 51
372.468052
  0
ARC
  8
0
  6
BYLAYER
 62
     1
 10
503.763349
 20
-313.286051
 30
0.0
 40
46.000023
 50
122.532132
 51
192.467819
  0
ARC
  8
0
  6
BYLAYER
 62
     1
 10
477.412457
 20
-271.974649
 30
0.0
 40
2.999985
 50
302.532875
 51
354.329068
  0
ARC
  8
0
  6
BYLAYER
 62
     1
 10
380.887372
 20
-262.389078
 30
0.0
 40
99.999893
 50
354.328767
 51
365.671171
  0
ARC
  8
0
  6
BYLAYER
 62
     1
 10
503.763349
 20
-211.492166
 30
0.0
 40
46.000069
 50
202.500151
 51
237.467919
  0
ARC
  8
0
  6
BYLAYER
 62
     1
 10
477.412457
 20
-252.803629
 30
0.0
 40
3.000034
 50
5.670925
 51
57.467122
  0
ARC
  8
0
  6
BYLAYER
 62
     1
 10
380.887372
 20
-262.389078
 30
0.0
 40
99.999939
 50
309.128898
 51
320.671180
  0
ARC
  8
0
  6
BYLAYER
 62
     1
 10
380.887372
 20
-262.389078
 30
0.0
 40
99.999878
 50
84.528857
 51
95.471141
  0
ARC
  8
0
  6
BYLAYER
 62
     1
 10
355.079663
 20
-152.889078
 30
0.0
 40
3.000000
 50
90.0
 51
103.261844
  0
LINE
  8
0
  6
BYLAYER
 62
     1
 10
355.079663
 20
-149.889078
 30
0.0
 11
406.695111
 21
-149.889078
 31
0.0
  0
ARC
  8
0
  6
BYLAYER
 62
     1
 10
406.695111
 20
-152.889078
 30
0.0
 40
3.0
 50
76.738150
 51
90.000000
  0
LINE
  8
0
  6
BYLAYER
 62
     1
 10
283.089185
 20
-201.088388
 30
0.0
 11
319.586865
 21
-164.590708
 31
0.0
  0
LINE
  8
0
  6
BYLAYER
 62
     1
 10
268.387647
 20
-288.196695
 30
0.0
 11
268.387647
 21
-236.581217
 31
0.0
  0
LINE
  8
0
  6
BYLAYER
 62
     1
 10
319.586865
 20
-360.187143
 30
0.0
 11
283.089185
 21
-323.689493
 31
0.0
  0
LINE
  8
0
  6
BYLAYER
 62
     1
 10
406.695233
 20
-374.888712
 30
0.0
 11
355.079724
 21
-374.888712
 31
0.0
  0
LINE
  8
0
  6
BYLAYER
 62
     1
 10
478.685590
 20
-323.689401
 30
0.0
 11
442.188031
 21
-360.187052
 31
0.0
  0
LINE
  8
0
  6
BYLAYER
 62
     1
 10
493.387250
 20
-236.581095
 30
0.0
 11
493.387250
 21
-288.196573
 31
0.0
  0
LINE
  8
0
  6
BYLAYER
 62
     1
 10
442.187909
 20
-164.590647
 30
0.0
 11
478.685590
 21
-201.088327
 31
0.0
  0
ARC
  8
0
  6
BYLAYER
 62
     1
 10
490.387250
 20
-288.196573
 30
0.0
 40
3.000000
 50
346.738214
 51
360.000000
  0
ARC
  8
0
  6
BYLAYER
 62
     1
 10
490.387250
 20
-236.581217
 30
0.0
 40
3.0
 50
0.0
 51
13.261779
  0
ARC
  8
0
  6
BYLAYER
 62
     1
 10
380.887403
 20
-262.388895
 30
0.0
 40
115.499939
 50
13.261844
 51
31.738130
  0
ARC
  8
0
  6
BYLAYER
 62
     1
 10
476.564252
 20
-203.209665
 30
0.0
 40
3.000013
 50
31.738393
 51
45.000411
  0
ARC
  8
0
  6
BYLAYER
 62
     1
 10
380.887403
 20
-262.388895
 30
0.0
 40
115.499992
 50
58.261773
 51
76.738145
  0
ARC
  8
0
  6
BYLAYER
 62
     1
 10
440.066815
 20
-166.712107
 30
0.0
 40
2.999917
 50
44.999793
 51
58.261452
  0
ARC
  8
0
  6
BYLAYER
 62
     1
 10
355.079724
 20
-371.888712
 30
0.0
 40
3.000000
 50
256.738231
 51
270.000000
  0
ARC
  8
0
  6
BYLAYER
 62
     1
 10
406.695111
 20
-371.888712
 30
0.0
 40
3.000000
 50
270.0
 51
283.261769
  0
ARC
  8
0
  6
BYLAYER
 62
     1
 10
355.079724
 20
-371.888712
 30
0.0
 40
3.000000
 50
256.738231
 51
270.000000
  0
ARC
  8
0
  6
BYLAYER
 62
     1
 10
380.887403
 20
-262.388895
 30
0.0
 40
115.500000
 50
283.261851
 51
301.738114
  0
ARC
  8
0
  6
BYLAYER
 62
     1
 10
440.066571
 20
-358.065790
 30
0.0
 40
3.000013
 50
301.738005
 51
314.999992
  0
ARC
  8
0
  6
BYLAYER
 62
     1
 10
380.887403
 20
-262.388895
 30
0.0
 40
115.499985
 50
328.261842
 51
346.73816
  0
ARC
  8
0
  6
BYLAYER
 62
     1
 10
476.564252
 20
-321.568186
 30
0.0
 40
3.000003
 50
315.000210
 51
328.262252
  0
ARC
  8
0
  6
BYLAYER
 62
     1
 10
271.387647
 20
-236.581217
 30
0.0
 40
3.000000
 50
166.738204
 51
180.000000
  0
ARC
  8
0
  6
BYLAYER
 62
     1
 10
271.387647
 20
-288.196604
 30
0.0
 40
3.0
 50
180.000000
 51
193.261796
  0
ARC
  8
0
  6
BYLAYER
 62
     1
 10
380.887403
 20
-262.388895
 30
0.0
 40
115.499977
 50
193.261855
 51
211.738173
  0
ARC
  8
0
  6
BYLAYER
 62
     1
 10
285.210523
 20
-321.568186
 30
0.0
 40
2.999909
 50
211.738323
 51
225.000228
  0
ARC
  8
0
  6
BYLAYER
 62
     1
 10
380.887403
 20
-262.388895
 30
0.0
 40
115.500008
 50
238.261833
 51
256.738150
  0
ARC
  8
0
  6
BYLAYER
 62
     1
 10
321.708081
 20
-358.065729
 30
0.0
 40
3.000014
 50
224.999996
 51
238.261887
  0
ARC
  8
0
  6
BYLAYER
 62
     1
 10
380.887403
 20
-262.388895
 30
0.0
 40
115.499985
 50
148.261892
 51
166.738155
  0
ARC
  8
0
  6
BYLAYER
 62
     1
 10
285.210523
 20
-203.209665
 30
0.0
 40
3.000003
 50
135.000205
 51
148.262192
  0
ARC
  8
0
  6
BYLAYER
 62
     1
 10
380.887403
 20
-262.388895
 30
0.0
 40
115.499992
 50
103.261880
 51
121.738164
  0
ARC
  8
0
  6
BYLAYER
 62
     1
 10
321.708081
 20
-166.712046
 30
0.0
 40
3.000003
 50
121.738423
 51
135.000205
  0
ARC
  8
0
  6
BYLAYER
 62
     1
 10
360.023105
 20
-139.037551
 30
0.0
 40
4.330170
 50
270.0
 51
316.109984
  0
ARC
  8
0
  6
BYLAYER
 62
     1
 10
359.581632
 20
-138.612861
 30
0.0
 40
4.942754
 50
316.109984
 51
360.000000
  0
ARC
  8
0
  6
BYLAYER
 62
     1
 10
359.581632
 20
-138.612861
 30
0.0
 40
4.942754
 50
0.0
 51
43.890016
  0
ARC
  8
0
  6
BYLAYER
 62
     1
 10
360.023105
 20
-138.188170
 30
0.0
 40
4.330170
 50
43.890016
 51
90.0
  0
ARC
  8
0
  6
BYLAYER
 62
     1
 10
360.023105
 20
-138.188133
 30
0.0
 40
4.330132
 50
90.0
 51
136.110087
  0
ARC
  8
0
  6
BYLAYER
 62
     1
 10
360.464618
 20
-138.612861
 30
0.0
 40
4.942772
 50
136.110087
 51
180.0
  0
ARC
  8
0
  6
BYLAYER
 62
     1
 10
360.464618
 20
-138.612861
 30
0.0
 40
4.942772
 50
180.000000
 51
223.889913
  0
ARC
  8
0
  6
BYLAYER
 62
     1
 10
360.023105
 20
-139.037588
 30
0.0
 40
4.330132
 50
223.889913
 51
270.000000
  0
ARC
  8
0
  6
BYLAYER
 62
     1
 10
360.023105
 20
-137.348134
 30
0.0
 40
1.994620
 50
90.0
 51
140.793201
  0
ARC
  8
0
  6
BYLAYER
 62
     1
 10
361.573437
 20
-138.612861
 30
0.0
 40
3.995385
 50
140.793201
 51
180.000000
  0
ARC
  8
0
  6
BYLAYER
 62
     1
 10
361.573413
 20
-138.612861
 30
0.0
 40
3.995361
 50
180.000000
 51
219.206869
  0
ARC
  8
0
  6
BYLAYER
 62
     1
 10
360.023105
 20
-139.877570
 30
0.0
 40
1.994625
 50
219.206869
 51
270.000000
  0
ARC
  8
0
  6
BYLAYER
 62
     1
 10
360.023105
 20
-139.877570
 30
0.0
 40
1.994625
 50
270.0
 51
320.793131
  0
ARC
  8
0
  6
BYLAYER
 62
     1
 10
358.472797
 20
-138.612861
 30
0.0
 40
3.995361
 50
320.793131
 51
360.000000
  0
ARC
  8
0
  6
BYLAYER
 62
     1
 10
358.472773
 20
-138.612861
 30
0.0
 40
3.995385
 50
0.0
 51
39.206799
  0
ARC
  8
0
  6
BYLAYER
 62
     1
 10
360.023105
 20
-137.348134
 30
0.0
 40
1.994620
 50
39.206799
 51
90.000000
  0
LINE
  8
0
  6
BYLAYER
 62
     1
 10
345.251346
 20
-143.050719
 30
0.0
 11
345.251346
 21
-134.048178
 31
0.0
  0
LINE
  8
0
  6
BYLAYER
 62
     1
 10
345.251346
 20
-134.048178
 30
0.0
 11
348.911532
 21
-134.048178
 31
0.0
  0
LINE
  8
0
  6
BYLAYER
 62
     1
 10
348.911532
 20
-134.048178
 30
0.0
 11
350.133006
 21
-138.739661
 31
0.0
  0
LINE
  8
0
  6
BYLAYER
 62
     1
 10
345.251346
 20
-143.050719
 30
0.0
 11
347.449161
 21
-143.050719
 31
0.0
  0
LINE
  8
0
  6
BYLAYER
 62
     1
 10
347.449161
 20
-143.050719
 30
0.0
 11
347.449161
 21
-137.852080
 31
0.0
  0
LINE
  8
0
  6
BYLAYER
 62
     1
 10
349.182025
 20
-143.050719
 30
0.0
 11
347.449161
 21
-137.852080
 31
0.0
  0
LINE
  8
0
  6
BYLAYER
 62
     1
 10
355.014667
 20
-143.050719
 30
0.0
 11
355.014667
 21
-134.048178
 31
0.0
  0
LINE
  8
0
  6
BYLAYER
 62
     1
 10
355.014667
 20
-134.048178
 30
0.0
 11
351.354480
 21
-134.048178
 31
0.0
  0
LINE
  8
0
  6
BYLAYER
 62
     1
 10
351.354480
 20
-134.048178
 30
0.0
 11
350.133006
 21
-138.739661
 31
0.0
  0
LINE
  8
0
  6
BYLAYER
 62
     1
 10
355.014667
 20
-143.050719
 30
0.0
 11
352.816852
 21
-143.050719
 31
0.0
  0
LINE
  8
0
  6
BYLAYER
 62
     1
 10
352.816852
 20
-143.050719
 30
0.0
 11
352.816852
 21
-137.852080
 31
0.0
  0
LINE
  8
0
  6
BYLAYER
 62
     1
 10
351.083987
 20
-143.050719
 30
0.0
 11
352.816852
 21
-137.852080
 31
0.0
  0
LINE
  8
0
  6
BYLAYER
 62
     1
 10
351.083987
 20
-143.050719
 30
0.0
 11
349.182025
 21
-143.050719
 31
0.0
  0
LINE
  8
0
  6
BYLAYER
 62
     1
 10
387.220927
 20
-143.050719
 30
0.0
 11
390.644405
 21
-134.048178
 31
0.0
  0
LINE
  8
0
  6
BYLAYER
 62
     1
 10
387.220927
 20
-143.050719
 30
0.0
 11
390.137248
 21
-143.050719
 31
0.0
  0
LINE
  8
0
  6
BYLAYER
 62
     1
 10
390.644405
 20
-134.048178
 30
0.0
 11
393.433925
 21
-134.048178
 31
0.0
  0
LINE
  8
0
  6
BYLAYER
 62
     1
 10
390.137248
 20
-143.050719
 30
0.0
 11
390.569514
 21
-141.782760
 31
0.0
  0
LINE
  8
0
  6
BYLAYER
 62
     1
 10
391.261104
 20
-139.754020
 30
0.0
 11
392.039165
 21
-137.471679
 31
0.0
  0
LINE
  8
0
  6
BYLAYER
 62
     1
 10
396.857448
 20
-143.050719
 30
0.0
 11
393.433925
 21
-134.048178
 31
0.0
  0
LINE
  8
0
  6
BYLAYER
 62
     1
 10
396.857448
 20
-143.050719
 30
0.0
 11
393.941127
 21
-143.050719
 31
0.0
  0
LINE
  8
0
  6
BYLAYER
 62
     1
 10
393.508861
 20
-141.782760
 30
0.0
 11
390.569514
 21
-141.782760
 31
0.0
  0
LINE
  8
0
  6
BYLAYER
 62
     1
 10
392.817226
 20
-139.754020
 30
0.0
 11
391.261104
 21
-139.754020
 31
0.0
  0
LINE
  8
0
  6
BYLAYER
 62
     1
 10
393.941127
 20
-143.050719
 30
0.0
 11
393.508861
 21
-141.782760
 31
0.0
  0
LINE
  8
0
  6
BYLAYER
 62
     1
 10
392.817226
 20
-139.754020
 30
0.0
 11
392.039165
 21
-137.471679
 31
0.0
  0
LINE
  8
0
  6
BYLAYER
 62
     1
 10
364.524386
 20
-136.267119
 30
0.0
 11
367.060306
 21
-136.267119
 31
0.0
  0
LINE
  8
0
  6
BYLAYER
 62
     1
 10
367.060306
 20
-136.267119
 30
0.0
 11
367.060306
 21
-143.050719
 31
0.0
  0
LINE
  8
0
  6
BYLAYER
 62
     1
 10
367.060306
 20
-143.050719
 30
0.0
 11
369.849849
 21
-143.050719
 31
0.0
  0
LINE
  8
0
  6
BYLAYER
 62
     1
 10
369.849849
 20
-143.050719
 30
0.0
 11
369.849849
 21
-136.267119
 31
0.0
  0
LINE
  8
0
  6
BYLAYER
 62
     1
 10
369.849849
 20
-136.267119
 30
0.0
 11
372.385768
 21
-136.267119
 31
0.0
  0
LINE
  8
0
  6
BYLAYER
 62
     1
 10
372.385768
 20
-136.267119
 30
0.0
 11
372.385768
 21
-134.048178
 31
0.0
  0
LINE
  8
0
  6
BYLAYER
 62
     1
 10
372.385768
 20
-134.048178
 30
0.0
 11
364.524386
 21
-134.048178
 31
0.0
  0
LINE
  8
0
  6
BYLAYER
 62
     1
 10
364.524386
 20
-134.048178
 30
0.0
 11
364.524386
 21
-136.267119
 31
0.0
  0
ARC
  8
0
  6
BYLAYER
 62
     1
 10
376.887027
 20
-139.037588
 30
0.0
 40
4.330132
 50
270.0
 51
316.110087
  0
ARC
  8
0
  6
BYLAYER
 62
     1
 10
376.445514
 20
-138.612861
 30
0.0
 40
4.942772
 50
316.110087
 51
360.0
  0
ARC
  8
0
  6
BYLAYER
 62
     1
 10
376.445532
 20
-138.612861
 30
0.0
 40
4.942754
 50
0.0
 51
43.890016
  0
ARC
  8
0
  6
BYLAYER
 62
     1
 10
376.887004
 20
-138.188170
 30
0.0
 40
4.330170
 50
43.890016
 51
90.000000
  0
ARC
  8
0
  6
BYLAYER
 62
     1
 10
376.887004
 20
-138.188133
 30
0.0
 40
4.330132
 50
90.0
 51
136.110087
  0
ARC
  8
0
  6
BYLAYER
 62
     1
 10
377.328517
 20
-138.612861
 30
0.0
 40
4.942772
 50
136.110087
 51
180.0
  0
ARC
  8
0
  6
BYLAYER
 62
     1
 10
377.328499
 20
-138.612861
 30
0.0
 40
4.942754
 50
180.000000
 51
223.890016
  0
ARC
  8
0
  6
BYLAYER
 62
     1
 10
376.887027
 20
-139.037551
 30
0.0
 40
4.330170
 50
223.890016
 51
270.0
  0
ARC
  8
0
  6
BYLAYER
 62
     1
 10
376.887004
 20
-137.348134
 30
0.0
 40
1.994620
 50
90.0
 51
140.793201
  0
ARC
  8
0
  6
BYLAYER
 62
     1
 10
378.437336
 20
-138.612861
 30
0.0
 40
3.995385
 50
140.793201
 51
180.000000
  0
ARC
  8
0
  6
BYLAYER
 62
     1
 10
378.437285
 20
-138.612861
 30
0.0
 40
3.995334
 50
180.000000
 51
219.207055
  0
ARC
  8
0
  6
BYLAYER
 62
     1
 10
376.887027
 20
-139.877538
 30
0.0
 40
1.994657
 50
219.207055
 51
270.000000
  0
ARC
  8
0
  6
BYLAYER
 62
     1
 10
376.887027
 20
-139.877570
 30
0.0
 40
1.994625
 50
270.0
 51
320.793131
  0
ARC
  8
0
  6
BYLAYER
 62
     1
 10
375.336719
 20
-138.612861
 30
0.0
 40
3.995361
 50
320.793131
 51
360.0
  0
ARC
  8
0
  6
BYLAYER
 62
     1
 10
375.336722
 20
-138.612861
 30
0.0
 40
3.995358
 50
0.0
 51
39.206985
  0
ARC
  8
0
  6
BYLAYER
 62
     1
 10
376.887004
 20
-137.348166
 30
0.0
 40
1.994652
 50
39.206985
 51
90.000000
  0
LINE
  8
0
  6
BYLAYER
 62
     1
 10
397.100429
 20
-143.050719
 30
0.0
 11
397.100429
 21
-134.048178
 31
0.0
  0
LINE
  8
0
  6
BYLAYER
 62
     1
 10
397.100429
 20
-134.048178
 30
0.0
 11
402.679446
 21
-134.048178
 31
0.0
  0
ARC
  8
0
  6
BYLAYER
 62
     1
 10
402.679446
 20
-136.584121
 30
0.0
 40
2.535915
 50
287.134650
 51
450.000006
  0
ARC
  8
0
  6
BYLAYER
 62
     1
 10
403.186649
 20
-141.021979
 30
0.0
 40
2.028740
 50
0.0
 51
83.207557
  0
LINE
  8
0
  6
BYLAYER
 62
     1
 10
405.215389
 20
-141.021979
 30
0.0
 11
405.215389
 21
-142.289939
 31
0.0
  0
ARC
  8
0
  6
BYLAYER
 62
     1
 10
407.244128
 20
-142.289939
 30
0.0
 40
2.028740
 50
180.000000
 51
202.024314
  0
LINE
  8
0
  6
BYLAYER
 62
     1
 10
402.573909
 20
-143.050719
 30
0.0
 11
405.363429
 21
-143.050719
 31
0.0
  0
ARC
  8
0
  6
BYLAYER
 62
     1
 10
404.454608
 20
-142.289939
 30
0.0
 40
2.028740
 50
180.000000
 51
202.024314
  0
LINE
  8
0
  6
BYLAYER
 62
     1
 10
402.425868
 20
-142.289939
 30
0.0
 11
402.425868
 21
-141.275580
 31
0.0
  0
LINE
  8
0
  6
BYLAYER
 62
     1
 10
397.100429
 20
-143.050719
 30
0.0
 11
399.763149
 21
-143.050719
 31
0.0
  0
LINE
  8
0
  6
BYLAYER
 62
     1
 10
399.763149
 20
-143.050719
 30
0.0
 11
399.763149
 21
-140.007621
 31
0.0
  0
LINE
  8
0
  6
BYLAYER
 62
     1
 10
401.157909
 20
-140.007621
 30
0.0
 11
399.763149
 21
-140.007621
 31
0.0
  0
ARC
  8
0
  6
BYLAYER
 62
     1
 10
401.157909
 20
-141.275580
 30
0.0
 40
1.267960
 50
0.0
 51
90.000003
  0
LINE
  8
0
  6
BYLAYER
 62
     1
 10
399.763149
 20
-137.978881
 30
0.0
 11
399.763149
 21
-136.076918
 31
0.0
  0
LINE
  8
0
  6
BYLAYER
 62
     1
 10
399.763149
 20
-136.076918
 30
0.0
 11
401.538287
 21
-136.076918
 31
0.0
  0
LINE
  8
0
  6
BYLAYER
 62
     1
 10
399.763149
 20
-137.978881
 30
0.0
 11
401.538287
 21
-137.978881
 31
0.0
  0
ARC
  8
0
  6
BYLAYER
 62
     1
 10
401.538287
 20
-137.027900
 30
0.0
 40
0.950981
 50
270.0
 51
450.000005
  0
LINE
  8
0
  6
BYLAYER
 62
     1
 10
385.002010
 20
-140.204024
 30
0.0
 11
383.353648
 21
-134.048178
 31
0.0
  0
LINE
  8
0
  6
BYLAYER
 62
     1
 10
383.353648
 20
-134.048178
 30
0.0
 11
380.690929
 21
-134.048178
 31
0.0
  0
LINE
  8
0
  6
BYLAYER
 62
     1
 10
380.690929
 20
-134.048178
 30
0.0
 11
383.480449
 21
-143.050719
 31
0.0
  0
LINE
  8
0
  6
BYLAYER
 62
     1
 10
385.002010
 20
-140.204024
 30
0.0
 11
386.650325
 21
-134.048178
 31
0.0
  0
LINE
  8
0
  6
BYLAYER
 62
     1
 10
386.650325
 20
-134.048178
 30
0.0
 11
389.313045
 21
-134.048178
 31
0.0
  0
LINE
  8
0
  6
BYLAYER
 62
     1
 10
389.313045
 20
-134.048178
 30
0.0
 11
386.523524
 21
-143.050719
 31
0.0
  0
LINE
  8
0
  6
BYLAYER
 62
     1
 10
386.523524
 20
-143.050719
 30
0.0
 11
383.480449
 21
-143.050719
 31
0.0
  0
LINE
  8
0
  6
BYLAYER
 62
     1
 10
405.606410
 20
-143.050719
 30
0.0
 11
408.269130
 21
-143.050719
 31
0.0
  0
LINE
  8
0
  6
BYLAYER
 62
     1
 10
408.269130
 20
-143.050719
 30
0.0
 11
408.269130
 21
-134.048178
 31
0.0
  0
LINE
  8
0
  6
BYLAYER
 62
     1
 10
408.269130
 20
-134.048178
 30
0.0
 11
405.606410
 21
-134.048178
 31
0.0
  0
LINE
  8
0
  6
BYLAYER
 62
     1
 10
405.606410
 20
-134.048178
 30
0.0
 11
405.606410
 21
-143.050719
 31
0.0
  0
ARC
  8
0
  6
BYLAYER
 62
     1
 10
413.277591
 20
-139.037588
 30
0.0
 40
4.330132
 50
270.0
 51
316.110087
  0
ARC
  8
0
  6
BYLAYER
 62
     1
 10
412.836078
 20
-138.612861
 30
0.0
 40
4.942772
 50
316.110087
 51
360.0
  0
ARC
  8
0
  6
BYLAYER
 62
     1
 10
412.836078
 20
-138.612861
 30
0.0
 40
4.942772
 50
0.0
 51
43.889913
  0
ARC
  8
0
  6
BYLAYER
 62
     1
 10
413.277591
 20
-138.188133
 30
0.0
 40
4.330132
 50
43.889913
 51
90.0
  0
ARC
  8
0
  6
BYLAYER
 62
     1
 10
413.277591
 20
-138.188133
 30
0.0
 40
4.330132
 50
90.0
 51
136.110087
  0
ARC
  8
0
  6
BYLAYER
 62
     1
 10
413.719104
 20
-138.612861
 30
0.0
 40
4.942772
 50
136.110087
 51
180.0
  0
ARC
  8
0
  6
BYLAYER
 62
     1
 10
413.719104
 20
-138.612861
 30
0.0
 40
4.942772
 50
180.000000
 51
223.889913
  0
ARC
  8
0
  6
BYLAYER
 62
     1
 10
413.277591
 20
-139.037588
 30
0.0
 40
4.330132
 50
223.889913
 51
270.000000
  0
ARC
  8
0
  6
BYLAYER
 62
     1
 10
413.277591
 20
-137.348134
 30
0.0
 40
1.994620
 50
39.206799
 51
90.0
  0
ARC
  8
0
  6
BYLAYER
 62
     1
 10
411.727259
 20
-138.612861
 30
0.0
 40
3.995385
 50
0.0
 51
39.206799
  0
ARC
  8
0
  6
BYLAYER
 62
     1
 10
411.727283
 20
-138.612861
 30
0.0
 40
3.995361
 50
320.793131
 51
360.000000
  0
ARC
  8
0
  6
BYLAYER
 62
     1
 10
413.277591
 20
-139.877570
 30
0.0
 40
1.994625
 50
270.0
 51
320.793131
  0
ARC
  8
0
  6
BYLAYER
 62
     1
 10
413.277591
 20
-139.877570
 30
0.0
 40
1.994625
 50
219.206869
 51
270.0
  0
ARC
  8
0
  6
BYLAYER
 62
     1
 10
414.827899
 20
-138.612861
 30
0.0
 40
3.995361
 50
180.000000
 51
219.206869
  0
ARC
  8
0
  6
BYLAYER
 62
     1
 10
414.827923
 20
-138.612861
 30
0.0
 40
3.995385
 50
140.793201
 51
180.000000
  0
ARC
  8
0
  6
BYLAYER
 62
     1
 10
413.277591
 20
-137.348134
 30
0.0
 40
1.994620
 50
90.0
 51
140.793201
  0
ARC
  8
0
  6
BYLAYER
 62
     1
 10
368.319797
 20
-123.742087
 30
0.0
 40
11.144993
 50
174.535650
 51
180.000000
  0
LINE
  8
0
  6
BYLAYER
 62
     1
 10
357.225448
 20
-122.680785
 30
0.0
 11
357.225448
 21
-122.680774
 31
0.0
  0
LINE
  8
0
  6
BYLAYER
 62
     1
 10
357.237575
 20
-122.560889
 30
0.0
 11
358.301229
 21
-122.113075
 31
0.0
  0
ARC
  8
0
  6
BYLAYER
 62
     1
 10
368.319842
 20
-123.742179
 30
0.0
 40
10.150172
 50
159.235383
 51
170.763998
  0
LINE
  8
0
  6
BYLAYER
 62
     1
 10
358.828931
 20
-120.143581
 30
0.0
 11
358.131732
 21
-119.223911
 31
0.0
  0
ARC
  8
0
  6
BYLAYER
 62
     1
 10
368.319797
 20
-123.742087
 30
0.0
 40
11.144980
 50
144.139514
 51
156.083795
  0
LINE
  8
0
  6
BYLAYER
 62
     1
 10
359.214099
 20
-117.315795
 30
0.0
 11
359.214763
 21
-117.314856
 31
0.0
  0
LINE
  8
0
  6
BYLAYER
 62
     1
 10
359.287394
 20
-117.213207
 30
0.0
 11
360.419782
 21
-117.369003
 31
0.0
  0
ARC
  8
0
  6
BYLAYER
 62
     1
 10
368.319797
 20
-123.742087
 30
0.0
 40
10.150111
 50
129.235643
 51
141.105976
  0
LINE
  8
0
  6
BYLAYER
 62
     1
 10
361.733768
 20
-116.018801
 30
0.0
 11
361.734866
 21
-116.017852
 31
0.0
  0
LINE
  8
0
  6
BYLAYER
 62
     1
 10
361.899737
 20
-115.880307
 30
0.0
 11
361.755746
 21
-114.735197
 31
0.0
  0
ARC
  8
0
  6
BYLAYER
 62
     1
 10
368.319797
 20
-123.742087
 30
0.0
 40
11.144991
 50
114.139607
 51
126.083853
  0
LINE
  8
0
  6
BYLAYER
 62
     1
 10
363.647975
 20
-113.623542
 30
0.0
 11
363.648730
 21
-113.623187
 31
0.0
  0
LINE
  8
0
  6
BYLAYER
 62
     1
 10
363.761926
 20
-113.571707
 30
0.0
 11
364.664669
 21
-114.272798
 31
0.0
  0
LINE
  8
0
  6
BYLAYER
 62
     1
 10
364.871074
 20
-114.195815
 30
0.0
 11
364.872218
 21
-114.195414
 31
0.0
  0
ARC
  8
0
  6
BYLAYER
 62
     1
 10
368.319797
 20
-123.742087
 30
0.0
 40
10.150108
 50
99.235601
 51
111.106038
  0
ARC
  8
0
  6
BYLAYER
 62
     1
 10
368.319797
 20
-123.742087
 30
0.0
 40
11.144993
 50
90.0
 51
96.083892
  0
LINE
  8
0
  6
BYLAYER
 62
     1
 10
367.138600
 20
-112.659866
 30
0.0
 11
366.690760
 21
-113.723558
 31
0.0
  0
LINE
  8
0
  6
BYLAYER
 62
     1
 10
379.414134
 20
-122.680785
 30
0.0
 11
379.414134
 21
-122.680774
 31
0.0
  0
LINE
  8
0
  6
BYLAYER
 62
     1
 10
379.402018
 20
-122.560888
 30
0.0
 11
378.338310
 21
-122.113064
 31
0.0
  0
ARC
  8
0
  6
BYLAYER
 62
     1
 10
368.319728
 20
-123.742179
 30
0.0
 40
10.150172
 50
9.235986
 51
20.764650
  0
LINE
  8
0
  6
BYLAYER
 62
     1
 10
377.810714
 20
-120.143475
 30
0.0
 11
378.507862
 21
-119.223913
 31
0.0
  0
ARC
  8
0
  6
BYLAYER
 62
     1
 10
368.319797
 20
-123.742087
 30
0.0
 40
11.144980
 50
23.916189
 51
35.860484
  0
LINE
  8
0
  6
BYLAYER
 62
     1
 10
377.425471
 20
-117.315795
 30
0.0
 11
377.424808
 21
-117.314856
 31
0.0
  0
LINE
  8
0
  6
BYLAYER
 62
     1
 10
377.352199
 20
-117.213207
 30
0.0
 11
376.219891
 21
-117.368988
 31
0.0
  0
ARC
  8
0
  6
BYLAYER
 62
     1
 10
368.319797
 20
-123.742087
 30
0.0
 40
10.150111
 50
38.894050
 51
50.764315
  0
LINE
  8
0
  6
BYLAYER
 62
     1
 10
374.905826
 20
-116.018801
 30
0.0
 11
374.904727
 21
-116.017852
 31
0.0
  0
LINE
  8
0
  6
BYLAYER
 62
     1
 10
374.739886
 20
-115.880123
 30
0.0
 11
374.883823
 21
-114.735179
 31
0.0
  0
ARC
  8
0
  6
BYLAYER
 62
     1
 10
368.319797
 20
-123.742087
 30
0.0
 40
11.144991
 50
53.916300
 51
65.860381
  0
LINE
  8
0
  6
BYLAYER
 62
     1
 10
372.991618
 20
-113.623542
 30
0.0
 11
372.990840
 21
-113.623187
 31
0.0
  0
LINE
  8
0
  6
BYLAYER
 62
     1
 10
372.877670
 20
-113.571708
 30
0.0
 11
371.974935
 21
-114.272767
 31
0.0
  0
LINE
  8
0
  6
BYLAYER
 62
     1
 10
371.768497
 20
-114.195815
 30
0.0
 11
371.767375
 21
-114.195414
 31
0.0
  0
ARC
  8
0
  6
BYLAYER
 62
     1
 10
368.319797
 20
-123.742087
 30
0.0
 40
10.150108
 50
68.894081
 51
80.764578
  0
ARC
  8
0
  6
BYLAYER
 62
     1
 10
368.319797
 20
-123.742087
 30
0.0
 40
11.144993
 50
84.535428
 51
90.000003
  0
LINE
  8
0
  6
BYLAYER
 62
     1
 10
369.500997
 20
-112.659866
 30
0.0
 11
369.948728
 21
-113.723377
 31
0.0
  0
ARC
  8
0
  6
BYLAYER
 62
     1
 10
368.319797
 20
-123.742087
 30
0.0
 40
11.144993
 50
180.000000
 51
186.083899
  0
LINE
  8
0
  6
BYLAYER
 62
     1
 10
357.225448
 20
-124.803378
 30
0.0
 11
357.225448
 21
-124.803401
 31
0.0
  0
LINE
  8
0
  6
BYLAYER
 62
     1
 10
357.237575
 20
-124.923285
 30
0.0
 11
358.301261
 21
-125.371113
 31
0.0
  0
ARC
  8
0
  6
BYLAYER
 62
     1
 10
368.319842
 20
-123.741996
 30
0.0
 40
10.150172
 50
189.236002
 51
200.764629
  0
LINE
  8
0
  6
BYLAYER
 62
     1
 10
358.828967
 20
-127.340548
 30
0.0
 11
358.131729
 21
-128.260255
 31
0.0
  0
ARC
  8
0
  6
BYLAYER
 62
     1
 10
368.319797
 20
-123.742087
 30
0.0
 40
11.144980
 50
203.916158
 51
215.860410
  0
LINE
  8
0
  6
BYLAYER
 62
     1
 10
359.214099
 20
-130.168368
 30
0.0
 11
359.214763
 21
-130.169307
 31
0.0
  0
LINE
  8
0
  6
BYLAYER
 62
     1
 10
359.287385
 20
-130.270956
 30
0.0
 11
360.419880
 21
-130.115161
 31
0.0
  0
ARC
  8
0
  6
BYLAYER
 62
     1
 10
368.319797
 20
-123.742087
 30
0.0
 40
10.150111
 50
218.894045
 51
230.764345
  0
LINE
  8
0
  6
BYLAYER
 62
     1
 10
361.733768
 20
-131.465361
 30
0.0
 11
361.734866
 21
-131.466311
 31
0.0
  0
LINE
  8
0
  6
BYLAYER
 62
     1
 10
361.899735
 20
-131.603866
 30
0.0
 11
361.755747
 21
-132.748978
 31
0.0
  0
ARC
  8
0
  6
BYLAYER
 62
     1
 10
368.319797
 20
-123.742087
 30
0.0
 40
11.144991
 50
233.916148
 51
245.860401
  0
LINE
  8
0
  6
BYLAYER
 62
     1
 10
363.647975
 20
-133.860621
 30
0.0
 11
363.648730
 21
-133.860987
 31
0.0
  0
LINE
  8
0
  6
BYLAYER
 62
     1
 10
363.761927
 20
-133.912468
 30
0.0
 11
364.664776
 21
-133.211279
 31
0.0
  0
LINE
  8
0
  6
BYLAYER
 62
     1
 10
364.871074
 20
-133.288348
 30
0.0
 11
364.872218
 21
-133.288760
 31
0.0
  0
LINE
  8
0
  6
BYLAYER
 62
     1
 10
379.414134
 20
-124.803378
 30
0.0
 11
379.414134
 21
-124.803401
 31
0.0
  0
LINE
  8
0
  6
BYLAYER
 62
     1
 10
379.402016
 20
-124.923287
 30
0.0
 11
378.338310
 21
-125.371110
 31
0.0
  0
LINE
  8
0
  6
BYLAYER
 62
     1
 10
377.810616
 20
-127.340573
 30
0.0
 11
378.507874
 21
-128.260263
 31
0.0
  0
LINE
  8
0
  6
BYLAYER
 62
     1
 10
377.425471
 20
-130.168368
 30
0.0
 11
377.424808
 21
-130.169307
 31
0.0
  0
LINE
  8
0
  6
BYLAYER
 62
     1
 10
377.352221
 20
-130.270957
 30
0.0
 11
376.219653
 21
-130.115157
 31
0.0
  0
LINE
  8
0
  6
BYLAYER
 62
     1
 10
374.905826
 20
-131.465361
 30
0.0
 11
374.904727
 21
-131.466311
 31
0.0
  0
LINE
  8
0
  6
BYLAYER
 62
     1
 10
374.739864
 20
-131.603862
 30
0.0
 11
374.883823
 21
-132.748995
 31
0.0
  0
LINE
  8
0
  6
BYLAYER
 62
     1
 10
372.877668
 20
-133.912467
 30
0.0
 11
371.974797
 21
-133.211286
 31
0.0
  0
ARC
  8
0
  6
BYLAYER
 62
     1
 10
368.319797
 20
-123.742087
 30
0.0
 40
10.150111
 50
309.235697
 51
321.105929
  0
ARC
  8
0
  6
BYLAYER
 62
     1
 10
368.319797
 20
-123.742087
 30
0.0
 40
10.150108
 50
248.893873
 51
270.0
  0
ARC
  8
0
  6
BYLAYER
 62
     1
 10
368.319797
 20
-123.742087
 30
0.0
 40
11.144991
 50
294.783232
 51
306.083699
  0
LINE
  8
0
  6
BYLAYER
 62
     1
 10
372.990840
 20
-133.860987
 30
0.0
 11
372.878355
 21
-133.913921
 31
0.0
  0
ARC
  8
0
  6
BYLAYER
 62
     1
 10
368.319797
 20
-123.742087
 30
0.0
 40
11.144980
 50
324.139593
 51
336.083825
  0
ARC
  8
0
  6
BYLAYER
 62
     1
 10
368.319728
 20
-123.741996
 30
0.0
 40
10.150172
 50
339.235210
 51
350.764014
  0
ARC
  8
0
  6
BYLAYER
 62
     1
 10
368.319797
 20
-123.742087
 30
0.0
 40
11.144993
 50
353.916089
 51
360.000000
  0
ARC
  8
0
  6
BYLAYER
 62
     1
 10
368.319797
 20
-123.742087
 30
0.0
 40
11.144993
 50
0.0
 51
6.083907
  0
ARC
  8
0
  6
BYLAYER
 62
     1
 10
368.319797
 20
-123.742087
 30
0.0
 40
10.150108
 50
270.0
 51
291.106008
  0
CIRCLE
  8
0
  6
BYLAYER
 62
     1
 10
368.319797
 20
-123.742087
 30
0.0
 40
5.445121
  0
CIRCLE
  8
0
  6
BYLAYER
 62
     1
 10
368.319797
 20
-123.742087
 30
0.0
 40
7.944049
  0
LINE
  8
0
  6
BYLAYER
 62
     1
 10
260.629209
 20
-163.085337
 30
0.0
 11
258.887387
 21
-198.024332
 31
0.0
  0
LINE
  8
0
  6
BYLAYER
 62
     1
 10
501.042052
 20
-162.949411
 30
0.0
 11
502.887387
 21
-206.546244
 31
0.0
  0
LINE
  8
0
  6
BYLAYER
 62
     1
 10
380.887372
 20
-262.389078
 30
0.0
 11
380.887372
 21
-256.389078
 31
0.0
  0
LINE
  8
0
  6
BYLAYER
 62
     1
 10
380.887372
 20
-262.389078
 30
0.0
 11
374.887372
 21
-262.389078
 31
0.0
  0
LINE
  8
0
  6
BYLAYER
 62
     1
 10
380.887372
 20
-262.389078
 30
0.0
 11
380.887372
 21
-268.389078
 31
0.0
  0
LINE
  8
0
  6
BYLAYER
 62
     1
 10
380.887372
 20
-262.389078
 30
0.0
 11
386.887372
 21
-262.389078
 31
0.0
  0
LINE
  8
0
  6
BYLAYER
 62
     1
 10
1104.387372
 20
-797.389078
 30
0.0
 11
1106.887372
 21
-797.389078
 31
0.0
  0
LINE
  8
0
  6
BYLAYER
 62
     1
 10
1103.387372
 20
-798.389078
 30
0.0
 11
1104.387372
 21
-797.389078
 31
0.0
  0
LINE
  8
0
  6
BYLAYER
 62
     1
 10
1103.387372
 20
-926.388956
 30
0.0
 11
1104.387372
 21
-927.388956
 31
0.0
  0
LINE
  8
0
  6
BYLAYER
 62
     1
 10
1104.387372
 20
-927.388956
 30
0.0
 11
1106.887372
 21
-927.388956
 31
0.0
  0
LINE
  8
0
  6
BYLAYER
 62
     1
 10
1103.387372
 20
-798.389078
 30
0.0
 11
1103.387372
 21
-926.388956
 31
0.0
  0
LINE
  8
0
  6
BYLAYER
 62
     1
 10
1108.887372
 20
-694.889017
 30
0.0
 11
1252.887372
 21
-694.889017
 31
0.0
  0
LINE
  8
0
  6
BYLAYER
 62
     1
 10
1108.887372
 20
-989.889017
 30
0.0
 11
1252.887372
 21
-989.889017
 31
0.0
  0
LINE
  8
0
  6
BYLAYER
 62
     1
 10
1108.887372
 20
-962.493814
 30
0.0
 11
1106.887372
 21
-962.388956
 31
0.0
  0
LINE
  8
0
  6
BYLAYER
 62
     1
 10
1106.887372
 20
-962.388956
 30
0.0
 11
1106.887372
 21
-762.389078
 31
0.0
  0
CIRCLE
  8
0
  6
BYLAYER
 62
     1
 10
1123.387311
 20
-737.389017
 30
0.0
 40
7.0
  0
CIRCLE
  8
0
  6
BYLAYER
 62
     1
 10
1238.387372
 20
-737.389017
 30
0.0
 40
7.0
  0
CIRCLE
  8
0
  6
BYLAYER
 62
     1
 10
1180.887372
 20
-752.389078
 30
0.0
 40
36.0
  0
ARC
  8
0
  6
BYLAYER
 62
     1
 10
1127.128888
 20
-761.349283
 30
0.0
 40
3.000083
 50
9.462899
 51
86.999924
  0
ARC
  8
0
  6
BYLAYER
 62
     1
 10
1180.887372
 20
-752.389078
 30
0.0
 40
51.500031
 50
189.462740
 51
350.537275
  0
ARC
  8
0
  6
BYLAYER
 62
     1
 10
1234.645795
 20
-761.349283
 30
0.0
 40
3.000082
 50
92.999494
 51
170.537106
  0
LINE
  8
0
  6
BYLAYER
 62
     1
 10
1108.887372
 20
-694.889017
 30
0.0
 11
1108.887372
 21
-756.146402
 31
0.0
  0
ARC
  8
0
  6
BYLAYER
 62
     1
 10
1111.887311
 20
-756.146402
 30
0.0
 40
3.000000
 50
180.000000
 51
225.000401
  0
LINE
  8
0
  6
BYLAYER
 62
     1
 10
1252.887372
 20
-694.889017
 30
0.0
 11
1252.887372
 21
-756.146402
 31
0.0
  0
ARC
  8
0
  6
BYLAYER
 62
     1
 10
1249.887372
 20
-756.146402
 30
0.0
 40
3.0
 50
314.999992
 51
360.0
  0
LINE
  8
0
  6
BYLAYER
 62
     1
 10
1108.887372
 20
-989.889017
 30
0.0
 11
1108.887372
 21
-928.631601
 31
0.0
  0
ARC
  8
0
  6
BYLAYER
 62
     1
 10
1111.887372
 20
-928.631601
 30
0.0
 40
3.000003
 50
135.000410
 51
180.000005
  0
LINE
  8
0
  6
BYLAYER
 62
     1
 10
1252.887372
 20
-989.889017
 30
0.0
 11
1252.887372
 21
-928.631662
 31
0.0
  0
ARC
  8
0
  6
BYLAYER
 62
     1
 10
1249.887372
 20
-928.631662
 30
0.0
 40
2.999938
 50
0.0
 51
45.000411
  0
LINE
  8
0
  6
BYLAYER
 62
     1
 10
1109.163434
 20
-757.403604
 30
0.0
 11
1127.285932
 21
-758.353311
 31
0.0
  0
LINE
  8
0
  6
BYLAYER
 62
     1
 10
1234.488812
 20
-758.353311
 30
0.0
 11
1252.611249
 21
-757.403604
 31
0.0
  0
LINE
  8
0
  6
BYLAYER
 62
     1
 10
1109.163373
 20
-927.374552
 30
0.0
 11
1180.887372
 21
-923.615641
 31
0.0
  0
LINE
  8
0
  6
BYLAYER
 62
     1
 10
1180.887128
 20
-923.615641
 30
0.0
 11
1252.611249
 21
-927.374552
 31
0.0
  0
CIRCLE
  8
0
  6
BYLAYER
 62
     1
 10
1123.387311
 20
-947.389017
 30
0.0
 40
7.0
  0
CIRCLE
  8
0
  6
BYLAYER
 62
     1
 10
1238.387372
 20
-947.389017
 30
0.0
 40
7.0
  0
ARC
  8
0
  6
BYLAYER
 62
     1
 10
1171.887372
 20
-918.240396
 30
0.0
 40
2.999990
 50
272.999956
 51
360.000010
  0
LINE
  8
0
  6
BYLAYER
 62
     1
 10
1174.887372
 20
-909.249552
 30
0.0
 11
1174.887372
 21
-918.240396
 31
0.0
  0
ARC
  8
0
  6
BYLAYER
 62
     1
 10
1171.887372
 20
-909.249552
 30
0.0
 40
2.999978
 50
0.0
 51
87.273726
  0
ARC
  8
0
  6
BYLAYER
 62
     1
 10
1232.022138
 20
-771.243204
 30
0.0
 40
2.999978
 50
92.726395
 51
159.760351
  0
ARC
  8
0
  6
BYLAYER
 62
     1
 10
1225.815106
 20
-783.239359
 30
0.0
 40
2.999994
 50
145.523956
 51
267.273608
  0
ARC
  8
0
  6
BYLAYER
 62
     1
 10
1135.959516
 20
-783.239420
 30
0.0
 40
2.999978
 50
272.726394
 51
394.476046
  0
ARC
  8
0
  6
BYLAYER
 62
     1
 10
1129.752423
 20
-771.243204
 30
0.0
 40
2.999997
 50
20.239655
 51
87.273604
  0
ARC
  8
0
  6
BYLAYER
 62
     1
 10
1228.887250
 20
-907.392404
 30
0.0
 40
3.000000
 50
92.726418
 51
180.000000
  0
LINE
  8
0
  6
BYLAYER
 62
     1
 10
1225.887250
 20
-907.392404
 30
0.0
 11
1225.887250
 21
-920.284342
 31
0.0
  0
ARC
  8
0
  6
BYLAYER
 62
     1
 10
1228.887250
 20
-920.284342
 30
0.0
 40
3.000000
 50
180.000000
 51
267.000477
  0
ARC
  8
0
  6
BYLAYER
 62
     1
 10
1171.887372
 20
-807.249674
 30
0.0
 40
2.999978
 50
0.0
 51
87.273575
  0
LINE
  8
0
  6
BYLAYER
 62
     1
 10
1174.887372
 20
-815.528482
 30
0.0
 11
1174.887372
 21
-807.249674
 31
0.0
  0
ARC
  8
0
  6
BYLAYER
 62
     1
 10
1171.887372
 20
-815.528482
 30
0.0
 40
3.000000
 50
272.726390
 51
360.000000
  0
ARC
  8
0
  6
BYLAYER
 62
     1
 10
1189.887372
 20
-807.249674
 30
0.0
 40
3.000039
 50
92.726395
 51
180.000005
  0
LINE
  8
0
  6
BYLAYER
 62
     1
 10
1186.887372
 20
-815.528482
 30
0.0
 11
1186.887372
 21
-807.249674
 31
0.0
  0
ARC
  8
0
  6
BYLAYER
 62
     1
 10
1189.887372
 20
-815.528482
 30
0.0
 40
3.0
 50
180.000000
 51
267.273575
  0
LINE
  8
0
  6
BYLAYER
 62
     1
 10
1109.766034
 20
-758.267740
 30
0.0
 11
1121.508710
 21
-770.010965
 31
0.0
  0
ARC
  8
0
  6
BYLAYER
 62
     1
 10
1119.387311
 20
-772.132242
 30
0.0
 40
3.000000
 50
0.0
 51
44.998533
  0
LINE
  8
0
  6
BYLAYER
 62
     1
 10
1109.766034
 20
-926.510294
 30
0.0
 11
1121.508588
 21
-914.767679
 31
0.0
  0
LINE
  8
0
  6
BYLAYER
 62
     1
 10
1180.886640
 20
-920.772867
 30
0.0
 11
1111.887372
 21
-924.388956
 31
0.0
  0
LINE
  8
0
  6
BYLAYER
 62
     1
 10
1106.887372
 20
-762.389078
 30
0.0
 11
1113.538739
 21
-762.040567
 31
0.0
  0
LINE
  8
0
  6
BYLAYER
 62
     1
 10
1125.244611
 20
-904.025095
 30
0.0
 11
1172.030072
 21
-906.252970
 31
0.0
  0
LINE
  8
0
  6
BYLAYER
 62
     1
 10
1125.244611
 20
-820.752970
 30
0.0
 11
1172.030072
 21
-818.525064
 31
0.0
  0
ARC
  8
0
  6
BYLAYER
 62
     1
 10
1125.387311
 20
-823.749613
 30
0.0
 40
3.000000
 50
92.726361
 51
180.000005
  0
LINE
  8
0
  6
BYLAYER
 62
     1
 10
1172.030072
 20
-804.253092
 30
0.0
 11
1125.244611
 21
-802.025186
 31
0.0
  0
LINE
  8
0
  6
BYLAYER
 62
     1
 10
1125.244611
 20
-786.753031
 30
0.0
 11
1136.102216
 21
-786.236002
 31
0.0
  0
ARC
  8
0
  6
BYLAYER
 62
     1
 10
1125.387311
 20
-789.749674
 30
0.0
 40
3.0
 50
92.726375
 51
180.000005
  0
LINE
  8
0
  6
BYLAYER
 62
     1
 10
1120.227460
 20
-767.786295
 30
0.0
 11
1129.895184
 21
-768.246622
 31
0.0
  0
ARC
  8
0
  6
BYLAYER
 62
     1
 10
1120.370160
 20
-764.789652
 30
0.0
 40
3.000039
 50
213.853018
 51
267.273635
  0
LINE
  8
0
  6
BYLAYER
 62
     1
 10
1240.266034
 20
-770.010355
 30
0.0
 11
1252.008710
 21
-758.267740
 31
0.0
  0
ARC
  8
0
  6
BYLAYER
 62
     1
 10
1242.387372
 20
-772.131632
 30
0.0
 40
3.0
 50
134.999768
 51
179.999995
  0
LINE
  8
0
  6
BYLAYER
 62
     1
 10
1240.265912
 20
-914.767099
 30
0.0
 11
1252.008710
 21
-926.510446
 31
0.0
  0
ARC
  8
0
  6
BYLAYER
 62
     1
 10
1242.387372
 20
-912.645822
 30
0.0
 40
3.000000
 50
180.000000
 51
224.998533
  0
LINE
  8
0
  6
BYLAYER
 62
     1
 10
1241.546918
 20
-767.786234
 30
0.0
 11
1231.879437
 21
-768.246622
 31
0.0
  0
ARC
  8
0
  6
BYLAYER
 62
     1
 10
1241.404218
 20
-764.789652
 30
0.0
 40
2.999978
 50
272.726421
 51
326.150877
  0
LINE
  8
0
  6
BYLAYER
 62
     1
 10
1236.529950
 20
-786.752970
 30
0.0
 11
1225.672406
 21
-786.236002
 31
0.0
  0
ARC
  8
0
  6
BYLAYER
 62
     1
 10
1236.387372
 20
-789.749613
 30
0.0
 40
3.0
 50
0.0
 51
87.273855
  0
LINE
  8
0
  6
BYLAYER
 62
     1
 10
1189.744672
 20
-804.253031
 30
0.0
 11
1236.529950
 21
-802.025125
 31
0.0
  0
LINE
  8
0
  6
BYLAYER
 62
     1
 10
1236.529950
 20
-820.752970
 30
0.0
 11
1189.744672
 21
-818.525064
 31
0.0
  0
ARC
  8
0
  6
BYLAYER
 62
     1
 10
1236.387250
 20
-823.749613
 30
0.0
 40
3.0
 50
0.0
 51
87.273637
  0
LINE
  8
0
  6
BYLAYER
 62
     1
 10
1236.529950
 20
-904.025095
 30
0.0
 11
1228.744550
 21
-904.395822
 31
0.0
  0
LINE
  8
0
  6
BYLAYER
 62
     1
 10
1180.886762
 20
-920.772867
 30
0.0
 11
1249.887372
 21
-924.389017
 31
0.0
  0
LINE
  8
0
  6
BYLAYER
 62
     1
 10
1108.887372
 20
-699.889017
 30
0.0
 11
1252.887372
 21
-699.889017
 31
0.0
  0
LINE
  8
0
  6
BYLAYER
 62
     1
 10
1122.387311
 20
-912.646341
 30
0.0
 11
1122.387311
 21
-772.132242
 31
0.0
  0
ARC
  8
0
  6
BYLAYER
 62
     1
 10
1125.387311
 20
-901.028482
 30
0.0
 40
3.000000
 50
180.000000
 51
267.273678
  0
ARC
  8
0
  6
BYLAYER
 62
     1
 10
1125.387311
 20
-799.028543
 30
0.0
 40
3.000000
 50
180.000000
 51
267.273644
  0
ARC
  8
0
  6
BYLAYER
 62
     1
 10
1119.387311
 20
-912.646341
 30
0.0
 40
3.0
 50
314.999999
 51
360.000000
  0
ARC
  8
0
  6
BYLAYER
 62
     1
 10
1236.387250
 20
-901.028482
 30
0.0
 40
3.000000
 50
272.726356
 51
360.000000
  0
ARC
  8
0
  6
BYLAYER
 62
     1
 10
1236.387250
 20
-799.028482
 30
0.0
 40
3.000000
 50
272.726363
 51
360.000000
  0
LINE
  8
0
  6
BYLAYER
 62
     1
 10
1257.387250
 20
-797.389078
 30
0.0
 11
1254.887250
 21
-797.389078
 31
0.0
  0
LINE
  8
0
  6
BYLAYER
 62
     1
 10
1258.387250
 20
-798.389078
 30
0.0
 11
1257.387250
 21
-797.389078
 31
0.0
  0
LINE
  8
0
  6
BYLAYER
 62
     1
 10
1258.387250
 20
-926.388956
 30
0.0
 11
1257.387250
 21
-927.388956
 31
0.0
  0
LINE
  8
0
  6
BYLAYER
 62
     1
 10
1257.387250
 20
-927.388956
 30
0.0
 11
1254.887250
 21
-927.388956
 31
0.0
  0
LINE
  8
0
  6
BYLAYER
 62
     1
 10
1258.387250
 20
-798.389078
 30
0.0
 11
1258.387250
 21
-926.388956
 31
0.0
  0
LINE
  8
0
  6
BYLAYER
 62
     1
 10
1252.887250
 20
-962.493814
 30
0.0
 11
1254.887250
 21
-962.388956
 31
0.0
  0
LINE
  8
0
  6
BYLAYER
 62
     1
 10
1254.887250
 20
-962.388956
 30
0.0
 11
1254.887250
 21
-762.389078
 31
0.0
  0
LINE
  8
0
  6
BYLAYER
 62
     1
 10
1254.887250
 20
-762.389078
 30
0.0
 11
1248.235883
 21
-762.040567
 31
0.0
  0
LINE
  8
0
  6
BYLAYER
 62
     1
 10
1239.387372
 20
-772.131632
 30
0.0
 11
1239.387372
 21
-912.645822
 31
0.0
  0
LINE
  8
0
  6
BYLAYER
 62
     1
 10
253.387387
 20
-934.389093
 30
0.0
 11
253.387387
 21
-790.389078
 31
0.0
  0
LINE
  8
0
  6
BYLAYER
 62
     1
 10
505.887357
 20
-934.389093
 30
0.0
 11
505.887357
 21
-790.389078
 31
0.0
  0
LINE
  8
0
  6
BYLAYER
 62
     1
 10
445.887326
 20
-785.889078
 30
0.0
 11
445.887326
 21
-788.389078
 31
0.0
  0
LINE
  8
0
  6
BYLAYER
 62
     1
 10
444.887326
 20
-784.889078
 30
0.0
 11
445.887326
 21
-785.889078
 31
0.0
  0
LINE
  8
0
  6
BYLAYER
 62
     1
 10
315.887418
 20
-785.889078
 30
0.0
 11
315.887418
 21
-788.389078
 31
0.0
  0
LINE
  8
0
  6
BYLAYER
 62
     1
 10
316.887418
 20
-784.889078
 30
0.0
 11
315.887418
 21
-785.889078
 31
0.0
  0
LINE
  8
0
  6
BYLAYER
 62
     1
 10
444.887326
 20
-784.889078
 30
0.0
 11
316.887418
 21
-784.889078
 31
0.0
  0
LINE
  8
0
  6
BYLAYER
 62
     1
 10
369.520383
 20
-788.389139
 30
0.0
 11
369.488706
 21
-788.993814
 31
0.0
  0
ARC
  8
0
  6
BYLAYER
 62
     1
 10
367.491452
 20
-788.889139
 30
0.0
 40
1.999995
 50
270.0
 51
357.000791
  0
LINE
  8
0
  6
BYLAYER
 62
     1
 10
318.672635
 20
-788.389139
 30
0.0
 11
318.704312
 21
-788.993814
 31
0.0
  0
LINE
  8
0
  6
BYLAYER
 62
     1
 10
367.491452
 20
-790.889139
 30
0.0
 11
320.701566
 21
-790.889139
 31
0.0
  0
ARC
  8
0
  6
BYLAYER
 62
     1
 10
320.701566
 20
-788.889139
 30
0.0
 40
1.999995
 50
182.999237
 51
270.000001
  0
LINE
  8
0
  6
BYLAYER
 62
     1
 10
392.254392
 20
-788.389139
 30
0.0
 11
392.286069
 21
-788.993814
 31
0.0
  0
ARC
  8
0
  6
BYLAYER
 62
     1
 10
394.283322
 20
-788.889139
 30
0.0
 40
1.999995
 50
182.999209
 51
270.000001
  0
LINE
  8
0
  6
BYLAYER
 62
     1
 10
443.102109
 20
-788.389139
 30
0.0
 11
443.070432
 21
-788.993814
 31
0.0
  0
LINE
  8
0
  6
BYLAYER
 62
     1
 10
394.283322
 20
-790.889139
 30
0.0
 11
441.073178
 21
-790.889139
 31
0.0
  0
ARC
  8
0
  6
BYLAYER
 62
     1
 10
441.073178
 20
-788.889139
 30
0.0
 40
1.999995
 50
270.0
 51
357.000791
  0
LINE
  8
0
  6
BYLAYER
 62
     1
 10
480.887296
 20
-788.389078
 30
0.0
 11
280.887418
 21
-788.389078
 31
0.0
  0
LINE
  8
0
  6
BYLAYER
 62
     1
 10
280.887418
 20
-788.389078
 30
0.0
 11
280.782620
 21
-790.389078
 31
0.0
  0
LINE
  8
0
  6
BYLAYER
 62
     1
 10
480.887296
 20
-788.389078
 30
0.0
 11
480.992124
 21
-790.389078
 31
0.0
  0
CIRCLE
  8
0
  6
BYLAYER
 62
     1
 10
465.887357
 20
-804.889078
 30
0.0
 40
7.0
  0
CIRCLE
  8
0
  6
BYLAYER
 62
     1
 10
465.887357
 20
-919.889093
 30
0.0
 40
7.0
  0
LINE
  8
0
  6
BYLAYER
 62
     1
 10
253.387387
 20
-790.389078
 30
0.0
 11
314.644711
 21
-790.389078
 31
0.0
  0
ARC
  8
0
  6
BYLAYER
 62
     1
 10
314.644711
 20
-793.389078
 30
0.0
 40
3.000000
 50
45.000101
 51
90.000000
  0
LINE
  8
0
  6
BYLAYER
 62
     1
 10
505.887357
 20
-790.389078
 30
0.0
 11
447.130002
 21
-790.389078
 31
0.0
  0
ARC
  8
0
  6
BYLAYER
 62
     1
 10
447.130002
 20
-793.389078
 30
0.0
 40
3.000003
 50
90.0
 51
134.999998
  0
LINE
  8
0
  6
BYLAYER
 62
     1
 10
505.887357
 20
-934.389093
 30
0.0
 11
447.130002
 21
-934.389093
 31
0.0
  0
ARC
  8
0
  6
BYLAYER
 62
     1
 10
447.130002
 20
-931.389093
 30
0.0
 40
3.000000
 50
224.999995
 51
270.000000
  0
LINE
  8
0
  6
BYLAYER
 62
     1
 10
253.387387
 20
-934.389093
 30
0.0
 11
314.644711
 21
-934.389093
 31
0.0
  0
ARC
  8
0
  6
BYLAYER
 62
     1
 10
314.644711
 20
-931.389093
 30
0.0
 40
3.000014
 50
270.0
 51
314.999909
  0
LINE
  8
0
  6
BYLAYER
 62
     1
 10
315.901853
 20
-790.665171
 30
0.0
 11
319.660733
 21
-862.389200
 31
0.0
  0
LINE
  8
0
  6
BYLAYER
 62
     1
 10
315.901853
 20
-934.113001
 30
0.0
 11
319.660733
 21
-862.389078
 31
0.0
  0
CIRCLE
  8
0
  6
BYLAYER
 62
     1
 10
295.887357
 20
-804.889078
 30
0.0
 40
7.0
  0
CIRCLE
  8
0
  6
BYLAYER
 62
     1
 10
295.887357
 20
-919.889093
 30
0.0
 40
7.0
  0
ARC
  8
0
  6
BYLAYER
 62
     1
 10
359.747922
 20
-871.389093
 30
0.0
 40
3.0
 50
90.0
 51
177.273739
  0
ARC
  8
0
  6
BYLAYER
 62
     1
 10
334.026853
 20
-871.389093
 30
0.0
 40
2.999978
 50
2.726265
 51
89.999998
  0
LINE
  8
0
  6
BYLAYER
 62
     1
 10
334.026853
 20
-868.389093
 30
0.0
 11
325.036008
 21
-868.389093
 31
0.0
  0
ARC
  8
0
  6
BYLAYER
 62
     1
 10
325.036008
 20
-871.389093
 30
0.0
 40
3.000022
 50
90.0
 51
177.000047
  0
ARC
  8
0
  6
BYLAYER
 62
     1
 10
325.036008
 20
-853.389078
 30
0.0
 40
3.000022
 50
182.999947
 51
270.000001
  0
LINE
  8
0
  6
BYLAYER
 62
     1
 10
334.026853
 20
-856.389078
 30
0.0
 11
325.036008
 21
-856.389078
 31
0.0
  0
ARC
  8
0
  6
BYLAYER
 62
     1
 10
334.026853
 20
-853.389078
 30
0.0
 40
2.999978
 50
270.0
 51
357.273726
  0
ARC
  8
0
  6
BYLAYER
 62
     1
 10
359.747922
 20
-853.389078
 30
0.0
 40
3.0
 50
182.726261
 51
270.000000
  0
ARC
  8
0
  6
BYLAYER
 62
     1
 10
437.190366
 20
-844.772837
 30
0.0
 40
2.999990
 50
281.852483
 51
356.999918
  0
ARC
  8
0
  6
BYLAYER
 62
     1
 10
437.190305
 20
-880.005335
 30
0.0
 40
3.000005
 50
2.999942
 51
78.147486
  0
ARC
  8
0
  6
BYLAYER
 62
     1
 10
440.887387
 20
-862.389078
 30
0.0
 40
15.000008
 50
101.852293
 51
137.585022
  0
ARC
  8
0
  6
BYLAYER
 62
     1
 10
427.598355
 20
-850.248178
 30
0.0
 40
3.000008
 50
182.726398
 51
317.584945
  0
ARC
  8
0
  6
BYLAYER
 62
     1
 10
440.887387
 20
-862.389078
 30
0.0
 40
15.000025
 50
222.414947
 51
258.147464
  0
ARC
  8
0
  6
BYLAYER
 62
     1
 10
427.598325
 20
-874.529993
 30
0.0
 40
2.999978
 50
42.414846
 51
177.273612
  0
LINE
  8
0
  6
BYLAYER
 62
     1
 10
445.872922
 20
-934.113001
 30
0.0
 11
442.709088
 21
-873.743875
 31
0.0
  0
LINE
  8
0
  6
BYLAYER
 62
     1
 10
371.023435
 20
-871.246393
 30
0.0
 11
373.441770
 21
-922.031839
 31
0.0
  0
ARC
  8
0
  6
BYLAYER
 62
     1
 10
376.438413
 20
-921.889139
 30
0.0
 40
3.000039
 50
182.726316
 51
270.000001
  0
LINE
  8
0
  6
BYLAYER
 62
     1
 10
388.332944
 20
-922.031854
 30
0.0
 11
390.751309
 21
-871.246393
 31
0.0
  0
ARC
  8
0
  6
BYLAYER
 62
     1
 10
385.336362
 20
-921.889154
 30
0.0
 40
3.000000
 50
270.0
 51
357.273671
  0
LINE
  8
0
  6
BYLAYER
 62
     1
 10
407.441770
 20
-922.031885
 30
0.0
 11
405.023435
 21
-871.246393
 31
0.0
  0
LINE
  8
0
  6
BYLAYER
 62
     1
 10
354.332944
 20
-922.031809
 30
0.0
 11
356.751309
 21
-871.246393
 31
0.0
  0
LINE
  8
0
  6
BYLAYER
 62
     1
 10
445.872922
 20
-790.665171
 30
0.0
 11
442.709027
 21
-851.034265
 31
0.0
  0
LINE
  8
0
  6
BYLAYER
 62
     1
 10
316.766049
 20
-933.510416
 30
0.0
 11
324.508710
 21
-925.767755
 31
0.0
  0
ARC
  8
0
  6
BYLAYER
 62
     1
 10
326.630033
 20
-927.889078
 30
0.0
 40
3.000003
 50
90.0
 51
134.999998
  0
LINE
  8
0
  6
BYLAYER
 62
     1
 10
445.008695
 20
-933.510416
 30
0.0
 11
437.266171
 21
-925.767893
 31
0.0
  0
ARC
  8
0
  6
BYLAYER
 62
     1
 10
435.144849
 20
-927.889215
 30
0.0
 40
3.000003
 50
45.000001
 51
90.000003
  0
LINE
  8
0
  6
BYLAYER
 62
     1
 10
442.887326
 20
-931.389040
 30
0.0
 11
439.871518
 21
-873.844126
 31
0.0
  0
LINE
  8
0
  6
BYLAYER
 62
     1
 10
318.887425
 20
-931.389040
 30
0.0
 11
322.503537
 21
-862.389078
 31
0.0
  0
LINE
  8
0
  6
BYLAYER
 62
     1
 10
422.332959
 20
-922.031893
 30
0.0
 11
424.601743
 21
-874.387293
 31
0.0
  0
ARC
  8
0
  6
BYLAYER
 62
     1
 10
419.336347
 20
-921.889200
 30
0.0
 40
3.000008
 50
270.0
 51
357.273753
  0
ARC
  8
0
  6
BYLAYER
 62
     1
 10
410.438367
 20
-921.889185
 30
0.0
 40
2.999993
 50
182.726261
 51
270.000001
  0
ARC
  8
0
  6
BYLAYER
 62
     1
 10
351.336347
 20
-921.889109
 30
0.0
 40
2.999993
 50
270.0
 51
357.273726
  0
LINE
  8
0
  6
BYLAYER
 62
     1
 10
339.441785
 20
-922.031786
 30
0.0
 11
337.023435
 21
-871.246393
 31
0.0
  0
ARC
  8
0
  6
BYLAYER
 62
     1
 10
342.438397
 20
-921.889093
 30
0.0
 40
3.000008
 50
182.726248
 51
270.000001
  0
LINE
  8
0
  6
BYLAYER
 62
     1
 10
326.630040
 20
-924.889078
 30
0.0
 11
435.144849
 21
-924.889200
 31
0.0
  0
ARC
  8
0
  6
BYLAYER
 62
     1
 10
376.438413
 20
-802.889017
 30
0.0
 40
3.000039
 50
90.0
 51
177.273678
  0
ARC
  8
0
  6
BYLAYER
 62
     1
 10
385.336362
 20
-802.889002
 30
0.0
 40
3.000000
 50
2.726329
 51
90.000000
  0
ARC
  8
0
  6
BYLAYER
 62
     1
 10
326.630033
 20
-796.889078
 30
0.0
 40
3.000003
 50
224.999996
 51
270.000001
  0
ARC
  8
0
  6
BYLAYER
 62
     1
 10
435.144849
 20
-796.888941
 30
0.0
 40
3.000003
 50
270.0
 51
314.999991
  0
ARC
  8
0
  6
BYLAYER
 62
     1
 10
419.336347
 20
-802.888956
 30
0.0
 40
3.000008
 50
2.726246
 51
89.999999
  0
ARC
  8
0
  6
BYLAYER
 62
     1
 10
410.438367
 20
-802.888971
 30
0.0
 40
2.999992
 50
90.0
 51
177.273732
  0
ARC
  8
0
  6
BYLAYER
 62
     1
 10
351.336347
 20
-802.889047
 30
0.0
 40
2.999993
 50
2.726274
 51
89.999999
  0
ARC
  8
0
  6
BYLAYER
 62
     1
 10
342.438397
 20
-802.889063
 30
0.0
 40
3.000008
 50
90.0
 51
177.273746
  0
LINE
  8
0
  6
BYLAYER
 62
     1
 10
326.630040
 20
-799.889078
 30
0.0
 11
435.144849
 21
-799.888956
 31
0.0
  0
LINE
  8
0
  6
BYLAYER
 62
     1
 10
316.766034
 20
-791.267740
 30
0.0
 11
324.508763
 21
-799.010370
 31
0.0
  0
LINE
  8
0
  6
BYLAYER
 62
     1
 10
322.503507
 20
-862.389627
 30
0.0
 11
318.887357
 21
-793.389032
 31
0.0
  0
LINE
  8
0
  6
BYLAYER
 62
     1
 10
445.008679
 20
-791.267740
 30
0.0
 11
437.266217
 21
-799.010294
 31
0.0
  0
LINE
  8
0
  6
BYLAYER
 62
     1
 10
439.871579
 20
-850.934030
 30
0.0
 11
442.887387
 21
-793.389063
 31
0.0
  0
LINE
  8
0
  6
BYLAYER
 62
     1
 10
422.332944
 20
-802.746256
 30
0.0
 11
424.601743
 21
-850.390879
 31
0.0
  0
LINE
  8
0
  6
BYLAYER
 62
     1
 10
407.441785
 20
-802.746271
 30
0.0
 11
405.023435
 21
-853.531778
 31
0.0
  0
LINE
  8
0
  6
BYLAYER
 62
     1
 10
388.332959
 20
-802.746302
 30
0.0
 11
390.751309
 21
-853.531778
 31
0.0
  0
LINE
  8
0
  6
BYLAYER
 62
     1
 10
371.023435
 20
-853.531778
 30
0.0
 11
373.441785
 21
-802.746317
 31
0.0
  0
LINE
  8
0
  6
BYLAYER
 62
     1
 10
354.332959
 20
-802.746347
 30
0.0
 11
356.751309
 21
-853.531778
 31
0.0
  0
LINE
  8
0
  6
BYLAYER
 62
     1
 10
339.441785
 20
-802.746363
 30
0.0
 11
337.023435
 21
-853.531778
 31
0.0
  0
LINE
  8
0
  6
BYLAYER
 62
     1
 10
258.387387
 20
-934.389078
 30
0.0
 11
258.387387
 21
-790.389078
 31
0.0
  0
LINE
  8
0
  6
BYLAYER
 62
     1
 10
500.887387
 20
-934.389078
 30
0.0
 11
500.887387
 21
-790.389078
 31
0.0
  0
CIRCLE
  8
0
  6
BYLAYER
 62
     1
 10
440.887387
 20
-862.389078
 30
0.0
 40
11.5
  0
LINE
  8
0
  6
BYLAYER
 62
     1
 10
445.887326
 20
-938.889078
 30
0.0
 11
445.887326
 21
-936.389078
 31
0.0
  0
LINE
  8
0
  6
BYLAYER
 62
     1
 10
444.887326
 20
-939.889078
 30
0.0
 11
445.887326
 21
-938.889078
 31
0.0
  0
LINE
  8
0
  6
BYLAYER
 62
     1
 10
315.887418
 20
-938.889078
 30
0.0
 11
315.887418
 21
-936.389078
 31
0.0
  0
LINE
  8
0
  6
BYLAYER
 62
     1
 10
316.887418
 20
-939.889078
 30
0.0
 11
315.887418
 21
-938.889078
 31
0.0
  0
LINE
  8
0
  6
BYLAYER
 62
     1
 10
444.887326
 20
-939.889078
 30
0.0
 11
316.887418
 21
-939.889078
 31
0.0
  0
LINE
  8
0
  6
BYLAYER
 62
     1
 10
369.520383
 20
-936.389017
 30
0.0
 11
369.488706
 21
-935.784342
 31
0.0
  0
ARC
  8
0
  6
BYLAYER
 62
     1
 10
367.491452
 20
-935.889017
 30
0.0
 40
1.999995
 50
2.999208
 51
89.999999
  0
LINE
  8
0
  6
BYLAYER
 62
     1
 10
318.672635
 20
-936.389017
 30
0.0
 11
318.704312
 21
-935.784342
 31
0.0
  0
LINE
  8
0
  6
BYLAYER
 62
     1
 10
367.491452
 20
-933.889017
 30
0.0
 11
320.701566
 21
-933.889017
 31
0.0
  0
ARC
  8
0
  6
BYLAYER
 62
     1
 10
320.701566
 20
-935.889017
 30
0.0
 40
1.999995
 50
90.0
 51
177.000764
  0
LINE
  8
0
  6
BYLAYER
 62
     1
 10
392.254392
 20
-936.389017
 30
0.0
 11
392.286069
 21
-935.784342
 31
0.0
  0
ARC
  8
0
  6
BYLAYER
 62
     1
 10
394.283322
 20
-935.889017
 30
0.0
 40
1.999995
 50
90.0
 51
177.000791
  0
LINE
  8
0
  6
BYLAYER
 62
     1
 10
443.102109
 20
-936.389017
 30
0.0
 11
443.070432
 21
-935.784342
 31
0.0
  0
LINE
  8
0
  6
BYLAYER
 62
     1
 10
394.283322
 20
-933.889017
 30
0.0
 11
441.073178
 21
-933.889017
 31
0.0
  0
ARC
  8
0
  6
BYLAYER
 62
     1
 10
441.073178
 20
-935.889017
 30
0.0
 40
1.999995
 50
2.999208
 51
89.999999
  0
LINE
  8
0
  6
BYLAYER
 62
     1
 10
480.887296
 20
-936.389078
 30
0.0
 11
280.887418
 21
-936.389078
 31
0.0
  0
LINE
  8
0
  6
BYLAYER
 62
     1
 10
280.887418
 20
-936.389078
 30
0.0
 11
280.782620
 21
-934.389078
 31
0.0
  0
LINE
  8
0
  6
BYLAYER
 62
     1
 10
480.887296
 20
-936.389078
 30
0.0
 11
480.992124
 21
-934.389078
 31
0.0
  0
ARC
  8
0
  6
BYLAYER
 62
     1
 10
368.026853
 20
-871.389093
 30
0.0
 40
2.999978
 50
2.726265
 51
89.999998
  0
LINE
  8
0
  6
BYLAYER
 62
     1
 10
368.026853
 20
-868.389093
 30
0.0
 11
359.747922
 21
-868.389093
 31
0.0
  0
LINE
  8
0
  6
BYLAYER
 62
     1
 10
368.026853
 20
-856.389078
 30
0.0
 11
359.747922
 21
-856.389078
 31
0.0
  0
ARC
  8
0
  6
BYLAYER
 62
     1
 10
368.026853
 20
-853.389078
 30
0.0
 40
2.999978
 50
270.0
 51
357.273726
  0
LINE
  8
0
  6
BYLAYER
 62
     1
 10
393.747922
 20
-868.389093
 30
0.0
 11
402.026853
 21
-868.389093
 31
0.0
  0
ARC
  8
0
  6
BYLAYER
 62
     1
 10
393.747922
 20
-871.389093
 30
0.0
 40
3.000008
 50
90.0
 51
177.273732
  0
ARC
  8
0
  6
BYLAYER
 62
     1
 10
402.026853
 20
-871.389093
 30
0.0
 40
3.000000
 50
2.726261
 51
90.000000
  0
LINE
  8
0
  6
BYLAYER
 62
     1
 10
393.747922
 20
-856.389078
 30
0.0
 11
402.026853
 21
-856.389078
 31
0.0
  0
ARC
  8
0
  6
BYLAYER
 62
     1
 10
393.747922
 20
-853.389078
 30
0.0
 40
3.000008
 50
182.726261
 51
270.000001
  0
ARC
  8
0
  6
BYLAYER
 62
     1
 10
402.026853
 20
-853.389078
 30
0.0
 40
3.0
 50
270.0
 51
357.273726
  0
LINE
  8
0
  6
BYLAYER
 62
     1
 10
540.887372
 20
-152.389078
 30
0.0
 11
540.887372
 21
-277.389078
 31
0.0
  0
LINE
  8
0
  6
BYLAYER
 62
     1
 10
510.250043
 20
-208.065683
 30
0.0
 11
527.887372
 21
-273.889078
 31
0.0
  0
LINE
  8
0
  6
BYLAYER
 62
     1
 10
527.699994
 20
-245.487223
 30
0.0
 11
510.006696
 21
-207.543833
 31
0.0
  0
ARC
  8
0
  6
BYLAYER
 62
     1
 10
525.887372
 20
-246.332468
 30
0.0
 40
2.000010
 50
0.0
 51
25.00015
  0
ARC
  8
0
  6
BYLAYER
 62
     1
 10
529.887372
 20
-275.389078
 30
0.0
 40
2.0
 50
180.000000
 51
270.000009
  0
LINE
  8
0
  6
BYLAYER
 62
     1
 10
527.887372
 20
-275.389078
 30
0.0
 11
527.887372
 21
-152.389078
 31
0.0
  0
LINE
  8
0
  6
BYLAYER
 62
     1
 10
540.887372
 20
-277.389078
 30
0.0
 11
529.887372
 21
-277.389078
 31
0.0
  0
ARC
  8
0
  6
BYLAYER
 62
     1
 10
508.194074
 20
-208.389078
 30
0.0
 40
2.0
 50
25.000150
 51
90.000000
  0
LINE
  8
0
  6
BYLAYER
 62
     1
 10
505.887372
 20
-206.389078
 30
0.0
 11
508.194074
 21
-206.389078
 31
0.0
  0
LINE
  8
0
  6
BYLAYER
 62
     1
 10
505.887372
 20
-206.389078
 30
0.0
 11
505.887372
 21
-152.389078
 31
0.0
  0
LINE
  8
0
  6
BYLAYER
 62
     1
 10
510.250043
 20
-208.065683
 30
0.0
 11
510.250043
 21
-152.389078
 31
0.0
  0
LINE
  8
0
  6
BYLAYER
 62
     1
 10
540.887372
 20
-152.389078
 30
0.0
 11
540.887372
 21
-27.389078
 31
0.0
  0
LINE
  8
0
  6
BYLAYER
 62
     1
 10
510.250043
 20
-96.712473
 30
0.0
 11
527.887372
 21
-30.889078
 31
0.0
  0
LINE
  8
0
  6
BYLAYER
 62
     1
 10
527.699994
 20
-59.290933
 30
0.0
 11
510.006696
 21
-97.234323
 31
0.0
  0
ARC
  8
0
  6
BYLAYER
 62
     1
 10
525.887372
 20
-58.445688
 30
0.0
 40
2.000010
 50
334.999850
 51
360.000000
  0
ARC
  8
0
  6
BYLAYER
 62
     1
 10
529.887372
 20
-29.389078
 30
0.0
 40
2.0
 50
90.0
 51
180.000009
  0
LINE
  8
0
  6
BYLAYER
 62
     1
 10
527.887372
 20
-29.389078
 30
0.0
 11
527.887372
 21
-152.389078
 31
0.0
  0
LINE
  8
0
  6
BYLAYER
 62
     1
 10
540.887372
 20
-27.389078
 30
0.0
 11
529.887372
 21
-27.389078
 31
0.0
  0
ARC
  8
0
  6
BYLAYER
 62
     1
 10
508.194074
 20
-96.389078
 30
0.0
 40
2.0
 50
270.0
 51
334.999850
  0
LINE
  8
0
  6
BYLAYER
 62
     1
 10
505.887372
 20
-98.389078
 30
0.0
 11
508.194074
 21
-98.389078
 31
0.0
  0
LINE
  8
0
  6
BYLAYER
 62
     1
 10
505.887372
 20
-98.389078
 30
0.0
 11
505.887372
 21
-152.389078
 31
0.0
  0
LINE
  8
0
  6
BYLAYER
 62
     1
 10
510.250043
 20
-96.712473
 30
0.0
 11
510.250043
 21
-152.389078
 31
0.0
  0
LINE
  8
0
  6
BYLAYER
 62
     1
 10
1258.387372
 20
-326.388956
 30
0.0
 11
1257.387372
 21
-327.388956
 31
0.0
  0
LINE
  8
0
  6
BYLAYER
 62
     1
 10
1257.387372
 20
-327.388956
 30
0.0
 11
1254.887372
 21
-327.388956
 31
0.0
  0
LINE
  8
0
  6
BYLAYER
 62
     1
 10
1258.387372
 20
-250.464304
 30
0.0
 11
1258.387372
 21
-326.388956
 31
0.0
  0
LINE
  8
0
  6
BYLAYER
 62
     1
 10
1252.887372
 20
-389.889017
 30
0.0
 11
1108.887372
 21
-389.889017
 31
0.0
  0
LINE
  8
0
  6
BYLAYER
 62
     1
 10
1252.887372
 20
-362.493814
 30
0.0
 11
1254.887372
 21
-362.388956
 31
0.0
  0
LINE
  8
0
  6
BYLAYER
 62
     1
 10
1254.887372
 20
-362.388956
 30
0.0
 11
1254.887372
 21
-253.131323
 31
0.0
  0
LINE
  8
0
  6
BYLAYER
 62
     1
 10
1108.887372
 20
-389.889017
 30
0.0
 11
1108.887372
 21
-328.631662
 31
0.0
  0
ARC
  8
0
  6
BYLAYER
 62
     1
 10
1111.887372
 20
-328.631662
 30
0.0
 40
2.999938
 50
134.999181
 51
180.000005
  0
LINE
  8
0
  6
BYLAYER
 62
     1
 10
1252.887372
 20
-389.889017
 30
0.0
 11
1252.887372
 21
-328.631662
 31
0.0
  0
ARC
  8
0
  6
BYLAYER
 62
     1
 10
1249.887372
 20
-328.631662
 30
0.0
 40
3.000025
 50
0.0
 51
45.000824
  0
LINE
  8
0
  6
BYLAYER
 62
     1
 10
1180.887616
 20
-323.615640
 30
0.0
 11
1109.163495
 21
-327.374552
 31
0.0
  0
LINE
  8
0
  6
BYLAYER
 62
     1
 10
1252.611249
 20
-327.374552
 30
0.0
 11
1180.887372
 21
-323.615640
 31
0.0
  0
ARC
  8
0
  6
BYLAYER
 62
     1
 10
1189.887372
 20
-318.240396
 30
0.0
 40
2.999990
 50
180.000000
 51
267.000054
  0
LINE
  8
0
  6
BYLAYER
 62
     1
 10
1186.887372
 20
-309.249552
 30
0.0
 11
1186.887372
 21
-318.240396
 31
0.0
  0
ARC
  8
0
  6
BYLAYER
 62
     1
 10
1189.887372
 20
-309.249552
 30
0.0
 40
2.999978
 50
92.726266
 51
179.999991
  0
ARC
  8
0
  6
BYLAYER
 62
     1
 10
1171.887372
 20
-309.249552
 30
0.0
 40
2.999978
 50
0.0
 51
87.273726
  0
LINE
  8
0
  6
BYLAYER
 62
     1
 10
1174.887372
 20
-309.249552
 30
0.0
 11
1174.887372
 21
-318.240396
 31
0.0
  0
ARC
  8
0
  6
BYLAYER
 62
     1
 10
1171.887372
 20
-318.240396
 30
0.0
 40
2.999990
 50
272.999956
 51
359.999983
  0
LINE
  8
0
  6
BYLAYER
 62
     1
 10
1121.509503
 20
-314.766397
 30
0.0
 11
1109.766156
 21
-326.510324
 31
0.0
  0
LINE
  8
0
  6
BYLAYER
 62
     1
 10
1125.245404
 20
-304.025125
 30
0.0
 11
1172.030072
 21
-306.252970
 31
0.0
  0
LINE
  8
0
  6
BYLAYER
 62
     1
 10
1180.888104
 20
-320.772867
 30
0.0
 11
1111.887372
 21
-324.389017
 31
0.0
  0
LINE
  8
0
  6
BYLAYER
 62
     1
 10
1252.008710
 20
-326.510263
 30
0.0
 11
1240.266889
 21
-314.769602
 31
0.0
  0
ARC
  8
0
  6
BYLAYER
 62
     1
 10
1242.388104
 20
-312.648172
 30
0.0
 40
3.0
 50
180.000000
 51
225.002822
  0
LINE
  8
0
  6
BYLAYER
 62
     1
 10
1180.888104
 20
-320.772867
 30
0.0
 11
1249.887128
 21
-324.388925
 31
0.0
  0
LINE
  8
0
  6
BYLAYER
 62
     1
 10
1236.530805
 20
-304.025034
 30
0.0
 11
1189.744672
 21
-306.252970
 31
0.0
  0
ARC
  8
0
  6
BYLAYER
 62
     1
 10
1236.388104
 20
-301.028452
 30
0.0
 40
3.000000
 50
272.726339
 51
360.000010
  0
LINE
  8
0
  6
BYLAYER
 62
     1
 10
1122.388104
 20
-262.855524
 30
0.0
 11
1122.388104
 21
-312.645120
 31
0.0
  0
ARC
  8
0
  6
BYLAYER
 62
     1
 10
1125.388104
 20
-301.028513
 30
0.0
 40
3.0
 50
180.000000
 51
267.273671
  0
ARC
  8
0
  6
BYLAYER
 62
     1
 10
1119.388104
 20
-312.645120
 30
0.0
 40
3.000000
 50
315.001467
 51
360.000000
  0
LINE
  8
0
  6
BYLAYER
 62
     1
 10
1239.388104
 20
-262.854748
 30
0.0
 11
1239.388104
 21
-312.648172
 31
0.0
  0
LINE
  8
0
  6
BYLAYER
 62
     1
 10
1103.387372
 20
-326.388956
 30
0.0
 11
1104.387372
 21
-327.388956
 31
0.0
  0
LINE
  8
0
  6
BYLAYER
 62
     1
 10
1104.387372
 20
-327.388956
 30
0.0
 11
1106.887372
 21
-327.388956
 31
0.0
  0
LINE
  8
0
  6
BYLAYER
 62
     1
 10
1103.387372
 20
-250.464304
 30
0.0
 11
1103.387372
 21
-326.388956
 31
0.0
  0
LINE
  8
0
  6
BYLAYER
 62
     1
 10
1108.887372
 20
-362.493814
 30
0.0
 11
1106.887372
 21
-362.388956
 31
0.0
  0
LINE
  8
0
  6
BYLAYER
 62
     1
 10
1106.887372
 20
-362.388956
 30
0.0
 11
1106.887372
 21
-253.131323
 31
0.0
  0
LINE
  8
0
  6
BYLAYER
 62
     7
 10
1131.887372
 20
-38.389078
 30
0.0
 11
1134.887372
 21
-43.585245
 31
0.0
  0
LINE
  8
0
  6
BYLAYER
 62
     7
 10
1131.887372
 20
-59.070935
 30
0.0
 11
1131.887372
 21
-32.389078
 31
0.0
  0
LINE
  8
0
  6
BYLAYER
 62
     7
 10
1229.887341
 20
-59.070919
 30
0.0
 11
1229.887341
 21
-32.389078
 31
0.0
  0
LINE
  8
0
  6
BYLAYER
 62
     7
 10
1134.887372
 20
-47.389078
 30
0.0
 11
1134.887372
 21
-43.585245
 31
0.0
  0
ARC
  8
0
  6
BYLAYER
 62
     7
 10
1228.137341
 20
-48.389078
 30
0.0
 40
1.000000
 50
0.0
 51
90.000003
  0
LINE
  8
0
  6
BYLAYER
 62
     7
 10
1223.603039
 20
-47.389078
 30
0.0
 11
1228.137341
 21
-47.389078
 31
0.0
  0
ARC
  8
0
  6
BYLAYER
 62
     7
 10
1223.603039
 20
-48.389078
 30
0.0
 40
1.0
 50
90.0
 51
178.00015
  0
LINE
  8
0
  6
BYLAYER
 62
     7
 10
1222.354510
 20
-55.488344
 30
0.0
 11
1222.603650
 21
-48.354166
 31
0.0
  0
LINE
  8
0
  6
BYLAYER
 62
     7
 10
1229.137341
 20
-58.680934
 30
0.0
 11
1229.137341
 21
-48.389078
 31
0.0
  0
LINE
  8
0
  6
BYLAYER
 62
     7
 10
1133.637372
 20
-47.389078
 30
0.0
 11
1134.887372
 21
-47.389078
 31
0.0
  0
ARC
  8
0
  6
BYLAYER
 62
     7
 10
1133.637372
 20
-48.389078
 30
0.0
 40
1.000000
 50
90.0
 51
180.000003
  0
LINE
  8
0
  6
BYLAYER
 62
     7
 10
1132.637372
 20
-48.389078
 30
0.0
 11
1132.637372
 21
-58.680950
 31
0.0
  0
LINE
  8
0
  6
BYLAYER
 62
     7
 10
1137.387372
 20
-21.889078
 30
0.0
 11
1137.387372
 21
-0.389078
 31
0.0
  0
ARC
  8
0
  6
BYLAYER
 62
     7
 10
1135.887372
 20
-21.889078
 30
0.0
 40
1.500000
 50
270.0
 51
360.0
  0
ARC
  8
0
  6
BYLAYER
 62
     7
 10
1138.887372
 20
-0.389078
 30
0.0
 40
1.5
 50
90.0
 51
180.0
  0
LINE
  8
0
  6
BYLAYER
 62
     7
 10
1180.887372
 20
1.110922
 30
0.0
 11
1138.887372
 21
1.110922
 31
0.0
  0
LINE
  8
0
  6
BYLAYER
 62
     7
 10
1142.759613
 20
-21.889078
 30
0.0
 11
1142.759613
 21
-0.389078
 31
0.0
  0
ARC
  8
0
  6
BYLAYER
 62
     7
 10
1141.259613
 20
-21.889078
 30
0.0
 40
1.500000
 50
270.0
 51
360.0
  0
ARC
  8
0
  6
BYLAYER
 62
     7
 10
1144.259613
 20
-0.389078
 30
0.0
 40
1.5
 50
90.0
 51
180.0
  0
LINE
  8
0
  6
BYLAYER
 62
     7
 10
1167.793719
 20
1.110922
 30
0.0
 11
1168.286266
 21
-12.993776
 31
0.0
  0
ARC
  8
0
  6
BYLAYER
 62
     7
 10
1171.284438
 20
-12.889078
 30
0.0
 40
3.000000
 50
182.000000
 51
270.000000
  0
LINE
  8
0
  6
BYLAYER
 62
     7
 10
1178.488478
 20
-12.993776
 30
0.0
 11
1178.981025
 21
1.110922
 31
0.0
  0
ARC
  8
0
  6
BYLAYER
 62
     7
 10
1175.490306
 20
-12.889078
 30
0.0
 40
3.0
 50
270.0
 51
358.0
  0
LINE
  8
0
  6
BYLAYER
 62
     7
 10
1171.284438
 20
-15.889078
 30
0.0
 11
1175.490306
 21
-15.889078
 31
0.0
  0
LINE
  8
0
  6
BYLAYER
 62
     7
 10
1152.793719
 20
1.110922
 30
0.0
 11
1153.286266
 21
-12.993776
 31
0.0
  0
ARC
  8
0
  6
BYLAYER
 62
     7
 10
1156.284438
 20
-12.889078
 30
0.0
 40
3.000000
 50
182.000000
 51
270.000000
  0
LINE
  8
0
  6
BYLAYER
 62
     7
 10
1163.488478
 20
-12.993776
 30
0.0
 11
1163.981025
 21
1.110922
 31
0.0
  0
ARC
  8
0
  6
BYLAYER
 62
     7
 10
1160.490306
 20
-12.889078
 30
0.0
 40
3.0
 50
270.0
 51
358.0
  0
LINE
  8
0
  6
BYLAYER
 62
     7
 10
1156.284438
 20
-15.889078
 30
0.0
 11
1160.490306
 21
-15.889078
 31
0.0
  0
LINE
  8
0
  6
BYLAYER
 62
     7
 10
1152.828640
 20
0.110922
 30
0.0
 11
1163.946104
 21
0.110922
 31
0.0
  0
LINE
  8
0
  6
BYLAYER
 62
     7
 10
1167.828640
 20
0.110922
 30
0.0
 11
1178.946104
 21
0.110922
 31
0.0
  0
LINE
  8
0
  6
BYLAYER
 62
     7
 10
1180.887372
 20
-23.389078
 30
0.0
 11
1133.387372
 21
-23.389078
 31
0.0
  0
ARC
  8
0
  6
BYLAYER
 62
     7
 10
1133.387372
 20
-24.889078
 30
0.0
 40
1.5
 50
90.0
 51
180.0
  0
LINE
  8
0
  6
BYLAYER
 62
     7
 10
1131.887372
 20
-30.389078
 30
0.0
 11
1131.887372
 21
-24.889078
 31
0.0
  0
LINE
  8
0
  6
BYLAYER
 62
     7
 10
1131.887372
 20
-30.389078
 30
0.0
 11
1180.887372
 21
-30.389078
 31
0.0
  0
LINE
  8
0
  6
BYLAYER
 62
     7
 10
1224.387372
 20
-21.889078
 30
0.0
 11
1224.387372
 21
-0.389078
 31
0.0
  0
ARC
  8
0
  6
BYLAYER
 62
     7
 10
1225.887372
 20
-21.889078
 30
0.0
 40
1.5
 50
180.000000
 51
270.000000
  0
ARC
  8
0
  6
BYLAYER
 62
     7
 10
1222.887372
 20
-0.389078
 30
0.0
 40
1.5
 50
0.0
 51
90.0
  0
LINE
  8
0
  6
BYLAYER
 62
     7
 10
1180.887372
 20
1.110922
 30
0.0
 11
1222.887372
 21
1.110922
 31
0.0
  0
LINE
  8
0
  6
BYLAYER
 62
     7
 10
1219.015131
 20
-21.889078
 30
0.0
 11
1219.015131
 21
-0.389078
 31
0.0
  0
ARC
  8
0
  6
BYLAYER
 62
     7
 10
1220.515131
 20
-21.889078
 30
0.0
 40
1.5
 50
180.000000
 51
270.000000
  0
ARC
  8
0
  6
BYLAYER
 62
     7
 10
1217.515131
 20
-0.389078
 30
0.0
 40
1.500000
 50
0.0
 51
90.0
  0
LINE
  8
0
  6
BYLAYER
 62
     7
 10
1193.981025
 20
1.110922
 30
0.0
 11
1193.488478
 21
-12.993776
 31
0.0
  0
ARC
  8
0
  6
BYLAYER
 62
     7
 10
1190.490306
 20
-12.889078
 30
0.0
 40
3.0
 50
270.0
 51
358.0
  0
LINE
  8
0
  6
BYLAYER
 62
     7
 10
1183.286266
 20
-12.993776
 30
0.0
 11
1182.793719
 21
1.110922
 31
0.0
  0
ARC
  8
0
  6
BYLAYER
 62
     7
 10
1186.284438
 20
-12.889078
 30
0.0
 40
3.000000
 50
182.000000
 51
270.000000
  0
LINE
  8
0
  6
BYLAYER
 62
     7
 10
1190.490306
 20
-15.889078
 30
0.0
 11
1186.284438
 21
-15.889078
 31
0.0
  0
LINE
  8
0
  6
BYLAYER
 62
     7
 10
1208.981025
 20
1.110922
 30
0.0
 11
1208.488478
 21
-12.993776
 31
0.0
  0
ARC
  8
0
  6
BYLAYER
 62
     7
 10
1205.490306
 20
-12.889078
 30
0.0
 40
3.0
 50
270.0
 51
358.0
  0
LINE
  8
0
  6
BYLAYER
 62
     7
 10
1198.286266
 20
-12.993776
 30
0.0
 11
1197.793719
 21
1.110922
 31
0.0
  0
ARC
  8
0
  6
BYLAYER
 62
     7
 10
1201.284438
 20
-12.889078
 30
0.0
 40
3.000000
 50
182.000000
 51
270.000000
  0
LINE
  8
0
  6
BYLAYER
 62
     7
 10
1205.490306
 20
-15.889078
 30
0.0
 11
1201.284438
 21
-15.889078
 31
0.0
  0
LINE
  8
0
  6
BYLAYER
 62
     7
 10
1208.946104
 20
0.110922
 30
0.0
 11
1197.828640
 21
0.110922
 31
0.0
  0
LINE
  8
0
  6
BYLAYER
 62
     7
 10
1193.946104
 20
0.110922
 30
0.0
 11
1182.828640
 21
0.110922
 31
0.0
  0
LINE
  8
0
  6
BYLAYER
 62
     7
 10
1180.887372
 20
-23.389078
 30
0.0
 11
1228.387372
 21
-23.389078
 31
0.0
  0
ARC
  8
0
  6
BYLAYER
 62
     7
 10
1228.387372
 20
-24.889078
 30
0.0
 40
1.500000
 50
0.0
 51
90.0
  0
LINE
  8
0
  6
BYLAYER
 62
     7
 10
1229.887372
 20
-32.389078
 30
0.0
 11
1229.887372
 21
-24.889078
 31
0.0
  0
LINE
  8
0
  6
BYLAYER
 62
     7
 10
1229.887372
 20
-30.389078
 30
0.0
 11
1180.887372
 21
-30.389078
 31
0.0
  0
LINE
  8
0
  6
BYLAYER
 62
     7
 10
1131.887372
 20
-32.389078
 30
0.0
 11
1180.887356
 21
-32.389078
 31
0.0
  0
LINE
  8
0
  6
BYLAYER
 62
     7
 10
1229.887356
 20
-32.388956
 30
0.0
 11
1180.887356
 21
-32.389078
 31
0.0
  0
LINE
  8
0
  6
BYLAYER
 62
     7
 10
1131.887372
 20
-30.389078
 30
0.0
 11
1131.887372
 21
-32.389078
 31
0.0
  0
LINE
  8
0
  6
BYLAYER
 62
     7
 10
1181.887372
 20
-123.389078
 30
0.0
 11
1181.887372
 21
-131.389078
 31
0.0
  0
LINE
  8
0
  6
BYLAYER
 62
     7
 10
1181.887372
 20
-113.389078
 30
0.0
 11
1181.887372
 21
-121.389078
 31
0.0
  0
LINE
  8
0
  6
BYLAYER
 62
     7
 10
1189.887372
 20
-121.389078
 30
0.0
 11
1189.887372
 21
-113.389078
 31
0.0
  0
LINE
  8
0
  6
BYLAYER
 62
     7
 10
1191.887372
 20
-121.389078
 30
0.0
 11
1191.887372
 21
-113.389078
 31
0.0
  0
LINE
  8
0
  6
BYLAYER
 62
     7
 10
1181.887372
 20
-131.389078
 30
0.0
 11
1189.887372
 21
-131.389078
 31
0.0
  0
LINE
  8
0
  6
BYLAYER
 62
     7
 10
1181.887372
 20
-123.389078
 30
0.0
 11
1189.887372
 21
-123.389078
 31
0.0
  0
LINE
  8
0
  6
BYLAYER
 62
     7
 10
1191.887372
 20
-121.389078
 30
0.0
 11
1199.725371
 21
-121.389078
 31
0.0
  0
LINE
  8
0
  6
BYLAYER
 62
     7
 10
1181.887372
 20
-121.389078
 30
0.0
 11
1189.887372
 21
-121.389078
 31
0.0
  0
LINE
  8
0
  6
BYLAYER
 62
     7
 10
1191.887372
 20
-113.389078
 30
0.0
 11
1199.725371
 21
-113.389078
 31
0.0
  0
LINE
  8
0
  6
BYLAYER
 62
     7
 10
1181.887372
 20
-113.389078
 30
0.0
 11
1189.887372
 21
-113.389078
 31
0.0
  0
LINE
  8
0
  6
BYLAYER
 62
     7
 10
1199.725371
 20
-121.389078
 30
0.0
 11
1199.725371
 21
-113.389078
 31
0.0
  0
LINE
  8
0
  6
BYLAYER
 62
     7
 10
1189.887372
 20
-131.389078
 30
0.0
 11
1189.887372
 21
-123.389078
 31
0.0
  0
LINE
  8
0
  6
BYLAYER
 62
     7
 10
1191.887372
 20
-123.389078
 30
0.0
 11
1191.887372
 21
-131.389078
 31
0.0
  0
LINE
  8
0
  6
BYLAYER
 62
     7
 10
1191.887372
 20
-131.389078
 30
0.0
 11
1199.887372
 21
-131.389078
 31
0.0
  0
LINE
  8
0
  6
BYLAYER
 62
     7
 10
1191.887372
 20
-123.389078
 30
0.0
 11
1199.887372
 21
-123.389078
 31
0.0
  0
LINE
  8
0
  6
BYLAYER
 62
     7
 10
1199.887372
 20
-131.389078
 30
0.0
 11
1199.887372
 21
-123.389078
 31
0.0
  0
LINE
  8
0
  6
BYLAYER
 62
     7
 10
1201.887372
 20
-141.389078
 30
0.0
 11
1209.887372
 21
-141.389078
 31
0.0
  0
LINE
  8
0
  6
BYLAYER
 62
     7
 10
1201.887372
 20
-123.389078
 30
0.0
 11
1201.887372
 21
-131.389078
 31
0.0
  0
LINE
  8
0
  6
BYLAYER
 62
     7
 10
1201.887372
 20
-133.389078
 30
0.0
 11
1201.887372
 21
-141.389078
 31
0.0
  0
LINE
  8
0
  6
BYLAYER
 62
     7
 10
1201.887372
 20
-133.389078
 30
0.0
 11
1209.887372
 21
-133.389078
 31
0.0
  0
LINE
  8
0
  6
BYLAYER
 62
     7
 10
1201.887372
 20
-131.389078
 30
0.0
 11
1209.887372
 21
-131.389078
 31
0.0
  0
LINE
  8
0
  6
BYLAYER
 62
     7
 10
1201.887372
 20
-123.389078
 30
0.0
 11
1209.887372
 21
-123.389078
 31
0.0
  0
LINE
  8
0
  6
BYLAYER
 62
     7
 10
1209.887372
 20
-141.389078
 30
0.0
 11
1209.887372
 21
-133.389078
 31
0.0
  0
LINE
  8
0
  6
BYLAYER
 62
     7
 10
1209.887372
 20
-131.389078
 30
0.0
 11
1209.887372
 21
-123.389078
 31
0.0
  0
LINE
  8
0
  6
BYLAYER
 62
     7
 10
1201.887372
 20
-151.389078
 30
0.0
 11
1209.887372
 21
-151.389078
 31
0.0
  0
LINE
  8
0
  6
BYLAYER
 62
     7
 10
1201.887372
 20
-143.389078
 30
0.0
 11
1201.887372
 21
-151.389078
 31
0.0
  0
LINE
  8
0
  6
BYLAYER
 62
     7
 10
1201.887372
 20
-143.389078
 30
0.0
 11
1209.887372
 21
-143.389078
 31
0.0
  0
LINE
  8
0
  6
BYLAYER
 62
     7
 10
1209.887372
 20
-151.389078
 30
0.0
 11
1209.887372
 21
-143.389078
 31
0.0
  0
LINE
  8
0
  6
BYLAYER
 62
     7
 10
1211.887372
 20
-141.389078
 30
0.0
 11
1219.887372
 21
-141.389078
 31
0.0
  0
LINE
  8
0
  6
BYLAYER
 62
     7
 10
1211.887372
 20
-133.389078
 30
0.0
 11
1211.887372
 21
-141.389078
 31
0.0
  0
LINE
  8
0
  6
BYLAYER
 62
     7
 10
1211.887372
 20
-133.389078
 30
0.0
 11
1219.887372
 21
-133.389078
 31
0.0
  0
LINE
  8
0
  6
BYLAYER
 62
     7
 10
1219.887372
 20
-141.389078
 30
0.0
 11
1219.887372
 21
-133.389078
 31
0.0
  0
LINE
  8
0
  6
BYLAYER
 62
     7
 10
1211.887372
 20
-151.389078
 30
0.0
 11
1219.887372
 21
-151.389078
 31
0.0
  0
LINE
  8
0
  6
BYLAYER
 62
     7
 10
1211.887372
 20
-143.389078
 30
0.0
 11
1211.887372
 21
-151.389078
 31
0.0
  0
LINE
  8
0
  6
BYLAYER
 62
     7
 10
1211.887372
 20
-143.389078
 30
0.0
 11
1219.887372
 21
-143.389078
 31
0.0
  0
LINE
  8
0
  6
BYLAYER
 62
     7
 10
1219.887372
 20
-151.389078
 30
0.0
 11
1219.887372
 21
-143.389078
 31
0.0
  0
LINE
  8
0
  6
BYLAYER
 62
     7
 10
1221.887372
 20
-141.389078
 30
0.0
 11
1229.887372
 21
-141.389078
 31
0.0
  0
LINE
  8
0
  6
BYLAYER
 62
     7
 10
1221.887372
 20
-133.389078
 30
0.0
 11
1221.887372
 21
-141.389078
 31
0.0
  0
LINE
  8
0
  6
BYLAYER
 62
     7
 10
1221.887372
 20
-133.389078
 30
0.0
 11
1229.887372
 21
-133.389078
 31
0.0
  0
LINE
  8
0
  6
BYLAYER
 62
     7
 10
1229.887372
 20
-141.389078
 30
0.0
 11
1229.887372
 21
-133.389078
 31
0.0
  0
LINE
  8
0
  6
BYLAYER
 62
     7
 10
1221.887372
 20
-151.389078
 30
0.0
 11
1229.887372
 21
-151.389078
 31
0.0
  0
LINE
  8
0
  6
BYLAYER
 62
     7
 10
1221.887372
 20
-143.389078
 30
0.0
 11
1221.887372
 21
-151.389078
 31
0.0
  0
LINE
  8
0
  6
BYLAYER
 62
     7
 10
1221.887372
 20
-143.389078
 30
0.0
 11
1229.887372
 21
-143.389078
 31
0.0
  0
LINE
  8
0
  6
BYLAYER
 62
     7
 10
1229.887372
 20
-151.389078
 30
0.0
 11
1229.887372
 21
-143.389078
 31
0.0
  0
LINE
  8
0
  6
BYLAYER
 62
     7
 10
1181.887372
 20
-103.389078
 30
0.0
 11
1181.887372
 21
-111.389078
 31
0.0
  0
LINE
  8
0
  6
BYLAYER
 62
     7
 10
1189.887372
 20
-111.389078
 30
0.0
 11
1189.887372
 21
-103.389078
 31
0.0
  0
LINE
  8
0
  6
BYLAYER
 62
     7
 10
1191.887372
 20
-111.389078
 30
0.0
 11
1191.887372
 21
-103.389078
 31
0.0
  0
LINE
  8
0
  6
BYLAYER
 62
     7
 10
1191.887372
 20
-111.389078
 30
0.0
 11
1199.725371
 21
-111.389078
 31
0.0
  0
LINE
  8
0
  6
BYLAYER
 62
     7
 10
1181.887372
 20
-111.389078
 30
0.0
 11
1189.887372
 21
-111.389078
 31
0.0
  0
LINE
  8
0
  6
BYLAYER
 62
     7
 10
1191.887372
 20
-103.389078
 30
0.0
 11
1199.725371
 21
-103.389078
 31
0.0
  0
LINE
  8
0
  6
BYLAYER
 62
     7
 10
1181.887372
 20
-103.389078
 30
0.0
 11
1189.887372
 21
-103.389078
 31
0.0
  0
LINE
  8
0
  6
BYLAYER
 62
     7
 10
1199.725371
 20
-111.389078
 30
0.0
 11
1199.725371
 21
-103.389078
 31
0.0
  0
LINE
  8
0
  6
BYLAYER
 62
     7
 10
1201.887372
 20
-113.389078
 30
0.0
 11
1201.887372
 21
-121.389078
 31
0.0
  0
LINE
  8
0
  6
BYLAYER
 62
     7
 10
1201.887372
 20
-121.389078
 30
0.0
 11
1209.887372
 21
-121.389078
 31
0.0
  0
LINE
  8
0
  6
BYLAYER
 62
     7
 10
1201.887372
 20
-113.389078
 30
0.0
 11
1209.887372
 21
-113.389078
 31
0.0
  0
LINE
  8
0
  6
BYLAYER
 62
     7
 10
1209.887372
 20
-121.389078
 30
0.0
 11
1209.887372
 21
-113.389078
 31
0.0
  0
LINE
  8
0
  6
BYLAYER
 62
     7
 10
1201.887372
 20
-103.389078
 30
0.0
 11
1201.887372
 21
-111.389078
 31
0.0
  0
LINE
  8
0
  6
BYLAYER
 62
     7
 10
1201.887372
 20
-111.389078
 30
0.0
 11
1209.887372
 21
-111.389078
 31
0.0
  0
LINE
  8
0
  6
BYLAYER
 62
     7
 10
1201.887372
 20
-103.389078
 30
0.0
 11
1209.887372
 21
-103.389078
 31
0.0
  0
LINE
  8
0
  6
BYLAYER
 62
     7
 10
1209.887372
 20
-111.389078
 30
0.0
 11
1209.887372
 21
-103.389078
 31
0.0
  0
LINE
  8
0
  6
BYLAYER
 62
     7
 10
1211.887372
 20
-123.389078
 30
0.0
 11
1211.887372
 21
-131.389078
 31
0.0
  0
LINE
  8
0
  6
BYLAYER
 62
     7
 10
1211.887372
 20
-131.389078
 30
0.0
 11
1219.887372
 21
-131.389078
 31
0.0
  0
LINE
  8
0
  6
BYLAYER
 62
     7
 10
1211.887372
 20
-123.389078
 30
0.0
 11
1219.887372
 21
-123.389078
 31
0.0
  0
LINE
  8
0
  6
BYLAYER
 62
     7
 10
1219.887372
 20
-131.389078
 30
0.0
 11
1219.887372
 21
-123.389078
 31
0.0
  0
LINE
  8
0
  6
BYLAYER
 62
     7
 10
1211.887372
 20
-113.389078
 30
0.0
 11
1211.887372
 21
-121.389078
 31
0.0
  0
LINE
  8
0
  6
BYLAYER
 62
     7
 10
1211.887372
 20
-121.389078
 30
0.0
 11
1219.887372
 21
-121.389078
 31
0.0
  0
LINE
  8
0
  6
BYLAYER
 62
     7
 10
1211.887372
 20
-113.389078
 30
0.0
 11
1219.887372
 21
-113.389078
 31
0.0
  0
LINE
  8
0
  6
BYLAYER
 62
     7
 10
1219.887372
 20
-121.389078
 30
0.0
 11
1219.887372
 21
-113.389078
 31
0.0
  0
LINE
  8
0
  6
BYLAYER
 62
     7
 10
1221.887372
 20
-123.389078
 30
0.0
 11
1221.887372
 21
-131.389078
 31
0.0
  0
LINE
  8
0
  6
BYLAYER
 62
     7
 10
1221.887372
 20
-131.389078
 30
0.0
 11
1229.887372
 21
-131.389078
 31
0.0
  0
LINE
  8
0
  6
BYLAYER
 62
     7
 10
1221.887372
 20
-123.389078
 30
0.0
 11
1229.887372
 21
-123.389078
 31
0.0
  0
LINE
  8
0
  6
BYLAYER
 62
     7
 10
1229.887372
 20
-131.389078
 30
0.0
 11
1229.887372
 21
-123.389078
 31
0.0
  0
CIRCLE
  8
0
  6
BYLAYER
 62
     7
 10
1180.887372
 20
-152.389078
 30
0.0
 40
4.0
  0
LINE
  8
0
  6
BYLAYER
 62
     7
 10
1231.887372
 20
-141.389078
 30
0.0
 11
1239.887372
 21
-141.389078
 31
0.0
  0
LINE
  8
0
  6
BYLAYER
 62
     7
 10
1231.887372
 20
-133.389078
 30
0.0
 11
1231.887372
 21
-141.389078
 31
0.0
  0
LINE
  8
0
  6
BYLAYER
 62
     7
 10
1231.887372
 20
-133.389078
 30
0.0
 11
1239.887372
 21
-133.389078
 31
0.0
  0
LINE
  8
0
  6
BYLAYER
 62
     7
 10
1239.887372
 20
-141.389078
 30
0.0
 11
1239.887372
 21
-133.389078
 31
0.0
  0
LINE
  8
0
  6
BYLAYER
 62
     7
 10
1231.887372
 20
-151.389078
 30
0.0
 11
1239.887372
 21
-151.389078
 31
0.0
  0
LINE
  8
0
  6
BYLAYER
 62
     7
 10
1231.887372
 20
-143.389078
 30
0.0
 11
1231.887372
 21
-151.389078
 31
0.0
  0
LINE
  8
0
  6
BYLAYER
 62
     7
 10
1231.887372
 20
-143.389078
 30
0.0
 11
1239.887372
 21
-143.389078
 31
0.0
  0
LINE
  8
0
  6
BYLAYER
 62
     7
 10
1239.887372
 20
-151.389078
 30
0.0
 11
1239.887372
 21
-143.389078
 31
0.0
  0
LINE
  8
0
  6
BYLAYER
 62
     7
 10
1231.887372
 20
-123.389078
 30
0.0
 11
1231.887372
 21
-131.389078
 31
0.0
  0
LINE
  8
0
  6
BYLAYER
 62
     7
 10
1231.887372
 20
-131.389078
 30
0.0
 11
1239.887372
 21
-131.389078
 31
0.0
  0
LINE
  8
0
  6
BYLAYER
 62
     7
 10
1231.887372
 20
-123.389078
 30
0.0
 11
1239.887372
 21
-123.389078
 31
0.0
  0
LINE
  8
0
  6
BYLAYER
 62
     7
 10
1239.887372
 20
-131.389078
 30
0.0
 11
1239.887372
 21
-123.389078
 31
0.0
  0
LINE
  8
0
  6
BYLAYER
 62
     7
 10
1181.887372
 20
-93.389078
 30
0.0
 11
1181.887372
 21
-101.389078
 31
0.0
  0
LINE
  8
0
  6
BYLAYER
 62
     7
 10
1189.887372
 20
-101.389078
 30
0.0
 11
1189.887372
 21
-93.389078
 31
0.0
  0
LINE
  8
0
  6
BYLAYER
 62
     7
 10
1191.887372
 20
-101.389078
 30
0.0
 11
1191.887372
 21
-93.389078
 31
0.0
  0
LINE
  8
0
  6
BYLAYER
 62
     7
 10
1191.887372
 20
-101.389078
 30
0.0
 11
1199.725371
 21
-101.389078
 31
0.0
  0
LINE
  8
0
  6
BYLAYER
 62
     7
 10
1181.887372
 20
-101.389078
 30
0.0
 11
1189.887372
 21
-101.389078
 31
0.0
  0
LINE
  8
0
  6
BYLAYER
 62
     7
 10
1191.887372
 20
-93.389078
 30
0.0
 11
1199.725371
 21
-93.389078
 31
0.0
  0
LINE
  8
0
  6
BYLAYER
 62
     7
 10
1181.887372
 20
-93.389078
 30
0.0
 11
1189.887372
 21
-93.389078
 31
0.0
  0
LINE
  8
0
  6
BYLAYER
 62
     7
 10
1199.725371
 20
-101.389078
 30
0.0
 11
1199.725371
 21
-93.389078
 31
0.0
  0
LINE
  8
0
  6
BYLAYER
 62
     7
 10
1201.887372
 20
-93.389078
 30
0.0
 11
1201.887372
 21
-101.389078
 31
0.0
  0
LINE
  8
0
  6
BYLAYER
 62
     7
 10
1201.887372
 20
-101.389078
 30
0.0
 11
1209.887372
 21
-101.389078
 31
0.0
  0
LINE
  8
0
  6
BYLAYER
 62
     7
 10
1201.887372
 20
-93.389078
 30
0.0
 11
1209.887372
 21
-93.389078
 31
0.0
  0
LINE
  8
0
  6
BYLAYER
 62
     7
 10
1209.887372
 20
-101.389078
 30
0.0
 11
1209.887372
 21
-93.389078
 31
0.0
  0
LINE
  8
0
  6
BYLAYER
 62
     7
 10
1211.887372
 20
-103.389078
 30
0.0
 11
1211.887372
 21
-111.389078
 31
0.0
  0
LINE
  8
0
  6
BYLAYER
 62
     7
 10
1211.887372
 20
-111.389078
 30
0.0
 11
1219.887372
 21
-111.389078
 31
0.0
  0
LINE
  8
0
  6
BYLAYER
 62
     7
 10
1211.887372
 20
-103.389078
 30
0.0
 11
1219.887372
 21
-103.389078
 31
0.0
  0
LINE
  8
0
  6
BYLAYER
 62
     7
 10
1219.887372
 20
-111.389078
 30
0.0
 11
1219.887372
 21
-103.389078
 31
0.0
  0
LINE
  8
0
  6
BYLAYER
 62
     7
 10
1221.887372
 20
-113.389078
 30
0.0
 11
1221.887372
 21
-121.389078
 31
0.0
  0
LINE
  8
0
  6
BYLAYER
 62
     7
 10
1221.887372
 20
-121.389078
 30
0.0
 11
1229.887372
 21
-121.389078
 31
0.0
  0
LINE
  8
0
  6
BYLAYER
 62
     7
 10
1221.887372
 20
-113.389078
 30
0.0
 11
1229.887372
 21
-113.389078
 31
0.0
  0
LINE
  8
0
  6
BYLAYER
 62
     7
 10
1229.887372
 20
-121.389078
 30
0.0
 11
1229.887372
 21
-113.389078
 31
0.0
  0
LINE
  8
0
  6
BYLAYER
 62
     7
 10
1181.887372
 20
-83.389078
 30
0.0
 11
1181.887372
 21
-91.389078
 31
0.0
  0
LINE
  8
0
  6
BYLAYER
 62
     7
 10
1189.887372
 20
-91.389078
 30
0.0
 11
1189.887372
 21
-83.389078
 31
0.0
  0
LINE
  8
0
  6
BYLAYER
 62
     7
 10
1191.887372
 20
-91.389078
 30
0.0
 11
1191.887372
 21
-83.389078
 31
0.0
  0
LINE
  8
0
  6
BYLAYER
 62
     7
 10
1191.887372
 20
-91.389078
 30
0.0
 11
1199.725371
 21
-91.389078
 31
0.0
  0
LINE
  8
0
  6
BYLAYER
 62
     7
 10
1181.887372
 20
-91.389078
 30
0.0
 11
1189.887372
 21
-91.389078
 31
0.0
  0
LINE
  8
0
  6
BYLAYER
 62
     7
 10
1191.887372
 20
-83.389078
 30
0.0
 11
1199.725371
 21
-83.389078
 31
0.0
  0
LINE
  8
0
  6
BYLAYER
 62
     7
 10
1181.887372
 20
-83.389078
 30
0.0
 11
1189.887372
 21
-83.389078
 31
0.0
  0
LINE
  8
0
  6
BYLAYER
 62
     7
 10
1199.725371
 20
-91.389078
 30
0.0
 11
1199.725371
 21
-83.389078
 31
0.0
  0
LINE
  8
0
  6
BYLAYER
 62
     7
 10
1241.887372
 20
-141.389078
 30
0.0
 11
1249.887372
 21
-141.389078
 31
0.0
  0
LINE
  8
0
  6
BYLAYER
 62
     7
 10
1241.887372
 20
-133.389078
 30
0.0
 11
1241.887372
 21
-141.389078
 31
0.0
  0
LINE
  8
0
  6
BYLAYER
 62
     7
 10
1241.887372
 20
-133.389078
 30
0.0
 11
1249.887372
 21
-133.389078
 31
0.0
  0
LINE
  8
0
  6
BYLAYER
 62
     7
 10
1249.887372
 20
-141.389078
 30
0.0
 11
1249.887372
 21
-133.389078
 31
0.0
  0
LINE
  8
0
  6
BYLAYER
 62
     7
 10
1241.887372
 20
-151.389078
 30
0.0
 11
1249.887372
 21
-151.389078
 31
0.0
  0
LINE
  8
0
  6
BYLAYER
 62
     7
 10
1241.887372
 20
-143.389078
 30
0.0
 11
1241.887372
 21
-151.389078
 31
0.0
  0
LINE
  8
0
  6
BYLAYER
 62
     7
 10
1241.887372
 20
-143.389078
 30
0.0
 11
1249.887372
 21
-143.389078
 31
0.0
  0
LINE
  8
0
  6
BYLAYER
 62
     7
 10
1249.887372
 20
-151.389078
 30
0.0
 11
1249.887372
 21
-143.389078
 31
0.0
  0
LINE
  8
0
  6
BYLAYER
 62
     7
 10
1211.887372
 20
-93.389078
 30
0.0
 11
1211.887372
 21
-101.389078
 31
0.0
  0
LINE
  8
0
  6
BYLAYER
 62
     7
 10
1211.887372
 20
-101.389078
 30
0.0
 11
1219.887372
 21
-101.389078
 31
0.0
  0
LINE
  8
0
  6
BYLAYER
 62
     7
 10
1211.887372
 20
-93.389078
 30
0.0
 11
1219.887372
 21
-93.389078
 31
0.0
  0
LINE
  8
0
  6
BYLAYER
 62
     7
 10
1219.887372
 20
-101.389078
 30
0.0
 11
1219.887372
 21
-93.389078
 31
0.0
  0
LINE
  8
0
  6
BYLAYER
 62
     7
 10
1221.887372
 20
-103.389078
 30
0.0
 11
1221.887372
 21
-111.389078
 31
0.0
  0
LINE
  8
0
  6
BYLAYER
 62
     7
 10
1221.887372
 20
-111.389078
 30
0.0
 11
1229.887372
 21
-111.389078
 31
0.0
  0
LINE
  8
0
  6
BYLAYER
 62
     7
 10
1221.887372
 20
-103.389078
 30
0.0
 11
1229.887372
 21
-103.389078
 31
0.0
  0
LINE
  8
0
  6
BYLAYER
 62
     7
 10
1229.887372
 20
-111.389078
 30
0.0
 11
1229.887372
 21
-103.389078
 31
0.0
  0
LINE
  8
0
  6
BYLAYER
 62
     7
 10
1231.887372
 20
-113.389078
 30
0.0
 11
1231.887372
 21
-121.389078
 31
0.0
  0
LINE
  8
0
  6
BYLAYER
 62
     7
 10
1231.887372
 20
-121.389078
 30
0.0
 11
1239.887372
 21
-121.389078
 31
0.0
  0
LINE
  8
0
  6
BYLAYER
 62
     7
 10
1231.887372
 20
-113.389078
 30
0.0
 11
1239.887372
 21
-113.389078
 31
0.0
  0
LINE
  8
0
  6
BYLAYER
 62
     7
 10
1239.887372
 20
-121.389078
 30
0.0
 11
1239.887372
 21
-113.389078
 31
0.0
  0
LINE
  8
0
  6
BYLAYER
 62
     7
 10
1181.887372
 20
-73.389078
 30
0.0
 11
1181.887372
 21
-81.389078
 31
0.0
  0
LINE
  8
0
  6
BYLAYER
 62
     7
 10
1189.887372
 20
-81.389078
 30
0.0
 11
1189.887372
 21
-73.389078
 31
0.0
  0
LINE
  8
0
  6
BYLAYER
 62
     7
 10
1181.887372
 20
-81.389078
 30
0.0
 11
1189.887372
 21
-81.389078
 31
0.0
  0
LINE
  8
0
  6
BYLAYER
 62
     7
 10
1181.887372
 20
-73.389078
 30
0.0
 11
1189.887372
 21
-73.389078
 31
0.0
  0
LINE
  8
0
  6
BYLAYER
 62
     7
 10
1251.887372
 20
-151.389078
 30
0.0
 11
1259.887372
 21
-151.389078
 31
0.0
  0
LINE
  8
0
  6
BYLAYER
 62
     7
 10
1251.887372
 20
-143.389078
 30
0.0
 11
1251.887372
 21
-151.389078
 31
0.0
  0
LINE
  8
0
  6
BYLAYER
 62
     7
 10
1251.887372
 20
-143.389078
 30
0.0
 11
1259.887372
 21
-143.389078
 31
0.0
  0
LINE
  8
0
  6
BYLAYER
 62
     7
 10
1259.887372
 20
-151.389078
 30
0.0
 11
1259.887372
 21
-143.389078
 31
0.0
  0
LINE
  8
0
  6
BYLAYER
 62
     7
 10
1201.887372
 20
-83.389078
 30
0.0
 11
1201.887372
 21
-91.389078
 31
0.0
  0
LINE
  8
0
  6
BYLAYER
 62
     7
 10
1201.887372
 20
-91.389078
 30
0.0
 11
1209.887372
 21
-91.389078
 31
0.0
  0
LINE
  8
0
  6
BYLAYER
 62
     7
 10
1201.887372
 20
-83.389078
 30
0.0
 11
1209.887372
 21
-83.389078
 31
0.0
  0
LINE
  8
0
  6
BYLAYER
 62
     7
 10
1209.887372
 20
-91.389078
 30
0.0
 11
1209.887372
 21
-83.389078
 31
0.0
  0
LINE
  8
0
  6
BYLAYER
 62
     7
 10
1241.887372
 20
-123.389078
 30
0.0
 11
1241.887372
 21
-131.389078
 31
0.0
  0
LINE
  8
0
  6
BYLAYER
 62
     7
 10
1241.887372
 20
-131.389078
 30
0.0
 11
1249.887372
 21
-131.389078
 31
0.0
  0
LINE
  8
0
  6
BYLAYER
 62
     7
 10
1241.887372
 20
-123.389078
 30
0.0
 11
1249.887372
 21
-123.389078
 31
0.0
  0
LINE
  8
0
  6
BYLAYER
 62
     7
 10
1249.887372
 20
-131.389078
 30
0.0
 11
1249.887372
 21
-123.389078
 31
0.0
  0
CIRCLE
  8
0
  6
BYLAYER
 62
     7
 10
1180.887372
 20
-152.389078
 30
0.0
 40
84.000549
  0
CIRCLE
  8
0
  6
BYLAYER
 62
     7
 10
1180.887372
 20
-152.389078
 30
0.0
 40
105.400549
  0
LINE
  8
0
  6
BYLAYER
 62
     7
 10
1211.887372
 20
-83.389078
 30
0.0
 11
1211.887372
 21
-91.389078
 31
0.0
  0
LINE
  8
0
  6
BYLAYER
 62
     7
 10
1211.887372
 20
-91.389078
 30
0.0
 11
1219.887372
 21
-91.389078
 31
0.0
  0
LINE
  8
0
  6
BYLAYER
 62
     7
 10
1211.887372
 20
-83.389078
 30
0.0
 11
1219.887372
 21
-83.389078
 31
0.0
  0
LINE
  8
0
  6
BYLAYER
 62
     7
 10
1219.887372
 20
-91.389078
 30
0.0
 11
1219.887372
 21
-83.389078
 31
0.0
  0
LINE
  8
0
  6
BYLAYER
 62
     7
 10
1221.887372
 20
-93.389078
 30
0.0
 11
1221.887372
 21
-101.389078
 31
0.0
  0
LINE
  8
0
  6
BYLAYER
 62
     7
 10
1221.887372
 20
-101.389078
 30
0.0
 11
1229.887372
 21
-101.389078
 31
0.0
  0
LINE
  8
0
  6
BYLAYER
 62
     7
 10
1221.887372
 20
-93.389078
 30
0.0
 11
1229.887372
 21
-93.389078
 31
0.0
  0
LINE
  8
0
  6
BYLAYER
 62
     7
 10
1229.887372
 20
-101.389078
 30
0.0
 11
1229.887372
 21
-93.389078
 31
0.0
  0
LINE
  8
0
  6
BYLAYER
 62
     7
 10
1231.887372
 20
-103.389078
 30
0.0
 11
1231.887372
 21
-111.389078
 31
0.0
  0
LINE
  8
0
  6
BYLAYER
 62
     7
 10
1231.887372
 20
-111.389078
 30
0.0
 11
1239.887372
 21
-111.389078
 31
0.0
  0
LINE
  8
0
  6
BYLAYER
 62
     7
 10
1231.887372
 20
-103.389078
 30
0.0
 11
1239.887372
 21
-103.389078
 31
0.0
  0
LINE
  8
0
  6
BYLAYER
 62
     7
 10
1239.887372
 20
-111.389078
 30
0.0
 11
1239.887372
 21
-103.389078
 31
0.0
  0
LINE
  8
0
  6
BYLAYER
 62
     7
 10
1241.887372
 20
-113.389078
 30
0.0
 11
1241.887372
 21
-121.389078
 31
0.0
  0
LINE
  8
0
  6
BYLAYER
 62
     7
 10
1241.887372
 20
-121.389078
 30
0.0
 11
1249.887372
 21
-121.389078
 31
0.0
  0
LINE
  8
0
  6
BYLAYER
 62
     7
 10
1241.887372
 20
-113.389078
 30
0.0
 11
1249.887372
 21
-113.389078
 31
0.0
  0
LINE
  8
0
  6
BYLAYER
 62
     7
 10
1249.887372
 20
-121.389078
 30
0.0
 11
1249.887372
 21
-113.389078
 31
0.0
  0
LINE
  8
0
  6
BYLAYER
 62
     7
 10
1191.887372
 20
-81.389078
 30
0.0
 11
1191.887372
 21
-73.389078
 31
0.0
  0
LINE
  8
0
  6
BYLAYER
 62
     7
 10
1191.887372
 20
-81.389078
 30
0.0
 11
1199.725371
 21
-81.389078
 31
0.0
  0
LINE
  8
0
  6
BYLAYER
 62
     7
 10
1191.887372
 20
-73.389078
 30
0.0
 11
1199.725371
 21
-73.389078
 31
0.0
  0
LINE
  8
0
  6
BYLAYER
 62
     7
 10
1199.725371
 20
-81.389078
 30
0.0
 11
1199.725371
 21
-73.389078
 31
0.0
  0
LINE
  8
0
  6
BYLAYER
 62
     7
 10
1251.887372
 20
-141.389078
 30
0.0
 11
1259.887372
 21
-141.389078
 31
0.0
  0
LINE
  8
0
  6
BYLAYER
 62
     7
 10
1251.887372
 20
-133.389078
 30
0.0
 11
1251.887372
 21
-141.389078
 31
0.0
  0
LINE
  8
0
  6
BYLAYER
 62
     7
 10
1251.887372
 20
-133.389078
 30
0.0
 11
1259.887372
 21
-133.389078
 31
0.0
  0
LINE
  8
0
  6
BYLAYER
 62
     7
 10
1259.887372
 20
-141.389078
 30
0.0
 11
1259.887372
 21
-133.389078
 31
0.0
  0
LINE
  8
0
  6
BYLAYER
 62
     7
 10
1181.887372
 20
-181.389078
 30
0.0
 11
1181.887372
 21
-173.389078
 31
0.0
  0
LINE
  8
0
  6
BYLAYER
 62
     7
 10
1181.887372
 20
-191.389078
 30
0.0
 11
1181.887372
 21
-183.389078
 31
0.0
  0
LINE
  8
0
  6
BYLAYER
 62
     7
 10
1189.887372
 20
-183.389078
 30
0.0
 11
1189.887372
 21
-191.389078
 31
0.0
  0
LINE
  8
0
  6
BYLAYER
 62
     7
 10
1191.887372
 20
-183.389078
 30
0.0
 11
1191.887372
 21
-191.389078
 31
0.0
  0
LINE
  8
0
  6
BYLAYER
 62
     7
 10
1181.887372
 20
-173.389078
 30
0.0
 11
1189.887372
 21
-173.389078
 31
0.0
  0
LINE
  8
0
  6
BYLAYER
 62
     7
 10
1181.887372
 20
-181.389078
 30
0.0
 11
1189.887372
 21
-181.389078
 31
0.0
  0
LINE
  8
0
  6
BYLAYER
 62
     7
 10
1191.887372
 20
-183.389078
 30
0.0
 11
1199.725371
 21
-183.389078
 31
0.0
  0
LINE
  8
0
  6
BYLAYER
 62
     7
 10
1181.887372
 20
-183.389078
 30
0.0
 11
1189.887372
 21
-183.389078
 31
0.0
  0
LINE
  8
0
  6
BYLAYER
 62
     7
 10
1191.887372
 20
-191.389078
 30
0.0
 11
1199.725371
 21
-191.389078
 31
0.0
  0
LINE
  8
0
  6
BYLAYER
 62
     7
 10
1181.887372
 20
-191.389078
 30
0.0
 11
1189.887372
 21
-191.389078
 31
0.0
  0
LINE
  8
0
  6
BYLAYER
 62
     7
 10
1199.725371
 20
-183.389078
 30
0.0
 11
1199.725371
 21
-191.389078
 31
0.0
  0
LINE
  8
0
  6
BYLAYER
 62
     7
 10
1189.887372
 20
-173.389078
 30
0.0
 11
1189.887372
 21
-181.389078
 31
0.0
  0
LINE
  8
0
  6
BYLAYER
 62
     7
 10
1191.887372
 20
-181.389078
 30
0.0
 11
1191.887372
 21
-173.389078
 31
0.0
  0
LINE
  8
0
  6
BYLAYER
 62
     7
 10
1191.887372
 20
-173.389078
 30
0.0
 11
1199.887372
 21
-173.389078
 31
0.0
  0
LINE
  8
0
  6
BYLAYER
 62
     7
 10
1191.887372
 20
-181.389078
 30
0.0
 11
1199.887372
 21
-181.389078
 31
0.0
  0
LINE
  8
0
  6
BYLAYER
 62
     7
 10
1199.887372
 20
-173.389078
 30
0.0
 11
1199.887372
 21
-181.389078
 31
0.0
  0
LINE
  8
0
  6
BYLAYER
 62
     7
 10
1201.887372
 20
-163.389078
 30
0.0
 11
1209.887372
 21
-163.389078
 31
0.0
  0
LINE
  8
0
  6
BYLAYER
 62
     7
 10
1201.887372
 20
-181.389078
 30
0.0
 11
1201.887372
 21
-173.389078
 31
0.0
  0
LINE
  8
0
  6
BYLAYER
 62
     7
 10
1201.887372
 20
-171.389078
 30
0.0
 11
1201.887372
 21
-163.389078
 31
0.0
  0
LINE
  8
0
  6
BYLAYER
 62
     7
 10
1201.887372
 20
-171.389078
 30
0.0
 11
1209.887372
 21
-171.389078
 31
0.0
  0
LINE
  8
0
  6
BYLAYER
 62
     7
 10
1201.887372
 20
-173.389078
 30
0.0
 11
1209.887372
 21
-173.389078
 31
0.0
  0
LINE
  8
0
  6
BYLAYER
 62
     7
 10
1201.887372
 20
-181.389078
 30
0.0
 11
1209.887372
 21
-181.389078
 31
0.0
  0
LINE
  8
0
  6
BYLAYER
 62
     7
 10
1209.887372
 20
-163.389078
 30
0.0
 11
1209.887372
 21
-171.389078
 31
0.0
  0
LINE
  8
0
  6
BYLAYER
 62
     7
 10
1209.887372
 20
-173.389078
 30
0.0
 11
1209.887372
 21
-181.389078
 31
0.0
  0
LINE
  8
0
  6
BYLAYER
 62
     7
 10
1201.887372
 20
-153.389078
 30
0.0
 11
1209.887372
 21
-153.389078
 31
0.0
  0
LINE
  8
0
  6
BYLAYER
 62
     7
 10
1201.887372
 20
-161.389078
 30
0.0
 11
1201.887372
 21
-153.389078
 31
0.0
  0
LINE
  8
0
  6
BYLAYER
 62
     7
 10
1201.887372
 20
-161.389078
 30
0.0
 11
1209.887372
 21
-161.389078
 31
0.0
  0
LINE
  8
0
  6
BYLAYER
 62
     7
 10
1209.887372
 20
-153.389078
 30
0.0
 11
1209.887372
 21
-161.389078
 31
0.0
  0
LINE
  8
0
  6
BYLAYER
 62
     7
 10
1211.887372
 20
-163.389078
 30
0.0
 11
1219.887372
 21
-163.389078
 31
0.0
  0
LINE
  8
0
  6
BYLAYER
 62
     7
 10
1211.887372
 20
-171.389078
 30
0.0
 11
1211.887372
 21
-163.389078
 31
0.0
  0
LINE
  8
0
  6
BYLAYER
 62
     7
 10
1211.887372
 20
-171.389078
 30
0.0
 11
1219.887372
 21
-171.389078
 31
0.0
  0
LINE
  8
0
  6
BYLAYER
 62
     7
 10
1219.887372
 20
-163.389078
 30
0.0
 11
1219.887372
 21
-171.389078
 31
0.0
  0
LINE
  8
0
  6
BYLAYER
 62
     7
 10
1211.887372
 20
-153.389078
 30
0.0
 11
1219.887372
 21
-153.389078
 31
0.0
  0
LINE
  8
0
  6
BYLAYER
 62
     7
 10
1211.887372
 20
-161.389078
 30
0.0
 11
1211.887372
 21
-153.389078
 31
0.0
  0
LINE
  8
0
  6
BYLAYER
 62
     7
 10
1211.887372
 20
-161.389078
 30
0.0
 11
1219.887372
 21
-161.389078
 31
0.0
  0
LINE
  8
0
  6
BYLAYER
 62
     7
 10
1219.887372
 20
-153.389078
 30
0.0
 11
1219.887372
 21
-161.389078
 31
0.0
  0
LINE
  8
0
  6
BYLAYER
 62
     7
 10
1221.887372
 20
-163.389078
 30
0.0
 11
1229.887372
 21
-163.389078
 31
0.0
  0
LINE
  8
0
  6
BYLAYER
 62
     7
 10
1221.887372
 20
-171.389078
 30
0.0
 11
1221.887372
 21
-163.389078
 31
0.0
  0
LINE
  8
0
  6
BYLAYER
 62
     7
 10
1221.887372
 20
-171.389078
 30
0.0
 11
1229.887372
 21
-171.389078
 31
0.0
  0
LINE
  8
0
  6
BYLAYER
 62
     7
 10
1229.887372
 20
-163.389078
 30
0.0
 11
1229.887372
 21
-171.389078
 31
0.0
  0
LINE
  8
0
  6
BYLAYER
 62
     7
 10
1221.887372
 20
-153.389078
 30
0.0
 11
1229.887372
 21
-153.389078
 31
0.0
  0
LINE
  8
0
  6
BYLAYER
 62
     7
 10
1221.887372
 20
-161.389078
 30
0.0
 11
1221.887372
 21
-153.389078
 31
0.0
  0
LINE
  8
0
  6
BYLAYER
 62
     7
 10
1221.887372
 20
-161.389078
 30
0.0
 11
1229.887372
 21
-161.389078
 31
0.0
  0
LINE
  8
0
  6
BYLAYER
 62
     7
 10
1229.887372
 20
-153.389078
 30
0.0
 11
1229.887372
 21
-161.389078
 31
0.0
  0
LINE
  8
0
  6
BYLAYER
 62
     7
 10
1181.887372
 20
-201.389078
 30
0.0
 11
1181.887372
 21
-193.389078
 31
0.0
  0
LINE
  8
0
  6
BYLAYER
 62
     7
 10
1189.887372
 20
-193.389078
 30
0.0
 11
1189.887372
 21
-201.389078
 31
0.0
  0
LINE
  8
0
  6
BYLAYER
 62
     7
 10
1191.887372
 20
-193.389078
 30
0.0
 11
1191.887372
 21
-201.389078
 31
0.0
  0
LINE
  8
0
  6
BYLAYER
 62
     7
 10
1191.887372
 20
-193.389078
 30
0.0
 11
1199.725371
 21
-193.389078
 31
0.0
  0
LINE
  8
0
  6
BYLAYER
 62
     7
 10
1181.887372
 20
-193.389078
 30
0.0
 11
1189.887372
 21
-193.389078
 31
0.0
  0
LINE
  8
0
  6
BYLAYER
 62
     7
 10
1191.887372
 20
-201.389078
 30
0.0
 11
1199.725371
 21
-201.389078
 31
0.0
  0
LINE
  8
0
  6
BYLAYER
 62
     7
 10
1181.887372
 20
-201.389078
 30
0.0
 11
1189.887372
 21
-201.389078
 31
0.0
  0
LINE
  8
0
  6
BYLAYER
 62
     7
 10
1199.725371
 20
-193.389078
 30
0.0
 11
1199.725371
 21
-201.389078
 31
0.0
  0
LINE
  8
0
  6
BYLAYER
 62
     7
 10
1201.887372
 20
-191.389078
 30
0.0
 11
1201.887372
 21
-183.389078
 31
0.0
  0
LINE
  8
0
  6
BYLAYER
 62
     7
 10
1201.887372
 20
-183.389078
 30
0.0
 11
1209.887372
 21
-183.389078
 31
0.0
  0
LINE
  8
0
  6
BYLAYER
 62
     7
 10
1201.887372
 20
-191.389078
 30
0.0
 11
1209.887372
 21
-191.389078
 31
0.0
  0
LINE
  8
0
  6
BYLAYER
 62
     7
 10
1209.887372
 20
-183.389078
 30
0.0
 11
1209.887372
 21
-191.389078
 31
0.0
  0
LINE
  8
0
  6
BYLAYER
 62
     7
 10
1201.887372
 20
-201.389078
 30
0.0
 11
1201.887372
 21
-193.389078
 31
0.0
  0
LINE
  8
0
  6
BYLAYER
 62
     7
 10
1201.887372
 20
-193.389078
 30
0.0
 11
1209.887372
 21
-193.389078
 31
0.0
  0
LINE
  8
0
  6
BYLAYER
 62
     7
 10
1201.887372
 20
-201.389078
 30
0.0
 11
1209.887372
 21
-201.389078
 31
0.0
  0
LINE
  8
0
  6
BYLAYER
 62
     7
 10
1209.887372
 20
-193.389078
 30
0.0
 11
1209.887372
 21
-201.389078
 31
0.0
  0
LINE
  8
0
  6
BYLAYER
 62
     7
 10
1211.887372
 20
-181.389078
 30
0.0
 11
1211.887372
 21
-173.389078
 31
0.0
  0
LINE
  8
0
  6
BYLAYER
 62
     7
 10
1211.887372
 20
-173.389078
 30
0.0
 11
1219.887372
 21
-173.389078
 31
0.0
  0
LINE
  8
0
  6
BYLAYER
 62
     7
 10
1211.887372
 20
-181.389078
 30
0.0
 11
1219.887372
 21
-181.389078
 31
0.0
  0
LINE
  8
0
  6
BYLAYER
 62
     7
 10
1219.887372
 20
-173.389078
 30
0.0
 11
1219.887372
 21
-181.389078
 31
0.0
  0
LINE
  8
0
  6
BYLAYER
 62
     7
 10
1211.887372
 20
-191.389078
 30
0.0
 11
1211.887372
 21
-183.389078
 31
0.0
  0
LINE
  8
0
  6
BYLAYER
 62
     7
 10
1211.887372
 20
-183.389078
 30
0.0
 11
1219.887372
 21
-183.389078
 31
0.0
  0
LINE
  8
0
  6
BYLAYER
 62
     7
 10
1211.887372
 20
-191.389078
 30
0.0
 11
1219.887372
 21
-191.389078
 31
0.0
  0
LINE
  8
0
  6
BYLAYER
 62
     7
 10
1219.887372
 20
-183.389078
 30
0.0
 11
1219.887372
 21
-191.389078
 31
0.0
  0
LINE
  8
0
  6
BYLAYER
 62
     7
 10
1221.887372
 20
-181.389078
 30
0.0
 11
1221.887372
 21
-173.389078
 31
0.0
  0
LINE
  8
0
  6
BYLAYER
 62
     7
 10
1221.887372
 20
-173.389078
 30
0.0
 11
1229.887372
 21
-173.389078
 31
0.0
  0
LINE
  8
0
  6
BYLAYER
 62
     7
 10
1221.887372
 20
-181.389078
 30
0.0
 11
1229.887372
 21
-181.389078
 31
0.0
  0
LINE
  8
0
  6
BYLAYER
 62
     7
 10
1229.887372
 20
-173.389078
 30
0.0
 11
1229.887372
 21
-181.389078
 31
0.0
  0
LINE
  8
0
  6
BYLAYER
 62
     7
 10
1231.887372
 20
-163.389078
 30
0.0
 11
1239.887372
 21
-163.389078
 31
0.0
  0
LINE
  8
0
  6
BYLAYER
 62
     7
 10
1231.887372
 20
-171.389078
 30
0.0
 11
1231.887372
 21
-163.389078
 31
0.0
  0
LINE
  8
0
  6
BYLAYER
 62
     7
 10
1231.887372
 20
-171.389078
 30
0.0
 11
1239.887372
 21
-171.389078
 31
0.0
  0
LINE
  8
0
  6
BYLAYER
 62
     7
 10
1239.887372
 20
-163.389078
 30
0.0
 11
1239.887372
 21
-171.389078
 31
0.0
  0
LINE
  8
0
  6
BYLAYER
 62
     7
 10
1231.887372
 20
-153.389078
 30
0.0
 11
1239.887372
 21
-153.389078
 31
0.0
  0
LINE
  8
0
  6
BYLAYER
 62
     7
 10
1231.887372
 20
-161.389078
 30
0.0
 11
1231.887372
 21
-153.389078
 31
0.0
  0
LINE
  8
0
  6
BYLAYER
 62
     7
 10
1231.887372
 20
-161.389078
 30
0.0
 11
1239.887372
 21
-161.389078
 31
0.0
  0
LINE
  8
0
  6
BYLAYER
 62
     7
 10
1239.887372
 20
-153.389078
 30
0.0
 11
1239.887372
 21
-161.389078
 31
0.0
  0
LINE
  8
0
  6
BYLAYER
 62
     7
 10
1231.887372
 20
-181.389078
 30
0.0
 11
1231.887372
 21
-173.389078
 31
0.0
  0
LINE
  8
0
  6
BYLAYER
 62
     7
 10
1231.887372
 20
-173.389078
 30
0.0
 11
1239.887372
 21
-173.389078
 31
0.0
  0
LINE
  8
0
  6
BYLAYER
 62
     7
 10
1231.887372
 20
-181.389078
 30
0.0
 11
1239.887372
 21
-181.389078
 31
0.0
  0
LINE
  8
0
  6
BYLAYER
 62
     7
 10
1239.887372
 20
-173.389078
 30
0.0
 11
1239.887372
 21
-181.389078
 31
0.0
  0
LINE
  8
0
  6
BYLAYER
 62
     7
 10
1181.887372
 20
-211.389078
 30
0.0
 11
1181.887372
 21
-203.389078
 31
0.0
  0
LINE
  8
0
  6
BYLAYER
 62
     7
 10
1189.887372
 20
-203.389078
 30
0.0
 11
1189.887372
 21
-211.389078
 31
0.0
  0
LINE
  8
0
  6
BYLAYER
 62
     7
 10
1191.887372
 20
-203.389078
 30
0.0
 11
1191.887372
 21
-211.389078
 31
0.0
  0
LINE
  8
0
  6
BYLAYER
 62
     7
 10
1191.887372
 20
-203.389078
 30
0.0
 11
1199.725371
 21
-203.389078
 31
0.0
  0
LINE
  8
0
  6
BYLAYER
 62
     7
 10
1181.887372
 20
-203.389078
 30
0.0
 11
1189.887372
 21
-203.389078
 31
0.0
  0
LINE
  8
0
  6
BYLAYER
 62
     7
 10
1191.887372
 20
-211.389078
 30
0.0
 11
1199.725371
 21
-211.389078
 31
0.0
  0
LINE
  8
0
  6
BYLAYER
 62
     7
 10
1181.887372
 20
-211.389078
 30
0.0
 11
1189.887372
 21
-211.389078
 31
0.0
  0
LINE
  8
0
  6
BYLAYER
 62
     7
 10
1199.725371
 20
-203.389078
 30
0.0
 11
1199.725371
 21
-211.389078
 31
0.0
  0
LINE
  8
0
  6
BYLAYER
 62
     7
 10
1201.887372
 20
-211.389078
 30
0.0
 11
1201.887372
 21
-203.389078
 31
0.0
  0
LINE
  8
0
  6
BYLAYER
 62
     7
 10
1201.887372
 20
-203.389078
 30
0.0
 11
1209.887372
 21
-203.389078
 31
0.0
  0
LINE
  8
0
  6
BYLAYER
 62
     7
 10
1201.887372
 20
-211.389078
 30
0.0
 11
1209.887372
 21
-211.389078
 31
0.0
  0
LINE
  8
0
  6
BYLAYER
 62
     7
 10
1209.887372
 20
-203.389078
 30
0.0
 11
1209.887372
 21
-211.389078
 31
0.0
  0
LINE
  8
0
  6
BYLAYER
 62
     7
 10
1211.887372
 20
-201.389078
 30
0.0
 11
1211.887372
 21
-193.389078
 31
0.0
  0
LINE
  8
0
  6
BYLAYER
 62
     7
 10
1211.887372
 20
-193.389078
 30
0.0
 11
1219.887372
 21
-193.389078
 31
0.0
  0
LINE
  8
0
  6
BYLAYER
 62
     7
 10
1211.887372
 20
-201.389078
 30
0.0
 11
1219.887372
 21
-201.389078
 31
0.0
  0
LINE
  8
0
  6
BYLAYER
 62
     7
 10
1219.887372
 20
-193.389078
 30
0.0
 11
1219.887372
 21
-201.389078
 31
0.0
  0
LINE
  8
0
  6
BYLAYER
 62
     7
 10
1221.887372
 20
-191.389078
 30
0.0
 11
1221.887372
 21
-183.389078
 31
0.0
  0
LINE
  8
0
  6
BYLAYER
 62
     7
 10
1221.887372
 20
-183.389078
 30
0.0
 11
1229.887372
 21
-183.389078
 31
0.0
  0
LINE
  8
0
  6
BYLAYER
 62
     7
 10
1221.887372
 20
-191.389078
 30
0.0
 11
1229.887372
 21
-191.389078
 31
0.0
  0
LINE
  8
0
  6
BYLAYER
 62
     7
 10
1229.887372
 20
-183.389078
 30
0.0
 11
1229.887372
 21
-191.389078
 31
0.0
  0
LINE
  8
0
  6
BYLAYER
 62
     7
 10
1181.887372
 20
-221.389078
 30
0.0
 11
1181.887372
 21
-213.389078
 31
0.0
  0
LINE
  8
0
  6
BYLAYER
 62
     7
 10
1189.887372
 20
-213.389078
 30
0.0
 11
1189.887372
 21
-221.389078
 31
0.0
  0
LINE
  8
0
  6
BYLAYER
 62
     7
 10
1191.887372
 20
-213.389078
 30
0.0
 11
1191.887372
 21
-221.389078
 31
0.0
  0
LINE
  8
0
  6
BYLAYER
 62
     7
 10
1191.887372
 20
-213.389078
 30
0.0
 11
1199.725371
 21
-213.389078
 31
0.0
  0
LINE
  8
0
  6
BYLAYER
 62
     7
 10
1181.887372
 20
-213.389078
 30
0.0
 11
1189.887372
 21
-213.389078
 31
0.0
  0
LINE
  8
0
  6
BYLAYER
 62
     7
 10
1191.887372
 20
-221.389078
 30
0.0
 11
1199.725371
 21
-221.389078
 31
0.0
  0
LINE
  8
0
  6
BYLAYER
 62
     7
 10
1181.887372
 20
-221.389078
 30
0.0
 11
1189.887372
 21
-221.389078
 31
0.0
  0
LINE
  8
0
  6
BYLAYER
 62
     7
 10
1199.725371
 20
-213.389078
 30
0.0
 11
1199.725371
 21
-221.389078
 31
0.0
  0
LINE
  8
0
  6
BYLAYER
 62
     7
 10
1241.887372
 20
-163.389078
 30
0.0
 11
1249.887372
 21
-163.389078
 31
0.0
  0
LINE
  8
0
  6
BYLAYER
 62
     7
 10
1241.887372
 20
-171.389078
 30
0.0
 11
1241.887372
 21
-163.389078
 31
0.0
  0
LINE
  8
0
  6
BYLAYER
 62
     7
 10
1241.887372
 20
-171.389078
 30
0.0
 11
1249.887372
 21
-171.389078
 31
0.0
  0
LINE
  8
0
  6
BYLAYER
 62
     7
 10
1249.887372
 20
-163.389078
 30
0.0
 11
1249.887372
 21
-171.389078
 31
0.0
  0
LINE
  8
0
  6
BYLAYER
 62
     7
 10
1241.887372
 20
-153.389078
 30
0.0
 11
1249.887372
 21
-153.389078
 31
0.0
  0
LINE
  8
0
  6
BYLAYER
 62
     7
 10
1241.887372
 20
-161.389078
 30
0.0
 11
1241.887372
 21
-153.389078
 31
0.0
  0
LINE
  8
0
  6
BYLAYER
 62
     7
 10
1241.887372
 20
-161.389078
 30
0.0
 11
1249.887372
 21
-161.389078
 31
0.0
  0
LINE
  8
0
  6
BYLAYER
 62
     7
 10
1249.887372
 20
-153.389078
 30
0.0
 11
1249.887372
 21
-161.389078
 31
0.0
  0
LINE
  8
0
  6
BYLAYER
 62
     7
 10
1211.887372
 20
-211.389078
 30
0.0
 11
1211.887372
 21
-203.389078
 31
0.0
  0
LINE
  8
0
  6
BYLAYER
 62
     7
 10
1211.887372
 20
-203.389078
 30
0.0
 11
1219.887372
 21
-203.389078
 31
0.0
  0
LINE
  8
0
  6
BYLAYER
 62
     7
 10
1211.887372
 20
-211.389078
 30
0.0
 11
1219.887372
 21
-211.389078
 31
0.0
  0
LINE
  8
0
  6
BYLAYER
 62
     7
 10
1219.887372
 20
-203.389078
 30
0.0
 11
1219.887372
 21
-211.389078
 31
0.0
  0
LINE
  8
0
  6
BYLAYER
 62
     7
 10
1221.887372
 20
-201.389078
 30
0.0
 11
1221.887372
 21
-193.389078
 31
0.0
  0
LINE
  8
0
  6
BYLAYER
 62
     7
 10
1221.887372
 20
-193.389078
 30
0.0
 11
1229.887372
 21
-193.389078
 31
0.0
  0
LINE
  8
0
  6
BYLAYER
 62
     7
 10
1221.887372
 20
-201.389078
 30
0.0
 11
1229.887372
 21
-201.389078
 31
0.0
  0
LINE
  8
0
  6
BYLAYER
 62
     7
 10
1229.887372
 20
-193.389078
 30
0.0
 11
1229.887372
 21
-201.389078
 31
0.0
  0
LINE
  8
0
  6
BYLAYER
 62
     7
 10
1231.887372
 20
-191.389078
 30
0.0
 11
1231.887372
 21
-183.389078
 31
0.0
  0
LINE
  8
0
  6
BYLAYER
 62
     7
 10
1231.887372
 20
-183.389078
 30
0.0
 11
1239.887372
 21
-183.389078
 31
0.0
  0
LINE
  8
0
  6
BYLAYER
 62
     7
 10
1231.887372
 20
-191.389078
 30
0.0
 11
1239.887372
 21
-191.389078
 31
0.0
  0
LINE
  8
0
  6
BYLAYER
 62
     7
 10
1239.887372
 20
-183.389078
 30
0.0
 11
1239.887372
 21
-191.389078
 31
0.0
  0
LINE
  8
0
  6
BYLAYER
 62
     7
 10
1181.887372
 20
-231.389078
 30
0.0
 11
1181.887372
 21
-223.389078
 31
0.0
  0
LINE
  8
0
  6
BYLAYER
 62
     7
 10
1189.887372
 20
-223.389078
 30
0.0
 11
1189.887372
 21
-231.389078
 31
0.0
  0
LINE
  8
0
  6
BYLAYER
 62
     7
 10
1181.887372
 20
-223.389078
 30
0.0
 11
1189.887372
 21
-223.389078
 31
0.0
  0
LINE
  8
0
  6
BYLAYER
 62
     7
 10
1181.887372
 20
-231.389078
 30
0.0
 11
1189.887372
 21
-231.389078
 31
0.0
  0
LINE
  8
0
  6
BYLAYER
 62
     7
 10
1251.887372
 20
-153.389078
 30
0.0
 11
1259.887372
 21
-153.389078
 31
0.0
  0
LINE
  8
0
  6
BYLAYER
 62
     7
 10
1251.887372
 20
-161.389078
 30
0.0
 11
1251.887372
 21
-153.389078
 31
0.0
  0
LINE
  8
0
  6
BYLAYER
 62
     7
 10
1251.887372
 20
-161.389078
 30
0.0
 11
1259.887372
 21
-161.389078
 31
0.0
  0
LINE
  8
0
  6
BYLAYER
 62
     7
 10
1259.887372
 20
-153.389078
 30
0.0
 11
1259.887372
 21
-161.389078
 31
0.0
  0
LINE
  8
0
  6
BYLAYER
 62
     7
 10
1201.887372
 20
-221.389078
 30
0.0
 11
1201.887372
 21
-213.389078
 31
0.0
  0
LINE
  8
0
  6
BYLAYER
 62
     7
 10
1201.887372
 20
-213.389078
 30
0.0
 11
1209.887372
 21
-213.389078
 31
0.0
  0
LINE
  8
0
  6
BYLAYER
 62
     7
 10
1201.887372
 20
-221.389078
 30
0.0
 11
1209.887372
 21
-221.389078
 31
0.0
  0
LINE
  8
0
  6
BYLAYER
 62
     7
 10
1209.887372
 20
-213.389078
 30
0.0
 11
1209.887372
 21
-221.389078
 31
0.0
  0
LINE
  8
0
  6
BYLAYER
 62
     7
 10
1241.887372
 20
-181.389078
 30
0.0
 11
1241.887372
 21
-173.389078
 31
0.0
  0
LINE
  8
0
  6
BYLAYER
 62
     7
 10
1241.887372
 20
-173.389078
 30
0.0
 11
1249.887372
 21
-173.389078
 31
0.0
  0
LINE
  8
0
  6
BYLAYER
 62
     7
 10
1241.887372
 20
-181.389078
 30
0.0
 11
1249.887372
 21
-181.389078
 31
0.0
  0
LINE
  8
0
  6
BYLAYER
 62
     7
 10
1249.887372
 20
-173.389078
 30
0.0
 11
1249.887372
 21
-181.389078
 31
0.0
  0
LINE
  8
0
  6
BYLAYER
 62
     7
 10
1211.887372
 20
-221.389078
 30
0.0
 11
1211.887372
 21
-213.389078
 31
0.0
  0
LINE
  8
0
  6
BYLAYER
 62
     7
 10
1211.887372
 20
-213.389078
 30
0.0
 11
1219.887372
 21
-213.389078
 31
0.0
  0
LINE
  8
0
  6
BYLAYER
 62
     7
 10
1211.887372
 20
-221.389078
 30
0.0
 11
1219.887372
 21
-221.389078
 31
0.0
  0
LINE
  8
0
  6
BYLAYER
 62
     7
 10
1219.887372
 20
-213.389078
 30
0.0
 11
1219.887372
 21
-221.389078
 31
0.0
  0
LINE
  8
0
  6
BYLAYER
 62
     7
 10
1221.887372
 20
-211.389078
 30
0.0
 11
1221.887372
 21
-203.389078
 31
0.0
  0
LINE
  8
0
  6
BYLAYER
 62
     7
 10
1221.887372
 20
-203.389078
 30
0.0
 11
1229.887372
 21
-203.389078
 31
0.0
  0
LINE
  8
0
  6
BYLAYER
 62
     7
 10
1221.887372
 20
-211.389078
 30
0.0
 11
1229.887372
 21
-211.389078
 31
0.0
  0
LINE
  8
0
  6
BYLAYER
 62
     7
 10
1229.887372
 20
-203.389078
 30
0.0
 11
1229.887372
 21
-211.389078
 31
0.0
  0
LINE
  8
0
  6
BYLAYER
 62
     7
 10
1231.887372
 20
-201.389078
 30
0.0
 11
1231.887372
 21
-193.389078
 31
0.0
  0
LINE
  8
0
  6
BYLAYER
 62
     7
 10
1231.887372
 20
-193.389078
 30
0.0
 11
1239.887372
 21
-193.389078
 31
0.0
  0
LINE
  8
0
  6
BYLAYER
 62
     7
 10
1231.887372
 20
-201.389078
 30
0.0
 11
1239.887372
 21
-201.389078
 31
0.0
  0
LINE
  8
0
  6
BYLAYER
 62
     7
 10
1239.887372
 20
-193.389078
 30
0.0
 11
1239.887372
 21
-201.389078
 31
0.0
  0
LINE
  8
0
  6
BYLAYER
 62
     7
 10
1241.887372
 20
-191.389078
 30
0.0
 11
1241.887372
 21
-183.389078
 31
0.0
  0
LINE
  8
0
  6
BYLAYER
 62
     7
 10
1241.887372
 20
-183.389078
 30
0.0
 11
1249.887372
 21
-183.389078
 31
0.0
  0
LINE
  8
0
  6
BYLAYER
 62
     7
 10
1241.887372
 20
-191.389078
 30
0.0
 11
1249.887372
 21
-191.389078
 31
0.0
  0
LINE
  8
0
  6
BYLAYER
 62
     7
 10
1249.887372
 20
-183.389078
 30
0.0
 11
1249.887372
 21
-191.389078
 31
0.0
  0
LINE
  8
0
  6
BYLAYER
 62
     7
 10
1191.887372
 20
-223.389078
 30
0.0
 11
1191.887372
 21
-231.389078
 31
0.0
  0
LINE
  8
0
  6
BYLAYER
 62
     7
 10
1191.887372
 20
-223.389078
 30
0.0
 11
1199.725371
 21
-223.389078
 31
0.0
  0
LINE
  8
0
  6
BYLAYER
 62
     7
 10
1191.887372
 20
-231.389078
 30
0.0
 11
1199.725371
 21
-231.389078
 31
0.0
  0
LINE
  8
0
  6
BYLAYER
 62
     7
 10
1199.725371
 20
-223.389078
 30
0.0
 11
1199.725371
 21
-231.389078
 31
0.0
  0
LINE
  8
0
  6
BYLAYER
 62
     7
 10
1251.887372
 20
-163.389078
 30
0.0
 11
1259.887372
 21
-163.389078
 31
0.0
  0
LINE
  8
0
  6
BYLAYER
 62
     7
 10
1251.887372
 20
-171.389078
 30
0.0
 11
1251.887372
 21
-163.389078
 31
0.0
  0
LINE
  8
0
  6
BYLAYER
 62
     7
 10
1251.887372
 20
-171.389078
 30
0.0
 11
1259.887372
 21
-171.389078
 31
0.0
  0
LINE
  8
0
  6
BYLAYER
 62
     7
 10
1259.887372
 20
-163.389078
 30
0.0
 11
1259.887372
 21
-171.389078
 31
0.0
  0
LINE
  8
0
  6
BYLAYER
 62
     7
 10
1179.887372
 20
-123.389078
 30
0.0
 11
1179.887372
 21
-131.389078
 31
0.0
  0
LINE
  8
0
  6
BYLAYER
 62
     7
 10
1179.887372
 20
-113.389078
 30
0.0
 11
1179.887372
 21
-121.389078
 31
0.0
  0
LINE
  8
0
  6
BYLAYER
 62
     7
 10
1171.887372
 20
-121.389078
 30
0.0
 11
1171.887372
 21
-113.389078
 31
0.0
  0
LINE
  8
0
  6
BYLAYER
 62
     7
 10
1169.887372
 20
-121.389078
 30
0.0
 11
1169.887372
 21
-113.389078
 31
0.0
  0
LINE
  8
0
  6
BYLAYER
 62
     7
 10
1179.887372
 20
-131.389078
 30
0.0
 11
1171.887372
 21
-131.389078
 31
0.0
  0
LINE
  8
0
  6
BYLAYER
 62
     7
 10
1179.887372
 20
-123.389078
 30
0.0
 11
1171.887372
 21
-123.389078
 31
0.0
  0
LINE
  8
0
  6
BYLAYER
 62
     7
 10
1169.887372
 20
-121.389078
 30
0.0
 11
1162.049373
 21
-121.389078
 31
0.0
  0
LINE
  8
0
  6
BYLAYER
 62
     7
 10
1179.887372
 20
-121.389078
 30
0.0
 11
1171.887372
 21
-121.389078
 31
0.0
  0
LINE
  8
0
  6
BYLAYER
 62
     7
 10
1169.887372
 20
-113.389078
 30
0.0
 11
1162.049373
 21
-113.389078
 31
0.0
  0
LINE
  8
0
  6
BYLAYER
 62
     7
 10
1179.887372
 20
-113.389078
 30
0.0
 11
1171.887372
 21
-113.389078
 31
0.0
  0
LINE
  8
0
  6
BYLAYER
 62
     7
 10
1162.049373
 20
-121.389078
 30
0.0
 11
1162.049373
 21
-113.389078
 31
0.0
  0
LINE
  8
0
  6
BYLAYER
 62
     7
 10
1171.887372
 20
-131.389078
 30
0.0
 11
1171.887372
 21
-123.389078
 31
0.0
  0
LINE
  8
0
  6
BYLAYER
 62
     7
 10
1169.887372
 20
-123.389078
 30
0.0
 11
1169.887372
 21
-131.389078
 31
0.0
  0
LINE
  8
0
  6
BYLAYER
 62
     7
 10
1169.887372
 20
-131.389078
 30
0.0
 11
1161.887372
 21
-131.389078
 31
0.0
  0
LINE
  8
0
  6
BYLAYER
 62
     7
 10
1169.887372
 20
-123.389078
 30
0.0
 11
1161.887372
 21
-123.389078
 31
0.0
  0
LINE
  8
0
  6
BYLAYER
 62
     7
 10
1161.887372
 20
-131.389078
 30
0.0
 11
1161.887372
 21
-123.389078
 31
0.0
  0
LINE
  8
0
  6
BYLAYER
 62
     7
 10
1159.887372
 20
-141.389078
 30
0.0
 11
1151.887372
 21
-141.389078
 31
0.0
  0
LINE
  8
0
  6
BYLAYER
 62
     7
 10
1159.887372
 20
-123.389078
 30
0.0
 11
1159.887372
 21
-131.389078
 31
0.0
  0
LINE
  8
0
  6
BYLAYER
 62
     7
 10
1159.887372
 20
-133.389078
 30
0.0
 11
1159.887372
 21
-141.389078
 31
0.0
  0
LINE
  8
0
  6
BYLAYER
 62
     7
 10
1159.887372
 20
-133.389078
 30
0.0
 11
1151.887372
 21
-133.389078
 31
0.0
  0
LINE
  8
0
  6
BYLAYER
 62
     7
 10
1159.887372
 20
-131.389078
 30
0.0
 11
1151.887372
 21
-131.389078
 31
0.0
  0
LINE
  8
0
  6
BYLAYER
 62
     7
 10
1159.887372
 20
-123.389078
 30
0.0
 11
1151.887372
 21
-123.389078
 31
0.0
  0
LINE
  8
0
  6
BYLAYER
 62
     7
 10
1151.887372
 20
-141.389078
 30
0.0
 11
1151.887372
 21
-133.389078
 31
0.0
  0
LINE
  8
0
  6
BYLAYER
 62
     7
 10
1151.887372
 20
-131.389078
 30
0.0
 11
1151.887372
 21
-123.389078
 31
0.0
  0
LINE
  8
0
  6
BYLAYER
 62
     7
 10
1159.887372
 20
-151.389078
 30
0.0
 11
1151.887372
 21
-151.389078
 31
0.0
  0
LINE
  8
0
  6
BYLAYER
 62
     7
 10
1159.887372
 20
-143.389078
 30
0.0
 11
1159.887372
 21
-151.389078
 31
0.0
  0
LINE
  8
0
  6
BYLAYER
 62
     7
 10
1159.887372
 20
-143.389078
 30
0.0
 11
1151.887372
 21
-143.389078
 31
0.0
  0
LINE
  8
0
  6
BYLAYER
 62
     7
 10
1151.887372
 20
-151.389078
 30
0.0
 11
1151.887372
 21
-143.389078
 31
0.0
  0
LINE
  8
0
  6
BYLAYER
 62
     7
 10
1149.887372
 20
-141.389078
 30
0.0
 11
1141.887372
 21
-141.389078
 31
0.0
  0
LINE
  8
0
  6
BYLAYER
 62
     7
 10
1149.887372
 20
-133.389078
 30
0.0
 11
1149.887372
 21
-141.389078
 31
0.0
  0
LINE
  8
0
  6
BYLAYER
 62
     7
 10
1149.887372
 20
-133.389078
 30
0.0
 11
1141.887372
 21
-133.389078
 31
0.0
  0
LINE
  8
0
  6
BYLAYER
 62
     7
 10
1141.887372
 20
-141.389078
 30
0.0
 11
1141.887372
 21
-133.389078
 31
0.0
  0
LINE
  8
0
  6
BYLAYER
 62
     7
 10
1149.887372
 20
-151.389078
 30
0.0
 11
1141.887372
 21
-151.389078
 31
0.0
  0
LINE
  8
0
  6
BYLAYER
 62
     7
 10
1149.887372
 20
-143.389078
 30
0.0
 11
1149.887372
 21
-151.389078
 31
0.0
  0
LINE
  8
0
  6
BYLAYER
 62
     7
 10
1149.887372
 20
-143.389078
 30
0.0
 11
1141.887372
 21
-143.389078
 31
0.0
  0
LINE
  8
0
  6
BYLAYER
 62
     7
 10
1141.887372
 20
-151.389078
 30
0.0
 11
1141.887372
 21
-143.389078
 31
0.0
  0
LINE
  8
0
  6
BYLAYER
 62
     7
 10
1139.887372
 20
-141.389078
 30
0.0
 11
1131.887372
 21
-141.389078
 31
0.0
  0
LINE
  8
0
  6
BYLAYER
 62
     7
 10
1139.887372
 20
-133.389078
 30
0.0
 11
1139.887372
 21
-141.389078
 31
0.0
  0
LINE
  8
0
  6
BYLAYER
 62
     7
 10
1139.887372
 20
-133.389078
 30
0.0
 11
1131.887372
 21
-133.389078
 31
0.0
  0
LINE
  8
0
  6
BYLAYER
 62
     7
 10
1131.887372
 20
-141.389078
 30
0.0
 11
1131.887372
 21
-133.389078
 31
0.0
  0
LINE
  8
0
  6
BYLAYER
 62
     7
 10
1139.887372
 20
-151.389078
 30
0.0
 11
1131.887372
 21
-151.389078
 31
0.0
  0
LINE
  8
0
  6
BYLAYER
 62
     7
 10
1139.887372
 20
-143.389078
 30
0.0
 11
1139.887372
 21
-151.389078
 31
0.0
  0
LINE
  8
0
  6
BYLAYER
 62
     7
 10
1139.887372
 20
-143.389078
 30
0.0
 11
1131.887372
 21
-143.389078
 31
0.0
  0
LINE
  8
0
  6
BYLAYER
 62
     7
 10
1131.887372
 20
-151.389078
 30
0.0
 11
1131.887372
 21
-143.389078
 31
0.0
  0
LINE
  8
0
  6
BYLAYER
 62
     7
 10
1179.887372
 20
-103.389078
 30
0.0
 11
1179.887372
 21
-111.389078
 31
0.0
  0
LINE
  8
0
  6
BYLAYER
 62
     7
 10
1171.887372
 20
-111.389078
 30
0.0
 11
1171.887372
 21
-103.389078
 31
0.0
  0
LINE
  8
0
  6
BYLAYER
 62
     7
 10
1169.887372
 20
-111.389078
 30
0.0
 11
1169.887372
 21
-103.389078
 31
0.0
  0
LINE
  8
0
  6
BYLAYER
 62
     7
 10
1169.887372
 20
-111.389078
 30
0.0
 11
1162.049373
 21
-111.389078
 31
0.0
  0
LINE
  8
0
  6
BYLAYER
 62
     7
 10
1179.887372
 20
-111.389078
 30
0.0
 11
1171.887372
 21
-111.389078
 31
0.0
  0
LINE
  8
0
  6
BYLAYER
 62
     7
 10
1169.887372
 20
-103.389078
 30
0.0
 11
1162.049373
 21
-103.389078
 31
0.0
  0
LINE
  8
0
  6
BYLAYER
 62
     7
 10
1179.887372
 20
-103.389078
 30
0.0
 11
1171.887372
 21
-103.389078
 31
0.0
  0
LINE
  8
0
  6
BYLAYER
 62
     7
 10
1162.049373
 20
-111.389078
 30
0.0
 11
1162.049373
 21
-103.389078
 31
0.0
  0
LINE
  8
0
  6
BYLAYER
 62
     7
 10
1159.887372
 20
-113.389078
 30
0.0
 11
1159.887372
 21
-121.389078
 31
0.0
  0
LINE
  8
0
  6
BYLAYER
 62
     7
 10
1159.887372
 20
-121.389078
 30
0.0
 11
1151.887372
 21
-121.389078
 31
0.0
  0
LINE
  8
0
  6
BYLAYER
 62
     7
 10
1159.887372
 20
-113.389078
 30
0.0
 11
1151.887372
 21
-113.389078
 31
0.0
  0
LINE
  8
0
  6
BYLAYER
 62
     7
 10
1151.887372
 20
-121.389078
 30
0.0
 11
1151.887372
 21
-113.389078
 31
0.0
  0
LINE
  8
0
  6
BYLAYER
 62
     7
 10
1159.887372
 20
-103.389078
 30
0.0
 11
1159.887372
 21
-111.389078
 31
0.0
  0
LINE
  8
0
  6
BYLAYER
 62
     7
 10
1159.887372
 20
-111.389078
 30
0.0
 11
1151.887372
 21
-111.389078
 31
0.0
  0
LINE
  8
0
  6
BYLAYER
 62
     7
 10
1159.887372
 20
-103.389078
 30
0.0
 11
1151.887372
 21
-103.389078
 31
0.0
  0
LINE
  8
0
  6
BYLAYER
 62
     7
 10
1151.887372
 20
-111.389078
 30
0.0
 11
1151.887372
 21
-103.389078
 31
0.0
  0
LINE
  8
0
  6
BYLAYER
 62
     7
 10
1149.887372
 20
-123.389078
 30
0.0
 11
1149.887372
 21
-131.389078
 31
0.0
  0
LINE
  8
0
  6
BYLAYER
 62
     7
 10
1149.887372
 20
-131.389078
 30
0.0
 11
1141.887372
 21
-131.389078
 31
0.0
  0
LINE
  8
0
  6
BYLAYER
 62
     7
 10
1149.887372
 20
-123.389078
 30
0.0
 11
1141.887372
 21
-123.389078
 31
0.0
  0
LINE
  8
0
  6
BYLAYER
 62
     7
 10
1141.887372
 20
-131.389078
 30
0.0
 11
1141.887372
 21
-123.389078
 31
0.0
  0
LINE
  8
0
  6
BYLAYER
 62
     7
 10
1149.887372
 20
-113.389078
 30
0.0
 11
1149.887372
 21
-121.389078
 31
0.0
  0
LINE
  8
0
  6
BYLAYER
 62
     7
 10
1149.887372
 20
-121.389078
 30
0.0
 11
1141.887372
 21
-121.389078
 31
0.0
  0
LINE
  8
0
  6
BYLAYER
 62
     7
 10
1149.887372
 20
-113.389078
 30
0.0
 11
1141.887372
 21
-113.389078
 31
0.0
  0
LINE
  8
0
  6
BYLAYER
 62
     7
 10
1141.887372
 20
-121.389078
 30
0.0
 11
1141.887372
 21
-113.389078
 31
0.0
  0
LINE
  8
0
  6
BYLAYER
 62
     7
 10
1139.887372
 20
-123.389078
 30
0.0
 11
1139.887372
 21
-131.389078
 31
0.0
  0
LINE
  8
0
  6
BYLAYER
 62
     7
 10
1139.887372
 20
-131.389078
 30
0.0
 11
1131.887372
 21
-131.389078
 31
0.0
  0
LINE
  8
0
  6
BYLAYER
 62
     7
 10
1139.887372
 20
-123.389078
 30
0.0
 11
1131.887372
 21
-123.389078
 31
0.0
  0
LINE
  8
0
  6
BYLAYER
 62
     7
 10
1131.887372
 20
-131.389078
 30
0.0
 11
1131.887372
 21
-123.389078
 31
0.0
  0
LINE
  8
0
  6
BYLAYER
 62
     7
 10
1129.887372
 20
-141.389078
 30
0.0
 11
1121.887372
 21
-141.389078
 31
0.0
  0
LINE
  8
0
  6
BYLAYER
 62
     7
 10
1129.887372
 20
-133.389078
 30
0.0
 11
1129.887372
 21
-141.389078
 31
0.0
  0
LINE
  8
0
  6
BYLAYER
 62
     7
 10
1129.887372
 20
-133.389078
 30
0.0
 11
1121.887372
 21
-133.389078
 31
0.0
  0
LINE
  8
0
  6
BYLAYER
 62
     7
 10
1121.887372
 20
-141.389078
 30
0.0
 11
1121.887372
 21
-133.389078
 31
0.0
  0
LINE
  8
0
  6
BYLAYER
 62
     7
 10
1129.887372
 20
-151.389078
 30
0.0
 11
1121.887372
 21
-151.389078
 31
0.0
  0
LINE
  8
0
  6
BYLAYER
 62
     7
 10
1129.887372
 20
-143.389078
 30
0.0
 11
1129.887372
 21
-151.389078
 31
0.0
  0
LINE
  8
0
  6
BYLAYER
 62
     7
 10
1129.887372
 20
-143.389078
 30
0.0
 11
1121.887372
 21
-143.389078
 31
0.0
  0
LINE
  8
0
  6
BYLAYER
 62
     7
 10
1121.887372
 20
-151.389078
 30
0.0
 11
1121.887372
 21
-143.389078
 31
0.0
  0
LINE
  8
0
  6
BYLAYER
 62
     7
 10
1129.887372
 20
-123.389078
 30
0.0
 11
1129.887372
 21
-131.389078
 31
0.0
  0
LINE
  8
0
  6
BYLAYER
 62
     7
 10
1129.887372
 20
-131.389078
 30
0.0
 11
1121.887372
 21
-131.389078
 31
0.0
  0
LINE
  8
0
  6
BYLAYER
 62
     7
 10
1129.887372
 20
-123.389078
 30
0.0
 11
1121.887372
 21
-123.389078
 31
0.0
  0
LINE
  8
0
  6
BYLAYER
 62
     7
 10
1121.887372
 20
-131.389078
 30
0.0
 11
1121.887372
 21
-123.389078
 31
0.0
  0
LINE
  8
0
  6
BYLAYER
 62
     7
 10
1179.887372
 20
-93.389078
 30
0.0
 11
1179.887372
 21
-101.389078
 31
0.0
  0
LINE
  8
0
  6
BYLAYER
 62
     7
 10
1171.887372
 20
-101.389078
 30
0.0
 11
1171.887372
 21
-93.389078
 31
0.0
  0
LINE
  8
0
  6
BYLAYER
 62
     7
 10
1169.887372
 20
-101.389078
 30
0.0
 11
1169.887372
 21
-93.389078
 31
0.0
  0
LINE
  8
0
  6
BYLAYER
 62
     7
 10
1169.887372
 20
-101.389078
 30
0.0
 11
1162.049373
 21
-101.389078
 31
0.0
  0
LINE
  8
0
  6
BYLAYER
 62
     7
 10
1179.887372
 20
-101.389078
 30
0.0
 11
1171.887372
 21
-101.389078
 31
0.0
  0
LINE
  8
0
  6
BYLAYER
 62
     7
 10
1169.887372
 20
-93.389078
 30
0.0
 11
1162.049373
 21
-93.389078
 31
0.0
  0
LINE
  8
0
  6
BYLAYER
 62
     7
 10
1179.887372
 20
-93.389078
 30
0.0
 11
1171.887372
 21
-93.389078
 31
0.0
  0
LINE
  8
0
  6
BYLAYER
 62
     7
 10
1162.049373
 20
-101.389078
 30
0.0
 11
1162.049373
 21
-93.389078
 31
0.0
  0
LINE
  8
0
  6
BYLAYER
 62
     7
 10
1159.887372
 20
-93.389078
 30
0.0
 11
1159.887372
 21
-101.389078
 31
0.0
  0
LINE
  8
0
  6
BYLAYER
 62
     7
 10
1159.887372
 20
-101.389078
 30
0.0
 11
1151.887372
 21
-101.389078
 31
0.0
  0
LINE
  8
0
  6
BYLAYER
 62
     7
 10
1159.887372
 20
-93.389078
 30
0.0
 11
1151.887372
 21
-93.389078
 31
0.0
  0
LINE
  8
0
  6
BYLAYER
 62
     7
 10
1151.887372
 20
-101.389078
 30
0.0
 11
1151.887372
 21
-93.389078
 31
0.0
  0
LINE
  8
0
  6
BYLAYER
 62
     7
 10
1149.887372
 20
-103.389078
 30
0.0
 11
1149.887372
 21
-111.389078
 31
0.0
  0
LINE
  8
0
  6
BYLAYER
 62
     7
 10
1149.887372
 20
-111.389078
 30
0.0
 11
1141.887372
 21
-111.389078
 31
0.0
  0
LINE
  8
0
  6
BYLAYER
 62
     7
 10
1149.887372
 20
-103.389078
 30
0.0
 11
1141.887372
 21
-103.389078
 31
0.0
  0
LINE
  8
0
  6
BYLAYER
 62
     7
 10
1141.887372
 20
-111.389078
 30
0.0
 11
1141.887372
 21
-103.389078
 31
0.0
  0
LINE
  8
0
  6
BYLAYER
 62
     7
 10
1139.887372
 20
-113.389078
 30
0.0
 11
1139.887372
 21
-121.389078
 31
0.0
  0
LINE
  8
0
  6
BYLAYER
 62
     7
 10
1139.887372
 20
-121.389078
 30
0.0
 11
1131.887372
 21
-121.389078
 31
0.0
  0
LINE
  8
0
  6
BYLAYER
 62
     7
 10
1139.887372
 20
-113.389078
 30
0.0
 11
1131.887372
 21
-113.389078
 31
0.0
  0
LINE
  8
0
  6
BYLAYER
 62
     7
 10
1131.887372
 20
-121.389078
 30
0.0
 11
1131.887372
 21
-113.389078
 31
0.0
  0
LINE
  8
0
  6
BYLAYER
 62
     7
 10
1179.887372
 20
-83.389078
 30
0.0
 11
1179.887372
 21
-91.389078
 31
0.0
  0
LINE
  8
0
  6
BYLAYER
 62
     7
 10
1171.887372
 20
-91.389078
 30
0.0
 11
1171.887372
 21
-83.389078
 31
0.0
  0
LINE
  8
0
  6
BYLAYER
 62
     7
 10
1169.887372
 20
-91.389078
 30
0.0
 11
1169.887372
 21
-83.389078
 31
0.0
  0
LINE
  8
0
  6
BYLAYER
 62
     7
 10
1169.887372
 20
-91.389078
 30
0.0
 11
1162.049373
 21
-91.389078
 31
0.0
  0
LINE
  8
0
  6
BYLAYER
 62
     7
 10
1179.887372
 20
-91.389078
 30
0.0
 11
1171.887372
 21
-91.389078
 31
0.0
  0
LINE
  8
0
  6
BYLAYER
 62
     7
 10
1169.887372
 20
-83.389078
 30
0.0
 11
1162.049373
 21
-83.389078
 31
0.0
  0
LINE
  8
0
  6
BYLAYER
 62
     7
 10
1179.887372
 20
-83.389078
 30
0.0
 11
1171.887372
 21
-83.389078
 31
0.0
  0
LINE
  8
0
  6
BYLAYER
 62
     7
 10
1162.049373
 20
-91.389078
 30
0.0
 11
1162.049373
 21
-83.389078
 31
0.0
  0
LINE
  8
0
  6
BYLAYER
 62
     7
 10
1119.887372
 20
-141.389078
 30
0.0
 11
1111.887372
 21
-141.389078
 31
0.0
  0
LINE
  8
0
  6
BYLAYER
 62
     7
 10
1119.887372
 20
-133.389078
 30
0.0
 11
1119.887372
 21
-141.389078
 31
0.0
  0
LINE
  8
0
  6
BYLAYER
 62
     7
 10
1119.887372
 20
-133.389078
 30
0.0
 11
1111.887372
 21
-133.389078
 31
0.0
  0
LINE
  8
0
  6
BYLAYER
 62
     7
 10
1111.887372
 20
-141.389078
 30
0.0
 11
1111.887372
 21
-133.389078
 31
0.0
  0
LINE
  8
0
  6
BYLAYER
 62
     7
 10
1119.887372
 20
-151.389078
 30
0.0
 11
1111.887372
 21
-151.389078
 31
0.0
  0
LINE
  8
0
  6
BYLAYER
 62
     7
 10
1119.887372
 20
-143.389078
 30
0.0
 11
1119.887372
 21
-151.389078
 31
0.0
  0
LINE
  8
0
  6
BYLAYER
 62
     7
 10
1119.887372
 20
-143.389078
 30
0.0
 11
1111.887372
 21
-143.389078
 31
0.0
  0
LINE
  8
0
  6
BYLAYER
 62
     7
 10
1111.887372
 20
-151.389078
 30
0.0
 11
1111.887372
 21
-143.389078
 31
0.0
  0
LINE
  8
0
  6
BYLAYER
 62
     7
 10
1149.887372
 20
-93.389078
 30
0.0
 11
1149.887372
 21
-101.389078
 31
0.0
  0
LINE
  8
0
  6
BYLAYER
 62
     7
 10
1149.887372
 20
-101.389078
 30
0.0
 11
1141.887372
 21
-101.389078
 31
0.0
  0
LINE
  8
0
  6
BYLAYER
 62
     7
 10
1149.887372
 20
-93.389078
 30
0.0
 11
1141.887372
 21
-93.389078
 31
0.0
  0
LINE
  8
0
  6
BYLAYER
 62
     7
 10
1141.887372
 20
-101.389078
 30
0.0
 11
1141.887372
 21
-93.389078
 31
0.0
  0
LINE
  8
0
  6
BYLAYER
 62
     7
 10
1139.887372
 20
-103.389078
 30
0.0
 11
1139.887372
 21
-111.389078
 31
0.0
  0
LINE
  8
0
  6
BYLAYER
 62
     7
 10
1139.887372
 20
-111.389078
 30
0.0
 11
1131.887372
 21
-111.389078
 31
0.0
  0
LINE
  8
0
  6
BYLAYER
 62
     7
 10
1139.887372
 20
-103.389078
 30
0.0
 11
1131.887372
 21
-103.389078
 31
0.0
  0
LINE
  8
0
  6
BYLAYER
 62
     7
 10
1131.887372
 20
-111.389078
 30
0.0
 11
1131.887372
 21
-103.389078
 31
0.0
  0
LINE
  8
0
  6
BYLAYER
 62
     7
 10
1129.887372
 20
-113.389078
 30
0.0
 11
1129.887372
 21
-121.389078
 31
0.0
  0
LINE
  8
0
  6
BYLAYER
 62
     7
 10
1129.887372
 20
-121.389078
 30
0.0
 11
1121.887372
 21
-121.389078
 31
0.0
  0
LINE
  8
0
  6
BYLAYER
 62
     7
 10
1129.887372
 20
-113.389078
 30
0.0
 11
1121.887372
 21
-113.389078
 31
0.0
  0
LINE
  8
0
  6
BYLAYER
 62
     7
 10
1121.887372
 20
-121.389078
 30
0.0
 11
1121.887372
 21
-113.389078
 31
0.0
  0
LINE
  8
0
  6
BYLAYER
 62
     7
 10
1179.887372
 20
-73.389078
 30
0.0
 11
1179.887372
 21
-81.389078
 31
0.0
  0
LINE
  8
0
  6
BYLAYER
 62
     7
 10
1171.887372
 20
-81.389078
 30
0.0
 11
1171.887372
 21
-73.389078
 31
0.0
  0
LINE
  8
0
  6
BYLAYER
 62
     7
 10
1179.887372
 20
-81.389078
 30
0.0
 11
1171.887372
 21
-81.389078
 31
0.0
  0
LINE
  8
0
  6
BYLAYER
 62
     7
 10
1179.887372
 20
-73.389078
 30
0.0
 11
1171.887372
 21
-73.389078
 31
0.0
  0
LINE
  8
0
  6
BYLAYER
 62
     7
 10
1109.887372
 20
-151.389078
 30
0.0
 11
1101.887372
 21
-151.389078
 31
0.0
  0
LINE
  8
0
  6
BYLAYER
 62
     7
 10
1109.887372
 20
-143.389078
 30
0.0
 11
1109.887372
 21
-151.389078
 31
0.0
  0
LINE
  8
0
  6
BYLAYER
 62
     7
 10
1109.887372
 20
-143.389078
 30
0.0
 11
1101.887372
 21
-143.389078
 31
0.0
  0
LINE
  8
0
  6
BYLAYER
 62
     7
 10
1101.887372
 20
-151.389078
 30
0.0
 11
1101.887372
 21
-143.389078
 31
0.0
  0
LINE
  8
0
  6
BYLAYER
 62
     7
 10
1159.887372
 20
-83.389078
 30
0.0
 11
1159.887372
 21
-91.389078
 31
0.0
  0
LINE
  8
0
  6
BYLAYER
 62
     7
 10
1159.887372
 20
-91.389078
 30
0.0
 11
1151.887372
 21
-91.389078
 31
0.0
  0
LINE
  8
0
  6
BYLAYER
 62
     7
 10
1159.887372
 20
-83.389078
 30
0.0
 11
1151.887372
 21
-83.389078
 31
0.0
  0
LINE
  8
0
  6
BYLAYER
 62
     7
 10
1151.887372
 20
-91.389078
 30
0.0
 11
1151.887372
 21
-83.389078
 31
0.0
  0
LINE
  8
0
  6
BYLAYER
 62
     7
 10
1119.887372
 20
-123.389078
 30
0.0
 11
1119.887372
 21
-131.389078
 31
0.0
  0
LINE
  8
0
  6
BYLAYER
 62
     7
 10
1119.887372
 20
-131.389078
 30
0.0
 11
1111.887372
 21
-131.389078
 31
0.0
  0
LINE
  8
0
  6
BYLAYER
 62
     7
 10
1119.887372
 20
-123.389078
 30
0.0
 11
1111.887372
 21
-123.389078
 31
0.0
  0
LINE
  8
0
  6
BYLAYER
 62
     7
 10
1111.887372
 20
-131.389078
 30
0.0
 11
1111.887372
 21
-123.389078
 31
0.0
  0
LINE
  8
0
  6
BYLAYER
 62
     7
 10
1149.887372
 20
-83.389078
 30
0.0
 11
1149.887372
 21
-91.389078
 31
0.0
  0
LINE
  8
0
  6
BYLAYER
 62
     7
 10
1149.887372
 20
-91.389078
 30
0.0
 11
1141.887372
 21
-91.389078
 31
0.0
  0
LINE
  8
0
  6
BYLAYER
 62
     7
 10
1149.887372
 20
-83.389078
 30
0.0
 11
1141.887372
 21
-83.389078
 31
0.0
  0
LINE
  8
0
  6
BYLAYER
 62
     7
 10
1141.887372
 20
-91.389078
 30
0.0
 11
1141.887372
 21
-83.389078
 31
0.0
  0
LINE
  8
0
  6
BYLAYER
 62
     7
 10
1139.887372
 20
-93.389078
 30
0.0
 11
1139.887372
 21
-101.389078
 31
0.0
  0
LINE
  8
0
  6
BYLAYER
 62
     7
 10
1139.887372
 20
-101.389078
 30
0.0
 11
1131.887372
 21
-101.389078
 31
0.0
  0
LINE
  8
0
  6
BYLAYER
 62
     7
 10
1139.887372
 20
-93.389078
 30
0.0
 11
1131.887372
 21
-93.389078
 31
0.0
  0
LINE
  8
0
  6
BYLAYER
 62
     7
 10
1131.887372
 20
-101.389078
 30
0.0
 11
1131.887372
 21
-93.389078
 31
0.0
  0
LINE
  8
0
  6
BYLAYER
 62
     7
 10
1129.887372
 20
-103.389078
 30
0.0
 11
1129.887372
 21
-111.389078
 31
0.0
  0
LINE
  8
0
  6
BYLAYER
 62
     7
 10
1129.887372
 20
-111.389078
 30
0.0
 11
1121.887372
 21
-111.389078
 31
0.0
  0
LINE
  8
0
  6
BYLAYER
 62
     7
 10
1129.887372
 20
-103.389078
 30
0.0
 11
1121.887372
 21
-103.389078
 31
0.0
  0
LINE
  8
0
  6
BYLAYER
 62
     7
 10
1121.887372
 20
-111.389078
 30
0.0
 11
1121.887372
 21
-103.389078
 31
0.0
  0
LINE
  8
0
  6
BYLAYER
 62
     7
 10
1119.887372
 20
-113.389078
 30
0.0
 11
1119.887372
 21
-121.389078
 31
0.0
  0
LINE
  8
0
  6
BYLAYER
 62
     7
 10
1119.887372
 20
-121.389078
 30
0.0
 11
1111.887372
 21
-121.389078
 31
0.0
  0
LINE
  8
0
  6
BYLAYER
 62
     7
 10
1119.887372
 20
-113.389078
 30
0.0
 11
1111.887372
 21
-113.389078
 31
0.0
  0
LINE
  8
0
  6
BYLAYER
 62
     7
 10
1111.887372
 20
-121.389078
 30
0.0
 11
1111.887372
 21
-113.389078
 31
0.0
  0
LINE
  8
0
  6
BYLAYER
 62
     7
 10
1169.887372
 20
-81.389078
 30
0.0
 11
1169.887372
 21
-73.389078
 31
0.0
  0
LINE
  8
0
  6
BYLAYER
 62
     7
 10
1169.887372
 20
-81.389078
 30
0.0
 11
1162.049373
 21
-81.389078
 31
0.0
  0
LINE
  8
0
  6
BYLAYER
 62
     7
 10
1169.887372
 20
-73.389078
 30
0.0
 11
1162.049373
 21
-73.389078
 31
0.0
  0
LINE
  8
0
  6
BYLAYER
 62
     7
 10
1162.049373
 20
-81.389078
 30
0.0
 11
1162.049373
 21
-73.389078
 31
0.0
  0
LINE
  8
0
  6
BYLAYER
 62
     7
 10
1109.887372
 20
-141.389078
 30
0.0
 11
1101.887372
 21
-141.389078
 31
0.0
  0
LINE
  8
0
  6
BYLAYER
 62
     7
 10
1109.887372
 20
-133.389078
 30
0.0
 11
1109.887372
 21
-141.389078
 31
0.0
  0
LINE
  8
0
  6
BYLAYER
 62
     7
 10
1109.887372
 20
-133.389078
 30
0.0
 11
1101.887372
 21
-133.389078
 31
0.0
  0
LINE
  8
0
  6
BYLAYER
 62
     7
 10
1101.887372
 20
-141.389078
 30
0.0
 11
1101.887372
 21
-133.389078
 31
0.0
  0
LINE
  8
0
  6
BYLAYER
 62
     7
 10
1179.887372
 20
-181.389078
 30
0.0
 11
1179.887372
 21
-173.389078
 31
0.0
  0
LINE
  8
0
  6
BYLAYER
 62
     7
 10
1179.887372
 20
-191.389078
 30
0.0
 11
1179.887372
 21
-183.389078
 31
0.0
  0
LINE
  8
0
  6
BYLAYER
 62
     7
 10
1171.887372
 20
-183.389078
 30
0.0
 11
1171.887372
 21
-191.389078
 31
0.0
  0
LINE
  8
0
  6
BYLAYER
 62
     7
 10
1169.887372
 20
-183.389078
 30
0.0
 11
1169.887372
 21
-191.389078
 31
0.0
  0
LINE
  8
0
  6
BYLAYER
 62
     7
 10
1179.887372
 20
-173.389078
 30
0.0
 11
1171.887372
 21
-173.389078
 31
0.0
  0
LINE
  8
0
  6
BYLAYER
 62
     7
 10
1179.887372
 20
-181.389078
 30
0.0
 11
1171.887372
 21
-181.389078
 31
0.0
  0
LINE
  8
0
  6
BYLAYER
 62
     7
 10
1169.887372
 20
-183.389078
 30
0.0
 11
1162.049373
 21
-183.389078
 31
0.0
  0
LINE
  8
0
  6
BYLAYER
 62
     7
 10
1179.887372
 20
-183.389078
 30
0.0
 11
1171.887372
 21
-183.389078
 31
0.0
  0
LINE
  8
0
  6
BYLAYER
 62
     7
 10
1169.887372
 20
-191.389078
 30
0.0
 11
1162.049373
 21
-191.389078
 31
0.0
  0
LINE
  8
0
  6
BYLAYER
 62
     7
 10
1179.887372
 20
-191.389078
 30
0.0
 11
1171.887372
 21
-191.389078
 31
0.0
  0
LINE
  8
0
  6
BYLAYER
 62
     7
 10
1162.049373
 20
-183.389078
 30
0.0
 11
1162.049373
 21
-191.389078
 31
0.0
  0
LINE
  8
0
  6
BYLAYER
 62
     7
 10
1171.887372
 20
-173.389078
 30
0.0
 11
1171.887372
 21
-181.389078
 31
0.0
  0
LINE
  8
0
  6
BYLAYER
 62
     7
 10
1169.887372
 20
-181.389078
 30
0.0
 11
1169.887372
 21
-173.389078
 31
0.0
  0
LINE
  8
0
  6
BYLAYER
 62
     7
 10
1169.887372
 20
-173.389078
 30
0.0
 11
1161.887372
 21
-173.389078
 31
0.0
  0
LINE
  8
0
  6
BYLAYER
 62
     7
 10
1169.887372
 20
-181.389078
 30
0.0
 11
1161.887372
 21
-181.389078
 31
0.0
  0
LINE
  8
0
  6
BYLAYER
 62
     7
 10
1161.887372
 20
-173.389078
 30
0.0
 11
1161.887372
 21
-181.389078
 31
0.0
  0
LINE
  8
0
  6
BYLAYER
 62
     7
 10
1159.887372
 20
-163.389078
 30
0.0
 11
1151.887372
 21
-163.389078
 31
0.0
  0
LINE
  8
0
  6
BYLAYER
 62
     7
 10
1159.887372
 20
-181.389078
 30
0.0
 11
1159.887372
 21
-173.389078
 31
0.0
  0
LINE
  8
0
  6
BYLAYER
 62
     7
 10
1159.887372
 20
-171.389078
 30
0.0
 11
1159.887372
 21
-163.389078
 31
0.0
  0
LINE
  8
0
  6
BYLAYER
 62
     7
 10
1159.887372
 20
-171.389078
 30
0.0
 11
1151.887372
 21
-171.389078
 31
0.0
  0
LINE
  8
0
  6
BYLAYER
 62
     7
 10
1159.887372
 20
-173.389078
 30
0.0
 11
1151.887372
 21
-173.389078
 31
0.0
  0
LINE
  8
0
  6
BYLAYER
 62
     7
 10
1159.887372
 20
-181.389078
 30
0.0
 11
1151.887372
 21
-181.389078
 31
0.0
  0
LINE
  8
0
  6
BYLAYER
 62
     7
 10
1151.887372
 20
-163.389078
 30
0.0
 11
1151.887372
 21
-171.389078
 31
0.0
  0
LINE
  8
0
  6
BYLAYER
 62
     7
 10
1151.887372
 20
-173.389078
 30
0.0
 11
1151.887372
 21
-181.389078
 31
0.0
  0
LINE
  8
0
  6
BYLAYER
 62
     7
 10
1159.887372
 20
-153.389078
 30
0.0
 11
1151.887372
 21
-153.389078
 31
0.0
  0
LINE
  8
0
  6
BYLAYER
 62
     7
 10
1159.887372
 20
-161.389078
 30
0.0
 11
1159.887372
 21
-153.389078
 31
0.0
  0
LINE
  8
0
  6
BYLAYER
 62
     7
 10
1159.887372
 20
-161.389078
 30
0.0
 11
1151.887372
 21
-161.389078
 31
0.0
  0
LINE
  8
0
  6
BYLAYER
 62
     7
 10
1151.887372
 20
-153.389078
 30
0.0
 11
1151.887372
 21
-161.389078
 31
0.0
  0
LINE
  8
0
  6
BYLAYER
 62
     7
 10
1149.887372
 20
-163.389078
 30
0.0
 11
1141.887372
 21
-163.389078
 31
0.0
  0
LINE
  8
0
  6
BYLAYER
 62
     7
 10
1149.887372
 20
-171.389078
 30
0.0
 11
1149.887372
 21
-163.389078
 31
0.0
  0
LINE
  8
0
  6
BYLAYER
 62
     7
 10
1149.887372
 20
-171.389078
 30
0.0
 11
1141.887372
 21
-171.389078
 31
0.0
  0
LINE
  8
0
  6
BYLAYER
 62
     7
 10
1141.887372
 20
-163.389078
 30
0.0
 11
1141.887372
 21
-171.389078
 31
0.0
  0
LINE
  8
0
  6
BYLAYER
 62
     7
 10
1149.887372
 20
-153.389078
 30
0.0
 11
1141.887372
 21
-153.389078
 31
0.0
  0
LINE
  8
0
  6
BYLAYER
 62
     7
 10
1149.887372
 20
-161.389078
 30
0.0
 11
1149.887372
 21
-153.389078
 31
0.0
  0
LINE
  8
0
  6
BYLAYER
 62
     7
 10
1149.887372
 20
-161.389078
 30
0.0
 11
1141.887372
 21
-161.389078
 31
0.0
  0
LINE
  8
0
  6
BYLAYER
 62
     7
 10
1141.887372
 20
-153.389078
 30
0.0
 11
1141.887372
 21
-161.389078
 31
0.0
  0
LINE
  8
0
  6
BYLAYER
 62
     7
 10
1139.887372
 20
-163.389078
 30
0.0
 11
1131.887372
 21
-163.389078
 31
0.0
  0
LINE
  8
0
  6
BYLAYER
 62
     7
 10
1139.887372
 20
-171.389078
 30
0.0
 11
1139.887372
 21
-163.389078
 31
0.0
  0
LINE
  8
0
  6
BYLAYER
 62
     7
 10
1139.887372
 20
-171.389078
 30
0.0
 11
1131.887372
 21
-171.389078
 31
0.0
  0
LINE
  8
0
  6
BYLAYER
 62
     7
 10
1131.887372
 20
-163.389078
 30
0.0
 11
1131.887372
 21
-171.389078
 31
0.0
  0
LINE
  8
0
  6
BYLAYER
 62
     7
 10
1139.887372
 20
-153.389078
 30
0.0
 11
1131.887372
 21
-153.389078
 31
0.0
  0
LINE
  8
0
  6
BYLAYER
 62
     7
 10
1139.887372
 20
-161.389078
 30
0.0
 11
1139.887372
 21
-153.389078
 31
0.0
  0
LINE
  8
0
  6
BYLAYER
 62
     7
 10
1139.887372
 20
-161.389078
 30
0.0
 11
1131.887372
 21
-161.389078
 31
0.0
  0
LINE
  8
0
  6
BYLAYER
 62
     7
 10
1131.887372
 20
-153.389078
 30
0.0
 11
1131.887372
 21
-161.389078
 31
0.0
  0
LINE
  8
0
  6
BYLAYER
 62
     7
 10
1179.887372
 20
-201.389078
 30
0.0
 11
1179.887372
 21
-193.389078
 31
0.0
  0
LINE
  8
0
  6
BYLAYER
 62
     7
 10
1171.887372
 20
-193.389078
 30
0.0
 11
1171.887372
 21
-201.389078
 31
0.0
  0
LINE
  8
0
  6
BYLAYER
 62
     7
 10
1169.887372
 20
-193.389078
 30
0.0
 11
1169.887372
 21
-201.389078
 31
0.0
  0
LINE
  8
0
  6
BYLAYER
 62
     7
 10
1169.887372
 20
-193.389078
 30
0.0
 11
1162.049373
 21
-193.389078
 31
0.0
  0
LINE
  8
0
  6
BYLAYER
 62
     7
 10
1179.887372
 20
-193.389078
 30
0.0
 11
1171.887372
 21
-193.389078
 31
0.0
  0
LINE
  8
0
  6
BYLAYER
 62
     7
 10
1169.887372
 20
-201.389078
 30
0.0
 11
1162.049373
 21
-201.389078
 31
0.0
  0
LINE
  8
0
  6
BYLAYER
 62
     7
 10
1179.887372
 20
-201.389078
 30
0.0
 11
1171.887372
 21
-201.389078
 31
0.0
  0
LINE
  8
0
  6
BYLAYER
 62
     7
 10
1162.049373
 20
-193.389078
 30
0.0
 11
1162.049373
 21
-201.389078
 31
0.0
  0
LINE
  8
0
  6
BYLAYER
 62
     7
 10
1159.887372
 20
-191.389078
 30
0.0
 11
1159.887372
 21
-183.389078
 31
0.0
  0
LINE
  8
0
  6
BYLAYER
 62
     7
 10
1159.887372
 20
-183.389078
 30
0.0
 11
1151.887372
 21
-183.389078
 31
0.0
  0
LINE
  8
0
  6
BYLAYER
 62
     7
 10
1159.887372
 20
-191.389078
 30
0.0
 11
1151.887372
 21
-191.389078
 31
0.0
  0
LINE
  8
0
  6
BYLAYER
 62
     7
 10
1151.887372
 20
-183.389078
 30
0.0
 11
1151.887372
 21
-191.389078
 31
0.0
  0
LINE
  8
0
  6
BYLAYER
 62
     7
 10
1159.887372
 20
-201.389078
 30
0.0
 11
1159.887372
 21
-193.389078
 31
0.0
  0
LINE
  8
0
  6
BYLAYER
 62
     7
 10
1159.887372
 20
-193.389078
 30
0.0
 11
1151.887372
 21
-193.389078
 31
0.0
  0
LINE
  8
0
  6
BYLAYER
 62
     7
 10
1159.887372
 20
-201.389078
 30
0.0
 11
1151.887372
 21
-201.389078
 31
0.0
  0
LINE
  8
0
  6
BYLAYER
 62
     7
 10
1151.887372
 20
-193.389078
 30
0.0
 11
1151.887372
 21
-201.389078
 31
0.0
  0
LINE
  8
0
  6
BYLAYER
 62
     7
 10
1149.887372
 20
-181.389078
 30
0.0
 11
1149.887372
 21
-173.389078
 31
0.0
  0
LINE
  8
0
  6
BYLAYER
 62
     7
 10
1149.887372
 20
-173.389078
 30
0.0
 11
1141.887372
 21
-173.389078
 31
0.0
  0
LINE
  8
0
  6
BYLAYER
 62
     7
 10
1149.887372
 20
-181.389078
 30
0.0
 11
1141.887372
 21
-181.389078
 31
0.0
  0
LINE
  8
0
  6
BYLAYER
 62
     7
 10
1141.887372
 20
-173.389078
 30
0.0
 11
1141.887372
 21
-181.389078
 31
0.0
  0
LINE
  8
0
  6
BYLAYER
 62
     7
 10
1149.887372
 20
-191.389078
 30
0.0
 11
1149.887372
 21
-183.389078
 31
0.0
  0
LINE
  8
0
  6
BYLAYER
 62
     7
 10
1149.887372
 20
-183.389078
 30
0.0
 11
1141.887372
 21
-183.389078
 31
0.0
  0
LINE
  8
0
  6
BYLAYER
 62
     7
 10
1149.887372
 20
-191.389078
 30
0.0
 11
1141.887372
 21
-191.389078
 31
0.0
  0
LINE
  8
0
  6
BYLAYER
 62
     7
 10
1141.887372
 20
-183.389078
 30
0.0
 11
1141.887372
 21
-191.389078
 31
0.0
  0
LINE
  8
0
  6
BYLAYER
 62
     7
 10
1139.887372
 20
-181.389078
 30
0.0
 11
1139.887372
 21
-173.389078
 31
0.0
  0
LINE
  8
0
  6
BYLAYER
 62
     7
 10
1139.887372
 20
-173.389078
 30
0.0
 11
1131.887372
 21
-173.389078
 31
0.0
  0
LINE
  8
0
  6
BYLAYER
 62
     7
 10
1139.887372
 20
-181.389078
 30
0.0
 11
1131.887372
 21
-181.389078
 31
0.0
  0
LINE
  8
0
  6
BYLAYER
 62
     7
 10
1131.887372
 20
-173.389078
 30
0.0
 11
1131.887372
 21
-181.389078
 31
0.0
  0
LINE
  8
0
  6
BYLAYER
 62
     7
 10
1129.887372
 20
-163.389078
 30
0.0
 11
1121.887372
 21
-163.389078
 31
0.0
  0
LINE
  8
0
  6
BYLAYER
 62
     7
 10
1129.887372
 20
-171.389078
 30
0.0
 11
1129.887372
 21
-163.389078
 31
0.0
  0
LINE
  8
0
  6
BYLAYER
 62
     7
 10
1129.887372
 20
-171.389078
 30
0.0
 11
1121.887372
 21
-171.389078
 31
0.0
  0
LINE
  8
0
  6
BYLAYER
 62
     7
 10
1121.887372
 20
-163.389078
 30
0.0
 11
1121.887372
 21
-171.389078
 31
0.0
  0
LINE
  8
0
  6
BYLAYER
 62
     7
 10
1129.887372
 20
-153.389078
 30
0.0
 11
1121.887372
 21
-153.389078
 31
0.0
  0
LINE
  8
0
  6
BYLAYER
 62
     7
 10
1129.887372
 20
-161.389078
 30
0.0
 11
1129.887372
 21
-153.389078
 31
0.0
  0
LINE
  8
0
  6
BYLAYER
 62
     7
 10
1129.887372
 20
-161.389078
 30
0.0
 11
1121.887372
 21
-161.389078
 31
0.0
  0
LINE
  8
0
  6
BYLAYER
 62
     7
 10
1121.887372
 20
-153.389078
 30
0.0
 11
1121.887372
 21
-161.389078
 31
0.0
  0
LINE
  8
0
  6
BYLAYER
 62
     7
 10
1129.887372
 20
-181.389078
 30
0.0
 11
1129.887372
 21
-173.389078
 31
0.0
  0
LINE
  8
0
  6
BYLAYER
 62
     7
 10
1129.887372
 20
-173.389078
 30
0.0
 11
1121.887372
 21
-173.389078
 31
0.0
  0
LINE
  8
0
  6
BYLAYER
 62
     7
 10
1129.887372
 20
-181.389078
 30
0.0
 11
1121.887372
 21
-181.389078
 31
0.0
  0
LINE
  8
0
  6
BYLAYER
 62
     7
 10
1121.887372
 20
-173.389078
 30
0.0
 11
1121.887372
 21
-181.389078
 31
0.0
  0
LINE
  8
0
  6
BYLAYER
 62
     7
 10
1179.887372
 20
-211.389078
 30
0.0
 11
1179.887372
 21
-203.389078
 31
0.0
  0
LINE
  8
0
  6
BYLAYER
 62
     7
 10
1171.887372
 20
-203.389078
 30
0.0
 11
1171.887372
 21
-211.389078
 31
0.0
  0
LINE
  8
0
  6
BYLAYER
 62
     7
 10
1169.887372
 20
-203.389078
 30
0.0
 11
1169.887372
 21
-211.389078
 31
0.0
  0
LINE
  8
0
  6
BYLAYER
 62
     7
 10
1169.887372
 20
-203.389078
 30
0.0
 11
1162.049373
 21
-203.389078
 31
0.0
  0
LINE
  8
0
  6
BYLAYER
 62
     7
 10
1179.887372
 20
-203.389078
 30
0.0
 11
1171.887372
 21
-203.389078
 31
0.0
  0
LINE
  8
0
  6
BYLAYER
 62
     7
 10
1169.887372
 20
-211.389078
 30
0.0
 11
1162.049373
 21
-211.389078
 31
0.0
  0
LINE
  8
0
  6
BYLAYER
 62
     7
 10
1179.887372
 20
-211.389078
 30
0.0
 11
1171.887372
 21
-211.389078
 31
0.0
  0
LINE
  8
0
  6
BYLAYER
 62
     7
 10
1162.049373
 20
-203.389078
 30
0.0
 11
1162.049373
 21
-211.389078
 31
0.0
  0
LINE
  8
0
  6
BYLAYER
 62
     7
 10
1159.887372
 20
-211.389078
 30
0.0
 11
1159.887372
 21
-203.389078
 31
0.0
  0
LINE
  8
0
  6
BYLAYER
 62
     7
 10
1159.887372
 20
-203.389078
 30
0.0
 11
1151.887372
 21
-203.389078
 31
0.0
  0
LINE
  8
0
  6
BYLAYER
 62
     7
 10
1159.887372
 20
-211.389078
 30
0.0
 11
1151.887372
 21
-211.389078
 31
0.0
  0
LINE
  8
0
  6
BYLAYER
 62
     7
 10
1151.887372
 20
-203.389078
 30
0.0
 11
1151.887372
 21
-211.389078
 31
0.0
  0
LINE
  8
0
  6
BYLAYER
 62
     7
 10
1149.887372
 20
-201.389078
 30
0.0
 11
1149.887372
 21
-193.389078
 31
0.0
  0
LINE
  8
0
  6
BYLAYER
 62
     7
 10
1149.887372
 20
-193.389078
 30
0.0
 11
1141.887372
 21
-193.389078
 31
0.0
  0
LINE
  8
0
  6
BYLAYER
 62
     7
 10
1149.887372
 20
-201.389078
 30
0.0
 11
1141.887372
 21
-201.389078
 31
0.0
  0
LINE
  8
0
  6
BYLAYER
 62
     7
 10
1141.887372
 20
-193.389078
 30
0.0
 11
1141.887372
 21
-201.389078
 31
0.0
  0
LINE
  8
0
  6
BYLAYER
 62
     7
 10
1139.887372
 20
-191.389078
 30
0.0
 11
1139.887372
 21
-183.389078
 31
0.0
  0
LINE
  8
0
  6
BYLAYER
 62
     7
 10
1139.887372
 20
-183.389078
 30
0.0
 11
1131.887372
 21
-183.389078
 31
0.0
  0
LINE
  8
0
  6
BYLAYER
 62
     7
 10
1139.887372
 20
-191.389078
 30
0.0
 11
1131.887372
 21
-191.389078
 31
0.0
  0
LINE
  8
0
  6
BYLAYER
 62
     7
 10
1131.887372
 20
-183.389078
 30
0.0
 11
1131.887372
 21
-191.389078
 31
0.0
  0
LINE
  8
0
  6
BYLAYER
 62
     7
 10
1179.887372
 20
-221.389078
 30
0.0
 11
1179.887372
 21
-213.389078
 31
0.0
  0
LINE
  8
0
  6
BYLAYER
 62
     7
 10
1171.887372
 20
-213.389078
 30
0.0
 11
1171.887372
 21
-221.389078
 31
0.0
  0
LINE
  8
0
  6
BYLAYER
 62
     7
 10
1169.887372
 20
-213.389078
 30
0.0
 11
1169.887372
 21
-221.389078
 31
0.0
  0
LINE
  8
0
  6
BYLAYER
 62
     7
 10
1169.887372
 20
-213.389078
 30
0.0
 11
1162.049373
 21
-213.389078
 31
0.0
  0
LINE
  8
0
  6
BYLAYER
 62
     7
 10
1179.887372
 20
-213.389078
 30
0.0
 11
1171.887372
 21
-213.389078
 31
0.0
  0
LINE
  8
0
  6
BYLAYER
 62
     7
 10
1169.887372
 20
-221.389078
 30
0.0
 11
1162.049373
 21
-221.389078
 31
0.0
  0
LINE
  8
0
  6
BYLAYER
 62
     7
 10
1179.887372
 20
-221.389078
 30
0.0
 11
1171.887372
 21
-221.389078
 31
0.0
  0
LINE
  8
0
  6
BYLAYER
 62
     7
 10
1162.049373
 20
-213.389078
 30
0.0
 11
1162.049373
 21
-221.389078
 31
0.0
  0
LINE
  8
0
  6
BYLAYER
 62
     7
 10
1119.887372
 20
-163.389078
 30
0.0
 11
1111.887372
 21
-163.389078
 31
0.0
  0
LINE
  8
0
  6
BYLAYER
 62
     7
 10
1119.887372
 20
-171.389078
 30
0.0
 11
1119.887372
 21
-163.389078
 31
0.0
  0
LINE
  8
0
  6
BYLAYER
 62
     7
 10
1119.887372
 20
-171.389078
 30
0.0
 11
1111.887372
 21
-171.389078
 31
0.0
  0
LINE
  8
0
  6
BYLAYER
 62
     7
 10
1111.887372
 20
-163.389078
 30
0.0
 11
1111.887372
 21
-171.389078
 31
0.0
  0
LINE
  8
0
  6
BYLAYER
 62
     7
 10
1119.887372
 20
-153.389078
 30
0.0
 11
1111.887372
 21
-153.389078
 31
0.0
  0
LINE
  8
0
  6
BYLAYER
 62
     7
 10
1119.887372
 20
-161.389078
 30
0.0
 11
1119.887372
 21
-153.389078
 31
0.0
  0
LINE
  8
0
  6
BYLAYER
 62
     7
 10
1119.887372
 20
-161.389078
 30
0.0
 11
1111.887372
 21
-161.389078
 31
0.0
  0
LINE
  8
0
  6
BYLAYER
 62
     7
 10
1111.887372
 20
-153.389078
 30
0.0
 11
1111.887372
 21
-161.389078
 31
0.0
  0
LINE
  8
0
  6
BYLAYER
 62
     7
 10
1149.887372
 20
-211.389078
 30
0.0
 11
1149.887372
 21
-203.389078
 31
0.0
  0
LINE
  8
0
  6
BYLAYER
 62
     7
 10
1149.887372
 20
-203.389078
 30
0.0
 11
1141.887372
 21
-203.389078
 31
0.0
  0
LINE
  8
0
  6
BYLAYER
 62
     7
 10
1149.887372
 20
-211.389078
 30
0.0
 11
1141.887372
 21
-211.389078
 31
0.0
  0
LINE
  8
0
  6
BYLAYER
 62
     7
 10
1141.887372
 20
-203.389078
 30
0.0
 11
1141.887372
 21
-211.389078
 31
0.0
  0
LINE
  8
0
  6
BYLAYER
 62
     7
 10
1139.887372
 20
-201.389078
 30
0.0
 11
1139.887372
 21
-193.389078
 31
0.0
  0
LINE
  8
0
  6
BYLAYER
 62
     7
 10
1139.887372
 20
-193.389078
 30
0.0
 11
1131.887372
 21
-193.389078
 31
0.0
  0
LINE
  8
0
  6
BYLAYER
 62
     7
 10
1139.887372
 20
-201.389078
 30
0.0
 11
1131.887372
 21
-201.389078
 31
0.0
  0
LINE
  8
0
  6
BYLAYER
 62
     7
 10
1131.887372
 20
-193.389078
 30
0.0
 11
1131.887372
 21
-201.389078
 31
0.0
  0
LINE
  8
0
  6
BYLAYER
 62
     7
 10
1129.887372
 20
-191.389078
 30
0.0
 11
1129.887372
 21
-183.389078
 31
0.0
  0
LINE
  8
0
  6
BYLAYER
 62
     7
 10
1129.887372
 20
-183.389078
 30
0.0
 11
1121.887372
 21
-183.389078
 31
0.0
  0
LINE
  8
0
  6
BYLAYER
 62
     7
 10
1129.887372
 20
-191.389078
 30
0.0
 11
1121.887372
 21
-191.389078
 31
0.0
  0
LINE
  8
0
  6
BYLAYER
 62
     7
 10
1121.887372
 20
-183.389078
 30
0.0
 11
1121.887372
 21
-191.389078
 31
0.0
  0
LINE
  8
0
  6
BYLAYER
 62
     7
 10
1179.887372
 20
-231.389078
 30
0.0
 11
1179.887372
 21
-223.389078
 31
0.0
  0
LINE
  8
0
  6
BYLAYER
 62
     7
 10
1171.887372
 20
-223.389078
 30
0.0
 11
1171.887372
 21
-231.389078
 31
0.0
  0
LINE
  8
0
  6
BYLAYER
 62
     7
 10
1179.887372
 20
-223.389078
 30
0.0
 11
1171.887372
 21
-223.389078
 31
0.0
  0
LINE
  8
0
  6
BYLAYER
 62
     7
 10
1179.887372
 20
-231.389078
 30
0.0
 11
1171.887372
 21
-231.389078
 31
0.0
  0
LINE
  8
0
  6
BYLAYER
 62
     7
 10
1109.887372
 20
-153.389078
 30
0.0
 11
1101.887372
 21
-153.389078
 31
0.0
  0
LINE
  8
0
  6
BYLAYER
 62
     7
 10
1109.887372
 20
-161.389078
 30
0.0
 11
1109.887372
 21
-153.389078
 31
0.0
  0
LINE
  8
0
  6
BYLAYER
 62
     7
 10
1109.887372
 20
-161.389078
 30
0.0
 11
1101.887372
 21
-161.389078
 31
0.0
  0
LINE
  8
0
  6
BYLAYER
 62
     7
 10
1101.887372
 20
-153.389078
 30
0.0
 11
1101.887372
 21
-161.389078
 31
0.0
  0
LINE
  8
0
  6
BYLAYER
 62
     7
 10
1159.887372
 20
-221.389078
 30
0.0
 11
1159.887372
 21
-213.389078
 31
0.0
  0
LINE
  8
0
  6
BYLAYER
 62
     7
 10
1159.887372
 20
-213.389078
 30
0.0
 11
1151.887372
 21
-213.389078
 31
0.0
  0
LINE
  8
0
  6
BYLAYER
 62
     7
 10
1159.887372
 20
-221.389078
 30
0.0
 11
1151.887372
 21
-221.389078
 31
0.0
  0
LINE
  8
0
  6
BYLAYER
 62
     7
 10
1151.887372
 20
-213.389078
 30
0.0
 11
1151.887372
 21
-221.389078
 31
0.0
  0
LINE
  8
0
  6
BYLAYER
 62
     7
 10
1119.887372
 20
-181.389078
 30
0.0
 11
1119.887372
 21
-173.389078
 31
0.0
  0
LINE
  8
0
  6
BYLAYER
 62
     7
 10
1119.887372
 20
-173.389078
 30
0.0
 11
1111.887372
 21
-173.389078
 31
0.0
  0
LINE
  8
0
  6
BYLAYER
 62
     7
 10
1119.887372
 20
-181.389078
 30
0.0
 11
1111.887372
 21
-181.389078
 31
0.0
  0
LINE
  8
0
  6
BYLAYER
 62
     7
 10
1111.887372
 20
-173.389078
 30
0.0
 11
1111.887372
 21
-181.389078
 31
0.0
  0
LINE
  8
0
  6
BYLAYER
 62
     7
 10
1149.887372
 20
-221.389078
 30
0.0
 11
1149.887372
 21
-213.389078
 31
0.0
  0
LINE
  8
0
  6
BYLAYER
 62
     7
 10
1149.887372
 20
-213.389078
 30
0.0
 11
1141.887372
 21
-213.389078
 31
0.0
  0
LINE
  8
0
  6
BYLAYER
 62
     7
 10
1149.887372
 20
-221.389078
 30
0.0
 11
1141.887372
 21
-221.389078
 31
0.0
  0
LINE
  8
0
  6
BYLAYER
 62
     7
 10
1141.887372
 20
-213.389078
 30
0.0
 11
1141.887372
 21
-221.389078
 31
0.0
  0
LINE
  8
0
  6
BYLAYER
 62
     7
 10
1139.887372
 20
-211.389078
 30
0.0
 11
1139.887372
 21
-203.389078
 31
0.0
  0
LINE
  8
0
  6
BYLAYER
 62
     7
 10
1139.887372
 20
-203.389078
 30
0.0
 11
1131.887372
 21
-203.389078
 31
0.0
  0
LINE
  8
0
  6
BYLAYER
 62
     7
 10
1139.887372
 20
-211.389078
 30
0.0
 11
1131.887372
 21
-211.389078
 31
0.0
  0
LINE
  8
0
  6
BYLAYER
 62
     7
 10
1131.887372
 20
-203.389078
 30
0.0
 11
1131.887372
 21
-211.389078
 31
0.0
  0
LINE
  8
0
  6
BYLAYER
 62
     7
 10
1129.887372
 20
-201.389078
 30
0.0
 11
1129.887372
 21
-193.389078
 31
0.0
  0
LINE
  8
0
  6
BYLAYER
 62
     7
 10
1129.887372
 20
-193.389078
 30
0.0
 11
1121.887372
 21
-193.389078
 31
0.0
  0
LINE
  8
0
  6
BYLAYER
 62
     7
 10
1129.887372
 20
-201.389078
 30
0.0
 11
1121.887372
 21
-201.389078
 31
0.0
  0
LINE
  8
0
  6
BYLAYER
 62
     7
 10
1121.887372
 20
-193.389078
 30
0.0
 11
1121.887372
 21
-201.389078
 31
0.0
  0
LINE
  8
0
  6
BYLAYER
 62
     7
 10
1119.887372
 20
-191.389078
 30
0.0
 11
1119.887372
 21
-183.389078
 31
0.0
  0
LINE
  8
0
  6
BYLAYER
 62
     7
 10
1119.887372
 20
-183.389078
 30
0.0
 11
1111.887372
 21
-183.389078
 31
0.0
  0
LINE
  8
0
  6
BYLAYER
 62
     7
 10
1119.887372
 20
-191.389078
 30
0.0
 11
1111.887372
 21
-191.389078
 31
0.0
  0
LINE
  8
0
  6
BYLAYER
 62
     7
 10
1111.887372
 20
-183.389078
 30
0.0
 11
1111.887372
 21
-191.389078
 31
0.0
  0
LINE
  8
0
  6
BYLAYER
 62
     7
 10
1169.887372
 20
-223.389078
 30
0.0
 11
1169.887372
 21
-231.389078
 31
0.0
  0
LINE
  8
0
  6
BYLAYER
 62
     7
 10
1169.887372
 20
-223.389078
 30
0.0
 11
1162.049373
 21
-223.389078
 31
0.0
  0
LINE
  8
0
  6
BYLAYER
 62
     7
 10
1169.887372
 20
-231.389078
 30
0.0
 11
1162.049373
 21
-231.389078
 31
0.0
  0
LINE
  8
0
  6
BYLAYER
 62
     7
 10
1162.049373
 20
-223.389078
 30
0.0
 11
1162.049373
 21
-231.389078
 31
0.0
  0
LINE
  8
0
  6
BYLAYER
 62
     7
 10
1109.887372
 20
-163.389078
 30
0.0
 11
1101.887372
 21
-163.389078
 31
0.0
  0
LINE
  8
0
  6
BYLAYER
 62
     7
 10
1109.887372
 20
-171.389078
 30
0.0
 11
1109.887372
 21
-163.389078
 31
0.0
  0
LINE
  8
0
  6
BYLAYER
 62
     7
 10
1109.887372
 20
-171.389078
 30
0.0
 11
1101.887372
 21
-171.389078
 31
0.0
  0
LINE
  8
0
  6
BYLAYER
 62
     7
 10
1101.887372
 20
-163.389078
 30
0.0
 11
1101.887372
 21
-171.389078
 31
0.0
  0
CIRCLE
  8
0
  6
BYLAYER
 62
     7
 10
1180.887372
 20
-152.389078
 30
0.0
 40
82.542439
  0
ARC
  8
0
  6
BYLAYER
 62
     7
 10
1180.887372
 20
-152.389078
 30
0.0
 40
125.000000
 50
113.079003
 51
426.921013
  0
LINE
  8
0
  6
BYLAYER
 62
     7
 10
1177.887372
 20
-257.715311
 30
0.0
 11
1177.887372
 21
-268.177667
 31
0.0
  0
LINE
  8
0
  6
BYLAYER
 62
     7
 10
1183.887372
 20
-257.715311
 30
0.0
 11
1183.887372
 21
-268.177667
 31
0.0
  0
ARC
  8
0
  6
BYLAYER
 62
     7
 10
1187.887372
 20
-268.177667
 30
0.0
 40
4.0
 50
180.000000
 51
273.459814
  0
ARC
  8
0
  6
BYLAYER
 62
     7
 10
1180.887372
 20
-152.389078
 30
0.0
 40
120.000000
 50
273.459601
 51
306.572850
  0
ARC
  8
0
  6
BYLAYER
 62
     7
 10
1250.005322
 20
-245.548670
 30
0.0
 40
4.0
 50
306.572822
 51
405.000076
  0
LINE
  8
0
  6
BYLAYER
 62
     7
 10
1252.833753
 20
-242.720239
 30
0.0
 11
1245.655358
 21
-235.541852
 31
0.0
  0
LINE
  8
0
  6
BYLAYER
 62
     7
 10
1108.941022
 20
-242.720224
 30
0.0
 11
1116.119395
 21
-235.541859
 31
0.0
  0
ARC
  8
0
  6
BYLAYER
 62
     7
 10
1111.769452
 20
-245.548654
 30
0.0
 40
4.000000
 50
135.0
 51
233.427015
  0
ARC
  8
0
  6
BYLAYER
 62
     7
 10
1180.887372
 20
-152.389078
 30
0.0
 40
120.000000
 50
233.427152
 51
266.540401
  0
ARC
  8
0
  6
BYLAYER
 62
     7
 10
1173.887372
 20
-268.177667
 30
0.0
 40
4.000000
 50
266.540182
 51
360.000000
  0
LINE
  8
0
  6
BYLAYER
 62
     7
 10
1286.245218
 20
-155.389073
 30
0.0
 11
1296.675977
 21
-155.389073
 31
0.0
  0
LINE
  8
0
  6
BYLAYER
 62
     7
 10
1286.245218
 20
-149.389074
 30
0.0
 11
1296.675977
 21
-149.389073
 31
0.0
  0
ARC
  8
0
  6
BYLAYER
 62
     7
 10
1296.675977
 20
-145.389073
 30
0.0
 40
4.0
 50
270.0
 51
363.459828
  0
ARC
  8
0
  6
BYLAYER
 62
     7
 10
1180.887372
 20
-152.389078
 30
0.0
 40
120.0
 50
3.459610
 51
36.572859
  0
ARC
  8
0
  6
BYLAYER
 62
     7
 10
1274.046979
 20
-83.271128
 30
0.0
 40
4.000000
 50
36.572832
 51
135.000082
  0
LINE
  8
0
  6
BYLAYER
 62
     7
 10
1271.218549
 20
-80.442713
 30
0.0
 11
1264.040153
 21
-87.621101
 31
0.0
  0
LINE
  8
0
  6
BYLAYER
 62
     7
 10
1271.218518
 20
-224.335443
 30
0.0
 11
1264.040148
 21
-217.157061
 31
0.0
  0
ARC
  8
0
  6
BYLAYER
 62
     7
 10
1274.046948
 20
-221.507013
 30
0.0
 40
4.0
 50
225.000010
 51
323.427024
  0
ARC
  8
0
  6
BYLAYER
 62
     7
 10
1180.887372
 20
-152.389078
 30
0.0
 40
120.0
 50
323.427161
 51
356.540410
  0
ARC
  8
0
  6
BYLAYER
 62
     7
 10
1296.675977
 20
-159.389072
 30
0.0
 40
4.000000
 50
356.540191
 51
450.000003
  0
ARC
  8
0
  6
BYLAYER
 62
     7
 10
1180.887372
 20
-152.389078
 30
0.0
 40
120.0
 50
114.100180
 51
126.572841
  0
ARC
  8
0
  6
BYLAYER
 62
     7
 10
1111.769452
 20
-59.229502
 30
0.0
 40
4.0
 50
126.572841
 51
225.000078
  0
LINE
  8
0
  6
BYLAYER
 62
     7
 10
1108.941022
 20
-62.057917
 30
0.0
 11
1116.119400
 21
-69.236294
 31
0.0
  0
LINE
  8
0
  6
BYLAYER
 62
     7
 10
1252.833753
 20
-62.057917
 30
0.0
 11
1245.655362
 21
-69.236308
 31
0.0
  0
ARC
  8
0
  6
BYLAYER
 62
     7
 10
1250.005322
 20
-59.229486
 30
0.0
 40
4.000000
 50
315.000019
 51
413.427034
  0
ARC
  8
0
  6
BYLAYER
 62
     7
 10
1180.887372
 20
-152.389078
 30
0.0
 40
120.000000
 50
53.427143
 51
65.899836
  0
LINE
  8
0
  6
BYLAYER
 62
     7
 10
1075.529526
 20
-149.389079
 30
0.0
 11
1065.098798
 21
-149.389079
 31
0.0
  0
LINE
  8
0
  6
BYLAYER
 62
     7
 10
1075.529526
 20
-155.389079
 30
0.0
 11
1065.098798
 21
-155.389079
 31
0.0
  0
ARC
  8
0
  6
BYLAYER
 62
     7
 10
1065.098798
 20
-159.389079
 30
0.0
 40
4.000000
 50
90.0
 51
183.459774
  0
ARC
  8
0
  6
BYLAYER
 62
     7
 10
1180.887372
 20
-152.389078
 30
0.0
 40
120.000000
 50
183.459574
 51
216.572878
  0
ARC
  8
0
  6
BYLAYER
 62
     7
 10
1087.727765
 20
-221.507028
 30
0.0
 40
4.0
 50
216.572823
 51
315.000074
  0
LINE
  8
0
  6
BYLAYER
 62
     7
 10
1090.556195
 20
-224.335443
 30
0.0
 11
1097.734591
 21
-217.157055
 31
0.0
  0
LINE
  8
0
  6
BYLAYER
 62
     7
 10
1090.556256
 20
-80.442697
 30
0.0
 11
1097.734608
 21
-87.621080
 31
0.0
  0
ARC
  8
0
  6
BYLAYER
 62
     7
 10
1087.727826
 20
-83.271128
 30
0.0
 40
4.0
 50
45.000001
 51
143.427016
  0
ARC
  8
0
  6
BYLAYER
 62
     7
 10
1180.887372
 20
-152.389078
 30
0.0
 40
120.000000
 50
143.427125
 51
176.540429
  0
ARC
  8
0
  6
BYLAYER
 62
     7
 10
1065.098798
 20
-145.389080
 30
0.0
 40
4.000000
 50
176.540210
 51
270.000001
  0
ARC
  8
0
  6
BYLAYER
 62
     7
 10
1256.901349
 20
-228.403070
 30
0.0
 40
7.0
 50
205.758402
 51
424.241587
  0
ARC
  8
0
  6
BYLAYER
 62
     7
 10
1256.901349
 20
-76.375101
 30
0.0
 40
7.0
 50
295.758498
 51
514.241502
  0
ARC
  8
0
  6
BYLAYER
 62
     7
 10
1104.873395
 20
-76.375086
 30
0.0
 40
7.0
 50
25.758402
 51
244.241587
  0
ARC
  8
0
  6
BYLAYER
 62
     7
 10
1104.873395
 20
-228.403055
 30
0.0
 40
7.000000
 50
115.758498
 51
334.241502
  0
LINE
  8
0
  6
BYLAYER
 62
     7
 10
1131.887372
 20
-632.389078
 30
0.0
 11
1145.887372
 21
-632.389078
 31
0.0
  0
LINE
  8
0
  6
BYLAYER
 62
     7
 10
1215.887372
 20
-632.389078
 30
0.0
 11
1229.887341
 21
-632.389078
 31
0.0
  0
LINE
  8
0
  6
BYLAYER
 62
     7
 10
1131.887372
 20
-637.393426
 30
0.0
 11
1131.887372
 21
-632.389078
 31
0.0
  0
LINE
  8
0
  6
BYLAYER
 62
     7
 10
1229.887341
 20
-637.393413
 30
0.0
 11
1229.887341
 21
-632.389078
 31
0.0
  0
LINE
  8
0
  6
BYLAYER
 62
     7
 10
1137.387372
 20
-621.889078
 30
0.0
 11
1137.387372
 21
-600.389078
 31
0.0
  0
ARC
  8
0
  6
BYLAYER
 62
     7
 10
1135.887372
 20
-621.889078
 30
0.0
 40
1.500000
 50
270.0
 51
360.0
  0
ARC
  8
0
  6
BYLAYER
 62
     7
 10
1138.887372
 20
-600.389078
 30
0.0
 40
1.5
 50
90.0
 51
180.0
  0
LINE
  8
0
  6
BYLAYER
 62
     7
 10
1180.887372
 20
-598.889078
 30
0.0
 11
1138.887372
 21
-598.889078
 31
0.0
  0
LINE
  8
0
  6
BYLAYER
 62
     7
 10
1142.759613
 20
-621.889078
 30
0.0
 11
1142.759613
 21
-600.389078
 31
0.0
  0
ARC
  8
0
  6
BYLAYER
 62
     7
 10
1141.259613
 20
-621.889078
 30
0.0
 40
1.500000
 50
270.0
 51
360.0
  0
ARC
  8
0
  6
BYLAYER
 62
     7
 10
1144.259613
 20
-600.389078
 30
0.0
 40
1.5
 50
90.0
 51
180.0
  0
LINE
  8
0
  6
BYLAYER
 62
     7
 10
1167.793719
 20
-598.889078
 30
0.0
 11
1168.286266
 21
-612.993776
 31
0.0
  0
ARC
  8
0
  6
BYLAYER
 62
     7
 10
1171.284438
 20
-612.889078
 30
0.0
 40
3.0
 50
182.000000
 51
270.000000
  0
LINE
  8
0
  6
BYLAYER
 62
     7
 10
1178.488478
 20
-612.993776
 30
0.0
 11
1178.981025
 21
-598.889078
 31
0.0
  0
ARC
  8
0
  6
BYLAYER
 62
     7
 10
1175.490306
 20
-612.889078
 30
0.0
 40
3.0
 50
270.0
 51
358.0
  0
LINE
  8
0
  6
BYLAYER
 62
     7
 10
1171.284438
 20
-615.889078
 30
0.0
 11
1175.490306
 21
-615.889078
 31
0.0
  0
LINE
  8
0
  6
BYLAYER
 62
     7
 10
1152.793719
 20
-598.889078
 30
0.0
 11
1153.286266
 21
-612.993776
 31
0.0
  0
ARC
  8
0
  6
BYLAYER
 62
     7
 10
1156.284438
 20
-612.889078
 30
0.0
 40
3.0
 50
182.000000
 51
270.000000
  0
LINE
  8
0
  6
BYLAYER
 62
     7
 10
1163.488478
 20
-612.993776
 30
0.0
 11
1163.981025
 21
-598.889078
 31
0.0
  0
ARC
  8
0
  6
BYLAYER
 62
     7
 10
1160.490306
 20
-612.889078
 30
0.0
 40
3.0
 50
270.0
 51
358.0
  0
LINE
  8
0
  6
BYLAYER
 62
     7
 10
1156.284438
 20
-615.889078
 30
0.0
 11
1160.490306
 21
-615.889078
 31
0.0
  0
LINE
  8
0
  6
BYLAYER
 62
     7
 10
1152.828640
 20
-599.889078
 30
0.0
 11
1163.946104
 21
-599.889078
 31
0.0
  0
LINE
  8
0
  6
BYLAYER
 62
     7
 10
1167.828640
 20
-599.889078
 30
0.0
 11
1178.946104
 21
-599.889078
 31
0.0
  0
LINE
  8
0
  6
BYLAYER
 62
     7
 10
1180.887372
 20
-623.389078
 30
0.0
 11
1133.387372
 21
-623.389078
 31
0.0
  0
ARC
  8
0
  6
BYLAYER
 62
     7
 10
1133.387372
 20
-624.889078
 30
0.0
 40
1.5
 50
90.0
 51
180.0
  0
LINE
  8
0
  6
BYLAYER
 62
     7
 10
1131.887372
 20
-630.389078
 30
0.0
 11
1131.887372
 21
-624.889078
 31
0.0
  0
LINE
  8
0
  6
BYLAYER
 62
     7
 10
1131.887372
 20
-630.389078
 30
0.0
 11
1153.666057
 21
-630.389078
 31
0.0
  0
LINE
  8
0
  6
BYLAYER
 62
     7
 10
1224.387372
 20
-621.889078
 30
0.0
 11
1224.387372
 21
-600.389078
 31
0.0
  0
ARC
  8
0
  6
BYLAYER
 62
     7
 10
1225.887372
 20
-621.889078
 30
0.0
 40
1.5
 50
180.000000
 51
270.000000
  0
ARC
  8
0
  6
BYLAYER
 62
     7
 10
1222.887372
 20
-600.389078
 30
0.0
 40
1.5
 50
0.0
 51
90.0
  0
LINE
  8
0
  6
BYLAYER
 62
     7
 10
1180.887372
 20
-598.889078
 30
0.0
 11
1222.887372
 21
-598.889078
 31
0.0
  0
LINE
  8
0
  6
BYLAYER
 62
     7
 10
1219.015131
 20
-621.889078
 30
0.0
 11
1219.015131
 21
-600.389078
 31
0.0
  0
ARC
  8
0
  6
BYLAYER
 62
     7
 10
1220.515131
 20
-621.889078
 30
0.0
 40
1.5
 50
180.000000
 51
270.000000
  0
ARC
  8
0
  6
BYLAYER
 62
     7
 10
1217.515131
 20
-600.389078
 30
0.0
 40
1.500000
 50
0.0
 51
90.0
  0
LINE
  8
0
  6
BYLAYER
 62
     7
 10
1193.981025
 20
-598.889078
 30
0.0
 11
1193.488478
 21
-612.993776
 31
0.0
  0
ARC
  8
0
  6
BYLAYER
 62
     7
 10
1190.490306
 20
-612.889078
 30
0.0
 40
3.0
 50
270.0
 51
358.0
  0
LINE
  8
0
  6
BYLAYER
 62
     7
 10
1183.286266
 20
-612.993776
 30
0.0
 11
1182.793719
 21
-598.889078
 31
0.0
  0
ARC
  8
0
  6
BYLAYER
 62
     7
 10
1186.284438
 20
-612.889078
 30
0.0
 40
3.0
 50
182.000000
 51
270.000000
  0
LINE
  8
0
  6
BYLAYER
 62
     7
 10
1190.490306
 20
-615.889078
 30
0.0
 11
1186.284438
 21
-615.889078
 31
0.0
  0
LINE
  8
0
  6
BYLAYER
 62
     7
 10
1208.981025
 20
-598.889078
 30
0.0
 11
1208.488478
 21
-612.993776
 31
0.0
  0
ARC
  8
0
  6
BYLAYER
 62
     7
 10
1205.490306
 20
-612.889078
 30
0.0
 40
3.0
 50
270.0
 51
358.0
  0
LINE
  8
0
  6
BYLAYER
 62
     7
 10
1198.286266
 20
-612.993776
 30
0.0
 11
1197.793719
 21
-598.889078
 31
0.0
  0
ARC
  8
0
  6
BYLAYER
 62
     7
 10
1201.284438
 20
-612.889078
 30
0.0
 40
3.0
 50
182.000000
 51
270.000000
  0
LINE
  8
0
  6
BYLAYER
 62
     7
 10
1205.490306
 20
-615.889078
 30
0.0
 11
1201.284438
 21
-615.889078
 31
0.0
  0
LINE
  8
0
  6
BYLAYER
 62
     7
 10
1208.946104
 20
-599.889078
 30
0.0
 11
1197.828640
 21
-599.889078
 31
0.0
  0
LINE
  8
0
  6
BYLAYER
 62
     7
 10
1193.946104
 20
-599.889078
 30
0.0
 11
1182.828640
 21
-599.889078
 31
0.0
  0
LINE
  8
0
  6
BYLAYER
 62
     7
 10
1180.887372
 20
-623.389078
 30
0.0
 11
1228.387372
 21
-623.389078
 31
0.0
  0
ARC
  8
0
  6
BYLAYER
 62
     7
 10
1228.387372
 20
-624.889078
 30
0.0
 40
1.500000
 50
0.0
 51
90.0
  0
LINE
  8
0
  6
BYLAYER
 62
     7
 10
1229.887372
 20
-632.389078
 30
0.0
 11
1229.887372
 21
-624.889078
 31
0.0
  0
LINE
  8
0
  6
BYLAYER
 62
     7
 10
1229.887372
 20
-630.389078
 30
0.0
 11
1208.108687
 21
-630.389078
 31
0.0
  0
LINE
  8
0
  6
BYLAYER
 62
     7
 10
1131.887372
 20
-630.389078
 30
0.0
 11
1131.887372
 21
-632.389078
 31
0.0
  0
ARC
  8
0
  6
BYLAYER
 62
     1
 10
1180.887372
 20
-752.389078
 30
0.0
 40
125.0
 50
308.316134
 51
591.683866
  0
LINE
  8
0
  6
BYLAYER
 62
     1
 10
1276.494357
 20
-810.474552
 30
0.0
 11
1276.494367
 21
-810.474558
 31
0.0
  0
ARC
  8
0
  6
BYLAYER
 62
     1
 10
1291.906052
 20
-783.780758
 30
0.0
 40
30.823352
 50
239.999979
 51
254.130875
  0
ARC
  8
0
  6
BYLAYER
 62
     1
 10
1284.754967
 20
-808.936280
 30
0.0
 40
4.671137
 50
254.130875
 51
274.841069
  0
ARC
  8
0
  6
BYLAYER
 62
     1
 10
1284.976909
 20
-811.556794
 30
0.0
 40
2.041241
 50
274.841069
 51
293.510763
  0
ARC
  8
0
  6
BYLAYER
 62
     1
 10
1285.496124
 20
-812.784972
 30
0.0
 40
0.708030
 50
294.630368
 51
330.000070
  0
ARC
  8
0
  6
BYLAYER
 62
     1
 10
1285.496123
 20
-812.784972
 30
0.0
 40
0.708031
 50
330.000070
 51
365.369703
  0
ARC
  8
0
  6
BYLAYER
 62
     1
 10
1284.172877
 20
-812.949409
 30
0.0
 40
2.041248
 50
6.489279
 51
25.158915
  0
ARC
  8
0
  6
BYLAYER
 62
     1
 10
1281.792470
 20
-814.067460
 30
0.0
 40
4.671148
 50
25.158915
 51
45.869082
  0
ARC
  8
0
  6
BYLAYER
 62
     1
 10
1263.582671
 20
-832.838235
 30
0.0
 40
30.823371
 50
45.869082
 51
59.999979
  0
LINE
  8
0
  6
BYLAYER
 62
     1
 10
1276.494367
 20
-810.474527
 30
0.0
 11
1258.387372
 21
-800.020458
 31
0.0
  0
LINE
  8
0
  6
BYLAYER
 62
     1
 10
1278.994367
 20
-806.144419
 30
0.0
 11
1254.887372
 21
-792.226231
 31
0.0
  0
ARC
  8
0
  6
BYLAYER
 62
     1
 10
1263.582671
 20
-671.939921
 30
0.0
 40
30.823371
 50
300.000021
 51
314.130918
  0
ARC
  8
0
  6
BYLAYER
 62
     1
 10
1281.792470
 20
-690.710696
 30
0.0
 40
4.671148
 50
314.130918
 51
334.841085
  0
ARC
  8
0
  6
BYLAYER
 62
     1
 10
1284.172877
 20
-691.828747
 30
0.0
 40
2.041248
 50
334.841085
 51
353.510721
  0
ARC
  8
0
  6
BYLAYER
 62
     1
 10
1285.496123
 20
-691.993184
 30
0.0
 40
0.708031
 50
354.630297
 51
389.999930
  0
ARC
  8
0
  6
BYLAYER
 62
     1
 10
1285.496124
 20
-691.993184
 30
0.0
 40
0.708030
 50
29.999930
 51
65.369632
  0
ARC
  8
0
  6
BYLAYER
 62
     1
 10
1284.976909
 20
-693.221362
 30
0.0
 40
2.041241
 50
66.489237
 51
85.158931
  0
ARC
  8
0
  6
BYLAYER
 62
     1
 10
1284.754967
 20
-695.841876
 30
0.0
 40
4.671137
 50
85.158931
 51
105.869125
  0
ARC
  8
0
  6
BYLAYER
 62
     1
 10
1291.906052
 20
-720.997398
 30
0.0
 40
30.823352
 50
105.869125
 51
120.000021
  0
LINE
  8
0
  6
BYLAYER
 62
     1
 10
1278.994367
 20
-698.633737
 30
0.0
 11
1252.887372
 21
-713.706626
 31
0.0
  0
LINE
  8
0
  6
BYLAYER
 62
     1
 10
1276.494367
 20
-694.303598
 30
0.0
 11
1252.887372
 21
-707.933110
 31
0.0
  0
ARC
  8
0
  6
BYLAYER
 62
     1
 10
1152.563920
 20
-640.548258
 30
0.0
 40
30.823452
 50
0.0
 51
14.130874
  0
ARC
  8
0
  6
BYLAYER
 62
     1
 10
1177.924884
 20
-634.163494
 30
0.0
 40
4.671134
 50
14.130874
 51
34.841061
  0
ARC
  8
0
  6
BYLAYER
 62
     1
 10
1180.083345
 20
-632.661029
 30
0.0
 40
2.041238
 50
34.841061
 51
53.510716
  0
ARC
  8
0
  6
BYLAYER
 62
     1
 10
1180.887372
 20
-631.597288
 30
0.0
 40
0.708027
 50
54.630302
 51
90.000000
  0
ARC
  8
0
  6
BYLAYER
 62
     1
 10
1180.887372
 20
-631.597288
 30
0.0
 40
0.708027
 50
90.0
 51
125.369698
  0
ARC
  8
0
  6
BYLAYER
 62
     1
 10
1181.691399
 20
-632.661029
 30
0.0
 40
2.041238
 50
126.489284
 51
145.158939
  0
ARC
  8
0
  6
BYLAYER
 62
     1
 10
1183.849860
 20
-634.163494
 30
0.0
 40
4.671134
 50
145.158939
 51
165.869126
  0
ARC
  8
0
  6
BYLAYER
 62
     1
 10
1209.210824
 20
-640.548258
 30
0.0
 40
30.823452
 50
165.869126
 51
180.000000
  0
ARC
  8
0
  6
BYLAYER
 62
     1
 10
1238.059335
 20
-683.664408
 30
0.0
 40
59.671963
 50
180.000000
 51
188.414782
  0
ARC
  8
0
  6
BYLAYER
 62
     1
 10
1194.318609
 20
-690.135007
 30
0.0
 40
15.455227
 50
188.414782
 51
197.914585
  0
ARC
  8
0
  6
BYLAYER
 62
     1
 10
1167.456135
 20
-690.135007
 30
0.0
 40
15.455227
 50
342.085415
 51
351.585218
  0
ARC
  8
0
  6
BYLAYER
 62
     1
 10
1123.715409
 20
-683.664408
 30
0.0
 40
59.671963
 50
351.585218
 51
360.0
  0
LINE
  8
0
  6
BYLAYER
 62
     1
 10
1183.387372
 20
-640.548258
 30
0.0
 11
1183.387372
 21
-683.664408
 31
0.0
  0
LINE
  8
0
  6
BYLAYER
 62
     1
 10
1178.387372
 20
-640.548258
 30
0.0
 11
1178.387372
 21
-683.664408
 31
0.0
  0
ARC
  8
0
  6
BYLAYER
 62
     1
 10
1069.868692
 20
-720.997429
 30
0.0
 40
30.823352
 50
59.999979
 51
74.130875
  0
ARC
  8
0
  6
BYLAYER
 62
     1
 10
1077.019777
 20
-695.841906
 30
0.0
 40
4.671137
 50
74.130875
 51
94.841069
  0
ARC
  8
0
  6
BYLAYER
 62
     1
 10
1076.797835
 20
-693.221392
 30
0.0
 40
2.041241
 50
94.841069
 51
113.510763
  0
ARC
  8
0
  6
BYLAYER
 62
     1
 10
1076.278620
 20
-691.993214
 30
0.0
 40
0.708030
 50
114.630368
 51
150.000070
  0
ARC
  8
0
  6
BYLAYER
 62
     1
 10
1076.278621
 20
-691.993215
 30
0.0
 40
0.708031
 50
150.000070
 51
185.369697
  0
ARC
  8
0
  6
BYLAYER
 62
     1
 10
1077.601866
 20
-691.828777
 30
0.0
 40
2.041247
 50
186.489273
 51
205.158909
  0
ARC
  8
0
  6
BYLAYER
 62
     1
 10
1079.982272
 20
-690.710728
 30
0.0
 40
4.671146
 50
205.158909
 51
225.869074
  0
ARC
  8
0
  6
BYLAYER
 62
     1
 10
1098.192060
 20
-671.939969
 30
0.0
 40
30.823349
 50
225.869074
 51
239.999957
  0
LINE
  8
0
  6
BYLAYER
 62
     1
 10
1085.280377
 20
-694.303629
 30
0.0
 11
1108.887372
 21
-707.933122
 31
0.0
  0
LINE
  8
0
  6
BYLAYER
 62
     1
 10
1082.780377
 20
-698.633737
 30
0.0
 11
1108.887372
 21
-713.706626
 31
0.0
  0
ARC
  8
0
  6
BYLAYER
 62
     1
 10
1098.192073
 20
-832.838235
 30
0.0
 40
30.823371
 50
120.000021
 51
134.130918
  0
ARC
  8
0
  6
BYLAYER
 62
     1
 10
1079.982274
 20
-814.067460
 30
0.0
 40
4.671148
 50
134.130918
 51
154.841085
  0
ARC
  8
0
  6
BYLAYER
 62
     1
 10
1077.601867
 20
-812.949409
 30
0.0
 40
2.041248
 50
154.841085
 51
173.510721
  0
ARC
  8
0
  6
BYLAYER
 62
     1
 10
1076.278621
 20
-812.784972
 30
0.0
 40
0.708031
 50
174.630297
 51
209.999930
  0
ARC
  8
0
  6
BYLAYER
 62
     1
 10
1076.278620
 20
-812.784972
 30
0.0
 40
0.708030
 50
209.999930
 51
245.369632
  0
ARC
  8
0
  6
BYLAYER
 62
     1
 10
1076.797835
 20
-811.556794
 30
0.0
 40
2.041241
 50
246.489237
 51
265.158931
  0
ARC
  8
0
  6
BYLAYER
 62
     1
 10
1077.019777
 20
-808.936280
 30
0.0
 40
4.671137
 50
265.158931
 51
285.869125
  0
ARC
  8
0
  6
BYLAYER
 62
     1
 10
1069.868692
 20
-783.780758
 30
0.0
 40
30.823352
 50
285.869125
 51
300.000021
  0
LINE
  8
0
  6
BYLAYER
 62
     1
 10
1085.280377
 20
-810.474558
 30
0.0
 11
1085.280389
 21
-810.474551
 31
0.0
  0
LINE
  8
0
  6
BYLAYER
 62
     1
 10
1082.780377
 20
-806.144419
 30
0.0
 11
1106.887372
 21
-792.226231
 31
0.0
  0
LINE
  8
0
  6
BYLAYER
 62
     1
 10
1085.280377
 20
-810.474527
 30
0.0
 11
1103.387372
 21
-800.020458
 31
0.0
  0
ARC
  8
0
  6
BYLAYER
 62
     2
 10
1246.528546
 20
-673.595743
 30
0.0
 40
0.300014
 50
134.995875
 51
194.997489
  0
LINE
  8
0
  6
BYLAYER
 62
     2
 10
1246.316449
 20
-673.383615
 30
0.0
 11
1253.909833
 21
-665.790171
 31
0.0
  0
ARC
  8
0
  6
BYLAYER
 62
     2
 10
1254.121991
 20
-666.002298
 30
0.0
 40
0.300015
 50
75.001003
 51
135.004126
  0
LINE
  8
0
  6
BYLAYER
 62
     2
 10
1264.572431
 20
-668.491922
 30
0.0
 11
1254.199628
 21
-665.712534
 31
0.0
  0
ARC
  8
0
  6
BYLAYER
 62
     2
 10
1264.494794
 20
-668.781687
 30
0.0
 40
0.299985
 50
15.000509
 51
75.001003
  0
LINE
  8
0
  6
BYLAYER
 62
     2
 10
1267.563947
 20
-679.076853
 30
0.0
 11
1264.784528
 21
-668.704050
 31
0.0
  0
ARC
  8
0
  6
BYLAYER
 62
     2
 10
1267.274152
 20
-679.154489
 30
0.0
 40
0.300014
 50
314.995865
 51
374.997492
  0
LINE
  8
0
  6
BYLAYER
 62
     2
 10
1259.892865
 20
-686.960031
 30
0.0
 11
1267.486249
 21
-679.366617
 31
0.0
  0
ARC
  8
0
  6
BYLAYER
 62
     2
 10
1259.680707
 20
-686.747904
 30
0.0
 40
0.300015
 50
255.000987
 51
315.004117
  0
LINE
  8
0
  6
BYLAYER
 62
     2
 10
1259.603070
 20
-687.037668
 30
0.0
 11
1249.230268
 21
-684.258280
 31
0.0
  0
LINE
  8
0
  6
BYLAYER
 62
     2
 10
1249.018109
 20
-684.046121
 30
0.0
 11
1246.238751
 21
-673.673380
 31
0.0
  0
ARC
  8
0
  6
BYLAYER
 62
     2
 10
1249.307904
 20
-683.968485
 30
0.0
 40
0.300014
 50
194.997489
 51
255.002517
  0
ARC
  8
0
  6
BYLAYER
 62
     2
 10
1102.094037
 20
-686.747904
 30
0.0
 40
0.300014
 50
224.995884
 51
284.997484
  0
LINE
  8
0
  6
BYLAYER
 62
     2
 10
1101.881879
 20
-686.960001
 30
0.0
 11
1094.288495
 21
-679.366617
 31
0.0
  0
ARC
  8
0
  6
BYLAYER
 62
     2
 10
1094.500592
 20
-679.154459
 30
0.0
 40
0.299994
 50
165.001005
 51
225.004135
  0
LINE
  8
0
  6
BYLAYER
 62
     2
 10
1096.990216
 20
-668.704019
 30
0.0
 11
1094.210858
 21
-679.076822
 31
0.0
  0
ARC
  8
0
  6
BYLAYER
 62
     2
 10
1097.279950
 20
-668.781656
 30
0.0
 40
0.299955
 50
105.000512
 51
165.001005
  0
LINE
  8
0
  6
BYLAYER
 62
     2
 10
1107.575116
 20
-665.712503
 30
0.0
 11
1097.202313
 21
-668.491922
 31
0.0
  0
ARC
  8
0
  6
BYLAYER
 62
     2
 10
1107.652753
 20
-666.002298
 30
0.0
 40
0.300014
 50
44.995872
 51
104.997493
  0
LINE
  8
0
  6
BYLAYER
 62
     2
 10
1115.458295
 20
-673.383585
 30
0.0
 11
1107.864911
 21
-665.790201
 31
0.0
  0
ARC
  8
0
  6
BYLAYER
 62
     2
 10
1115.246198
 20
-673.595743
 30
0.0
 40
0.299994
 50
345.000997
 51
405.004127
  0
LINE
  8
0
  6
BYLAYER
 62
     2
 10
1115.535932
 20
-673.673380
 30
0.0
 11
1112.756574
 21
-684.046182
 31
0.0
  0
LINE
  8
0
  6
BYLAYER
 62
     2
 10
1112.544415
 20
-684.258341
 30
0.0
 11
1102.171674
 21
-687.037699
 31
0.0
  0
ARC
  8
0
  6
BYLAYER
 62
     2
 10
1112.466779
 20
-683.968546
 30
0.0
 40
0.300014
 50
284.997484
 51
345.002527
  0
LINE
  8
0
  6
BYLAYER
 62
     2
 10
1097.202313
 20
-836.286234
 30
0.0
 11
1103.387372
 21
-837.943518
 31
0.0
  0
ARC
  8
0
  6
BYLAYER
 62
     2
 10
1097.279950
 20
-835.996469
 30
0.0
 40
0.299985
 50
195.000507
 51
255.001015
  0
LINE
  8
0
  6
BYLAYER
 62
     2
 10
1094.210797
 20
-825.701303
 30
0.0
 11
1096.990216
 21
-836.074106
 31
0.0
  0
ARC
  8
0
  6
BYLAYER
 62
     2
 10
1094.500592
 20
-825.623667
 30
0.0
 40
0.300014
 50
134.995889
 51
194.997502
  0
LINE
  8
0
  6
BYLAYER
 62
     2
 10
1101.881879
 20
-817.818125
 30
0.0
 11
1094.288495
 21
-825.411539
 31
0.0
  0
ARC
  8
0
  6
BYLAYER
 62
     2
 10
1102.094037
 20
-818.030252
 30
0.0
 40
0.300015
 50
75.000975
 51
135.004139
  0
LINE
  8
0
  6
BYLAYER
 62
     2
 10
1102.171674
 20
-817.740488
 30
0.0
 11
1103.387372
 21
-818.066234
 31
0.0
  0
ARC
  8
0
  6
BYLAYER
 62
     2
 10
1259.680707
 20
-818.030252
 30
0.0
 40
0.300014
 50
44.995879
 51
104.997472
  0
LINE
  8
0
  6
BYLAYER
 62
     2
 10
1259.892865
 20
-817.818155
 30
0.0
 11
1267.486249
 21
-825.411539
 31
0.0
  0
ARC
  8
0
  6
BYLAYER
 62
     2
 10
1267.274152
 20
-825.623697
 30
0.0
 40
0.299994
 50
345.000997
 51
405.004127
  0
LINE
  8
0
  6
BYLAYER
 62
     2
 10
1264.784528
 20
-836.074137
 30
0.0
 11
1267.563886
 21
-825.701334
 31
0.0
  0
ARC
  8
0
  6
BYLAYER
 62
     2
 10
1264.494794
 20
-835.996500
 30
0.0
 40
0.299955
 50
285.000517
 51
345.000997
  0
LINE
  8
0
  6
BYLAYER
 62
     2
 10
1258.387372
 20
-837.943536
 30
0.0
 11
1264.572431
 21
-836.286234
 31
0.0
  0
LINE
  8
0
  6
BYLAYER
 62
     2
 10
1258.387372
 20
-818.066202
 30
0.0
 11
1259.603070
 21
-817.740457
 31
0.0
  0
ARC
  8
0
  6
BYLAYER
 62
     1
 10
1260.920636
 20
-802.637766
 30
0.0
 40
1.000002
 50
60.000002
 51
147.876765
  0
ARC
  8
0
  6
BYLAYER
 62
     1
 10
1264.420636
 20
-796.575571
 30
0.0
 40
1.000010
 50
152.123175
 51
240.000007
  0
ARC
  8
0
  6
BYLAYER
 62
     1
 10
1264.420636
 20
-708.202555
 30
0.0
 40
0.999976
 50
120.000003
 51
207.876780
  0
ARC
  8
0
  6
BYLAYER
 62
     1
 10
1260.920636
 20
-702.140390
 30
0.0
 40
1.000029
 50
212.123163
 51
299.999995
  0
ARC
  8
0
  6
BYLAYER
 62
     1
 10
1184.387372
 20
-657.953897
 30
0.0
 40
1.000000
 50
180.000000
 51
267.876763
  0
ARC
  8
0
  6
BYLAYER
 62
     1
 10
1177.387372
 20
-657.953897
 30
0.0
 40
1.000015
 50
272.123179
 51
360.000010
  0
ARC
  8
0
  6
BYLAYER
 62
     1
 10
1100.854108
 20
-702.140421
 30
0.0
 40
1.000002
 50
240.000007
 51
327.876783
  0
ARC
  8
0
  6
BYLAYER
 62
     1
 10
1097.354108
 20
-708.202585
 30
0.0
 40
1.000024
 50
332.123167
 51
420.000025
  0
ARC
  8
0
  6
BYLAYER
 62
     1
 10
1097.354108
 20
-796.575571
 30
0.0
 40
1.000002
 50
299.999995
 51
387.876771
  0
ARC
  8
0
  6
BYLAYER
 62
     1
 10
1100.854108
 20
-802.637735
 30
0.0
 40
1.000013
 50
32.123155
 51
120.000014
  0
ARC
  8
0
  6
BYLAYER
 62
     1
 10
1180.887372
 20
-752.389078
 30
0.0
 40
93.500000
 50
325.983552
 51
327.877439
  0
ARC
  8
0
  6
BYLAYER
 62
     1
 10
1180.887372
 20
-752.389078
 30
0.0
 40
93.500046
 50
332.122566
 51
387.877461
  0
ARC
  8
0
  6
BYLAYER
 62
     1
 10
1180.887372
 20
-752.389078
 30
0.0
 40
93.500076
 50
32.122550
 51
87.877460
  0
ARC
  8
0
  6
BYLAYER
 62
     1
 10
1180.887372
 20
-752.389078
 30
0.0
 40
93.500031
 50
92.122545
 51
147.877461
  0
ARC
  8
0
  6
BYLAYER
 62
     1
 10
1180.887372
 20
-752.389078
 30
0.0
 40
93.500046
 50
152.122574
 51
207.877449
  0
ARC
  8
0
  6
BYLAYER
 62
     1
 10
1180.887372
 20
-752.389078
 30
0.0
 40
93.500046
 50
212.122521
 51
214.016490
  0
LINE
  8
0
  6
BYLAYER
 62
     1
 10
540.887372
 20
-862.389078
 30
0.0
 11
540.887372
 21
-987.389078
 31
0.0
  0
LINE
  8
0
  6
BYLAYER
 62
     1
 10
510.250043
 20
-918.065683
 30
0.0
 11
527.887372
 21
-983.889078
 31
0.0
  0
LINE
  8
0
  6
BYLAYER
 62
     1
 10
527.699994
 20
-955.487223
 30
0.0
 11
510.006696
 21
-917.543833
 31
0.0
  0
ARC
  8
0
  6
BYLAYER
 62
     1
 10
525.887372
 20
-956.332468
 30
0.0
 40
2.000010
 50
0.0
 51
25.00015
  0
ARC
  8
0
  6
BYLAYER
 62
     1
 10
529.887372
 20
-985.389078
 30
0.0
 40
2.0
 50
180.000000
 51
270.000009
  0
LINE
  8
0
  6
BYLAYER
 62
     1
 10
527.887372
 20
-985.389078
 30
0.0
 11
527.887372
 21
-862.389078
 31
0.0
  0
LINE
  8
0
  6
BYLAYER
 62
     1
 10
540.887372
 20
-987.389078
 30
0.0
 11
529.887372
 21
-987.389078
 31
0.0
  0
ARC
  8
0
  6
BYLAYER
 62
     1
 10
508.194074
 20
-918.389078
 30
0.0
 40
2.0
 50
25.000150
 51
90.000000
  0
LINE
  8
0
  6
BYLAYER
 62
     1
 10
505.887372
 20
-916.389078
 30
0.0
 11
508.194074
 21
-916.389078
 31
0.0
  0
LINE
  8
0
  6
BYLAYER
 62
     1
 10
505.887372
 20
-916.389078
 30
0.0
 11
505.887372
 21
-862.389078
 31
0.0
  0
LINE
  8
0
  6
BYLAYER
 62
     1
 10
510.250043
 20
-918.065683
 30
0.0
 11
510.250043
 21
-862.389078
 31
0.0
  0
LINE
  8
0
  6
BYLAYER
 62
     1
 10
540.887372
 20
-862.389078
 30
0.0
 11
540.887372
 21
-737.389078
 31
0.0
  0
LINE
  8
0
  6
BYLAYER
 62
     1
 10
510.250043
 20
-806.712473
 30
0.0
 11
527.887372
 21
-740.889078
 31
0.0
  0
LINE
  8
0
  6
BYLAYER
 62
     1
 10
527.699994
 20
-769.290933
 30
0.0
 11
510.006696
 21
-807.234323
 31
0.0
  0
ARC
  8
0
  6
BYLAYER
 62
     1
 10
525.887372
 20
-768.445688
 30
0.0
 40
2.000010
 50
334.999850
 51
360.000000
  0
ARC
  8
0
  6
BYLAYER
 62
     1
 10
529.887372
 20
-739.389078
 30
0.0
 40
2.0
 50
90.0
 51
180.000009
  0
LINE
  8
0
  6
BYLAYER
 62
     1
 10
527.887372
 20
-739.389078
 30
0.0
 11
527.887372
 21
-862.389078
 31
0.0
  0
LINE
  8
0
  6
BYLAYER
 62
     1
 10
540.887372
 20
-737.389078
 30
0.0
 11
529.887372
 21
-737.389078
 31
0.0
  0
ARC
  8
0
  6
BYLAYER
 62
     1
 10
508.194074
 20
-806.389078
 30
0.0
 40
2.0
 50
270.0
 51
334.999850
  0
LINE
  8
0
  6
BYLAYER
 62
     1
 10
505.887372
 20
-808.389078
 30
0.0
 11
508.194074
 21
-808.389078
 31
0.0
  0
LINE
  8
0
  6
BYLAYER
 62
     1
 10
505.887372
 20
-808.389078
 30
0.0
 11
505.887372
 21
-862.389078
 31
0.0
  0
LINE
  8
0
  6
BYLAYER
 62
     1
 10
510.250043
 20
-806.712473
 30
0.0
 11
510.250043
 21
-862.389078
 31
0.0
  0
ENDSEC
  0
EOF
