  0
SECTION
  2
HEADER
  9
$EXTMIN
 10
168.737201
 20
824.0
 30
0.0
  9
$EXTMAX
 10
1127.726962
 20
0.0
 30
0.0
  0
ENDSEC
  0
SECTION
  2
TABLES
  0
ENDSEC
  0
SECTION
  2
BLOCKS
  0
ENDSEC
  0
SECTION
  2
ENTITIES
  0
LINE
  8
0
  6
BYLAYER
 62
     7
 10
438.197952
 20
-202.608362
 30
0.0
 11
438.197952
 21
-214.858362
 31
0.0
  0
LINE
  8
0
  6
BYLAYER
 62
     7
 10
440.697952
 20
-202.608362
 30
0.0
 11
438.197952
 21
-202.608362
 31
0.0
  0
LINE
  8
0
  6
BYLAYER
 62
     7
 10
438.197952
 20
-214.858362
 30
0.0
 11
415.697952
 21
-215.251101
 31
0.0
  0
LINE
  8
0
  6
BYLAYER
 62
     7
 10
415.697952
 20
-229.358362
 30
0.0
 11
403.697952
 21
-229.358362
 31
0.0
  0
LINE
  8
0
  6
BYLAYER
 62
     7
 10
415.697952
 20
-29.358362
 30
0.0
 11
403.697952
 21
-29.358362
 31
0.0
  0
LINE
  8
0
  6
BYLAYER
 62
     7
 10
415.697952
 20
-29.358362
 30
0.0
 11
415.697952
 21
-129.358362
 31
0.0
  0
ARC
  8
0
  6
BYLAYER
 62
     7
 10
416.697952
 20
-55.875665
 30
0.0
 40
1.0
 50
180.000000
 51
269.000000
  0
LINE
  8
0
  6
BYLAYER
 62
     7
 10
415.697952
 20
-129.358362
 30
0.0
 11
415.697952
 21
-229.358362
 31
0.0
  0
LINE
  8
0
  6
BYLAYER
 62
     7
 10
416.680500
 20
-56.875512
 30
0.0
 11
440.697952
 21
-57.294739
 31
0.0
  0
LINE
  8
0
  6
BYLAYER
 62
     7
 10
440.697952
 20
-57.294739
 30
0.0
 11
440.697952
 21
-202.608362
 31
0.0
  0
LINE
  8
0
  6
BYLAYER
 62
     7
 10
403.697952
 20
-129.358362
 30
0.0
 11
403.697952
 21
-229.358362
 31
0.0
  0
LINE
  8
0
  6
BYLAYER
 62
     7
 10
403.697952
 20
-29.358362
 30
0.0
 11
403.697952
 21
-129.358362
 31
0.0
  0
LINE
  8
0
  6
BYLAYER
 62
     7
 10
520.197921
 20
-122.958323
 30
0.0
 11
444.997909
 21
-122.958323
 31
0.0
  0
LINE
  8
0
  6
BYLAYER
 62
     7
 10
520.197921
 20
-124.558329
 30
0.0
 11
444.997909
 21
-124.558329
 31
0.0
  0
ARC
  8
0
  6
BYLAYER
 62
     7
 10
448.997909
 20
-78.958323
 30
0.0
 40
0.799927
 50
90.0
 51
270.000012
  0
ARC
  8
0
  6
BYLAYER
 62
     7
 10
444.997909
 20
-123.758311
 30
0.0
 40
0.800018
 50
90.0
 51
270.000012
  0
ARC
  8
0
  6
BYLAYER
 62
     7
 10
448.997909
 20
-123.758311
 30
0.0
 40
0.800018
 50
90.0
 51
270.000012
  0
ARC
  8
0
  6
BYLAYER
 62
     7
 10
444.997909
 20
-112.558329
 30
0.0
 40
0.799988
 50
90.0
 51
270.000012
  0
ARC
  8
0
  6
BYLAYER
 62
     7
 10
448.997909
 20
-112.558329
 30
0.0
 40
0.799988
 50
90.0
 51
270.000012
  0
ARC
  8
0
  6
BYLAYER
 62
     7
 10
444.997909
 20
-101.358348
 30
0.0
 40
0.799927
 50
90.0
 51
270.000012
  0
ARC
  8
0
  6
BYLAYER
 62
     7
 10
448.997909
 20
-101.358348
 30
0.0
 40
0.799927
 50
90.0
 51
270.000012
  0
LINE
  8
0
  6
BYLAYER
 62
     7
 10
520.197921
 20
-100.558299
 30
0.0
 11
444.997909
 21
-100.558299
 31
0.0
  0
LINE
  8
0
  6
BYLAYER
 62
     7
 10
520.197921
 20
-102.158274
 30
0.0
 11
444.997909
 21
-102.158274
 31
0.0
  0
ARC
  8
0
  6
BYLAYER
 62
     7
 10
444.997909
 20
-90.158274
 30
0.0
 40
0.800049
 50
90.0
 51
270.000012
  0
ARC
  8
0
  6
BYLAYER
 62
     7
 10
448.997909
 20
-90.158274
 30
0.0
 40
0.800049
 50
90.0
 51
270.000012
  0
LINE
  8
0
  6
BYLAYER
 62
     7
 10
520.197921
 20
-89.358348
 30
0.0
 11
444.997909
 21
-89.358348
 31
0.0
  0
LINE
  8
0
  6
BYLAYER
 62
     7
 10
520.197921
 20
-90.958323
 30
0.0
 11
444.997909
 21
-90.958323
 31
0.0
  0
ARC
  8
0
  6
BYLAYER
 62
     7
 10
444.997909
 20
-78.958323
 30
0.0
 40
0.799927
 50
90.0
 51
270.000012
  0
LINE
  8
0
  6
BYLAYER
 62
     7
 10
520.197921
 20
-78.158274
 30
0.0
 11
444.997909
 21
-78.158274
 31
0.0
  0
LINE
  8
0
  6
BYLAYER
 62
     7
 10
520.197921
 20
-79.758250
 30
0.0
 11
444.997909
 21
-79.758250
 31
0.0
  0
LINE
  8
0
  6
BYLAYER
 62
     7
 10
444.197921
 20
-33.358317
 30
0.0
 11
542.197982
 21
-33.358317
 31
0.0
  0
LINE
  8
0
  6
BYLAYER
 62
     7
 10
542.197982
 20
-33.358317
 30
0.0
 11
542.197982
 21
-78.158274
 31
0.0
  0
LINE
  8
0
  6
BYLAYER
 62
     7
 10
444.197921
 20
-56.608348
 30
0.0
 11
440.697921
 21
-56.608348
 31
0.0
  0
ARC
  8
0
  6
BYLAYER
 62
     7
 10
473.697921
 20
-47.358317
 30
0.0
 40
13.0
 50
180.000019
 51
360.000018
  0
ARC
  8
0
  6
BYLAYER
 62
     7
 10
512.697921
 20
-47.358317
 30
0.0
 40
12.999985
 50
180.000019
 51
360.000018
  0
LINE
  8
0
  6
BYLAYER
 62
     7
 10
449.697921
 20
-79.758250
 30
0.0
 11
449.697921
 21
-89.358348
 31
0.0
  0
LINE
  8
0
  6
BYLAYER
 62
     7
 10
449.697921
 20
-90.958323
 30
0.0
 11
449.697921
 21
-100.558299
 31
0.0
  0
LINE
  8
0
  6
BYLAYER
 62
     7
 10
449.697921
 20
-102.158274
 30
0.0
 11
449.697921
 21
-111.758311
 31
0.0
  0
LINE
  8
0
  6
BYLAYER
 62
     7
 10
449.697921
 20
-113.358317
 30
0.0
 11
449.697921
 21
-122.958323
 31
0.0
  0
LINE
  8
0
  6
BYLAYER
 62
     7
 10
449.697921
 20
-124.558329
 30
0.0
 11
449.697982
 21
-134.158305
 31
0.0
  0
LINE
  8
0
  6
BYLAYER
 62
     7
 10
444.197921
 20
-38.858317
 30
0.0
 11
458.697921
 21
-38.858317
 31
0.0
  0
LINE
  8
0
  6
BYLAYER
 62
     7
 10
460.697921
 20
-47.358317
 30
0.0
 11
460.697921
 21
-40.858317
 31
0.0
  0
ARC
  8
0
  6
BYLAYER
 62
     7
 10
458.697921
 20
-40.858317
 30
0.0
 40
2.000000
 50
0.0
 51
90.000003
  0
LINE
  8
0
  6
BYLAYER
 62
     7
 10
486.697921
 20
-47.358317
 30
0.0
 11
486.697921
 21
-40.858317
 31
0.0
  0
ARC
  8
0
  6
BYLAYER
 62
     7
 10
488.697921
 20
-40.858317
 30
0.0
 40
2.0
 50
90.0
 51
180.000003
  0
LINE
  8
0
  6
BYLAYER
 62
     7
 10
488.697921
 20
-38.858317
 30
0.0
 11
497.697921
 21
-38.858317
 31
0.0
  0
LINE
  8
0
  6
BYLAYER
 62
     7
 10
499.697921
 20
-47.358317
 30
0.0
 11
499.697921
 21
-40.858317
 31
0.0
  0
ARC
  8
0
  6
BYLAYER
 62
     7
 10
497.697921
 20
-40.858317
 30
0.0
 40
2.000000
 50
0.0
 51
90.000003
  0
LINE
  8
0
  6
BYLAYER
 62
     7
 10
525.697921
 20
-47.358317
 30
0.0
 11
525.697921
 21
-40.858317
 31
0.0
  0
LINE
  8
0
  6
BYLAYER
 62
     7
 10
527.697982
 20
-38.858317
 30
0.0
 11
542.197982
 21
-38.858317
 31
0.0
  0
ARC
  8
0
  6
BYLAYER
 62
     7
 10
527.697982
 20
-40.858317
 30
0.0
 40
2.000061
 50
90.0
 51
180.000003
  0
LINE
  8
0
  6
BYLAYER
 62
     7
 10
444.197921
 20
-44.858317
 30
0.0
 11
460.697921
 21
-44.858317
 31
0.0
  0
LINE
  8
0
  6
BYLAYER
 62
     7
 10
486.697921
 20
-44.858317
 30
0.0
 11
499.697921
 21
-44.858317
 31
0.0
  0
LINE
  8
0
  6
BYLAYER
 62
     7
 10
525.697921
 20
-44.858317
 30
0.0
 11
542.197982
 21
-44.858317
 31
0.0
  0
LINE
  8
0
  6
BYLAYER
 62
     7
 10
520.197921
 20
-134.158335
 30
0.0
 11
444.997909
 21
-134.158335
 31
0.0
  0
LINE
  8
0
  6
BYLAYER
 62
     7
 10
520.197921
 20
-135.758341
 30
0.0
 11
444.997909
 21
-135.758341
 31
0.0
  0
ARC
  8
0
  6
BYLAYER
 62
     7
 10
444.997909
 20
-134.958323
 30
0.0
 40
0.800018
 50
90.0
 51
270.000012
  0
ARC
  8
0
  6
BYLAYER
 62
     7
 10
448.997909
 20
-134.958323
 30
0.0
 40
0.800018
 50
90.0
 51
270.000012
  0
LINE
  8
0
  6
BYLAYER
 62
     7
 10
520.197921
 20
-145.358317
 30
0.0
 11
444.997909
 21
-145.358317
 31
0.0
  0
LINE
  8
0
  6
BYLAYER
 62
     7
 10
520.197921
 20
-146.958323
 30
0.0
 11
444.997909
 21
-146.958323
 31
0.0
  0
ARC
  8
0
  6
BYLAYER
 62
     7
 10
444.997909
 20
-146.158305
 30
0.0
 40
0.800018
 50
90.0
 51
270.000012
  0
ARC
  8
0
  6
BYLAYER
 62
     7
 10
448.997909
 20
-146.158305
 30
0.0
 40
0.800018
 50
90.0
 51
270.000012
  0
LINE
  8
0
  6
BYLAYER
 62
     7
 10
520.197921
 20
-156.558329
 30
0.0
 11
444.997909
 21
-156.558329
 31
0.0
  0
LINE
  8
0
  6
BYLAYER
 62
     7
 10
520.197921
 20
-158.158335
 30
0.0
 11
444.997909
 21
-158.158335
 31
0.0
  0
ARC
  8
0
  6
BYLAYER
 62
     7
 10
444.997909
 20
-157.358317
 30
0.0
 40
0.800018
 50
90.0
 51
270.000012
  0
ARC
  8
0
  6
BYLAYER
 62
     7
 10
448.997909
 20
-157.358317
 30
0.0
 40
0.800018
 50
90.0
 51
270.000012
  0
LINE
  8
0
  6
BYLAYER
 62
     7
 10
520.197921
 20
-167.758311
 30
0.0
 11
444.997909
 21
-167.758311
 31
0.0
  0
LINE
  8
0
  6
BYLAYER
 62
     7
 10
520.197921
 20
-169.358317
 30
0.0
 11
444.997909
 21
-169.358317
 31
0.0
  0
ARC
  8
0
  6
BYLAYER
 62
     7
 10
444.997909
 20
-168.558299
 30
0.0
 40
0.800018
 50
90.0
 51
270.000012
  0
ARC
  8
0
  6
BYLAYER
 62
     7
 10
448.997909
 20
-168.558299
 30
0.0
 40
0.800018
 50
90.0
 51
270.000012
  0
LINE
  8
0
  6
BYLAYER
 62
     7
 10
520.197921
 20
-178.958323
 30
0.0
 11
444.997909
 21
-178.958323
 31
0.0
  0
ARC
  8
0
  6
BYLAYER
 62
     7
 10
444.997909
 20
-179.758311
 30
0.0
 40
0.800018
 50
90.0
 51
270.000012
  0
ARC
  8
0
  6
BYLAYER
 62
     7
 10
448.997909
 20
-179.758311
 30
0.0
 40
0.800018
 50
90.0
 51
270.000012
  0
LINE
  8
0
  6
BYLAYER
 62
     7
 10
444.197921
 20
-33.358317
 30
0.0
 11
444.197982
 21
-202.108317
 31
0.0
  0
LINE
  8
0
  6
BYLAYER
 62
     7
 10
520.197921
 20
-156.558329
 30
0.0
 11
586.732954
 21
-156.558283
 31
0.0
  0
LINE
  8
0
  6
BYLAYER
 62
     7
 10
520.197921
 20
-158.158335
 30
0.0
 11
586.732954
 21
-158.158289
 31
0.0
  0
LINE
  8
0
  6
BYLAYER
 62
     7
 10
449.697921
 20
-135.758311
 30
0.0
 11
449.697982
 21
-145.358317
 31
0.0
  0
LINE
  8
0
  6
BYLAYER
 62
     7
 10
449.697921
 20
-146.958323
 30
0.0
 11
449.697982
 21
-156.558299
 31
0.0
  0
LINE
  8
0
  6
BYLAYER
 62
     7
 10
449.697921
 20
-158.158335
 30
0.0
 11
449.697982
 21
-167.758311
 31
0.0
  0
LINE
  8
0
  6
BYLAYER
 62
     7
 10
449.697921
 20
-169.358317
 30
0.0
 11
449.697982
 21
-178.958293
 31
0.0
  0
ARC
  8
0
  6
BYLAYER
 62
     7
 10
480.197921
 20
-112.558329
 30
0.0
 40
3.000015
 50
13.212986
 51
166.787045
  0
ARC
  8
0
  6
BYLAYER
 62
     7
 10
535.197982
 20
-112.558299
 30
0.0
 40
3.000015
 50
13.213048
 51
166.786990
  0
ARC
  8
0
  6
BYLAYER
 62
     7
 10
535.197982
 20
-112.558299
 30
0.0
 40
3.000008
 50
193.212979
 51
346.787064
  0
ARC
  8
0
  6
BYLAYER
 62
     7
 10
480.197921
 20
-112.558329
 30
0.0
 40
3.000008
 50
193.212979
 51
346.787064
  0
LINE
  8
0
  6
BYLAYER
 62
     7
 10
532.306625
 20
-111.758280
 30
0.0
 11
507.697921
 21
-111.758311
 31
0.0
  0
LINE
  8
0
  6
BYLAYER
 62
     7
 10
532.306625
 20
-113.358286
 30
0.0
 11
507.697921
 21
-113.358317
 31
0.0
  0
LINE
  8
0
  6
BYLAYER
 62
     7
 10
444.997909
 20
-111.758311
 30
0.0
 11
477.306564
 21
-111.758311
 31
0.0
  0
LINE
  8
0
  6
BYLAYER
 62
     7
 10
444.997909
 20
-113.358317
 30
0.0
 11
477.306564
 21
-113.358317
 31
0.0
  0
LINE
  8
0
  6
BYLAYER
 62
     7
 10
507.697921
 20
-111.758311
 30
0.0
 11
483.089309
 21
-111.758311
 31
0.0
  0
LINE
  8
0
  6
BYLAYER
 62
     7
 10
483.089309
 20
-113.358317
 30
0.0
 11
507.697921
 21
-113.358317
 31
0.0
  0
LINE
  8
0
  6
BYLAYER
 62
     7
 10
449.697982
 20
-182.299540
 30
0.0
 11
444.197982
 21
-185.139109
 31
0.0
  0
LINE
  8
0
  6
BYLAYER
 62
     7
 10
444.197982
 20
-185.139109
 30
0.0
 11
447.699996
 21
-194.072154
 31
0.0
  0
ARC
  8
0
  6
BYLAYER
 62
     7
 10
449.562026
 20
-193.342173
 30
0.0
 40
2.000007
 50
201.406501
 51
270.000001
  0
LINE
  8
0
  6
BYLAYER
 62
     7
 10
444.197982
 20
-202.108348
 30
0.0
 11
440.697982
 21
-202.108348
 31
0.0
  0
LINE
  8
0
  6
BYLAYER
 62
     7
 10
444.197982
 20
-189.808451
 30
0.0
 11
447.791152
 21
-202.750010
 31
0.0
  0
ARC
  8
0
  6
BYLAYER
 62
     7
 10
449.718246
 20
-202.214945
 30
0.0
 40
2.000010
 50
195.517184
 51
270.000001
  0
LINE
  8
0
  6
BYLAYER
 62
     7
 10
444.197982
 20
-195.977244
 30
0.0
 11
447.765670
 21
-207.667613
 31
0.0
  0
ARC
  8
0
  6
BYLAYER
 62
     7
 10
449.678573
 20
-207.083842
 30
0.0
 40
1.999996
 50
196.971318
 51
270.000001
  0
LINE
  8
0
  6
BYLAYER
 62
     7
 10
444.197982
 20
-199.845072
 30
0.0
 11
447.749190
 21
-210.788218
 31
0.0
  0
ARC
  8
0
  6
BYLAYER
 62
     7
 10
449.651534
 20
-210.170878
 30
0.0
 40
2.000005
 50
197.979057
 51
270.000001
  0
ARC
  8
0
  6
BYLAYER
 62
     7
 10
449.087325
 20
-211.672007
 30
0.0
 40
2.000005
 50
197.979057
 51
270.000001
  0
LINE
  8
0
  6
BYLAYER
 62
     7
 10
447.184982
 20
-212.289347
 30
0.0
 11
443.881087
 21
-202.108348
 31
0.0
  0
LINE
  8
0
  6
BYLAYER
 62
     7
 10
542.197982
 20
-57.803233
 30
0.0
 11
586.732954
 21
-57.803233
 31
0.0
  0
LINE
  8
0
  6
BYLAYER
 62
     7
 10
542.197982
 20
-48.346171
 30
0.0
 11
586.732954
 21
-48.346171
 31
0.0
  0
LINE
  8
0
  6
BYLAYER
 62
     7
 10
542.197982
 20
-49.847331
 30
0.0
 11
586.732954
 21
-49.847331
 31
0.0
  0
LINE
  8
0
  6
BYLAYER
 62
     7
 10
440.697982
 20
-202.108348
 30
0.0
 11
440.697921
 21
-56.608346
 31
0.0
  0
LINE
  8
0
  6
BYLAYER
 62
     7
 10
542.197982
 20
-52.934336
 30
0.0
 11
586.732954
 21
-52.934336
 31
0.0
  0
LINE
  8
0
  6
BYLAYER
 62
     7
 10
520.197921
 20
-78.158274
 30
0.0
 11
586.732954
 21
-78.158274
 31
0.0
  0
LINE
  8
0
  6
BYLAYER
 62
     7
 10
520.197921
 20
-79.758250
 30
0.0
 11
586.732954
 21
-79.758250
 31
0.0
  0
LINE
  8
0
  6
BYLAYER
 62
     7
 10
520.197921
 20
-89.358348
 30
0.0
 11
586.732954
 21
-89.358185
 31
0.0
  0
LINE
  8
0
  6
BYLAYER
 62
     7
 10
520.197921
 20
-90.958323
 30
0.0
 11
586.732954
 21
-90.958323
 31
0.0
  0
LINE
  8
0
  6
BYLAYER
 62
     7
 10
520.197921
 20
-100.558299
 30
0.0
 11
586.732954
 21
-100.558299
 31
0.0
  0
LINE
  8
0
  6
BYLAYER
 62
     7
 10
520.197921
 20
-102.158274
 30
0.0
 11
586.732954
 21
-102.158274
 31
0.0
  0
LINE
  8
0
  6
BYLAYER
 62
     7
 10
538.089339
 20
-111.758280
 30
0.0
 11
586.732954
 21
-111.758280
 31
0.0
  0
LINE
  8
0
  6
BYLAYER
 62
     7
 10
538.089339
 20
-113.358286
 30
0.0
 11
586.732954
 21
-113.358286
 31
0.0
  0
LINE
  8
0
  6
BYLAYER
 62
     7
 10
520.197921
 20
-122.958323
 30
0.0
 11
586.732954
 21
-122.958283
 31
0.0
  0
LINE
  8
0
  6
BYLAYER
 62
     7
 10
520.197921
 20
-124.558329
 30
0.0
 11
586.732954
 21
-124.558289
 31
0.0
  0
LINE
  8
0
  6
BYLAYER
 62
     7
 10
520.197921
 20
-134.158335
 30
0.0
 11
586.732954
 21
-134.158295
 31
0.0
  0
LINE
  8
0
  6
BYLAYER
 62
     7
 10
520.197921
 20
-135.758341
 30
0.0
 11
586.732954
 21
-135.758301
 31
0.0
  0
LINE
  8
0
  6
BYLAYER
 62
     7
 10
520.197921
 20
-145.358317
 30
0.0
 11
586.732954
 21
-145.358276
 31
0.0
  0
LINE
  8
0
  6
BYLAYER
 62
     7
 10
520.197921
 20
-146.958323
 30
0.0
 11
586.732954
 21
-146.958283
 31
0.0
  0
LINE
  8
0
  6
BYLAYER
 62
     7
 10
520.197921
 20
-167.758311
 30
0.0
 11
586.732954
 21
-167.758270
 31
0.0
  0
LINE
  8
0
  6
BYLAYER
 62
     7
 10
520.197921
 20
-169.358317
 30
0.0
 11
586.732954
 21
-169.358276
 31
0.0
  0
LINE
  8
0
  6
BYLAYER
 62
     7
 10
520.197921
 20
-178.958323
 30
0.0
 11
586.732954
 21
-178.958283
 31
0.0
  0
LINE
  8
0
  6
BYLAYER
 62
     7
 10
444.997909
 20
-180.558299
 30
0.0
 11
586.732954
 21
-180.558299
 31
0.0
  0
LINE
  8
0
  6
BYLAYER
 62
     7
 10
449.697982
 20
-182.299540
 30
0.0
 11
586.732954
 21
-182.299540
 31
0.0
  0
LINE
  8
0
  6
BYLAYER
 62
     7
 10
449.562026
 20
-195.342173
 30
0.0
 11
586.732954
 21
-195.342173
 31
0.0
  0
LINE
  8
0
  6
BYLAYER
 62
     7
 10
449.718246
 20
-204.214945
 30
0.0
 11
586.732954
 21
-204.214945
 31
0.0
  0
LINE
  8
0
  6
BYLAYER
 62
     7
 10
449.678573
 20
-209.083842
 30
0.0
 11
586.732954
 21
-209.083842
 31
0.0
  0
LINE
  8
0
  6
BYLAYER
 62
     7
 10
449.651534
 20
-212.170878
 30
0.0
 11
586.732954
 21
-212.170878
 31
0.0
  0
LINE
  8
0
  6
BYLAYER
 62
     7
 10
449.087325
 20
-213.672007
 30
0.0
 11
586.732954
 21
-213.672007
 31
0.0
  0
LINE
  8
0
  6
BYLAYER
 62
     7
 10
586.732954
 20
-215.908317
 30
0.0
 11
586.732954
 21
-129.358362
 31
0.0
  0
LINE
  8
0
  6
BYLAYER
 62
     7
 10
676.732954
 20
-129.358362
 30
0.0
 11
676.732954
 21
-201.358317
 31
0.0
  0
LINE
  8
0
  6
BYLAYER
 62
     7
 10
676.732954
 20
-201.358317
 30
0.0
 11
662.182954
 21
-215.908317
 31
0.0
  0
LINE
  8
0
  6
BYLAYER
 62
     7
 10
662.182954
 20
-215.908317
 30
0.0
 11
586.732954
 21
-215.908317
 31
0.0
  0
LINE
  8
0
  6
BYLAYER
 62
     7
 10
586.732954
 20
-42.808407
 30
0.0
 11
586.732954
 21
-129.358362
 31
0.0
  0
LINE
  8
0
  6
BYLAYER
 62
     7
 10
676.732954
 20
-129.358362
 30
0.0
 11
676.732954
 21
-57.358407
 31
0.0
  0
LINE
  8
0
  6
BYLAYER
 62
     7
 10
676.732954
 20
-57.358407
 30
0.0
 11
662.182954
 21
-42.808407
 31
0.0
  0
LINE
  8
0
  6
BYLAYER
 62
     7
 10
662.182954
 20
-42.808407
 30
0.0
 11
586.732954
 21
-42.808407
 31
0.0
  0
LINE
  8
0
  6
BYLAYER
 62
     7
 10
536.697921
 20
-22.858317
 30
0.0
 11
536.697921
 21
-1.358317
 31
0.0
  0
ARC
  8
0
  6
BYLAYER
 62
     7
 10
538.197921
 20
-22.858317
 30
0.0
 40
1.500000
 50
180.000000
 51
270.000000
  0
ARC
  8
0
  6
BYLAYER
 62
     7
 10
535.197921
 20
-1.358317
 30
0.0
 40
1.500000
 50
0.0
 51
90.0
  0
LINE
  8
0
  6
BYLAYER
 62
     7
 10
449.697921
 20
-22.858317
 30
0.0
 11
449.697921
 21
-1.358317
 31
0.0
  0
ARC
  8
0
  6
BYLAYER
 62
     7
 10
448.197921
 20
-22.858317
 30
0.0
 40
1.500000
 50
270.0
 51
360.0
  0
ARC
  8
0
  6
BYLAYER
 62
     7
 10
451.197921
 20
-1.358317
 30
0.0
 40
1.500000
 50
90.0
 51
180.0
  0
LINE
  8
0
  6
BYLAYER
 62
     7
 10
451.197921
 20
0.141683
 30
0.0
 11
535.197921
 21
0.141683
 31
0.0
  0
LINE
  8
0
  6
BYLAYER
 62
     7
 10
455.070162
 20
-22.858317
 30
0.0
 11
455.070162
 21
-1.358317
 31
0.0
  0
ARC
  8
0
  6
BYLAYER
 62
     7
 10
453.570162
 20
-22.858317
 30
0.0
 40
1.500000
 50
270.0
 51
360.0
  0
ARC
  8
0
  6
BYLAYER
 62
     7
 10
456.570162
 20
-1.358317
 30
0.0
 40
1.500000
 50
90.0
 51
180.0
  0
LINE
  8
0
  6
BYLAYER
 62
     7
 10
531.325681
 20
-22.858317
 30
0.0
 11
531.325681
 21
-1.358317
 31
0.0
  0
ARC
  8
0
  6
BYLAYER
 62
     7
 10
532.825681
 20
-22.858317
 30
0.0
 40
1.500000
 50
180.000000
 51
270.000000
  0
ARC
  8
0
  6
BYLAYER
 62
     7
 10
529.825681
 20
-1.358317
 30
0.0
 40
1.500000
 50
0.0
 51
90.0
  0
LINE
  8
0
  6
BYLAYER
 62
     7
 10
493.197921
 20
-24.358317
 30
0.0
 11
540.697921
 21
-24.358317
 31
0.0
  0
ARC
  8
0
  6
BYLAYER
 62
     7
 10
540.697921
 20
-25.858317
 30
0.0
 40
1.500000
 50
0.0
 51
90.0
  0
LINE
  8
0
  6
BYLAYER
 62
     7
 10
542.197921
 20
-33.358317
 30
0.0
 11
542.197921
 21
-25.858317
 31
0.0
  0
LINE
  8
0
  6
BYLAYER
 62
     7
 10
445.697921
 20
-24.358317
 30
0.0
 11
493.197921
 21
-24.358317
 31
0.0
  0
ARC
  8
0
  6
BYLAYER
 62
     7
 10
445.697921
 20
-25.858317
 30
0.0
 40
1.500000
 50
90.0
 51
180.0
  0
LINE
  8
0
  6
BYLAYER
 62
     7
 10
444.197921
 20
-31.358317
 30
0.0
 11
444.197921
 21
-25.858317
 31
0.0
  0
LINE
  8
0
  6
BYLAYER
 62
     7
 10
542.197921
 20
-31.358317
 30
0.0
 11
444.197921
 21
-31.358317
 31
0.0
  0
LINE
  8
0
  6
BYLAYER
 62
     7
 10
444.197921
 20
-31.358317
 30
0.0
 11
444.197921
 21
-33.358317
 31
0.0
  0
LINE
  8
0
  6
BYLAYER
 62
     7
 10
444.197921
 20
-33.358317
 30
0.0
 11
542.197921
 21
-33.358317
 31
0.0
  0
LINE
  8
0
  6
BYLAYER
 62
     7
 10
662.182954
 20
-215.908317
 30
0.0
 11
662.182954
 21
-42.808407
 31
0.0
  0
LINE
  8
0
  6
BYLAYER
 62
     7
 10
415.697952
 20
-619.358362
 30
0.0
 11
403.697952
 21
-619.358362
 31
0.0
  0
LINE
  8
0
  6
BYLAYER
 62
     7
 10
415.697952
 20
-619.358362
 30
0.0
 11
415.697952
 21
-719.358362
 31
0.0
  0
ARC
  8
0
  6
BYLAYER
 62
     7
 10
416.697952
 20
-645.875665
 30
0.0
 40
1.000000
 50
180.000000
 51
269.000000
  0
LINE
  8
0
  6
BYLAYER
 62
     7
 10
416.680500
 20
-646.875512
 30
0.0
 11
440.697952
 21
-647.294739
 31
0.0
  0
LINE
  8
0
  6
BYLAYER
 62
     7
 10
440.697952
 20
-647.294739
 30
0.0
 11
440.697952
 21
-719.358362
 31
0.0
  0
LINE
  8
0
  6
BYLAYER
 62
     7
 10
403.697952
 20
-619.358362
 30
0.0
 11
403.697952
 21
-719.358362
 31
0.0
  0
LINE
  8
0
  6
BYLAYER
 62
     7
 10
415.697952
 20
-819.358362
 30
0.0
 11
403.697952
 21
-819.358362
 31
0.0
  0
LINE
  8
0
  6
BYLAYER
 62
     7
 10
415.697952
 20
-819.358362
 30
0.0
 11
415.697952
 21
-719.358362
 31
0.0
  0
ARC
  8
0
  6
BYLAYER
 62
     7
 10
416.697952
 20
-792.841059
 30
0.0
 40
1.000000
 50
91.000000
 51
180.000000
  0
LINE
  8
0
  6
BYLAYER
 62
     7
 10
416.680500
 20
-791.841212
 30
0.0
 11
440.697952
 21
-791.421985
 31
0.0
  0
LINE
  8
0
  6
BYLAYER
 62
     7
 10
440.697952
 20
-791.421985
 30
0.0
 11
440.697952
 21
-719.358362
 31
0.0
  0
LINE
  8
0
  6
BYLAYER
 62
     7
 10
403.697952
 20
-819.358362
 30
0.0
 11
403.697952
 21
-719.358362
 31
0.0
  0
LINE
  8
0
  6
BYLAYER
 62
     7
 10
520.197921
 20
-768.958323
 30
0.0
 11
444.997909
 21
-768.958323
 31
0.0
  0
ARC
  8
0
  6
BYLAYER
 62
     7
 10
444.997909
 20
-769.758311
 30
0.0
 40
0.800018
 50
90.0
 51
270.000012
  0
ARC
  8
0
  6
BYLAYER
 62
     7
 10
448.997909
 20
-769.758311
 30
0.0
 40
0.800018
 50
90.0
 51
270.000012
  0
LINE
  8
0
  6
BYLAYER
 62
     7
 10
444.197956
 20
-719.358362
 30
0.0
 11
444.197982
 21
-792.108317
 31
0.0
  0
LINE
  8
0
  6
BYLAYER
 62
     7
 10
542.197956
 20
-746.558314
 30
0.0
 11
586.732954
 21
-746.558283
 31
0.0
  0
LINE
  8
0
  6
BYLAYER
 62
     7
 10
542.197956
 20
-748.158320
 30
0.0
 11
586.732954
 21
-748.158289
 31
0.0
  0
LINE
  8
0
  6
BYLAYER
 62
     7
 10
449.697982
 20
-772.299540
 30
0.0
 11
444.197982
 21
-775.139109
 31
0.0
  0
LINE
  8
0
  6
BYLAYER
 62
     7
 10
444.197982
 20
-775.139109
 30
0.0
 11
447.699996
 21
-784.072154
 31
0.0
  0
ARC
  8
0
  6
BYLAYER
 62
     7
 10
449.562026
 20
-783.342173
 30
0.0
 40
2.000007
 50
201.406501
 51
270.000001
  0
LINE
  8
0
  6
BYLAYER
 62
     7
 10
444.197982
 20
-792.108348
 30
0.0
 11
440.697982
 21
-792.108348
 31
0.0
  0
LINE
  8
0
  6
BYLAYER
 62
     7
 10
444.197982
 20
-779.808451
 30
0.0
 11
447.791152
 21
-792.750010
 31
0.0
  0
ARC
  8
0
  6
BYLAYER
 62
     7
 10
449.718246
 20
-792.214945
 30
0.0
 40
2.000010
 50
195.517184
 51
270.000001
  0
LINE
  8
0
  6
BYLAYER
 62
     7
 10
444.197982
 20
-785.977244
 30
0.0
 11
447.765670
 21
-797.667613
 31
0.0
  0
ARC
  8
0
  6
BYLAYER
 62
     7
 10
449.678573
 20
-797.083842
 30
0.0
 40
1.999996
 50
196.971318
 51
270.000001
  0
LINE
  8
0
  6
BYLAYER
 62
     7
 10
444.197982
 20
-789.845072
 30
0.0
 11
447.749190
 21
-800.788218
 31
0.0
  0
ARC
  8
0
  6
BYLAYER
 62
     7
 10
449.651534
 20
-800.170878
 30
0.0
 40
2.000005
 50
197.979057
 51
270.000001
  0
ARC
  8
0
  6
BYLAYER
 62
     7
 10
449.087325
 20
-801.672007
 30
0.0
 40
2.000005
 50
197.979057
 51
270.000001
  0
LINE
  8
0
  6
BYLAYER
 62
     7
 10
447.184982
 20
-802.289347
 30
0.0
 11
443.881087
 21
-792.108348
 31
0.0
  0
LINE
  8
0
  6
BYLAYER
 62
     7
 10
440.697982
 20
-792.108348
 30
0.0
 11
440.697952
 21
-719.358362
 31
0.0
  0
LINE
  8
0
  6
BYLAYER
 62
     7
 10
542.197956
 20
-724.158322
 30
0.0
 11
586.732954
 21
-724.158295
 31
0.0
  0
LINE
  8
0
  6
BYLAYER
 62
     7
 10
542.197956
 20
-725.758328
 30
0.0
 11
586.732954
 21
-725.758301
 31
0.0
  0
LINE
  8
0
  6
BYLAYER
 62
     7
 10
542.197956
 20
-735.358304
 30
0.0
 11
586.732954
 21
-735.358276
 31
0.0
  0
LINE
  8
0
  6
BYLAYER
 62
     7
 10
542.197956
 20
-736.958310
 30
0.0
 11
586.732954
 21
-736.958283
 31
0.0
  0
LINE
  8
0
  6
BYLAYER
 62
     7
 10
542.197956
 20
-757.758298
 30
0.0
 11
586.732954
 21
-757.758270
 31
0.0
  0
LINE
  8
0
  6
BYLAYER
 62
     7
 10
542.197956
 20
-759.358304
 30
0.0
 11
586.732954
 21
-759.358276
 31
0.0
  0
LINE
  8
0
  6
BYLAYER
 62
     7
 10
520.197921
 20
-768.958323
 30
0.0
 11
586.732954
 21
-768.958283
 31
0.0
  0
LINE
  8
0
  6
BYLAYER
 62
     7
 10
444.997909
 20
-770.558299
 30
0.0
 11
586.732954
 21
-770.558299
 31
0.0
  0
LINE
  8
0
  6
BYLAYER
 62
     7
 10
449.697982
 20
-772.299540
 30
0.0
 11
586.732954
 21
-772.299540
 31
0.0
  0
LINE
  8
0
  6
BYLAYER
 62
     7
 10
449.562026
 20
-785.342173
 30
0.0
 11
586.732954
 21
-785.342173
 31
0.0
  0
LINE
  8
0
  6
BYLAYER
 62
     7
 10
449.718246
 20
-794.214945
 30
0.0
 11
586.732954
 21
-794.214945
 31
0.0
  0
LINE
  8
0
  6
BYLAYER
 62
     7
 10
449.678573
 20
-799.083842
 30
0.0
 11
586.732954
 21
-799.083842
 31
0.0
  0
LINE
  8
0
  6
BYLAYER
 62
     7
 10
449.651534
 20
-802.170878
 30
0.0
 11
586.732954
 21
-802.170878
 31
0.0
  0
LINE
  8
0
  6
BYLAYER
 62
     7
 10
449.087325
 20
-803.672007
 30
0.0
 11
586.732954
 21
-803.672007
 31
0.0
  0
LINE
  8
0
  6
BYLAYER
 62
     7
 10
586.732954
 20
-805.908317
 30
0.0
 11
586.732954
 21
-719.358362
 31
0.0
  0
LINE
  8
0
  6
BYLAYER
 62
     7
 10
676.732954
 20
-719.358362
 30
0.0
 11
676.732954
 21
-791.358317
 31
0.0
  0
LINE
  8
0
  6
BYLAYER
 62
     7
 10
676.732954
 20
-791.358317
 30
0.0
 11
662.182954
 21
-805.908317
 31
0.0
  0
LINE
  8
0
  6
BYLAYER
 62
     7
 10
662.182954
 20
-805.908317
 30
0.0
 11
586.732954
 21
-805.908317
 31
0.0
  0
LINE
  8
0
  6
BYLAYER
 62
     7
 10
457.046425
 20
-762.858362
 30
0.0
 11
493.197956
 21
-762.858362
 31
0.0
  0
ARC
  8
0
  6
BYLAYER
 62
     7
 10
457.046425
 20
-761.358362
 30
0.0
 40
1.500000
 50
191.536959
 51
270.000000
  0
LINE
  8
0
  6
BYLAYER
 62
     7
 10
449.697956
 20
-719.358362
 30
0.0
 11
449.697956
 21
-755.509893
 31
0.0
  0
LINE
  8
0
  6
BYLAYER
 62
     7
 10
493.197956
 20
-762.858362
 30
0.0
 11
529.349487
 21
-762.858362
 31
0.0
  0
LINE
  8
0
  6
BYLAYER
 62
     7
 10
536.697956
 20
-755.509893
 30
0.0
 11
536.697956
 21
-719.358362
 31
0.0
  0
LINE
  8
0
  6
BYLAYER
 62
     7
 10
463.802655
 20
-731.959468
 30
0.0
 11
449.697956
 21
-732.452015
 31
0.0
  0
ARC
  8
0
  6
BYLAYER
 62
     7
 10
463.697956
 20
-728.961296
 30
0.0
 40
3.0
 50
272.000000
 51
360.000000
  0
LINE
  8
0
  6
BYLAYER
 62
     7
 10
463.802655
 20
-746.959468
 30
0.0
 11
449.697956
 21
-747.452015
 31
0.0
  0
ARC
  8
0
  6
BYLAYER
 62
     7
 10
463.697956
 20
-743.961296
 30
0.0
 40
3.000000
 50
272.0
 51
360.0
  0
LINE
  8
0
  6
BYLAYER
 62
     7
 10
449.697956
 20
-736.264709
 30
0.0
 11
463.802655
 21
-736.757256
 31
0.0
  0
ARC
  8
0
  6
BYLAYER
 62
     7
 10
463.697956
 20
-739.755428
 30
0.0
 40
3.000000
 50
0.0
 51
88.0
  0
LINE
  8
0
  6
BYLAYER
 62
     7
 10
449.697956
 20
-721.264709
 30
0.0
 11
463.802655
 21
-721.757256
 31
0.0
  0
ARC
  8
0
  6
BYLAYER
 62
     7
 10
463.697956
 20
-724.755428
 30
0.0
 40
3.000000
 50
0.0
 51
88.0
  0
LINE
  8
0
  6
BYLAYER
 62
     7
 10
466.697956
 20
-739.755428
 30
0.0
 11
466.697956
 21
-743.961296
 31
0.0
  0
LINE
  8
0
  6
BYLAYER
 62
     7
 10
466.697956
 20
-724.755428
 30
0.0
 11
466.697956
 21
-728.961296
 31
0.0
  0
LINE
  8
0
  6
BYLAYER
 62
     7
 10
450.697956
 20
-721.299630
 30
0.0
 11
450.697956
 21
-732.417094
 31
0.0
  0
LINE
  8
0
  6
BYLAYER
 62
     7
 10
450.697956
 20
-736.299630
 30
0.0
 11
450.697956
 21
-747.417094
 31
0.0
  0
LINE
  8
0
  6
BYLAYER
 62
     7
 10
522.593258
 20
-731.959468
 30
0.0
 11
536.697956
 21
-732.452015
 31
0.0
  0
ARC
  8
0
  6
BYLAYER
 62
     7
 10
522.697956
 20
-728.961296
 30
0.0
 40
3.0
 50
180.000000
 51
268.000000
  0
LINE
  8
0
  6
BYLAYER
 62
     7
 10
522.593258
 20
-746.959468
 30
0.0
 11
536.697956
 21
-747.452015
 31
0.0
  0
ARC
  8
0
  6
BYLAYER
 62
     7
 10
522.697956
 20
-743.961296
 30
0.0
 40
3.0
 50
180.000000
 51
268.000000
  0
LINE
  8
0
  6
BYLAYER
 62
     7
 10
536.697956
 20
-736.264709
 30
0.0
 11
522.593258
 21
-736.757256
 31
0.0
  0
ARC
  8
0
  6
BYLAYER
 62
     7
 10
522.697956
 20
-739.755428
 30
0.0
 40
3.0
 50
92.000000
 51
180.000000
  0
LINE
  8
0
  6
BYLAYER
 62
     7
 10
536.697956
 20
-721.264709
 30
0.0
 11
522.593258
 21
-721.757256
 31
0.0
  0
ARC
  8
0
  6
BYLAYER
 62
     7
 10
522.697956
 20
-724.755428
 30
0.0
 40
3.0
 50
92.000000
 51
180.000000
  0
LINE
  8
0
  6
BYLAYER
 62
     7
 10
519.697956
 20
-739.755428
 30
0.0
 11
519.697956
 21
-743.961296
 31
0.0
  0
LINE
  8
0
  6
BYLAYER
 62
     7
 10
519.697956
 20
-724.755428
 30
0.0
 11
519.697956
 21
-728.961296
 31
0.0
  0
LINE
  8
0
  6
BYLAYER
 62
     7
 10
535.697956
 20
-721.299630
 30
0.0
 11
535.697956
 21
-732.417094
 31
0.0
  0
LINE
  8
0
  6
BYLAYER
 62
     7
 10
535.697956
 20
-736.299630
 30
0.0
 11
535.697956
 21
-747.417094
 31
0.0
  0
LINE
  8
0
  6
BYLAYER
 62
     7
 10
480.197956
 20
-749.358362
 30
0.0
 11
506.197956
 21
-749.358362
 31
0.0
  0
ARC
  8
0
  6
BYLAYER
 62
     7
 10
506.197956
 20
-746.358362
 30
0.0
 40
3.0
 50
270.0
 51
360.0
  0
ARC
  8
0
  6
BYLAYER
 62
     7
 10
480.197956
 20
-746.358362
 30
0.0
 40
3.0
 50
180.000000
 51
270.000000
  0
LINE
  8
0
  6
BYLAYER
 62
     7
 10
477.197956
 20
-719.358362
 30
0.0
 11
477.197956
 21
-746.358362
 31
0.0
  0
LINE
  8
0
  6
BYLAYER
 62
     7
 10
509.197956
 20
-746.358362
 30
0.0
 11
509.197956
 21
-719.358362
 31
0.0
  0
ARC
  8
0
  6
BYLAYER
 62
     7
 10
449.697956
 20
-762.858362
 30
0.0
 40
6.0
 50
11.536959
 51
78.463041
  0
ARC
  8
0
  6
BYLAYER
 62
     7
 10
451.197956
 20
-755.509893
 30
0.0
 40
1.5
 50
180.000000
 51
258.463041
  0
ARC
  8
0
  6
BYLAYER
 62
     7
 10
536.697956
 20
-762.858362
 30
0.0
 40
6.0
 50
101.536959
 51
168.463041
  0
ARC
  8
0
  6
BYLAYER
 62
     7
 10
535.197956
 20
-755.509893
 30
0.0
 40
1.5
 50
281.536959
 51
360.000000
  0
ARC
  8
0
  6
BYLAYER
 62
     7
 10
529.349487
 20
-761.358362
 30
0.0
 40
1.5
 50
270.0
 51
348.463041
  0
LINE
  8
0
  6
BYLAYER
 62
     7
 10
444.197956
 20
-719.358362
 30
0.0
 11
444.197956
 21
-766.858362
 31
0.0
  0
LINE
  8
0
  6
BYLAYER
 62
     7
 10
445.697956
 20
-768.358362
 30
0.0
 11
540.697956
 21
-768.358362
 31
0.0
  0
ARC
  8
0
  6
BYLAYER
 62
     7
 10
445.697956
 20
-766.858362
 30
0.0
 40
1.5
 50
180.000000
 51
270.000000
  0
LINE
  8
0
  6
BYLAYER
 62
     7
 10
542.197956
 20
-766.858362
 30
0.0
 11
542.197956
 21
-719.358362
 31
0.0
  0
ARC
  8
0
  6
BYLAYER
 62
     7
 10
540.697956
 20
-766.858362
 30
0.0
 40
1.5
 50
270.0
 51
360.0
  0
LINE
  8
0
  6
BYLAYER
 62
     7
 10
520.197921
 20
-669.758401
 30
0.0
 11
444.997909
 21
-669.758401
 31
0.0
  0
ARC
  8
0
  6
BYLAYER
 62
     7
 10
444.997909
 20
-668.958413
 30
0.0
 40
0.800018
 50
90.0
 51
270.000012
  0
ARC
  8
0
  6
BYLAYER
 62
     7
 10
448.997909
 20
-668.958413
 30
0.0
 40
0.800018
 50
90.0
 51
270.000012
  0
LINE
  8
0
  6
BYLAYER
 62
     7
 10
444.197956
 20
-719.358362
 30
0.0
 11
444.197982
 21
-646.608407
 31
0.0
  0
LINE
  8
0
  6
BYLAYER
 62
     7
 10
542.197956
 20
-692.158410
 30
0.0
 11
586.732954
 21
-692.158441
 31
0.0
  0
LINE
  8
0
  6
BYLAYER
 62
     7
 10
542.197956
 20
-690.558404
 30
0.0
 11
586.732954
 21
-690.558435
 31
0.0
  0
LINE
  8
0
  6
BYLAYER
 62
     7
 10
449.697982
 20
-666.417184
 30
0.0
 11
444.197982
 21
-663.577615
 31
0.0
  0
LINE
  8
0
  6
BYLAYER
 62
     7
 10
444.197982
 20
-663.577615
 30
0.0
 11
447.699996
 21
-654.644570
 31
0.0
  0
ARC
  8
0
  6
BYLAYER
 62
     7
 10
449.562026
 20
-655.374551
 30
0.0
 40
2.000007
 50
90.0
 51
158.593500
  0
LINE
  8
0
  6
BYLAYER
 62
     7
 10
444.197982
 20
-646.608376
 30
0.0
 11
440.697982
 21
-646.608376
 31
0.0
  0
LINE
  8
0
  6
BYLAYER
 62
     7
 10
444.197982
 20
-658.908273
 30
0.0
 11
447.791152
 21
-645.966714
 31
0.0
  0
ARC
  8
0
  6
BYLAYER
 62
     7
 10
449.718246
 20
-646.501779
 30
0.0
 40
2.000010
 50
90.0
 51
164.482817
  0
LINE
  8
0
  6
BYLAYER
 62
     7
 10
444.197982
 20
-652.739480
 30
0.0
 11
447.765670
 21
-641.049111
 31
0.0
  0
ARC
  8
0
  6
BYLAYER
 62
     7
 10
449.678573
 20
-641.632882
 30
0.0
 40
1.999996
 50
90.0
 51
163.028683
  0
LINE
  8
0
  6
BYLAYER
 62
     7
 10
444.197982
 20
-648.871652
 30
0.0
 11
447.749190
 21
-637.928506
 31
0.0
  0
ARC
  8
0
  6
BYLAYER
 62
     7
 10
449.651534
 20
-638.545846
 30
0.0
 40
2.000005
 50
90.0
 51
162.020944
  0
ARC
  8
0
  6
BYLAYER
 62
     7
 10
449.087325
 20
-637.044717
 30
0.0
 40
2.000005
 50
90.0
 51
162.020944
  0
LINE
  8
0
  6
BYLAYER
 62
     7
 10
447.184982
 20
-636.427377
 30
0.0
 11
443.881087
 21
-646.608376
 31
0.0
  0
LINE
  8
0
  6
BYLAYER
 62
     7
 10
440.697982
 20
-646.608376
 30
0.0
 11
440.697952
 21
-719.358362
 31
0.0
  0
LINE
  8
0
  6
BYLAYER
 62
     7
 10
542.197956
 20
-714.558402
 30
0.0
 11
586.732954
 21
-714.558429
 31
0.0
  0
LINE
  8
0
  6
BYLAYER
 62
     7
 10
542.197956
 20
-712.958396
 30
0.0
 11
586.732954
 21
-712.958423
 31
0.0
  0
LINE
  8
0
  6
BYLAYER
 62
     7
 10
542.197956
 20
-703.358420
 30
0.0
 11
586.732954
 21
-703.358448
 31
0.0
  0
LINE
  8
0
  6
BYLAYER
 62
     7
 10
542.197956
 20
-701.758414
 30
0.0
 11
586.732954
 21
-701.758441
 31
0.0
  0
LINE
  8
0
  6
BYLAYER
 62
     7
 10
542.197956
 20
-680.958426
 30
0.0
 11
586.732954
 21
-680.958454
 31
0.0
  0
LINE
  8
0
  6
BYLAYER
 62
     7
 10
542.197956
 20
-679.358420
 30
0.0
 11
586.732954
 21
-679.358448
 31
0.0
  0
LINE
  8
0
  6
BYLAYER
 62
     7
 10
520.197921
 20
-669.758401
 30
0.0
 11
586.732954
 21
-669.758441
 31
0.0
  0
LINE
  8
0
  6
BYLAYER
 62
     7
 10
444.997909
 20
-668.158425
 30
0.0
 11
586.732954
 21
-668.158425
 31
0.0
  0
LINE
  8
0
  6
BYLAYER
 62
     7
 10
449.697982
 20
-666.417184
 30
0.0
 11
586.732954
 21
-666.417184
 31
0.0
  0
LINE
  8
0
  6
BYLAYER
 62
     7
 10
449.562026
 20
-653.374551
 30
0.0
 11
586.732954
 21
-653.374551
 31
0.0
  0
LINE
  8
0
  6
BYLAYER
 62
     7
 10
449.718246
 20
-644.501779
 30
0.0
 11
586.732954
 21
-644.501779
 31
0.0
  0
LINE
  8
0
  6
BYLAYER
 62
     7
 10
449.678573
 20
-639.632882
 30
0.0
 11
586.732954
 21
-639.632882
 31
0.0
  0
LINE
  8
0
  6
BYLAYER
 62
     7
 10
449.651534
 20
-636.545846
 30
0.0
 11
586.732954
 21
-636.545846
 31
0.0
  0
LINE
  8
0
  6
BYLAYER
 62
     7
 10
449.087325
 20
-635.044717
 30
0.0
 11
586.732954
 21
-635.044717
 31
0.0
  0
LINE
  8
0
  6
BYLAYER
 62
     7
 10
586.732954
 20
-632.808407
 30
0.0
 11
586.732954
 21
-719.358362
 31
0.0
  0
LINE
  8
0
  6
BYLAYER
 62
     7
 10
676.732954
 20
-719.358362
 30
0.0
 11
676.732954
 21
-647.358407
 31
0.0
  0
LINE
  8
0
  6
BYLAYER
 62
     7
 10
676.732954
 20
-647.358407
 30
0.0
 11
662.182954
 21
-632.808407
 31
0.0
  0
LINE
  8
0
  6
BYLAYER
 62
     7
 10
662.182954
 20
-632.808407
 30
0.0
 11
586.732954
 21
-632.808407
 31
0.0
  0
LINE
  8
0
  6
BYLAYER
 62
     7
 10
457.046425
 20
-675.858362
 30
0.0
 11
493.197956
 21
-675.858362
 31
0.0
  0
ARC
  8
0
  6
BYLAYER
 62
     7
 10
457.046425
 20
-677.358362
 30
0.0
 40
1.5
 50
90.0
 51
168.463041
  0
LINE
  8
0
  6
BYLAYER
 62
     7
 10
449.697956
 20
-719.358362
 30
0.0
 11
449.697956
 21
-683.206831
 31
0.0
  0
LINE
  8
0
  6
BYLAYER
 62
     7
 10
493.197956
 20
-675.858362
 30
0.0
 11
529.349487
 21
-675.858362
 31
0.0
  0
LINE
  8
0
  6
BYLAYER
 62
     7
 10
536.697956
 20
-683.206831
 30
0.0
 11
536.697956
 21
-719.358362
 31
0.0
  0
LINE
  8
0
  6
BYLAYER
 62
     7
 10
463.802655
 20
-706.757256
 30
0.0
 11
449.697956
 21
-706.264709
 31
0.0
  0
ARC
  8
0
  6
BYLAYER
 62
     7
 10
463.697956
 20
-709.755428
 30
0.0
 40
3.000000
 50
0.0
 51
88.0
  0
LINE
  8
0
  6
BYLAYER
 62
     7
 10
463.802655
 20
-691.757256
 30
0.0
 11
449.697956
 21
-691.264709
 31
0.0
  0
ARC
  8
0
  6
BYLAYER
 62
     7
 10
463.697956
 20
-694.755428
 30
0.0
 40
3.000000
 50
0.0
 51
88.0
  0
LINE
  8
0
  6
BYLAYER
 62
     7
 10
449.697956
 20
-702.452015
 30
0.0
 11
463.802655
 21
-701.959468
 31
0.0
  0
ARC
  8
0
  6
BYLAYER
 62
     7
 10
463.697956
 20
-698.961296
 30
0.0
 40
3.000000
 50
272.000000
 51
360.000000
  0
LINE
  8
0
  6
BYLAYER
 62
     7
 10
449.697956
 20
-717.452015
 30
0.0
 11
463.802655
 21
-716.959468
 31
0.0
  0
ARC
  8
0
  6
BYLAYER
 62
     7
 10
463.697956
 20
-713.961296
 30
0.0
 40
3.000000
 50
272.000000
 51
360.000000
  0
LINE
  8
0
  6
BYLAYER
 62
     7
 10
466.697956
 20
-698.961296
 30
0.0
 11
466.697956
 21
-694.755428
 31
0.0
  0
LINE
  8
0
  6
BYLAYER
 62
     7
 10
466.697956
 20
-713.961296
 30
0.0
 11
466.697956
 21
-709.755428
 31
0.0
  0
LINE
  8
0
  6
BYLAYER
 62
     7
 10
450.697956
 20
-717.417094
 30
0.0
 11
450.697956
 21
-706.299630
 31
0.0
  0
LINE
  8
0
  6
BYLAYER
 62
     7
 10
450.697956
 20
-702.417094
 30
0.0
 11
450.697956
 21
-691.299630
 31
0.0
  0
LINE
  8
0
  6
BYLAYER
 62
     7
 10
522.593258
 20
-706.757256
 30
0.0
 11
536.697956
 21
-706.264709
 31
0.0
  0
ARC
  8
0
  6
BYLAYER
 62
     7
 10
522.697956
 20
-709.755428
 30
0.0
 40
3.0
 50
92.000000
 51
180.000000
  0
LINE
  8
0
  6
BYLAYER
 62
     7
 10
522.593258
 20
-691.757256
 30
0.0
 11
536.697956
 21
-691.264709
 31
0.0
  0
ARC
  8
0
  6
BYLAYER
 62
     7
 10
522.697956
 20
-694.755428
 30
0.0
 40
3.0
 50
92.000000
 51
180.000000
  0
LINE
  8
0
  6
BYLAYER
 62
     7
 10
536.697956
 20
-702.452015
 30
0.0
 11
522.593258
 21
-701.959468
 31
0.0
  0
ARC
  8
0
  6
BYLAYER
 62
     7
 10
522.697956
 20
-698.961296
 30
0.0
 40
3.0
 50
180.000000
 51
268.000000
  0
LINE
  8
0
  6
BYLAYER
 62
     7
 10
536.697956
 20
-717.452015
 30
0.0
 11
522.593258
 21
-716.959468
 31
0.0
  0
ARC
  8
0
  6
BYLAYER
 62
     7
 10
522.697956
 20
-713.961296
 30
0.0
 40
3.0
 50
180.000000
 51
268.000000
  0
LINE
  8
0
  6
BYLAYER
 62
     7
 10
519.697956
 20
-698.961296
 30
0.0
 11
519.697956
 21
-694.755428
 31
0.0
  0
LINE
  8
0
  6
BYLAYER
 62
     7
 10
519.697956
 20
-713.961296
 30
0.0
 11
519.697956
 21
-709.755428
 31
0.0
  0
LINE
  8
0
  6
BYLAYER
 62
     7
 10
535.697956
 20
-717.417094
 30
0.0
 11
535.697956
 21
-706.299630
 31
0.0
  0
LINE
  8
0
  6
BYLAYER
 62
     7
 10
535.697956
 20
-702.417094
 30
0.0
 11
535.697956
 21
-691.299630
 31
0.0
  0
LINE
  8
0
  6
BYLAYER
 62
     7
 10
480.197956
 20
-689.358362
 30
0.0
 11
506.197956
 21
-689.358362
 31
0.0
  0
ARC
  8
0
  6
BYLAYER
 62
     7
 10
506.197956
 20
-692.358362
 30
0.0
 40
3.0
 50
0.0
 51
90.0
  0
ARC
  8
0
  6
BYLAYER
 62
     7
 10
480.197956
 20
-692.358362
 30
0.0
 40
3.0
 50
90.0
 51
180.0
  0
LINE
  8
0
  6
BYLAYER
 62
     7
 10
477.197956
 20
-719.358362
 30
0.0
 11
477.197956
 21
-692.358362
 31
0.0
  0
LINE
  8
0
  6
BYLAYER
 62
     7
 10
509.197956
 20
-692.358362
 30
0.0
 11
509.197956
 21
-719.358362
 31
0.0
  0
ARC
  8
0
  6
BYLAYER
 62
     7
 10
449.697956
 20
-675.858362
 30
0.0
 40
6.0
 50
281.536959
 51
348.463041
  0
ARC
  8
0
  6
BYLAYER
 62
     7
 10
451.197956
 20
-683.206831
 30
0.0
 40
1.5
 50
101.536959
 51
180.000000
  0
ARC
  8
0
  6
BYLAYER
 62
     7
 10
536.697956
 20
-675.858362
 30
0.0
 40
6.0
 50
191.536959
 51
258.463041
  0
ARC
  8
0
  6
BYLAYER
 62
     7
 10
535.197956
 20
-683.206831
 30
0.0
 40
1.5
 50
0.0
 51
78.463041
  0
ARC
  8
0
  6
BYLAYER
 62
     7
 10
529.349487
 20
-677.358362
 30
0.0
 40
1.5
 50
11.536959
 51
90.000000
  0
LINE
  8
0
  6
BYLAYER
 62
     7
 10
444.197956
 20
-719.358362
 30
0.0
 11
444.197956
 21
-671.858362
 31
0.0
  0
LINE
  8
0
  6
BYLAYER
 62
     7
 10
445.697956
 20
-670.358362
 30
0.0
 11
540.697956
 21
-670.358362
 31
0.0
  0
ARC
  8
0
  6
BYLAYER
 62
     7
 10
445.697956
 20
-671.858362
 30
0.0
 40
1.5
 50
90.0
 51
180.0
  0
LINE
  8
0
  6
BYLAYER
 62
     7
 10
542.197956
 20
-671.858362
 30
0.0
 11
542.197956
 21
-719.358362
 31
0.0
  0
ARC
  8
0
  6
BYLAYER
 62
     7
 10
540.697956
 20
-671.858362
 30
0.0
 40
1.5
 50
0.0
 51
90.0
  0
LINE
  8
0
  6
BYLAYER
 62
     7
 10
662.182954
 20
-632.808407
 30
0.0
 11
662.182954
 21
-805.908317
 31
0.0
  0
LINE
  8
0
  6
BYLAYER
 62
     1
 10
327.197891
 20
-84.358362
 30
0.0
 11
325.697891
 21
-85.858362
 31
0.0
  0
LINE
  8
0
  6
BYLAYER
 62
     1
 10
377.197891
 20
-85.858362
 30
0.0
 11
375.697891
 21
-84.358362
 31
0.0
  0
LINE
  8
0
  6
BYLAYER
 62
     1
 10
221.197952
 20
-84.358362
 30
0.0
 11
222.697952
 21
-85.858362
 31
0.0
  0
LINE
  8
0
  6
BYLAYER
 62
     1
 10
171.197952
 20
-85.858362
 30
0.0
 11
172.697952
 21
-84.358362
 31
0.0
  0
LINE
  8
0
  6
BYLAYER
 62
     1
 10
377.197891
 20
-272.358362
 30
0.0
 11
375.697891
 21
-270.858362
 31
0.0
  0
LINE
  8
0
  6
BYLAYER
 62
     1
 10
327.197891
 20
-322.358362
 30
0.0
 11
325.697891
 21
-320.858301
 31
0.0
  0
LINE
  8
0
  6
BYLAYER
 62
     1
 10
171.197952
 20
-272.358362
 30
0.0
 11
172.697952
 21
-270.858362
 31
0.0
  0
LINE
  8
0
  6
BYLAYER
 62
     1
 10
221.197952
 20
-322.358362
 30
0.0
 11
222.697952
 21
-320.858301
 31
0.0
  0
LINE
  8
0
  6
BYLAYER
 62
     1
 10
325.697891
 20
-320.858301
 30
0.0
 11
222.697952
 21
-320.858301
 31
0.0
  0
LINE
  8
0
  6
BYLAYER
 62
     1
 10
377.197891
 20
-320.858362
 30
0.0
 11
375.697891
 21
-322.358362
 31
0.0
  0
LINE
  8
0
  6
BYLAYER
 62
     1
 10
171.197952
 20
-320.858362
 30
0.0
 11
172.697952
 21
-322.358362
 31
0.0
  0
LINE
  8
0
  6
BYLAYER
 62
     1
 10
222.697952
 20
-85.858362
 30
0.0
 11
325.697891
 21
-85.858362
 31
0.0
  0
LINE
  8
0
  6
BYLAYER
 62
     1
 10
377.197891
 20
-134.358362
 30
0.0
 11
375.697891
 21
-135.858362
 31
0.0
  0
LINE
  8
0
  6
BYLAYER
 62
     1
 10
377.197891
 20
-134.358362
 30
0.0
 11
377.197891
 21
-85.858362
 31
0.0
  0
LINE
  8
0
  6
BYLAYER
 62
     1
 10
171.197952
 20
-134.358362
 30
0.0
 11
172.697952
 21
-135.858362
 31
0.0
  0
LINE
  8
0
  6
BYLAYER
 62
     1
 10
172.697952
 20
-270.858362
 30
0.0
 11
172.697952
 21
-135.858362
 31
0.0
  0
LINE
  8
0
  6
BYLAYER
 62
     1
 10
171.197952
 20
-165.358362
 30
0.0
 11
172.697952
 21
-165.410730
 31
0.0
  0
ARC
  8
0
  6
BYLAYER
 62
     1
 10
364.197891
 20
-97.358362
 30
0.0
 40
2.0
 50
0.0
 51
90.000016
  0
LINE
  8
0
  6
BYLAYER
 62
     1
 10
184.197952
 20
-95.358362
 30
0.0
 11
364.197891
 21
-95.358362
 31
0.0
  0
ARC
  8
0
  6
BYLAYER
 62
     1
 10
184.197952
 20
-97.358362
 30
0.0
 40
2.000000
 50
90.0
 51
180.000009
  0
ARC
  8
0
  6
BYLAYER
 62
     1
 10
184.197952
 20
-309.358362
 30
0.0
 40
2.000000
 50
180.000000
 51
269.999996
  0
ARC
  8
0
  6
BYLAYER
 62
     1
 10
364.197891
 20
-309.358423
 30
0.0
 40
2.0
 50
270.0
 51
359.999982
  0
LINE
  8
0
  6
BYLAYER
 62
     1
 10
377.197891
 20
-272.358362
 30
0.0
 11
366.197891
 21
-272.358362
 31
0.0
  0
LINE
  8
0
  6
BYLAYER
 62
     1
 10
377.197891
 20
-134.358362
 30
0.0
 11
366.197891
 21
-134.358362
 31
0.0
  0
LINE
  8
0
  6
BYLAYER
 62
     1
 10
171.197952
 20
-134.358362
 30
0.0
 11
182.197952
 21
-134.358362
 31
0.0
  0
LINE
  8
0
  6
BYLAYER
 62
     1
 10
171.197952
 20
-272.358362
 30
0.0
 11
182.197952
 21
-272.358362
 31
0.0
  0
LINE
  8
0
  6
BYLAYER
 62
     1
 10
327.197891
 20
-322.358362
 30
0.0
 11
327.197891
 21
-311.358423
 31
0.0
  0
LINE
  8
0
  6
BYLAYER
 62
     1
 10
221.197952
 20
-322.358362
 30
0.0
 11
221.197952
 21
-311.358423
 31
0.0
  0
LINE
  8
0
  6
BYLAYER
 62
     1
 10
327.197891
 20
-84.358362
 30
0.0
 11
327.197891
 21
-95.358301
 31
0.0
  0
LINE
  8
0
  6
BYLAYER
 62
     1
 10
325.697891
 20
-85.858423
 30
0.0
 11
325.697891
 21
-95.358301
 31
0.0
  0
LINE
  8
0
  6
BYLAYER
 62
     1
 10
222.697952
 20
-85.858423
 30
0.0
 11
222.697952
 21
-95.358301
 31
0.0
  0
LINE
  8
0
  6
BYLAYER
 62
     1
 10
221.197952
 20
-84.358362
 30
0.0
 11
221.197952
 21
-95.358301
 31
0.0
  0
LINE
  8
0
  6
BYLAYER
 62
     1
 10
379.197891
 20
-170.999353
 30
0.0
 11
375.697891
 21
-171.121607
 31
0.0
  0
LINE
  8
0
  6
BYLAYER
 62
     1
 10
375.697891
 20
-159.065515
 30
0.0
 11
379.197891
 21
-159.065515
 31
0.0
  0
LINE
  8
0
  6
BYLAYER
 62
     1
 10
375.697891
 20
-136.358362
 30
0.0
 11
379.197891
 21
-136.358362
 31
0.0
  0
LINE
  8
0
  6
BYLAYER
 62
     1
 10
379.197891
 20
-87.717371
 30
0.0
 11
377.197891
 21
-87.647486
 31
0.0
  0
LINE
  8
0
  6
BYLAYER
 62
     1
 10
379.197891
 20
-170.999353
 30
0.0
 11
379.197891
 21
-87.717371
 31
0.0
  0
LINE
  8
0
  6
BYLAYER
 62
     1
 10
377.197891
 20
-122.358362
 30
0.0
 11
379.197891
 21
-122.358362
 31
0.0
  0
LINE
  8
0
  6
BYLAYER
 62
     1
 10
377.197891
 20
-99.651209
 30
0.0
 11
379.197891
 21
-99.651209
 31
0.0
  0
ARC
  8
0
  6
BYLAYER
 62
     1
 10
189.697952
 20
-303.858362
 30
0.0
 40
2.000000
 50
180.000000
 51
269.999996
  0
LINE
  8
0
  6
BYLAYER
 62
     1
 10
365.612076
 20
-310.772608
 30
0.0
 11
360.112076
 21
-305.272608
 31
0.0
  0
LINE
  8
0
  6
BYLAYER
 62
     1
 10
364.197891
 20
-311.358423
 30
0.0
 11
309.386551
 21
-311.358423
 31
0.0
  0
LINE
  8
0
  6
BYLAYER
 62
     1
 10
182.197952
 20
-97.358362
 30
0.0
 11
182.197952
 21
-183.802027
 31
0.0
  0
ARC
  8
0
  6
BYLAYER
 62
     1
 10
180.197952
 20
-183.802027
 30
0.0
 40
1.999980
 50
339.280495
 51
360.000000
  0
ARC
  8
0
  6
BYLAYER
 62
     1
 10
274.197952
 20
-219.358362
 30
0.0
 40
98.500038
 50
159.280449
 51
200.719548
  0
LINE
  8
0
  6
BYLAYER
 62
     1
 10
182.197952
 20
-254.914636
 30
0.0
 11
182.197952
 21
-309.358362
 31
0.0
  0
ARC
  8
0
  6
BYLAYER
 62
     1
 10
180.197952
 20
-254.914636
 30
0.0
 40
1.999959
 50
0.0
 51
20.719577
  0
LINE
  8
0
  6
BYLAYER
 62
     1
 10
238.641861
 20
-311.358423
 30
0.0
 11
184.197952
 21
-311.358423
 31
0.0
  0
ARC
  8
0
  6
BYLAYER
 62
     1
 10
274.197952
 20
-219.358362
 30
0.0
 40
98.500031
 50
249.280595
 51
290.931197
  0
ARC
  8
0
  6
BYLAYER
 62
     1
 10
238.641861
 20
-313.358423
 30
0.0
 40
2.000000
 50
69.280601
 51
90.000000
  0
LINE
  8
0
  6
BYLAYER
 62
     1
 10
366.197891
 20
-254.914636
 30
0.0
 11
366.197891
 21
-309.358423
 31
0.0
  0
ARC
  8
0
  6
BYLAYER
 62
     1
 10
368.197891
 20
-254.914636
 30
0.0
 40
2.000000
 50
159.280416
 51
180.000000
  0
ARC
  8
0
  6
BYLAYER
 62
     1
 10
368.197891
 20
-183.802027
 30
0.0
 40
2.0
 50
180.000000
 51
200.719584
  0
LINE
  8
0
  6
BYLAYER
 62
     1
 10
189.697952
 20
-305.858362
 30
0.0
 11
232.153152
 21
-305.858362
 31
0.0
  0
ARC
  8
0
  6
BYLAYER
 62
     1
 10
222.697952
 20
-124.358362
 30
0.0
 40
1.0
 50
90.0
 51
270.000005
  0
ARC
  8
0
  6
BYLAYER
 62
     1
 10
325.697891
 20
-124.358362
 30
0.0
 40
1.000000
 50
270.0
 51
449.999991
  0
LINE
  8
0
  6
BYLAYER
 62
     1
 10
291.234680
 20
-123.358362
 30
0.0
 11
325.697891
 21
-123.358362
 31
0.0
  0
LINE
  8
0
  6
BYLAYER
 62
     1
 10
222.697952
 20
-123.358362
 30
0.0
 11
257.161224
 21
-123.358362
 31
0.0
  0
LINE
  8
0
  6
BYLAYER
 62
     1
 10
300.087143
 20
-125.358362
 30
0.0
 11
325.697891
 21
-125.358362
 31
0.0
  0
LINE
  8
0
  6
BYLAYER
 62
     1
 10
222.697952
 20
-125.358362
 30
0.0
 11
248.308761
 21
-125.358362
 31
0.0
  0
ARC
  8
0
  6
BYLAYER
 62
     1
 10
226.197952
 20
-136.358362
 30
0.0
 40
1.0
 50
270.0
 51
450.000005
  0
ARC
  8
0
  6
BYLAYER
 62
     1
 10
215.197952
 20
-148.358362
 30
0.0
 40
1.0
 50
270.0
 51
450.000005
  0
ARC
  8
0
  6
BYLAYER
 62
     1
 10
203.197952
 20
-160.358362
 30
0.0
 40
1.0
 50
270.0
 51
450.000005
  0
ARC
  8
0
  6
BYLAYER
 62
     1
 10
322.197891
 20
-136.358362
 30
0.0
 40
1.0
 50
90.0
 51
270.000005
  0
ARC
  8
0
  6
BYLAYER
 62
     1
 10
333.197891
 20
-148.358362
 30
0.0
 40
1.0
 50
90.0
 51
270.000005
  0
ARC
  8
0
  6
BYLAYER
 62
     1
 10
345.197891
 20
-160.358362
 30
0.0
 40
1.0
 50
90.0
 51
270.000005
  0
LINE
  8
0
  6
BYLAYER
 62
     1
 10
366.197891
 20
-183.802027
 30
0.0
 11
366.197891
 21
-97.358362
 31
0.0
  0
LINE
  8
0
  6
BYLAYER
 62
     1
 10
226.197952
 20
-137.358362
 30
0.0
 11
183.197952
 21
-137.358362
 31
0.0
  0
LINE
  8
0
  6
BYLAYER
 62
     1
 10
226.197952
 20
-135.358362
 30
0.0
 11
183.197952
 21
-135.358362
 31
0.0
  0
ARC
  8
0
  6
BYLAYER
 62
     1
 10
183.197952
 20
-146.358362
 30
0.0
 40
1.000000
 50
180.000000
 51
269.999996
  0
ARC
  8
0
  6
BYLAYER
 62
     1
 10
183.197952
 20
-158.358362
 30
0.0
 40
1.0
 50
180.000000
 51
269.999996
  0
ARC
  8
0
  6
BYLAYER
 62
     1
 10
183.197952
 20
-150.358362
 30
0.0
 40
1.000000
 50
90.0
 51
180.000003
  0
ARC
  8
0
  6
BYLAYER
 62
     1
 10
183.197952
 20
-162.358362
 30
0.0
 40
1.000000
 50
90.0
 51
180.000003
  0
LINE
  8
0
  6
BYLAYER
 62
     1
 10
215.197952
 20
-147.358362
 30
0.0
 11
183.197952
 21
-147.358362
 31
0.0
  0
LINE
  8
0
  6
BYLAYER
 62
     1
 10
215.197952
 20
-149.358362
 30
0.0
 11
183.197952
 21
-149.358362
 31
0.0
  0
LINE
  8
0
  6
BYLAYER
 62
     1
 10
203.197952
 20
-159.358362
 30
0.0
 11
183.197952
 21
-159.358362
 31
0.0
  0
LINE
  8
0
  6
BYLAYER
 62
     1
 10
203.197952
 20
-161.358362
 30
0.0
 11
183.197952
 21
-161.358362
 31
0.0
  0
ARC
  8
0
  6
BYLAYER
 62
     1
 10
365.197891
 20
-134.358362
 30
0.0
 40
1.0
 50
270.0
 51
359.999982
  0
ARC
  8
0
  6
BYLAYER
 62
     1
 10
365.197891
 20
-138.358362
 30
0.0
 40
1.0
 50
0.0
 51
90.000016
  0
ARC
  8
0
  6
BYLAYER
 62
     1
 10
365.197891
 20
-146.358362
 30
0.0
 40
1.0
 50
270.0
 51
359.999982
  0
ARC
  8
0
  6
BYLAYER
 62
     1
 10
365.197891
 20
-150.358362
 30
0.0
 40
1.0
 50
0.0
 51
90.000016
  0
ARC
  8
0
  6
BYLAYER
 62
     1
 10
365.197891
 20
-158.358362
 30
0.0
 40
1.0
 50
270.0
 51
359.999982
  0
ARC
  8
0
  6
BYLAYER
 62
     1
 10
365.197891
 20
-162.358362
 30
0.0
 40
1.0
 50
0.0
 51
90.000016
  0
LINE
  8
0
  6
BYLAYER
 62
     1
 10
322.197891
 20
-137.358362
 30
0.0
 11
365.197891
 21
-137.358362
 31
0.0
  0
LINE
  8
0
  6
BYLAYER
 62
     1
 10
333.197891
 20
-147.358362
 30
0.0
 11
365.197891
 21
-147.358362
 31
0.0
  0
LINE
  8
0
  6
BYLAYER
 62
     1
 10
333.197891
 20
-149.358362
 30
0.0
 11
365.197891
 21
-149.358362
 31
0.0
  0
LINE
  8
0
  6
BYLAYER
 62
     1
 10
345.197891
 20
-159.358362
 30
0.0
 11
365.197891
 21
-159.358362
 31
0.0
  0
LINE
  8
0
  6
BYLAYER
 62
     1
 10
345.197891
 20
-161.358362
 30
0.0
 11
365.197891
 21
-161.358362
 31
0.0
  0
LINE
  8
0
  6
BYLAYER
 62
     1
 10
172.697952
 20
-150.680383
 30
0.0
 11
171.197952
 21
-150.680383
 31
0.0
  0
LINE
  8
0
  6
BYLAYER
 62
     1
 10
172.697952
 20
-164.536341
 30
0.0
 11
171.197952
 21
-164.536341
 31
0.0
  0
LINE
  8
0
  6
BYLAYER
 62
     1
 10
366.197891
 20
-135.858362
 30
0.0
 11
375.697891
 21
-135.858362
 31
0.0
  0
LINE
  8
0
  6
BYLAYER
 62
     1
 10
366.197891
 20
-270.858362
 30
0.0
 11
375.697891
 21
-270.858362
 31
0.0
  0
LINE
  8
0
  6
BYLAYER
 62
     1
 10
325.697891
 20
-311.358423
 30
0.0
 11
325.697891
 21
-320.858301
 31
0.0
  0
LINE
  8
0
  6
BYLAYER
 62
     1
 10
222.697952
 20
-320.858301
 30
0.0
 11
222.697952
 21
-311.358423
 31
0.0
  0
LINE
  8
0
  6
BYLAYER
 62
     1
 10
172.697952
 20
-270.858362
 30
0.0
 11
182.197952
 21
-270.858362
 31
0.0
  0
LINE
  8
0
  6
BYLAYER
 62
     1
 10
172.697952
 20
-135.858362
 30
0.0
 11
182.197952
 21
-135.858362
 31
0.0
  0
LINE
  8
0
  6
BYLAYER
 62
     1
 10
337.697891
 20
-95.358362
 30
0.0
 11
337.697891
 21
-84.358362
 31
0.0
  0
LINE
  8
0
  6
BYLAYER
 62
     1
 10
350.697891
 20
-95.358362
 30
0.0
 11
350.697891
 21
-84.358362
 31
0.0
  0
LINE
  8
0
  6
BYLAYER
 62
     1
 10
197.697952
 20
-95.358362
 30
0.0
 11
197.697952
 21
-84.358362
 31
0.0
  0
LINE
  8
0
  6
BYLAYER
 62
     1
 10
210.697952
 20
-95.358362
 30
0.0
 11
210.697952
 21
-84.358362
 31
0.0
  0
LINE
  8
0
  6
BYLAYER
 62
     1
 10
182.197952
 20
-110.858362
 30
0.0
 11
171.197952
 21
-110.858362
 31
0.0
  0
LINE
  8
0
  6
BYLAYER
 62
     1
 10
182.197952
 20
-123.858362
 30
0.0
 11
171.197952
 21
-123.858362
 31
0.0
  0
LINE
  8
0
  6
BYLAYER
 62
     1
 10
210.697952
 20
-311.358362
 30
0.0
 11
210.697952
 21
-322.358362
 31
0.0
  0
LINE
  8
0
  6
BYLAYER
 62
     1
 10
197.697952
 20
-311.358362
 30
0.0
 11
197.697952
 21
-322.358362
 31
0.0
  0
LINE
  8
0
  6
BYLAYER
 62
     1
 10
182.197952
 20
-295.858362
 30
0.0
 11
171.197952
 21
-295.858362
 31
0.0
  0
LINE
  8
0
  6
BYLAYER
 62
     1
 10
182.197952
 20
-282.858362
 30
0.0
 11
171.197952
 21
-282.858362
 31
0.0
  0
LINE
  8
0
  6
BYLAYER
 62
     1
 10
366.197952
 20
-282.858362
 30
0.0
 11
377.197891
 21
-282.858362
 31
0.0
  0
LINE
  8
0
  6
BYLAYER
 62
     1
 10
366.197952
 20
-295.858362
 30
0.0
 11
377.197891
 21
-295.858362
 31
0.0
  0
LINE
  8
0
  6
BYLAYER
 62
     1
 10
350.697891
 20
-311.358362
 30
0.0
 11
350.697891
 21
-322.358362
 31
0.0
  0
LINE
  8
0
  6
BYLAYER
 62
     1
 10
337.697891
 20
-311.358362
 30
0.0
 11
337.697891
 21
-322.358362
 31
0.0
  0
LINE
  8
0
  6
BYLAYER
 62
     1
 10
322.197891
 20
-135.358362
 30
0.0
 11
357.146744
 21
-135.358362
 31
0.0
  0
LINE
  8
0
  6
BYLAYER
 62
     1
 10
365.197891
 20
-135.358362
 30
0.0
 11
357.146744
 21
-135.358362
 31
0.0
  0
LINE
  8
0
  6
BYLAYER
 62
     1
 10
327.197891
 20
-322.358362
 30
0.0
 11
375.697891
 21
-322.358362
 31
0.0
  0
LINE
  8
0
  6
BYLAYER
 62
     1
 10
316.242752
 20
-305.858362
 30
0.0
 11
336.741653
 21
-305.858362
 31
0.0
  0
LINE
  8
0
  6
BYLAYER
 62
     1
 10
336.741653
 20
-305.858362
 30
0.0
 11
358.697891
 21
-305.858362
 31
0.0
  0
LINE
  8
0
  6
BYLAYER
 62
     1
 10
221.197952
 20
-322.358362
 30
0.0
 11
172.697952
 21
-322.358362
 31
0.0
  0
ARC
  8
0
  6
BYLAYER
 62
     1
 10
353.197891
 20
-266.358362
 30
0.0
 40
1.0
 50
90.0
 51
270.000005
  0
ARC
  8
0
  6
BYLAYER
 62
     1
 10
365.197891
 20
-268.358362
 30
0.0
 40
1.0
 50
0.0
 51
89.999982
  0
ARC
  8
0
  6
BYLAYER
 62
     1
 10
365.197891
 20
-264.358362
 30
0.0
 40
1.000000
 50
270.0
 51
360.000016
  0
LINE
  8
0
  6
BYLAYER
 62
     1
 10
353.197891
 20
-267.358362
 30
0.0
 11
365.197891
 21
-267.358362
 31
0.0
  0
LINE
  8
0
  6
BYLAYER
 62
     1
 10
353.197891
 20
-265.358362
 30
0.0
 11
365.197891
 21
-265.358362
 31
0.0
  0
LINE
  8
0
  6
BYLAYER
 62
     1
 10
377.197891
 20
-272.358362
 30
0.0
 11
377.197891
 21
-320.858362
 31
0.0
  0
ARC
  8
0
  6
BYLAYER
 62
     1
 10
195.197952
 20
-266.358362
 30
0.0
 40
1.0
 50
270.0
 51
449.999991
  0
ARC
  8
0
  6
BYLAYER
 62
     1
 10
183.197952
 20
-268.358362
 30
0.0
 40
1.0
 50
90.0
 51
179.999982
  0
ARC
  8
0
  6
BYLAYER
 62
     1
 10
183.197952
 20
-264.358362
 30
0.0
 40
1.000000
 50
180.000000
 51
270.000023
  0
LINE
  8
0
  6
BYLAYER
 62
     1
 10
195.197952
 20
-267.358362
 30
0.0
 11
183.197952
 21
-267.358362
 31
0.0
  0
LINE
  8
0
  6
BYLAYER
 62
     1
 10
195.197952
 20
-265.358362
 30
0.0
 11
183.197952
 21
-265.358362
 31
0.0
  0
ARC
  8
0
  6
BYLAYER
 62
     1
 10
183.197952
 20
-134.358362
 30
0.0
 40
1.000000
 50
180.000000
 51
269.999996
  0
ARC
  8
0
  6
BYLAYER
 62
     1
 10
183.197952
 20
-138.358362
 30
0.0
 40
1.000000
 50
90.0
 51
180.000003
  0
ARC
  8
0
  6
BYLAYER
 62
     1
 10
274.197952
 20
-219.358362
 30
0.0
 40
98.499939
 50
0.0
 51
20.719575
  0
ARC
  8
0
  6
BYLAYER
 62
     1
 10
274.197952
 20
-219.358362
 30
0.0
 40
98.499939
 50
339.280413
 51
360.000000
  0
LINE
  8
0
  6
BYLAYER
 62
     1
 10
171.197952
 20
-320.858362
 30
0.0
 11
171.197952
 21
-272.358362
 31
0.0
  0
LINE
  8
0
  6
BYLAYER
 62
     1
 10
221.197952
 20
-84.358362
 30
0.0
 11
172.697952
 21
-84.358362
 31
0.0
  0
LINE
  8
0
  6
BYLAYER
 62
     1
 10
171.197952
 20
-129.358362
 30
0.0
 11
171.197952
 21
-165.358362
 31
0.0
  0
LINE
  8
0
  6
BYLAYER
 62
     1
 10
171.197952
 20
-129.358362
 30
0.0
 11
171.197952
 21
-85.858362
 31
0.0
  0
LINE
  8
0
  6
BYLAYER
 62
     1
 10
327.197891
 20
-84.358362
 30
0.0
 11
375.697891
 21
-84.358362
 31
0.0
  0
LINE
  8
0
  6
BYLAYER
 62
     1
 10
187.697952
 20
-265.358362
 30
0.0
 11
187.697952
 21
-261.403162
 31
0.0
  0
LINE
  8
0
  6
BYLAYER
 62
     1
 10
187.697952
 20
-303.858362
 30
0.0
 11
187.697952
 21
-267.358362
 31
0.0
  0
ARC
  8
0
  6
BYLAYER
 62
     1
 10
358.697891
 20
-303.858362
 30
0.0
 40
2.0
 50
314.998762
 51
360.000000
  0
ARC
  8
0
  6
BYLAYER
 62
     1
 10
358.697891
 20
-303.858362
 30
0.0
 40
2.000002
 50
270.0
 51
314.998762
  0
LINE
  8
0
  6
BYLAYER
 62
     1
 10
360.697891
 20
-303.858362
 30
0.0
 11
360.697891
 21
-267.358362
 31
0.0
  0
LINE
  8
0
  6
BYLAYER
 62
     1
 10
360.697891
 20
-265.358362
 30
0.0
 11
360.697891
 21
-261.403162
 31
0.0
  0
LINE
  8
0
  6
BYLAYER
 62
     1
 10
182.783828
 20
-310.772608
 30
0.0
 11
188.283828
 21
-305.272608
 31
0.0
  0
LINE
  8
0
  6
BYLAYER
 62
     1
 10
375.697891
 20
-270.858362
 30
0.0
 11
375.697891
 21
-135.858362
 31
0.0
  0
ARC
  8
0
  6
BYLAYER
 62
     1
 10
274.197952
 20
-219.358362
 30
0.0
 40
42.500000
 50
90.0
 51
180.000002
  0
CIRCLE
  8
0
  6
BYLAYER
 62
     1
 10
274.197952
 20
-154.358362
 30
0.0
 40
4.5
  0
ARC
  8
0
  6
BYLAYER
 62
     1
 10
274.197952
 20
-154.358362
 30
0.0
 40
4.999938
 50
353.660000
 51
636.340001
  0
ARC
  8
0
  6
BYLAYER
 62
     1
 10
228.235977
 20
-173.396448
 30
0.0
 40
4.999972
 50
38.659991
 51
321.339992
  0
ARC
  8
0
  6
BYLAYER
 62
     1
 10
228.235977
 20
-173.396448
 30
0.0
 40
4.999972
 50
38.659991
 51
321.339992
  0
CIRCLE
  8
0
  6
BYLAYER
 62
     1
 10
228.235977
 20
-173.396448
 30
0.0
 40
4.5
  0
CIRCLE
  8
0
  6
BYLAYER
 62
     1
 10
209.197952
 20
-219.358362
 30
0.0
 40
4.5
  0
ARC
  8
0
  6
BYLAYER
 62
     1
 10
209.197952
 20
-219.358362
 30
0.0
 40
5.000012
 50
83.660009
 51
366.340010
  0
ARC
  8
0
  6
BYLAYER
 62
     1
 10
274.197952
 20
-219.358362
 30
0.0
 40
55.000000
 50
90.000003
 51
180.000005
  0
ARC
  8
0
  6
BYLAYER
 62
     1
 10
274.197952
 20
-219.358362
 30
0.0
 40
55.0
 50
359.999986
 51
450.000003
  0
ARC
  8
0
  6
BYLAYER
 62
     1
 10
274.197952
 20
-219.358362
 30
0.0
 40
54.999939
 50
179.999991
 51
270.0
  0
CIRCLE
  8
0
  6
BYLAYER
 62
     1
 10
274.197952
 20
-154.358362
 30
0.0
 40
4.5
  0
CIRCLE
  8
0
  6
BYLAYER
 62
     1
 10
228.235977
 20
-173.396448
 30
0.0
 40
4.5
  0
CIRCLE
  8
0
  6
BYLAYER
 62
     1
 10
209.197952
 20
-219.358362
 30
0.0
 40
4.5
  0
CIRCLE
  8
0
  6
BYLAYER
 62
     1
 10
274.197952
 20
-154.358362
 30
0.0
 40
4.5
  0
ARC
  8
0
  6
BYLAYER
 62
     1
 10
274.197952
 20
-219.358362
 30
0.0
 40
80.000000
 50
90.000003
 51
94.744108
  0
ARC
  8
0
  6
BYLAYER
 62
     1
 10
267.746902
 20
-141.625574
 30
0.0
 40
2.000037
 50
94.743931
 51
150.255446
  0
ARC
  8
0
  6
BYLAYER
 62
     1
 10
214.670974
 20
-168.954553
 30
0.0
 40
2.000029
 50
139.743649
 51
195.255574
  0
ARC
  8
0
  6
BYLAYER
 62
     1
 10
274.197952
 20
-219.358362
 30
0.0
 40
80.000031
 50
130.255874
 51
139.744113
  0
ARC
  8
0
  6
BYLAYER
 62
     1
 10
234.016189
 20
-122.350916
 30
0.0
 40
36.849331
 50
254.744800
 51
330.255247
  0
ARC
  8
0
  6
BYLAYER
 62
     1
 10
223.794204
 20
-159.831384
 30
0.0
 40
2.000036
 50
74.744591
 51
130.25627
  0
ARC
  8
0
  6
BYLAYER
 62
     1
 10
177.190628
 20
-179.176599
 30
0.0
 40
36.849300
 50
299.744739
 51
375.255260
  0
ARC
  8
0
  6
BYLAYER
 62
     1
 10
196.465164
 20
-212.907190
 30
0.0
 40
1.999955
 50
119.744117
 51
175.255742
  0
ARC
  8
0
  6
BYLAYER
 62
     1
 10
274.197952
 20
-219.358362
 30
0.0
 40
79.999977
 50
175.255865
 51
180.000005
  0
CIRCLE
  8
0
  6
BYLAYER
 62
     1
 10
228.236099
 20
-265.320276
 30
0.0
 40
4.5
  0
ARC
  8
0
  6
BYLAYER
 62
     1
 10
274.197952
 20
-219.358362
 30
0.0
 40
80.0
 50
180.000005
 51
184.744104
  0
ARC
  8
0
  6
BYLAYER
 62
     1
 10
196.465164
 20
-225.809412
 30
0.0
 40
1.999954
 50
184.743940
 51
240.255456
  0
ARC
  8
0
  6
BYLAYER
 62
     1
 10
223.794204
 20
-278.885279
 30
0.0
 40
1.999990
 50
229.743658
 51
285.255583
  0
ARC
  8
0
  6
BYLAYER
 62
     1
 10
274.197952
 20
-219.358362
 30
0.0
 40
79.999939
 50
220.25587
 51
229.744122
  0
ARC
  8
0
  6
BYLAYER
 62
     1
 10
177.190628
 20
-259.540125
 30
0.0
 40
36.849354
 50
344.744807
 51
420.255253
  0
ARC
  8
0
  6
BYLAYER
 62
     1
 10
214.670974
 20
-269.762049
 30
0.0
 40
1.99999
 50
164.744600
 51
220.256279
  0
ARC
  8
0
  6
BYLAYER
 62
     1
 10
234.016189
 20
-316.365625
 30
0.0
 40
36.849285
 50
29.744750
 51
105.255264
  0
ARC
  8
0
  6
BYLAYER
 62
     1
 10
267.746902
 20
-297.091089
 30
0.0
 40
1.999955
 50
209.744126
 51
265.255751
  0
ARC
  8
0
  6
BYLAYER
 62
     1
 10
274.197952
 20
-219.358362
 30
0.0
 40
79.999908
 50
265.255861
 51
270.000001
  0
CIRCLE
  8
0
  6
BYLAYER
 62
     1
 10
320.159897
 20
-265.320154
 30
0.0
 40
4.5
  0
ARC
  8
0
  6
BYLAYER
 62
     1
 10
274.197952
 20
-219.358362
 30
0.0
 40
79.999939
 50
270.0
 51
274.744113
  0
ARC
  8
0
  6
BYLAYER
 62
     1
 10
280.649002
 20
-297.091089
 30
0.0
 40
2.000007
 50
274.743922
 51
330.255438
  0
ARC
  8
0
  6
BYLAYER
 62
     1
 10
333.724960
 20
-269.762049
 30
0.0
 40
1.999982
 50
319.743667
 51
375.255565
  0
ARC
  8
0
  6
BYLAYER
 62
     1
 10
274.197952
 20
-219.358362
 30
0.0
 40
79.999954
 50
310.255879
 51
319.744104
  0
ARC
  8
0
  6
BYLAYER
 62
     1
 10
314.379745
 20
-316.365686
 30
0.0
 40
36.849358
 50
74.744816
 51
150.255242
  0
ARC
  8
0
  6
BYLAYER
 62
     1
 10
324.601669
 20
-278.885279
 30
0.0
 40
2.000029
 50
254.744582
 51
310.256261
  0
ARC
  8
0
  6
BYLAYER
 62
     1
 10
371.205307
 20
-259.540125
 30
0.0
 40
36.849327
 50
119.744732
 51
195.255260
  0
ARC
  8
0
  6
BYLAYER
 62
     1
 10
351.930771
 20
-225.809412
 30
0.0
 40
1.999894
 50
299.744108
 51
355.255733
  0
ARC
  8
0
  6
BYLAYER
 62
     1
 10
274.197952
 20
-219.358362
 30
0.0
 40
79.999939
 50
355.25587
 51
360.000010
  0
CIRCLE
  8
0
  6
BYLAYER
 62
     1
 10
320.159775
 20
-173.396326
 30
0.0
 40
4.5
  0
ARC
  8
0
  6
BYLAYER
 62
     1
 10
274.197952
 20
-219.358362
 30
0.0
 40
80.000031
 50
0.000010
 51
4.744123
  0
ARC
  8
0
  6
BYLAYER
 62
     1
 10
351.930771
 20
-212.907312
 30
0.0
 40
2.000030
 50
4.743932
 51
60.255444
  0
ARC
  8
0
  6
BYLAYER
 62
     1
 10
324.601791
 20
-159.831384
 30
0.0
 40
1.999997
 50
49.743650
 51
105.255544
  0
ARC
  8
0
  6
BYLAYER
 62
     1
 10
274.197952
 20
-219.358362
 30
0.0
 40
79.999962
 50
40.255861
 51
49.744114
  0
ARC
  8
0
  6
BYLAYER
 62
     1
 10
333.724960
 20
-168.954553
 30
0.0
 40
1.999904
 50
344.744591
 51
400.256271
  0
ARC
  8
0
  6
BYLAYER
 62
     1
 10
280.649002
 20
-141.625574
 30
0.0
 40
2.000015
 50
29.744118
 51
85.255739
  0
ARC
  8
0
  6
BYLAYER
 62
     1
 10
274.197952
 20
-219.358362
 30
0.0
 40
80.000031
 50
85.255876
 51
90.000016
  0
ARC
  8
0
  6
BYLAYER
 62
     1
 10
228.236038
 20
-173.396326
 30
0.0
 40
5.0
 50
38.659991
 51
321.339992
  0
ARC
  8
0
  6
BYLAYER
 62
     1
 10
209.197952
 20
-219.358362
 30
0.0
 40
4.999999
 50
83.660009
 51
366.340010
  0
ARC
  8
0
  6
BYLAYER
 62
     1
 10
228.236038
 20
-265.320276
 30
0.0
 40
4.999962
 50
128.660028
 51
411.340001
  0
ARC
  8
0
  6
BYLAYER
 62
     1
 10
274.197952
 20
-284.358301
 30
0.0
 40
4.999999
 50
173.660015
 51
456.340016
  0
ARC
  8
0
  6
BYLAYER
 62
     1
 10
320.159897
 20
-265.320276
 30
0.0
 40
5.0
 50
218.660013
 51
501.340041
  0
ARC
  8
0
  6
BYLAYER
 62
     1
 10
339.197983
 20
-219.358362
 30
0.0
 40
5.000060
 50
263.659977
 51
546.340005
  0
ARC
  8
0
  6
BYLAYER
 62
     1
 10
320.159897
 20
-173.396326
 30
0.0
 40
5.000096
 50
308.659982
 51
591.339955
  0
CIRCLE
  8
0
  6
BYLAYER
 62
     1
 10
274.197952
 20
-284.358301
 30
0.0
 40
4.5
  0
CIRCLE
  8
0
  6
BYLAYER
 62
     1
 10
339.197983
 20
-219.358362
 30
0.0
 40
4.5
  0
ARC
  8
0
  6
BYLAYER
 62
     1
 10
314.379745
 20
-122.350916
 30
0.0
 40
36.849327
 50
209.744796
 51
285.255256
  0
ARC
  8
0
  6
BYLAYER
 62
     1
 10
274.197952
 20
-219.358362
 30
0.0
 40
54.999939
 50
270.0
 51
360.000003
  0
ARC
  8
0
  6
BYLAYER
 62
     1
 10
274.197952
 20
-219.358362
 30
0.0
 40
97.5
 50
245.301818
 51
294.698190
  0
ARC
  8
0
  6
BYLAYER
 62
     1
 10
274.197952
 20
-219.358362
 30
0.0
 40
97.5
 50
155.301809
 51
204.698181
  0
ARC
  8
0
  6
BYLAYER
 62
     1
 10
187.434158
 20
-259.261926
 30
0.0
 40
2.0
 50
204.698188
 51
255.000000
  0
ARC
  8
0
  6
BYLAYER
 62
     1
 10
187.434158
 20
-179.454798
 30
0.0
 40
2.0
 50
104.999996
 51
155.301809
  0
ARC
  8
0
  6
BYLAYER
 62
     1
 10
274.197952
 20
-219.358362
 30
0.0
 40
97.500000
 50
65.301813
 51
114.698185
  0
ARC
  8
0
  6
BYLAYER
 62
     1
 10
274.197952
 20
-219.358362
 30
0.0
 40
97.500000
 50
335.301827
 51
384.698199
  0
ARC
  8
0
  6
BYLAYER
 62
     1
 10
274.197952
 20
-219.358362
 30
0.0
 40
42.500015
 50
45.000015
 51
90.000003
  0
ARC
  8
0
  6
BYLAYER
 62
     1
 10
274.197952
 20
-219.358362
 30
0.0
 40
42.5
 50
180.000005
 51
404.999974
  0
ARC
  8
0
  6
BYLAYER
 62
     1
 10
371.205307
 20
-179.176477
 30
0.0
 40
36.849373
 50
225.361600
 51
240.255401
  0
ARC
  8
0
  6
BYLAYER
 62
     1
 10
336.356064
 20
-179.190027
 30
0.0
 40
2.000022
 50
180.022736
 51
274.620241
  0
ARC
  8
0
  6
BYLAYER
 62
     1
 10
337.483749
 20
-193.144556
 30
0.0
 40
11.999949
 50
310.379888
 51
454.620246
  0
ARC
  8
0
  6
BYLAYER
 62
     1
 10
346.553695
 20
-203.809290
 30
0.0
 40
2.000067
 50
130.380156
 51
224.977743
  0
ARC
  8
0
  6
BYLAYER
 62
     1
 10
371.205429
 20
-179.176538
 30
0.0
 40
36.849331
 50
164.744791
 51
240.255265
  0
LINE
  8
0
  6
BYLAYER
 62
     1
 10
361.479355
 20
-261.193781
 30
0.0
 11
345.631210
 21
-265.440271
 31
0.0
  0
ARC
  8
0
  6
BYLAYER
 62
     1
 10
360.961776
 20
-259.261926
 30
0.0
 40
2.000000
 50
284.999998
 51
335.301810
  0
LINE
  8
0
  6
BYLAYER
 62
     1
 10
320.277221
 20
-290.801569
 30
0.0
 11
316.033371
 21
-306.639795
 31
0.0
  0
ARC
  8
0
  6
BYLAYER
 62
     1
 10
314.101486
 20
-306.122156
 30
0.0
 40
2.0
 50
294.698200
 51
345.000013
  0
ARC
  8
0
  6
BYLAYER
 62
     1
 10
322.211715
 20
-291.309229
 30
0.0
 40
2.0
 50
123.715705
 51
164.999994
  0
ARC
  8
0
  6
BYLAYER
 62
     1
 10
320.871750
 20
-296.309992
 30
0.0
 40
2.0
 50
121.238252
 51
164.999994
  0
ARC
  8
0
  6
BYLAYER
 62
     1
 10
274.197952
 20
-219.358362
 30
0.0
 40
88.0
 50
301.238253
 51
328.761739
  0
ARC
  8
0
  6
BYLAYER
 62
     1
 10
351.149582
 20
-266.032190
 30
0.0
 40
2.000000
 50
104.999996
 51
148.761739
  0
ARC
  8
0
  6
BYLAYER
 62
     1
 10
274.197952
 20
-219.358362
 30
0.0
 40
84.5
 50
303.715700
 51
326.284277
  0
ARC
  8
0
  6
BYLAYER
 62
     1
 10
346.148849
 20
-267.372125
 30
0.0
 40
2.0
 50
105.000003
 51
146.284292
  0
LINE
  8
0
  6
BYLAYER
 62
     1
 10
316.033371
 20
-132.076929
 30
0.0
 11
320.279892
 21
-147.925134
 31
0.0
  0
ARC
  8
0
  6
BYLAYER
 62
     1
 10
314.101486
 20
-132.594568
 30
0.0
 40
2.000000
 50
15.0
 51
65.301813
  0
LINE
  8
0
  6
BYLAYER
 62
     1
 10
345.631210
 20
-173.276453
 30
0.0
 11
361.479355
 21
-177.522943
 31
0.0
  0
ARC
  8
0
  6
BYLAYER
 62
     1
 10
360.961776
 20
-179.454798
 30
0.0
 40
2.0
 50
24.698186
 51
74.999999
  0
ARC
  8
0
  6
BYLAYER
 62
     1
 10
346.148849
 20
-171.344599
 30
0.0
 40
2.0
 50
213.715714
 51
255.000004
  0
ARC
  8
0
  6
BYLAYER
 62
     1
 10
351.149582
 20
-172.684534
 30
0.0
 40
2.000000
 50
211.238261
 51
255.000004
  0
ARC
  8
0
  6
BYLAYER
 62
     1
 10
274.197952
 20
-219.358362
 30
0.0
 40
88.0
 50
31.238256
 51
58.761741
  0
ARC
  8
0
  6
BYLAYER
 62
     1
 10
320.871750
 20
-142.406732
 30
0.0
 40
2.0
 50
195.000005
 51
238.761748
  0
ARC
  8
0
  6
BYLAYER
 62
     1
 10
274.197952
 20
-219.358362
 30
0.0
 40
84.5
 50
33.715713
 51
56.284290
  0
ARC
  8
0
  6
BYLAYER
 62
     1
 10
322.211715
 20
-147.407495
 30
0.0
 40
2.0
 50
195.000012
 51
236.284302
  0
LINE
  8
0
  6
BYLAYER
 62
     1
 10
186.916519
 20
-177.522943
 30
0.0
 11
202.764724
 21
-173.276453
 31
0.0
  0
LINE
  8
0
  6
BYLAYER
 62
     1
 10
228.116043
 20
-147.925134
 30
0.0
 11
232.362533
 21
-132.076929
 31
0.0
  0
ARC
  8
0
  6
BYLAYER
 62
     1
 10
234.294388
 20
-132.594568
 30
0.0
 40
2.0
 50
114.698182
 51
164.999994
  0
ARC
  8
0
  6
BYLAYER
 62
     1
 10
226.184189
 20
-147.407495
 30
0.0
 40
2.0
 50
303.715723
 51
345.000013
  0
ARC
  8
0
  6
BYLAYER
 62
     1
 10
227.524124
 20
-142.406732
 30
0.0
 40
2.000000
 50
301.238270
 51
345.000013
  0
ARC
  8
0
  6
BYLAYER
 62
     1
 10
274.197952
 20
-219.358362
 30
0.0
 40
88.000000
 50
121.238262
 51
148.761747
  0
ARC
  8
0
  6
BYLAYER
 62
     1
 10
197.246322
 20
-172.684534
 30
0.0
 40
2.000000
 50
284.999987
 51
328.761730
  0
ARC
  8
0
  6
BYLAYER
 62
     1
 10
274.197952
 20
-219.358362
 30
0.0
 40
84.500000
 50
123.715708
 51
146.284286
  0
ARC
  8
0
  6
BYLAYER
 62
     1
 10
202.247085
 20
-171.344599
 30
0.0
 40
2.0
 50
284.999994
 51
326.284284
  0
LINE
  8
0
  6
BYLAYER
 62
     1
 10
232.362533
 20
-306.639795
 30
0.0
 11
228.116043
 21
-290.791590
 31
0.0
  0
ARC
  8
0
  6
BYLAYER
 62
     1
 10
234.294388
 20
-306.122156
 30
0.0
 40
2.0
 50
195.000002
 51
245.301815
  0
LINE
  8
0
  6
BYLAYER
 62
     1
 10
202.764724
 20
-265.440271
 30
0.0
 11
186.916519
 21
-261.193781
 31
0.0
  0
ARC
  8
0
  6
BYLAYER
 62
     1
 10
202.247085
 20
-267.372125
 30
0.0
 40
2.000000
 50
33.715709
 51
74.999999
  0
ARC
  8
0
  6
BYLAYER
 62
     1
 10
197.246322
 20
-266.032190
 30
0.0
 40
2.0
 50
31.238256
 51
74.999999
  0
ARC
  8
0
  6
BYLAYER
 62
     1
 10
274.197952
 20
-219.358362
 30
0.0
 40
88.0
 50
211.238258
 51
238.761743
  0
ARC
  8
0
  6
BYLAYER
 62
     1
 10
227.524124
 20
-296.309992
 30
0.0
 40
2.0
 50
15.0
 51
58.761743
  0
ARC
  8
0
  6
BYLAYER
 62
     1
 10
274.197952
 20
-219.358362
 30
0.0
 40
84.5
 50
213.715718
 51
236.284295
  0
ARC
  8
0
  6
BYLAYER
 62
     1
 10
226.184189
 20
-291.309229
 30
0.0
 40
2.0
 50
15.000000
 51
56.284290
  0
ARC
  8
0
  6
BYLAYER
 62
     1
 10
259.257686
 20
-115.289005
 30
0.0
 40
2.873727
 50
270.0
 51
308.795511
  0
ARC
  8
0
  6
BYLAYER
 62
     1
 10
258.979584
 20
-114.992825
 30
0.0
 40
3.278957
 50
309.340351
 51
360.0
  0
ARC
  8
0
  6
BYLAYER
 62
     1
 10
258.979584
 20
-114.992825
 30
0.0
 40
3.278957
 50
0.0
 51
50.659649
  0
ARC
  8
0
  6
BYLAYER
 62
     1
 10
259.257686
 20
-114.696645
 30
0.0
 40
2.873727
 50
51.204489
 51
90.0
  0
ARC
  8
0
  6
BYLAYER
 62
     1
 10
259.257686
 20
-114.696619
 30
0.0
 40
2.873701
 50
90.0
 51
128.795693
  0
ARC
  8
0
  6
BYLAYER
 62
     1
 10
259.535814
 20
-114.992825
 30
0.0
 40
3.278967
 50
129.340576
 51
180.000000
  0
ARC
  8
0
  6
BYLAYER
 62
     1
 10
259.535814
 20
-114.992825
 30
0.0
 40
3.278967
 50
180.000000
 51
230.659424
  0
ARC
  8
0
  6
BYLAYER
 62
     1
 10
259.257686
 20
-115.289031
 30
0.0
 40
2.873701
 50
231.204307
 51
270.0
  0
ARC
  8
0
  6
BYLAYER
 62
     1
 10
259.257686
 20
-114.149674
 30
0.0
 40
1.329747
 50
90.0
 51
140.793201
  0
ARC
  8
0
  6
BYLAYER
 62
     1
 10
260.291241
 20
-114.992825
 30
0.0
 40
2.663590
 50
140.793201
 51
180.0
  0
ARC
  8
0
  6
BYLAYER
 62
     1
 10
260.291225
 20
-114.992825
 30
0.0
 40
2.663574
 50
180.000000
 51
219.206869
  0
ARC
  8
0
  6
BYLAYER
 62
     1
 10
259.257686
 20
-115.835965
 30
0.0
 40
1.329750
 50
219.206869
 51
270.000000
  0
ARC
  8
0
  6
BYLAYER
 62
     1
 10
259.257686
 20
-115.835965
 30
0.0
 40
1.329750
 50
270.0
 51
320.793131
  0
ARC
  8
0
  6
BYLAYER
 62
     1
 10
258.224148
 20
-114.992825
 30
0.0
 40
2.663574
 50
320.793131
 51
360.000000
  0
ARC
  8
0
  6
BYLAYER
 62
     1
 10
258.224132
 20
-114.992825
 30
0.0
 40
2.663590
 50
0.0
 51
39.206799
  0
ARC
  8
0
  6
BYLAYER
 62
     1
 10
259.257686
 20
-114.149674
 30
0.0
 40
1.329747
 50
39.206799
 51
90.0
  0
LINE
  8
0
  6
BYLAYER
 62
     1
 10
249.409847
 20
-117.951397
 30
0.0
 11
249.409847
 21
-111.949704
 31
0.0
  0
LINE
  8
0
  6
BYLAYER
 62
     1
 10
249.409847
 20
-111.949704
 30
0.0
 11
251.849972
 21
-111.949704
 31
0.0
  0
LINE
  8
0
  6
BYLAYER
 62
     1
 10
251.849972
 20
-111.949704
 30
0.0
 11
252.664287
 21
-115.077359
 31
0.0
  0
LINE
  8
0
  6
BYLAYER
 62
     1
 10
249.409847
 20
-117.951397
 30
0.0
 11
250.875057
 21
-117.951397
 31
0.0
  0
LINE
  8
0
  6
BYLAYER
 62
     1
 10
250.875057
 20
-117.951397
 30
0.0
 11
250.875057
 21
-114.485638
 31
0.0
  0
LINE
  8
0
  6
BYLAYER
 62
     1
 10
252.030300
 20
-117.951397
 30
0.0
 11
250.875057
 21
-114.485638
 31
0.0
  0
LINE
  8
0
  6
BYLAYER
 62
     1
 10
255.918728
 20
-117.951397
 30
0.0
 11
255.918728
 21
-111.949704
 31
0.0
  0
LINE
  8
0
  6
BYLAYER
 62
     1
 10
255.918728
 20
-111.949704
 30
0.0
 11
253.478603
 21
-111.949704
 31
0.0
  0
LINE
  8
0
  6
BYLAYER
 62
     1
 10
253.478603
 20
-111.949704
 30
0.0
 11
252.664287
 21
-115.077359
 31
0.0
  0
LINE
  8
0
  6
BYLAYER
 62
     1
 10
255.918728
 20
-117.951397
 30
0.0
 11
254.453518
 21
-117.951397
 31
0.0
  0
LINE
  8
0
  6
BYLAYER
 62
     1
 10
254.453518
 20
-117.951397
 30
0.0
 11
254.453518
 21
-114.485638
 31
0.0
  0
LINE
  8
0
  6
BYLAYER
 62
     1
 10
253.298275
 20
-117.951397
 30
0.0
 11
254.453518
 21
-114.485638
 31
0.0
  0
LINE
  8
0
  6
BYLAYER
 62
     1
 10
253.298275
 20
-117.951397
 30
0.0
 11
252.030300
 21
-117.951397
 31
0.0
  0
LINE
  8
0
  6
BYLAYER
 62
     1
 10
277.389568
 20
-117.951397
 30
0.0
 11
279.671886
 21
-111.949704
 31
0.0
  0
LINE
  8
0
  6
BYLAYER
 62
     1
 10
277.389568
 20
-117.951397
 30
0.0
 11
279.333782
 21
-117.951397
 31
0.0
  0
LINE
  8
0
  6
BYLAYER
 62
     1
 10
279.671886
 20
-111.949704
 30
0.0
 11
281.531566
 21
-111.949704
 31
0.0
  0
LINE
  8
0
  6
BYLAYER
 62
     1
 10
279.333782
 20
-117.951397
 30
0.0
 11
279.621959
 21
-117.106091
 31
0.0
  0
LINE
  8
0
  6
BYLAYER
 62
     1
 10
280.083019
 20
-115.753598
 30
0.0
 11
280.601726
 21
-114.232037
 31
0.0
  0
LINE
  8
0
  6
BYLAYER
 62
     1
 10
283.813915
 20
-117.951397
 30
0.0
 11
281.531566
 21
-111.949704
 31
0.0
  0
LINE
  8
0
  6
BYLAYER
 62
     1
 10
283.813915
 20
-117.951397
 30
0.0
 11
281.869701
 21
-117.951397
 31
0.0
  0
LINE
  8
0
  6
BYLAYER
 62
     1
 10
281.581524
 20
-117.106091
 30
0.0
 11
279.621959
 21
-117.106091
 31
0.0
  0
LINE
  8
0
  6
BYLAYER
 62
     1
 10
281.120434
 20
-115.753598
 30
0.0
 11
280.083019
 21
-115.753598
 31
0.0
  0
LINE
  8
0
  6
BYLAYER
 62
     1
 10
281.869701
 20
-117.951397
 30
0.0
 11
281.581524
 21
-117.106091
 31
0.0
  0
LINE
  8
0
  6
BYLAYER
 62
     1
 10
281.120434
 20
-115.753598
 30
0.0
 11
280.601726
 21
-114.232037
 31
0.0
  0
LINE
  8
0
  6
BYLAYER
 62
     1
 10
262.258541
 20
-113.428997
 30
0.0
 11
263.949154
 21
-113.428997
 31
0.0
  0
LINE
  8
0
  6
BYLAYER
 62
     1
 10
263.949154
 20
-113.428997
 30
0.0
 11
263.949154
 21
-117.951397
 31
0.0
  0
LINE
  8
0
  6
BYLAYER
 62
     1
 10
263.949154
 20
-117.951397
 30
0.0
 11
265.808849
 21
-117.951397
 31
0.0
  0
LINE
  8
0
  6
BYLAYER
 62
     1
 10
265.808849
 20
-117.951397
 30
0.0
 11
265.808849
 21
-113.428997
 31
0.0
  0
LINE
  8
0
  6
BYLAYER
 62
     1
 10
265.808849
 20
-113.428997
 30
0.0
 11
267.499462
 21
-113.428997
 31
0.0
  0
LINE
  8
0
  6
BYLAYER
 62
     1
 10
267.499462
 20
-113.428997
 30
0.0
 11
267.499462
 21
-111.949704
 31
0.0
  0
LINE
  8
0
  6
BYLAYER
 62
     1
 10
267.499462
 20
-111.949704
 30
0.0
 11
262.258541
 21
-111.949704
 31
0.0
  0
LINE
  8
0
  6
BYLAYER
 62
     1
 10
262.258541
 20
-111.949704
 30
0.0
 11
262.258541
 21
-113.428997
 31
0.0
  0
ARC
  8
0
  6
BYLAYER
 62
     1
 10
270.500301
 20
-115.289031
 30
0.0
 40
2.873701
 50
270.0
 51
308.795693
  0
ARC
  8
0
  6
BYLAYER
 62
     1
 10
270.222173
 20
-114.992825
 30
0.0
 40
3.278967
 50
309.340576
 51
360.0
  0
ARC
  8
0
  6
BYLAYER
 62
     1
 10
270.222184
 20
-114.992825
 30
0.0
 40
3.278957
 50
0.0
 51
50.659649
  0
ARC
  8
0
  6
BYLAYER
 62
     1
 10
270.500286
 20
-114.696645
 30
0.0
 40
2.873727
 50
51.204489
 51
90.000000
  0
ARC
  8
0
  6
BYLAYER
 62
     1
 10
270.500286
 20
-114.696619
 30
0.0
 40
2.873701
 50
90.0
 51
128.795693
  0
ARC
  8
0
  6
BYLAYER
 62
     1
 10
270.778414
 20
-114.992825
 30
0.0
 40
3.278967
 50
129.340576
 51
180.000000
  0
ARC
  8
0
  6
BYLAYER
 62
     1
 10
270.778403
 20
-114.992825
 30
0.0
 40
3.278957
 50
180.000000
 51
230.659649
  0
ARC
  8
0
  6
BYLAYER
 62
     1
 10
270.500301
 20
-115.289005
 30
0.0
 40
2.873727
 50
231.204489
 51
270.000000
  0
ARC
  8
0
  6
BYLAYER
 62
     1
 10
270.500286
 20
-114.149674
 30
0.0
 40
1.329747
 50
90.0
 51
140.793201
  0
ARC
  8
0
  6
BYLAYER
 62
     1
 10
271.533840
 20
-114.992825
 30
0.0
 40
2.663590
 50
140.793201
 51
180.0
  0
ARC
  8
0
  6
BYLAYER
 62
     1
 10
271.533807
 20
-114.992825
 30
0.0
 40
2.663556
 50
180.000000
 51
219.207055
  0
ARC
  8
0
  6
BYLAYER
 62
     1
 10
270.500301
 20
-115.835943
 30
0.0
 40
1.329771
 50
219.207055
 51
270.000000
  0
ARC
  8
0
  6
BYLAYER
 62
     1
 10
270.500301
 20
-115.835965
 30
0.0
 40
1.329750
 50
270.0
 51
320.793131
  0
ARC
  8
0
  6
BYLAYER
 62
     1
 10
269.466762
 20
-114.992825
 30
0.0
 40
2.663574
 50
320.793131
 51
360.0
  0
ARC
  8
0
  6
BYLAYER
 62
     1
 10
269.466764
 20
-114.992825
 30
0.0
 40
2.663572
 50
0.0
 51
39.206985
  0
ARC
  8
0
  6
BYLAYER
 62
     1
 10
270.500286
 20
-114.149695
 30
0.0
 40
1.329768
 50
39.206985
 51
90.0
  0
LINE
  8
0
  6
BYLAYER
 62
     1
 10
283.975902
 20
-117.951397
 30
0.0
 11
283.975902
 21
-111.949704
 31
0.0
  0
LINE
  8
0
  6
BYLAYER
 62
     1
 10
283.975902
 20
-111.949704
 30
0.0
 11
287.695247
 21
-111.949704
 31
0.0
  0
ARC
  8
0
  6
BYLAYER
 62
     1
 10
287.695247
 20
-113.640332
 30
0.0
 40
1.690610
 50
287.134650
 51
450.000006
  0
ARC
  8
0
  6
BYLAYER
 62
     1
 10
288.033382
 20
-116.598904
 30
0.0
 40
1.352493
 50
0.0
 51
83.207557
  0
LINE
  8
0
  6
BYLAYER
 62
     1
 10
289.385875
 20
-116.598904
 30
0.0
 11
289.385875
 21
-117.444210
 31
0.0
  0
ARC
  8
0
  6
BYLAYER
 62
     1
 10
290.738369
 20
-117.444210
 30
0.0
 40
1.352493
 50
180.000000
 51
202.024314
  0
LINE
  8
0
  6
BYLAYER
 62
     1
 10
287.624889
 20
-117.951397
 30
0.0
 11
289.484569
 21
-117.951397
 31
0.0
  0
ARC
  8
0
  6
BYLAYER
 62
     1
 10
288.878689
 20
-117.444210
 30
0.0
 40
1.352493
 50
180.000000
 51
202.024314
  0
LINE
  8
0
  6
BYLAYER
 62
     1
 10
287.526195
 20
-117.444210
 30
0.0
 11
287.526195
 21
-116.767971
 31
0.0
  0
LINE
  8
0
  6
BYLAYER
 62
     1
 10
283.975902
 20
-117.951397
 30
0.0
 11
285.751049
 21
-117.951397
 31
0.0
  0
LINE
  8
0
  6
BYLAYER
 62
     1
 10
285.751049
 20
-117.951397
 30
0.0
 11
285.751049
 21
-115.922665
 31
0.0
  0
LINE
  8
0
  6
BYLAYER
 62
     1
 10
286.680889
 20
-115.922665
 30
0.0
 11
285.751049
 21
-115.922665
 31
0.0
  0
ARC
  8
0
  6
BYLAYER
 62
     1
 10
286.680889
 20
-116.767971
 30
0.0
 40
0.845306
 50
0.0
 51
90.000003
  0
LINE
  8
0
  6
BYLAYER
 62
     1
 10
285.751049
 20
-114.570172
 30
0.0
 11
285.751049
 21
-113.302197
 31
0.0
  0
LINE
  8
0
  6
BYLAYER
 62
     1
 10
285.751049
 20
-113.302197
 30
0.0
 11
286.934475
 21
-113.302197
 31
0.0
  0
LINE
  8
0
  6
BYLAYER
 62
     1
 10
285.751049
 20
-114.570172
 30
0.0
 11
286.934475
 21
-114.570172
 31
0.0
  0
ARC
  8
0
  6
BYLAYER
 62
     1
 10
286.934475
 20
-113.936184
 30
0.0
 40
0.633987
 50
270.0
 51
450.000005
  0
LINE
  8
0
  6
BYLAYER
 62
     1
 10
275.910290
 20
-116.053601
 30
0.0
 11
274.811382
 21
-111.949704
 31
0.0
  0
LINE
  8
0
  6
BYLAYER
 62
     1
 10
274.811382
 20
-111.949704
 30
0.0
 11
273.036236
 21
-111.949704
 31
0.0
  0
LINE
  8
0
  6
BYLAYER
 62
     1
 10
273.036236
 20
-111.949704
 30
0.0
 11
274.895916
 21
-117.951397
 31
0.0
  0
LINE
  8
0
  6
BYLAYER
 62
     1
 10
275.910290
 20
-116.053601
 30
0.0
 11
277.009166
 21
-111.949704
 31
0.0
  0
LINE
  8
0
  6
BYLAYER
 62
     1
 10
277.009166
 20
-111.949704
 30
0.0
 11
278.784313
 21
-111.949704
 31
0.0
  0
LINE
  8
0
  6
BYLAYER
 62
     1
 10
278.784313
 20
-111.949704
 30
0.0
 11
276.924633
 21
-117.951397
 31
0.0
  0
LINE
  8
0
  6
BYLAYER
 62
     1
 10
276.924633
 20
-117.951397
 30
0.0
 11
274.895916
 21
-117.951397
 31
0.0
  0
LINE
  8
0
  6
BYLAYER
 62
     1
 10
289.646557
 20
-117.951397
 30
0.0
 11
291.421703
 21
-117.951397
 31
0.0
  0
LINE
  8
0
  6
BYLAYER
 62
     1
 10
291.421703
 20
-117.951397
 30
0.0
 11
291.421703
 21
-111.949704
 31
0.0
  0
LINE
  8
0
  6
BYLAYER
 62
     1
 10
291.421703
 20
-111.949704
 30
0.0
 11
289.646557
 21
-111.949704
 31
0.0
  0
LINE
  8
0
  6
BYLAYER
 62
     1
 10
289.646557
 20
-111.949704
 30
0.0
 11
289.646557
 21
-117.951397
 31
0.0
  0
ARC
  8
0
  6
BYLAYER
 62
     1
 10
294.760677
 20
-115.289031
 30
0.0
 40
2.873701
 50
270.0
 51
308.795693
  0
ARC
  8
0
  6
BYLAYER
 62
     1
 10
294.482549
 20
-114.992825
 30
0.0
 40
3.278967
 50
309.340576
 51
360.000000
  0
ARC
  8
0
  6
BYLAYER
 62
     1
 10
294.482549
 20
-114.992825
 30
0.0
 40
3.278967
 50
0.0
 51
50.659424
  0
ARC
  8
0
  6
BYLAYER
 62
     1
 10
294.760677
 20
-114.696619
 30
0.0
 40
2.873701
 50
51.204307
 51
90.000000
  0
ARC
  8
0
  6
BYLAYER
 62
     1
 10
294.760677
 20
-114.696619
 30
0.0
 40
2.873701
 50
90.0
 51
128.795693
  0
ARC
  8
0
  6
BYLAYER
 62
     1
 10
295.038805
 20
-114.992825
 30
0.0
 40
3.278967
 50
129.340576
 51
180.000000
  0
ARC
  8
0
  6
BYLAYER
 62
     1
 10
295.038805
 20
-114.992825
 30
0.0
 40
3.278967
 50
180.000000
 51
230.659424
  0
ARC
  8
0
  6
BYLAYER
 62
     1
 10
294.760677
 20
-115.289031
 30
0.0
 40
2.873701
 50
231.204307
 51
270.000000
  0
ARC
  8
0
  6
BYLAYER
 62
     1
 10
294.760677
 20
-114.149674
 30
0.0
 40
1.329747
 50
39.206799
 51
90.0
  0
ARC
  8
0
  6
BYLAYER
 62
     1
 10
293.727122
 20
-114.992825
 30
0.0
 40
2.663590
 50
0.0
 51
39.206799
  0
ARC
  8
0
  6
BYLAYER
 62
     1
 10
293.727138
 20
-114.992825
 30
0.0
 40
2.663574
 50
320.793131
 51
360.0
  0
ARC
  8
0
  6
BYLAYER
 62
     1
 10
294.760677
 20
-115.835965
 30
0.0
 40
1.329750
 50
270.0
 51
320.793131
  0
ARC
  8
0
  6
BYLAYER
 62
     1
 10
294.760677
 20
-115.835965
 30
0.0
 40
1.329750
 50
219.206869
 51
270.000000
  0
ARC
  8
0
  6
BYLAYER
 62
     1
 10
295.794216
 20
-114.992825
 30
0.0
 40
2.663574
 50
180.000000
 51
219.206869
  0
ARC
  8
0
  6
BYLAYER
 62
     1
 10
295.794232
 20
-114.992825
 30
0.0
 40
2.663590
 50
140.793201
 51
180.0
  0
ARC
  8
0
  6
BYLAYER
 62
     1
 10
294.760677
 20
-114.149674
 30
0.0
 40
1.329747
 50
90.0
 51
140.793201
  0
ARC
  8
0
  6
BYLAYER
 62
     1
 10
264.788814
 20
-105.078976
 30
0.0
 40
7.429995
 50
174.535650
 51
180.0
  0
LINE
  8
0
  6
BYLAYER
 62
     1
 10
257.392582
 20
-104.371441
 30
0.0
 11
257.392582
 21
-104.371434
 31
0.0
  0
LINE
  8
0
  6
BYLAYER
 62
     1
 10
257.400667
 20
-104.291511
 30
0.0
 11
258.109769
 21
-103.992968
 31
0.0
  0
ARC
  8
0
  6
BYLAYER
 62
     1
 10
264.788845
 20
-105.079037
 30
0.0
 40
6.766781
 50
159.235383
 51
170.763998
  0
LINE
  8
0
  6
BYLAYER
 62
     1
 10
258.461570
 20
-102.679972
 30
0.0
 11
257.996771
 21
-102.066858
 31
0.0
  0
ARC
  8
0
  6
BYLAYER
 62
     1
 10
264.788814
 20
-105.078976
 30
0.0
 40
7.429986
 50
144.139514
 51
156.083795
  0
LINE
  8
0
  6
BYLAYER
 62
     1
 10
258.718349
 20
-100.794781
 30
0.0
 11
258.718792
 21
-100.794155
 31
0.0
  0
LINE
  8
0
  6
BYLAYER
 62
     1
 10
258.767213
 20
-100.726389
 30
0.0
 11
259.522138
 21
-100.830253
 31
0.0
  0
ARC
  8
0
  6
BYLAYER
 62
     1
 10
264.788814
 20
-105.078976
 30
0.0
 40
6.766741
 50
129.235643
 51
141.105976
  0
LINE
  8
0
  6
BYLAYER
 62
     1
 10
260.398128
 20
-99.930119
 30
0.0
 11
260.398861
 21
-99.929486
 31
0.0
  0
LINE
  8
0
  6
BYLAYER
 62
     1
 10
260.508775
 20
-99.837789
 30
0.0
 11
260.412781
 21
-99.074383
 31
0.0
  0
ARC
  8
0
  6
BYLAYER
 62
     1
 10
264.788814
 20
-105.078976
 30
0.0
 40
7.429994
 50
114.139607
 51
126.083853
  0
LINE
  8
0
  6
BYLAYER
 62
     1
 10
261.674267
 20
-98.333279
 30
0.0
 11
261.674770
 21
-98.333043
 31
0.0
  0
LINE
  8
0
  6
BYLAYER
 62
     1
 10
261.750234
 20
-98.298722
 30
0.0
 11
262.352063
 21
-98.766117
 31
0.0
  0
LINE
  8
0
  6
BYLAYER
 62
     1
 10
262.489666
 20
-98.714795
 30
0.0
 11
262.490429
 21
-98.714527
 31
0.0
  0
ARC
  8
0
  6
BYLAYER
 62
     1
 10
264.788814
 20
-105.078976
 30
0.0
 40
6.766738
 50
99.235601
 51
111.106038
  0
ARC
  8
0
  6
BYLAYER
 62
     1
 10
264.788814
 20
-105.078976
 30
0.0
 40
7.429995
 50
90.0
 51
96.083892
  0
LINE
  8
0
  6
BYLAYER
 62
     1
 10
264.001350
 20
-97.690828
 30
0.0
 11
263.702790
 21
-98.399957
 31
0.0
  0
LINE
  8
0
  6
BYLAYER
 62
     1
 10
272.185039
 20
-104.371441
 30
0.0
 11
272.185039
 21
-104.371434
 31
0.0
  0
LINE
  8
0
  6
BYLAYER
 62
     1
 10
272.176962
 20
-104.291510
 30
0.0
 11
271.467823
 21
-103.992961
 31
0.0
  0
ARC
  8
0
  6
BYLAYER
 62
     1
 10
264.788769
 20
-105.079037
 30
0.0
 40
6.766781
 50
9.235986
 51
20.764650
  0
LINE
  8
0
  6
BYLAYER
 62
     1
 10
271.116092
 20
-102.679901
 30
0.0
 11
271.580858
 21
-102.066860
 31
0.0
  0
ARC
  8
0
  6
BYLAYER
 62
     1
 10
264.788814
 20
-105.078976
 30
0.0
 40
7.429986
 50
23.916189
 51
35.860484
  0
LINE
  8
0
  6
BYLAYER
 62
     1
 10
270.859264
 20
-100.794781
 30
0.0
 11
270.858822
 21
-100.794155
 31
0.0
  0
LINE
  8
0
  6
BYLAYER
 62
     1
 10
270.810416
 20
-100.726389
 30
0.0
 11
270.055544
 21
-100.830243
 31
0.0
  0
ARC
  8
0
  6
BYLAYER
 62
     1
 10
264.788814
 20
-105.078976
 30
0.0
 40
6.766741
 50
38.894050
 51
50.764315
  0
LINE
  8
0
  6
BYLAYER
 62
     1
 10
269.179500
 20
-99.930119
 30
0.0
 11
269.178768
 21
-99.929486
 31
0.0
  0
LINE
  8
0
  6
BYLAYER
 62
     1
 10
269.068874
 20
-99.837667
 30
0.0
 11
269.164832
 21
-99.074371
 31
0.0
  0
ARC
  8
0
  6
BYLAYER
 62
     1
 10
264.788814
 20
-105.078976
 30
0.0
 40
7.429994
 50
53.916300
 51
65.860381
  0
LINE
  8
0
  6
BYLAYER
 62
     1
 10
267.903362
 20
-98.333279
 30
0.0
 11
267.902843
 21
-98.333043
 31
0.0
  0
LINE
  8
0
  6
BYLAYER
 62
     1
 10
267.827396
 20
-98.298723
 30
0.0
 11
267.225573
 21
-98.766096
 31
0.0
  0
LINE
  8
0
  6
BYLAYER
 62
     1
 10
267.087948
 20
-98.714795
 30
0.0
 11
267.087200
 21
-98.714527
 31
0.0
  0
ARC
  8
0
  6
BYLAYER
 62
     1
 10
264.788814
 20
-105.078976
 30
0.0
 40
6.766738
 50
68.894081
 51
80.764578
  0
ARC
  8
0
  6
BYLAYER
 62
     1
 10
264.788814
 20
-105.078976
 30
0.0
 40
7.429995
 50
84.535428
 51
90.000003
  0
LINE
  8
0
  6
BYLAYER
 62
     1
 10
265.576281
 20
-97.690829
 30
0.0
 11
265.874768
 21
-98.399836
 31
0.0
  0
ARC
  8
0
  6
BYLAYER
 62
     1
 10
264.788814
 20
-105.078976
 30
0.0
 40
7.429995
 50
180.000000
 51
186.083899
  0
LINE
  8
0
  6
BYLAYER
 62
     1
 10
257.392582
 20
-105.786503
 30
0.0
 11
257.392582
 21
-105.786518
 31
0.0
  0
LINE
  8
0
  6
BYLAYER
 62
     1
 10
257.400667
 20
-105.866441
 30
0.0
 11
258.109791
 21
-106.164993
 31
0.0
  0
ARC
  8
0
  6
BYLAYER
 62
     1
 10
264.788845
 20
-105.078915
 30
0.0
 40
6.766781
 50
189.236002
 51
200.764629
  0
LINE
  8
0
  6
BYLAYER
 62
     1
 10
258.461595
 20
-107.477950
 30
0.0
 11
257.996769
 21
-108.091088
 31
0.0
  0
ARC
  8
0
  6
BYLAYER
 62
     1
 10
264.788814
 20
-105.078976
 30
0.0
 40
7.429986
 50
203.916158
 51
215.860410
  0
LINE
  8
0
  6
BYLAYER
 62
     1
 10
258.718349
 20
-109.363163
 30
0.0
 11
258.718792
 21
-109.363789
 31
0.0
  0
LINE
  8
0
  6
BYLAYER
 62
     1
 10
258.767207
 20
-109.431555
 30
0.0
 11
259.522203
 21
-109.327692
 31
0.0
  0
ARC
  8
0
  6
BYLAYER
 62
     1
 10
264.788814
 20
-105.078976
 30
0.0
 40
6.766741
 50
218.894045
 51
230.764345
  0
LINE
  8
0
  6
BYLAYER
 62
     1
 10
260.398128
 20
-110.227826
 30
0.0
 11
260.398861
 21
-110.228459
 31
0.0
  0
LINE
  8
0
  6
BYLAYER
 62
     1
 10
260.508773
 20
-110.320162
 30
0.0
 11
260.412781
 21
-111.083570
 31
0.0
  0
ARC
  8
0
  6
BYLAYER
 62
     1
 10
264.788814
 20
-105.078976
 30
0.0
 40
7.429994
 50
233.916148
 51
245.860401
  0
LINE
  8
0
  6
BYLAYER
 62
     1
 10
261.674267
 20
-111.824665
 30
0.0
 11
261.674770
 21
-111.824910
 31
0.0
  0
LINE
  8
0
  6
BYLAYER
 62
     1
 10
261.750235
 20
-111.859230
 30
0.0
 11
262.352134
 21
-111.391770
 31
0.0
  0
LINE
  8
0
  6
BYLAYER
 62
     1
 10
262.489666
 20
-111.443150
 30
0.0
 11
262.490429
 21
-111.443425
 31
0.0
  0
LINE
  8
0
  6
BYLAYER
 62
     1
 10
272.185039
 20
-105.786503
 30
0.0
 11
272.185039
 21
-105.786518
 31
0.0
  0
LINE
  8
0
  6
BYLAYER
 62
     1
 10
272.176961
 20
-105.866443
 30
0.0
 11
271.467823
 21
-106.164991
 31
0.0
  0
LINE
  8
0
  6
BYLAYER
 62
     1
 10
271.116027
 20
-107.477967
 30
0.0
 11
271.580866
 21
-108.091093
 31
0.0
  0
LINE
  8
0
  6
BYLAYER
 62
     1
 10
270.859264
 20
-109.363163
 30
0.0
 11
270.858822
 21
-109.363789
 31
0.0
  0
LINE
  8
0
  6
BYLAYER
 62
     1
 10
270.810430
 20
-109.431556
 30
0.0
 11
270.055385
 21
-109.327689
 31
0.0
  0
LINE
  8
0
  6
BYLAYER
 62
     1
 10
269.179500
 20
-110.227826
 30
0.0
 11
269.178768
 21
-110.228459
 31
0.0
  0
LINE
  8
0
  6
BYLAYER
 62
     1
 10
269.068859
 20
-110.320159
 30
0.0
 11
269.164832
 21
-111.083581
 31
0.0
  0
LINE
  8
0
  6
BYLAYER
 62
     1
 10
267.827395
 20
-111.859229
 30
0.0
 11
267.225481
 21
-111.391775
 31
0.0
  0
ARC
  8
0
  6
BYLAYER
 62
     1
 10
264.788814
 20
-105.078976
 30
0.0
 40
6.766741
 50
309.235697
 51
321.105929
  0
ARC
  8
0
  6
BYLAYER
 62
     1
 10
264.788814
 20
-105.078976
 30
0.0
 40
6.766738
 50
248.893873
 51
270.000000
  0
ARC
  8
0
  6
BYLAYER
 62
     1
 10
264.788814
 20
-105.078976
 30
0.0
 40
7.429994
 50
294.783232
 51
306.083699
  0
LINE
  8
0
  6
BYLAYER
 62
     1
 10
267.902843
 20
-111.824910
 30
0.0
 11
267.827853
 21
-111.860199
 31
0.0
  0
ARC
  8
0
  6
BYLAYER
 62
     1
 10
264.788814
 20
-105.078976
 30
0.0
 40
7.429986
 50
324.139593
 51
336.083825
  0
ARC
  8
0
  6
BYLAYER
 62
     1
 10
264.788769
 20
-105.078915
 30
0.0
 40
6.766781
 50
339.235210
 51
350.764014
  0
ARC
  8
0
  6
BYLAYER
 62
     1
 10
264.788814
 20
-105.078976
 30
0.0
 40
7.429995
 50
353.916089
 51
360.000000
  0
ARC
  8
0
  6
BYLAYER
 62
     1
 10
264.788814
 20
-105.078976
 30
0.0
 40
7.429995
 50
0.0
 51
6.083907
  0
ARC
  8
0
  6
BYLAYER
 62
     1
 10
264.788814
 20
-105.078976
 30
0.0
 40
6.766738
 50
270.0
 51
291.106008
  0
CIRCLE
  8
0
  6
BYLAYER
 62
     1
 10
264.788814
 20
-105.078976
 30
0.0
 40
3.630081
  0
CIRCLE
  8
0
  6
BYLAYER
 62
     1
 10
264.788814
 20
-105.078976
 30
0.0
 40
5.296032
  0
LINE
  8
0
  6
BYLAYER
 62
     1
 10
274.197952
 20
-219.358362
 30
0.0
 11
274.197952
 21
-214.358362
 31
0.0
  0
LINE
  8
0
  6
BYLAYER
 62
     1
 10
274.197952
 20
-219.358362
 30
0.0
 11
269.197952
 21
-219.358362
 31
0.0
  0
LINE
  8
0
  6
BYLAYER
 62
     1
 10
274.197952
 20
-219.358362
 30
0.0
 11
274.197952
 21
-224.358362
 31
0.0
  0
LINE
  8
0
  6
BYLAYER
 62
     1
 10
274.197952
 20
-219.358362
 30
0.0
 11
279.197952
 21
-219.358362
 31
0.0
  0
LINE
  8
0
  6
BYLAYER
 62
     1
 10
1089.197952
 20
-584.358362
 30
0.0
 11
1061.197952
 21
-584.358362
 31
0.0
  0
LINE
  8
0
  6
BYLAYER
 62
     1
 10
1089.197952
 20
-634.358362
 30
0.0
 11
1089.197952
 21
-584.358362
 31
0.0
  0
LINE
  8
0
  6
BYLAYER
 62
     1
 10
1089.197952
 20
-634.358362
 30
0.0
 11
1087.697952
 21
-635.858301
 31
0.0
  0
LINE
  8
0
  6
BYLAYER
 62
     1
 10
959.197952
 20
-584.358362
 30
0.0
 11
987.197952
 21
-584.358362
 31
0.0
  0
LINE
  8
0
  6
BYLAYER
 62
     1
 10
959.197952
 20
-634.358362
 30
0.0
 11
959.197952
 21
-584.358362
 31
0.0
  0
LINE
  8
0
  6
BYLAYER
 62
     1
 10
959.197952
 20
-634.358362
 30
0.0
 11
960.697952
 21
-635.858301
 31
0.0
  0
LINE
  8
0
  6
BYLAYER
 62
     1
 10
1089.197952
 20
-822.358362
 30
0.0
 11
1061.197952
 21
-822.358362
 31
0.0
  0
LINE
  8
0
  6
BYLAYER
 62
     1
 10
1089.197952
 20
-772.358362
 30
0.0
 11
1089.197952
 21
-822.358362
 31
0.0
  0
LINE
  8
0
  6
BYLAYER
 62
     1
 10
1089.197952
 20
-772.358362
 30
0.0
 11
1087.697952
 21
-770.858362
 31
0.0
  0
LINE
  8
0
  6
BYLAYER
 62
     1
 10
1087.697952
 20
-635.858301
 30
0.0
 11
1087.697952
 21
-770.858362
 31
0.0
  0
LINE
  8
0
  6
BYLAYER
 62
     1
 10
959.197952
 20
-822.358362
 30
0.0
 11
987.197952
 21
-822.358362
 31
0.0
  0
LINE
  8
0
  6
BYLAYER
 62
     1
 10
959.197952
 20
-822.358362
 30
0.0
 11
959.197952
 21
-772.358362
 31
0.0
  0
LINE
  8
0
  6
BYLAYER
 62
     1
 10
1061.197952
 20
-585.858362
 30
0.0
 11
987.197952
 21
-585.858362
 31
0.0
  0
LINE
  8
0
  6
BYLAYER
 62
     1
 10
1061.197952
 20
-770.858362
 30
0.0
 11
1087.697952
 21
-770.858362
 31
0.0
  0
LINE
  8
0
  6
BYLAYER
 62
     1
 10
1061.197952
 20
-772.358362
 30
0.0
 11
1089.197952
 21
-772.358362
 31
0.0
  0
LINE
  8
0
  6
BYLAYER
 62
     1
 10
987.197952
 20
-772.358362
 30
0.0
 11
959.197952
 21
-772.358362
 31
0.0
  0
LINE
  8
0
  6
BYLAYER
 62
     1
 10
1061.197952
 20
-635.858301
 30
0.0
 11
1087.697952
 21
-635.858301
 31
0.0
  0
LINE
  8
0
  6
BYLAYER
 62
     1
 10
987.197952
 20
-770.858362
 30
0.0
 11
960.697952
 21
-770.858362
 31
0.0
  0
LINE
  8
0
  6
BYLAYER
 62
     1
 10
960.697952
 20
-635.858301
 30
0.0
 11
987.197952
 21
-635.858301
 31
0.0
  0
CIRCLE
  8
0
  6
BYLAYER
 62
     1
 10
974.197952
 20
-789.358362
 30
0.0
 40
6.5
  0
CIRCLE
  8
0
  6
BYLAYER
 62
     1
 10
974.197952
 20
-617.358362
 30
0.0
 40
6.5
  0
CIRCLE
  8
0
  6
BYLAYER
 62
     1
 10
1074.197952
 20
-617.358362
 30
0.0
 40
6.5
  0
CIRCLE
  8
0
  6
BYLAYER
 62
     1
 10
1051.421463
 20
-656.582025
 30
0.0
 40
3.525002
  0
CIRCLE
  8
0
  6
BYLAYER
 62
     1
 10
1051.421585
 20
-602.134790
 30
0.0
 40
3.525002
  0
CIRCLE
  8
0
  6
BYLAYER
 62
     1
 10
996.974441
 20
-602.134668
 30
0.0
 40
3.525002
  0
CIRCLE
  8
0
  6
BYLAYER
 62
     1
 10
996.974319
 20
-656.581903
 30
0.0
 40
3.525002
  0
LINE
  8
0
  6
BYLAYER
 62
     1
 10
986.339676
 20
-634.358362
 30
0.0
 11
959.197952
 21
-634.358362
 31
0.0
  0
ARC
  8
0
  6
BYLAYER
 62
     1
 10
986.339676
 20
-636.358362
 30
0.0
 40
2.0
 50
10.476094
 51
90.000000
  0
LINE
  8
0
  6
BYLAYER
 62
     1
 10
1062.056228
 20
-634.358362
 30
0.0
 11
1089.197952
 21
-634.358362
 31
0.0
  0
ARC
  8
0
  6
BYLAYER
 62
     1
 10
1062.056228
 20
-636.358362
 30
0.0
 40
2.000012
 50
90.0
 51
169.524063
  0
LINE
  8
0
  6
BYLAYER
 62
     1
 10
987.197952
 20
-634.551874
 30
0.0
 11
987.197952
 21
-822.358362
 31
0.0
  0
CIRCLE
  8
0
  6
BYLAYER
 62
     1
 10
1074.197952
 20
-789.358362
 30
0.0
 40
6.5
  0
LINE
  8
0
  6
BYLAYER
 62
     1
 10
1061.197952
 20
-634.551874
 30
0.0
 11
1061.197952
 21
-822.358362
 31
0.0
  0
LINE
  8
0
  6
BYLAYER
 62
     1
 10
959.198257
 20
-772.358148
 30
0.0
 11
960.697952
 21
-770.858362
 31
0.0
  0
LINE
  8
0
  6
BYLAYER
 62
     1
 10
960.697952
 20
-635.858301
 30
0.0
 11
960.697952
 21
-770.858362
 31
0.0
  0
LINE
  8
0
  6
BYLAYER
 62
     1
 10
959.197952
 20
-772.358362
 30
0.0
 11
960.697952
 21
-770.858423
 31
0.0
  0
ARC
  8
0
  6
BYLAYER
 62
     1
 10
1024.197952
 20
-629.358362
 30
0.0
 40
36.499996
 50
59.173767
 51
121.575305
  0
ARC
  8
0
  6
BYLAYER
 62
     1
 10
1004.038650
 20
-596.558161
 30
0.0
 40
2.000008
 50
218.287737
 51
301.575200
  0
LINE
  8
0
  6
BYLAYER
 62
     1
 10
987.197952
 20
-597.604090
 30
0.0
 11
987.197952
 21
-584.358362
 31
0.0
  0
ARC
  8
0
  6
BYLAYER
 62
     1
 10
996.974441
 20
-602.134668
 30
0.0
 40
7.000019
 50
38.287800
 51
149.774970
  0
ARC
  8
0
  6
BYLAYER
 62
     1
 10
989.197952
 20
-597.604090
 30
0.0
 40
2.000039
 50
180.000000
 51
329.774833
  0
ARC
  8
0
  6
BYLAYER
 62
     1
 10
1051.421463
 20
-602.134668
 30
0.0
 40
6.999995
 50
30.225035
 51
141.712205
  0
ARC
  8
0
  6
BYLAYER
 62
     1
 10
1044.357284
 20
-596.558161
 30
0.0
 40
2.000008
 50
238.424801
 51
321.712264
  0
ARC
  8
0
  6
BYLAYER
 62
     1
 10
1059.197952
 20
-597.604090
 30
0.0
 40
2.000013
 50
210.225163
 51
359.999983
  0
LINE
  8
0
  6
BYLAYER
 62
     1
 10
1061.197952
 20
-584.358362
 30
0.0
 11
1061.197952
 21
-597.604090
 31
0.0
  0
ARC
  8
0
  6
BYLAYER
 62
     1
 10
1004.038650
 20
-662.158563
 30
0.0
 40
2.000008
 50
58.424803
 51
141.712259
  0
ARC
  8
0
  6
BYLAYER
 62
     1
 10
1024.197952
 20
-629.358362
 30
0.0
 40
36.500011
 50
238.424692
 51
301.575310
  0
ARC
  8
0
  6
BYLAYER
 62
     1
 10
1044.357284
 20
-662.158563
 30
0.0
 40
2.000013
 50
38.287746
 51
121.575195
  0
ARC
  8
0
  6
BYLAYER
 62
     1
 10
1024.197952
 20
-629.358362
 30
0.0
 40
36.500061
 50
328.424291
 51
349.524330
  0
ARC
  8
0
  6
BYLAYER
 62
     1
 10
1051.421463
 20
-656.582056
 30
0.0
 40
6.999995
 50
218.287805
 51
411.711659
  0
ARC
  8
0
  6
BYLAYER
 62
     1
 10
1056.998031
 20
-649.517938
 30
0.0
 40
1.999987
 50
148.424341
 51
231.711709
  0
ARC
  8
0
  6
BYLAYER
 62
     1
 10
1024.197952
 20
-629.358362
 30
0.0
 40
36.500046
 50
190.475671
 51
211.575696
  0
ARC
  8
0
  6
BYLAYER
 62
     1
 10
996.974441
 20
-656.582056
 30
0.0
 40
7.000019
 50
128.288151
 51
321.712210
  0
ARC
  8
0
  6
BYLAYER
 62
     1
 10
991.397903
 20
-649.517908
 30
0.0
 40
1.999961
 50
308.287743
 51
391.575657
  0
LINE
  8
0
  6
BYLAYER
 62
     1
 10
960.697952
 20
-639.236170
 30
0.0
 11
957.197952
 21
-639.358362
 31
0.0
  0
LINE
  8
0
  6
BYLAYER
 62
     1
 10
957.197952
 20
-719.358362
 30
0.0
 11
957.197952
 21
-639.358362
 31
0.0
  0
LINE
  8
0
  6
BYLAYER
 62
     1
 10
957.197952
 20
-719.358362
 30
0.0
 11
957.197952
 21
-799.358362
 31
0.0
  0
LINE
  8
0
  6
BYLAYER
 62
     1
 10
959.197952
 20
-799.428186
 30
0.0
 11
957.197952
 21
-799.358362
 31
0.0
  0
LINE
  8
0
  6
BYLAYER
 62
     1
 10
957.197952
 20
-664.358362
 30
0.0
 11
954.697952
 21
-664.358362
 31
0.0
  0
LINE
  8
0
  6
BYLAYER
 62
     1
 10
954.697952
 20
-664.358362
 30
0.0
 11
954.197952
 21
-664.858362
 31
0.0
  0
LINE
  8
0
  6
BYLAYER
 62
     1
 10
954.197952
 20
-664.858362
 30
0.0
 11
954.197952
 21
-719.358362
 31
0.0
  0
LINE
  8
0
  6
BYLAYER
 62
     1
 10
957.197952
 20
-774.358362
 30
0.0
 11
954.697952
 21
-774.358362
 31
0.0
  0
LINE
  8
0
  6
BYLAYER
 62
     1
 10
954.697952
 20
-774.358362
 30
0.0
 11
954.197952
 21
-773.858362
 31
0.0
  0
LINE
  8
0
  6
BYLAYER
 62
     1
 10
954.197952
 20
-773.858362
 30
0.0
 11
954.197952
 21
-719.358362
 31
0.0
  0
LINE
  8
0
  6
BYLAYER
 62
     1
 10
1087.697952
 20
-639.236170
 30
0.0
 11
1091.197952
 21
-639.358362
 31
0.0
  0
LINE
  8
0
  6
BYLAYER
 62
     1
 10
1091.197952
 20
-719.358362
 30
0.0
 11
1091.197952
 21
-639.358362
 31
0.0
  0
LINE
  8
0
  6
BYLAYER
 62
     1
 10
1091.197952
 20
-719.358362
 30
0.0
 11
1091.197952
 21
-799.358362
 31
0.0
  0
LINE
  8
0
  6
BYLAYER
 62
     1
 10
1089.197952
 20
-799.428186
 30
0.0
 11
1091.197952
 21
-799.358362
 31
0.0
  0
LINE
  8
0
  6
BYLAYER
 62
     1
 10
1091.197952
 20
-664.358362
 30
0.0
 11
1093.697952
 21
-664.358362
 31
0.0
  0
LINE
  8
0
  6
BYLAYER
 62
     1
 10
1093.697952
 20
-664.358362
 30
0.0
 11
1094.197952
 21
-664.858362
 31
0.0
  0
LINE
  8
0
  6
BYLAYER
 62
     1
 10
1094.197952
 20
-664.858362
 30
0.0
 11
1094.197952
 21
-719.358362
 31
0.0
  0
LINE
  8
0
  6
BYLAYER
 62
     1
 10
1091.197952
 20
-774.358362
 30
0.0
 11
1093.697952
 21
-774.358362
 31
0.0
  0
LINE
  8
0
  6
BYLAYER
 62
     1
 10
1093.697952
 20
-774.358362
 30
0.0
 11
1094.197952
 21
-773.858362
 31
0.0
  0
LINE
  8
0
  6
BYLAYER
 62
     1
 10
1094.197952
 20
-773.858362
 30
0.0
 11
1094.197952
 21
-719.358362
 31
0.0
  0
CIRCLE
  8
0
  6
BYLAYER
 62
     1
 10
1024.197952
 20
-629.358362
 30
0.0
 40
31.0
  0
LINE
  8
0
  6
BYLAYER
 62
     1
 10
1061.197952
 20
-817.358331
 30
0.0
 11
987.197952
 21
-817.358331
 31
0.0
  0
LINE
  8
0
  6
BYLAYER
 62
     1
 10
221.197891
 20
-784.358362
 30
0.0
 11
171.197891
 21
-784.358362
 31
0.0
  0
LINE
  8
0
  6
BYLAYER
 62
     1
 10
221.197891
 20
-784.358362
 30
0.0
 11
222.697891
 21
-782.858362
 31
0.0
  0
LINE
  8
0
  6
BYLAYER
 62
     1
 10
171.197891
 20
-654.358362
 30
0.0
 11
221.197891
 21
-654.358362
 31
0.0
  0
LINE
  8
0
  6
BYLAYER
 62
     1
 10
221.197891
 20
-756.358362
 30
0.0
 11
221.197891
 21
-784.358362
 31
0.0
  0
LINE
  8
0
  6
BYLAYER
 62
     1
 10
221.197891
 20
-682.358362
 30
0.0
 11
221.197891
 21
-654.358362
 31
0.0
  0
LINE
  8
0
  6
BYLAYER
 62
     1
 10
222.697891
 20
-682.358362
 30
0.0
 11
222.697891
 21
-655.858362
 31
0.0
  0
LINE
  8
0
  6
BYLAYER
 62
     1
 10
377.197891
 20
-654.358362
 30
0.0
 11
377.197891
 21
-682.358362
 31
0.0
  0
LINE
  8
0
  6
BYLAYER
 62
     1
 10
377.197891
 20
-654.358362
 30
0.0
 11
327.197952
 21
-654.358362
 31
0.0
  0
LINE
  8
0
  6
BYLAYER
 62
     1
 10
325.697952
 20
-682.358362
 30
0.0
 11
325.697952
 21
-655.858362
 31
0.0
  0
LINE
  8
0
  6
BYLAYER
 62
     1
 10
327.197952
 20
-682.358362
 30
0.0
 11
327.197952
 21
-654.358362
 31
0.0
  0
LINE
  8
0
  6
BYLAYER
 62
     1
 10
377.197891
 20
-784.358362
 30
0.0
 11
377.197891
 21
-756.358362
 31
0.0
  0
LINE
  8
0
  6
BYLAYER
 62
     1
 10
327.197952
 20
-784.358362
 30
0.0
 11
377.197891
 21
-784.358362
 31
0.0
  0
LINE
  8
0
  6
BYLAYER
 62
     1
 10
327.197952
 20
-756.358362
 30
0.0
 11
327.197952
 21
-784.358362
 31
0.0
  0
LINE
  8
0
  6
BYLAYER
 62
     1
 10
327.197952
 20
-784.358362
 30
0.0
 11
325.697952
 21
-782.858362
 31
0.0
  0
CIRCLE
  8
0
  6
BYLAYER
 62
     1
 10
344.197952
 20
-769.358362
 30
0.0
 40
6.5
  0
CIRCLE
  8
0
  6
BYLAYER
 62
     1
 10
344.197952
 20
-669.358362
 30
0.0
 40
6.5
  0
LINE
  8
0
  6
BYLAYER
 62
     1
 10
325.697952
 20
-782.858362
 30
0.0
 11
222.697891
 21
-782.858362
 31
0.0
  0
LINE
  8
0
  6
BYLAYER
 62
     1
 10
171.197891
 20
-654.358362
 30
0.0
 11
171.197891
 21
-784.358362
 31
0.0
  0
ARC
  8
0
  6
BYLAYER
 62
     1
 10
201.197891
 20
-754.358362
 30
0.0
 40
2.000000
 50
180.000000
 51
269.999996
  0
ARC
  8
0
  6
BYLAYER
 62
     1
 10
201.197891
 20
-684.358362
 30
0.0
 40
1.999939
 50
90.0
 51
180.000003
  0
ARC
  8
0
  6
BYLAYER
 62
     1
 10
347.197952
 20
-754.358362
 30
0.0
 40
2.0
 50
270.0
 51
359.999982
  0
ARC
  8
0
  6
BYLAYER
 62
     1
 10
347.197952
 20
-684.358362
 30
0.0
 40
1.999939
 50
0.0
 51
90.000016
  0
LINE
  8
0
  6
BYLAYER
 62
     1
 10
377.197891
 20
-672.358423
 30
0.0
 11
379.197891
 21
-672.358423
 31
0.0
  0
LINE
  8
0
  6
BYLAYER
 62
     1
 10
377.197891
 20
-766.358362
 30
0.0
 11
379.197891
 21
-766.358362
 31
0.0
  0
LINE
  8
0
  6
BYLAYER
 62
     1
 10
379.197891
 20
-672.358423
 30
0.0
 11
379.197891
 21
-766.358362
 31
0.0
  0
CIRCLE
  8
0
  6
BYLAYER
 62
     1
 10
329.197891
 20
-719.358362
 30
0.0
 40
7.0
  0
ARC
  8
0
  6
BYLAYER
 62
     1
 10
200.197891
 20
-717.358362
 30
0.0
 40
1.0
 50
180.000000
 51
269.999996
  0
ARC
  8
0
  6
BYLAYER
 62
     1
 10
200.197891
 20
-721.358362
 30
0.0
 40
1.000000
 50
90.0
 51
180.000003
  0
ARC
  8
0
  6
BYLAYER
 62
     1
 10
200.197891
 20
-707.358362
 30
0.0
 40
1.0
 50
180.000000
 51
269.999996
  0
ARC
  8
0
  6
BYLAYER
 62
     1
 10
200.197891
 20
-711.358362
 30
0.0
 40
1.000000
 50
90.0
 51
180.000003
  0
ARC
  8
0
  6
BYLAYER
 62
     1
 10
200.197891
 20
-697.358362
 30
0.0
 40
1.0
 50
180.000000
 51
269.999996
  0
ARC
  8
0
  6
BYLAYER
 62
     1
 10
200.197891
 20
-701.358362
 30
0.0
 40
1.000000
 50
90.0
 51
180.000003
  0
ARC
  8
0
  6
BYLAYER
 62
     1
 10
200.197891
 20
-687.358362
 30
0.0
 40
1.0
 50
180.000000
 51
269.999996
  0
ARC
  8
0
  6
BYLAYER
 62
     1
 10
200.197891
 20
-691.358362
 30
0.0
 40
1.000000
 50
90.0
 51
180.000003
  0
ARC
  8
0
  6
BYLAYER
 62
     1
 10
200.197891
 20
-727.358362
 30
0.0
 40
1.0
 50
180.000000
 51
269.999996
  0
ARC
  8
0
  6
BYLAYER
 62
     1
 10
200.197891
 20
-737.358362
 30
0.0
 40
1.0
 50
180.000000
 51
269.999996
  0
ARC
  8
0
  6
BYLAYER
 62
     1
 10
200.197891
 20
-747.358362
 30
0.0
 40
1.0
 50
180.000000
 51
269.999996
  0
ARC
  8
0
  6
BYLAYER
 62
     1
 10
200.197891
 20
-731.358362
 30
0.0
 40
1.000000
 50
90.0
 51
180.000003
  0
ARC
  8
0
  6
BYLAYER
 62
     1
 10
200.197891
 20
-741.358362
 30
0.0
 40
1.000000
 50
90.0
 51
180.000003
  0
ARC
  8
0
  6
BYLAYER
 62
     1
 10
200.197891
 20
-751.358362
 30
0.0
 40
1.000000
 50
90.0
 51
180.000003
  0
ARC
  8
0
  6
BYLAYER
 62
     1
 10
348.197952
 20
-737.358362
 30
0.0
 40
1.000000
 50
270.0
 51
360.000003
  0
ARC
  8
0
  6
BYLAYER
 62
     1
 10
348.197952
 20
-741.358362
 30
0.0
 40
1.0
 50
0.0
 51
90.000003
  0
ARC
  8
0
  6
BYLAYER
 62
     1
 10
348.197952
 20
-747.358362
 30
0.0
 40
1.000000
 50
270.0
 51
360.000003
  0
ARC
  8
0
  6
BYLAYER
 62
     1
 10
348.197952
 20
-751.358362
 30
0.0
 40
1.0
 50
0.0
 51
90.000003
  0
ARC
  8
0
  6
BYLAYER
 62
     1
 10
348.197952
 20
-697.358423
 30
0.0
 40
1.0
 50
270.0
 51
360.000003
  0
ARC
  8
0
  6
BYLAYER
 62
     1
 10
348.197952
 20
-701.358423
 30
0.0
 40
1.0
 50
0.0
 51
90.000003
  0
ARC
  8
0
  6
BYLAYER
 62
     1
 10
348.197952
 20
-687.358423
 30
0.0
 40
1.0
 50
270.0
 51
360.000003
  0
ARC
  8
0
  6
BYLAYER
 62
     1
 10
348.197952
 20
-691.358423
 30
0.0
 40
1.0
 50
0.0
 51
90.000003
  0
LINE
  8
0
  6
BYLAYER
 62
     1
 10
171.197891
 20
-682.358362
 30
0.0
 11
377.197891
 21
-682.358362
 31
0.0
  0
LINE
  8
0
  6
BYLAYER
 62
     1
 10
377.197891
 20
-756.358362
 30
0.0
 11
171.197891
 21
-756.358362
 31
0.0
  0
LINE
  8
0
  6
BYLAYER
 62
     1
 10
325.697952
 20
-756.358362
 30
0.0
 11
325.697952
 21
-782.858362
 31
0.0
  0
LINE
  8
0
  6
BYLAYER
 62
     1
 10
222.697891
 20
-756.358362
 30
0.0
 11
222.697891
 21
-782.858362
 31
0.0
  0
CIRCLE
  8
0
  6
BYLAYER
 62
     1
 10
204.197891
 20
-769.358362
 30
0.0
 40
6.5
  0
CIRCLE
  8
0
  6
BYLAYER
 62
     1
 10
204.197891
 20
-669.358362
 30
0.0
 40
6.5
  0
CIRCLE
  8
0
  6
BYLAYER
 62
     1
 10
204.197891
 20
-669.358362
 30
0.0
 40
6.5
  0
CIRCLE
  8
0
  6
BYLAYER
 62
     1
 10
329.197891
 20
-719.358362
 30
0.0
 40
12.0
  0
LINE
  8
0
  6
BYLAYER
 62
     1
 10
349.197952
 20
-684.358362
 30
0.0
 11
349.197952
 21
-689.358362
 31
0.0
  0
LINE
  8
0
  6
BYLAYER
 62
     1
 10
349.197952
 20
-719.358362
 30
0.0
 11
349.197952
 21
-699.358362
 31
0.0
  0
LINE
  8
0
  6
BYLAYER
 62
     1
 10
349.197952
 20
-699.358362
 30
0.0
 11
349.197952
 21
-689.358362
 31
0.0
  0
LINE
  8
0
  6
BYLAYER
 62
     1
 10
349.197952
 20
-739.358362
 30
0.0
 11
349.197952
 21
-719.358362
 31
0.0
  0
LINE
  8
0
  6
BYLAYER
 62
     1
 10
349.197952
 20
-749.358362
 30
0.0
 11
349.197952
 21
-739.358362
 31
0.0
  0
LINE
  8
0
  6
BYLAYER
 62
     1
 10
349.197952
 20
-749.358362
 30
0.0
 11
349.197952
 21
-754.358362
 31
0.0
  0
LINE
  8
0
  6
BYLAYER
 62
     1
 10
199.197891
 20
-684.358362
 30
0.0
 11
199.197891
 21
-689.358362
 31
0.0
  0
LINE
  8
0
  6
BYLAYER
 62
     1
 10
199.197891
 20
-699.358362
 30
0.0
 11
199.197891
 21
-689.358362
 31
0.0
  0
LINE
  8
0
  6
BYLAYER
 62
     1
 10
199.197891
 20
-709.358423
 30
0.0
 11
199.197891
 21
-699.358362
 31
0.0
  0
LINE
  8
0
  6
BYLAYER
 62
     1
 10
199.197891
 20
-719.358362
 30
0.0
 11
199.197891
 21
-709.358423
 31
0.0
  0
LINE
  8
0
  6
BYLAYER
 62
     1
 10
199.197891
 20
-729.358362
 30
0.0
 11
199.197891
 21
-719.358362
 31
0.0
  0
LINE
  8
0
  6
BYLAYER
 62
     1
 10
199.197891
 20
-739.358362
 30
0.0
 11
199.197891
 21
-729.358362
 31
0.0
  0
LINE
  8
0
  6
BYLAYER
 62
     1
 10
199.197891
 20
-749.358362
 30
0.0
 11
199.197891
 21
-739.358362
 31
0.0
  0
LINE
  8
0
  6
BYLAYER
 62
     1
 10
199.197891
 20
-749.358362
 30
0.0
 11
199.197891
 21
-754.358362
 31
0.0
  0
LINE
  8
0
  6
BYLAYER
 62
     1
 10
222.697830
 20
-655.858362
 30
0.0
 11
325.698013
 21
-655.858362
 31
0.0
  0
LINE
  8
0
  6
BYLAYER
 62
     1
 10
221.197891
 20
-654.358362
 30
0.0
 11
222.697830
 21
-655.858362
 31
0.0
  0
LINE
  8
0
  6
BYLAYER
 62
     1
 10
327.197952
 20
-654.358362
 30
0.0
 11
325.698013
 21
-655.858362
 31
0.0
  0
LINE
  8
0
  6
BYLAYER
 62
     1
 10
325.697952
 20
-655.858362
 30
0.0
 11
222.697830
 21
-655.858362
 31
0.0
  0
LINE
  8
0
  6
BYLAYER
 62
     1
 10
274.197952
 20
-652.358362
 30
0.0
 11
194.197952
 21
-652.358362
 31
0.0
  0
LINE
  8
0
  6
BYLAYER
 62
     1
 10
327.198013
 20
-654.358362
 30
0.0
 11
325.698074
 21
-655.858362
 31
0.0
  0
LINE
  8
0
  6
BYLAYER
 62
     1
 10
274.197952
 20
-652.358362
 30
0.0
 11
354.197952
 21
-652.358362
 31
0.0
  0
LINE
  8
0
  6
BYLAYER
 62
     1
 10
194.128128
 20
-654.358362
 30
0.0
 11
194.197952
 21
-652.358362
 31
0.0
  0
LINE
  8
0
  6
BYLAYER
 62
     1
 10
354.267776
 20
-654.358362
 30
0.0
 11
354.197952
 21
-652.358362
 31
0.0
  0
LINE
  8
0
  6
BYLAYER
 62
     1
 10
219.697952
 20
-649.358362
 30
0.0
 11
219.197952
 21
-649.858362
 31
0.0
  0
LINE
  8
0
  6
BYLAYER
 62
     1
 10
219.197952
 20
-649.858362
 30
0.0
 11
219.197952
 21
-652.358362
 31
0.0
  0
LINE
  8
0
  6
BYLAYER
 62
     1
 10
219.697952
 20
-649.358362
 30
0.0
 11
328.697952
 21
-649.358362
 31
0.0
  0
LINE
  8
0
  6
BYLAYER
 62
     1
 10
328.697952
 20
-649.358362
 30
0.0
 11
329.197952
 21
-649.858362
 31
0.0
  0
LINE
  8
0
  6
BYLAYER
 62
     1
 10
329.197952
 20
-649.858362
 30
0.0
 11
329.197952
 21
-652.358362
 31
0.0
  0
LINE
  8
0
  6
BYLAYER
 62
     1
 10
274.197952
 20
-786.358362
 30
0.0
 11
194.197952
 21
-786.358362
 31
0.0
  0
LINE
  8
0
  6
BYLAYER
 62
     1
 10
274.197952
 20
-786.358362
 30
0.0
 11
354.197952
 21
-786.358362
 31
0.0
  0
LINE
  8
0
  6
BYLAYER
 62
     1
 10
194.128128
 20
-784.358362
 30
0.0
 11
194.197952
 21
-786.358362
 31
0.0
  0
LINE
  8
0
  6
BYLAYER
 62
     1
 10
354.267776
 20
-784.358362
 30
0.0
 11
354.197952
 21
-786.358362
 31
0.0
  0
LINE
  8
0
  6
BYLAYER
 62
     1
 10
219.697952
 20
-789.358362
 30
0.0
 11
219.197952
 21
-788.858362
 31
0.0
  0
LINE
  8
0
  6
BYLAYER
 62
     1
 10
219.197952
 20
-788.858362
 30
0.0
 11
219.197952
 21
-786.358362
 31
0.0
  0
LINE
  8
0
  6
BYLAYER
 62
     1
 10
219.697952
 20
-789.358362
 30
0.0
 11
328.697952
 21
-789.358362
 31
0.0
  0
LINE
  8
0
  6
BYLAYER
 62
     1
 10
328.697952
 20
-789.358362
 30
0.0
 11
329.197952
 21
-788.858362
 31
0.0
  0
LINE
  8
0
  6
BYLAYER
 62
     1
 10
329.197952
 20
-788.858362
 30
0.0
 11
329.197952
 21
-786.358362
 31
0.0
  0
ARC
  8
0
  6
BYLAYER
 62
     1
 10
236.793956
 20
-739.358362
 30
0.0
 40
1.000000
 50
270.0
 51
450.000005
  0
ARC
  8
0
  6
BYLAYER
 62
     1
 10
236.793956
 20
-749.358362
 30
0.0
 40
1.0
 50
270.0
 51
450.000005
  0
LINE
  8
0
  6
BYLAYER
 62
     1
 10
236.793956
 20
-748.358362
 30
0.0
 11
200.197891
 21
-748.358423
 31
0.0
  0
LINE
  8
0
  6
BYLAYER
 62
     1
 10
236.793956
 20
-750.358362
 30
0.0
 11
200.197891
 21
-750.358423
 31
0.0
  0
LINE
  8
0
  6
BYLAYER
 62
     1
 10
236.793956
 20
-738.358362
 30
0.0
 11
200.197891
 21
-738.358423
 31
0.0
  0
LINE
  8
0
  6
BYLAYER
 62
     1
 10
236.793956
 20
-740.358362
 30
0.0
 11
200.197891
 21
-740.358423
 31
0.0
  0
ARC
  8
0
  6
BYLAYER
 62
     1
 10
236.793956
 20
-699.358362
 30
0.0
 40
1.0
 50
270.0
 51
450.000005
  0
ARC
  8
0
  6
BYLAYER
 62
     1
 10
236.793956
 20
-689.358362
 30
0.0
 40
1.0
 50
270.0
 51
450.000005
  0
LINE
  8
0
  6
BYLAYER
 62
     1
 10
236.793956
 20
-688.358362
 30
0.0
 11
200.197891
 21
-688.358362
 31
0.0
  0
LINE
  8
0
  6
BYLAYER
 62
     1
 10
236.793956
 20
-690.358362
 30
0.0
 11
200.197891
 21
-690.358362
 31
0.0
  0
LINE
  8
0
  6
BYLAYER
 62
     1
 10
236.793956
 20
-698.358362
 30
0.0
 11
200.197891
 21
-698.358362
 31
0.0
  0
LINE
  8
0
  6
BYLAYER
 62
     1
 10
236.793956
 20
-700.358362
 30
0.0
 11
200.197891
 21
-700.358362
 31
0.0
  0
ARC
  8
0
  6
BYLAYER
 62
     1
 10
241.208056
 20
-719.358423
 30
0.0
 40
1.0
 50
270.0
 51
450.000005
  0
LINE
  8
0
  6
BYLAYER
 62
     1
 10
200.197891
 20
-718.358362
 30
0.0
 11
241.208056
 21
-718.358423
 31
0.0
  0
LINE
  8
0
  6
BYLAYER
 62
     1
 10
200.197891
 20
-720.358362
 30
0.0
 11
241.208056
 21
-720.358423
 31
0.0
  0
ARC
  8
0
  6
BYLAYER
 62
     1
 10
243.208056
 20
-709.358423
 30
0.0
 40
1.0
 50
270.0
 51
450.000005
  0
LINE
  8
0
  6
BYLAYER
 62
     1
 10
200.197891
 20
-708.358362
 30
0.0
 11
243.208056
 21
-708.358423
 31
0.0
  0
LINE
  8
0
  6
BYLAYER
 62
     1
 10
200.197891
 20
-710.358362
 30
0.0
 11
243.208056
 21
-710.358423
 31
0.0
  0
ARC
  8
0
  6
BYLAYER
 62
     1
 10
243.208056
 20
-729.358362
 30
0.0
 40
1.0
 50
270.0
 51
450.000005
  0
LINE
  8
0
  6
BYLAYER
 62
     1
 10
200.197891
 20
-730.358423
 30
0.0
 11
243.208056
 21
-730.358362
 31
0.0
  0
LINE
  8
0
  6
BYLAYER
 62
     1
 10
200.197891
 20
-728.358423
 30
0.0
 11
243.208056
 21
-728.358362
 31
0.0
  0
ARC
  8
0
  6
BYLAYER
 62
     1
 10
309.812083
 20
-739.358362
 30
0.0
 40
1.000000
 50
90.0
 51
270.000005
  0
ARC
  8
0
  6
BYLAYER
 62
     1
 10
309.812083
 20
-749.358362
 30
0.0
 40
1.0
 50
90.0
 51
270.000005
  0
LINE
  8
0
  6
BYLAYER
 62
     1
 10
348.197952
 20
-748.358362
 30
0.0
 11
309.812083
 21
-748.358423
 31
0.0
  0
LINE
  8
0
  6
BYLAYER
 62
     1
 10
348.197952
 20
-750.358362
 30
0.0
 11
309.812083
 21
-750.358423
 31
0.0
  0
LINE
  8
0
  6
BYLAYER
 62
     1
 10
348.197952
 20
-738.358362
 30
0.0
 11
309.812083
 21
-738.358423
 31
0.0
  0
ARC
  8
0
  6
BYLAYER
 62
     1
 10
309.812083
 20
-699.358362
 30
0.0
 40
1.0
 50
90.0
 51
270.000005
  0
ARC
  8
0
  6
BYLAYER
 62
     1
 10
309.812083
 20
-689.358362
 30
0.0
 40
1.0
 50
90.0
 51
270.000005
  0
LINE
  8
0
  6
BYLAYER
 62
     1
 10
348.197952
 20
-698.358423
 30
0.0
 11
309.812083
 21
-698.358362
 31
0.0
  0
LINE
  8
0
  6
BYLAYER
 62
     1
 10
348.197952
 20
-700.358423
 30
0.0
 11
309.812083
 21
-700.358362
 31
0.0
  0
LINE
  8
0
  6
BYLAYER
 62
     1
 10
309.812083
 20
-740.358423
 30
0.0
 11
348.197952
 21
-740.358362
 31
0.0
  0
LINE
  8
0
  6
BYLAYER
 62
     1
 10
309.812083
 20
-688.358362
 30
0.0
 11
348.197952
 21
-688.358362
 31
0.0
  0
LINE
  8
0
  6
BYLAYER
 62
     1
 10
309.812083
 20
-690.358362
 30
0.0
 11
348.197952
 21
-690.358362
 31
0.0
  0
LINE
  8
0
  6
BYLAYER
 62
     1
 10
379.197952
 20
-176.858240
 30
0.0
 11
379.197952
 21
-129.358362
 31
0.0
  0
ARC
  8
0
  6
BYLAYER
 62
     1
 10
394.697952
 20
-226.883814
 30
0.0
 40
2.000089
 50
180.000000
 51
266.999958
  0
LINE
  8
0
  6
BYLAYER
 62
     1
 10
392.697952
 20
-211.858301
 30
0.0
 11
392.697952
 21
-226.883844
 31
0.0
  0
LINE
  8
0
  6
BYLAYER
 62
     1
 10
392.697952
 20
-211.858301
 30
0.0
 11
392.697952
 21
-129.358362
 31
0.0
  0
ARC
  8
0
  6
BYLAYER
 62
     1
 10
390.697952
 20
-194.988977
 30
0.0
 40
2.000003
 50
0.0
 51
35.000041
  0
LINE
  8
0
  6
BYLAYER
 62
     1
 10
379.403122
 20
-176.858270
 30
0.0
 11
379.197952
 21
-176.858270
 31
0.0
  0
LINE
  8
0
  6
BYLAYER
 62
     1
 10
392.336258
 20
-193.841821
 30
0.0
 11
381.041427
 21
-177.711115
 31
0.0
  0
ARC
  8
0
  6
BYLAYER
 62
     1
 10
379.403122
 20
-178.858270
 30
0.0
 40
2.0
 50
34.999973
 51
90.000000
  0
LINE
  8
0
  6
BYLAYER
 62
     1
 10
381.041427
 20
-177.711115
 30
0.0
 11
392.697952
 21
-211.858301
 31
0.0
  0
LINE
  8
0
  6
BYLAYER
 62
     1
 10
394.593216
 20
-228.881159
 30
0.0
 11
403.697952
 21
-229.358348
 31
0.0
  0
LINE
  8
0
  6
BYLAYER
 62
     1
 10
403.697952
 20
-229.358348
 30
0.0
 11
403.697952
 21
-129.358362
 31
0.0
  0
LINE
  8
0
  6
BYLAYER
 62
     1
 10
381.041427
 20
-177.711115
 30
0.0
 11
381.041427
 21
-129.358362
 31
0.0
  0
LINE
  8
0
  6
BYLAYER
 62
     1
 10
379.197952
 20
-81.858484
 30
0.0
 11
379.197952
 21
-129.358362
 31
0.0
  0
ARC
  8
0
  6
BYLAYER
 62
     1
 10
394.697952
 20
-31.832910
 30
0.0
 40
2.000089
 50
93.000064
 51
180.000022
  0
LINE
  8
0
  6
BYLAYER
 62
     1
 10
392.697952
 20
-46.858423
 30
0.0
 11
392.697952
 21
-31.832880
 31
0.0
  0
LINE
  8
0
  6
BYLAYER
 62
     1
 10
392.697952
 20
-46.858423
 30
0.0
 11
392.697952
 21
-129.358362
 31
0.0
  0
ARC
  8
0
  6
BYLAYER
 62
     1
 10
390.697952
 20
-63.727747
 30
0.0
 40
2.000003
 50
324.999959
 51
360.000000
  0
LINE
  8
0
  6
BYLAYER
 62
     1
 10
379.403122
 20
-81.858454
 30
0.0
 11
379.197952
 21
-81.858454
 31
0.0
  0
LINE
  8
0
  6
BYLAYER
 62
     1
 10
392.336258
 20
-64.874903
 30
0.0
 11
381.041427
 21
-81.005609
 31
0.0
  0
ARC
  8
0
  6
BYLAYER
 62
     1
 10
379.403122
 20
-79.858454
 30
0.0
 40
2.0
 50
270.0
 51
325.000027
  0
LINE
  8
0
  6
BYLAYER
 62
     1
 10
381.041427
 20
-81.005609
 30
0.0
 11
392.697952
 21
-46.858423
 31
0.0
  0
LINE
  8
0
  6
BYLAYER
 62
     1
 10
394.593216
 20
-29.835565
 30
0.0
 11
403.697952
 21
-29.358376
 31
0.0
  0
LINE
  8
0
  6
BYLAYER
 62
     1
 10
403.697952
 20
-29.358376
 30
0.0
 11
403.697952
 21
-129.358362
 31
0.0
  0
LINE
  8
0
  6
BYLAYER
 62
     1
 10
381.041427
 20
-81.005609
 30
0.0
 11
381.041427
 21
-129.358362
 31
0.0
  0
LINE
  8
0
  6
BYLAYER
 62
     1
 10
959.198074
 20
-322.358362
 30
0.0
 11
987.197952
 21
-322.358362
 31
0.0
  0
LINE
  8
0
  6
BYLAYER
 62
     1
 10
959.198074
 20
-272.358362
 30
0.0
 11
959.198074
 21
-322.358362
 31
0.0
  0
LINE
  8
0
  6
BYLAYER
 62
     1
 10
959.198074
 20
-272.358362
 30
0.0
 11
960.698074
 21
-270.858362
 31
0.0
  0
LINE
  8
0
  6
BYLAYER
 62
     1
 10
960.698074
 20
-206.609676
 30
0.0
 11
960.698074
 21
-270.858362
 31
0.0
  0
LINE
  8
0
  6
BYLAYER
 62
     1
 10
1089.197952
 20
-322.358362
 30
0.0
 11
1061.197952
 21
-322.358362
 31
0.0
  0
LINE
  8
0
  6
BYLAYER
 62
     1
 10
1089.197952
 20
-272.358362
 30
0.0
 11
1087.697952
 21
-270.858423
 31
0.0
  0
LINE
  8
0
  6
BYLAYER
 62
     1
 10
1089.197952
 20
-322.358362
 30
0.0
 11
1089.197952
 21
-272.358362
 31
0.0
  0
LINE
  8
0
  6
BYLAYER
 62
     1
 10
1087.697952
 20
-206.609576
 30
0.0
 11
1087.697952
 21
-270.858423
 31
0.0
  0
LINE
  8
0
  6
BYLAYER
 62
     1
 10
1091.197952
 20
-299.358362
 30
0.0
 11
1089.197952
 21
-299.428186
 31
0.0
  0
CIRCLE
  8
0
  6
BYLAYER
 62
     1
 10
1074.197952
 20
-289.358362
 30
0.0
 40
6.5
  0
LINE
  8
0
  6
BYLAYER
 62
     1
 10
987.197952
 20
-270.858362
 30
0.0
 11
960.698074
 21
-270.858362
 31
0.0
  0
LINE
  8
0
  6
BYLAYER
 62
     1
 10
987.197952
 20
-272.358362
 30
0.0
 11
959.198074
 21
-272.358362
 31
0.0
  0
LINE
  8
0
  6
BYLAYER
 62
     1
 10
1061.197952
 20
-272.358362
 30
0.0
 11
1089.197952
 21
-272.358362
 31
0.0
  0
LINE
  8
0
  6
BYLAYER
 62
     1
 10
1061.197952
 20
-270.858362
 30
0.0
 11
1087.697952
 21
-270.858362
 31
0.0
  0
CIRCLE
  8
0
  6
BYLAYER
 62
     1
 10
974.197952
 20
-289.358362
 30
0.0
 40
6.5
  0
LINE
  8
0
  6
BYLAYER
 62
     1
 10
1061.197952
 20
-222.261537
 30
0.0
 11
1061.197952
 21
-322.358362
 31
0.0
  0
LINE
  8
0
  6
BYLAYER
 62
     1
 10
987.197952
 20
-222.261537
 30
0.0
 11
987.197952
 21
-322.358362
 31
0.0
  0
LINE
  8
0
  6
BYLAYER
 62
     1
 10
1091.197952
 20
-299.358362
 30
0.0
 11
1091.197952
 21
-203.594472
 31
0.0
  0
LINE
  8
0
  6
BYLAYER
 62
     1
 10
1094.197952
 20
-219.358362
 30
0.0
 11
1094.197952
 21
-200.772646
 31
0.0
  0
LINE
  8
0
  6
BYLAYER
 62
     1
 10
1094.197952
 20
-219.358362
 30
0.0
 11
1094.197952
 21
-273.858362
 31
0.0
  0
LINE
  8
0
  6
BYLAYER
 62
     1
 10
1094.197952
 20
-273.858362
 30
0.0
 11
1093.697952
 21
-274.358362
 31
0.0
  0
LINE
  8
0
  6
BYLAYER
 62
     1
 10
1093.697952
 20
-274.358362
 30
0.0
 11
1091.197952
 21
-274.358362
 31
0.0
  0
LINE
  8
0
  6
BYLAYER
 62
     1
 10
959.197952
 20
-272.358362
 30
0.0
 11
960.697952
 21
-270.858423
 31
0.0
  0
LINE
  8
0
  6
BYLAYER
 62
     1
 10
957.197952
 20
-299.358362
 30
0.0
 11
959.197952
 21
-299.428186
 31
0.0
  0
LINE
  8
0
  6
BYLAYER
 62
     1
 10
957.197952
 20
-299.358362
 30
0.0
 11
957.197952
 21
-203.594472
 31
0.0
  0
LINE
  8
0
  6
BYLAYER
 62
     1
 10
954.197952
 20
-219.358362
 30
0.0
 11
954.197952
 21
-200.772646
 31
0.0
  0
LINE
  8
0
  6
BYLAYER
 62
     1
 10
954.197952
 20
-219.358362
 30
0.0
 11
954.197952
 21
-273.858362
 31
0.0
  0
LINE
  8
0
  6
BYLAYER
 62
     1
 10
954.197952
 20
-273.858362
 30
0.0
 11
954.697952
 21
-274.358362
 31
0.0
  0
LINE
  8
0
  6
BYLAYER
 62
     1
 10
954.697952
 20
-274.358362
 30
0.0
 11
957.197952
 21
-274.358362
 31
0.0
  0
LINE
  8
0
  6
BYLAYER
 62
     1
 10
1061.197952
 20
-317.358331
 30
0.0
 11
987.197952
 21
-317.358331
 31
0.0
  0
LINE
  8
0
  6
BYLAYER
 62
     7
 10
980.697845
 20
-22.858393
 30
0.0
 11
980.697845
 21
-1.358393
 31
0.0
  0
ARC
  8
0
  6
BYLAYER
 62
     7
 10
979.197845
 20
-22.858393
 30
0.0
 40
1.500000
 50
270.0
 51
360.0
  0
ARC
  8
0
  6
BYLAYER
 62
     7
 10
982.197845
 20
-1.358393
 30
0.0
 40
1.500000
 50
90.0
 51
180.0
  0
LINE
  8
0
  6
BYLAYER
 62
     7
 10
1024.197845
 20
0.141607
 30
0.0
 11
982.197845
 21
0.141607
 31
0.0
  0
LINE
  8
0
  6
BYLAYER
 62
     7
 10
986.070086
 20
-22.858393
 30
0.0
 11
986.070086
 21
-1.358393
 31
0.0
  0
ARC
  8
0
  6
BYLAYER
 62
     7
 10
984.570086
 20
-22.858393
 30
0.0
 40
1.500000
 50
270.0
 51
360.0
  0
ARC
  8
0
  6
BYLAYER
 62
     7
 10
987.570086
 20
-1.358393
 30
0.0
 40
1.500000
 50
90.0
 51
180.0
  0
LINE
  8
0
  6
BYLAYER
 62
     7
 10
1011.104192
 20
0.141607
 30
0.0
 11
1011.596739
 21
-13.963091
 31
0.0
  0
ARC
  8
0
  6
BYLAYER
 62
     7
 10
1014.594911
 20
-13.858393
 30
0.0
 40
3.000000
 50
182.000000
 51
270.000000
  0
LINE
  8
0
  6
BYLAYER
 62
     7
 10
1021.798951
 20
-13.963091
 30
0.0
 11
1022.291498
 21
0.141607
 31
0.0
  0
ARC
  8
0
  6
BYLAYER
 62
     7
 10
1018.800779
 20
-13.858393
 30
0.0
 40
3.0
 50
270.0
 51
358.0
  0
LINE
  8
0
  6
BYLAYER
 62
     7
 10
1014.594911
 20
-16.858393
 30
0.0
 11
1018.800779
 21
-16.858393
 31
0.0
  0
LINE
  8
0
  6
BYLAYER
 62
     7
 10
996.104192
 20
0.141607
 30
0.0
 11
996.596739
 21
-13.963091
 31
0.0
  0
ARC
  8
0
  6
BYLAYER
 62
     7
 10
999.594911
 20
-13.858393
 30
0.0
 40
3.000000
 50
182.000000
 51
270.000000
  0
LINE
  8
0
  6
BYLAYER
 62
     7
 10
1006.798951
 20
-13.963091
 30
0.0
 11
1007.291498
 21
0.141607
 31
0.0
  0
ARC
  8
0
  6
BYLAYER
 62
     7
 10
1003.800779
 20
-13.858393
 30
0.0
 40
3.0
 50
270.0
 51
358.0
  0
LINE
  8
0
  6
BYLAYER
 62
     7
 10
999.594911
 20
-16.858393
 30
0.0
 11
1003.800779
 21
-16.858393
 31
0.0
  0
LINE
  8
0
  6
BYLAYER
 62
     7
 10
996.139113
 20
-0.858393
 30
0.0
 11
1007.256577
 21
-0.858393
 31
0.0
  0
LINE
  8
0
  6
BYLAYER
 62
     7
 10
1011.139113
 20
-0.858393
 30
0.0
 11
1022.256577
 21
-0.858393
 31
0.0
  0
LINE
  8
0
  6
BYLAYER
 62
     7
 10
1024.197845
 20
-24.358393
 30
0.0
 11
976.697845
 21
-24.358393
 31
0.0
  0
ARC
  8
0
  6
BYLAYER
 62
     7
 10
976.697845
 20
-25.858393
 30
0.0
 40
1.500000
 50
90.0
 51
180.0
  0
LINE
  8
0
  6
BYLAYER
 62
     7
 10
975.197845
 20
-31.358393
 30
0.0
 11
975.197845
 21
-25.858393
 31
0.0
  0
LINE
  8
0
  6
BYLAYER
 62
     7
 10
975.197845
 20
-31.358393
 30
0.0
 11
1024.197845
 21
-31.358393
 31
0.0
  0
LINE
  8
0
  6
BYLAYER
 62
     7
 10
1067.697845
 20
-22.858393
 30
0.0
 11
1067.697845
 21
-1.358393
 31
0.0
  0
ARC
  8
0
  6
BYLAYER
 62
     7
 10
1069.197845
 20
-22.858393
 30
0.0
 40
1.500000
 50
180.000000
 51
270.000000
  0
ARC
  8
0
  6
BYLAYER
 62
     7
 10
1066.197845
 20
-1.358393
 30
0.0
 40
1.500000
 50
0.0
 51
90.0
  0
LINE
  8
0
  6
BYLAYER
 62
     7
 10
1024.197845
 20
0.141607
 30
0.0
 11
1066.197845
 21
0.141607
 31
0.0
  0
LINE
  8
0
  6
BYLAYER
 62
     7
 10
1062.325604
 20
-22.858393
 30
0.0
 11
1062.325604
 21
-1.358393
 31
0.0
  0
ARC
  8
0
  6
BYLAYER
 62
     7
 10
1063.825604
 20
-22.858393
 30
0.0
 40
1.500000
 50
180.000000
 51
270.000000
  0
ARC
  8
0
  6
BYLAYER
 62
     7
 10
1060.825604
 20
-1.358393
 30
0.0
 40
1.500000
 50
0.0
 51
90.0
  0
LINE
  8
0
  6
BYLAYER
 62
     7
 10
1037.291498
 20
0.141607
 30
0.0
 11
1036.798951
 21
-13.963091
 31
0.0
  0
ARC
  8
0
  6
BYLAYER
 62
     7
 10
1033.800779
 20
-13.858393
 30
0.0
 40
3.0
 50
270.0
 51
358.0
  0
LINE
  8
0
  6
BYLAYER
 62
     7
 10
1026.596739
 20
-13.963091
 30
0.0
 11
1026.104192
 21
0.141607
 31
0.0
  0
ARC
  8
0
  6
BYLAYER
 62
     7
 10
1029.594911
 20
-13.858393
 30
0.0
 40
3.000000
 50
182.000000
 51
270.000000
  0
LINE
  8
0
  6
BYLAYER
 62
     7
 10
1033.800779
 20
-16.858393
 30
0.0
 11
1029.594911
 21
-16.858393
 31
0.0
  0
LINE
  8
0
  6
BYLAYER
 62
     7
 10
1052.291498
 20
0.141607
 30
0.0
 11
1051.798951
 21
-13.963091
 31
0.0
  0
ARC
  8
0
  6
BYLAYER
 62
     7
 10
1048.800779
 20
-13.858393
 30
0.0
 40
3.0
 50
270.0
 51
358.0
  0
LINE
  8
0
  6
BYLAYER
 62
     7
 10
1041.596739
 20
-13.963091
 30
0.0
 11
1041.104192
 21
0.141607
 31
0.0
  0
ARC
  8
0
  6
BYLAYER
 62
     7
 10
1044.594911
 20
-13.858393
 30
0.0
 40
3.000000
 50
182.000000
 51
270.000000
  0
LINE
  8
0
  6
BYLAYER
 62
     7
 10
1048.800779
 20
-16.858393
 30
0.0
 11
1044.594911
 21
-16.858393
 31
0.0
  0
LINE
  8
0
  6
BYLAYER
 62
     7
 10
1052.256577
 20
-0.858393
 30
0.0
 11
1041.139113
 21
-0.858393
 31
0.0
  0
LINE
  8
0
  6
BYLAYER
 62
     7
 10
1037.256577
 20
-0.858393
 30
0.0
 11
1026.139113
 21
-0.858393
 31
0.0
  0
LINE
  8
0
  6
BYLAYER
 62
     7
 10
1024.197845
 20
-24.358393
 30
0.0
 11
1071.697845
 21
-24.358393
 31
0.0
  0
ARC
  8
0
  6
BYLAYER
 62
     7
 10
1071.697845
 20
-25.858393
 30
0.0
 40
1.500000
 50
0.0
 51
90.0
  0
LINE
  8
0
  6
BYLAYER
 62
     7
 10
1073.197845
 20
-33.358393
 30
0.0
 11
1073.197845
 21
-25.858393
 31
0.0
  0
LINE
  8
0
  6
BYLAYER
 62
     7
 10
1073.197845
 20
-31.358393
 30
0.0
 11
1024.197845
 21
-31.358393
 31
0.0
  0
LINE
  8
0
  6
BYLAYER
 62
     7
 10
975.197845
 20
-33.358393
 30
0.0
 11
1024.197829
 21
-33.358393
 31
0.0
  0
LINE
  8
0
  6
BYLAYER
 62
     7
 10
975.197845
 20
-38.858393
 30
0.0
 11
978.197845
 21
-44.054560
 31
0.0
  0
LINE
  8
0
  6
BYLAYER
 62
     7
 10
1073.197829
 20
-33.358271
 30
0.0
 11
1024.197829
 21
-33.358393
 31
0.0
  0
LINE
  8
0
  6
BYLAYER
 62
     7
 10
1073.197829
 20
-38.858271
 30
0.0
 11
1070.197829
 21
-44.054438
 31
0.0
  0
LINE
  8
0
  6
BYLAYER
 62
     7
 10
978.197845
 20
-44.054560
 30
0.0
 11
978.197845
 21
-56.044796
 31
0.0
  0
LINE
  8
0
  6
BYLAYER
 62
     7
 10
975.197845
 20
-33.358393
 30
0.0
 11
975.197845
 21
-58.014979
 31
0.0
  0
LINE
  8
0
  6
BYLAYER
 62
     7
 10
1073.197829
 20
-33.358271
 30
0.0
 11
1073.197858
 21
-58.014841
 31
0.0
  0
LINE
  8
0
  6
BYLAYER
 62
     7
 10
1070.197829
 20
-44.054438
 30
0.0
 11
1070.197840
 21
-56.044659
 31
0.0
  0
LINE
  8
0
  6
BYLAYER
 62
     7
 10
975.197845
 20
-31.358393
 30
0.0
 11
975.197845
 21
-33.358393
 31
0.0
  0
LINE
  8
0
  6
BYLAYER
 62
     7
 10
975.197845
 20
-33.358393
 30
0.0
 11
1073.197845
 21
-33.358393
 31
0.0
  0
LINE
  8
0
  6
BYLAYER
 62
     7
 10
1025.197952
 20
-100.358362
 30
0.0
 11
1025.197952
 21
-108.358362
 31
0.0
  0
LINE
  8
0
  6
BYLAYER
 62
     7
 10
1025.197952
 20
-90.358362
 30
0.0
 11
1025.197952
 21
-98.358362
 31
0.0
  0
LINE
  8
0
  6
BYLAYER
 62
     7
 10
1033.197952
 20
-98.358362
 30
0.0
 11
1033.197952
 21
-90.358362
 31
0.0
  0
LINE
  8
0
  6
BYLAYER
 62
     7
 10
1035.197952
 20
-98.358362
 30
0.0
 11
1035.197952
 21
-90.358362
 31
0.0
  0
LINE
  8
0
  6
BYLAYER
 62
     7
 10
1025.197952
 20
-108.358362
 30
0.0
 11
1033.197952
 21
-108.358362
 31
0.0
  0
LINE
  8
0
  6
BYLAYER
 62
     7
 10
1025.197952
 20
-100.358362
 30
0.0
 11
1033.197952
 21
-100.358362
 31
0.0
  0
LINE
  8
0
  6
BYLAYER
 62
     7
 10
1035.197952
 20
-98.358362
 30
0.0
 11
1043.035951
 21
-98.358362
 31
0.0
  0
LINE
  8
0
  6
BYLAYER
 62
     7
 10
1025.197952
 20
-98.358362
 30
0.0
 11
1033.197952
 21
-98.358362
 31
0.0
  0
LINE
  8
0
  6
BYLAYER
 62
     7
 10
1035.197952
 20
-90.358362
 30
0.0
 11
1043.035951
 21
-90.358362
 31
0.0
  0
LINE
  8
0
  6
BYLAYER
 62
     7
 10
1025.197952
 20
-90.358362
 30
0.0
 11
1033.197952
 21
-90.358362
 31
0.0
  0
LINE
  8
0
  6
BYLAYER
 62
     7
 10
1043.035951
 20
-98.358362
 30
0.0
 11
1043.035951
 21
-90.358362
 31
0.0
  0
LINE
  8
0
  6
BYLAYER
 62
     7
 10
1033.197952
 20
-108.358362
 30
0.0
 11
1033.197952
 21
-100.358362
 31
0.0
  0
LINE
  8
0
  6
BYLAYER
 62
     7
 10
1035.197952
 20
-100.358362
 30
0.0
 11
1035.197952
 21
-108.358362
 31
0.0
  0
LINE
  8
0
  6
BYLAYER
 62
     7
 10
1035.197952
 20
-108.358362
 30
0.0
 11
1043.197952
 21
-108.358362
 31
0.0
  0
LINE
  8
0
  6
BYLAYER
 62
     7
 10
1035.197952
 20
-100.358362
 30
0.0
 11
1043.197952
 21
-100.358362
 31
0.0
  0
LINE
  8
0
  6
BYLAYER
 62
     7
 10
1043.197952
 20
-108.358362
 30
0.0
 11
1043.197952
 21
-100.358362
 31
0.0
  0
LINE
  8
0
  6
BYLAYER
 62
     7
 10
1045.197952
 20
-118.358362
 30
0.0
 11
1053.197952
 21
-118.358362
 31
0.0
  0
LINE
  8
0
  6
BYLAYER
 62
     7
 10
1045.197952
 20
-100.358362
 30
0.0
 11
1045.197952
 21
-108.358362
 31
0.0
  0
LINE
  8
0
  6
BYLAYER
 62
     7
 10
1045.197952
 20
-110.358362
 30
0.0
 11
1045.197952
 21
-118.358362
 31
0.0
  0
LINE
  8
0
  6
BYLAYER
 62
     7
 10
1045.197952
 20
-110.358362
 30
0.0
 11
1053.197952
 21
-110.358362
 31
0.0
  0
LINE
  8
0
  6
BYLAYER
 62
     7
 10
1045.197952
 20
-108.358362
 30
0.0
 11
1053.197952
 21
-108.358362
 31
0.0
  0
LINE
  8
0
  6
BYLAYER
 62
     7
 10
1045.197952
 20
-100.358362
 30
0.0
 11
1053.197952
 21
-100.358362
 31
0.0
  0
LINE
  8
0
  6
BYLAYER
 62
     7
 10
1053.197952
 20
-118.358362
 30
0.0
 11
1053.197952
 21
-110.358362
 31
0.0
  0
LINE
  8
0
  6
BYLAYER
 62
     7
 10
1053.197952
 20
-108.358362
 30
0.0
 11
1053.197952
 21
-100.358362
 31
0.0
  0
LINE
  8
0
  6
BYLAYER
 62
     7
 10
1045.197952
 20
-128.358362
 30
0.0
 11
1053.197952
 21
-128.358362
 31
0.0
  0
LINE
  8
0
  6
BYLAYER
 62
     7
 10
1045.197952
 20
-120.358362
 30
0.0
 11
1045.197952
 21
-128.358362
 31
0.0
  0
LINE
  8
0
  6
BYLAYER
 62
     7
 10
1045.197952
 20
-120.358362
 30
0.0
 11
1053.197952
 21
-120.358362
 31
0.0
  0
LINE
  8
0
  6
BYLAYER
 62
     7
 10
1053.197952
 20
-128.358362
 30
0.0
 11
1053.197952
 21
-120.358362
 31
0.0
  0
LINE
  8
0
  6
BYLAYER
 62
     7
 10
1055.197952
 20
-118.358362
 30
0.0
 11
1063.197952
 21
-118.358362
 31
0.0
  0
LINE
  8
0
  6
BYLAYER
 62
     7
 10
1055.197952
 20
-110.358362
 30
0.0
 11
1055.197952
 21
-118.358362
 31
0.0
  0
LINE
  8
0
  6
BYLAYER
 62
     7
 10
1055.197952
 20
-110.358362
 30
0.0
 11
1063.197952
 21
-110.358362
 31
0.0
  0
LINE
  8
0
  6
BYLAYER
 62
     7
 10
1063.197952
 20
-118.358362
 30
0.0
 11
1063.197952
 21
-110.358362
 31
0.0
  0
LINE
  8
0
  6
BYLAYER
 62
     7
 10
1055.197952
 20
-128.358362
 30
0.0
 11
1063.197952
 21
-128.358362
 31
0.0
  0
LINE
  8
0
  6
BYLAYER
 62
     7
 10
1055.197952
 20
-120.358362
 30
0.0
 11
1055.197952
 21
-128.358362
 31
0.0
  0
LINE
  8
0
  6
BYLAYER
 62
     7
 10
1055.197952
 20
-120.358362
 30
0.0
 11
1063.197952
 21
-120.358362
 31
0.0
  0
LINE
  8
0
  6
BYLAYER
 62
     7
 10
1063.197952
 20
-128.358362
 30
0.0
 11
1063.197952
 21
-120.358362
 31
0.0
  0
LINE
  8
0
  6
BYLAYER
 62
     7
 10
1065.197952
 20
-118.358362
 30
0.0
 11
1073.197952
 21
-118.358362
 31
0.0
  0
LINE
  8
0
  6
BYLAYER
 62
     7
 10
1065.197952
 20
-110.358362
 30
0.0
 11
1065.197952
 21
-118.358362
 31
0.0
  0
LINE
  8
0
  6
BYLAYER
 62
     7
 10
1065.197952
 20
-110.358362
 30
0.0
 11
1073.197952
 21
-110.358362
 31
0.0
  0
LINE
  8
0
  6
BYLAYER
 62
     7
 10
1073.197952
 20
-118.358362
 30
0.0
 11
1073.197952
 21
-110.358362
 31
0.0
  0
LINE
  8
0
  6
BYLAYER
 62
     7
 10
1065.197952
 20
-128.358362
 30
0.0
 11
1073.197952
 21
-128.358362
 31
0.0
  0
LINE
  8
0
  6
BYLAYER
 62
     7
 10
1065.197952
 20
-120.358362
 30
0.0
 11
1065.197952
 21
-128.358362
 31
0.0
  0
LINE
  8
0
  6
BYLAYER
 62
     7
 10
1065.197952
 20
-120.358362
 30
0.0
 11
1073.197952
 21
-120.358362
 31
0.0
  0
LINE
  8
0
  6
BYLAYER
 62
     7
 10
1073.197952
 20
-128.358362
 30
0.0
 11
1073.197952
 21
-120.358362
 31
0.0
  0
LINE
  8
0
  6
BYLAYER
 62
     7
 10
1025.197952
 20
-80.358362
 30
0.0
 11
1025.197952
 21
-88.358362
 31
0.0
  0
LINE
  8
0
  6
BYLAYER
 62
     7
 10
1033.197952
 20
-88.358362
 30
0.0
 11
1033.197952
 21
-80.358362
 31
0.0
  0
LINE
  8
0
  6
BYLAYER
 62
     7
 10
1035.197952
 20
-88.358362
 30
0.0
 11
1035.197952
 21
-80.358362
 31
0.0
  0
LINE
  8
0
  6
BYLAYER
 62
     7
 10
1035.197952
 20
-88.358362
 30
0.0
 11
1043.035951
 21
-88.358362
 31
0.0
  0
LINE
  8
0
  6
BYLAYER
 62
     7
 10
1025.197952
 20
-88.358362
 30
0.0
 11
1033.197952
 21
-88.358362
 31
0.0
  0
LINE
  8
0
  6
BYLAYER
 62
     7
 10
1035.197952
 20
-80.358362
 30
0.0
 11
1043.035951
 21
-80.358362
 31
0.0
  0
LINE
  8
0
  6
BYLAYER
 62
     7
 10
1025.197952
 20
-80.358362
 30
0.0
 11
1033.197952
 21
-80.358362
 31
0.0
  0
LINE
  8
0
  6
BYLAYER
 62
     7
 10
1043.035951
 20
-88.358362
 30
0.0
 11
1043.035951
 21
-80.358362
 31
0.0
  0
LINE
  8
0
  6
BYLAYER
 62
     7
 10
1045.197952
 20
-90.358362
 30
0.0
 11
1045.197952
 21
-98.358362
 31
0.0
  0
LINE
  8
0
  6
BYLAYER
 62
     7
 10
1045.197952
 20
-98.358362
 30
0.0
 11
1053.197952
 21
-98.358362
 31
0.0
  0
LINE
  8
0
  6
BYLAYER
 62
     7
 10
1045.197952
 20
-90.358362
 30
0.0
 11
1053.197952
 21
-90.358362
 31
0.0
  0
LINE
  8
0
  6
BYLAYER
 62
     7
 10
1053.197952
 20
-98.358362
 30
0.0
 11
1053.197952
 21
-90.358362
 31
0.0
  0
LINE
  8
0
  6
BYLAYER
 62
     7
 10
1045.197952
 20
-80.358362
 30
0.0
 11
1045.197952
 21
-88.358362
 31
0.0
  0
LINE
  8
0
  6
BYLAYER
 62
     7
 10
1045.197952
 20
-88.358362
 30
0.0
 11
1053.197952
 21
-88.358362
 31
0.0
  0
LINE
  8
0
  6
BYLAYER
 62
     7
 10
1045.197952
 20
-80.358362
 30
0.0
 11
1053.197952
 21
-80.358362
 31
0.0
  0
LINE
  8
0
  6
BYLAYER
 62
     7
 10
1053.197952
 20
-88.358362
 30
0.0
 11
1053.197952
 21
-80.358362
 31
0.0
  0
LINE
  8
0
  6
BYLAYER
 62
     7
 10
1055.197952
 20
-100.358362
 30
0.0
 11
1055.197952
 21
-108.358362
 31
0.0
  0
LINE
  8
0
  6
BYLAYER
 62
     7
 10
1055.197952
 20
-108.358362
 30
0.0
 11
1063.197952
 21
-108.358362
 31
0.0
  0
LINE
  8
0
  6
BYLAYER
 62
     7
 10
1055.197952
 20
-100.358362
 30
0.0
 11
1063.197952
 21
-100.358362
 31
0.0
  0
LINE
  8
0
  6
BYLAYER
 62
     7
 10
1063.197952
 20
-108.358362
 30
0.0
 11
1063.197952
 21
-100.358362
 31
0.0
  0
LINE
  8
0
  6
BYLAYER
 62
     7
 10
1055.197952
 20
-90.358362
 30
0.0
 11
1055.197952
 21
-98.358362
 31
0.0
  0
LINE
  8
0
  6
BYLAYER
 62
     7
 10
1055.197952
 20
-98.358362
 30
0.0
 11
1063.197952
 21
-98.358362
 31
0.0
  0
LINE
  8
0
  6
BYLAYER
 62
     7
 10
1055.197952
 20
-90.358362
 30
0.0
 11
1063.197952
 21
-90.358362
 31
0.0
  0
LINE
  8
0
  6
BYLAYER
 62
     7
 10
1063.197952
 20
-98.358362
 30
0.0
 11
1063.197952
 21
-90.358362
 31
0.0
  0
LINE
  8
0
  6
BYLAYER
 62
     7
 10
1065.197952
 20
-100.358362
 30
0.0
 11
1065.197952
 21
-108.358362
 31
0.0
  0
LINE
  8
0
  6
BYLAYER
 62
     7
 10
1065.197952
 20
-108.358362
 30
0.0
 11
1073.197952
 21
-108.358362
 31
0.0
  0
LINE
  8
0
  6
BYLAYER
 62
     7
 10
1065.197952
 20
-100.358362
 30
0.0
 11
1073.197952
 21
-100.358362
 31
0.0
  0
LINE
  8
0
  6
BYLAYER
 62
     7
 10
1073.197952
 20
-108.358362
 30
0.0
 11
1073.197952
 21
-100.358362
 31
0.0
  0
CIRCLE
  8
0
  6
BYLAYER
 62
     7
 10
1024.197952
 20
-129.358362
 30
0.0
 40
4.000000
  0
LINE
  8
0
  6
BYLAYER
 62
     7
 10
1075.197952
 20
-118.358362
 30
0.0
 11
1083.197952
 21
-118.358362
 31
0.0
  0
LINE
  8
0
  6
BYLAYER
 62
     7
 10
1075.197952
 20
-110.358362
 30
0.0
 11
1075.197952
 21
-118.358362
 31
0.0
  0
LINE
  8
0
  6
BYLAYER
 62
     7
 10
1075.197952
 20
-110.358362
 30
0.0
 11
1083.197952
 21
-110.358362
 31
0.0
  0
LINE
  8
0
  6
BYLAYER
 62
     7
 10
1083.197952
 20
-118.358362
 30
0.0
 11
1083.197952
 21
-110.358362
 31
0.0
  0
LINE
  8
0
  6
BYLAYER
 62
     7
 10
1075.197952
 20
-128.358362
 30
0.0
 11
1083.197952
 21
-128.358362
 31
0.0
  0
LINE
  8
0
  6
BYLAYER
 62
     7
 10
1075.197952
 20
-120.358362
 30
0.0
 11
1075.197952
 21
-128.358362
 31
0.0
  0
LINE
  8
0
  6
BYLAYER
 62
     7
 10
1075.197952
 20
-120.358362
 30
0.0
 11
1083.197952
 21
-120.358362
 31
0.0
  0
LINE
  8
0
  6
BYLAYER
 62
     7
 10
1083.197952
 20
-128.358362
 30
0.0
 11
1083.197952
 21
-120.358362
 31
0.0
  0
LINE
  8
0
  6
BYLAYER
 62
     7
 10
1075.197952
 20
-100.358362
 30
0.0
 11
1075.197952
 21
-108.358362
 31
0.0
  0
LINE
  8
0
  6
BYLAYER
 62
     7
 10
1075.197952
 20
-108.358362
 30
0.0
 11
1083.197952
 21
-108.358362
 31
0.0
  0
LINE
  8
0
  6
BYLAYER
 62
     7
 10
1075.197952
 20
-100.358362
 30
0.0
 11
1083.197952
 21
-100.358362
 31
0.0
  0
LINE
  8
0
  6
BYLAYER
 62
     7
 10
1083.197952
 20
-108.358362
 30
0.0
 11
1083.197952
 21
-100.358362
 31
0.0
  0
LINE
  8
0
  6
BYLAYER
 62
     7
 10
1025.197952
 20
-70.358362
 30
0.0
 11
1025.197952
 21
-78.358362
 31
0.0
  0
LINE
  8
0
  6
BYLAYER
 62
     7
 10
1033.197952
 20
-78.358362
 30
0.0
 11
1033.197952
 21
-70.358362
 31
0.0
  0
LINE
  8
0
  6
BYLAYER
 62
     7
 10
1035.197952
 20
-78.358362
 30
0.0
 11
1035.197952
 21
-70.358362
 31
0.0
  0
LINE
  8
0
  6
BYLAYER
 62
     7
 10
1035.197952
 20
-78.358362
 30
0.0
 11
1043.035951
 21
-78.358362
 31
0.0
  0
LINE
  8
0
  6
BYLAYER
 62
     7
 10
1025.197952
 20
-78.358362
 30
0.0
 11
1033.197952
 21
-78.358362
 31
0.0
  0
LINE
  8
0
  6
BYLAYER
 62
     7
 10
1035.197952
 20
-70.358362
 30
0.0
 11
1043.035951
 21
-70.358362
 31
0.0
  0
LINE
  8
0
  6
BYLAYER
 62
     7
 10
1025.197952
 20
-70.358362
 30
0.0
 11
1033.197952
 21
-70.358362
 31
0.0
  0
LINE
  8
0
  6
BYLAYER
 62
     7
 10
1043.035951
 20
-78.358362
 30
0.0
 11
1043.035951
 21
-70.358362
 31
0.0
  0
LINE
  8
0
  6
BYLAYER
 62
     7
 10
1045.197952
 20
-70.358362
 30
0.0
 11
1045.197952
 21
-78.358362
 31
0.0
  0
LINE
  8
0
  6
BYLAYER
 62
     7
 10
1045.197952
 20
-78.358362
 30
0.0
 11
1053.197952
 21
-78.358362
 31
0.0
  0
LINE
  8
0
  6
BYLAYER
 62
     7
 10
1045.197952
 20
-70.358362
 30
0.0
 11
1053.197952
 21
-70.358362
 31
0.0
  0
LINE
  8
0
  6
BYLAYER
 62
     7
 10
1053.197952
 20
-78.358362
 30
0.0
 11
1053.197952
 21
-70.358362
 31
0.0
  0
LINE
  8
0
  6
BYLAYER
 62
     7
 10
1055.197952
 20
-80.358362
 30
0.0
 11
1055.197952
 21
-88.358362
 31
0.0
  0
LINE
  8
0
  6
BYLAYER
 62
     7
 10
1055.197952
 20
-88.358362
 30
0.0
 11
1063.197952
 21
-88.358362
 31
0.0
  0
LINE
  8
0
  6
BYLAYER
 62
     7
 10
1055.197952
 20
-80.358362
 30
0.0
 11
1063.197952
 21
-80.358362
 31
0.0
  0
LINE
  8
0
  6
BYLAYER
 62
     7
 10
1063.197952
 20
-88.358362
 30
0.0
 11
1063.197952
 21
-80.358362
 31
0.0
  0
LINE
  8
0
  6
BYLAYER
 62
     7
 10
1065.197952
 20
-90.358362
 30
0.0
 11
1065.197952
 21
-98.358362
 31
0.0
  0
LINE
  8
0
  6
BYLAYER
 62
     7
 10
1065.197952
 20
-98.358362
 30
0.0
 11
1073.197952
 21
-98.358362
 31
0.0
  0
LINE
  8
0
  6
BYLAYER
 62
     7
 10
1065.197952
 20
-90.358362
 30
0.0
 11
1073.197952
 21
-90.358362
 31
0.0
  0
LINE
  8
0
  6
BYLAYER
 62
     7
 10
1073.197952
 20
-98.358362
 30
0.0
 11
1073.197952
 21
-90.358362
 31
0.0
  0
LINE
  8
0
  6
BYLAYER
 62
     7
 10
1025.197952
 20
-158.358362
 30
0.0
 11
1025.197952
 21
-150.358362
 31
0.0
  0
LINE
  8
0
  6
BYLAYER
 62
     7
 10
1025.197952
 20
-168.358362
 30
0.0
 11
1025.197952
 21
-160.358362
 31
0.0
  0
LINE
  8
0
  6
BYLAYER
 62
     7
 10
1033.197952
 20
-160.358362
 30
0.0
 11
1033.197952
 21
-168.358362
 31
0.0
  0
LINE
  8
0
  6
BYLAYER
 62
     7
 10
1035.197952
 20
-160.358362
 30
0.0
 11
1035.197952
 21
-168.358362
 31
0.0
  0
LINE
  8
0
  6
BYLAYER
 62
     7
 10
1025.197952
 20
-150.358362
 30
0.0
 11
1033.197952
 21
-150.358362
 31
0.0
  0
LINE
  8
0
  6
BYLAYER
 62
     7
 10
1025.197952
 20
-158.358362
 30
0.0
 11
1033.197952
 21
-158.358362
 31
0.0
  0
LINE
  8
0
  6
BYLAYER
 62
     7
 10
1035.197952
 20
-160.358362
 30
0.0
 11
1043.035951
 21
-160.358362
 31
0.0
  0
LINE
  8
0
  6
BYLAYER
 62
     7
 10
1025.197952
 20
-160.358362
 30
0.0
 11
1033.197952
 21
-160.358362
 31
0.0
  0
LINE
  8
0
  6
BYLAYER
 62
     7
 10
1035.197952
 20
-168.358362
 30
0.0
 11
1043.035951
 21
-168.358362
 31
0.0
  0
LINE
  8
0
  6
BYLAYER
 62
     7
 10
1025.197952
 20
-168.358362
 30
0.0
 11
1033.197952
 21
-168.358362
 31
0.0
  0
LINE
  8
0
  6
BYLAYER
 62
     7
 10
1043.035951
 20
-160.358362
 30
0.0
 11
1043.035951
 21
-168.358362
 31
0.0
  0
LINE
  8
0
  6
BYLAYER
 62
     7
 10
1033.197952
 20
-150.358362
 30
0.0
 11
1033.197952
 21
-158.358362
 31
0.0
  0
LINE
  8
0
  6
BYLAYER
 62
     7
 10
1035.197952
 20
-158.358362
 30
0.0
 11
1035.197952
 21
-150.358362
 31
0.0
  0
LINE
  8
0
  6
BYLAYER
 62
     7
 10
1035.197952
 20
-150.358362
 30
0.0
 11
1043.197952
 21
-150.358362
 31
0.0
  0
LINE
  8
0
  6
BYLAYER
 62
     7
 10
1035.197952
 20
-158.358362
 30
0.0
 11
1043.197952
 21
-158.358362
 31
0.0
  0
LINE
  8
0
  6
BYLAYER
 62
     7
 10
1043.197952
 20
-150.358362
 30
0.0
 11
1043.197952
 21
-158.358362
 31
0.0
  0
LINE
  8
0
  6
BYLAYER
 62
     7
 10
1045.197952
 20
-140.358362
 30
0.0
 11
1053.197952
 21
-140.358362
 31
0.0
  0
LINE
  8
0
  6
BYLAYER
 62
     7
 10
1045.197952
 20
-158.358362
 30
0.0
 11
1045.197952
 21
-150.358362
 31
0.0
  0
LINE
  8
0
  6
BYLAYER
 62
     7
 10
1045.197952
 20
-148.358362
 30
0.0
 11
1045.197952
 21
-140.358362
 31
0.0
  0
LINE
  8
0
  6
BYLAYER
 62
     7
 10
1045.197952
 20
-148.358362
 30
0.0
 11
1053.197952
 21
-148.358362
 31
0.0
  0
LINE
  8
0
  6
BYLAYER
 62
     7
 10
1045.197952
 20
-150.358362
 30
0.0
 11
1053.197952
 21
-150.358362
 31
0.0
  0
LINE
  8
0
  6
BYLAYER
 62
     7
 10
1045.197952
 20
-158.358362
 30
0.0
 11
1053.197952
 21
-158.358362
 31
0.0
  0
LINE
  8
0
  6
BYLAYER
 62
     7
 10
1053.197952
 20
-140.358362
 30
0.0
 11
1053.197952
 21
-148.358362
 31
0.0
  0
LINE
  8
0
  6
BYLAYER
 62
     7
 10
1053.197952
 20
-150.358362
 30
0.0
 11
1053.197952
 21
-158.358362
 31
0.0
  0
LINE
  8
0
  6
BYLAYER
 62
     7
 10
1045.197952
 20
-130.358362
 30
0.0
 11
1053.197952
 21
-130.358362
 31
0.0
  0
LINE
  8
0
  6
BYLAYER
 62
     7
 10
1045.197952
 20
-138.358362
 30
0.0
 11
1045.197952
 21
-130.358362
 31
0.0
  0
LINE
  8
0
  6
BYLAYER
 62
     7
 10
1045.197952
 20
-138.358362
 30
0.0
 11
1053.197952
 21
-138.358362
 31
0.0
  0
LINE
  8
0
  6
BYLAYER
 62
     7
 10
1053.197952
 20
-130.358362
 30
0.0
 11
1053.197952
 21
-138.358362
 31
0.0
  0
LINE
  8
0
  6
BYLAYER
 62
     7
 10
1055.197952
 20
-140.358362
 30
0.0
 11
1063.197952
 21
-140.358362
 31
0.0
  0
LINE
  8
0
  6
BYLAYER
 62
     7
 10
1055.197952
 20
-148.358362
 30
0.0
 11
1055.197952
 21
-140.358362
 31
0.0
  0
LINE
  8
0
  6
BYLAYER
 62
     7
 10
1055.197952
 20
-148.358362
 30
0.0
 11
1063.197952
 21
-148.358362
 31
0.0
  0
LINE
  8
0
  6
BYLAYER
 62
     7
 10
1063.197952
 20
-140.358362
 30
0.0
 11
1063.197952
 21
-148.358362
 31
0.0
  0
LINE
  8
0
  6
BYLAYER
 62
     7
 10
1055.197952
 20
-130.358362
 30
0.0
 11
1063.197952
 21
-130.358362
 31
0.0
  0
LINE
  8
0
  6
BYLAYER
 62
     7
 10
1055.197952
 20
-138.358362
 30
0.0
 11
1055.197952
 21
-130.358362
 31
0.0
  0
LINE
  8
0
  6
BYLAYER
 62
     7
 10
1055.197952
 20
-138.358362
 30
0.0
 11
1063.197952
 21
-138.358362
 31
0.0
  0
LINE
  8
0
  6
BYLAYER
 62
     7
 10
1063.197952
 20
-130.358362
 30
0.0
 11
1063.197952
 21
-138.358362
 31
0.0
  0
LINE
  8
0
  6
BYLAYER
 62
     7
 10
1065.197952
 20
-140.358362
 30
0.0
 11
1073.197952
 21
-140.358362
 31
0.0
  0
LINE
  8
0
  6
BYLAYER
 62
     7
 10
1065.197952
 20
-148.358362
 30
0.0
 11
1065.197952
 21
-140.358362
 31
0.0
  0
LINE
  8
0
  6
BYLAYER
 62
     7
 10
1065.197952
 20
-148.358362
 30
0.0
 11
1073.197952
 21
-148.358362
 31
0.0
  0
LINE
  8
0
  6
BYLAYER
 62
     7
 10
1073.197952
 20
-140.358362
 30
0.0
 11
1073.197952
 21
-148.358362
 31
0.0
  0
LINE
  8
0
  6
BYLAYER
 62
     7
 10
1065.197952
 20
-130.358362
 30
0.0
 11
1073.197952
 21
-130.358362
 31
0.0
  0
LINE
  8
0
  6
BYLAYER
 62
     7
 10
1065.197952
 20
-138.358362
 30
0.0
 11
1065.197952
 21
-130.358362
 31
0.0
  0
LINE
  8
0
  6
BYLAYER
 62
     7
 10
1065.197952
 20
-138.358362
 30
0.0
 11
1073.197952
 21
-138.358362
 31
0.0
  0
LINE
  8
0
  6
BYLAYER
 62
     7
 10
1073.197952
 20
-130.358362
 30
0.0
 11
1073.197952
 21
-138.358362
 31
0.0
  0
LINE
  8
0
  6
BYLAYER
 62
     7
 10
1025.197952
 20
-178.358362
 30
0.0
 11
1025.197952
 21
-170.358362
 31
0.0
  0
LINE
  8
0
  6
BYLAYER
 62
     7
 10
1033.197952
 20
-170.358362
 30
0.0
 11
1033.197952
 21
-178.358362
 31
0.0
  0
LINE
  8
0
  6
BYLAYER
 62
     7
 10
1035.197952
 20
-170.358362
 30
0.0
 11
1035.197952
 21
-178.358362
 31
0.0
  0
LINE
  8
0
  6
BYLAYER
 62
     7
 10
1035.197952
 20
-170.358362
 30
0.0
 11
1043.035951
 21
-170.358362
 31
0.0
  0
LINE
  8
0
  6
BYLAYER
 62
     7
 10
1025.197952
 20
-170.358362
 30
0.0
 11
1033.197952
 21
-170.358362
 31
0.0
  0
LINE
  8
0
  6
BYLAYER
 62
     7
 10
1035.197952
 20
-178.358362
 30
0.0
 11
1043.035951
 21
-178.358362
 31
0.0
  0
LINE
  8
0
  6
BYLAYER
 62
     7
 10
1025.197952
 20
-178.358362
 30
0.0
 11
1033.197952
 21
-178.358362
 31
0.0
  0
LINE
  8
0
  6
BYLAYER
 62
     7
 10
1043.035951
 20
-170.358362
 30
0.0
 11
1043.035951
 21
-178.358362
 31
0.0
  0
LINE
  8
0
  6
BYLAYER
 62
     7
 10
1045.197952
 20
-168.358362
 30
0.0
 11
1045.197952
 21
-160.358362
 31
0.0
  0
LINE
  8
0
  6
BYLAYER
 62
     7
 10
1045.197952
 20
-160.358362
 30
0.0
 11
1053.197952
 21
-160.358362
 31
0.0
  0
LINE
  8
0
  6
BYLAYER
 62
     7
 10
1045.197952
 20
-168.358362
 30
0.0
 11
1053.197952
 21
-168.358362
 31
0.0
  0
LINE
  8
0
  6
BYLAYER
 62
     7
 10
1053.197952
 20
-160.358362
 30
0.0
 11
1053.197952
 21
-168.358362
 31
0.0
  0
LINE
  8
0
  6
BYLAYER
 62
     7
 10
1045.197952
 20
-178.358362
 30
0.0
 11
1045.197952
 21
-170.358362
 31
0.0
  0
LINE
  8
0
  6
BYLAYER
 62
     7
 10
1045.197952
 20
-170.358362
 30
0.0
 11
1053.197952
 21
-170.358362
 31
0.0
  0
LINE
  8
0
  6
BYLAYER
 62
     7
 10
1045.197952
 20
-178.358362
 30
0.0
 11
1053.197952
 21
-178.358362
 31
0.0
  0
LINE
  8
0
  6
BYLAYER
 62
     7
 10
1053.197952
 20
-170.358362
 30
0.0
 11
1053.197952
 21
-178.358362
 31
0.0
  0
LINE
  8
0
  6
BYLAYER
 62
     7
 10
1055.197952
 20
-158.358362
 30
0.0
 11
1055.197952
 21
-150.358362
 31
0.0
  0
LINE
  8
0
  6
BYLAYER
 62
     7
 10
1055.197952
 20
-150.358362
 30
0.0
 11
1063.197952
 21
-150.358362
 31
0.0
  0
LINE
  8
0
  6
BYLAYER
 62
     7
 10
1055.197952
 20
-158.358362
 30
0.0
 11
1063.197952
 21
-158.358362
 31
0.0
  0
LINE
  8
0
  6
BYLAYER
 62
     7
 10
1063.197952
 20
-150.358362
 30
0.0
 11
1063.197952
 21
-158.358362
 31
0.0
  0
LINE
  8
0
  6
BYLAYER
 62
     7
 10
1055.197952
 20
-168.358362
 30
0.0
 11
1055.197952
 21
-160.358362
 31
0.0
  0
LINE
  8
0
  6
BYLAYER
 62
     7
 10
1055.197952
 20
-160.358362
 30
0.0
 11
1063.197952
 21
-160.358362
 31
0.0
  0
LINE
  8
0
  6
BYLAYER
 62
     7
 10
1055.197952
 20
-168.358362
 30
0.0
 11
1063.197952
 21
-168.358362
 31
0.0
  0
LINE
  8
0
  6
BYLAYER
 62
     7
 10
1063.197952
 20
-160.358362
 30
0.0
 11
1063.197952
 21
-168.358362
 31
0.0
  0
LINE
  8
0
  6
BYLAYER
 62
     7
 10
1065.197952
 20
-158.358362
 30
0.0
 11
1065.197952
 21
-150.358362
 31
0.0
  0
LINE
  8
0
  6
BYLAYER
 62
     7
 10
1065.197952
 20
-150.358362
 30
0.0
 11
1073.197952
 21
-150.358362
 31
0.0
  0
LINE
  8
0
  6
BYLAYER
 62
     7
 10
1065.197952
 20
-158.358362
 30
0.0
 11
1073.197952
 21
-158.358362
 31
0.0
  0
LINE
  8
0
  6
BYLAYER
 62
     7
 10
1073.197952
 20
-150.358362
 30
0.0
 11
1073.197952
 21
-158.358362
 31
0.0
  0
LINE
  8
0
  6
BYLAYER
 62
     7
 10
1075.197952
 20
-140.358362
 30
0.0
 11
1083.197952
 21
-140.358362
 31
0.0
  0
LINE
  8
0
  6
BYLAYER
 62
     7
 10
1075.197952
 20
-148.358362
 30
0.0
 11
1075.197952
 21
-140.358362
 31
0.0
  0
LINE
  8
0
  6
BYLAYER
 62
     7
 10
1075.197952
 20
-148.358362
 30
0.0
 11
1083.197952
 21
-148.358362
 31
0.0
  0
LINE
  8
0
  6
BYLAYER
 62
     7
 10
1083.197952
 20
-140.358362
 30
0.0
 11
1083.197952
 21
-148.358362
 31
0.0
  0
LINE
  8
0
  6
BYLAYER
 62
     7
 10
1075.197952
 20
-130.358362
 30
0.0
 11
1083.197952
 21
-130.358362
 31
0.0
  0
LINE
  8
0
  6
BYLAYER
 62
     7
 10
1075.197952
 20
-138.358362
 30
0.0
 11
1075.197952
 21
-130.358362
 31
0.0
  0
LINE
  8
0
  6
BYLAYER
 62
     7
 10
1075.197952
 20
-138.358362
 30
0.0
 11
1083.197952
 21
-138.358362
 31
0.0
  0
LINE
  8
0
  6
BYLAYER
 62
     7
 10
1083.197952
 20
-130.358362
 30
0.0
 11
1083.197952
 21
-138.358362
 31
0.0
  0
LINE
  8
0
  6
BYLAYER
 62
     7
 10
1075.197952
 20
-158.358362
 30
0.0
 11
1075.197952
 21
-150.358362
 31
0.0
  0
LINE
  8
0
  6
BYLAYER
 62
     7
 10
1075.197952
 20
-150.358362
 30
0.0
 11
1083.197952
 21
-150.358362
 31
0.0
  0
LINE
  8
0
  6
BYLAYER
 62
     7
 10
1075.197952
 20
-158.358362
 30
0.0
 11
1083.197952
 21
-158.358362
 31
0.0
  0
LINE
  8
0
  6
BYLAYER
 62
     7
 10
1083.197952
 20
-150.358362
 30
0.0
 11
1083.197952
 21
-158.358362
 31
0.0
  0
LINE
  8
0
  6
BYLAYER
 62
     7
 10
1025.197952
 20
-188.358362
 30
0.0
 11
1025.197952
 21
-180.358362
 31
0.0
  0
LINE
  8
0
  6
BYLAYER
 62
     7
 10
1033.197952
 20
-180.358362
 30
0.0
 11
1033.197952
 21
-188.358362
 31
0.0
  0
LINE
  8
0
  6
BYLAYER
 62
     7
 10
1035.197952
 20
-180.358362
 30
0.0
 11
1035.197952
 21
-188.358362
 31
0.0
  0
LINE
  8
0
  6
BYLAYER
 62
     7
 10
1035.197952
 20
-180.358362
 30
0.0
 11
1043.035951
 21
-180.358362
 31
0.0
  0
LINE
  8
0
  6
BYLAYER
 62
     7
 10
1025.197952
 20
-180.358362
 30
0.0
 11
1033.197952
 21
-180.358362
 31
0.0
  0
LINE
  8
0
  6
BYLAYER
 62
     7
 10
1035.197952
 20
-188.358362
 30
0.0
 11
1043.035951
 21
-188.358362
 31
0.0
  0
LINE
  8
0
  6
BYLAYER
 62
     7
 10
1025.197952
 20
-188.358362
 30
0.0
 11
1033.197952
 21
-188.358362
 31
0.0
  0
LINE
  8
0
  6
BYLAYER
 62
     7
 10
1043.035951
 20
-180.358362
 30
0.0
 11
1043.035951
 21
-188.358362
 31
0.0
  0
LINE
  8
0
  6
BYLAYER
 62
     7
 10
1045.197952
 20
-188.358362
 30
0.0
 11
1045.197952
 21
-180.358362
 31
0.0
  0
LINE
  8
0
  6
BYLAYER
 62
     7
 10
1045.197952
 20
-180.358362
 30
0.0
 11
1053.197952
 21
-180.358362
 31
0.0
  0
LINE
  8
0
  6
BYLAYER
 62
     7
 10
1045.197952
 20
-188.358362
 30
0.0
 11
1053.197952
 21
-188.358362
 31
0.0
  0
LINE
  8
0
  6
BYLAYER
 62
     7
 10
1053.197952
 20
-180.358362
 30
0.0
 11
1053.197952
 21
-188.358362
 31
0.0
  0
LINE
  8
0
  6
BYLAYER
 62
     7
 10
1055.197952
 20
-178.358362
 30
0.0
 11
1055.197952
 21
-170.358362
 31
0.0
  0
LINE
  8
0
  6
BYLAYER
 62
     7
 10
1055.197952
 20
-170.358362
 30
0.0
 11
1063.197952
 21
-170.358362
 31
0.0
  0
LINE
  8
0
  6
BYLAYER
 62
     7
 10
1055.197952
 20
-178.358362
 30
0.0
 11
1063.197952
 21
-178.358362
 31
0.0
  0
LINE
  8
0
  6
BYLAYER
 62
     7
 10
1063.197952
 20
-170.358362
 30
0.0
 11
1063.197952
 21
-178.358362
 31
0.0
  0
LINE
  8
0
  6
BYLAYER
 62
     7
 10
1065.197952
 20
-168.358362
 30
0.0
 11
1065.197952
 21
-160.358362
 31
0.0
  0
LINE
  8
0
  6
BYLAYER
 62
     7
 10
1065.197952
 20
-160.358362
 30
0.0
 11
1073.197952
 21
-160.358362
 31
0.0
  0
LINE
  8
0
  6
BYLAYER
 62
     7
 10
1065.197952
 20
-168.358362
 30
0.0
 11
1073.197952
 21
-168.358362
 31
0.0
  0
LINE
  8
0
  6
BYLAYER
 62
     7
 10
1073.197952
 20
-160.358362
 30
0.0
 11
1073.197952
 21
-168.358362
 31
0.0
  0
LINE
  8
0
  6
BYLAYER
 62
     7
 10
1023.197952
 20
-100.358362
 30
0.0
 11
1023.197952
 21
-108.358362
 31
0.0
  0
LINE
  8
0
  6
BYLAYER
 62
     7
 10
1023.197952
 20
-90.358362
 30
0.0
 11
1023.197952
 21
-98.358362
 31
0.0
  0
LINE
  8
0
  6
BYLAYER
 62
     7
 10
1015.197952
 20
-98.358362
 30
0.0
 11
1015.197952
 21
-90.358362
 31
0.0
  0
LINE
  8
0
  6
BYLAYER
 62
     7
 10
1013.197952
 20
-98.358362
 30
0.0
 11
1013.197952
 21
-90.358362
 31
0.0
  0
LINE
  8
0
  6
BYLAYER
 62
     7
 10
1023.197952
 20
-108.358362
 30
0.0
 11
1015.197952
 21
-108.358362
 31
0.0
  0
LINE
  8
0
  6
BYLAYER
 62
     7
 10
1023.197952
 20
-100.358362
 30
0.0
 11
1015.197952
 21
-100.358362
 31
0.0
  0
LINE
  8
0
  6
BYLAYER
 62
     7
 10
1013.197952
 20
-98.358362
 30
0.0
 11
1005.359953
 21
-98.358362
 31
0.0
  0
LINE
  8
0
  6
BYLAYER
 62
     7
 10
1023.197952
 20
-98.358362
 30
0.0
 11
1015.197952
 21
-98.358362
 31
0.0
  0
LINE
  8
0
  6
BYLAYER
 62
     7
 10
1013.197952
 20
-90.358362
 30
0.0
 11
1005.359953
 21
-90.358362
 31
0.0
  0
LINE
  8
0
  6
BYLAYER
 62
     7
 10
1023.197952
 20
-90.358362
 30
0.0
 11
1015.197952
 21
-90.358362
 31
0.0
  0
LINE
  8
0
  6
BYLAYER
 62
     7
 10
1005.359953
 20
-98.358362
 30
0.0
 11
1005.359953
 21
-90.358362
 31
0.0
  0
LINE
  8
0
  6
BYLAYER
 62
     7
 10
1015.197952
 20
-108.358362
 30
0.0
 11
1015.197952
 21
-100.358362
 31
0.0
  0
LINE
  8
0
  6
BYLAYER
 62
     7
 10
1013.197952
 20
-100.358362
 30
0.0
 11
1013.197952
 21
-108.358362
 31
0.0
  0
LINE
  8
0
  6
BYLAYER
 62
     7
 10
1013.197952
 20
-108.358362
 30
0.0
 11
1005.197952
 21
-108.358362
 31
0.0
  0
LINE
  8
0
  6
BYLAYER
 62
     7
 10
1013.197952
 20
-100.358362
 30
0.0
 11
1005.197952
 21
-100.358362
 31
0.0
  0
LINE
  8
0
  6
BYLAYER
 62
     7
 10
1005.197952
 20
-108.358362
 30
0.0
 11
1005.197952
 21
-100.358362
 31
0.0
  0
LINE
  8
0
  6
BYLAYER
 62
     7
 10
1003.197952
 20
-118.358362
 30
0.0
 11
995.197952
 21
-118.358362
 31
0.0
  0
LINE
  8
0
  6
BYLAYER
 62
     7
 10
1003.197952
 20
-100.358362
 30
0.0
 11
1003.197952
 21
-108.358362
 31
0.0
  0
LINE
  8
0
  6
BYLAYER
 62
     7
 10
1003.197952
 20
-110.358362
 30
0.0
 11
1003.197952
 21
-118.358362
 31
0.0
  0
LINE
  8
0
  6
BYLAYER
 62
     7
 10
1003.197952
 20
-110.358362
 30
0.0
 11
995.197952
 21
-110.358362
 31
0.0
  0
LINE
  8
0
  6
BYLAYER
 62
     7
 10
1003.197952
 20
-108.358362
 30
0.0
 11
995.197952
 21
-108.358362
 31
0.0
  0
LINE
  8
0
  6
BYLAYER
 62
     7
 10
1003.197952
 20
-100.358362
 30
0.0
 11
995.197952
 21
-100.358362
 31
0.0
  0
LINE
  8
0
  6
BYLAYER
 62
     7
 10
995.197952
 20
-118.358362
 30
0.0
 11
995.197952
 21
-110.358362
 31
0.0
  0
LINE
  8
0
  6
BYLAYER
 62
     7
 10
995.197952
 20
-108.358362
 30
0.0
 11
995.197952
 21
-100.358362
 31
0.0
  0
LINE
  8
0
  6
BYLAYER
 62
     7
 10
1003.197952
 20
-128.358362
 30
0.0
 11
995.197952
 21
-128.358362
 31
0.0
  0
LINE
  8
0
  6
BYLAYER
 62
     7
 10
1003.197952
 20
-120.358362
 30
0.0
 11
1003.197952
 21
-128.358362
 31
0.0
  0
LINE
  8
0
  6
BYLAYER
 62
     7
 10
1003.197952
 20
-120.358362
 30
0.0
 11
995.197952
 21
-120.358362
 31
0.0
  0
LINE
  8
0
  6
BYLAYER
 62
     7
 10
995.197952
 20
-128.358362
 30
0.0
 11
995.197952
 21
-120.358362
 31
0.0
  0
LINE
  8
0
  6
BYLAYER
 62
     7
 10
993.197952
 20
-118.358362
 30
0.0
 11
985.197952
 21
-118.358362
 31
0.0
  0
LINE
  8
0
  6
BYLAYER
 62
     7
 10
993.197952
 20
-110.358362
 30
0.0
 11
993.197952
 21
-118.358362
 31
0.0
  0
LINE
  8
0
  6
BYLAYER
 62
     7
 10
993.197952
 20
-110.358362
 30
0.0
 11
985.197952
 21
-110.358362
 31
0.0
  0
LINE
  8
0
  6
BYLAYER
 62
     7
 10
985.197952
 20
-118.358362
 30
0.0
 11
985.197952
 21
-110.358362
 31
0.0
  0
LINE
  8
0
  6
BYLAYER
 62
     7
 10
993.197952
 20
-128.358362
 30
0.0
 11
985.197952
 21
-128.358362
 31
0.0
  0
LINE
  8
0
  6
BYLAYER
 62
     7
 10
993.197952
 20
-120.358362
 30
0.0
 11
993.197952
 21
-128.358362
 31
0.0
  0
LINE
  8
0
  6
BYLAYER
 62
     7
 10
993.197952
 20
-120.358362
 30
0.0
 11
985.197952
 21
-120.358362
 31
0.0
  0
LINE
  8
0
  6
BYLAYER
 62
     7
 10
985.197952
 20
-128.358362
 30
0.0
 11
985.197952
 21
-120.358362
 31
0.0
  0
LINE
  8
0
  6
BYLAYER
 62
     7
 10
983.197952
 20
-118.358362
 30
0.0
 11
975.197952
 21
-118.358362
 31
0.0
  0
LINE
  8
0
  6
BYLAYER
 62
     7
 10
983.197952
 20
-110.358362
 30
0.0
 11
983.197952
 21
-118.358362
 31
0.0
  0
LINE
  8
0
  6
BYLAYER
 62
     7
 10
983.197952
 20
-110.358362
 30
0.0
 11
975.197952
 21
-110.358362
 31
0.0
  0
LINE
  8
0
  6
BYLAYER
 62
     7
 10
975.197952
 20
-118.358362
 30
0.0
 11
975.197952
 21
-110.358362
 31
0.0
  0
LINE
  8
0
  6
BYLAYER
 62
     7
 10
983.197952
 20
-128.358362
 30
0.0
 11
975.197952
 21
-128.358362
 31
0.0
  0
LINE
  8
0
  6
BYLAYER
 62
     7
 10
983.197952
 20
-120.358362
 30
0.0
 11
983.197952
 21
-128.358362
 31
0.0
  0
LINE
  8
0
  6
BYLAYER
 62
     7
 10
983.197952
 20
-120.358362
 30
0.0
 11
975.197952
 21
-120.358362
 31
0.0
  0
LINE
  8
0
  6
BYLAYER
 62
     7
 10
975.197952
 20
-128.358362
 30
0.0
 11
975.197952
 21
-120.358362
 31
0.0
  0
LINE
  8
0
  6
BYLAYER
 62
     7
 10
1023.197952
 20
-80.358362
 30
0.0
 11
1023.197952
 21
-88.358362
 31
0.0
  0
LINE
  8
0
  6
BYLAYER
 62
     7
 10
1015.197952
 20
-88.358362
 30
0.0
 11
1015.197952
 21
-80.358362
 31
0.0
  0
LINE
  8
0
  6
BYLAYER
 62
     7
 10
1013.197952
 20
-88.358362
 30
0.0
 11
1013.197952
 21
-80.358362
 31
0.0
  0
LINE
  8
0
  6
BYLAYER
 62
     7
 10
1013.197952
 20
-88.358362
 30
0.0
 11
1005.359953
 21
-88.358362
 31
0.0
  0
LINE
  8
0
  6
BYLAYER
 62
     7
 10
1023.197952
 20
-88.358362
 30
0.0
 11
1015.197952
 21
-88.358362
 31
0.0
  0
LINE
  8
0
  6
BYLAYER
 62
     7
 10
1013.197952
 20
-80.358362
 30
0.0
 11
1005.359953
 21
-80.358362
 31
0.0
  0
LINE
  8
0
  6
BYLAYER
 62
     7
 10
1023.197952
 20
-80.358362
 30
0.0
 11
1015.197952
 21
-80.358362
 31
0.0
  0
LINE
  8
0
  6
BYLAYER
 62
     7
 10
1005.359953
 20
-88.358362
 30
0.0
 11
1005.359953
 21
-80.358362
 31
0.0
  0
LINE
  8
0
  6
BYLAYER
 62
     7
 10
1003.197952
 20
-90.358362
 30
0.0
 11
1003.197952
 21
-98.358362
 31
0.0
  0
LINE
  8
0
  6
BYLAYER
 62
     7
 10
1003.197952
 20
-98.358362
 30
0.0
 11
995.197952
 21
-98.358362
 31
0.0
  0
LINE
  8
0
  6
BYLAYER
 62
     7
 10
1003.197952
 20
-90.358362
 30
0.0
 11
995.197952
 21
-90.358362
 31
0.0
  0
LINE
  8
0
  6
BYLAYER
 62
     7
 10
995.197952
 20
-98.358362
 30
0.0
 11
995.197952
 21
-90.358362
 31
0.0
  0
LINE
  8
0
  6
BYLAYER
 62
     7
 10
1003.197952
 20
-80.358362
 30
0.0
 11
1003.197952
 21
-88.358362
 31
0.0
  0
LINE
  8
0
  6
BYLAYER
 62
     7
 10
1003.197952
 20
-88.358362
 30
0.0
 11
995.197952
 21
-88.358362
 31
0.0
  0
LINE
  8
0
  6
BYLAYER
 62
     7
 10
1003.197952
 20
-80.358362
 30
0.0
 11
995.197952
 21
-80.358362
 31
0.0
  0
LINE
  8
0
  6
BYLAYER
 62
     7
 10
995.197952
 20
-88.358362
 30
0.0
 11
995.197952
 21
-80.358362
 31
0.0
  0
LINE
  8
0
  6
BYLAYER
 62
     7
 10
993.197952
 20
-100.358362
 30
0.0
 11
993.197952
 21
-108.358362
 31
0.0
  0
LINE
  8
0
  6
BYLAYER
 62
     7
 10
993.197952
 20
-108.358362
 30
0.0
 11
985.197952
 21
-108.358362
 31
0.0
  0
LINE
  8
0
  6
BYLAYER
 62
     7
 10
993.197952
 20
-100.358362
 30
0.0
 11
985.197952
 21
-100.358362
 31
0.0
  0
LINE
  8
0
  6
BYLAYER
 62
     7
 10
985.197952
 20
-108.358362
 30
0.0
 11
985.197952
 21
-100.358362
 31
0.0
  0
LINE
  8
0
  6
BYLAYER
 62
     7
 10
993.197952
 20
-90.358362
 30
0.0
 11
993.197952
 21
-98.358362
 31
0.0
  0
LINE
  8
0
  6
BYLAYER
 62
     7
 10
993.197952
 20
-98.358362
 30
0.0
 11
985.197952
 21
-98.358362
 31
0.0
  0
LINE
  8
0
  6
BYLAYER
 62
     7
 10
993.197952
 20
-90.358362
 30
0.0
 11
985.197952
 21
-90.358362
 31
0.0
  0
LINE
  8
0
  6
BYLAYER
 62
     7
 10
985.197952
 20
-98.358362
 30
0.0
 11
985.197952
 21
-90.358362
 31
0.0
  0
LINE
  8
0
  6
BYLAYER
 62
     7
 10
983.197952
 20
-100.358362
 30
0.0
 11
983.197952
 21
-108.358362
 31
0.0
  0
LINE
  8
0
  6
BYLAYER
 62
     7
 10
983.197952
 20
-108.358362
 30
0.0
 11
975.197952
 21
-108.358362
 31
0.0
  0
LINE
  8
0
  6
BYLAYER
 62
     7
 10
983.197952
 20
-100.358362
 30
0.0
 11
975.197952
 21
-100.358362
 31
0.0
  0
LINE
  8
0
  6
BYLAYER
 62
     7
 10
975.197952
 20
-108.358362
 30
0.0
 11
975.197952
 21
-100.358362
 31
0.0
  0
LINE
  8
0
  6
BYLAYER
 62
     7
 10
973.197952
 20
-118.358362
 30
0.0
 11
965.197952
 21
-118.358362
 31
0.0
  0
LINE
  8
0
  6
BYLAYER
 62
     7
 10
973.197952
 20
-110.358362
 30
0.0
 11
973.197952
 21
-118.358362
 31
0.0
  0
LINE
  8
0
  6
BYLAYER
 62
     7
 10
973.197952
 20
-110.358362
 30
0.0
 11
965.197952
 21
-110.358362
 31
0.0
  0
LINE
  8
0
  6
BYLAYER
 62
     7
 10
965.197952
 20
-118.358362
 30
0.0
 11
965.197952
 21
-110.358362
 31
0.0
  0
LINE
  8
0
  6
BYLAYER
 62
     7
 10
973.197952
 20
-128.358362
 30
0.0
 11
965.197952
 21
-128.358362
 31
0.0
  0
LINE
  8
0
  6
BYLAYER
 62
     7
 10
973.197952
 20
-120.358362
 30
0.0
 11
973.197952
 21
-128.358362
 31
0.0
  0
LINE
  8
0
  6
BYLAYER
 62
     7
 10
973.197952
 20
-120.358362
 30
0.0
 11
965.197952
 21
-120.358362
 31
0.0
  0
LINE
  8
0
  6
BYLAYER
 62
     7
 10
965.197952
 20
-128.358362
 30
0.0
 11
965.197952
 21
-120.358362
 31
0.0
  0
LINE
  8
0
  6
BYLAYER
 62
     7
 10
973.197952
 20
-100.358362
 30
0.0
 11
973.197952
 21
-108.358362
 31
0.0
  0
LINE
  8
0
  6
BYLAYER
 62
     7
 10
973.197952
 20
-108.358362
 30
0.0
 11
965.197952
 21
-108.358362
 31
0.0
  0
LINE
  8
0
  6
BYLAYER
 62
     7
 10
973.197952
 20
-100.358362
 30
0.0
 11
965.197952
 21
-100.358362
 31
0.0
  0
LINE
  8
0
  6
BYLAYER
 62
     7
 10
965.197952
 20
-108.358362
 30
0.0
 11
965.197952
 21
-100.358362
 31
0.0
  0
LINE
  8
0
  6
BYLAYER
 62
     7
 10
1023.197952
 20
-70.358362
 30
0.0
 11
1023.197952
 21
-78.358362
 31
0.0
  0
LINE
  8
0
  6
BYLAYER
 62
     7
 10
1015.197952
 20
-78.358362
 30
0.0
 11
1015.197952
 21
-70.358362
 31
0.0
  0
LINE
  8
0
  6
BYLAYER
 62
     7
 10
1013.197952
 20
-78.358362
 30
0.0
 11
1013.197952
 21
-70.358362
 31
0.0
  0
LINE
  8
0
  6
BYLAYER
 62
     7
 10
1013.197952
 20
-78.358362
 30
0.0
 11
1005.359953
 21
-78.358362
 31
0.0
  0
LINE
  8
0
  6
BYLAYER
 62
     7
 10
1023.197952
 20
-78.358362
 30
0.0
 11
1015.197952
 21
-78.358362
 31
0.0
  0
LINE
  8
0
  6
BYLAYER
 62
     7
 10
1013.197952
 20
-70.358362
 30
0.0
 11
1005.359953
 21
-70.358362
 31
0.0
  0
LINE
  8
0
  6
BYLAYER
 62
     7
 10
1023.197952
 20
-70.358362
 30
0.0
 11
1015.197952
 21
-70.358362
 31
0.0
  0
LINE
  8
0
  6
BYLAYER
 62
     7
 10
1005.359953
 20
-78.358362
 30
0.0
 11
1005.359953
 21
-70.358362
 31
0.0
  0
LINE
  8
0
  6
BYLAYER
 62
     7
 10
1003.197952
 20
-70.358362
 30
0.0
 11
1003.197952
 21
-78.358362
 31
0.0
  0
LINE
  8
0
  6
BYLAYER
 62
     7
 10
1003.197952
 20
-78.358362
 30
0.0
 11
995.197952
 21
-78.358362
 31
0.0
  0
LINE
  8
0
  6
BYLAYER
 62
     7
 10
1003.197952
 20
-70.358362
 30
0.0
 11
995.197952
 21
-70.358362
 31
0.0
  0
LINE
  8
0
  6
BYLAYER
 62
     7
 10
995.197952
 20
-78.358362
 30
0.0
 11
995.197952
 21
-70.358362
 31
0.0
  0
LINE
  8
0
  6
BYLAYER
 62
     7
 10
993.197952
 20
-80.358362
 30
0.0
 11
993.197952
 21
-88.358362
 31
0.0
  0
LINE
  8
0
  6
BYLAYER
 62
     7
 10
993.197952
 20
-88.358362
 30
0.0
 11
985.197952
 21
-88.358362
 31
0.0
  0
LINE
  8
0
  6
BYLAYER
 62
     7
 10
993.197952
 20
-80.358362
 30
0.0
 11
985.197952
 21
-80.358362
 31
0.0
  0
LINE
  8
0
  6
BYLAYER
 62
     7
 10
985.197952
 20
-88.358362
 30
0.0
 11
985.197952
 21
-80.358362
 31
0.0
  0
LINE
  8
0
  6
BYLAYER
 62
     7
 10
983.197952
 20
-90.358362
 30
0.0
 11
983.197952
 21
-98.358362
 31
0.0
  0
LINE
  8
0
  6
BYLAYER
 62
     7
 10
983.197952
 20
-98.358362
 30
0.0
 11
975.197952
 21
-98.358362
 31
0.0
  0
LINE
  8
0
  6
BYLAYER
 62
     7
 10
983.197952
 20
-90.358362
 30
0.0
 11
975.197952
 21
-90.358362
 31
0.0
  0
LINE
  8
0
  6
BYLAYER
 62
     7
 10
975.197952
 20
-98.358362
 30
0.0
 11
975.197952
 21
-90.358362
 31
0.0
  0
LINE
  8
0
  6
BYLAYER
 62
     7
 10
1023.197952
 20
-158.358362
 30
0.0
 11
1023.197952
 21
-150.358362
 31
0.0
  0
LINE
  8
0
  6
BYLAYER
 62
     7
 10
1023.197952
 20
-168.358362
 30
0.0
 11
1023.197952
 21
-160.358362
 31
0.0
  0
LINE
  8
0
  6
BYLAYER
 62
     7
 10
1015.197952
 20
-160.358362
 30
0.0
 11
1015.197952
 21
-168.358362
 31
0.0
  0
LINE
  8
0
  6
BYLAYER
 62
     7
 10
1013.197952
 20
-160.358362
 30
0.0
 11
1013.197952
 21
-168.358362
 31
0.0
  0
LINE
  8
0
  6
BYLAYER
 62
     7
 10
1023.197952
 20
-150.358362
 30
0.0
 11
1015.197952
 21
-150.358362
 31
0.0
  0
LINE
  8
0
  6
BYLAYER
 62
     7
 10
1023.197952
 20
-158.358362
 30
0.0
 11
1015.197952
 21
-158.358362
 31
0.0
  0
LINE
  8
0
  6
BYLAYER
 62
     7
 10
1013.197952
 20
-160.358362
 30
0.0
 11
1005.359953
 21
-160.358362
 31
0.0
  0
LINE
  8
0
  6
BYLAYER
 62
     7
 10
1023.197952
 20
-160.358362
 30
0.0
 11
1015.197952
 21
-160.358362
 31
0.0
  0
LINE
  8
0
  6
BYLAYER
 62
     7
 10
1013.197952
 20
-168.358362
 30
0.0
 11
1005.359953
 21
-168.358362
 31
0.0
  0
LINE
  8
0
  6
BYLAYER
 62
     7
 10
1023.197952
 20
-168.358362
 30
0.0
 11
1015.197952
 21
-168.358362
 31
0.0
  0
LINE
  8
0
  6
BYLAYER
 62
     7
 10
1005.359953
 20
-160.358362
 30
0.0
 11
1005.359953
 21
-168.358362
 31
0.0
  0
LINE
  8
0
  6
BYLAYER
 62
     7
 10
1015.197952
 20
-150.358362
 30
0.0
 11
1015.197952
 21
-158.358362
 31
0.0
  0
LINE
  8
0
  6
BYLAYER
 62
     7
 10
1013.197952
 20
-158.358362
 30
0.0
 11
1013.197952
 21
-150.358362
 31
0.0
  0
LINE
  8
0
  6
BYLAYER
 62
     7
 10
1013.197952
 20
-150.358362
 30
0.0
 11
1005.197952
 21
-150.358362
 31
0.0
  0
LINE
  8
0
  6
BYLAYER
 62
     7
 10
1013.197952
 20
-158.358362
 30
0.0
 11
1005.197952
 21
-158.358362
 31
0.0
  0
LINE
  8
0
  6
BYLAYER
 62
     7
 10
1005.197952
 20
-150.358362
 30
0.0
 11
1005.197952
 21
-158.358362
 31
0.0
  0
LINE
  8
0
  6
BYLAYER
 62
     7
 10
1003.197952
 20
-140.358362
 30
0.0
 11
995.197952
 21
-140.358362
 31
0.0
  0
LINE
  8
0
  6
BYLAYER
 62
     7
 10
1003.197952
 20
-158.358362
 30
0.0
 11
1003.197952
 21
-150.358362
 31
0.0
  0
LINE
  8
0
  6
BYLAYER
 62
     7
 10
1003.197952
 20
-148.358362
 30
0.0
 11
1003.197952
 21
-140.358362
 31
0.0
  0
LINE
  8
0
  6
BYLAYER
 62
     7
 10
1003.197952
 20
-148.358362
 30
0.0
 11
995.197952
 21
-148.358362
 31
0.0
  0
LINE
  8
0
  6
BYLAYER
 62
     7
 10
1003.197952
 20
-150.358362
 30
0.0
 11
995.197952
 21
-150.358362
 31
0.0
  0
LINE
  8
0
  6
BYLAYER
 62
     7
 10
1003.197952
 20
-158.358362
 30
0.0
 11
995.197952
 21
-158.358362
 31
0.0
  0
LINE
  8
0
  6
BYLAYER
 62
     7
 10
995.197952
 20
-140.358362
 30
0.0
 11
995.197952
 21
-148.358362
 31
0.0
  0
LINE
  8
0
  6
BYLAYER
 62
     7
 10
995.197952
 20
-150.358362
 30
0.0
 11
995.197952
 21
-158.358362
 31
0.0
  0
LINE
  8
0
  6
BYLAYER
 62
     7
 10
1003.197952
 20
-130.358362
 30
0.0
 11
995.197952
 21
-130.358362
 31
0.0
  0
LINE
  8
0
  6
BYLAYER
 62
     7
 10
1003.197952
 20
-138.358362
 30
0.0
 11
1003.197952
 21
-130.358362
 31
0.0
  0
LINE
  8
0
  6
BYLAYER
 62
     7
 10
1003.197952
 20
-138.358362
 30
0.0
 11
995.197952
 21
-138.358362
 31
0.0
  0
LINE
  8
0
  6
BYLAYER
 62
     7
 10
995.197952
 20
-130.358362
 30
0.0
 11
995.197952
 21
-138.358362
 31
0.0
  0
LINE
  8
0
  6
BYLAYER
 62
     7
 10
993.197952
 20
-140.358362
 30
0.0
 11
985.197952
 21
-140.358362
 31
0.0
  0
LINE
  8
0
  6
BYLAYER
 62
     7
 10
993.197952
 20
-148.358362
 30
0.0
 11
993.197952
 21
-140.358362
 31
0.0
  0
LINE
  8
0
  6
BYLAYER
 62
     7
 10
993.197952
 20
-148.358362
 30
0.0
 11
985.197952
 21
-148.358362
 31
0.0
  0
LINE
  8
0
  6
BYLAYER
 62
     7
 10
985.197952
 20
-140.358362
 30
0.0
 11
985.197952
 21
-148.358362
 31
0.0
  0
LINE
  8
0
  6
BYLAYER
 62
     7
 10
993.197952
 20
-130.358362
 30
0.0
 11
985.197952
 21
-130.358362
 31
0.0
  0
LINE
  8
0
  6
BYLAYER
 62
     7
 10
993.197952
 20
-138.358362
 30
0.0
 11
993.197952
 21
-130.358362
 31
0.0
  0
LINE
  8
0
  6
BYLAYER
 62
     7
 10
993.197952
 20
-138.358362
 30
0.0
 11
985.197952
 21
-138.358362
 31
0.0
  0
LINE
  8
0
  6
BYLAYER
 62
     7
 10
985.197952
 20
-130.358362
 30
0.0
 11
985.197952
 21
-138.358362
 31
0.0
  0
LINE
  8
0
  6
BYLAYER
 62
     7
 10
983.197952
 20
-140.358362
 30
0.0
 11
975.197952
 21
-140.358362
 31
0.0
  0
LINE
  8
0
  6
BYLAYER
 62
     7
 10
983.197952
 20
-148.358362
 30
0.0
 11
983.197952
 21
-140.358362
 31
0.0
  0
LINE
  8
0
  6
BYLAYER
 62
     7
 10
983.197952
 20
-148.358362
 30
0.0
 11
975.197952
 21
-148.358362
 31
0.0
  0
LINE
  8
0
  6
BYLAYER
 62
     7
 10
975.197952
 20
-140.358362
 30
0.0
 11
975.197952
 21
-148.358362
 31
0.0
  0
LINE
  8
0
  6
BYLAYER
 62
     7
 10
983.197952
 20
-130.358362
 30
0.0
 11
975.197952
 21
-130.358362
 31
0.0
  0
LINE
  8
0
  6
BYLAYER
 62
     7
 10
983.197952
 20
-138.358362
 30
0.0
 11
983.197952
 21
-130.358362
 31
0.0
  0
LINE
  8
0
  6
BYLAYER
 62
     7
 10
983.197952
 20
-138.358362
 30
0.0
 11
975.197952
 21
-138.358362
 31
0.0
  0
LINE
  8
0
  6
BYLAYER
 62
     7
 10
975.197952
 20
-130.358362
 30
0.0
 11
975.197952
 21
-138.358362
 31
0.0
  0
LINE
  8
0
  6
BYLAYER
 62
     7
 10
1023.197952
 20
-178.358362
 30
0.0
 11
1023.197952
 21
-170.358362
 31
0.0
  0
LINE
  8
0
  6
BYLAYER
 62
     7
 10
1015.197952
 20
-170.358362
 30
0.0
 11
1015.197952
 21
-178.358362
 31
0.0
  0
LINE
  8
0
  6
BYLAYER
 62
     7
 10
1013.197952
 20
-170.358362
 30
0.0
 11
1013.197952
 21
-178.358362
 31
0.0
  0
LINE
  8
0
  6
BYLAYER
 62
     7
 10
1013.197952
 20
-170.358362
 30
0.0
 11
1005.359953
 21
-170.358362
 31
0.0
  0
LINE
  8
0
  6
BYLAYER
 62
     7
 10
1023.197952
 20
-170.358362
 30
0.0
 11
1015.197952
 21
-170.358362
 31
0.0
  0
LINE
  8
0
  6
BYLAYER
 62
     7
 10
1013.197952
 20
-178.358362
 30
0.0
 11
1005.359953
 21
-178.358362
 31
0.0
  0
LINE
  8
0
  6
BYLAYER
 62
     7
 10
1023.197952
 20
-178.358362
 30
0.0
 11
1015.197952
 21
-178.358362
 31
0.0
  0
LINE
  8
0
  6
BYLAYER
 62
     7
 10
1005.359953
 20
-170.358362
 30
0.0
 11
1005.359953
 21
-178.358362
 31
0.0
  0
LINE
  8
0
  6
BYLAYER
 62
     7
 10
1003.197952
 20
-168.358362
 30
0.0
 11
1003.197952
 21
-160.358362
 31
0.0
  0
LINE
  8
0
  6
BYLAYER
 62
     7
 10
1003.197952
 20
-160.358362
 30
0.0
 11
995.197952
 21
-160.358362
 31
0.0
  0
LINE
  8
0
  6
BYLAYER
 62
     7
 10
1003.197952
 20
-168.358362
 30
0.0
 11
995.197952
 21
-168.358362
 31
0.0
  0
LINE
  8
0
  6
BYLAYER
 62
     7
 10
995.197952
 20
-160.358362
 30
0.0
 11
995.197952
 21
-168.358362
 31
0.0
  0
LINE
  8
0
  6
BYLAYER
 62
     7
 10
1003.197952
 20
-178.358362
 30
0.0
 11
1003.197952
 21
-170.358362
 31
0.0
  0
LINE
  8
0
  6
BYLAYER
 62
     7
 10
1003.197952
 20
-170.358362
 30
0.0
 11
995.197952
 21
-170.358362
 31
0.0
  0
LINE
  8
0
  6
BYLAYER
 62
     7
 10
1003.197952
 20
-178.358362
 30
0.0
 11
995.197952
 21
-178.358362
 31
0.0
  0
LINE
  8
0
  6
BYLAYER
 62
     7
 10
995.197952
 20
-170.358362
 30
0.0
 11
995.197952
 21
-178.358362
 31
0.0
  0
LINE
  8
0
  6
BYLAYER
 62
     7
 10
993.197952
 20
-158.358362
 30
0.0
 11
993.197952
 21
-150.358362
 31
0.0
  0
LINE
  8
0
  6
BYLAYER
 62
     7
 10
993.197952
 20
-150.358362
 30
0.0
 11
985.197952
 21
-150.358362
 31
0.0
  0
LINE
  8
0
  6
BYLAYER
 62
     7
 10
993.197952
 20
-158.358362
 30
0.0
 11
985.197952
 21
-158.358362
 31
0.0
  0
LINE
  8
0
  6
BYLAYER
 62
     7
 10
985.197952
 20
-150.358362
 30
0.0
 11
985.197952
 21
-158.358362
 31
0.0
  0
LINE
  8
0
  6
BYLAYER
 62
     7
 10
993.197952
 20
-168.358362
 30
0.0
 11
993.197952
 21
-160.358362
 31
0.0
  0
LINE
  8
0
  6
BYLAYER
 62
     7
 10
993.197952
 20
-160.358362
 30
0.0
 11
985.197952
 21
-160.358362
 31
0.0
  0
LINE
  8
0
  6
BYLAYER
 62
     7
 10
993.197952
 20
-168.358362
 30
0.0
 11
985.197952
 21
-168.358362
 31
0.0
  0
LINE
  8
0
  6
BYLAYER
 62
     7
 10
985.197952
 20
-160.358362
 30
0.0
 11
985.197952
 21
-168.358362
 31
0.0
  0
LINE
  8
0
  6
BYLAYER
 62
     7
 10
983.197952
 20
-158.358362
 30
0.0
 11
983.197952
 21
-150.358362
 31
0.0
  0
LINE
  8
0
  6
BYLAYER
 62
     7
 10
983.197952
 20
-150.358362
 30
0.0
 11
975.197952
 21
-150.358362
 31
0.0
  0
LINE
  8
0
  6
BYLAYER
 62
     7
 10
983.197952
 20
-158.358362
 30
0.0
 11
975.197952
 21
-158.358362
 31
0.0
  0
LINE
  8
0
  6
BYLAYER
 62
     7
 10
975.197952
 20
-150.358362
 30
0.0
 11
975.197952
 21
-158.358362
 31
0.0
  0
LINE
  8
0
  6
BYLAYER
 62
     7
 10
973.197952
 20
-140.358362
 30
0.0
 11
965.197952
 21
-140.358362
 31
0.0
  0
LINE
  8
0
  6
BYLAYER
 62
     7
 10
973.197952
 20
-148.358362
 30
0.0
 11
973.197952
 21
-140.358362
 31
0.0
  0
LINE
  8
0
  6
BYLAYER
 62
     7
 10
973.197952
 20
-148.358362
 30
0.0
 11
965.197952
 21
-148.358362
 31
0.0
  0
LINE
  8
0
  6
BYLAYER
 62
     7
 10
965.197952
 20
-140.358362
 30
0.0
 11
965.197952
 21
-148.358362
 31
0.0
  0
LINE
  8
0
  6
BYLAYER
 62
     7
 10
973.197952
 20
-130.358362
 30
0.0
 11
965.197952
 21
-130.358362
 31
0.0
  0
LINE
  8
0
  6
BYLAYER
 62
     7
 10
973.197952
 20
-138.358362
 30
0.0
 11
973.197952
 21
-130.358362
 31
0.0
  0
LINE
  8
0
  6
BYLAYER
 62
     7
 10
973.197952
 20
-138.358362
 30
0.0
 11
965.197952
 21
-138.358362
 31
0.0
  0
LINE
  8
0
  6
BYLAYER
 62
     7
 10
965.197952
 20
-130.358362
 30
0.0
 11
965.197952
 21
-138.358362
 31
0.0
  0
LINE
  8
0
  6
BYLAYER
 62
     7
 10
973.197952
 20
-158.358362
 30
0.0
 11
973.197952
 21
-150.358362
 31
0.0
  0
LINE
  8
0
  6
BYLAYER
 62
     7
 10
973.197952
 20
-150.358362
 30
0.0
 11
965.197952
 21
-150.358362
 31
0.0
  0
LINE
  8
0
  6
BYLAYER
 62
     7
 10
973.197952
 20
-158.358362
 30
0.0
 11
965.197952
 21
-158.358362
 31
0.0
  0
LINE
  8
0
  6
BYLAYER
 62
     7
 10
965.197952
 20
-150.358362
 30
0.0
 11
965.197952
 21
-158.358362
 31
0.0
  0
LINE
  8
0
  6
BYLAYER
 62
     7
 10
1023.197952
 20
-188.358362
 30
0.0
 11
1023.197952
 21
-180.358362
 31
0.0
  0
LINE
  8
0
  6
BYLAYER
 62
     7
 10
1015.197952
 20
-180.358362
 30
0.0
 11
1015.197952
 21
-188.358362
 31
0.0
  0
LINE
  8
0
  6
BYLAYER
 62
     7
 10
1013.197952
 20
-180.358362
 30
0.0
 11
1013.197952
 21
-188.358362
 31
0.0
  0
LINE
  8
0
  6
BYLAYER
 62
     7
 10
1013.197952
 20
-180.358362
 30
0.0
 11
1005.359953
 21
-180.358362
 31
0.0
  0
LINE
  8
0
  6
BYLAYER
 62
     7
 10
1023.197952
 20
-180.358362
 30
0.0
 11
1015.197952
 21
-180.358362
 31
0.0
  0
LINE
  8
0
  6
BYLAYER
 62
     7
 10
1013.197952
 20
-188.358362
 30
0.0
 11
1005.359953
 21
-188.358362
 31
0.0
  0
LINE
  8
0
  6
BYLAYER
 62
     7
 10
1023.197952
 20
-188.358362
 30
0.0
 11
1015.197952
 21
-188.358362
 31
0.0
  0
LINE
  8
0
  6
BYLAYER
 62
     7
 10
1005.359953
 20
-180.358362
 30
0.0
 11
1005.359953
 21
-188.358362
 31
0.0
  0
LINE
  8
0
  6
BYLAYER
 62
     7
 10
1003.197952
 20
-188.358362
 30
0.0
 11
1003.197952
 21
-180.358362
 31
0.0
  0
LINE
  8
0
  6
BYLAYER
 62
     7
 10
1003.197952
 20
-180.358362
 30
0.0
 11
995.197952
 21
-180.358362
 31
0.0
  0
LINE
  8
0
  6
BYLAYER
 62
     7
 10
1003.197952
 20
-188.358362
 30
0.0
 11
995.197952
 21
-188.358362
 31
0.0
  0
LINE
  8
0
  6
BYLAYER
 62
     7
 10
995.197952
 20
-180.358362
 30
0.0
 11
995.197952
 21
-188.358362
 31
0.0
  0
LINE
  8
0
  6
BYLAYER
 62
     7
 10
993.197952
 20
-178.358362
 30
0.0
 11
993.197952
 21
-170.358362
 31
0.0
  0
LINE
  8
0
  6
BYLAYER
 62
     7
 10
993.197952
 20
-170.358362
 30
0.0
 11
985.197952
 21
-170.358362
 31
0.0
  0
LINE
  8
0
  6
BYLAYER
 62
     7
 10
993.197952
 20
-178.358362
 30
0.0
 11
985.197952
 21
-178.358362
 31
0.0
  0
LINE
  8
0
  6
BYLAYER
 62
     7
 10
985.197952
 20
-170.358362
 30
0.0
 11
985.197952
 21
-178.358362
 31
0.0
  0
LINE
  8
0
  6
BYLAYER
 62
     7
 10
983.197952
 20
-168.358362
 30
0.0
 11
983.197952
 21
-160.358362
 31
0.0
  0
LINE
  8
0
  6
BYLAYER
 62
     7
 10
983.197952
 20
-160.358362
 30
0.0
 11
975.197952
 21
-160.358362
 31
0.0
  0
LINE
  8
0
  6
BYLAYER
 62
     7
 10
983.197952
 20
-168.358362
 30
0.0
 11
975.197952
 21
-168.358362
 31
0.0
  0
LINE
  8
0
  6
BYLAYER
 62
     7
 10
975.197952
 20
-160.358362
 30
0.0
 11
975.197952
 21
-168.358362
 31
0.0
  0
CIRCLE
  8
0
  6
BYLAYER
 62
     7
 10
1024.197952
 20
-129.358362
 30
0.0
 40
71.999936
  0
CIRCLE
  8
0
  6
BYLAYER
 62
     7
 10
1024.197952
 20
-129.358362
 30
0.0
 40
86.549921
  0
ARC
  8
0
  6
BYLAYER
 62
     7
 10
1024.197952
 20
-129.358362
 30
0.0
 40
100.0
 50
119.340652
 51
420.659492
  0
ARC
  8
0
  6
BYLAYER
 62
     7
 10
1024.197952
 20
-129.358362
 30
0.0
 40
96.0
 50
323.301669
 51
356.934592
  0
ARC
  8
0
  6
BYLAYER
 62
     7
 10
1024.197952
 20
-129.358362
 30
0.0
 40
96.0
 50
3.065408
 51
36.698331
  0
ARC
  8
0
  6
BYLAYER
 62
     7
 10
1024.197952
 20
-129.358362
 30
0.0
 40
96.000000
 50
233.301669
 51
266.934592
  0
ARC
  8
0
  6
BYLAYER
 62
     7
 10
1024.197952
 20
-129.358362
 30
0.0
 40
96.0
 50
273.065408
 51
306.698331
  0
ARC
  8
0
  6
BYLAYER
 62
     7
 10
1024.197952
 20
-129.358362
 30
0.0
 40
96.0
 50
183.065408
 51
216.698331
  0
ARC
  8
0
  6
BYLAYER
 62
     7
 10
1024.197952
 20
-129.358362
 30
0.0
 40
96.000000
 50
143.301669
 51
176.934592
  0
ARC
  8
0
  6
BYLAYER
 62
     7
 10
1024.197952
 20
-129.358362
 30
0.0
 40
96.000000
 50
120.691662
 51
126.698331
  0
ARC
  8
0
  6
BYLAYER
 62
     7
 10
1024.197952
 20
-129.358362
 30
0.0
 40
96.0
 50
53.301669
 51
59.308487
  0
ARC
  8
0
  6
BYLAYER
 62
     7
 10
1080.073719
 20
-54.390712
 30
0.0
 40
2.5
 50
315.000000
 51
413.301669
  0
ARC
  8
0
  6
BYLAYER
 62
     7
 10
1099.165602
 20
-73.482595
 30
0.0
 40
2.5
 50
36.698331
 51
135.000000
  0
CIRCLE
  8
0
  6
BYLAYER
 62
     7
 10
1024.197952
 20
-129.358362
 30
0.0
 40
70.0
  0
ARC
  8
0
  6
BYLAYER
 62
     7
 10
1082.534261
 20
-71.022053
 30
0.0
 40
5.500000
 50
1.144516
 51
88.855484
  0
LINE
  8
0
  6
BYLAYER
 62
     7
 10
1077.123520
 20
-60.876444
 30
0.0
 11
1081.841486
 21
-56.158478
 31
0.0
  0
LINE
  8
0
  6
BYLAYER
 62
     7
 10
1092.679870
 20
-76.432794
 30
0.0
 11
1097.397836
 21
-71.714828
 31
0.0
  0
ARC
  8
0
  6
BYLAYER
 62
     7
 10
968.322185
 20
-54.390712
 30
0.0
 40
2.5
 50
126.698331
 51
225.000000
  0
ARC
  8
0
  6
BYLAYER
 62
     7
 10
949.230302
 20
-73.482595
 30
0.0
 40
2.500000
 50
45.000000
 51
143.301669
  0
ARC
  8
0
  6
BYLAYER
 62
     7
 10
965.861643
 20
-71.022053
 30
0.0
 40
5.500000
 50
91.144516
 51
178.855484
  0
LINE
  8
0
  6
BYLAYER
 62
     7
 10
971.272384
 20
-60.876444
 30
0.0
 11
966.554418
 21
-56.158478
 31
0.0
  0
LINE
  8
0
  6
BYLAYER
 62
     7
 10
955.716034
 20
-76.432794
 30
0.0
 11
950.998068
 21
-71.714828
 31
0.0
  0
ARC
  8
0
  6
BYLAYER
 62
     7
 10
1080.073719
 20
-204.326012
 30
0.0
 40
2.5
 50
306.698331
 51
405.000000
  0
ARC
  8
0
  6
BYLAYER
 62
     7
 10
1099.165602
 20
-185.234129
 30
0.0
 40
2.500000
 50
225.000000
 51
323.301669
  0
ARC
  8
0
  6
BYLAYER
 62
     7
 10
1082.534261
 20
-187.694671
 30
0.0
 40
5.500000
 50
271.144516
 51
358.855484
  0
LINE
  8
0
  6
BYLAYER
 62
     7
 10
1077.123520
 20
-197.840280
 30
0.0
 11
1081.841486
 21
-202.558246
 31
0.0
  0
LINE
  8
0
  6
BYLAYER
 62
     7
 10
1092.679870
 20
-182.283930
 30
0.0
 11
1097.397836
 21
-187.001896
 31
0.0
  0
ARC
  8
0
  6
BYLAYER
 62
     7
 10
968.322185
 20
-204.326012
 30
0.0
 40
2.500000
 50
135.0
 51
233.301669
  0
ARC
  8
0
  6
BYLAYER
 62
     7
 10
949.230302
 20
-185.234129
 30
0.0
 40
2.500000
 50
216.698331
 51
315.000000
  0
ARC
  8
0
  6
BYLAYER
 62
     7
 10
965.861643
 20
-187.694671
 30
0.0
 40
5.5
 50
181.144516
 51
268.855484
  0
LINE
  8
0
  6
BYLAYER
 62
     7
 10
971.272384
 20
-197.840280
 30
0.0
 11
966.554418
 21
-202.558246
 31
0.0
  0
LINE
  8
0
  6
BYLAYER
 62
     7
 10
955.716034
 20
-182.283930
 30
0.0
 11
950.998068
 21
-187.001896
 31
0.0
  0
ARC
  8
0
  6
BYLAYER
 62
     7
 10
930.831738
 20
-134.358362
 30
0.0
 40
2.500000
 50
90.0
 51
183.065408
  0
ARC
  8
0
  6
BYLAYER
 62
     7
 10
930.831738
 20
-124.358362
 30
0.0
 40
2.500000
 50
176.934592
 51
270.000000
  0
LINE
  8
0
  6
BYLAYER
 62
     7
 10
930.831738
 20
-131.858362
 30
0.0
 11
937.684145
 21
-131.858362
 31
0.0
  0
LINE
  8
0
  6
BYLAYER
 62
     7
 10
930.831738
 20
-126.858362
 30
0.0
 11
937.684145
 21
-126.858362
 31
0.0
  0
ARC
  8
0
  6
BYLAYER
 62
     7
 10
1029.197952
 20
-222.724576
 30
0.0
 40
2.5
 50
180.000000
 51
273.065408
  0
ARC
  8
0
  6
BYLAYER
 62
     7
 10
1019.197952
 20
-222.724576
 30
0.0
 40
2.5
 50
266.934592
 51
360.000000
  0
LINE
  8
0
  6
BYLAYER
 62
     7
 10
1026.697952
 20
-222.724576
 30
0.0
 11
1026.697952
 21
-215.872169
 31
0.0
  0
LINE
  8
0
  6
BYLAYER
 62
     7
 10
1021.697952
 20
-222.724576
 30
0.0
 11
1021.697952
 21
-215.872169
 31
0.0
  0
ARC
  8
0
  6
BYLAYER
 62
     7
 10
1117.564166
 20
-124.358362
 30
0.0
 40
2.5
 50
270.0
 51
363.065408
  0
ARC
  8
0
  6
BYLAYER
 62
     7
 10
1117.564166
 20
-134.358362
 30
0.0
 40
2.5
 50
356.934592
 51
450.000000
  0
LINE
  8
0
  6
BYLAYER
 62
     7
 10
1117.564166
 20
-126.858362
 30
0.0
 11
1110.711759
 21
-126.858362
 31
0.0
  0
LINE
  8
0
  6
BYLAYER
 62
     7
 10
1117.564166
 20
-131.858362
 30
0.0
 11
1110.711759
 21
-131.858362
 31
0.0
  0
LINE
  8
0
  6
BYLAYER
 62
     7
 10
980.697845
 20
-522.858393
 30
0.0
 11
980.697845
 21
-501.358393
 31
0.0
  0
ARC
  8
0
  6
BYLAYER
 62
     7
 10
979.197845
 20
-522.858393
 30
0.0
 40
1.5
 50
270.0
 51
360.0
  0
ARC
  8
0
  6
BYLAYER
 62
     7
 10
982.197845
 20
-501.358393
 30
0.0
 40
1.5
 50
90.0
 51
180.0
  0
LINE
  8
0
  6
BYLAYER
 62
     7
 10
1024.197845
 20
-499.858393
 30
0.0
 11
982.197845
 21
-499.858393
 31
0.0
  0
LINE
  8
0
  6
BYLAYER
 62
     7
 10
986.070086
 20
-522.858393
 30
0.0
 11
986.070086
 21
-501.358393
 31
0.0
  0
ARC
  8
0
  6
BYLAYER
 62
     7
 10
984.570086
 20
-522.858393
 30
0.0
 40
1.5
 50
270.0
 51
360.0
  0
ARC
  8
0
  6
BYLAYER
 62
     7
 10
987.570086
 20
-501.358393
 30
0.0
 40
1.5
 50
90.0
 51
180.0
  0
LINE
  8
0
  6
BYLAYER
 62
     7
 10
1011.104192
 20
-499.858393
 30
0.0
 11
1011.596739
 21
-513.963091
 31
0.0
  0
ARC
  8
0
  6
BYLAYER
 62
     7
 10
1014.594911
 20
-513.858393
 30
0.0
 40
3.0
 50
182.000000
 51
270.000000
  0
LINE
  8
0
  6
BYLAYER
 62
     7
 10
1021.798951
 20
-513.963091
 30
0.0
 11
1022.291498
 21
-499.858393
 31
0.0
  0
ARC
  8
0
  6
BYLAYER
 62
     7
 10
1018.800779
 20
-513.858393
 30
0.0
 40
3.0
 50
270.0
 51
358.0
  0
LINE
  8
0
  6
BYLAYER
 62
     7
 10
1014.594911
 20
-516.858393
 30
0.0
 11
1018.800779
 21
-516.858393
 31
0.0
  0
LINE
  8
0
  6
BYLAYER
 62
     7
 10
996.104192
 20
-499.858393
 30
0.0
 11
996.596739
 21
-513.963091
 31
0.0
  0
ARC
  8
0
  6
BYLAYER
 62
     7
 10
999.594911
 20
-513.858393
 30
0.0
 40
3.0
 50
182.000000
 51
270.000000
  0
LINE
  8
0
  6
BYLAYER
 62
     7
 10
1006.798951
 20
-513.963091
 30
0.0
 11
1007.291498
 21
-499.858393
 31
0.0
  0
ARC
  8
0
  6
BYLAYER
 62
     7
 10
1003.800779
 20
-513.858393
 30
0.0
 40
3.0
 50
270.0
 51
358.0
  0
LINE
  8
0
  6
BYLAYER
 62
     7
 10
999.594911
 20
-516.858393
 30
0.0
 11
1003.800779
 21
-516.858393
 31
0.0
  0
LINE
  8
0
  6
BYLAYER
 62
     7
 10
996.139113
 20
-500.858393
 30
0.0
 11
1007.256577
 21
-500.858393
 31
0.0
  0
LINE
  8
0
  6
BYLAYER
 62
     7
 10
1011.139113
 20
-500.858393
 30
0.0
 11
1022.256577
 21
-500.858393
 31
0.0
  0
LINE
  8
0
  6
BYLAYER
 62
     7
 10
1024.197845
 20
-524.358393
 30
0.0
 11
976.697845
 21
-524.358393
 31
0.0
  0
ARC
  8
0
  6
BYLAYER
 62
     7
 10
976.697845
 20
-525.858393
 30
0.0
 40
1.5
 50
90.0
 51
180.0
  0
LINE
  8
0
  6
BYLAYER
 62
     7
 10
975.197845
 20
-531.358393
 30
0.0
 11
975.197845
 21
-525.858393
 31
0.0
  0
LINE
  8
0
  6
BYLAYER
 62
     7
 10
975.197845
 20
-531.358393
 30
0.0
 11
1004.298051
 21
-531.358393
 31
0.0
  0
LINE
  8
0
  6
BYLAYER
 62
     7
 10
1067.697845
 20
-522.858393
 30
0.0
 11
1067.697845
 21
-501.358393
 31
0.0
  0
ARC
  8
0
  6
BYLAYER
 62
     7
 10
1069.197845
 20
-522.858393
 30
0.0
 40
1.5
 50
180.000000
 51
270.000000
  0
ARC
  8
0
  6
BYLAYER
 62
     7
 10
1066.197845
 20
-501.358393
 30
0.0
 40
1.5
 50
0.0
 51
90.0
  0
LINE
  8
0
  6
BYLAYER
 62
     7
 10
1024.197845
 20
-499.858393
 30
0.0
 11
1066.197845
 21
-499.858393
 31
0.0
  0
LINE
  8
0
  6
BYLAYER
 62
     7
 10
1062.325604
 20
-522.858393
 30
0.0
 11
1062.325604
 21
-501.358393
 31
0.0
  0
ARC
  8
0
  6
BYLAYER
 62
     7
 10
1063.825604
 20
-522.858393
 30
0.0
 40
1.5
 50
180.000000
 51
270.000000
  0
ARC
  8
0
  6
BYLAYER
 62
     7
 10
1060.825604
 20
-501.358393
 30
0.0
 40
1.5
 50
0.0
 51
90.0
  0
LINE
  8
0
  6
BYLAYER
 62
     7
 10
1037.291498
 20
-499.858393
 30
0.0
 11
1036.798951
 21
-513.963091
 31
0.0
  0
ARC
  8
0
  6
BYLAYER
 62
     7
 10
1033.800779
 20
-513.858393
 30
0.0
 40
3.0
 50
270.0
 51
358.0
  0
LINE
  8
0
  6
BYLAYER
 62
     7
 10
1026.596739
 20
-513.963091
 30
0.0
 11
1026.104192
 21
-499.858393
 31
0.0
  0
ARC
  8
0
  6
BYLAYER
 62
     7
 10
1029.594911
 20
-513.858393
 30
0.0
 40
3.0
 50
182.000000
 51
270.000000
  0
LINE
  8
0
  6
BYLAYER
 62
     7
 10
1033.800779
 20
-516.858393
 30
0.0
 11
1029.594911
 21
-516.858393
 31
0.0
  0
LINE
  8
0
  6
BYLAYER
 62
     7
 10
1052.291498
 20
-499.858393
 30
0.0
 11
1051.798951
 21
-513.963091
 31
0.0
  0
ARC
  8
0
  6
BYLAYER
 62
     7
 10
1048.800779
 20
-513.858393
 30
0.0
 40
3.0
 50
270.0
 51
358.0
  0
LINE
  8
0
  6
BYLAYER
 62
     7
 10
1041.596739
 20
-513.963091
 30
0.0
 11
1041.104192
 21
-499.858393
 31
0.0
  0
ARC
  8
0
  6
BYLAYER
 62
     7
 10
1044.594911
 20
-513.858393
 30
0.0
 40
3.0
 50
182.000000
 51
270.000000
  0
LINE
  8
0
  6
BYLAYER
 62
     7
 10
1048.800779
 20
-516.858393
 30
0.0
 11
1044.594911
 21
-516.858393
 31
0.0
  0
LINE
  8
0
  6
BYLAYER
 62
     7
 10
1052.256577
 20
-500.858393
 30
0.0
 11
1041.139113
 21
-500.858393
 31
0.0
  0
LINE
  8
0
  6
BYLAYER
 62
     7
 10
1037.256577
 20
-500.858393
 30
0.0
 11
1026.139113
 21
-500.858393
 31
0.0
  0
LINE
  8
0
  6
BYLAYER
 62
     7
 10
1024.197845
 20
-524.358393
 30
0.0
 11
1071.697845
 21
-524.358393
 31
0.0
  0
ARC
  8
0
  6
BYLAYER
 62
     7
 10
1071.697845
 20
-525.858393
 30
0.0
 40
1.5
 50
0.0
 51
90.0
  0
LINE
  8
0
  6
BYLAYER
 62
     7
 10
1073.197845
 20
-533.358393
 30
0.0
 11
1073.197845
 21
-525.858393
 31
0.0
  0
LINE
  8
0
  6
BYLAYER
 62
     7
 10
1073.197845
 20
-531.358393
 30
0.0
 11
1044.097853
 21
-531.358393
 31
0.0
  0
LINE
  8
0
  6
BYLAYER
 62
     7
 10
975.197845
 20
-533.358393
 30
0.0
 11
996.197846
 21
-533.358393
 31
0.0
  0
LINE
  8
0
  6
BYLAYER
 62
     7
 10
975.197845
 20
-538.858393
 30
0.0
 11
976.655314
 21
-541.382811
 31
0.0
  0
LINE
  8
0
  6
BYLAYER
 62
     7
 10
1073.197829
 20
-533.358271
 30
0.0
 11
1052.197819
 21
-533.358323
 31
0.0
  0
LINE
  8
0
  6
BYLAYER
 62
     7
 10
1073.197829
 20
-538.858271
 30
0.0
 11
1071.740361
 21
-541.382687
 31
0.0
  0
LINE
  8
0
  6
BYLAYER
 62
     7
 10
975.197845
 20
-533.358393
 30
0.0
 11
975.197845
 21
-542.186179
 31
0.0
  0
LINE
  8
0
  6
BYLAYER
 62
     7
 10
1073.197829
 20
-533.358271
 30
0.0
 11
1073.197840
 21
-542.186055
 31
0.0
  0
LINE
  8
0
  6
BYLAYER
 62
     7
 10
975.197845
 20
-531.358393
 30
0.0
 11
975.197845
 21
-533.358393
 31
0.0
  0
ARC
  8
0
  6
BYLAYER
 62
     1
 10
1024.197952
 20
-629.358362
 30
0.0
 40
47.500000
 50
66.318093
 51
113.681907
  0
ARC
  8
0
  6
BYLAYER
 62
     1
 10
1024.197952
 20
-629.358362
 30
0.0
 40
100.0
 50
314.427004
 51
585.572996
  0
ARC
  8
0
  6
BYLAYER
 62
     1
 10
1024.197952
 20
-629.358362
 30
0.0
 40
65.000008
 50
62.204268
 51
117.795792
  0
ARC
  8
0
  6
BYLAYER
 62
     1
 10
1024.197952
 20
-629.358362
 30
0.0
 40
64.999992
 50
122.204269
 51
136.186932
  0
ARC
  8
0
  6
BYLAYER
 62
     1
 10
1024.197952
 20
-629.358362
 30
0.0
 40
65.0
 50
43.813061
 51
57.795783
  0
LINE
  8
0
  6
BYLAYER
 62
     1
 10
934.039505
 20
-631.858423
 30
0.0
 11
959.197952
 21
-631.858423
 31
0.0
  0
LINE
  8
0
  6
BYLAYER
 62
     1
 10
934.039505
 20
-626.858423
 30
0.0
 11
959.197952
 21
-626.858423
 31
0.0
  0
ARC
  8
0
  6
BYLAYER
 62
     1
 10
933.880874
 20
-622.483104
 30
0.0
 40
9.375319
 50
270.0
 51
270.484825
  0
ARC
  8
0
  6
BYLAYER
 62
     1
 10
933.880945
 20
-622.490485
 30
0.0
 40
9.367938
 50
270.484778
 51
270.969825
  0
ARC
  8
0
  6
BYLAYER
 62
     1
 10
934.039444
 20
-634.616353
 30
0.0
 40
7.757991
 50
90.0
 51
121.966526
  0
ARC
  8
0
  6
BYLAYER
 62
     1
 10
930.758156
 20
-629.358362
 30
0.0
 40
1.560143
 50
121.966526
 51
180.000000
  0
ARC
  8
0
  6
BYLAYER
 62
     1
 10
930.758156
 20
-629.358362
 30
0.0
 40
1.560143
 50
180.000000
 51
238.033474
  0
ARC
  8
0
  6
BYLAYER
 62
     1
 10
934.039444
 20
-624.100371
 30
0.0
 40
7.757991
 50
238.033474
 51
270.0
  0
LINE
  8
0
  6
BYLAYER
 62
     1
 10
1114.356399
 20
-631.858301
 30
0.0
 11
1089.197952
 21
-631.858301
 31
0.0
  0
LINE
  8
0
  6
BYLAYER
 62
     1
 10
1114.356399
 20
-626.858301
 30
0.0
 11
1089.197952
 21
-626.858301
 31
0.0
  0
ARC
  8
0
  6
BYLAYER
 62
     1
 10
1114.356460
 20
-624.100371
 30
0.0
 40
7.757991
 50
270.0
 51
301.966526
  0
ARC
  8
0
  6
BYLAYER
 62
     1
 10
1117.637748
 20
-629.358362
 30
0.0
 40
1.560143
 50
301.966526
 51
360.000000
  0
ARC
  8
0
  6
BYLAYER
 62
     1
 10
1117.637748
 20
-629.358362
 30
0.0
 40
1.560143
 50
0.0
 51
58.033474
  0
ARC
  8
0
  6
BYLAYER
 62
     1
 10
1114.356460
 20
-634.616353
 30
0.0
 40
7.757991
 50
58.033474
 51
90.0
  0
ARC
  8
0
  6
BYLAYER
 62
     1
 10
1056.244897
 20
-586.365152
 30
0.0
 40
8.756815
 50
150.000161
 51
168.451665
  0
ARC
  8
0
  6
BYLAYER
 62
     1
 10
1051.960448
 20
-585.489706
 30
0.0
 40
4.383840
 50
168.451665
 51
184.823947
  0
ARC
  8
0
  6
BYLAYER
 62
     1
 10
1045.580202
 20
-580.305285
 30
0.0
 40
8.504670
 50
319.236031
 51
324.793254
  0
ARC
  8
0
  6
BYLAYER
 62
     1
 10
1044.918513
 20
-579.825905
 30
0.0
 40
9.321703
 50
324.730510
 51
329.999970
  0
LINE
  8
0
  6
BYLAYER
 62
     1
 10
1071.442154
 20
-552.528833
 30
0.0
 11
1053.112076
 21
-584.277460
 31
0.0
  0
LINE
  8
0
  6
BYLAYER
 62
     1
 10
1067.112076
 20
-550.028833
 30
0.0
 11
1048.781997
 21
-581.777460
 31
0.0
  0
LINE
  8
0
  6
BYLAYER
 62
     1
 10
1071.442269
 20
-552.528783
 30
0.0
 11
1071.442276
 21
-552.528772
 31
0.0
  0
ARC
  8
0
  6
BYLAYER
 62
     1
 10
1064.723582
 20
-548.649740
 30
0.0
 40
7.758075
 50
330.000048
 51
361.966418
  0
ARC
  8
0
  6
BYLAYER
 62
     1
 10
1070.917883
 20
-548.437066
 30
0.0
 40
1.560124
 50
1.966418
 51
59.999720
  0
ARC
  8
0
  6
BYLAYER
 62
     1
 10
1070.917889
 20
-548.437056
 30
0.0
 40
1.560113
 50
59.999720
 51
118.033737
  0
ARC
  8
0
  6
BYLAYER
 62
     1
 10
1073.830861
 20
-553.907787
 30
0.0
 40
7.758041
 50
118.033737
 51
150.000048
  0
LINE
  8
0
  6
BYLAYER
 62
     1
 10
1067.112198
 20
-550.028772
 30
0.0
 11
1067.112188
 21
-550.028788
 31
0.0
  0
ARC
  8
0
  6
BYLAYER
 62
     1
 10
1003.477391
 20
-579.825905
 30
0.0
 40
9.321702
 50
210.000037
 51
215.269493
  0
ARC
  8
0
  6
BYLAYER
 62
     1
 10
1002.815702
 20
-580.305286
 30
0.0
 40
8.504669
 50
215.206750
 51
220.763969
  0
ARC
  8
0
  6
BYLAYER
 62
     1
 10
996.435456
 20
-585.489706
 30
0.0
 40
4.383840
 50
355.176053
 51
371.548336
  0
ARC
  8
0
  6
BYLAYER
 62
     1
 10
992.151006
 20
-586.365152
 30
0.0
 40
8.756815
 50
11.548336
 51
29.999843
  0
LINE
  8
0
  6
BYLAYER
 62
     1
 10
976.953628
 20
-552.528894
 30
0.0
 11
995.283706
 21
-584.277521
 31
0.0
  0
LINE
  8
0
  6
BYLAYER
 62
     1
 10
981.283706
 20
-550.028894
 30
0.0
 11
999.613785
 21
-581.777521
 31
0.0
  0
ARC
  8
0
  6
BYLAYER
 62
     1
 10
974.565048
 20
-553.907812
 30
0.0
 40
7.758033
 50
30.000023
 51
61.966287
  0
ARC
  8
0
  6
BYLAYER
 62
     1
 10
977.478015
 20
-548.437086
 30
0.0
 40
1.560113
 50
61.966287
 51
120.000280
  0
ARC
  8
0
  6
BYLAYER
 62
     1
 10
977.478021
 20
-548.437096
 30
0.0
 40
1.560124
 50
120.000280
 51
178.033582
  0
ARC
  8
0
  6
BYLAYER
 62
     1
 10
983.672322
 20
-548.649771
 30
0.0
 40
7.758075
 50
178.033582
 51
209.999952
  0
LINE
  8
0
  6
BYLAYER
 62
     1
 10
976.953628
 20
-552.528803
 30
0.0
 11
976.953635
 21
-552.528815
 31
0.0
  0
LINE
  8
0
  6
BYLAYER
 62
     2
 10
1092.126297
 20
-573.592188
 30
0.0
 11
1089.556106
 21
-564.000147
 31
0.0
  0
LINE
  8
0
  6
BYLAYER
 62
     2
 10
1089.556106
 20
-564.000147
 30
0.0
 11
1079.964065
 21
-561.429956
 31
0.0
  0
LINE
  8
0
  6
BYLAYER
 62
     2
 10
1079.964065
 20
-561.429956
 30
0.0
 11
1072.942093
 21
-568.451807
 31
0.0
  0
LINE
  8
0
  6
BYLAYER
 62
     2
 10
1072.942093
 20
-568.451807
 30
0.0
 11
1075.512283
 21
-578.043909
 31
0.0
  0
LINE
  8
0
  6
BYLAYER
 62
     2
 10
1075.512283
 20
-578.043909
 30
0.0
 11
1085.104324
 21
-580.614099
 31
0.0
  0
LINE
  8
0
  6
BYLAYER
 62
     2
 10
1085.104324
 20
-580.614099
 30
0.0
 11
1092.126297
 21
-573.592188
 31
0.0
  0
LINE
  8
0
  6
BYLAYER
 62
     2
 10
956.269668
 20
-573.592188
 30
0.0
 11
958.839859
 21
-564.000147
 31
0.0
  0
LINE
  8
0
  6
BYLAYER
 62
     2
 10
958.839859
 20
-564.000147
 30
0.0
 11
968.431900
 21
-561.429956
 31
0.0
  0
LINE
  8
0
  6
BYLAYER
 62
     2
 10
968.431900
 20
-561.429956
 30
0.0
 11
975.453872
 21
-568.451807
 31
0.0
  0
LINE
  8
0
  6
BYLAYER
 62
     2
 10
975.453872
 20
-568.451807
 30
0.0
 11
972.883682
 21
-578.043909
 31
0.0
  0
LINE
  8
0
  6
BYLAYER
 62
     2
 10
972.883682
 20
-578.043909
 30
0.0
 11
963.291519
 21
-580.614099
 31
0.0
  0
LINE
  8
0
  6
BYLAYER
 62
     2
 10
963.291519
 20
-580.614099
 30
0.0
 11
956.269668
 21
-573.592188
 31
0.0
  0
LINE
  8
0
  6
BYLAYER
 62
     1
 10
379.197952
 20
-766.858240
 30
0.0
 11
379.197952
 21
-719.358362
 31
0.0
  0
ARC
  8
0
  6
BYLAYER
 62
     1
 10
394.697952
 20
-816.883814
 30
0.0
 40
2.000089
 50
180.000000
 51
266.999958
  0
LINE
  8
0
  6
BYLAYER
 62
     1
 10
392.697952
 20
-801.858301
 30
0.0
 11
392.697952
 21
-816.883844
 31
0.0
  0
LINE
  8
0
  6
BYLAYER
 62
     1
 10
392.697952
 20
-801.858301
 30
0.0
 11
392.697952
 21
-719.358362
 31
0.0
  0
ARC
  8
0
  6
BYLAYER
 62
     1
 10
390.697952
 20
-784.988977
 30
0.0
 40
2.000003
 50
0.0
 51
35.000041
  0
LINE
  8
0
  6
BYLAYER
 62
     1
 10
379.403122
 20
-766.858270
 30
0.0
 11
379.197952
 21
-766.858270
 31
0.0
  0
LINE
  8
0
  6
BYLAYER
 62
     1
 10
392.336258
 20
-783.841821
 30
0.0
 11
381.041427
 21
-767.711115
 31
0.0
  0
ARC
  8
0
  6
BYLAYER
 62
     1
 10
379.403122
 20
-768.858270
 30
0.0
 40
2.0
 50
34.999973
 51
90.000000
  0
LINE
  8
0
  6
BYLAYER
 62
     1
 10
381.041427
 20
-767.711115
 30
0.0
 11
392.697952
 21
-801.858301
 31
0.0
  0
LINE
  8
0
  6
BYLAYER
 62
     1
 10
394.593216
 20
-818.881159
 30
0.0
 11
403.697952
 21
-819.358348
 31
0.0
  0
LINE
  8
0
  6
BYLAYER
 62
     1
 10
403.697952
 20
-819.358348
 30
0.0
 11
403.697952
 21
-719.358362
 31
0.0
  0
LINE
  8
0
  6
BYLAYER
 62
     1
 10
381.041427
 20
-767.711115
 30
0.0
 11
381.041427
 21
-719.358362
 31
0.0
  0
LINE
  8
0
  6
BYLAYER
 62
     1
 10
379.197952
 20
-671.858484
 30
0.0
 11
379.197952
 21
-719.358362
 31
0.0
  0
ARC
  8
0
  6
BYLAYER
 62
     1
 10
394.697952
 20
-621.832910
 30
0.0
 40
2.000089
 50
93.000064
 51
180.000022
  0
LINE
  8
0
  6
BYLAYER
 62
     1
 10
392.697952
 20
-636.858423
 30
0.0
 11
392.697952
 21
-621.832880
 31
0.0
  0
LINE
  8
0
  6
BYLAYER
 62
     1
 10
392.697952
 20
-636.858423
 30
0.0
 11
392.697952
 21
-719.358362
 31
0.0
  0
ARC
  8
0
  6
BYLAYER
 62
     1
 10
390.697952
 20
-653.727747
 30
0.0
 40
2.000003
 50
324.999959
 51
360.000000
  0
LINE
  8
0
  6
BYLAYER
 62
     1
 10
379.403122
 20
-671.858454
 30
0.0
 11
379.197952
 21
-671.858454
 31
0.0
  0
LINE
  8
0
  6
BYLAYER
 62
     1
 10
392.336258
 20
-654.874903
 30
0.0
 11
381.041427
 21
-671.005609
 31
0.0
  0
ARC
  8
0
  6
BYLAYER
 62
     1
 10
379.403122
 20
-669.858454
 30
0.0
 40
2.0
 50
270.0
 51
325.000027
  0
LINE
  8
0
  6
BYLAYER
 62
     1
 10
381.041427
 20
-671.005609
 30
0.0
 11
392.697952
 21
-636.858423
 31
0.0
  0
LINE
  8
0
  6
BYLAYER
 62
     1
 10
394.593216
 20
-619.835565
 30
0.0
 11
403.697952
 21
-619.358376
 31
0.0
  0
LINE
  8
0
  6
BYLAYER
 62
     1
 10
403.697952
 20
-619.358376
 30
0.0
 11
403.697952
 21
-719.358362
 31
0.0
  0
LINE
  8
0
  6
BYLAYER
 62
     1
 10
381.041427
 20
-671.005609
 30
0.0
 11
381.041427
 21
-719.358362
 31
0.0
  0
ENDSEC
  0
EOF
