  0
SECTION
  2
HEADER
  9
$EXTMIN
 10
174.361775
 20
824.0
 30
0.0
  9
$EXTMAX
 10
1119.290102
 20
0.0
 30
0.0
  0
ENDSEC
  0
SECTION
  2
TABLES
  0
ENDSEC
  0
SECTION
  2
BLOCKS
  0
ENDSEC
  0
SECTION
  2
ENTITIES
  0
LINE
  8
0
  6
BYLAYER
 62
     7
 10
527.228638
 20
-122.958323
 30
0.0
 11
452.028626
 21
-122.958323
 31
0.0
  0
LINE
  8
0
  6
BYLAYER
 62
     7
 10
527.228638
 20
-124.558329
 30
0.0
 11
452.028626
 21
-124.558329
 31
0.0
  0
ARC
  8
0
  6
BYLAYER
 62
     7
 10
456.028626
 20
-78.958323
 30
0.0
 40
0.799927
 50
90.0
 51
270.000012
  0
ARC
  8
0
  6
BYLAYER
 62
     7
 10
452.028626
 20
-123.758311
 30
0.0
 40
0.800018
 50
90.0
 51
270.000012
  0
ARC
  8
0
  6
BYLAYER
 62
     7
 10
456.028626
 20
-123.758311
 30
0.0
 40
0.800018
 50
90.0
 51
270.000012
  0
ARC
  8
0
  6
BYLAYER
 62
     7
 10
452.028626
 20
-112.558329
 30
0.0
 40
0.799988
 50
90.0
 51
270.000012
  0
ARC
  8
0
  6
BYLAYER
 62
     7
 10
456.028626
 20
-112.558329
 30
0.0
 40
0.799988
 50
90.0
 51
270.000012
  0
ARC
  8
0
  6
BYLAYER
 62
     7
 10
452.028626
 20
-101.358348
 30
0.0
 40
0.799927
 50
90.0
 51
270.000012
  0
ARC
  8
0
  6
BYLAYER
 62
     7
 10
456.028626
 20
-101.358348
 30
0.0
 40
0.799927
 50
90.0
 51
270.000012
  0
LINE
  8
0
  6
BYLAYER
 62
     7
 10
527.228638
 20
-100.558299
 30
0.0
 11
452.028626
 21
-100.558299
 31
0.0
  0
LINE
  8
0
  6
BYLAYER
 62
     7
 10
527.228638
 20
-102.158274
 30
0.0
 11
452.028626
 21
-102.158274
 31
0.0
  0
ARC
  8
0
  6
BYLAYER
 62
     7
 10
452.028626
 20
-90.158274
 30
0.0
 40
0.800049
 50
90.0
 51
270.000012
  0
ARC
  8
0
  6
BYLAYER
 62
     7
 10
456.028626
 20
-90.158274
 30
0.0
 40
0.800049
 50
90.0
 51
270.000012
  0
LINE
  8
0
  6
BYLAYER
 62
     7
 10
527.228638
 20
-89.358348
 30
0.0
 11
452.028626
 21
-89.358348
 31
0.0
  0
LINE
  8
0
  6
BYLAYER
 62
     7
 10
527.228638
 20
-90.958323
 30
0.0
 11
452.028626
 21
-90.958323
 31
0.0
  0
ARC
  8
0
  6
BYLAYER
 62
     7
 10
452.028626
 20
-78.958323
 30
0.0
 40
0.799927
 50
90.0
 51
270.000012
  0
LINE
  8
0
  6
BYLAYER
 62
     7
 10
527.228638
 20
-78.158274
 30
0.0
 11
452.028626
 21
-78.158274
 31
0.0
  0
LINE
  8
0
  6
BYLAYER
 62
     7
 10
527.228638
 20
-79.758250
 30
0.0
 11
452.028626
 21
-79.758250
 31
0.0
  0
LINE
  8
0
  6
BYLAYER
 62
     7
 10
549.228699
 20
-33.358317
 30
0.0
 11
549.228699
 21
-78.158274
 31
0.0
  0
LINE
  8
0
  6
BYLAYER
 62
     7
 10
451.228638
 20
-56.608348
 30
0.0
 11
447.728638
 21
-56.608348
 31
0.0
  0
ARC
  8
0
  6
BYLAYER
 62
     7
 10
480.728638
 20
-47.358317
 30
0.0
 40
13.0
 50
180.000019
 51
360.000018
  0
ARC
  8
0
  6
BYLAYER
 62
     7
 10
519.728638
 20
-47.358317
 30
0.0
 40
12.999985
 50
180.000019
 51
360.000018
  0
LINE
  8
0
  6
BYLAYER
 62
     7
 10
456.728638
 20
-79.758250
 30
0.0
 11
456.728638
 21
-89.358348
 31
0.0
  0
LINE
  8
0
  6
BYLAYER
 62
     7
 10
456.728638
 20
-90.958323
 30
0.0
 11
456.728638
 21
-100.558299
 31
0.0
  0
LINE
  8
0
  6
BYLAYER
 62
     7
 10
456.728638
 20
-102.158274
 30
0.0
 11
456.728638
 21
-111.758311
 31
0.0
  0
LINE
  8
0
  6
BYLAYER
 62
     7
 10
456.728638
 20
-113.358317
 30
0.0
 11
456.728638
 21
-122.958323
 31
0.0
  0
LINE
  8
0
  6
BYLAYER
 62
     7
 10
456.728638
 20
-124.558329
 30
0.0
 11
456.728699
 21
-134.158305
 31
0.0
  0
LINE
  8
0
  6
BYLAYER
 62
     7
 10
451.228638
 20
-38.858317
 30
0.0
 11
465.728638
 21
-38.858317
 31
0.0
  0
LINE
  8
0
  6
BYLAYER
 62
     7
 10
467.728638
 20
-47.358317
 30
0.0
 11
467.728638
 21
-40.858317
 31
0.0
  0
ARC
  8
0
  6
BYLAYER
 62
     7
 10
465.728638
 20
-40.858317
 30
0.0
 40
2.000000
 50
0.0
 51
90.000003
  0
LINE
  8
0
  6
BYLAYER
 62
     7
 10
493.728638
 20
-47.358317
 30
0.0
 11
493.728638
 21
-40.858317
 31
0.0
  0
ARC
  8
0
  6
BYLAYER
 62
     7
 10
495.728638
 20
-40.858317
 30
0.0
 40
2.0
 50
90.0
 51
180.000003
  0
LINE
  8
0
  6
BYLAYER
 62
     7
 10
495.728638
 20
-38.858317
 30
0.0
 11
504.728638
 21
-38.858317
 31
0.0
  0
LINE
  8
0
  6
BYLAYER
 62
     7
 10
506.728638
 20
-47.358317
 30
0.0
 11
506.728638
 21
-40.858317
 31
0.0
  0
ARC
  8
0
  6
BYLAYER
 62
     7
 10
504.728638
 20
-40.858317
 30
0.0
 40
2.000000
 50
0.0
 51
90.000003
  0
LINE
  8
0
  6
BYLAYER
 62
     7
 10
532.728638
 20
-47.358317
 30
0.0
 11
532.728638
 21
-40.858317
 31
0.0
  0
LINE
  8
0
  6
BYLAYER
 62
     7
 10
534.728699
 20
-38.858317
 30
0.0
 11
549.228699
 21
-38.858317
 31
0.0
  0
ARC
  8
0
  6
BYLAYER
 62
     7
 10
534.728699
 20
-40.858317
 30
0.0
 40
2.000061
 50
90.0
 51
180.000003
  0
LINE
  8
0
  6
BYLAYER
 62
     7
 10
451.228638
 20
-44.858317
 30
0.0
 11
467.728638
 21
-44.858317
 31
0.0
  0
LINE
  8
0
  6
BYLAYER
 62
     7
 10
493.728638
 20
-44.858317
 30
0.0
 11
506.728638
 21
-44.858317
 31
0.0
  0
LINE
  8
0
  6
BYLAYER
 62
     7
 10
532.728638
 20
-44.858317
 30
0.0
 11
549.228699
 21
-44.858317
 31
0.0
  0
LINE
  8
0
  6
BYLAYER
 62
     7
 10
527.228638
 20
-134.158335
 30
0.0
 11
452.028626
 21
-134.158335
 31
0.0
  0
LINE
  8
0
  6
BYLAYER
 62
     7
 10
527.228638
 20
-135.758341
 30
0.0
 11
452.028626
 21
-135.758341
 31
0.0
  0
ARC
  8
0
  6
BYLAYER
 62
     7
 10
452.028626
 20
-134.958323
 30
0.0
 40
0.800018
 50
90.0
 51
270.000012
  0
ARC
  8
0
  6
BYLAYER
 62
     7
 10
456.028626
 20
-134.958323
 30
0.0
 40
0.800018
 50
90.0
 51
270.000012
  0
LINE
  8
0
  6
BYLAYER
 62
     7
 10
527.228638
 20
-145.358317
 30
0.0
 11
452.028626
 21
-145.358317
 31
0.0
  0
LINE
  8
0
  6
BYLAYER
 62
     7
 10
527.228638
 20
-146.958323
 30
0.0
 11
452.028626
 21
-146.958323
 31
0.0
  0
ARC
  8
0
  6
BYLAYER
 62
     7
 10
452.028626
 20
-146.158305
 30
0.0
 40
0.800018
 50
90.0
 51
270.000012
  0
ARC
  8
0
  6
BYLAYER
 62
     7
 10
456.028626
 20
-146.158305
 30
0.0
 40
0.800018
 50
90.0
 51
270.000012
  0
LINE
  8
0
  6
BYLAYER
 62
     7
 10
527.228638
 20
-156.558329
 30
0.0
 11
452.028626
 21
-156.558329
 31
0.0
  0
LINE
  8
0
  6
BYLAYER
 62
     7
 10
527.228638
 20
-158.158335
 30
0.0
 11
452.028626
 21
-158.158335
 31
0.0
  0
ARC
  8
0
  6
BYLAYER
 62
     7
 10
452.028626
 20
-157.358317
 30
0.0
 40
0.800018
 50
90.0
 51
270.000012
  0
ARC
  8
0
  6
BYLAYER
 62
     7
 10
456.028626
 20
-157.358317
 30
0.0
 40
0.800018
 50
90.0
 51
270.000012
  0
LINE
  8
0
  6
BYLAYER
 62
     7
 10
527.228638
 20
-167.758311
 30
0.0
 11
452.028626
 21
-167.758311
 31
0.0
  0
LINE
  8
0
  6
BYLAYER
 62
     7
 10
527.228638
 20
-169.358317
 30
0.0
 11
452.028626
 21
-169.358317
 31
0.0
  0
ARC
  8
0
  6
BYLAYER
 62
     7
 10
452.028626
 20
-168.558299
 30
0.0
 40
0.800018
 50
90.0
 51
270.000012
  0
ARC
  8
0
  6
BYLAYER
 62
     7
 10
456.028626
 20
-168.558299
 30
0.0
 40
0.800018
 50
90.0
 51
270.000012
  0
LINE
  8
0
  6
BYLAYER
 62
     7
 10
527.228638
 20
-178.958323
 30
0.0
 11
452.028626
 21
-178.958323
 31
0.0
  0
ARC
  8
0
  6
BYLAYER
 62
     7
 10
452.028626
 20
-179.758311
 30
0.0
 40
0.800018
 50
90.0
 51
270.000012
  0
ARC
  8
0
  6
BYLAYER
 62
     7
 10
456.028626
 20
-179.758311
 30
0.0
 40
0.800018
 50
90.0
 51
270.000012
  0
LINE
  8
0
  6
BYLAYER
 62
     7
 10
451.228638
 20
-33.358317
 30
0.0
 11
451.228699
 21
-202.108317
 31
0.0
  0
LINE
  8
0
  6
BYLAYER
 62
     7
 10
527.228638
 20
-156.558329
 30
0.0
 11
593.763671
 21
-156.558283
 31
0.0
  0
LINE
  8
0
  6
BYLAYER
 62
     7
 10
527.228638
 20
-158.158335
 30
0.0
 11
593.763671
 21
-158.158289
 31
0.0
  0
LINE
  8
0
  6
BYLAYER
 62
     7
 10
456.728638
 20
-135.758311
 30
0.0
 11
456.728699
 21
-145.358317
 31
0.0
  0
LINE
  8
0
  6
BYLAYER
 62
     7
 10
456.728638
 20
-146.958323
 30
0.0
 11
456.728699
 21
-156.558299
 31
0.0
  0
LINE
  8
0
  6
BYLAYER
 62
     7
 10
456.728638
 20
-158.158335
 30
0.0
 11
456.728699
 21
-167.758311
 31
0.0
  0
LINE
  8
0
  6
BYLAYER
 62
     7
 10
456.728638
 20
-169.358317
 30
0.0
 11
456.728699
 21
-178.958293
 31
0.0
  0
ARC
  8
0
  6
BYLAYER
 62
     7
 10
487.228638
 20
-112.558329
 30
0.0
 40
3.000015
 50
13.212986
 51
166.787045
  0
ARC
  8
0
  6
BYLAYER
 62
     7
 10
542.228699
 20
-112.558299
 30
0.0
 40
3.000015
 50
13.213048
 51
166.786990
  0
ARC
  8
0
  6
BYLAYER
 62
     7
 10
542.228699
 20
-112.558299
 30
0.0
 40
3.000008
 50
193.212979
 51
346.787064
  0
ARC
  8
0
  6
BYLAYER
 62
     7
 10
487.228638
 20
-112.558329
 30
0.0
 40
3.000008
 50
193.212979
 51
346.787064
  0
LINE
  8
0
  6
BYLAYER
 62
     7
 10
539.337342
 20
-111.758280
 30
0.0
 11
514.728638
 21
-111.758311
 31
0.0
  0
LINE
  8
0
  6
BYLAYER
 62
     7
 10
539.337342
 20
-113.358286
 30
0.0
 11
514.728638
 21
-113.358317
 31
0.0
  0
LINE
  8
0
  6
BYLAYER
 62
     7
 10
452.028626
 20
-111.758311
 30
0.0
 11
484.337281
 21
-111.758311
 31
0.0
  0
LINE
  8
0
  6
BYLAYER
 62
     7
 10
452.028626
 20
-113.358317
 30
0.0
 11
484.337281
 21
-113.358317
 31
0.0
  0
LINE
  8
0
  6
BYLAYER
 62
     7
 10
514.728638
 20
-111.758311
 30
0.0
 11
490.120026
 21
-111.758311
 31
0.0
  0
LINE
  8
0
  6
BYLAYER
 62
     7
 10
490.120026
 20
-113.358317
 30
0.0
 11
514.728638
 21
-113.358317
 31
0.0
  0
LINE
  8
0
  6
BYLAYER
 62
     7
 10
456.728699
 20
-182.299540
 30
0.0
 11
451.228699
 21
-185.139109
 31
0.0
  0
LINE
  8
0
  6
BYLAYER
 62
     7
 10
451.228699
 20
-185.139109
 30
0.0
 11
454.730713
 21
-194.072154
 31
0.0
  0
ARC
  8
0
  6
BYLAYER
 62
     7
 10
456.592743
 20
-193.342173
 30
0.0
 40
2.000007
 50
201.406501
 51
270.000001
  0
LINE
  8
0
  6
BYLAYER
 62
     7
 10
451.228699
 20
-202.108348
 30
0.0
 11
447.728699
 21
-202.108348
 31
0.0
  0
LINE
  8
0
  6
BYLAYER
 62
     7
 10
451.228699
 20
-189.808451
 30
0.0
 11
454.821869
 21
-202.750010
 31
0.0
  0
ARC
  8
0
  6
BYLAYER
 62
     7
 10
456.748963
 20
-202.214945
 30
0.0
 40
2.000010
 50
195.517184
 51
270.000001
  0
LINE
  8
0
  6
BYLAYER
 62
     7
 10
451.228699
 20
-195.977244
 30
0.0
 11
454.796387
 21
-207.667613
 31
0.0
  0
ARC
  8
0
  6
BYLAYER
 62
     7
 10
456.709290
 20
-207.083842
 30
0.0
 40
1.999996
 50
196.971318
 51
270.000001
  0
LINE
  8
0
  6
BYLAYER
 62
     7
 10
451.228699
 20
-199.845072
 30
0.0
 11
454.779907
 21
-210.788218
 31
0.0
  0
ARC
  8
0
  6
BYLAYER
 62
     7
 10
456.682251
 20
-210.170878
 30
0.0
 40
2.000005
 50
197.979057
 51
270.000001
  0
ARC
  8
0
  6
BYLAYER
 62
     7
 10
456.118042
 20
-211.672007
 30
0.0
 40
2.000005
 50
197.979057
 51
270.000001
  0
LINE
  8
0
  6
BYLAYER
 62
     7
 10
454.215699
 20
-212.289347
 30
0.0
 11
450.911804
 21
-202.108348
 31
0.0
  0
LINE
  8
0
  6
BYLAYER
 62
     7
 10
549.228699
 20
-57.803233
 30
0.0
 11
593.763671
 21
-57.803233
 31
0.0
  0
LINE
  8
0
  6
BYLAYER
 62
     7
 10
549.228699
 20
-48.346171
 30
0.0
 11
593.763671
 21
-48.346171
 31
0.0
  0
LINE
  8
0
  6
BYLAYER
 62
     7
 10
549.228699
 20
-49.847331
 30
0.0
 11
593.763671
 21
-49.847331
 31
0.0
  0
LINE
  8
0
  6
BYLAYER
 62
     7
 10
447.728699
 20
-202.108348
 30
0.0
 11
447.728638
 21
-56.608346
 31
0.0
  0
LINE
  8
0
  6
BYLAYER
 62
     7
 10
549.228699
 20
-52.934336
 30
0.0
 11
593.763671
 21
-52.934336
 31
0.0
  0
LINE
  8
0
  6
BYLAYER
 62
     7
 10
527.228638
 20
-78.158274
 30
0.0
 11
593.763671
 21
-78.158274
 31
0.0
  0
LINE
  8
0
  6
BYLAYER
 62
     7
 10
527.228638
 20
-79.758250
 30
0.0
 11
593.763671
 21
-79.758250
 31
0.0
  0
LINE
  8
0
  6
BYLAYER
 62
     7
 10
527.228638
 20
-89.358348
 30
0.0
 11
593.763671
 21
-89.358185
 31
0.0
  0
LINE
  8
0
  6
BYLAYER
 62
     7
 10
527.228638
 20
-90.958323
 30
0.0
 11
593.763671
 21
-90.958323
 31
0.0
  0
LINE
  8
0
  6
BYLAYER
 62
     7
 10
527.228638
 20
-100.558299
 30
0.0
 11
593.763671
 21
-100.558299
 31
0.0
  0
LINE
  8
0
  6
BYLAYER
 62
     7
 10
527.228638
 20
-102.158274
 30
0.0
 11
593.763671
 21
-102.158274
 31
0.0
  0
LINE
  8
0
  6
BYLAYER
 62
     7
 10
545.120056
 20
-111.758280
 30
0.0
 11
593.763671
 21
-111.758280
 31
0.0
  0
LINE
  8
0
  6
BYLAYER
 62
     7
 10
545.120056
 20
-113.358286
 30
0.0
 11
593.763671
 21
-113.358286
 31
0.0
  0
LINE
  8
0
  6
BYLAYER
 62
     7
 10
527.228638
 20
-122.958323
 30
0.0
 11
593.763671
 21
-122.958283
 31
0.0
  0
LINE
  8
0
  6
BYLAYER
 62
     7
 10
527.228638
 20
-124.558329
 30
0.0
 11
593.763671
 21
-124.558289
 31
0.0
  0
LINE
  8
0
  6
BYLAYER
 62
     7
 10
527.228638
 20
-134.158335
 30
0.0
 11
593.763671
 21
-134.158295
 31
0.0
  0
LINE
  8
0
  6
BYLAYER
 62
     7
 10
527.228638
 20
-135.758341
 30
0.0
 11
593.763671
 21
-135.758301
 31
0.0
  0
LINE
  8
0
  6
BYLAYER
 62
     7
 10
527.228638
 20
-145.358317
 30
0.0
 11
593.763671
 21
-145.358276
 31
0.0
  0
LINE
  8
0
  6
BYLAYER
 62
     7
 10
527.228638
 20
-146.958323
 30
0.0
 11
593.763671
 21
-146.958283
 31
0.0
  0
LINE
  8
0
  6
BYLAYER
 62
     7
 10
527.228638
 20
-167.758311
 30
0.0
 11
593.763671
 21
-167.758270
 31
0.0
  0
LINE
  8
0
  6
BYLAYER
 62
     7
 10
527.228638
 20
-169.358317
 30
0.0
 11
593.763671
 21
-169.358276
 31
0.0
  0
LINE
  8
0
  6
BYLAYER
 62
     7
 10
527.228638
 20
-178.958323
 30
0.0
 11
593.763671
 21
-178.958283
 31
0.0
  0
LINE
  8
0
  6
BYLAYER
 62
     7
 10
452.028626
 20
-180.558299
 30
0.0
 11
593.763671
 21
-180.558299
 31
0.0
  0
LINE
  8
0
  6
BYLAYER
 62
     7
 10
456.728699
 20
-182.299540
 30
0.0
 11
593.763671
 21
-182.299540
 31
0.0
  0
LINE
  8
0
  6
BYLAYER
 62
     7
 10
456.592743
 20
-195.342173
 30
0.0
 11
593.763671
 21
-195.342173
 31
0.0
  0
LINE
  8
0
  6
BYLAYER
 62
     7
 10
456.748963
 20
-204.214945
 30
0.0
 11
593.763671
 21
-204.214945
 31
0.0
  0
LINE
  8
0
  6
BYLAYER
 62
     7
 10
456.709290
 20
-209.083842
 30
0.0
 11
593.763671
 21
-209.083842
 31
0.0
  0
LINE
  8
0
  6
BYLAYER
 62
     7
 10
456.682251
 20
-212.170878
 30
0.0
 11
593.763671
 21
-212.170878
 31
0.0
  0
LINE
  8
0
  6
BYLAYER
 62
     7
 10
456.118042
 20
-213.672007
 30
0.0
 11
593.763671
 21
-213.672007
 31
0.0
  0
LINE
  8
0
  6
BYLAYER
 62
     7
 10
593.763671
 20
-215.908317
 30
0.0
 11
593.763671
 21
-129.358362
 31
0.0
  0
LINE
  8
0
  6
BYLAYER
 62
     7
 10
683.763671
 20
-129.358362
 30
0.0
 11
683.763671
 21
-201.358317
 31
0.0
  0
LINE
  8
0
  6
BYLAYER
 62
     7
 10
683.763671
 20
-201.358317
 30
0.0
 11
669.213671
 21
-215.908317
 31
0.0
  0
LINE
  8
0
  6
BYLAYER
 62
     7
 10
669.213671
 20
-215.908317
 30
0.0
 11
593.763671
 21
-215.908317
 31
0.0
  0
LINE
  8
0
  6
BYLAYER
 62
     7
 10
593.763671
 20
-42.808407
 30
0.0
 11
593.763671
 21
-129.358362
 31
0.0
  0
LINE
  8
0
  6
BYLAYER
 62
     7
 10
683.763671
 20
-129.358362
 30
0.0
 11
683.763671
 21
-57.358407
 31
0.0
  0
LINE
  8
0
  6
BYLAYER
 62
     7
 10
683.763671
 20
-57.358407
 30
0.0
 11
669.213671
 21
-42.808407
 31
0.0
  0
LINE
  8
0
  6
BYLAYER
 62
     7
 10
669.213671
 20
-42.808407
 30
0.0
 11
593.763671
 21
-42.808407
 31
0.0
  0
LINE
  8
0
  6
BYLAYER
 62
     7
 10
445.228669
 20
-214.858362
 30
0.0
 11
435.711213
 21
-214.692224
 31
0.0
  0
ARC
  8
0
  6
BYLAYER
 62
     7
 10
435.728669
 20
-213.692377
 30
0.0
 40
1.000007
 50
180.000000
 51
269.000022
  0
LINE
  8
0
  6
BYLAYER
 62
     7
 10
445.228669
 20
-214.858362
 30
0.0
 11
445.228669
 21
-129.358362
 31
0.0
  0
LINE
  8
0
  6
BYLAYER
 62
     7
 10
447.728669
 20
-202.590901
 30
0.0
 11
445.228669
 21
-202.503595
 31
0.0
  0
LINE
  8
0
  6
BYLAYER
 62
     7
 10
434.728669
 20
-213.692377
 30
0.0
 11
434.728669
 21
-129.358362
 31
0.0
  0
ARC
  8
0
  6
BYLAYER
 62
     7
 10
433.728669
 20
-201.179590
 30
0.0
 40
1.000000
 50
0.0
 51
88.000038
  0
LINE
  8
0
  6
BYLAYER
 62
     7
 10
410.728669
 20
-199.375818
 30
0.0
 11
433.763581
 21
-200.180200
 31
0.0
  0
LINE
  8
0
  6
BYLAYER
 62
     7
 10
410.728669
 20
-129.358362
 30
0.0
 11
410.728669
 21
-199.375818
 31
0.0
  0
LINE
  8
0
  6
BYLAYER
 62
     7
 10
447.728669
 20
-202.590901
 30
0.0
 11
447.728669
 21
-129.358362
 31
0.0
  0
LINE
  8
0
  6
BYLAYER
 62
     7
 10
445.228669
 20
-43.858362
 30
0.0
 11
435.711213
 21
-44.024500
 31
0.0
  0
ARC
  8
0
  6
BYLAYER
 62
     7
 10
435.728669
 20
-45.024347
 30
0.0
 40
1.000007
 50
90.999983
 51
180.000005
  0
LINE
  8
0
  6
BYLAYER
 62
     7
 10
445.228669
 20
-43.858362
 30
0.0
 11
445.228669
 21
-129.358362
 31
0.0
  0
LINE
  8
0
  6
BYLAYER
 62
     7
 10
447.728669
 20
-56.125823
 30
0.0
 11
445.228669
 21
-56.213129
 31
0.0
  0
LINE
  8
0
  6
BYLAYER
 62
     7
 10
434.728669
 20
-45.024347
 30
0.0
 11
434.728669
 21
-129.358362
 31
0.0
  0
ARC
  8
0
  6
BYLAYER
 62
     7
 10
433.728669
 20
-57.537134
 30
0.0
 40
1.0
 50
271.999962
 51
360.000000
  0
LINE
  8
0
  6
BYLAYER
 62
     7
 10
410.728669
 20
-59.340906
 30
0.0
 11
433.763581
 21
-58.536524
 31
0.0
  0
LINE
  8
0
  6
BYLAYER
 62
     7
 10
410.728669
 20
-129.358362
 30
0.0
 11
410.728669
 21
-59.340906
 31
0.0
  0
LINE
  8
0
  6
BYLAYER
 62
     7
 10
447.728669
 20
-56.125823
 30
0.0
 11
447.728669
 21
-129.358362
 31
0.0
  0
LINE
  8
0
  6
BYLAYER
 62
     7
 10
543.728638
 20
-22.858317
 30
0.0
 11
543.728638
 21
-1.358317
 31
0.0
  0
ARC
  8
0
  6
BYLAYER
 62
     7
 10
545.228638
 20
-22.858317
 30
0.0
 40
1.500000
 50
180.000000
 51
270.000000
  0
ARC
  8
0
  6
BYLAYER
 62
     7
 10
542.228638
 20
-1.358317
 30
0.0
 40
1.500000
 50
0.0
 51
90.0
  0
LINE
  8
0
  6
BYLAYER
 62
     7
 10
456.728638
 20
-22.858317
 30
0.0
 11
456.728638
 21
-1.358317
 31
0.0
  0
ARC
  8
0
  6
BYLAYER
 62
     7
 10
455.228638
 20
-22.858317
 30
0.0
 40
1.500000
 50
270.0
 51
360.0
  0
ARC
  8
0
  6
BYLAYER
 62
     7
 10
458.228638
 20
-1.358317
 30
0.0
 40
1.500000
 50
90.0
 51
180.0
  0
LINE
  8
0
  6
BYLAYER
 62
     7
 10
458.228638
 20
0.141683
 30
0.0
 11
542.228638
 21
0.141683
 31
0.0
  0
LINE
  8
0
  6
BYLAYER
 62
     7
 10
462.100879
 20
-22.858317
 30
0.0
 11
462.100879
 21
-1.358317
 31
0.0
  0
ARC
  8
0
  6
BYLAYER
 62
     7
 10
460.600879
 20
-22.858317
 30
0.0
 40
1.500000
 50
270.0
 51
360.0
  0
ARC
  8
0
  6
BYLAYER
 62
     7
 10
463.600879
 20
-1.358317
 30
0.0
 40
1.500000
 50
90.0
 51
180.0
  0
LINE
  8
0
  6
BYLAYER
 62
     7
 10
538.356398
 20
-22.858317
 30
0.0
 11
538.356398
 21
-1.358317
 31
0.0
  0
ARC
  8
0
  6
BYLAYER
 62
     7
 10
539.856398
 20
-22.858317
 30
0.0
 40
1.500000
 50
180.000000
 51
270.000000
  0
ARC
  8
0
  6
BYLAYER
 62
     7
 10
536.856398
 20
-1.358317
 30
0.0
 40
1.500000
 50
0.0
 51
90.0
  0
LINE
  8
0
  6
BYLAYER
 62
     7
 10
500.228638
 20
-24.358317
 30
0.0
 11
547.728638
 21
-24.358317
 31
0.0
  0
ARC
  8
0
  6
BYLAYER
 62
     7
 10
547.728638
 20
-25.858317
 30
0.0
 40
1.500000
 50
0.0
 51
90.0
  0
LINE
  8
0
  6
BYLAYER
 62
     7
 10
549.228638
 20
-33.358317
 30
0.0
 11
549.228638
 21
-25.858317
 31
0.0
  0
LINE
  8
0
  6
BYLAYER
 62
     7
 10
452.728638
 20
-24.358317
 30
0.0
 11
500.228638
 21
-24.358317
 31
0.0
  0
ARC
  8
0
  6
BYLAYER
 62
     7
 10
452.728638
 20
-25.858317
 30
0.0
 40
1.500000
 50
90.0
 51
180.0
  0
LINE
  8
0
  6
BYLAYER
 62
     7
 10
451.228638
 20
-31.358317
 30
0.0
 11
451.228638
 21
-25.858317
 31
0.0
  0
LINE
  8
0
  6
BYLAYER
 62
     7
 10
549.228638
 20
-31.358317
 30
0.0
 11
451.228638
 21
-31.358317
 31
0.0
  0
LINE
  8
0
  6
BYLAYER
 62
     7
 10
451.228638
 20
-31.358317
 30
0.0
 11
451.228638
 21
-33.358317
 31
0.0
  0
LINE
  8
0
  6
BYLAYER
 62
     7
 10
451.228638
 20
-33.358317
 30
0.0
 11
549.228638
 21
-33.358317
 31
0.0
  0
LINE
  8
0
  6
BYLAYER
 62
     7
 10
669.213671
 20
-215.908317
 30
0.0
 11
669.213671
 21
-42.808407
 31
0.0
  0
LINE
  8
0
  6
BYLAYER
 62
     7
 10
527.228638
 20
-768.958323
 30
0.0
 11
452.028626
 21
-768.958323
 31
0.0
  0
ARC
  8
0
  6
BYLAYER
 62
     7
 10
452.028626
 20
-769.758311
 30
0.0
 40
0.800018
 50
90.0
 51
270.000012
  0
ARC
  8
0
  6
BYLAYER
 62
     7
 10
456.028626
 20
-769.758311
 30
0.0
 40
0.800018
 50
90.0
 51
270.000012
  0
LINE
  8
0
  6
BYLAYER
 62
     7
 10
451.228673
 20
-719.358362
 30
0.0
 11
451.228699
 21
-792.108317
 31
0.0
  0
LINE
  8
0
  6
BYLAYER
 62
     7
 10
549.228673
 20
-746.558314
 30
0.0
 11
593.763671
 21
-746.558283
 31
0.0
  0
LINE
  8
0
  6
BYLAYER
 62
     7
 10
549.228673
 20
-748.158320
 30
0.0
 11
593.763671
 21
-748.158289
 31
0.0
  0
LINE
  8
0
  6
BYLAYER
 62
     7
 10
456.728699
 20
-772.299540
 30
0.0
 11
451.228699
 21
-775.139109
 31
0.0
  0
LINE
  8
0
  6
BYLAYER
 62
     7
 10
451.228699
 20
-775.139109
 30
0.0
 11
454.730713
 21
-784.072154
 31
0.0
  0
ARC
  8
0
  6
BYLAYER
 62
     7
 10
456.592743
 20
-783.342173
 30
0.0
 40
2.000007
 50
201.406501
 51
270.000001
  0
LINE
  8
0
  6
BYLAYER
 62
     7
 10
451.228699
 20
-792.108348
 30
0.0
 11
447.728699
 21
-792.108348
 31
0.0
  0
LINE
  8
0
  6
BYLAYER
 62
     7
 10
451.228699
 20
-779.808451
 30
0.0
 11
454.821869
 21
-792.750010
 31
0.0
  0
ARC
  8
0
  6
BYLAYER
 62
     7
 10
456.748963
 20
-792.214945
 30
0.0
 40
2.000010
 50
195.517184
 51
270.000001
  0
LINE
  8
0
  6
BYLAYER
 62
     7
 10
451.228699
 20
-785.977244
 30
0.0
 11
454.796387
 21
-797.667613
 31
0.0
  0
ARC
  8
0
  6
BYLAYER
 62
     7
 10
456.709290
 20
-797.083842
 30
0.0
 40
1.999996
 50
196.971318
 51
270.000001
  0
LINE
  8
0
  6
BYLAYER
 62
     7
 10
451.228699
 20
-789.845072
 30
0.0
 11
454.779907
 21
-800.788218
 31
0.0
  0
ARC
  8
0
  6
BYLAYER
 62
     7
 10
456.682251
 20
-800.170878
 30
0.0
 40
2.000005
 50
197.979057
 51
270.000001
  0
ARC
  8
0
  6
BYLAYER
 62
     7
 10
456.118042
 20
-801.672007
 30
0.0
 40
2.000005
 50
197.979057
 51
270.000001
  0
LINE
  8
0
  6
BYLAYER
 62
     7
 10
454.215699
 20
-802.289347
 30
0.0
 11
450.911804
 21
-792.108348
 31
0.0
  0
LINE
  8
0
  6
BYLAYER
 62
     7
 10
447.728699
 20
-792.108348
 30
0.0
 11
447.728669
 21
-719.358362
 31
0.0
  0
LINE
  8
0
  6
BYLAYER
 62
     7
 10
549.228673
 20
-724.158322
 30
0.0
 11
593.763671
 21
-724.158295
 31
0.0
  0
LINE
  8
0
  6
BYLAYER
 62
     7
 10
549.228673
 20
-725.758328
 30
0.0
 11
593.763671
 21
-725.758301
 31
0.0
  0
LINE
  8
0
  6
BYLAYER
 62
     7
 10
549.228673
 20
-735.358304
 30
0.0
 11
593.763671
 21
-735.358276
 31
0.0
  0
LINE
  8
0
  6
BYLAYER
 62
     7
 10
549.228673
 20
-736.958310
 30
0.0
 11
593.763671
 21
-736.958283
 31
0.0
  0
LINE
  8
0
  6
BYLAYER
 62
     7
 10
549.228673
 20
-757.758298
 30
0.0
 11
593.763671
 21
-757.758270
 31
0.0
  0
LINE
  8
0
  6
BYLAYER
 62
     7
 10
549.228673
 20
-759.358304
 30
0.0
 11
593.763671
 21
-759.358276
 31
0.0
  0
LINE
  8
0
  6
BYLAYER
 62
     7
 10
527.228638
 20
-768.958323
 30
0.0
 11
593.763671
 21
-768.958283
 31
0.0
  0
LINE
  8
0
  6
BYLAYER
 62
     7
 10
452.028626
 20
-770.558299
 30
0.0
 11
593.763671
 21
-770.558299
 31
0.0
  0
LINE
  8
0
  6
BYLAYER
 62
     7
 10
456.728699
 20
-772.299540
 30
0.0
 11
593.763671
 21
-772.299540
 31
0.0
  0
LINE
  8
0
  6
BYLAYER
 62
     7
 10
456.592743
 20
-785.342173
 30
0.0
 11
593.763671
 21
-785.342173
 31
0.0
  0
LINE
  8
0
  6
BYLAYER
 62
     7
 10
456.748963
 20
-794.214945
 30
0.0
 11
593.763671
 21
-794.214945
 31
0.0
  0
LINE
  8
0
  6
BYLAYER
 62
     7
 10
456.709290
 20
-799.083842
 30
0.0
 11
593.763671
 21
-799.083842
 31
0.0
  0
LINE
  8
0
  6
BYLAYER
 62
     7
 10
456.682251
 20
-802.170878
 30
0.0
 11
593.763671
 21
-802.170878
 31
0.0
  0
LINE
  8
0
  6
BYLAYER
 62
     7
 10
456.118042
 20
-803.672007
 30
0.0
 11
593.763671
 21
-803.672007
 31
0.0
  0
LINE
  8
0
  6
BYLAYER
 62
     7
 10
593.763671
 20
-805.908317
 30
0.0
 11
593.763671
 21
-719.358362
 31
0.0
  0
LINE
  8
0
  6
BYLAYER
 62
     7
 10
683.763671
 20
-719.358362
 30
0.0
 11
683.763671
 21
-791.358317
 31
0.0
  0
LINE
  8
0
  6
BYLAYER
 62
     7
 10
683.763671
 20
-791.358317
 30
0.0
 11
669.213671
 21
-805.908317
 31
0.0
  0
LINE
  8
0
  6
BYLAYER
 62
     7
 10
669.213671
 20
-805.908317
 30
0.0
 11
593.763671
 21
-805.908317
 31
0.0
  0
LINE
  8
0
  6
BYLAYER
 62
     7
 10
464.077142
 20
-762.858362
 30
0.0
 11
500.228673
 21
-762.858362
 31
0.0
  0
ARC
  8
0
  6
BYLAYER
 62
     7
 10
464.077142
 20
-761.358362
 30
0.0
 40
1.500000
 50
191.536959
 51
270.000000
  0
LINE
  8
0
  6
BYLAYER
 62
     7
 10
456.728673
 20
-719.358362
 30
0.0
 11
456.728673
 21
-755.509893
 31
0.0
  0
LINE
  8
0
  6
BYLAYER
 62
     7
 10
500.228673
 20
-762.858362
 30
0.0
 11
536.380204
 21
-762.858362
 31
0.0
  0
LINE
  8
0
  6
BYLAYER
 62
     7
 10
543.728673
 20
-755.509893
 30
0.0
 11
543.728673
 21
-719.358362
 31
0.0
  0
LINE
  8
0
  6
BYLAYER
 62
     7
 10
470.833372
 20
-731.959468
 30
0.0
 11
456.728673
 21
-732.452015
 31
0.0
  0
ARC
  8
0
  6
BYLAYER
 62
     7
 10
470.728673
 20
-728.961296
 30
0.0
 40
3.0
 50
272.000000
 51
360.000000
  0
LINE
  8
0
  6
BYLAYER
 62
     7
 10
470.833372
 20
-746.959468
 30
0.0
 11
456.728673
 21
-747.452015
 31
0.0
  0
ARC
  8
0
  6
BYLAYER
 62
     7
 10
470.728673
 20
-743.961296
 30
0.0
 40
3.000000
 50
272.0
 51
360.0
  0
LINE
  8
0
  6
BYLAYER
 62
     7
 10
456.728673
 20
-736.264709
 30
0.0
 11
470.833372
 21
-736.757256
 31
0.0
  0
ARC
  8
0
  6
BYLAYER
 62
     7
 10
470.728673
 20
-739.755428
 30
0.0
 40
3.000000
 50
0.0
 51
88.0
  0
LINE
  8
0
  6
BYLAYER
 62
     7
 10
456.728673
 20
-721.264709
 30
0.0
 11
470.833372
 21
-721.757256
 31
0.0
  0
ARC
  8
0
  6
BYLAYER
 62
     7
 10
470.728673
 20
-724.755428
 30
0.0
 40
3.000000
 50
0.0
 51
88.0
  0
LINE
  8
0
  6
BYLAYER
 62
     7
 10
473.728673
 20
-739.755428
 30
0.0
 11
473.728673
 21
-743.961296
 31
0.0
  0
LINE
  8
0
  6
BYLAYER
 62
     7
 10
473.728673
 20
-724.755428
 30
0.0
 11
473.728673
 21
-728.961296
 31
0.0
  0
LINE
  8
0
  6
BYLAYER
 62
     7
 10
457.728673
 20
-721.299630
 30
0.0
 11
457.728673
 21
-732.417094
 31
0.0
  0
LINE
  8
0
  6
BYLAYER
 62
     7
 10
457.728673
 20
-736.299630
 30
0.0
 11
457.728673
 21
-747.417094
 31
0.0
  0
LINE
  8
0
  6
BYLAYER
 62
     7
 10
529.623975
 20
-731.959468
 30
0.0
 11
543.728673
 21
-732.452015
 31
0.0
  0
ARC
  8
0
  6
BYLAYER
 62
     7
 10
529.728673
 20
-728.961296
 30
0.0
 40
3.0
 50
180.000000
 51
268.000000
  0
LINE
  8
0
  6
BYLAYER
 62
     7
 10
529.623975
 20
-746.959468
 30
0.0
 11
543.728673
 21
-747.452015
 31
0.0
  0
ARC
  8
0
  6
BYLAYER
 62
     7
 10
529.728673
 20
-743.961296
 30
0.0
 40
3.0
 50
180.000000
 51
268.000000
  0
LINE
  8
0
  6
BYLAYER
 62
     7
 10
543.728673
 20
-736.264709
 30
0.0
 11
529.623975
 21
-736.757256
 31
0.0
  0
ARC
  8
0
  6
BYLAYER
 62
     7
 10
529.728673
 20
-739.755428
 30
0.0
 40
3.0
 50
92.000000
 51
180.000000
  0
LINE
  8
0
  6
BYLAYER
 62
     7
 10
543.728673
 20
-721.264709
 30
0.0
 11
529.623975
 21
-721.757256
 31
0.0
  0
ARC
  8
0
  6
BYLAYER
 62
     7
 10
529.728673
 20
-724.755428
 30
0.0
 40
3.0
 50
92.000000
 51
180.000000
  0
LINE
  8
0
  6
BYLAYER
 62
     7
 10
526.728673
 20
-739.755428
 30
0.0
 11
526.728673
 21
-743.961296
 31
0.0
  0
LINE
  8
0
  6
BYLAYER
 62
     7
 10
526.728673
 20
-724.755428
 30
0.0
 11
526.728673
 21
-728.961296
 31
0.0
  0
LINE
  8
0
  6
BYLAYER
 62
     7
 10
542.728673
 20
-721.299630
 30
0.0
 11
542.728673
 21
-732.417094
 31
0.0
  0
LINE
  8
0
  6
BYLAYER
 62
     7
 10
542.728673
 20
-736.299630
 30
0.0
 11
542.728673
 21
-747.417094
 31
0.0
  0
LINE
  8
0
  6
BYLAYER
 62
     7
 10
487.228673
 20
-749.358362
 30
0.0
 11
513.228673
 21
-749.358362
 31
0.0
  0
ARC
  8
0
  6
BYLAYER
 62
     7
 10
513.228673
 20
-746.358362
 30
0.0
 40
3.0
 50
270.0
 51
360.0
  0
ARC
  8
0
  6
BYLAYER
 62
     7
 10
487.228673
 20
-746.358362
 30
0.0
 40
3.0
 50
180.000000
 51
270.000000
  0
LINE
  8
0
  6
BYLAYER
 62
     7
 10
484.228673
 20
-719.358362
 30
0.0
 11
484.228673
 21
-746.358362
 31
0.0
  0
LINE
  8
0
  6
BYLAYER
 62
     7
 10
516.228673
 20
-746.358362
 30
0.0
 11
516.228673
 21
-719.358362
 31
0.0
  0
ARC
  8
0
  6
BYLAYER
 62
     7
 10
456.728673
 20
-762.858362
 30
0.0
 40
6.0
 50
11.536959
 51
78.463041
  0
ARC
  8
0
  6
BYLAYER
 62
     7
 10
458.228673
 20
-755.509893
 30
0.0
 40
1.5
 50
180.000000
 51
258.463041
  0
ARC
  8
0
  6
BYLAYER
 62
     7
 10
543.728673
 20
-762.858362
 30
0.0
 40
6.0
 50
101.536959
 51
168.463041
  0
ARC
  8
0
  6
BYLAYER
 62
     7
 10
542.228673
 20
-755.509893
 30
0.0
 40
1.5
 50
281.536959
 51
360.000000
  0
ARC
  8
0
  6
BYLAYER
 62
     7
 10
536.380204
 20
-761.358362
 30
0.0
 40
1.5
 50
270.0
 51
348.463041
  0
LINE
  8
0
  6
BYLAYER
 62
     7
 10
451.228673
 20
-719.358362
 30
0.0
 11
451.228673
 21
-766.858362
 31
0.0
  0
LINE
  8
0
  6
BYLAYER
 62
     7
 10
452.728673
 20
-768.358362
 30
0.0
 11
547.728673
 21
-768.358362
 31
0.0
  0
ARC
  8
0
  6
BYLAYER
 62
     7
 10
452.728673
 20
-766.858362
 30
0.0
 40
1.5
 50
180.000000
 51
270.000000
  0
LINE
  8
0
  6
BYLAYER
 62
     7
 10
549.228673
 20
-766.858362
 30
0.0
 11
549.228673
 21
-719.358362
 31
0.0
  0
ARC
  8
0
  6
BYLAYER
 62
     7
 10
547.728673
 20
-766.858362
 30
0.0
 40
1.5
 50
270.0
 51
360.0
  0
LINE
  8
0
  6
BYLAYER
 62
     7
 10
527.228638
 20
-669.758401
 30
0.0
 11
452.028626
 21
-669.758401
 31
0.0
  0
ARC
  8
0
  6
BYLAYER
 62
     7
 10
452.028626
 20
-668.958413
 30
0.0
 40
0.800018
 50
90.0
 51
270.000012
  0
ARC
  8
0
  6
BYLAYER
 62
     7
 10
456.028626
 20
-668.958413
 30
0.0
 40
0.800018
 50
90.0
 51
270.000012
  0
LINE
  8
0
  6
BYLAYER
 62
     7
 10
451.228673
 20
-719.358362
 30
0.0
 11
451.228699
 21
-646.608407
 31
0.0
  0
LINE
  8
0
  6
BYLAYER
 62
     7
 10
549.228673
 20
-692.158410
 30
0.0
 11
593.763671
 21
-692.158441
 31
0.0
  0
LINE
  8
0
  6
BYLAYER
 62
     7
 10
549.228673
 20
-690.558404
 30
0.0
 11
593.763671
 21
-690.558435
 31
0.0
  0
LINE
  8
0
  6
BYLAYER
 62
     7
 10
456.728699
 20
-666.417184
 30
0.0
 11
451.228699
 21
-663.577615
 31
0.0
  0
LINE
  8
0
  6
BYLAYER
 62
     7
 10
451.228699
 20
-663.577615
 30
0.0
 11
454.730713
 21
-654.644570
 31
0.0
  0
ARC
  8
0
  6
BYLAYER
 62
     7
 10
456.592743
 20
-655.374551
 30
0.0
 40
2.000007
 50
90.0
 51
158.593500
  0
LINE
  8
0
  6
BYLAYER
 62
     7
 10
451.228699
 20
-646.608376
 30
0.0
 11
447.728699
 21
-646.608376
 31
0.0
  0
LINE
  8
0
  6
BYLAYER
 62
     7
 10
451.228699
 20
-658.908273
 30
0.0
 11
454.821869
 21
-645.966714
 31
0.0
  0
ARC
  8
0
  6
BYLAYER
 62
     7
 10
456.748963
 20
-646.501779
 30
0.0
 40
2.000010
 50
90.0
 51
164.482817
  0
LINE
  8
0
  6
BYLAYER
 62
     7
 10
451.228699
 20
-652.739480
 30
0.0
 11
454.796387
 21
-641.049111
 31
0.0
  0
ARC
  8
0
  6
BYLAYER
 62
     7
 10
456.709290
 20
-641.632882
 30
0.0
 40
1.999996
 50
90.0
 51
163.028683
  0
LINE
  8
0
  6
BYLAYER
 62
     7
 10
451.228699
 20
-648.871652
 30
0.0
 11
454.779907
 21
-637.928506
 31
0.0
  0
ARC
  8
0
  6
BYLAYER
 62
     7
 10
456.682251
 20
-638.545846
 30
0.0
 40
2.000005
 50
90.0
 51
162.020944
  0
ARC
  8
0
  6
BYLAYER
 62
     7
 10
456.118042
 20
-637.044717
 30
0.0
 40
2.000005
 50
90.0
 51
162.020944
  0
LINE
  8
0
  6
BYLAYER
 62
     7
 10
454.215699
 20
-636.427377
 30
0.0
 11
450.911804
 21
-646.608376
 31
0.0
  0
LINE
  8
0
  6
BYLAYER
 62
     7
 10
447.728699
 20
-646.608376
 30
0.0
 11
447.728669
 21
-719.358362
 31
0.0
  0
LINE
  8
0
  6
BYLAYER
 62
     7
 10
549.228673
 20
-714.558402
 30
0.0
 11
593.763671
 21
-714.558429
 31
0.0
  0
LINE
  8
0
  6
BYLAYER
 62
     7
 10
549.228673
 20
-712.958396
 30
0.0
 11
593.763671
 21
-712.958423
 31
0.0
  0
LINE
  8
0
  6
BYLAYER
 62
     7
 10
549.228673
 20
-703.358420
 30
0.0
 11
593.763671
 21
-703.358448
 31
0.0
  0
LINE
  8
0
  6
BYLAYER
 62
     7
 10
549.228673
 20
-701.758414
 30
0.0
 11
593.763671
 21
-701.758441
 31
0.0
  0
LINE
  8
0
  6
BYLAYER
 62
     7
 10
549.228673
 20
-680.958426
 30
0.0
 11
593.763671
 21
-680.958454
 31
0.0
  0
LINE
  8
0
  6
BYLAYER
 62
     7
 10
549.228673
 20
-679.358420
 30
0.0
 11
593.763671
 21
-679.358448
 31
0.0
  0
LINE
  8
0
  6
BYLAYER
 62
     7
 10
527.228638
 20
-669.758401
 30
0.0
 11
593.763671
 21
-669.758441
 31
0.0
  0
LINE
  8
0
  6
BYLAYER
 62
     7
 10
452.028626
 20
-668.158425
 30
0.0
 11
593.763671
 21
-668.158425
 31
0.0
  0
LINE
  8
0
  6
BYLAYER
 62
     7
 10
456.728699
 20
-666.417184
 30
0.0
 11
593.763671
 21
-666.417184
 31
0.0
  0
LINE
  8
0
  6
BYLAYER
 62
     7
 10
456.592743
 20
-653.374551
 30
0.0
 11
593.763671
 21
-653.374551
 31
0.0
  0
LINE
  8
0
  6
BYLAYER
 62
     7
 10
456.748963
 20
-644.501779
 30
0.0
 11
593.763671
 21
-644.501779
 31
0.0
  0
LINE
  8
0
  6
BYLAYER
 62
     7
 10
456.709290
 20
-639.632882
 30
0.0
 11
593.763671
 21
-639.632882
 31
0.0
  0
LINE
  8
0
  6
BYLAYER
 62
     7
 10
456.682251
 20
-636.545846
 30
0.0
 11
593.763671
 21
-636.545846
 31
0.0
  0
LINE
  8
0
  6
BYLAYER
 62
     7
 10
456.118042
 20
-635.044717
 30
0.0
 11
593.763671
 21
-635.044717
 31
0.0
  0
LINE
  8
0
  6
BYLAYER
 62
     7
 10
593.763671
 20
-632.808407
 30
0.0
 11
593.763671
 21
-719.358362
 31
0.0
  0
LINE
  8
0
  6
BYLAYER
 62
     7
 10
683.763671
 20
-719.358362
 30
0.0
 11
683.763671
 21
-647.358407
 31
0.0
  0
LINE
  8
0
  6
BYLAYER
 62
     7
 10
683.763671
 20
-647.358407
 30
0.0
 11
669.213671
 21
-632.808407
 31
0.0
  0
LINE
  8
0
  6
BYLAYER
 62
     7
 10
669.213671
 20
-632.808407
 30
0.0
 11
593.763671
 21
-632.808407
 31
0.0
  0
LINE
  8
0
  6
BYLAYER
 62
     7
 10
464.077142
 20
-675.858362
 30
0.0
 11
500.228673
 21
-675.858362
 31
0.0
  0
ARC
  8
0
  6
BYLAYER
 62
     7
 10
464.077142
 20
-677.358362
 30
0.0
 40
1.5
 50
90.0
 51
168.463041
  0
LINE
  8
0
  6
BYLAYER
 62
     7
 10
456.728673
 20
-719.358362
 30
0.0
 11
456.728673
 21
-683.206831
 31
0.0
  0
LINE
  8
0
  6
BYLAYER
 62
     7
 10
500.228673
 20
-675.858362
 30
0.0
 11
536.380204
 21
-675.858362
 31
0.0
  0
LINE
  8
0
  6
BYLAYER
 62
     7
 10
543.728673
 20
-683.206831
 30
0.0
 11
543.728673
 21
-719.358362
 31
0.0
  0
LINE
  8
0
  6
BYLAYER
 62
     7
 10
470.833372
 20
-706.757256
 30
0.0
 11
456.728673
 21
-706.264709
 31
0.0
  0
ARC
  8
0
  6
BYLAYER
 62
     7
 10
470.728673
 20
-709.755428
 30
0.0
 40
3.000000
 50
0.0
 51
88.0
  0
LINE
  8
0
  6
BYLAYER
 62
     7
 10
470.833372
 20
-691.757256
 30
0.0
 11
456.728673
 21
-691.264709
 31
0.0
  0
ARC
  8
0
  6
BYLAYER
 62
     7
 10
470.728673
 20
-694.755428
 30
0.0
 40
3.000000
 50
0.0
 51
88.0
  0
LINE
  8
0
  6
BYLAYER
 62
     7
 10
456.728673
 20
-702.452015
 30
0.0
 11
470.833372
 21
-701.959468
 31
0.0
  0
ARC
  8
0
  6
BYLAYER
 62
     7
 10
470.728673
 20
-698.961296
 30
0.0
 40
3.000000
 50
272.000000
 51
360.000000
  0
LINE
  8
0
  6
BYLAYER
 62
     7
 10
456.728673
 20
-717.452015
 30
0.0
 11
470.833372
 21
-716.959468
 31
0.0
  0
ARC
  8
0
  6
BYLAYER
 62
     7
 10
470.728673
 20
-713.961296
 30
0.0
 40
3.000000
 50
272.000000
 51
360.000000
  0
LINE
  8
0
  6
BYLAYER
 62
     7
 10
473.728673
 20
-698.961296
 30
0.0
 11
473.728673
 21
-694.755428
 31
0.0
  0
LINE
  8
0
  6
BYLAYER
 62
     7
 10
473.728673
 20
-713.961296
 30
0.0
 11
473.728673
 21
-709.755428
 31
0.0
  0
LINE
  8
0
  6
BYLAYER
 62
     7
 10
457.728673
 20
-717.417094
 30
0.0
 11
457.728673
 21
-706.299630
 31
0.0
  0
LINE
  8
0
  6
BYLAYER
 62
     7
 10
457.728673
 20
-702.417094
 30
0.0
 11
457.728673
 21
-691.299630
 31
0.0
  0
LINE
  8
0
  6
BYLAYER
 62
     7
 10
529.623975
 20
-706.757256
 30
0.0
 11
543.728673
 21
-706.264709
 31
0.0
  0
ARC
  8
0
  6
BYLAYER
 62
     7
 10
529.728673
 20
-709.755428
 30
0.0
 40
3.0
 50
92.000000
 51
180.000000
  0
LINE
  8
0
  6
BYLAYER
 62
     7
 10
529.623975
 20
-691.757256
 30
0.0
 11
543.728673
 21
-691.264709
 31
0.0
  0
ARC
  8
0
  6
BYLAYER
 62
     7
 10
529.728673
 20
-694.755428
 30
0.0
 40
3.0
 50
92.000000
 51
180.000000
  0
LINE
  8
0
  6
BYLAYER
 62
     7
 10
543.728673
 20
-702.452015
 30
0.0
 11
529.623975
 21
-701.959468
 31
0.0
  0
ARC
  8
0
  6
BYLAYER
 62
     7
 10
529.728673
 20
-698.961296
 30
0.0
 40
3.0
 50
180.000000
 51
268.000000
  0
LINE
  8
0
  6
BYLAYER
 62
     7
 10
543.728673
 20
-717.452015
 30
0.0
 11
529.623975
 21
-716.959468
 31
0.0
  0
ARC
  8
0
  6
BYLAYER
 62
     7
 10
529.728673
 20
-713.961296
 30
0.0
 40
3.0
 50
180.000000
 51
268.000000
  0
LINE
  8
0
  6
BYLAYER
 62
     7
 10
526.728673
 20
-698.961296
 30
0.0
 11
526.728673
 21
-694.755428
 31
0.0
  0
LINE
  8
0
  6
BYLAYER
 62
     7
 10
526.728673
 20
-713.961296
 30
0.0
 11
526.728673
 21
-709.755428
 31
0.0
  0
LINE
  8
0
  6
BYLAYER
 62
     7
 10
542.728673
 20
-717.417094
 30
0.0
 11
542.728673
 21
-706.299630
 31
0.0
  0
LINE
  8
0
  6
BYLAYER
 62
     7
 10
542.728673
 20
-702.417094
 30
0.0
 11
542.728673
 21
-691.299630
 31
0.0
  0
LINE
  8
0
  6
BYLAYER
 62
     7
 10
487.228673
 20
-689.358362
 30
0.0
 11
513.228673
 21
-689.358362
 31
0.0
  0
ARC
  8
0
  6
BYLAYER
 62
     7
 10
513.228673
 20
-692.358362
 30
0.0
 40
3.0
 50
0.0
 51
90.0
  0
ARC
  8
0
  6
BYLAYER
 62
     7
 10
487.228673
 20
-692.358362
 30
0.0
 40
3.0
 50
90.0
 51
180.0
  0
LINE
  8
0
  6
BYLAYER
 62
     7
 10
484.228673
 20
-719.358362
 30
0.0
 11
484.228673
 21
-692.358362
 31
0.0
  0
LINE
  8
0
  6
BYLAYER
 62
     7
 10
516.228673
 20
-692.358362
 30
0.0
 11
516.228673
 21
-719.358362
 31
0.0
  0
ARC
  8
0
  6
BYLAYER
 62
     7
 10
456.728673
 20
-675.858362
 30
0.0
 40
6.0
 50
281.536959
 51
348.463041
  0
ARC
  8
0
  6
BYLAYER
 62
     7
 10
458.228673
 20
-683.206831
 30
0.0
 40
1.5
 50
101.536959
 51
180.000000
  0
ARC
  8
0
  6
BYLAYER
 62
     7
 10
543.728673
 20
-675.858362
 30
0.0
 40
6.0
 50
191.536959
 51
258.463041
  0
ARC
  8
0
  6
BYLAYER
 62
     7
 10
542.228673
 20
-683.206831
 30
0.0
 40
1.5
 50
0.0
 51
78.463041
  0
ARC
  8
0
  6
BYLAYER
 62
     7
 10
536.380204
 20
-677.358362
 30
0.0
 40
1.5
 50
11.536959
 51
90.000000
  0
LINE
  8
0
  6
BYLAYER
 62
     7
 10
451.228673
 20
-719.358362
 30
0.0
 11
451.228673
 21
-671.858362
 31
0.0
  0
LINE
  8
0
  6
BYLAYER
 62
     7
 10
452.728673
 20
-670.358362
 30
0.0
 11
547.728673
 21
-670.358362
 31
0.0
  0
ARC
  8
0
  6
BYLAYER
 62
     7
 10
452.728673
 20
-671.858362
 30
0.0
 40
1.5
 50
90.0
 51
180.0
  0
LINE
  8
0
  6
BYLAYER
 62
     7
 10
549.228673
 20
-671.858362
 30
0.0
 11
549.228673
 21
-719.358362
 31
0.0
  0
ARC
  8
0
  6
BYLAYER
 62
     7
 10
547.728673
 20
-671.858362
 30
0.0
 40
1.5
 50
0.0
 51
90.0
  0
LINE
  8
0
  6
BYLAYER
 62
     7
 10
445.228669
 20
-804.858362
 30
0.0
 11
435.711213
 21
-804.692224
 31
0.0
  0
ARC
  8
0
  6
BYLAYER
 62
     7
 10
435.728669
 20
-803.692377
 30
0.0
 40
1.000007
 50
180.000000
 51
269.000022
  0
LINE
  8
0
  6
BYLAYER
 62
     7
 10
445.228669
 20
-804.858362
 30
0.0
 11
445.228669
 21
-719.358362
 31
0.0
  0
LINE
  8
0
  6
BYLAYER
 62
     7
 10
447.728669
 20
-792.590901
 30
0.0
 11
445.228669
 21
-792.503595
 31
0.0
  0
LINE
  8
0
  6
BYLAYER
 62
     7
 10
434.728669
 20
-803.692377
 30
0.0
 11
434.728669
 21
-719.358362
 31
0.0
  0
ARC
  8
0
  6
BYLAYER
 62
     7
 10
433.728669
 20
-791.179590
 30
0.0
 40
1.0
 50
0.0
 51
88.000038
  0
LINE
  8
0
  6
BYLAYER
 62
     7
 10
410.728669
 20
-789.375818
 30
0.0
 11
433.763581
 21
-790.180200
 31
0.0
  0
LINE
  8
0
  6
BYLAYER
 62
     7
 10
410.728669
 20
-719.358362
 30
0.0
 11
410.728669
 21
-789.375818
 31
0.0
  0
LINE
  8
0
  6
BYLAYER
 62
     7
 10
447.728669
 20
-792.590901
 30
0.0
 11
447.728669
 21
-719.358362
 31
0.0
  0
LINE
  8
0
  6
BYLAYER
 62
     7
 10
445.228669
 20
-633.858362
 30
0.0
 11
435.711213
 21
-634.024500
 31
0.0
  0
ARC
  8
0
  6
BYLAYER
 62
     7
 10
435.728669
 20
-635.024347
 30
0.0
 40
1.000007
 50
90.999983
 51
180.000005
  0
LINE
  8
0
  6
BYLAYER
 62
     7
 10
445.228669
 20
-633.858362
 30
0.0
 11
445.228669
 21
-719.358362
 31
0.0
  0
LINE
  8
0
  6
BYLAYER
 62
     7
 10
447.728669
 20
-646.125823
 30
0.0
 11
445.228669
 21
-646.213129
 31
0.0
  0
LINE
  8
0
  6
BYLAYER
 62
     7
 10
434.728669
 20
-635.024347
 30
0.0
 11
434.728669
 21
-719.358362
 31
0.0
  0
ARC
  8
0
  6
BYLAYER
 62
     7
 10
433.728669
 20
-647.537134
 30
0.0
 40
1.0
 50
271.999962
 51
360.000000
  0
LINE
  8
0
  6
BYLAYER
 62
     7
 10
410.728669
 20
-649.340906
 30
0.0
 11
433.763581
 21
-648.536524
 31
0.0
  0
LINE
  8
0
  6
BYLAYER
 62
     7
 10
410.728669
 20
-719.358362
 30
0.0
 11
410.728669
 21
-649.340906
 31
0.0
  0
LINE
  8
0
  6
BYLAYER
 62
     7
 10
447.728669
 20
-646.125823
 30
0.0
 11
447.728669
 21
-719.358362
 31
0.0
  0
LINE
  8
0
  6
BYLAYER
 62
     7
 10
669.213671
 20
-632.808407
 30
0.0
 11
669.213671
 21
-805.908317
 31
0.0
  0
LINE
  8
0
  6
BYLAYER
 62
     1
 10
334.228608
 20
-84.358362
 30
0.0
 11
332.728608
 21
-85.858362
 31
0.0
  0
LINE
  8
0
  6
BYLAYER
 62
     1
 10
384.228608
 20
-85.858362
 30
0.0
 11
382.728608
 21
-84.358362
 31
0.0
  0
LINE
  8
0
  6
BYLAYER
 62
     1
 10
228.228669
 20
-84.358362
 30
0.0
 11
229.728669
 21
-85.858362
 31
0.0
  0
LINE
  8
0
  6
BYLAYER
 62
     1
 10
178.228669
 20
-85.858362
 30
0.0
 11
179.728669
 21
-84.358362
 31
0.0
  0
LINE
  8
0
  6
BYLAYER
 62
     1
 10
384.228608
 20
-272.358362
 30
0.0
 11
382.728608
 21
-270.858362
 31
0.0
  0
LINE
  8
0
  6
BYLAYER
 62
     1
 10
334.228608
 20
-322.358362
 30
0.0
 11
332.728608
 21
-320.858301
 31
0.0
  0
LINE
  8
0
  6
BYLAYER
 62
     1
 10
178.228669
 20
-272.358362
 30
0.0
 11
179.728669
 21
-270.858362
 31
0.0
  0
LINE
  8
0
  6
BYLAYER
 62
     1
 10
228.228669
 20
-322.358362
 30
0.0
 11
229.728669
 21
-320.858301
 31
0.0
  0
LINE
  8
0
  6
BYLAYER
 62
     1
 10
332.728608
 20
-320.858301
 30
0.0
 11
229.728669
 21
-320.858301
 31
0.0
  0
LINE
  8
0
  6
BYLAYER
 62
     1
 10
384.228608
 20
-320.858362
 30
0.0
 11
382.728608
 21
-322.358362
 31
0.0
  0
LINE
  8
0
  6
BYLAYER
 62
     1
 10
178.228669
 20
-320.858362
 30
0.0
 11
179.728669
 21
-322.358362
 31
0.0
  0
LINE
  8
0
  6
BYLAYER
 62
     1
 10
229.728669
 20
-85.858362
 30
0.0
 11
332.728608
 21
-85.858362
 31
0.0
  0
LINE
  8
0
  6
BYLAYER
 62
     1
 10
384.228608
 20
-134.358362
 30
0.0
 11
382.728608
 21
-135.858362
 31
0.0
  0
LINE
  8
0
  6
BYLAYER
 62
     1
 10
384.228608
 20
-134.358362
 30
0.0
 11
384.228608
 21
-85.858362
 31
0.0
  0
LINE
  8
0
  6
BYLAYER
 62
     1
 10
178.228669
 20
-134.358362
 30
0.0
 11
179.728669
 21
-135.858362
 31
0.0
  0
LINE
  8
0
  6
BYLAYER
 62
     1
 10
179.728669
 20
-270.858362
 30
0.0
 11
179.728669
 21
-135.858362
 31
0.0
  0
LINE
  8
0
  6
BYLAYER
 62
     1
 10
178.228669
 20
-165.358362
 30
0.0
 11
179.728669
 21
-165.410730
 31
0.0
  0
ARC
  8
0
  6
BYLAYER
 62
     1
 10
371.228608
 20
-97.358362
 30
0.0
 40
2.0
 50
0.0
 51
90.000016
  0
LINE
  8
0
  6
BYLAYER
 62
     1
 10
191.228669
 20
-95.358362
 30
0.0
 11
371.228608
 21
-95.358362
 31
0.0
  0
ARC
  8
0
  6
BYLAYER
 62
     1
 10
191.228669
 20
-97.358362
 30
0.0
 40
2.000000
 50
90.0
 51
180.000009
  0
ARC
  8
0
  6
BYLAYER
 62
     1
 10
191.228669
 20
-309.358362
 30
0.0
 40
2.000000
 50
180.000000
 51
269.999996
  0
ARC
  8
0
  6
BYLAYER
 62
     1
 10
371.228608
 20
-309.358423
 30
0.0
 40
2.0
 50
270.0
 51
359.999982
  0
LINE
  8
0
  6
BYLAYER
 62
     1
 10
384.228608
 20
-272.358362
 30
0.0
 11
373.228608
 21
-272.358362
 31
0.0
  0
LINE
  8
0
  6
BYLAYER
 62
     1
 10
384.228608
 20
-134.358362
 30
0.0
 11
373.228608
 21
-134.358362
 31
0.0
  0
LINE
  8
0
  6
BYLAYER
 62
     1
 10
178.228669
 20
-134.358362
 30
0.0
 11
189.228669
 21
-134.358362
 31
0.0
  0
LINE
  8
0
  6
BYLAYER
 62
     1
 10
178.228669
 20
-272.358362
 30
0.0
 11
189.228669
 21
-272.358362
 31
0.0
  0
LINE
  8
0
  6
BYLAYER
 62
     1
 10
334.228608
 20
-322.358362
 30
0.0
 11
334.228608
 21
-311.358423
 31
0.0
  0
LINE
  8
0
  6
BYLAYER
 62
     1
 10
228.228669
 20
-322.358362
 30
0.0
 11
228.228669
 21
-311.358423
 31
0.0
  0
LINE
  8
0
  6
BYLAYER
 62
     1
 10
334.228608
 20
-84.358362
 30
0.0
 11
334.228608
 21
-95.358301
 31
0.0
  0
LINE
  8
0
  6
BYLAYER
 62
     1
 10
332.728608
 20
-85.858423
 30
0.0
 11
332.728608
 21
-95.358301
 31
0.0
  0
LINE
  8
0
  6
BYLAYER
 62
     1
 10
229.728669
 20
-85.858423
 30
0.0
 11
229.728669
 21
-95.358301
 31
0.0
  0
LINE
  8
0
  6
BYLAYER
 62
     1
 10
228.228669
 20
-84.358362
 30
0.0
 11
228.228669
 21
-95.358301
 31
0.0
  0
LINE
  8
0
  6
BYLAYER
 62
     1
 10
386.228608
 20
-170.999353
 30
0.0
 11
382.728608
 21
-171.121607
 31
0.0
  0
LINE
  8
0
  6
BYLAYER
 62
     1
 10
382.728608
 20
-159.065515
 30
0.0
 11
386.228608
 21
-159.065515
 31
0.0
  0
LINE
  8
0
  6
BYLAYER
 62
     1
 10
382.728608
 20
-136.358362
 30
0.0
 11
386.228608
 21
-136.358362
 31
0.0
  0
LINE
  8
0
  6
BYLAYER
 62
     1
 10
386.228608
 20
-87.717371
 30
0.0
 11
384.228608
 21
-87.647486
 31
0.0
  0
LINE
  8
0
  6
BYLAYER
 62
     1
 10
386.228608
 20
-170.999353
 30
0.0
 11
386.228608
 21
-87.717371
 31
0.0
  0
LINE
  8
0
  6
BYLAYER
 62
     1
 10
384.228608
 20
-122.358362
 30
0.0
 11
386.228608
 21
-122.358362
 31
0.0
  0
LINE
  8
0
  6
BYLAYER
 62
     1
 10
384.228608
 20
-99.651209
 30
0.0
 11
386.228608
 21
-99.651209
 31
0.0
  0
ARC
  8
0
  6
BYLAYER
 62
     1
 10
196.728669
 20
-303.858362
 30
0.0
 40
2.000000
 50
180.000000
 51
269.999996
  0
LINE
  8
0
  6
BYLAYER
 62
     1
 10
372.642793
 20
-310.772608
 30
0.0
 11
367.142793
 21
-305.272608
 31
0.0
  0
LINE
  8
0
  6
BYLAYER
 62
     1
 10
371.228608
 20
-311.358423
 30
0.0
 11
316.417268
 21
-311.358423
 31
0.0
  0
LINE
  8
0
  6
BYLAYER
 62
     1
 10
189.228669
 20
-97.358362
 30
0.0
 11
189.228669
 21
-183.802027
 31
0.0
  0
ARC
  8
0
  6
BYLAYER
 62
     1
 10
187.228669
 20
-183.802027
 30
0.0
 40
1.999980
 50
339.280495
 51
360.000000
  0
ARC
  8
0
  6
BYLAYER
 62
     1
 10
281.228669
 20
-219.358362
 30
0.0
 40
98.500038
 50
159.280449
 51
200.719548
  0
LINE
  8
0
  6
BYLAYER
 62
     1
 10
189.228669
 20
-254.914636
 30
0.0
 11
189.228669
 21
-309.358362
 31
0.0
  0
ARC
  8
0
  6
BYLAYER
 62
     1
 10
187.228669
 20
-254.914636
 30
0.0
 40
1.999959
 50
0.0
 51
20.719577
  0
LINE
  8
0
  6
BYLAYER
 62
     1
 10
245.672578
 20
-311.358423
 30
0.0
 11
191.228669
 21
-311.358423
 31
0.0
  0
ARC
  8
0
  6
BYLAYER
 62
     1
 10
281.228669
 20
-219.358362
 30
0.0
 40
98.500031
 50
249.280595
 51
290.931197
  0
ARC
  8
0
  6
BYLAYER
 62
     1
 10
245.672578
 20
-313.358423
 30
0.0
 40
2.000000
 50
69.280601
 51
90.000000
  0
LINE
  8
0
  6
BYLAYER
 62
     1
 10
373.228608
 20
-254.914636
 30
0.0
 11
373.228608
 21
-309.358423
 31
0.0
  0
ARC
  8
0
  6
BYLAYER
 62
     1
 10
375.228608
 20
-254.914636
 30
0.0
 40
2.000000
 50
159.280416
 51
180.000000
  0
ARC
  8
0
  6
BYLAYER
 62
     1
 10
375.228608
 20
-183.802027
 30
0.0
 40
2.0
 50
180.000000
 51
200.719584
  0
LINE
  8
0
  6
BYLAYER
 62
     1
 10
196.728669
 20
-305.858362
 30
0.0
 11
239.183869
 21
-305.858362
 31
0.0
  0
ARC
  8
0
  6
BYLAYER
 62
     1
 10
229.728669
 20
-124.358362
 30
0.0
 40
1.0
 50
90.0
 51
270.000005
  0
ARC
  8
0
  6
BYLAYER
 62
     1
 10
332.728608
 20
-124.358362
 30
0.0
 40
1.000000
 50
270.0
 51
449.999991
  0
LINE
  8
0
  6
BYLAYER
 62
     1
 10
298.265397
 20
-123.358362
 30
0.0
 11
332.728608
 21
-123.358362
 31
0.0
  0
LINE
  8
0
  6
BYLAYER
 62
     1
 10
229.728669
 20
-123.358362
 30
0.0
 11
264.191941
 21
-123.358362
 31
0.0
  0
LINE
  8
0
  6
BYLAYER
 62
     1
 10
307.117860
 20
-125.358362
 30
0.0
 11
332.728608
 21
-125.358362
 31
0.0
  0
LINE
  8
0
  6
BYLAYER
 62
     1
 10
229.728669
 20
-125.358362
 30
0.0
 11
255.339478
 21
-125.358362
 31
0.0
  0
ARC
  8
0
  6
BYLAYER
 62
     1
 10
233.228669
 20
-136.358362
 30
0.0
 40
1.0
 50
270.0
 51
450.000005
  0
ARC
  8
0
  6
BYLAYER
 62
     1
 10
222.228669
 20
-148.358362
 30
0.0
 40
1.0
 50
270.0
 51
450.000005
  0
ARC
  8
0
  6
BYLAYER
 62
     1
 10
210.228669
 20
-160.358362
 30
0.0
 40
1.0
 50
270.0
 51
450.000005
  0
ARC
  8
0
  6
BYLAYER
 62
     1
 10
329.228608
 20
-136.358362
 30
0.0
 40
1.0
 50
90.0
 51
270.000005
  0
ARC
  8
0
  6
BYLAYER
 62
     1
 10
340.228608
 20
-148.358362
 30
0.0
 40
1.0
 50
90.0
 51
270.000005
  0
ARC
  8
0
  6
BYLAYER
 62
     1
 10
352.228608
 20
-160.358362
 30
0.0
 40
1.0
 50
90.0
 51
270.000005
  0
LINE
  8
0
  6
BYLAYER
 62
     1
 10
373.228608
 20
-183.802027
 30
0.0
 11
373.228608
 21
-97.358362
 31
0.0
  0
LINE
  8
0
  6
BYLAYER
 62
     1
 10
233.228669
 20
-137.358362
 30
0.0
 11
190.228669
 21
-137.358362
 31
0.0
  0
LINE
  8
0
  6
BYLAYER
 62
     1
 10
233.228669
 20
-135.358362
 30
0.0
 11
190.228669
 21
-135.358362
 31
0.0
  0
ARC
  8
0
  6
BYLAYER
 62
     1
 10
190.228669
 20
-146.358362
 30
0.0
 40
1.000000
 50
180.000000
 51
269.999996
  0
ARC
  8
0
  6
BYLAYER
 62
     1
 10
190.228669
 20
-158.358362
 30
0.0
 40
1.0
 50
180.000000
 51
269.999996
  0
ARC
  8
0
  6
BYLAYER
 62
     1
 10
190.228669
 20
-150.358362
 30
0.0
 40
1.000000
 50
90.0
 51
180.000003
  0
ARC
  8
0
  6
BYLAYER
 62
     1
 10
190.228669
 20
-162.358362
 30
0.0
 40
1.000000
 50
90.0
 51
180.000003
  0
LINE
  8
0
  6
BYLAYER
 62
     1
 10
222.228669
 20
-147.358362
 30
0.0
 11
190.228669
 21
-147.358362
 31
0.0
  0
LINE
  8
0
  6
BYLAYER
 62
     1
 10
222.228669
 20
-149.358362
 30
0.0
 11
190.228669
 21
-149.358362
 31
0.0
  0
LINE
  8
0
  6
BYLAYER
 62
     1
 10
210.228669
 20
-159.358362
 30
0.0
 11
190.228669
 21
-159.358362
 31
0.0
  0
LINE
  8
0
  6
BYLAYER
 62
     1
 10
210.228669
 20
-161.358362
 30
0.0
 11
190.228669
 21
-161.358362
 31
0.0
  0
ARC
  8
0
  6
BYLAYER
 62
     1
 10
372.228608
 20
-134.358362
 30
0.0
 40
1.0
 50
270.0
 51
359.999982
  0
ARC
  8
0
  6
BYLAYER
 62
     1
 10
372.228608
 20
-138.358362
 30
0.0
 40
1.0
 50
0.0
 51
90.000016
  0
ARC
  8
0
  6
BYLAYER
 62
     1
 10
372.228608
 20
-146.358362
 30
0.0
 40
1.0
 50
270.0
 51
359.999982
  0
ARC
  8
0
  6
BYLAYER
 62
     1
 10
372.228608
 20
-150.358362
 30
0.0
 40
1.0
 50
0.0
 51
90.000016
  0
ARC
  8
0
  6
BYLAYER
 62
     1
 10
372.228608
 20
-158.358362
 30
0.0
 40
1.0
 50
270.0
 51
359.999982
  0
ARC
  8
0
  6
BYLAYER
 62
     1
 10
372.228608
 20
-162.358362
 30
0.0
 40
1.0
 50
0.0
 51
90.000016
  0
LINE
  8
0
  6
BYLAYER
 62
     1
 10
329.228608
 20
-137.358362
 30
0.0
 11
372.228608
 21
-137.358362
 31
0.0
  0
LINE
  8
0
  6
BYLAYER
 62
     1
 10
340.228608
 20
-147.358362
 30
0.0
 11
372.228608
 21
-147.358362
 31
0.0
  0
LINE
  8
0
  6
BYLAYER
 62
     1
 10
340.228608
 20
-149.358362
 30
0.0
 11
372.228608
 21
-149.358362
 31
0.0
  0
LINE
  8
0
  6
BYLAYER
 62
     1
 10
352.228608
 20
-159.358362
 30
0.0
 11
372.228608
 21
-159.358362
 31
0.0
  0
LINE
  8
0
  6
BYLAYER
 62
     1
 10
352.228608
 20
-161.358362
 30
0.0
 11
372.228608
 21
-161.358362
 31
0.0
  0
LINE
  8
0
  6
BYLAYER
 62
     1
 10
179.728669
 20
-150.680383
 30
0.0
 11
178.228669
 21
-150.680383
 31
0.0
  0
LINE
  8
0
  6
BYLAYER
 62
     1
 10
179.728669
 20
-164.536341
 30
0.0
 11
178.228669
 21
-164.536341
 31
0.0
  0
LINE
  8
0
  6
BYLAYER
 62
     1
 10
373.228608
 20
-135.858362
 30
0.0
 11
382.728608
 21
-135.858362
 31
0.0
  0
LINE
  8
0
  6
BYLAYER
 62
     1
 10
373.228608
 20
-270.858362
 30
0.0
 11
382.728608
 21
-270.858362
 31
0.0
  0
LINE
  8
0
  6
BYLAYER
 62
     1
 10
332.728608
 20
-311.358423
 30
0.0
 11
332.728608
 21
-320.858301
 31
0.0
  0
LINE
  8
0
  6
BYLAYER
 62
     1
 10
229.728669
 20
-320.858301
 30
0.0
 11
229.728669
 21
-311.358423
 31
0.0
  0
LINE
  8
0
  6
BYLAYER
 62
     1
 10
179.728669
 20
-270.858362
 30
0.0
 11
189.228669
 21
-270.858362
 31
0.0
  0
LINE
  8
0
  6
BYLAYER
 62
     1
 10
179.728669
 20
-135.858362
 30
0.0
 11
189.228669
 21
-135.858362
 31
0.0
  0
LINE
  8
0
  6
BYLAYER
 62
     1
 10
344.728608
 20
-95.358362
 30
0.0
 11
344.728608
 21
-84.358362
 31
0.0
  0
LINE
  8
0
  6
BYLAYER
 62
     1
 10
357.728608
 20
-95.358362
 30
0.0
 11
357.728608
 21
-84.358362
 31
0.0
  0
LINE
  8
0
  6
BYLAYER
 62
     1
 10
204.728669
 20
-95.358362
 30
0.0
 11
204.728669
 21
-84.358362
 31
0.0
  0
LINE
  8
0
  6
BYLAYER
 62
     1
 10
217.728669
 20
-95.358362
 30
0.0
 11
217.728669
 21
-84.358362
 31
0.0
  0
LINE
  8
0
  6
BYLAYER
 62
     1
 10
189.228669
 20
-110.858362
 30
0.0
 11
178.228669
 21
-110.858362
 31
0.0
  0
LINE
  8
0
  6
BYLAYER
 62
     1
 10
189.228669
 20
-123.858362
 30
0.0
 11
178.228669
 21
-123.858362
 31
0.0
  0
LINE
  8
0
  6
BYLAYER
 62
     1
 10
217.728669
 20
-311.358362
 30
0.0
 11
217.728669
 21
-322.358362
 31
0.0
  0
LINE
  8
0
  6
BYLAYER
 62
     1
 10
204.728669
 20
-311.358362
 30
0.0
 11
204.728669
 21
-322.358362
 31
0.0
  0
LINE
  8
0
  6
BYLAYER
 62
     1
 10
189.228669
 20
-295.858362
 30
0.0
 11
178.228669
 21
-295.858362
 31
0.0
  0
LINE
  8
0
  6
BYLAYER
 62
     1
 10
189.228669
 20
-282.858362
 30
0.0
 11
178.228669
 21
-282.858362
 31
0.0
  0
LINE
  8
0
  6
BYLAYER
 62
     1
 10
373.228669
 20
-282.858362
 30
0.0
 11
384.228608
 21
-282.858362
 31
0.0
  0
LINE
  8
0
  6
BYLAYER
 62
     1
 10
373.228669
 20
-295.858362
 30
0.0
 11
384.228608
 21
-295.858362
 31
0.0
  0
LINE
  8
0
  6
BYLAYER
 62
     1
 10
357.728608
 20
-311.358362
 30
0.0
 11
357.728608
 21
-322.358362
 31
0.0
  0
LINE
  8
0
  6
BYLAYER
 62
     1
 10
344.728608
 20
-311.358362
 30
0.0
 11
344.728608
 21
-322.358362
 31
0.0
  0
LINE
  8
0
  6
BYLAYER
 62
     1
 10
329.228608
 20
-135.358362
 30
0.0
 11
364.177461
 21
-135.358362
 31
0.0
  0
LINE
  8
0
  6
BYLAYER
 62
     1
 10
372.228608
 20
-135.358362
 30
0.0
 11
364.177461
 21
-135.358362
 31
0.0
  0
LINE
  8
0
  6
BYLAYER
 62
     1
 10
334.228608
 20
-322.358362
 30
0.0
 11
382.728608
 21
-322.358362
 31
0.0
  0
LINE
  8
0
  6
BYLAYER
 62
     1
 10
323.273469
 20
-305.858362
 30
0.0
 11
343.772370
 21
-305.858362
 31
0.0
  0
LINE
  8
0
  6
BYLAYER
 62
     1
 10
343.772370
 20
-305.858362
 30
0.0
 11
365.728608
 21
-305.858362
 31
0.0
  0
LINE
  8
0
  6
BYLAYER
 62
     1
 10
228.228669
 20
-322.358362
 30
0.0
 11
179.728669
 21
-322.358362
 31
0.0
  0
ARC
  8
0
  6
BYLAYER
 62
     1
 10
360.228608
 20
-266.358362
 30
0.0
 40
1.0
 50
90.0
 51
270.000005
  0
ARC
  8
0
  6
BYLAYER
 62
     1
 10
372.228608
 20
-268.358362
 30
0.0
 40
1.0
 50
0.0
 51
89.999982
  0
ARC
  8
0
  6
BYLAYER
 62
     1
 10
372.228608
 20
-264.358362
 30
0.0
 40
1.000000
 50
270.0
 51
360.000016
  0
LINE
  8
0
  6
BYLAYER
 62
     1
 10
360.228608
 20
-267.358362
 30
0.0
 11
372.228608
 21
-267.358362
 31
0.0
  0
LINE
  8
0
  6
BYLAYER
 62
     1
 10
360.228608
 20
-265.358362
 30
0.0
 11
372.228608
 21
-265.358362
 31
0.0
  0
LINE
  8
0
  6
BYLAYER
 62
     1
 10
384.228608
 20
-272.358362
 30
0.0
 11
384.228608
 21
-320.858362
 31
0.0
  0
ARC
  8
0
  6
BYLAYER
 62
     1
 10
202.228669
 20
-266.358362
 30
0.0
 40
1.0
 50
270.0
 51
449.999991
  0
ARC
  8
0
  6
BYLAYER
 62
     1
 10
190.228669
 20
-268.358362
 30
0.0
 40
1.0
 50
90.0
 51
179.999982
  0
ARC
  8
0
  6
BYLAYER
 62
     1
 10
190.228669
 20
-264.358362
 30
0.0
 40
1.000000
 50
180.000000
 51
270.000023
  0
LINE
  8
0
  6
BYLAYER
 62
     1
 10
202.228669
 20
-267.358362
 30
0.0
 11
190.228669
 21
-267.358362
 31
0.0
  0
LINE
  8
0
  6
BYLAYER
 62
     1
 10
202.228669
 20
-265.358362
 30
0.0
 11
190.228669
 21
-265.358362
 31
0.0
  0
ARC
  8
0
  6
BYLAYER
 62
     1
 10
190.228669
 20
-134.358362
 30
0.0
 40
1.000000
 50
180.000000
 51
269.999996
  0
ARC
  8
0
  6
BYLAYER
 62
     1
 10
190.228669
 20
-138.358362
 30
0.0
 40
1.000000
 50
90.0
 51
180.000003
  0
ARC
  8
0
  6
BYLAYER
 62
     1
 10
281.228669
 20
-219.358362
 30
0.0
 40
98.499939
 50
0.0
 51
20.719575
  0
ARC
  8
0
  6
BYLAYER
 62
     1
 10
281.228669
 20
-219.358362
 30
0.0
 40
98.499939
 50
339.280413
 51
360.000000
  0
LINE
  8
0
  6
BYLAYER
 62
     1
 10
178.228669
 20
-320.858362
 30
0.0
 11
178.228669
 21
-272.358362
 31
0.0
  0
LINE
  8
0
  6
BYLAYER
 62
     1
 10
228.228669
 20
-84.358362
 30
0.0
 11
179.728669
 21
-84.358362
 31
0.0
  0
LINE
  8
0
  6
BYLAYER
 62
     1
 10
178.228669
 20
-129.358362
 30
0.0
 11
178.228669
 21
-165.358362
 31
0.0
  0
LINE
  8
0
  6
BYLAYER
 62
     1
 10
178.228669
 20
-129.358362
 30
0.0
 11
178.228669
 21
-85.858362
 31
0.0
  0
LINE
  8
0
  6
BYLAYER
 62
     1
 10
334.228608
 20
-84.358362
 30
0.0
 11
382.728608
 21
-84.358362
 31
0.0
  0
LINE
  8
0
  6
BYLAYER
 62
     1
 10
194.728669
 20
-265.358362
 30
0.0
 11
194.728669
 21
-261.403162
 31
0.0
  0
LINE
  8
0
  6
BYLAYER
 62
     1
 10
194.728669
 20
-303.858362
 30
0.0
 11
194.728669
 21
-267.358362
 31
0.0
  0
ARC
  8
0
  6
BYLAYER
 62
     1
 10
365.728608
 20
-303.858362
 30
0.0
 40
2.000000
 50
314.998762
 51
360.000000
  0
ARC
  8
0
  6
BYLAYER
 62
     1
 10
365.728608
 20
-303.858362
 30
0.0
 40
2.000002
 50
270.0
 51
314.998762
  0
LINE
  8
0
  6
BYLAYER
 62
     1
 10
367.728608
 20
-303.858362
 30
0.0
 11
367.728608
 21
-267.358362
 31
0.0
  0
LINE
  8
0
  6
BYLAYER
 62
     1
 10
367.728608
 20
-265.358362
 30
0.0
 11
367.728608
 21
-261.403162
 31
0.0
  0
LINE
  8
0
  6
BYLAYER
 62
     1
 10
189.814545
 20
-310.772608
 30
0.0
 11
195.314545
 21
-305.272608
 31
0.0
  0
LINE
  8
0
  6
BYLAYER
 62
     1
 10
382.728608
 20
-270.858362
 30
0.0
 11
382.728608
 21
-135.858362
 31
0.0
  0
ARC
  8
0
  6
BYLAYER
 62
     1
 10
281.228669
 20
-219.358362
 30
0.0
 40
42.500000
 50
90.0
 51
180.000002
  0
CIRCLE
  8
0
  6
BYLAYER
 62
     1
 10
281.228669
 20
-154.358362
 30
0.0
 40
4.5
  0
ARC
  8
0
  6
BYLAYER
 62
     1
 10
281.228669
 20
-154.358362
 30
0.0
 40
4.999938
 50
353.660000
 51
636.340001
  0
ARC
  8
0
  6
BYLAYER
 62
     1
 10
235.266694
 20
-173.396448
 30
0.0
 40
4.999972
 50
38.659991
 51
321.339992
  0
ARC
  8
0
  6
BYLAYER
 62
     1
 10
235.266694
 20
-173.396448
 30
0.0
 40
4.999972
 50
38.659991
 51
321.339992
  0
CIRCLE
  8
0
  6
BYLAYER
 62
     1
 10
235.266694
 20
-173.396448
 30
0.0
 40
4.5
  0
CIRCLE
  8
0
  6
BYLAYER
 62
     1
 10
216.228669
 20
-219.358362
 30
0.0
 40
4.5
  0
ARC
  8
0
  6
BYLAYER
 62
     1
 10
216.228669
 20
-219.358362
 30
0.0
 40
5.000012
 50
83.660009
 51
366.340010
  0
ARC
  8
0
  6
BYLAYER
 62
     1
 10
281.228669
 20
-219.358362
 30
0.0
 40
55.000000
 50
90.000003
 51
180.000005
  0
ARC
  8
0
  6
BYLAYER
 62
     1
 10
281.228669
 20
-219.358362
 30
0.0
 40
55.0
 50
359.999986
 51
450.000003
  0
ARC
  8
0
  6
BYLAYER
 62
     1
 10
281.228669
 20
-219.358362
 30
0.0
 40
54.999939
 50
179.999991
 51
270.0
  0
CIRCLE
  8
0
  6
BYLAYER
 62
     1
 10
281.228669
 20
-154.358362
 30
0.0
 40
4.5
  0
CIRCLE
  8
0
  6
BYLAYER
 62
     1
 10
235.266694
 20
-173.396448
 30
0.0
 40
4.5
  0
CIRCLE
  8
0
  6
BYLAYER
 62
     1
 10
216.228669
 20
-219.358362
 30
0.0
 40
4.5
  0
CIRCLE
  8
0
  6
BYLAYER
 62
     1
 10
281.228669
 20
-154.358362
 30
0.0
 40
4.5
  0
ARC
  8
0
  6
BYLAYER
 62
     1
 10
281.228669
 20
-219.358362
 30
0.0
 40
80.000000
 50
90.000003
 51
94.744108
  0
ARC
  8
0
  6
BYLAYER
 62
     1
 10
274.777619
 20
-141.625574
 30
0.0
 40
2.000037
 50
94.743931
 51
150.255446
  0
ARC
  8
0
  6
BYLAYER
 62
     1
 10
221.701691
 20
-168.954553
 30
0.0
 40
2.000029
 50
139.743649
 51
195.255574
  0
ARC
  8
0
  6
BYLAYER
 62
     1
 10
281.228669
 20
-219.358362
 30
0.0
 40
80.000031
 50
130.255874
 51
139.744113
  0
ARC
  8
0
  6
BYLAYER
 62
     1
 10
241.046906
 20
-122.350916
 30
0.0
 40
36.849331
 50
254.744800
 51
330.255247
  0
ARC
  8
0
  6
BYLAYER
 62
     1
 10
230.824921
 20
-159.831384
 30
0.0
 40
2.000036
 50
74.744591
 51
130.25627
  0
ARC
  8
0
  6
BYLAYER
 62
     1
 10
184.221345
 20
-179.176599
 30
0.0
 40
36.849300
 50
299.744739
 51
375.255260
  0
ARC
  8
0
  6
BYLAYER
 62
     1
 10
203.495881
 20
-212.907190
 30
0.0
 40
1.999955
 50
119.744117
 51
175.255742
  0
ARC
  8
0
  6
BYLAYER
 62
     1
 10
281.228669
 20
-219.358362
 30
0.0
 40
79.999977
 50
175.255865
 51
180.000005
  0
CIRCLE
  8
0
  6
BYLAYER
 62
     1
 10
235.266816
 20
-265.320276
 30
0.0
 40
4.5
  0
ARC
  8
0
  6
BYLAYER
 62
     1
 10
281.228669
 20
-219.358362
 30
0.0
 40
80.0
 50
180.000005
 51
184.744104
  0
ARC
  8
0
  6
BYLAYER
 62
     1
 10
203.495881
 20
-225.809412
 30
0.0
 40
1.999954
 50
184.743940
 51
240.255456
  0
ARC
  8
0
  6
BYLAYER
 62
     1
 10
230.824921
 20
-278.885279
 30
0.0
 40
1.999990
 50
229.743658
 51
285.255583
  0
ARC
  8
0
  6
BYLAYER
 62
     1
 10
281.228669
 20
-219.358362
 30
0.0
 40
79.999939
 50
220.25587
 51
229.744122
  0
ARC
  8
0
  6
BYLAYER
 62
     1
 10
184.221345
 20
-259.540125
 30
0.0
 40
36.849354
 50
344.744807
 51
420.255253
  0
ARC
  8
0
  6
BYLAYER
 62
     1
 10
221.701691
 20
-269.762049
 30
0.0
 40
1.99999
 50
164.744600
 51
220.256279
  0
ARC
  8
0
  6
BYLAYER
 62
     1
 10
241.046906
 20
-316.365625
 30
0.0
 40
36.849285
 50
29.744750
 51
105.255264
  0
ARC
  8
0
  6
BYLAYER
 62
     1
 10
274.777619
 20
-297.091089
 30
0.0
 40
1.999955
 50
209.744126
 51
265.255751
  0
ARC
  8
0
  6
BYLAYER
 62
     1
 10
281.228669
 20
-219.358362
 30
0.0
 40
79.999908
 50
265.255861
 51
270.000001
  0
CIRCLE
  8
0
  6
BYLAYER
 62
     1
 10
327.190614
 20
-265.320154
 30
0.0
 40
4.5
  0
ARC
  8
0
  6
BYLAYER
 62
     1
 10
281.228669
 20
-219.358362
 30
0.0
 40
79.999939
 50
270.0
 51
274.744113
  0
ARC
  8
0
  6
BYLAYER
 62
     1
 10
287.679719
 20
-297.091089
 30
0.0
 40
2.000007
 50
274.743922
 51
330.255438
  0
ARC
  8
0
  6
BYLAYER
 62
     1
 10
340.755677
 20
-269.762049
 30
0.0
 40
1.999982
 50
319.743667
 51
375.255565
  0
ARC
  8
0
  6
BYLAYER
 62
     1
 10
281.228669
 20
-219.358362
 30
0.0
 40
79.999954
 50
310.255879
 51
319.744104
  0
ARC
  8
0
  6
BYLAYER
 62
     1
 10
321.410462
 20
-316.365686
 30
0.0
 40
36.849358
 50
74.744816
 51
150.255242
  0
ARC
  8
0
  6
BYLAYER
 62
     1
 10
331.632386
 20
-278.885279
 30
0.0
 40
2.000029
 50
254.744582
 51
310.256261
  0
ARC
  8
0
  6
BYLAYER
 62
     1
 10
378.236024
 20
-259.540125
 30
0.0
 40
36.849327
 50
119.744732
 51
195.255260
  0
ARC
  8
0
  6
BYLAYER
 62
     1
 10
358.961488
 20
-225.809412
 30
0.0
 40
1.999894
 50
299.744108
 51
355.255733
  0
ARC
  8
0
  6
BYLAYER
 62
     1
 10
281.228669
 20
-219.358362
 30
0.0
 40
79.999939
 50
355.255870
 51
360.000010
  0
CIRCLE
  8
0
  6
BYLAYER
 62
     1
 10
327.190492
 20
-173.396326
 30
0.0
 40
4.5
  0
ARC
  8
0
  6
BYLAYER
 62
     1
 10
281.228669
 20
-219.358362
 30
0.0
 40
80.000031
 50
0.000010
 51
4.744123
  0
ARC
  8
0
  6
BYLAYER
 62
     1
 10
358.961488
 20
-212.907312
 30
0.0
 40
2.000030
 50
4.743932
 51
60.255444
  0
ARC
  8
0
  6
BYLAYER
 62
     1
 10
331.632508
 20
-159.831384
 30
0.0
 40
1.999997
 50
49.743650
 51
105.255544
  0
ARC
  8
0
  6
BYLAYER
 62
     1
 10
281.228669
 20
-219.358362
 30
0.0
 40
79.999962
 50
40.255861
 51
49.744114
  0
ARC
  8
0
  6
BYLAYER
 62
     1
 10
340.755677
 20
-168.954553
 30
0.0
 40
1.999904
 50
344.744591
 51
400.256271
  0
ARC
  8
0
  6
BYLAYER
 62
     1
 10
287.679719
 20
-141.625574
 30
0.0
 40
2.000015
 50
29.744118
 51
85.255739
  0
ARC
  8
0
  6
BYLAYER
 62
     1
 10
281.228669
 20
-219.358362
 30
0.0
 40
80.000031
 50
85.255876
 51
90.000016
  0
ARC
  8
0
  6
BYLAYER
 62
     1
 10
235.266755
 20
-173.396326
 30
0.0
 40
5.0
 50
38.659991
 51
321.339992
  0
ARC
  8
0
  6
BYLAYER
 62
     1
 10
216.228669
 20
-219.358362
 30
0.0
 40
4.999999
 50
83.660009
 51
366.340010
  0
ARC
  8
0
  6
BYLAYER
 62
     1
 10
235.266755
 20
-265.320276
 30
0.0
 40
4.999962
 50
128.660028
 51
411.340001
  0
ARC
  8
0
  6
BYLAYER
 62
     1
 10
281.228669
 20
-284.358301
 30
0.0
 40
4.999999
 50
173.660015
 51
456.340016
  0
ARC
  8
0
  6
BYLAYER
 62
     1
 10
327.190614
 20
-265.320276
 30
0.0
 40
5.0
 50
218.660013
 51
501.340041
  0
ARC
  8
0
  6
BYLAYER
 62
     1
 10
346.228700
 20
-219.358362
 30
0.0
 40
5.000060
 50
263.659977
 51
546.340005
  0
ARC
  8
0
  6
BYLAYER
 62
     1
 10
327.190614
 20
-173.396326
 30
0.0
 40
5.000096
 50
308.659982
 51
591.339955
  0
CIRCLE
  8
0
  6
BYLAYER
 62
     1
 10
281.228669
 20
-284.358301
 30
0.0
 40
4.5
  0
CIRCLE
  8
0
  6
BYLAYER
 62
     1
 10
346.228700
 20
-219.358362
 30
0.0
 40
4.5
  0
ARC
  8
0
  6
BYLAYER
 62
     1
 10
321.410462
 20
-122.350916
 30
0.0
 40
36.849327
 50
209.744796
 51
285.255256
  0
ARC
  8
0
  6
BYLAYER
 62
     1
 10
281.228669
 20
-219.358362
 30
0.0
 40
54.999939
 50
270.0
 51
360.000003
  0
ARC
  8
0
  6
BYLAYER
 62
     1
 10
281.228669
 20
-219.358362
 30
0.0
 40
97.5
 50
245.301818
 51
294.698190
  0
ARC
  8
0
  6
BYLAYER
 62
     1
 10
281.228669
 20
-219.358362
 30
0.0
 40
97.5
 50
155.301809
 51
204.698181
  0
ARC
  8
0
  6
BYLAYER
 62
     1
 10
194.464875
 20
-259.261926
 30
0.0
 40
2.0
 50
204.698188
 51
255.000000
  0
ARC
  8
0
  6
BYLAYER
 62
     1
 10
194.464875
 20
-179.454798
 30
0.0
 40
2.0
 50
104.999996
 51
155.301809
  0
ARC
  8
0
  6
BYLAYER
 62
     1
 10
281.228669
 20
-219.358362
 30
0.0
 40
97.500000
 50
65.301813
 51
114.698185
  0
ARC
  8
0
  6
BYLAYER
 62
     1
 10
281.228669
 20
-219.358362
 30
0.0
 40
97.500000
 50
335.301827
 51
384.698199
  0
ARC
  8
0
  6
BYLAYER
 62
     1
 10
281.228669
 20
-219.358362
 30
0.0
 40
42.500015
 50
45.000015
 51
90.000003
  0
ARC
  8
0
  6
BYLAYER
 62
     1
 10
281.228669
 20
-219.358362
 30
0.0
 40
42.5
 50
180.000005
 51
404.999974
  0
ARC
  8
0
  6
BYLAYER
 62
     1
 10
378.236024
 20
-179.176477
 30
0.0
 40
36.849373
 50
225.361600
 51
240.255401
  0
ARC
  8
0
  6
BYLAYER
 62
     1
 10
343.386781
 20
-179.190027
 30
0.0
 40
2.000022
 50
180.022736
 51
274.620241
  0
ARC
  8
0
  6
BYLAYER
 62
     1
 10
344.514466
 20
-193.144556
 30
0.0
 40
11.999949
 50
310.379888
 51
454.620246
  0
ARC
  8
0
  6
BYLAYER
 62
     1
 10
353.584412
 20
-203.809290
 30
0.0
 40
2.000067
 50
130.380156
 51
224.977743
  0
ARC
  8
0
  6
BYLAYER
 62
     1
 10
378.236146
 20
-179.176538
 30
0.0
 40
36.849331
 50
164.744791
 51
240.255265
  0
LINE
  8
0
  6
BYLAYER
 62
     1
 10
368.510072
 20
-261.193781
 30
0.0
 11
352.661927
 21
-265.440271
 31
0.0
  0
ARC
  8
0
  6
BYLAYER
 62
     1
 10
367.992493
 20
-259.261926
 30
0.0
 40
2.000000
 50
284.999998
 51
335.301810
  0
LINE
  8
0
  6
BYLAYER
 62
     1
 10
327.307938
 20
-290.801569
 30
0.0
 11
323.064088
 21
-306.639795
 31
0.0
  0
ARC
  8
0
  6
BYLAYER
 62
     1
 10
321.132203
 20
-306.122156
 30
0.0
 40
2.0
 50
294.698200
 51
345.000013
  0
ARC
  8
0
  6
BYLAYER
 62
     1
 10
329.242432
 20
-291.309229
 30
0.0
 40
2.0
 50
123.715705
 51
164.999994
  0
ARC
  8
0
  6
BYLAYER
 62
     1
 10
327.902467
 20
-296.309992
 30
0.0
 40
2.0
 50
121.238252
 51
164.999994
  0
ARC
  8
0
  6
BYLAYER
 62
     1
 10
281.228669
 20
-219.358362
 30
0.0
 40
88.0
 50
301.238253
 51
328.761739
  0
ARC
  8
0
  6
BYLAYER
 62
     1
 10
358.180299
 20
-266.032190
 30
0.0
 40
2.000000
 50
104.999996
 51
148.761739
  0
ARC
  8
0
  6
BYLAYER
 62
     1
 10
281.228669
 20
-219.358362
 30
0.0
 40
84.5
 50
303.715700
 51
326.284277
  0
ARC
  8
0
  6
BYLAYER
 62
     1
 10
353.179566
 20
-267.372125
 30
0.0
 40
2.0
 50
105.000003
 51
146.284292
  0
LINE
  8
0
  6
BYLAYER
 62
     1
 10
323.064088
 20
-132.076929
 30
0.0
 11
327.310609
 21
-147.925134
 31
0.0
  0
ARC
  8
0
  6
BYLAYER
 62
     1
 10
321.132203
 20
-132.594568
 30
0.0
 40
2.000000
 50
15.0
 51
65.301813
  0
LINE
  8
0
  6
BYLAYER
 62
     1
 10
352.661927
 20
-173.276453
 30
0.0
 11
368.510072
 21
-177.522943
 31
0.0
  0
ARC
  8
0
  6
BYLAYER
 62
     1
 10
367.992493
 20
-179.454798
 30
0.0
 40
2.0
 50
24.698186
 51
74.999999
  0
ARC
  8
0
  6
BYLAYER
 62
     1
 10
353.179566
 20
-171.344599
 30
0.0
 40
2.0
 50
213.715714
 51
255.000004
  0
ARC
  8
0
  6
BYLAYER
 62
     1
 10
358.180299
 20
-172.684534
 30
0.0
 40
2.000000
 50
211.238261
 51
255.000004
  0
ARC
  8
0
  6
BYLAYER
 62
     1
 10
281.228669
 20
-219.358362
 30
0.0
 40
88.0
 50
31.238256
 51
58.761741
  0
ARC
  8
0
  6
BYLAYER
 62
     1
 10
327.902467
 20
-142.406732
 30
0.0
 40
2.0
 50
195.000005
 51
238.761748
  0
ARC
  8
0
  6
BYLAYER
 62
     1
 10
281.228669
 20
-219.358362
 30
0.0
 40
84.5
 50
33.715713
 51
56.284290
  0
ARC
  8
0
  6
BYLAYER
 62
     1
 10
329.242432
 20
-147.407495
 30
0.0
 40
2.0
 50
195.000012
 51
236.284302
  0
LINE
  8
0
  6
BYLAYER
 62
     1
 10
193.947236
 20
-177.522943
 30
0.0
 11
209.795441
 21
-173.276453
 31
0.0
  0
LINE
  8
0
  6
BYLAYER
 62
     1
 10
235.146760
 20
-147.925134
 30
0.0
 11
239.393250
 21
-132.076929
 31
0.0
  0
ARC
  8
0
  6
BYLAYER
 62
     1
 10
241.325105
 20
-132.594568
 30
0.0
 40
2.0
 50
114.698182
 51
164.999994
  0
ARC
  8
0
  6
BYLAYER
 62
     1
 10
233.214906
 20
-147.407495
 30
0.0
 40
2.0
 50
303.715723
 51
345.000013
  0
ARC
  8
0
  6
BYLAYER
 62
     1
 10
234.554841
 20
-142.406732
 30
0.0
 40
2.000000
 50
301.238270
 51
345.000013
  0
ARC
  8
0
  6
BYLAYER
 62
     1
 10
281.228669
 20
-219.358362
 30
0.0
 40
88.000000
 50
121.238262
 51
148.761747
  0
ARC
  8
0
  6
BYLAYER
 62
     1
 10
204.277039
 20
-172.684534
 30
0.0
 40
2.000000
 50
284.999987
 51
328.761730
  0
ARC
  8
0
  6
BYLAYER
 62
     1
 10
281.228669
 20
-219.358362
 30
0.0
 40
84.500000
 50
123.715708
 51
146.284286
  0
ARC
  8
0
  6
BYLAYER
 62
     1
 10
209.277802
 20
-171.344599
 30
0.0
 40
2.0
 50
284.999994
 51
326.284284
  0
LINE
  8
0
  6
BYLAYER
 62
     1
 10
239.393250
 20
-306.639795
 30
0.0
 11
235.146760
 21
-290.791590
 31
0.0
  0
ARC
  8
0
  6
BYLAYER
 62
     1
 10
241.325105
 20
-306.122156
 30
0.0
 40
2.0
 50
195.000002
 51
245.301815
  0
LINE
  8
0
  6
BYLAYER
 62
     1
 10
209.795441
 20
-265.440271
 30
0.0
 11
193.947236
 21
-261.193781
 31
0.0
  0
ARC
  8
0
  6
BYLAYER
 62
     1
 10
209.277802
 20
-267.372125
 30
0.0
 40
2.000000
 50
33.715709
 51
74.999999
  0
ARC
  8
0
  6
BYLAYER
 62
     1
 10
204.277039
 20
-266.032190
 30
0.0
 40
2.0
 50
31.238256
 51
74.999999
  0
ARC
  8
0
  6
BYLAYER
 62
     1
 10
281.228669
 20
-219.358362
 30
0.0
 40
88.0
 50
211.238258
 51
238.761743
  0
ARC
  8
0
  6
BYLAYER
 62
     1
 10
234.554841
 20
-296.309992
 30
0.0
 40
2.0
 50
15.0
 51
58.761743
  0
ARC
  8
0
  6
BYLAYER
 62
     1
 10
281.228669
 20
-219.358362
 30
0.0
 40
84.5
 50
213.715718
 51
236.284295
  0
ARC
  8
0
  6
BYLAYER
 62
     1
 10
233.214906
 20
-291.309229
 30
0.0
 40
2.0
 50
15.000000
 51
56.284290
  0
ARC
  8
0
  6
BYLAYER
 62
     1
 10
266.288403
 20
-115.289005
 30
0.0
 40
2.873727
 50
270.0
 51
308.795511
  0
ARC
  8
0
  6
BYLAYER
 62
     1
 10
266.010301
 20
-114.992825
 30
0.0
 40
3.278957
 50
309.340351
 51
360.000000
  0
ARC
  8
0
  6
BYLAYER
 62
     1
 10
266.010301
 20
-114.992825
 30
0.0
 40
3.278957
 50
0.0
 51
50.659649
  0
ARC
  8
0
  6
BYLAYER
 62
     1
 10
266.288403
 20
-114.696645
 30
0.0
 40
2.873727
 50
51.204489
 51
90.0
  0
ARC
  8
0
  6
BYLAYER
 62
     1
 10
266.288403
 20
-114.696619
 30
0.0
 40
2.873701
 50
90.0
 51
128.795693
  0
ARC
  8
0
  6
BYLAYER
 62
     1
 10
266.566531
 20
-114.992825
 30
0.0
 40
3.278967
 50
129.340576
 51
180.0
  0
ARC
  8
0
  6
BYLAYER
 62
     1
 10
266.566531
 20
-114.992825
 30
0.0
 40
3.278967
 50
180.000000
 51
230.659424
  0
ARC
  8
0
  6
BYLAYER
 62
     1
 10
266.288403
 20
-115.289031
 30
0.0
 40
2.873701
 50
231.204307
 51
270.000000
  0
ARC
  8
0
  6
BYLAYER
 62
     1
 10
266.288403
 20
-114.149674
 30
0.0
 40
1.329747
 50
90.0
 51
140.793201
  0
ARC
  8
0
  6
BYLAYER
 62
     1
 10
267.321958
 20
-114.992825
 30
0.0
 40
2.663590
 50
140.793201
 51
180.0
  0
ARC
  8
0
  6
BYLAYER
 62
     1
 10
267.321942
 20
-114.992825
 30
0.0
 40
2.663574
 50
180.000000
 51
219.206869
  0
ARC
  8
0
  6
BYLAYER
 62
     1
 10
266.288403
 20
-115.835965
 30
0.0
 40
1.329750
 50
219.206869
 51
270.0
  0
ARC
  8
0
  6
BYLAYER
 62
     1
 10
266.288403
 20
-115.835965
 30
0.0
 40
1.329750
 50
270.0
 51
320.793131
  0
ARC
  8
0
  6
BYLAYER
 62
     1
 10
265.254865
 20
-114.992825
 30
0.0
 40
2.663574
 50
320.793131
 51
360.000000
  0
ARC
  8
0
  6
BYLAYER
 62
     1
 10
265.254849
 20
-114.992825
 30
0.0
 40
2.663590
 50
0.0
 51
39.206799
  0
ARC
  8
0
  6
BYLAYER
 62
     1
 10
266.288403
 20
-114.149674
 30
0.0
 40
1.329747
 50
39.206799
 51
90.0
  0
LINE
  8
0
  6
BYLAYER
 62
     1
 10
256.440564
 20
-117.951397
 30
0.0
 11
256.440564
 21
-111.949704
 31
0.0
  0
LINE
  8
0
  6
BYLAYER
 62
     1
 10
256.440564
 20
-111.949704
 30
0.0
 11
258.880689
 21
-111.949704
 31
0.0
  0
LINE
  8
0
  6
BYLAYER
 62
     1
 10
258.880689
 20
-111.949704
 30
0.0
 11
259.695004
 21
-115.077359
 31
0.0
  0
LINE
  8
0
  6
BYLAYER
 62
     1
 10
256.440564
 20
-117.951397
 30
0.0
 11
257.905774
 21
-117.951397
 31
0.0
  0
LINE
  8
0
  6
BYLAYER
 62
     1
 10
257.905774
 20
-117.951397
 30
0.0
 11
257.905774
 21
-114.485638
 31
0.0
  0
LINE
  8
0
  6
BYLAYER
 62
     1
 10
259.061017
 20
-117.951397
 30
0.0
 11
257.905774
 21
-114.485638
 31
0.0
  0
LINE
  8
0
  6
BYLAYER
 62
     1
 10
262.949445
 20
-117.951397
 30
0.0
 11
262.949445
 21
-111.949704
 31
0.0
  0
LINE
  8
0
  6
BYLAYER
 62
     1
 10
262.949445
 20
-111.949704
 30
0.0
 11
260.509320
 21
-111.949704
 31
0.0
  0
LINE
  8
0
  6
BYLAYER
 62
     1
 10
260.509320
 20
-111.949704
 30
0.0
 11
259.695004
 21
-115.077359
 31
0.0
  0
LINE
  8
0
  6
BYLAYER
 62
     1
 10
262.949445
 20
-117.951397
 30
0.0
 11
261.484235
 21
-117.951397
 31
0.0
  0
LINE
  8
0
  6
BYLAYER
 62
     1
 10
261.484235
 20
-117.951397
 30
0.0
 11
261.484235
 21
-114.485638
 31
0.0
  0
LINE
  8
0
  6
BYLAYER
 62
     1
 10
260.328992
 20
-117.951397
 30
0.0
 11
261.484235
 21
-114.485638
 31
0.0
  0
LINE
  8
0
  6
BYLAYER
 62
     1
 10
260.328992
 20
-117.951397
 30
0.0
 11
259.061017
 21
-117.951397
 31
0.0
  0
LINE
  8
0
  6
BYLAYER
 62
     1
 10
284.420285
 20
-117.951397
 30
0.0
 11
286.702603
 21
-111.949704
 31
0.0
  0
LINE
  8
0
  6
BYLAYER
 62
     1
 10
284.420285
 20
-117.951397
 30
0.0
 11
286.364499
 21
-117.951397
 31
0.0
  0
LINE
  8
0
  6
BYLAYER
 62
     1
 10
286.702603
 20
-111.949704
 30
0.0
 11
288.562283
 21
-111.949704
 31
0.0
  0
LINE
  8
0
  6
BYLAYER
 62
     1
 10
286.364499
 20
-117.951397
 30
0.0
 11
286.652676
 21
-117.106091
 31
0.0
  0
LINE
  8
0
  6
BYLAYER
 62
     1
 10
287.113736
 20
-115.753598
 30
0.0
 11
287.632443
 21
-114.232037
 31
0.0
  0
LINE
  8
0
  6
BYLAYER
 62
     1
 10
290.844632
 20
-117.951397
 30
0.0
 11
288.562283
 21
-111.949704
 31
0.0
  0
LINE
  8
0
  6
BYLAYER
 62
     1
 10
290.844632
 20
-117.951397
 30
0.0
 11
288.900418
 21
-117.951397
 31
0.0
  0
LINE
  8
0
  6
BYLAYER
 62
     1
 10
288.612241
 20
-117.106091
 30
0.0
 11
286.652676
 21
-117.106091
 31
0.0
  0
LINE
  8
0
  6
BYLAYER
 62
     1
 10
288.151151
 20
-115.753598
 30
0.0
 11
287.113736
 21
-115.753598
 31
0.0
  0
LINE
  8
0
  6
BYLAYER
 62
     1
 10
288.900418
 20
-117.951397
 30
0.0
 11
288.612241
 21
-117.106091
 31
0.0
  0
LINE
  8
0
  6
BYLAYER
 62
     1
 10
288.151151
 20
-115.753598
 30
0.0
 11
287.632443
 21
-114.232037
 31
0.0
  0
LINE
  8
0
  6
BYLAYER
 62
     1
 10
269.289258
 20
-113.428997
 30
0.0
 11
270.979871
 21
-113.428997
 31
0.0
  0
LINE
  8
0
  6
BYLAYER
 62
     1
 10
270.979871
 20
-113.428997
 30
0.0
 11
270.979871
 21
-117.951397
 31
0.0
  0
LINE
  8
0
  6
BYLAYER
 62
     1
 10
270.979871
 20
-117.951397
 30
0.0
 11
272.839566
 21
-117.951397
 31
0.0
  0
LINE
  8
0
  6
BYLAYER
 62
     1
 10
272.839566
 20
-117.951397
 30
0.0
 11
272.839566
 21
-113.428997
 31
0.0
  0
LINE
  8
0
  6
BYLAYER
 62
     1
 10
272.839566
 20
-113.428997
 30
0.0
 11
274.530179
 21
-113.428997
 31
0.0
  0
LINE
  8
0
  6
BYLAYER
 62
     1
 10
274.530179
 20
-113.428997
 30
0.0
 11
274.530179
 21
-111.949704
 31
0.0
  0
LINE
  8
0
  6
BYLAYER
 62
     1
 10
274.530179
 20
-111.949704
 30
0.0
 11
269.289258
 21
-111.949704
 31
0.0
  0
LINE
  8
0
  6
BYLAYER
 62
     1
 10
269.289258
 20
-111.949704
 30
0.0
 11
269.289258
 21
-113.428997
 31
0.0
  0
ARC
  8
0
  6
BYLAYER
 62
     1
 10
277.531018
 20
-115.289031
 30
0.0
 40
2.873701
 50
270.0
 51
308.795693
  0
ARC
  8
0
  6
BYLAYER
 62
     1
 10
277.252890
 20
-114.992825
 30
0.0
 40
3.278967
 50
309.340576
 51
360.0
  0
ARC
  8
0
  6
BYLAYER
 62
     1
 10
277.252901
 20
-114.992825
 30
0.0
 40
3.278957
 50
0.0
 51
50.659649
  0
ARC
  8
0
  6
BYLAYER
 62
     1
 10
277.531003
 20
-114.696645
 30
0.0
 40
2.873727
 50
51.204489
 51
90.000000
  0
ARC
  8
0
  6
BYLAYER
 62
     1
 10
277.531003
 20
-114.696619
 30
0.0
 40
2.873701
 50
90.0
 51
128.795693
  0
ARC
  8
0
  6
BYLAYER
 62
     1
 10
277.809131
 20
-114.992825
 30
0.0
 40
3.278967
 50
129.340576
 51
180.000000
  0
ARC
  8
0
  6
BYLAYER
 62
     1
 10
277.809120
 20
-114.992825
 30
0.0
 40
3.278957
 50
180.000000
 51
230.659649
  0
ARC
  8
0
  6
BYLAYER
 62
     1
 10
277.531018
 20
-115.289005
 30
0.0
 40
2.873727
 50
231.204489
 51
270.000000
  0
ARC
  8
0
  6
BYLAYER
 62
     1
 10
277.531003
 20
-114.149674
 30
0.0
 40
1.329747
 50
90.0
 51
140.793201
  0
ARC
  8
0
  6
BYLAYER
 62
     1
 10
278.564557
 20
-114.992825
 30
0.0
 40
2.663590
 50
140.793201
 51
180.000000
  0
ARC
  8
0
  6
BYLAYER
 62
     1
 10
278.564524
 20
-114.992825
 30
0.0
 40
2.663556
 50
180.000000
 51
219.207055
  0
ARC
  8
0
  6
BYLAYER
 62
     1
 10
277.531018
 20
-115.835943
 30
0.0
 40
1.329771
 50
219.207055
 51
270.000000
  0
ARC
  8
0
  6
BYLAYER
 62
     1
 10
277.531018
 20
-115.835965
 30
0.0
 40
1.329750
 50
270.0
 51
320.793131
  0
ARC
  8
0
  6
BYLAYER
 62
     1
 10
276.497479
 20
-114.992825
 30
0.0
 40
2.663574
 50
320.793131
 51
360.0
  0
ARC
  8
0
  6
BYLAYER
 62
     1
 10
276.497481
 20
-114.992825
 30
0.0
 40
2.663572
 50
0.0
 51
39.206985
  0
ARC
  8
0
  6
BYLAYER
 62
     1
 10
277.531003
 20
-114.149695
 30
0.0
 40
1.329768
 50
39.206985
 51
90.0
  0
LINE
  8
0
  6
BYLAYER
 62
     1
 10
291.006619
 20
-117.951397
 30
0.0
 11
291.006619
 21
-111.949704
 31
0.0
  0
LINE
  8
0
  6
BYLAYER
 62
     1
 10
291.006619
 20
-111.949704
 30
0.0
 11
294.725964
 21
-111.949704
 31
0.0
  0
ARC
  8
0
  6
BYLAYER
 62
     1
 10
294.725964
 20
-113.640332
 30
0.0
 40
1.690610
 50
287.134650
 51
450.000006
  0
ARC
  8
0
  6
BYLAYER
 62
     1
 10
295.064099
 20
-116.598904
 30
0.0
 40
1.352493
 50
0.0
 51
83.207557
  0
LINE
  8
0
  6
BYLAYER
 62
     1
 10
296.416592
 20
-116.598904
 30
0.0
 11
296.416592
 21
-117.444210
 31
0.0
  0
ARC
  8
0
  6
BYLAYER
 62
     1
 10
297.769086
 20
-117.444210
 30
0.0
 40
1.352493
 50
180.000000
 51
202.024314
  0
LINE
  8
0
  6
BYLAYER
 62
     1
 10
294.655606
 20
-117.951397
 30
0.0
 11
296.515286
 21
-117.951397
 31
0.0
  0
ARC
  8
0
  6
BYLAYER
 62
     1
 10
295.909406
 20
-117.444210
 30
0.0
 40
1.352493
 50
180.000000
 51
202.024314
  0
LINE
  8
0
  6
BYLAYER
 62
     1
 10
294.556912
 20
-117.444210
 30
0.0
 11
294.556912
 21
-116.767971
 31
0.0
  0
LINE
  8
0
  6
BYLAYER
 62
     1
 10
291.006619
 20
-117.951397
 30
0.0
 11
292.781766
 21
-117.951397
 31
0.0
  0
LINE
  8
0
  6
BYLAYER
 62
     1
 10
292.781766
 20
-117.951397
 30
0.0
 11
292.781766
 21
-115.922665
 31
0.0
  0
LINE
  8
0
  6
BYLAYER
 62
     1
 10
293.711606
 20
-115.922665
 30
0.0
 11
292.781766
 21
-115.922665
 31
0.0
  0
ARC
  8
0
  6
BYLAYER
 62
     1
 10
293.711606
 20
-116.767971
 30
0.0
 40
0.845306
 50
0.0
 51
90.000003
  0
LINE
  8
0
  6
BYLAYER
 62
     1
 10
292.781766
 20
-114.570172
 30
0.0
 11
292.781766
 21
-113.302197
 31
0.0
  0
LINE
  8
0
  6
BYLAYER
 62
     1
 10
292.781766
 20
-113.302197
 30
0.0
 11
293.965192
 21
-113.302197
 31
0.0
  0
LINE
  8
0
  6
BYLAYER
 62
     1
 10
292.781766
 20
-114.570172
 30
0.0
 11
293.965192
 21
-114.570172
 31
0.0
  0
ARC
  8
0
  6
BYLAYER
 62
     1
 10
293.965192
 20
-113.936184
 30
0.0
 40
0.633987
 50
270.0
 51
450.000005
  0
LINE
  8
0
  6
BYLAYER
 62
     1
 10
282.941007
 20
-116.053601
 30
0.0
 11
281.842099
 21
-111.949704
 31
0.0
  0
LINE
  8
0
  6
BYLAYER
 62
     1
 10
281.842099
 20
-111.949704
 30
0.0
 11
280.066953
 21
-111.949704
 31
0.0
  0
LINE
  8
0
  6
BYLAYER
 62
     1
 10
280.066953
 20
-111.949704
 30
0.0
 11
281.926633
 21
-117.951397
 31
0.0
  0
LINE
  8
0
  6
BYLAYER
 62
     1
 10
282.941007
 20
-116.053601
 30
0.0
 11
284.039883
 21
-111.949704
 31
0.0
  0
LINE
  8
0
  6
BYLAYER
 62
     1
 10
284.039883
 20
-111.949704
 30
0.0
 11
285.815030
 21
-111.949704
 31
0.0
  0
LINE
  8
0
  6
BYLAYER
 62
     1
 10
285.815030
 20
-111.949704
 30
0.0
 11
283.955350
 21
-117.951397
 31
0.0
  0
LINE
  8
0
  6
BYLAYER
 62
     1
 10
283.955350
 20
-117.951397
 30
0.0
 11
281.926633
 21
-117.951397
 31
0.0
  0
LINE
  8
0
  6
BYLAYER
 62
     1
 10
296.677274
 20
-117.951397
 30
0.0
 11
298.452420
 21
-117.951397
 31
0.0
  0
LINE
  8
0
  6
BYLAYER
 62
     1
 10
298.452420
 20
-117.951397
 30
0.0
 11
298.452420
 21
-111.949704
 31
0.0
  0
LINE
  8
0
  6
BYLAYER
 62
     1
 10
298.452420
 20
-111.949704
 30
0.0
 11
296.677274
 21
-111.949704
 31
0.0
  0
LINE
  8
0
  6
BYLAYER
 62
     1
 10
296.677274
 20
-111.949704
 30
0.0
 11
296.677274
 21
-117.951397
 31
0.0
  0
ARC
  8
0
  6
BYLAYER
 62
     1
 10
301.791394
 20
-115.289031
 30
0.0
 40
2.873701
 50
270.0
 51
308.795693
  0
ARC
  8
0
  6
BYLAYER
 62
     1
 10
301.513266
 20
-114.992825
 30
0.0
 40
3.278967
 50
309.340576
 51
360.000000
  0
ARC
  8
0
  6
BYLAYER
 62
     1
 10
301.513266
 20
-114.992825
 30
0.0
 40
3.278967
 50
0.0
 51
50.659424
  0
ARC
  8
0
  6
BYLAYER
 62
     1
 10
301.791394
 20
-114.696619
 30
0.0
 40
2.873701
 50
51.204307
 51
90.000000
  0
ARC
  8
0
  6
BYLAYER
 62
     1
 10
301.791394
 20
-114.696619
 30
0.0
 40
2.873701
 50
90.0
 51
128.795693
  0
ARC
  8
0
  6
BYLAYER
 62
     1
 10
302.069522
 20
-114.992825
 30
0.0
 40
3.278967
 50
129.340576
 51
180.000000
  0
ARC
  8
0
  6
BYLAYER
 62
     1
 10
302.069522
 20
-114.992825
 30
0.0
 40
3.278967
 50
180.000000
 51
230.659424
  0
ARC
  8
0
  6
BYLAYER
 62
     1
 10
301.791394
 20
-115.289031
 30
0.0
 40
2.873701
 50
231.204307
 51
270.0
  0
ARC
  8
0
  6
BYLAYER
 62
     1
 10
301.791394
 20
-114.149674
 30
0.0
 40
1.329747
 50
39.206799
 51
90.0
  0
ARC
  8
0
  6
BYLAYER
 62
     1
 10
300.757839
 20
-114.992825
 30
0.0
 40
2.663590
 50
0.0
 51
39.206799
  0
ARC
  8
0
  6
BYLAYER
 62
     1
 10
300.757855
 20
-114.992825
 30
0.0
 40
2.663574
 50
320.793131
 51
360.0
  0
ARC
  8
0
  6
BYLAYER
 62
     1
 10
301.791394
 20
-115.835965
 30
0.0
 40
1.329750
 50
270.0
 51
320.793131
  0
ARC
  8
0
  6
BYLAYER
 62
     1
 10
301.791394
 20
-115.835965
 30
0.0
 40
1.329750
 50
219.206869
 51
270.000000
  0
ARC
  8
0
  6
BYLAYER
 62
     1
 10
302.824933
 20
-114.992825
 30
0.0
 40
2.663574
 50
180.000000
 51
219.206869
  0
ARC
  8
0
  6
BYLAYER
 62
     1
 10
302.824949
 20
-114.992825
 30
0.0
 40
2.663590
 50
140.793201
 51
180.0
  0
ARC
  8
0
  6
BYLAYER
 62
     1
 10
301.791394
 20
-114.149674
 30
0.0
 40
1.329747
 50
90.0
 51
140.793201
  0
ARC
  8
0
  6
BYLAYER
 62
     1
 10
271.819531
 20
-105.078976
 30
0.0
 40
7.429995
 50
174.535650
 51
180.0
  0
LINE
  8
0
  6
BYLAYER
 62
     1
 10
264.423299
 20
-104.371441
 30
0.0
 11
264.423299
 21
-104.371434
 31
0.0
  0
LINE
  8
0
  6
BYLAYER
 62
     1
 10
264.431384
 20
-104.291511
 30
0.0
 11
265.140486
 21
-103.992968
 31
0.0
  0
ARC
  8
0
  6
BYLAYER
 62
     1
 10
271.819562
 20
-105.079037
 30
0.0
 40
6.766781
 50
159.235383
 51
170.763998
  0
LINE
  8
0
  6
BYLAYER
 62
     1
 10
265.492287
 20
-102.679972
 30
0.0
 11
265.027488
 21
-102.066858
 31
0.0
  0
ARC
  8
0
  6
BYLAYER
 62
     1
 10
271.819531
 20
-105.078976
 30
0.0
 40
7.429986
 50
144.139514
 51
156.083795
  0
LINE
  8
0
  6
BYLAYER
 62
     1
 10
265.749066
 20
-100.794781
 30
0.0
 11
265.749509
 21
-100.794155
 31
0.0
  0
LINE
  8
0
  6
BYLAYER
 62
     1
 10
265.797930
 20
-100.726389
 30
0.0
 11
266.552855
 21
-100.830253
 31
0.0
  0
ARC
  8
0
  6
BYLAYER
 62
     1
 10
271.819531
 20
-105.078976
 30
0.0
 40
6.766741
 50
129.235643
 51
141.105976
  0
LINE
  8
0
  6
BYLAYER
 62
     1
 10
267.428845
 20
-99.930119
 30
0.0
 11
267.429578
 21
-99.929486
 31
0.0
  0
LINE
  8
0
  6
BYLAYER
 62
     1
 10
267.539492
 20
-99.837789
 30
0.0
 11
267.443498
 21
-99.074383
 31
0.0
  0
ARC
  8
0
  6
BYLAYER
 62
     1
 10
271.819531
 20
-105.078976
 30
0.0
 40
7.429994
 50
114.139607
 51
126.083853
  0
LINE
  8
0
  6
BYLAYER
 62
     1
 10
268.704984
 20
-98.333279
 30
0.0
 11
268.705487
 21
-98.333043
 31
0.0
  0
LINE
  8
0
  6
BYLAYER
 62
     1
 10
268.780951
 20
-98.298722
 30
0.0
 11
269.382780
 21
-98.766117
 31
0.0
  0
LINE
  8
0
  6
BYLAYER
 62
     1
 10
269.520383
 20
-98.714795
 30
0.0
 11
269.521146
 21
-98.714527
 31
0.0
  0
ARC
  8
0
  6
BYLAYER
 62
     1
 10
271.819531
 20
-105.078976
 30
0.0
 40
6.766738
 50
99.235601
 51
111.106038
  0
ARC
  8
0
  6
BYLAYER
 62
     1
 10
271.819531
 20
-105.078976
 30
0.0
 40
7.429995
 50
90.0
 51
96.083892
  0
LINE
  8
0
  6
BYLAYER
 62
     1
 10
271.032067
 20
-97.690828
 30
0.0
 11
270.733507
 21
-98.399957
 31
0.0
  0
LINE
  8
0
  6
BYLAYER
 62
     1
 10
279.215756
 20
-104.371441
 30
0.0
 11
279.215756
 21
-104.371434
 31
0.0
  0
LINE
  8
0
  6
BYLAYER
 62
     1
 10
279.207679
 20
-104.291510
 30
0.0
 11
278.498540
 21
-103.992961
 31
0.0
  0
ARC
  8
0
  6
BYLAYER
 62
     1
 10
271.819486
 20
-105.079037
 30
0.0
 40
6.766781
 50
9.235986
 51
20.764650
  0
LINE
  8
0
  6
BYLAYER
 62
     1
 10
278.146809
 20
-102.679901
 30
0.0
 11
278.611575
 21
-102.066860
 31
0.0
  0
ARC
  8
0
  6
BYLAYER
 62
     1
 10
271.819531
 20
-105.078976
 30
0.0
 40
7.429986
 50
23.916189
 51
35.860484
  0
LINE
  8
0
  6
BYLAYER
 62
     1
 10
277.889981
 20
-100.794781
 30
0.0
 11
277.889539
 21
-100.794155
 31
0.0
  0
LINE
  8
0
  6
BYLAYER
 62
     1
 10
277.841133
 20
-100.726389
 30
0.0
 11
277.086261
 21
-100.830243
 31
0.0
  0
ARC
  8
0
  6
BYLAYER
 62
     1
 10
271.819531
 20
-105.078976
 30
0.0
 40
6.766741
 50
38.894050
 51
50.764315
  0
LINE
  8
0
  6
BYLAYER
 62
     1
 10
276.210217
 20
-99.930119
 30
0.0
 11
276.209485
 21
-99.929486
 31
0.0
  0
LINE
  8
0
  6
BYLAYER
 62
     1
 10
276.099591
 20
-99.837667
 30
0.0
 11
276.195549
 21
-99.074371
 31
0.0
  0
ARC
  8
0
  6
BYLAYER
 62
     1
 10
271.819531
 20
-105.078976
 30
0.0
 40
7.429994
 50
53.916300
 51
65.860381
  0
LINE
  8
0
  6
BYLAYER
 62
     1
 10
274.934079
 20
-98.333279
 30
0.0
 11
274.933560
 21
-98.333043
 31
0.0
  0
LINE
  8
0
  6
BYLAYER
 62
     1
 10
274.858113
 20
-98.298723
 30
0.0
 11
274.256290
 21
-98.766096
 31
0.0
  0
LINE
  8
0
  6
BYLAYER
 62
     1
 10
274.118665
 20
-98.714795
 30
0.0
 11
274.117917
 21
-98.714527
 31
0.0
  0
ARC
  8
0
  6
BYLAYER
 62
     1
 10
271.819531
 20
-105.078976
 30
0.0
 40
6.766738
 50
68.894081
 51
80.764578
  0
ARC
  8
0
  6
BYLAYER
 62
     1
 10
271.819531
 20
-105.078976
 30
0.0
 40
7.429995
 50
84.535428
 51
90.000003
  0
LINE
  8
0
  6
BYLAYER
 62
     1
 10
272.606998
 20
-97.690829
 30
0.0
 11
272.905485
 21
-98.399836
 31
0.0
  0
ARC
  8
0
  6
BYLAYER
 62
     1
 10
271.819531
 20
-105.078976
 30
0.0
 40
7.429995
 50
180.000000
 51
186.083899
  0
LINE
  8
0
  6
BYLAYER
 62
     1
 10
264.423299
 20
-105.786503
 30
0.0
 11
264.423299
 21
-105.786518
 31
0.0
  0
LINE
  8
0
  6
BYLAYER
 62
     1
 10
264.431384
 20
-105.866441
 30
0.0
 11
265.140508
 21
-106.164993
 31
0.0
  0
ARC
  8
0
  6
BYLAYER
 62
     1
 10
271.819562
 20
-105.078915
 30
0.0
 40
6.766781
 50
189.236002
 51
200.764629
  0
LINE
  8
0
  6
BYLAYER
 62
     1
 10
265.492312
 20
-107.477950
 30
0.0
 11
265.027486
 21
-108.091088
 31
0.0
  0
ARC
  8
0
  6
BYLAYER
 62
     1
 10
271.819531
 20
-105.078976
 30
0.0
 40
7.429986
 50
203.916158
 51
215.860410
  0
LINE
  8
0
  6
BYLAYER
 62
     1
 10
265.749066
 20
-109.363163
 30
0.0
 11
265.749509
 21
-109.363789
 31
0.0
  0
LINE
  8
0
  6
BYLAYER
 62
     1
 10
265.797924
 20
-109.431555
 30
0.0
 11
266.552920
 21
-109.327692
 31
0.0
  0
ARC
  8
0
  6
BYLAYER
 62
     1
 10
271.819531
 20
-105.078976
 30
0.0
 40
6.766741
 50
218.894045
 51
230.764345
  0
LINE
  8
0
  6
BYLAYER
 62
     1
 10
267.428845
 20
-110.227826
 30
0.0
 11
267.429578
 21
-110.228459
 31
0.0
  0
LINE
  8
0
  6
BYLAYER
 62
     1
 10
267.539490
 20
-110.320162
 30
0.0
 11
267.443498
 21
-111.083570
 31
0.0
  0
ARC
  8
0
  6
BYLAYER
 62
     1
 10
271.819531
 20
-105.078976
 30
0.0
 40
7.429994
 50
233.916148
 51
245.860401
  0
LINE
  8
0
  6
BYLAYER
 62
     1
 10
268.704984
 20
-111.824665
 30
0.0
 11
268.705487
 21
-111.824910
 31
0.0
  0
LINE
  8
0
  6
BYLAYER
 62
     1
 10
268.780952
 20
-111.859230
 30
0.0
 11
269.382851
 21
-111.391770
 31
0.0
  0
LINE
  8
0
  6
BYLAYER
 62
     1
 10
269.520383
 20
-111.443150
 30
0.0
 11
269.521146
 21
-111.443425
 31
0.0
  0
LINE
  8
0
  6
BYLAYER
 62
     1
 10
279.215756
 20
-105.786503
 30
0.0
 11
279.215756
 21
-105.786518
 31
0.0
  0
LINE
  8
0
  6
BYLAYER
 62
     1
 10
279.207678
 20
-105.866443
 30
0.0
 11
278.498540
 21
-106.164991
 31
0.0
  0
LINE
  8
0
  6
BYLAYER
 62
     1
 10
278.146744
 20
-107.477967
 30
0.0
 11
278.611583
 21
-108.091093
 31
0.0
  0
LINE
  8
0
  6
BYLAYER
 62
     1
 10
277.889981
 20
-109.363163
 30
0.0
 11
277.889539
 21
-109.363789
 31
0.0
  0
LINE
  8
0
  6
BYLAYER
 62
     1
 10
277.841147
 20
-109.431556
 30
0.0
 11
277.086102
 21
-109.327689
 31
0.0
  0
LINE
  8
0
  6
BYLAYER
 62
     1
 10
276.210217
 20
-110.227826
 30
0.0
 11
276.209485
 21
-110.228459
 31
0.0
  0
LINE
  8
0
  6
BYLAYER
 62
     1
 10
276.099576
 20
-110.320159
 30
0.0
 11
276.195549
 21
-111.083581
 31
0.0
  0
LINE
  8
0
  6
BYLAYER
 62
     1
 10
274.858112
 20
-111.859229
 30
0.0
 11
274.256198
 21
-111.391775
 31
0.0
  0
ARC
  8
0
  6
BYLAYER
 62
     1
 10
271.819531
 20
-105.078976
 30
0.0
 40
6.766741
 50
309.235697
 51
321.105929
  0
ARC
  8
0
  6
BYLAYER
 62
     1
 10
271.819531
 20
-105.078976
 30
0.0
 40
6.766738
 50
248.893873
 51
270.000000
  0
ARC
  8
0
  6
BYLAYER
 62
     1
 10
271.819531
 20
-105.078976
 30
0.0
 40
7.429994
 50
294.783232
 51
306.083699
  0
LINE
  8
0
  6
BYLAYER
 62
     1
 10
274.933560
 20
-111.824910
 30
0.0
 11
274.858570
 21
-111.860199
 31
0.0
  0
ARC
  8
0
  6
BYLAYER
 62
     1
 10
271.819531
 20
-105.078976
 30
0.0
 40
7.429986
 50
324.139593
 51
336.083825
  0
ARC
  8
0
  6
BYLAYER
 62
     1
 10
271.819486
 20
-105.078915
 30
0.0
 40
6.766781
 50
339.235210
 51
350.764014
  0
ARC
  8
0
  6
BYLAYER
 62
     1
 10
271.819531
 20
-105.078976
 30
0.0
 40
7.429995
 50
353.916089
 51
360.000000
  0
ARC
  8
0
  6
BYLAYER
 62
     1
 10
271.819531
 20
-105.078976
 30
0.0
 40
7.429995
 50
0.0
 51
6.083907
  0
ARC
  8
0
  6
BYLAYER
 62
     1
 10
271.819531
 20
-105.078976
 30
0.0
 40
6.766738
 50
270.0
 51
291.106008
  0
CIRCLE
  8
0
  6
BYLAYER
 62
     1
 10
271.819531
 20
-105.078976
 30
0.0
 40
3.630081
  0
CIRCLE
  8
0
  6
BYLAYER
 62
     1
 10
271.819531
 20
-105.078976
 30
0.0
 40
5.296032
  0
LINE
  8
0
  6
BYLAYER
 62
     1
 10
281.228669
 20
-219.358362
 30
0.0
 11
281.228669
 21
-214.358362
 31
0.0
  0
LINE
  8
0
  6
BYLAYER
 62
     1
 10
281.228669
 20
-219.358362
 30
0.0
 11
276.228669
 21
-219.358362
 31
0.0
  0
LINE
  8
0
  6
BYLAYER
 62
     1
 10
281.228669
 20
-219.358362
 30
0.0
 11
281.228669
 21
-224.358362
 31
0.0
  0
LINE
  8
0
  6
BYLAYER
 62
     1
 10
281.228669
 20
-219.358362
 30
0.0
 11
286.228669
 21
-219.358362
 31
0.0
  0
LINE
  8
0
  6
BYLAYER
 62
     1
 10
1096.228669
 20
-584.358362
 30
0.0
 11
1068.228669
 21
-584.358362
 31
0.0
  0
LINE
  8
0
  6
BYLAYER
 62
     1
 10
1096.228669
 20
-634.358362
 30
0.0
 11
1096.228669
 21
-584.358362
 31
0.0
  0
LINE
  8
0
  6
BYLAYER
 62
     1
 10
1096.228669
 20
-634.358362
 30
0.0
 11
1094.728669
 21
-635.858301
 31
0.0
  0
LINE
  8
0
  6
BYLAYER
 62
     1
 10
966.228669
 20
-584.358362
 30
0.0
 11
994.228669
 21
-584.358362
 31
0.0
  0
LINE
  8
0
  6
BYLAYER
 62
     1
 10
966.228669
 20
-634.358362
 30
0.0
 11
966.228669
 21
-584.358362
 31
0.0
  0
LINE
  8
0
  6
BYLAYER
 62
     1
 10
966.228669
 20
-634.358362
 30
0.0
 11
967.728669
 21
-635.858301
 31
0.0
  0
LINE
  8
0
  6
BYLAYER
 62
     1
 10
1096.228669
 20
-822.358362
 30
0.0
 11
1068.228669
 21
-822.358362
 31
0.0
  0
LINE
  8
0
  6
BYLAYER
 62
     1
 10
1096.228669
 20
-772.358362
 30
0.0
 11
1096.228669
 21
-822.358362
 31
0.0
  0
LINE
  8
0
  6
BYLAYER
 62
     1
 10
1096.228669
 20
-772.358362
 30
0.0
 11
1094.728669
 21
-770.858362
 31
0.0
  0
LINE
  8
0
  6
BYLAYER
 62
     1
 10
1094.728669
 20
-635.858301
 30
0.0
 11
1094.728669
 21
-770.858362
 31
0.0
  0
LINE
  8
0
  6
BYLAYER
 62
     1
 10
966.228669
 20
-822.358362
 30
0.0
 11
994.228669
 21
-822.358362
 31
0.0
  0
LINE
  8
0
  6
BYLAYER
 62
     1
 10
966.228669
 20
-822.358362
 30
0.0
 11
966.228669
 21
-772.358362
 31
0.0
  0
LINE
  8
0
  6
BYLAYER
 62
     1
 10
1068.228669
 20
-585.858362
 30
0.0
 11
994.228669
 21
-585.858362
 31
0.0
  0
LINE
  8
0
  6
BYLAYER
 62
     1
 10
1068.228669
 20
-770.858362
 30
0.0
 11
1094.728669
 21
-770.858362
 31
0.0
  0
LINE
  8
0
  6
BYLAYER
 62
     1
 10
1068.228669
 20
-772.358362
 30
0.0
 11
1096.228669
 21
-772.358362
 31
0.0
  0
LINE
  8
0
  6
BYLAYER
 62
     1
 10
994.228669
 20
-772.358362
 30
0.0
 11
966.228669
 21
-772.358362
 31
0.0
  0
LINE
  8
0
  6
BYLAYER
 62
     1
 10
1068.228669
 20
-635.858301
 30
0.0
 11
1094.728669
 21
-635.858301
 31
0.0
  0
LINE
  8
0
  6
BYLAYER
 62
     1
 10
994.228669
 20
-770.858362
 30
0.0
 11
967.728669
 21
-770.858362
 31
0.0
  0
LINE
  8
0
  6
BYLAYER
 62
     1
 10
967.728669
 20
-635.858301
 30
0.0
 11
994.228669
 21
-635.858301
 31
0.0
  0
CIRCLE
  8
0
  6
BYLAYER
 62
     1
 10
981.228669
 20
-789.358362
 30
0.0
 40
6.5
  0
CIRCLE
  8
0
  6
BYLAYER
 62
     1
 10
981.228669
 20
-617.358362
 30
0.0
 40
6.5
  0
CIRCLE
  8
0
  6
BYLAYER
 62
     1
 10
1081.228669
 20
-617.358362
 30
0.0
 40
6.5
  0
CIRCLE
  8
0
  6
BYLAYER
 62
     1
 10
1058.452180
 20
-656.582025
 30
0.0
 40
3.525002
  0
CIRCLE
  8
0
  6
BYLAYER
 62
     1
 10
1058.452302
 20
-602.134790
 30
0.0
 40
3.525002
  0
CIRCLE
  8
0
  6
BYLAYER
 62
     1
 10
1004.005158
 20
-602.134668
 30
0.0
 40
3.525002
  0
CIRCLE
  8
0
  6
BYLAYER
 62
     1
 10
1004.005036
 20
-656.581903
 30
0.0
 40
3.525002
  0
LINE
  8
0
  6
BYLAYER
 62
     1
 10
993.370393
 20
-634.358362
 30
0.0
 11
966.228669
 21
-634.358362
 31
0.0
  0
ARC
  8
0
  6
BYLAYER
 62
     1
 10
993.370393
 20
-636.358362
 30
0.0
 40
2.0
 50
10.476094
 51
90.000000
  0
LINE
  8
0
  6
BYLAYER
 62
     1
 10
1069.086945
 20
-634.358362
 30
0.0
 11
1096.228669
 21
-634.358362
 31
0.0
  0
ARC
  8
0
  6
BYLAYER
 62
     1
 10
1069.086945
 20
-636.358362
 30
0.0
 40
2.000012
 50
90.0
 51
169.524063
  0
LINE
  8
0
  6
BYLAYER
 62
     1
 10
994.228669
 20
-634.551874
 30
0.0
 11
994.228669
 21
-822.358362
 31
0.0
  0
CIRCLE
  8
0
  6
BYLAYER
 62
     1
 10
1081.228669
 20
-789.358362
 30
0.0
 40
6.5
  0
LINE
  8
0
  6
BYLAYER
 62
     1
 10
1068.228669
 20
-634.551874
 30
0.0
 11
1068.228669
 21
-822.358362
 31
0.0
  0
LINE
  8
0
  6
BYLAYER
 62
     1
 10
966.228974
 20
-772.358148
 30
0.0
 11
967.728669
 21
-770.858362
 31
0.0
  0
LINE
  8
0
  6
BYLAYER
 62
     1
 10
967.728669
 20
-635.858301
 30
0.0
 11
967.728669
 21
-770.858362
 31
0.0
  0
LINE
  8
0
  6
BYLAYER
 62
     1
 10
966.228669
 20
-772.358362
 30
0.0
 11
967.728669
 21
-770.858423
 31
0.0
  0
ARC
  8
0
  6
BYLAYER
 62
     1
 10
1031.228669
 20
-629.358362
 30
0.0
 40
36.499996
 50
59.173767
 51
121.575305
  0
ARC
  8
0
  6
BYLAYER
 62
     1
 10
1011.069367
 20
-596.558161
 30
0.0
 40
2.000008
 50
218.287737
 51
301.575200
  0
LINE
  8
0
  6
BYLAYER
 62
     1
 10
994.228669
 20
-597.604090
 30
0.0
 11
994.228669
 21
-584.358362
 31
0.0
  0
ARC
  8
0
  6
BYLAYER
 62
     1
 10
1004.005158
 20
-602.134668
 30
0.0
 40
7.000019
 50
38.287800
 51
149.774970
  0
ARC
  8
0
  6
BYLAYER
 62
     1
 10
996.228669
 20
-597.604090
 30
0.0
 40
2.000039
 50
180.000000
 51
329.774833
  0
ARC
  8
0
  6
BYLAYER
 62
     1
 10
1058.452180
 20
-602.134668
 30
0.0
 40
6.999995
 50
30.225035
 51
141.712205
  0
ARC
  8
0
  6
BYLAYER
 62
     1
 10
1051.388001
 20
-596.558161
 30
0.0
 40
2.000008
 50
238.424801
 51
321.712264
  0
ARC
  8
0
  6
BYLAYER
 62
     1
 10
1066.228669
 20
-597.604090
 30
0.0
 40
2.000013
 50
210.225163
 51
359.999983
  0
LINE
  8
0
  6
BYLAYER
 62
     1
 10
1068.228669
 20
-584.358362
 30
0.0
 11
1068.228669
 21
-597.604090
 31
0.0
  0
ARC
  8
0
  6
BYLAYER
 62
     1
 10
1011.069367
 20
-662.158563
 30
0.0
 40
2.000008
 50
58.424803
 51
141.712259
  0
ARC
  8
0
  6
BYLAYER
 62
     1
 10
1031.228669
 20
-629.358362
 30
0.0
 40
36.500011
 50
238.424692
 51
301.575310
  0
ARC
  8
0
  6
BYLAYER
 62
     1
 10
1051.388001
 20
-662.158563
 30
0.0
 40
2.000013
 50
38.287746
 51
121.575195
  0
ARC
  8
0
  6
BYLAYER
 62
     1
 10
1031.228669
 20
-629.358362
 30
0.0
 40
36.500061
 50
328.424291
 51
349.524330
  0
ARC
  8
0
  6
BYLAYER
 62
     1
 10
1058.452180
 20
-656.582056
 30
0.0
 40
6.999995
 50
218.287805
 51
411.711659
  0
ARC
  8
0
  6
BYLAYER
 62
     1
 10
1064.028748
 20
-649.517938
 30
0.0
 40
1.999987
 50
148.424341
 51
231.711709
  0
ARC
  8
0
  6
BYLAYER
 62
     1
 10
1031.228669
 20
-629.358362
 30
0.0
 40
36.500046
 50
190.475671
 51
211.575696
  0
ARC
  8
0
  6
BYLAYER
 62
     1
 10
1004.005158
 20
-656.582056
 30
0.0
 40
7.000019
 50
128.288151
 51
321.712210
  0
ARC
  8
0
  6
BYLAYER
 62
     1
 10
998.428620
 20
-649.517908
 30
0.0
 40
1.999961
 50
308.287743
 51
391.575657
  0
LINE
  8
0
  6
BYLAYER
 62
     1
 10
967.728669
 20
-639.236170
 30
0.0
 11
964.228669
 21
-639.358362
 31
0.0
  0
LINE
  8
0
  6
BYLAYER
 62
     1
 10
964.228669
 20
-719.358362
 30
0.0
 11
964.228669
 21
-639.358362
 31
0.0
  0
LINE
  8
0
  6
BYLAYER
 62
     1
 10
964.228669
 20
-719.358362
 30
0.0
 11
964.228669
 21
-799.358362
 31
0.0
  0
LINE
  8
0
  6
BYLAYER
 62
     1
 10
966.228669
 20
-799.428186
 30
0.0
 11
964.228669
 21
-799.358362
 31
0.0
  0
LINE
  8
0
  6
BYLAYER
 62
     1
 10
964.228669
 20
-664.358362
 30
0.0
 11
961.728669
 21
-664.358362
 31
0.0
  0
LINE
  8
0
  6
BYLAYER
 62
     1
 10
961.728669
 20
-664.358362
 30
0.0
 11
961.228669
 21
-664.858362
 31
0.0
  0
LINE
  8
0
  6
BYLAYER
 62
     1
 10
961.228669
 20
-664.858362
 30
0.0
 11
961.228669
 21
-719.358362
 31
0.0
  0
LINE
  8
0
  6
BYLAYER
 62
     1
 10
964.228669
 20
-774.358362
 30
0.0
 11
961.728669
 21
-774.358362
 31
0.0
  0
LINE
  8
0
  6
BYLAYER
 62
     1
 10
961.728669
 20
-774.358362
 30
0.0
 11
961.228669
 21
-773.858362
 31
0.0
  0
LINE
  8
0
  6
BYLAYER
 62
     1
 10
961.228669
 20
-773.858362
 30
0.0
 11
961.228669
 21
-719.358362
 31
0.0
  0
LINE
  8
0
  6
BYLAYER
 62
     1
 10
1094.728669
 20
-639.236170
 30
0.0
 11
1098.228669
 21
-639.358362
 31
0.0
  0
LINE
  8
0
  6
BYLAYER
 62
     1
 10
1098.228669
 20
-719.358362
 30
0.0
 11
1098.228669
 21
-639.358362
 31
0.0
  0
LINE
  8
0
  6
BYLAYER
 62
     1
 10
1098.228669
 20
-719.358362
 30
0.0
 11
1098.228669
 21
-799.358362
 31
0.0
  0
LINE
  8
0
  6
BYLAYER
 62
     1
 10
1096.228669
 20
-799.428186
 30
0.0
 11
1098.228669
 21
-799.358362
 31
0.0
  0
LINE
  8
0
  6
BYLAYER
 62
     1
 10
1098.228669
 20
-664.358362
 30
0.0
 11
1100.728669
 21
-664.358362
 31
0.0
  0
LINE
  8
0
  6
BYLAYER
 62
     1
 10
1100.728669
 20
-664.358362
 30
0.0
 11
1101.228669
 21
-664.858362
 31
0.0
  0
LINE
  8
0
  6
BYLAYER
 62
     1
 10
1101.228669
 20
-664.858362
 30
0.0
 11
1101.228669
 21
-719.358362
 31
0.0
  0
LINE
  8
0
  6
BYLAYER
 62
     1
 10
1098.228669
 20
-774.358362
 30
0.0
 11
1100.728669
 21
-774.358362
 31
0.0
  0
LINE
  8
0
  6
BYLAYER
 62
     1
 10
1100.728669
 20
-774.358362
 30
0.0
 11
1101.228669
 21
-773.858362
 31
0.0
  0
LINE
  8
0
  6
BYLAYER
 62
     1
 10
1101.228669
 20
-773.858362
 30
0.0
 11
1101.228669
 21
-719.358362
 31
0.0
  0
CIRCLE
  8
0
  6
BYLAYER
 62
     1
 10
1031.228669
 20
-629.358362
 30
0.0
 40
31.0
  0
LINE
  8
0
  6
BYLAYER
 62
     1
 10
1068.228669
 20
-817.358331
 30
0.0
 11
994.228669
 21
-817.358331
 31
0.0
  0
LINE
  8
0
  6
BYLAYER
 62
     1
 10
228.228608
 20
-784.358362
 30
0.0
 11
178.228608
 21
-784.358362
 31
0.0
  0
LINE
  8
0
  6
BYLAYER
 62
     1
 10
228.228608
 20
-784.358362
 30
0.0
 11
229.728608
 21
-782.858362
 31
0.0
  0
LINE
  8
0
  6
BYLAYER
 62
     1
 10
178.228608
 20
-654.358362
 30
0.0
 11
228.228608
 21
-654.358362
 31
0.0
  0
LINE
  8
0
  6
BYLAYER
 62
     1
 10
228.228608
 20
-756.358362
 30
0.0
 11
228.228608
 21
-784.358362
 31
0.0
  0
LINE
  8
0
  6
BYLAYER
 62
     1
 10
228.228608
 20
-682.358362
 30
0.0
 11
228.228608
 21
-654.358362
 31
0.0
  0
LINE
  8
0
  6
BYLAYER
 62
     1
 10
229.728608
 20
-682.358362
 30
0.0
 11
229.728608
 21
-655.858362
 31
0.0
  0
LINE
  8
0
  6
BYLAYER
 62
     1
 10
384.228608
 20
-654.358362
 30
0.0
 11
384.228608
 21
-682.358362
 31
0.0
  0
LINE
  8
0
  6
BYLAYER
 62
     1
 10
384.228608
 20
-654.358362
 30
0.0
 11
334.228669
 21
-654.358362
 31
0.0
  0
LINE
  8
0
  6
BYLAYER
 62
     1
 10
332.728669
 20
-682.358362
 30
0.0
 11
332.728669
 21
-655.858362
 31
0.0
  0
LINE
  8
0
  6
BYLAYER
 62
     1
 10
334.228669
 20
-682.358362
 30
0.0
 11
334.228669
 21
-654.358362
 31
0.0
  0
LINE
  8
0
  6
BYLAYER
 62
     1
 10
384.228608
 20
-784.358362
 30
0.0
 11
384.228608
 21
-756.358362
 31
0.0
  0
LINE
  8
0
  6
BYLAYER
 62
     1
 10
334.228669
 20
-784.358362
 30
0.0
 11
384.228608
 21
-784.358362
 31
0.0
  0
LINE
  8
0
  6
BYLAYER
 62
     1
 10
334.228669
 20
-756.358362
 30
0.0
 11
334.228669
 21
-784.358362
 31
0.0
  0
LINE
  8
0
  6
BYLAYER
 62
     1
 10
334.228669
 20
-784.358362
 30
0.0
 11
332.728669
 21
-782.858362
 31
0.0
  0
CIRCLE
  8
0
  6
BYLAYER
 62
     1
 10
351.228669
 20
-769.358362
 30
0.0
 40
6.5
  0
CIRCLE
  8
0
  6
BYLAYER
 62
     1
 10
351.228669
 20
-669.358362
 30
0.0
 40
6.5
  0
LINE
  8
0
  6
BYLAYER
 62
     1
 10
332.728669
 20
-782.858362
 30
0.0
 11
229.728608
 21
-782.858362
 31
0.0
  0
LINE
  8
0
  6
BYLAYER
 62
     1
 10
178.228608
 20
-654.358362
 30
0.0
 11
178.228608
 21
-784.358362
 31
0.0
  0
ARC
  8
0
  6
BYLAYER
 62
     1
 10
208.228608
 20
-754.358362
 30
0.0
 40
2.000000
 50
180.000000
 51
269.999996
  0
ARC
  8
0
  6
BYLAYER
 62
     1
 10
208.228608
 20
-684.358362
 30
0.0
 40
1.999939
 50
90.0
 51
180.000003
  0
ARC
  8
0
  6
BYLAYER
 62
     1
 10
354.228669
 20
-754.358362
 30
0.0
 40
2.0
 50
270.0
 51
359.999982
  0
ARC
  8
0
  6
BYLAYER
 62
     1
 10
354.228669
 20
-684.358362
 30
0.0
 40
1.999939
 50
0.0
 51
90.000016
  0
LINE
  8
0
  6
BYLAYER
 62
     1
 10
384.228608
 20
-672.358423
 30
0.0
 11
386.228608
 21
-672.358423
 31
0.0
  0
LINE
  8
0
  6
BYLAYER
 62
     1
 10
384.228608
 20
-766.358362
 30
0.0
 11
386.228608
 21
-766.358362
 31
0.0
  0
LINE
  8
0
  6
BYLAYER
 62
     1
 10
386.228608
 20
-672.358423
 30
0.0
 11
386.228608
 21
-766.358362
 31
0.0
  0
CIRCLE
  8
0
  6
BYLAYER
 62
     1
 10
336.228608
 20
-719.358362
 30
0.0
 40
7.0
  0
ARC
  8
0
  6
BYLAYER
 62
     1
 10
207.228608
 20
-717.358362
 30
0.0
 40
1.0
 50
180.000000
 51
269.999996
  0
ARC
  8
0
  6
BYLAYER
 62
     1
 10
207.228608
 20
-721.358362
 30
0.0
 40
1.000000
 50
90.0
 51
180.000003
  0
ARC
  8
0
  6
BYLAYER
 62
     1
 10
207.228608
 20
-707.358362
 30
0.0
 40
1.0
 50
180.000000
 51
269.999996
  0
ARC
  8
0
  6
BYLAYER
 62
     1
 10
207.228608
 20
-711.358362
 30
0.0
 40
1.000000
 50
90.0
 51
180.000003
  0
ARC
  8
0
  6
BYLAYER
 62
     1
 10
207.228608
 20
-697.358362
 30
0.0
 40
1.0
 50
180.000000
 51
269.999996
  0
ARC
  8
0
  6
BYLAYER
 62
     1
 10
207.228608
 20
-701.358362
 30
0.0
 40
1.000000
 50
90.0
 51
180.000003
  0
ARC
  8
0
  6
BYLAYER
 62
     1
 10
207.228608
 20
-687.358362
 30
0.0
 40
1.0
 50
180.000000
 51
269.999996
  0
ARC
  8
0
  6
BYLAYER
 62
     1
 10
207.228608
 20
-691.358362
 30
0.0
 40
1.000000
 50
90.0
 51
180.000003
  0
ARC
  8
0
  6
BYLAYER
 62
     1
 10
207.228608
 20
-727.358362
 30
0.0
 40
1.0
 50
180.000000
 51
269.999996
  0
ARC
  8
0
  6
BYLAYER
 62
     1
 10
207.228608
 20
-737.358362
 30
0.0
 40
1.0
 50
180.000000
 51
269.999996
  0
ARC
  8
0
  6
BYLAYER
 62
     1
 10
207.228608
 20
-747.358362
 30
0.0
 40
1.0
 50
180.000000
 51
269.999996
  0
ARC
  8
0
  6
BYLAYER
 62
     1
 10
207.228608
 20
-731.358362
 30
0.0
 40
1.000000
 50
90.0
 51
180.000003
  0
ARC
  8
0
  6
BYLAYER
 62
     1
 10
207.228608
 20
-741.358362
 30
0.0
 40
1.000000
 50
90.0
 51
180.000003
  0
ARC
  8
0
  6
BYLAYER
 62
     1
 10
207.228608
 20
-751.358362
 30
0.0
 40
1.000000
 50
90.0
 51
180.000003
  0
ARC
  8
0
  6
BYLAYER
 62
     1
 10
355.228669
 20
-737.358362
 30
0.0
 40
1.000000
 50
270.0
 51
360.000003
  0
ARC
  8
0
  6
BYLAYER
 62
     1
 10
355.228669
 20
-741.358362
 30
0.0
 40
1.0
 50
0.0
 51
90.000003
  0
ARC
  8
0
  6
BYLAYER
 62
     1
 10
355.228669
 20
-747.358362
 30
0.0
 40
1.000000
 50
270.0
 51
360.000003
  0
ARC
  8
0
  6
BYLAYER
 62
     1
 10
355.228669
 20
-751.358362
 30
0.0
 40
1.0
 50
0.0
 51
90.000003
  0
ARC
  8
0
  6
BYLAYER
 62
     1
 10
355.228669
 20
-697.358423
 30
0.0
 40
1.0
 50
270.0
 51
360.000003
  0
ARC
  8
0
  6
BYLAYER
 62
     1
 10
355.228669
 20
-701.358423
 30
0.0
 40
1.0
 50
0.0
 51
90.000003
  0
ARC
  8
0
  6
BYLAYER
 62
     1
 10
355.228669
 20
-687.358423
 30
0.0
 40
1.0
 50
270.0
 51
360.000003
  0
ARC
  8
0
  6
BYLAYER
 62
     1
 10
355.228669
 20
-691.358423
 30
0.0
 40
1.0
 50
0.0
 51
90.000003
  0
LINE
  8
0
  6
BYLAYER
 62
     1
 10
178.228608
 20
-682.358362
 30
0.0
 11
384.228608
 21
-682.358362
 31
0.0
  0
LINE
  8
0
  6
BYLAYER
 62
     1
 10
384.228608
 20
-756.358362
 30
0.0
 11
178.228608
 21
-756.358362
 31
0.0
  0
LINE
  8
0
  6
BYLAYER
 62
     1
 10
332.728669
 20
-756.358362
 30
0.0
 11
332.728669
 21
-782.858362
 31
0.0
  0
LINE
  8
0
  6
BYLAYER
 62
     1
 10
229.728608
 20
-756.358362
 30
0.0
 11
229.728608
 21
-782.858362
 31
0.0
  0
CIRCLE
  8
0
  6
BYLAYER
 62
     1
 10
211.228608
 20
-769.358362
 30
0.0
 40
6.5
  0
CIRCLE
  8
0
  6
BYLAYER
 62
     1
 10
211.228608
 20
-669.358362
 30
0.0
 40
6.5
  0
CIRCLE
  8
0
  6
BYLAYER
 62
     1
 10
211.228608
 20
-669.358362
 30
0.0
 40
6.5
  0
CIRCLE
  8
0
  6
BYLAYER
 62
     1
 10
336.228608
 20
-719.358362
 30
0.0
 40
12.0
  0
LINE
  8
0
  6
BYLAYER
 62
     1
 10
356.228669
 20
-684.358362
 30
0.0
 11
356.228669
 21
-689.358362
 31
0.0
  0
LINE
  8
0
  6
BYLAYER
 62
     1
 10
356.228669
 20
-719.358362
 30
0.0
 11
356.228669
 21
-699.358362
 31
0.0
  0
LINE
  8
0
  6
BYLAYER
 62
     1
 10
356.228669
 20
-699.358362
 30
0.0
 11
356.228669
 21
-689.358362
 31
0.0
  0
LINE
  8
0
  6
BYLAYER
 62
     1
 10
356.228669
 20
-739.358362
 30
0.0
 11
356.228669
 21
-719.358362
 31
0.0
  0
LINE
  8
0
  6
BYLAYER
 62
     1
 10
356.228669
 20
-749.358362
 30
0.0
 11
356.228669
 21
-739.358362
 31
0.0
  0
LINE
  8
0
  6
BYLAYER
 62
     1
 10
356.228669
 20
-749.358362
 30
0.0
 11
356.228669
 21
-754.358362
 31
0.0
  0
LINE
  8
0
  6
BYLAYER
 62
     1
 10
206.228608
 20
-684.358362
 30
0.0
 11
206.228608
 21
-689.358362
 31
0.0
  0
LINE
  8
0
  6
BYLAYER
 62
     1
 10
206.228608
 20
-699.358362
 30
0.0
 11
206.228608
 21
-689.358362
 31
0.0
  0
LINE
  8
0
  6
BYLAYER
 62
     1
 10
206.228608
 20
-709.358423
 30
0.0
 11
206.228608
 21
-699.358362
 31
0.0
  0
LINE
  8
0
  6
BYLAYER
 62
     1
 10
206.228608
 20
-719.358362
 30
0.0
 11
206.228608
 21
-709.358423
 31
0.0
  0
LINE
  8
0
  6
BYLAYER
 62
     1
 10
206.228608
 20
-729.358362
 30
0.0
 11
206.228608
 21
-719.358362
 31
0.0
  0
LINE
  8
0
  6
BYLAYER
 62
     1
 10
206.228608
 20
-739.358362
 30
0.0
 11
206.228608
 21
-729.358362
 31
0.0
  0
LINE
  8
0
  6
BYLAYER
 62
     1
 10
206.228608
 20
-749.358362
 30
0.0
 11
206.228608
 21
-739.358362
 31
0.0
  0
LINE
  8
0
  6
BYLAYER
 62
     1
 10
206.228608
 20
-749.358362
 30
0.0
 11
206.228608
 21
-754.358362
 31
0.0
  0
LINE
  8
0
  6
BYLAYER
 62
     1
 10
229.728547
 20
-655.858362
 30
0.0
 11
332.728730
 21
-655.858362
 31
0.0
  0
LINE
  8
0
  6
BYLAYER
 62
     1
 10
228.228608
 20
-654.358362
 30
0.0
 11
229.728547
 21
-655.858362
 31
0.0
  0
LINE
  8
0
  6
BYLAYER
 62
     1
 10
334.228669
 20
-654.358362
 30
0.0
 11
332.728730
 21
-655.858362
 31
0.0
  0
LINE
  8
0
  6
BYLAYER
 62
     1
 10
332.728669
 20
-655.858362
 30
0.0
 11
229.728547
 21
-655.858362
 31
0.0
  0
LINE
  8
0
  6
BYLAYER
 62
     1
 10
281.228669
 20
-652.358362
 30
0.0
 11
201.228669
 21
-652.358362
 31
0.0
  0
LINE
  8
0
  6
BYLAYER
 62
     1
 10
334.228730
 20
-654.358362
 30
0.0
 11
332.728791
 21
-655.858362
 31
0.0
  0
LINE
  8
0
  6
BYLAYER
 62
     1
 10
281.228669
 20
-652.358362
 30
0.0
 11
361.228669
 21
-652.358362
 31
0.0
  0
LINE
  8
0
  6
BYLAYER
 62
     1
 10
201.158845
 20
-654.358362
 30
0.0
 11
201.228669
 21
-652.358362
 31
0.0
  0
LINE
  8
0
  6
BYLAYER
 62
     1
 10
361.298493
 20
-654.358362
 30
0.0
 11
361.228669
 21
-652.358362
 31
0.0
  0
LINE
  8
0
  6
BYLAYER
 62
     1
 10
226.728669
 20
-649.358362
 30
0.0
 11
226.228669
 21
-649.858362
 31
0.0
  0
LINE
  8
0
  6
BYLAYER
 62
     1
 10
226.228669
 20
-649.858362
 30
0.0
 11
226.228669
 21
-652.358362
 31
0.0
  0
LINE
  8
0
  6
BYLAYER
 62
     1
 10
226.728669
 20
-649.358362
 30
0.0
 11
335.728669
 21
-649.358362
 31
0.0
  0
LINE
  8
0
  6
BYLAYER
 62
     1
 10
335.728669
 20
-649.358362
 30
0.0
 11
336.228669
 21
-649.858362
 31
0.0
  0
LINE
  8
0
  6
BYLAYER
 62
     1
 10
336.228669
 20
-649.858362
 30
0.0
 11
336.228669
 21
-652.358362
 31
0.0
  0
LINE
  8
0
  6
BYLAYER
 62
     1
 10
281.228669
 20
-786.358362
 30
0.0
 11
201.228669
 21
-786.358362
 31
0.0
  0
LINE
  8
0
  6
BYLAYER
 62
     1
 10
281.228669
 20
-786.358362
 30
0.0
 11
361.228669
 21
-786.358362
 31
0.0
  0
LINE
  8
0
  6
BYLAYER
 62
     1
 10
201.158845
 20
-784.358362
 30
0.0
 11
201.228669
 21
-786.358362
 31
0.0
  0
LINE
  8
0
  6
BYLAYER
 62
     1
 10
361.298493
 20
-784.358362
 30
0.0
 11
361.228669
 21
-786.358362
 31
0.0
  0
LINE
  8
0
  6
BYLAYER
 62
     1
 10
226.728669
 20
-789.358362
 30
0.0
 11
226.228669
 21
-788.858362
 31
0.0
  0
LINE
  8
0
  6
BYLAYER
 62
     1
 10
226.228669
 20
-788.858362
 30
0.0
 11
226.228669
 21
-786.358362
 31
0.0
  0
LINE
  8
0
  6
BYLAYER
 62
     1
 10
226.728669
 20
-789.358362
 30
0.0
 11
335.728669
 21
-789.358362
 31
0.0
  0
LINE
  8
0
  6
BYLAYER
 62
     1
 10
335.728669
 20
-789.358362
 30
0.0
 11
336.228669
 21
-788.858362
 31
0.0
  0
LINE
  8
0
  6
BYLAYER
 62
     1
 10
336.228669
 20
-788.858362
 30
0.0
 11
336.228669
 21
-786.358362
 31
0.0
  0
ARC
  8
0
  6
BYLAYER
 62
     1
 10
243.824673
 20
-739.358362
 30
0.0
 40
1.000000
 50
270.0
 51
450.000005
  0
ARC
  8
0
  6
BYLAYER
 62
     1
 10
243.824673
 20
-749.358362
 30
0.0
 40
1.0
 50
270.0
 51
450.000005
  0
LINE
  8
0
  6
BYLAYER
 62
     1
 10
243.824673
 20
-748.358362
 30
0.0
 11
207.228608
 21
-748.358423
 31
0.0
  0
LINE
  8
0
  6
BYLAYER
 62
     1
 10
243.824673
 20
-750.358362
 30
0.0
 11
207.228608
 21
-750.358423
 31
0.0
  0
LINE
  8
0
  6
BYLAYER
 62
     1
 10
243.824673
 20
-738.358362
 30
0.0
 11
207.228608
 21
-738.358423
 31
0.0
  0
LINE
  8
0
  6
BYLAYER
 62
     1
 10
243.824673
 20
-740.358362
 30
0.0
 11
207.228608
 21
-740.358423
 31
0.0
  0
ARC
  8
0
  6
BYLAYER
 62
     1
 10
243.824673
 20
-699.358362
 30
0.0
 40
1.0
 50
270.0
 51
450.000005
  0
ARC
  8
0
  6
BYLAYER
 62
     1
 10
243.824673
 20
-689.358362
 30
0.0
 40
1.0
 50
270.0
 51
450.000005
  0
LINE
  8
0
  6
BYLAYER
 62
     1
 10
243.824673
 20
-688.358362
 30
0.0
 11
207.228608
 21
-688.358362
 31
0.0
  0
LINE
  8
0
  6
BYLAYER
 62
     1
 10
243.824673
 20
-690.358362
 30
0.0
 11
207.228608
 21
-690.358362
 31
0.0
  0
LINE
  8
0
  6
BYLAYER
 62
     1
 10
243.824673
 20
-698.358362
 30
0.0
 11
207.228608
 21
-698.358362
 31
0.0
  0
LINE
  8
0
  6
BYLAYER
 62
     1
 10
243.824673
 20
-700.358362
 30
0.0
 11
207.228608
 21
-700.358362
 31
0.0
  0
ARC
  8
0
  6
BYLAYER
 62
     1
 10
248.238773
 20
-719.358423
 30
0.0
 40
1.0
 50
270.0
 51
450.000005
  0
LINE
  8
0
  6
BYLAYER
 62
     1
 10
207.228608
 20
-718.358362
 30
0.0
 11
248.238773
 21
-718.358423
 31
0.0
  0
LINE
  8
0
  6
BYLAYER
 62
     1
 10
207.228608
 20
-720.358362
 30
0.0
 11
248.238773
 21
-720.358423
 31
0.0
  0
ARC
  8
0
  6
BYLAYER
 62
     1
 10
250.238773
 20
-709.358423
 30
0.0
 40
1.0
 50
270.0
 51
450.000005
  0
LINE
  8
0
  6
BYLAYER
 62
     1
 10
207.228608
 20
-708.358362
 30
0.0
 11
250.238773
 21
-708.358423
 31
0.0
  0
LINE
  8
0
  6
BYLAYER
 62
     1
 10
207.228608
 20
-710.358362
 30
0.0
 11
250.238773
 21
-710.358423
 31
0.0
  0
ARC
  8
0
  6
BYLAYER
 62
     1
 10
250.238773
 20
-729.358362
 30
0.0
 40
1.0
 50
270.0
 51
450.000005
  0
LINE
  8
0
  6
BYLAYER
 62
     1
 10
207.228608
 20
-730.358423
 30
0.0
 11
250.238773
 21
-730.358362
 31
0.0
  0
LINE
  8
0
  6
BYLAYER
 62
     1
 10
207.228608
 20
-728.358423
 30
0.0
 11
250.238773
 21
-728.358362
 31
0.0
  0
ARC
  8
0
  6
BYLAYER
 62
     1
 10
316.842800
 20
-739.358362
 30
0.0
 40
1.000000
 50
90.0
 51
270.000005
  0
ARC
  8
0
  6
BYLAYER
 62
     1
 10
316.842800
 20
-749.358362
 30
0.0
 40
1.0
 50
90.0
 51
270.000005
  0
LINE
  8
0
  6
BYLAYER
 62
     1
 10
355.228669
 20
-748.358362
 30
0.0
 11
316.842800
 21
-748.358423
 31
0.0
  0
LINE
  8
0
  6
BYLAYER
 62
     1
 10
355.228669
 20
-750.358362
 30
0.0
 11
316.842800
 21
-750.358423
 31
0.0
  0
LINE
  8
0
  6
BYLAYER
 62
     1
 10
355.228669
 20
-738.358362
 30
0.0
 11
316.842800
 21
-738.358423
 31
0.0
  0
ARC
  8
0
  6
BYLAYER
 62
     1
 10
316.842800
 20
-699.358362
 30
0.0
 40
1.0
 50
90.0
 51
270.000005
  0
ARC
  8
0
  6
BYLAYER
 62
     1
 10
316.842800
 20
-689.358362
 30
0.0
 40
1.0
 50
90.0
 51
270.000005
  0
LINE
  8
0
  6
BYLAYER
 62
     1
 10
355.228669
 20
-698.358423
 30
0.0
 11
316.842800
 21
-698.358362
 31
0.0
  0
LINE
  8
0
  6
BYLAYER
 62
     1
 10
355.228669
 20
-700.358423
 30
0.0
 11
316.842800
 21
-700.358362
 31
0.0
  0
LINE
  8
0
  6
BYLAYER
 62
     1
 10
316.842800
 20
-740.358423
 30
0.0
 11
355.228669
 21
-740.358362
 31
0.0
  0
LINE
  8
0
  6
BYLAYER
 62
     1
 10
316.842800
 20
-688.358362
 30
0.0
 11
355.228669
 21
-688.358362
 31
0.0
  0
LINE
  8
0
  6
BYLAYER
 62
     1
 10
316.842800
 20
-690.358362
 30
0.0
 11
355.228669
 21
-690.358362
 31
0.0
  0
LINE
  8
0
  6
BYLAYER
 62
     1
 10
386.228669
 20
-129.358362
 30
0.0
 11
386.228669
 21
-176.858270
 31
0.0
  0
ARC
  8
0
  6
BYLAYER
 62
     1
 10
402.728669
 20
-196.936334
 30
0.0
 40
2.000022
 50
183.795336
 51
266.999963
  0
LINE
  8
0
  6
BYLAYER
 62
     1
 10
400.728669
 20
-196.936334
 30
0.0
 11
400.728669
 21
-129.358362
 31
0.0
  0
ARC
  8
0
  6
BYLAYER
 62
     1
 10
398.728669
 20
-179.516046
 30
0.0
 40
2.000000
 50
0.0
 51
87.000334
  0
LINE
  8
0
  6
BYLAYER
 62
     1
 10
386.228669
 20
-176.858270
 30
0.0
 11
398.833314
 21
-177.518793
 31
0.0
  0
LINE
  8
0
  6
BYLAYER
 62
     1
 10
400.730866
 20
-194.358362
 30
0.0
 11
388.562836
 21
-176.980585
 31
0.0
  0
LINE
  8
0
  6
BYLAYER
 62
     1
 10
402.623994
 20
-198.933588
 30
0.0
 11
410.728669
 21
-199.358379
 31
0.0
  0
LINE
  8
0
  6
BYLAYER
 62
     1
 10
410.728669
 20
-199.358379
 30
0.0
 11
410.728669
 21
-129.358362
 31
0.0
  0
LINE
  8
0
  6
BYLAYER
 62
     1
 10
386.228669
 20
-129.358362
 30
0.0
 11
386.228669
 21
-81.858454
 31
0.0
  0
ARC
  8
0
  6
BYLAYER
 62
     1
 10
402.728669
 20
-61.780390
 30
0.0
 40
2.000022
 50
93.000037
 51
176.204664
  0
LINE
  8
0
  6
BYLAYER
 62
     1
 10
400.728669
 20
-61.780390
 30
0.0
 11
400.728669
 21
-129.358362
 31
0.0
  0
ARC
  8
0
  6
BYLAYER
 62
     1
 10
398.728669
 20
-79.200678
 30
0.0
 40
2.000000
 50
272.999666
 51
360.000000
  0
LINE
  8
0
  6
BYLAYER
 62
     1
 10
386.228669
 20
-81.858454
 30
0.0
 11
398.833314
 21
-81.197931
 31
0.0
  0
LINE
  8
0
  6
BYLAYER
 62
     1
 10
400.730866
 20
-64.358362
 30
0.0
 11
388.562836
 21
-81.736139
 31
0.0
  0
LINE
  8
0
  6
BYLAYER
 62
     1
 10
402.623994
 20
-59.783136
 30
0.0
 11
410.728669
 21
-59.358345
 31
0.0
  0
LINE
  8
0
  6
BYLAYER
 62
     1
 10
410.728669
 20
-59.358345
 30
0.0
 11
410.728669
 21
-129.358362
 31
0.0
  0
LINE
  8
0
  6
BYLAYER
 62
     1
 10
966.228791
 20
-322.358362
 30
0.0
 11
994.228669
 21
-322.358362
 31
0.0
  0
LINE
  8
0
  6
BYLAYER
 62
     1
 10
966.228791
 20
-272.358362
 30
0.0
 11
966.228791
 21
-322.358362
 31
0.0
  0
LINE
  8
0
  6
BYLAYER
 62
     1
 10
966.228791
 20
-272.358362
 30
0.0
 11
967.728791
 21
-270.858362
 31
0.0
  0
LINE
  8
0
  6
BYLAYER
 62
     1
 10
967.728791
 20
-188.168687
 30
0.0
 11
967.728791
 21
-270.858362
 31
0.0
  0
LINE
  8
0
  6
BYLAYER
 62
     1
 10
1096.228669
 20
-322.358362
 30
0.0
 11
1068.228669
 21
-322.358362
 31
0.0
  0
LINE
  8
0
  6
BYLAYER
 62
     1
 10
1096.228669
 20
-272.358362
 30
0.0
 11
1094.728669
 21
-270.858423
 31
0.0
  0
LINE
  8
0
  6
BYLAYER
 62
     1
 10
1096.228669
 20
-322.358362
 30
0.0
 11
1096.228669
 21
-272.358362
 31
0.0
  0
LINE
  8
0
  6
BYLAYER
 62
     1
 10
1094.728669
 20
-188.168555
 30
0.0
 11
1094.728669
 21
-270.858423
 31
0.0
  0
LINE
  8
0
  6
BYLAYER
 62
     1
 10
1098.228669
 20
-299.358362
 30
0.0
 11
1096.228669
 21
-299.428186
 31
0.0
  0
CIRCLE
  8
0
  6
BYLAYER
 62
     1
 10
1081.228669
 20
-289.358362
 30
0.0
 40
6.5
  0
LINE
  8
0
  6
BYLAYER
 62
     1
 10
994.228669
 20
-270.858362
 30
0.0
 11
967.728791
 21
-270.858362
 31
0.0
  0
LINE
  8
0
  6
BYLAYER
 62
     1
 10
994.228669
 20
-272.358362
 30
0.0
 11
966.228791
 21
-272.358362
 31
0.0
  0
LINE
  8
0
  6
BYLAYER
 62
     1
 10
1068.228669
 20
-272.358362
 30
0.0
 11
1096.228669
 21
-272.358362
 31
0.0
  0
LINE
  8
0
  6
BYLAYER
 62
     1
 10
1068.228669
 20
-270.858362
 30
0.0
 11
1094.728669
 21
-270.858362
 31
0.0
  0
CIRCLE
  8
0
  6
BYLAYER
 62
     1
 10
981.228669
 20
-289.358362
 30
0.0
 40
6.5
  0
LINE
  8
0
  6
BYLAYER
 62
     1
 10
1068.228669
 20
-207.600862
 30
0.0
 11
1068.228669
 21
-322.358362
 31
0.0
  0
LINE
  8
0
  6
BYLAYER
 62
     1
 10
994.228669
 20
-207.600862
 30
0.0
 11
994.228669
 21
-322.358362
 31
0.0
  0
LINE
  8
0
  6
BYLAYER
 62
     1
 10
1098.228669
 20
-299.358362
 30
0.0
 11
1098.228669
 21
-184.147858
 31
0.0
  0
LINE
  8
0
  6
BYLAYER
 62
     1
 10
1101.228669
 20
-219.358362
 30
0.0
 11
1101.228669
 21
-180.259136
 31
0.0
  0
LINE
  8
0
  6
BYLAYER
 62
     1
 10
1101.228669
 20
-219.358362
 30
0.0
 11
1101.228669
 21
-273.858362
 31
0.0
  0
LINE
  8
0
  6
BYLAYER
 62
     1
 10
1101.228669
 20
-273.858362
 30
0.0
 11
1100.728669
 21
-274.358362
 31
0.0
  0
LINE
  8
0
  6
BYLAYER
 62
     1
 10
1100.728669
 20
-274.358362
 30
0.0
 11
1098.228669
 21
-274.358362
 31
0.0
  0
LINE
  8
0
  6
BYLAYER
 62
     1
 10
966.228669
 20
-272.358362
 30
0.0
 11
967.728669
 21
-270.858423
 31
0.0
  0
LINE
  8
0
  6
BYLAYER
 62
     1
 10
964.228669
 20
-299.358362
 30
0.0
 11
966.228669
 21
-299.428186
 31
0.0
  0
LINE
  8
0
  6
BYLAYER
 62
     1
 10
964.228669
 20
-299.358362
 30
0.0
 11
964.228669
 21
-184.147858
 31
0.0
  0
LINE
  8
0
  6
BYLAYER
 62
     1
 10
961.228669
 20
-219.358362
 30
0.0
 11
961.228669
 21
-180.259136
 31
0.0
  0
LINE
  8
0
  6
BYLAYER
 62
     1
 10
961.228669
 20
-219.358362
 30
0.0
 11
961.228669
 21
-273.858362
 31
0.0
  0
LINE
  8
0
  6
BYLAYER
 62
     1
 10
961.228669
 20
-273.858362
 30
0.0
 11
961.728669
 21
-274.358362
 31
0.0
  0
LINE
  8
0
  6
BYLAYER
 62
     1
 10
961.728669
 20
-274.358362
 30
0.0
 11
964.228669
 21
-274.358362
 31
0.0
  0
LINE
  8
0
  6
BYLAYER
 62
     1
 10
1068.228669
 20
-317.358331
 30
0.0
 11
994.228669
 21
-317.358331
 31
0.0
  0
LINE
  8
0
  6
BYLAYER
 62
     7
 10
987.728562
 20
-22.858393
 30
0.0
 11
987.728562
 21
-1.358393
 31
0.0
  0
ARC
  8
0
  6
BYLAYER
 62
     7
 10
986.228562
 20
-22.858393
 30
0.0
 40
1.500000
 50
270.0
 51
360.0
  0
ARC
  8
0
  6
BYLAYER
 62
     7
 10
989.228562
 20
-1.358393
 30
0.0
 40
1.500000
 50
90.0
 51
180.0
  0
LINE
  8
0
  6
BYLAYER
 62
     7
 10
1031.228562
 20
0.141607
 30
0.0
 11
989.228562
 21
0.141607
 31
0.0
  0
LINE
  8
0
  6
BYLAYER
 62
     7
 10
993.100803
 20
-22.858393
 30
0.0
 11
993.100803
 21
-1.358393
 31
0.0
  0
ARC
  8
0
  6
BYLAYER
 62
     7
 10
991.600803
 20
-22.858393
 30
0.0
 40
1.500000
 50
270.0
 51
360.0
  0
ARC
  8
0
  6
BYLAYER
 62
     7
 10
994.600803
 20
-1.358393
 30
0.0
 40
1.500000
 50
90.0
 51
180.0
  0
LINE
  8
0
  6
BYLAYER
 62
     7
 10
1018.134909
 20
0.141607
 30
0.0
 11
1018.627456
 21
-13.963091
 31
0.0
  0
ARC
  8
0
  6
BYLAYER
 62
     7
 10
1021.625628
 20
-13.858393
 30
0.0
 40
3.000000
 50
182.000000
 51
270.000000
  0
LINE
  8
0
  6
BYLAYER
 62
     7
 10
1028.829668
 20
-13.963091
 30
0.0
 11
1029.322215
 21
0.141607
 31
0.0
  0
ARC
  8
0
  6
BYLAYER
 62
     7
 10
1025.831496
 20
-13.858393
 30
0.0
 40
3.0
 50
270.0
 51
358.0
  0
LINE
  8
0
  6
BYLAYER
 62
     7
 10
1021.625628
 20
-16.858393
 30
0.0
 11
1025.831496
 21
-16.858393
 31
0.0
  0
LINE
  8
0
  6
BYLAYER
 62
     7
 10
1003.134909
 20
0.141607
 30
0.0
 11
1003.627456
 21
-13.963091
 31
0.0
  0
ARC
  8
0
  6
BYLAYER
 62
     7
 10
1006.625628
 20
-13.858393
 30
0.0
 40
3.000000
 50
182.000000
 51
270.000000
  0
LINE
  8
0
  6
BYLAYER
 62
     7
 10
1013.829668
 20
-13.963091
 30
0.0
 11
1014.322215
 21
0.141607
 31
0.0
  0
ARC
  8
0
  6
BYLAYER
 62
     7
 10
1010.831496
 20
-13.858393
 30
0.0
 40
3.0
 50
270.0
 51
358.0
  0
LINE
  8
0
  6
BYLAYER
 62
     7
 10
1006.625628
 20
-16.858393
 30
0.0
 11
1010.831496
 21
-16.858393
 31
0.0
  0
LINE
  8
0
  6
BYLAYER
 62
     7
 10
1003.169830
 20
-0.858393
 30
0.0
 11
1014.287294
 21
-0.858393
 31
0.0
  0
LINE
  8
0
  6
BYLAYER
 62
     7
 10
1018.169830
 20
-0.858393
 30
0.0
 11
1029.287294
 21
-0.858393
 31
0.0
  0
LINE
  8
0
  6
BYLAYER
 62
     7
 10
1031.228562
 20
-24.358393
 30
0.0
 11
983.728562
 21
-24.358393
 31
0.0
  0
ARC
  8
0
  6
BYLAYER
 62
     7
 10
983.728562
 20
-25.858393
 30
0.0
 40
1.500000
 50
90.0
 51
180.0
  0
LINE
  8
0
  6
BYLAYER
 62
     7
 10
982.228562
 20
-31.358393
 30
0.0
 11
982.228562
 21
-25.858393
 31
0.0
  0
LINE
  8
0
  6
BYLAYER
 62
     7
 10
982.228562
 20
-31.358393
 30
0.0
 11
1031.228562
 21
-31.358393
 31
0.0
  0
LINE
  8
0
  6
BYLAYER
 62
     7
 10
1074.728562
 20
-22.858393
 30
0.0
 11
1074.728562
 21
-1.358393
 31
0.0
  0
ARC
  8
0
  6
BYLAYER
 62
     7
 10
1076.228562
 20
-22.858393
 30
0.0
 40
1.500000
 50
180.000000
 51
270.000000
  0
ARC
  8
0
  6
BYLAYER
 62
     7
 10
1073.228562
 20
-1.358393
 30
0.0
 40
1.500000
 50
0.0
 51
90.0
  0
LINE
  8
0
  6
BYLAYER
 62
     7
 10
1031.228562
 20
0.141607
 30
0.0
 11
1073.228562
 21
0.141607
 31
0.0
  0
LINE
  8
0
  6
BYLAYER
 62
     7
 10
1069.356321
 20
-22.858393
 30
0.0
 11
1069.356321
 21
-1.358393
 31
0.0
  0
ARC
  8
0
  6
BYLAYER
 62
     7
 10
1070.856321
 20
-22.858393
 30
0.0
 40
1.500000
 50
180.000000
 51
270.000000
  0
ARC
  8
0
  6
BYLAYER
 62
     7
 10
1067.856321
 20
-1.358393
 30
0.0
 40
1.500000
 50
0.0
 51
90.0
  0
LINE
  8
0
  6
BYLAYER
 62
     7
 10
1044.322215
 20
0.141607
 30
0.0
 11
1043.829668
 21
-13.963091
 31
0.0
  0
ARC
  8
0
  6
BYLAYER
 62
     7
 10
1040.831496
 20
-13.858393
 30
0.0
 40
3.0
 50
270.0
 51
358.0
  0
LINE
  8
0
  6
BYLAYER
 62
     7
 10
1033.627456
 20
-13.963091
 30
0.0
 11
1033.134909
 21
0.141607
 31
0.0
  0
ARC
  8
0
  6
BYLAYER
 62
     7
 10
1036.625628
 20
-13.858393
 30
0.0
 40
3.000000
 50
182.000000
 51
270.000000
  0
LINE
  8
0
  6
BYLAYER
 62
     7
 10
1040.831496
 20
-16.858393
 30
0.0
 11
1036.625628
 21
-16.858393
 31
0.0
  0
LINE
  8
0
  6
BYLAYER
 62
     7
 10
1059.322215
 20
0.141607
 30
0.0
 11
1058.829668
 21
-13.963091
 31
0.0
  0
ARC
  8
0
  6
BYLAYER
 62
     7
 10
1055.831496
 20
-13.858393
 30
0.0
 40
3.0
 50
270.0
 51
358.0
  0
LINE
  8
0
  6
BYLAYER
 62
     7
 10
1048.627456
 20
-13.963091
 30
0.0
 11
1048.134909
 21
0.141607
 31
0.0
  0
ARC
  8
0
  6
BYLAYER
 62
     7
 10
1051.625628
 20
-13.858393
 30
0.0
 40
3.000000
 50
182.000000
 51
270.000000
  0
LINE
  8
0
  6
BYLAYER
 62
     7
 10
1055.831496
 20
-16.858393
 30
0.0
 11
1051.625628
 21
-16.858393
 31
0.0
  0
LINE
  8
0
  6
BYLAYER
 62
     7
 10
1059.287294
 20
-0.858393
 30
0.0
 11
1048.169830
 21
-0.858393
 31
0.0
  0
LINE
  8
0
  6
BYLAYER
 62
     7
 10
1044.287294
 20
-0.858393
 30
0.0
 11
1033.169830
 21
-0.858393
 31
0.0
  0
LINE
  8
0
  6
BYLAYER
 62
     7
 10
1031.228562
 20
-24.358393
 30
0.0
 11
1078.728562
 21
-24.358393
 31
0.0
  0
ARC
  8
0
  6
BYLAYER
 62
     7
 10
1078.728562
 20
-25.858393
 30
0.0
 40
1.500000
 50
0.0
 51
90.0
  0
LINE
  8
0
  6
BYLAYER
 62
     7
 10
1080.228562
 20
-33.358393
 30
0.0
 11
1080.228562
 21
-25.858393
 31
0.0
  0
LINE
  8
0
  6
BYLAYER
 62
     7
 10
1080.228562
 20
-31.358393
 30
0.0
 11
1031.228562
 21
-31.358393
 31
0.0
  0
LINE
  8
0
  6
BYLAYER
 62
     7
 10
982.228562
 20
-33.358393
 30
0.0
 11
1031.228546
 21
-33.358393
 31
0.0
  0
LINE
  8
0
  6
BYLAYER
 62
     7
 10
982.228562
 20
-38.858393
 30
0.0
 11
985.228562
 21
-44.054560
 31
0.0
  0
LINE
  8
0
  6
BYLAYER
 62
     7
 10
1080.228546
 20
-33.358271
 30
0.0
 11
1031.228546
 21
-33.358393
 31
0.0
  0
LINE
  8
0
  6
BYLAYER
 62
     7
 10
1080.228546
 20
-38.858271
 30
0.0
 11
1077.228546
 21
-44.054438
 31
0.0
  0
LINE
  8
0
  6
BYLAYER
 62
     7
 10
985.228562
 20
-44.054560
 30
0.0
 11
985.228562
 21
-56.044796
 31
0.0
  0
LINE
  8
0
  6
BYLAYER
 62
     7
 10
982.228562
 20
-33.358393
 30
0.0
 11
982.228562
 21
-58.014979
 31
0.0
  0
LINE
  8
0
  6
BYLAYER
 62
     7
 10
1080.228546
 20
-33.358271
 30
0.0
 11
1080.228575
 21
-58.014841
 31
0.0
  0
LINE
  8
0
  6
BYLAYER
 62
     7
 10
1077.228546
 20
-44.054438
 30
0.0
 11
1077.228557
 21
-56.044659
 31
0.0
  0
LINE
  8
0
  6
BYLAYER
 62
     7
 10
982.228562
 20
-31.358393
 30
0.0
 11
982.228562
 21
-33.358393
 31
0.0
  0
LINE
  8
0
  6
BYLAYER
 62
     7
 10
982.228562
 20
-33.358393
 30
0.0
 11
1080.228562
 21
-33.358393
 31
0.0
  0
LINE
  8
0
  6
BYLAYER
 62
     7
 10
1032.228669
 20
-100.358362
 30
0.0
 11
1032.228669
 21
-108.358362
 31
0.0
  0
LINE
  8
0
  6
BYLAYER
 62
     7
 10
1032.228669
 20
-90.358362
 30
0.0
 11
1032.228669
 21
-98.358362
 31
0.0
  0
LINE
  8
0
  6
BYLAYER
 62
     7
 10
1040.228669
 20
-98.358362
 30
0.0
 11
1040.228669
 21
-90.358362
 31
0.0
  0
LINE
  8
0
  6
BYLAYER
 62
     7
 10
1042.228669
 20
-98.358362
 30
0.0
 11
1042.228669
 21
-90.358362
 31
0.0
  0
LINE
  8
0
  6
BYLAYER
 62
     7
 10
1032.228669
 20
-108.358362
 30
0.0
 11
1040.228669
 21
-108.358362
 31
0.0
  0
LINE
  8
0
  6
BYLAYER
 62
     7
 10
1032.228669
 20
-100.358362
 30
0.0
 11
1040.228669
 21
-100.358362
 31
0.0
  0
LINE
  8
0
  6
BYLAYER
 62
     7
 10
1042.228669
 20
-98.358362
 30
0.0
 11
1050.066668
 21
-98.358362
 31
0.0
  0
LINE
  8
0
  6
BYLAYER
 62
     7
 10
1032.228669
 20
-98.358362
 30
0.0
 11
1040.228669
 21
-98.358362
 31
0.0
  0
LINE
  8
0
  6
BYLAYER
 62
     7
 10
1042.228669
 20
-90.358362
 30
0.0
 11
1050.066668
 21
-90.358362
 31
0.0
  0
LINE
  8
0
  6
BYLAYER
 62
     7
 10
1032.228669
 20
-90.358362
 30
0.0
 11
1040.228669
 21
-90.358362
 31
0.0
  0
LINE
  8
0
  6
BYLAYER
 62
     7
 10
1050.066668
 20
-98.358362
 30
0.0
 11
1050.066668
 21
-90.358362
 31
0.0
  0
LINE
  8
0
  6
BYLAYER
 62
     7
 10
1040.228669
 20
-108.358362
 30
0.0
 11
1040.228669
 21
-100.358362
 31
0.0
  0
LINE
  8
0
  6
BYLAYER
 62
     7
 10
1042.228669
 20
-100.358362
 30
0.0
 11
1042.228669
 21
-108.358362
 31
0.0
  0
LINE
  8
0
  6
BYLAYER
 62
     7
 10
1042.228669
 20
-108.358362
 30
0.0
 11
1050.228669
 21
-108.358362
 31
0.0
  0
LINE
  8
0
  6
BYLAYER
 62
     7
 10
1042.228669
 20
-100.358362
 30
0.0
 11
1050.228669
 21
-100.358362
 31
0.0
  0
LINE
  8
0
  6
BYLAYER
 62
     7
 10
1050.228669
 20
-108.358362
 30
0.0
 11
1050.228669
 21
-100.358362
 31
0.0
  0
LINE
  8
0
  6
BYLAYER
 62
     7
 10
1052.228669
 20
-118.358362
 30
0.0
 11
1060.228669
 21
-118.358362
 31
0.0
  0
LINE
  8
0
  6
BYLAYER
 62
     7
 10
1052.228669
 20
-100.358362
 30
0.0
 11
1052.228669
 21
-108.358362
 31
0.0
  0
LINE
  8
0
  6
BYLAYER
 62
     7
 10
1052.228669
 20
-110.358362
 30
0.0
 11
1052.228669
 21
-118.358362
 31
0.0
  0
LINE
  8
0
  6
BYLAYER
 62
     7
 10
1052.228669
 20
-110.358362
 30
0.0
 11
1060.228669
 21
-110.358362
 31
0.0
  0
LINE
  8
0
  6
BYLAYER
 62
     7
 10
1052.228669
 20
-108.358362
 30
0.0
 11
1060.228669
 21
-108.358362
 31
0.0
  0
LINE
  8
0
  6
BYLAYER
 62
     7
 10
1052.228669
 20
-100.358362
 30
0.0
 11
1060.228669
 21
-100.358362
 31
0.0
  0
LINE
  8
0
  6
BYLAYER
 62
     7
 10
1060.228669
 20
-118.358362
 30
0.0
 11
1060.228669
 21
-110.358362
 31
0.0
  0
LINE
  8
0
  6
BYLAYER
 62
     7
 10
1060.228669
 20
-108.358362
 30
0.0
 11
1060.228669
 21
-100.358362
 31
0.0
  0
LINE
  8
0
  6
BYLAYER
 62
     7
 10
1052.228669
 20
-128.358362
 30
0.0
 11
1060.228669
 21
-128.358362
 31
0.0
  0
LINE
  8
0
  6
BYLAYER
 62
     7
 10
1052.228669
 20
-120.358362
 30
0.0
 11
1052.228669
 21
-128.358362
 31
0.0
  0
LINE
  8
0
  6
BYLAYER
 62
     7
 10
1052.228669
 20
-120.358362
 30
0.0
 11
1060.228669
 21
-120.358362
 31
0.0
  0
LINE
  8
0
  6
BYLAYER
 62
     7
 10
1060.228669
 20
-128.358362
 30
0.0
 11
1060.228669
 21
-120.358362
 31
0.0
  0
LINE
  8
0
  6
BYLAYER
 62
     7
 10
1062.228669
 20
-118.358362
 30
0.0
 11
1070.228669
 21
-118.358362
 31
0.0
  0
LINE
  8
0
  6
BYLAYER
 62
     7
 10
1062.228669
 20
-110.358362
 30
0.0
 11
1062.228669
 21
-118.358362
 31
0.0
  0
LINE
  8
0
  6
BYLAYER
 62
     7
 10
1062.228669
 20
-110.358362
 30
0.0
 11
1070.228669
 21
-110.358362
 31
0.0
  0
LINE
  8
0
  6
BYLAYER
 62
     7
 10
1070.228669
 20
-118.358362
 30
0.0
 11
1070.228669
 21
-110.358362
 31
0.0
  0
LINE
  8
0
  6
BYLAYER
 62
     7
 10
1062.228669
 20
-128.358362
 30
0.0
 11
1070.228669
 21
-128.358362
 31
0.0
  0
LINE
  8
0
  6
BYLAYER
 62
     7
 10
1062.228669
 20
-120.358362
 30
0.0
 11
1062.228669
 21
-128.358362
 31
0.0
  0
LINE
  8
0
  6
BYLAYER
 62
     7
 10
1062.228669
 20
-120.358362
 30
0.0
 11
1070.228669
 21
-120.358362
 31
0.0
  0
LINE
  8
0
  6
BYLAYER
 62
     7
 10
1070.228669
 20
-128.358362
 30
0.0
 11
1070.228669
 21
-120.358362
 31
0.0
  0
LINE
  8
0
  6
BYLAYER
 62
     7
 10
1072.228669
 20
-118.358362
 30
0.0
 11
1080.228669
 21
-118.358362
 31
0.0
  0
LINE
  8
0
  6
BYLAYER
 62
     7
 10
1072.228669
 20
-110.358362
 30
0.0
 11
1072.228669
 21
-118.358362
 31
0.0
  0
LINE
  8
0
  6
BYLAYER
 62
     7
 10
1072.228669
 20
-110.358362
 30
0.0
 11
1080.228669
 21
-110.358362
 31
0.0
  0
LINE
  8
0
  6
BYLAYER
 62
     7
 10
1080.228669
 20
-118.358362
 30
0.0
 11
1080.228669
 21
-110.358362
 31
0.0
  0
LINE
  8
0
  6
BYLAYER
 62
     7
 10
1072.228669
 20
-128.358362
 30
0.0
 11
1080.228669
 21
-128.358362
 31
0.0
  0
LINE
  8
0
  6
BYLAYER
 62
     7
 10
1072.228669
 20
-120.358362
 30
0.0
 11
1072.228669
 21
-128.358362
 31
0.0
  0
LINE
  8
0
  6
BYLAYER
 62
     7
 10
1072.228669
 20
-120.358362
 30
0.0
 11
1080.228669
 21
-120.358362
 31
0.0
  0
LINE
  8
0
  6
BYLAYER
 62
     7
 10
1080.228669
 20
-128.358362
 30
0.0
 11
1080.228669
 21
-120.358362
 31
0.0
  0
LINE
  8
0
  6
BYLAYER
 62
     7
 10
1032.228669
 20
-80.358362
 30
0.0
 11
1032.228669
 21
-88.358362
 31
0.0
  0
LINE
  8
0
  6
BYLAYER
 62
     7
 10
1040.228669
 20
-88.358362
 30
0.0
 11
1040.228669
 21
-80.358362
 31
0.0
  0
LINE
  8
0
  6
BYLAYER
 62
     7
 10
1042.228669
 20
-88.358362
 30
0.0
 11
1042.228669
 21
-80.358362
 31
0.0
  0
LINE
  8
0
  6
BYLAYER
 62
     7
 10
1042.228669
 20
-88.358362
 30
0.0
 11
1050.066668
 21
-88.358362
 31
0.0
  0
LINE
  8
0
  6
BYLAYER
 62
     7
 10
1032.228669
 20
-88.358362
 30
0.0
 11
1040.228669
 21
-88.358362
 31
0.0
  0
LINE
  8
0
  6
BYLAYER
 62
     7
 10
1042.228669
 20
-80.358362
 30
0.0
 11
1050.066668
 21
-80.358362
 31
0.0
  0
LINE
  8
0
  6
BYLAYER
 62
     7
 10
1032.228669
 20
-80.358362
 30
0.0
 11
1040.228669
 21
-80.358362
 31
0.0
  0
LINE
  8
0
  6
BYLAYER
 62
     7
 10
1050.066668
 20
-88.358362
 30
0.0
 11
1050.066668
 21
-80.358362
 31
0.0
  0
LINE
  8
0
  6
BYLAYER
 62
     7
 10
1052.228669
 20
-90.358362
 30
0.0
 11
1052.228669
 21
-98.358362
 31
0.0
  0
LINE
  8
0
  6
BYLAYER
 62
     7
 10
1052.228669
 20
-98.358362
 30
0.0
 11
1060.228669
 21
-98.358362
 31
0.0
  0
LINE
  8
0
  6
BYLAYER
 62
     7
 10
1052.228669
 20
-90.358362
 30
0.0
 11
1060.228669
 21
-90.358362
 31
0.0
  0
LINE
  8
0
  6
BYLAYER
 62
     7
 10
1060.228669
 20
-98.358362
 30
0.0
 11
1060.228669
 21
-90.358362
 31
0.0
  0
LINE
  8
0
  6
BYLAYER
 62
     7
 10
1052.228669
 20
-80.358362
 30
0.0
 11
1052.228669
 21
-88.358362
 31
0.0
  0
LINE
  8
0
  6
BYLAYER
 62
     7
 10
1052.228669
 20
-88.358362
 30
0.0
 11
1060.228669
 21
-88.358362
 31
0.0
  0
LINE
  8
0
  6
BYLAYER
 62
     7
 10
1052.228669
 20
-80.358362
 30
0.0
 11
1060.228669
 21
-80.358362
 31
0.0
  0
LINE
  8
0
  6
BYLAYER
 62
     7
 10
1060.228669
 20
-88.358362
 30
0.0
 11
1060.228669
 21
-80.358362
 31
0.0
  0
LINE
  8
0
  6
BYLAYER
 62
     7
 10
1062.228669
 20
-100.358362
 30
0.0
 11
1062.228669
 21
-108.358362
 31
0.0
  0
LINE
  8
0
  6
BYLAYER
 62
     7
 10
1062.228669
 20
-108.358362
 30
0.0
 11
1070.228669
 21
-108.358362
 31
0.0
  0
LINE
  8
0
  6
BYLAYER
 62
     7
 10
1062.228669
 20
-100.358362
 30
0.0
 11
1070.228669
 21
-100.358362
 31
0.0
  0
LINE
  8
0
  6
BYLAYER
 62
     7
 10
1070.228669
 20
-108.358362
 30
0.0
 11
1070.228669
 21
-100.358362
 31
0.0
  0
LINE
  8
0
  6
BYLAYER
 62
     7
 10
1062.228669
 20
-90.358362
 30
0.0
 11
1062.228669
 21
-98.358362
 31
0.0
  0
LINE
  8
0
  6
BYLAYER
 62
     7
 10
1062.228669
 20
-98.358362
 30
0.0
 11
1070.228669
 21
-98.358362
 31
0.0
  0
LINE
  8
0
  6
BYLAYER
 62
     7
 10
1062.228669
 20
-90.358362
 30
0.0
 11
1070.228669
 21
-90.358362
 31
0.0
  0
LINE
  8
0
  6
BYLAYER
 62
     7
 10
1070.228669
 20
-98.358362
 30
0.0
 11
1070.228669
 21
-90.358362
 31
0.0
  0
LINE
  8
0
  6
BYLAYER
 62
     7
 10
1072.228669
 20
-100.358362
 30
0.0
 11
1072.228669
 21
-108.358362
 31
0.0
  0
LINE
  8
0
  6
BYLAYER
 62
     7
 10
1072.228669
 20
-108.358362
 30
0.0
 11
1080.228669
 21
-108.358362
 31
0.0
  0
LINE
  8
0
  6
BYLAYER
 62
     7
 10
1072.228669
 20
-100.358362
 30
0.0
 11
1080.228669
 21
-100.358362
 31
0.0
  0
LINE
  8
0
  6
BYLAYER
 62
     7
 10
1080.228669
 20
-108.358362
 30
0.0
 11
1080.228669
 21
-100.358362
 31
0.0
  0
CIRCLE
  8
0
  6
BYLAYER
 62
     7
 10
1031.228669
 20
-129.358362
 30
0.0
 40
4.0
  0
LINE
  8
0
  6
BYLAYER
 62
     7
 10
1082.228669
 20
-118.358362
 30
0.0
 11
1090.228669
 21
-118.358362
 31
0.0
  0
LINE
  8
0
  6
BYLAYER
 62
     7
 10
1082.228669
 20
-110.358362
 30
0.0
 11
1082.228669
 21
-118.358362
 31
0.0
  0
LINE
  8
0
  6
BYLAYER
 62
     7
 10
1082.228669
 20
-110.358362
 30
0.0
 11
1090.228669
 21
-110.358362
 31
0.0
  0
LINE
  8
0
  6
BYLAYER
 62
     7
 10
1090.228669
 20
-118.358362
 30
0.0
 11
1090.228669
 21
-110.358362
 31
0.0
  0
LINE
  8
0
  6
BYLAYER
 62
     7
 10
1082.228669
 20
-128.358362
 30
0.0
 11
1090.228669
 21
-128.358362
 31
0.0
  0
LINE
  8
0
  6
BYLAYER
 62
     7
 10
1082.228669
 20
-120.358362
 30
0.0
 11
1082.228669
 21
-128.358362
 31
0.0
  0
LINE
  8
0
  6
BYLAYER
 62
     7
 10
1082.228669
 20
-120.358362
 30
0.0
 11
1090.228669
 21
-120.358362
 31
0.0
  0
LINE
  8
0
  6
BYLAYER
 62
     7
 10
1090.228669
 20
-128.358362
 30
0.0
 11
1090.228669
 21
-120.358362
 31
0.0
  0
LINE
  8
0
  6
BYLAYER
 62
     7
 10
1082.228669
 20
-100.358362
 30
0.0
 11
1082.228669
 21
-108.358362
 31
0.0
  0
LINE
  8
0
  6
BYLAYER
 62
     7
 10
1082.228669
 20
-108.358362
 30
0.0
 11
1090.228669
 21
-108.358362
 31
0.0
  0
LINE
  8
0
  6
BYLAYER
 62
     7
 10
1082.228669
 20
-100.358362
 30
0.0
 11
1090.228669
 21
-100.358362
 31
0.0
  0
LINE
  8
0
  6
BYLAYER
 62
     7
 10
1090.228669
 20
-108.358362
 30
0.0
 11
1090.228669
 21
-100.358362
 31
0.0
  0
LINE
  8
0
  6
BYLAYER
 62
     7
 10
1032.228669
 20
-70.358362
 30
0.0
 11
1032.228669
 21
-78.358362
 31
0.0
  0
LINE
  8
0
  6
BYLAYER
 62
     7
 10
1040.228669
 20
-78.358362
 30
0.0
 11
1040.228669
 21
-70.358362
 31
0.0
  0
LINE
  8
0
  6
BYLAYER
 62
     7
 10
1042.228669
 20
-78.358362
 30
0.0
 11
1042.228669
 21
-70.358362
 31
0.0
  0
LINE
  8
0
  6
BYLAYER
 62
     7
 10
1042.228669
 20
-78.358362
 30
0.0
 11
1050.066668
 21
-78.358362
 31
0.0
  0
LINE
  8
0
  6
BYLAYER
 62
     7
 10
1032.228669
 20
-78.358362
 30
0.0
 11
1040.228669
 21
-78.358362
 31
0.0
  0
LINE
  8
0
  6
BYLAYER
 62
     7
 10
1042.228669
 20
-70.358362
 30
0.0
 11
1050.066668
 21
-70.358362
 31
0.0
  0
LINE
  8
0
  6
BYLAYER
 62
     7
 10
1032.228669
 20
-70.358362
 30
0.0
 11
1040.228669
 21
-70.358362
 31
0.0
  0
LINE
  8
0
  6
BYLAYER
 62
     7
 10
1050.066668
 20
-78.358362
 30
0.0
 11
1050.066668
 21
-70.358362
 31
0.0
  0
LINE
  8
0
  6
BYLAYER
 62
     7
 10
1052.228669
 20
-70.358362
 30
0.0
 11
1052.228669
 21
-78.358362
 31
0.0
  0
LINE
  8
0
  6
BYLAYER
 62
     7
 10
1052.228669
 20
-78.358362
 30
0.0
 11
1060.228669
 21
-78.358362
 31
0.0
  0
LINE
  8
0
  6
BYLAYER
 62
     7
 10
1052.228669
 20
-70.358362
 30
0.0
 11
1060.228669
 21
-70.358362
 31
0.0
  0
LINE
  8
0
  6
BYLAYER
 62
     7
 10
1060.228669
 20
-78.358362
 30
0.0
 11
1060.228669
 21
-70.358362
 31
0.0
  0
LINE
  8
0
  6
BYLAYER
 62
     7
 10
1062.228669
 20
-80.358362
 30
0.0
 11
1062.228669
 21
-88.358362
 31
0.0
  0
LINE
  8
0
  6
BYLAYER
 62
     7
 10
1062.228669
 20
-88.358362
 30
0.0
 11
1070.228669
 21
-88.358362
 31
0.0
  0
LINE
  8
0
  6
BYLAYER
 62
     7
 10
1062.228669
 20
-80.358362
 30
0.0
 11
1070.228669
 21
-80.358362
 31
0.0
  0
LINE
  8
0
  6
BYLAYER
 62
     7
 10
1070.228669
 20
-88.358362
 30
0.0
 11
1070.228669
 21
-80.358362
 31
0.0
  0
LINE
  8
0
  6
BYLAYER
 62
     7
 10
1072.228669
 20
-90.358362
 30
0.0
 11
1072.228669
 21
-98.358362
 31
0.0
  0
LINE
  8
0
  6
BYLAYER
 62
     7
 10
1072.228669
 20
-98.358362
 30
0.0
 11
1080.228669
 21
-98.358362
 31
0.0
  0
LINE
  8
0
  6
BYLAYER
 62
     7
 10
1072.228669
 20
-90.358362
 30
0.0
 11
1080.228669
 21
-90.358362
 31
0.0
  0
LINE
  8
0
  6
BYLAYER
 62
     7
 10
1080.228669
 20
-98.358362
 30
0.0
 11
1080.228669
 21
-90.358362
 31
0.0
  0
LINE
  8
0
  6
BYLAYER
 62
     7
 10
1032.228669
 20
-158.358362
 30
0.0
 11
1032.228669
 21
-150.358362
 31
0.0
  0
LINE
  8
0
  6
BYLAYER
 62
     7
 10
1032.228669
 20
-168.358362
 30
0.0
 11
1032.228669
 21
-160.358362
 31
0.0
  0
LINE
  8
0
  6
BYLAYER
 62
     7
 10
1040.228669
 20
-160.358362
 30
0.0
 11
1040.228669
 21
-168.358362
 31
0.0
  0
LINE
  8
0
  6
BYLAYER
 62
     7
 10
1042.228669
 20
-160.358362
 30
0.0
 11
1042.228669
 21
-168.358362
 31
0.0
  0
LINE
  8
0
  6
BYLAYER
 62
     7
 10
1032.228669
 20
-150.358362
 30
0.0
 11
1040.228669
 21
-150.358362
 31
0.0
  0
LINE
  8
0
  6
BYLAYER
 62
     7
 10
1032.228669
 20
-158.358362
 30
0.0
 11
1040.228669
 21
-158.358362
 31
0.0
  0
LINE
  8
0
  6
BYLAYER
 62
     7
 10
1042.228669
 20
-160.358362
 30
0.0
 11
1050.066668
 21
-160.358362
 31
0.0
  0
LINE
  8
0
  6
BYLAYER
 62
     7
 10
1032.228669
 20
-160.358362
 30
0.0
 11
1040.228669
 21
-160.358362
 31
0.0
  0
LINE
  8
0
  6
BYLAYER
 62
     7
 10
1042.228669
 20
-168.358362
 30
0.0
 11
1050.066668
 21
-168.358362
 31
0.0
  0
LINE
  8
0
  6
BYLAYER
 62
     7
 10
1032.228669
 20
-168.358362
 30
0.0
 11
1040.228669
 21
-168.358362
 31
0.0
  0
LINE
  8
0
  6
BYLAYER
 62
     7
 10
1050.066668
 20
-160.358362
 30
0.0
 11
1050.066668
 21
-168.358362
 31
0.0
  0
LINE
  8
0
  6
BYLAYER
 62
     7
 10
1040.228669
 20
-150.358362
 30
0.0
 11
1040.228669
 21
-158.358362
 31
0.0
  0
LINE
  8
0
  6
BYLAYER
 62
     7
 10
1042.228669
 20
-158.358362
 30
0.0
 11
1042.228669
 21
-150.358362
 31
0.0
  0
LINE
  8
0
  6
BYLAYER
 62
     7
 10
1042.228669
 20
-150.358362
 30
0.0
 11
1050.228669
 21
-150.358362
 31
0.0
  0
LINE
  8
0
  6
BYLAYER
 62
     7
 10
1042.228669
 20
-158.358362
 30
0.0
 11
1050.228669
 21
-158.358362
 31
0.0
  0
LINE
  8
0
  6
BYLAYER
 62
     7
 10
1050.228669
 20
-150.358362
 30
0.0
 11
1050.228669
 21
-158.358362
 31
0.0
  0
LINE
  8
0
  6
BYLAYER
 62
     7
 10
1052.228669
 20
-140.358362
 30
0.0
 11
1060.228669
 21
-140.358362
 31
0.0
  0
LINE
  8
0
  6
BYLAYER
 62
     7
 10
1052.228669
 20
-158.358362
 30
0.0
 11
1052.228669
 21
-150.358362
 31
0.0
  0
LINE
  8
0
  6
BYLAYER
 62
     7
 10
1052.228669
 20
-148.358362
 30
0.0
 11
1052.228669
 21
-140.358362
 31
0.0
  0
LINE
  8
0
  6
BYLAYER
 62
     7
 10
1052.228669
 20
-148.358362
 30
0.0
 11
1060.228669
 21
-148.358362
 31
0.0
  0
LINE
  8
0
  6
BYLAYER
 62
     7
 10
1052.228669
 20
-150.358362
 30
0.0
 11
1060.228669
 21
-150.358362
 31
0.0
  0
LINE
  8
0
  6
BYLAYER
 62
     7
 10
1052.228669
 20
-158.358362
 30
0.0
 11
1060.228669
 21
-158.358362
 31
0.0
  0
LINE
  8
0
  6
BYLAYER
 62
     7
 10
1060.228669
 20
-140.358362
 30
0.0
 11
1060.228669
 21
-148.358362
 31
0.0
  0
LINE
  8
0
  6
BYLAYER
 62
     7
 10
1060.228669
 20
-150.358362
 30
0.0
 11
1060.228669
 21
-158.358362
 31
0.0
  0
LINE
  8
0
  6
BYLAYER
 62
     7
 10
1052.228669
 20
-130.358362
 30
0.0
 11
1060.228669
 21
-130.358362
 31
0.0
  0
LINE
  8
0
  6
BYLAYER
 62
     7
 10
1052.228669
 20
-138.358362
 30
0.0
 11
1052.228669
 21
-130.358362
 31
0.0
  0
LINE
  8
0
  6
BYLAYER
 62
     7
 10
1052.228669
 20
-138.358362
 30
0.0
 11
1060.228669
 21
-138.358362
 31
0.0
  0
LINE
  8
0
  6
BYLAYER
 62
     7
 10
1060.228669
 20
-130.358362
 30
0.0
 11
1060.228669
 21
-138.358362
 31
0.0
  0
LINE
  8
0
  6
BYLAYER
 62
     7
 10
1062.228669
 20
-140.358362
 30
0.0
 11
1070.228669
 21
-140.358362
 31
0.0
  0
LINE
  8
0
  6
BYLAYER
 62
     7
 10
1062.228669
 20
-148.358362
 30
0.0
 11
1062.228669
 21
-140.358362
 31
0.0
  0
LINE
  8
0
  6
BYLAYER
 62
     7
 10
1062.228669
 20
-148.358362
 30
0.0
 11
1070.228669
 21
-148.358362
 31
0.0
  0
LINE
  8
0
  6
BYLAYER
 62
     7
 10
1070.228669
 20
-140.358362
 30
0.0
 11
1070.228669
 21
-148.358362
 31
0.0
  0
LINE
  8
0
  6
BYLAYER
 62
     7
 10
1062.228669
 20
-130.358362
 30
0.0
 11
1070.228669
 21
-130.358362
 31
0.0
  0
LINE
  8
0
  6
BYLAYER
 62
     7
 10
1062.228669
 20
-138.358362
 30
0.0
 11
1062.228669
 21
-130.358362
 31
0.0
  0
LINE
  8
0
  6
BYLAYER
 62
     7
 10
1062.228669
 20
-138.358362
 30
0.0
 11
1070.228669
 21
-138.358362
 31
0.0
  0
LINE
  8
0
  6
BYLAYER
 62
     7
 10
1070.228669
 20
-130.358362
 30
0.0
 11
1070.228669
 21
-138.358362
 31
0.0
  0
LINE
  8
0
  6
BYLAYER
 62
     7
 10
1072.228669
 20
-140.358362
 30
0.0
 11
1080.228669
 21
-140.358362
 31
0.0
  0
LINE
  8
0
  6
BYLAYER
 62
     7
 10
1072.228669
 20
-148.358362
 30
0.0
 11
1072.228669
 21
-140.358362
 31
0.0
  0
LINE
  8
0
  6
BYLAYER
 62
     7
 10
1072.228669
 20
-148.358362
 30
0.0
 11
1080.228669
 21
-148.358362
 31
0.0
  0
LINE
  8
0
  6
BYLAYER
 62
     7
 10
1080.228669
 20
-140.358362
 30
0.0
 11
1080.228669
 21
-148.358362
 31
0.0
  0
LINE
  8
0
  6
BYLAYER
 62
     7
 10
1072.228669
 20
-130.358362
 30
0.0
 11
1080.228669
 21
-130.358362
 31
0.0
  0
LINE
  8
0
  6
BYLAYER
 62
     7
 10
1072.228669
 20
-138.358362
 30
0.0
 11
1072.228669
 21
-130.358362
 31
0.0
  0
LINE
  8
0
  6
BYLAYER
 62
     7
 10
1072.228669
 20
-138.358362
 30
0.0
 11
1080.228669
 21
-138.358362
 31
0.0
  0
LINE
  8
0
  6
BYLAYER
 62
     7
 10
1080.228669
 20
-130.358362
 30
0.0
 11
1080.228669
 21
-138.358362
 31
0.0
  0
LINE
  8
0
  6
BYLAYER
 62
     7
 10
1032.228669
 20
-178.358362
 30
0.0
 11
1032.228669
 21
-170.358362
 31
0.0
  0
LINE
  8
0
  6
BYLAYER
 62
     7
 10
1040.228669
 20
-170.358362
 30
0.0
 11
1040.228669
 21
-178.358362
 31
0.0
  0
LINE
  8
0
  6
BYLAYER
 62
     7
 10
1042.228669
 20
-170.358362
 30
0.0
 11
1042.228669
 21
-178.358362
 31
0.0
  0
LINE
  8
0
  6
BYLAYER
 62
     7
 10
1042.228669
 20
-170.358362
 30
0.0
 11
1050.066668
 21
-170.358362
 31
0.0
  0
LINE
  8
0
  6
BYLAYER
 62
     7
 10
1032.228669
 20
-170.358362
 30
0.0
 11
1040.228669
 21
-170.358362
 31
0.0
  0
LINE
  8
0
  6
BYLAYER
 62
     7
 10
1042.228669
 20
-178.358362
 30
0.0
 11
1050.066668
 21
-178.358362
 31
0.0
  0
LINE
  8
0
  6
BYLAYER
 62
     7
 10
1032.228669
 20
-178.358362
 30
0.0
 11
1040.228669
 21
-178.358362
 31
0.0
  0
LINE
  8
0
  6
BYLAYER
 62
     7
 10
1050.066668
 20
-170.358362
 30
0.0
 11
1050.066668
 21
-178.358362
 31
0.0
  0
LINE
  8
0
  6
BYLAYER
 62
     7
 10
1052.228669
 20
-168.358362
 30
0.0
 11
1052.228669
 21
-160.358362
 31
0.0
  0
LINE
  8
0
  6
BYLAYER
 62
     7
 10
1052.228669
 20
-160.358362
 30
0.0
 11
1060.228669
 21
-160.358362
 31
0.0
  0
LINE
  8
0
  6
BYLAYER
 62
     7
 10
1052.228669
 20
-168.358362
 30
0.0
 11
1060.228669
 21
-168.358362
 31
0.0
  0
LINE
  8
0
  6
BYLAYER
 62
     7
 10
1060.228669
 20
-160.358362
 30
0.0
 11
1060.228669
 21
-168.358362
 31
0.0
  0
LINE
  8
0
  6
BYLAYER
 62
     7
 10
1052.228669
 20
-178.358362
 30
0.0
 11
1052.228669
 21
-170.358362
 31
0.0
  0
LINE
  8
0
  6
BYLAYER
 62
     7
 10
1052.228669
 20
-170.358362
 30
0.0
 11
1060.228669
 21
-170.358362
 31
0.0
  0
LINE
  8
0
  6
BYLAYER
 62
     7
 10
1052.228669
 20
-178.358362
 30
0.0
 11
1060.228669
 21
-178.358362
 31
0.0
  0
LINE
  8
0
  6
BYLAYER
 62
     7
 10
1060.228669
 20
-170.358362
 30
0.0
 11
1060.228669
 21
-178.358362
 31
0.0
  0
LINE
  8
0
  6
BYLAYER
 62
     7
 10
1062.228669
 20
-158.358362
 30
0.0
 11
1062.228669
 21
-150.358362
 31
0.0
  0
LINE
  8
0
  6
BYLAYER
 62
     7
 10
1062.228669
 20
-150.358362
 30
0.0
 11
1070.228669
 21
-150.358362
 31
0.0
  0
LINE
  8
0
  6
BYLAYER
 62
     7
 10
1062.228669
 20
-158.358362
 30
0.0
 11
1070.228669
 21
-158.358362
 31
0.0
  0
LINE
  8
0
  6
BYLAYER
 62
     7
 10
1070.228669
 20
-150.358362
 30
0.0
 11
1070.228669
 21
-158.358362
 31
0.0
  0
LINE
  8
0
  6
BYLAYER
 62
     7
 10
1062.228669
 20
-168.358362
 30
0.0
 11
1062.228669
 21
-160.358362
 31
0.0
  0
LINE
  8
0
  6
BYLAYER
 62
     7
 10
1062.228669
 20
-160.358362
 30
0.0
 11
1070.228669
 21
-160.358362
 31
0.0
  0
LINE
  8
0
  6
BYLAYER
 62
     7
 10
1062.228669
 20
-168.358362
 30
0.0
 11
1070.228669
 21
-168.358362
 31
0.0
  0
LINE
  8
0
  6
BYLAYER
 62
     7
 10
1070.228669
 20
-160.358362
 30
0.0
 11
1070.228669
 21
-168.358362
 31
0.0
  0
LINE
  8
0
  6
BYLAYER
 62
     7
 10
1072.228669
 20
-158.358362
 30
0.0
 11
1072.228669
 21
-150.358362
 31
0.0
  0
LINE
  8
0
  6
BYLAYER
 62
     7
 10
1072.228669
 20
-150.358362
 30
0.0
 11
1080.228669
 21
-150.358362
 31
0.0
  0
LINE
  8
0
  6
BYLAYER
 62
     7
 10
1072.228669
 20
-158.358362
 30
0.0
 11
1080.228669
 21
-158.358362
 31
0.0
  0
LINE
  8
0
  6
BYLAYER
 62
     7
 10
1080.228669
 20
-150.358362
 30
0.0
 11
1080.228669
 21
-158.358362
 31
0.0
  0
LINE
  8
0
  6
BYLAYER
 62
     7
 10
1082.228669
 20
-140.358362
 30
0.0
 11
1090.228669
 21
-140.358362
 31
0.0
  0
LINE
  8
0
  6
BYLAYER
 62
     7
 10
1082.228669
 20
-148.358362
 30
0.0
 11
1082.228669
 21
-140.358362
 31
0.0
  0
LINE
  8
0
  6
BYLAYER
 62
     7
 10
1082.228669
 20
-148.358362
 30
0.0
 11
1090.228669
 21
-148.358362
 31
0.0
  0
LINE
  8
0
  6
BYLAYER
 62
     7
 10
1090.228669
 20
-140.358362
 30
0.0
 11
1090.228669
 21
-148.358362
 31
0.0
  0
LINE
  8
0
  6
BYLAYER
 62
     7
 10
1082.228669
 20
-130.358362
 30
0.0
 11
1090.228669
 21
-130.358362
 31
0.0
  0
LINE
  8
0
  6
BYLAYER
 62
     7
 10
1082.228669
 20
-138.358362
 30
0.0
 11
1082.228669
 21
-130.358362
 31
0.0
  0
LINE
  8
0
  6
BYLAYER
 62
     7
 10
1082.228669
 20
-138.358362
 30
0.0
 11
1090.228669
 21
-138.358362
 31
0.0
  0
LINE
  8
0
  6
BYLAYER
 62
     7
 10
1090.228669
 20
-130.358362
 30
0.0
 11
1090.228669
 21
-138.358362
 31
0.0
  0
LINE
  8
0
  6
BYLAYER
 62
     7
 10
1082.228669
 20
-158.358362
 30
0.0
 11
1082.228669
 21
-150.358362
 31
0.0
  0
LINE
  8
0
  6
BYLAYER
 62
     7
 10
1082.228669
 20
-150.358362
 30
0.0
 11
1090.228669
 21
-150.358362
 31
0.0
  0
LINE
  8
0
  6
BYLAYER
 62
     7
 10
1082.228669
 20
-158.358362
 30
0.0
 11
1090.228669
 21
-158.358362
 31
0.0
  0
LINE
  8
0
  6
BYLAYER
 62
     7
 10
1090.228669
 20
-150.358362
 30
0.0
 11
1090.228669
 21
-158.358362
 31
0.0
  0
LINE
  8
0
  6
BYLAYER
 62
     7
 10
1032.228669
 20
-188.358362
 30
0.0
 11
1032.228669
 21
-180.358362
 31
0.0
  0
LINE
  8
0
  6
BYLAYER
 62
     7
 10
1040.228669
 20
-180.358362
 30
0.0
 11
1040.228669
 21
-188.358362
 31
0.0
  0
LINE
  8
0
  6
BYLAYER
 62
     7
 10
1042.228669
 20
-180.358362
 30
0.0
 11
1042.228669
 21
-188.358362
 31
0.0
  0
LINE
  8
0
  6
BYLAYER
 62
     7
 10
1042.228669
 20
-180.358362
 30
0.0
 11
1050.066668
 21
-180.358362
 31
0.0
  0
LINE
  8
0
  6
BYLAYER
 62
     7
 10
1032.228669
 20
-180.358362
 30
0.0
 11
1040.228669
 21
-180.358362
 31
0.0
  0
LINE
  8
0
  6
BYLAYER
 62
     7
 10
1042.228669
 20
-188.358362
 30
0.0
 11
1050.066668
 21
-188.358362
 31
0.0
  0
LINE
  8
0
  6
BYLAYER
 62
     7
 10
1032.228669
 20
-188.358362
 30
0.0
 11
1040.228669
 21
-188.358362
 31
0.0
  0
LINE
  8
0
  6
BYLAYER
 62
     7
 10
1050.066668
 20
-180.358362
 30
0.0
 11
1050.066668
 21
-188.358362
 31
0.0
  0
LINE
  8
0
  6
BYLAYER
 62
     7
 10
1052.228669
 20
-188.358362
 30
0.0
 11
1052.228669
 21
-180.358362
 31
0.0
  0
LINE
  8
0
  6
BYLAYER
 62
     7
 10
1052.228669
 20
-180.358362
 30
0.0
 11
1060.228669
 21
-180.358362
 31
0.0
  0
LINE
  8
0
  6
BYLAYER
 62
     7
 10
1052.228669
 20
-188.358362
 30
0.0
 11
1060.228669
 21
-188.358362
 31
0.0
  0
LINE
  8
0
  6
BYLAYER
 62
     7
 10
1060.228669
 20
-180.358362
 30
0.0
 11
1060.228669
 21
-188.358362
 31
0.0
  0
LINE
  8
0
  6
BYLAYER
 62
     7
 10
1062.228669
 20
-178.358362
 30
0.0
 11
1062.228669
 21
-170.358362
 31
0.0
  0
LINE
  8
0
  6
BYLAYER
 62
     7
 10
1062.228669
 20
-170.358362
 30
0.0
 11
1070.228669
 21
-170.358362
 31
0.0
  0
LINE
  8
0
  6
BYLAYER
 62
     7
 10
1062.228669
 20
-178.358362
 30
0.0
 11
1070.228669
 21
-178.358362
 31
0.0
  0
LINE
  8
0
  6
BYLAYER
 62
     7
 10
1070.228669
 20
-170.358362
 30
0.0
 11
1070.228669
 21
-178.358362
 31
0.0
  0
LINE
  8
0
  6
BYLAYER
 62
     7
 10
1072.228669
 20
-168.358362
 30
0.0
 11
1072.228669
 21
-160.358362
 31
0.0
  0
LINE
  8
0
  6
BYLAYER
 62
     7
 10
1072.228669
 20
-160.358362
 30
0.0
 11
1080.228669
 21
-160.358362
 31
0.0
  0
LINE
  8
0
  6
BYLAYER
 62
     7
 10
1072.228669
 20
-168.358362
 30
0.0
 11
1080.228669
 21
-168.358362
 31
0.0
  0
LINE
  8
0
  6
BYLAYER
 62
     7
 10
1080.228669
 20
-160.358362
 30
0.0
 11
1080.228669
 21
-168.358362
 31
0.0
  0
LINE
  8
0
  6
BYLAYER
 62
     7
 10
1030.228669
 20
-100.358362
 30
0.0
 11
1030.228669
 21
-108.358362
 31
0.0
  0
LINE
  8
0
  6
BYLAYER
 62
     7
 10
1030.228669
 20
-90.358362
 30
0.0
 11
1030.228669
 21
-98.358362
 31
0.0
  0
LINE
  8
0
  6
BYLAYER
 62
     7
 10
1022.228669
 20
-98.358362
 30
0.0
 11
1022.228669
 21
-90.358362
 31
0.0
  0
LINE
  8
0
  6
BYLAYER
 62
     7
 10
1020.228669
 20
-98.358362
 30
0.0
 11
1020.228669
 21
-90.358362
 31
0.0
  0
LINE
  8
0
  6
BYLAYER
 62
     7
 10
1030.228669
 20
-108.358362
 30
0.0
 11
1022.228669
 21
-108.358362
 31
0.0
  0
LINE
  8
0
  6
BYLAYER
 62
     7
 10
1030.228669
 20
-100.358362
 30
0.0
 11
1022.228669
 21
-100.358362
 31
0.0
  0
LINE
  8
0
  6
BYLAYER
 62
     7
 10
1020.228669
 20
-98.358362
 30
0.0
 11
1012.390670
 21
-98.358362
 31
0.0
  0
LINE
  8
0
  6
BYLAYER
 62
     7
 10
1030.228669
 20
-98.358362
 30
0.0
 11
1022.228669
 21
-98.358362
 31
0.0
  0
LINE
  8
0
  6
BYLAYER
 62
     7
 10
1020.228669
 20
-90.358362
 30
0.0
 11
1012.390670
 21
-90.358362
 31
0.0
  0
LINE
  8
0
  6
BYLAYER
 62
     7
 10
1030.228669
 20
-90.358362
 30
0.0
 11
1022.228669
 21
-90.358362
 31
0.0
  0
LINE
  8
0
  6
BYLAYER
 62
     7
 10
1012.390670
 20
-98.358362
 30
0.0
 11
1012.390670
 21
-90.358362
 31
0.0
  0
LINE
  8
0
  6
BYLAYER
 62
     7
 10
1022.228669
 20
-108.358362
 30
0.0
 11
1022.228669
 21
-100.358362
 31
0.0
  0
LINE
  8
0
  6
BYLAYER
 62
     7
 10
1020.228669
 20
-100.358362
 30
0.0
 11
1020.228669
 21
-108.358362
 31
0.0
  0
LINE
  8
0
  6
BYLAYER
 62
     7
 10
1020.228669
 20
-108.358362
 30
0.0
 11
1012.228669
 21
-108.358362
 31
0.0
  0
LINE
  8
0
  6
BYLAYER
 62
     7
 10
1020.228669
 20
-100.358362
 30
0.0
 11
1012.228669
 21
-100.358362
 31
0.0
  0
LINE
  8
0
  6
BYLAYER
 62
     7
 10
1012.228669
 20
-108.358362
 30
0.0
 11
1012.228669
 21
-100.358362
 31
0.0
  0
LINE
  8
0
  6
BYLAYER
 62
     7
 10
1010.228669
 20
-118.358362
 30
0.0
 11
1002.228669
 21
-118.358362
 31
0.0
  0
LINE
  8
0
  6
BYLAYER
 62
     7
 10
1010.228669
 20
-100.358362
 30
0.0
 11
1010.228669
 21
-108.358362
 31
0.0
  0
LINE
  8
0
  6
BYLAYER
 62
     7
 10
1010.228669
 20
-110.358362
 30
0.0
 11
1010.228669
 21
-118.358362
 31
0.0
  0
LINE
  8
0
  6
BYLAYER
 62
     7
 10
1010.228669
 20
-110.358362
 30
0.0
 11
1002.228669
 21
-110.358362
 31
0.0
  0
LINE
  8
0
  6
BYLAYER
 62
     7
 10
1010.228669
 20
-108.358362
 30
0.0
 11
1002.228669
 21
-108.358362
 31
0.0
  0
LINE
  8
0
  6
BYLAYER
 62
     7
 10
1010.228669
 20
-100.358362
 30
0.0
 11
1002.228669
 21
-100.358362
 31
0.0
  0
LINE
  8
0
  6
BYLAYER
 62
     7
 10
1002.228669
 20
-118.358362
 30
0.0
 11
1002.228669
 21
-110.358362
 31
0.0
  0
LINE
  8
0
  6
BYLAYER
 62
     7
 10
1002.228669
 20
-108.358362
 30
0.0
 11
1002.228669
 21
-100.358362
 31
0.0
  0
LINE
  8
0
  6
BYLAYER
 62
     7
 10
1010.228669
 20
-128.358362
 30
0.0
 11
1002.228669
 21
-128.358362
 31
0.0
  0
LINE
  8
0
  6
BYLAYER
 62
     7
 10
1010.228669
 20
-120.358362
 30
0.0
 11
1010.228669
 21
-128.358362
 31
0.0
  0
LINE
  8
0
  6
BYLAYER
 62
     7
 10
1010.228669
 20
-120.358362
 30
0.0
 11
1002.228669
 21
-120.358362
 31
0.0
  0
LINE
  8
0
  6
BYLAYER
 62
     7
 10
1002.228669
 20
-128.358362
 30
0.0
 11
1002.228669
 21
-120.358362
 31
0.0
  0
LINE
  8
0
  6
BYLAYER
 62
     7
 10
1000.228669
 20
-118.358362
 30
0.0
 11
992.228669
 21
-118.358362
 31
0.0
  0
LINE
  8
0
  6
BYLAYER
 62
     7
 10
1000.228669
 20
-110.358362
 30
0.0
 11
1000.228669
 21
-118.358362
 31
0.0
  0
LINE
  8
0
  6
BYLAYER
 62
     7
 10
1000.228669
 20
-110.358362
 30
0.0
 11
992.228669
 21
-110.358362
 31
0.0
  0
LINE
  8
0
  6
BYLAYER
 62
     7
 10
992.228669
 20
-118.358362
 30
0.0
 11
992.228669
 21
-110.358362
 31
0.0
  0
LINE
  8
0
  6
BYLAYER
 62
     7
 10
1000.228669
 20
-128.358362
 30
0.0
 11
992.228669
 21
-128.358362
 31
0.0
  0
LINE
  8
0
  6
BYLAYER
 62
     7
 10
1000.228669
 20
-120.358362
 30
0.0
 11
1000.228669
 21
-128.358362
 31
0.0
  0
LINE
  8
0
  6
BYLAYER
 62
     7
 10
1000.228669
 20
-120.358362
 30
0.0
 11
992.228669
 21
-120.358362
 31
0.0
  0
LINE
  8
0
  6
BYLAYER
 62
     7
 10
992.228669
 20
-128.358362
 30
0.0
 11
992.228669
 21
-120.358362
 31
0.0
  0
LINE
  8
0
  6
BYLAYER
 62
     7
 10
990.228669
 20
-118.358362
 30
0.0
 11
982.228669
 21
-118.358362
 31
0.0
  0
LINE
  8
0
  6
BYLAYER
 62
     7
 10
990.228669
 20
-110.358362
 30
0.0
 11
990.228669
 21
-118.358362
 31
0.0
  0
LINE
  8
0
  6
BYLAYER
 62
     7
 10
990.228669
 20
-110.358362
 30
0.0
 11
982.228669
 21
-110.358362
 31
0.0
  0
LINE
  8
0
  6
BYLAYER
 62
     7
 10
982.228669
 20
-118.358362
 30
0.0
 11
982.228669
 21
-110.358362
 31
0.0
  0
LINE
  8
0
  6
BYLAYER
 62
     7
 10
990.228669
 20
-128.358362
 30
0.0
 11
982.228669
 21
-128.358362
 31
0.0
  0
LINE
  8
0
  6
BYLAYER
 62
     7
 10
990.228669
 20
-120.358362
 30
0.0
 11
990.228669
 21
-128.358362
 31
0.0
  0
LINE
  8
0
  6
BYLAYER
 62
     7
 10
990.228669
 20
-120.358362
 30
0.0
 11
982.228669
 21
-120.358362
 31
0.0
  0
LINE
  8
0
  6
BYLAYER
 62
     7
 10
982.228669
 20
-128.358362
 30
0.0
 11
982.228669
 21
-120.358362
 31
0.0
  0
LINE
  8
0
  6
BYLAYER
 62
     7
 10
1030.228669
 20
-80.358362
 30
0.0
 11
1030.228669
 21
-88.358362
 31
0.0
  0
LINE
  8
0
  6
BYLAYER
 62
     7
 10
1022.228669
 20
-88.358362
 30
0.0
 11
1022.228669
 21
-80.358362
 31
0.0
  0
LINE
  8
0
  6
BYLAYER
 62
     7
 10
1020.228669
 20
-88.358362
 30
0.0
 11
1020.228669
 21
-80.358362
 31
0.0
  0
LINE
  8
0
  6
BYLAYER
 62
     7
 10
1020.228669
 20
-88.358362
 30
0.0
 11
1012.390670
 21
-88.358362
 31
0.0
  0
LINE
  8
0
  6
BYLAYER
 62
     7
 10
1030.228669
 20
-88.358362
 30
0.0
 11
1022.228669
 21
-88.358362
 31
0.0
  0
LINE
  8
0
  6
BYLAYER
 62
     7
 10
1020.228669
 20
-80.358362
 30
0.0
 11
1012.390670
 21
-80.358362
 31
0.0
  0
LINE
  8
0
  6
BYLAYER
 62
     7
 10
1030.228669
 20
-80.358362
 30
0.0
 11
1022.228669
 21
-80.358362
 31
0.0
  0
LINE
  8
0
  6
BYLAYER
 62
     7
 10
1012.390670
 20
-88.358362
 30
0.0
 11
1012.390670
 21
-80.358362
 31
0.0
  0
LINE
  8
0
  6
BYLAYER
 62
     7
 10
1010.228669
 20
-90.358362
 30
0.0
 11
1010.228669
 21
-98.358362
 31
0.0
  0
LINE
  8
0
  6
BYLAYER
 62
     7
 10
1010.228669
 20
-98.358362
 30
0.0
 11
1002.228669
 21
-98.358362
 31
0.0
  0
LINE
  8
0
  6
BYLAYER
 62
     7
 10
1010.228669
 20
-90.358362
 30
0.0
 11
1002.228669
 21
-90.358362
 31
0.0
  0
LINE
  8
0
  6
BYLAYER
 62
     7
 10
1002.228669
 20
-98.358362
 30
0.0
 11
1002.228669
 21
-90.358362
 31
0.0
  0
LINE
  8
0
  6
BYLAYER
 62
     7
 10
1010.228669
 20
-80.358362
 30
0.0
 11
1010.228669
 21
-88.358362
 31
0.0
  0
LINE
  8
0
  6
BYLAYER
 62
     7
 10
1010.228669
 20
-88.358362
 30
0.0
 11
1002.228669
 21
-88.358362
 31
0.0
  0
LINE
  8
0
  6
BYLAYER
 62
     7
 10
1010.228669
 20
-80.358362
 30
0.0
 11
1002.228669
 21
-80.358362
 31
0.0
  0
LINE
  8
0
  6
BYLAYER
 62
     7
 10
1002.228669
 20
-88.358362
 30
0.0
 11
1002.228669
 21
-80.358362
 31
0.0
  0
LINE
  8
0
  6
BYLAYER
 62
     7
 10
1000.228669
 20
-100.358362
 30
0.0
 11
1000.228669
 21
-108.358362
 31
0.0
  0
LINE
  8
0
  6
BYLAYER
 62
     7
 10
1000.228669
 20
-108.358362
 30
0.0
 11
992.228669
 21
-108.358362
 31
0.0
  0
LINE
  8
0
  6
BYLAYER
 62
     7
 10
1000.228669
 20
-100.358362
 30
0.0
 11
992.228669
 21
-100.358362
 31
0.0
  0
LINE
  8
0
  6
BYLAYER
 62
     7
 10
992.228669
 20
-108.358362
 30
0.0
 11
992.228669
 21
-100.358362
 31
0.0
  0
LINE
  8
0
  6
BYLAYER
 62
     7
 10
1000.228669
 20
-90.358362
 30
0.0
 11
1000.228669
 21
-98.358362
 31
0.0
  0
LINE
  8
0
  6
BYLAYER
 62
     7
 10
1000.228669
 20
-98.358362
 30
0.0
 11
992.228669
 21
-98.358362
 31
0.0
  0
LINE
  8
0
  6
BYLAYER
 62
     7
 10
1000.228669
 20
-90.358362
 30
0.0
 11
992.228669
 21
-90.358362
 31
0.0
  0
LINE
  8
0
  6
BYLAYER
 62
     7
 10
992.228669
 20
-98.358362
 30
0.0
 11
992.228669
 21
-90.358362
 31
0.0
  0
LINE
  8
0
  6
BYLAYER
 62
     7
 10
990.228669
 20
-100.358362
 30
0.0
 11
990.228669
 21
-108.358362
 31
0.0
  0
LINE
  8
0
  6
BYLAYER
 62
     7
 10
990.228669
 20
-108.358362
 30
0.0
 11
982.228669
 21
-108.358362
 31
0.0
  0
LINE
  8
0
  6
BYLAYER
 62
     7
 10
990.228669
 20
-100.358362
 30
0.0
 11
982.228669
 21
-100.358362
 31
0.0
  0
LINE
  8
0
  6
BYLAYER
 62
     7
 10
982.228669
 20
-108.358362
 30
0.0
 11
982.228669
 21
-100.358362
 31
0.0
  0
LINE
  8
0
  6
BYLAYER
 62
     7
 10
980.228669
 20
-118.358362
 30
0.0
 11
972.228669
 21
-118.358362
 31
0.0
  0
LINE
  8
0
  6
BYLAYER
 62
     7
 10
980.228669
 20
-110.358362
 30
0.0
 11
980.228669
 21
-118.358362
 31
0.0
  0
LINE
  8
0
  6
BYLAYER
 62
     7
 10
980.228669
 20
-110.358362
 30
0.0
 11
972.228669
 21
-110.358362
 31
0.0
  0
LINE
  8
0
  6
BYLAYER
 62
     7
 10
972.228669
 20
-118.358362
 30
0.0
 11
972.228669
 21
-110.358362
 31
0.0
  0
LINE
  8
0
  6
BYLAYER
 62
     7
 10
980.228669
 20
-128.358362
 30
0.0
 11
972.228669
 21
-128.358362
 31
0.0
  0
LINE
  8
0
  6
BYLAYER
 62
     7
 10
980.228669
 20
-120.358362
 30
0.0
 11
980.228669
 21
-128.358362
 31
0.0
  0
LINE
  8
0
  6
BYLAYER
 62
     7
 10
980.228669
 20
-120.358362
 30
0.0
 11
972.228669
 21
-120.358362
 31
0.0
  0
LINE
  8
0
  6
BYLAYER
 62
     7
 10
972.228669
 20
-128.358362
 30
0.0
 11
972.228669
 21
-120.358362
 31
0.0
  0
LINE
  8
0
  6
BYLAYER
 62
     7
 10
980.228669
 20
-100.358362
 30
0.0
 11
980.228669
 21
-108.358362
 31
0.0
  0
LINE
  8
0
  6
BYLAYER
 62
     7
 10
980.228669
 20
-108.358362
 30
0.0
 11
972.228669
 21
-108.358362
 31
0.0
  0
LINE
  8
0
  6
BYLAYER
 62
     7
 10
980.228669
 20
-100.358362
 30
0.0
 11
972.228669
 21
-100.358362
 31
0.0
  0
LINE
  8
0
  6
BYLAYER
 62
     7
 10
972.228669
 20
-108.358362
 30
0.0
 11
972.228669
 21
-100.358362
 31
0.0
  0
LINE
  8
0
  6
BYLAYER
 62
     7
 10
1030.228669
 20
-70.358362
 30
0.0
 11
1030.228669
 21
-78.358362
 31
0.0
  0
LINE
  8
0
  6
BYLAYER
 62
     7
 10
1022.228669
 20
-78.358362
 30
0.0
 11
1022.228669
 21
-70.358362
 31
0.0
  0
LINE
  8
0
  6
BYLAYER
 62
     7
 10
1020.228669
 20
-78.358362
 30
0.0
 11
1020.228669
 21
-70.358362
 31
0.0
  0
LINE
  8
0
  6
BYLAYER
 62
     7
 10
1020.228669
 20
-78.358362
 30
0.0
 11
1012.390670
 21
-78.358362
 31
0.0
  0
LINE
  8
0
  6
BYLAYER
 62
     7
 10
1030.228669
 20
-78.358362
 30
0.0
 11
1022.228669
 21
-78.358362
 31
0.0
  0
LINE
  8
0
  6
BYLAYER
 62
     7
 10
1020.228669
 20
-70.358362
 30
0.0
 11
1012.390670
 21
-70.358362
 31
0.0
  0
LINE
  8
0
  6
BYLAYER
 62
     7
 10
1030.228669
 20
-70.358362
 30
0.0
 11
1022.228669
 21
-70.358362
 31
0.0
  0
LINE
  8
0
  6
BYLAYER
 62
     7
 10
1012.390670
 20
-78.358362
 30
0.0
 11
1012.390670
 21
-70.358362
 31
0.0
  0
LINE
  8
0
  6
BYLAYER
 62
     7
 10
1010.228669
 20
-70.358362
 30
0.0
 11
1010.228669
 21
-78.358362
 31
0.0
  0
LINE
  8
0
  6
BYLAYER
 62
     7
 10
1010.228669
 20
-78.358362
 30
0.0
 11
1002.228669
 21
-78.358362
 31
0.0
  0
LINE
  8
0
  6
BYLAYER
 62
     7
 10
1010.228669
 20
-70.358362
 30
0.0
 11
1002.228669
 21
-70.358362
 31
0.0
  0
LINE
  8
0
  6
BYLAYER
 62
     7
 10
1002.228669
 20
-78.358362
 30
0.0
 11
1002.228669
 21
-70.358362
 31
0.0
  0
LINE
  8
0
  6
BYLAYER
 62
     7
 10
1000.228669
 20
-80.358362
 30
0.0
 11
1000.228669
 21
-88.358362
 31
0.0
  0
LINE
  8
0
  6
BYLAYER
 62
     7
 10
1000.228669
 20
-88.358362
 30
0.0
 11
992.228669
 21
-88.358362
 31
0.0
  0
LINE
  8
0
  6
BYLAYER
 62
     7
 10
1000.228669
 20
-80.358362
 30
0.0
 11
992.228669
 21
-80.358362
 31
0.0
  0
LINE
  8
0
  6
BYLAYER
 62
     7
 10
992.228669
 20
-88.358362
 30
0.0
 11
992.228669
 21
-80.358362
 31
0.0
  0
LINE
  8
0
  6
BYLAYER
 62
     7
 10
990.228669
 20
-90.358362
 30
0.0
 11
990.228669
 21
-98.358362
 31
0.0
  0
LINE
  8
0
  6
BYLAYER
 62
     7
 10
990.228669
 20
-98.358362
 30
0.0
 11
982.228669
 21
-98.358362
 31
0.0
  0
LINE
  8
0
  6
BYLAYER
 62
     7
 10
990.228669
 20
-90.358362
 30
0.0
 11
982.228669
 21
-90.358362
 31
0.0
  0
LINE
  8
0
  6
BYLAYER
 62
     7
 10
982.228669
 20
-98.358362
 30
0.0
 11
982.228669
 21
-90.358362
 31
0.0
  0
LINE
  8
0
  6
BYLAYER
 62
     7
 10
1030.228669
 20
-158.358362
 30
0.0
 11
1030.228669
 21
-150.358362
 31
0.0
  0
LINE
  8
0
  6
BYLAYER
 62
     7
 10
1030.228669
 20
-168.358362
 30
0.0
 11
1030.228669
 21
-160.358362
 31
0.0
  0
LINE
  8
0
  6
BYLAYER
 62
     7
 10
1022.228669
 20
-160.358362
 30
0.0
 11
1022.228669
 21
-168.358362
 31
0.0
  0
LINE
  8
0
  6
BYLAYER
 62
     7
 10
1020.228669
 20
-160.358362
 30
0.0
 11
1020.228669
 21
-168.358362
 31
0.0
  0
LINE
  8
0
  6
BYLAYER
 62
     7
 10
1030.228669
 20
-150.358362
 30
0.0
 11
1022.228669
 21
-150.358362
 31
0.0
  0
LINE
  8
0
  6
BYLAYER
 62
     7
 10
1030.228669
 20
-158.358362
 30
0.0
 11
1022.228669
 21
-158.358362
 31
0.0
  0
LINE
  8
0
  6
BYLAYER
 62
     7
 10
1020.228669
 20
-160.358362
 30
0.0
 11
1012.390670
 21
-160.358362
 31
0.0
  0
LINE
  8
0
  6
BYLAYER
 62
     7
 10
1030.228669
 20
-160.358362
 30
0.0
 11
1022.228669
 21
-160.358362
 31
0.0
  0
LINE
  8
0
  6
BYLAYER
 62
     7
 10
1020.228669
 20
-168.358362
 30
0.0
 11
1012.390670
 21
-168.358362
 31
0.0
  0
LINE
  8
0
  6
BYLAYER
 62
     7
 10
1030.228669
 20
-168.358362
 30
0.0
 11
1022.228669
 21
-168.358362
 31
0.0
  0
LINE
  8
0
  6
BYLAYER
 62
     7
 10
1012.390670
 20
-160.358362
 30
0.0
 11
1012.390670
 21
-168.358362
 31
0.0
  0
LINE
  8
0
  6
BYLAYER
 62
     7
 10
1022.228669
 20
-150.358362
 30
0.0
 11
1022.228669
 21
-158.358362
 31
0.0
  0
LINE
  8
0
  6
BYLAYER
 62
     7
 10
1020.228669
 20
-158.358362
 30
0.0
 11
1020.228669
 21
-150.358362
 31
0.0
  0
LINE
  8
0
  6
BYLAYER
 62
     7
 10
1020.228669
 20
-150.358362
 30
0.0
 11
1012.228669
 21
-150.358362
 31
0.0
  0
LINE
  8
0
  6
BYLAYER
 62
     7
 10
1020.228669
 20
-158.358362
 30
0.0
 11
1012.228669
 21
-158.358362
 31
0.0
  0
LINE
  8
0
  6
BYLAYER
 62
     7
 10
1012.228669
 20
-150.358362
 30
0.0
 11
1012.228669
 21
-158.358362
 31
0.0
  0
LINE
  8
0
  6
BYLAYER
 62
     7
 10
1010.228669
 20
-140.358362
 30
0.0
 11
1002.228669
 21
-140.358362
 31
0.0
  0
LINE
  8
0
  6
BYLAYER
 62
     7
 10
1010.228669
 20
-158.358362
 30
0.0
 11
1010.228669
 21
-150.358362
 31
0.0
  0
LINE
  8
0
  6
BYLAYER
 62
     7
 10
1010.228669
 20
-148.358362
 30
0.0
 11
1010.228669
 21
-140.358362
 31
0.0
  0
LINE
  8
0
  6
BYLAYER
 62
     7
 10
1010.228669
 20
-148.358362
 30
0.0
 11
1002.228669
 21
-148.358362
 31
0.0
  0
LINE
  8
0
  6
BYLAYER
 62
     7
 10
1010.228669
 20
-150.358362
 30
0.0
 11
1002.228669
 21
-150.358362
 31
0.0
  0
LINE
  8
0
  6
BYLAYER
 62
     7
 10
1010.228669
 20
-158.358362
 30
0.0
 11
1002.228669
 21
-158.358362
 31
0.0
  0
LINE
  8
0
  6
BYLAYER
 62
     7
 10
1002.228669
 20
-140.358362
 30
0.0
 11
1002.228669
 21
-148.358362
 31
0.0
  0
LINE
  8
0
  6
BYLAYER
 62
     7
 10
1002.228669
 20
-150.358362
 30
0.0
 11
1002.228669
 21
-158.358362
 31
0.0
  0
LINE
  8
0
  6
BYLAYER
 62
     7
 10
1010.228669
 20
-130.358362
 30
0.0
 11
1002.228669
 21
-130.358362
 31
0.0
  0
LINE
  8
0
  6
BYLAYER
 62
     7
 10
1010.228669
 20
-138.358362
 30
0.0
 11
1010.228669
 21
-130.358362
 31
0.0
  0
LINE
  8
0
  6
BYLAYER
 62
     7
 10
1010.228669
 20
-138.358362
 30
0.0
 11
1002.228669
 21
-138.358362
 31
0.0
  0
LINE
  8
0
  6
BYLAYER
 62
     7
 10
1002.228669
 20
-130.358362
 30
0.0
 11
1002.228669
 21
-138.358362
 31
0.0
  0
LINE
  8
0
  6
BYLAYER
 62
     7
 10
1000.228669
 20
-140.358362
 30
0.0
 11
992.228669
 21
-140.358362
 31
0.0
  0
LINE
  8
0
  6
BYLAYER
 62
     7
 10
1000.228669
 20
-148.358362
 30
0.0
 11
1000.228669
 21
-140.358362
 31
0.0
  0
LINE
  8
0
  6
BYLAYER
 62
     7
 10
1000.228669
 20
-148.358362
 30
0.0
 11
992.228669
 21
-148.358362
 31
0.0
  0
LINE
  8
0
  6
BYLAYER
 62
     7
 10
992.228669
 20
-140.358362
 30
0.0
 11
992.228669
 21
-148.358362
 31
0.0
  0
LINE
  8
0
  6
BYLAYER
 62
     7
 10
1000.228669
 20
-130.358362
 30
0.0
 11
992.228669
 21
-130.358362
 31
0.0
  0
LINE
  8
0
  6
BYLAYER
 62
     7
 10
1000.228669
 20
-138.358362
 30
0.0
 11
1000.228669
 21
-130.358362
 31
0.0
  0
LINE
  8
0
  6
BYLAYER
 62
     7
 10
1000.228669
 20
-138.358362
 30
0.0
 11
992.228669
 21
-138.358362
 31
0.0
  0
LINE
  8
0
  6
BYLAYER
 62
     7
 10
992.228669
 20
-130.358362
 30
0.0
 11
992.228669
 21
-138.358362
 31
0.0
  0
LINE
  8
0
  6
BYLAYER
 62
     7
 10
990.228669
 20
-140.358362
 30
0.0
 11
982.228669
 21
-140.358362
 31
0.0
  0
LINE
  8
0
  6
BYLAYER
 62
     7
 10
990.228669
 20
-148.358362
 30
0.0
 11
990.228669
 21
-140.358362
 31
0.0
  0
LINE
  8
0
  6
BYLAYER
 62
     7
 10
990.228669
 20
-148.358362
 30
0.0
 11
982.228669
 21
-148.358362
 31
0.0
  0
LINE
  8
0
  6
BYLAYER
 62
     7
 10
982.228669
 20
-140.358362
 30
0.0
 11
982.228669
 21
-148.358362
 31
0.0
  0
LINE
  8
0
  6
BYLAYER
 62
     7
 10
990.228669
 20
-130.358362
 30
0.0
 11
982.228669
 21
-130.358362
 31
0.0
  0
LINE
  8
0
  6
BYLAYER
 62
     7
 10
990.228669
 20
-138.358362
 30
0.0
 11
990.228669
 21
-130.358362
 31
0.0
  0
LINE
  8
0
  6
BYLAYER
 62
     7
 10
990.228669
 20
-138.358362
 30
0.0
 11
982.228669
 21
-138.358362
 31
0.0
  0
LINE
  8
0
  6
BYLAYER
 62
     7
 10
982.228669
 20
-130.358362
 30
0.0
 11
982.228669
 21
-138.358362
 31
0.0
  0
LINE
  8
0
  6
BYLAYER
 62
     7
 10
1030.228669
 20
-178.358362
 30
0.0
 11
1030.228669
 21
-170.358362
 31
0.0
  0
LINE
  8
0
  6
BYLAYER
 62
     7
 10
1022.228669
 20
-170.358362
 30
0.0
 11
1022.228669
 21
-178.358362
 31
0.0
  0
LINE
  8
0
  6
BYLAYER
 62
     7
 10
1020.228669
 20
-170.358362
 30
0.0
 11
1020.228669
 21
-178.358362
 31
0.0
  0
LINE
  8
0
  6
BYLAYER
 62
     7
 10
1020.228669
 20
-170.358362
 30
0.0
 11
1012.390670
 21
-170.358362
 31
0.0
  0
LINE
  8
0
  6
BYLAYER
 62
     7
 10
1030.228669
 20
-170.358362
 30
0.0
 11
1022.228669
 21
-170.358362
 31
0.0
  0
LINE
  8
0
  6
BYLAYER
 62
     7
 10
1020.228669
 20
-178.358362
 30
0.0
 11
1012.390670
 21
-178.358362
 31
0.0
  0
LINE
  8
0
  6
BYLAYER
 62
     7
 10
1030.228669
 20
-178.358362
 30
0.0
 11
1022.228669
 21
-178.358362
 31
0.0
  0
LINE
  8
0
  6
BYLAYER
 62
     7
 10
1012.390670
 20
-170.358362
 30
0.0
 11
1012.390670
 21
-178.358362
 31
0.0
  0
LINE
  8
0
  6
BYLAYER
 62
     7
 10
1010.228669
 20
-168.358362
 30
0.0
 11
1010.228669
 21
-160.358362
 31
0.0
  0
LINE
  8
0
  6
BYLAYER
 62
     7
 10
1010.228669
 20
-160.358362
 30
0.0
 11
1002.228669
 21
-160.358362
 31
0.0
  0
LINE
  8
0
  6
BYLAYER
 62
     7
 10
1010.228669
 20
-168.358362
 30
0.0
 11
1002.228669
 21
-168.358362
 31
0.0
  0
LINE
  8
0
  6
BYLAYER
 62
     7
 10
1002.228669
 20
-160.358362
 30
0.0
 11
1002.228669
 21
-168.358362
 31
0.0
  0
LINE
  8
0
  6
BYLAYER
 62
     7
 10
1010.228669
 20
-178.358362
 30
0.0
 11
1010.228669
 21
-170.358362
 31
0.0
  0
LINE
  8
0
  6
BYLAYER
 62
     7
 10
1010.228669
 20
-170.358362
 30
0.0
 11
1002.228669
 21
-170.358362
 31
0.0
  0
LINE
  8
0
  6
BYLAYER
 62
     7
 10
1010.228669
 20
-178.358362
 30
0.0
 11
1002.228669
 21
-178.358362
 31
0.0
  0
LINE
  8
0
  6
BYLAYER
 62
     7
 10
1002.228669
 20
-170.358362
 30
0.0
 11
1002.228669
 21
-178.358362
 31
0.0
  0
LINE
  8
0
  6
BYLAYER
 62
     7
 10
1000.228669
 20
-158.358362
 30
0.0
 11
1000.228669
 21
-150.358362
 31
0.0
  0
LINE
  8
0
  6
BYLAYER
 62
     7
 10
1000.228669
 20
-150.358362
 30
0.0
 11
992.228669
 21
-150.358362
 31
0.0
  0
LINE
  8
0
  6
BYLAYER
 62
     7
 10
1000.228669
 20
-158.358362
 30
0.0
 11
992.228669
 21
-158.358362
 31
0.0
  0
LINE
  8
0
  6
BYLAYER
 62
     7
 10
992.228669
 20
-150.358362
 30
0.0
 11
992.228669
 21
-158.358362
 31
0.0
  0
LINE
  8
0
  6
BYLAYER
 62
     7
 10
1000.228669
 20
-168.358362
 30
0.0
 11
1000.228669
 21
-160.358362
 31
0.0
  0
LINE
  8
0
  6
BYLAYER
 62
     7
 10
1000.228669
 20
-160.358362
 30
0.0
 11
992.228669
 21
-160.358362
 31
0.0
  0
LINE
  8
0
  6
BYLAYER
 62
     7
 10
1000.228669
 20
-168.358362
 30
0.0
 11
992.228669
 21
-168.358362
 31
0.0
  0
LINE
  8
0
  6
BYLAYER
 62
     7
 10
992.228669
 20
-160.358362
 30
0.0
 11
992.228669
 21
-168.358362
 31
0.0
  0
LINE
  8
0
  6
BYLAYER
 62
     7
 10
990.228669
 20
-158.358362
 30
0.0
 11
990.228669
 21
-150.358362
 31
0.0
  0
LINE
  8
0
  6
BYLAYER
 62
     7
 10
990.228669
 20
-150.358362
 30
0.0
 11
982.228669
 21
-150.358362
 31
0.0
  0
LINE
  8
0
  6
BYLAYER
 62
     7
 10
990.228669
 20
-158.358362
 30
0.0
 11
982.228669
 21
-158.358362
 31
0.0
  0
LINE
  8
0
  6
BYLAYER
 62
     7
 10
982.228669
 20
-150.358362
 30
0.0
 11
982.228669
 21
-158.358362
 31
0.0
  0
LINE
  8
0
  6
BYLAYER
 62
     7
 10
980.228669
 20
-140.358362
 30
0.0
 11
972.228669
 21
-140.358362
 31
0.0
  0
LINE
  8
0
  6
BYLAYER
 62
     7
 10
980.228669
 20
-148.358362
 30
0.0
 11
980.228669
 21
-140.358362
 31
0.0
  0
LINE
  8
0
  6
BYLAYER
 62
     7
 10
980.228669
 20
-148.358362
 30
0.0
 11
972.228669
 21
-148.358362
 31
0.0
  0
LINE
  8
0
  6
BYLAYER
 62
     7
 10
972.228669
 20
-140.358362
 30
0.0
 11
972.228669
 21
-148.358362
 31
0.0
  0
LINE
  8
0
  6
BYLAYER
 62
     7
 10
980.228669
 20
-130.358362
 30
0.0
 11
972.228669
 21
-130.358362
 31
0.0
  0
LINE
  8
0
  6
BYLAYER
 62
     7
 10
980.228669
 20
-138.358362
 30
0.0
 11
980.228669
 21
-130.358362
 31
0.0
  0
LINE
  8
0
  6
BYLAYER
 62
     7
 10
980.228669
 20
-138.358362
 30
0.0
 11
972.228669
 21
-138.358362
 31
0.0
  0
LINE
  8
0
  6
BYLAYER
 62
     7
 10
972.228669
 20
-130.358362
 30
0.0
 11
972.228669
 21
-138.358362
 31
0.0
  0
LINE
  8
0
  6
BYLAYER
 62
     7
 10
980.228669
 20
-158.358362
 30
0.0
 11
980.228669
 21
-150.358362
 31
0.0
  0
LINE
  8
0
  6
BYLAYER
 62
     7
 10
980.228669
 20
-150.358362
 30
0.0
 11
972.228669
 21
-150.358362
 31
0.0
  0
LINE
  8
0
  6
BYLAYER
 62
     7
 10
980.228669
 20
-158.358362
 30
0.0
 11
972.228669
 21
-158.358362
 31
0.0
  0
LINE
  8
0
  6
BYLAYER
 62
     7
 10
972.228669
 20
-150.358362
 30
0.0
 11
972.228669
 21
-158.358362
 31
0.0
  0
LINE
  8
0
  6
BYLAYER
 62
     7
 10
1030.228669
 20
-188.358362
 30
0.0
 11
1030.228669
 21
-180.358362
 31
0.0
  0
LINE
  8
0
  6
BYLAYER
 62
     7
 10
1022.228669
 20
-180.358362
 30
0.0
 11
1022.228669
 21
-188.358362
 31
0.0
  0
LINE
  8
0
  6
BYLAYER
 62
     7
 10
1020.228669
 20
-180.358362
 30
0.0
 11
1020.228669
 21
-188.358362
 31
0.0
  0
LINE
  8
0
  6
BYLAYER
 62
     7
 10
1020.228669
 20
-180.358362
 30
0.0
 11
1012.390670
 21
-180.358362
 31
0.0
  0
LINE
  8
0
  6
BYLAYER
 62
     7
 10
1030.228669
 20
-180.358362
 30
0.0
 11
1022.228669
 21
-180.358362
 31
0.0
  0
LINE
  8
0
  6
BYLAYER
 62
     7
 10
1020.228669
 20
-188.358362
 30
0.0
 11
1012.390670
 21
-188.358362
 31
0.0
  0
LINE
  8
0
  6
BYLAYER
 62
     7
 10
1030.228669
 20
-188.358362
 30
0.0
 11
1022.228669
 21
-188.358362
 31
0.0
  0
LINE
  8
0
  6
BYLAYER
 62
     7
 10
1012.390670
 20
-180.358362
 30
0.0
 11
1012.390670
 21
-188.358362
 31
0.0
  0
LINE
  8
0
  6
BYLAYER
 62
     7
 10
1010.228669
 20
-188.358362
 30
0.0
 11
1010.228669
 21
-180.358362
 31
0.0
  0
LINE
  8
0
  6
BYLAYER
 62
     7
 10
1010.228669
 20
-180.358362
 30
0.0
 11
1002.228669
 21
-180.358362
 31
0.0
  0
LINE
  8
0
  6
BYLAYER
 62
     7
 10
1010.228669
 20
-188.358362
 30
0.0
 11
1002.228669
 21
-188.358362
 31
0.0
  0
LINE
  8
0
  6
BYLAYER
 62
     7
 10
1002.228669
 20
-180.358362
 30
0.0
 11
1002.228669
 21
-188.358362
 31
0.0
  0
LINE
  8
0
  6
BYLAYER
 62
     7
 10
1000.228669
 20
-178.358362
 30
0.0
 11
1000.228669
 21
-170.358362
 31
0.0
  0
LINE
  8
0
  6
BYLAYER
 62
     7
 10
1000.228669
 20
-170.358362
 30
0.0
 11
992.228669
 21
-170.358362
 31
0.0
  0
LINE
  8
0
  6
BYLAYER
 62
     7
 10
1000.228669
 20
-178.358362
 30
0.0
 11
992.228669
 21
-178.358362
 31
0.0
  0
LINE
  8
0
  6
BYLAYER
 62
     7
 10
992.228669
 20
-170.358362
 30
0.0
 11
992.228669
 21
-178.358362
 31
0.0
  0
LINE
  8
0
  6
BYLAYER
 62
     7
 10
990.228669
 20
-168.358362
 30
0.0
 11
990.228669
 21
-160.358362
 31
0.0
  0
LINE
  8
0
  6
BYLAYER
 62
     7
 10
990.228669
 20
-160.358362
 30
0.0
 11
982.228669
 21
-160.358362
 31
0.0
  0
LINE
  8
0
  6
BYLAYER
 62
     7
 10
990.228669
 20
-168.358362
 30
0.0
 11
982.228669
 21
-168.358362
 31
0.0
  0
LINE
  8
0
  6
BYLAYER
 62
     7
 10
982.228669
 20
-160.358362
 30
0.0
 11
982.228669
 21
-168.358362
 31
0.0
  0
CIRCLE
  8
0
  6
BYLAYER
 62
     7
 10
1031.228669
 20
-129.358362
 30
0.0
 40
71.999936
  0
CIRCLE
  8
0
  6
BYLAYER
 62
     7
 10
1031.228669
 20
-129.358362
 30
0.0
 40
86.549921
  0
CIRCLE
  8
0
  6
BYLAYER
 62
     7
 10
1031.228669
 20
-129.358362
 30
0.0
 40
70.0
  0
LINE
  8
0
  6
BYLAYER
 62
     7
 10
987.728562
 20
-522.858393
 30
0.0
 11
987.728562
 21
-501.358393
 31
0.0
  0
ARC
  8
0
  6
BYLAYER
 62
     7
 10
986.228562
 20
-522.858393
 30
0.0
 40
1.5
 50
270.0
 51
360.0
  0
ARC
  8
0
  6
BYLAYER
 62
     7
 10
989.228562
 20
-501.358393
 30
0.0
 40
1.5
 50
90.0
 51
180.0
  0
LINE
  8
0
  6
BYLAYER
 62
     7
 10
1031.228562
 20
-499.858393
 30
0.0
 11
989.228562
 21
-499.858393
 31
0.0
  0
LINE
  8
0
  6
BYLAYER
 62
     7
 10
993.100803
 20
-522.858393
 30
0.0
 11
993.100803
 21
-501.358393
 31
0.0
  0
ARC
  8
0
  6
BYLAYER
 62
     7
 10
991.600803
 20
-522.858393
 30
0.0
 40
1.5
 50
270.0
 51
360.0
  0
ARC
  8
0
  6
BYLAYER
 62
     7
 10
994.600803
 20
-501.358393
 30
0.0
 40
1.5
 50
90.0
 51
180.0
  0
LINE
  8
0
  6
BYLAYER
 62
     7
 10
1018.134909
 20
-499.858393
 30
0.0
 11
1018.627456
 21
-513.963091
 31
0.0
  0
ARC
  8
0
  6
BYLAYER
 62
     7
 10
1021.625628
 20
-513.858393
 30
0.0
 40
3.0
 50
182.000000
 51
270.000000
  0
LINE
  8
0
  6
BYLAYER
 62
     7
 10
1028.829668
 20
-513.963091
 30
0.0
 11
1029.322215
 21
-499.858393
 31
0.0
  0
ARC
  8
0
  6
BYLAYER
 62
     7
 10
1025.831496
 20
-513.858393
 30
0.0
 40
3.0
 50
270.0
 51
358.0
  0
LINE
  8
0
  6
BYLAYER
 62
     7
 10
1021.625628
 20
-516.858393
 30
0.0
 11
1025.831496
 21
-516.858393
 31
0.0
  0
LINE
  8
0
  6
BYLAYER
 62
     7
 10
1003.134909
 20
-499.858393
 30
0.0
 11
1003.627456
 21
-513.963091
 31
0.0
  0
ARC
  8
0
  6
BYLAYER
 62
     7
 10
1006.625628
 20
-513.858393
 30
0.0
 40
3.0
 50
182.000000
 51
270.000000
  0
LINE
  8
0
  6
BYLAYER
 62
     7
 10
1013.829668
 20
-513.963091
 30
0.0
 11
1014.322215
 21
-499.858393
 31
0.0
  0
ARC
  8
0
  6
BYLAYER
 62
     7
 10
1010.831496
 20
-513.858393
 30
0.0
 40
3.0
 50
270.0
 51
358.0
  0
LINE
  8
0
  6
BYLAYER
 62
     7
 10
1006.625628
 20
-516.858393
 30
0.0
 11
1010.831496
 21
-516.858393
 31
0.0
  0
LINE
  8
0
  6
BYLAYER
 62
     7
 10
1003.169830
 20
-500.858393
 30
0.0
 11
1014.287294
 21
-500.858393
 31
0.0
  0
LINE
  8
0
  6
BYLAYER
 62
     7
 10
1018.169830
 20
-500.858393
 30
0.0
 11
1029.287294
 21
-500.858393
 31
0.0
  0
LINE
  8
0
  6
BYLAYER
 62
     7
 10
1031.228562
 20
-524.358393
 30
0.0
 11
983.728562
 21
-524.358393
 31
0.0
  0
ARC
  8
0
  6
BYLAYER
 62
     7
 10
983.728562
 20
-525.858393
 30
0.0
 40
1.5
 50
90.0
 51
180.0
  0
LINE
  8
0
  6
BYLAYER
 62
     7
 10
982.228562
 20
-531.358393
 30
0.0
 11
982.228562
 21
-525.858393
 31
0.0
  0
LINE
  8
0
  6
BYLAYER
 62
     7
 10
982.228562
 20
-531.358393
 30
0.0
 11
1031.228562
 21
-531.358393
 31
0.0
  0
LINE
  8
0
  6
BYLAYER
 62
     7
 10
1074.728562
 20
-522.858393
 30
0.0
 11
1074.728562
 21
-501.358393
 31
0.0
  0
ARC
  8
0
  6
BYLAYER
 62
     7
 10
1076.228562
 20
-522.858393
 30
0.0
 40
1.5
 50
180.000000
 51
270.000000
  0
ARC
  8
0
  6
BYLAYER
 62
     7
 10
1073.228562
 20
-501.358393
 30
0.0
 40
1.5
 50
0.0
 51
90.0
  0
LINE
  8
0
  6
BYLAYER
 62
     7
 10
1031.228562
 20
-499.858393
 30
0.0
 11
1073.228562
 21
-499.858393
 31
0.0
  0
LINE
  8
0
  6
BYLAYER
 62
     7
 10
1069.356321
 20
-522.858393
 30
0.0
 11
1069.356321
 21
-501.358393
 31
0.0
  0
ARC
  8
0
  6
BYLAYER
 62
     7
 10
1070.856321
 20
-522.858393
 30
0.0
 40
1.5
 50
180.000000
 51
270.000000
  0
ARC
  8
0
  6
BYLAYER
 62
     7
 10
1067.856321
 20
-501.358393
 30
0.0
 40
1.5
 50
0.0
 51
90.0
  0
LINE
  8
0
  6
BYLAYER
 62
     7
 10
1044.322215
 20
-499.858393
 30
0.0
 11
1043.829668
 21
-513.963091
 31
0.0
  0
ARC
  8
0
  6
BYLAYER
 62
     7
 10
1040.831496
 20
-513.858393
 30
0.0
 40
3.0
 50
270.0
 51
358.0
  0
LINE
  8
0
  6
BYLAYER
 62
     7
 10
1033.627456
 20
-513.963091
 30
0.0
 11
1033.134909
 21
-499.858393
 31
0.0
  0
ARC
  8
0
  6
BYLAYER
 62
     7
 10
1036.625628
 20
-513.858393
 30
0.0
 40
3.0
 50
182.000000
 51
270.000000
  0
LINE
  8
0
  6
BYLAYER
 62
     7
 10
1040.831496
 20
-516.858393
 30
0.0
 11
1036.625628
 21
-516.858393
 31
0.0
  0
LINE
  8
0
  6
BYLAYER
 62
     7
 10
1059.322215
 20
-499.858393
 30
0.0
 11
1058.829668
 21
-513.963091
 31
0.0
  0
ARC
  8
0
  6
BYLAYER
 62
     7
 10
1055.831496
 20
-513.858393
 30
0.0
 40
3.0
 50
270.0
 51
358.0
  0
LINE
  8
0
  6
BYLAYER
 62
     7
 10
1048.627456
 20
-513.963091
 30
0.0
 11
1048.134909
 21
-499.858393
 31
0.0
  0
ARC
  8
0
  6
BYLAYER
 62
     7
 10
1051.625628
 20
-513.858393
 30
0.0
 40
3.0
 50
182.000000
 51
270.000000
  0
LINE
  8
0
  6
BYLAYER
 62
     7
 10
1055.831496
 20
-516.858393
 30
0.0
 11
1051.625628
 21
-516.858393
 31
0.0
  0
LINE
  8
0
  6
BYLAYER
 62
     7
 10
1059.287294
 20
-500.858393
 30
0.0
 11
1048.169830
 21
-500.858393
 31
0.0
  0
LINE
  8
0
  6
BYLAYER
 62
     7
 10
1044.287294
 20
-500.858393
 30
0.0
 11
1033.169830
 21
-500.858393
 31
0.0
  0
LINE
  8
0
  6
BYLAYER
 62
     7
 10
1031.228562
 20
-524.358393
 30
0.0
 11
1078.728562
 21
-524.358393
 31
0.0
  0
ARC
  8
0
  6
BYLAYER
 62
     7
 10
1078.728562
 20
-525.858393
 30
0.0
 40
1.5
 50
0.0
 51
90.0
  0
LINE
  8
0
  6
BYLAYER
 62
     7
 10
1080.228562
 20
-533.358393
 30
0.0
 11
1080.228562
 21
-525.858393
 31
0.0
  0
LINE
  8
0
  6
BYLAYER
 62
     7
 10
1080.228562
 20
-531.358393
 30
0.0
 11
1031.228562
 21
-531.358393
 31
0.0
  0
LINE
  8
0
  6
BYLAYER
 62
     7
 10
982.228562
 20
-533.358393
 30
0.0
 11
1031.228546
 21
-533.358393
 31
0.0
  0
LINE
  8
0
  6
BYLAYER
 62
     7
 10
982.228562
 20
-538.858393
 30
0.0
 11
985.228562
 21
-544.054560
 31
0.0
  0
LINE
  8
0
  6
BYLAYER
 62
     7
 10
1080.228546
 20
-533.358271
 30
0.0
 11
1031.228546
 21
-533.358393
 31
0.0
  0
LINE
  8
0
  6
BYLAYER
 62
     7
 10
1080.228546
 20
-538.858271
 30
0.0
 11
1077.228546
 21
-544.054438
 31
0.0
  0
LINE
  8
0
  6
BYLAYER
 62
     7
 10
985.228562
 20
-544.054560
 30
0.0
 11
985.228562
 21
-552.858423
 31
0.0
  0
ARC
  8
0
  6
BYLAYER
 62
     7
 10
983.228562
 20
-559.358423
 30
0.0
 40
1.000000
 50
180.000000
 51
269.999995
  0
LINE
  8
0
  6
BYLAYER
 62
     7
 10
984.228562
 20
-560.358423
 30
0.0
 11
983.228562
 21
-560.358423
 31
0.0
  0
ARC
  8
0
  6
BYLAYER
 62
     7
 10
984.228562
 20
-561.358423
 30
0.0
 40
1.000000
 50
0.0
 51
90.000008
  0
LINE
  8
0
  6
BYLAYER
 62
     7
 10
982.228562
 20
-533.358393
 30
0.0
 11
982.228562
 21
-559.358423
 31
0.0
  0
ARC
  8
0
  6
BYLAYER
 62
     7
 10
1079.228577
 20
-559.358301
 30
0.0
 40
1.0
 50
270.0
 51
360.000009
  0
LINE
  8
0
  6
BYLAYER
 62
     7
 10
1079.228577
 20
-560.358301
 30
0.0
 11
1078.228577
 21
-560.358301
 31
0.0
  0
ARC
  8
0
  6
BYLAYER
 62
     7
 10
1078.228577
 20
-561.358301
 30
0.0
 40
1.0
 50
90.0
 51
179.999996
  0
LINE
  8
0
  6
BYLAYER
 62
     7
 10
1080.228546
 20
-533.358271
 30
0.0
 11
1080.228577
 21
-559.358301
 31
0.0
  0
ARC
  8
0
  6
BYLAYER
 62
     7
 10
1113.239975
 20
-612.558283
 30
0.0
 40
0.799986
 50
272.000044
 51
447.999761
  0
ARC
  8
0
  6
BYLAYER
 62
     7
 10
1110.153000
 20
-601.358301
 30
0.0
 40
0.799925
 50
272.000044
 51
447.999761
  0
ARC
  8
0
  6
BYLAYER
 62
     7
 10
1105.284104
 20
-590.158228
 30
0.0
 40
0.800049
 50
272.000044
 51
447.999761
  0
ARC
  8
0
  6
BYLAYER
 62
     7
 10
1098.250840
 20
-578.958277
 30
0.0
 40
0.800047
 50
272.000044
 51
447.999761
  0
LINE
  8
0
  6
BYLAYER
 62
     7
 10
1113.267868
 20
-613.357782
 30
0.0
 11
1102.790658
 21
-613.723650
 31
0.0
  0
LINE
  8
0
  6
BYLAYER
 62
     7
 10
1113.267868
 20
-611.758783
 30
0.0
 11
1102.236486
 21
-611.373577
 31
0.0
  0
LINE
  8
0
  6
BYLAYER
 62
     7
 10
1110.180893
 20
-602.157740
 30
0.0
 11
1099.390599
 21
-602.534607
 31
0.0
  0
LINE
  8
0
  6
BYLAYER
 62
     7
 10
1098.402203
 20
-600.147426
 30
0.0
 11
1110.180832
 21
-600.558741
 31
0.0
  0
LINE
  8
0
  6
BYLAYER
 62
     7
 10
1105.311997
 20
-590.957788
 30
0.0
 11
1096.228669
 21
-591.275012
 31
0.0
  0
LINE
  8
0
  6
BYLAYER
 62
     7
 10
1096.228669
 20
-589.041585
 30
0.0
 11
1105.311997
 21
-589.358789
 31
0.0
  0
ARC
  8
0
  6
BYLAYER
 62
     7
 10
952.304367
 20
-601.358423
 30
0.0
 40
0.800049
 50
92.000360
 51
268.000039
  0
ARC
  8
0
  6
BYLAYER
 62
     7
 10
957.173142
 20
-590.158472
 30
0.0
 40
0.799927
 50
92.000360
 51
268.000039
  0
ARC
  8
0
  6
BYLAYER
 62
     7
 10
964.206467
 20
-578.958399
 30
0.0
 40
0.800049
 50
92.000360
 51
268.000039
  0
ARC
  8
0
  6
BYLAYER
 62
     7
 10
1110.153061
 20
-657.358271
 30
0.0
 40
0.800016
 50
272.000044
 51
448.000355
  0
ARC
  8
0
  6
BYLAYER
 62
     7
 10
1105.284226
 20
-668.558283
 30
0.0
 40
0.800019
 50
272.000044
 51
448.000355
  0
LINE
  8
0
  6
BYLAYER
 62
     7
 10
1110.180954
 20
-656.558771
 30
0.0
 11
1099.390642
 21
-656.182048
 31
0.0
  0
LINE
  8
0
  6
BYLAYER
 62
     7
 10
1098.402273
 20
-658.569175
 30
0.0
 11
1110.180954
 21
-658.157770
 31
0.0
  0
LINE
  8
0
  6
BYLAYER
 62
     7
 10
1105.312119
 20
-667.758783
 30
0.0
 11
1101.228669
 21
-667.616185
 31
0.0
  0
LINE
  8
0
  6
BYLAYER
 62
     7
 10
1101.228669
 20
-669.500401
 30
0.0
 11
1105.312119
 21
-669.357782
 31
0.0
  0
ARC
  8
0
  6
BYLAYER
 62
     7
 10
957.173264
 20
-668.558466
 30
0.0
 40
0.800019
 50
91.999766
 51
268.000039
  0
LINE
  8
0
  6
BYLAYER
 62
     7
 10
961.228669
 20
-669.500551
 30
0.0
 11
957.145371
 21
-669.357965
 31
0.0
  0
LINE
  8
0
  6
BYLAYER
 62
     7
 10
1102.260300
 20
-644.978327
 30
0.0
 11
1102.281845
 21
-644.979090
 31
0.0
  0
ARC
  8
0
  6
BYLAYER
 62
     7
 10
1113.539963
 20
-610.541132
 30
0.0
 40
0.5
 50
0.0
 51
88.000157
  0
LINE
  8
0
  6
BYLAYER
 62
     7
 10
1114.039963
 20
-610.541132
 30
0.0
 11
1114.039963
 21
-614.575434
 31
0.0
  0
ARC
  8
0
  6
BYLAYER
 62
     7
 10
1113.539963
 20
-614.575434
 30
0.0
 40
0.500000
 50
271.999853
 51
360.000000
  0
LINE
  8
0
  6
BYLAYER
 62
     7
 10
1101.771916
 20
-609.629885
 30
0.0
 11
1113.557358
 21
-610.041437
 31
0.0
  0
LINE
  8
0
  6
BYLAYER
 62
     7
 10
1104.074243
 20
-615.406290
 30
0.0
 11
1113.557358
 21
-615.075129
 31
0.0
  0
LINE
  8
0
  6
BYLAYER
 62
     7
 10
1113.267868
 20
-646.957941
 30
0.0
 11
1102.236501
 21
-647.343146
 31
0.0
  0
LINE
  8
0
  6
BYLAYER
 62
     7
 10
1113.267868
 20
-645.358942
 30
0.0
 11
1103.038328
 21
-645.001723
 31
0.0
  0
ARC
  8
0
  6
BYLAYER
 62
     7
 10
1113.239975
 20
-646.158442
 30
0.0
 40
0.799986
 50
272.000235
 51
447.999959
  0
ARC
  8
0
  6
BYLAYER
 62
     7
 10
949.217392
 20
-646.158442
 30
0.0
 40
0.799986
 50
92.000039
 51
267.999766
  0
ARC
  8
0
  6
BYLAYER
 62
     7
 10
949.574692
 20
-653.857141
 30
0.0
 40
0.499984
 50
93.000095
 51
196.700842
  0
ARC
  8
0
  6
BYLAYER
 62
     7
 10
1031.228669
 20
-629.358362
 30
0.0
 40
85.750053
 50
196.700910
 51
201.724692
  0
ARC
  8
0
  6
BYLAYER
 62
     7
 10
952.033738
 20
-660.913385
 30
0.0
 40
0.500015
 50
201.724788
 51
266.999908
  0
ARC
  8
0
  6
BYLAYER
 62
     7
 10
1112.882614
 20
-653.857141
 30
0.0
 40
0.499983
 50
343.299378
 51
446.999903
  0
ARC
  8
0
  6
BYLAYER
 62
     7
 10
1031.228669
 20
-629.358362
 30
0.0
 40
85.749992
 50
338.275309
 51
343.299077
  0
ARC
  8
0
  6
BYLAYER
 62
     7
 10
1110.423630
 20
-660.913385
 30
0.0
 40
0.499997
 50
273.000093
 51
338.275555
  0
LINE
  8
0
  6
BYLAYER
 62
     7
 10
1100.654902
 20
-652.715651
 30
0.0
 11
1112.908799
 21
-653.357843
 31
0.0
  0
LINE
  8
0
  6
BYLAYER
 62
     7
 10
1098.228669
 20
-662.053192
 30
0.0
 11
1110.449814
 21
-661.412714
 31
0.0
  0
ARC
  8
0
  6
BYLAYER
 62
     7
 10
948.901169
 20
-610.291315
 30
0.0
 40
0.5
 50
92.000715
 51
180.000005
  0
LINE
  8
0
  6
BYLAYER
 62
     7
 10
948.401169
 20
-614.825617
 30
0.0
 11
948.401169
 21
-610.291315
 31
0.0
  0
ARC
  8
0
  6
BYLAYER
 62
     7
 10
948.901169
 20
-614.825617
 30
0.0
 40
0.5
 50
180.000000
 51
267.999269
  0
LINE
  8
0
  6
BYLAYER
 62
     7
 10
979.367535
 20
-577.628436
 30
0.0
 11
964.178513
 21
-578.158960
 31
0.0
  0
LINE
  8
0
  6
BYLAYER
 62
     7
 10
976.921199
 20
-580.202882
 30
0.0
 11
964.178513
 21
-579.757959
 31
0.0
  0
LINE
  8
0
  6
BYLAYER
 62
     7
 10
985.228562
 20
-552.858423
 30
0.0
 11
985.228562
 21
-572.353514
 31
0.0
  0
LINE
  8
0
  6
BYLAYER
 62
     7
 10
966.228669
 20
-589.041705
 30
0.0
 11
957.145310
 21
-589.358912
 31
0.0
  0
LINE
  8
0
  6
BYLAYER
 62
     7
 10
957.145310
 20
-590.957911
 30
0.0
 11
966.228669
 21
-591.275183
 31
0.0
  0
LINE
  8
0
  6
BYLAYER
 62
     7
 10
964.055054
 20
-600.147611
 30
0.0
 11
952.276413
 21
-600.558985
 31
0.0
  0
LINE
  8
0
  6
BYLAYER
 62
     7
 10
952.276413
 20
-602.157984
 30
0.0
 11
963.066701
 21
-602.534704
 31
0.0
  0
LINE
  8
0
  6
BYLAYER
 62
     7
 10
948.883713
 20
-609.791620
 30
0.0
 11
960.756633
 21
-609.377004
 31
0.0
  0
LINE
  8
0
  6
BYLAYER
 62
     7
 10
948.883713
 20
-615.325312
 30
0.0
 11
958.191931
 21
-615.650376
 31
0.0
  0
LINE
  8
0
  6
BYLAYER
 62
     7
 10
949.189499
 20
-645.358942
 30
0.0
 11
959.666680
 21
-644.993075
 31
0.0
  0
LINE
  8
0
  6
BYLAYER
 62
     7
 10
949.189499
 20
-646.957941
 30
0.0
 11
960.220852
 21
-647.343146
 31
0.0
  0
LINE
  8
0
  6
BYLAYER
 62
     7
 10
964.228669
 20
-662.053196
 30
0.0
 11
952.007553
 21
-661.412714
 31
0.0
  0
LINE
  8
0
  6
BYLAYER
 62
     7
 10
961.802450
 20
-652.715645
 30
0.0
 11
949.548508
 21
-653.357843
 31
0.0
  0
LINE
  8
0
  6
BYLAYER
 62
     7
 10
961.228669
 20
-667.616341
 30
0.0
 11
957.145371
 21
-667.758966
 31
0.0
  0
LINE
  8
0
  6
BYLAYER
 62
     7
 10
1098.278733
 20
-579.757837
 30
0.0
 11
1085.536133
 21
-580.202875
 31
0.0
  0
ARC
  8
0
  6
BYLAYER
 62
     7
 10
952.304306
 20
-657.358271
 30
0.0
 40
0.800016
 50
91.999643
 51
267.999957
  0
LINE
  8
0
  6
BYLAYER
 62
     7
 10
952.276413
 20
-656.558771
 30
0.0
 11
963.066712
 21
-656.182049
 31
0.0
  0
LINE
  8
0
  6
BYLAYER
 62
     7
 10
964.055081
 20
-658.569175
 30
0.0
 11
952.276413
 21
-658.157770
 31
0.0
  0
ARC
  8
0
  6
BYLAYER
 62
     7
 10
949.217392
 20
-612.558283
 30
0.0
 40
0.799986
 50
92.000237
 51
267.999957
  0
LINE
  8
0
  6
BYLAYER
 62
     7
 10
949.189499
 20
-613.357782
 30
0.0
 11
959.419014
 21
-613.715000
 31
0.0
  0
LINE
  8
0
  6
BYLAYER
 62
     7
 10
949.189499
 20
-611.758783
 30
0.0
 11
960.211334
 21
-611.373911
 31
0.0
  0
LINE
  8
0
  6
BYLAYER
 62
     7
 10
1098.278733
 20
-578.158838
 30
0.0
 11
1083.089772
 21
-577.628405
 31
0.0
  0
LINE
  8
0
  6
BYLAYER
 62
     7
 10
1077.228546
 20
-544.054438
 30
0.0
 11
1077.228573
 21
-572.353351
 31
0.0
  0
LINE
  8
0
  6
BYLAYER
 62
     7
 10
982.228562
 20
-531.358393
 30
0.0
 11
982.228562
 21
-533.358393
 31
0.0
  0
LINE
  8
0
  6
BYLAYER
 62
     7
 10
982.228562
 20
-533.358393
 30
0.0
 11
1080.228562
 21
-533.358393
 31
0.0
  0
ARC
  8
0
  6
BYLAYER
 62
     7
 10
1038.157685
 20
-546.146356
 30
0.0
 40
2.000001
 50
14.999814
 51
85.239989
  0
ARC
  8
0
  6
BYLAYER
 62
     7
 10
1031.228669
 20
-629.358362
 30
0.0
 40
85.500008
 50
85.239989
 51
94.760009
  0
ARC
  8
0
  6
BYLAYER
 62
     7
 10
1024.299653
 20
-546.146356
 30
0.0
 40
2.000001
 50
94.760002
 51
165.000186
  0
ARC
  8
0
  6
BYLAYER
 62
     7
 10
1114.440705
 20
-636.287378
 30
0.0
 40
2.000001
 50
284.999806
 51
355.239997
  0
ARC
  8
0
  6
BYLAYER
 62
     7
 10
1114.440705
 20
-622.429346
 30
0.0
 40
2.000001
 50
4.759995
 51
75.000176
  0
ARC
  8
0
  6
BYLAYER
 62
     7
 10
948.016663
 20
-622.429346
 30
0.0
 40
2.000001
 50
104.999815
 51
175.239978
  0
ARC
  8
0
  6
BYLAYER
 62
     7
 10
948.016663
 20
-636.287378
 30
0.0
 40
2.000001
 50
184.760005
 51
255.000168
  0
LINE
  8
0
  6
BYLAYER
 62
     7
 10
1040.089539
 20
-545.628717
 30
0.0
 11
1041.564545
 21
-551.133447
 31
0.0
  0
ARC
  8
0
  6
BYLAYER
 62
     7
 10
1051.223786
 20
-548.545252
 30
0.0
 40
9.999995
 50
194.999961
 51
256.102697
  0
LINE
  8
0
  6
BYLAYER
 62
     7
 10
1022.367799
 20
-545.628717
 30
0.0
 11
1020.892793
 21
-551.133447
 31
0.0
  0
ARC
  8
0
  6
BYLAYER
 62
     7
 10
1011.233552
 20
-548.545252
 30
0.0
 40
9.999999
 50
283.897223
 51
344.999958
  0
LINE
  8
0
  6
BYLAYER
 62
     7
 10
1114.958283
 20
-620.497492
 30
0.0
 11
1109.453584
 21
-619.022516
 31
0.0
  0
ARC
  8
0
  6
BYLAYER
 62
     7
 10
1031.228669
 20
-629.358362
 30
0.0
 40
73.250000
 50
13.897258
 51
27.455149
  0
ARC
  8
0
  6
BYLAYER
 62
     7
 10
1031.228669
 20
-629.358362
 30
0.0
 40
73.250000
 50
37.903578
 51
76.102746
  0
ARC
  8
0
  6
BYLAYER
 62
     7
 10
1112.041779
 20
-609.363245
 30
0.0
 40
10.000001
 50
193.897241
 51
254.999976
  0
LINE
  8
0
  6
BYLAYER
 62
     7
 10
1114.958283
 20
-638.219232
 30
0.0
 11
1109.453584
 21
-639.694223
 31
0.0
  0
ARC
  8
0
  6
BYLAYER
 62
     7
 10
1112.041779
 20
-649.353494
 30
0.0
 40
10.000002
 50
105.000027
 51
166.102728
  0
ARC
  8
0
  6
BYLAYER
 62
     7
 10
1031.228669
 20
-629.358362
 30
0.0
 40
73.250015
 50
336.159697
 51
346.102733
  0
LINE
  8
0
  6
BYLAYER
 62
     7
 10
947.499024
 20
-638.219232
 30
0.0
 11
953.003754
 21
-639.694223
 31
0.0
  0
ARC
  8
0
  6
BYLAYER
 62
     7
 10
950.415559
 20
-649.353479
 30
0.0
 40
10.0
 50
13.897258
 51
75.000012
  0
LINE
  8
0
  6
BYLAYER
 62
     7
 10
947.499024
 20
-620.497492
 30
0.0
 11
953.003754
 21
-619.022516
 31
0.0
  0
ARC
  8
0
  6
BYLAYER
 62
     7
 10
1031.228669
 20
-629.358362
 30
0.0
 40
73.250000
 50
152.544851
 51
166.102742
  0
ARC
  8
0
  6
BYLAYER
 62
     7
 10
1031.228669
 20
-629.358362
 30
0.0
 40
73.250000
 50
103.897259
 51
142.096422
  0
ARC
  8
0
  6
BYLAYER
 62
     7
 10
950.415559
 20
-609.363245
 30
0.0
 40
9.999999
 50
284.999998
 51
346.102733
  0
ARC
  8
0
  6
BYLAYER
 62
     7
 10
1031.228669
 20
-629.358362
 30
0.0
 40
70.0
 50
158.213211
 51
196.834981
  0
ARC
  8
0
  6
BYLAYER
 62
     7
 10
1031.228669
 20
-629.358362
 30
0.0
 40
70.000000
 50
343.165019
 51
381.786789
  0
ARC
  8
0
  6
BYLAYER
 62
     7
 10
1031.228669
 20
-629.358362
 30
0.0
 40
70.0
 50
40.005201
 51
139.994799
  0
ARC
  8
0
  6
BYLAYER
 62
     7
 10
1031.228669
 20
-629.358362
 30
0.0
 40
70.875000
 50
156.506828
 51
199.033813
  0
ARC
  8
0
  6
BYLAYER
 62
     7
 10
1031.228669
 20
-629.358362
 30
0.0
 40
70.875000
 50
340.966187
 51
383.493172
  0
ARC
  8
0
  6
BYLAYER
 62
     7
 10
1031.228669
 20
-629.358362
 30
0.0
 40
70.875000
 50
39.414098
 51
140.585902
  0
ARC
  8
0
  6
BYLAYER
 62
     7
 10
1031.228669
 20
-629.358362
 30
0.0
 40
85.499992
 50
355.239997
 51
364.752080
  0
ARC
  8
0
  6
BYLAYER
 62
     7
 10
1031.228669
 20
-629.358362
 30
0.0
 40
85.499992
 50
175.247920
 51
184.760003
  0
ARC
  8
0
  6
BYLAYER
 62
     7
 10
1031.228669
 20
-629.358362
 30
0.0
 40
86.549921
 50
323.977079
 51
415.518079
  0
ARC
  8
0
  6
BYLAYER
 62
     7
 10
1031.228669
 20
-629.358362
 30
0.0
 40
86.549921
 50
124.482082
 51
216.022921
  0
ARC
  8
0
  6
BYLAYER
 62
     7
 10
1031.228669
 20
-629.358362
 30
0.0
 40
73.250000
 50
193.897268
 51
203.631356
  0
LINE
  8
0
  6
BYLAYER
 62
     1
 10
386.228669
 20
-719.358362
 30
0.0
 11
386.228669
 21
-766.858270
 31
0.0
  0
ARC
  8
0
  6
BYLAYER
 62
     1
 10
402.728669
 20
-786.936334
 30
0.0
 40
2.000022
 50
183.795336
 51
266.999963
  0
LINE
  8
0
  6
BYLAYER
 62
     1
 10
400.728669
 20
-786.936334
 30
0.0
 11
400.728669
 21
-719.358362
 31
0.0
  0
ARC
  8
0
  6
BYLAYER
 62
     1
 10
398.728669
 20
-769.516046
 30
0.0
 40
2.0
 50
0.0
 51
87.000334
  0
LINE
  8
0
  6
BYLAYER
 62
     1
 10
386.228669
 20
-766.858270
 30
0.0
 11
398.833314
 21
-767.518793
 31
0.0
  0
LINE
  8
0
  6
BYLAYER
 62
     1
 10
400.730866
 20
-784.358362
 30
0.0
 11
388.562836
 21
-766.980585
 31
0.0
  0
LINE
  8
0
  6
BYLAYER
 62
     1
 10
402.623994
 20
-788.933588
 30
0.0
 11
410.728669
 21
-789.358379
 31
0.0
  0
LINE
  8
0
  6
BYLAYER
 62
     1
 10
410.728669
 20
-789.358379
 30
0.0
 11
410.728669
 21
-719.358362
 31
0.0
  0
LINE
  8
0
  6
BYLAYER
 62
     1
 10
386.228669
 20
-719.358362
 30
0.0
 11
386.228669
 21
-671.858454
 31
0.0
  0
ARC
  8
0
  6
BYLAYER
 62
     1
 10
402.728669
 20
-651.780390
 30
0.0
 40
2.000022
 50
93.000037
 51
176.204664
  0
LINE
  8
0
  6
BYLAYER
 62
     1
 10
400.728669
 20
-651.780390
 30
0.0
 11
400.728669
 21
-719.358362
 31
0.0
  0
ARC
  8
0
  6
BYLAYER
 62
     1
 10
398.728669
 20
-669.200678
 30
0.0
 40
2.000000
 50
272.999666
 51
360.000000
  0
LINE
  8
0
  6
BYLAYER
 62
     1
 10
386.228669
 20
-671.858454
 30
0.0
 11
398.833314
 21
-671.197931
 31
0.0
  0
LINE
  8
0
  6
BYLAYER
 62
     1
 10
400.730866
 20
-654.358362
 30
0.0
 11
388.562836
 21
-671.736139
 31
0.0
  0
LINE
  8
0
  6
BYLAYER
 62
     1
 10
402.623994
 20
-649.783136
 30
0.0
 11
410.728669
 21
-649.358345
 31
0.0
  0
LINE
  8
0
  6
BYLAYER
 62
     1
 10
410.728669
 20
-649.358345
 30
0.0
 11
410.728669
 21
-719.358362
 31
0.0
  0
ENDSEC
  0
EOF
