  0
SECTION
  2
HEADER
  9
$EXTMIN
 10
165.723549
 20
823.0
 30
0.0
  9
$EXTMAX
 10
1126.358362
 20
-2.808874
 30
0.0
  0
ENDSEC
  0
SECTION
  2
TABLES
  0
ENDSEC
  0
SECTION
  2
BLOCKS
  0
ENDSEC
  0
SECTION
  2
ENTITIES
  0
LINE
  8
0
  6
BYLAYER
 62
     7
 10
413.960751
 20
-223.687713
 30
0.0
 11
413.960751
 21
-127.687713
 31
0.0
  0
LINE
  8
0
  6
BYLAYER
 62
     7
 10
413.960751
 20
-227.687713
 30
0.0
 11
413.960751
 21
-223.687713
 31
0.0
  0
LINE
  8
0
  6
BYLAYER
 62
     7
 10
413.960751
 20
-127.687713
 30
0.0
 11
413.960751
 21
-27.687713
 31
0.0
  0
LINE
  8
0
  6
BYLAYER
 62
     7
 10
413.960751
 20
-59.312332
 30
0.0
 11
413.960751
 21
-51.187713
 31
0.0
  0
LINE
  8
0
  6
BYLAYER
 62
     7
 10
401.960751
 20
-27.687713
 30
0.0
 11
413.960751
 21
-27.687713
 31
0.0
  0
LINE
  8
0
  6
BYLAYER
 62
     7
 10
401.960751
 20
-227.687713
 30
0.0
 11
413.960751
 21
-227.687713
 31
0.0
  0
LINE
  8
0
  6
BYLAYER
 62
     7
 10
433.960751
 20
-201.740160
 30
0.0
 11
433.960751
 21
-202.011353
 31
0.0
  0
LINE
  8
0
  6
BYLAYER
 62
     7
 10
433.960751
 20
-195.222625
 30
0.0
 11
433.960751
 21
-204.187713
 31
0.0
  0
LINE
  8
0
  6
BYLAYER
 62
     7
 10
433.960751
 20
-204.187713
 30
0.0
 11
413.960751
 21
-204.594961
 31
0.0
  0
LINE
  8
0
  6
BYLAYER
 62
     7
 10
435.460751
 20
-195.196441
 30
0.0
 11
433.960751
 21
-195.222625
 31
0.0
  0
LINE
  8
0
  6
BYLAYER
 62
     7
 10
414.452024
 20
-59.812255
 30
0.0
 11
435.460751
 21
-60.178985
 31
0.0
  0
ARC
  8
0
  6
BYLAYER
 62
     7
 10
414.460751
 20
-59.312332
 30
0.0
 40
0.500000
 50
180.000000
 51
268.999943
  0
LINE
  8
0
  6
BYLAYER
 62
     7
 10
435.460751
 20
-60.178985
 30
0.0
 11
435.460751
 21
-195.196441
 31
0.0
  0
LINE
  8
0
  6
BYLAYER
 62
     7
 10
401.960751
 20
-127.687713
 30
0.0
 11
401.960751
 21
-227.687713
 31
0.0
  0
LINE
  8
0
  6
BYLAYER
 62
     7
 10
401.960751
 20
-127.687713
 30
0.0
 11
401.960751
 21
-27.687713
 31
0.0
  0
LINE
  8
0
  6
BYLAYER
 62
     7
 10
444.760678
 20
-44.187774
 30
0.0
 11
438.960629
 21
-44.187774
 31
0.0
  0
ARC
  8
0
  6
BYLAYER
 62
     7
 10
444.760678
 20
-45.687774
 30
0.0
 40
1.500000
 50
0.0
 51
90.000003
  0
ARC
  8
0
  6
BYLAYER
 62
     7
 10
474.160703
 20
-45.687774
 30
0.0
 40
1.500000
 50
90.0
 51
180.000003
  0
LINE
  8
0
  6
BYLAYER
 62
     7
 10
483.760678
 20
-44.187774
 30
0.0
 11
474.160703
 21
-44.187774
 31
0.0
  0
ARC
  8
0
  6
BYLAYER
 62
     7
 10
483.760678
 20
-45.687774
 30
0.0
 40
1.500000
 50
0.0
 51
90.000003
  0
LINE
  8
0
  6
BYLAYER
 62
     7
 10
518.960690
 20
-44.187713
 30
0.0
 11
513.160703
 21
-44.187713
 31
0.0
  0
ARC
  8
0
  6
BYLAYER
 62
     7
 10
513.160703
 20
-45.687713
 30
0.0
 40
1.5
 50
90.0
 51
180.000003
  0
ARC
  8
0
  6
BYLAYER
 62
     7
 10
459.460690
 20
-53.187713
 30
0.0
 40
13.200012
 50
180.000000
 51
359.999995
  0
ARC
  8
0
  6
BYLAYER
 62
     7
 10
498.460690
 20
-53.187713
 30
0.0
 40
13.200012
 50
180.000000
 51
359.999995
  0
LINE
  8
0
  6
BYLAYER
 62
     7
 10
438.960629
 20
-49.687774
 30
0.0
 11
444.760678
 21
-49.687774
 31
0.0
  0
LINE
  8
0
  6
BYLAYER
 62
     7
 10
446.260678
 20
-45.687774
 30
0.0
 11
446.260678
 21
-51.187774
 31
0.0
  0
LINE
  8
0
  6
BYLAYER
 62
     7
 10
446.260678
 20
-51.187774
 30
0.0
 11
446.260678
 21
-53.187713
 31
0.0
  0
ARC
  8
0
  6
BYLAYER
 62
     7
 10
444.760678
 20
-51.187774
 30
0.0
 40
1.500000
 50
0.0
 51
90.000003
  0
ARC
  8
0
  6
BYLAYER
 62
     7
 10
474.160703
 20
-51.187713
 30
0.0
 40
1.500000
 50
90.0
 51
180.000003
  0
LINE
  8
0
  6
BYLAYER
 62
     7
 10
474.160703
 20
-49.687713
 30
0.0
 11
483.760678
 21
-49.687713
 31
0.0
  0
LINE
  8
0
  6
BYLAYER
 62
     7
 10
485.260678
 20
-45.687774
 30
0.0
 11
485.260678
 21
-51.187713
 31
0.0
  0
LINE
  8
0
  6
BYLAYER
 62
     7
 10
485.260678
 20
-51.187713
 30
0.0
 11
485.260678
 21
-53.187713
 31
0.0
  0
ARC
  8
0
  6
BYLAYER
 62
     7
 10
483.760678
 20
-51.187713
 30
0.0
 40
1.500000
 50
0.0
 51
90.000003
  0
LINE
  8
0
  6
BYLAYER
 62
     7
 10
511.660703
 20
-53.187713
 30
0.0
 11
511.660703
 21
-51.187713
 31
0.0
  0
LINE
  8
0
  6
BYLAYER
 62
     7
 10
511.660703
 20
-51.187713
 30
0.0
 11
511.660703
 21
-45.687713
 31
0.0
  0
LINE
  8
0
  6
BYLAYER
 62
     7
 10
513.160703
 20
-49.687713
 30
0.0
 11
518.960690
 21
-49.687713
 31
0.0
  0
ARC
  8
0
  6
BYLAYER
 62
     7
 10
513.160703
 20
-51.187713
 30
0.0
 40
1.5
 50
90.0
 51
180.000003
  0
LINE
  8
0
  6
BYLAYER
 62
     7
 10
472.660703
 20
-45.687774
 30
0.0
 11
472.660703
 21
-53.187713
 31
0.0
  0
ARC
  8
0
  6
BYLAYER
 62
     7
 10
439.860715
 20
-121.712738
 30
0.0
 40
0.899994
 50
90.0
 51
269.999998
  0
LINE
  8
0
  6
BYLAYER
 62
     7
 10
439.860715
 20
-120.812744
 30
0.0
 11
553.960842
 21
-120.812744
 31
0.0
  0
LINE
  8
0
  6
BYLAYER
 62
     7
 10
439.860715
 20
-122.612732
 30
0.0
 11
553.960842
 21
-122.612732
 31
0.0
  0
ARC
  8
0
  6
BYLAYER
 62
     7
 10
439.860715
 20
-109.762756
 30
0.0
 40
0.900024
 50
90.0
 51
269.999998
  0
ARC
  8
0
  6
BYLAYER
 62
     7
 10
439.860715
 20
-97.812744
 30
0.0
 40
0.899994
 50
90.0
 51
269.999998
  0
LINE
  8
0
  6
BYLAYER
 62
     7
 10
439.860715
 20
-96.912750
 30
0.0
 11
553.960842
 21
-96.912750
 31
0.0
  0
LINE
  8
0
  6
BYLAYER
 62
     7
 10
439.860715
 20
-98.712738
 30
0.0
 11
553.960842
 21
-98.712738
 31
0.0
  0
ARC
  8
0
  6
BYLAYER
 62
     7
 10
439.860715
 20
-85.862762
 30
0.0
 40
0.900024
 50
90.0
 51
269.999998
  0
LINE
  8
0
  6
BYLAYER
 62
     7
 10
439.860715
 20
-84.962738
 30
0.0
 11
553.960842
 21
-84.962738
 31
0.0
  0
LINE
  8
0
  6
BYLAYER
 62
     7
 10
439.860715
 20
-86.762756
 30
0.0
 11
553.960842
 21
-86.762756
 31
0.0
  0
ARC
  8
0
  6
BYLAYER
 62
     7
 10
439.860715
 20
-73.912750
 30
0.0
 40
0.899994
 50
90.0
 51
269.999998
  0
LINE
  8
0
  6
BYLAYER
 62
     7
 10
439.860715
 20
-73.012756
 30
0.0
 11
553.960842
 21
-73.012756
 31
0.0
  0
LINE
  8
0
  6
BYLAYER
 62
     7
 10
439.860715
 20
-74.812744
 30
0.0
 11
553.960842
 21
-74.812744
 31
0.0
  0
ARC
  8
0
  6
BYLAYER
 62
     7
 10
439.860715
 20
-133.662750
 30
0.0
 40
0.899994
 50
90.0
 51
269.999998
  0
LINE
  8
0
  6
BYLAYER
 62
     7
 10
439.860715
 20
-132.762756
 30
0.0
 11
553.960842
 21
-132.762756
 31
0.0
  0
LINE
  8
0
  6
BYLAYER
 62
     7
 10
439.860715
 20
-134.562744
 30
0.0
 11
553.960842
 21
-134.562744
 31
0.0
  0
ARC
  8
0
  6
BYLAYER
 62
     7
 10
439.860715
 20
-145.612732
 30
0.0
 40
0.899994
 50
90.0
 51
269.999998
  0
ARC
  8
0
  6
BYLAYER
 62
     7
 10
439.860715
 20
-157.562744
 30
0.0
 40
0.899994
 50
90.0
 51
269.999998
  0
LINE
  8
0
  6
BYLAYER
 62
     7
 10
439.860715
 20
-156.662750
 30
0.0
 11
553.960842
 21
-156.662750
 31
0.0
  0
LINE
  8
0
  6
BYLAYER
 62
     7
 10
439.860715
 20
-158.462738
 30
0.0
 11
553.960842
 21
-158.462738
 31
0.0
  0
LINE
  8
0
  6
BYLAYER
 62
     7
 10
449.960751
 20
-74.812744
 30
0.0
 11
449.960751
 21
-84.962738
 31
0.0
  0
LINE
  8
0
  6
BYLAYER
 62
     7
 10
551.960751
 20
-74.812744
 30
0.0
 11
551.960751
 21
-84.962738
 31
0.0
  0
LINE
  8
0
  6
BYLAYER
 62
     7
 10
518.960690
 20
-73.012756
 30
0.0
 11
518.960690
 21
-39.687713
 31
0.0
  0
LINE
  8
0
  6
BYLAYER
 62
     7
 10
449.960751
 20
-86.762756
 30
0.0
 11
449.960751
 21
-96.912750
 31
0.0
  0
LINE
  8
0
  6
BYLAYER
 62
     7
 10
449.960751
 20
-98.712738
 30
0.0
 11
449.960751
 21
-108.862732
 31
0.0
  0
LINE
  8
0
  6
BYLAYER
 62
     7
 10
449.960751
 20
-110.662750
 30
0.0
 11
449.960751
 21
-120.812744
 31
0.0
  0
LINE
  8
0
  6
BYLAYER
 62
     7
 10
449.960751
 20
-122.612732
 30
0.0
 11
449.960751
 21
-132.762756
 31
0.0
  0
LINE
  8
0
  6
BYLAYER
 62
     7
 10
449.960751
 20
-134.562744
 30
0.0
 11
449.960751
 21
-144.712738
 31
0.0
  0
LINE
  8
0
  6
BYLAYER
 62
     7
 10
449.960751
 20
-146.512756
 30
0.0
 11
449.960751
 21
-156.662750
 31
0.0
  0
LINE
  8
0
  6
BYLAYER
 62
     7
 10
449.960751
 20
-170.412750
 30
0.0
 11
449.960751
 21
-172.776813
 31
0.0
  0
LINE
  8
0
  6
BYLAYER
 62
     7
 10
449.960751
 20
-158.462738
 30
0.0
 11
449.960751
 21
-168.612732
 31
0.0
  0
LINE
  8
0
  6
BYLAYER
 62
     7
 10
551.960751
 20
-86.762756
 30
0.0
 11
551.960751
 21
-96.912750
 31
0.0
  0
LINE
  8
0
  6
BYLAYER
 62
     7
 10
551.960751
 20
-98.712738
 30
0.0
 11
551.960751
 21
-108.862732
 31
0.0
  0
LINE
  8
0
  6
BYLAYER
 62
     7
 10
551.960751
 20
-110.662750
 30
0.0
 11
551.960751
 21
-120.812744
 31
0.0
  0
LINE
  8
0
  6
BYLAYER
 62
     7
 10
551.960751
 20
-122.612732
 30
0.0
 11
551.960751
 21
-132.762756
 31
0.0
  0
LINE
  8
0
  6
BYLAYER
 62
     7
 10
551.960751
 20
-134.562744
 30
0.0
 11
551.960751
 21
-144.712738
 31
0.0
  0
LINE
  8
0
  6
BYLAYER
 62
     7
 10
551.960751
 20
-146.512756
 30
0.0
 11
551.960751
 21
-156.662750
 31
0.0
  0
LINE
  8
0
  6
BYLAYER
 62
     7
 10
551.960751
 20
-170.412750
 30
0.0
 11
551.960751
 21
-172.776813
 31
0.0
  0
LINE
  8
0
  6
BYLAYER
 62
     7
 10
551.960751
 20
-158.462738
 30
0.0
 11
551.960751
 21
-168.612732
 31
0.0
  0
CIRCLE
  8
0
  6
BYLAYER
 62
     7
 10
473.490720
 20
-109.762756
 30
0.0
 40
3.0
  0
CIRCLE
  8
0
  6
BYLAYER
 62
     7
 10
528.490720
 20
-109.762756
 30
0.0
 40
3.0
  0
LINE
  8
0
  6
BYLAYER
 62
     7
 10
531.352536
 20
-108.862732
 30
0.0
 11
553.960842
 21
-108.862732
 31
0.0
  0
LINE
  8
0
  6
BYLAYER
 62
     7
 10
531.352536
 20
-110.662750
 30
0.0
 11
553.960842
 21
-110.662750
 31
0.0
  0
LINE
  8
0
  6
BYLAYER
 62
     7
 10
476.352536
 20
-108.862732
 30
0.0
 11
525.628903
 21
-108.862732
 31
0.0
  0
LINE
  8
0
  6
BYLAYER
 62
     7
 10
476.352536
 20
-110.662750
 30
0.0
 11
525.628903
 21
-110.662750
 31
0.0
  0
LINE
  8
0
  6
BYLAYER
 62
     7
 10
439.860715
 20
-108.862732
 30
0.0
 11
470.628903
 21
-108.862732
 31
0.0
  0
LINE
  8
0
  6
BYLAYER
 62
     7
 10
439.860715
 20
-110.662750
 30
0.0
 11
470.628903
 21
-110.662750
 31
0.0
  0
LINE
  8
0
  6
BYLAYER
 62
     7
 10
439.860715
 20
-144.712738
 30
0.0
 11
553.960842
 21
-144.712738
 31
0.0
  0
LINE
  8
0
  6
BYLAYER
 62
     7
 10
439.860715
 20
-146.512756
 30
0.0
 11
553.960842
 21
-146.512756
 31
0.0
  0
ARC
  8
0
  6
BYLAYER
 62
     7
 10
439.860715
 20
-169.512725
 30
0.0
 40
0.899994
 50
90.0
 51
269.999998
  0
LINE
  8
0
  6
BYLAYER
 62
     7
 10
439.860715
 20
-168.612732
 30
0.0
 11
553.960842
 21
-168.612732
 31
0.0
  0
LINE
  8
0
  6
BYLAYER
 62
     7
 10
439.860715
 20
-170.412750
 30
0.0
 11
553.960842
 21
-170.412750
 31
0.0
  0
LINE
  8
0
  6
BYLAYER
 62
     7
 10
459.960751
 20
-134.562744
 30
0.0
 11
459.960751
 21
-132.762756
 31
0.0
  0
LINE
  8
0
  6
BYLAYER
 62
     7
 10
541.960751
 20
-132.762756
 30
0.0
 11
541.960751
 21
-134.562744
 31
0.0
  0
LINE
  8
0
  6
BYLAYER
 62
     7
 10
541.960751
 20
-122.612732
 30
0.0
 11
541.960751
 21
-120.812744
 31
0.0
  0
LINE
  8
0
  6
BYLAYER
 62
     7
 10
459.960751
 20
-120.812744
 30
0.0
 11
459.960751
 21
-122.612732
 31
0.0
  0
LINE
  8
0
  6
BYLAYER
 62
     7
 10
541.960751
 20
-110.662750
 30
0.0
 11
541.960751
 21
-108.862732
 31
0.0
  0
LINE
  8
0
  6
BYLAYER
 62
     7
 10
459.960751
 20
-108.862732
 30
0.0
 11
459.960751
 21
-110.662750
 31
0.0
  0
LINE
  8
0
  6
BYLAYER
 62
     7
 10
541.960751
 20
-98.712738
 30
0.0
 11
541.960751
 21
-96.912750
 31
0.0
  0
LINE
  8
0
  6
BYLAYER
 62
     7
 10
459.960751
 20
-96.912750
 30
0.0
 11
459.960751
 21
-98.712738
 31
0.0
  0
LINE
  8
0
  6
BYLAYER
 62
     7
 10
459.960751
 20
-84.962738
 30
0.0
 11
459.960751
 21
-86.762756
 31
0.0
  0
LINE
  8
0
  6
BYLAYER
 62
     7
 10
541.960751
 20
-86.762756
 30
0.0
 11
541.960751
 21
-84.962738
 31
0.0
  0
ARC
  8
0
  6
BYLAYER
 62
     7
 10
446.860745
 20
-169.512756
 30
0.0
 40
0.900024
 50
90.0
 51
269.999998
  0
ARC
  8
0
  6
BYLAYER
 62
     7
 10
446.860745
 20
-157.562744
 30
0.0
 40
0.899994
 50
90.0
 51
269.999998
  0
ARC
  8
0
  6
BYLAYER
 62
     7
 10
446.860745
 20
-145.612732
 30
0.0
 40
0.899994
 50
90.0
 51
269.999998
  0
ARC
  8
0
  6
BYLAYER
 62
     7
 10
446.860745
 20
-133.662750
 30
0.0
 40
0.899994
 50
90.0
 51
269.999998
  0
ARC
  8
0
  6
BYLAYER
 62
     7
 10
446.860745
 20
-121.712738
 30
0.0
 40
0.899994
 50
90.0
 51
269.999998
  0
ARC
  8
0
  6
BYLAYER
 62
     7
 10
446.860745
 20
-109.762756
 30
0.0
 40
0.900024
 50
90.0
 51
269.999998
  0
ARC
  8
0
  6
BYLAYER
 62
     7
 10
446.860745
 20
-97.812744
 30
0.0
 40
0.899994
 50
90.0
 51
269.999998
  0
LINE
  8
0
  6
BYLAYER
 62
     7
 10
438.960627
 20
-39.687713
 30
0.0
 11
438.960753
 21
-195.187713
 31
0.0
  0
ARC
  8
0
  6
BYLAYER
 62
     7
 10
446.860745
 20
-73.912750
 30
0.0
 40
0.899994
 50
90.0
 51
269.999998
  0
ARC
  8
0
  6
BYLAYER
 62
     7
 10
446.860745
 20
-85.862762
 30
0.0
 40
0.900024
 50
90.0
 51
269.999998
  0
LINE
  8
0
  6
BYLAYER
 62
     7
 10
518.960690
 20
-52.232671
 30
0.0
 11
554.070688
 21
-52.232671
 31
0.0
  0
LINE
  8
0
  6
BYLAYER
 62
     7
 10
518.960690
 20
-54.639703
 30
0.0
 11
554.056744
 21
-54.639703
 31
0.0
  0
LINE
  8
0
  6
BYLAYER
 62
     7
 10
518.960690
 20
-59.697111
 30
0.0
 11
553.965864
 21
-59.697111
 31
0.0
  0
LINE
  8
0
  6
BYLAYER
 62
     7
 10
438.960644
 20
-60.687713
 30
0.0
 11
435.460751
 21
-60.687713
 31
0.0
  0
LINE
  8
0
  6
BYLAYER
 62
     7
 10
438.960644
 20
-194.687713
 30
0.0
 11
435.460751
 21
-194.687713
 31
0.0
  0
LINE
  8
0
  6
BYLAYER
 62
     7
 10
443.368303
 20
-204.416360
 30
0.0
 11
553.960842
 21
-204.416360
 31
0.0
  0
LINE
  8
0
  6
BYLAYER
 62
     7
 10
443.407986
 20
-202.009328
 30
0.0
 11
553.960842
 21
-202.009328
 31
0.0
  0
LINE
  8
0
  6
BYLAYER
 62
     7
 10
443.435583
 20
-197.584923
 30
0.0
 11
553.960842
 21
-197.584923
 31
0.0
  0
LINE
  8
0
  6
BYLAYER
 62
     7
 10
443.527478
 20
-189.752593
 30
0.0
 11
553.960842
 21
-189.752593
 31
0.0
  0
LINE
  8
0
  6
BYLAYER
 62
     7
 10
553.960842
 20
-172.776813
 30
0.0
 11
447.455289
 21
-172.776813
 31
0.0
  0
LINE
  8
0
  6
BYLAYER
 62
     7
 10
441.958670
 20
-203.429131
 30
0.0
 11
438.960751
 21
-195.187713
 31
0.0
  0
ARC
  8
0
  6
BYLAYER
 62
     7
 10
443.368303
 20
-202.916360
 30
0.0
 40
1.500000
 50
199.989488
 51
270.000000
  0
LINE
  8
0
  6
BYLAYER
 62
     7
 10
441.981245
 20
-200.972374
 30
0.0
 11
438.960751
 21
-191.665599
 31
0.0
  0
ARC
  8
0
  6
BYLAYER
 62
     7
 10
443.407986
 20
-200.509328
 30
0.0
 40
1.500000
 50
197.980729
 51
270.000000
  0
LINE
  8
0
  6
BYLAYER
 62
     7
 10
441.998198
 20
-196.513787
 30
0.0
 11
438.960751
 21
-186.333455
 31
0.0
  0
ARC
  8
0
  6
BYLAYER
 62
     7
 10
443.435583
 20
-196.084923
 30
0.0
 40
1.5
 50
196.613220
 51
270.000000
  0
LINE
  8
0
  6
BYLAYER
 62
     7
 10
442.061522
 20
-188.570358
 30
0.0
 11
438.960751
 21
-174.265456
 31
0.0
  0
ARC
  8
0
  6
BYLAYER
 62
     7
 10
443.527478
 20
-188.252593
 30
0.0
 40
1.5
 50
192.230383
 51
270.0
  0
LINE
  8
0
  6
BYLAYER
 62
     7
 10
438.960751
 20
-186.333455
 30
0.0
 11
441.321083
 21
-185.154462
 31
0.0
  0
LINE
  8
0
  6
BYLAYER
 62
     7
 10
438.960751
 20
-191.665599
 30
0.0
 11
440.356829
 21
-191.012560
 31
0.0
  0
LINE
  8
0
  6
BYLAYER
 62
     7
 10
438.960751
 20
-174.265456
 30
0.0
 11
447.455289
 21
-172.776813
 31
0.0
  0
LINE
  8
0
  6
BYLAYER
 62
     7
 10
438.960751
 20
-195.187713
 30
0.0
 11
439.961803
 21
-194.750050
 31
0.0
  0
LINE
  8
0
  6
BYLAYER
 62
     7
 10
435.460751
 20
-194.687713
 30
0.0
 11
435.460751
 21
-60.687713
 31
0.0
  0
LINE
  8
0
  6
BYLAYER
 62
     7
 10
614.344363
 20
-48.437713
 30
0.0
 11
553.960842
 21
-48.437713
 31
0.0
  0
LINE
  8
0
  6
BYLAYER
 62
     7
 10
634.960842
 20
-63.199981
 30
0.0
 11
617.422671
 21
-49.497659
 31
0.0
  0
ARC
  8
0
  6
BYLAYER
 62
     7
 10
614.344363
 20
-53.437713
 30
0.0
 40
5.000000
 50
52.000000
 51
90.000000
  0
LINE
  8
0
  6
BYLAYER
 62
     7
 10
634.960842
 20
-127.687713
 30
0.0
 11
634.960842
 21
-63.199981
 31
0.0
  0
LINE
  8
0
  6
BYLAYER
 62
     7
 10
634.960842
 20
-192.175445
 30
0.0
 11
634.960842
 21
-127.687713
 31
0.0
  0
LINE
  8
0
  6
BYLAYER
 62
     7
 10
617.422671
 20
-205.877767
 30
0.0
 11
634.960842
 21
-192.175445
 31
0.0
  0
ARC
  8
0
  6
BYLAYER
 62
     7
 10
614.344363
 20
-201.937713
 30
0.0
 40
5.0
 50
270.0
 51
308.0
  0
LINE
  8
0
  6
BYLAYER
 62
     7
 10
553.960842
 20
-206.937713
 30
0.0
 11
614.344363
 21
-206.937713
 31
0.0
  0
LINE
  8
0
  6
BYLAYER
 62
     7
 10
553.960842
 20
-206.937713
 30
0.0
 11
553.960842
 21
-127.687713
 31
0.0
  0
LINE
  8
0
  6
BYLAYER
 62
     7
 10
553.960842
 20
-48.437713
 30
0.0
 11
553.960842
 21
-127.687713
 31
0.0
  0
ARC
  8
0
  6
BYLAYER
 62
     7
 10
509.714965
 20
-29.187713
 30
0.0
 40
1.500000
 50
180.000000
 51
270.000000
  0
ARC
  8
0
  6
BYLAYER
 62
     7
 10
448.206289
 20
-29.187713
 30
0.0
 40
1.5
 50
270.0
 51
360.0
  0
ARC
  8
0
  6
BYLAYER
 62
     7
 10
440.460627
 20
-29.187713
 30
0.0
 40
1.5
 50
270.0
 51
360.0
  0
ARC
  8
0
  6
BYLAYER
 62
     7
 10
440.460627
 20
-32.187713
 30
0.0
 40
1.5
 50
90.0
 51
180.0
  0
ARC
  8
0
  6
BYLAYER
 62
     7
 10
517.460627
 20
-29.187713
 30
0.0
 40
1.5
 50
180.000000
 51
270.000000
  0
LINE
  8
0
  6
BYLAYER
 62
     7
 10
441.960627
 20
-29.187713
 30
0.0
 11
441.960627
 21
-7.687713
 31
0.0
  0
ARC
  8
0
  6
BYLAYER
 62
     7
 10
443.460627
 20
-7.687713
 30
0.0
 40
1.500000
 50
90.0
 51
180.0
  0
LINE
  8
0
  6
BYLAYER
 62
     7
 10
515.960627
 20
-29.187713
 30
0.0
 11
515.960627
 21
-7.687713
 31
0.0
  0
LINE
  8
0
  6
BYLAYER
 62
     7
 10
443.460627
 20
-6.187713
 30
0.0
 11
514.460627
 21
-6.187713
 31
0.0
  0
ARC
  8
0
  6
BYLAYER
 62
     7
 10
506.714965
 20
-7.687713
 30
0.0
 40
1.500000
 50
0.0
 51
90.0
  0
ARC
  8
0
  6
BYLAYER
 62
     7
 10
514.460627
 20
-7.687713
 30
0.0
 40
1.5
 50
0.0
 51
90.0
  0
LINE
  8
0
  6
BYLAYER
 62
     7
 10
449.706289
 20
-29.187713
 30
0.0
 11
449.706289
 21
-7.687713
 31
0.0
  0
ARC
  8
0
  6
BYLAYER
 62
     7
 10
451.206289
 20
-7.687713
 30
0.0
 40
1.500000
 50
90.0
 51
180.0
  0
LINE
  8
0
  6
BYLAYER
 62
     7
 10
508.214965
 20
-29.187713
 30
0.0
 11
508.214965
 21
-7.687713
 31
0.0
  0
ARC
  8
0
  6
BYLAYER
 62
     7
 10
517.460627
 20
-32.187713
 30
0.0
 40
1.500000
 50
0.0
 51
90.0
  0
LINE
  8
0
  6
BYLAYER
 62
     7
 10
518.960627
 20
-39.687713
 30
0.0
 11
518.960627
 21
-32.187713
 31
0.0
  0
LINE
  8
0
  6
BYLAYER
 62
     7
 10
517.460627
 20
-30.687713
 30
0.0
 11
440.460627
 21
-30.687713
 31
0.0
  0
LINE
  8
0
  6
BYLAYER
 62
     7
 10
438.960627
 20
-32.187713
 30
0.0
 11
438.960627
 21
-39.687713
 31
0.0
  0
LINE
  8
0
  6
BYLAYER
 62
     7
 10
438.960627
 20
-39.687713
 30
0.0
 11
518.960627
 21
-39.687713
 31
0.0
  0
LINE
  8
0
  6
BYLAYER
 62
     7
 10
518.960627
 20
-37.687713
 30
0.0
 11
438.960627
 21
-37.687713
 31
0.0
  0
LINE
  8
0
  6
BYLAYER
 62
     7
 10
614.344363
 20
-206.937713
 30
0.0
 11
614.344363
 21
-48.437713
 31
0.0
  0
LINE
  8
0
  6
BYLAYER
 62
     7
 10
413.960751
 20
-717.687713
 30
0.0
 11
413.960751
 21
-617.687713
 31
0.0
  0
LINE
  8
0
  6
BYLAYER
 62
     7
 10
413.960751
 20
-649.312332
 30
0.0
 11
413.960751
 21
-641.187713
 31
0.0
  0
LINE
  8
0
  6
BYLAYER
 62
     7
 10
401.960751
 20
-617.687713
 30
0.0
 11
413.960751
 21
-617.687713
 31
0.0
  0
LINE
  8
0
  6
BYLAYER
 62
     7
 10
414.452024
 20
-649.812255
 30
0.0
 11
435.460751
 21
-650.178985
 31
0.0
  0
ARC
  8
0
  6
BYLAYER
 62
     7
 10
414.460751
 20
-649.312332
 30
0.0
 40
0.5
 50
180.000000
 51
268.999943
  0
LINE
  8
0
  6
BYLAYER
 62
     7
 10
435.460751
 20
-650.178985
 30
0.0
 11
435.460751
 21
-717.687713
 31
0.0
  0
LINE
  8
0
  6
BYLAYER
 62
     7
 10
401.960751
 20
-717.687713
 30
0.0
 11
401.960751
 21
-617.687713
 31
0.0
  0
LINE
  8
0
  6
BYLAYER
 62
     7
 10
413.960751
 20
-717.687713
 30
0.0
 11
413.960751
 21
-817.687713
 31
0.0
  0
LINE
  8
0
  6
BYLAYER
 62
     7
 10
413.960751
 20
-786.063094
 30
0.0
 11
413.960751
 21
-794.187713
 31
0.0
  0
LINE
  8
0
  6
BYLAYER
 62
     7
 10
401.960751
 20
-817.687713
 30
0.0
 11
413.960751
 21
-817.687713
 31
0.0
  0
LINE
  8
0
  6
BYLAYER
 62
     7
 10
414.452024
 20
-785.563171
 30
0.0
 11
435.460751
 21
-785.196441
 31
0.0
  0
ARC
  8
0
  6
BYLAYER
 62
     7
 10
414.460751
 20
-786.063094
 30
0.0
 40
0.5
 50
91.000057
 51
180.000000
  0
LINE
  8
0
  6
BYLAYER
 62
     7
 10
435.460751
 20
-785.196441
 30
0.0
 11
435.460751
 21
-717.687713
 31
0.0
  0
LINE
  8
0
  6
BYLAYER
 62
     7
 10
401.960751
 20
-717.687713
 30
0.0
 11
401.960751
 21
-817.687713
 31
0.0
  0
LINE
  8
0
  6
BYLAYER
 62
     7
 10
441.960698
 20
-742.204398
 30
0.0
 11
441.960698
 21
-717.687713
 31
0.0
  0
LINE
  8
0
  6
BYLAYER
 62
     7
 10
515.960698
 20
-717.687713
 30
0.0
 11
515.960698
 21
-742.204398
 31
0.0
  0
LINE
  8
0
  6
BYLAYER
 62
     7
 10
506.498293
 20
-751.937713
 30
0.0
 11
451.423104
 21
-751.937713
 31
0.0
  0
LINE
  8
0
  6
BYLAYER
 62
     7
 10
456.065397
 20
-722.788819
 30
0.0
 11
441.960698
 21
-723.281366
 31
0.0
  0
ARC
  8
0
  6
BYLAYER
 62
     7
 10
455.960698
 20
-719.790647
 30
0.0
 40
3.000000
 50
272.000000
 51
360.000000
  0
LINE
  8
0
  6
BYLAYER
 62
     7
 10
456.065397
 20
-737.788819
 30
0.0
 11
441.960698
 21
-738.281366
 31
0.0
  0
ARC
  8
0
  6
BYLAYER
 62
     7
 10
455.960698
 20
-734.790647
 30
0.0
 40
3.000000
 50
272.0
 51
360.0
  0
LINE
  8
0
  6
BYLAYER
 62
     7
 10
441.960698
 20
-727.094060
 30
0.0
 11
456.065397
 21
-727.586607
 31
0.0
  0
ARC
  8
0
  6
BYLAYER
 62
     7
 10
455.960698
 20
-730.584779
 30
0.0
 40
3.0
 50
0.0
 51
88.0
  0
LINE
  8
0
  6
BYLAYER
 62
     7
 10
458.960698
 20
-730.584779
 30
0.0
 11
458.960698
 21
-734.790647
 31
0.0
  0
LINE
  8
0
  6
BYLAYER
 62
     7
 10
458.960698
 20
-717.687713
 30
0.0
 11
458.960698
 21
-719.790647
 31
0.0
  0
LINE
  8
0
  6
BYLAYER
 62
     7
 10
442.960698
 20
-717.687713
 30
0.0
 11
442.960698
 21
-723.246445
 31
0.0
  0
LINE
  8
0
  6
BYLAYER
 62
     7
 10
442.960698
 20
-727.128981
 30
0.0
 11
442.960698
 21
-738.246445
 31
0.0
  0
LINE
  8
0
  6
BYLAYER
 62
     7
 10
501.856000
 20
-722.788819
 30
0.0
 11
515.960698
 21
-723.281366
 31
0.0
  0
ARC
  8
0
  6
BYLAYER
 62
     7
 10
501.960698
 20
-719.790647
 30
0.0
 40
3.000000
 50
180.000000
 51
268.000000
  0
LINE
  8
0
  6
BYLAYER
 62
     7
 10
501.856000
 20
-737.788819
 30
0.0
 11
515.960698
 21
-738.281366
 31
0.0
  0
ARC
  8
0
  6
BYLAYER
 62
     7
 10
501.960698
 20
-734.790647
 30
0.0
 40
3.000000
 50
180.000000
 51
268.000000
  0
LINE
  8
0
  6
BYLAYER
 62
     7
 10
515.960698
 20
-727.094060
 30
0.0
 11
501.856000
 21
-727.586607
 31
0.0
  0
ARC
  8
0
  6
BYLAYER
 62
     7
 10
501.960698
 20
-730.584779
 30
0.0
 40
3.0
 50
92.000000
 51
180.000000
  0
LINE
  8
0
  6
BYLAYER
 62
     7
 10
498.960698
 20
-730.584779
 30
0.0
 11
498.960698
 21
-734.790647
 31
0.0
  0
LINE
  8
0
  6
BYLAYER
 62
     7
 10
498.960698
 20
-717.687713
 30
0.0
 11
498.960698
 21
-719.790647
 31
0.0
  0
LINE
  8
0
  6
BYLAYER
 62
     7
 10
514.960698
 20
-717.687713
 30
0.0
 11
514.960698
 21
-723.246445
 31
0.0
  0
LINE
  8
0
  6
BYLAYER
 62
     7
 10
514.960698
 20
-727.128981
 30
0.0
 11
514.960698
 21
-738.246445
 31
0.0
  0
LINE
  8
0
  6
BYLAYER
 62
     7
 10
438.960698
 20
-717.687713
 30
0.0
 11
438.960698
 21
-753.187713
 31
0.0
  0
ARC
  8
0
  6
BYLAYER
 62
     7
 10
440.460698
 20
-753.187713
 30
0.0
 40
1.5
 50
180.000000
 51
270.000000
  0
LINE
  8
0
  6
BYLAYER
 62
     7
 10
518.960698
 20
-753.187713
 30
0.0
 11
518.960698
 21
-717.687713
 31
0.0
  0
LINE
  8
0
  6
BYLAYER
 62
     7
 10
440.460698
 20
-754.687713
 30
0.0
 11
517.460698
 21
-754.687713
 31
0.0
  0
ARC
  8
0
  6
BYLAYER
 62
     7
 10
517.460698
 20
-753.187713
 30
0.0
 40
1.5
 50
270.0
 51
360.0
  0
ARC
  8
0
  6
BYLAYER
 62
     7
 10
513.960698
 20
-749.687713
 30
0.0
 40
6.0
 50
86.177446
 51
185.739170
  0
ARC
  8
0
  6
BYLAYER
 62
     7
 10
514.460698
 20
-742.204398
 30
0.0
 40
1.500000
 50
266.177446
 51
360.000000
  0
ARC
  8
0
  6
BYLAYER
 62
     7
 10
506.498293
 20
-750.437713
 30
0.0
 40
1.5
 50
270.0
 51
365.739170
  0
ARC
  8
0
  6
BYLAYER
 62
     7
 10
443.960698
 20
-749.687713
 30
0.0
 40
6.0
 50
354.260830
 51
453.822554
  0
ARC
  8
0
  6
BYLAYER
 62
     7
 10
451.423104
 20
-750.437713
 30
0.0
 40
1.500000
 50
174.260830
 51
270.000000
  0
ARC
  8
0
  6
BYLAYER
 62
     7
 10
443.460698
 20
-742.204398
 30
0.0
 40
1.500000
 50
180.000000
 51
273.822554
  0
ARC
  8
0
  6
BYLAYER
 62
     7
 10
465.960698
 20
-744.687713
 30
0.0
 40
3.0
 50
180.000000
 51
270.000000
  0
ARC
  8
0
  6
BYLAYER
 62
     7
 10
491.960698
 20
-744.687713
 30
0.0
 40
3.0
 50
270.0
 51
360.0
  0
LINE
  8
0
  6
BYLAYER
 62
     7
 10
465.960698
 20
-747.687713
 30
0.0
 11
491.960698
 21
-747.687713
 31
0.0
  0
LINE
  8
0
  6
BYLAYER
 62
     7
 10
462.960698
 20
-744.687713
 30
0.0
 11
462.960698
 21
-717.687713
 31
0.0
  0
LINE
  8
0
  6
BYLAYER
 62
     7
 10
494.960698
 20
-717.687713
 30
0.0
 11
494.960698
 21
-744.687713
 31
0.0
  0
LINE
  8
0
  6
BYLAYER
 62
     7
 10
518.960698
 20
-722.762756
 30
0.0
 11
553.960842
 21
-722.762756
 31
0.0
  0
LINE
  8
0
  6
BYLAYER
 62
     7
 10
518.960698
 20
-724.562744
 30
0.0
 11
553.960842
 21
-724.562744
 31
0.0
  0
LINE
  8
0
  6
BYLAYER
 62
     7
 10
518.960698
 20
-746.662750
 30
0.0
 11
553.960842
 21
-746.662750
 31
0.0
  0
LINE
  8
0
  6
BYLAYER
 62
     7
 10
518.960698
 20
-748.462738
 30
0.0
 11
553.960842
 21
-748.462738
 31
0.0
  0
LINE
  8
0
  6
BYLAYER
 62
     7
 10
449.960751
 20
-760.412750
 30
0.0
 11
449.960751
 21
-762.776813
 31
0.0
  0
LINE
  8
0
  6
BYLAYER
 62
     7
 10
449.960751
 20
-754.687713
 30
0.0
 11
449.960751
 21
-758.612732
 31
0.0
  0
LINE
  8
0
  6
BYLAYER
 62
     7
 10
551.960751
 20
-717.687713
 30
0.0
 11
551.960751
 21
-722.762756
 31
0.0
  0
LINE
  8
0
  6
BYLAYER
 62
     7
 10
551.960751
 20
-724.562744
 30
0.0
 11
551.960751
 21
-734.712738
 31
0.0
  0
LINE
  8
0
  6
BYLAYER
 62
     7
 10
551.960751
 20
-736.512756
 30
0.0
 11
551.960751
 21
-746.662750
 31
0.0
  0
LINE
  8
0
  6
BYLAYER
 62
     7
 10
551.960751
 20
-760.412750
 30
0.0
 11
551.960751
 21
-762.776813
 31
0.0
  0
LINE
  8
0
  6
BYLAYER
 62
     7
 10
551.960751
 20
-748.462738
 30
0.0
 11
551.960751
 21
-758.612732
 31
0.0
  0
LINE
  8
0
  6
BYLAYER
 62
     7
 10
518.960698
 20
-734.712738
 30
0.0
 11
553.960842
 21
-734.712738
 31
0.0
  0
LINE
  8
0
  6
BYLAYER
 62
     7
 10
518.960698
 20
-736.512756
 30
0.0
 11
553.960842
 21
-736.512756
 31
0.0
  0
ARC
  8
0
  6
BYLAYER
 62
     7
 10
439.860715
 20
-759.512725
 30
0.0
 40
0.899994
 50
90.0
 51
269.999998
  0
LINE
  8
0
  6
BYLAYER
 62
     7
 10
439.860715
 20
-758.612732
 30
0.0
 11
553.960842
 21
-758.612732
 31
0.0
  0
LINE
  8
0
  6
BYLAYER
 62
     7
 10
439.860715
 20
-760.412750
 30
0.0
 11
553.960842
 21
-760.412750
 31
0.0
  0
LINE
  8
0
  6
BYLAYER
 62
     7
 10
541.960751
 20
-722.762756
 30
0.0
 11
541.960751
 21
-724.562744
 31
0.0
  0
ARC
  8
0
  6
BYLAYER
 62
     7
 10
446.860745
 20
-759.512756
 30
0.0
 40
0.900024
 50
90.0
 51
269.999998
  0
LINE
  8
0
  6
BYLAYER
 62
     7
 10
438.960698
 20
-717.687713
 30
0.0
 11
438.960753
 21
-785.187713
 31
0.0
  0
LINE
  8
0
  6
BYLAYER
 62
     7
 10
438.960644
 20
-784.687713
 30
0.0
 11
435.460751
 21
-784.687713
 31
0.0
  0
LINE
  8
0
  6
BYLAYER
 62
     7
 10
443.368303
 20
-794.416360
 30
0.0
 11
553.960842
 21
-794.416360
 31
0.0
  0
LINE
  8
0
  6
BYLAYER
 62
     7
 10
443.407986
 20
-792.009328
 30
0.0
 11
553.960842
 21
-792.009328
 31
0.0
  0
LINE
  8
0
  6
BYLAYER
 62
     7
 10
443.435583
 20
-787.584923
 30
0.0
 11
553.960842
 21
-787.584923
 31
0.0
  0
LINE
  8
0
  6
BYLAYER
 62
     7
 10
443.527478
 20
-779.752593
 30
0.0
 11
553.960842
 21
-779.752593
 31
0.0
  0
LINE
  8
0
  6
BYLAYER
 62
     7
 10
553.960842
 20
-762.776813
 30
0.0
 11
447.455289
 21
-762.776813
 31
0.0
  0
LINE
  8
0
  6
BYLAYER
 62
     7
 10
441.958670
 20
-793.429131
 30
0.0
 11
438.960751
 21
-785.187713
 31
0.0
  0
ARC
  8
0
  6
BYLAYER
 62
     7
 10
443.368303
 20
-792.916360
 30
0.0
 40
1.500000
 50
199.989488
 51
270.0
  0
LINE
  8
0
  6
BYLAYER
 62
     7
 10
441.981245
 20
-790.972374
 30
0.0
 11
438.960751
 21
-781.665599
 31
0.0
  0
ARC
  8
0
  6
BYLAYER
 62
     7
 10
443.407986
 20
-790.509328
 30
0.0
 40
1.500000
 50
197.980729
 51
270.000000
  0
LINE
  8
0
  6
BYLAYER
 62
     7
 10
441.998198
 20
-786.513787
 30
0.0
 11
438.960751
 21
-776.333455
 31
0.0
  0
ARC
  8
0
  6
BYLAYER
 62
     7
 10
443.435583
 20
-786.084923
 30
0.0
 40
1.500000
 50
196.613220
 51
270.000000
  0
LINE
  8
0
  6
BYLAYER
 62
     7
 10
442.061522
 20
-778.570358
 30
0.0
 11
438.960751
 21
-764.265456
 31
0.0
  0
ARC
  8
0
  6
BYLAYER
 62
     7
 10
443.527478
 20
-778.252593
 30
0.0
 40
1.5
 50
192.230383
 51
270.000000
  0
LINE
  8
0
  6
BYLAYER
 62
     7
 10
438.960751
 20
-776.333455
 30
0.0
 11
441.321083
 21
-775.154462
 31
0.0
  0
LINE
  8
0
  6
BYLAYER
 62
     7
 10
438.960751
 20
-781.665599
 30
0.0
 11
440.356829
 21
-781.012560
 31
0.0
  0
LINE
  8
0
  6
BYLAYER
 62
     7
 10
438.960751
 20
-764.265456
 30
0.0
 11
447.455289
 21
-762.776813
 31
0.0
  0
LINE
  8
0
  6
BYLAYER
 62
     7
 10
438.960751
 20
-785.187713
 30
0.0
 11
439.961803
 21
-784.750050
 31
0.0
  0
LINE
  8
0
  6
BYLAYER
 62
     7
 10
435.460751
 20
-784.687713
 30
0.0
 11
435.460751
 21
-717.687713
 31
0.0
  0
LINE
  8
0
  6
BYLAYER
 62
     7
 10
634.960842
 20
-782.175445
 30
0.0
 11
634.960842
 21
-717.687713
 31
0.0
  0
LINE
  8
0
  6
BYLAYER
 62
     7
 10
617.422671
 20
-795.877767
 30
0.0
 11
634.960842
 21
-782.175445
 31
0.0
  0
ARC
  8
0
  6
BYLAYER
 62
     7
 10
614.344363
 20
-791.937713
 30
0.0
 40
5.0
 50
270.0
 51
308.0
  0
LINE
  8
0
  6
BYLAYER
 62
     7
 10
553.960842
 20
-796.937713
 30
0.0
 11
614.344363
 21
-796.937713
 31
0.0
  0
LINE
  8
0
  6
BYLAYER
 62
     7
 10
553.960842
 20
-796.937713
 30
0.0
 11
553.960842
 21
-717.687713
 31
0.0
  0
LINE
  8
0
  6
BYLAYER
 62
     7
 10
441.960698
 20
-693.171028
 30
0.0
 11
441.960698
 21
-717.687713
 31
0.0
  0
LINE
  8
0
  6
BYLAYER
 62
     7
 10
515.960698
 20
-717.687713
 30
0.0
 11
515.960698
 21
-693.171028
 31
0.0
  0
LINE
  8
0
  6
BYLAYER
 62
     7
 10
506.498293
 20
-683.437713
 30
0.0
 11
451.423104
 21
-683.437713
 31
0.0
  0
LINE
  8
0
  6
BYLAYER
 62
     7
 10
456.065397
 20
-712.586607
 30
0.0
 11
441.960698
 21
-712.094060
 31
0.0
  0
ARC
  8
0
  6
BYLAYER
 62
     7
 10
455.960698
 20
-715.584779
 30
0.0
 40
3.000000
 50
0.0
 51
88.0
  0
LINE
  8
0
  6
BYLAYER
 62
     7
 10
456.065397
 20
-697.586607
 30
0.0
 11
441.960698
 21
-697.094060
 31
0.0
  0
ARC
  8
0
  6
BYLAYER
 62
     7
 10
455.960698
 20
-700.584779
 30
0.0
 40
3.000000
 50
0.0
 51
88.0
  0
LINE
  8
0
  6
BYLAYER
 62
     7
 10
441.960698
 20
-708.281366
 30
0.0
 11
456.065397
 21
-707.788819
 31
0.0
  0
ARC
  8
0
  6
BYLAYER
 62
     7
 10
455.960698
 20
-704.790647
 30
0.0
 40
3.0
 50
272.000000
 51
360.000000
  0
LINE
  8
0
  6
BYLAYER
 62
     7
 10
458.960698
 20
-704.790647
 30
0.0
 11
458.960698
 21
-700.584779
 31
0.0
  0
LINE
  8
0
  6
BYLAYER
 62
     7
 10
458.960698
 20
-717.687713
 30
0.0
 11
458.960698
 21
-715.584779
 31
0.0
  0
LINE
  8
0
  6
BYLAYER
 62
     7
 10
442.960698
 20
-717.687713
 30
0.0
 11
442.960698
 21
-712.128981
 31
0.0
  0
LINE
  8
0
  6
BYLAYER
 62
     7
 10
442.960698
 20
-708.246445
 30
0.0
 11
442.960698
 21
-697.128981
 31
0.0
  0
LINE
  8
0
  6
BYLAYER
 62
     7
 10
501.856000
 20
-712.586607
 30
0.0
 11
515.960698
 21
-712.094060
 31
0.0
  0
ARC
  8
0
  6
BYLAYER
 62
     7
 10
501.960698
 20
-715.584779
 30
0.0
 40
3.0
 50
92.000000
 51
180.000000
  0
LINE
  8
0
  6
BYLAYER
 62
     7
 10
501.856000
 20
-697.586607
 30
0.0
 11
515.960698
 21
-697.094060
 31
0.0
  0
ARC
  8
0
  6
BYLAYER
 62
     7
 10
501.960698
 20
-700.584779
 30
0.0
 40
3.0
 50
92.000000
 51
180.000000
  0
LINE
  8
0
  6
BYLAYER
 62
     7
 10
515.960698
 20
-708.281366
 30
0.0
 11
501.856000
 21
-707.788819
 31
0.0
  0
ARC
  8
0
  6
BYLAYER
 62
     7
 10
501.960698
 20
-704.790647
 30
0.0
 40
3.000000
 50
180.000000
 51
268.000000
  0
LINE
  8
0
  6
BYLAYER
 62
     7
 10
498.960698
 20
-704.790647
 30
0.0
 11
498.960698
 21
-700.584779
 31
0.0
  0
LINE
  8
0
  6
BYLAYER
 62
     7
 10
498.960698
 20
-717.687713
 30
0.0
 11
498.960698
 21
-715.584779
 31
0.0
  0
LINE
  8
0
  6
BYLAYER
 62
     7
 10
514.960698
 20
-717.687713
 30
0.0
 11
514.960698
 21
-712.128981
 31
0.0
  0
LINE
  8
0
  6
BYLAYER
 62
     7
 10
514.960698
 20
-708.246445
 30
0.0
 11
514.960698
 21
-697.128981
 31
0.0
  0
LINE
  8
0
  6
BYLAYER
 62
     7
 10
438.960698
 20
-717.687713
 30
0.0
 11
438.960698
 21
-682.187713
 31
0.0
  0
ARC
  8
0
  6
BYLAYER
 62
     7
 10
440.460698
 20
-682.187713
 30
0.0
 40
1.5
 50
90.0
 51
180.0
  0
LINE
  8
0
  6
BYLAYER
 62
     7
 10
518.960698
 20
-682.187713
 30
0.0
 11
518.960698
 21
-717.687713
 31
0.0
  0
LINE
  8
0
  6
BYLAYER
 62
     7
 10
440.460698
 20
-680.687713
 30
0.0
 11
517.460698
 21
-680.687713
 31
0.0
  0
ARC
  8
0
  6
BYLAYER
 62
     7
 10
517.460698
 20
-682.187713
 30
0.0
 40
1.5
 50
0.0
 51
90.0
  0
ARC
  8
0
  6
BYLAYER
 62
     7
 10
513.960698
 20
-685.687713
 30
0.0
 40
6.0
 50
174.260830
 51
273.822554
  0
ARC
  8
0
  6
BYLAYER
 62
     7
 10
514.460698
 20
-693.171028
 30
0.0
 40
1.5
 50
0.0
 51
93.822554
  0
ARC
  8
0
  6
BYLAYER
 62
     7
 10
506.498293
 20
-684.937713
 30
0.0
 40
1.5
 50
354.260830
 51
450.000000
  0
ARC
  8
0
  6
BYLAYER
 62
     7
 10
443.960698
 20
-685.687713
 30
0.0
 40
6.000000
 50
266.177446
 51
365.739170
  0
ARC
  8
0
  6
BYLAYER
 62
     7
 10
451.423104
 20
-684.937713
 30
0.0
 40
1.5
 50
90.0
 51
185.73917
  0
ARC
  8
0
  6
BYLAYER
 62
     7
 10
443.460698
 20
-693.171028
 30
0.0
 40
1.500000
 50
86.177446
 51
180.0
  0
ARC
  8
0
  6
BYLAYER
 62
     7
 10
465.960698
 20
-690.687713
 30
0.0
 40
3.0
 50
90.0
 51
180.0
  0
ARC
  8
0
  6
BYLAYER
 62
     7
 10
491.960698
 20
-690.687713
 30
0.0
 40
3.000000
 50
0.0
 51
90.0
  0
LINE
  8
0
  6
BYLAYER
 62
     7
 10
465.960698
 20
-687.687713
 30
0.0
 11
491.960698
 21
-687.687713
 31
0.0
  0
LINE
  8
0
  6
BYLAYER
 62
     7
 10
462.960698
 20
-690.687713
 30
0.0
 11
462.960698
 21
-717.687713
 31
0.0
  0
LINE
  8
0
  6
BYLAYER
 62
     7
 10
494.960698
 20
-717.687713
 30
0.0
 11
494.960698
 21
-690.687713
 31
0.0
  0
LINE
  8
0
  6
BYLAYER
 62
     7
 10
518.960698
 20
-712.612670
 30
0.0
 11
553.960842
 21
-712.612670
 31
0.0
  0
LINE
  8
0
  6
BYLAYER
 62
     7
 10
518.960698
 20
-710.812682
 30
0.0
 11
553.960842
 21
-710.812682
 31
0.0
  0
LINE
  8
0
  6
BYLAYER
 62
     7
 10
518.960698
 20
-688.712676
 30
0.0
 11
553.960842
 21
-688.712676
 31
0.0
  0
LINE
  8
0
  6
BYLAYER
 62
     7
 10
518.960698
 20
-686.912688
 30
0.0
 11
553.960842
 21
-686.912688
 31
0.0
  0
LINE
  8
0
  6
BYLAYER
 62
     7
 10
449.960751
 20
-674.962676
 30
0.0
 11
449.960751
 21
-672.598613
 31
0.0
  0
LINE
  8
0
  6
BYLAYER
 62
     7
 10
449.960751
 20
-680.687713
 30
0.0
 11
449.960751
 21
-676.762694
 31
0.0
  0
LINE
  8
0
  6
BYLAYER
 62
     7
 10
551.960751
 20
-717.687713
 30
0.0
 11
551.960751
 21
-712.612670
 31
0.0
  0
LINE
  8
0
  6
BYLAYER
 62
     7
 10
551.960751
 20
-710.812682
 30
0.0
 11
551.960751
 21
-700.662688
 31
0.0
  0
LINE
  8
0
  6
BYLAYER
 62
     7
 10
551.960751
 20
-698.862670
 30
0.0
 11
551.960751
 21
-688.712676
 31
0.0
  0
LINE
  8
0
  6
BYLAYER
 62
     7
 10
551.960751
 20
-674.962676
 30
0.0
 11
551.960751
 21
-672.598613
 31
0.0
  0
LINE
  8
0
  6
BYLAYER
 62
     7
 10
551.960751
 20
-686.912688
 30
0.0
 11
551.960751
 21
-676.762694
 31
0.0
  0
LINE
  8
0
  6
BYLAYER
 62
     7
 10
518.960698
 20
-700.662688
 30
0.0
 11
553.960842
 21
-700.662688
 31
0.0
  0
LINE
  8
0
  6
BYLAYER
 62
     7
 10
518.960698
 20
-698.862670
 30
0.0
 11
553.960842
 21
-698.862670
 31
0.0
  0
ARC
  8
0
  6
BYLAYER
 62
     7
 10
439.860715
 20
-675.862701
 30
0.0
 40
0.899994
 50
90.0
 51
269.999998
  0
LINE
  8
0
  6
BYLAYER
 62
     7
 10
439.860715
 20
-676.762694
 30
0.0
 11
553.960842
 21
-676.762694
 31
0.0
  0
LINE
  8
0
  6
BYLAYER
 62
     7
 10
439.860715
 20
-674.962676
 30
0.0
 11
553.960842
 21
-674.962676
 31
0.0
  0
LINE
  8
0
  6
BYLAYER
 62
     7
 10
541.960751
 20
-712.612670
 30
0.0
 11
541.960751
 21
-710.812682
 31
0.0
  0
ARC
  8
0
  6
BYLAYER
 62
     7
 10
446.860745
 20
-675.862670
 30
0.0
 40
0.900024
 50
90.0
 51
269.999998
  0
LINE
  8
0
  6
BYLAYER
 62
     7
 10
438.960698
 20
-717.687713
 30
0.0
 11
438.960753
 21
-650.187713
 31
0.0
  0
LINE
  8
0
  6
BYLAYER
 62
     7
 10
438.960644
 20
-650.687713
 30
0.0
 11
435.460751
 21
-650.687713
 31
0.0
  0
LINE
  8
0
  6
BYLAYER
 62
     7
 10
443.368303
 20
-640.959066
 30
0.0
 11
553.960842
 21
-640.959066
 31
0.0
  0
LINE
  8
0
  6
BYLAYER
 62
     7
 10
443.407986
 20
-643.366098
 30
0.0
 11
553.960842
 21
-643.366098
 31
0.0
  0
LINE
  8
0
  6
BYLAYER
 62
     7
 10
443.435583
 20
-647.790503
 30
0.0
 11
553.960842
 21
-647.790503
 31
0.0
  0
LINE
  8
0
  6
BYLAYER
 62
     7
 10
443.527478
 20
-655.622833
 30
0.0
 11
553.960842
 21
-655.622833
 31
0.0
  0
LINE
  8
0
  6
BYLAYER
 62
     7
 10
553.960842
 20
-672.598613
 30
0.0
 11
447.455289
 21
-672.598613
 31
0.0
  0
LINE
  8
0
  6
BYLAYER
 62
     7
 10
441.958670
 20
-641.946295
 30
0.0
 11
438.960751
 21
-650.187713
 31
0.0
  0
ARC
  8
0
  6
BYLAYER
 62
     7
 10
443.368303
 20
-642.459066
 30
0.0
 40
1.500000
 50
90.0
 51
160.010512
  0
LINE
  8
0
  6
BYLAYER
 62
     7
 10
441.981245
 20
-644.403052
 30
0.0
 11
438.960751
 21
-653.709827
 31
0.0
  0
ARC
  8
0
  6
BYLAYER
 62
     7
 10
443.407986
 20
-644.866098
 30
0.0
 40
1.5
 50
90.0
 51
162.019271
  0
LINE
  8
0
  6
BYLAYER
 62
     7
 10
441.998198
 20
-648.861639
 30
0.0
 11
438.960751
 21
-659.041971
 31
0.0
  0
ARC
  8
0
  6
BYLAYER
 62
     7
 10
443.435583
 20
-649.290503
 30
0.0
 40
1.5
 50
90.0
 51
163.38678
  0
LINE
  8
0
  6
BYLAYER
 62
     7
 10
442.061522
 20
-656.805068
 30
0.0
 11
438.960751
 21
-671.109970
 31
0.0
  0
ARC
  8
0
  6
BYLAYER
 62
     7
 10
443.527478
 20
-657.122833
 30
0.0
 40
1.5
 50
90.0
 51
167.769617
  0
LINE
  8
0
  6
BYLAYER
 62
     7
 10
438.960751
 20
-659.041971
 30
0.0
 11
441.321083
 21
-660.220964
 31
0.0
  0
LINE
  8
0
  6
BYLAYER
 62
     7
 10
438.960751
 20
-653.709827
 30
0.0
 11
440.356829
 21
-654.362866
 31
0.0
  0
LINE
  8
0
  6
BYLAYER
 62
     7
 10
438.960751
 20
-671.109970
 30
0.0
 11
447.455289
 21
-672.598613
 31
0.0
  0
LINE
  8
0
  6
BYLAYER
 62
     7
 10
438.960751
 20
-650.187713
 30
0.0
 11
439.961803
 21
-650.625376
 31
0.0
  0
LINE
  8
0
  6
BYLAYER
 62
     7
 10
435.460751
 20
-650.687713
 30
0.0
 11
435.460751
 21
-717.687713
 31
0.0
  0
LINE
  8
0
  6
BYLAYER
 62
     7
 10
634.960842
 20
-653.199981
 30
0.0
 11
634.960842
 21
-717.687713
 31
0.0
  0
LINE
  8
0
  6
BYLAYER
 62
     7
 10
617.422671
 20
-639.497659
 30
0.0
 11
634.960842
 21
-653.199981
 31
0.0
  0
ARC
  8
0
  6
BYLAYER
 62
     7
 10
614.344363
 20
-643.437713
 30
0.0
 40
5.0
 50
52.000000
 51
90.000000
  0
LINE
  8
0
  6
BYLAYER
 62
     7
 10
553.960842
 20
-638.437713
 30
0.0
 11
614.344363
 21
-638.437713
 31
0.0
  0
LINE
  8
0
  6
BYLAYER
 62
     7
 10
553.960842
 20
-638.437713
 30
0.0
 11
553.960842
 21
-717.687713
 31
0.0
  0
LINE
  8
0
  6
BYLAYER
 62
     7
 10
614.344363
 20
-796.937713
 30
0.0
 11
614.344363
 21
-638.437713
 31
0.0
  0
LINE
  8
0
  6
BYLAYER
 62
     1
 10
325.460690
 20
-82.687713
 30
0.0
 11
323.960690
 21
-84.187713
 31
0.0
  0
LINE
  8
0
  6
BYLAYER
 62
     1
 10
375.460690
 20
-84.187713
 30
0.0
 11
373.960690
 21
-82.687713
 31
0.0
  0
LINE
  8
0
  6
BYLAYER
 62
     1
 10
219.460751
 20
-82.687713
 30
0.0
 11
220.960751
 21
-84.187713
 31
0.0
  0
LINE
  8
0
  6
BYLAYER
 62
     1
 10
169.460751
 20
-84.187713
 30
0.0
 11
170.960751
 21
-82.687713
 31
0.0
  0
LINE
  8
0
  6
BYLAYER
 62
     1
 10
375.460690
 20
-270.687713
 30
0.0
 11
373.960690
 21
-269.187713
 31
0.0
  0
LINE
  8
0
  6
BYLAYER
 62
     1
 10
325.460690
 20
-320.687713
 30
0.0
 11
323.960690
 21
-319.187652
 31
0.0
  0
LINE
  8
0
  6
BYLAYER
 62
     1
 10
169.460751
 20
-270.687713
 30
0.0
 11
170.960751
 21
-269.187713
 31
0.0
  0
LINE
  8
0
  6
BYLAYER
 62
     1
 10
219.460751
 20
-320.687713
 30
0.0
 11
220.960751
 21
-319.187652
 31
0.0
  0
LINE
  8
0
  6
BYLAYER
 62
     1
 10
323.960690
 20
-319.187652
 30
0.0
 11
220.960751
 21
-319.187652
 31
0.0
  0
LINE
  8
0
  6
BYLAYER
 62
     1
 10
375.460690
 20
-319.187713
 30
0.0
 11
373.960690
 21
-320.687713
 31
0.0
  0
LINE
  8
0
  6
BYLAYER
 62
     1
 10
169.460751
 20
-319.187713
 30
0.0
 11
170.960751
 21
-320.687713
 31
0.0
  0
LINE
  8
0
  6
BYLAYER
 62
     1
 10
220.960751
 20
-84.187713
 30
0.0
 11
323.960690
 21
-84.187713
 31
0.0
  0
LINE
  8
0
  6
BYLAYER
 62
     1
 10
375.460690
 20
-132.687713
 30
0.0
 11
373.960690
 21
-134.187713
 31
0.0
  0
LINE
  8
0
  6
BYLAYER
 62
     1
 10
375.460690
 20
-132.687713
 30
0.0
 11
375.460690
 21
-84.187713
 31
0.0
  0
LINE
  8
0
  6
BYLAYER
 62
     1
 10
169.460751
 20
-132.687713
 30
0.0
 11
170.960751
 21
-134.187713
 31
0.0
  0
LINE
  8
0
  6
BYLAYER
 62
     1
 10
170.960751
 20
-269.187713
 30
0.0
 11
170.960751
 21
-134.187713
 31
0.0
  0
LINE
  8
0
  6
BYLAYER
 62
     1
 10
169.460751
 20
-163.687713
 30
0.0
 11
170.960751
 21
-163.740081
 31
0.0
  0
ARC
  8
0
  6
BYLAYER
 62
     1
 10
362.460690
 20
-95.687713
 30
0.0
 40
2.000000
 50
0.0
 51
90.000016
  0
LINE
  8
0
  6
BYLAYER
 62
     1
 10
182.460751
 20
-93.687713
 30
0.0
 11
362.460690
 21
-93.687713
 31
0.0
  0
ARC
  8
0
  6
BYLAYER
 62
     1
 10
182.460751
 20
-95.687713
 30
0.0
 40
2.000000
 50
90.0
 51
180.000009
  0
ARC
  8
0
  6
BYLAYER
 62
     1
 10
182.460751
 20
-307.687713
 30
0.0
 40
2.0
 50
180.000000
 51
269.999996
  0
ARC
  8
0
  6
BYLAYER
 62
     1
 10
362.460690
 20
-307.687774
 30
0.0
 40
2.0
 50
270.0
 51
359.999982
  0
LINE
  8
0
  6
BYLAYER
 62
     1
 10
375.460690
 20
-270.687713
 30
0.0
 11
364.460690
 21
-270.687713
 31
0.0
  0
LINE
  8
0
  6
BYLAYER
 62
     1
 10
375.460690
 20
-132.687713
 30
0.0
 11
364.460690
 21
-132.687713
 31
0.0
  0
LINE
  8
0
  6
BYLAYER
 62
     1
 10
169.460751
 20
-132.687713
 30
0.0
 11
180.460751
 21
-132.687713
 31
0.0
  0
LINE
  8
0
  6
BYLAYER
 62
     1
 10
169.460751
 20
-270.687713
 30
0.0
 11
180.460751
 21
-270.687713
 31
0.0
  0
LINE
  8
0
  6
BYLAYER
 62
     1
 10
325.460690
 20
-320.687713
 30
0.0
 11
325.460690
 21
-309.687774
 31
0.0
  0
LINE
  8
0
  6
BYLAYER
 62
     1
 10
219.460751
 20
-320.687713
 30
0.0
 11
219.460751
 21
-309.687774
 31
0.0
  0
LINE
  8
0
  6
BYLAYER
 62
     1
 10
325.460690
 20
-82.687713
 30
0.0
 11
325.460690
 21
-93.687652
 31
0.0
  0
LINE
  8
0
  6
BYLAYER
 62
     1
 10
323.960690
 20
-84.187774
 30
0.0
 11
323.960690
 21
-93.687652
 31
0.0
  0
LINE
  8
0
  6
BYLAYER
 62
     1
 10
220.960751
 20
-84.187774
 30
0.0
 11
220.960751
 21
-93.687652
 31
0.0
  0
LINE
  8
0
  6
BYLAYER
 62
     1
 10
219.460751
 20
-82.687713
 30
0.0
 11
219.460751
 21
-93.687652
 31
0.0
  0
LINE
  8
0
  6
BYLAYER
 62
     1
 10
377.460690
 20
-169.328704
 30
0.0
 11
373.960690
 21
-169.450958
 31
0.0
  0
LINE
  8
0
  6
BYLAYER
 62
     1
 10
373.960690
 20
-157.394866
 30
0.0
 11
377.460690
 21
-157.394866
 31
0.0
  0
LINE
  8
0
  6
BYLAYER
 62
     1
 10
373.960690
 20
-134.687713
 30
0.0
 11
377.460690
 21
-134.687713
 31
0.0
  0
LINE
  8
0
  6
BYLAYER
 62
     1
 10
377.460690
 20
-86.046722
 30
0.0
 11
375.460690
 21
-85.976837
 31
0.0
  0
LINE
  8
0
  6
BYLAYER
 62
     1
 10
377.460690
 20
-169.328704
 30
0.0
 11
377.460690
 21
-86.046722
 31
0.0
  0
LINE
  8
0
  6
BYLAYER
 62
     1
 10
375.460690
 20
-120.687713
 30
0.0
 11
377.460690
 21
-120.687713
 31
0.0
  0
LINE
  8
0
  6
BYLAYER
 62
     1
 10
375.460690
 20
-97.980560
 30
0.0
 11
377.460690
 21
-97.980560
 31
0.0
  0
ARC
  8
0
  6
BYLAYER
 62
     1
 10
187.960751
 20
-302.187713
 30
0.0
 40
2.0
 50
180.000000
 51
269.999996
  0
LINE
  8
0
  6
BYLAYER
 62
     1
 10
363.874875
 20
-309.101959
 30
0.0
 11
358.374875
 21
-303.601959
 31
0.0
  0
LINE
  8
0
  6
BYLAYER
 62
     1
 10
362.460690
 20
-309.687774
 30
0.0
 11
307.649350
 21
-309.687774
 31
0.0
  0
LINE
  8
0
  6
BYLAYER
 62
     1
 10
180.460751
 20
-95.687713
 30
0.0
 11
180.460751
 21
-182.131378
 31
0.0
  0
ARC
  8
0
  6
BYLAYER
 62
     1
 10
178.460751
 20
-182.131378
 30
0.0
 40
1.999980
 50
339.280495
 51
360.000000
  0
ARC
  8
0
  6
BYLAYER
 62
     1
 10
272.460751
 20
-217.687713
 30
0.0
 40
98.500038
 50
159.280449
 51
200.719548
  0
LINE
  8
0
  6
BYLAYER
 62
     1
 10
180.460751
 20
-253.243987
 30
0.0
 11
180.460751
 21
-307.687713
 31
0.0
  0
ARC
  8
0
  6
BYLAYER
 62
     1
 10
178.460751
 20
-253.243987
 30
0.0
 40
1.999959
 50
0.0
 51
20.719577
  0
LINE
  8
0
  6
BYLAYER
 62
     1
 10
236.904660
 20
-309.687774
 30
0.0
 11
182.460751
 21
-309.687774
 31
0.0
  0
ARC
  8
0
  6
BYLAYER
 62
     1
 10
272.460751
 20
-217.687713
 30
0.0
 40
98.500031
 50
249.280595
 51
290.931197
  0
ARC
  8
0
  6
BYLAYER
 62
     1
 10
236.904660
 20
-311.687774
 30
0.0
 40
2.000000
 50
69.280601
 51
90.000000
  0
LINE
  8
0
  6
BYLAYER
 62
     1
 10
364.460690
 20
-253.243987
 30
0.0
 11
364.460690
 21
-307.687774
 31
0.0
  0
ARC
  8
0
  6
BYLAYER
 62
     1
 10
366.460690
 20
-253.243987
 30
0.0
 40
2.0
 50
159.280416
 51
180.000000
  0
ARC
  8
0
  6
BYLAYER
 62
     1
 10
366.460690
 20
-182.131378
 30
0.0
 40
2.0
 50
180.000000
 51
200.719584
  0
LINE
  8
0
  6
BYLAYER
 62
     1
 10
187.960751
 20
-304.187713
 30
0.0
 11
230.415951
 21
-304.187713
 31
0.0
  0
ARC
  8
0
  6
BYLAYER
 62
     1
 10
220.960751
 20
-122.687713
 30
0.0
 40
1.0
 50
90.0
 51
270.000005
  0
ARC
  8
0
  6
BYLAYER
 62
     1
 10
323.960690
 20
-122.687713
 30
0.0
 40
1.000000
 50
270.0
 51
449.999991
  0
LINE
  8
0
  6
BYLAYER
 62
     1
 10
289.497479
 20
-121.687713
 30
0.0
 11
323.960690
 21
-121.687713
 31
0.0
  0
LINE
  8
0
  6
BYLAYER
 62
     1
 10
220.960751
 20
-121.687713
 30
0.0
 11
255.424023
 21
-121.687713
 31
0.0
  0
LINE
  8
0
  6
BYLAYER
 62
     1
 10
298.349942
 20
-123.687713
 30
0.0
 11
323.960690
 21
-123.687713
 31
0.0
  0
LINE
  8
0
  6
BYLAYER
 62
     1
 10
220.960751
 20
-123.687713
 30
0.0
 11
246.571560
 21
-123.687713
 31
0.0
  0
ARC
  8
0
  6
BYLAYER
 62
     1
 10
224.460751
 20
-134.687713
 30
0.0
 40
1.0
 50
270.0
 51
450.000005
  0
ARC
  8
0
  6
BYLAYER
 62
     1
 10
213.460751
 20
-146.687713
 30
0.0
 40
1.0
 50
270.0
 51
450.000005
  0
ARC
  8
0
  6
BYLAYER
 62
     1
 10
201.460751
 20
-158.687713
 30
0.0
 40
1.0
 50
270.0
 51
450.000005
  0
ARC
  8
0
  6
BYLAYER
 62
     1
 10
320.460690
 20
-134.687713
 30
0.0
 40
1.0
 50
90.0
 51
270.000005
  0
ARC
  8
0
  6
BYLAYER
 62
     1
 10
331.460690
 20
-146.687713
 30
0.0
 40
1.0
 50
90.0
 51
270.000005
  0
ARC
  8
0
  6
BYLAYER
 62
     1
 10
343.460690
 20
-158.687713
 30
0.0
 40
1.0
 50
90.0
 51
270.000005
  0
LINE
  8
0
  6
BYLAYER
 62
     1
 10
364.460690
 20
-182.131378
 30
0.0
 11
364.460690
 21
-95.687713
 31
0.0
  0
LINE
  8
0
  6
BYLAYER
 62
     1
 10
224.460751
 20
-135.687713
 30
0.0
 11
181.460751
 21
-135.687713
 31
0.0
  0
LINE
  8
0
  6
BYLAYER
 62
     1
 10
224.460751
 20
-133.687713
 30
0.0
 11
181.460751
 21
-133.687713
 31
0.0
  0
ARC
  8
0
  6
BYLAYER
 62
     1
 10
181.460751
 20
-144.687713
 30
0.0
 40
1.000000
 50
180.000000
 51
269.999996
  0
ARC
  8
0
  6
BYLAYER
 62
     1
 10
181.460751
 20
-156.687713
 30
0.0
 40
1.000000
 50
180.000000
 51
269.999996
  0
ARC
  8
0
  6
BYLAYER
 62
     1
 10
181.460751
 20
-148.687713
 30
0.0
 40
1.000000
 50
90.0
 51
180.000003
  0
ARC
  8
0
  6
BYLAYER
 62
     1
 10
181.460751
 20
-160.687713
 30
0.0
 40
1.000000
 50
90.0
 51
180.000003
  0
LINE
  8
0
  6
BYLAYER
 62
     1
 10
213.460751
 20
-145.687713
 30
0.0
 11
181.460751
 21
-145.687713
 31
0.0
  0
LINE
  8
0
  6
BYLAYER
 62
     1
 10
213.460751
 20
-147.687713
 30
0.0
 11
181.460751
 21
-147.687713
 31
0.0
  0
LINE
  8
0
  6
BYLAYER
 62
     1
 10
201.460751
 20
-157.687713
 30
0.0
 11
181.460751
 21
-157.687713
 31
0.0
  0
LINE
  8
0
  6
BYLAYER
 62
     1
 10
201.460751
 20
-159.687713
 30
0.0
 11
181.460751
 21
-159.687713
 31
0.0
  0
ARC
  8
0
  6
BYLAYER
 62
     1
 10
363.460690
 20
-132.687713
 30
0.0
 40
1.0
 50
270.0
 51
359.999982
  0
ARC
  8
0
  6
BYLAYER
 62
     1
 10
363.460690
 20
-136.687713
 30
0.0
 40
1.000000
 50
0.0
 51
90.000016
  0
ARC
  8
0
  6
BYLAYER
 62
     1
 10
363.460690
 20
-144.687713
 30
0.0
 40
1.0
 50
270.0
 51
359.999982
  0
ARC
  8
0
  6
BYLAYER
 62
     1
 10
363.460690
 20
-148.687713
 30
0.0
 40
1.0
 50
0.0
 51
90.000016
  0
ARC
  8
0
  6
BYLAYER
 62
     1
 10
363.460690
 20
-156.687713
 30
0.0
 40
1.0
 50
270.0
 51
359.999982
  0
ARC
  8
0
  6
BYLAYER
 62
     1
 10
363.460690
 20
-160.687713
 30
0.0
 40
1.000000
 50
0.0
 51
90.000016
  0
LINE
  8
0
  6
BYLAYER
 62
     1
 10
320.460690
 20
-135.687713
 30
0.0
 11
363.460690
 21
-135.687713
 31
0.0
  0
LINE
  8
0
  6
BYLAYER
 62
     1
 10
331.460690
 20
-145.687713
 30
0.0
 11
363.460690
 21
-145.687713
 31
0.0
  0
LINE
  8
0
  6
BYLAYER
 62
     1
 10
331.460690
 20
-147.687713
 30
0.0
 11
363.460690
 21
-147.687713
 31
0.0
  0
LINE
  8
0
  6
BYLAYER
 62
     1
 10
343.460690
 20
-157.687713
 30
0.0
 11
363.460690
 21
-157.687713
 31
0.0
  0
LINE
  8
0
  6
BYLAYER
 62
     1
 10
343.460690
 20
-159.687713
 30
0.0
 11
363.460690
 21
-159.687713
 31
0.0
  0
LINE
  8
0
  6
BYLAYER
 62
     1
 10
170.960751
 20
-149.009734
 30
0.0
 11
169.460751
 21
-149.009734
 31
0.0
  0
LINE
  8
0
  6
BYLAYER
 62
     1
 10
170.960751
 20
-162.865692
 30
0.0
 11
169.460751
 21
-162.865692
 31
0.0
  0
LINE
  8
0
  6
BYLAYER
 62
     1
 10
364.460690
 20
-134.187713
 30
0.0
 11
373.960690
 21
-134.187713
 31
0.0
  0
LINE
  8
0
  6
BYLAYER
 62
     1
 10
364.460690
 20
-269.187713
 30
0.0
 11
373.960690
 21
-269.187713
 31
0.0
  0
LINE
  8
0
  6
BYLAYER
 62
     1
 10
323.960690
 20
-309.687774
 30
0.0
 11
323.960690
 21
-319.187652
 31
0.0
  0
LINE
  8
0
  6
BYLAYER
 62
     1
 10
220.960751
 20
-319.187652
 30
0.0
 11
220.960751
 21
-309.687774
 31
0.0
  0
LINE
  8
0
  6
BYLAYER
 62
     1
 10
170.960751
 20
-269.187713
 30
0.0
 11
180.460751
 21
-269.187713
 31
0.0
  0
LINE
  8
0
  6
BYLAYER
 62
     1
 10
170.960751
 20
-134.187713
 30
0.0
 11
180.460751
 21
-134.187713
 31
0.0
  0
LINE
  8
0
  6
BYLAYER
 62
     1
 10
335.960690
 20
-93.687713
 30
0.0
 11
335.960690
 21
-82.687713
 31
0.0
  0
LINE
  8
0
  6
BYLAYER
 62
     1
 10
348.960690
 20
-93.687713
 30
0.0
 11
348.960690
 21
-82.687713
 31
0.0
  0
LINE
  8
0
  6
BYLAYER
 62
     1
 10
195.960751
 20
-93.687713
 30
0.0
 11
195.960751
 21
-82.687713
 31
0.0
  0
LINE
  8
0
  6
BYLAYER
 62
     1
 10
208.960751
 20
-93.687713
 30
0.0
 11
208.960751
 21
-82.687713
 31
0.0
  0
LINE
  8
0
  6
BYLAYER
 62
     1
 10
180.460751
 20
-109.187713
 30
0.0
 11
169.460751
 21
-109.187713
 31
0.0
  0
LINE
  8
0
  6
BYLAYER
 62
     1
 10
180.460751
 20
-122.187713
 30
0.0
 11
169.460751
 21
-122.187713
 31
0.0
  0
LINE
  8
0
  6
BYLAYER
 62
     1
 10
208.960751
 20
-309.687713
 30
0.0
 11
208.960751
 21
-320.687713
 31
0.0
  0
LINE
  8
0
  6
BYLAYER
 62
     1
 10
195.960751
 20
-309.687713
 30
0.0
 11
195.960751
 21
-320.687713
 31
0.0
  0
LINE
  8
0
  6
BYLAYER
 62
     1
 10
180.460751
 20
-294.187713
 30
0.0
 11
169.460751
 21
-294.187713
 31
0.0
  0
LINE
  8
0
  6
BYLAYER
 62
     1
 10
180.460751
 20
-281.187713
 30
0.0
 11
169.460751
 21
-281.187713
 31
0.0
  0
LINE
  8
0
  6
BYLAYER
 62
     1
 10
364.460751
 20
-281.187713
 30
0.0
 11
375.460690
 21
-281.187713
 31
0.0
  0
LINE
  8
0
  6
BYLAYER
 62
     1
 10
364.460751
 20
-294.187713
 30
0.0
 11
375.460690
 21
-294.187713
 31
0.0
  0
LINE
  8
0
  6
BYLAYER
 62
     1
 10
348.960690
 20
-309.687713
 30
0.0
 11
348.960690
 21
-320.687713
 31
0.0
  0
LINE
  8
0
  6
BYLAYER
 62
     1
 10
335.960690
 20
-309.687713
 30
0.0
 11
335.960690
 21
-320.687713
 31
0.0
  0
LINE
  8
0
  6
BYLAYER
 62
     1
 10
320.460690
 20
-133.687713
 30
0.0
 11
355.409543
 21
-133.687713
 31
0.0
  0
LINE
  8
0
  6
BYLAYER
 62
     1
 10
363.460690
 20
-133.687713
 30
0.0
 11
355.409543
 21
-133.687713
 31
0.0
  0
LINE
  8
0
  6
BYLAYER
 62
     1
 10
325.460690
 20
-320.687713
 30
0.0
 11
373.960690
 21
-320.687713
 31
0.0
  0
LINE
  8
0
  6
BYLAYER
 62
     1
 10
314.505551
 20
-304.187713
 30
0.0
 11
335.004452
 21
-304.187713
 31
0.0
  0
LINE
  8
0
  6
BYLAYER
 62
     1
 10
335.004452
 20
-304.187713
 30
0.0
 11
356.960690
 21
-304.187713
 31
0.0
  0
LINE
  8
0
  6
BYLAYER
 62
     1
 10
219.460751
 20
-320.687713
 30
0.0
 11
170.960751
 21
-320.687713
 31
0.0
  0
ARC
  8
0
  6
BYLAYER
 62
     1
 10
351.460690
 20
-264.687713
 30
0.0
 40
1.0
 50
90.0
 51
270.000005
  0
ARC
  8
0
  6
BYLAYER
 62
     1
 10
363.460690
 20
-266.687713
 30
0.0
 40
1.0
 50
0.0
 51
89.999982
  0
ARC
  8
0
  6
BYLAYER
 62
     1
 10
363.460690
 20
-262.687713
 30
0.0
 40
1.0
 50
270.0
 51
360.000016
  0
LINE
  8
0
  6
BYLAYER
 62
     1
 10
351.460690
 20
-265.687713
 30
0.0
 11
363.460690
 21
-265.687713
 31
0.0
  0
LINE
  8
0
  6
BYLAYER
 62
     1
 10
351.460690
 20
-263.687713
 30
0.0
 11
363.460690
 21
-263.687713
 31
0.0
  0
LINE
  8
0
  6
BYLAYER
 62
     1
 10
375.460690
 20
-270.687713
 30
0.0
 11
375.460690
 21
-319.187713
 31
0.0
  0
ARC
  8
0
  6
BYLAYER
 62
     1
 10
193.460751
 20
-264.687713
 30
0.0
 40
1.0
 50
270.0
 51
449.999991
  0
ARC
  8
0
  6
BYLAYER
 62
     1
 10
181.460751
 20
-266.687713
 30
0.0
 40
1.0
 50
90.0
 51
179.999982
  0
ARC
  8
0
  6
BYLAYER
 62
     1
 10
181.460751
 20
-262.687713
 30
0.0
 40
1.0
 50
180.000000
 51
270.000023
  0
LINE
  8
0
  6
BYLAYER
 62
     1
 10
193.460751
 20
-265.687713
 30
0.0
 11
181.460751
 21
-265.687713
 31
0.0
  0
LINE
  8
0
  6
BYLAYER
 62
     1
 10
193.460751
 20
-263.687713
 30
0.0
 11
181.460751
 21
-263.687713
 31
0.0
  0
ARC
  8
0
  6
BYLAYER
 62
     1
 10
181.460751
 20
-132.687713
 30
0.0
 40
1.000000
 50
180.000000
 51
269.999996
  0
ARC
  8
0
  6
BYLAYER
 62
     1
 10
181.460751
 20
-136.687713
 30
0.0
 40
1.000000
 50
90.0
 51
180.000003
  0
ARC
  8
0
  6
BYLAYER
 62
     1
 10
272.460751
 20
-217.687713
 30
0.0
 40
98.499939
 50
0.0
 51
20.719575
  0
ARC
  8
0
  6
BYLAYER
 62
     1
 10
272.460751
 20
-217.687713
 30
0.0
 40
98.499939
 50
339.280413
 51
360.000000
  0
LINE
  8
0
  6
BYLAYER
 62
     1
 10
169.460751
 20
-319.187713
 30
0.0
 11
169.460751
 21
-270.687713
 31
0.0
  0
LINE
  8
0
  6
BYLAYER
 62
     1
 10
219.460751
 20
-82.687713
 30
0.0
 11
170.960751
 21
-82.687713
 31
0.0
  0
LINE
  8
0
  6
BYLAYER
 62
     1
 10
169.460751
 20
-127.687713
 30
0.0
 11
169.460751
 21
-163.687713
 31
0.0
  0
LINE
  8
0
  6
BYLAYER
 62
     1
 10
169.460751
 20
-127.687713
 30
0.0
 11
169.460751
 21
-84.187713
 31
0.0
  0
LINE
  8
0
  6
BYLAYER
 62
     1
 10
325.460690
 20
-82.687713
 30
0.0
 11
373.960690
 21
-82.687713
 31
0.0
  0
LINE
  8
0
  6
BYLAYER
 62
     1
 10
185.960751
 20
-263.687713
 30
0.0
 11
185.960751
 21
-259.732513
 31
0.0
  0
LINE
  8
0
  6
BYLAYER
 62
     1
 10
185.960751
 20
-302.187713
 30
0.0
 11
185.960751
 21
-265.687713
 31
0.0
  0
ARC
  8
0
  6
BYLAYER
 62
     1
 10
356.960690
 20
-302.187713
 30
0.0
 40
2.0
 50
314.998762
 51
360.000000
  0
ARC
  8
0
  6
BYLAYER
 62
     1
 10
356.960690
 20
-302.187713
 30
0.0
 40
2.000002
 50
270.0
 51
314.998762
  0
LINE
  8
0
  6
BYLAYER
 62
     1
 10
358.960690
 20
-302.187713
 30
0.0
 11
358.960690
 21
-265.687713
 31
0.0
  0
LINE
  8
0
  6
BYLAYER
 62
     1
 10
358.960690
 20
-263.687713
 30
0.0
 11
358.960690
 21
-259.732513
 31
0.0
  0
LINE
  8
0
  6
BYLAYER
 62
     1
 10
181.046627
 20
-309.101959
 30
0.0
 11
186.546627
 21
-303.601959
 31
0.0
  0
LINE
  8
0
  6
BYLAYER
 62
     1
 10
373.960690
 20
-269.187713
 30
0.0
 11
373.960690
 21
-134.187713
 31
0.0
  0
ARC
  8
0
  6
BYLAYER
 62
     1
 10
272.460751
 20
-217.687713
 30
0.0
 40
42.500000
 50
90.0
 51
180.000002
  0
CIRCLE
  8
0
  6
BYLAYER
 62
     1
 10
272.460751
 20
-152.687713
 30
0.0
 40
4.5
  0
ARC
  8
0
  6
BYLAYER
 62
     1
 10
272.460751
 20
-152.687713
 30
0.0
 40
4.999938
 50
353.660000
 51
636.340001
  0
ARC
  8
0
  6
BYLAYER
 62
     1
 10
226.498776
 20
-171.725799
 30
0.0
 40
4.999972
 50
38.659991
 51
321.339992
  0
ARC
  8
0
  6
BYLAYER
 62
     1
 10
226.498776
 20
-171.725799
 30
0.0
 40
4.999972
 50
38.659991
 51
321.339992
  0
CIRCLE
  8
0
  6
BYLAYER
 62
     1
 10
226.498776
 20
-171.725799
 30
0.0
 40
4.5
  0
CIRCLE
  8
0
  6
BYLAYER
 62
     1
 10
207.460751
 20
-217.687713
 30
0.0
 40
4.5
  0
ARC
  8
0
  6
BYLAYER
 62
     1
 10
207.460751
 20
-217.687713
 30
0.0
 40
5.000012
 50
83.660009
 51
366.340010
  0
ARC
  8
0
  6
BYLAYER
 62
     1
 10
272.460751
 20
-217.687713
 30
0.0
 40
55.000000
 50
90.000003
 51
180.000005
  0
ARC
  8
0
  6
BYLAYER
 62
     1
 10
272.460751
 20
-217.687713
 30
0.0
 40
55.0
 50
359.999986
 51
450.000003
  0
ARC
  8
0
  6
BYLAYER
 62
     1
 10
272.460751
 20
-217.687713
 30
0.0
 40
54.999939
 50
179.999991
 51
270.0
  0
CIRCLE
  8
0
  6
BYLAYER
 62
     1
 10
272.460751
 20
-152.687713
 30
0.0
 40
4.5
  0
CIRCLE
  8
0
  6
BYLAYER
 62
     1
 10
226.498776
 20
-171.725799
 30
0.0
 40
4.5
  0
CIRCLE
  8
0
  6
BYLAYER
 62
     1
 10
207.460751
 20
-217.687713
 30
0.0
 40
4.5
  0
CIRCLE
  8
0
  6
BYLAYER
 62
     1
 10
272.460751
 20
-152.687713
 30
0.0
 40
4.5
  0
ARC
  8
0
  6
BYLAYER
 62
     1
 10
272.460751
 20
-217.687713
 30
0.0
 40
80.000000
 50
90.000003
 51
94.744108
  0
ARC
  8
0
  6
BYLAYER
 62
     1
 10
266.009701
 20
-139.954925
 30
0.0
 40
2.000037
 50
94.743931
 51
150.255446
  0
ARC
  8
0
  6
BYLAYER
 62
     1
 10
212.933773
 20
-167.283904
 30
0.0
 40
2.000029
 50
139.743649
 51
195.255574
  0
ARC
  8
0
  6
BYLAYER
 62
     1
 10
272.460751
 20
-217.687713
 30
0.0
 40
80.000031
 50
130.255874
 51
139.744113
  0
ARC
  8
0
  6
BYLAYER
 62
     1
 10
232.278988
 20
-120.680267
 30
0.0
 40
36.849331
 50
254.744800
 51
330.255247
  0
ARC
  8
0
  6
BYLAYER
 62
     1
 10
222.057003
 20
-158.160735
 30
0.0
 40
2.000036
 50
74.744591
 51
130.25627
  0
ARC
  8
0
  6
BYLAYER
 62
     1
 10
175.453427
 20
-177.505950
 30
0.0
 40
36.849300
 50
299.744739
 51
375.255260
  0
ARC
  8
0
  6
BYLAYER
 62
     1
 10
194.727963
 20
-211.236541
 30
0.0
 40
1.999955
 50
119.744117
 51
175.255742
  0
ARC
  8
0
  6
BYLAYER
 62
     1
 10
272.460751
 20
-217.687713
 30
0.0
 40
79.999977
 50
175.255865
 51
180.000005
  0
CIRCLE
  8
0
  6
BYLAYER
 62
     1
 10
226.498898
 20
-263.649627
 30
0.0
 40
4.5
  0
ARC
  8
0
  6
BYLAYER
 62
     1
 10
272.460751
 20
-217.687713
 30
0.0
 40
80.000000
 50
180.000005
 51
184.744104
  0
ARC
  8
0
  6
BYLAYER
 62
     1
 10
194.727963
 20
-224.138763
 30
0.0
 40
1.999954
 50
184.743940
 51
240.255456
  0
ARC
  8
0
  6
BYLAYER
 62
     1
 10
222.057003
 20
-277.214630
 30
0.0
 40
1.999990
 50
229.743658
 51
285.255583
  0
ARC
  8
0
  6
BYLAYER
 62
     1
 10
272.460751
 20
-217.687713
 30
0.0
 40
79.999939
 50
220.255870
 51
229.744122
  0
ARC
  8
0
  6
BYLAYER
 62
     1
 10
175.453427
 20
-257.869476
 30
0.0
 40
36.849354
 50
344.744807
 51
420.255253
  0
ARC
  8
0
  6
BYLAYER
 62
     1
 10
212.933773
 20
-268.091400
 30
0.0
 40
1.999990
 50
164.744600
 51
220.256279
  0
ARC
  8
0
  6
BYLAYER
 62
     1
 10
232.278988
 20
-314.694976
 30
0.0
 40
36.849285
 50
29.744750
 51
105.255264
  0
ARC
  8
0
  6
BYLAYER
 62
     1
 10
266.009701
 20
-295.420440
 30
0.0
 40
1.999955
 50
209.744126
 51
265.255751
  0
ARC
  8
0
  6
BYLAYER
 62
     1
 10
272.460751
 20
-217.687713
 30
0.0
 40
79.999908
 50
265.255861
 51
270.000001
  0
CIRCLE
  8
0
  6
BYLAYER
 62
     1
 10
318.422696
 20
-263.649505
 30
0.0
 40
4.5
  0
ARC
  8
0
  6
BYLAYER
 62
     1
 10
272.460751
 20
-217.687713
 30
0.0
 40
79.999939
 50
270.0
 51
274.744113
  0
ARC
  8
0
  6
BYLAYER
 62
     1
 10
278.911801
 20
-295.420440
 30
0.0
 40
2.000007
 50
274.743922
 51
330.255438
  0
ARC
  8
0
  6
BYLAYER
 62
     1
 10
331.987759
 20
-268.091400
 30
0.0
 40
1.999982
 50
319.743667
 51
375.255565
  0
ARC
  8
0
  6
BYLAYER
 62
     1
 10
272.460751
 20
-217.687713
 30
0.0
 40
79.999954
 50
310.255879
 51
319.744104
  0
ARC
  8
0
  6
BYLAYER
 62
     1
 10
312.642544
 20
-314.695037
 30
0.0
 40
36.849358
 50
74.744816
 51
150.255242
  0
ARC
  8
0
  6
BYLAYER
 62
     1
 10
322.864468
 20
-277.214630
 30
0.0
 40
2.000029
 50
254.744582
 51
310.256261
  0
ARC
  8
0
  6
BYLAYER
 62
     1
 10
369.468106
 20
-257.869476
 30
0.0
 40
36.849327
 50
119.744732
 51
195.255260
  0
ARC
  8
0
  6
BYLAYER
 62
     1
 10
350.193570
 20
-224.138763
 30
0.0
 40
1.999894
 50
299.744108
 51
355.255733
  0
ARC
  8
0
  6
BYLAYER
 62
     1
 10
272.460751
 20
-217.687713
 30
0.0
 40
79.999939
 50
355.255870
 51
360.000010
  0
CIRCLE
  8
0
  6
BYLAYER
 62
     1
 10
318.422574
 20
-171.725677
 30
0.0
 40
4.5
  0
ARC
  8
0
  6
BYLAYER
 62
     1
 10
272.460751
 20
-217.687713
 30
0.0
 40
80.000031
 50
0.000010
 51
4.744123
  0
ARC
  8
0
  6
BYLAYER
 62
     1
 10
350.193570
 20
-211.236663
 30
0.0
 40
2.000030
 50
4.743932
 51
60.255444
  0
ARC
  8
0
  6
BYLAYER
 62
     1
 10
322.864590
 20
-158.160735
 30
0.0
 40
1.999997
 50
49.743650
 51
105.255544
  0
ARC
  8
0
  6
BYLAYER
 62
     1
 10
272.460751
 20
-217.687713
 30
0.0
 40
79.999962
 50
40.255861
 51
49.744114
  0
ARC
  8
0
  6
BYLAYER
 62
     1
 10
331.987759
 20
-167.283904
 30
0.0
 40
1.999904
 50
344.744591
 51
400.256271
  0
ARC
  8
0
  6
BYLAYER
 62
     1
 10
278.911801
 20
-139.954925
 30
0.0
 40
2.000015
 50
29.744118
 51
85.255739
  0
ARC
  8
0
  6
BYLAYER
 62
     1
 10
272.460751
 20
-217.687713
 30
0.0
 40
80.000031
 50
85.255876
 51
90.000016
  0
ARC
  8
0
  6
BYLAYER
 62
     1
 10
226.498837
 20
-171.725677
 30
0.0
 40
5.0
 50
38.659991
 51
321.339992
  0
ARC
  8
0
  6
BYLAYER
 62
     1
 10
207.460751
 20
-217.687713
 30
0.0
 40
4.999999
 50
83.660009
 51
366.340010
  0
ARC
  8
0
  6
BYLAYER
 62
     1
 10
226.498837
 20
-263.649627
 30
0.0
 40
4.999962
 50
128.660028
 51
411.340001
  0
ARC
  8
0
  6
BYLAYER
 62
     1
 10
272.460751
 20
-282.687652
 30
0.0
 40
4.999999
 50
173.660015
 51
456.340016
  0
ARC
  8
0
  6
BYLAYER
 62
     1
 10
318.422696
 20
-263.649627
 30
0.0
 40
5.0
 50
218.660013
 51
501.340041
  0
ARC
  8
0
  6
BYLAYER
 62
     1
 10
337.460782
 20
-217.687713
 30
0.0
 40
5.000060
 50
263.659977
 51
546.340005
  0
ARC
  8
0
  6
BYLAYER
 62
     1
 10
318.422696
 20
-171.725677
 30
0.0
 40
5.000096
 50
308.659982
 51
591.339955
  0
CIRCLE
  8
0
  6
BYLAYER
 62
     1
 10
272.460751
 20
-282.687652
 30
0.0
 40
4.5
  0
CIRCLE
  8
0
  6
BYLAYER
 62
     1
 10
337.460782
 20
-217.687713
 30
0.0
 40
4.5
  0
ARC
  8
0
  6
BYLAYER
 62
     1
 10
312.642544
 20
-120.680267
 30
0.0
 40
36.849327
 50
209.744796
 51
285.255256
  0
ARC
  8
0
  6
BYLAYER
 62
     1
 10
272.460751
 20
-217.687713
 30
0.0
 40
54.999939
 50
270.0
 51
360.000003
  0
ARC
  8
0
  6
BYLAYER
 62
     1
 10
272.460751
 20
-217.687713
 30
0.0
 40
97.5
 50
245.301818
 51
294.698190
  0
ARC
  8
0
  6
BYLAYER
 62
     1
 10
272.460751
 20
-217.687713
 30
0.0
 40
97.500000
 50
155.301809
 51
204.698181
  0
ARC
  8
0
  6
BYLAYER
 62
     1
 10
185.696957
 20
-257.591277
 30
0.0
 40
2.000000
 50
204.698188
 51
255.000000
  0
ARC
  8
0
  6
BYLAYER
 62
     1
 10
185.696957
 20
-177.784149
 30
0.0
 40
2.0
 50
104.999996
 51
155.301809
  0
ARC
  8
0
  6
BYLAYER
 62
     1
 10
272.460751
 20
-217.687713
 30
0.0
 40
97.500000
 50
65.301813
 51
114.698185
  0
ARC
  8
0
  6
BYLAYER
 62
     1
 10
272.460751
 20
-217.687713
 30
0.0
 40
97.5
 50
335.301827
 51
384.698199
  0
ARC
  8
0
  6
BYLAYER
 62
     1
 10
272.460751
 20
-217.687713
 30
0.0
 40
42.500015
 50
45.000015
 51
90.000003
  0
ARC
  8
0
  6
BYLAYER
 62
     1
 10
272.460751
 20
-217.687713
 30
0.0
 40
42.5
 50
180.000005
 51
404.999974
  0
ARC
  8
0
  6
BYLAYER
 62
     1
 10
369.468106
 20
-177.505828
 30
0.0
 40
36.849373
 50
225.3616
 51
240.255401
  0
ARC
  8
0
  6
BYLAYER
 62
     1
 10
334.618863
 20
-177.519378
 30
0.0
 40
2.000022
 50
180.022736
 51
274.620241
  0
ARC
  8
0
  6
BYLAYER
 62
     1
 10
335.746548
 20
-191.473907
 30
0.0
 40
11.999949
 50
310.379888
 51
454.620246
  0
ARC
  8
0
  6
BYLAYER
 62
     1
 10
344.816494
 20
-202.138641
 30
0.0
 40
2.000067
 50
130.380156
 51
224.977743
  0
ARC
  8
0
  6
BYLAYER
 62
     1
 10
369.468228
 20
-177.505889
 30
0.0
 40
36.849331
 50
164.744791
 51
240.255265
  0
LINE
  8
0
  6
BYLAYER
 62
     1
 10
359.742154
 20
-259.523132
 30
0.0
 11
343.894009
 21
-263.769622
 31
0.0
  0
ARC
  8
0
  6
BYLAYER
 62
     1
 10
359.224575
 20
-257.591277
 30
0.0
 40
2.0
 50
284.999998
 51
335.301810
  0
LINE
  8
0
  6
BYLAYER
 62
     1
 10
318.540020
 20
-289.130920
 30
0.0
 11
314.296170
 21
-304.969146
 31
0.0
  0
ARC
  8
0
  6
BYLAYER
 62
     1
 10
312.364285
 20
-304.451507
 30
0.0
 40
2.0
 50
294.698200
 51
345.000013
  0
ARC
  8
0
  6
BYLAYER
 62
     1
 10
320.474514
 20
-289.638580
 30
0.0
 40
2.0
 50
123.715705
 51
164.999994
  0
ARC
  8
0
  6
BYLAYER
 62
     1
 10
319.134549
 20
-294.639343
 30
0.0
 40
2.000000
 50
121.238252
 51
164.999994
  0
ARC
  8
0
  6
BYLAYER
 62
     1
 10
272.460751
 20
-217.687713
 30
0.0
 40
88.0
 50
301.238253
 51
328.761739
  0
ARC
  8
0
  6
BYLAYER
 62
     1
 10
349.412381
 20
-264.361541
 30
0.0
 40
2.000000
 50
104.999996
 51
148.761739
  0
ARC
  8
0
  6
BYLAYER
 62
     1
 10
272.460751
 20
-217.687713
 30
0.0
 40
84.5
 50
303.715700
 51
326.284277
  0
ARC
  8
0
  6
BYLAYER
 62
     1
 10
344.411648
 20
-265.701476
 30
0.0
 40
2.000000
 50
105.000003
 51
146.284292
  0
LINE
  8
0
  6
BYLAYER
 62
     1
 10
314.296170
 20
-130.406280
 30
0.0
 11
318.542691
 21
-146.254485
 31
0.0
  0
ARC
  8
0
  6
BYLAYER
 62
     1
 10
312.364285
 20
-130.923919
 30
0.0
 40
2.0
 50
15.000000
 51
65.301813
  0
LINE
  8
0
  6
BYLAYER
 62
     1
 10
343.894009
 20
-171.605804
 30
0.0
 11
359.742154
 21
-175.852294
 31
0.0
  0
ARC
  8
0
  6
BYLAYER
 62
     1
 10
359.224575
 20
-177.784149
 30
0.0
 40
2.000000
 50
24.698186
 51
74.999999
  0
ARC
  8
0
  6
BYLAYER
 62
     1
 10
344.411648
 20
-169.673950
 30
0.0
 40
2.0
 50
213.715714
 51
255.000004
  0
ARC
  8
0
  6
BYLAYER
 62
     1
 10
349.412381
 20
-171.013885
 30
0.0
 40
2.0
 50
211.238261
 51
255.000004
  0
ARC
  8
0
  6
BYLAYER
 62
     1
 10
272.460751
 20
-217.687713
 30
0.0
 40
88.0
 50
31.238256
 51
58.761741
  0
ARC
  8
0
  6
BYLAYER
 62
     1
 10
319.134549
 20
-140.736083
 30
0.0
 40
2.0
 50
195.000005
 51
238.761748
  0
ARC
  8
0
  6
BYLAYER
 62
     1
 10
272.460751
 20
-217.687713
 30
0.0
 40
84.5
 50
33.715713
 51
56.284290
  0
ARC
  8
0
  6
BYLAYER
 62
     1
 10
320.474514
 20
-145.736846
 30
0.0
 40
2.000000
 50
195.000012
 51
236.284302
  0
LINE
  8
0
  6
BYLAYER
 62
     1
 10
185.179318
 20
-175.852294
 30
0.0
 11
201.027523
 21
-171.605804
 31
0.0
  0
LINE
  8
0
  6
BYLAYER
 62
     1
 10
226.378842
 20
-146.254485
 30
0.0
 11
230.625332
 21
-130.406280
 31
0.0
  0
ARC
  8
0
  6
BYLAYER
 62
     1
 10
232.557187
 20
-130.923919
 30
0.0
 40
2.000000
 50
114.698182
 51
164.999994
  0
ARC
  8
0
  6
BYLAYER
 62
     1
 10
224.446988
 20
-145.736846
 30
0.0
 40
2.0
 50
303.715723
 51
345.000013
  0
ARC
  8
0
  6
BYLAYER
 62
     1
 10
225.786923
 20
-140.736083
 30
0.0
 40
2.000000
 50
301.238270
 51
345.000013
  0
ARC
  8
0
  6
BYLAYER
 62
     1
 10
272.460751
 20
-217.687713
 30
0.0
 40
88.0
 50
121.238262
 51
148.761747
  0
ARC
  8
0
  6
BYLAYER
 62
     1
 10
195.509121
 20
-171.013885
 30
0.0
 40
2.000000
 50
284.999987
 51
328.761730
  0
ARC
  8
0
  6
BYLAYER
 62
     1
 10
272.460751
 20
-217.687713
 30
0.0
 40
84.500000
 50
123.715708
 51
146.284286
  0
ARC
  8
0
  6
BYLAYER
 62
     1
 10
200.509884
 20
-169.673950
 30
0.0
 40
2.000000
 50
284.999994
 51
326.284284
  0
LINE
  8
0
  6
BYLAYER
 62
     1
 10
230.625332
 20
-304.969146
 30
0.0
 11
226.378842
 21
-289.120941
 31
0.0
  0
ARC
  8
0
  6
BYLAYER
 62
     1
 10
232.557187
 20
-304.451507
 30
0.0
 40
2.0
 50
195.000002
 51
245.301815
  0
LINE
  8
0
  6
BYLAYER
 62
     1
 10
201.027523
 20
-263.769622
 30
0.0
 11
185.179318
 21
-259.523132
 31
0.0
  0
ARC
  8
0
  6
BYLAYER
 62
     1
 10
200.509884
 20
-265.701476
 30
0.0
 40
2.000000
 50
33.715709
 51
74.999999
  0
ARC
  8
0
  6
BYLAYER
 62
     1
 10
195.509121
 20
-264.361541
 30
0.0
 40
2.0
 50
31.238256
 51
74.999999
  0
ARC
  8
0
  6
BYLAYER
 62
     1
 10
272.460751
 20
-217.687713
 30
0.0
 40
88.0
 50
211.238258
 51
238.761743
  0
ARC
  8
0
  6
BYLAYER
 62
     1
 10
225.786923
 20
-294.639343
 30
0.0
 40
2.0
 50
15.0
 51
58.761743
  0
ARC
  8
0
  6
BYLAYER
 62
     1
 10
272.460751
 20
-217.687713
 30
0.0
 40
84.5
 50
213.715718
 51
236.284295
  0
ARC
  8
0
  6
BYLAYER
 62
     1
 10
224.446988
 20
-289.638580
 30
0.0
 40
2.000000
 50
15.000000
 51
56.284290
  0
ARC
  8
0
  6
BYLAYER
 62
     1
 10
257.520485
 20
-113.618356
 30
0.0
 40
2.873727
 50
270.0
 51
308.795511
  0
ARC
  8
0
  6
BYLAYER
 62
     1
 10
257.242383
 20
-113.322176
 30
0.0
 40
3.278957
 50
309.340351
 51
360.000000
  0
ARC
  8
0
  6
BYLAYER
 62
     1
 10
257.242383
 20
-113.322176
 30
0.0
 40
3.278957
 50
0.0
 51
50.659649
  0
ARC
  8
0
  6
BYLAYER
 62
     1
 10
257.520485
 20
-113.025996
 30
0.0
 40
2.873727
 50
51.204489
 51
90.000000
  0
ARC
  8
0
  6
BYLAYER
 62
     1
 10
257.520485
 20
-113.025970
 30
0.0
 40
2.873701
 50
90.0
 51
128.795693
  0
ARC
  8
0
  6
BYLAYER
 62
     1
 10
257.798613
 20
-113.322176
 30
0.0
 40
3.278967
 50
129.340576
 51
180.0
  0
ARC
  8
0
  6
BYLAYER
 62
     1
 10
257.798613
 20
-113.322176
 30
0.0
 40
3.278967
 50
180.000000
 51
230.659424
  0
ARC
  8
0
  6
BYLAYER
 62
     1
 10
257.520485
 20
-113.618382
 30
0.0
 40
2.873701
 50
231.204307
 51
270.000000
  0
ARC
  8
0
  6
BYLAYER
 62
     1
 10
257.520485
 20
-112.479025
 30
0.0
 40
1.329747
 50
90.0
 51
140.793201
  0
ARC
  8
0
  6
BYLAYER
 62
     1
 10
258.554040
 20
-113.322176
 30
0.0
 40
2.663590
 50
140.793201
 51
180.0
  0
ARC
  8
0
  6
BYLAYER
 62
     1
 10
258.554024
 20
-113.322176
 30
0.0
 40
2.663574
 50
180.000000
 51
219.206869
  0
ARC
  8
0
  6
BYLAYER
 62
     1
 10
257.520485
 20
-114.165316
 30
0.0
 40
1.329750
 50
219.206869
 51
270.0
  0
ARC
  8
0
  6
BYLAYER
 62
     1
 10
257.520485
 20
-114.165316
 30
0.0
 40
1.329750
 50
270.0
 51
320.793131
  0
ARC
  8
0
  6
BYLAYER
 62
     1
 10
256.486947
 20
-113.322176
 30
0.0
 40
2.663574
 50
320.793131
 51
360.000000
  0
ARC
  8
0
  6
BYLAYER
 62
     1
 10
256.486931
 20
-113.322176
 30
0.0
 40
2.663590
 50
0.0
 51
39.206799
  0
ARC
  8
0
  6
BYLAYER
 62
     1
 10
257.520485
 20
-112.479025
 30
0.0
 40
1.329747
 50
39.206799
 51
90.0
  0
LINE
  8
0
  6
BYLAYER
 62
     1
 10
247.672646
 20
-116.280748
 30
0.0
 11
247.672646
 21
-110.279055
 31
0.0
  0
LINE
  8
0
  6
BYLAYER
 62
     1
 10
247.672646
 20
-110.279055
 30
0.0
 11
250.112771
 21
-110.279055
 31
0.0
  0
LINE
  8
0
  6
BYLAYER
 62
     1
 10
250.112771
 20
-110.279055
 30
0.0
 11
250.927086
 21
-113.406710
 31
0.0
  0
LINE
  8
0
  6
BYLAYER
 62
     1
 10
247.672646
 20
-116.280748
 30
0.0
 11
249.137856
 21
-116.280748
 31
0.0
  0
LINE
  8
0
  6
BYLAYER
 62
     1
 10
249.137856
 20
-116.280748
 30
0.0
 11
249.137856
 21
-112.814989
 31
0.0
  0
LINE
  8
0
  6
BYLAYER
 62
     1
 10
250.293099
 20
-116.280748
 30
0.0
 11
249.137856
 21
-112.814989
 31
0.0
  0
LINE
  8
0
  6
BYLAYER
 62
     1
 10
254.181527
 20
-116.280748
 30
0.0
 11
254.181527
 21
-110.279055
 31
0.0
  0
LINE
  8
0
  6
BYLAYER
 62
     1
 10
254.181527
 20
-110.279055
 30
0.0
 11
251.741402
 21
-110.279055
 31
0.0
  0
LINE
  8
0
  6
BYLAYER
 62
     1
 10
251.741402
 20
-110.279055
 30
0.0
 11
250.927086
 21
-113.406710
 31
0.0
  0
LINE
  8
0
  6
BYLAYER
 62
     1
 10
254.181527
 20
-116.280748
 30
0.0
 11
252.716317
 21
-116.280748
 31
0.0
  0
LINE
  8
0
  6
BYLAYER
 62
     1
 10
252.716317
 20
-116.280748
 30
0.0
 11
252.716317
 21
-112.814989
 31
0.0
  0
LINE
  8
0
  6
BYLAYER
 62
     1
 10
251.561074
 20
-116.280748
 30
0.0
 11
252.716317
 21
-112.814989
 31
0.0
  0
LINE
  8
0
  6
BYLAYER
 62
     1
 10
251.561074
 20
-116.280748
 30
0.0
 11
250.293099
 21
-116.280748
 31
0.0
  0
LINE
  8
0
  6
BYLAYER
 62
     1
 10
275.652367
 20
-116.280748
 30
0.0
 11
277.934685
 21
-110.279055
 31
0.0
  0
LINE
  8
0
  6
BYLAYER
 62
     1
 10
275.652367
 20
-116.280748
 30
0.0
 11
277.596581
 21
-116.280748
 31
0.0
  0
LINE
  8
0
  6
BYLAYER
 62
     1
 10
277.934685
 20
-110.279055
 30
0.0
 11
279.794365
 21
-110.279055
 31
0.0
  0
LINE
  8
0
  6
BYLAYER
 62
     1
 10
277.596581
 20
-116.280748
 30
0.0
 11
277.884758
 21
-115.435442
 31
0.0
  0
LINE
  8
0
  6
BYLAYER
 62
     1
 10
278.345818
 20
-114.082949
 30
0.0
 11
278.864525
 21
-112.561388
 31
0.0
  0
LINE
  8
0
  6
BYLAYER
 62
     1
 10
282.076714
 20
-116.280748
 30
0.0
 11
279.794365
 21
-110.279055
 31
0.0
  0
LINE
  8
0
  6
BYLAYER
 62
     1
 10
282.076714
 20
-116.280748
 30
0.0
 11
280.132500
 21
-116.280748
 31
0.0
  0
LINE
  8
0
  6
BYLAYER
 62
     1
 10
279.844323
 20
-115.435442
 30
0.0
 11
277.884758
 21
-115.435442
 31
0.0
  0
LINE
  8
0
  6
BYLAYER
 62
     1
 10
279.383233
 20
-114.082949
 30
0.0
 11
278.345818
 21
-114.082949
 31
0.0
  0
LINE
  8
0
  6
BYLAYER
 62
     1
 10
280.132500
 20
-116.280748
 30
0.0
 11
279.844323
 21
-115.435442
 31
0.0
  0
LINE
  8
0
  6
BYLAYER
 62
     1
 10
279.383233
 20
-114.082949
 30
0.0
 11
278.864525
 21
-112.561388
 31
0.0
  0
LINE
  8
0
  6
BYLAYER
 62
     1
 10
260.521340
 20
-111.758348
 30
0.0
 11
262.211953
 21
-111.758348
 31
0.0
  0
LINE
  8
0
  6
BYLAYER
 62
     1
 10
262.211953
 20
-111.758348
 30
0.0
 11
262.211953
 21
-116.280748
 31
0.0
  0
LINE
  8
0
  6
BYLAYER
 62
     1
 10
262.211953
 20
-116.280748
 30
0.0
 11
264.071648
 21
-116.280748
 31
0.0
  0
LINE
  8
0
  6
BYLAYER
 62
     1
 10
264.071648
 20
-116.280748
 30
0.0
 11
264.071648
 21
-111.758348
 31
0.0
  0
LINE
  8
0
  6
BYLAYER
 62
     1
 10
264.071648
 20
-111.758348
 30
0.0
 11
265.762261
 21
-111.758348
 31
0.0
  0
LINE
  8
0
  6
BYLAYER
 62
     1
 10
265.762261
 20
-111.758348
 30
0.0
 11
265.762261
 21
-110.279055
 31
0.0
  0
LINE
  8
0
  6
BYLAYER
 62
     1
 10
265.762261
 20
-110.279055
 30
0.0
 11
260.521340
 21
-110.279055
 31
0.0
  0
LINE
  8
0
  6
BYLAYER
 62
     1
 10
260.521340
 20
-110.279055
 30
0.0
 11
260.521340
 21
-111.758348
 31
0.0
  0
ARC
  8
0
  6
BYLAYER
 62
     1
 10
268.763100
 20
-113.618382
 30
0.0
 40
2.873701
 50
270.0
 51
308.795693
  0
ARC
  8
0
  6
BYLAYER
 62
     1
 10
268.484972
 20
-113.322176
 30
0.0
 40
3.278967
 50
309.340576
 51
360.000000
  0
ARC
  8
0
  6
BYLAYER
 62
     1
 10
268.484983
 20
-113.322176
 30
0.0
 40
3.278957
 50
0.0
 51
50.659649
  0
ARC
  8
0
  6
BYLAYER
 62
     1
 10
268.763085
 20
-113.025996
 30
0.0
 40
2.873727
 50
51.204489
 51
90.000000
  0
ARC
  8
0
  6
BYLAYER
 62
     1
 10
268.763085
 20
-113.025970
 30
0.0
 40
2.873701
 50
90.0
 51
128.795693
  0
ARC
  8
0
  6
BYLAYER
 62
     1
 10
269.041213
 20
-113.322176
 30
0.0
 40
3.278967
 50
129.340576
 51
180.000000
  0
ARC
  8
0
  6
BYLAYER
 62
     1
 10
269.041202
 20
-113.322176
 30
0.0
 40
3.278957
 50
180.000000
 51
230.659649
  0
ARC
  8
0
  6
BYLAYER
 62
     1
 10
268.763100
 20
-113.618356
 30
0.0
 40
2.873727
 50
231.204489
 51
270.000000
  0
ARC
  8
0
  6
BYLAYER
 62
     1
 10
268.763085
 20
-112.479025
 30
0.0
 40
1.329747
 50
90.0
 51
140.793201
  0
ARC
  8
0
  6
BYLAYER
 62
     1
 10
269.796639
 20
-113.322176
 30
0.0
 40
2.663590
 50
140.793201
 51
180.0
  0
ARC
  8
0
  6
BYLAYER
 62
     1
 10
269.796606
 20
-113.322176
 30
0.0
 40
2.663556
 50
180.000000
 51
219.207055
  0
ARC
  8
0
  6
BYLAYER
 62
     1
 10
268.763100
 20
-114.165294
 30
0.0
 40
1.329771
 50
219.207055
 51
270.000000
  0
ARC
  8
0
  6
BYLAYER
 62
     1
 10
268.763100
 20
-114.165316
 30
0.0
 40
1.329750
 50
270.0
 51
320.793131
  0
ARC
  8
0
  6
BYLAYER
 62
     1
 10
267.729561
 20
-113.322176
 30
0.0
 40
2.663574
 50
320.793131
 51
360.0
  0
ARC
  8
0
  6
BYLAYER
 62
     1
 10
267.729563
 20
-113.322176
 30
0.0
 40
2.663572
 50
0.0
 51
39.206985
  0
ARC
  8
0
  6
BYLAYER
 62
     1
 10
268.763085
 20
-112.479046
 30
0.0
 40
1.329768
 50
39.206985
 51
90.000000
  0
LINE
  8
0
  6
BYLAYER
 62
     1
 10
282.238701
 20
-116.280748
 30
0.0
 11
282.238701
 21
-110.279055
 31
0.0
  0
LINE
  8
0
  6
BYLAYER
 62
     1
 10
282.238701
 20
-110.279055
 30
0.0
 11
285.958046
 21
-110.279055
 31
0.0
  0
ARC
  8
0
  6
BYLAYER
 62
     1
 10
285.958046
 20
-111.969683
 30
0.0
 40
1.690610
 50
287.134650
 51
450.000006
  0
ARC
  8
0
  6
BYLAYER
 62
     1
 10
286.296181
 20
-114.928255
 30
0.0
 40
1.352493
 50
0.0
 51
83.207557
  0
LINE
  8
0
  6
BYLAYER
 62
     1
 10
287.648674
 20
-114.928255
 30
0.0
 11
287.648674
 21
-115.773561
 31
0.0
  0
ARC
  8
0
  6
BYLAYER
 62
     1
 10
289.001168
 20
-115.773561
 30
0.0
 40
1.352493
 50
180.000000
 51
202.024314
  0
LINE
  8
0
  6
BYLAYER
 62
     1
 10
285.887688
 20
-116.280748
 30
0.0
 11
287.747368
 21
-116.280748
 31
0.0
  0
ARC
  8
0
  6
BYLAYER
 62
     1
 10
287.141488
 20
-115.773561
 30
0.0
 40
1.352493
 50
180.000000
 51
202.024314
  0
LINE
  8
0
  6
BYLAYER
 62
     1
 10
285.788994
 20
-115.773561
 30
0.0
 11
285.788994
 21
-115.097322
 31
0.0
  0
LINE
  8
0
  6
BYLAYER
 62
     1
 10
282.238701
 20
-116.280748
 30
0.0
 11
284.013848
 21
-116.280748
 31
0.0
  0
LINE
  8
0
  6
BYLAYER
 62
     1
 10
284.013848
 20
-116.280748
 30
0.0
 11
284.013848
 21
-114.252016
 31
0.0
  0
LINE
  8
0
  6
BYLAYER
 62
     1
 10
284.943688
 20
-114.252016
 30
0.0
 11
284.013848
 21
-114.252016
 31
0.0
  0
ARC
  8
0
  6
BYLAYER
 62
     1
 10
284.943688
 20
-115.097322
 30
0.0
 40
0.845306
 50
0.0
 51
90.000003
  0
LINE
  8
0
  6
BYLAYER
 62
     1
 10
284.013848
 20
-112.899523
 30
0.0
 11
284.013848
 21
-111.631548
 31
0.0
  0
LINE
  8
0
  6
BYLAYER
 62
     1
 10
284.013848
 20
-111.631548
 30
0.0
 11
285.197274
 21
-111.631548
 31
0.0
  0
LINE
  8
0
  6
BYLAYER
 62
     1
 10
284.013848
 20
-112.899523
 30
0.0
 11
285.197274
 21
-112.899523
 31
0.0
  0
ARC
  8
0
  6
BYLAYER
 62
     1
 10
285.197274
 20
-112.265535
 30
0.0
 40
0.633987
 50
270.0
 51
450.000005
  0
LINE
  8
0
  6
BYLAYER
 62
     1
 10
274.173089
 20
-114.382952
 30
0.0
 11
273.074181
 21
-110.279055
 31
0.0
  0
LINE
  8
0
  6
BYLAYER
 62
     1
 10
273.074181
 20
-110.279055
 30
0.0
 11
271.299035
 21
-110.279055
 31
0.0
  0
LINE
  8
0
  6
BYLAYER
 62
     1
 10
271.299035
 20
-110.279055
 30
0.0
 11
273.158715
 21
-116.280748
 31
0.0
  0
LINE
  8
0
  6
BYLAYER
 62
     1
 10
274.173089
 20
-114.382952
 30
0.0
 11
275.271965
 21
-110.279055
 31
0.0
  0
LINE
  8
0
  6
BYLAYER
 62
     1
 10
275.271965
 20
-110.279055
 30
0.0
 11
277.047112
 21
-110.279055
 31
0.0
  0
LINE
  8
0
  6
BYLAYER
 62
     1
 10
277.047112
 20
-110.279055
 30
0.0
 11
275.187432
 21
-116.280748
 31
0.0
  0
LINE
  8
0
  6
BYLAYER
 62
     1
 10
275.187432
 20
-116.280748
 30
0.0
 11
273.158715
 21
-116.280748
 31
0.0
  0
LINE
  8
0
  6
BYLAYER
 62
     1
 10
287.909356
 20
-116.280748
 30
0.0
 11
289.684502
 21
-116.280748
 31
0.0
  0
LINE
  8
0
  6
BYLAYER
 62
     1
 10
289.684502
 20
-116.280748
 30
0.0
 11
289.684502
 21
-110.279055
 31
0.0
  0
LINE
  8
0
  6
BYLAYER
 62
     1
 10
289.684502
 20
-110.279055
 30
0.0
 11
287.909356
 21
-110.279055
 31
0.0
  0
LINE
  8
0
  6
BYLAYER
 62
     1
 10
287.909356
 20
-110.279055
 30
0.0
 11
287.909356
 21
-116.280748
 31
0.0
  0
ARC
  8
0
  6
BYLAYER
 62
     1
 10
293.023476
 20
-113.618382
 30
0.0
 40
2.873701
 50
270.0
 51
308.795693
  0
ARC
  8
0
  6
BYLAYER
 62
     1
 10
292.745348
 20
-113.322176
 30
0.0
 40
3.278967
 50
309.340576
 51
360.000000
  0
ARC
  8
0
  6
BYLAYER
 62
     1
 10
292.745348
 20
-113.322176
 30
0.0
 40
3.278967
 50
0.0
 51
50.659424
  0
ARC
  8
0
  6
BYLAYER
 62
     1
 10
293.023476
 20
-113.025970
 30
0.0
 40
2.873701
 50
51.204307
 51
90.000000
  0
ARC
  8
0
  6
BYLAYER
 62
     1
 10
293.023476
 20
-113.025970
 30
0.0
 40
2.873701
 50
90.0
 51
128.795693
  0
ARC
  8
0
  6
BYLAYER
 62
     1
 10
293.301604
 20
-113.322176
 30
0.0
 40
3.278967
 50
129.340576
 51
180.000000
  0
ARC
  8
0
  6
BYLAYER
 62
     1
 10
293.301604
 20
-113.322176
 30
0.0
 40
3.278967
 50
180.000000
 51
230.659424
  0
ARC
  8
0
  6
BYLAYER
 62
     1
 10
293.023476
 20
-113.618382
 30
0.0
 40
2.873701
 50
231.204307
 51
270.000000
  0
ARC
  8
0
  6
BYLAYER
 62
     1
 10
293.023476
 20
-112.479025
 30
0.0
 40
1.329747
 50
39.206799
 51
90.0
  0
ARC
  8
0
  6
BYLAYER
 62
     1
 10
291.989921
 20
-113.322176
 30
0.0
 40
2.663590
 50
0.0
 51
39.206799
  0
ARC
  8
0
  6
BYLAYER
 62
     1
 10
291.989937
 20
-113.322176
 30
0.0
 40
2.663574
 50
320.793131
 51
360.0
  0
ARC
  8
0
  6
BYLAYER
 62
     1
 10
293.023476
 20
-114.165316
 30
0.0
 40
1.329750
 50
270.0
 51
320.793131
  0
ARC
  8
0
  6
BYLAYER
 62
     1
 10
293.023476
 20
-114.165316
 30
0.0
 40
1.329750
 50
219.206869
 51
270.000000
  0
ARC
  8
0
  6
BYLAYER
 62
     1
 10
294.057015
 20
-113.322176
 30
0.0
 40
2.663574
 50
180.000000
 51
219.206869
  0
ARC
  8
0
  6
BYLAYER
 62
     1
 10
294.057031
 20
-113.322176
 30
0.0
 40
2.663590
 50
140.793201
 51
180.0
  0
ARC
  8
0
  6
BYLAYER
 62
     1
 10
293.023476
 20
-112.479025
 30
0.0
 40
1.329747
 50
90.0
 51
140.793201
  0
ARC
  8
0
  6
BYLAYER
 62
     1
 10
263.051613
 20
-103.408327
 30
0.0
 40
7.429995
 50
174.535650
 51
180.000000
  0
LINE
  8
0
  6
BYLAYER
 62
     1
 10
255.655381
 20
-102.700792
 30
0.0
 11
255.655381
 21
-102.700785
 31
0.0
  0
LINE
  8
0
  6
BYLAYER
 62
     1
 10
255.663466
 20
-102.620862
 30
0.0
 11
256.372568
 21
-102.322319
 31
0.0
  0
ARC
  8
0
  6
BYLAYER
 62
     1
 10
263.051644
 20
-103.408388
 30
0.0
 40
6.766781
 50
159.235383
 51
170.763998
  0
LINE
  8
0
  6
BYLAYER
 62
     1
 10
256.724369
 20
-101.009323
 30
0.0
 11
256.259570
 21
-100.396209
 31
0.0
  0
ARC
  8
0
  6
BYLAYER
 62
     1
 10
263.051613
 20
-103.408327
 30
0.0
 40
7.429986
 50
144.139514
 51
156.083795
  0
LINE
  8
0
  6
BYLAYER
 62
     1
 10
256.981148
 20
-99.124132
 30
0.0
 11
256.981591
 21
-99.123506
 31
0.0
  0
LINE
  8
0
  6
BYLAYER
 62
     1
 10
257.030012
 20
-99.055740
 30
0.0
 11
257.784937
 21
-99.159604
 31
0.0
  0
ARC
  8
0
  6
BYLAYER
 62
     1
 10
263.051613
 20
-103.408327
 30
0.0
 40
6.766741
 50
129.235643
 51
141.105976
  0
LINE
  8
0
  6
BYLAYER
 62
     1
 10
258.660927
 20
-98.259470
 30
0.0
 11
258.661660
 21
-98.258837
 31
0.0
  0
LINE
  8
0
  6
BYLAYER
 62
     1
 10
258.771574
 20
-98.167140
 30
0.0
 11
258.675580
 21
-97.403734
 31
0.0
  0
ARC
  8
0
  6
BYLAYER
 62
     1
 10
263.051613
 20
-103.408327
 30
0.0
 40
7.429994
 50
114.139607
 51
126.083853
  0
LINE
  8
0
  6
BYLAYER
 62
     1
 10
259.937066
 20
-96.662630
 30
0.0
 11
259.937569
 21
-96.662394
 31
0.0
  0
LINE
  8
0
  6
BYLAYER
 62
     1
 10
260.013033
 20
-96.628073
 30
0.0
 11
260.614862
 21
-97.095468
 31
0.0
  0
LINE
  8
0
  6
BYLAYER
 62
     1
 10
260.752465
 20
-97.044146
 30
0.0
 11
260.753228
 21
-97.043878
 31
0.0
  0
ARC
  8
0
  6
BYLAYER
 62
     1
 10
263.051613
 20
-103.408327
 30
0.0
 40
6.766738
 50
99.235601
 51
111.106038
  0
ARC
  8
0
  6
BYLAYER
 62
     1
 10
263.051613
 20
-103.408327
 30
0.0
 40
7.429995
 50
90.0
 51
96.083892
  0
LINE
  8
0
  6
BYLAYER
 62
     1
 10
262.264149
 20
-96.020179
 30
0.0
 11
261.965589
 21
-96.729308
 31
0.0
  0
LINE
  8
0
  6
BYLAYER
 62
     1
 10
270.447838
 20
-102.700792
 30
0.0
 11
270.447838
 21
-102.700785
 31
0.0
  0
LINE
  8
0
  6
BYLAYER
 62
     1
 10
270.439761
 20
-102.620861
 30
0.0
 11
269.730622
 21
-102.322312
 31
0.0
  0
ARC
  8
0
  6
BYLAYER
 62
     1
 10
263.051568
 20
-103.408388
 30
0.0
 40
6.766781
 50
9.235986
 51
20.764650
  0
LINE
  8
0
  6
BYLAYER
 62
     1
 10
269.378891
 20
-101.009252
 30
0.0
 11
269.843657
 21
-100.396211
 31
0.0
  0
ARC
  8
0
  6
BYLAYER
 62
     1
 10
263.051613
 20
-103.408327
 30
0.0
 40
7.429986
 50
23.916189
 51
35.860484
  0
LINE
  8
0
  6
BYLAYER
 62
     1
 10
269.122063
 20
-99.124132
 30
0.0
 11
269.121621
 21
-99.123506
 31
0.0
  0
LINE
  8
0
  6
BYLAYER
 62
     1
 10
269.073215
 20
-99.055740
 30
0.0
 11
268.318343
 21
-99.159594
 31
0.0
  0
ARC
  8
0
  6
BYLAYER
 62
     1
 10
263.051613
 20
-103.408327
 30
0.0
 40
6.766741
 50
38.894050
 51
50.764315
  0
LINE
  8
0
  6
BYLAYER
 62
     1
 10
267.442299
 20
-98.259470
 30
0.0
 11
267.441567
 21
-98.258837
 31
0.0
  0
LINE
  8
0
  6
BYLAYER
 62
     1
 10
267.331673
 20
-98.167018
 30
0.0
 11
267.427631
 21
-97.403722
 31
0.0
  0
ARC
  8
0
  6
BYLAYER
 62
     1
 10
263.051613
 20
-103.408327
 30
0.0
 40
7.429994
 50
53.916300
 51
65.860381
  0
LINE
  8
0
  6
BYLAYER
 62
     1
 10
266.166161
 20
-96.662630
 30
0.0
 11
266.165642
 21
-96.662394
 31
0.0
  0
LINE
  8
0
  6
BYLAYER
 62
     1
 10
266.090195
 20
-96.628074
 30
0.0
 11
265.488372
 21
-97.095447
 31
0.0
  0
LINE
  8
0
  6
BYLAYER
 62
     1
 10
265.350747
 20
-97.044146
 30
0.0
 11
265.349999
 21
-97.043878
 31
0.0
  0
ARC
  8
0
  6
BYLAYER
 62
     1
 10
263.051613
 20
-103.408327
 30
0.0
 40
6.766738
 50
68.894081
 51
80.764578
  0
ARC
  8
0
  6
BYLAYER
 62
     1
 10
263.051613
 20
-103.408327
 30
0.0
 40
7.429995
 50
84.535428
 51
90.000003
  0
LINE
  8
0
  6
BYLAYER
 62
     1
 10
263.839080
 20
-96.020180
 30
0.0
 11
264.137567
 21
-96.729187
 31
0.0
  0
ARC
  8
0
  6
BYLAYER
 62
     1
 10
263.051613
 20
-103.408327
 30
0.0
 40
7.429995
 50
180.000000
 51
186.083899
  0
LINE
  8
0
  6
BYLAYER
 62
     1
 10
255.655381
 20
-104.115854
 30
0.0
 11
255.655381
 21
-104.115869
 31
0.0
  0
LINE
  8
0
  6
BYLAYER
 62
     1
 10
255.663466
 20
-104.195792
 30
0.0
 11
256.372590
 21
-104.494344
 31
0.0
  0
ARC
  8
0
  6
BYLAYER
 62
     1
 10
263.051644
 20
-103.408266
 30
0.0
 40
6.766781
 50
189.236002
 51
200.764629
  0
LINE
  8
0
  6
BYLAYER
 62
     1
 10
256.724394
 20
-105.807301
 30
0.0
 11
256.259568
 21
-106.420439
 31
0.0
  0
ARC
  8
0
  6
BYLAYER
 62
     1
 10
263.051613
 20
-103.408327
 30
0.0
 40
7.429986
 50
203.916158
 51
215.860410
  0
LINE
  8
0
  6
BYLAYER
 62
     1
 10
256.981148
 20
-107.692514
 30
0.0
 11
256.981591
 21
-107.693140
 31
0.0
  0
LINE
  8
0
  6
BYLAYER
 62
     1
 10
257.030006
 20
-107.760906
 30
0.0
 11
257.785002
 21
-107.657043
 31
0.0
  0
ARC
  8
0
  6
BYLAYER
 62
     1
 10
263.051613
 20
-103.408327
 30
0.0
 40
6.766741
 50
218.894045
 51
230.764345
  0
LINE
  8
0
  6
BYLAYER
 62
     1
 10
258.660927
 20
-108.557177
 30
0.0
 11
258.661660
 21
-108.557810
 31
0.0
  0
LINE
  8
0
  6
BYLAYER
 62
     1
 10
258.771572
 20
-108.649513
 30
0.0
 11
258.675580
 21
-109.412921
 31
0.0
  0
ARC
  8
0
  6
BYLAYER
 62
     1
 10
263.051613
 20
-103.408327
 30
0.0
 40
7.429994
 50
233.916148
 51
245.860401
  0
LINE
  8
0
  6
BYLAYER
 62
     1
 10
259.937066
 20
-110.154016
 30
0.0
 11
259.937569
 21
-110.154261
 31
0.0
  0
LINE
  8
0
  6
BYLAYER
 62
     1
 10
260.013034
 20
-110.188581
 30
0.0
 11
260.614933
 21
-109.721121
 31
0.0
  0
LINE
  8
0
  6
BYLAYER
 62
     1
 10
260.752465
 20
-109.772501
 30
0.0
 11
260.753228
 21
-109.772776
 31
0.0
  0
LINE
  8
0
  6
BYLAYER
 62
     1
 10
270.447838
 20
-104.115854
 30
0.0
 11
270.447838
 21
-104.115869
 31
0.0
  0
LINE
  8
0
  6
BYLAYER
 62
     1
 10
270.439760
 20
-104.195794
 30
0.0
 11
269.730622
 21
-104.494342
 31
0.0
  0
LINE
  8
0
  6
BYLAYER
 62
     1
 10
269.378826
 20
-105.807318
 30
0.0
 11
269.843665
 21
-106.420444
 31
0.0
  0
LINE
  8
0
  6
BYLAYER
 62
     1
 10
269.122063
 20
-107.692514
 30
0.0
 11
269.121621
 21
-107.693140
 31
0.0
  0
LINE
  8
0
  6
BYLAYER
 62
     1
 10
269.073229
 20
-107.760907
 30
0.0
 11
268.318184
 21
-107.657040
 31
0.0
  0
LINE
  8
0
  6
BYLAYER
 62
     1
 10
267.442299
 20
-108.557177
 30
0.0
 11
267.441567
 21
-108.557810
 31
0.0
  0
LINE
  8
0
  6
BYLAYER
 62
     1
 10
267.331658
 20
-108.649510
 30
0.0
 11
267.427631
 21
-109.412932
 31
0.0
  0
LINE
  8
0
  6
BYLAYER
 62
     1
 10
266.090194
 20
-110.188580
 30
0.0
 11
265.488280
 21
-109.721126
 31
0.0
  0
ARC
  8
0
  6
BYLAYER
 62
     1
 10
263.051613
 20
-103.408327
 30
0.0
 40
6.766741
 50
309.235697
 51
321.105929
  0
ARC
  8
0
  6
BYLAYER
 62
     1
 10
263.051613
 20
-103.408327
 30
0.0
 40
6.766738
 50
248.893873
 51
270.000000
  0
ARC
  8
0
  6
BYLAYER
 62
     1
 10
263.051613
 20
-103.408327
 30
0.0
 40
7.429994
 50
294.783232
 51
306.083699
  0
LINE
  8
0
  6
BYLAYER
 62
     1
 10
266.165642
 20
-110.154261
 30
0.0
 11
266.090652
 21
-110.189550
 31
0.0
  0
ARC
  8
0
  6
BYLAYER
 62
     1
 10
263.051613
 20
-103.408327
 30
0.0
 40
7.429986
 50
324.139593
 51
336.083825
  0
ARC
  8
0
  6
BYLAYER
 62
     1
 10
263.051568
 20
-103.408266
 30
0.0
 40
6.766781
 50
339.235210
 51
350.764014
  0
ARC
  8
0
  6
BYLAYER
 62
     1
 10
263.051613
 20
-103.408327
 30
0.0
 40
7.429995
 50
353.916089
 51
360.000000
  0
ARC
  8
0
  6
BYLAYER
 62
     1
 10
263.051613
 20
-103.408327
 30
0.0
 40
7.429995
 50
0.0
 51
6.083907
  0
ARC
  8
0
  6
BYLAYER
 62
     1
 10
263.051613
 20
-103.408327
 30
0.0
 40
6.766738
 50
270.0
 51
291.106008
  0
CIRCLE
  8
0
  6
BYLAYER
 62
     1
 10
263.051613
 20
-103.408327
 30
0.0
 40
3.630081
  0
CIRCLE
  8
0
  6
BYLAYER
 62
     1
 10
263.051613
 20
-103.408327
 30
0.0
 40
5.296032
  0
LINE
  8
0
  6
BYLAYER
 62
     1
 10
272.460751
 20
-217.687713
 30
0.0
 11
272.460751
 21
-212.687713
 31
0.0
  0
LINE
  8
0
  6
BYLAYER
 62
     1
 10
272.460751
 20
-217.687713
 30
0.0
 11
267.460751
 21
-217.687713
 31
0.0
  0
LINE
  8
0
  6
BYLAYER
 62
     1
 10
272.460751
 20
-217.687713
 30
0.0
 11
272.460751
 21
-222.687713
 31
0.0
  0
LINE
  8
0
  6
BYLAYER
 62
     1
 10
272.460751
 20
-217.687713
 30
0.0
 11
277.460751
 21
-217.687713
 31
0.0
  0
LINE
  8
0
  6
BYLAYER
 62
     1
 10
1087.460751
 20
-582.687713
 30
0.0
 11
1059.460751
 21
-582.687713
 31
0.0
  0
LINE
  8
0
  6
BYLAYER
 62
     1
 10
1087.460751
 20
-632.687713
 30
0.0
 11
1087.460751
 21
-582.687713
 31
0.0
  0
LINE
  8
0
  6
BYLAYER
 62
     1
 10
1087.460751
 20
-632.687713
 30
0.0
 11
1085.960751
 21
-634.187652
 31
0.0
  0
LINE
  8
0
  6
BYLAYER
 62
     1
 10
957.460751
 20
-582.687713
 30
0.0
 11
985.460751
 21
-582.687713
 31
0.0
  0
LINE
  8
0
  6
BYLAYER
 62
     1
 10
957.460751
 20
-632.687713
 30
0.0
 11
957.460751
 21
-582.687713
 31
0.0
  0
LINE
  8
0
  6
BYLAYER
 62
     1
 10
957.460751
 20
-632.687713
 30
0.0
 11
958.960751
 21
-634.187652
 31
0.0
  0
LINE
  8
0
  6
BYLAYER
 62
     1
 10
1087.460751
 20
-820.687713
 30
0.0
 11
1059.460751
 21
-820.687713
 31
0.0
  0
LINE
  8
0
  6
BYLAYER
 62
     1
 10
1087.460751
 20
-770.687713
 30
0.0
 11
1087.460751
 21
-820.687713
 31
0.0
  0
LINE
  8
0
  6
BYLAYER
 62
     1
 10
1087.460751
 20
-770.687713
 30
0.0
 11
1085.960751
 21
-769.187713
 31
0.0
  0
LINE
  8
0
  6
BYLAYER
 62
     1
 10
1085.960751
 20
-634.187652
 30
0.0
 11
1085.960751
 21
-769.187713
 31
0.0
  0
LINE
  8
0
  6
BYLAYER
 62
     1
 10
957.460751
 20
-820.687713
 30
0.0
 11
985.460751
 21
-820.687713
 31
0.0
  0
LINE
  8
0
  6
BYLAYER
 62
     1
 10
957.460751
 20
-820.687713
 30
0.0
 11
957.460751
 21
-770.687713
 31
0.0
  0
LINE
  8
0
  6
BYLAYER
 62
     1
 10
1059.460751
 20
-584.187713
 30
0.0
 11
985.460751
 21
-584.187713
 31
0.0
  0
LINE
  8
0
  6
BYLAYER
 62
     1
 10
1059.460751
 20
-769.187713
 30
0.0
 11
1085.960751
 21
-769.187713
 31
0.0
  0
LINE
  8
0
  6
BYLAYER
 62
     1
 10
1059.460751
 20
-770.687713
 30
0.0
 11
1087.460751
 21
-770.687713
 31
0.0
  0
LINE
  8
0
  6
BYLAYER
 62
     1
 10
985.460751
 20
-770.687713
 30
0.0
 11
957.460751
 21
-770.687713
 31
0.0
  0
LINE
  8
0
  6
BYLAYER
 62
     1
 10
1059.460751
 20
-634.187652
 30
0.0
 11
1085.960751
 21
-634.187652
 31
0.0
  0
LINE
  8
0
  6
BYLAYER
 62
     1
 10
985.460751
 20
-769.187713
 30
0.0
 11
958.960751
 21
-769.187713
 31
0.0
  0
LINE
  8
0
  6
BYLAYER
 62
     1
 10
958.960751
 20
-634.187652
 30
0.0
 11
985.460751
 21
-634.187652
 31
0.0
  0
CIRCLE
  8
0
  6
BYLAYER
 62
     1
 10
972.460751
 20
-787.687713
 30
0.0
 40
6.5
  0
CIRCLE
  8
0
  6
BYLAYER
 62
     1
 10
972.460751
 20
-615.687713
 30
0.0
 40
6.5
  0
CIRCLE
  8
0
  6
BYLAYER
 62
     1
 10
1072.460751
 20
-615.687713
 30
0.0
 40
6.5
  0
CIRCLE
  8
0
  6
BYLAYER
 62
     1
 10
1049.684262
 20
-654.911376
 30
0.0
 40
3.525002
  0
CIRCLE
  8
0
  6
BYLAYER
 62
     1
 10
1049.684384
 20
-600.464141
 30
0.0
 40
3.525002
  0
CIRCLE
  8
0
  6
BYLAYER
 62
     1
 10
995.237240
 20
-600.464019
 30
0.0
 40
3.525002
  0
CIRCLE
  8
0
  6
BYLAYER
 62
     1
 10
995.237118
 20
-654.911254
 30
0.0
 40
3.525002
  0
LINE
  8
0
  6
BYLAYER
 62
     1
 10
984.602475
 20
-632.687713
 30
0.0
 11
957.460751
 21
-632.687713
 31
0.0
  0
ARC
  8
0
  6
BYLAYER
 62
     1
 10
984.602475
 20
-634.687713
 30
0.0
 40
2.000000
 50
10.476094
 51
90.0
  0
LINE
  8
0
  6
BYLAYER
 62
     1
 10
1060.319027
 20
-632.687713
 30
0.0
 11
1087.460751
 21
-632.687713
 31
0.0
  0
ARC
  8
0
  6
BYLAYER
 62
     1
 10
1060.319027
 20
-634.687713
 30
0.0
 40
2.000012
 50
90.0
 51
169.524063
  0
LINE
  8
0
  6
BYLAYER
 62
     1
 10
985.460751
 20
-632.881225
 30
0.0
 11
985.460751
 21
-820.687713
 31
0.0
  0
CIRCLE
  8
0
  6
BYLAYER
 62
     1
 10
1072.460751
 20
-787.687713
 30
0.0
 40
6.5
  0
LINE
  8
0
  6
BYLAYER
 62
     1
 10
1059.460751
 20
-632.881225
 30
0.0
 11
1059.460751
 21
-820.687713
 31
0.0
  0
LINE
  8
0
  6
BYLAYER
 62
     1
 10
957.461056
 20
-770.687499
 30
0.0
 11
958.960751
 21
-769.187713
 31
0.0
  0
LINE
  8
0
  6
BYLAYER
 62
     1
 10
958.960751
 20
-634.187652
 30
0.0
 11
958.960751
 21
-769.187713
 31
0.0
  0
LINE
  8
0
  6
BYLAYER
 62
     1
 10
957.460751
 20
-770.687713
 30
0.0
 11
958.960751
 21
-769.187774
 31
0.0
  0
ARC
  8
0
  6
BYLAYER
 62
     1
 10
1022.460751
 20
-627.687713
 30
0.0
 40
36.499996
 50
59.173767
 51
121.575305
  0
ARC
  8
0
  6
BYLAYER
 62
     1
 10
1002.301449
 20
-594.887512
 30
0.0
 40
2.000008
 50
218.287737
 51
301.575200
  0
LINE
  8
0
  6
BYLAYER
 62
     1
 10
985.460751
 20
-595.933441
 30
0.0
 11
985.460751
 21
-582.687713
 31
0.0
  0
ARC
  8
0
  6
BYLAYER
 62
     1
 10
995.237240
 20
-600.464019
 30
0.0
 40
7.000019
 50
38.287800
 51
149.774970
  0
ARC
  8
0
  6
BYLAYER
 62
     1
 10
987.460751
 20
-595.933441
 30
0.0
 40
2.000039
 50
180.000000
 51
329.774833
  0
ARC
  8
0
  6
BYLAYER
 62
     1
 10
1049.684262
 20
-600.464019
 30
0.0
 40
6.999995
 50
30.225035
 51
141.712205
  0
ARC
  8
0
  6
BYLAYER
 62
     1
 10
1042.620083
 20
-594.887512
 30
0.0
 40
2.000008
 50
238.424801
 51
321.712264
  0
ARC
  8
0
  6
BYLAYER
 62
     1
 10
1057.460751
 20
-595.933441
 30
0.0
 40
2.000013
 50
210.225163
 51
359.999983
  0
LINE
  8
0
  6
BYLAYER
 62
     1
 10
1059.460751
 20
-582.687713
 30
0.0
 11
1059.460751
 21
-595.933441
 31
0.0
  0
ARC
  8
0
  6
BYLAYER
 62
     1
 10
1002.301449
 20
-660.487914
 30
0.0
 40
2.000008
 50
58.424803
 51
141.712259
  0
ARC
  8
0
  6
BYLAYER
 62
     1
 10
1022.460751
 20
-627.687713
 30
0.0
 40
36.500011
 50
238.424692
 51
301.575310
  0
ARC
  8
0
  6
BYLAYER
 62
     1
 10
1042.620083
 20
-660.487914
 30
0.0
 40
2.000013
 50
38.287746
 51
121.575195
  0
ARC
  8
0
  6
BYLAYER
 62
     1
 10
1022.460751
 20
-627.687713
 30
0.0
 40
36.500061
 50
328.424291
 51
349.524330
  0
ARC
  8
0
  6
BYLAYER
 62
     1
 10
1049.684262
 20
-654.911407
 30
0.0
 40
6.999995
 50
218.287805
 51
411.711659
  0
ARC
  8
0
  6
BYLAYER
 62
     1
 10
1055.260830
 20
-647.847289
 30
0.0
 40
1.999987
 50
148.424341
 51
231.711709
  0
ARC
  8
0
  6
BYLAYER
 62
     1
 10
1022.460751
 20
-627.687713
 30
0.0
 40
36.500046
 50
190.475671
 51
211.575696
  0
ARC
  8
0
  6
BYLAYER
 62
     1
 10
995.237240
 20
-654.911407
 30
0.0
 40
7.000019
 50
128.288151
 51
321.712210
  0
ARC
  8
0
  6
BYLAYER
 62
     1
 10
989.660702
 20
-647.847259
 30
0.0
 40
1.999961
 50
308.287743
 51
391.575657
  0
LINE
  8
0
  6
BYLAYER
 62
     1
 10
958.960751
 20
-637.565521
 30
0.0
 11
955.460751
 21
-637.687713
 31
0.0
  0
LINE
  8
0
  6
BYLAYER
 62
     1
 10
955.460751
 20
-717.687713
 30
0.0
 11
955.460751
 21
-637.687713
 31
0.0
  0
LINE
  8
0
  6
BYLAYER
 62
     1
 10
955.460751
 20
-717.687713
 30
0.0
 11
955.460751
 21
-797.687713
 31
0.0
  0
LINE
  8
0
  6
BYLAYER
 62
     1
 10
957.460751
 20
-797.757537
 30
0.0
 11
955.460751
 21
-797.687713
 31
0.0
  0
LINE
  8
0
  6
BYLAYER
 62
     1
 10
955.460751
 20
-662.687713
 30
0.0
 11
952.960751
 21
-662.687713
 31
0.0
  0
LINE
  8
0
  6
BYLAYER
 62
     1
 10
952.960751
 20
-662.687713
 30
0.0
 11
952.460751
 21
-663.187713
 31
0.0
  0
LINE
  8
0
  6
BYLAYER
 62
     1
 10
952.460751
 20
-663.187713
 30
0.0
 11
952.460751
 21
-717.687713
 31
0.0
  0
LINE
  8
0
  6
BYLAYER
 62
     1
 10
955.460751
 20
-772.687713
 30
0.0
 11
952.960751
 21
-772.687713
 31
0.0
  0
LINE
  8
0
  6
BYLAYER
 62
     1
 10
952.960751
 20
-772.687713
 30
0.0
 11
952.460751
 21
-772.187713
 31
0.0
  0
LINE
  8
0
  6
BYLAYER
 62
     1
 10
952.460751
 20
-772.187713
 30
0.0
 11
952.460751
 21
-717.687713
 31
0.0
  0
LINE
  8
0
  6
BYLAYER
 62
     1
 10
1085.960751
 20
-637.565521
 30
0.0
 11
1089.460751
 21
-637.687713
 31
0.0
  0
LINE
  8
0
  6
BYLAYER
 62
     1
 10
1089.460751
 20
-717.687713
 30
0.0
 11
1089.460751
 21
-637.687713
 31
0.0
  0
LINE
  8
0
  6
BYLAYER
 62
     1
 10
1089.460751
 20
-717.687713
 30
0.0
 11
1089.460751
 21
-797.687713
 31
0.0
  0
LINE
  8
0
  6
BYLAYER
 62
     1
 10
1087.460751
 20
-797.757537
 30
0.0
 11
1089.460751
 21
-797.687713
 31
0.0
  0
LINE
  8
0
  6
BYLAYER
 62
     1
 10
1089.460751
 20
-662.687713
 30
0.0
 11
1091.960751
 21
-662.687713
 31
0.0
  0
LINE
  8
0
  6
BYLAYER
 62
     1
 10
1091.960751
 20
-662.687713
 30
0.0
 11
1092.460751
 21
-663.187713
 31
0.0
  0
LINE
  8
0
  6
BYLAYER
 62
     1
 10
1092.460751
 20
-663.187713
 30
0.0
 11
1092.460751
 21
-717.687713
 31
0.0
  0
LINE
  8
0
  6
BYLAYER
 62
     1
 10
1089.460751
 20
-772.687713
 30
0.0
 11
1091.960751
 21
-772.687713
 31
0.0
  0
LINE
  8
0
  6
BYLAYER
 62
     1
 10
1091.960751
 20
-772.687713
 30
0.0
 11
1092.460751
 21
-772.187713
 31
0.0
  0
LINE
  8
0
  6
BYLAYER
 62
     1
 10
1092.460751
 20
-772.187713
 30
0.0
 11
1092.460751
 21
-717.687713
 31
0.0
  0
CIRCLE
  8
0
  6
BYLAYER
 62
     1
 10
1022.460751
 20
-627.687713
 30
0.0
 40
31.0
  0
LINE
  8
0
  6
BYLAYER
 62
     1
 10
1059.460751
 20
-815.687682
 30
0.0
 11
985.460751
 21
-815.687682
 31
0.0
  0
LINE
  8
0
  6
BYLAYER
 62
     1
 10
219.460690
 20
-782.687713
 30
0.0
 11
169.460690
 21
-782.687713
 31
0.0
  0
LINE
  8
0
  6
BYLAYER
 62
     1
 10
219.460690
 20
-782.687713
 30
0.0
 11
220.960690
 21
-781.187713
 31
0.0
  0
LINE
  8
0
  6
BYLAYER
 62
     1
 10
169.460690
 20
-652.687713
 30
0.0
 11
219.460690
 21
-652.687713
 31
0.0
  0
LINE
  8
0
  6
BYLAYER
 62
     1
 10
219.460690
 20
-754.687713
 30
0.0
 11
219.460690
 21
-782.687713
 31
0.0
  0
LINE
  8
0
  6
BYLAYER
 62
     1
 10
219.460690
 20
-680.687713
 30
0.0
 11
219.460690
 21
-652.687713
 31
0.0
  0
LINE
  8
0
  6
BYLAYER
 62
     1
 10
220.960690
 20
-680.687713
 30
0.0
 11
220.960690
 21
-654.187713
 31
0.0
  0
LINE
  8
0
  6
BYLAYER
 62
     1
 10
375.460690
 20
-652.687713
 30
0.0
 11
375.460690
 21
-680.687713
 31
0.0
  0
LINE
  8
0
  6
BYLAYER
 62
     1
 10
375.460690
 20
-652.687713
 30
0.0
 11
325.460751
 21
-652.687713
 31
0.0
  0
LINE
  8
0
  6
BYLAYER
 62
     1
 10
323.960751
 20
-680.687713
 30
0.0
 11
323.960751
 21
-654.187713
 31
0.0
  0
LINE
  8
0
  6
BYLAYER
 62
     1
 10
325.460751
 20
-680.687713
 30
0.0
 11
325.460751
 21
-652.687713
 31
0.0
  0
LINE
  8
0
  6
BYLAYER
 62
     1
 10
375.460690
 20
-782.687713
 30
0.0
 11
375.460690
 21
-754.687713
 31
0.0
  0
LINE
  8
0
  6
BYLAYER
 62
     1
 10
325.460751
 20
-782.687713
 30
0.0
 11
375.460690
 21
-782.687713
 31
0.0
  0
LINE
  8
0
  6
BYLAYER
 62
     1
 10
325.460751
 20
-754.687713
 30
0.0
 11
325.460751
 21
-782.687713
 31
0.0
  0
LINE
  8
0
  6
BYLAYER
 62
     1
 10
325.460751
 20
-782.687713
 30
0.0
 11
323.960751
 21
-781.187713
 31
0.0
  0
CIRCLE
  8
0
  6
BYLAYER
 62
     1
 10
342.460751
 20
-767.687713
 30
0.0
 40
6.5
  0
CIRCLE
  8
0
  6
BYLAYER
 62
     1
 10
342.460751
 20
-667.687713
 30
0.0
 40
6.5
  0
LINE
  8
0
  6
BYLAYER
 62
     1
 10
323.960751
 20
-781.187713
 30
0.0
 11
220.960690
 21
-781.187713
 31
0.0
  0
LINE
  8
0
  6
BYLAYER
 62
     1
 10
169.460690
 20
-652.687713
 30
0.0
 11
169.460690
 21
-782.687713
 31
0.0
  0
ARC
  8
0
  6
BYLAYER
 62
     1
 10
199.460690
 20
-752.687713
 30
0.0
 40
2.0
 50
180.000000
 51
269.999996
  0
ARC
  8
0
  6
BYLAYER
 62
     1
 10
199.460690
 20
-682.687713
 30
0.0
 40
1.999939
 50
90.0
 51
180.000003
  0
ARC
  8
0
  6
BYLAYER
 62
     1
 10
345.460751
 20
-752.687713
 30
0.0
 40
2.0
 50
270.0
 51
359.999982
  0
ARC
  8
0
  6
BYLAYER
 62
     1
 10
345.460751
 20
-682.687713
 30
0.0
 40
1.999939
 50
0.0
 51
90.000016
  0
LINE
  8
0
  6
BYLAYER
 62
     1
 10
375.460690
 20
-670.687774
 30
0.0
 11
377.460690
 21
-670.687774
 31
0.0
  0
LINE
  8
0
  6
BYLAYER
 62
     1
 10
375.460690
 20
-764.687713
 30
0.0
 11
377.460690
 21
-764.687713
 31
0.0
  0
LINE
  8
0
  6
BYLAYER
 62
     1
 10
377.460690
 20
-670.687774
 30
0.0
 11
377.460690
 21
-764.687713
 31
0.0
  0
CIRCLE
  8
0
  6
BYLAYER
 62
     1
 10
327.460690
 20
-717.687713
 30
0.0
 40
7.0
  0
ARC
  8
0
  6
BYLAYER
 62
     1
 10
198.460690
 20
-715.687713
 30
0.0
 40
1.000000
 50
180.000000
 51
269.999996
  0
ARC
  8
0
  6
BYLAYER
 62
     1
 10
198.460690
 20
-719.687713
 30
0.0
 40
1.000000
 50
90.0
 51
180.000003
  0
ARC
  8
0
  6
BYLAYER
 62
     1
 10
198.460690
 20
-705.687713
 30
0.0
 40
1.000000
 50
180.000000
 51
269.999996
  0
ARC
  8
0
  6
BYLAYER
 62
     1
 10
198.460690
 20
-709.687713
 30
0.0
 40
1.000000
 50
90.0
 51
180.000003
  0
ARC
  8
0
  6
BYLAYER
 62
     1
 10
198.460690
 20
-695.687713
 30
0.0
 40
1.000000
 50
180.000000
 51
269.999996
  0
ARC
  8
0
  6
BYLAYER
 62
     1
 10
198.460690
 20
-699.687713
 30
0.0
 40
1.000000
 50
90.0
 51
180.000003
  0
ARC
  8
0
  6
BYLAYER
 62
     1
 10
198.460690
 20
-685.687713
 30
0.0
 40
1.000000
 50
180.000000
 51
269.999996
  0
ARC
  8
0
  6
BYLAYER
 62
     1
 10
198.460690
 20
-689.687713
 30
0.0
 40
1.000000
 50
90.0
 51
180.000003
  0
ARC
  8
0
  6
BYLAYER
 62
     1
 10
198.460690
 20
-725.687713
 30
0.0
 40
1.0
 50
180.000000
 51
269.999996
  0
ARC
  8
0
  6
BYLAYER
 62
     1
 10
198.460690
 20
-735.687713
 30
0.0
 40
1.0
 50
180.000000
 51
269.999996
  0
ARC
  8
0
  6
BYLAYER
 62
     1
 10
198.460690
 20
-745.687713
 30
0.0
 40
1.0
 50
180.000000
 51
269.999996
  0
ARC
  8
0
  6
BYLAYER
 62
     1
 10
198.460690
 20
-729.687713
 30
0.0
 40
1.000000
 50
90.0
 51
180.000003
  0
ARC
  8
0
  6
BYLAYER
 62
     1
 10
198.460690
 20
-739.687713
 30
0.0
 40
1.000000
 50
90.0
 51
180.000003
  0
ARC
  8
0
  6
BYLAYER
 62
     1
 10
198.460690
 20
-749.687713
 30
0.0
 40
1.000000
 50
90.0
 51
180.000003
  0
ARC
  8
0
  6
BYLAYER
 62
     1
 10
346.460751
 20
-735.687713
 30
0.0
 40
1.0
 50
270.0
 51
360.000003
  0
ARC
  8
0
  6
BYLAYER
 62
     1
 10
346.460751
 20
-739.687713
 30
0.0
 40
1.0
 50
0.0
 51
90.000003
  0
ARC
  8
0
  6
BYLAYER
 62
     1
 10
346.460751
 20
-745.687713
 30
0.0
 40
1.0
 50
270.0
 51
360.000003
  0
ARC
  8
0
  6
BYLAYER
 62
     1
 10
346.460751
 20
-749.687713
 30
0.0
 40
1.0
 50
0.0
 51
90.000003
  0
ARC
  8
0
  6
BYLAYER
 62
     1
 10
346.460751
 20
-695.687774
 30
0.0
 40
1.000000
 50
270.0
 51
360.000003
  0
ARC
  8
0
  6
BYLAYER
 62
     1
 10
346.460751
 20
-699.687774
 30
0.0
 40
1.0
 50
0.0
 51
90.000003
  0
ARC
  8
0
  6
BYLAYER
 62
     1
 10
346.460751
 20
-685.687774
 30
0.0
 40
1.000000
 50
270.0
 51
360.000003
  0
ARC
  8
0
  6
BYLAYER
 62
     1
 10
346.460751
 20
-689.687774
 30
0.0
 40
1.0
 50
0.0
 51
90.000003
  0
LINE
  8
0
  6
BYLAYER
 62
     1
 10
169.460690
 20
-680.687713
 30
0.0
 11
375.460690
 21
-680.687713
 31
0.0
  0
LINE
  8
0
  6
BYLAYER
 62
     1
 10
375.460690
 20
-754.687713
 30
0.0
 11
169.460690
 21
-754.687713
 31
0.0
  0
LINE
  8
0
  6
BYLAYER
 62
     1
 10
323.960751
 20
-754.687713
 30
0.0
 11
323.960751
 21
-781.187713
 31
0.0
  0
LINE
  8
0
  6
BYLAYER
 62
     1
 10
220.960690
 20
-754.687713
 30
0.0
 11
220.960690
 21
-781.187713
 31
0.0
  0
CIRCLE
  8
0
  6
BYLAYER
 62
     1
 10
202.460690
 20
-767.687713
 30
0.0
 40
6.5
  0
CIRCLE
  8
0
  6
BYLAYER
 62
     1
 10
202.460690
 20
-667.687713
 30
0.0
 40
6.5
  0
CIRCLE
  8
0
  6
BYLAYER
 62
     1
 10
202.460690
 20
-667.687713
 30
0.0
 40
6.5
  0
CIRCLE
  8
0
  6
BYLAYER
 62
     1
 10
327.460690
 20
-717.687713
 30
0.0
 40
12.0
  0
LINE
  8
0
  6
BYLAYER
 62
     1
 10
347.460751
 20
-682.687713
 30
0.0
 11
347.460751
 21
-687.687713
 31
0.0
  0
LINE
  8
0
  6
BYLAYER
 62
     1
 10
347.460751
 20
-717.687713
 30
0.0
 11
347.460751
 21
-697.687713
 31
0.0
  0
LINE
  8
0
  6
BYLAYER
 62
     1
 10
347.460751
 20
-697.687713
 30
0.0
 11
347.460751
 21
-687.687713
 31
0.0
  0
LINE
  8
0
  6
BYLAYER
 62
     1
 10
347.460751
 20
-737.687713
 30
0.0
 11
347.460751
 21
-717.687713
 31
0.0
  0
LINE
  8
0
  6
BYLAYER
 62
     1
 10
347.460751
 20
-747.687713
 30
0.0
 11
347.460751
 21
-737.687713
 31
0.0
  0
LINE
  8
0
  6
BYLAYER
 62
     1
 10
347.460751
 20
-747.687713
 30
0.0
 11
347.460751
 21
-752.687713
 31
0.0
  0
LINE
  8
0
  6
BYLAYER
 62
     1
 10
197.460690
 20
-682.687713
 30
0.0
 11
197.460690
 21
-687.687713
 31
0.0
  0
LINE
  8
0
  6
BYLAYER
 62
     1
 10
197.460690
 20
-697.687713
 30
0.0
 11
197.460690
 21
-687.687713
 31
0.0
  0
LINE
  8
0
  6
BYLAYER
 62
     1
 10
197.460690
 20
-707.687774
 30
0.0
 11
197.460690
 21
-697.687713
 31
0.0
  0
LINE
  8
0
  6
BYLAYER
 62
     1
 10
197.460690
 20
-717.687713
 30
0.0
 11
197.460690
 21
-707.687774
 31
0.0
  0
LINE
  8
0
  6
BYLAYER
 62
     1
 10
197.460690
 20
-727.687713
 30
0.0
 11
197.460690
 21
-717.687713
 31
0.0
  0
LINE
  8
0
  6
BYLAYER
 62
     1
 10
197.460690
 20
-737.687713
 30
0.0
 11
197.460690
 21
-727.687713
 31
0.0
  0
LINE
  8
0
  6
BYLAYER
 62
     1
 10
197.460690
 20
-747.687713
 30
0.0
 11
197.460690
 21
-737.687713
 31
0.0
  0
LINE
  8
0
  6
BYLAYER
 62
     1
 10
197.460690
 20
-747.687713
 30
0.0
 11
197.460690
 21
-752.687713
 31
0.0
  0
LINE
  8
0
  6
BYLAYER
 62
     1
 10
220.960629
 20
-654.187713
 30
0.0
 11
323.960812
 21
-654.187713
 31
0.0
  0
LINE
  8
0
  6
BYLAYER
 62
     1
 10
219.460690
 20
-652.687713
 30
0.0
 11
220.960629
 21
-654.187713
 31
0.0
  0
LINE
  8
0
  6
BYLAYER
 62
     1
 10
325.460751
 20
-652.687713
 30
0.0
 11
323.960812
 21
-654.187713
 31
0.0
  0
LINE
  8
0
  6
BYLAYER
 62
     1
 10
323.960751
 20
-654.187713
 30
0.0
 11
220.960629
 21
-654.187713
 31
0.0
  0
LINE
  8
0
  6
BYLAYER
 62
     1
 10
272.460751
 20
-650.687713
 30
0.0
 11
192.460751
 21
-650.687713
 31
0.0
  0
LINE
  8
0
  6
BYLAYER
 62
     1
 10
325.460812
 20
-652.687713
 30
0.0
 11
323.960873
 21
-654.187713
 31
0.0
  0
LINE
  8
0
  6
BYLAYER
 62
     1
 10
272.460751
 20
-650.687713
 30
0.0
 11
352.460751
 21
-650.687713
 31
0.0
  0
LINE
  8
0
  6
BYLAYER
 62
     1
 10
192.390927
 20
-652.687713
 30
0.0
 11
192.460751
 21
-650.687713
 31
0.0
  0
LINE
  8
0
  6
BYLAYER
 62
     1
 10
352.530575
 20
-652.687713
 30
0.0
 11
352.460751
 21
-650.687713
 31
0.0
  0
LINE
  8
0
  6
BYLAYER
 62
     1
 10
217.960751
 20
-647.687713
 30
0.0
 11
217.460751
 21
-648.187713
 31
0.0
  0
LINE
  8
0
  6
BYLAYER
 62
     1
 10
217.460751
 20
-648.187713
 30
0.0
 11
217.460751
 21
-650.687713
 31
0.0
  0
LINE
  8
0
  6
BYLAYER
 62
     1
 10
217.960751
 20
-647.687713
 30
0.0
 11
326.960751
 21
-647.687713
 31
0.0
  0
LINE
  8
0
  6
BYLAYER
 62
     1
 10
326.960751
 20
-647.687713
 30
0.0
 11
327.460751
 21
-648.187713
 31
0.0
  0
LINE
  8
0
  6
BYLAYER
 62
     1
 10
327.460751
 20
-648.187713
 30
0.0
 11
327.460751
 21
-650.687713
 31
0.0
  0
LINE
  8
0
  6
BYLAYER
 62
     1
 10
272.460751
 20
-784.687713
 30
0.0
 11
192.460751
 21
-784.687713
 31
0.0
  0
LINE
  8
0
  6
BYLAYER
 62
     1
 10
272.460751
 20
-784.687713
 30
0.0
 11
352.460751
 21
-784.687713
 31
0.0
  0
LINE
  8
0
  6
BYLAYER
 62
     1
 10
192.390927
 20
-782.687713
 30
0.0
 11
192.460751
 21
-784.687713
 31
0.0
  0
LINE
  8
0
  6
BYLAYER
 62
     1
 10
352.530575
 20
-782.687713
 30
0.0
 11
352.460751
 21
-784.687713
 31
0.0
  0
LINE
  8
0
  6
BYLAYER
 62
     1
 10
217.960751
 20
-787.687713
 30
0.0
 11
217.460751
 21
-787.187713
 31
0.0
  0
LINE
  8
0
  6
BYLAYER
 62
     1
 10
217.460751
 20
-787.187713
 30
0.0
 11
217.460751
 21
-784.687713
 31
0.0
  0
LINE
  8
0
  6
BYLAYER
 62
     1
 10
217.960751
 20
-787.687713
 30
0.0
 11
326.960751
 21
-787.687713
 31
0.0
  0
LINE
  8
0
  6
BYLAYER
 62
     1
 10
326.960751
 20
-787.687713
 30
0.0
 11
327.460751
 21
-787.187713
 31
0.0
  0
LINE
  8
0
  6
BYLAYER
 62
     1
 10
327.460751
 20
-787.187713
 30
0.0
 11
327.460751
 21
-784.687713
 31
0.0
  0
ARC
  8
0
  6
BYLAYER
 62
     1
 10
235.056755
 20
-737.687713
 30
0.0
 40
1.000000
 50
270.0
 51
450.000005
  0
ARC
  8
0
  6
BYLAYER
 62
     1
 10
235.056755
 20
-747.687713
 30
0.0
 40
1.000000
 50
270.0
 51
450.000005
  0
LINE
  8
0
  6
BYLAYER
 62
     1
 10
235.056755
 20
-746.687713
 30
0.0
 11
198.460690
 21
-746.687774
 31
0.0
  0
LINE
  8
0
  6
BYLAYER
 62
     1
 10
235.056755
 20
-748.687713
 30
0.0
 11
198.460690
 21
-748.687774
 31
0.0
  0
LINE
  8
0
  6
BYLAYER
 62
     1
 10
235.056755
 20
-736.687713
 30
0.0
 11
198.460690
 21
-736.687774
 31
0.0
  0
LINE
  8
0
  6
BYLAYER
 62
     1
 10
235.056755
 20
-738.687713
 30
0.0
 11
198.460690
 21
-738.687774
 31
0.0
  0
ARC
  8
0
  6
BYLAYER
 62
     1
 10
235.056755
 20
-697.687713
 30
0.0
 40
1.0
 50
270.0
 51
450.000005
  0
ARC
  8
0
  6
BYLAYER
 62
     1
 10
235.056755
 20
-687.687713
 30
0.0
 40
1.0
 50
270.0
 51
450.000005
  0
LINE
  8
0
  6
BYLAYER
 62
     1
 10
235.056755
 20
-686.687713
 30
0.0
 11
198.460690
 21
-686.687713
 31
0.0
  0
LINE
  8
0
  6
BYLAYER
 62
     1
 10
235.056755
 20
-688.687713
 30
0.0
 11
198.460690
 21
-688.687713
 31
0.0
  0
LINE
  8
0
  6
BYLAYER
 62
     1
 10
235.056755
 20
-696.687713
 30
0.0
 11
198.460690
 21
-696.687713
 31
0.0
  0
LINE
  8
0
  6
BYLAYER
 62
     1
 10
235.056755
 20
-698.687713
 30
0.0
 11
198.460690
 21
-698.687713
 31
0.0
  0
ARC
  8
0
  6
BYLAYER
 62
     1
 10
239.470855
 20
-717.687774
 30
0.0
 40
1.0
 50
270.0
 51
450.000005
  0
LINE
  8
0
  6
BYLAYER
 62
     1
 10
198.460690
 20
-716.687713
 30
0.0
 11
239.470855
 21
-716.687774
 31
0.0
  0
LINE
  8
0
  6
BYLAYER
 62
     1
 10
198.460690
 20
-718.687713
 30
0.0
 11
239.470855
 21
-718.687774
 31
0.0
  0
ARC
  8
0
  6
BYLAYER
 62
     1
 10
241.470855
 20
-707.687774
 30
0.0
 40
1.0
 50
270.0
 51
450.000005
  0
LINE
  8
0
  6
BYLAYER
 62
     1
 10
198.460690
 20
-706.687713
 30
0.0
 11
241.470855
 21
-706.687774
 31
0.0
  0
LINE
  8
0
  6
BYLAYER
 62
     1
 10
198.460690
 20
-708.687713
 30
0.0
 11
241.470855
 21
-708.687774
 31
0.0
  0
ARC
  8
0
  6
BYLAYER
 62
     1
 10
241.470855
 20
-727.687713
 30
0.0
 40
1.0
 50
270.0
 51
450.000005
  0
LINE
  8
0
  6
BYLAYER
 62
     1
 10
198.460690
 20
-728.687774
 30
0.0
 11
241.470855
 21
-728.687713
 31
0.0
  0
LINE
  8
0
  6
BYLAYER
 62
     1
 10
198.460690
 20
-726.687774
 30
0.0
 11
241.470855
 21
-726.687713
 31
0.0
  0
ARC
  8
0
  6
BYLAYER
 62
     1
 10
308.074882
 20
-737.687713
 30
0.0
 40
1.000000
 50
90.0
 51
270.000005
  0
ARC
  8
0
  6
BYLAYER
 62
     1
 10
308.074882
 20
-747.687713
 30
0.0
 40
1.000000
 50
90.0
 51
270.000005
  0
LINE
  8
0
  6
BYLAYER
 62
     1
 10
346.460751
 20
-746.687713
 30
0.0
 11
308.074882
 21
-746.687774
 31
0.0
  0
LINE
  8
0
  6
BYLAYER
 62
     1
 10
346.460751
 20
-748.687713
 30
0.0
 11
308.074882
 21
-748.687774
 31
0.0
  0
LINE
  8
0
  6
BYLAYER
 62
     1
 10
346.460751
 20
-736.687713
 30
0.0
 11
308.074882
 21
-736.687774
 31
0.0
  0
ARC
  8
0
  6
BYLAYER
 62
     1
 10
308.074882
 20
-697.687713
 30
0.0
 40
1.0
 50
90.0
 51
270.000005
  0
ARC
  8
0
  6
BYLAYER
 62
     1
 10
308.074882
 20
-687.687713
 30
0.0
 40
1.0
 50
90.0
 51
270.000005
  0
LINE
  8
0
  6
BYLAYER
 62
     1
 10
346.460751
 20
-696.687774
 30
0.0
 11
308.074882
 21
-696.687713
 31
0.0
  0
LINE
  8
0
  6
BYLAYER
 62
     1
 10
346.460751
 20
-698.687774
 30
0.0
 11
308.074882
 21
-698.687713
 31
0.0
  0
LINE
  8
0
  6
BYLAYER
 62
     1
 10
308.074882
 20
-738.687774
 30
0.0
 11
346.460751
 21
-738.687713
 31
0.0
  0
LINE
  8
0
  6
BYLAYER
 62
     1
 10
308.074882
 20
-686.687713
 30
0.0
 11
346.460751
 21
-686.687713
 31
0.0
  0
LINE
  8
0
  6
BYLAYER
 62
     1
 10
308.074882
 20
-688.687713
 30
0.0
 11
346.460751
 21
-688.687713
 31
0.0
  0
LINE
  8
0
  6
BYLAYER
 62
     1
 10
377.460751
 20
-175.187591
 30
0.0
 11
377.460751
 21
-127.687713
 31
0.0
  0
ARC
  8
0
  6
BYLAYER
 62
     1
 10
392.960751
 20
-225.213165
 30
0.0
 40
2.000089
 50
180.000000
 51
266.999958
  0
LINE
  8
0
  6
BYLAYER
 62
     1
 10
390.960751
 20
-210.187652
 30
0.0
 11
390.960751
 21
-225.213195
 31
0.0
  0
LINE
  8
0
  6
BYLAYER
 62
     1
 10
390.960751
 20
-210.187652
 30
0.0
 11
390.960751
 21
-127.687713
 31
0.0
  0
ARC
  8
0
  6
BYLAYER
 62
     1
 10
388.960751
 20
-193.318328
 30
0.0
 40
2.000003
 50
0.0
 51
35.000041
  0
LINE
  8
0
  6
BYLAYER
 62
     1
 10
377.665921
 20
-175.187621
 30
0.0
 11
377.460751
 21
-175.187621
 31
0.0
  0
LINE
  8
0
  6
BYLAYER
 62
     1
 10
390.599057
 20
-192.171172
 30
0.0
 11
379.304226
 21
-176.040466
 31
0.0
  0
ARC
  8
0
  6
BYLAYER
 62
     1
 10
377.665921
 20
-177.187621
 30
0.0
 40
2.0
 50
34.999973
 51
90.000000
  0
LINE
  8
0
  6
BYLAYER
 62
     1
 10
379.304226
 20
-176.040466
 30
0.0
 11
390.960751
 21
-210.187652
 31
0.0
  0
LINE
  8
0
  6
BYLAYER
 62
     1
 10
392.856015
 20
-227.210510
 30
0.0
 11
401.960751
 21
-227.687699
 31
0.0
  0
LINE
  8
0
  6
BYLAYER
 62
     1
 10
401.960751
 20
-227.687699
 30
0.0
 11
401.960751
 21
-127.687713
 31
0.0
  0
LINE
  8
0
  6
BYLAYER
 62
     1
 10
379.304226
 20
-176.040466
 30
0.0
 11
379.304226
 21
-127.687713
 31
0.0
  0
LINE
  8
0
  6
BYLAYER
 62
     1
 10
377.460751
 20
-80.187835
 30
0.0
 11
377.460751
 21
-127.687713
 31
0.0
  0
ARC
  8
0
  6
BYLAYER
 62
     1
 10
392.960751
 20
-30.162261
 30
0.0
 40
2.000089
 50
93.000064
 51
180.000022
  0
LINE
  8
0
  6
BYLAYER
 62
     1
 10
390.960751
 20
-45.187774
 30
0.0
 11
390.960751
 21
-30.162231
 31
0.0
  0
LINE
  8
0
  6
BYLAYER
 62
     1
 10
390.960751
 20
-45.187774
 30
0.0
 11
390.960751
 21
-127.687713
 31
0.0
  0
ARC
  8
0
  6
BYLAYER
 62
     1
 10
388.960751
 20
-62.057098
 30
0.0
 40
2.000003
 50
324.999959
 51
360.000000
  0
LINE
  8
0
  6
BYLAYER
 62
     1
 10
377.665921
 20
-80.187805
 30
0.0
 11
377.460751
 21
-80.187805
 31
0.0
  0
LINE
  8
0
  6
BYLAYER
 62
     1
 10
390.599057
 20
-63.204254
 30
0.0
 11
379.304226
 21
-79.334960
 31
0.0
  0
ARC
  8
0
  6
BYLAYER
 62
     1
 10
377.665921
 20
-78.187805
 30
0.0
 40
2.0
 50
270.0
 51
325.000027
  0
LINE
  8
0
  6
BYLAYER
 62
     1
 10
379.304226
 20
-79.334960
 30
0.0
 11
390.960751
 21
-45.187774
 31
0.0
  0
LINE
  8
0
  6
BYLAYER
 62
     1
 10
392.856015
 20
-28.164916
 30
0.0
 11
401.960751
 21
-27.687727
 31
0.0
  0
LINE
  8
0
  6
BYLAYER
 62
     1
 10
401.960751
 20
-27.687727
 30
0.0
 11
401.960751
 21
-127.687713
 31
0.0
  0
LINE
  8
0
  6
BYLAYER
 62
     1
 10
379.304226
 20
-79.334960
 30
0.0
 11
379.304226
 21
-127.687713
 31
0.0
  0
LINE
  8
0
  6
BYLAYER
 62
     1
 10
957.460873
 20
-320.687713
 30
0.0
 11
985.460751
 21
-320.687713
 31
0.0
  0
LINE
  8
0
  6
BYLAYER
 62
     1
 10
957.460873
 20
-270.687713
 30
0.0
 11
957.460873
 21
-320.687713
 31
0.0
  0
LINE
  8
0
  6
BYLAYER
 62
     1
 10
957.460873
 20
-270.687713
 30
0.0
 11
958.960873
 21
-269.187713
 31
0.0
  0
LINE
  8
0
  6
BYLAYER
 62
     1
 10
958.960873
 20
-204.939027
 30
0.0
 11
958.960873
 21
-269.187713
 31
0.0
  0
LINE
  8
0
  6
BYLAYER
 62
     1
 10
1087.460751
 20
-320.687713
 30
0.0
 11
1059.460751
 21
-320.687713
 31
0.0
  0
LINE
  8
0
  6
BYLAYER
 62
     1
 10
1087.460751
 20
-270.687713
 30
0.0
 11
1085.960751
 21
-269.187774
 31
0.0
  0
LINE
  8
0
  6
BYLAYER
 62
     1
 10
1087.460751
 20
-320.687713
 30
0.0
 11
1087.460751
 21
-270.687713
 31
0.0
  0
LINE
  8
0
  6
BYLAYER
 62
     1
 10
1085.960751
 20
-204.938927
 30
0.0
 11
1085.960751
 21
-269.187774
 31
0.0
  0
LINE
  8
0
  6
BYLAYER
 62
     1
 10
1089.460751
 20
-297.687713
 30
0.0
 11
1087.460751
 21
-297.757537
 31
0.0
  0
CIRCLE
  8
0
  6
BYLAYER
 62
     1
 10
1072.460751
 20
-287.687713
 30
0.0
 40
6.5
  0
LINE
  8
0
  6
BYLAYER
 62
     1
 10
985.460751
 20
-269.187713
 30
0.0
 11
958.960873
 21
-269.187713
 31
0.0
  0
LINE
  8
0
  6
BYLAYER
 62
     1
 10
985.460751
 20
-270.687713
 30
0.0
 11
957.460873
 21
-270.687713
 31
0.0
  0
LINE
  8
0
  6
BYLAYER
 62
     1
 10
1059.460751
 20
-270.687713
 30
0.0
 11
1087.460751
 21
-270.687713
 31
0.0
  0
LINE
  8
0
  6
BYLAYER
 62
     1
 10
1059.460751
 20
-269.187713
 30
0.0
 11
1085.960751
 21
-269.187713
 31
0.0
  0
CIRCLE
  8
0
  6
BYLAYER
 62
     1
 10
972.460751
 20
-287.687713
 30
0.0
 40
6.5
  0
LINE
  8
0
  6
BYLAYER
 62
     1
 10
1059.460751
 20
-220.590888
 30
0.0
 11
1059.460751
 21
-320.687713
 31
0.0
  0
LINE
  8
0
  6
BYLAYER
 62
     1
 10
985.460751
 20
-220.590888
 30
0.0
 11
985.460751
 21
-320.687713
 31
0.0
  0
LINE
  8
0
  6
BYLAYER
 62
     1
 10
1089.460751
 20
-297.687713
 30
0.0
 11
1089.460751
 21
-201.923823
 31
0.0
  0
LINE
  8
0
  6
BYLAYER
 62
     1
 10
1092.460751
 20
-217.687713
 30
0.0
 11
1092.460751
 21
-199.101997
 31
0.0
  0
LINE
  8
0
  6
BYLAYER
 62
     1
 10
1092.460751
 20
-217.687713
 30
0.0
 11
1092.460751
 21
-272.187713
 31
0.0
  0
LINE
  8
0
  6
BYLAYER
 62
     1
 10
1092.460751
 20
-272.187713
 30
0.0
 11
1091.960751
 21
-272.687713
 31
0.0
  0
LINE
  8
0
  6
BYLAYER
 62
     1
 10
1091.960751
 20
-272.687713
 30
0.0
 11
1089.460751
 21
-272.687713
 31
0.0
  0
LINE
  8
0
  6
BYLAYER
 62
     1
 10
957.460751
 20
-270.687713
 30
0.0
 11
958.960751
 21
-269.187774
 31
0.0
  0
LINE
  8
0
  6
BYLAYER
 62
     1
 10
955.460751
 20
-297.687713
 30
0.0
 11
957.460751
 21
-297.757537
 31
0.0
  0
LINE
  8
0
  6
BYLAYER
 62
     1
 10
955.460751
 20
-297.687713
 30
0.0
 11
955.460751
 21
-201.923823
 31
0.0
  0
LINE
  8
0
  6
BYLAYER
 62
     1
 10
952.460751
 20
-217.687713
 30
0.0
 11
952.460751
 21
-199.101997
 31
0.0
  0
LINE
  8
0
  6
BYLAYER
 62
     1
 10
952.460751
 20
-217.687713
 30
0.0
 11
952.460751
 21
-272.187713
 31
0.0
  0
LINE
  8
0
  6
BYLAYER
 62
     1
 10
952.460751
 20
-272.187713
 30
0.0
 11
952.960751
 21
-272.687713
 31
0.0
  0
LINE
  8
0
  6
BYLAYER
 62
     1
 10
952.960751
 20
-272.687713
 30
0.0
 11
955.460751
 21
-272.687713
 31
0.0
  0
LINE
  8
0
  6
BYLAYER
 62
     1
 10
1059.460751
 20
-315.687682
 30
0.0
 11
985.460751
 21
-315.687682
 31
0.0
  0
LINE
  8
0
  6
BYLAYER
 62
     7
 10
978.960644
 20
-21.187744
 30
0.0
 11
978.960644
 21
0.312256
 31
0.0
  0
ARC
  8
0
  6
BYLAYER
 62
     7
 10
977.460644
 20
-21.187744
 30
0.0
 40
1.5
 50
270.0
 51
360.0
  0
ARC
  8
0
  6
BYLAYER
 62
     7
 10
980.460644
 20
0.312256
 30
0.0
 40
1.5
 50
90.0
 51
180.0
  0
LINE
  8
0
  6
BYLAYER
 62
     7
 10
1022.460644
 20
1.812256
 30
0.0
 11
980.460644
 21
1.812256
 31
0.0
  0
LINE
  8
0
  6
BYLAYER
 62
     7
 10
984.332885
 20
-21.187744
 30
0.0
 11
984.332885
 21
0.312256
 31
0.0
  0
ARC
  8
0
  6
BYLAYER
 62
     7
 10
982.832885
 20
-21.187744
 30
0.0
 40
1.5
 50
270.0
 51
360.0
  0
ARC
  8
0
  6
BYLAYER
 62
     7
 10
985.832885
 20
0.312256
 30
0.0
 40
1.5
 50
90.0
 51
180.0
  0
LINE
  8
0
  6
BYLAYER
 62
     7
 10
1009.366991
 20
1.812256
 30
0.0
 11
1009.859538
 21
-12.292442
 31
0.0
  0
ARC
  8
0
  6
BYLAYER
 62
     7
 10
1012.857710
 20
-12.187744
 30
0.0
 40
3.0
 50
182.000000
 51
270.000000
  0
LINE
  8
0
  6
BYLAYER
 62
     7
 10
1020.061750
 20
-12.292442
 30
0.0
 11
1020.554297
 21
1.812256
 31
0.0
  0
ARC
  8
0
  6
BYLAYER
 62
     7
 10
1017.063578
 20
-12.187744
 30
0.0
 40
3.0
 50
270.0
 51
358.0
  0
LINE
  8
0
  6
BYLAYER
 62
     7
 10
1012.857710
 20
-15.187744
 30
0.0
 11
1017.063578
 21
-15.187744
 31
0.0
  0
LINE
  8
0
  6
BYLAYER
 62
     7
 10
994.366991
 20
1.812256
 30
0.0
 11
994.859538
 21
-12.292442
 31
0.0
  0
ARC
  8
0
  6
BYLAYER
 62
     7
 10
997.857710
 20
-12.187744
 30
0.0
 40
3.0
 50
182.000000
 51
270.000000
  0
LINE
  8
0
  6
BYLAYER
 62
     7
 10
1005.061750
 20
-12.292442
 30
0.0
 11
1005.554297
 21
1.812256
 31
0.0
  0
ARC
  8
0
  6
BYLAYER
 62
     7
 10
1002.063578
 20
-12.187744
 30
0.0
 40
3.0
 50
270.0
 51
358.0
  0
LINE
  8
0
  6
BYLAYER
 62
     7
 10
997.857710
 20
-15.187744
 30
0.0
 11
1002.063578
 21
-15.187744
 31
0.0
  0
LINE
  8
0
  6
BYLAYER
 62
     7
 10
994.401912
 20
0.812256
 30
0.0
 11
1005.519376
 21
0.812256
 31
0.0
  0
LINE
  8
0
  6
BYLAYER
 62
     7
 10
1009.401912
 20
0.812256
 30
0.0
 11
1020.519376
 21
0.812256
 31
0.0
  0
LINE
  8
0
  6
BYLAYER
 62
     7
 10
1022.460644
 20
-22.687744
 30
0.0
 11
974.960644
 21
-22.687744
 31
0.0
  0
ARC
  8
0
  6
BYLAYER
 62
     7
 10
974.960644
 20
-24.187744
 30
0.0
 40
1.5
 50
90.0
 51
180.0
  0
LINE
  8
0
  6
BYLAYER
 62
     7
 10
973.460644
 20
-29.687744
 30
0.0
 11
973.460644
 21
-24.187744
 31
0.0
  0
LINE
  8
0
  6
BYLAYER
 62
     7
 10
973.460644
 20
-29.687744
 30
0.0
 11
1022.460644
 21
-29.687744
 31
0.0
  0
LINE
  8
0
  6
BYLAYER
 62
     7
 10
1065.960644
 20
-21.187744
 30
0.0
 11
1065.960644
 21
0.312256
 31
0.0
  0
ARC
  8
0
  6
BYLAYER
 62
     7
 10
1067.460644
 20
-21.187744
 30
0.0
 40
1.5
 50
180.000000
 51
270.000000
  0
ARC
  8
0
  6
BYLAYER
 62
     7
 10
1064.460644
 20
0.312256
 30
0.0
 40
1.5
 50
0.0
 51
90.0
  0
LINE
  8
0
  6
BYLAYER
 62
     7
 10
1022.460644
 20
1.812256
 30
0.0
 11
1064.460644
 21
1.812256
 31
0.0
  0
LINE
  8
0
  6
BYLAYER
 62
     7
 10
1060.588403
 20
-21.187744
 30
0.0
 11
1060.588403
 21
0.312256
 31
0.0
  0
ARC
  8
0
  6
BYLAYER
 62
     7
 10
1062.088403
 20
-21.187744
 30
0.0
 40
1.5
 50
180.000000
 51
270.000000
  0
ARC
  8
0
  6
BYLAYER
 62
     7
 10
1059.088403
 20
0.312256
 30
0.0
 40
1.5
 50
0.0
 51
90.0
  0
LINE
  8
0
  6
BYLAYER
 62
     7
 10
1035.554297
 20
1.812256
 30
0.0
 11
1035.061750
 21
-12.292442
 31
0.0
  0
ARC
  8
0
  6
BYLAYER
 62
     7
 10
1032.063578
 20
-12.187744
 30
0.0
 40
3.0
 50
270.0
 51
358.0
  0
LINE
  8
0
  6
BYLAYER
 62
     7
 10
1024.859538
 20
-12.292442
 30
0.0
 11
1024.366991
 21
1.812256
 31
0.0
  0
ARC
  8
0
  6
BYLAYER
 62
     7
 10
1027.857710
 20
-12.187744
 30
0.0
 40
3.0
 50
182.000000
 51
270.000000
  0
LINE
  8
0
  6
BYLAYER
 62
     7
 10
1032.063578
 20
-15.187744
 30
0.0
 11
1027.857710
 21
-15.187744
 31
0.0
  0
LINE
  8
0
  6
BYLAYER
 62
     7
 10
1050.554297
 20
1.812256
 30
0.0
 11
1050.061750
 21
-12.292442
 31
0.0
  0
ARC
  8
0
  6
BYLAYER
 62
     7
 10
1047.063578
 20
-12.187744
 30
0.0
 40
3.0
 50
270.0
 51
358.0
  0
LINE
  8
0
  6
BYLAYER
 62
     7
 10
1039.859538
 20
-12.292442
 30
0.0
 11
1039.366991
 21
1.812256
 31
0.0
  0
ARC
  8
0
  6
BYLAYER
 62
     7
 10
1042.857710
 20
-12.187744
 30
0.0
 40
3.0
 50
182.000000
 51
270.000000
  0
LINE
  8
0
  6
BYLAYER
 62
     7
 10
1047.063578
 20
-15.187744
 30
0.0
 11
1042.857710
 21
-15.187744
 31
0.0
  0
LINE
  8
0
  6
BYLAYER
 62
     7
 10
1050.519376
 20
0.812256
 30
0.0
 11
1039.401912
 21
0.812256
 31
0.0
  0
LINE
  8
0
  6
BYLAYER
 62
     7
 10
1035.519376
 20
0.812256
 30
0.0
 11
1024.401912
 21
0.812256
 31
0.0
  0
LINE
  8
0
  6
BYLAYER
 62
     7
 10
1022.460644
 20
-22.687744
 30
0.0
 11
1069.960644
 21
-22.687744
 31
0.0
  0
ARC
  8
0
  6
BYLAYER
 62
     7
 10
1069.960644
 20
-24.187744
 30
0.0
 40
1.5
 50
0.0
 51
90.0
  0
LINE
  8
0
  6
BYLAYER
 62
     7
 10
1071.460644
 20
-31.687744
 30
0.0
 11
1071.460644
 21
-24.187744
 31
0.0
  0
LINE
  8
0
  6
BYLAYER
 62
     7
 10
1071.460644
 20
-29.687744
 30
0.0
 11
1022.460644
 21
-29.687744
 31
0.0
  0
LINE
  8
0
  6
BYLAYER
 62
     7
 10
973.460644
 20
-31.687744
 30
0.0
 11
1022.460628
 21
-31.687744
 31
0.0
  0
LINE
  8
0
  6
BYLAYER
 62
     7
 10
973.460644
 20
-37.187744
 30
0.0
 11
976.460644
 21
-42.383911
 31
0.0
  0
LINE
  8
0
  6
BYLAYER
 62
     7
 10
1071.460628
 20
-31.687622
 30
0.0
 11
1022.460628
 21
-31.687744
 31
0.0
  0
LINE
  8
0
  6
BYLAYER
 62
     7
 10
1071.460628
 20
-37.187622
 30
0.0
 11
1068.460628
 21
-42.383789
 31
0.0
  0
LINE
  8
0
  6
BYLAYER
 62
     7
 10
976.460644
 20
-42.383911
 30
0.0
 11
976.460644
 21
-54.374147
 31
0.0
  0
LINE
  8
0
  6
BYLAYER
 62
     7
 10
973.460644
 20
-31.687744
 30
0.0
 11
973.460644
 21
-56.344330
 31
0.0
  0
LINE
  8
0
  6
BYLAYER
 62
     7
 10
1071.460628
 20
-31.687622
 30
0.0
 11
1071.460657
 21
-56.344192
 31
0.0
  0
LINE
  8
0
  6
BYLAYER
 62
     7
 10
1068.460628
 20
-42.383789
 30
0.0
 11
1068.460639
 21
-54.374010
 31
0.0
  0
LINE
  8
0
  6
BYLAYER
 62
     7
 10
973.460644
 20
-29.687744
 30
0.0
 11
973.460644
 21
-31.687744
 31
0.0
  0
LINE
  8
0
  6
BYLAYER
 62
     7
 10
973.460644
 20
-31.687744
 30
0.0
 11
1071.460644
 21
-31.687744
 31
0.0
  0
LINE
  8
0
  6
BYLAYER
 62
     7
 10
1023.460751
 20
-98.687713
 30
0.0
 11
1023.460751
 21
-106.687713
 31
0.0
  0
LINE
  8
0
  6
BYLAYER
 62
     7
 10
1023.460751
 20
-88.687713
 30
0.0
 11
1023.460751
 21
-96.687713
 31
0.0
  0
LINE
  8
0
  6
BYLAYER
 62
     7
 10
1031.460751
 20
-96.687713
 30
0.0
 11
1031.460751
 21
-88.687713
 31
0.0
  0
LINE
  8
0
  6
BYLAYER
 62
     7
 10
1033.460751
 20
-96.687713
 30
0.0
 11
1033.460751
 21
-88.687713
 31
0.0
  0
LINE
  8
0
  6
BYLAYER
 62
     7
 10
1023.460751
 20
-106.687713
 30
0.0
 11
1031.460751
 21
-106.687713
 31
0.0
  0
LINE
  8
0
  6
BYLAYER
 62
     7
 10
1023.460751
 20
-98.687713
 30
0.0
 11
1031.460751
 21
-98.687713
 31
0.0
  0
LINE
  8
0
  6
BYLAYER
 62
     7
 10
1033.460751
 20
-96.687713
 30
0.0
 11
1041.298750
 21
-96.687713
 31
0.0
  0
LINE
  8
0
  6
BYLAYER
 62
     7
 10
1023.460751
 20
-96.687713
 30
0.0
 11
1031.460751
 21
-96.687713
 31
0.0
  0
LINE
  8
0
  6
BYLAYER
 62
     7
 10
1033.460751
 20
-88.687713
 30
0.0
 11
1041.298750
 21
-88.687713
 31
0.0
  0
LINE
  8
0
  6
BYLAYER
 62
     7
 10
1023.460751
 20
-88.687713
 30
0.0
 11
1031.460751
 21
-88.687713
 31
0.0
  0
LINE
  8
0
  6
BYLAYER
 62
     7
 10
1041.298750
 20
-96.687713
 30
0.0
 11
1041.298750
 21
-88.687713
 31
0.0
  0
LINE
  8
0
  6
BYLAYER
 62
     7
 10
1031.460751
 20
-106.687713
 30
0.0
 11
1031.460751
 21
-98.687713
 31
0.0
  0
LINE
  8
0
  6
BYLAYER
 62
     7
 10
1033.460751
 20
-98.687713
 30
0.0
 11
1033.460751
 21
-106.687713
 31
0.0
  0
LINE
  8
0
  6
BYLAYER
 62
     7
 10
1033.460751
 20
-106.687713
 30
0.0
 11
1041.460751
 21
-106.687713
 31
0.0
  0
LINE
  8
0
  6
BYLAYER
 62
     7
 10
1033.460751
 20
-98.687713
 30
0.0
 11
1041.460751
 21
-98.687713
 31
0.0
  0
LINE
  8
0
  6
BYLAYER
 62
     7
 10
1041.460751
 20
-106.687713
 30
0.0
 11
1041.460751
 21
-98.687713
 31
0.0
  0
LINE
  8
0
  6
BYLAYER
 62
     7
 10
1043.460751
 20
-116.687713
 30
0.0
 11
1051.460751
 21
-116.687713
 31
0.0
  0
LINE
  8
0
  6
BYLAYER
 62
     7
 10
1043.460751
 20
-98.687713
 30
0.0
 11
1043.460751
 21
-106.687713
 31
0.0
  0
LINE
  8
0
  6
BYLAYER
 62
     7
 10
1043.460751
 20
-108.687713
 30
0.0
 11
1043.460751
 21
-116.687713
 31
0.0
  0
LINE
  8
0
  6
BYLAYER
 62
     7
 10
1043.460751
 20
-108.687713
 30
0.0
 11
1051.460751
 21
-108.687713
 31
0.0
  0
LINE
  8
0
  6
BYLAYER
 62
     7
 10
1043.460751
 20
-106.687713
 30
0.0
 11
1051.460751
 21
-106.687713
 31
0.0
  0
LINE
  8
0
  6
BYLAYER
 62
     7
 10
1043.460751
 20
-98.687713
 30
0.0
 11
1051.460751
 21
-98.687713
 31
0.0
  0
LINE
  8
0
  6
BYLAYER
 62
     7
 10
1051.460751
 20
-116.687713
 30
0.0
 11
1051.460751
 21
-108.687713
 31
0.0
  0
LINE
  8
0
  6
BYLAYER
 62
     7
 10
1051.460751
 20
-106.687713
 30
0.0
 11
1051.460751
 21
-98.687713
 31
0.0
  0
LINE
  8
0
  6
BYLAYER
 62
     7
 10
1043.460751
 20
-126.687713
 30
0.0
 11
1051.460751
 21
-126.687713
 31
0.0
  0
LINE
  8
0
  6
BYLAYER
 62
     7
 10
1043.460751
 20
-118.687713
 30
0.0
 11
1043.460751
 21
-126.687713
 31
0.0
  0
LINE
  8
0
  6
BYLAYER
 62
     7
 10
1043.460751
 20
-118.687713
 30
0.0
 11
1051.460751
 21
-118.687713
 31
0.0
  0
LINE
  8
0
  6
BYLAYER
 62
     7
 10
1051.460751
 20
-126.687713
 30
0.0
 11
1051.460751
 21
-118.687713
 31
0.0
  0
LINE
  8
0
  6
BYLAYER
 62
     7
 10
1053.460751
 20
-116.687713
 30
0.0
 11
1061.460751
 21
-116.687713
 31
0.0
  0
LINE
  8
0
  6
BYLAYER
 62
     7
 10
1053.460751
 20
-108.687713
 30
0.0
 11
1053.460751
 21
-116.687713
 31
0.0
  0
LINE
  8
0
  6
BYLAYER
 62
     7
 10
1053.460751
 20
-108.687713
 30
0.0
 11
1061.460751
 21
-108.687713
 31
0.0
  0
LINE
  8
0
  6
BYLAYER
 62
     7
 10
1061.460751
 20
-116.687713
 30
0.0
 11
1061.460751
 21
-108.687713
 31
0.0
  0
LINE
  8
0
  6
BYLAYER
 62
     7
 10
1053.460751
 20
-126.687713
 30
0.0
 11
1061.460751
 21
-126.687713
 31
0.0
  0
LINE
  8
0
  6
BYLAYER
 62
     7
 10
1053.460751
 20
-118.687713
 30
0.0
 11
1053.460751
 21
-126.687713
 31
0.0
  0
LINE
  8
0
  6
BYLAYER
 62
     7
 10
1053.460751
 20
-118.687713
 30
0.0
 11
1061.460751
 21
-118.687713
 31
0.0
  0
LINE
  8
0
  6
BYLAYER
 62
     7
 10
1061.460751
 20
-126.687713
 30
0.0
 11
1061.460751
 21
-118.687713
 31
0.0
  0
LINE
  8
0
  6
BYLAYER
 62
     7
 10
1063.460751
 20
-116.687713
 30
0.0
 11
1071.460751
 21
-116.687713
 31
0.0
  0
LINE
  8
0
  6
BYLAYER
 62
     7
 10
1063.460751
 20
-108.687713
 30
0.0
 11
1063.460751
 21
-116.687713
 31
0.0
  0
LINE
  8
0
  6
BYLAYER
 62
     7
 10
1063.460751
 20
-108.687713
 30
0.0
 11
1071.460751
 21
-108.687713
 31
0.0
  0
LINE
  8
0
  6
BYLAYER
 62
     7
 10
1071.460751
 20
-116.687713
 30
0.0
 11
1071.460751
 21
-108.687713
 31
0.0
  0
LINE
  8
0
  6
BYLAYER
 62
     7
 10
1063.460751
 20
-126.687713
 30
0.0
 11
1071.460751
 21
-126.687713
 31
0.0
  0
LINE
  8
0
  6
BYLAYER
 62
     7
 10
1063.460751
 20
-118.687713
 30
0.0
 11
1063.460751
 21
-126.687713
 31
0.0
  0
LINE
  8
0
  6
BYLAYER
 62
     7
 10
1063.460751
 20
-118.687713
 30
0.0
 11
1071.460751
 21
-118.687713
 31
0.0
  0
LINE
  8
0
  6
BYLAYER
 62
     7
 10
1071.460751
 20
-126.687713
 30
0.0
 11
1071.460751
 21
-118.687713
 31
0.0
  0
LINE
  8
0
  6
BYLAYER
 62
     7
 10
1023.460751
 20
-78.687713
 30
0.0
 11
1023.460751
 21
-86.687713
 31
0.0
  0
LINE
  8
0
  6
BYLAYER
 62
     7
 10
1031.460751
 20
-86.687713
 30
0.0
 11
1031.460751
 21
-78.687713
 31
0.0
  0
LINE
  8
0
  6
BYLAYER
 62
     7
 10
1033.460751
 20
-86.687713
 30
0.0
 11
1033.460751
 21
-78.687713
 31
0.0
  0
LINE
  8
0
  6
BYLAYER
 62
     7
 10
1033.460751
 20
-86.687713
 30
0.0
 11
1041.298750
 21
-86.687713
 31
0.0
  0
LINE
  8
0
  6
BYLAYER
 62
     7
 10
1023.460751
 20
-86.687713
 30
0.0
 11
1031.460751
 21
-86.687713
 31
0.0
  0
LINE
  8
0
  6
BYLAYER
 62
     7
 10
1033.460751
 20
-78.687713
 30
0.0
 11
1041.298750
 21
-78.687713
 31
0.0
  0
LINE
  8
0
  6
BYLAYER
 62
     7
 10
1023.460751
 20
-78.687713
 30
0.0
 11
1031.460751
 21
-78.687713
 31
0.0
  0
LINE
  8
0
  6
BYLAYER
 62
     7
 10
1041.298750
 20
-86.687713
 30
0.0
 11
1041.298750
 21
-78.687713
 31
0.0
  0
LINE
  8
0
  6
BYLAYER
 62
     7
 10
1043.460751
 20
-88.687713
 30
0.0
 11
1043.460751
 21
-96.687713
 31
0.0
  0
LINE
  8
0
  6
BYLAYER
 62
     7
 10
1043.460751
 20
-96.687713
 30
0.0
 11
1051.460751
 21
-96.687713
 31
0.0
  0
LINE
  8
0
  6
BYLAYER
 62
     7
 10
1043.460751
 20
-88.687713
 30
0.0
 11
1051.460751
 21
-88.687713
 31
0.0
  0
LINE
  8
0
  6
BYLAYER
 62
     7
 10
1051.460751
 20
-96.687713
 30
0.0
 11
1051.460751
 21
-88.687713
 31
0.0
  0
LINE
  8
0
  6
BYLAYER
 62
     7
 10
1043.460751
 20
-78.687713
 30
0.0
 11
1043.460751
 21
-86.687713
 31
0.0
  0
LINE
  8
0
  6
BYLAYER
 62
     7
 10
1043.460751
 20
-86.687713
 30
0.0
 11
1051.460751
 21
-86.687713
 31
0.0
  0
LINE
  8
0
  6
BYLAYER
 62
     7
 10
1043.460751
 20
-78.687713
 30
0.0
 11
1051.460751
 21
-78.687713
 31
0.0
  0
LINE
  8
0
  6
BYLAYER
 62
     7
 10
1051.460751
 20
-86.687713
 30
0.0
 11
1051.460751
 21
-78.687713
 31
0.0
  0
LINE
  8
0
  6
BYLAYER
 62
     7
 10
1053.460751
 20
-98.687713
 30
0.0
 11
1053.460751
 21
-106.687713
 31
0.0
  0
LINE
  8
0
  6
BYLAYER
 62
     7
 10
1053.460751
 20
-106.687713
 30
0.0
 11
1061.460751
 21
-106.687713
 31
0.0
  0
LINE
  8
0
  6
BYLAYER
 62
     7
 10
1053.460751
 20
-98.687713
 30
0.0
 11
1061.460751
 21
-98.687713
 31
0.0
  0
LINE
  8
0
  6
BYLAYER
 62
     7
 10
1061.460751
 20
-106.687713
 30
0.0
 11
1061.460751
 21
-98.687713
 31
0.0
  0
LINE
  8
0
  6
BYLAYER
 62
     7
 10
1053.460751
 20
-88.687713
 30
0.0
 11
1053.460751
 21
-96.687713
 31
0.0
  0
LINE
  8
0
  6
BYLAYER
 62
     7
 10
1053.460751
 20
-96.687713
 30
0.0
 11
1061.460751
 21
-96.687713
 31
0.0
  0
LINE
  8
0
  6
BYLAYER
 62
     7
 10
1053.460751
 20
-88.687713
 30
0.0
 11
1061.460751
 21
-88.687713
 31
0.0
  0
LINE
  8
0
  6
BYLAYER
 62
     7
 10
1061.460751
 20
-96.687713
 30
0.0
 11
1061.460751
 21
-88.687713
 31
0.0
  0
LINE
  8
0
  6
BYLAYER
 62
     7
 10
1063.460751
 20
-98.687713
 30
0.0
 11
1063.460751
 21
-106.687713
 31
0.0
  0
LINE
  8
0
  6
BYLAYER
 62
     7
 10
1063.460751
 20
-106.687713
 30
0.0
 11
1071.460751
 21
-106.687713
 31
0.0
  0
LINE
  8
0
  6
BYLAYER
 62
     7
 10
1063.460751
 20
-98.687713
 30
0.0
 11
1071.460751
 21
-98.687713
 31
0.0
  0
LINE
  8
0
  6
BYLAYER
 62
     7
 10
1071.460751
 20
-106.687713
 30
0.0
 11
1071.460751
 21
-98.687713
 31
0.0
  0
CIRCLE
  8
0
  6
BYLAYER
 62
     7
 10
1022.460751
 20
-127.687713
 30
0.0
 40
4.0
  0
LINE
  8
0
  6
BYLAYER
 62
     7
 10
1073.460751
 20
-116.687713
 30
0.0
 11
1081.460751
 21
-116.687713
 31
0.0
  0
LINE
  8
0
  6
BYLAYER
 62
     7
 10
1073.460751
 20
-108.687713
 30
0.0
 11
1073.460751
 21
-116.687713
 31
0.0
  0
LINE
  8
0
  6
BYLAYER
 62
     7
 10
1073.460751
 20
-108.687713
 30
0.0
 11
1081.460751
 21
-108.687713
 31
0.0
  0
LINE
  8
0
  6
BYLAYER
 62
     7
 10
1081.460751
 20
-116.687713
 30
0.0
 11
1081.460751
 21
-108.687713
 31
0.0
  0
LINE
  8
0
  6
BYLAYER
 62
     7
 10
1073.460751
 20
-126.687713
 30
0.0
 11
1081.460751
 21
-126.687713
 31
0.0
  0
LINE
  8
0
  6
BYLAYER
 62
     7
 10
1073.460751
 20
-118.687713
 30
0.0
 11
1073.460751
 21
-126.687713
 31
0.0
  0
LINE
  8
0
  6
BYLAYER
 62
     7
 10
1073.460751
 20
-118.687713
 30
0.0
 11
1081.460751
 21
-118.687713
 31
0.0
  0
LINE
  8
0
  6
BYLAYER
 62
     7
 10
1081.460751
 20
-126.687713
 30
0.0
 11
1081.460751
 21
-118.687713
 31
0.0
  0
LINE
  8
0
  6
BYLAYER
 62
     7
 10
1073.460751
 20
-98.687713
 30
0.0
 11
1073.460751
 21
-106.687713
 31
0.0
  0
LINE
  8
0
  6
BYLAYER
 62
     7
 10
1073.460751
 20
-106.687713
 30
0.0
 11
1081.460751
 21
-106.687713
 31
0.0
  0
LINE
  8
0
  6
BYLAYER
 62
     7
 10
1073.460751
 20
-98.687713
 30
0.0
 11
1081.460751
 21
-98.687713
 31
0.0
  0
LINE
  8
0
  6
BYLAYER
 62
     7
 10
1081.460751
 20
-106.687713
 30
0.0
 11
1081.460751
 21
-98.687713
 31
0.0
  0
LINE
  8
0
  6
BYLAYER
 62
     7
 10
1023.460751
 20
-68.687713
 30
0.0
 11
1023.460751
 21
-76.687713
 31
0.0
  0
LINE
  8
0
  6
BYLAYER
 62
     7
 10
1031.460751
 20
-76.687713
 30
0.0
 11
1031.460751
 21
-68.687713
 31
0.0
  0
LINE
  8
0
  6
BYLAYER
 62
     7
 10
1033.460751
 20
-76.687713
 30
0.0
 11
1033.460751
 21
-68.687713
 31
0.0
  0
LINE
  8
0
  6
BYLAYER
 62
     7
 10
1033.460751
 20
-76.687713
 30
0.0
 11
1041.298750
 21
-76.687713
 31
0.0
  0
LINE
  8
0
  6
BYLAYER
 62
     7
 10
1023.460751
 20
-76.687713
 30
0.0
 11
1031.460751
 21
-76.687713
 31
0.0
  0
LINE
  8
0
  6
BYLAYER
 62
     7
 10
1033.460751
 20
-68.687713
 30
0.0
 11
1041.298750
 21
-68.687713
 31
0.0
  0
LINE
  8
0
  6
BYLAYER
 62
     7
 10
1023.460751
 20
-68.687713
 30
0.0
 11
1031.460751
 21
-68.687713
 31
0.0
  0
LINE
  8
0
  6
BYLAYER
 62
     7
 10
1041.298750
 20
-76.687713
 30
0.0
 11
1041.298750
 21
-68.687713
 31
0.0
  0
LINE
  8
0
  6
BYLAYER
 62
     7
 10
1043.460751
 20
-68.687713
 30
0.0
 11
1043.460751
 21
-76.687713
 31
0.0
  0
LINE
  8
0
  6
BYLAYER
 62
     7
 10
1043.460751
 20
-76.687713
 30
0.0
 11
1051.460751
 21
-76.687713
 31
0.0
  0
LINE
  8
0
  6
BYLAYER
 62
     7
 10
1043.460751
 20
-68.687713
 30
0.0
 11
1051.460751
 21
-68.687713
 31
0.0
  0
LINE
  8
0
  6
BYLAYER
 62
     7
 10
1051.460751
 20
-76.687713
 30
0.0
 11
1051.460751
 21
-68.687713
 31
0.0
  0
LINE
  8
0
  6
BYLAYER
 62
     7
 10
1053.460751
 20
-78.687713
 30
0.0
 11
1053.460751
 21
-86.687713
 31
0.0
  0
LINE
  8
0
  6
BYLAYER
 62
     7
 10
1053.460751
 20
-86.687713
 30
0.0
 11
1061.460751
 21
-86.687713
 31
0.0
  0
LINE
  8
0
  6
BYLAYER
 62
     7
 10
1053.460751
 20
-78.687713
 30
0.0
 11
1061.460751
 21
-78.687713
 31
0.0
  0
LINE
  8
0
  6
BYLAYER
 62
     7
 10
1061.460751
 20
-86.687713
 30
0.0
 11
1061.460751
 21
-78.687713
 31
0.0
  0
LINE
  8
0
  6
BYLAYER
 62
     7
 10
1063.460751
 20
-88.687713
 30
0.0
 11
1063.460751
 21
-96.687713
 31
0.0
  0
LINE
  8
0
  6
BYLAYER
 62
     7
 10
1063.460751
 20
-96.687713
 30
0.0
 11
1071.460751
 21
-96.687713
 31
0.0
  0
LINE
  8
0
  6
BYLAYER
 62
     7
 10
1063.460751
 20
-88.687713
 30
0.0
 11
1071.460751
 21
-88.687713
 31
0.0
  0
LINE
  8
0
  6
BYLAYER
 62
     7
 10
1071.460751
 20
-96.687713
 30
0.0
 11
1071.460751
 21
-88.687713
 31
0.0
  0
LINE
  8
0
  6
BYLAYER
 62
     7
 10
1023.460751
 20
-156.687713
 30
0.0
 11
1023.460751
 21
-148.687713
 31
0.0
  0
LINE
  8
0
  6
BYLAYER
 62
     7
 10
1023.460751
 20
-166.687713
 30
0.0
 11
1023.460751
 21
-158.687713
 31
0.0
  0
LINE
  8
0
  6
BYLAYER
 62
     7
 10
1031.460751
 20
-158.687713
 30
0.0
 11
1031.460751
 21
-166.687713
 31
0.0
  0
LINE
  8
0
  6
BYLAYER
 62
     7
 10
1033.460751
 20
-158.687713
 30
0.0
 11
1033.460751
 21
-166.687713
 31
0.0
  0
LINE
  8
0
  6
BYLAYER
 62
     7
 10
1023.460751
 20
-148.687713
 30
0.0
 11
1031.460751
 21
-148.687713
 31
0.0
  0
LINE
  8
0
  6
BYLAYER
 62
     7
 10
1023.460751
 20
-156.687713
 30
0.0
 11
1031.460751
 21
-156.687713
 31
0.0
  0
LINE
  8
0
  6
BYLAYER
 62
     7
 10
1033.460751
 20
-158.687713
 30
0.0
 11
1041.298750
 21
-158.687713
 31
0.0
  0
LINE
  8
0
  6
BYLAYER
 62
     7
 10
1023.460751
 20
-158.687713
 30
0.0
 11
1031.460751
 21
-158.687713
 31
0.0
  0
LINE
  8
0
  6
BYLAYER
 62
     7
 10
1033.460751
 20
-166.687713
 30
0.0
 11
1041.298750
 21
-166.687713
 31
0.0
  0
LINE
  8
0
  6
BYLAYER
 62
     7
 10
1023.460751
 20
-166.687713
 30
0.0
 11
1031.460751
 21
-166.687713
 31
0.0
  0
LINE
  8
0
  6
BYLAYER
 62
     7
 10
1041.298750
 20
-158.687713
 30
0.0
 11
1041.298750
 21
-166.687713
 31
0.0
  0
LINE
  8
0
  6
BYLAYER
 62
     7
 10
1031.460751
 20
-148.687713
 30
0.0
 11
1031.460751
 21
-156.687713
 31
0.0
  0
LINE
  8
0
  6
BYLAYER
 62
     7
 10
1033.460751
 20
-156.687713
 30
0.0
 11
1033.460751
 21
-148.687713
 31
0.0
  0
LINE
  8
0
  6
BYLAYER
 62
     7
 10
1033.460751
 20
-148.687713
 30
0.0
 11
1041.460751
 21
-148.687713
 31
0.0
  0
LINE
  8
0
  6
BYLAYER
 62
     7
 10
1033.460751
 20
-156.687713
 30
0.0
 11
1041.460751
 21
-156.687713
 31
0.0
  0
LINE
  8
0
  6
BYLAYER
 62
     7
 10
1041.460751
 20
-148.687713
 30
0.0
 11
1041.460751
 21
-156.687713
 31
0.0
  0
LINE
  8
0
  6
BYLAYER
 62
     7
 10
1043.460751
 20
-138.687713
 30
0.0
 11
1051.460751
 21
-138.687713
 31
0.0
  0
LINE
  8
0
  6
BYLAYER
 62
     7
 10
1043.460751
 20
-156.687713
 30
0.0
 11
1043.460751
 21
-148.687713
 31
0.0
  0
LINE
  8
0
  6
BYLAYER
 62
     7
 10
1043.460751
 20
-146.687713
 30
0.0
 11
1043.460751
 21
-138.687713
 31
0.0
  0
LINE
  8
0
  6
BYLAYER
 62
     7
 10
1043.460751
 20
-146.687713
 30
0.0
 11
1051.460751
 21
-146.687713
 31
0.0
  0
LINE
  8
0
  6
BYLAYER
 62
     7
 10
1043.460751
 20
-148.687713
 30
0.0
 11
1051.460751
 21
-148.687713
 31
0.0
  0
LINE
  8
0
  6
BYLAYER
 62
     7
 10
1043.460751
 20
-156.687713
 30
0.0
 11
1051.460751
 21
-156.687713
 31
0.0
  0
LINE
  8
0
  6
BYLAYER
 62
     7
 10
1051.460751
 20
-138.687713
 30
0.0
 11
1051.460751
 21
-146.687713
 31
0.0
  0
LINE
  8
0
  6
BYLAYER
 62
     7
 10
1051.460751
 20
-148.687713
 30
0.0
 11
1051.460751
 21
-156.687713
 31
0.0
  0
LINE
  8
0
  6
BYLAYER
 62
     7
 10
1043.460751
 20
-128.687713
 30
0.0
 11
1051.460751
 21
-128.687713
 31
0.0
  0
LINE
  8
0
  6
BYLAYER
 62
     7
 10
1043.460751
 20
-136.687713
 30
0.0
 11
1043.460751
 21
-128.687713
 31
0.0
  0
LINE
  8
0
  6
BYLAYER
 62
     7
 10
1043.460751
 20
-136.687713
 30
0.0
 11
1051.460751
 21
-136.687713
 31
0.0
  0
LINE
  8
0
  6
BYLAYER
 62
     7
 10
1051.460751
 20
-128.687713
 30
0.0
 11
1051.460751
 21
-136.687713
 31
0.0
  0
LINE
  8
0
  6
BYLAYER
 62
     7
 10
1053.460751
 20
-138.687713
 30
0.0
 11
1061.460751
 21
-138.687713
 31
0.0
  0
LINE
  8
0
  6
BYLAYER
 62
     7
 10
1053.460751
 20
-146.687713
 30
0.0
 11
1053.460751
 21
-138.687713
 31
0.0
  0
LINE
  8
0
  6
BYLAYER
 62
     7
 10
1053.460751
 20
-146.687713
 30
0.0
 11
1061.460751
 21
-146.687713
 31
0.0
  0
LINE
  8
0
  6
BYLAYER
 62
     7
 10
1061.460751
 20
-138.687713
 30
0.0
 11
1061.460751
 21
-146.687713
 31
0.0
  0
LINE
  8
0
  6
BYLAYER
 62
     7
 10
1053.460751
 20
-128.687713
 30
0.0
 11
1061.460751
 21
-128.687713
 31
0.0
  0
LINE
  8
0
  6
BYLAYER
 62
     7
 10
1053.460751
 20
-136.687713
 30
0.0
 11
1053.460751
 21
-128.687713
 31
0.0
  0
LINE
  8
0
  6
BYLAYER
 62
     7
 10
1053.460751
 20
-136.687713
 30
0.0
 11
1061.460751
 21
-136.687713
 31
0.0
  0
LINE
  8
0
  6
BYLAYER
 62
     7
 10
1061.460751
 20
-128.687713
 30
0.0
 11
1061.460751
 21
-136.687713
 31
0.0
  0
LINE
  8
0
  6
BYLAYER
 62
     7
 10
1063.460751
 20
-138.687713
 30
0.0
 11
1071.460751
 21
-138.687713
 31
0.0
  0
LINE
  8
0
  6
BYLAYER
 62
     7
 10
1063.460751
 20
-146.687713
 30
0.0
 11
1063.460751
 21
-138.687713
 31
0.0
  0
LINE
  8
0
  6
BYLAYER
 62
     7
 10
1063.460751
 20
-146.687713
 30
0.0
 11
1071.460751
 21
-146.687713
 31
0.0
  0
LINE
  8
0
  6
BYLAYER
 62
     7
 10
1071.460751
 20
-138.687713
 30
0.0
 11
1071.460751
 21
-146.687713
 31
0.0
  0
LINE
  8
0
  6
BYLAYER
 62
     7
 10
1063.460751
 20
-128.687713
 30
0.0
 11
1071.460751
 21
-128.687713
 31
0.0
  0
LINE
  8
0
  6
BYLAYER
 62
     7
 10
1063.460751
 20
-136.687713
 30
0.0
 11
1063.460751
 21
-128.687713
 31
0.0
  0
LINE
  8
0
  6
BYLAYER
 62
     7
 10
1063.460751
 20
-136.687713
 30
0.0
 11
1071.460751
 21
-136.687713
 31
0.0
  0
LINE
  8
0
  6
BYLAYER
 62
     7
 10
1071.460751
 20
-128.687713
 30
0.0
 11
1071.460751
 21
-136.687713
 31
0.0
  0
LINE
  8
0
  6
BYLAYER
 62
     7
 10
1023.460751
 20
-176.687713
 30
0.0
 11
1023.460751
 21
-168.687713
 31
0.0
  0
LINE
  8
0
  6
BYLAYER
 62
     7
 10
1031.460751
 20
-168.687713
 30
0.0
 11
1031.460751
 21
-176.687713
 31
0.0
  0
LINE
  8
0
  6
BYLAYER
 62
     7
 10
1033.460751
 20
-168.687713
 30
0.0
 11
1033.460751
 21
-176.687713
 31
0.0
  0
LINE
  8
0
  6
BYLAYER
 62
     7
 10
1033.460751
 20
-168.687713
 30
0.0
 11
1041.298750
 21
-168.687713
 31
0.0
  0
LINE
  8
0
  6
BYLAYER
 62
     7
 10
1023.460751
 20
-168.687713
 30
0.0
 11
1031.460751
 21
-168.687713
 31
0.0
  0
LINE
  8
0
  6
BYLAYER
 62
     7
 10
1033.460751
 20
-176.687713
 30
0.0
 11
1041.298750
 21
-176.687713
 31
0.0
  0
LINE
  8
0
  6
BYLAYER
 62
     7
 10
1023.460751
 20
-176.687713
 30
0.0
 11
1031.460751
 21
-176.687713
 31
0.0
  0
LINE
  8
0
  6
BYLAYER
 62
     7
 10
1041.298750
 20
-168.687713
 30
0.0
 11
1041.298750
 21
-176.687713
 31
0.0
  0
LINE
  8
0
  6
BYLAYER
 62
     7
 10
1043.460751
 20
-166.687713
 30
0.0
 11
1043.460751
 21
-158.687713
 31
0.0
  0
LINE
  8
0
  6
BYLAYER
 62
     7
 10
1043.460751
 20
-158.687713
 30
0.0
 11
1051.460751
 21
-158.687713
 31
0.0
  0
LINE
  8
0
  6
BYLAYER
 62
     7
 10
1043.460751
 20
-166.687713
 30
0.0
 11
1051.460751
 21
-166.687713
 31
0.0
  0
LINE
  8
0
  6
BYLAYER
 62
     7
 10
1051.460751
 20
-158.687713
 30
0.0
 11
1051.460751
 21
-166.687713
 31
0.0
  0
LINE
  8
0
  6
BYLAYER
 62
     7
 10
1043.460751
 20
-176.687713
 30
0.0
 11
1043.460751
 21
-168.687713
 31
0.0
  0
LINE
  8
0
  6
BYLAYER
 62
     7
 10
1043.460751
 20
-168.687713
 30
0.0
 11
1051.460751
 21
-168.687713
 31
0.0
  0
LINE
  8
0
  6
BYLAYER
 62
     7
 10
1043.460751
 20
-176.687713
 30
0.0
 11
1051.460751
 21
-176.687713
 31
0.0
  0
LINE
  8
0
  6
BYLAYER
 62
     7
 10
1051.460751
 20
-168.687713
 30
0.0
 11
1051.460751
 21
-176.687713
 31
0.0
  0
LINE
  8
0
  6
BYLAYER
 62
     7
 10
1053.460751
 20
-156.687713
 30
0.0
 11
1053.460751
 21
-148.687713
 31
0.0
  0
LINE
  8
0
  6
BYLAYER
 62
     7
 10
1053.460751
 20
-148.687713
 30
0.0
 11
1061.460751
 21
-148.687713
 31
0.0
  0
LINE
  8
0
  6
BYLAYER
 62
     7
 10
1053.460751
 20
-156.687713
 30
0.0
 11
1061.460751
 21
-156.687713
 31
0.0
  0
LINE
  8
0
  6
BYLAYER
 62
     7
 10
1061.460751
 20
-148.687713
 30
0.0
 11
1061.460751
 21
-156.687713
 31
0.0
  0
LINE
  8
0
  6
BYLAYER
 62
     7
 10
1053.460751
 20
-166.687713
 30
0.0
 11
1053.460751
 21
-158.687713
 31
0.0
  0
LINE
  8
0
  6
BYLAYER
 62
     7
 10
1053.460751
 20
-158.687713
 30
0.0
 11
1061.460751
 21
-158.687713
 31
0.0
  0
LINE
  8
0
  6
BYLAYER
 62
     7
 10
1053.460751
 20
-166.687713
 30
0.0
 11
1061.460751
 21
-166.687713
 31
0.0
  0
LINE
  8
0
  6
BYLAYER
 62
     7
 10
1061.460751
 20
-158.687713
 30
0.0
 11
1061.460751
 21
-166.687713
 31
0.0
  0
LINE
  8
0
  6
BYLAYER
 62
     7
 10
1063.460751
 20
-156.687713
 30
0.0
 11
1063.460751
 21
-148.687713
 31
0.0
  0
LINE
  8
0
  6
BYLAYER
 62
     7
 10
1063.460751
 20
-148.687713
 30
0.0
 11
1071.460751
 21
-148.687713
 31
0.0
  0
LINE
  8
0
  6
BYLAYER
 62
     7
 10
1063.460751
 20
-156.687713
 30
0.0
 11
1071.460751
 21
-156.687713
 31
0.0
  0
LINE
  8
0
  6
BYLAYER
 62
     7
 10
1071.460751
 20
-148.687713
 30
0.0
 11
1071.460751
 21
-156.687713
 31
0.0
  0
LINE
  8
0
  6
BYLAYER
 62
     7
 10
1073.460751
 20
-138.687713
 30
0.0
 11
1081.460751
 21
-138.687713
 31
0.0
  0
LINE
  8
0
  6
BYLAYER
 62
     7
 10
1073.460751
 20
-146.687713
 30
0.0
 11
1073.460751
 21
-138.687713
 31
0.0
  0
LINE
  8
0
  6
BYLAYER
 62
     7
 10
1073.460751
 20
-146.687713
 30
0.0
 11
1081.460751
 21
-146.687713
 31
0.0
  0
LINE
  8
0
  6
BYLAYER
 62
     7
 10
1081.460751
 20
-138.687713
 30
0.0
 11
1081.460751
 21
-146.687713
 31
0.0
  0
LINE
  8
0
  6
BYLAYER
 62
     7
 10
1073.460751
 20
-128.687713
 30
0.0
 11
1081.460751
 21
-128.687713
 31
0.0
  0
LINE
  8
0
  6
BYLAYER
 62
     7
 10
1073.460751
 20
-136.687713
 30
0.0
 11
1073.460751
 21
-128.687713
 31
0.0
  0
LINE
  8
0
  6
BYLAYER
 62
     7
 10
1073.460751
 20
-136.687713
 30
0.0
 11
1081.460751
 21
-136.687713
 31
0.0
  0
LINE
  8
0
  6
BYLAYER
 62
     7
 10
1081.460751
 20
-128.687713
 30
0.0
 11
1081.460751
 21
-136.687713
 31
0.0
  0
LINE
  8
0
  6
BYLAYER
 62
     7
 10
1073.460751
 20
-156.687713
 30
0.0
 11
1073.460751
 21
-148.687713
 31
0.0
  0
LINE
  8
0
  6
BYLAYER
 62
     7
 10
1073.460751
 20
-148.687713
 30
0.0
 11
1081.460751
 21
-148.687713
 31
0.0
  0
LINE
  8
0
  6
BYLAYER
 62
     7
 10
1073.460751
 20
-156.687713
 30
0.0
 11
1081.460751
 21
-156.687713
 31
0.0
  0
LINE
  8
0
  6
BYLAYER
 62
     7
 10
1081.460751
 20
-148.687713
 30
0.0
 11
1081.460751
 21
-156.687713
 31
0.0
  0
LINE
  8
0
  6
BYLAYER
 62
     7
 10
1023.460751
 20
-186.687713
 30
0.0
 11
1023.460751
 21
-178.687713
 31
0.0
  0
LINE
  8
0
  6
BYLAYER
 62
     7
 10
1031.460751
 20
-178.687713
 30
0.0
 11
1031.460751
 21
-186.687713
 31
0.0
  0
LINE
  8
0
  6
BYLAYER
 62
     7
 10
1033.460751
 20
-178.687713
 30
0.0
 11
1033.460751
 21
-186.687713
 31
0.0
  0
LINE
  8
0
  6
BYLAYER
 62
     7
 10
1033.460751
 20
-178.687713
 30
0.0
 11
1041.298750
 21
-178.687713
 31
0.0
  0
LINE
  8
0
  6
BYLAYER
 62
     7
 10
1023.460751
 20
-178.687713
 30
0.0
 11
1031.460751
 21
-178.687713
 31
0.0
  0
LINE
  8
0
  6
BYLAYER
 62
     7
 10
1033.460751
 20
-186.687713
 30
0.0
 11
1041.298750
 21
-186.687713
 31
0.0
  0
LINE
  8
0
  6
BYLAYER
 62
     7
 10
1023.460751
 20
-186.687713
 30
0.0
 11
1031.460751
 21
-186.687713
 31
0.0
  0
LINE
  8
0
  6
BYLAYER
 62
     7
 10
1041.298750
 20
-178.687713
 30
0.0
 11
1041.298750
 21
-186.687713
 31
0.0
  0
LINE
  8
0
  6
BYLAYER
 62
     7
 10
1043.460751
 20
-186.687713
 30
0.0
 11
1043.460751
 21
-178.687713
 31
0.0
  0
LINE
  8
0
  6
BYLAYER
 62
     7
 10
1043.460751
 20
-178.687713
 30
0.0
 11
1051.460751
 21
-178.687713
 31
0.0
  0
LINE
  8
0
  6
BYLAYER
 62
     7
 10
1043.460751
 20
-186.687713
 30
0.0
 11
1051.460751
 21
-186.687713
 31
0.0
  0
LINE
  8
0
  6
BYLAYER
 62
     7
 10
1051.460751
 20
-178.687713
 30
0.0
 11
1051.460751
 21
-186.687713
 31
0.0
  0
LINE
  8
0
  6
BYLAYER
 62
     7
 10
1053.460751
 20
-176.687713
 30
0.0
 11
1053.460751
 21
-168.687713
 31
0.0
  0
LINE
  8
0
  6
BYLAYER
 62
     7
 10
1053.460751
 20
-168.687713
 30
0.0
 11
1061.460751
 21
-168.687713
 31
0.0
  0
LINE
  8
0
  6
BYLAYER
 62
     7
 10
1053.460751
 20
-176.687713
 30
0.0
 11
1061.460751
 21
-176.687713
 31
0.0
  0
LINE
  8
0
  6
BYLAYER
 62
     7
 10
1061.460751
 20
-168.687713
 30
0.0
 11
1061.460751
 21
-176.687713
 31
0.0
  0
LINE
  8
0
  6
BYLAYER
 62
     7
 10
1063.460751
 20
-166.687713
 30
0.0
 11
1063.460751
 21
-158.687713
 31
0.0
  0
LINE
  8
0
  6
BYLAYER
 62
     7
 10
1063.460751
 20
-158.687713
 30
0.0
 11
1071.460751
 21
-158.687713
 31
0.0
  0
LINE
  8
0
  6
BYLAYER
 62
     7
 10
1063.460751
 20
-166.687713
 30
0.0
 11
1071.460751
 21
-166.687713
 31
0.0
  0
LINE
  8
0
  6
BYLAYER
 62
     7
 10
1071.460751
 20
-158.687713
 30
0.0
 11
1071.460751
 21
-166.687713
 31
0.0
  0
LINE
  8
0
  6
BYLAYER
 62
     7
 10
1021.460751
 20
-98.687713
 30
0.0
 11
1021.460751
 21
-106.687713
 31
0.0
  0
LINE
  8
0
  6
BYLAYER
 62
     7
 10
1021.460751
 20
-88.687713
 30
0.0
 11
1021.460751
 21
-96.687713
 31
0.0
  0
LINE
  8
0
  6
BYLAYER
 62
     7
 10
1013.460751
 20
-96.687713
 30
0.0
 11
1013.460751
 21
-88.687713
 31
0.0
  0
LINE
  8
0
  6
BYLAYER
 62
     7
 10
1011.460751
 20
-96.687713
 30
0.0
 11
1011.460751
 21
-88.687713
 31
0.0
  0
LINE
  8
0
  6
BYLAYER
 62
     7
 10
1021.460751
 20
-106.687713
 30
0.0
 11
1013.460751
 21
-106.687713
 31
0.0
  0
LINE
  8
0
  6
BYLAYER
 62
     7
 10
1021.460751
 20
-98.687713
 30
0.0
 11
1013.460751
 21
-98.687713
 31
0.0
  0
LINE
  8
0
  6
BYLAYER
 62
     7
 10
1011.460751
 20
-96.687713
 30
0.0
 11
1003.622752
 21
-96.687713
 31
0.0
  0
LINE
  8
0
  6
BYLAYER
 62
     7
 10
1021.460751
 20
-96.687713
 30
0.0
 11
1013.460751
 21
-96.687713
 31
0.0
  0
LINE
  8
0
  6
BYLAYER
 62
     7
 10
1011.460751
 20
-88.687713
 30
0.0
 11
1003.622752
 21
-88.687713
 31
0.0
  0
LINE
  8
0
  6
BYLAYER
 62
     7
 10
1021.460751
 20
-88.687713
 30
0.0
 11
1013.460751
 21
-88.687713
 31
0.0
  0
LINE
  8
0
  6
BYLAYER
 62
     7
 10
1003.622752
 20
-96.687713
 30
0.0
 11
1003.622752
 21
-88.687713
 31
0.0
  0
LINE
  8
0
  6
BYLAYER
 62
     7
 10
1013.460751
 20
-106.687713
 30
0.0
 11
1013.460751
 21
-98.687713
 31
0.0
  0
LINE
  8
0
  6
BYLAYER
 62
     7
 10
1011.460751
 20
-98.687713
 30
0.0
 11
1011.460751
 21
-106.687713
 31
0.0
  0
LINE
  8
0
  6
BYLAYER
 62
     7
 10
1011.460751
 20
-106.687713
 30
0.0
 11
1003.460751
 21
-106.687713
 31
0.0
  0
LINE
  8
0
  6
BYLAYER
 62
     7
 10
1011.460751
 20
-98.687713
 30
0.0
 11
1003.460751
 21
-98.687713
 31
0.0
  0
LINE
  8
0
  6
BYLAYER
 62
     7
 10
1003.460751
 20
-106.687713
 30
0.0
 11
1003.460751
 21
-98.687713
 31
0.0
  0
LINE
  8
0
  6
BYLAYER
 62
     7
 10
1001.460751
 20
-116.687713
 30
0.0
 11
993.460751
 21
-116.687713
 31
0.0
  0
LINE
  8
0
  6
BYLAYER
 62
     7
 10
1001.460751
 20
-98.687713
 30
0.0
 11
1001.460751
 21
-106.687713
 31
0.0
  0
LINE
  8
0
  6
BYLAYER
 62
     7
 10
1001.460751
 20
-108.687713
 30
0.0
 11
1001.460751
 21
-116.687713
 31
0.0
  0
LINE
  8
0
  6
BYLAYER
 62
     7
 10
1001.460751
 20
-108.687713
 30
0.0
 11
993.460751
 21
-108.687713
 31
0.0
  0
LINE
  8
0
  6
BYLAYER
 62
     7
 10
1001.460751
 20
-106.687713
 30
0.0
 11
993.460751
 21
-106.687713
 31
0.0
  0
LINE
  8
0
  6
BYLAYER
 62
     7
 10
1001.460751
 20
-98.687713
 30
0.0
 11
993.460751
 21
-98.687713
 31
0.0
  0
LINE
  8
0
  6
BYLAYER
 62
     7
 10
993.460751
 20
-116.687713
 30
0.0
 11
993.460751
 21
-108.687713
 31
0.0
  0
LINE
  8
0
  6
BYLAYER
 62
     7
 10
993.460751
 20
-106.687713
 30
0.0
 11
993.460751
 21
-98.687713
 31
0.0
  0
LINE
  8
0
  6
BYLAYER
 62
     7
 10
1001.460751
 20
-126.687713
 30
0.0
 11
993.460751
 21
-126.687713
 31
0.0
  0
LINE
  8
0
  6
BYLAYER
 62
     7
 10
1001.460751
 20
-118.687713
 30
0.0
 11
1001.460751
 21
-126.687713
 31
0.0
  0
LINE
  8
0
  6
BYLAYER
 62
     7
 10
1001.460751
 20
-118.687713
 30
0.0
 11
993.460751
 21
-118.687713
 31
0.0
  0
LINE
  8
0
  6
BYLAYER
 62
     7
 10
993.460751
 20
-126.687713
 30
0.0
 11
993.460751
 21
-118.687713
 31
0.0
  0
LINE
  8
0
  6
BYLAYER
 62
     7
 10
991.460751
 20
-116.687713
 30
0.0
 11
983.460751
 21
-116.687713
 31
0.0
  0
LINE
  8
0
  6
BYLAYER
 62
     7
 10
991.460751
 20
-108.687713
 30
0.0
 11
991.460751
 21
-116.687713
 31
0.0
  0
LINE
  8
0
  6
BYLAYER
 62
     7
 10
991.460751
 20
-108.687713
 30
0.0
 11
983.460751
 21
-108.687713
 31
0.0
  0
LINE
  8
0
  6
BYLAYER
 62
     7
 10
983.460751
 20
-116.687713
 30
0.0
 11
983.460751
 21
-108.687713
 31
0.0
  0
LINE
  8
0
  6
BYLAYER
 62
     7
 10
991.460751
 20
-126.687713
 30
0.0
 11
983.460751
 21
-126.687713
 31
0.0
  0
LINE
  8
0
  6
BYLAYER
 62
     7
 10
991.460751
 20
-118.687713
 30
0.0
 11
991.460751
 21
-126.687713
 31
0.0
  0
LINE
  8
0
  6
BYLAYER
 62
     7
 10
991.460751
 20
-118.687713
 30
0.0
 11
983.460751
 21
-118.687713
 31
0.0
  0
LINE
  8
0
  6
BYLAYER
 62
     7
 10
983.460751
 20
-126.687713
 30
0.0
 11
983.460751
 21
-118.687713
 31
0.0
  0
LINE
  8
0
  6
BYLAYER
 62
     7
 10
981.460751
 20
-116.687713
 30
0.0
 11
973.460751
 21
-116.687713
 31
0.0
  0
LINE
  8
0
  6
BYLAYER
 62
     7
 10
981.460751
 20
-108.687713
 30
0.0
 11
981.460751
 21
-116.687713
 31
0.0
  0
LINE
  8
0
  6
BYLAYER
 62
     7
 10
981.460751
 20
-108.687713
 30
0.0
 11
973.460751
 21
-108.687713
 31
0.0
  0
LINE
  8
0
  6
BYLAYER
 62
     7
 10
973.460751
 20
-116.687713
 30
0.0
 11
973.460751
 21
-108.687713
 31
0.0
  0
LINE
  8
0
  6
BYLAYER
 62
     7
 10
981.460751
 20
-126.687713
 30
0.0
 11
973.460751
 21
-126.687713
 31
0.0
  0
LINE
  8
0
  6
BYLAYER
 62
     7
 10
981.460751
 20
-118.687713
 30
0.0
 11
981.460751
 21
-126.687713
 31
0.0
  0
LINE
  8
0
  6
BYLAYER
 62
     7
 10
981.460751
 20
-118.687713
 30
0.0
 11
973.460751
 21
-118.687713
 31
0.0
  0
LINE
  8
0
  6
BYLAYER
 62
     7
 10
973.460751
 20
-126.687713
 30
0.0
 11
973.460751
 21
-118.687713
 31
0.0
  0
LINE
  8
0
  6
BYLAYER
 62
     7
 10
1021.460751
 20
-78.687713
 30
0.0
 11
1021.460751
 21
-86.687713
 31
0.0
  0
LINE
  8
0
  6
BYLAYER
 62
     7
 10
1013.460751
 20
-86.687713
 30
0.0
 11
1013.460751
 21
-78.687713
 31
0.0
  0
LINE
  8
0
  6
BYLAYER
 62
     7
 10
1011.460751
 20
-86.687713
 30
0.0
 11
1011.460751
 21
-78.687713
 31
0.0
  0
LINE
  8
0
  6
BYLAYER
 62
     7
 10
1011.460751
 20
-86.687713
 30
0.0
 11
1003.622752
 21
-86.687713
 31
0.0
  0
LINE
  8
0
  6
BYLAYER
 62
     7
 10
1021.460751
 20
-86.687713
 30
0.0
 11
1013.460751
 21
-86.687713
 31
0.0
  0
LINE
  8
0
  6
BYLAYER
 62
     7
 10
1011.460751
 20
-78.687713
 30
0.0
 11
1003.622752
 21
-78.687713
 31
0.0
  0
LINE
  8
0
  6
BYLAYER
 62
     7
 10
1021.460751
 20
-78.687713
 30
0.0
 11
1013.460751
 21
-78.687713
 31
0.0
  0
LINE
  8
0
  6
BYLAYER
 62
     7
 10
1003.622752
 20
-86.687713
 30
0.0
 11
1003.622752
 21
-78.687713
 31
0.0
  0
LINE
  8
0
  6
BYLAYER
 62
     7
 10
1001.460751
 20
-88.687713
 30
0.0
 11
1001.460751
 21
-96.687713
 31
0.0
  0
LINE
  8
0
  6
BYLAYER
 62
     7
 10
1001.460751
 20
-96.687713
 30
0.0
 11
993.460751
 21
-96.687713
 31
0.0
  0
LINE
  8
0
  6
BYLAYER
 62
     7
 10
1001.460751
 20
-88.687713
 30
0.0
 11
993.460751
 21
-88.687713
 31
0.0
  0
LINE
  8
0
  6
BYLAYER
 62
     7
 10
993.460751
 20
-96.687713
 30
0.0
 11
993.460751
 21
-88.687713
 31
0.0
  0
LINE
  8
0
  6
BYLAYER
 62
     7
 10
1001.460751
 20
-78.687713
 30
0.0
 11
1001.460751
 21
-86.687713
 31
0.0
  0
LINE
  8
0
  6
BYLAYER
 62
     7
 10
1001.460751
 20
-86.687713
 30
0.0
 11
993.460751
 21
-86.687713
 31
0.0
  0
LINE
  8
0
  6
BYLAYER
 62
     7
 10
1001.460751
 20
-78.687713
 30
0.0
 11
993.460751
 21
-78.687713
 31
0.0
  0
LINE
  8
0
  6
BYLAYER
 62
     7
 10
993.460751
 20
-86.687713
 30
0.0
 11
993.460751
 21
-78.687713
 31
0.0
  0
LINE
  8
0
  6
BYLAYER
 62
     7
 10
991.460751
 20
-98.687713
 30
0.0
 11
991.460751
 21
-106.687713
 31
0.0
  0
LINE
  8
0
  6
BYLAYER
 62
     7
 10
991.460751
 20
-106.687713
 30
0.0
 11
983.460751
 21
-106.687713
 31
0.0
  0
LINE
  8
0
  6
BYLAYER
 62
     7
 10
991.460751
 20
-98.687713
 30
0.0
 11
983.460751
 21
-98.687713
 31
0.0
  0
LINE
  8
0
  6
BYLAYER
 62
     7
 10
983.460751
 20
-106.687713
 30
0.0
 11
983.460751
 21
-98.687713
 31
0.0
  0
LINE
  8
0
  6
BYLAYER
 62
     7
 10
991.460751
 20
-88.687713
 30
0.0
 11
991.460751
 21
-96.687713
 31
0.0
  0
LINE
  8
0
  6
BYLAYER
 62
     7
 10
991.460751
 20
-96.687713
 30
0.0
 11
983.460751
 21
-96.687713
 31
0.0
  0
LINE
  8
0
  6
BYLAYER
 62
     7
 10
991.460751
 20
-88.687713
 30
0.0
 11
983.460751
 21
-88.687713
 31
0.0
  0
LINE
  8
0
  6
BYLAYER
 62
     7
 10
983.460751
 20
-96.687713
 30
0.0
 11
983.460751
 21
-88.687713
 31
0.0
  0
LINE
  8
0
  6
BYLAYER
 62
     7
 10
981.460751
 20
-98.687713
 30
0.0
 11
981.460751
 21
-106.687713
 31
0.0
  0
LINE
  8
0
  6
BYLAYER
 62
     7
 10
981.460751
 20
-106.687713
 30
0.0
 11
973.460751
 21
-106.687713
 31
0.0
  0
LINE
  8
0
  6
BYLAYER
 62
     7
 10
981.460751
 20
-98.687713
 30
0.0
 11
973.460751
 21
-98.687713
 31
0.0
  0
LINE
  8
0
  6
BYLAYER
 62
     7
 10
973.460751
 20
-106.687713
 30
0.0
 11
973.460751
 21
-98.687713
 31
0.0
  0
LINE
  8
0
  6
BYLAYER
 62
     7
 10
971.460751
 20
-116.687713
 30
0.0
 11
963.460751
 21
-116.687713
 31
0.0
  0
LINE
  8
0
  6
BYLAYER
 62
     7
 10
971.460751
 20
-108.687713
 30
0.0
 11
971.460751
 21
-116.687713
 31
0.0
  0
LINE
  8
0
  6
BYLAYER
 62
     7
 10
971.460751
 20
-108.687713
 30
0.0
 11
963.460751
 21
-108.687713
 31
0.0
  0
LINE
  8
0
  6
BYLAYER
 62
     7
 10
963.460751
 20
-116.687713
 30
0.0
 11
963.460751
 21
-108.687713
 31
0.0
  0
LINE
  8
0
  6
BYLAYER
 62
     7
 10
971.460751
 20
-126.687713
 30
0.0
 11
963.460751
 21
-126.687713
 31
0.0
  0
LINE
  8
0
  6
BYLAYER
 62
     7
 10
971.460751
 20
-118.687713
 30
0.0
 11
971.460751
 21
-126.687713
 31
0.0
  0
LINE
  8
0
  6
BYLAYER
 62
     7
 10
971.460751
 20
-118.687713
 30
0.0
 11
963.460751
 21
-118.687713
 31
0.0
  0
LINE
  8
0
  6
BYLAYER
 62
     7
 10
963.460751
 20
-126.687713
 30
0.0
 11
963.460751
 21
-118.687713
 31
0.0
  0
LINE
  8
0
  6
BYLAYER
 62
     7
 10
971.460751
 20
-98.687713
 30
0.0
 11
971.460751
 21
-106.687713
 31
0.0
  0
LINE
  8
0
  6
BYLAYER
 62
     7
 10
971.460751
 20
-106.687713
 30
0.0
 11
963.460751
 21
-106.687713
 31
0.0
  0
LINE
  8
0
  6
BYLAYER
 62
     7
 10
971.460751
 20
-98.687713
 30
0.0
 11
963.460751
 21
-98.687713
 31
0.0
  0
LINE
  8
0
  6
BYLAYER
 62
     7
 10
963.460751
 20
-106.687713
 30
0.0
 11
963.460751
 21
-98.687713
 31
0.0
  0
LINE
  8
0
  6
BYLAYER
 62
     7
 10
1021.460751
 20
-68.687713
 30
0.0
 11
1021.460751
 21
-76.687713
 31
0.0
  0
LINE
  8
0
  6
BYLAYER
 62
     7
 10
1013.460751
 20
-76.687713
 30
0.0
 11
1013.460751
 21
-68.687713
 31
0.0
  0
LINE
  8
0
  6
BYLAYER
 62
     7
 10
1011.460751
 20
-76.687713
 30
0.0
 11
1011.460751
 21
-68.687713
 31
0.0
  0
LINE
  8
0
  6
BYLAYER
 62
     7
 10
1011.460751
 20
-76.687713
 30
0.0
 11
1003.622752
 21
-76.687713
 31
0.0
  0
LINE
  8
0
  6
BYLAYER
 62
     7
 10
1021.460751
 20
-76.687713
 30
0.0
 11
1013.460751
 21
-76.687713
 31
0.0
  0
LINE
  8
0
  6
BYLAYER
 62
     7
 10
1011.460751
 20
-68.687713
 30
0.0
 11
1003.622752
 21
-68.687713
 31
0.0
  0
LINE
  8
0
  6
BYLAYER
 62
     7
 10
1021.460751
 20
-68.687713
 30
0.0
 11
1013.460751
 21
-68.687713
 31
0.0
  0
LINE
  8
0
  6
BYLAYER
 62
     7
 10
1003.622752
 20
-76.687713
 30
0.0
 11
1003.622752
 21
-68.687713
 31
0.0
  0
LINE
  8
0
  6
BYLAYER
 62
     7
 10
1001.460751
 20
-68.687713
 30
0.0
 11
1001.460751
 21
-76.687713
 31
0.0
  0
LINE
  8
0
  6
BYLAYER
 62
     7
 10
1001.460751
 20
-76.687713
 30
0.0
 11
993.460751
 21
-76.687713
 31
0.0
  0
LINE
  8
0
  6
BYLAYER
 62
     7
 10
1001.460751
 20
-68.687713
 30
0.0
 11
993.460751
 21
-68.687713
 31
0.0
  0
LINE
  8
0
  6
BYLAYER
 62
     7
 10
993.460751
 20
-76.687713
 30
0.0
 11
993.460751
 21
-68.687713
 31
0.0
  0
LINE
  8
0
  6
BYLAYER
 62
     7
 10
991.460751
 20
-78.687713
 30
0.0
 11
991.460751
 21
-86.687713
 31
0.0
  0
LINE
  8
0
  6
BYLAYER
 62
     7
 10
991.460751
 20
-86.687713
 30
0.0
 11
983.460751
 21
-86.687713
 31
0.0
  0
LINE
  8
0
  6
BYLAYER
 62
     7
 10
991.460751
 20
-78.687713
 30
0.0
 11
983.460751
 21
-78.687713
 31
0.0
  0
LINE
  8
0
  6
BYLAYER
 62
     7
 10
983.460751
 20
-86.687713
 30
0.0
 11
983.460751
 21
-78.687713
 31
0.0
  0
LINE
  8
0
  6
BYLAYER
 62
     7
 10
981.460751
 20
-88.687713
 30
0.0
 11
981.460751
 21
-96.687713
 31
0.0
  0
LINE
  8
0
  6
BYLAYER
 62
     7
 10
981.460751
 20
-96.687713
 30
0.0
 11
973.460751
 21
-96.687713
 31
0.0
  0
LINE
  8
0
  6
BYLAYER
 62
     7
 10
981.460751
 20
-88.687713
 30
0.0
 11
973.460751
 21
-88.687713
 31
0.0
  0
LINE
  8
0
  6
BYLAYER
 62
     7
 10
973.460751
 20
-96.687713
 30
0.0
 11
973.460751
 21
-88.687713
 31
0.0
  0
LINE
  8
0
  6
BYLAYER
 62
     7
 10
1021.460751
 20
-156.687713
 30
0.0
 11
1021.460751
 21
-148.687713
 31
0.0
  0
LINE
  8
0
  6
BYLAYER
 62
     7
 10
1021.460751
 20
-166.687713
 30
0.0
 11
1021.460751
 21
-158.687713
 31
0.0
  0
LINE
  8
0
  6
BYLAYER
 62
     7
 10
1013.460751
 20
-158.687713
 30
0.0
 11
1013.460751
 21
-166.687713
 31
0.0
  0
LINE
  8
0
  6
BYLAYER
 62
     7
 10
1011.460751
 20
-158.687713
 30
0.0
 11
1011.460751
 21
-166.687713
 31
0.0
  0
LINE
  8
0
  6
BYLAYER
 62
     7
 10
1021.460751
 20
-148.687713
 30
0.0
 11
1013.460751
 21
-148.687713
 31
0.0
  0
LINE
  8
0
  6
BYLAYER
 62
     7
 10
1021.460751
 20
-156.687713
 30
0.0
 11
1013.460751
 21
-156.687713
 31
0.0
  0
LINE
  8
0
  6
BYLAYER
 62
     7
 10
1011.460751
 20
-158.687713
 30
0.0
 11
1003.622752
 21
-158.687713
 31
0.0
  0
LINE
  8
0
  6
BYLAYER
 62
     7
 10
1021.460751
 20
-158.687713
 30
0.0
 11
1013.460751
 21
-158.687713
 31
0.0
  0
LINE
  8
0
  6
BYLAYER
 62
     7
 10
1011.460751
 20
-166.687713
 30
0.0
 11
1003.622752
 21
-166.687713
 31
0.0
  0
LINE
  8
0
  6
BYLAYER
 62
     7
 10
1021.460751
 20
-166.687713
 30
0.0
 11
1013.460751
 21
-166.687713
 31
0.0
  0
LINE
  8
0
  6
BYLAYER
 62
     7
 10
1003.622752
 20
-158.687713
 30
0.0
 11
1003.622752
 21
-166.687713
 31
0.0
  0
LINE
  8
0
  6
BYLAYER
 62
     7
 10
1013.460751
 20
-148.687713
 30
0.0
 11
1013.460751
 21
-156.687713
 31
0.0
  0
LINE
  8
0
  6
BYLAYER
 62
     7
 10
1011.460751
 20
-156.687713
 30
0.0
 11
1011.460751
 21
-148.687713
 31
0.0
  0
LINE
  8
0
  6
BYLAYER
 62
     7
 10
1011.460751
 20
-148.687713
 30
0.0
 11
1003.460751
 21
-148.687713
 31
0.0
  0
LINE
  8
0
  6
BYLAYER
 62
     7
 10
1011.460751
 20
-156.687713
 30
0.0
 11
1003.460751
 21
-156.687713
 31
0.0
  0
LINE
  8
0
  6
BYLAYER
 62
     7
 10
1003.460751
 20
-148.687713
 30
0.0
 11
1003.460751
 21
-156.687713
 31
0.0
  0
LINE
  8
0
  6
BYLAYER
 62
     7
 10
1001.460751
 20
-138.687713
 30
0.0
 11
993.460751
 21
-138.687713
 31
0.0
  0
LINE
  8
0
  6
BYLAYER
 62
     7
 10
1001.460751
 20
-156.687713
 30
0.0
 11
1001.460751
 21
-148.687713
 31
0.0
  0
LINE
  8
0
  6
BYLAYER
 62
     7
 10
1001.460751
 20
-146.687713
 30
0.0
 11
1001.460751
 21
-138.687713
 31
0.0
  0
LINE
  8
0
  6
BYLAYER
 62
     7
 10
1001.460751
 20
-146.687713
 30
0.0
 11
993.460751
 21
-146.687713
 31
0.0
  0
LINE
  8
0
  6
BYLAYER
 62
     7
 10
1001.460751
 20
-148.687713
 30
0.0
 11
993.460751
 21
-148.687713
 31
0.0
  0
LINE
  8
0
  6
BYLAYER
 62
     7
 10
1001.460751
 20
-156.687713
 30
0.0
 11
993.460751
 21
-156.687713
 31
0.0
  0
LINE
  8
0
  6
BYLAYER
 62
     7
 10
993.460751
 20
-138.687713
 30
0.0
 11
993.460751
 21
-146.687713
 31
0.0
  0
LINE
  8
0
  6
BYLAYER
 62
     7
 10
993.460751
 20
-148.687713
 30
0.0
 11
993.460751
 21
-156.687713
 31
0.0
  0
LINE
  8
0
  6
BYLAYER
 62
     7
 10
1001.460751
 20
-128.687713
 30
0.0
 11
993.460751
 21
-128.687713
 31
0.0
  0
LINE
  8
0
  6
BYLAYER
 62
     7
 10
1001.460751
 20
-136.687713
 30
0.0
 11
1001.460751
 21
-128.687713
 31
0.0
  0
LINE
  8
0
  6
BYLAYER
 62
     7
 10
1001.460751
 20
-136.687713
 30
0.0
 11
993.460751
 21
-136.687713
 31
0.0
  0
LINE
  8
0
  6
BYLAYER
 62
     7
 10
993.460751
 20
-128.687713
 30
0.0
 11
993.460751
 21
-136.687713
 31
0.0
  0
LINE
  8
0
  6
BYLAYER
 62
     7
 10
991.460751
 20
-138.687713
 30
0.0
 11
983.460751
 21
-138.687713
 31
0.0
  0
LINE
  8
0
  6
BYLAYER
 62
     7
 10
991.460751
 20
-146.687713
 30
0.0
 11
991.460751
 21
-138.687713
 31
0.0
  0
LINE
  8
0
  6
BYLAYER
 62
     7
 10
991.460751
 20
-146.687713
 30
0.0
 11
983.460751
 21
-146.687713
 31
0.0
  0
LINE
  8
0
  6
BYLAYER
 62
     7
 10
983.460751
 20
-138.687713
 30
0.0
 11
983.460751
 21
-146.687713
 31
0.0
  0
LINE
  8
0
  6
BYLAYER
 62
     7
 10
991.460751
 20
-128.687713
 30
0.0
 11
983.460751
 21
-128.687713
 31
0.0
  0
LINE
  8
0
  6
BYLAYER
 62
     7
 10
991.460751
 20
-136.687713
 30
0.0
 11
991.460751
 21
-128.687713
 31
0.0
  0
LINE
  8
0
  6
BYLAYER
 62
     7
 10
991.460751
 20
-136.687713
 30
0.0
 11
983.460751
 21
-136.687713
 31
0.0
  0
LINE
  8
0
  6
BYLAYER
 62
     7
 10
983.460751
 20
-128.687713
 30
0.0
 11
983.460751
 21
-136.687713
 31
0.0
  0
LINE
  8
0
  6
BYLAYER
 62
     7
 10
981.460751
 20
-138.687713
 30
0.0
 11
973.460751
 21
-138.687713
 31
0.0
  0
LINE
  8
0
  6
BYLAYER
 62
     7
 10
981.460751
 20
-146.687713
 30
0.0
 11
981.460751
 21
-138.687713
 31
0.0
  0
LINE
  8
0
  6
BYLAYER
 62
     7
 10
981.460751
 20
-146.687713
 30
0.0
 11
973.460751
 21
-146.687713
 31
0.0
  0
LINE
  8
0
  6
BYLAYER
 62
     7
 10
973.460751
 20
-138.687713
 30
0.0
 11
973.460751
 21
-146.687713
 31
0.0
  0
LINE
  8
0
  6
BYLAYER
 62
     7
 10
981.460751
 20
-128.687713
 30
0.0
 11
973.460751
 21
-128.687713
 31
0.0
  0
LINE
  8
0
  6
BYLAYER
 62
     7
 10
981.460751
 20
-136.687713
 30
0.0
 11
981.460751
 21
-128.687713
 31
0.0
  0
LINE
  8
0
  6
BYLAYER
 62
     7
 10
981.460751
 20
-136.687713
 30
0.0
 11
973.460751
 21
-136.687713
 31
0.0
  0
LINE
  8
0
  6
BYLAYER
 62
     7
 10
973.460751
 20
-128.687713
 30
0.0
 11
973.460751
 21
-136.687713
 31
0.0
  0
LINE
  8
0
  6
BYLAYER
 62
     7
 10
1021.460751
 20
-176.687713
 30
0.0
 11
1021.460751
 21
-168.687713
 31
0.0
  0
LINE
  8
0
  6
BYLAYER
 62
     7
 10
1013.460751
 20
-168.687713
 30
0.0
 11
1013.460751
 21
-176.687713
 31
0.0
  0
LINE
  8
0
  6
BYLAYER
 62
     7
 10
1011.460751
 20
-168.687713
 30
0.0
 11
1011.460751
 21
-176.687713
 31
0.0
  0
LINE
  8
0
  6
BYLAYER
 62
     7
 10
1011.460751
 20
-168.687713
 30
0.0
 11
1003.622752
 21
-168.687713
 31
0.0
  0
LINE
  8
0
  6
BYLAYER
 62
     7
 10
1021.460751
 20
-168.687713
 30
0.0
 11
1013.460751
 21
-168.687713
 31
0.0
  0
LINE
  8
0
  6
BYLAYER
 62
     7
 10
1011.460751
 20
-176.687713
 30
0.0
 11
1003.622752
 21
-176.687713
 31
0.0
  0
LINE
  8
0
  6
BYLAYER
 62
     7
 10
1021.460751
 20
-176.687713
 30
0.0
 11
1013.460751
 21
-176.687713
 31
0.0
  0
LINE
  8
0
  6
BYLAYER
 62
     7
 10
1003.622752
 20
-168.687713
 30
0.0
 11
1003.622752
 21
-176.687713
 31
0.0
  0
LINE
  8
0
  6
BYLAYER
 62
     7
 10
1001.460751
 20
-166.687713
 30
0.0
 11
1001.460751
 21
-158.687713
 31
0.0
  0
LINE
  8
0
  6
BYLAYER
 62
     7
 10
1001.460751
 20
-158.687713
 30
0.0
 11
993.460751
 21
-158.687713
 31
0.0
  0
LINE
  8
0
  6
BYLAYER
 62
     7
 10
1001.460751
 20
-166.687713
 30
0.0
 11
993.460751
 21
-166.687713
 31
0.0
  0
LINE
  8
0
  6
BYLAYER
 62
     7
 10
993.460751
 20
-158.687713
 30
0.0
 11
993.460751
 21
-166.687713
 31
0.0
  0
LINE
  8
0
  6
BYLAYER
 62
     7
 10
1001.460751
 20
-176.687713
 30
0.0
 11
1001.460751
 21
-168.687713
 31
0.0
  0
LINE
  8
0
  6
BYLAYER
 62
     7
 10
1001.460751
 20
-168.687713
 30
0.0
 11
993.460751
 21
-168.687713
 31
0.0
  0
LINE
  8
0
  6
BYLAYER
 62
     7
 10
1001.460751
 20
-176.687713
 30
0.0
 11
993.460751
 21
-176.687713
 31
0.0
  0
LINE
  8
0
  6
BYLAYER
 62
     7
 10
993.460751
 20
-168.687713
 30
0.0
 11
993.460751
 21
-176.687713
 31
0.0
  0
LINE
  8
0
  6
BYLAYER
 62
     7
 10
991.460751
 20
-156.687713
 30
0.0
 11
991.460751
 21
-148.687713
 31
0.0
  0
LINE
  8
0
  6
BYLAYER
 62
     7
 10
991.460751
 20
-148.687713
 30
0.0
 11
983.460751
 21
-148.687713
 31
0.0
  0
LINE
  8
0
  6
BYLAYER
 62
     7
 10
991.460751
 20
-156.687713
 30
0.0
 11
983.460751
 21
-156.687713
 31
0.0
  0
LINE
  8
0
  6
BYLAYER
 62
     7
 10
983.460751
 20
-148.687713
 30
0.0
 11
983.460751
 21
-156.687713
 31
0.0
  0
LINE
  8
0
  6
BYLAYER
 62
     7
 10
991.460751
 20
-166.687713
 30
0.0
 11
991.460751
 21
-158.687713
 31
0.0
  0
LINE
  8
0
  6
BYLAYER
 62
     7
 10
991.460751
 20
-158.687713
 30
0.0
 11
983.460751
 21
-158.687713
 31
0.0
  0
LINE
  8
0
  6
BYLAYER
 62
     7
 10
991.460751
 20
-166.687713
 30
0.0
 11
983.460751
 21
-166.687713
 31
0.0
  0
LINE
  8
0
  6
BYLAYER
 62
     7
 10
983.460751
 20
-158.687713
 30
0.0
 11
983.460751
 21
-166.687713
 31
0.0
  0
LINE
  8
0
  6
BYLAYER
 62
     7
 10
981.460751
 20
-156.687713
 30
0.0
 11
981.460751
 21
-148.687713
 31
0.0
  0
LINE
  8
0
  6
BYLAYER
 62
     7
 10
981.460751
 20
-148.687713
 30
0.0
 11
973.460751
 21
-148.687713
 31
0.0
  0
LINE
  8
0
  6
BYLAYER
 62
     7
 10
981.460751
 20
-156.687713
 30
0.0
 11
973.460751
 21
-156.687713
 31
0.0
  0
LINE
  8
0
  6
BYLAYER
 62
     7
 10
973.460751
 20
-148.687713
 30
0.0
 11
973.460751
 21
-156.687713
 31
0.0
  0
LINE
  8
0
  6
BYLAYER
 62
     7
 10
971.460751
 20
-138.687713
 30
0.0
 11
963.460751
 21
-138.687713
 31
0.0
  0
LINE
  8
0
  6
BYLAYER
 62
     7
 10
971.460751
 20
-146.687713
 30
0.0
 11
971.460751
 21
-138.687713
 31
0.0
  0
LINE
  8
0
  6
BYLAYER
 62
     7
 10
971.460751
 20
-146.687713
 30
0.0
 11
963.460751
 21
-146.687713
 31
0.0
  0
LINE
  8
0
  6
BYLAYER
 62
     7
 10
963.460751
 20
-138.687713
 30
0.0
 11
963.460751
 21
-146.687713
 31
0.0
  0
LINE
  8
0
  6
BYLAYER
 62
     7
 10
971.460751
 20
-128.687713
 30
0.0
 11
963.460751
 21
-128.687713
 31
0.0
  0
LINE
  8
0
  6
BYLAYER
 62
     7
 10
971.460751
 20
-136.687713
 30
0.0
 11
971.460751
 21
-128.687713
 31
0.0
  0
LINE
  8
0
  6
BYLAYER
 62
     7
 10
971.460751
 20
-136.687713
 30
0.0
 11
963.460751
 21
-136.687713
 31
0.0
  0
LINE
  8
0
  6
BYLAYER
 62
     7
 10
963.460751
 20
-128.687713
 30
0.0
 11
963.460751
 21
-136.687713
 31
0.0
  0
LINE
  8
0
  6
BYLAYER
 62
     7
 10
971.460751
 20
-156.687713
 30
0.0
 11
971.460751
 21
-148.687713
 31
0.0
  0
LINE
  8
0
  6
BYLAYER
 62
     7
 10
971.460751
 20
-148.687713
 30
0.0
 11
963.460751
 21
-148.687713
 31
0.0
  0
LINE
  8
0
  6
BYLAYER
 62
     7
 10
971.460751
 20
-156.687713
 30
0.0
 11
963.460751
 21
-156.687713
 31
0.0
  0
LINE
  8
0
  6
BYLAYER
 62
     7
 10
963.460751
 20
-148.687713
 30
0.0
 11
963.460751
 21
-156.687713
 31
0.0
  0
LINE
  8
0
  6
BYLAYER
 62
     7
 10
1021.460751
 20
-186.687713
 30
0.0
 11
1021.460751
 21
-178.687713
 31
0.0
  0
LINE
  8
0
  6
BYLAYER
 62
     7
 10
1013.460751
 20
-178.687713
 30
0.0
 11
1013.460751
 21
-186.687713
 31
0.0
  0
LINE
  8
0
  6
BYLAYER
 62
     7
 10
1011.460751
 20
-178.687713
 30
0.0
 11
1011.460751
 21
-186.687713
 31
0.0
  0
LINE
  8
0
  6
BYLAYER
 62
     7
 10
1011.460751
 20
-178.687713
 30
0.0
 11
1003.622752
 21
-178.687713
 31
0.0
  0
LINE
  8
0
  6
BYLAYER
 62
     7
 10
1021.460751
 20
-178.687713
 30
0.0
 11
1013.460751
 21
-178.687713
 31
0.0
  0
LINE
  8
0
  6
BYLAYER
 62
     7
 10
1011.460751
 20
-186.687713
 30
0.0
 11
1003.622752
 21
-186.687713
 31
0.0
  0
LINE
  8
0
  6
BYLAYER
 62
     7
 10
1021.460751
 20
-186.687713
 30
0.0
 11
1013.460751
 21
-186.687713
 31
0.0
  0
LINE
  8
0
  6
BYLAYER
 62
     7
 10
1003.622752
 20
-178.687713
 30
0.0
 11
1003.622752
 21
-186.687713
 31
0.0
  0
LINE
  8
0
  6
BYLAYER
 62
     7
 10
1001.460751
 20
-186.687713
 30
0.0
 11
1001.460751
 21
-178.687713
 31
0.0
  0
LINE
  8
0
  6
BYLAYER
 62
     7
 10
1001.460751
 20
-178.687713
 30
0.0
 11
993.460751
 21
-178.687713
 31
0.0
  0
LINE
  8
0
  6
BYLAYER
 62
     7
 10
1001.460751
 20
-186.687713
 30
0.0
 11
993.460751
 21
-186.687713
 31
0.0
  0
LINE
  8
0
  6
BYLAYER
 62
     7
 10
993.460751
 20
-178.687713
 30
0.0
 11
993.460751
 21
-186.687713
 31
0.0
  0
LINE
  8
0
  6
BYLAYER
 62
     7
 10
991.460751
 20
-176.687713
 30
0.0
 11
991.460751
 21
-168.687713
 31
0.0
  0
LINE
  8
0
  6
BYLAYER
 62
     7
 10
991.460751
 20
-168.687713
 30
0.0
 11
983.460751
 21
-168.687713
 31
0.0
  0
LINE
  8
0
  6
BYLAYER
 62
     7
 10
991.460751
 20
-176.687713
 30
0.0
 11
983.460751
 21
-176.687713
 31
0.0
  0
LINE
  8
0
  6
BYLAYER
 62
     7
 10
983.460751
 20
-168.687713
 30
0.0
 11
983.460751
 21
-176.687713
 31
0.0
  0
LINE
  8
0
  6
BYLAYER
 62
     7
 10
981.460751
 20
-166.687713
 30
0.0
 11
981.460751
 21
-158.687713
 31
0.0
  0
LINE
  8
0
  6
BYLAYER
 62
     7
 10
981.460751
 20
-158.687713
 30
0.0
 11
973.460751
 21
-158.687713
 31
0.0
  0
LINE
  8
0
  6
BYLAYER
 62
     7
 10
981.460751
 20
-166.687713
 30
0.0
 11
973.460751
 21
-166.687713
 31
0.0
  0
LINE
  8
0
  6
BYLAYER
 62
     7
 10
973.460751
 20
-158.687713
 30
0.0
 11
973.460751
 21
-166.687713
 31
0.0
  0
CIRCLE
  8
0
  6
BYLAYER
 62
     7
 10
1022.460751
 20
-127.687713
 30
0.0
 40
71.999936
  0
CIRCLE
  8
0
  6
BYLAYER
 62
     7
 10
1022.460751
 20
-127.687713
 30
0.0
 40
86.549921
  0
ARC
  8
0
  6
BYLAYER
 62
     7
 10
1022.460751
 20
-127.687713
 30
0.0
 40
100.0
 50
119.340652
 51
420.659492
  0
ARC
  8
0
  6
BYLAYER
 62
     7
 10
1022.460751
 20
-127.687713
 30
0.0
 40
96.000000
 50
323.301669
 51
356.934592
  0
ARC
  8
0
  6
BYLAYER
 62
     7
 10
1022.460751
 20
-127.687713
 30
0.0
 40
96.0
 50
3.065408
 51
36.698331
  0
ARC
  8
0
  6
BYLAYER
 62
     7
 10
1022.460751
 20
-127.687713
 30
0.0
 40
96.000000
 50
233.301669
 51
266.934592
  0
ARC
  8
0
  6
BYLAYER
 62
     7
 10
1022.460751
 20
-127.687713
 30
0.0
 40
96.000000
 50
273.065408
 51
306.698331
  0
ARC
  8
0
  6
BYLAYER
 62
     7
 10
1022.460751
 20
-127.687713
 30
0.0
 40
96.0
 50
183.065408
 51
216.698331
  0
ARC
  8
0
  6
BYLAYER
 62
     7
 10
1022.460751
 20
-127.687713
 30
0.0
 40
96.000000
 50
143.301669
 51
176.934592
  0
ARC
  8
0
  6
BYLAYER
 62
     7
 10
1022.460751
 20
-127.687713
 30
0.0
 40
96.000000
 50
120.691662
 51
126.698331
  0
ARC
  8
0
  6
BYLAYER
 62
     7
 10
1022.460751
 20
-127.687713
 30
0.0
 40
96.0
 50
53.301669
 51
59.308487
  0
ARC
  8
0
  6
BYLAYER
 62
     7
 10
1078.336518
 20
-52.720063
 30
0.0
 40
2.500000
 50
315.000000
 51
413.301669
  0
ARC
  8
0
  6
BYLAYER
 62
     7
 10
1097.428401
 20
-71.811946
 30
0.0
 40
2.500000
 50
36.698331
 51
135.000000
  0
CIRCLE
  8
0
  6
BYLAYER
 62
     7
 10
1022.460751
 20
-127.687713
 30
0.0
 40
70.0
  0
ARC
  8
0
  6
BYLAYER
 62
     7
 10
1080.797060
 20
-69.351404
 30
0.0
 40
5.5
 50
1.144516
 51
88.855484
  0
LINE
  8
0
  6
BYLAYER
 62
     7
 10
1075.386319
 20
-59.205795
 30
0.0
 11
1080.104285
 21
-54.487829
 31
0.0
  0
LINE
  8
0
  6
BYLAYER
 62
     7
 10
1090.942669
 20
-74.762145
 30
0.0
 11
1095.660635
 21
-70.044179
 31
0.0
  0
ARC
  8
0
  6
BYLAYER
 62
     7
 10
966.584984
 20
-52.720063
 30
0.0
 40
2.500000
 50
126.698331
 51
225.000000
  0
ARC
  8
0
  6
BYLAYER
 62
     7
 10
947.493101
 20
-71.811946
 30
0.0
 40
2.5
 50
45.000000
 51
143.301669
  0
ARC
  8
0
  6
BYLAYER
 62
     7
 10
964.124442
 20
-69.351404
 30
0.0
 40
5.500000
 50
91.144516
 51
178.855484
  0
LINE
  8
0
  6
BYLAYER
 62
     7
 10
969.535183
 20
-59.205795
 30
0.0
 11
964.817217
 21
-54.487829
 31
0.0
  0
LINE
  8
0
  6
BYLAYER
 62
     7
 10
953.978833
 20
-74.762145
 30
0.0
 11
949.260867
 21
-70.044179
 31
0.0
  0
ARC
  8
0
  6
BYLAYER
 62
     7
 10
1078.336518
 20
-202.655363
 30
0.0
 40
2.500000
 50
306.698331
 51
405.000000
  0
ARC
  8
0
  6
BYLAYER
 62
     7
 10
1097.428401
 20
-183.563480
 30
0.0
 40
2.500000
 50
225.0
 51
323.301669
  0
ARC
  8
0
  6
BYLAYER
 62
     7
 10
1080.797060
 20
-186.024022
 30
0.0
 40
5.5
 50
271.144516
 51
358.855484
  0
LINE
  8
0
  6
BYLAYER
 62
     7
 10
1075.386319
 20
-196.169631
 30
0.0
 11
1080.104285
 21
-200.887597
 31
0.0
  0
LINE
  8
0
  6
BYLAYER
 62
     7
 10
1090.942669
 20
-180.613281
 30
0.0
 11
1095.660635
 21
-185.331247
 31
0.0
  0
ARC
  8
0
  6
BYLAYER
 62
     7
 10
966.584984
 20
-202.655363
 30
0.0
 40
2.500000
 50
135.000000
 51
233.301669
  0
ARC
  8
0
  6
BYLAYER
 62
     7
 10
947.493101
 20
-183.563480
 30
0.0
 40
2.500000
 50
216.698331
 51
315.000000
  0
ARC
  8
0
  6
BYLAYER
 62
     7
 10
964.124442
 20
-186.024022
 30
0.0
 40
5.500000
 50
181.144516
 51
268.855484
  0
LINE
  8
0
  6
BYLAYER
 62
     7
 10
969.535183
 20
-196.169631
 30
0.0
 11
964.817217
 21
-200.887597
 31
0.0
  0
LINE
  8
0
  6
BYLAYER
 62
     7
 10
953.978833
 20
-180.613281
 30
0.0
 11
949.260867
 21
-185.331247
 31
0.0
  0
ARC
  8
0
  6
BYLAYER
 62
     7
 10
929.094537
 20
-132.687713
 30
0.0
 40
2.500000
 50
90.0
 51
183.065408
  0
ARC
  8
0
  6
BYLAYER
 62
     7
 10
929.094537
 20
-122.687713
 30
0.0
 40
2.500000
 50
176.934592
 51
270.000000
  0
LINE
  8
0
  6
BYLAYER
 62
     7
 10
929.094537
 20
-130.187713
 30
0.0
 11
935.946944
 21
-130.187713
 31
0.0
  0
LINE
  8
0
  6
BYLAYER
 62
     7
 10
929.094537
 20
-125.187713
 30
0.0
 11
935.946944
 21
-125.187713
 31
0.0
  0
ARC
  8
0
  6
BYLAYER
 62
     7
 10
1027.460751
 20
-221.053927
 30
0.0
 40
2.5
 50
180.000000
 51
273.065408
  0
ARC
  8
0
  6
BYLAYER
 62
     7
 10
1017.460751
 20
-221.053927
 30
0.0
 40
2.5
 50
266.934592
 51
360.000000
  0
LINE
  8
0
  6
BYLAYER
 62
     7
 10
1024.960751
 20
-221.053927
 30
0.0
 11
1024.960751
 21
-214.201520
 31
0.0
  0
LINE
  8
0
  6
BYLAYER
 62
     7
 10
1019.960751
 20
-221.053927
 30
0.0
 11
1019.960751
 21
-214.201520
 31
0.0
  0
ARC
  8
0
  6
BYLAYER
 62
     7
 10
1115.826965
 20
-122.687713
 30
0.0
 40
2.5
 50
270.0
 51
363.065408
  0
ARC
  8
0
  6
BYLAYER
 62
     7
 10
1115.826965
 20
-132.687713
 30
0.0
 40
2.5
 50
356.934592
 51
450.000000
  0
LINE
  8
0
  6
BYLAYER
 62
     7
 10
1115.826965
 20
-125.187713
 30
0.0
 11
1108.974558
 21
-125.187713
 31
0.0
  0
LINE
  8
0
  6
BYLAYER
 62
     7
 10
1115.826965
 20
-130.187713
 30
0.0
 11
1108.974558
 21
-130.187713
 31
0.0
  0
LINE
  8
0
  6
BYLAYER
 62
     7
 10
978.960644
 20
-521.187744
 30
0.0
 11
978.960644
 21
-499.687744
 31
0.0
  0
ARC
  8
0
  6
BYLAYER
 62
     7
 10
977.460644
 20
-521.187744
 30
0.0
 40
1.5
 50
270.0
 51
360.0
  0
ARC
  8
0
  6
BYLAYER
 62
     7
 10
980.460644
 20
-499.687744
 30
0.0
 40
1.5
 50
90.0
 51
180.0
  0
LINE
  8
0
  6
BYLAYER
 62
     7
 10
1022.460644
 20
-498.187744
 30
0.0
 11
980.460644
 21
-498.187744
 31
0.0
  0
LINE
  8
0
  6
BYLAYER
 62
     7
 10
984.332885
 20
-521.187744
 30
0.0
 11
984.332885
 21
-499.687744
 31
0.0
  0
ARC
  8
0
  6
BYLAYER
 62
     7
 10
982.832885
 20
-521.187744
 30
0.0
 40
1.5
 50
270.0
 51
360.0
  0
ARC
  8
0
  6
BYLAYER
 62
     7
 10
985.832885
 20
-499.687744
 30
0.0
 40
1.5
 50
90.0
 51
180.0
  0
LINE
  8
0
  6
BYLAYER
 62
     7
 10
1009.366991
 20
-498.187744
 30
0.0
 11
1009.859538
 21
-512.292442
 31
0.0
  0
ARC
  8
0
  6
BYLAYER
 62
     7
 10
1012.857710
 20
-512.187744
 30
0.0
 40
3.0
 50
182.000000
 51
270.000000
  0
LINE
  8
0
  6
BYLAYER
 62
     7
 10
1020.061750
 20
-512.292442
 30
0.0
 11
1020.554297
 21
-498.187744
 31
0.0
  0
ARC
  8
0
  6
BYLAYER
 62
     7
 10
1017.063578
 20
-512.187744
 30
0.0
 40
3.0
 50
270.0
 51
358.0
  0
LINE
  8
0
  6
BYLAYER
 62
     7
 10
1012.857710
 20
-515.187744
 30
0.0
 11
1017.063578
 21
-515.187744
 31
0.0
  0
LINE
  8
0
  6
BYLAYER
 62
     7
 10
994.366991
 20
-498.187744
 30
0.0
 11
994.859538
 21
-512.292442
 31
0.0
  0
ARC
  8
0
  6
BYLAYER
 62
     7
 10
997.857710
 20
-512.187744
 30
0.0
 40
3.0
 50
182.000000
 51
270.000000
  0
LINE
  8
0
  6
BYLAYER
 62
     7
 10
1005.061750
 20
-512.292442
 30
0.0
 11
1005.554297
 21
-498.187744
 31
0.0
  0
ARC
  8
0
  6
BYLAYER
 62
     7
 10
1002.063578
 20
-512.187744
 30
0.0
 40
3.0
 50
270.0
 51
358.0
  0
LINE
  8
0
  6
BYLAYER
 62
     7
 10
997.857710
 20
-515.187744
 30
0.0
 11
1002.063578
 21
-515.187744
 31
0.0
  0
LINE
  8
0
  6
BYLAYER
 62
     7
 10
994.401912
 20
-499.187744
 30
0.0
 11
1005.519376
 21
-499.187744
 31
0.0
  0
LINE
  8
0
  6
BYLAYER
 62
     7
 10
1009.401912
 20
-499.187744
 30
0.0
 11
1020.519376
 21
-499.187744
 31
0.0
  0
LINE
  8
0
  6
BYLAYER
 62
     7
 10
1022.460644
 20
-522.687744
 30
0.0
 11
974.960644
 21
-522.687744
 31
0.0
  0
ARC
  8
0
  6
BYLAYER
 62
     7
 10
974.960644
 20
-524.187744
 30
0.0
 40
1.5
 50
90.0
 51
180.0
  0
LINE
  8
0
  6
BYLAYER
 62
     7
 10
973.460644
 20
-529.687744
 30
0.0
 11
973.460644
 21
-524.187744
 31
0.0
  0
LINE
  8
0
  6
BYLAYER
 62
     7
 10
973.460644
 20
-529.687744
 30
0.0
 11
1002.560850
 21
-529.687744
 31
0.0
  0
LINE
  8
0
  6
BYLAYER
 62
     7
 10
1065.960644
 20
-521.187744
 30
0.0
 11
1065.960644
 21
-499.687744
 31
0.0
  0
ARC
  8
0
  6
BYLAYER
 62
     7
 10
1067.460644
 20
-521.187744
 30
0.0
 40
1.5
 50
180.000000
 51
270.000000
  0
ARC
  8
0
  6
BYLAYER
 62
     7
 10
1064.460644
 20
-499.687744
 30
0.0
 40
1.5
 50
0.0
 51
90.0
  0
LINE
  8
0
  6
BYLAYER
 62
     7
 10
1022.460644
 20
-498.187744
 30
0.0
 11
1064.460644
 21
-498.187744
 31
0.0
  0
LINE
  8
0
  6
BYLAYER
 62
     7
 10
1060.588403
 20
-521.187744
 30
0.0
 11
1060.588403
 21
-499.687744
 31
0.0
  0
ARC
  8
0
  6
BYLAYER
 62
     7
 10
1062.088403
 20
-521.187744
 30
0.0
 40
1.5
 50
180.000000
 51
270.000000
  0
ARC
  8
0
  6
BYLAYER
 62
     7
 10
1059.088403
 20
-499.687744
 30
0.0
 40
1.5
 50
0.0
 51
90.0
  0
LINE
  8
0
  6
BYLAYER
 62
     7
 10
1035.554297
 20
-498.187744
 30
0.0
 11
1035.061750
 21
-512.292442
 31
0.0
  0
ARC
  8
0
  6
BYLAYER
 62
     7
 10
1032.063578
 20
-512.187744
 30
0.0
 40
3.0
 50
270.0
 51
358.0
  0
LINE
  8
0
  6
BYLAYER
 62
     7
 10
1024.859538
 20
-512.292442
 30
0.0
 11
1024.366991
 21
-498.187744
 31
0.0
  0
ARC
  8
0
  6
BYLAYER
 62
     7
 10
1027.857710
 20
-512.187744
 30
0.0
 40
3.0
 50
182.000000
 51
270.000000
  0
LINE
  8
0
  6
BYLAYER
 62
     7
 10
1032.063578
 20
-515.187744
 30
0.0
 11
1027.857710
 21
-515.187744
 31
0.0
  0
LINE
  8
0
  6
BYLAYER
 62
     7
 10
1050.554297
 20
-498.187744
 30
0.0
 11
1050.061750
 21
-512.292442
 31
0.0
  0
ARC
  8
0
  6
BYLAYER
 62
     7
 10
1047.063578
 20
-512.187744
 30
0.0
 40
3.0
 50
270.0
 51
358.0
  0
LINE
  8
0
  6
BYLAYER
 62
     7
 10
1039.859538
 20
-512.292442
 30
0.0
 11
1039.366991
 21
-498.187744
 31
0.0
  0
ARC
  8
0
  6
BYLAYER
 62
     7
 10
1042.857710
 20
-512.187744
 30
0.0
 40
3.0
 50
182.000000
 51
270.000000
  0
LINE
  8
0
  6
BYLAYER
 62
     7
 10
1047.063578
 20
-515.187744
 30
0.0
 11
1042.857710
 21
-515.187744
 31
0.0
  0
LINE
  8
0
  6
BYLAYER
 62
     7
 10
1050.519376
 20
-499.187744
 30
0.0
 11
1039.401912
 21
-499.187744
 31
0.0
  0
LINE
  8
0
  6
BYLAYER
 62
     7
 10
1035.519376
 20
-499.187744
 30
0.0
 11
1024.401912
 21
-499.187744
 31
0.0
  0
LINE
  8
0
  6
BYLAYER
 62
     7
 10
1022.460644
 20
-522.687744
 30
0.0
 11
1069.960644
 21
-522.687744
 31
0.0
  0
ARC
  8
0
  6
BYLAYER
 62
     7
 10
1069.960644
 20
-524.187744
 30
0.0
 40
1.5
 50
0.0
 51
90.0
  0
LINE
  8
0
  6
BYLAYER
 62
     7
 10
1071.460644
 20
-531.687744
 30
0.0
 11
1071.460644
 21
-524.187744
 31
0.0
  0
LINE
  8
0
  6
BYLAYER
 62
     7
 10
1071.460644
 20
-529.687744
 30
0.0
 11
1042.360652
 21
-529.687744
 31
0.0
  0
LINE
  8
0
  6
BYLAYER
 62
     7
 10
973.460644
 20
-531.687744
 30
0.0
 11
994.460645
 21
-531.687744
 31
0.0
  0
LINE
  8
0
  6
BYLAYER
 62
     7
 10
973.460644
 20
-537.187744
 30
0.0
 11
974.918113
 21
-539.712162
 31
0.0
  0
LINE
  8
0
  6
BYLAYER
 62
     7
 10
1071.460628
 20
-531.687622
 30
0.0
 11
1050.460618
 21
-531.687674
 31
0.0
  0
LINE
  8
0
  6
BYLAYER
 62
     7
 10
1071.460628
 20
-537.187622
 30
0.0
 11
1070.003160
 21
-539.712038
 31
0.0
  0
LINE
  8
0
  6
BYLAYER
 62
     7
 10
973.460644
 20
-531.687744
 30
0.0
 11
973.460644
 21
-540.515530
 31
0.0
  0
LINE
  8
0
  6
BYLAYER
 62
     7
 10
1071.460628
 20
-531.687622
 30
0.0
 11
1071.460639
 21
-540.515406
 31
0.0
  0
LINE
  8
0
  6
BYLAYER
 62
     7
 10
973.460644
 20
-529.687744
 30
0.0
 11
973.460644
 21
-531.687744
 31
0.0
  0
ARC
  8
0
  6
BYLAYER
 62
     1
 10
1022.460751
 20
-627.687713
 30
0.0
 40
47.5
 50
66.318093
 51
113.681907
  0
ARC
  8
0
  6
BYLAYER
 62
     1
 10
1022.460751
 20
-627.687713
 30
0.0
 40
100.0
 50
314.427004
 51
585.572996
  0
ARC
  8
0
  6
BYLAYER
 62
     1
 10
1022.460751
 20
-627.687713
 30
0.0
 40
65.000008
 50
62.204268
 51
117.795792
  0
ARC
  8
0
  6
BYLAYER
 62
     1
 10
1022.460751
 20
-627.687713
 30
0.0
 40
64.999992
 50
122.204269
 51
136.186932
  0
ARC
  8
0
  6
BYLAYER
 62
     1
 10
1022.460751
 20
-627.687713
 30
0.0
 40
65.0
 50
43.813061
 51
57.795783
  0
LINE
  8
0
  6
BYLAYER
 62
     1
 10
932.302304
 20
-630.187774
 30
0.0
 11
957.460751
 21
-630.187774
 31
0.0
  0
LINE
  8
0
  6
BYLAYER
 62
     1
 10
932.302304
 20
-625.187774
 30
0.0
 11
957.460751
 21
-625.187774
 31
0.0
  0
ARC
  8
0
  6
BYLAYER
 62
     1
 10
932.143673
 20
-620.812455
 30
0.0
 40
9.375319
 50
270.0
 51
270.484825
  0
ARC
  8
0
  6
BYLAYER
 62
     1
 10
932.143744
 20
-620.819836
 30
0.0
 40
9.367938
 50
270.484778
 51
270.969825
  0
ARC
  8
0
  6
BYLAYER
 62
     1
 10
932.302243
 20
-632.945704
 30
0.0
 40
7.757991
 50
90.0
 51
121.966526
  0
ARC
  8
0
  6
BYLAYER
 62
     1
 10
929.020955
 20
-627.687713
 30
0.0
 40
1.560143
 50
121.966526
 51
180.000000
  0
ARC
  8
0
  6
BYLAYER
 62
     1
 10
929.020955
 20
-627.687713
 30
0.0
 40
1.560143
 50
180.000000
 51
238.033474
  0
ARC
  8
0
  6
BYLAYER
 62
     1
 10
932.302243
 20
-622.429722
 30
0.0
 40
7.757991
 50
238.033474
 51
270.000000
  0
LINE
  8
0
  6
BYLAYER
 62
     1
 10
1112.619198
 20
-630.187652
 30
0.0
 11
1087.460751
 21
-630.187652
 31
0.0
  0
LINE
  8
0
  6
BYLAYER
 62
     1
 10
1112.619198
 20
-625.187652
 30
0.0
 11
1087.460751
 21
-625.187652
 31
0.0
  0
ARC
  8
0
  6
BYLAYER
 62
     1
 10
1112.619259
 20
-622.429722
 30
0.0
 40
7.757991
 50
270.0
 51
301.966526
  0
ARC
  8
0
  6
BYLAYER
 62
     1
 10
1115.900547
 20
-627.687713
 30
0.0
 40
1.560143
 50
301.966526
 51
360.000000
  0
ARC
  8
0
  6
BYLAYER
 62
     1
 10
1115.900547
 20
-627.687713
 30
0.0
 40
1.560143
 50
0.0
 51
58.033474
  0
ARC
  8
0
  6
BYLAYER
 62
     1
 10
1112.619259
 20
-632.945704
 30
0.0
 40
7.757991
 50
58.033474
 51
90.000000
  0
ARC
  8
0
  6
BYLAYER
 62
     1
 10
1054.507696
 20
-584.694503
 30
0.0
 40
8.756815
 50
150.000161
 51
168.451665
  0
ARC
  8
0
  6
BYLAYER
 62
     1
 10
1050.223247
 20
-583.819057
 30
0.0
 40
4.383840
 50
168.451665
 51
184.823947
  0
ARC
  8
0
  6
BYLAYER
 62
     1
 10
1043.843001
 20
-578.634636
 30
0.0
 40
8.504670
 50
319.236031
 51
324.793254
  0
ARC
  8
0
  6
BYLAYER
 62
     1
 10
1043.181312
 20
-578.155256
 30
0.0
 40
9.321703
 50
324.730510
 51
329.999970
  0
LINE
  8
0
  6
BYLAYER
 62
     1
 10
1069.704953
 20
-550.858184
 30
0.0
 11
1051.374875
 21
-582.606811
 31
0.0
  0
LINE
  8
0
  6
BYLAYER
 62
     1
 10
1065.374875
 20
-548.358184
 30
0.0
 11
1047.044796
 21
-580.106811
 31
0.0
  0
LINE
  8
0
  6
BYLAYER
 62
     1
 10
1069.705068
 20
-550.858134
 30
0.0
 11
1069.705075
 21
-550.858123
 31
0.0
  0
ARC
  8
0
  6
BYLAYER
 62
     1
 10
1062.986381
 20
-546.979091
 30
0.0
 40
7.758075
 50
330.000048
 51
361.966418
  0
ARC
  8
0
  6
BYLAYER
 62
     1
 10
1069.180682
 20
-546.766417
 30
0.0
 40
1.560124
 50
1.966418
 51
59.999720
  0
ARC
  8
0
  6
BYLAYER
 62
     1
 10
1069.180688
 20
-546.766407
 30
0.0
 40
1.560113
 50
59.999720
 51
118.033737
  0
ARC
  8
0
  6
BYLAYER
 62
     1
 10
1072.093660
 20
-552.237138
 30
0.0
 40
7.758041
 50
118.033737
 51
150.000048
  0
LINE
  8
0
  6
BYLAYER
 62
     1
 10
1065.374997
 20
-548.358123
 30
0.0
 11
1065.374987
 21
-548.358139
 31
0.0
  0
ARC
  8
0
  6
BYLAYER
 62
     1
 10
1001.740190
 20
-578.155256
 30
0.0
 40
9.321702
 50
210.000037
 51
215.269493
  0
ARC
  8
0
  6
BYLAYER
 62
     1
 10
1001.078501
 20
-578.634637
 30
0.0
 40
8.504669
 50
215.206750
 51
220.763969
  0
ARC
  8
0
  6
BYLAYER
 62
     1
 10
994.698255
 20
-583.819057
 30
0.0
 40
4.383840
 50
355.176053
 51
371.548336
  0
ARC
  8
0
  6
BYLAYER
 62
     1
 10
990.413805
 20
-584.694503
 30
0.0
 40
8.756815
 50
11.548336
 51
29.999843
  0
LINE
  8
0
  6
BYLAYER
 62
     1
 10
975.216427
 20
-550.858245
 30
0.0
 11
993.546505
 21
-582.606872
 31
0.0
  0
LINE
  8
0
  6
BYLAYER
 62
     1
 10
979.546505
 20
-548.358245
 30
0.0
 11
997.876584
 21
-580.106872
 31
0.0
  0
ARC
  8
0
  6
BYLAYER
 62
     1
 10
972.827847
 20
-552.237163
 30
0.0
 40
7.758033
 50
30.000023
 51
61.966287
  0
ARC
  8
0
  6
BYLAYER
 62
     1
 10
975.740814
 20
-546.766437
 30
0.0
 40
1.560113
 50
61.966287
 51
120.000280
  0
ARC
  8
0
  6
BYLAYER
 62
     1
 10
975.740820
 20
-546.766447
 30
0.0
 40
1.560124
 50
120.000280
 51
178.033582
  0
ARC
  8
0
  6
BYLAYER
 62
     1
 10
981.935121
 20
-546.979122
 30
0.0
 40
7.758075
 50
178.033582
 51
209.999952
  0
LINE
  8
0
  6
BYLAYER
 62
     1
 10
975.216427
 20
-550.858154
 30
0.0
 11
975.216434
 21
-550.858166
 31
0.0
  0
LINE
  8
0
  6
BYLAYER
 62
     2
 10
1090.389096
 20
-571.921539
 30
0.0
 11
1087.818905
 21
-562.329498
 31
0.0
  0
LINE
  8
0
  6
BYLAYER
 62
     2
 10
1087.818905
 20
-562.329498
 30
0.0
 11
1078.226864
 21
-559.759307
 31
0.0
  0
LINE
  8
0
  6
BYLAYER
 62
     2
 10
1078.226864
 20
-559.759307
 30
0.0
 11
1071.204892
 21
-566.781158
 31
0.0
  0
LINE
  8
0
  6
BYLAYER
 62
     2
 10
1071.204892
 20
-566.781158
 30
0.0
 11
1073.775082
 21
-576.373260
 31
0.0
  0
LINE
  8
0
  6
BYLAYER
 62
     2
 10
1073.775082
 20
-576.373260
 30
0.0
 11
1083.367123
 21
-578.943450
 31
0.0
  0
LINE
  8
0
  6
BYLAYER
 62
     2
 10
1083.367123
 20
-578.943450
 30
0.0
 11
1090.389096
 21
-571.921539
 31
0.0
  0
LINE
  8
0
  6
BYLAYER
 62
     2
 10
954.532467
 20
-571.921539
 30
0.0
 11
957.102658
 21
-562.329498
 31
0.0
  0
LINE
  8
0
  6
BYLAYER
 62
     2
 10
957.102658
 20
-562.329498
 30
0.0
 11
966.694699
 21
-559.759307
 31
0.0
  0
LINE
  8
0
  6
BYLAYER
 62
     2
 10
966.694699
 20
-559.759307
 30
0.0
 11
973.716671
 21
-566.781158
 31
0.0
  0
LINE
  8
0
  6
BYLAYER
 62
     2
 10
973.716671
 20
-566.781158
 30
0.0
 11
971.146481
 21
-576.373260
 31
0.0
  0
LINE
  8
0
  6
BYLAYER
 62
     2
 10
971.146481
 20
-576.373260
 30
0.0
 11
961.554318
 21
-578.943450
 31
0.0
  0
LINE
  8
0
  6
BYLAYER
 62
     2
 10
961.554318
 20
-578.943450
 30
0.0
 11
954.532467
 21
-571.921539
 31
0.0
  0
LINE
  8
0
  6
BYLAYER
 62
     1
 10
377.460751
 20
-765.187591
 30
0.0
 11
377.460751
 21
-717.687713
 31
0.0
  0
ARC
  8
0
  6
BYLAYER
 62
     1
 10
392.960751
 20
-815.213165
 30
0.0
 40
2.000089
 50
180.000000
 51
266.999958
  0
LINE
  8
0
  6
BYLAYER
 62
     1
 10
390.960751
 20
-800.187652
 30
0.0
 11
390.960751
 21
-815.213195
 31
0.0
  0
LINE
  8
0
  6
BYLAYER
 62
     1
 10
390.960751
 20
-800.187652
 30
0.0
 11
390.960751
 21
-717.687713
 31
0.0
  0
ARC
  8
0
  6
BYLAYER
 62
     1
 10
388.960751
 20
-783.318328
 30
0.0
 40
2.000003
 50
0.0
 51
35.000041
  0
LINE
  8
0
  6
BYLAYER
 62
     1
 10
377.665921
 20
-765.187621
 30
0.0
 11
377.460751
 21
-765.187621
 31
0.0
  0
LINE
  8
0
  6
BYLAYER
 62
     1
 10
390.599057
 20
-782.171172
 30
0.0
 11
379.304226
 21
-766.040466
 31
0.0
  0
ARC
  8
0
  6
BYLAYER
 62
     1
 10
377.665921
 20
-767.187621
 30
0.0
 40
2.0
 50
34.999973
 51
90.000000
  0
LINE
  8
0
  6
BYLAYER
 62
     1
 10
379.304226
 20
-766.040466
 30
0.0
 11
390.960751
 21
-800.187652
 31
0.0
  0
LINE
  8
0
  6
BYLAYER
 62
     1
 10
392.856015
 20
-817.210510
 30
0.0
 11
401.960751
 21
-817.687699
 31
0.0
  0
LINE
  8
0
  6
BYLAYER
 62
     1
 10
401.960751
 20
-817.687699
 30
0.0
 11
401.960751
 21
-717.687713
 31
0.0
  0
LINE
  8
0
  6
BYLAYER
 62
     1
 10
379.304226
 20
-766.040466
 30
0.0
 11
379.304226
 21
-717.687713
 31
0.0
  0
LINE
  8
0
  6
BYLAYER
 62
     1
 10
377.460751
 20
-670.187835
 30
0.0
 11
377.460751
 21
-717.687713
 31
0.0
  0
ARC
  8
0
  6
BYLAYER
 62
     1
 10
392.960751
 20
-620.162261
 30
0.0
 40
2.000089
 50
93.000064
 51
180.000022
  0
LINE
  8
0
  6
BYLAYER
 62
     1
 10
390.960751
 20
-635.187774
 30
0.0
 11
390.960751
 21
-620.162231
 31
0.0
  0
LINE
  8
0
  6
BYLAYER
 62
     1
 10
390.960751
 20
-635.187774
 30
0.0
 11
390.960751
 21
-717.687713
 31
0.0
  0
ARC
  8
0
  6
BYLAYER
 62
     1
 10
388.960751
 20
-652.057098
 30
0.0
 40
2.000003
 50
324.999959
 51
360.000000
  0
LINE
  8
0
  6
BYLAYER
 62
     1
 10
377.665921
 20
-670.187805
 30
0.0
 11
377.460751
 21
-670.187805
 31
0.0
  0
LINE
  8
0
  6
BYLAYER
 62
     1
 10
390.599057
 20
-653.204254
 30
0.0
 11
379.304226
 21
-669.334960
 31
0.0
  0
ARC
  8
0
  6
BYLAYER
 62
     1
 10
377.665921
 20
-668.187805
 30
0.0
 40
2.0
 50
270.0
 51
325.000027
  0
LINE
  8
0
  6
BYLAYER
 62
     1
 10
379.304226
 20
-669.334960
 30
0.0
 11
390.960751
 21
-635.187774
 31
0.0
  0
LINE
  8
0
  6
BYLAYER
 62
     1
 10
392.856015
 20
-618.164916
 30
0.0
 11
401.960751
 21
-617.687727
 31
0.0
  0
LINE
  8
0
  6
BYLAYER
 62
     1
 10
401.960751
 20
-617.687727
 30
0.0
 11
401.960751
 21
-717.687713
 31
0.0
  0
LINE
  8
0
  6
BYLAYER
 62
     1
 10
379.304226
 20
-669.334960
 30
0.0
 11
379.304226
 21
-717.687713
 31
0.0
  0
ENDSEC
  0
EOF
