  0
SECTION
  2
HEADER
  9
$EXTMIN
 10
172.668942
 20
816.0
 30
0.0
  9
$EXTMAX
 10
1108.423208
 20
0.0
 30
0.0
  0
ENDSEC
  0
SECTION
  2
TABLES
  0
ENDSEC
  0
SECTION
  2
BLOCKS
  0
ENDSEC
  0
SECTION
  2
ENTITIES
  0
LINE
  8
0
  6
BYLAYER
 62
     7
 10
449.405729
 20
-36.766273
 30
0.0
 11
443.605680
 21
-36.766273
 31
0.0
  0
ARC
  8
0
  6
BYLAYER
 62
     7
 10
449.405729
 20
-38.266273
 30
0.0
 40
1.500000
 50
0.0
 51
90.000003
  0
ARC
  8
0
  6
BYLAYER
 62
     7
 10
478.805754
 20
-38.266273
 30
0.0
 40
1.500000
 50
90.0
 51
180.000003
  0
LINE
  8
0
  6
BYLAYER
 62
     7
 10
488.405729
 20
-36.766273
 30
0.0
 11
478.805754
 21
-36.766273
 31
0.0
  0
ARC
  8
0
  6
BYLAYER
 62
     7
 10
488.405729
 20
-38.266273
 30
0.0
 40
1.500000
 50
0.0
 51
90.000003
  0
LINE
  8
0
  6
BYLAYER
 62
     7
 10
523.605741
 20
-36.766212
 30
0.0
 11
517.805754
 21
-36.766212
 31
0.0
  0
ARC
  8
0
  6
BYLAYER
 62
     7
 10
517.805754
 20
-38.266212
 30
0.0
 40
1.500000
 50
90.0
 51
180.000003
  0
ARC
  8
0
  6
BYLAYER
 62
     7
 10
464.105741
 20
-45.766212
 30
0.0
 40
13.200012
 50
180.000000
 51
359.999995
  0
ARC
  8
0
  6
BYLAYER
 62
     7
 10
503.105741
 20
-45.766212
 30
0.0
 40
13.200012
 50
180.000000
 51
359.999995
  0
LINE
  8
0
  6
BYLAYER
 62
     7
 10
443.605680
 20
-42.266273
 30
0.0
 11
449.405729
 21
-42.266273
 31
0.0
  0
LINE
  8
0
  6
BYLAYER
 62
     7
 10
450.905729
 20
-38.266273
 30
0.0
 11
450.905729
 21
-43.766273
 31
0.0
  0
LINE
  8
0
  6
BYLAYER
 62
     7
 10
450.905729
 20
-43.766273
 30
0.0
 11
450.905729
 21
-45.766212
 31
0.0
  0
ARC
  8
0
  6
BYLAYER
 62
     7
 10
449.405729
 20
-43.766273
 30
0.0
 40
1.500000
 50
0.0
 51
90.000003
  0
ARC
  8
0
  6
BYLAYER
 62
     7
 10
478.805754
 20
-43.766212
 30
0.0
 40
1.500000
 50
90.0
 51
180.000003
  0
LINE
  8
0
  6
BYLAYER
 62
     7
 10
478.805754
 20
-42.266212
 30
0.0
 11
488.405729
 21
-42.266212
 31
0.0
  0
LINE
  8
0
  6
BYLAYER
 62
     7
 10
489.905729
 20
-38.266273
 30
0.0
 11
489.905729
 21
-43.766212
 31
0.0
  0
LINE
  8
0
  6
BYLAYER
 62
     7
 10
489.905729
 20
-43.766212
 30
0.0
 11
489.905729
 21
-45.766212
 31
0.0
  0
ARC
  8
0
  6
BYLAYER
 62
     7
 10
488.405729
 20
-43.766212
 30
0.0
 40
1.500000
 50
0.0
 51
90.000003
  0
LINE
  8
0
  6
BYLAYER
 62
     7
 10
516.305754
 20
-45.766212
 30
0.0
 11
516.305754
 21
-43.766212
 31
0.0
  0
LINE
  8
0
  6
BYLAYER
 62
     7
 10
516.305754
 20
-43.766212
 30
0.0
 11
516.305754
 21
-38.266212
 31
0.0
  0
LINE
  8
0
  6
BYLAYER
 62
     7
 10
517.805754
 20
-42.266212
 30
0.0
 11
523.605741
 21
-42.266212
 31
0.0
  0
ARC
  8
0
  6
BYLAYER
 62
     7
 10
517.805754
 20
-43.766212
 30
0.0
 40
1.500000
 50
90.0
 51
180.000003
  0
LINE
  8
0
  6
BYLAYER
 62
     7
 10
477.305754
 20
-38.266273
 30
0.0
 11
477.305754
 21
-45.766212
 31
0.0
  0
ARC
  8
0
  6
BYLAYER
 62
     7
 10
444.505766
 20
-114.291237
 30
0.0
 40
0.899994
 50
90.0
 51
269.999998
  0
LINE
  8
0
  6
BYLAYER
 62
     7
 10
444.505766
 20
-113.391243
 30
0.0
 11
558.605893
 21
-113.391243
 31
0.0
  0
LINE
  8
0
  6
BYLAYER
 62
     7
 10
444.505766
 20
-115.191231
 30
0.0
 11
558.605893
 21
-115.191231
 31
0.0
  0
ARC
  8
0
  6
BYLAYER
 62
     7
 10
444.505766
 20
-102.341255
 30
0.0
 40
0.900024
 50
90.0
 51
269.999998
  0
ARC
  8
0
  6
BYLAYER
 62
     7
 10
444.505766
 20
-90.391243
 30
0.0
 40
0.899994
 50
90.0
 51
269.999998
  0
LINE
  8
0
  6
BYLAYER
 62
     7
 10
444.505766
 20
-89.491249
 30
0.0
 11
558.605893
 21
-89.491249
 31
0.0
  0
LINE
  8
0
  6
BYLAYER
 62
     7
 10
444.505766
 20
-91.291237
 30
0.0
 11
558.605893
 21
-91.291237
 31
0.0
  0
ARC
  8
0
  6
BYLAYER
 62
     7
 10
444.505766
 20
-78.441261
 30
0.0
 40
0.900024
 50
90.0
 51
269.999998
  0
LINE
  8
0
  6
BYLAYER
 62
     7
 10
444.505766
 20
-77.541237
 30
0.0
 11
558.605893
 21
-77.541237
 31
0.0
  0
LINE
  8
0
  6
BYLAYER
 62
     7
 10
444.505766
 20
-79.341255
 30
0.0
 11
558.605893
 21
-79.341255
 31
0.0
  0
ARC
  8
0
  6
BYLAYER
 62
     7
 10
444.505766
 20
-66.491249
 30
0.0
 40
0.899994
 50
90.0
 51
269.999998
  0
LINE
  8
0
  6
BYLAYER
 62
     7
 10
444.505766
 20
-65.591255
 30
0.0
 11
558.605893
 21
-65.591255
 31
0.0
  0
LINE
  8
0
  6
BYLAYER
 62
     7
 10
444.505766
 20
-67.391243
 30
0.0
 11
558.605893
 21
-67.391243
 31
0.0
  0
ARC
  8
0
  6
BYLAYER
 62
     7
 10
444.505766
 20
-126.241249
 30
0.0
 40
0.899994
 50
90.0
 51
269.999998
  0
LINE
  8
0
  6
BYLAYER
 62
     7
 10
444.505766
 20
-125.341255
 30
0.0
 11
558.605893
 21
-125.341255
 31
0.0
  0
LINE
  8
0
  6
BYLAYER
 62
     7
 10
444.505766
 20
-127.141243
 30
0.0
 11
558.605893
 21
-127.141243
 31
0.0
  0
ARC
  8
0
  6
BYLAYER
 62
     7
 10
444.505766
 20
-138.191231
 30
0.0
 40
0.899994
 50
90.0
 51
269.999998
  0
ARC
  8
0
  6
BYLAYER
 62
     7
 10
444.505766
 20
-150.141243
 30
0.0
 40
0.899994
 50
90.0
 51
269.999998
  0
LINE
  8
0
  6
BYLAYER
 62
     7
 10
444.505766
 20
-149.241249
 30
0.0
 11
558.605893
 21
-149.241249
 31
0.0
  0
LINE
  8
0
  6
BYLAYER
 62
     7
 10
444.505766
 20
-151.041237
 30
0.0
 11
558.605893
 21
-151.041237
 31
0.0
  0
LINE
  8
0
  6
BYLAYER
 62
     7
 10
454.605802
 20
-67.391243
 30
0.0
 11
454.605802
 21
-77.541237
 31
0.0
  0
LINE
  8
0
  6
BYLAYER
 62
     7
 10
556.605802
 20
-67.391243
 30
0.0
 11
556.605802
 21
-77.541237
 31
0.0
  0
LINE
  8
0
  6
BYLAYER
 62
     7
 10
523.605741
 20
-65.591255
 30
0.0
 11
523.605741
 21
-32.266212
 31
0.0
  0
LINE
  8
0
  6
BYLAYER
 62
     7
 10
454.605802
 20
-79.341255
 30
0.0
 11
454.605802
 21
-89.491249
 31
0.0
  0
LINE
  8
0
  6
BYLAYER
 62
     7
 10
454.605802
 20
-91.291237
 30
0.0
 11
454.605802
 21
-101.441231
 31
0.0
  0
LINE
  8
0
  6
BYLAYER
 62
     7
 10
454.605802
 20
-103.241249
 30
0.0
 11
454.605802
 21
-113.391243
 31
0.0
  0
LINE
  8
0
  6
BYLAYER
 62
     7
 10
454.605802
 20
-115.191231
 30
0.0
 11
454.605802
 21
-125.341255
 31
0.0
  0
LINE
  8
0
  6
BYLAYER
 62
     7
 10
454.605802
 20
-127.141243
 30
0.0
 11
454.605802
 21
-137.291237
 31
0.0
  0
LINE
  8
0
  6
BYLAYER
 62
     7
 10
454.605802
 20
-139.091255
 30
0.0
 11
454.605802
 21
-149.241249
 31
0.0
  0
LINE
  8
0
  6
BYLAYER
 62
     7
 10
454.605802
 20
-162.991249
 30
0.0
 11
454.605802
 21
-165.355312
 31
0.0
  0
LINE
  8
0
  6
BYLAYER
 62
     7
 10
454.605802
 20
-151.041237
 30
0.0
 11
454.605802
 21
-161.191231
 31
0.0
  0
LINE
  8
0
  6
BYLAYER
 62
     7
 10
556.605802
 20
-79.341255
 30
0.0
 11
556.605802
 21
-89.491249
 31
0.0
  0
LINE
  8
0
  6
BYLAYER
 62
     7
 10
556.605802
 20
-91.291237
 30
0.0
 11
556.605802
 21
-101.441231
 31
0.0
  0
LINE
  8
0
  6
BYLAYER
 62
     7
 10
556.605802
 20
-103.241249
 30
0.0
 11
556.605802
 21
-113.391243
 31
0.0
  0
LINE
  8
0
  6
BYLAYER
 62
     7
 10
556.605802
 20
-115.191231
 30
0.0
 11
556.605802
 21
-125.341255
 31
0.0
  0
LINE
  8
0
  6
BYLAYER
 62
     7
 10
556.605802
 20
-127.141243
 30
0.0
 11
556.605802
 21
-137.291237
 31
0.0
  0
LINE
  8
0
  6
BYLAYER
 62
     7
 10
556.605802
 20
-139.091255
 30
0.0
 11
556.605802
 21
-149.241249
 31
0.0
  0
LINE
  8
0
  6
BYLAYER
 62
     7
 10
556.605802
 20
-162.991249
 30
0.0
 11
556.605802
 21
-165.355312
 31
0.0
  0
LINE
  8
0
  6
BYLAYER
 62
     7
 10
556.605802
 20
-151.041237
 30
0.0
 11
556.605802
 21
-161.191231
 31
0.0
  0
CIRCLE
  8
0
  6
BYLAYER
 62
     7
 10
478.135771
 20
-102.341255
 30
0.0
 40
3.0
  0
CIRCLE
  8
0
  6
BYLAYER
 62
     7
 10
533.135771
 20
-102.341255
 30
0.0
 40
3.0
  0
LINE
  8
0
  6
BYLAYER
 62
     7
 10
535.997587
 20
-101.441231
 30
0.0
 11
558.605893
 21
-101.441231
 31
0.0
  0
LINE
  8
0
  6
BYLAYER
 62
     7
 10
535.997587
 20
-103.241249
 30
0.0
 11
558.605893
 21
-103.241249
 31
0.0
  0
LINE
  8
0
  6
BYLAYER
 62
     7
 10
480.997587
 20
-101.441231
 30
0.0
 11
530.273954
 21
-101.441231
 31
0.0
  0
LINE
  8
0
  6
BYLAYER
 62
     7
 10
480.997587
 20
-103.241249
 30
0.0
 11
530.273954
 21
-103.241249
 31
0.0
  0
LINE
  8
0
  6
BYLAYER
 62
     7
 10
444.505766
 20
-101.441231
 30
0.0
 11
475.273954
 21
-101.441231
 31
0.0
  0
LINE
  8
0
  6
BYLAYER
 62
     7
 10
444.505766
 20
-103.241249
 30
0.0
 11
475.273954
 21
-103.241249
 31
0.0
  0
LINE
  8
0
  6
BYLAYER
 62
     7
 10
444.505766
 20
-137.291237
 30
0.0
 11
558.605893
 21
-137.291237
 31
0.0
  0
LINE
  8
0
  6
BYLAYER
 62
     7
 10
444.505766
 20
-139.091255
 30
0.0
 11
558.605893
 21
-139.091255
 31
0.0
  0
ARC
  8
0
  6
BYLAYER
 62
     7
 10
444.505766
 20
-162.091224
 30
0.0
 40
0.899994
 50
90.0
 51
269.999998
  0
LINE
  8
0
  6
BYLAYER
 62
     7
 10
444.505766
 20
-161.191231
 30
0.0
 11
558.605893
 21
-161.191231
 31
0.0
  0
LINE
  8
0
  6
BYLAYER
 62
     7
 10
444.505766
 20
-162.991249
 30
0.0
 11
558.605893
 21
-162.991249
 31
0.0
  0
LINE
  8
0
  6
BYLAYER
 62
     7
 10
464.605802
 20
-127.141243
 30
0.0
 11
464.605802
 21
-125.341255
 31
0.0
  0
LINE
  8
0
  6
BYLAYER
 62
     7
 10
546.605802
 20
-125.341255
 30
0.0
 11
546.605802
 21
-127.141243
 31
0.0
  0
LINE
  8
0
  6
BYLAYER
 62
     7
 10
546.605802
 20
-115.191231
 30
0.0
 11
546.605802
 21
-113.391243
 31
0.0
  0
LINE
  8
0
  6
BYLAYER
 62
     7
 10
464.605802
 20
-113.391243
 30
0.0
 11
464.605802
 21
-115.191231
 31
0.0
  0
LINE
  8
0
  6
BYLAYER
 62
     7
 10
546.605802
 20
-103.241249
 30
0.0
 11
546.605802
 21
-101.441231
 31
0.0
  0
LINE
  8
0
  6
BYLAYER
 62
     7
 10
464.605802
 20
-101.441231
 30
0.0
 11
464.605802
 21
-103.241249
 31
0.0
  0
LINE
  8
0
  6
BYLAYER
 62
     7
 10
546.605802
 20
-91.291237
 30
0.0
 11
546.605802
 21
-89.491249
 31
0.0
  0
LINE
  8
0
  6
BYLAYER
 62
     7
 10
464.605802
 20
-89.491249
 30
0.0
 11
464.605802
 21
-91.291237
 31
0.0
  0
LINE
  8
0
  6
BYLAYER
 62
     7
 10
464.605802
 20
-77.541237
 30
0.0
 11
464.605802
 21
-79.341255
 31
0.0
  0
LINE
  8
0
  6
BYLAYER
 62
     7
 10
546.605802
 20
-79.341255
 30
0.0
 11
546.605802
 21
-77.541237
 31
0.0
  0
ARC
  8
0
  6
BYLAYER
 62
     7
 10
451.505796
 20
-162.091255
 30
0.0
 40
0.900024
 50
90.0
 51
269.999998
  0
ARC
  8
0
  6
BYLAYER
 62
     7
 10
451.505796
 20
-150.141243
 30
0.0
 40
0.899994
 50
90.0
 51
269.999998
  0
ARC
  8
0
  6
BYLAYER
 62
     7
 10
451.505796
 20
-138.191231
 30
0.0
 40
0.899994
 50
90.0
 51
269.999998
  0
ARC
  8
0
  6
BYLAYER
 62
     7
 10
451.505796
 20
-126.241249
 30
0.0
 40
0.899994
 50
90.0
 51
269.999998
  0
ARC
  8
0
  6
BYLAYER
 62
     7
 10
451.505796
 20
-114.291237
 30
0.0
 40
0.899994
 50
90.0
 51
269.999998
  0
ARC
  8
0
  6
BYLAYER
 62
     7
 10
451.505796
 20
-102.341255
 30
0.0
 40
0.900024
 50
90.0
 51
269.999998
  0
ARC
  8
0
  6
BYLAYER
 62
     7
 10
451.505796
 20
-90.391243
 30
0.0
 40
0.899994
 50
90.0
 51
269.999998
  0
LINE
  8
0
  6
BYLAYER
 62
     7
 10
443.605678
 20
-32.266212
 30
0.0
 11
443.605804
 21
-187.766212
 31
0.0
  0
ARC
  8
0
  6
BYLAYER
 62
     7
 10
451.505796
 20
-66.491249
 30
0.0
 40
0.899994
 50
90.0
 51
269.999998
  0
ARC
  8
0
  6
BYLAYER
 62
     7
 10
451.505796
 20
-78.441261
 30
0.0
 40
0.900024
 50
90.0
 51
269.999998
  0
LINE
  8
0
  6
BYLAYER
 62
     7
 10
523.605741
 20
-44.811170
 30
0.0
 11
558.715739
 21
-44.811170
 31
0.0
  0
LINE
  8
0
  6
BYLAYER
 62
     7
 10
523.605741
 20
-47.218202
 30
0.0
 11
558.701795
 21
-47.218202
 31
0.0
  0
LINE
  8
0
  6
BYLAYER
 62
     7
 10
523.605741
 20
-52.275610
 30
0.0
 11
558.610915
 21
-52.275610
 31
0.0
  0
LINE
  8
0
  6
BYLAYER
 62
     7
 10
443.605695
 20
-53.266212
 30
0.0
 11
440.105802
 21
-53.266212
 31
0.0
  0
LINE
  8
0
  6
BYLAYER
 62
     7
 10
443.605695
 20
-187.266212
 30
0.0
 11
440.105802
 21
-187.266212
 31
0.0
  0
LINE
  8
0
  6
BYLAYER
 62
     7
 10
448.013354
 20
-196.994859
 30
0.0
 11
558.605893
 21
-196.994859
 31
0.0
  0
LINE
  8
0
  6
BYLAYER
 62
     7
 10
448.053037
 20
-194.587827
 30
0.0
 11
558.605893
 21
-194.587827
 31
0.0
  0
LINE
  8
0
  6
BYLAYER
 62
     7
 10
448.080634
 20
-190.163422
 30
0.0
 11
558.605893
 21
-190.163422
 31
0.0
  0
LINE
  8
0
  6
BYLAYER
 62
     7
 10
448.172529
 20
-182.331092
 30
0.0
 11
558.605893
 21
-182.331092
 31
0.0
  0
LINE
  8
0
  6
BYLAYER
 62
     7
 10
558.605893
 20
-165.355312
 30
0.0
 11
452.100340
 21
-165.355312
 31
0.0
  0
LINE
  8
0
  6
BYLAYER
 62
     7
 10
446.603721
 20
-196.007630
 30
0.0
 11
443.605802
 21
-187.766212
 31
0.0
  0
ARC
  8
0
  6
BYLAYER
 62
     7
 10
448.013354
 20
-195.494859
 30
0.0
 40
1.500000
 50
199.989488
 51
270.000000
  0
LINE
  8
0
  6
BYLAYER
 62
     7
 10
446.626296
 20
-193.550873
 30
0.0
 11
443.605802
 21
-184.244098
 31
0.0
  0
ARC
  8
0
  6
BYLAYER
 62
     7
 10
448.053037
 20
-193.087827
 30
0.0
 40
1.500000
 50
197.980729
 51
270.000000
  0
LINE
  8
0
  6
BYLAYER
 62
     7
 10
446.643249
 20
-189.092286
 30
0.0
 11
443.605802
 21
-178.911954
 31
0.0
  0
ARC
  8
0
  6
BYLAYER
 62
     7
 10
448.080634
 20
-188.663422
 30
0.0
 40
1.500000
 50
196.613220
 51
270.0
  0
LINE
  8
0
  6
BYLAYER
 62
     7
 10
446.706573
 20
-181.148857
 30
0.0
 11
443.605802
 21
-166.843955
 31
0.0
  0
ARC
  8
0
  6
BYLAYER
 62
     7
 10
448.172529
 20
-180.831092
 30
0.0
 40
1.500000
 50
192.230383
 51
270.0
  0
LINE
  8
0
  6
BYLAYER
 62
     7
 10
443.605802
 20
-178.911954
 30
0.0
 11
445.966134
 21
-177.732961
 31
0.0
  0
LINE
  8
0
  6
BYLAYER
 62
     7
 10
443.605802
 20
-184.244098
 30
0.0
 11
445.001880
 21
-183.591059
 31
0.0
  0
LINE
  8
0
  6
BYLAYER
 62
     7
 10
443.605802
 20
-166.843955
 30
0.0
 11
452.100340
 21
-165.355312
 31
0.0
  0
LINE
  8
0
  6
BYLAYER
 62
     7
 10
443.605802
 20
-187.766212
 30
0.0
 11
444.606854
 21
-187.328549
 31
0.0
  0
LINE
  8
0
  6
BYLAYER
 62
     7
 10
440.105802
 20
-187.266212
 30
0.0
 11
440.105802
 21
-53.266212
 31
0.0
  0
LINE
  8
0
  6
BYLAYER
 62
     7
 10
618.989414
 20
-41.016212
 30
0.0
 11
558.605893
 21
-41.016212
 31
0.0
  0
LINE
  8
0
  6
BYLAYER
 62
     7
 10
639.605893
 20
-55.778480
 30
0.0
 11
622.067722
 21
-42.076158
 31
0.0
  0
ARC
  8
0
  6
BYLAYER
 62
     7
 10
618.989414
 20
-46.016212
 30
0.0
 40
5.000000
 50
52.000000
 51
90.000000
  0
LINE
  8
0
  6
BYLAYER
 62
     7
 10
639.605893
 20
-120.266212
 30
0.0
 11
639.605893
 21
-55.778480
 31
0.0
  0
LINE
  8
0
  6
BYLAYER
 62
     7
 10
639.605893
 20
-184.753944
 30
0.0
 11
639.605893
 21
-120.266212
 31
0.0
  0
LINE
  8
0
  6
BYLAYER
 62
     7
 10
622.067722
 20
-198.456266
 30
0.0
 11
639.605893
 21
-184.753944
 31
0.0
  0
ARC
  8
0
  6
BYLAYER
 62
     7
 10
618.989414
 20
-194.516212
 30
0.0
 40
5.000000
 50
270.0
 51
308.0
  0
LINE
  8
0
  6
BYLAYER
 62
     7
 10
558.605893
 20
-199.516212
 30
0.0
 11
618.989414
 21
-199.516212
 31
0.0
  0
LINE
  8
0
  6
BYLAYER
 62
     7
 10
558.605893
 20
-199.516212
 30
0.0
 11
558.605893
 21
-120.266212
 31
0.0
  0
LINE
  8
0
  6
BYLAYER
 62
     7
 10
558.605893
 20
-41.016212
 30
0.0
 11
558.605893
 21
-120.266212
 31
0.0
  0
LINE
  8
0
  6
BYLAYER
 62
     7
 10
438.605802
 20
-42.766212
 30
0.0
 11
430.088349
 21
-42.914893
 31
0.0
  0
ARC
  8
0
  6
BYLAYER
 62
     7
 10
430.105802
 20
-43.914741
 30
0.0
 40
1.0
 50
91.000058
 51
180.000000
  0
LINE
  8
0
  6
BYLAYER
 62
     7
 10
429.105802
 20
-120.266212
 30
0.0
 11
429.105802
 21
-43.914741
 31
0.0
  0
LINE
  8
0
  6
BYLAYER
 62
     7
 10
438.605802
 20
-52.836053
 30
0.0
 11
440.105802
 21
-52.783672
 31
0.0
  0
LINE
  8
0
  6
BYLAYER
 62
     7
 10
406.605802
 20
-60.150778
 30
0.0
 11
428.330753
 21
-55.135178
 31
0.0
  0
ARC
  8
0
  6
BYLAYER
 62
     7
 10
428.105802
 20
-54.160808
 30
0.0
 40
1.000000
 50
282.999999
 51
360.000000
  0
LINE
  8
0
  6
BYLAYER
 62
     7
 10
438.605802
 20
-120.266212
 30
0.0
 11
438.605802
 21
-42.766212
 31
0.0
  0
LINE
  8
0
  6
BYLAYER
 62
     7
 10
440.105802
 20
-52.783672
 30
0.0
 11
440.105802
 21
-120.266212
 31
0.0
  0
LINE
  8
0
  6
BYLAYER
 62
     7
 10
406.605802
 20
-60.150778
 30
0.0
 11
406.605802
 21
-120.266212
 31
0.0
  0
LINE
  8
0
  6
BYLAYER
 62
     7
 10
438.605802
 20
-197.766212
 30
0.0
 11
430.088349
 21
-197.617531
 31
0.0
  0
ARC
  8
0
  6
BYLAYER
 62
     7
 10
430.105802
 20
-196.617683
 30
0.0
 40
1.0
 50
180.000000
 51
268.999942
  0
LINE
  8
0
  6
BYLAYER
 62
     7
 10
429.105802
 20
-120.266212
 30
0.0
 11
429.105802
 21
-196.617683
 31
0.0
  0
LINE
  8
0
  6
BYLAYER
 62
     7
 10
438.605802
 20
-187.696371
 30
0.0
 11
440.105802
 21
-187.748752
 31
0.0
  0
LINE
  8
0
  6
BYLAYER
 62
     7
 10
406.605802
 20
-180.381646
 30
0.0
 11
428.330753
 21
-185.397246
 31
0.0
  0
ARC
  8
0
  6
BYLAYER
 62
     7
 10
428.105802
 20
-186.371616
 30
0.0
 40
1.000000
 50
0.0
 51
77.000001
  0
LINE
  8
0
  6
BYLAYER
 62
     7
 10
438.605802
 20
-120.266212
 30
0.0
 11
438.605802
 21
-197.766212
 31
0.0
  0
LINE
  8
0
  6
BYLAYER
 62
     7
 10
440.105802
 20
-187.748752
 30
0.0
 11
440.105802
 21
-120.266212
 31
0.0
  0
LINE
  8
0
  6
BYLAYER
 62
     7
 10
406.605802
 20
-180.381646
 30
0.0
 11
406.605802
 21
-120.266212
 31
0.0
  0
ARC
  8
0
  6
BYLAYER
 62
     7
 10
514.360016
 20
-21.766212
 30
0.0
 40
1.500000
 50
180.000000
 51
270.000000
  0
ARC
  8
0
  6
BYLAYER
 62
     7
 10
452.851340
 20
-21.766212
 30
0.0
 40
1.500000
 50
270.0
 51
360.0
  0
ARC
  8
0
  6
BYLAYER
 62
     7
 10
445.105678
 20
-21.766212
 30
0.0
 40
1.500000
 50
270.0
 51
360.0
  0
ARC
  8
0
  6
BYLAYER
 62
     7
 10
445.105678
 20
-24.766212
 30
0.0
 40
1.500000
 50
90.0
 51
180.0
  0
ARC
  8
0
  6
BYLAYER
 62
     7
 10
522.105678
 20
-21.766212
 30
0.0
 40
1.500000
 50
180.000000
 51
270.000000
  0
LINE
  8
0
  6
BYLAYER
 62
     7
 10
446.605678
 20
-21.766212
 30
0.0
 11
446.605678
 21
-0.266212
 31
0.0
  0
ARC
  8
0
  6
BYLAYER
 62
     7
 10
448.105678
 20
-0.266212
 30
0.0
 40
1.5
 50
90.0
 51
180.0
  0
LINE
  8
0
  6
BYLAYER
 62
     7
 10
520.605678
 20
-21.766212
 30
0.0
 11
520.605678
 21
-0.266212
 31
0.0
  0
LINE
  8
0
  6
BYLAYER
 62
     7
 10
448.105678
 20
1.233788
 30
0.0
 11
519.105678
 21
1.233788
 31
0.0
  0
ARC
  8
0
  6
BYLAYER
 62
     7
 10
511.360016
 20
-0.266212
 30
0.0
 40
1.500000
 50
0.0
 51
90.0
  0
ARC
  8
0
  6
BYLAYER
 62
     7
 10
519.105678
 20
-0.266212
 30
0.0
 40
1.500000
 50
0.0
 51
90.0
  0
LINE
  8
0
  6
BYLAYER
 62
     7
 10
454.351340
 20
-21.766212
 30
0.0
 11
454.351340
 21
-0.266212
 31
0.0
  0
ARC
  8
0
  6
BYLAYER
 62
     7
 10
455.851340
 20
-0.266212
 30
0.0
 40
1.5
 50
90.0
 51
180.0
  0
LINE
  8
0
  6
BYLAYER
 62
     7
 10
512.860016
 20
-21.766212
 30
0.0
 11
512.860016
 21
-0.266212
 31
0.0
  0
ARC
  8
0
  6
BYLAYER
 62
     7
 10
522.105678
 20
-24.766212
 30
0.0
 40
1.500000
 50
0.0
 51
90.0
  0
LINE
  8
0
  6
BYLAYER
 62
     7
 10
523.605678
 20
-32.266212
 30
0.0
 11
523.605678
 21
-24.766212
 31
0.0
  0
LINE
  8
0
  6
BYLAYER
 62
     7
 10
522.105678
 20
-23.266212
 30
0.0
 11
445.105678
 21
-23.266212
 31
0.0
  0
LINE
  8
0
  6
BYLAYER
 62
     7
 10
443.605678
 20
-24.766212
 30
0.0
 11
443.605678
 21
-32.266212
 31
0.0
  0
LINE
  8
0
  6
BYLAYER
 62
     7
 10
443.605678
 20
-32.266212
 30
0.0
 11
523.605678
 21
-32.266212
 31
0.0
  0
LINE
  8
0
  6
BYLAYER
 62
     7
 10
523.605678
 20
-30.266212
 30
0.0
 11
443.605678
 21
-30.266212
 31
0.0
  0
LINE
  8
0
  6
BYLAYER
 62
     7
 10
618.989414
 20
-199.516212
 30
0.0
 11
618.989414
 21
-41.016212
 31
0.0
  0
LINE
  8
0
  6
BYLAYER
 62
     7
 10
446.605749
 20
-734.782897
 30
0.0
 11
446.605749
 21
-710.266212
 31
0.0
  0
LINE
  8
0
  6
BYLAYER
 62
     7
 10
520.605749
 20
-710.266212
 30
0.0
 11
520.605749
 21
-734.782897
 31
0.0
  0
LINE
  8
0
  6
BYLAYER
 62
     7
 10
511.143344
 20
-744.516212
 30
0.0
 11
456.068155
 21
-744.516212
 31
0.0
  0
LINE
  8
0
  6
BYLAYER
 62
     7
 10
460.710448
 20
-715.367318
 30
0.0
 11
446.605749
 21
-715.859865
 31
0.0
  0
ARC
  8
0
  6
BYLAYER
 62
     7
 10
460.605749
 20
-712.369146
 30
0.0
 40
3.000000
 50
272.0
 51
360.0
  0
LINE
  8
0
  6
BYLAYER
 62
     7
 10
460.710448
 20
-730.367318
 30
0.0
 11
446.605749
 21
-730.859865
 31
0.0
  0
ARC
  8
0
  6
BYLAYER
 62
     7
 10
460.605749
 20
-727.369146
 30
0.0
 40
3.0
 50
272.000000
 51
360.000000
  0
LINE
  8
0
  6
BYLAYER
 62
     7
 10
446.605749
 20
-719.672559
 30
0.0
 11
460.710448
 21
-720.165106
 31
0.0
  0
ARC
  8
0
  6
BYLAYER
 62
     7
 10
460.605749
 20
-723.163278
 30
0.0
 40
3.0
 50
0.0
 51
88.0
  0
LINE
  8
0
  6
BYLAYER
 62
     7
 10
463.605749
 20
-723.163278
 30
0.0
 11
463.605749
 21
-727.369146
 31
0.0
  0
LINE
  8
0
  6
BYLAYER
 62
     7
 10
463.605749
 20
-710.266212
 30
0.0
 11
463.605749
 21
-712.369146
 31
0.0
  0
LINE
  8
0
  6
BYLAYER
 62
     7
 10
447.605749
 20
-710.266212
 30
0.0
 11
447.605749
 21
-715.824944
 31
0.0
  0
LINE
  8
0
  6
BYLAYER
 62
     7
 10
447.605749
 20
-719.707480
 30
0.0
 11
447.605749
 21
-730.824944
 31
0.0
  0
LINE
  8
0
  6
BYLAYER
 62
     7
 10
506.501051
 20
-715.367318
 30
0.0
 11
520.605749
 21
-715.859865
 31
0.0
  0
ARC
  8
0
  6
BYLAYER
 62
     7
 10
506.605749
 20
-712.369146
 30
0.0
 40
3.000000
 50
180.000000
 51
268.000000
  0
LINE
  8
0
  6
BYLAYER
 62
     7
 10
506.501051
 20
-730.367318
 30
0.0
 11
520.605749
 21
-730.859865
 31
0.0
  0
ARC
  8
0
  6
BYLAYER
 62
     7
 10
506.605749
 20
-727.369146
 30
0.0
 40
3.0
 50
180.000000
 51
268.000000
  0
LINE
  8
0
  6
BYLAYER
 62
     7
 10
520.605749
 20
-719.672559
 30
0.0
 11
506.501051
 21
-720.165106
 31
0.0
  0
ARC
  8
0
  6
BYLAYER
 62
     7
 10
506.605749
 20
-723.163278
 30
0.0
 40
3.0
 50
92.000000
 51
180.000000
  0
LINE
  8
0
  6
BYLAYER
 62
     7
 10
503.605749
 20
-723.163278
 30
0.0
 11
503.605749
 21
-727.369146
 31
0.0
  0
LINE
  8
0
  6
BYLAYER
 62
     7
 10
503.605749
 20
-710.266212
 30
0.0
 11
503.605749
 21
-712.369146
 31
0.0
  0
LINE
  8
0
  6
BYLAYER
 62
     7
 10
519.605749
 20
-710.266212
 30
0.0
 11
519.605749
 21
-715.824944
 31
0.0
  0
LINE
  8
0
  6
BYLAYER
 62
     7
 10
519.605749
 20
-719.707480
 30
0.0
 11
519.605749
 21
-730.824944
 31
0.0
  0
LINE
  8
0
  6
BYLAYER
 62
     7
 10
443.605749
 20
-710.266212
 30
0.0
 11
443.605749
 21
-745.766212
 31
0.0
  0
ARC
  8
0
  6
BYLAYER
 62
     7
 10
445.105749
 20
-745.766212
 30
0.0
 40
1.5
 50
180.000000
 51
270.000000
  0
LINE
  8
0
  6
BYLAYER
 62
     7
 10
523.605749
 20
-745.766212
 30
0.0
 11
523.605749
 21
-710.266212
 31
0.0
  0
LINE
  8
0
  6
BYLAYER
 62
     7
 10
445.105749
 20
-747.266212
 30
0.0
 11
522.105749
 21
-747.266212
 31
0.0
  0
ARC
  8
0
  6
BYLAYER
 62
     7
 10
522.105749
 20
-745.766212
 30
0.0
 40
1.5
 50
270.0
 51
360.0
  0
ARC
  8
0
  6
BYLAYER
 62
     7
 10
518.605749
 20
-742.266212
 30
0.0
 40
6.000000
 50
86.177446
 51
185.739170
  0
ARC
  8
0
  6
BYLAYER
 62
     7
 10
519.105749
 20
-734.782897
 30
0.0
 40
1.500000
 50
266.177446
 51
360.0
  0
ARC
  8
0
  6
BYLAYER
 62
     7
 10
511.143344
 20
-743.016212
 30
0.0
 40
1.5
 50
270.0
 51
365.739170
  0
ARC
  8
0
  6
BYLAYER
 62
     7
 10
448.605749
 20
-742.266212
 30
0.0
 40
6.000000
 50
354.260830
 51
453.822554
  0
ARC
  8
0
  6
BYLAYER
 62
     7
 10
456.068155
 20
-743.016212
 30
0.0
 40
1.5
 50
174.260830
 51
270.000000
  0
ARC
  8
0
  6
BYLAYER
 62
     7
 10
448.105749
 20
-734.782897
 30
0.0
 40
1.500000
 50
180.000000
 51
273.822554
  0
ARC
  8
0
  6
BYLAYER
 62
     7
 10
470.605749
 20
-737.266212
 30
0.0
 40
3.0
 50
180.000000
 51
270.000000
  0
ARC
  8
0
  6
BYLAYER
 62
     7
 10
496.605749
 20
-737.266212
 30
0.0
 40
3.0
 50
270.0
 51
360.0
  0
LINE
  8
0
  6
BYLAYER
 62
     7
 10
470.605749
 20
-740.266212
 30
0.0
 11
496.605749
 21
-740.266212
 31
0.0
  0
LINE
  8
0
  6
BYLAYER
 62
     7
 10
467.605749
 20
-737.266212
 30
0.0
 11
467.605749
 21
-710.266212
 31
0.0
  0
LINE
  8
0
  6
BYLAYER
 62
     7
 10
499.605749
 20
-710.266212
 30
0.0
 11
499.605749
 21
-737.266212
 31
0.0
  0
LINE
  8
0
  6
BYLAYER
 62
     7
 10
523.605749
 20
-715.341255
 30
0.0
 11
558.605893
 21
-715.341255
 31
0.0
  0
LINE
  8
0
  6
BYLAYER
 62
     7
 10
523.605749
 20
-717.141243
 30
0.0
 11
558.605893
 21
-717.141243
 31
0.0
  0
LINE
  8
0
  6
BYLAYER
 62
     7
 10
523.605749
 20
-739.241249
 30
0.0
 11
558.605893
 21
-739.241249
 31
0.0
  0
LINE
  8
0
  6
BYLAYER
 62
     7
 10
523.605749
 20
-741.041237
 30
0.0
 11
558.605893
 21
-741.041237
 31
0.0
  0
LINE
  8
0
  6
BYLAYER
 62
     7
 10
454.605802
 20
-752.991249
 30
0.0
 11
454.605802
 21
-755.355312
 31
0.0
  0
LINE
  8
0
  6
BYLAYER
 62
     7
 10
454.605802
 20
-747.266212
 30
0.0
 11
454.605802
 21
-751.191231
 31
0.0
  0
LINE
  8
0
  6
BYLAYER
 62
     7
 10
556.605802
 20
-710.266212
 30
0.0
 11
556.605802
 21
-715.341255
 31
0.0
  0
LINE
  8
0
  6
BYLAYER
 62
     7
 10
556.605802
 20
-717.141243
 30
0.0
 11
556.605802
 21
-727.291237
 31
0.0
  0
LINE
  8
0
  6
BYLAYER
 62
     7
 10
556.605802
 20
-729.091255
 30
0.0
 11
556.605802
 21
-739.241249
 31
0.0
  0
LINE
  8
0
  6
BYLAYER
 62
     7
 10
556.605802
 20
-752.991249
 30
0.0
 11
556.605802
 21
-755.355312
 31
0.0
  0
LINE
  8
0
  6
BYLAYER
 62
     7
 10
556.605802
 20
-741.041237
 30
0.0
 11
556.605802
 21
-751.191231
 31
0.0
  0
LINE
  8
0
  6
BYLAYER
 62
     7
 10
523.605749
 20
-727.291237
 30
0.0
 11
558.605893
 21
-727.291237
 31
0.0
  0
LINE
  8
0
  6
BYLAYER
 62
     7
 10
523.605749
 20
-729.091255
 30
0.0
 11
558.605893
 21
-729.091255
 31
0.0
  0
ARC
  8
0
  6
BYLAYER
 62
     7
 10
444.505766
 20
-752.091224
 30
0.0
 40
0.899994
 50
90.0
 51
269.999998
  0
LINE
  8
0
  6
BYLAYER
 62
     7
 10
444.505766
 20
-751.191231
 30
0.0
 11
558.605893
 21
-751.191231
 31
0.0
  0
LINE
  8
0
  6
BYLAYER
 62
     7
 10
444.505766
 20
-752.991249
 30
0.0
 11
558.605893
 21
-752.991249
 31
0.0
  0
LINE
  8
0
  6
BYLAYER
 62
     7
 10
546.605802
 20
-715.341255
 30
0.0
 11
546.605802
 21
-717.141243
 31
0.0
  0
ARC
  8
0
  6
BYLAYER
 62
     7
 10
451.505796
 20
-752.091255
 30
0.0
 40
0.900024
 50
90.0
 51
269.999998
  0
LINE
  8
0
  6
BYLAYER
 62
     7
 10
443.605749
 20
-710.266212
 30
0.0
 11
443.605804
 21
-777.766212
 31
0.0
  0
LINE
  8
0
  6
BYLAYER
 62
     7
 10
443.605695
 20
-777.266212
 30
0.0
 11
440.105802
 21
-777.266212
 31
0.0
  0
LINE
  8
0
  6
BYLAYER
 62
     7
 10
448.013354
 20
-786.994859
 30
0.0
 11
558.605893
 21
-786.994859
 31
0.0
  0
LINE
  8
0
  6
BYLAYER
 62
     7
 10
448.053037
 20
-784.587827
 30
0.0
 11
558.605893
 21
-784.587827
 31
0.0
  0
LINE
  8
0
  6
BYLAYER
 62
     7
 10
448.080634
 20
-780.163422
 30
0.0
 11
558.605893
 21
-780.163422
 31
0.0
  0
LINE
  8
0
  6
BYLAYER
 62
     7
 10
448.172529
 20
-772.331092
 30
0.0
 11
558.605893
 21
-772.331092
 31
0.0
  0
LINE
  8
0
  6
BYLAYER
 62
     7
 10
558.605893
 20
-755.355312
 30
0.0
 11
452.100340
 21
-755.355312
 31
0.0
  0
LINE
  8
0
  6
BYLAYER
 62
     7
 10
446.603721
 20
-786.007630
 30
0.0
 11
443.605802
 21
-777.766212
 31
0.0
  0
ARC
  8
0
  6
BYLAYER
 62
     7
 10
448.013354
 20
-785.494859
 30
0.0
 40
1.5
 50
199.989488
 51
270.000000
  0
LINE
  8
0
  6
BYLAYER
 62
     7
 10
446.626296
 20
-783.550873
 30
0.0
 11
443.605802
 21
-774.244098
 31
0.0
  0
ARC
  8
0
  6
BYLAYER
 62
     7
 10
448.053037
 20
-783.087827
 30
0.0
 40
1.500000
 50
197.980729
 51
270.000000
  0
LINE
  8
0
  6
BYLAYER
 62
     7
 10
446.643249
 20
-779.092286
 30
0.0
 11
443.605802
 21
-768.911954
 31
0.0
  0
ARC
  8
0
  6
BYLAYER
 62
     7
 10
448.080634
 20
-778.663422
 30
0.0
 40
1.500000
 50
196.613220
 51
270.000000
  0
LINE
  8
0
  6
BYLAYER
 62
     7
 10
446.706573
 20
-771.148857
 30
0.0
 11
443.605802
 21
-756.843955
 31
0.0
  0
ARC
  8
0
  6
BYLAYER
 62
     7
 10
448.172529
 20
-770.831092
 30
0.0
 40
1.5
 50
192.230383
 51
270.000000
  0
LINE
  8
0
  6
BYLAYER
 62
     7
 10
443.605802
 20
-768.911954
 30
0.0
 11
445.966134
 21
-767.732961
 31
0.0
  0
LINE
  8
0
  6
BYLAYER
 62
     7
 10
443.605802
 20
-774.244098
 30
0.0
 11
445.001880
 21
-773.591059
 31
0.0
  0
LINE
  8
0
  6
BYLAYER
 62
     7
 10
443.605802
 20
-756.843955
 30
0.0
 11
452.100340
 21
-755.355312
 31
0.0
  0
LINE
  8
0
  6
BYLAYER
 62
     7
 10
443.605802
 20
-777.766212
 30
0.0
 11
444.606854
 21
-777.328549
 31
0.0
  0
LINE
  8
0
  6
BYLAYER
 62
     7
 10
440.105802
 20
-777.266212
 30
0.0
 11
440.105802
 21
-710.266212
 31
0.0
  0
LINE
  8
0
  6
BYLAYER
 62
     7
 10
639.605893
 20
-774.753944
 30
0.0
 11
639.605893
 21
-710.266212
 31
0.0
  0
LINE
  8
0
  6
BYLAYER
 62
     7
 10
622.067722
 20
-788.456266
 30
0.0
 11
639.605893
 21
-774.753944
 31
0.0
  0
ARC
  8
0
  6
BYLAYER
 62
     7
 10
618.989414
 20
-784.516212
 30
0.0
 40
5.000000
 50
270.0
 51
308.0
  0
LINE
  8
0
  6
BYLAYER
 62
     7
 10
558.605893
 20
-789.516212
 30
0.0
 11
618.989414
 21
-789.516212
 31
0.0
  0
LINE
  8
0
  6
BYLAYER
 62
     7
 10
558.605893
 20
-789.516212
 30
0.0
 11
558.605893
 21
-710.266212
 31
0.0
  0
LINE
  8
0
  6
BYLAYER
 62
     7
 10
446.605749
 20
-685.749527
 30
0.0
 11
446.605749
 21
-710.266212
 31
0.0
  0
LINE
  8
0
  6
BYLAYER
 62
     7
 10
520.605749
 20
-710.266212
 30
0.0
 11
520.605749
 21
-685.749527
 31
0.0
  0
LINE
  8
0
  6
BYLAYER
 62
     7
 10
511.143344
 20
-676.016212
 30
0.0
 11
456.068155
 21
-676.016212
 31
0.0
  0
LINE
  8
0
  6
BYLAYER
 62
     7
 10
460.710448
 20
-705.165106
 30
0.0
 11
446.605749
 21
-704.672559
 31
0.0
  0
ARC
  8
0
  6
BYLAYER
 62
     7
 10
460.605749
 20
-708.163278
 30
0.0
 40
3.0
 50
0.0
 51
88.0
  0
LINE
  8
0
  6
BYLAYER
 62
     7
 10
460.710448
 20
-690.165106
 30
0.0
 11
446.605749
 21
-689.672559
 31
0.0
  0
ARC
  8
0
  6
BYLAYER
 62
     7
 10
460.605749
 20
-693.163278
 30
0.0
 40
3.0
 50
0.0
 51
88.0
  0
LINE
  8
0
  6
BYLAYER
 62
     7
 10
446.605749
 20
-700.859865
 30
0.0
 11
460.710448
 21
-700.367318
 31
0.0
  0
ARC
  8
0
  6
BYLAYER
 62
     7
 10
460.605749
 20
-697.369146
 30
0.0
 40
3.0
 50
272.000000
 51
360.000000
  0
LINE
  8
0
  6
BYLAYER
 62
     7
 10
463.605749
 20
-697.369146
 30
0.0
 11
463.605749
 21
-693.163278
 31
0.0
  0
LINE
  8
0
  6
BYLAYER
 62
     7
 10
463.605749
 20
-710.266212
 30
0.0
 11
463.605749
 21
-708.163278
 31
0.0
  0
LINE
  8
0
  6
BYLAYER
 62
     7
 10
447.605749
 20
-710.266212
 30
0.0
 11
447.605749
 21
-704.707480
 31
0.0
  0
LINE
  8
0
  6
BYLAYER
 62
     7
 10
447.605749
 20
-700.824944
 30
0.0
 11
447.605749
 21
-689.707480
 31
0.0
  0
LINE
  8
0
  6
BYLAYER
 62
     7
 10
506.501051
 20
-705.165106
 30
0.0
 11
520.605749
 21
-704.672559
 31
0.0
  0
ARC
  8
0
  6
BYLAYER
 62
     7
 10
506.605749
 20
-708.163278
 30
0.0
 40
3.0
 50
92.000000
 51
180.000000
  0
LINE
  8
0
  6
BYLAYER
 62
     7
 10
506.501051
 20
-690.165106
 30
0.0
 11
520.605749
 21
-689.672559
 31
0.0
  0
ARC
  8
0
  6
BYLAYER
 62
     7
 10
506.605749
 20
-693.163278
 30
0.0
 40
3.0
 50
92.000000
 51
180.000000
  0
LINE
  8
0
  6
BYLAYER
 62
     7
 10
520.605749
 20
-700.859865
 30
0.0
 11
506.501051
 21
-700.367318
 31
0.0
  0
ARC
  8
0
  6
BYLAYER
 62
     7
 10
506.605749
 20
-697.369146
 30
0.0
 40
3.000000
 50
180.000000
 51
268.000000
  0
LINE
  8
0
  6
BYLAYER
 62
     7
 10
503.605749
 20
-697.369146
 30
0.0
 11
503.605749
 21
-693.163278
 31
0.0
  0
LINE
  8
0
  6
BYLAYER
 62
     7
 10
503.605749
 20
-710.266212
 30
0.0
 11
503.605749
 21
-708.163278
 31
0.0
  0
LINE
  8
0
  6
BYLAYER
 62
     7
 10
519.605749
 20
-710.266212
 30
0.0
 11
519.605749
 21
-704.707480
 31
0.0
  0
LINE
  8
0
  6
BYLAYER
 62
     7
 10
519.605749
 20
-700.824944
 30
0.0
 11
519.605749
 21
-689.707480
 31
0.0
  0
LINE
  8
0
  6
BYLAYER
 62
     7
 10
443.605749
 20
-710.266212
 30
0.0
 11
443.605749
 21
-674.766212
 31
0.0
  0
ARC
  8
0
  6
BYLAYER
 62
     7
 10
445.105749
 20
-674.766212
 30
0.0
 40
1.5
 50
90.0
 51
180.0
  0
LINE
  8
0
  6
BYLAYER
 62
     7
 10
523.605749
 20
-674.766212
 30
0.0
 11
523.605749
 21
-710.266212
 31
0.0
  0
LINE
  8
0
  6
BYLAYER
 62
     7
 10
445.105749
 20
-673.266212
 30
0.0
 11
522.105749
 21
-673.266212
 31
0.0
  0
ARC
  8
0
  6
BYLAYER
 62
     7
 10
522.105749
 20
-674.766212
 30
0.0
 40
1.5
 50
0.0
 51
90.0
  0
ARC
  8
0
  6
BYLAYER
 62
     7
 10
518.605749
 20
-678.266212
 30
0.0
 40
6.000000
 50
174.260830
 51
273.822554
  0
ARC
  8
0
  6
BYLAYER
 62
     7
 10
519.105749
 20
-685.749527
 30
0.0
 40
1.500000
 50
0.0
 51
93.822554
  0
ARC
  8
0
  6
BYLAYER
 62
     7
 10
511.143344
 20
-677.516212
 30
0.0
 40
1.500000
 50
354.260830
 51
450.000000
  0
ARC
  8
0
  6
BYLAYER
 62
     7
 10
448.605749
 20
-678.266212
 30
0.0
 40
6.0
 50
266.177446
 51
365.739170
  0
ARC
  8
0
  6
BYLAYER
 62
     7
 10
456.068155
 20
-677.516212
 30
0.0
 40
1.5
 50
90.0
 51
185.73917
  0
ARC
  8
0
  6
BYLAYER
 62
     7
 10
448.105749
 20
-685.749527
 30
0.0
 40
1.5
 50
86.177446
 51
180.000000
  0
ARC
  8
0
  6
BYLAYER
 62
     7
 10
470.605749
 20
-683.266212
 30
0.0
 40
3.000000
 50
90.0
 51
180.0
  0
ARC
  8
0
  6
BYLAYER
 62
     7
 10
496.605749
 20
-683.266212
 30
0.0
 40
3.0
 50
0.0
 51
90.0
  0
LINE
  8
0
  6
BYLAYER
 62
     7
 10
470.605749
 20
-680.266212
 30
0.0
 11
496.605749
 21
-680.266212
 31
0.0
  0
LINE
  8
0
  6
BYLAYER
 62
     7
 10
467.605749
 20
-683.266212
 30
0.0
 11
467.605749
 21
-710.266212
 31
0.0
  0
LINE
  8
0
  6
BYLAYER
 62
     7
 10
499.605749
 20
-710.266212
 30
0.0
 11
499.605749
 21
-683.266212
 31
0.0
  0
LINE
  8
0
  6
BYLAYER
 62
     7
 10
523.605749
 20
-705.191169
 30
0.0
 11
558.605893
 21
-705.191169
 31
0.0
  0
LINE
  8
0
  6
BYLAYER
 62
     7
 10
523.605749
 20
-703.391181
 30
0.0
 11
558.605893
 21
-703.391181
 31
0.0
  0
LINE
  8
0
  6
BYLAYER
 62
     7
 10
523.605749
 20
-681.291175
 30
0.0
 11
558.605893
 21
-681.291175
 31
0.0
  0
LINE
  8
0
  6
BYLAYER
 62
     7
 10
523.605749
 20
-679.491187
 30
0.0
 11
558.605893
 21
-679.491187
 31
0.0
  0
LINE
  8
0
  6
BYLAYER
 62
     7
 10
454.605802
 20
-667.541175
 30
0.0
 11
454.605802
 21
-665.177112
 31
0.0
  0
LINE
  8
0
  6
BYLAYER
 62
     7
 10
454.605802
 20
-673.266212
 30
0.0
 11
454.605802
 21
-669.341193
 31
0.0
  0
LINE
  8
0
  6
BYLAYER
 62
     7
 10
556.605802
 20
-710.266212
 30
0.0
 11
556.605802
 21
-705.191169
 31
0.0
  0
LINE
  8
0
  6
BYLAYER
 62
     7
 10
556.605802
 20
-703.391181
 30
0.0
 11
556.605802
 21
-693.241187
 31
0.0
  0
LINE
  8
0
  6
BYLAYER
 62
     7
 10
556.605802
 20
-691.441169
 30
0.0
 11
556.605802
 21
-681.291175
 31
0.0
  0
LINE
  8
0
  6
BYLAYER
 62
     7
 10
556.605802
 20
-667.541175
 30
0.0
 11
556.605802
 21
-665.177112
 31
0.0
  0
LINE
  8
0
  6
BYLAYER
 62
     7
 10
556.605802
 20
-679.491187
 30
0.0
 11
556.605802
 21
-669.341193
 31
0.0
  0
LINE
  8
0
  6
BYLAYER
 62
     7
 10
523.605749
 20
-693.241187
 30
0.0
 11
558.605893
 21
-693.241187
 31
0.0
  0
LINE
  8
0
  6
BYLAYER
 62
     7
 10
523.605749
 20
-691.441169
 30
0.0
 11
558.605893
 21
-691.441169
 31
0.0
  0
ARC
  8
0
  6
BYLAYER
 62
     7
 10
444.505766
 20
-668.441200
 30
0.0
 40
0.899994
 50
90.0
 51
269.999998
  0
LINE
  8
0
  6
BYLAYER
 62
     7
 10
444.505766
 20
-669.341193
 30
0.0
 11
558.605893
 21
-669.341193
 31
0.0
  0
LINE
  8
0
  6
BYLAYER
 62
     7
 10
444.505766
 20
-667.541175
 30
0.0
 11
558.605893
 21
-667.541175
 31
0.0
  0
LINE
  8
0
  6
BYLAYER
 62
     7
 10
546.605802
 20
-705.191169
 30
0.0
 11
546.605802
 21
-703.391181
 31
0.0
  0
ARC
  8
0
  6
BYLAYER
 62
     7
 10
451.505796
 20
-668.441169
 30
0.0
 40
0.900024
 50
90.0
 51
269.999998
  0
LINE
  8
0
  6
BYLAYER
 62
     7
 10
443.605749
 20
-710.266212
 30
0.0
 11
443.605804
 21
-642.766212
 31
0.0
  0
LINE
  8
0
  6
BYLAYER
 62
     7
 10
443.605695
 20
-643.266212
 30
0.0
 11
440.105802
 21
-643.266212
 31
0.0
  0
LINE
  8
0
  6
BYLAYER
 62
     7
 10
448.013354
 20
-633.537565
 30
0.0
 11
558.605893
 21
-633.537565
 31
0.0
  0
LINE
  8
0
  6
BYLAYER
 62
     7
 10
448.053037
 20
-635.944597
 30
0.0
 11
558.605893
 21
-635.944597
 31
0.0
  0
LINE
  8
0
  6
BYLAYER
 62
     7
 10
448.080634
 20
-640.369002
 30
0.0
 11
558.605893
 21
-640.369002
 31
0.0
  0
LINE
  8
0
  6
BYLAYER
 62
     7
 10
448.172529
 20
-648.201332
 30
0.0
 11
558.605893
 21
-648.201332
 31
0.0
  0
LINE
  8
0
  6
BYLAYER
 62
     7
 10
558.605893
 20
-665.177112
 30
0.0
 11
452.100340
 21
-665.177112
 31
0.0
  0
LINE
  8
0
  6
BYLAYER
 62
     7
 10
446.603721
 20
-634.524794
 30
0.0
 11
443.605802
 21
-642.766212
 31
0.0
  0
ARC
  8
0
  6
BYLAYER
 62
     7
 10
448.013354
 20
-635.037565
 30
0.0
 40
1.5
 50
90.0
 51
160.010512
  0
LINE
  8
0
  6
BYLAYER
 62
     7
 10
446.626296
 20
-636.981551
 30
0.0
 11
443.605802
 21
-646.288326
 31
0.0
  0
ARC
  8
0
  6
BYLAYER
 62
     7
 10
448.053037
 20
-637.444597
 30
0.0
 40
1.500000
 50
90.0
 51
162.019271
  0
LINE
  8
0
  6
BYLAYER
 62
     7
 10
446.643249
 20
-641.440138
 30
0.0
 11
443.605802
 21
-651.620470
 31
0.0
  0
ARC
  8
0
  6
BYLAYER
 62
     7
 10
448.080634
 20
-641.869002
 30
0.0
 40
1.5
 50
90.0
 51
163.38678
  0
LINE
  8
0
  6
BYLAYER
 62
     7
 10
446.706573
 20
-649.383567
 30
0.0
 11
443.605802
 21
-663.688469
 31
0.0
  0
ARC
  8
0
  6
BYLAYER
 62
     7
 10
448.172529
 20
-649.701332
 30
0.0
 40
1.5
 50
90.0
 51
167.769617
  0
LINE
  8
0
  6
BYLAYER
 62
     7
 10
443.605802
 20
-651.620470
 30
0.0
 11
445.966134
 21
-652.799463
 31
0.0
  0
LINE
  8
0
  6
BYLAYER
 62
     7
 10
443.605802
 20
-646.288326
 30
0.0
 11
445.001880
 21
-646.941365
 31
0.0
  0
LINE
  8
0
  6
BYLAYER
 62
     7
 10
443.605802
 20
-663.688469
 30
0.0
 11
452.100340
 21
-665.177112
 31
0.0
  0
LINE
  8
0
  6
BYLAYER
 62
     7
 10
443.605802
 20
-642.766212
 30
0.0
 11
444.606854
 21
-643.203875
 31
0.0
  0
LINE
  8
0
  6
BYLAYER
 62
     7
 10
440.105802
 20
-643.266212
 30
0.0
 11
440.105802
 21
-710.266212
 31
0.0
  0
LINE
  8
0
  6
BYLAYER
 62
     7
 10
639.605893
 20
-645.778480
 30
0.0
 11
639.605893
 21
-710.266212
 31
0.0
  0
LINE
  8
0
  6
BYLAYER
 62
     7
 10
622.067722
 20
-632.076158
 30
0.0
 11
639.605893
 21
-645.778480
 31
0.0
  0
ARC
  8
0
  6
BYLAYER
 62
     7
 10
618.989414
 20
-636.016212
 30
0.0
 40
5.000000
 50
52.000000
 51
90.000000
  0
LINE
  8
0
  6
BYLAYER
 62
     7
 10
558.605893
 20
-631.016212
 30
0.0
 11
618.989414
 21
-631.016212
 31
0.0
  0
LINE
  8
0
  6
BYLAYER
 62
     7
 10
558.605893
 20
-631.016212
 30
0.0
 11
558.605893
 21
-710.266212
 31
0.0
  0
LINE
  8
0
  6
BYLAYER
 62
     7
 10
438.605802
 20
-632.766212
 30
0.0
 11
430.088349
 21
-632.914893
 31
0.0
  0
ARC
  8
0
  6
BYLAYER
 62
     7
 10
430.105802
 20
-633.914741
 30
0.0
 40
1.0
 50
91.000058
 51
180.000000
  0
LINE
  8
0
  6
BYLAYER
 62
     7
 10
429.105802
 20
-710.266212
 30
0.0
 11
429.105802
 21
-633.914741
 31
0.0
  0
LINE
  8
0
  6
BYLAYER
 62
     7
 10
438.605802
 20
-642.836053
 30
0.0
 11
440.105802
 21
-642.783672
 31
0.0
  0
LINE
  8
0
  6
BYLAYER
 62
     7
 10
406.605802
 20
-650.150778
 30
0.0
 11
428.330753
 21
-645.135178
 31
0.0
  0
ARC
  8
0
  6
BYLAYER
 62
     7
 10
428.105802
 20
-644.160808
 30
0.0
 40
1.000000
 50
282.999999
 51
360.000000
  0
LINE
  8
0
  6
BYLAYER
 62
     7
 10
438.605802
 20
-710.266212
 30
0.0
 11
438.605802
 21
-632.766212
 31
0.0
  0
LINE
  8
0
  6
BYLAYER
 62
     7
 10
440.105802
 20
-642.783672
 30
0.0
 11
440.105802
 21
-710.266212
 31
0.0
  0
LINE
  8
0
  6
BYLAYER
 62
     7
 10
406.605802
 20
-650.150778
 30
0.0
 11
406.605802
 21
-710.266212
 31
0.0
  0
LINE
  8
0
  6
BYLAYER
 62
     7
 10
438.605802
 20
-787.766212
 30
0.0
 11
430.088349
 21
-787.617531
 31
0.0
  0
ARC
  8
0
  6
BYLAYER
 62
     7
 10
430.105802
 20
-786.617683
 30
0.0
 40
1.0
 50
180.000000
 51
268.999942
  0
LINE
  8
0
  6
BYLAYER
 62
     7
 10
429.105802
 20
-710.266212
 30
0.0
 11
429.105802
 21
-786.617683
 31
0.0
  0
LINE
  8
0
  6
BYLAYER
 62
     7
 10
438.605802
 20
-777.696371
 30
0.0
 11
440.105802
 21
-777.748752
 31
0.0
  0
LINE
  8
0
  6
BYLAYER
 62
     7
 10
406.605802
 20
-770.381646
 30
0.0
 11
428.330753
 21
-775.397246
 31
0.0
  0
ARC
  8
0
  6
BYLAYER
 62
     7
 10
428.105802
 20
-776.371616
 30
0.0
 40
1.0
 50
0.0
 51
77.000001
  0
LINE
  8
0
  6
BYLAYER
 62
     7
 10
438.605802
 20
-710.266212
 30
0.0
 11
438.605802
 21
-787.766212
 31
0.0
  0
LINE
  8
0
  6
BYLAYER
 62
     7
 10
440.105802
 20
-777.748752
 30
0.0
 11
440.105802
 21
-710.266212
 31
0.0
  0
LINE
  8
0
  6
BYLAYER
 62
     7
 10
406.605802
 20
-770.381646
 30
0.0
 11
406.605802
 21
-710.266212
 31
0.0
  0
LINE
  8
0
  6
BYLAYER
 62
     7
 10
618.989414
 20
-789.516212
 30
0.0
 11
618.989414
 21
-631.016212
 31
0.0
  0
LINE
  8
0
  6
BYLAYER
 62
     1
 10
330.105741
 20
-75.266212
 30
0.0
 11
328.605741
 21
-76.766212
 31
0.0
  0
LINE
  8
0
  6
BYLAYER
 62
     1
 10
380.105741
 20
-76.766212
 30
0.0
 11
378.605741
 21
-75.266212
 31
0.0
  0
LINE
  8
0
  6
BYLAYER
 62
     1
 10
224.105802
 20
-75.266212
 30
0.0
 11
225.605802
 21
-76.766212
 31
0.0
  0
LINE
  8
0
  6
BYLAYER
 62
     1
 10
174.105802
 20
-76.766212
 30
0.0
 11
175.605802
 21
-75.266212
 31
0.0
  0
LINE
  8
0
  6
BYLAYER
 62
     1
 10
380.105741
 20
-263.266212
 30
0.0
 11
378.605741
 21
-261.766212
 31
0.0
  0
LINE
  8
0
  6
BYLAYER
 62
     1
 10
330.105741
 20
-313.266212
 30
0.0
 11
328.605741
 21
-311.766151
 31
0.0
  0
LINE
  8
0
  6
BYLAYER
 62
     1
 10
174.105802
 20
-263.266212
 30
0.0
 11
175.605802
 21
-261.766212
 31
0.0
  0
LINE
  8
0
  6
BYLAYER
 62
     1
 10
224.105802
 20
-313.266212
 30
0.0
 11
225.605802
 21
-311.766151
 31
0.0
  0
LINE
  8
0
  6
BYLAYER
 62
     1
 10
328.605741
 20
-311.766151
 30
0.0
 11
225.605802
 21
-311.766151
 31
0.0
  0
LINE
  8
0
  6
BYLAYER
 62
     1
 10
380.105741
 20
-311.766212
 30
0.0
 11
378.605741
 21
-313.266212
 31
0.0
  0
LINE
  8
0
  6
BYLAYER
 62
     1
 10
174.105802
 20
-311.766212
 30
0.0
 11
175.605802
 21
-313.266212
 31
0.0
  0
LINE
  8
0
  6
BYLAYER
 62
     1
 10
225.605802
 20
-76.766212
 30
0.0
 11
328.605741
 21
-76.766212
 31
0.0
  0
LINE
  8
0
  6
BYLAYER
 62
     1
 10
380.105741
 20
-125.266212
 30
0.0
 11
378.605741
 21
-126.766212
 31
0.0
  0
LINE
  8
0
  6
BYLAYER
 62
     1
 10
380.105741
 20
-125.266212
 30
0.0
 11
380.105741
 21
-76.766212
 31
0.0
  0
LINE
  8
0
  6
BYLAYER
 62
     1
 10
174.105802
 20
-125.266212
 30
0.0
 11
175.605802
 21
-126.766212
 31
0.0
  0
LINE
  8
0
  6
BYLAYER
 62
     1
 10
175.605802
 20
-261.766212
 30
0.0
 11
175.605802
 21
-126.766212
 31
0.0
  0
LINE
  8
0
  6
BYLAYER
 62
     1
 10
174.105802
 20
-156.266212
 30
0.0
 11
175.605802
 21
-156.318580
 31
0.0
  0
ARC
  8
0
  6
BYLAYER
 62
     1
 10
367.105741
 20
-88.266212
 30
0.0
 40
2.0
 50
0.0
 51
90.000016
  0
LINE
  8
0
  6
BYLAYER
 62
     1
 10
187.105802
 20
-86.266212
 30
0.0
 11
367.105741
 21
-86.266212
 31
0.0
  0
ARC
  8
0
  6
BYLAYER
 62
     1
 10
187.105802
 20
-88.266212
 30
0.0
 40
2.0
 50
90.0
 51
180.000009
  0
ARC
  8
0
  6
BYLAYER
 62
     1
 10
187.105802
 20
-300.266212
 30
0.0
 40
2.0
 50
180.000000
 51
269.999996
  0
ARC
  8
0
  6
BYLAYER
 62
     1
 10
367.105741
 20
-300.266273
 30
0.0
 40
2.0
 50
270.0
 51
359.999982
  0
LINE
  8
0
  6
BYLAYER
 62
     1
 10
380.105741
 20
-263.266212
 30
0.0
 11
369.105741
 21
-263.266212
 31
0.0
  0
LINE
  8
0
  6
BYLAYER
 62
     1
 10
380.105741
 20
-125.266212
 30
0.0
 11
369.105741
 21
-125.266212
 31
0.0
  0
LINE
  8
0
  6
BYLAYER
 62
     1
 10
174.105802
 20
-125.266212
 30
0.0
 11
185.105802
 21
-125.266212
 31
0.0
  0
LINE
  8
0
  6
BYLAYER
 62
     1
 10
174.105802
 20
-263.266212
 30
0.0
 11
185.105802
 21
-263.266212
 31
0.0
  0
LINE
  8
0
  6
BYLAYER
 62
     1
 10
330.105741
 20
-313.266212
 30
0.0
 11
330.105741
 21
-302.266273
 31
0.0
  0
LINE
  8
0
  6
BYLAYER
 62
     1
 10
224.105802
 20
-313.266212
 30
0.0
 11
224.105802
 21
-302.266273
 31
0.0
  0
LINE
  8
0
  6
BYLAYER
 62
     1
 10
330.105741
 20
-75.266212
 30
0.0
 11
330.105741
 21
-86.266151
 31
0.0
  0
LINE
  8
0
  6
BYLAYER
 62
     1
 10
328.605741
 20
-76.766273
 30
0.0
 11
328.605741
 21
-86.266151
 31
0.0
  0
LINE
  8
0
  6
BYLAYER
 62
     1
 10
225.605802
 20
-76.766273
 30
0.0
 11
225.605802
 21
-86.266151
 31
0.0
  0
LINE
  8
0
  6
BYLAYER
 62
     1
 10
224.105802
 20
-75.266212
 30
0.0
 11
224.105802
 21
-86.266151
 31
0.0
  0
LINE
  8
0
  6
BYLAYER
 62
     1
 10
382.105741
 20
-161.907203
 30
0.0
 11
378.605741
 21
-162.029457
 31
0.0
  0
LINE
  8
0
  6
BYLAYER
 62
     1
 10
378.605741
 20
-149.973365
 30
0.0
 11
382.105741
 21
-149.973365
 31
0.0
  0
LINE
  8
0
  6
BYLAYER
 62
     1
 10
378.605741
 20
-127.266212
 30
0.0
 11
382.105741
 21
-127.266212
 31
0.0
  0
LINE
  8
0
  6
BYLAYER
 62
     1
 10
382.105741
 20
-78.625221
 30
0.0
 11
380.105741
 21
-78.555336
 31
0.0
  0
LINE
  8
0
  6
BYLAYER
 62
     1
 10
382.105741
 20
-161.907203
 30
0.0
 11
382.105741
 21
-78.625221
 31
0.0
  0
LINE
  8
0
  6
BYLAYER
 62
     1
 10
380.105741
 20
-113.266212
 30
0.0
 11
382.105741
 21
-113.266212
 31
0.0
  0
LINE
  8
0
  6
BYLAYER
 62
     1
 10
380.105741
 20
-90.559059
 30
0.0
 11
382.105741
 21
-90.559059
 31
0.0
  0
ARC
  8
0
  6
BYLAYER
 62
     1
 10
192.605802
 20
-294.766212
 30
0.0
 40
2.0
 50
180.000000
 51
269.999996
  0
LINE
  8
0
  6
BYLAYER
 62
     1
 10
368.519926
 20
-301.680458
 30
0.0
 11
363.019926
 21
-296.180458
 31
0.0
  0
LINE
  8
0
  6
BYLAYER
 62
     1
 10
367.105741
 20
-302.266273
 30
0.0
 11
312.294401
 21
-302.266273
 31
0.0
  0
LINE
  8
0
  6
BYLAYER
 62
     1
 10
185.105802
 20
-88.266212
 30
0.0
 11
185.105802
 21
-174.709877
 31
0.0
  0
ARC
  8
0
  6
BYLAYER
 62
     1
 10
183.105802
 20
-174.709877
 30
0.0
 40
1.999980
 50
339.280495
 51
360.000000
  0
ARC
  8
0
  6
BYLAYER
 62
     1
 10
277.105802
 20
-210.266212
 30
0.0
 40
98.500038
 50
159.280449
 51
200.719548
  0
LINE
  8
0
  6
BYLAYER
 62
     1
 10
185.105802
 20
-245.822486
 30
0.0
 11
185.105802
 21
-300.266212
 31
0.0
  0
ARC
  8
0
  6
BYLAYER
 62
     1
 10
183.105802
 20
-245.822486
 30
0.0
 40
1.999959
 50
0.0
 51
20.719577
  0
LINE
  8
0
  6
BYLAYER
 62
     1
 10
241.549711
 20
-302.266273
 30
0.0
 11
187.105802
 21
-302.266273
 31
0.0
  0
ARC
  8
0
  6
BYLAYER
 62
     1
 10
277.105802
 20
-210.266212
 30
0.0
 40
98.500031
 50
249.280595
 51
290.931197
  0
ARC
  8
0
  6
BYLAYER
 62
     1
 10
241.549711
 20
-304.266273
 30
0.0
 40
2.000000
 50
69.280601
 51
90.000000
  0
LINE
  8
0
  6
BYLAYER
 62
     1
 10
369.105741
 20
-245.822486
 30
0.0
 11
369.105741
 21
-300.266273
 31
0.0
  0
ARC
  8
0
  6
BYLAYER
 62
     1
 10
371.105741
 20
-245.822486
 30
0.0
 40
2.000000
 50
159.280416
 51
180.000000
  0
ARC
  8
0
  6
BYLAYER
 62
     1
 10
371.105741
 20
-174.709877
 30
0.0
 40
2.000000
 50
180.000000
 51
200.719584
  0
LINE
  8
0
  6
BYLAYER
 62
     1
 10
192.605802
 20
-296.766212
 30
0.0
 11
235.061002
 21
-296.766212
 31
0.0
  0
ARC
  8
0
  6
BYLAYER
 62
     1
 10
225.605802
 20
-115.266212
 30
0.0
 40
1.0
 50
90.0
 51
270.000005
  0
ARC
  8
0
  6
BYLAYER
 62
     1
 10
328.605741
 20
-115.266212
 30
0.0
 40
1.000000
 50
270.0
 51
449.999991
  0
LINE
  8
0
  6
BYLAYER
 62
     1
 10
294.142530
 20
-114.266212
 30
0.0
 11
328.605741
 21
-114.266212
 31
0.0
  0
LINE
  8
0
  6
BYLAYER
 62
     1
 10
225.605802
 20
-114.266212
 30
0.0
 11
260.069074
 21
-114.266212
 31
0.0
  0
LINE
  8
0
  6
BYLAYER
 62
     1
 10
302.994993
 20
-116.266212
 30
0.0
 11
328.605741
 21
-116.266212
 31
0.0
  0
LINE
  8
0
  6
BYLAYER
 62
     1
 10
225.605802
 20
-116.266212
 30
0.0
 11
251.216611
 21
-116.266212
 31
0.0
  0
ARC
  8
0
  6
BYLAYER
 62
     1
 10
229.105802
 20
-127.266212
 30
0.0
 40
1.0
 50
270.0
 51
450.000005
  0
ARC
  8
0
  6
BYLAYER
 62
     1
 10
218.105802
 20
-139.266212
 30
0.0
 40
1.0
 50
270.0
 51
450.000005
  0
ARC
  8
0
  6
BYLAYER
 62
     1
 10
206.105802
 20
-151.266212
 30
0.0
 40
1.0
 50
270.0
 51
450.000005
  0
ARC
  8
0
  6
BYLAYER
 62
     1
 10
325.105741
 20
-127.266212
 30
0.0
 40
1.0
 50
90.0
 51
270.000005
  0
ARC
  8
0
  6
BYLAYER
 62
     1
 10
336.105741
 20
-139.266212
 30
0.0
 40
1.0
 50
90.0
 51
270.000005
  0
ARC
  8
0
  6
BYLAYER
 62
     1
 10
348.105741
 20
-151.266212
 30
0.0
 40
1.0
 50
90.0
 51
270.000005
  0
LINE
  8
0
  6
BYLAYER
 62
     1
 10
369.105741
 20
-174.709877
 30
0.0
 11
369.105741
 21
-88.266212
 31
0.0
  0
LINE
  8
0
  6
BYLAYER
 62
     1
 10
229.105802
 20
-128.266212
 30
0.0
 11
186.105802
 21
-128.266212
 31
0.0
  0
LINE
  8
0
  6
BYLAYER
 62
     1
 10
229.105802
 20
-126.266212
 30
0.0
 11
186.105802
 21
-126.266212
 31
0.0
  0
ARC
  8
0
  6
BYLAYER
 62
     1
 10
186.105802
 20
-137.266212
 30
0.0
 40
1.000000
 50
180.000000
 51
269.999996
  0
ARC
  8
0
  6
BYLAYER
 62
     1
 10
186.105802
 20
-149.266212
 30
0.0
 40
1.000000
 50
180.000000
 51
269.999996
  0
ARC
  8
0
  6
BYLAYER
 62
     1
 10
186.105802
 20
-141.266212
 30
0.0
 40
1.000000
 50
90.0
 51
180.000003
  0
ARC
  8
0
  6
BYLAYER
 62
     1
 10
186.105802
 20
-153.266212
 30
0.0
 40
1.000000
 50
90.0
 51
180.000003
  0
LINE
  8
0
  6
BYLAYER
 62
     1
 10
218.105802
 20
-138.266212
 30
0.0
 11
186.105802
 21
-138.266212
 31
0.0
  0
LINE
  8
0
  6
BYLAYER
 62
     1
 10
218.105802
 20
-140.266212
 30
0.0
 11
186.105802
 21
-140.266212
 31
0.0
  0
LINE
  8
0
  6
BYLAYER
 62
     1
 10
206.105802
 20
-150.266212
 30
0.0
 11
186.105802
 21
-150.266212
 31
0.0
  0
LINE
  8
0
  6
BYLAYER
 62
     1
 10
206.105802
 20
-152.266212
 30
0.0
 11
186.105802
 21
-152.266212
 31
0.0
  0
ARC
  8
0
  6
BYLAYER
 62
     1
 10
368.105741
 20
-125.266212
 30
0.0
 40
1.000000
 50
270.0
 51
359.999982
  0
ARC
  8
0
  6
BYLAYER
 62
     1
 10
368.105741
 20
-129.266212
 30
0.0
 40
1.000000
 50
0.0
 51
90.000016
  0
ARC
  8
0
  6
BYLAYER
 62
     1
 10
368.105741
 20
-137.266212
 30
0.0
 40
1.0
 50
270.0
 51
359.999982
  0
ARC
  8
0
  6
BYLAYER
 62
     1
 10
368.105741
 20
-141.266212
 30
0.0
 40
1.000000
 50
0.0
 51
90.000016
  0
ARC
  8
0
  6
BYLAYER
 62
     1
 10
368.105741
 20
-149.266212
 30
0.0
 40
1.0
 50
270.0
 51
359.999982
  0
ARC
  8
0
  6
BYLAYER
 62
     1
 10
368.105741
 20
-153.266212
 30
0.0
 40
1.000000
 50
0.0
 51
90.000016
  0
LINE
  8
0
  6
BYLAYER
 62
     1
 10
325.105741
 20
-128.266212
 30
0.0
 11
368.105741
 21
-128.266212
 31
0.0
  0
LINE
  8
0
  6
BYLAYER
 62
     1
 10
336.105741
 20
-138.266212
 30
0.0
 11
368.105741
 21
-138.266212
 31
0.0
  0
LINE
  8
0
  6
BYLAYER
 62
     1
 10
336.105741
 20
-140.266212
 30
0.0
 11
368.105741
 21
-140.266212
 31
0.0
  0
LINE
  8
0
  6
BYLAYER
 62
     1
 10
348.105741
 20
-150.266212
 30
0.0
 11
368.105741
 21
-150.266212
 31
0.0
  0
LINE
  8
0
  6
BYLAYER
 62
     1
 10
348.105741
 20
-152.266212
 30
0.0
 11
368.105741
 21
-152.266212
 31
0.0
  0
LINE
  8
0
  6
BYLAYER
 62
     1
 10
175.605802
 20
-141.588233
 30
0.0
 11
174.105802
 21
-141.588233
 31
0.0
  0
LINE
  8
0
  6
BYLAYER
 62
     1
 10
175.605802
 20
-155.444191
 30
0.0
 11
174.105802
 21
-155.444191
 31
0.0
  0
LINE
  8
0
  6
BYLAYER
 62
     1
 10
369.105741
 20
-126.766212
 30
0.0
 11
378.605741
 21
-126.766212
 31
0.0
  0
LINE
  8
0
  6
BYLAYER
 62
     1
 10
369.105741
 20
-261.766212
 30
0.0
 11
378.605741
 21
-261.766212
 31
0.0
  0
LINE
  8
0
  6
BYLAYER
 62
     1
 10
328.605741
 20
-302.266273
 30
0.0
 11
328.605741
 21
-311.766151
 31
0.0
  0
LINE
  8
0
  6
BYLAYER
 62
     1
 10
225.605802
 20
-311.766151
 30
0.0
 11
225.605802
 21
-302.266273
 31
0.0
  0
LINE
  8
0
  6
BYLAYER
 62
     1
 10
175.605802
 20
-261.766212
 30
0.0
 11
185.105802
 21
-261.766212
 31
0.0
  0
LINE
  8
0
  6
BYLAYER
 62
     1
 10
175.605802
 20
-126.766212
 30
0.0
 11
185.105802
 21
-126.766212
 31
0.0
  0
LINE
  8
0
  6
BYLAYER
 62
     1
 10
340.605741
 20
-86.266212
 30
0.0
 11
340.605741
 21
-75.266212
 31
0.0
  0
LINE
  8
0
  6
BYLAYER
 62
     1
 10
353.605741
 20
-86.266212
 30
0.0
 11
353.605741
 21
-75.266212
 31
0.0
  0
LINE
  8
0
  6
BYLAYER
 62
     1
 10
200.605802
 20
-86.266212
 30
0.0
 11
200.605802
 21
-75.266212
 31
0.0
  0
LINE
  8
0
  6
BYLAYER
 62
     1
 10
213.605802
 20
-86.266212
 30
0.0
 11
213.605802
 21
-75.266212
 31
0.0
  0
LINE
  8
0
  6
BYLAYER
 62
     1
 10
185.105802
 20
-101.766212
 30
0.0
 11
174.105802
 21
-101.766212
 31
0.0
  0
LINE
  8
0
  6
BYLAYER
 62
     1
 10
185.105802
 20
-114.766212
 30
0.0
 11
174.105802
 21
-114.766212
 31
0.0
  0
LINE
  8
0
  6
BYLAYER
 62
     1
 10
213.605802
 20
-302.266212
 30
0.0
 11
213.605802
 21
-313.266212
 31
0.0
  0
LINE
  8
0
  6
BYLAYER
 62
     1
 10
200.605802
 20
-302.266212
 30
0.0
 11
200.605802
 21
-313.266212
 31
0.0
  0
LINE
  8
0
  6
BYLAYER
 62
     1
 10
185.105802
 20
-286.766212
 30
0.0
 11
174.105802
 21
-286.766212
 31
0.0
  0
LINE
  8
0
  6
BYLAYER
 62
     1
 10
185.105802
 20
-273.766212
 30
0.0
 11
174.105802
 21
-273.766212
 31
0.0
  0
LINE
  8
0
  6
BYLAYER
 62
     1
 10
369.105802
 20
-273.766212
 30
0.0
 11
380.105741
 21
-273.766212
 31
0.0
  0
LINE
  8
0
  6
BYLAYER
 62
     1
 10
369.105802
 20
-286.766212
 30
0.0
 11
380.105741
 21
-286.766212
 31
0.0
  0
LINE
  8
0
  6
BYLAYER
 62
     1
 10
353.605741
 20
-302.266212
 30
0.0
 11
353.605741
 21
-313.266212
 31
0.0
  0
LINE
  8
0
  6
BYLAYER
 62
     1
 10
340.605741
 20
-302.266212
 30
0.0
 11
340.605741
 21
-313.266212
 31
0.0
  0
LINE
  8
0
  6
BYLAYER
 62
     1
 10
325.105741
 20
-126.266212
 30
0.0
 11
360.054594
 21
-126.266212
 31
0.0
  0
LINE
  8
0
  6
BYLAYER
 62
     1
 10
368.105741
 20
-126.266212
 30
0.0
 11
360.054594
 21
-126.266212
 31
0.0
  0
LINE
  8
0
  6
BYLAYER
 62
     1
 10
330.105741
 20
-313.266212
 30
0.0
 11
378.605741
 21
-313.266212
 31
0.0
  0
LINE
  8
0
  6
BYLAYER
 62
     1
 10
319.150602
 20
-296.766212
 30
0.0
 11
339.649503
 21
-296.766212
 31
0.0
  0
LINE
  8
0
  6
BYLAYER
 62
     1
 10
339.649503
 20
-296.766212
 30
0.0
 11
361.605741
 21
-296.766212
 31
0.0
  0
LINE
  8
0
  6
BYLAYER
 62
     1
 10
224.105802
 20
-313.266212
 30
0.0
 11
175.605802
 21
-313.266212
 31
0.0
  0
ARC
  8
0
  6
BYLAYER
 62
     1
 10
356.105741
 20
-257.266212
 30
0.0
 40
1.0
 50
90.0
 51
270.000005
  0
ARC
  8
0
  6
BYLAYER
 62
     1
 10
368.105741
 20
-259.266212
 30
0.0
 40
1.0
 50
0.0
 51
89.999982
  0
ARC
  8
0
  6
BYLAYER
 62
     1
 10
368.105741
 20
-255.266212
 30
0.0
 40
1.0
 50
270.0
 51
360.000016
  0
LINE
  8
0
  6
BYLAYER
 62
     1
 10
356.105741
 20
-258.266212
 30
0.0
 11
368.105741
 21
-258.266212
 31
0.0
  0
LINE
  8
0
  6
BYLAYER
 62
     1
 10
356.105741
 20
-256.266212
 30
0.0
 11
368.105741
 21
-256.266212
 31
0.0
  0
LINE
  8
0
  6
BYLAYER
 62
     1
 10
380.105741
 20
-263.266212
 30
0.0
 11
380.105741
 21
-311.766212
 31
0.0
  0
ARC
  8
0
  6
BYLAYER
 62
     1
 10
198.105802
 20
-257.266212
 30
0.0
 40
1.0
 50
270.0
 51
449.999991
  0
ARC
  8
0
  6
BYLAYER
 62
     1
 10
186.105802
 20
-259.266212
 30
0.0
 40
1.0
 50
90.0
 51
179.999982
  0
ARC
  8
0
  6
BYLAYER
 62
     1
 10
186.105802
 20
-255.266212
 30
0.0
 40
1.000000
 50
180.000000
 51
270.000023
  0
LINE
  8
0
  6
BYLAYER
 62
     1
 10
198.105802
 20
-258.266212
 30
0.0
 11
186.105802
 21
-258.266212
 31
0.0
  0
LINE
  8
0
  6
BYLAYER
 62
     1
 10
198.105802
 20
-256.266212
 30
0.0
 11
186.105802
 21
-256.266212
 31
0.0
  0
ARC
  8
0
  6
BYLAYER
 62
     1
 10
186.105802
 20
-125.266212
 30
0.0
 40
1.000000
 50
180.000000
 51
269.999996
  0
ARC
  8
0
  6
BYLAYER
 62
     1
 10
186.105802
 20
-129.266212
 30
0.0
 40
1.000000
 50
90.0
 51
180.000003
  0
ARC
  8
0
  6
BYLAYER
 62
     1
 10
277.105802
 20
-210.266212
 30
0.0
 40
98.499939
 50
0.0
 51
20.719575
  0
ARC
  8
0
  6
BYLAYER
 62
     1
 10
277.105802
 20
-210.266212
 30
0.0
 40
98.499939
 50
339.280413
 51
360.000000
  0
LINE
  8
0
  6
BYLAYER
 62
     1
 10
174.105802
 20
-311.766212
 30
0.0
 11
174.105802
 21
-263.266212
 31
0.0
  0
LINE
  8
0
  6
BYLAYER
 62
     1
 10
224.105802
 20
-75.266212
 30
0.0
 11
175.605802
 21
-75.266212
 31
0.0
  0
LINE
  8
0
  6
BYLAYER
 62
     1
 10
174.105802
 20
-120.266212
 30
0.0
 11
174.105802
 21
-156.266212
 31
0.0
  0
LINE
  8
0
  6
BYLAYER
 62
     1
 10
174.105802
 20
-120.266212
 30
0.0
 11
174.105802
 21
-76.766212
 31
0.0
  0
LINE
  8
0
  6
BYLAYER
 62
     1
 10
330.105741
 20
-75.266212
 30
0.0
 11
378.605741
 21
-75.266212
 31
0.0
  0
LINE
  8
0
  6
BYLAYER
 62
     1
 10
190.605802
 20
-256.266212
 30
0.0
 11
190.605802
 21
-252.311012
 31
0.0
  0
LINE
  8
0
  6
BYLAYER
 62
     1
 10
190.605802
 20
-294.766212
 30
0.0
 11
190.605802
 21
-258.266212
 31
0.0
  0
ARC
  8
0
  6
BYLAYER
 62
     1
 10
361.605741
 20
-294.766212
 30
0.0
 40
2.000000
 50
314.998762
 51
360.000000
  0
ARC
  8
0
  6
BYLAYER
 62
     1
 10
361.605741
 20
-294.766212
 30
0.0
 40
2.000002
 50
270.0
 51
314.998762
  0
LINE
  8
0
  6
BYLAYER
 62
     1
 10
363.605741
 20
-294.766212
 30
0.0
 11
363.605741
 21
-258.266212
 31
0.0
  0
LINE
  8
0
  6
BYLAYER
 62
     1
 10
363.605741
 20
-256.266212
 30
0.0
 11
363.605741
 21
-252.311012
 31
0.0
  0
LINE
  8
0
  6
BYLAYER
 62
     1
 10
185.691678
 20
-301.680458
 30
0.0
 11
191.191678
 21
-296.180458
 31
0.0
  0
LINE
  8
0
  6
BYLAYER
 62
     1
 10
378.605741
 20
-261.766212
 30
0.0
 11
378.605741
 21
-126.766212
 31
0.0
  0
ARC
  8
0
  6
BYLAYER
 62
     1
 10
277.105802
 20
-210.266212
 30
0.0
 40
42.500000
 50
90.0
 51
180.000002
  0
CIRCLE
  8
0
  6
BYLAYER
 62
     1
 10
277.105802
 20
-145.266212
 30
0.0
 40
4.5
  0
ARC
  8
0
  6
BYLAYER
 62
     1
 10
277.105802
 20
-145.266212
 30
0.0
 40
4.999938
 50
353.660000
 51
636.340001
  0
ARC
  8
0
  6
BYLAYER
 62
     1
 10
231.143827
 20
-164.304298
 30
0.0
 40
4.999972
 50
38.659991
 51
321.339992
  0
ARC
  8
0
  6
BYLAYER
 62
     1
 10
231.143827
 20
-164.304298
 30
0.0
 40
4.999972
 50
38.659991
 51
321.339992
  0
CIRCLE
  8
0
  6
BYLAYER
 62
     1
 10
231.143827
 20
-164.304298
 30
0.0
 40
4.5
  0
CIRCLE
  8
0
  6
BYLAYER
 62
     1
 10
212.105802
 20
-210.266212
 30
0.0
 40
4.5
  0
ARC
  8
0
  6
BYLAYER
 62
     1
 10
212.105802
 20
-210.266212
 30
0.0
 40
5.000012
 50
83.660009
 51
366.340010
  0
ARC
  8
0
  6
BYLAYER
 62
     1
 10
277.105802
 20
-210.266212
 30
0.0
 40
55.000000
 50
90.000003
 51
180.000005
  0
ARC
  8
0
  6
BYLAYER
 62
     1
 10
277.105802
 20
-210.266212
 30
0.0
 40
55.000000
 50
359.999986
 51
450.000003
  0
ARC
  8
0
  6
BYLAYER
 62
     1
 10
277.105802
 20
-210.266212
 30
0.0
 40
54.999939
 50
179.999991
 51
270.0
  0
CIRCLE
  8
0
  6
BYLAYER
 62
     1
 10
277.105802
 20
-145.266212
 30
0.0
 40
4.5
  0
CIRCLE
  8
0
  6
BYLAYER
 62
     1
 10
231.143827
 20
-164.304298
 30
0.0
 40
4.5
  0
CIRCLE
  8
0
  6
BYLAYER
 62
     1
 10
212.105802
 20
-210.266212
 30
0.0
 40
4.5
  0
CIRCLE
  8
0
  6
BYLAYER
 62
     1
 10
277.105802
 20
-145.266212
 30
0.0
 40
4.5
  0
ARC
  8
0
  6
BYLAYER
 62
     1
 10
277.105802
 20
-210.266212
 30
0.0
 40
80.000000
 50
90.000003
 51
94.744108
  0
ARC
  8
0
  6
BYLAYER
 62
     1
 10
270.654752
 20
-132.533424
 30
0.0
 40
2.000037
 50
94.743931
 51
150.255446
  0
ARC
  8
0
  6
BYLAYER
 62
     1
 10
217.578824
 20
-159.862403
 30
0.0
 40
2.000029
 50
139.743649
 51
195.255574
  0
ARC
  8
0
  6
BYLAYER
 62
     1
 10
277.105802
 20
-210.266212
 30
0.0
 40
80.000031
 50
130.255874
 51
139.744113
  0
ARC
  8
0
  6
BYLAYER
 62
     1
 10
236.924039
 20
-113.258766
 30
0.0
 40
36.849331
 50
254.744800
 51
330.255247
  0
ARC
  8
0
  6
BYLAYER
 62
     1
 10
226.702054
 20
-150.739234
 30
0.0
 40
2.000036
 50
74.744591
 51
130.256270
  0
ARC
  8
0
  6
BYLAYER
 62
     1
 10
180.098478
 20
-170.084449
 30
0.0
 40
36.8493
 50
299.744739
 51
375.255260
  0
ARC
  8
0
  6
BYLAYER
 62
     1
 10
199.373014
 20
-203.815040
 30
0.0
 40
1.999955
 50
119.744117
 51
175.255742
  0
ARC
  8
0
  6
BYLAYER
 62
     1
 10
277.105802
 20
-210.266212
 30
0.0
 40
79.999977
 50
175.255865
 51
180.000005
  0
CIRCLE
  8
0
  6
BYLAYER
 62
     1
 10
231.143949
 20
-256.228126
 30
0.0
 40
4.5
  0
ARC
  8
0
  6
BYLAYER
 62
     1
 10
277.105802
 20
-210.266212
 30
0.0
 40
80.000000
 50
180.000005
 51
184.744104
  0
ARC
  8
0
  6
BYLAYER
 62
     1
 10
199.373014
 20
-216.717262
 30
0.0
 40
1.999954
 50
184.743940
 51
240.255456
  0
ARC
  8
0
  6
BYLAYER
 62
     1
 10
226.702054
 20
-269.793129
 30
0.0
 40
1.999990
 50
229.743658
 51
285.255583
  0
ARC
  8
0
  6
BYLAYER
 62
     1
 10
277.105802
 20
-210.266212
 30
0.0
 40
79.999939
 50
220.255870
 51
229.744122
  0
ARC
  8
0
  6
BYLAYER
 62
     1
 10
180.098478
 20
-250.447975
 30
0.0
 40
36.849354
 50
344.744807
 51
420.255253
  0
ARC
  8
0
  6
BYLAYER
 62
     1
 10
217.578824
 20
-260.669899
 30
0.0
 40
1.999990
 50
164.744600
 51
220.256279
  0
ARC
  8
0
  6
BYLAYER
 62
     1
 10
236.924039
 20
-307.273475
 30
0.0
 40
36.849285
 50
29.744750
 51
105.255264
  0
ARC
  8
0
  6
BYLAYER
 62
     1
 10
270.654752
 20
-287.998939
 30
0.0
 40
1.999955
 50
209.744126
 51
265.255751
  0
ARC
  8
0
  6
BYLAYER
 62
     1
 10
277.105802
 20
-210.266212
 30
0.0
 40
79.999908
 50
265.255861
 51
270.000001
  0
CIRCLE
  8
0
  6
BYLAYER
 62
     1
 10
323.067747
 20
-256.228004
 30
0.0
 40
4.5
  0
ARC
  8
0
  6
BYLAYER
 62
     1
 10
277.105802
 20
-210.266212
 30
0.0
 40
79.999939
 50
270.0
 51
274.744113
  0
ARC
  8
0
  6
BYLAYER
 62
     1
 10
283.556852
 20
-287.998939
 30
0.0
 40
2.000007
 50
274.743922
 51
330.255438
  0
ARC
  8
0
  6
BYLAYER
 62
     1
 10
336.632810
 20
-260.669899
 30
0.0
 40
1.999982
 50
319.743667
 51
375.255565
  0
ARC
  8
0
  6
BYLAYER
 62
     1
 10
277.105802
 20
-210.266212
 30
0.0
 40
79.999954
 50
310.255879
 51
319.744104
  0
ARC
  8
0
  6
BYLAYER
 62
     1
 10
317.287595
 20
-307.273536
 30
0.0
 40
36.849358
 50
74.744816
 51
150.255242
  0
ARC
  8
0
  6
BYLAYER
 62
     1
 10
327.509519
 20
-269.793129
 30
0.0
 40
2.000029
 50
254.744582
 51
310.256261
  0
ARC
  8
0
  6
BYLAYER
 62
     1
 10
374.113157
 20
-250.447975
 30
0.0
 40
36.849327
 50
119.744732
 51
195.255260
  0
ARC
  8
0
  6
BYLAYER
 62
     1
 10
354.838621
 20
-216.717262
 30
0.0
 40
1.999894
 50
299.744108
 51
355.255733
  0
ARC
  8
0
  6
BYLAYER
 62
     1
 10
277.105802
 20
-210.266212
 30
0.0
 40
79.999939
 50
355.25587
 51
360.000010
  0
CIRCLE
  8
0
  6
BYLAYER
 62
     1
 10
323.067625
 20
-164.304176
 30
0.0
 40
4.5
  0
ARC
  8
0
  6
BYLAYER
 62
     1
 10
277.105802
 20
-210.266212
 30
0.0
 40
80.000031
 50
0.000010
 51
4.744123
  0
ARC
  8
0
  6
BYLAYER
 62
     1
 10
354.838621
 20
-203.815162
 30
0.0
 40
2.000030
 50
4.743932
 51
60.255444
  0
ARC
  8
0
  6
BYLAYER
 62
     1
 10
327.509641
 20
-150.739234
 30
0.0
 40
1.999997
 50
49.743650
 51
105.255544
  0
ARC
  8
0
  6
BYLAYER
 62
     1
 10
277.105802
 20
-210.266212
 30
0.0
 40
79.999962
 50
40.255861
 51
49.744114
  0
ARC
  8
0
  6
BYLAYER
 62
     1
 10
336.632810
 20
-159.862403
 30
0.0
 40
1.999904
 50
344.744591
 51
400.256271
  0
ARC
  8
0
  6
BYLAYER
 62
     1
 10
283.556852
 20
-132.533424
 30
0.0
 40
2.000015
 50
29.744118
 51
85.255739
  0
ARC
  8
0
  6
BYLAYER
 62
     1
 10
277.105802
 20
-210.266212
 30
0.0
 40
80.000031
 50
85.255876
 51
90.000016
  0
ARC
  8
0
  6
BYLAYER
 62
     1
 10
231.143888
 20
-164.304176
 30
0.0
 40
5.000000
 50
38.659991
 51
321.339992
  0
ARC
  8
0
  6
BYLAYER
 62
     1
 10
212.105802
 20
-210.266212
 30
0.0
 40
4.999999
 50
83.660009
 51
366.340010
  0
ARC
  8
0
  6
BYLAYER
 62
     1
 10
231.143888
 20
-256.228126
 30
0.0
 40
4.999962
 50
128.660028
 51
411.340001
  0
ARC
  8
0
  6
BYLAYER
 62
     1
 10
277.105802
 20
-275.266151
 30
0.0
 40
4.999999
 50
173.660015
 51
456.340016
  0
ARC
  8
0
  6
BYLAYER
 62
     1
 10
323.067747
 20
-256.228126
 30
0.0
 40
5.0
 50
218.660013
 51
501.340041
  0
ARC
  8
0
  6
BYLAYER
 62
     1
 10
342.105833
 20
-210.266212
 30
0.0
 40
5.000060
 50
263.659977
 51
546.340005
  0
ARC
  8
0
  6
BYLAYER
 62
     1
 10
323.067747
 20
-164.304176
 30
0.0
 40
5.000096
 50
308.659982
 51
591.339955
  0
CIRCLE
  8
0
  6
BYLAYER
 62
     1
 10
277.105802
 20
-275.266151
 30
0.0
 40
4.5
  0
CIRCLE
  8
0
  6
BYLAYER
 62
     1
 10
342.105833
 20
-210.266212
 30
0.0
 40
4.5
  0
ARC
  8
0
  6
BYLAYER
 62
     1
 10
317.287595
 20
-113.258766
 30
0.0
 40
36.849327
 50
209.744796
 51
285.255256
  0
ARC
  8
0
  6
BYLAYER
 62
     1
 10
277.105802
 20
-210.266212
 30
0.0
 40
54.999939
 50
270.0
 51
360.000003
  0
ARC
  8
0
  6
BYLAYER
 62
     1
 10
277.105802
 20
-210.266212
 30
0.0
 40
97.5
 50
245.301818
 51
294.698190
  0
ARC
  8
0
  6
BYLAYER
 62
     1
 10
277.105802
 20
-210.266212
 30
0.0
 40
97.5
 50
155.301809
 51
204.698181
  0
ARC
  8
0
  6
BYLAYER
 62
     1
 10
190.342008
 20
-250.169776
 30
0.0
 40
2.0
 50
204.698188
 51
255.000000
  0
ARC
  8
0
  6
BYLAYER
 62
     1
 10
190.342008
 20
-170.362648
 30
0.0
 40
2.0
 50
104.999996
 51
155.301809
  0
ARC
  8
0
  6
BYLAYER
 62
     1
 10
277.105802
 20
-210.266212
 30
0.0
 40
97.500000
 50
65.301813
 51
114.698185
  0
ARC
  8
0
  6
BYLAYER
 62
     1
 10
277.105802
 20
-210.266212
 30
0.0
 40
97.500000
 50
335.301827
 51
384.698199
  0
ARC
  8
0
  6
BYLAYER
 62
     1
 10
277.105802
 20
-210.266212
 30
0.0
 40
42.500015
 50
45.000015
 51
90.000003
  0
ARC
  8
0
  6
BYLAYER
 62
     1
 10
277.105802
 20
-210.266212
 30
0.0
 40
42.500000
 50
180.000005
 51
404.999974
  0
ARC
  8
0
  6
BYLAYER
 62
     1
 10
374.113157
 20
-170.084327
 30
0.0
 40
36.849373
 50
225.3616
 51
240.255401
  0
ARC
  8
0
  6
BYLAYER
 62
     1
 10
339.263914
 20
-170.097877
 30
0.0
 40
2.000022
 50
180.022736
 51
274.620241
  0
ARC
  8
0
  6
BYLAYER
 62
     1
 10
340.391599
 20
-184.052406
 30
0.0
 40
11.999949
 50
310.379888
 51
454.620246
  0
ARC
  8
0
  6
BYLAYER
 62
     1
 10
349.461545
 20
-194.717140
 30
0.0
 40
2.000067
 50
130.380156
 51
224.977743
  0
ARC
  8
0
  6
BYLAYER
 62
     1
 10
374.113279
 20
-170.084388
 30
0.0
 40
36.849331
 50
164.744791
 51
240.255265
  0
LINE
  8
0
  6
BYLAYER
 62
     1
 10
364.387205
 20
-252.101631
 30
0.0
 11
348.539060
 21
-256.348121
 31
0.0
  0
ARC
  8
0
  6
BYLAYER
 62
     1
 10
363.869626
 20
-250.169776
 30
0.0
 40
2.0
 50
284.999998
 51
335.301810
  0
LINE
  8
0
  6
BYLAYER
 62
     1
 10
323.185071
 20
-281.709419
 30
0.0
 11
318.941221
 21
-297.547645
 31
0.0
  0
ARC
  8
0
  6
BYLAYER
 62
     1
 10
317.009336
 20
-297.030006
 30
0.0
 40
2.0
 50
294.698200
 51
345.000013
  0
ARC
  8
0
  6
BYLAYER
 62
     1
 10
325.119565
 20
-282.217079
 30
0.0
 40
2.000000
 50
123.715705
 51
164.999994
  0
ARC
  8
0
  6
BYLAYER
 62
     1
 10
323.779600
 20
-287.217842
 30
0.0
 40
2.000000
 50
121.238252
 51
164.999994
  0
ARC
  8
0
  6
BYLAYER
 62
     1
 10
277.105802
 20
-210.266212
 30
0.0
 40
88.0
 50
301.238253
 51
328.761739
  0
ARC
  8
0
  6
BYLAYER
 62
     1
 10
354.057432
 20
-256.940040
 30
0.0
 40
2.0
 50
104.999996
 51
148.761739
  0
ARC
  8
0
  6
BYLAYER
 62
     1
 10
277.105802
 20
-210.266212
 30
0.0
 40
84.5
 50
303.715700
 51
326.284277
  0
ARC
  8
0
  6
BYLAYER
 62
     1
 10
349.056699
 20
-258.279975
 30
0.0
 40
2.000000
 50
105.000003
 51
146.284292
  0
LINE
  8
0
  6
BYLAYER
 62
     1
 10
318.941221
 20
-122.984779
 30
0.0
 11
323.187742
 21
-138.832984
 31
0.0
  0
ARC
  8
0
  6
BYLAYER
 62
     1
 10
317.009336
 20
-123.502418
 30
0.0
 40
2.0
 50
15.000000
 51
65.301813
  0
LINE
  8
0
  6
BYLAYER
 62
     1
 10
348.539060
 20
-164.184303
 30
0.0
 11
364.387205
 21
-168.430793
 31
0.0
  0
ARC
  8
0
  6
BYLAYER
 62
     1
 10
363.869626
 20
-170.362648
 30
0.0
 40
2.0
 50
24.698186
 51
74.999999
  0
ARC
  8
0
  6
BYLAYER
 62
     1
 10
349.056699
 20
-162.252449
 30
0.0
 40
2.0
 50
213.715714
 51
255.000004
  0
ARC
  8
0
  6
BYLAYER
 62
     1
 10
354.057432
 20
-163.592384
 30
0.0
 40
2.0
 50
211.238261
 51
255.000004
  0
ARC
  8
0
  6
BYLAYER
 62
     1
 10
277.105802
 20
-210.266212
 30
0.0
 40
88.0
 50
31.238256
 51
58.761741
  0
ARC
  8
0
  6
BYLAYER
 62
     1
 10
323.779600
 20
-133.314582
 30
0.0
 40
2.0
 50
195.000005
 51
238.761748
  0
ARC
  8
0
  6
BYLAYER
 62
     1
 10
277.105802
 20
-210.266212
 30
0.0
 40
84.5
 50
33.715713
 51
56.284290
  0
ARC
  8
0
  6
BYLAYER
 62
     1
 10
325.119565
 20
-138.315345
 30
0.0
 40
2.000000
 50
195.000012
 51
236.284302
  0
LINE
  8
0
  6
BYLAYER
 62
     1
 10
189.824369
 20
-168.430793
 30
0.0
 11
205.672574
 21
-164.184303
 31
0.0
  0
LINE
  8
0
  6
BYLAYER
 62
     1
 10
231.023893
 20
-138.832984
 30
0.0
 11
235.270383
 21
-122.984779
 31
0.0
  0
ARC
  8
0
  6
BYLAYER
 62
     1
 10
237.202238
 20
-123.502418
 30
0.0
 40
2.000000
 50
114.698182
 51
164.999994
  0
ARC
  8
0
  6
BYLAYER
 62
     1
 10
229.092039
 20
-138.315345
 30
0.0
 40
2.0
 50
303.715723
 51
345.000013
  0
ARC
  8
0
  6
BYLAYER
 62
     1
 10
230.431974
 20
-133.314582
 30
0.0
 40
2.000000
 50
301.238270
 51
345.000013
  0
ARC
  8
0
  6
BYLAYER
 62
     1
 10
277.105802
 20
-210.266212
 30
0.0
 40
88.0
 50
121.238262
 51
148.761747
  0
ARC
  8
0
  6
BYLAYER
 62
     1
 10
200.154172
 20
-163.592384
 30
0.0
 40
2.000000
 50
284.999987
 51
328.761730
  0
ARC
  8
0
  6
BYLAYER
 62
     1
 10
277.105802
 20
-210.266212
 30
0.0
 40
84.500000
 50
123.715708
 51
146.284286
  0
ARC
  8
0
  6
BYLAYER
 62
     1
 10
205.154935
 20
-162.252449
 30
0.0
 40
2.000000
 50
284.999994
 51
326.284284
  0
LINE
  8
0
  6
BYLAYER
 62
     1
 10
235.270383
 20
-297.547645
 30
0.0
 11
231.023893
 21
-281.699440
 31
0.0
  0
ARC
  8
0
  6
BYLAYER
 62
     1
 10
237.202238
 20
-297.030006
 30
0.0
 40
2.0
 50
195.000002
 51
245.301815
  0
LINE
  8
0
  6
BYLAYER
 62
     1
 10
205.672574
 20
-256.348121
 30
0.0
 11
189.824369
 21
-252.101631
 31
0.0
  0
ARC
  8
0
  6
BYLAYER
 62
     1
 10
205.154935
 20
-258.279975
 30
0.0
 40
2.0
 50
33.715709
 51
74.999999
  0
ARC
  8
0
  6
BYLAYER
 62
     1
 10
200.154172
 20
-256.940040
 30
0.0
 40
2.000000
 50
31.238256
 51
74.999999
  0
ARC
  8
0
  6
BYLAYER
 62
     1
 10
277.105802
 20
-210.266212
 30
0.0
 40
88.0
 50
211.238258
 51
238.761743
  0
ARC
  8
0
  6
BYLAYER
 62
     1
 10
230.431974
 20
-287.217842
 30
0.0
 40
2.0
 50
15.0
 51
58.761743
  0
ARC
  8
0
  6
BYLAYER
 62
     1
 10
277.105802
 20
-210.266212
 30
0.0
 40
84.500000
 50
213.715718
 51
236.284295
  0
ARC
  8
0
  6
BYLAYER
 62
     1
 10
229.092039
 20
-282.217079
 30
0.0
 40
2.000000
 50
15.0
 51
56.284290
  0
ARC
  8
0
  6
BYLAYER
 62
     1
 10
262.165536
 20
-106.196855
 30
0.0
 40
2.873727
 50
270.0
 51
308.795511
  0
ARC
  8
0
  6
BYLAYER
 62
     1
 10
261.887434
 20
-105.900675
 30
0.0
 40
3.278957
 50
309.340351
 51
360.000000
  0
ARC
  8
0
  6
BYLAYER
 62
     1
 10
261.887434
 20
-105.900675
 30
0.0
 40
3.278957
 50
0.0
 51
50.659649
  0
ARC
  8
0
  6
BYLAYER
 62
     1
 10
262.165536
 20
-105.604495
 30
0.0
 40
2.873727
 50
51.204489
 51
90.000000
  0
ARC
  8
0
  6
BYLAYER
 62
     1
 10
262.165536
 20
-105.604469
 30
0.0
 40
2.873701
 50
90.0
 51
128.795693
  0
ARC
  8
0
  6
BYLAYER
 62
     1
 10
262.443664
 20
-105.900675
 30
0.0
 40
3.278967
 50
129.340576
 51
180.000000
  0
ARC
  8
0
  6
BYLAYER
 62
     1
 10
262.443664
 20
-105.900675
 30
0.0
 40
3.278967
 50
180.000000
 51
230.659424
  0
ARC
  8
0
  6
BYLAYER
 62
     1
 10
262.165536
 20
-106.196881
 30
0.0
 40
2.873701
 50
231.204307
 51
270.000000
  0
ARC
  8
0
  6
BYLAYER
 62
     1
 10
262.165536
 20
-105.057524
 30
0.0
 40
1.329747
 50
90.0
 51
140.793201
  0
ARC
  8
0
  6
BYLAYER
 62
     1
 10
263.199091
 20
-105.900675
 30
0.0
 40
2.663590
 50
140.793201
 51
180.0
  0
ARC
  8
0
  6
BYLAYER
 62
     1
 10
263.199075
 20
-105.900675
 30
0.0
 40
2.663574
 50
180.000000
 51
219.206869
  0
ARC
  8
0
  6
BYLAYER
 62
     1
 10
262.165536
 20
-106.743815
 30
0.0
 40
1.329750
 50
219.206869
 51
270.000000
  0
ARC
  8
0
  6
BYLAYER
 62
     1
 10
262.165536
 20
-106.743815
 30
0.0
 40
1.329750
 50
270.0
 51
320.793131
  0
ARC
  8
0
  6
BYLAYER
 62
     1
 10
261.131998
 20
-105.900675
 30
0.0
 40
2.663574
 50
320.793131
 51
360.000000
  0
ARC
  8
0
  6
BYLAYER
 62
     1
 10
261.131982
 20
-105.900675
 30
0.0
 40
2.663590
 50
0.0
 51
39.206799
  0
ARC
  8
0
  6
BYLAYER
 62
     1
 10
262.165536
 20
-105.057524
 30
0.0
 40
1.329747
 50
39.206799
 51
90.0
  0
LINE
  8
0
  6
BYLAYER
 62
     1
 10
252.317697
 20
-108.859247
 30
0.0
 11
252.317697
 21
-102.857554
 31
0.0
  0
LINE
  8
0
  6
BYLAYER
 62
     1
 10
252.317697
 20
-102.857554
 30
0.0
 11
254.757822
 21
-102.857554
 31
0.0
  0
LINE
  8
0
  6
BYLAYER
 62
     1
 10
254.757822
 20
-102.857554
 30
0.0
 11
255.572137
 21
-105.985209
 31
0.0
  0
LINE
  8
0
  6
BYLAYER
 62
     1
 10
252.317697
 20
-108.859247
 30
0.0
 11
253.782907
 21
-108.859247
 31
0.0
  0
LINE
  8
0
  6
BYLAYER
 62
     1
 10
253.782907
 20
-108.859247
 30
0.0
 11
253.782907
 21
-105.393488
 31
0.0
  0
LINE
  8
0
  6
BYLAYER
 62
     1
 10
254.938150
 20
-108.859247
 30
0.0
 11
253.782907
 21
-105.393488
 31
0.0
  0
LINE
  8
0
  6
BYLAYER
 62
     1
 10
258.826578
 20
-108.859247
 30
0.0
 11
258.826578
 21
-102.857554
 31
0.0
  0
LINE
  8
0
  6
BYLAYER
 62
     1
 10
258.826578
 20
-102.857554
 30
0.0
 11
256.386453
 21
-102.857554
 31
0.0
  0
LINE
  8
0
  6
BYLAYER
 62
     1
 10
256.386453
 20
-102.857554
 30
0.0
 11
255.572137
 21
-105.985209
 31
0.0
  0
LINE
  8
0
  6
BYLAYER
 62
     1
 10
258.826578
 20
-108.859247
 30
0.0
 11
257.361368
 21
-108.859247
 31
0.0
  0
LINE
  8
0
  6
BYLAYER
 62
     1
 10
257.361368
 20
-108.859247
 30
0.0
 11
257.361368
 21
-105.393488
 31
0.0
  0
LINE
  8
0
  6
BYLAYER
 62
     1
 10
256.206125
 20
-108.859247
 30
0.0
 11
257.361368
 21
-105.393488
 31
0.0
  0
LINE
  8
0
  6
BYLAYER
 62
     1
 10
256.206125
 20
-108.859247
 30
0.0
 11
254.938150
 21
-108.859247
 31
0.0
  0
LINE
  8
0
  6
BYLAYER
 62
     1
 10
280.297418
 20
-108.859247
 30
0.0
 11
282.579736
 21
-102.857554
 31
0.0
  0
LINE
  8
0
  6
BYLAYER
 62
     1
 10
280.297418
 20
-108.859247
 30
0.0
 11
282.241632
 21
-108.859247
 31
0.0
  0
LINE
  8
0
  6
BYLAYER
 62
     1
 10
282.579736
 20
-102.857554
 30
0.0
 11
284.439416
 21
-102.857554
 31
0.0
  0
LINE
  8
0
  6
BYLAYER
 62
     1
 10
282.241632
 20
-108.859247
 30
0.0
 11
282.529809
 21
-108.013941
 31
0.0
  0
LINE
  8
0
  6
BYLAYER
 62
     1
 10
282.990869
 20
-106.661448
 30
0.0
 11
283.509576
 21
-105.139887
 31
0.0
  0
LINE
  8
0
  6
BYLAYER
 62
     1
 10
286.721765
 20
-108.859247
 30
0.0
 11
284.439416
 21
-102.857554
 31
0.0
  0
LINE
  8
0
  6
BYLAYER
 62
     1
 10
286.721765
 20
-108.859247
 30
0.0
 11
284.777551
 21
-108.859247
 31
0.0
  0
LINE
  8
0
  6
BYLAYER
 62
     1
 10
284.489374
 20
-108.013941
 30
0.0
 11
282.529809
 21
-108.013941
 31
0.0
  0
LINE
  8
0
  6
BYLAYER
 62
     1
 10
284.028284
 20
-106.661448
 30
0.0
 11
282.990869
 21
-106.661448
 31
0.0
  0
LINE
  8
0
  6
BYLAYER
 62
     1
 10
284.777551
 20
-108.859247
 30
0.0
 11
284.489374
 21
-108.013941
 31
0.0
  0
LINE
  8
0
  6
BYLAYER
 62
     1
 10
284.028284
 20
-106.661448
 30
0.0
 11
283.509576
 21
-105.139887
 31
0.0
  0
LINE
  8
0
  6
BYLAYER
 62
     1
 10
265.166391
 20
-104.336847
 30
0.0
 11
266.857004
 21
-104.336847
 31
0.0
  0
LINE
  8
0
  6
BYLAYER
 62
     1
 10
266.857004
 20
-104.336847
 30
0.0
 11
266.857004
 21
-108.859247
 31
0.0
  0
LINE
  8
0
  6
BYLAYER
 62
     1
 10
266.857004
 20
-108.859247
 30
0.0
 11
268.716699
 21
-108.859247
 31
0.0
  0
LINE
  8
0
  6
BYLAYER
 62
     1
 10
268.716699
 20
-108.859247
 30
0.0
 11
268.716699
 21
-104.336847
 31
0.0
  0
LINE
  8
0
  6
BYLAYER
 62
     1
 10
268.716699
 20
-104.336847
 30
0.0
 11
270.407312
 21
-104.336847
 31
0.0
  0
LINE
  8
0
  6
BYLAYER
 62
     1
 10
270.407312
 20
-104.336847
 30
0.0
 11
270.407312
 21
-102.857554
 31
0.0
  0
LINE
  8
0
  6
BYLAYER
 62
     1
 10
270.407312
 20
-102.857554
 30
0.0
 11
265.166391
 21
-102.857554
 31
0.0
  0
LINE
  8
0
  6
BYLAYER
 62
     1
 10
265.166391
 20
-102.857554
 30
0.0
 11
265.166391
 21
-104.336847
 31
0.0
  0
ARC
  8
0
  6
BYLAYER
 62
     1
 10
273.408151
 20
-106.196881
 30
0.0
 40
2.873701
 50
270.0
 51
308.795693
  0
ARC
  8
0
  6
BYLAYER
 62
     1
 10
273.130023
 20
-105.900675
 30
0.0
 40
3.278967
 50
309.340576
 51
360.000000
  0
ARC
  8
0
  6
BYLAYER
 62
     1
 10
273.130034
 20
-105.900675
 30
0.0
 40
3.278957
 50
0.0
 51
50.659649
  0
ARC
  8
0
  6
BYLAYER
 62
     1
 10
273.408136
 20
-105.604495
 30
0.0
 40
2.873727
 50
51.204489
 51
90.0
  0
ARC
  8
0
  6
BYLAYER
 62
     1
 10
273.408136
 20
-105.604469
 30
0.0
 40
2.873701
 50
90.0
 51
128.795693
  0
ARC
  8
0
  6
BYLAYER
 62
     1
 10
273.686264
 20
-105.900675
 30
0.0
 40
3.278967
 50
129.340576
 51
180.0
  0
ARC
  8
0
  6
BYLAYER
 62
     1
 10
273.686253
 20
-105.900675
 30
0.0
 40
3.278957
 50
180.000000
 51
230.659649
  0
ARC
  8
0
  6
BYLAYER
 62
     1
 10
273.408151
 20
-106.196855
 30
0.0
 40
2.873727
 50
231.204489
 51
270.0
  0
ARC
  8
0
  6
BYLAYER
 62
     1
 10
273.408136
 20
-105.057524
 30
0.0
 40
1.329747
 50
90.0
 51
140.793201
  0
ARC
  8
0
  6
BYLAYER
 62
     1
 10
274.441690
 20
-105.900675
 30
0.0
 40
2.663590
 50
140.793201
 51
180.000000
  0
ARC
  8
0
  6
BYLAYER
 62
     1
 10
274.441657
 20
-105.900675
 30
0.0
 40
2.663556
 50
180.000000
 51
219.207055
  0
ARC
  8
0
  6
BYLAYER
 62
     1
 10
273.408151
 20
-106.743793
 30
0.0
 40
1.329771
 50
219.207055
 51
270.000000
  0
ARC
  8
0
  6
BYLAYER
 62
     1
 10
273.408151
 20
-106.743815
 30
0.0
 40
1.329750
 50
270.0
 51
320.793131
  0
ARC
  8
0
  6
BYLAYER
 62
     1
 10
272.374612
 20
-105.900675
 30
0.0
 40
2.663574
 50
320.793131
 51
360.000000
  0
ARC
  8
0
  6
BYLAYER
 62
     1
 10
272.374614
 20
-105.900675
 30
0.0
 40
2.663572
 50
0.0
 51
39.206985
  0
ARC
  8
0
  6
BYLAYER
 62
     1
 10
273.408136
 20
-105.057545
 30
0.0
 40
1.329768
 50
39.206985
 51
90.000000
  0
LINE
  8
0
  6
BYLAYER
 62
     1
 10
286.883752
 20
-108.859247
 30
0.0
 11
286.883752
 21
-102.857554
 31
0.0
  0
LINE
  8
0
  6
BYLAYER
 62
     1
 10
286.883752
 20
-102.857554
 30
0.0
 11
290.603097
 21
-102.857554
 31
0.0
  0
ARC
  8
0
  6
BYLAYER
 62
     1
 10
290.603097
 20
-104.548182
 30
0.0
 40
1.690610
 50
287.134650
 51
450.000006
  0
ARC
  8
0
  6
BYLAYER
 62
     1
 10
290.941232
 20
-107.506754
 30
0.0
 40
1.352493
 50
0.0
 51
83.207557
  0
LINE
  8
0
  6
BYLAYER
 62
     1
 10
292.293725
 20
-107.506754
 30
0.0
 11
292.293725
 21
-108.352060
 31
0.0
  0
ARC
  8
0
  6
BYLAYER
 62
     1
 10
293.646219
 20
-108.352060
 30
0.0
 40
1.352493
 50
180.000000
 51
202.024314
  0
LINE
  8
0
  6
BYLAYER
 62
     1
 10
290.532739
 20
-108.859247
 30
0.0
 11
292.392419
 21
-108.859247
 31
0.0
  0
ARC
  8
0
  6
BYLAYER
 62
     1
 10
291.786539
 20
-108.352060
 30
0.0
 40
1.352493
 50
180.000000
 51
202.024314
  0
LINE
  8
0
  6
BYLAYER
 62
     1
 10
290.434045
 20
-108.352060
 30
0.0
 11
290.434045
 21
-107.675821
 31
0.0
  0
LINE
  8
0
  6
BYLAYER
 62
     1
 10
286.883752
 20
-108.859247
 30
0.0
 11
288.658899
 21
-108.859247
 31
0.0
  0
LINE
  8
0
  6
BYLAYER
 62
     1
 10
288.658899
 20
-108.859247
 30
0.0
 11
288.658899
 21
-106.830515
 31
0.0
  0
LINE
  8
0
  6
BYLAYER
 62
     1
 10
289.588739
 20
-106.830515
 30
0.0
 11
288.658899
 21
-106.830515
 31
0.0
  0
ARC
  8
0
  6
BYLAYER
 62
     1
 10
289.588739
 20
-107.675821
 30
0.0
 40
0.845306
 50
0.0
 51
90.000003
  0
LINE
  8
0
  6
BYLAYER
 62
     1
 10
288.658899
 20
-105.478022
 30
0.0
 11
288.658899
 21
-104.210047
 31
0.0
  0
LINE
  8
0
  6
BYLAYER
 62
     1
 10
288.658899
 20
-104.210047
 30
0.0
 11
289.842325
 21
-104.210047
 31
0.0
  0
LINE
  8
0
  6
BYLAYER
 62
     1
 10
288.658899
 20
-105.478022
 30
0.0
 11
289.842325
 21
-105.478022
 31
0.0
  0
ARC
  8
0
  6
BYLAYER
 62
     1
 10
289.842325
 20
-104.844034
 30
0.0
 40
0.633987
 50
270.0
 51
450.000005
  0
LINE
  8
0
  6
BYLAYER
 62
     1
 10
278.818140
 20
-106.961451
 30
0.0
 11
277.719232
 21
-102.857554
 31
0.0
  0
LINE
  8
0
  6
BYLAYER
 62
     1
 10
277.719232
 20
-102.857554
 30
0.0
 11
275.944086
 21
-102.857554
 31
0.0
  0
LINE
  8
0
  6
BYLAYER
 62
     1
 10
275.944086
 20
-102.857554
 30
0.0
 11
277.803766
 21
-108.859247
 31
0.0
  0
LINE
  8
0
  6
BYLAYER
 62
     1
 10
278.818140
 20
-106.961451
 30
0.0
 11
279.917016
 21
-102.857554
 31
0.0
  0
LINE
  8
0
  6
BYLAYER
 62
     1
 10
279.917016
 20
-102.857554
 30
0.0
 11
281.692163
 21
-102.857554
 31
0.0
  0
LINE
  8
0
  6
BYLAYER
 62
     1
 10
281.692163
 20
-102.857554
 30
0.0
 11
279.832483
 21
-108.859247
 31
0.0
  0
LINE
  8
0
  6
BYLAYER
 62
     1
 10
279.832483
 20
-108.859247
 30
0.0
 11
277.803766
 21
-108.859247
 31
0.0
  0
LINE
  8
0
  6
BYLAYER
 62
     1
 10
292.554407
 20
-108.859247
 30
0.0
 11
294.329553
 21
-108.859247
 31
0.0
  0
LINE
  8
0
  6
BYLAYER
 62
     1
 10
294.329553
 20
-108.859247
 30
0.0
 11
294.329553
 21
-102.857554
 31
0.0
  0
LINE
  8
0
  6
BYLAYER
 62
     1
 10
294.329553
 20
-102.857554
 30
0.0
 11
292.554407
 21
-102.857554
 31
0.0
  0
LINE
  8
0
  6
BYLAYER
 62
     1
 10
292.554407
 20
-102.857554
 30
0.0
 11
292.554407
 21
-108.859247
 31
0.0
  0
ARC
  8
0
  6
BYLAYER
 62
     1
 10
297.668527
 20
-106.196881
 30
0.0
 40
2.873701
 50
270.0
 51
308.795693
  0
ARC
  8
0
  6
BYLAYER
 62
     1
 10
297.390399
 20
-105.900675
 30
0.0
 40
3.278967
 50
309.340576
 51
360.0
  0
ARC
  8
0
  6
BYLAYER
 62
     1
 10
297.390399
 20
-105.900675
 30
0.0
 40
3.278967
 50
0.0
 51
50.659424
  0
ARC
  8
0
  6
BYLAYER
 62
     1
 10
297.668527
 20
-105.604469
 30
0.0
 40
2.873701
 50
51.204307
 51
90.0
  0
ARC
  8
0
  6
BYLAYER
 62
     1
 10
297.668527
 20
-105.604469
 30
0.0
 40
2.873701
 50
90.0
 51
128.795693
  0
ARC
  8
0
  6
BYLAYER
 62
     1
 10
297.946655
 20
-105.900675
 30
0.0
 40
3.278967
 50
129.340576
 51
180.0
  0
ARC
  8
0
  6
BYLAYER
 62
     1
 10
297.946655
 20
-105.900675
 30
0.0
 40
3.278967
 50
180.000000
 51
230.659424
  0
ARC
  8
0
  6
BYLAYER
 62
     1
 10
297.668527
 20
-106.196881
 30
0.0
 40
2.873701
 50
231.204307
 51
270.0
  0
ARC
  8
0
  6
BYLAYER
 62
     1
 10
297.668527
 20
-105.057524
 30
0.0
 40
1.329747
 50
39.206799
 51
90.0
  0
ARC
  8
0
  6
BYLAYER
 62
     1
 10
296.634972
 20
-105.900675
 30
0.0
 40
2.663590
 50
0.0
 51
39.206799
  0
ARC
  8
0
  6
BYLAYER
 62
     1
 10
296.634988
 20
-105.900675
 30
0.0
 40
2.663574
 50
320.793131
 51
360.0
  0
ARC
  8
0
  6
BYLAYER
 62
     1
 10
297.668527
 20
-106.743815
 30
0.0
 40
1.329750
 50
270.0
 51
320.793131
  0
ARC
  8
0
  6
BYLAYER
 62
     1
 10
297.668527
 20
-106.743815
 30
0.0
 40
1.329750
 50
219.206869
 51
270.000000
  0
ARC
  8
0
  6
BYLAYER
 62
     1
 10
298.702066
 20
-105.900675
 30
0.0
 40
2.663574
 50
180.000000
 51
219.206869
  0
ARC
  8
0
  6
BYLAYER
 62
     1
 10
298.702082
 20
-105.900675
 30
0.0
 40
2.663590
 50
140.793201
 51
180.0
  0
ARC
  8
0
  6
BYLAYER
 62
     1
 10
297.668527
 20
-105.057524
 30
0.0
 40
1.329747
 50
90.0
 51
140.793201
  0
ARC
  8
0
  6
BYLAYER
 62
     1
 10
267.696664
 20
-95.986826
 30
0.0
 40
7.429995
 50
174.535650
 51
180.0
  0
LINE
  8
0
  6
BYLAYER
 62
     1
 10
260.300432
 20
-95.279291
 30
0.0
 11
260.300432
 21
-95.279284
 31
0.0
  0
LINE
  8
0
  6
BYLAYER
 62
     1
 10
260.308517
 20
-95.199361
 30
0.0
 11
261.017619
 21
-94.900818
 31
0.0
  0
ARC
  8
0
  6
BYLAYER
 62
     1
 10
267.696695
 20
-95.986887
 30
0.0
 40
6.766781
 50
159.235383
 51
170.763998
  0
LINE
  8
0
  6
BYLAYER
 62
     1
 10
261.369420
 20
-93.587822
 30
0.0
 11
260.904621
 21
-92.974708
 31
0.0
  0
ARC
  8
0
  6
BYLAYER
 62
     1
 10
267.696664
 20
-95.986826
 30
0.0
 40
7.429986
 50
144.139514
 51
156.083795
  0
LINE
  8
0
  6
BYLAYER
 62
     1
 10
261.626199
 20
-91.702631
 30
0.0
 11
261.626642
 21
-91.702005
 31
0.0
  0
LINE
  8
0
  6
BYLAYER
 62
     1
 10
261.675063
 20
-91.634239
 30
0.0
 11
262.429988
 21
-91.738103
 31
0.0
  0
ARC
  8
0
  6
BYLAYER
 62
     1
 10
267.696664
 20
-95.986826
 30
0.0
 40
6.766741
 50
129.235643
 51
141.105976
  0
LINE
  8
0
  6
BYLAYER
 62
     1
 10
263.305978
 20
-90.837969
 30
0.0
 11
263.306711
 21
-90.837336
 31
0.0
  0
LINE
  8
0
  6
BYLAYER
 62
     1
 10
263.416625
 20
-90.745639
 30
0.0
 11
263.320631
 21
-89.982233
 31
0.0
  0
ARC
  8
0
  6
BYLAYER
 62
     1
 10
267.696664
 20
-95.986826
 30
0.0
 40
7.429994
 50
114.139607
 51
126.083853
  0
LINE
  8
0
  6
BYLAYER
 62
     1
 10
264.582117
 20
-89.241129
 30
0.0
 11
264.582620
 21
-89.240893
 31
0.0
  0
LINE
  8
0
  6
BYLAYER
 62
     1
 10
264.658084
 20
-89.206572
 30
0.0
 11
265.259913
 21
-89.673967
 31
0.0
  0
LINE
  8
0
  6
BYLAYER
 62
     1
 10
265.397516
 20
-89.622645
 30
0.0
 11
265.398279
 21
-89.622377
 31
0.0
  0
ARC
  8
0
  6
BYLAYER
 62
     1
 10
267.696664
 20
-95.986826
 30
0.0
 40
6.766738
 50
99.235601
 51
111.106038
  0
ARC
  8
0
  6
BYLAYER
 62
     1
 10
267.696664
 20
-95.986826
 30
0.0
 40
7.429995
 50
90.0
 51
96.083892
  0
LINE
  8
0
  6
BYLAYER
 62
     1
 10
266.909200
 20
-88.598678
 30
0.0
 11
266.610640
 21
-89.307807
 31
0.0
  0
LINE
  8
0
  6
BYLAYER
 62
     1
 10
275.092889
 20
-95.279291
 30
0.0
 11
275.092889
 21
-95.279284
 31
0.0
  0
LINE
  8
0
  6
BYLAYER
 62
     1
 10
275.084812
 20
-95.199360
 30
0.0
 11
274.375673
 21
-94.900811
 31
0.0
  0
ARC
  8
0
  6
BYLAYER
 62
     1
 10
267.696619
 20
-95.986887
 30
0.0
 40
6.766781
 50
9.235986
 51
20.764650
  0
LINE
  8
0
  6
BYLAYER
 62
     1
 10
274.023942
 20
-93.587751
 30
0.0
 11
274.488708
 21
-92.974710
 31
0.0
  0
ARC
  8
0
  6
BYLAYER
 62
     1
 10
267.696664
 20
-95.986826
 30
0.0
 40
7.429986
 50
23.916189
 51
35.860484
  0
LINE
  8
0
  6
BYLAYER
 62
     1
 10
273.767114
 20
-91.702631
 30
0.0
 11
273.766672
 21
-91.702005
 31
0.0
  0
LINE
  8
0
  6
BYLAYER
 62
     1
 10
273.718266
 20
-91.634239
 30
0.0
 11
272.963394
 21
-91.738093
 31
0.0
  0
ARC
  8
0
  6
BYLAYER
 62
     1
 10
267.696664
 20
-95.986826
 30
0.0
 40
6.766741
 50
38.894050
 51
50.764315
  0
LINE
  8
0
  6
BYLAYER
 62
     1
 10
272.087350
 20
-90.837969
 30
0.0
 11
272.086618
 21
-90.837336
 31
0.0
  0
LINE
  8
0
  6
BYLAYER
 62
     1
 10
271.976724
 20
-90.745517
 30
0.0
 11
272.072682
 21
-89.982221
 31
0.0
  0
ARC
  8
0
  6
BYLAYER
 62
     1
 10
267.696664
 20
-95.986826
 30
0.0
 40
7.429994
 50
53.916300
 51
65.860381
  0
LINE
  8
0
  6
BYLAYER
 62
     1
 10
270.811212
 20
-89.241129
 30
0.0
 11
270.810693
 21
-89.240893
 31
0.0
  0
LINE
  8
0
  6
BYLAYER
 62
     1
 10
270.735246
 20
-89.206573
 30
0.0
 11
270.133423
 21
-89.673946
 31
0.0
  0
LINE
  8
0
  6
BYLAYER
 62
     1
 10
269.995798
 20
-89.622645
 30
0.0
 11
269.995050
 21
-89.622377
 31
0.0
  0
ARC
  8
0
  6
BYLAYER
 62
     1
 10
267.696664
 20
-95.986826
 30
0.0
 40
6.766738
 50
68.894081
 51
80.764578
  0
ARC
  8
0
  6
BYLAYER
 62
     1
 10
267.696664
 20
-95.986826
 30
0.0
 40
7.429995
 50
84.535428
 51
90.000003
  0
LINE
  8
0
  6
BYLAYER
 62
     1
 10
268.484131
 20
-88.598679
 30
0.0
 11
268.782618
 21
-89.307686
 31
0.0
  0
ARC
  8
0
  6
BYLAYER
 62
     1
 10
267.696664
 20
-95.986826
 30
0.0
 40
7.429995
 50
180.000000
 51
186.083899
  0
LINE
  8
0
  6
BYLAYER
 62
     1
 10
260.300432
 20
-96.694353
 30
0.0
 11
260.300432
 21
-96.694368
 31
0.0
  0
LINE
  8
0
  6
BYLAYER
 62
     1
 10
260.308517
 20
-96.774291
 30
0.0
 11
261.017641
 21
-97.072843
 31
0.0
  0
ARC
  8
0
  6
BYLAYER
 62
     1
 10
267.696695
 20
-95.986765
 30
0.0
 40
6.766781
 50
189.236002
 51
200.764629
  0
LINE
  8
0
  6
BYLAYER
 62
     1
 10
261.369445
 20
-98.385800
 30
0.0
 11
260.904619
 21
-98.998938
 31
0.0
  0
ARC
  8
0
  6
BYLAYER
 62
     1
 10
267.696664
 20
-95.986826
 30
0.0
 40
7.429986
 50
203.916158
 51
215.860410
  0
LINE
  8
0
  6
BYLAYER
 62
     1
 10
261.626199
 20
-100.271013
 30
0.0
 11
261.626642
 21
-100.271639
 31
0.0
  0
LINE
  8
0
  6
BYLAYER
 62
     1
 10
261.675057
 20
-100.339405
 30
0.0
 11
262.430053
 21
-100.235542
 31
0.0
  0
ARC
  8
0
  6
BYLAYER
 62
     1
 10
267.696664
 20
-95.986826
 30
0.0
 40
6.766741
 50
218.894045
 51
230.764345
  0
LINE
  8
0
  6
BYLAYER
 62
     1
 10
263.305978
 20
-101.135676
 30
0.0
 11
263.306711
 21
-101.136309
 31
0.0
  0
LINE
  8
0
  6
BYLAYER
 62
     1
 10
263.416623
 20
-101.228012
 30
0.0
 11
263.320631
 21
-101.991420
 31
0.0
  0
ARC
  8
0
  6
BYLAYER
 62
     1
 10
267.696664
 20
-95.986826
 30
0.0
 40
7.429994
 50
233.916148
 51
245.860401
  0
LINE
  8
0
  6
BYLAYER
 62
     1
 10
264.582117
 20
-102.732515
 30
0.0
 11
264.582620
 21
-102.732760
 31
0.0
  0
LINE
  8
0
  6
BYLAYER
 62
     1
 10
264.658085
 20
-102.767080
 30
0.0
 11
265.259984
 21
-102.299620
 31
0.0
  0
LINE
  8
0
  6
BYLAYER
 62
     1
 10
265.397516
 20
-102.351000
 30
0.0
 11
265.398279
 21
-102.351275
 31
0.0
  0
LINE
  8
0
  6
BYLAYER
 62
     1
 10
275.092889
 20
-96.694353
 30
0.0
 11
275.092889
 21
-96.694368
 31
0.0
  0
LINE
  8
0
  6
BYLAYER
 62
     1
 10
275.084811
 20
-96.774293
 30
0.0
 11
274.375673
 21
-97.072841
 31
0.0
  0
LINE
  8
0
  6
BYLAYER
 62
     1
 10
274.023877
 20
-98.385817
 30
0.0
 11
274.488716
 21
-98.998943
 31
0.0
  0
LINE
  8
0
  6
BYLAYER
 62
     1
 10
273.767114
 20
-100.271013
 30
0.0
 11
273.766672
 21
-100.271639
 31
0.0
  0
LINE
  8
0
  6
BYLAYER
 62
     1
 10
273.718280
 20
-100.339406
 30
0.0
 11
272.963235
 21
-100.235539
 31
0.0
  0
LINE
  8
0
  6
BYLAYER
 62
     1
 10
272.087350
 20
-101.135676
 30
0.0
 11
272.086618
 21
-101.136309
 31
0.0
  0
LINE
  8
0
  6
BYLAYER
 62
     1
 10
271.976709
 20
-101.228009
 30
0.0
 11
272.072682
 21
-101.991431
 31
0.0
  0
LINE
  8
0
  6
BYLAYER
 62
     1
 10
270.735245
 20
-102.767079
 30
0.0
 11
270.133331
 21
-102.299625
 31
0.0
  0
ARC
  8
0
  6
BYLAYER
 62
     1
 10
267.696664
 20
-95.986826
 30
0.0
 40
6.766741
 50
309.235697
 51
321.105929
  0
ARC
  8
0
  6
BYLAYER
 62
     1
 10
267.696664
 20
-95.986826
 30
0.0
 40
6.766738
 50
248.893873
 51
270.0
  0
ARC
  8
0
  6
BYLAYER
 62
     1
 10
267.696664
 20
-95.986826
 30
0.0
 40
7.429994
 50
294.783232
 51
306.083699
  0
LINE
  8
0
  6
BYLAYER
 62
     1
 10
270.810693
 20
-102.732760
 30
0.0
 11
270.735703
 21
-102.768049
 31
0.0
  0
ARC
  8
0
  6
BYLAYER
 62
     1
 10
267.696664
 20
-95.986826
 30
0.0
 40
7.429986
 50
324.139593
 51
336.083825
  0
ARC
  8
0
  6
BYLAYER
 62
     1
 10
267.696619
 20
-95.986765
 30
0.0
 40
6.766781
 50
339.235210
 51
350.764014
  0
ARC
  8
0
  6
BYLAYER
 62
     1
 10
267.696664
 20
-95.986826
 30
0.0
 40
7.429995
 50
353.916089
 51
360.000000
  0
ARC
  8
0
  6
BYLAYER
 62
     1
 10
267.696664
 20
-95.986826
 30
0.0
 40
7.429995
 50
0.0
 51
6.083907
  0
ARC
  8
0
  6
BYLAYER
 62
     1
 10
267.696664
 20
-95.986826
 30
0.0
 40
6.766738
 50
270.0
 51
291.106008
  0
CIRCLE
  8
0
  6
BYLAYER
 62
     1
 10
267.696664
 20
-95.986826
 30
0.0
 40
3.630081
  0
CIRCLE
  8
0
  6
BYLAYER
 62
     1
 10
267.696664
 20
-95.986826
 30
0.0
 40
5.296032
  0
LINE
  8
0
  6
BYLAYER
 62
     1
 10
277.105802
 20
-210.266212
 30
0.0
 11
277.105802
 21
-205.266212
 31
0.0
  0
LINE
  8
0
  6
BYLAYER
 62
     1
 10
277.105802
 20
-210.266212
 30
0.0
 11
272.105802
 21
-210.266212
 31
0.0
  0
LINE
  8
0
  6
BYLAYER
 62
     1
 10
277.105802
 20
-210.266212
 30
0.0
 11
277.105802
 21
-215.266212
 31
0.0
  0
LINE
  8
0
  6
BYLAYER
 62
     1
 10
277.105802
 20
-210.266212
 30
0.0
 11
282.105802
 21
-210.266212
 31
0.0
  0
LINE
  8
0
  6
BYLAYER
 62
     1
 10
1092.105802
 20
-575.266212
 30
0.0
 11
1064.105802
 21
-575.266212
 31
0.0
  0
LINE
  8
0
  6
BYLAYER
 62
     1
 10
1092.105802
 20
-625.266212
 30
0.0
 11
1092.105802
 21
-575.266212
 31
0.0
  0
LINE
  8
0
  6
BYLAYER
 62
     1
 10
1092.105802
 20
-625.266212
 30
0.0
 11
1090.605802
 21
-626.766151
 31
0.0
  0
LINE
  8
0
  6
BYLAYER
 62
     1
 10
962.105802
 20
-575.266212
 30
0.0
 11
990.105802
 21
-575.266212
 31
0.0
  0
LINE
  8
0
  6
BYLAYER
 62
     1
 10
962.105802
 20
-625.266212
 30
0.0
 11
962.105802
 21
-575.266212
 31
0.0
  0
LINE
  8
0
  6
BYLAYER
 62
     1
 10
962.105802
 20
-625.266212
 30
0.0
 11
963.605802
 21
-626.766151
 31
0.0
  0
LINE
  8
0
  6
BYLAYER
 62
     1
 10
1092.105802
 20
-813.266212
 30
0.0
 11
1064.105802
 21
-813.266212
 31
0.0
  0
LINE
  8
0
  6
BYLAYER
 62
     1
 10
1092.105802
 20
-763.266212
 30
0.0
 11
1092.105802
 21
-813.266212
 31
0.0
  0
LINE
  8
0
  6
BYLAYER
 62
     1
 10
1092.105802
 20
-763.266212
 30
0.0
 11
1090.605802
 21
-761.766212
 31
0.0
  0
LINE
  8
0
  6
BYLAYER
 62
     1
 10
1090.605802
 20
-626.766151
 30
0.0
 11
1090.605802
 21
-761.766212
 31
0.0
  0
LINE
  8
0
  6
BYLAYER
 62
     1
 10
962.105802
 20
-813.266212
 30
0.0
 11
990.105802
 21
-813.266212
 31
0.0
  0
LINE
  8
0
  6
BYLAYER
 62
     1
 10
962.105802
 20
-813.266212
 30
0.0
 11
962.105802
 21
-763.266212
 31
0.0
  0
LINE
  8
0
  6
BYLAYER
 62
     1
 10
1064.105802
 20
-576.766212
 30
0.0
 11
990.105802
 21
-576.766212
 31
0.0
  0
LINE
  8
0
  6
BYLAYER
 62
     1
 10
1064.105802
 20
-761.766212
 30
0.0
 11
1090.605802
 21
-761.766212
 31
0.0
  0
LINE
  8
0
  6
BYLAYER
 62
     1
 10
1064.105802
 20
-763.266212
 30
0.0
 11
1092.105802
 21
-763.266212
 31
0.0
  0
LINE
  8
0
  6
BYLAYER
 62
     1
 10
990.105802
 20
-763.266212
 30
0.0
 11
962.105802
 21
-763.266212
 31
0.0
  0
LINE
  8
0
  6
BYLAYER
 62
     1
 10
1064.105802
 20
-626.766151
 30
0.0
 11
1090.605802
 21
-626.766151
 31
0.0
  0
LINE
  8
0
  6
BYLAYER
 62
     1
 10
990.105802
 20
-761.766212
 30
0.0
 11
963.605802
 21
-761.766212
 31
0.0
  0
LINE
  8
0
  6
BYLAYER
 62
     1
 10
963.605802
 20
-626.766151
 30
0.0
 11
990.105802
 21
-626.766151
 31
0.0
  0
CIRCLE
  8
0
  6
BYLAYER
 62
     1
 10
977.105802
 20
-780.266212
 30
0.0
 40
6.5
  0
CIRCLE
  8
0
  6
BYLAYER
 62
     1
 10
977.105802
 20
-608.266212
 30
0.0
 40
6.5
  0
CIRCLE
  8
0
  6
BYLAYER
 62
     1
 10
1077.105802
 20
-608.266212
 30
0.0
 40
6.5
  0
CIRCLE
  8
0
  6
BYLAYER
 62
     1
 10
1054.329313
 20
-647.489875
 30
0.0
 40
3.525002
  0
CIRCLE
  8
0
  6
BYLAYER
 62
     1
 10
1054.329435
 20
-593.042640
 30
0.0
 40
3.525002
  0
CIRCLE
  8
0
  6
BYLAYER
 62
     1
 10
999.882291
 20
-593.042518
 30
0.0
 40
3.525002
  0
CIRCLE
  8
0
  6
BYLAYER
 62
     1
 10
999.882169
 20
-647.489753
 30
0.0
 40
3.525002
  0
LINE
  8
0
  6
BYLAYER
 62
     1
 10
989.247526
 20
-625.266212
 30
0.0
 11
962.105802
 21
-625.266212
 31
0.0
  0
ARC
  8
0
  6
BYLAYER
 62
     1
 10
989.247526
 20
-627.266212
 30
0.0
 40
2.0
 50
10.476094
 51
90.000000
  0
LINE
  8
0
  6
BYLAYER
 62
     1
 10
1064.964078
 20
-625.266212
 30
0.0
 11
1092.105802
 21
-625.266212
 31
0.0
  0
ARC
  8
0
  6
BYLAYER
 62
     1
 10
1064.964078
 20
-627.266212
 30
0.0
 40
2.000012
 50
90.0
 51
169.524063
  0
LINE
  8
0
  6
BYLAYER
 62
     1
 10
990.105802
 20
-625.459724
 30
0.0
 11
990.105802
 21
-813.266212
 31
0.0
  0
CIRCLE
  8
0
  6
BYLAYER
 62
     1
 10
1077.105802
 20
-780.266212
 30
0.0
 40
6.5
  0
LINE
  8
0
  6
BYLAYER
 62
     1
 10
1064.105802
 20
-625.459724
 30
0.0
 11
1064.105802
 21
-813.266212
 31
0.0
  0
LINE
  8
0
  6
BYLAYER
 62
     1
 10
962.106107
 20
-763.265998
 30
0.0
 11
963.605802
 21
-761.766212
 31
0.0
  0
LINE
  8
0
  6
BYLAYER
 62
     1
 10
963.605802
 20
-626.766151
 30
0.0
 11
963.605802
 21
-761.766212
 31
0.0
  0
LINE
  8
0
  6
BYLAYER
 62
     1
 10
962.105802
 20
-763.266212
 30
0.0
 11
963.605802
 21
-761.766273
 31
0.0
  0
ARC
  8
0
  6
BYLAYER
 62
     1
 10
1027.105802
 20
-620.266212
 30
0.0
 40
36.499996
 50
59.173767
 51
121.575305
  0
ARC
  8
0
  6
BYLAYER
 62
     1
 10
1006.946500
 20
-587.466011
 30
0.0
 40
2.000008
 50
218.287737
 51
301.575200
  0
LINE
  8
0
  6
BYLAYER
 62
     1
 10
990.105802
 20
-588.511940
 30
0.0
 11
990.105802
 21
-575.266212
 31
0.0
  0
ARC
  8
0
  6
BYLAYER
 62
     1
 10
999.882291
 20
-593.042518
 30
0.0
 40
7.000019
 50
38.287800
 51
149.774970
  0
ARC
  8
0
  6
BYLAYER
 62
     1
 10
992.105802
 20
-588.511940
 30
0.0
 40
2.000039
 50
180.000000
 51
329.774833
  0
ARC
  8
0
  6
BYLAYER
 62
     1
 10
1054.329313
 20
-593.042518
 30
0.0
 40
6.999995
 50
30.225035
 51
141.712205
  0
ARC
  8
0
  6
BYLAYER
 62
     1
 10
1047.265134
 20
-587.466011
 30
0.0
 40
2.000008
 50
238.424801
 51
321.712264
  0
ARC
  8
0
  6
BYLAYER
 62
     1
 10
1062.105802
 20
-588.511940
 30
0.0
 40
2.000013
 50
210.225163
 51
359.999983
  0
LINE
  8
0
  6
BYLAYER
 62
     1
 10
1064.105802
 20
-575.266212
 30
0.0
 11
1064.105802
 21
-588.511940
 31
0.0
  0
ARC
  8
0
  6
BYLAYER
 62
     1
 10
1006.946500
 20
-653.066413
 30
0.0
 40
2.000008
 50
58.424803
 51
141.712259
  0
ARC
  8
0
  6
BYLAYER
 62
     1
 10
1027.105802
 20
-620.266212
 30
0.0
 40
36.500011
 50
238.424692
 51
301.575310
  0
ARC
  8
0
  6
BYLAYER
 62
     1
 10
1047.265134
 20
-653.066413
 30
0.0
 40
2.000013
 50
38.287746
 51
121.575195
  0
ARC
  8
0
  6
BYLAYER
 62
     1
 10
1027.105802
 20
-620.266212
 30
0.0
 40
36.500061
 50
328.424291
 51
349.524330
  0
ARC
  8
0
  6
BYLAYER
 62
     1
 10
1054.329313
 20
-647.489906
 30
0.0
 40
6.999995
 50
218.287805
 51
411.711659
  0
ARC
  8
0
  6
BYLAYER
 62
     1
 10
1059.905881
 20
-640.425788
 30
0.0
 40
1.999987
 50
148.424341
 51
231.711709
  0
ARC
  8
0
  6
BYLAYER
 62
     1
 10
1027.105802
 20
-620.266212
 30
0.0
 40
36.500046
 50
190.475671
 51
211.575696
  0
ARC
  8
0
  6
BYLAYER
 62
     1
 10
999.882291
 20
-647.489906
 30
0.0
 40
7.000019
 50
128.288151
 51
321.712210
  0
ARC
  8
0
  6
BYLAYER
 62
     1
 10
994.305753
 20
-640.425758
 30
0.0
 40
1.999961
 50
308.287743
 51
391.575657
  0
LINE
  8
0
  6
BYLAYER
 62
     1
 10
963.605802
 20
-630.144020
 30
0.0
 11
960.105802
 21
-630.266212
 31
0.0
  0
LINE
  8
0
  6
BYLAYER
 62
     1
 10
960.105802
 20
-710.266212
 30
0.0
 11
960.105802
 21
-630.266212
 31
0.0
  0
LINE
  8
0
  6
BYLAYER
 62
     1
 10
960.105802
 20
-710.266212
 30
0.0
 11
960.105802
 21
-790.266212
 31
0.0
  0
LINE
  8
0
  6
BYLAYER
 62
     1
 10
962.105802
 20
-790.336036
 30
0.0
 11
960.105802
 21
-790.266212
 31
0.0
  0
LINE
  8
0
  6
BYLAYER
 62
     1
 10
960.105802
 20
-655.266212
 30
0.0
 11
957.605802
 21
-655.266212
 31
0.0
  0
LINE
  8
0
  6
BYLAYER
 62
     1
 10
957.605802
 20
-655.266212
 30
0.0
 11
957.105802
 21
-655.766212
 31
0.0
  0
LINE
  8
0
  6
BYLAYER
 62
     1
 10
957.105802
 20
-655.766212
 30
0.0
 11
957.105802
 21
-710.266212
 31
0.0
  0
LINE
  8
0
  6
BYLAYER
 62
     1
 10
960.105802
 20
-765.266212
 30
0.0
 11
957.605802
 21
-765.266212
 31
0.0
  0
LINE
  8
0
  6
BYLAYER
 62
     1
 10
957.605802
 20
-765.266212
 30
0.0
 11
957.105802
 21
-764.766212
 31
0.0
  0
LINE
  8
0
  6
BYLAYER
 62
     1
 10
957.105802
 20
-764.766212
 30
0.0
 11
957.105802
 21
-710.266212
 31
0.0
  0
LINE
  8
0
  6
BYLAYER
 62
     1
 10
1090.605802
 20
-630.144020
 30
0.0
 11
1094.105802
 21
-630.266212
 31
0.0
  0
LINE
  8
0
  6
BYLAYER
 62
     1
 10
1094.105802
 20
-710.266212
 30
0.0
 11
1094.105802
 21
-630.266212
 31
0.0
  0
LINE
  8
0
  6
BYLAYER
 62
     1
 10
1094.105802
 20
-710.266212
 30
0.0
 11
1094.105802
 21
-790.266212
 31
0.0
  0
LINE
  8
0
  6
BYLAYER
 62
     1
 10
1092.105802
 20
-790.336036
 30
0.0
 11
1094.105802
 21
-790.266212
 31
0.0
  0
LINE
  8
0
  6
BYLAYER
 62
     1
 10
1094.105802
 20
-655.266212
 30
0.0
 11
1096.605802
 21
-655.266212
 31
0.0
  0
LINE
  8
0
  6
BYLAYER
 62
     1
 10
1096.605802
 20
-655.266212
 30
0.0
 11
1097.105802
 21
-655.766212
 31
0.0
  0
LINE
  8
0
  6
BYLAYER
 62
     1
 10
1097.105802
 20
-655.766212
 30
0.0
 11
1097.105802
 21
-710.266212
 31
0.0
  0
LINE
  8
0
  6
BYLAYER
 62
     1
 10
1094.105802
 20
-765.266212
 30
0.0
 11
1096.605802
 21
-765.266212
 31
0.0
  0
LINE
  8
0
  6
BYLAYER
 62
     1
 10
1096.605802
 20
-765.266212
 30
0.0
 11
1097.105802
 21
-764.766212
 31
0.0
  0
LINE
  8
0
  6
BYLAYER
 62
     1
 10
1097.105802
 20
-764.766212
 30
0.0
 11
1097.105802
 21
-710.266212
 31
0.0
  0
CIRCLE
  8
0
  6
BYLAYER
 62
     1
 10
1027.105802
 20
-620.266212
 30
0.0
 40
31.0
  0
LINE
  8
0
  6
BYLAYER
 62
     1
 10
1064.105802
 20
-808.266181
 30
0.0
 11
990.105802
 21
-808.266181
 31
0.0
  0
LINE
  8
0
  6
BYLAYER
 62
     1
 10
224.105741
 20
-775.266212
 30
0.0
 11
174.105741
 21
-775.266212
 31
0.0
  0
LINE
  8
0
  6
BYLAYER
 62
     1
 10
224.105741
 20
-775.266212
 30
0.0
 11
225.605741
 21
-773.766212
 31
0.0
  0
LINE
  8
0
  6
BYLAYER
 62
     1
 10
174.105741
 20
-645.266212
 30
0.0
 11
224.105741
 21
-645.266212
 31
0.0
  0
LINE
  8
0
  6
BYLAYER
 62
     1
 10
224.105741
 20
-747.266212
 30
0.0
 11
224.105741
 21
-775.266212
 31
0.0
  0
LINE
  8
0
  6
BYLAYER
 62
     1
 10
224.105741
 20
-673.266212
 30
0.0
 11
224.105741
 21
-645.266212
 31
0.0
  0
LINE
  8
0
  6
BYLAYER
 62
     1
 10
225.605741
 20
-673.266212
 30
0.0
 11
225.605741
 21
-646.766212
 31
0.0
  0
LINE
  8
0
  6
BYLAYER
 62
     1
 10
380.105741
 20
-645.266212
 30
0.0
 11
380.105741
 21
-673.266212
 31
0.0
  0
LINE
  8
0
  6
BYLAYER
 62
     1
 10
380.105741
 20
-645.266212
 30
0.0
 11
330.105802
 21
-645.266212
 31
0.0
  0
LINE
  8
0
  6
BYLAYER
 62
     1
 10
328.605802
 20
-673.266212
 30
0.0
 11
328.605802
 21
-646.766212
 31
0.0
  0
LINE
  8
0
  6
BYLAYER
 62
     1
 10
330.105802
 20
-673.266212
 30
0.0
 11
330.105802
 21
-645.266212
 31
0.0
  0
LINE
  8
0
  6
BYLAYER
 62
     1
 10
380.105741
 20
-775.266212
 30
0.0
 11
380.105741
 21
-747.266212
 31
0.0
  0
LINE
  8
0
  6
BYLAYER
 62
     1
 10
330.105802
 20
-775.266212
 30
0.0
 11
380.105741
 21
-775.266212
 31
0.0
  0
LINE
  8
0
  6
BYLAYER
 62
     1
 10
330.105802
 20
-747.266212
 30
0.0
 11
330.105802
 21
-775.266212
 31
0.0
  0
LINE
  8
0
  6
BYLAYER
 62
     1
 10
330.105802
 20
-775.266212
 30
0.0
 11
328.605802
 21
-773.766212
 31
0.0
  0
CIRCLE
  8
0
  6
BYLAYER
 62
     1
 10
347.105802
 20
-760.266212
 30
0.0
 40
6.5
  0
CIRCLE
  8
0
  6
BYLAYER
 62
     1
 10
347.105802
 20
-660.266212
 30
0.0
 40
6.5
  0
LINE
  8
0
  6
BYLAYER
 62
     1
 10
328.605802
 20
-773.766212
 30
0.0
 11
225.605741
 21
-773.766212
 31
0.0
  0
LINE
  8
0
  6
BYLAYER
 62
     1
 10
174.105741
 20
-645.266212
 30
0.0
 11
174.105741
 21
-775.266212
 31
0.0
  0
ARC
  8
0
  6
BYLAYER
 62
     1
 10
204.105741
 20
-745.266212
 30
0.0
 40
2.0
 50
180.000000
 51
269.999996
  0
ARC
  8
0
  6
BYLAYER
 62
     1
 10
204.105741
 20
-675.266212
 30
0.0
 40
1.999939
 50
90.0
 51
180.000003
  0
ARC
  8
0
  6
BYLAYER
 62
     1
 10
350.105802
 20
-745.266212
 30
0.0
 40
2.0
 50
270.0
 51
359.999982
  0
ARC
  8
0
  6
BYLAYER
 62
     1
 10
350.105802
 20
-675.266212
 30
0.0
 40
1.999939
 50
0.0
 51
90.000016
  0
LINE
  8
0
  6
BYLAYER
 62
     1
 10
380.105741
 20
-663.266273
 30
0.0
 11
382.105741
 21
-663.266273
 31
0.0
  0
LINE
  8
0
  6
BYLAYER
 62
     1
 10
380.105741
 20
-757.266212
 30
0.0
 11
382.105741
 21
-757.266212
 31
0.0
  0
LINE
  8
0
  6
BYLAYER
 62
     1
 10
382.105741
 20
-663.266273
 30
0.0
 11
382.105741
 21
-757.266212
 31
0.0
  0
CIRCLE
  8
0
  6
BYLAYER
 62
     1
 10
332.105741
 20
-710.266212
 30
0.0
 40
7.0
  0
ARC
  8
0
  6
BYLAYER
 62
     1
 10
203.105741
 20
-708.266212
 30
0.0
 40
1.000000
 50
180.000000
 51
269.999996
  0
ARC
  8
0
  6
BYLAYER
 62
     1
 10
203.105741
 20
-712.266212
 30
0.0
 40
1.000000
 50
90.0
 51
180.000003
  0
ARC
  8
0
  6
BYLAYER
 62
     1
 10
203.105741
 20
-698.266212
 30
0.0
 40
1.000000
 50
180.000000
 51
269.999996
  0
ARC
  8
0
  6
BYLAYER
 62
     1
 10
203.105741
 20
-702.266212
 30
0.0
 40
1.000000
 50
90.0
 51
180.000003
  0
ARC
  8
0
  6
BYLAYER
 62
     1
 10
203.105741
 20
-688.266212
 30
0.0
 40
1.000000
 50
180.000000
 51
269.999996
  0
ARC
  8
0
  6
BYLAYER
 62
     1
 10
203.105741
 20
-692.266212
 30
0.0
 40
1.000000
 50
90.0
 51
180.000003
  0
ARC
  8
0
  6
BYLAYER
 62
     1
 10
203.105741
 20
-678.266212
 30
0.0
 40
1.000000
 50
180.000000
 51
269.999996
  0
ARC
  8
0
  6
BYLAYER
 62
     1
 10
203.105741
 20
-682.266212
 30
0.0
 40
1.000000
 50
90.0
 51
180.000003
  0
ARC
  8
0
  6
BYLAYER
 62
     1
 10
203.105741
 20
-718.266212
 30
0.0
 40
1.0
 50
180.000000
 51
269.999996
  0
ARC
  8
0
  6
BYLAYER
 62
     1
 10
203.105741
 20
-728.266212
 30
0.0
 40
1.000000
 50
180.000000
 51
269.999996
  0
ARC
  8
0
  6
BYLAYER
 62
     1
 10
203.105741
 20
-738.266212
 30
0.0
 40
1.000000
 50
180.000000
 51
269.999996
  0
ARC
  8
0
  6
BYLAYER
 62
     1
 10
203.105741
 20
-722.266212
 30
0.0
 40
1.000000
 50
90.0
 51
180.000003
  0
ARC
  8
0
  6
BYLAYER
 62
     1
 10
203.105741
 20
-732.266212
 30
0.0
 40
1.000000
 50
90.0
 51
180.000003
  0
ARC
  8
0
  6
BYLAYER
 62
     1
 10
203.105741
 20
-742.266212
 30
0.0
 40
1.000000
 50
90.0
 51
180.000003
  0
ARC
  8
0
  6
BYLAYER
 62
     1
 10
351.105802
 20
-728.266212
 30
0.0
 40
1.000000
 50
270.0
 51
360.000003
  0
ARC
  8
0
  6
BYLAYER
 62
     1
 10
351.105802
 20
-732.266212
 30
0.0
 40
1.0
 50
0.0
 51
90.000003
  0
ARC
  8
0
  6
BYLAYER
 62
     1
 10
351.105802
 20
-738.266212
 30
0.0
 40
1.000000
 50
270.0
 51
360.000003
  0
ARC
  8
0
  6
BYLAYER
 62
     1
 10
351.105802
 20
-742.266212
 30
0.0
 40
1.000000
 50
0.0
 51
90.000003
  0
ARC
  8
0
  6
BYLAYER
 62
     1
 10
351.105802
 20
-688.266273
 30
0.0
 40
1.0
 50
270.0
 51
360.000003
  0
ARC
  8
0
  6
BYLAYER
 62
     1
 10
351.105802
 20
-692.266273
 30
0.0
 40
1.0
 50
0.0
 51
90.000003
  0
ARC
  8
0
  6
BYLAYER
 62
     1
 10
351.105802
 20
-678.266273
 30
0.0
 40
1.0
 50
270.0
 51
360.000003
  0
ARC
  8
0
  6
BYLAYER
 62
     1
 10
351.105802
 20
-682.266273
 30
0.0
 40
1.0
 50
0.0
 51
90.000003
  0
LINE
  8
0
  6
BYLAYER
 62
     1
 10
174.105741
 20
-673.266212
 30
0.0
 11
380.105741
 21
-673.266212
 31
0.0
  0
LINE
  8
0
  6
BYLAYER
 62
     1
 10
380.105741
 20
-747.266212
 30
0.0
 11
174.105741
 21
-747.266212
 31
0.0
  0
LINE
  8
0
  6
BYLAYER
 62
     1
 10
328.605802
 20
-747.266212
 30
0.0
 11
328.605802
 21
-773.766212
 31
0.0
  0
LINE
  8
0
  6
BYLAYER
 62
     1
 10
225.605741
 20
-747.266212
 30
0.0
 11
225.605741
 21
-773.766212
 31
0.0
  0
CIRCLE
  8
0
  6
BYLAYER
 62
     1
 10
207.105741
 20
-760.266212
 30
0.0
 40
6.5
  0
CIRCLE
  8
0
  6
BYLAYER
 62
     1
 10
207.105741
 20
-660.266212
 30
0.0
 40
6.5
  0
CIRCLE
  8
0
  6
BYLAYER
 62
     1
 10
207.105741
 20
-660.266212
 30
0.0
 40
6.5
  0
CIRCLE
  8
0
  6
BYLAYER
 62
     1
 10
332.105741
 20
-710.266212
 30
0.0
 40
12.0
  0
LINE
  8
0
  6
BYLAYER
 62
     1
 10
352.105802
 20
-675.266212
 30
0.0
 11
352.105802
 21
-680.266212
 31
0.0
  0
LINE
  8
0
  6
BYLAYER
 62
     1
 10
352.105802
 20
-710.266212
 30
0.0
 11
352.105802
 21
-690.266212
 31
0.0
  0
LINE
  8
0
  6
BYLAYER
 62
     1
 10
352.105802
 20
-690.266212
 30
0.0
 11
352.105802
 21
-680.266212
 31
0.0
  0
LINE
  8
0
  6
BYLAYER
 62
     1
 10
352.105802
 20
-730.266212
 30
0.0
 11
352.105802
 21
-710.266212
 31
0.0
  0
LINE
  8
0
  6
BYLAYER
 62
     1
 10
352.105802
 20
-740.266212
 30
0.0
 11
352.105802
 21
-730.266212
 31
0.0
  0
LINE
  8
0
  6
BYLAYER
 62
     1
 10
352.105802
 20
-740.266212
 30
0.0
 11
352.105802
 21
-745.266212
 31
0.0
  0
LINE
  8
0
  6
BYLAYER
 62
     1
 10
202.105741
 20
-675.266212
 30
0.0
 11
202.105741
 21
-680.266212
 31
0.0
  0
LINE
  8
0
  6
BYLAYER
 62
     1
 10
202.105741
 20
-690.266212
 30
0.0
 11
202.105741
 21
-680.266212
 31
0.0
  0
LINE
  8
0
  6
BYLAYER
 62
     1
 10
202.105741
 20
-700.266273
 30
0.0
 11
202.105741
 21
-690.266212
 31
0.0
  0
LINE
  8
0
  6
BYLAYER
 62
     1
 10
202.105741
 20
-710.266212
 30
0.0
 11
202.105741
 21
-700.266273
 31
0.0
  0
LINE
  8
0
  6
BYLAYER
 62
     1
 10
202.105741
 20
-720.266212
 30
0.0
 11
202.105741
 21
-710.266212
 31
0.0
  0
LINE
  8
0
  6
BYLAYER
 62
     1
 10
202.105741
 20
-730.266212
 30
0.0
 11
202.105741
 21
-720.266212
 31
0.0
  0
LINE
  8
0
  6
BYLAYER
 62
     1
 10
202.105741
 20
-740.266212
 30
0.0
 11
202.105741
 21
-730.266212
 31
0.0
  0
LINE
  8
0
  6
BYLAYER
 62
     1
 10
202.105741
 20
-740.266212
 30
0.0
 11
202.105741
 21
-745.266212
 31
0.0
  0
LINE
  8
0
  6
BYLAYER
 62
     1
 10
225.605680
 20
-646.766212
 30
0.0
 11
328.605863
 21
-646.766212
 31
0.0
  0
LINE
  8
0
  6
BYLAYER
 62
     1
 10
224.105741
 20
-645.266212
 30
0.0
 11
225.605680
 21
-646.766212
 31
0.0
  0
LINE
  8
0
  6
BYLAYER
 62
     1
 10
330.105802
 20
-645.266212
 30
0.0
 11
328.605863
 21
-646.766212
 31
0.0
  0
LINE
  8
0
  6
BYLAYER
 62
     1
 10
328.605802
 20
-646.766212
 30
0.0
 11
225.605680
 21
-646.766212
 31
0.0
  0
LINE
  8
0
  6
BYLAYER
 62
     1
 10
277.105802
 20
-643.266212
 30
0.0
 11
197.105802
 21
-643.266212
 31
0.0
  0
LINE
  8
0
  6
BYLAYER
 62
     1
 10
330.105863
 20
-645.266212
 30
0.0
 11
328.605924
 21
-646.766212
 31
0.0
  0
LINE
  8
0
  6
BYLAYER
 62
     1
 10
277.105802
 20
-643.266212
 30
0.0
 11
357.105802
 21
-643.266212
 31
0.0
  0
LINE
  8
0
  6
BYLAYER
 62
     1
 10
197.035978
 20
-645.266212
 30
0.0
 11
197.105802
 21
-643.266212
 31
0.0
  0
LINE
  8
0
  6
BYLAYER
 62
     1
 10
357.175626
 20
-645.266212
 30
0.0
 11
357.105802
 21
-643.266212
 31
0.0
  0
LINE
  8
0
  6
BYLAYER
 62
     1
 10
222.605802
 20
-640.266212
 30
0.0
 11
222.105802
 21
-640.766212
 31
0.0
  0
LINE
  8
0
  6
BYLAYER
 62
     1
 10
222.105802
 20
-640.766212
 30
0.0
 11
222.105802
 21
-643.266212
 31
0.0
  0
LINE
  8
0
  6
BYLAYER
 62
     1
 10
222.605802
 20
-640.266212
 30
0.0
 11
331.605802
 21
-640.266212
 31
0.0
  0
LINE
  8
0
  6
BYLAYER
 62
     1
 10
331.605802
 20
-640.266212
 30
0.0
 11
332.105802
 21
-640.766212
 31
0.0
  0
LINE
  8
0
  6
BYLAYER
 62
     1
 10
332.105802
 20
-640.766212
 30
0.0
 11
332.105802
 21
-643.266212
 31
0.0
  0
LINE
  8
0
  6
BYLAYER
 62
     1
 10
277.105802
 20
-777.266212
 30
0.0
 11
197.105802
 21
-777.266212
 31
0.0
  0
LINE
  8
0
  6
BYLAYER
 62
     1
 10
277.105802
 20
-777.266212
 30
0.0
 11
357.105802
 21
-777.266212
 31
0.0
  0
LINE
  8
0
  6
BYLAYER
 62
     1
 10
197.035978
 20
-775.266212
 30
0.0
 11
197.105802
 21
-777.266212
 31
0.0
  0
LINE
  8
0
  6
BYLAYER
 62
     1
 10
357.175626
 20
-775.266212
 30
0.0
 11
357.105802
 21
-777.266212
 31
0.0
  0
LINE
  8
0
  6
BYLAYER
 62
     1
 10
222.605802
 20
-780.266212
 30
0.0
 11
222.105802
 21
-779.766212
 31
0.0
  0
LINE
  8
0
  6
BYLAYER
 62
     1
 10
222.105802
 20
-779.766212
 30
0.0
 11
222.105802
 21
-777.266212
 31
0.0
  0
LINE
  8
0
  6
BYLAYER
 62
     1
 10
222.605802
 20
-780.266212
 30
0.0
 11
331.605802
 21
-780.266212
 31
0.0
  0
LINE
  8
0
  6
BYLAYER
 62
     1
 10
331.605802
 20
-780.266212
 30
0.0
 11
332.105802
 21
-779.766212
 31
0.0
  0
LINE
  8
0
  6
BYLAYER
 62
     1
 10
332.105802
 20
-779.766212
 30
0.0
 11
332.105802
 21
-777.266212
 31
0.0
  0
ARC
  8
0
  6
BYLAYER
 62
     1
 10
239.701806
 20
-730.266212
 30
0.0
 40
1.0
 50
270.0
 51
450.000005
  0
ARC
  8
0
  6
BYLAYER
 62
     1
 10
239.701806
 20
-740.266212
 30
0.0
 40
1.0
 50
270.0
 51
450.000005
  0
LINE
  8
0
  6
BYLAYER
 62
     1
 10
239.701806
 20
-739.266212
 30
0.0
 11
203.105741
 21
-739.266273
 31
0.0
  0
LINE
  8
0
  6
BYLAYER
 62
     1
 10
239.701806
 20
-741.266212
 30
0.0
 11
203.105741
 21
-741.266273
 31
0.0
  0
LINE
  8
0
  6
BYLAYER
 62
     1
 10
239.701806
 20
-729.266212
 30
0.0
 11
203.105741
 21
-729.266273
 31
0.0
  0
LINE
  8
0
  6
BYLAYER
 62
     1
 10
239.701806
 20
-731.266212
 30
0.0
 11
203.105741
 21
-731.266273
 31
0.0
  0
ARC
  8
0
  6
BYLAYER
 62
     1
 10
239.701806
 20
-690.266212
 30
0.0
 40
1.0
 50
270.0
 51
450.000005
  0
ARC
  8
0
  6
BYLAYER
 62
     1
 10
239.701806
 20
-680.266212
 30
0.0
 40
1.0
 50
270.0
 51
450.000005
  0
LINE
  8
0
  6
BYLAYER
 62
     1
 10
239.701806
 20
-679.266212
 30
0.0
 11
203.105741
 21
-679.266212
 31
0.0
  0
LINE
  8
0
  6
BYLAYER
 62
     1
 10
239.701806
 20
-681.266212
 30
0.0
 11
203.105741
 21
-681.266212
 31
0.0
  0
LINE
  8
0
  6
BYLAYER
 62
     1
 10
239.701806
 20
-689.266212
 30
0.0
 11
203.105741
 21
-689.266212
 31
0.0
  0
LINE
  8
0
  6
BYLAYER
 62
     1
 10
239.701806
 20
-691.266212
 30
0.0
 11
203.105741
 21
-691.266212
 31
0.0
  0
ARC
  8
0
  6
BYLAYER
 62
     1
 10
244.115906
 20
-710.266273
 30
0.0
 40
1.0
 50
270.0
 51
450.000005
  0
LINE
  8
0
  6
BYLAYER
 62
     1
 10
203.105741
 20
-709.266212
 30
0.0
 11
244.115906
 21
-709.266273
 31
0.0
  0
LINE
  8
0
  6
BYLAYER
 62
     1
 10
203.105741
 20
-711.266212
 30
0.0
 11
244.115906
 21
-711.266273
 31
0.0
  0
ARC
  8
0
  6
BYLAYER
 62
     1
 10
246.115906
 20
-700.266273
 30
0.0
 40
1.0
 50
270.0
 51
450.000005
  0
LINE
  8
0
  6
BYLAYER
 62
     1
 10
203.105741
 20
-699.266212
 30
0.0
 11
246.115906
 21
-699.266273
 31
0.0
  0
LINE
  8
0
  6
BYLAYER
 62
     1
 10
203.105741
 20
-701.266212
 30
0.0
 11
246.115906
 21
-701.266273
 31
0.0
  0
ARC
  8
0
  6
BYLAYER
 62
     1
 10
246.115906
 20
-720.266212
 30
0.0
 40
1.0
 50
270.0
 51
450.000005
  0
LINE
  8
0
  6
BYLAYER
 62
     1
 10
203.105741
 20
-721.266273
 30
0.0
 11
246.115906
 21
-721.266212
 31
0.0
  0
LINE
  8
0
  6
BYLAYER
 62
     1
 10
203.105741
 20
-719.266273
 30
0.0
 11
246.115906
 21
-719.266212
 31
0.0
  0
ARC
  8
0
  6
BYLAYER
 62
     1
 10
312.719933
 20
-730.266212
 30
0.0
 40
1.0
 50
90.0
 51
270.000005
  0
ARC
  8
0
  6
BYLAYER
 62
     1
 10
312.719933
 20
-740.266212
 30
0.0
 40
1.0
 50
90.0
 51
270.000005
  0
LINE
  8
0
  6
BYLAYER
 62
     1
 10
351.105802
 20
-739.266212
 30
0.0
 11
312.719933
 21
-739.266273
 31
0.0
  0
LINE
  8
0
  6
BYLAYER
 62
     1
 10
351.105802
 20
-741.266212
 30
0.0
 11
312.719933
 21
-741.266273
 31
0.0
  0
LINE
  8
0
  6
BYLAYER
 62
     1
 10
351.105802
 20
-729.266212
 30
0.0
 11
312.719933
 21
-729.266273
 31
0.0
  0
ARC
  8
0
  6
BYLAYER
 62
     1
 10
312.719933
 20
-690.266212
 30
0.0
 40
1.0
 50
90.0
 51
270.000005
  0
ARC
  8
0
  6
BYLAYER
 62
     1
 10
312.719933
 20
-680.266212
 30
0.0
 40
1.0
 50
90.0
 51
270.000005
  0
LINE
  8
0
  6
BYLAYER
 62
     1
 10
351.105802
 20
-689.266273
 30
0.0
 11
312.719933
 21
-689.266212
 31
0.0
  0
LINE
  8
0
  6
BYLAYER
 62
     1
 10
351.105802
 20
-691.266273
 30
0.0
 11
312.719933
 21
-691.266212
 31
0.0
  0
LINE
  8
0
  6
BYLAYER
 62
     1
 10
312.719933
 20
-731.266273
 30
0.0
 11
351.105802
 21
-731.266212
 31
0.0
  0
LINE
  8
0
  6
BYLAYER
 62
     1
 10
312.719933
 20
-679.266212
 30
0.0
 11
351.105802
 21
-679.266212
 31
0.0
  0
LINE
  8
0
  6
BYLAYER
 62
     1
 10
312.719933
 20
-681.266212
 30
0.0
 11
351.105802
 21
-681.266212
 31
0.0
  0
LINE
  8
0
  6
BYLAYER
 62
     1
 10
406.605802
 20
-60.266214
 30
0.0
 11
406.605802
 21
-120.266212
 31
0.0
  0
ARC
  8
0
  6
BYLAYER
 62
     1
 10
394.605802
 20
-76.799018
 30
0.0
 40
1.999988
 50
281.000195
 51
360.000000
  0
LINE
  8
0
  6
BYLAYER
 62
     1
 10
396.605802
 20
-62.688209
 30
0.0
 11
396.605802
 21
-120.266212
 31
0.0
  0
LINE
  8
0
  6
BYLAYER
 62
     1
 10
382.105802
 20
-81.266197
 30
0.0
 11
394.987424
 21
-78.762260
 31
0.0
  0
LINE
  8
0
  6
BYLAYER
 62
     1
 10
396.605802
 20
-62.688209
 30
0.0
 11
383.272916
 21
-81.039329
 31
0.0
  0
LINE
  8
0
  6
BYLAYER
 62
     1
 10
382.105802
 20
-81.266197
 30
0.0
 11
382.105802
 21
-120.266212
 31
0.0
  0
LINE
  8
0
  6
BYLAYER
 62
     1
 10
398.501127
 20
-60.690956
 30
0.0
 11
406.605802
 21
-60.266214
 31
0.0
  0
ARC
  8
0
  6
BYLAYER
 62
     1
 10
398.605802
 20
-62.688209
 30
0.0
 40
2.0
 50
93.000097
 51
180.000000
  0
LINE
  8
0
  6
BYLAYER
 62
     1
 10
406.605802
 20
-180.266210
 30
0.0
 11
406.605802
 21
-120.266212
 31
0.0
  0
ARC
  8
0
  6
BYLAYER
 62
     1
 10
394.605802
 20
-163.733406
 30
0.0
 40
1.999988
 50
0.0
 51
78.999805
  0
LINE
  8
0
  6
BYLAYER
 62
     1
 10
396.605802
 20
-177.844215
 30
0.0
 11
396.605802
 21
-120.266212
 31
0.0
  0
LINE
  8
0
  6
BYLAYER
 62
     1
 10
382.105802
 20
-159.266227
 30
0.0
 11
394.987424
 21
-161.770164
 31
0.0
  0
LINE
  8
0
  6
BYLAYER
 62
     1
 10
396.605802
 20
-177.844215
 30
0.0
 11
383.272916
 21
-159.493095
 31
0.0
  0
LINE
  8
0
  6
BYLAYER
 62
     1
 10
382.105802
 20
-159.266227
 30
0.0
 11
382.105802
 21
-120.266212
 31
0.0
  0
LINE
  8
0
  6
BYLAYER
 62
     1
 10
398.501127
 20
-179.841468
 30
0.0
 11
406.605802
 21
-180.266210
 31
0.0
  0
ARC
  8
0
  6
BYLAYER
 62
     1
 10
398.605802
 20
-177.844215
 30
0.0
 40
2.000000
 50
180.000000
 51
266.999903
  0
LINE
  8
0
  6
BYLAYER
 62
     1
 10
962.105924
 20
-313.266212
 30
0.0
 11
990.105802
 21
-313.266212
 31
0.0
  0
LINE
  8
0
  6
BYLAYER
 62
     1
 10
962.105924
 20
-263.266212
 30
0.0
 11
962.105924
 21
-313.266212
 31
0.0
  0
LINE
  8
0
  6
BYLAYER
 62
     1
 10
962.105924
 20
-263.266212
 30
0.0
 11
963.605924
 21
-261.766212
 31
0.0
  0
LINE
  8
0
  6
BYLAYER
 62
     1
 10
963.605924
 20
-167.682749
 30
0.0
 11
963.605924
 21
-261.766212
 31
0.0
  0
LINE
  8
0
  6
BYLAYER
 62
     1
 10
1092.105802
 20
-313.266212
 30
0.0
 11
1064.105802
 21
-313.266212
 31
0.0
  0
LINE
  8
0
  6
BYLAYER
 62
     1
 10
1092.105802
 20
-263.266212
 30
0.0
 11
1090.605802
 21
-261.766273
 31
0.0
  0
LINE
  8
0
  6
BYLAYER
 62
     1
 10
1092.105802
 20
-313.266212
 30
0.0
 11
1092.105802
 21
-263.266212
 31
0.0
  0
LINE
  8
0
  6
BYLAYER
 62
     1
 10
1090.605802
 20
-167.682586
 30
0.0
 11
1090.605802
 21
-261.766273
 31
0.0
  0
LINE
  8
0
  6
BYLAYER
 62
     1
 10
1094.105802
 20
-290.266212
 30
0.0
 11
1092.105802
 21
-290.336036
 31
0.0
  0
CIRCLE
  8
0
  6
BYLAYER
 62
     1
 10
1077.105802
 20
-280.266212
 30
0.0
 40
6.5
  0
LINE
  8
0
  6
BYLAYER
 62
     1
 10
990.105802
 20
-261.766212
 30
0.0
 11
963.605924
 21
-261.766212
 31
0.0
  0
LINE
  8
0
  6
BYLAYER
 62
     1
 10
990.105802
 20
-263.266212
 30
0.0
 11
962.105924
 21
-263.266212
 31
0.0
  0
LINE
  8
0
  6
BYLAYER
 62
     1
 10
1064.105802
 20
-263.266212
 30
0.0
 11
1092.105802
 21
-263.266212
 31
0.0
  0
LINE
  8
0
  6
BYLAYER
 62
     1
 10
1064.105802
 20
-261.766212
 30
0.0
 11
1090.605802
 21
-261.766212
 31
0.0
  0
CIRCLE
  8
0
  6
BYLAYER
 62
     1
 10
977.105802
 20
-280.266212
 30
0.0
 40
6.5
  0
LINE
  8
0
  6
BYLAYER
 62
     1
 10
1064.105802
 20
-190.348753
 30
0.0
 11
1064.105802
 21
-313.266212
 31
0.0
  0
LINE
  8
0
  6
BYLAYER
 62
     1
 10
990.105802
 20
-190.348753
 30
0.0
 11
990.105802
 21
-313.266212
 31
0.0
  0
LINE
  8
0
  6
BYLAYER
 62
     1
 10
1094.105802
 20
-290.266212
 30
0.0
 11
1094.105802
 21
-162.593065
 31
0.0
  0
LINE
  8
0
  6
BYLAYER
 62
     1
 10
1097.105802
 20
-210.266212
 30
0.0
 11
1097.105802
 21
-157.422133
 31
0.0
  0
LINE
  8
0
  6
BYLAYER
 62
     1
 10
1097.105802
 20
-210.266212
 30
0.0
 11
1097.105802
 21
-264.766212
 31
0.0
  0
LINE
  8
0
  6
BYLAYER
 62
     1
 10
1097.105802
 20
-264.766212
 30
0.0
 11
1096.605802
 21
-265.266212
 31
0.0
  0
LINE
  8
0
  6
BYLAYER
 62
     1
 10
1096.605802
 20
-265.266212
 30
0.0
 11
1094.105802
 21
-265.266212
 31
0.0
  0
LINE
  8
0
  6
BYLAYER
 62
     1
 10
962.105802
 20
-263.266212
 30
0.0
 11
963.605802
 21
-261.766273
 31
0.0
  0
LINE
  8
0
  6
BYLAYER
 62
     1
 10
960.105802
 20
-290.266212
 30
0.0
 11
962.105802
 21
-290.336036
 31
0.0
  0
LINE
  8
0
  6
BYLAYER
 62
     1
 10
960.105802
 20
-290.266212
 30
0.0
 11
960.105802
 21
-162.593065
 31
0.0
  0
LINE
  8
0
  6
BYLAYER
 62
     1
 10
957.105802
 20
-210.266212
 30
0.0
 11
957.105802
 21
-157.422133
 31
0.0
  0
LINE
  8
0
  6
BYLAYER
 62
     1
 10
957.105802
 20
-210.266212
 30
0.0
 11
957.105802
 21
-264.766212
 31
0.0
  0
LINE
  8
0
  6
BYLAYER
 62
     1
 10
957.105802
 20
-264.766212
 30
0.0
 11
957.605802
 21
-265.266212
 31
0.0
  0
LINE
  8
0
  6
BYLAYER
 62
     1
 10
957.605802
 20
-265.266212
 30
0.0
 11
960.105802
 21
-265.266212
 31
0.0
  0
LINE
  8
0
  6
BYLAYER
 62
     1
 10
1064.105802
 20
-308.266181
 30
0.0
 11
990.105802
 21
-308.266181
 31
0.0
  0
LINE
  8
0
  6
BYLAYER
 62
     7
 10
990.105802
 20
-32.266181
 30
0.0
 11
990.105802
 21
-50.183671
 31
0.0
  0
LINE
  8
0
  6
BYLAYER
 62
     7
 10
1064.105802
 20
-32.266181
 30
0.0
 11
1064.105802
 21
-50.183671
 31
0.0
  0
LINE
  8
0
  6
BYLAYER
 62
     7
 10
990.105802
 20
-36.766181
 30
0.0
 11
993.105802
 21
-41.962318
 31
0.0
  0
LINE
  8
0
  6
BYLAYER
 62
     7
 10
1064.105802
 20
-36.766181
 30
0.0
 11
1061.105802
 21
-41.962318
 31
0.0
  0
LINE
  8
0
  6
BYLAYER
 62
     7
 10
993.105802
 20
-41.962318
 30
0.0
 11
993.105802
 21
-48.680162
 31
0.0
  0
LINE
  8
0
  6
BYLAYER
 62
     7
 10
1061.105802
 20
-41.962318
 30
0.0
 11
1061.105802
 21
-48.680162
 31
0.0
  0
LINE
  8
0
  6
BYLAYER
 62
     7
 10
1064.105802
 20
-32.266120
 30
0.0
 11
990.105802
 21
-32.266120
 31
0.0
  0
CIRCLE
  8
0
  6
BYLAYER
 62
     7
 10
1027.105802
 20
-120.266212
 30
0.0
 40
59.0
  0
CIRCLE
  8
0
  6
BYLAYER
 62
     7
 10
1027.105802
 20
-120.266212
 30
0.0
 40
64.487732
  0
CIRCLE
  8
0
  6
BYLAYER
 62
     7
 10
1027.105802
 20
-120.266212
 30
0.0
 40
79.25
  0
LINE
  8
0
  6
BYLAYER
 62
     7
 10
1028.105802
 20
-91.266212
 30
0.0
 11
1028.105802
 21
-99.266212
 31
0.0
  0
LINE
  8
0
  6
BYLAYER
 62
     7
 10
1028.105802
 20
-81.266212
 30
0.0
 11
1028.105802
 21
-89.266212
 31
0.0
  0
LINE
  8
0
  6
BYLAYER
 62
     7
 10
1036.105802
 20
-89.266212
 30
0.0
 11
1036.105802
 21
-81.266212
 31
0.0
  0
LINE
  8
0
  6
BYLAYER
 62
     7
 10
1038.105802
 20
-89.266212
 30
0.0
 11
1038.105802
 21
-81.266212
 31
0.0
  0
LINE
  8
0
  6
BYLAYER
 62
     7
 10
1028.105802
 20
-99.266212
 30
0.0
 11
1036.105802
 21
-99.266212
 31
0.0
  0
LINE
  8
0
  6
BYLAYER
 62
     7
 10
1028.105802
 20
-91.266212
 30
0.0
 11
1036.105802
 21
-91.266212
 31
0.0
  0
LINE
  8
0
  6
BYLAYER
 62
     7
 10
1038.105802
 20
-89.266212
 30
0.0
 11
1045.943801
 21
-89.266212
 31
0.0
  0
LINE
  8
0
  6
BYLAYER
 62
     7
 10
1028.105802
 20
-89.266212
 30
0.0
 11
1036.105802
 21
-89.266212
 31
0.0
  0
LINE
  8
0
  6
BYLAYER
 62
     7
 10
1038.105802
 20
-81.266212
 30
0.0
 11
1045.943801
 21
-81.266212
 31
0.0
  0
LINE
  8
0
  6
BYLAYER
 62
     7
 10
1028.105802
 20
-81.266212
 30
0.0
 11
1036.105802
 21
-81.266212
 31
0.0
  0
LINE
  8
0
  6
BYLAYER
 62
     7
 10
1045.943801
 20
-89.266212
 30
0.0
 11
1045.943801
 21
-81.266212
 31
0.0
  0
LINE
  8
0
  6
BYLAYER
 62
     7
 10
1036.105802
 20
-99.266212
 30
0.0
 11
1036.105802
 21
-91.266212
 31
0.0
  0
LINE
  8
0
  6
BYLAYER
 62
     7
 10
1038.105802
 20
-91.266212
 30
0.0
 11
1038.105802
 21
-99.266212
 31
0.0
  0
LINE
  8
0
  6
BYLAYER
 62
     7
 10
1038.105802
 20
-99.266212
 30
0.0
 11
1046.105802
 21
-99.266212
 31
0.0
  0
LINE
  8
0
  6
BYLAYER
 62
     7
 10
1038.105802
 20
-91.266212
 30
0.0
 11
1046.105802
 21
-91.266212
 31
0.0
  0
LINE
  8
0
  6
BYLAYER
 62
     7
 10
1046.105802
 20
-99.266212
 30
0.0
 11
1046.105802
 21
-91.266212
 31
0.0
  0
LINE
  8
0
  6
BYLAYER
 62
     7
 10
1048.105802
 20
-109.266212
 30
0.0
 11
1056.105802
 21
-109.266212
 31
0.0
  0
LINE
  8
0
  6
BYLAYER
 62
     7
 10
1048.105802
 20
-91.266212
 30
0.0
 11
1048.105802
 21
-99.266212
 31
0.0
  0
LINE
  8
0
  6
BYLAYER
 62
     7
 10
1048.105802
 20
-101.266212
 30
0.0
 11
1048.105802
 21
-109.266212
 31
0.0
  0
LINE
  8
0
  6
BYLAYER
 62
     7
 10
1048.105802
 20
-101.266212
 30
0.0
 11
1056.105802
 21
-101.266212
 31
0.0
  0
LINE
  8
0
  6
BYLAYER
 62
     7
 10
1048.105802
 20
-99.266212
 30
0.0
 11
1056.105802
 21
-99.266212
 31
0.0
  0
LINE
  8
0
  6
BYLAYER
 62
     7
 10
1048.105802
 20
-91.266212
 30
0.0
 11
1056.105802
 21
-91.266212
 31
0.0
  0
LINE
  8
0
  6
BYLAYER
 62
     7
 10
1056.105802
 20
-109.266212
 30
0.0
 11
1056.105802
 21
-101.266212
 31
0.0
  0
LINE
  8
0
  6
BYLAYER
 62
     7
 10
1056.105802
 20
-99.266212
 30
0.0
 11
1056.105802
 21
-91.266212
 31
0.0
  0
LINE
  8
0
  6
BYLAYER
 62
     7
 10
1048.105802
 20
-119.266212
 30
0.0
 11
1056.105802
 21
-119.266212
 31
0.0
  0
LINE
  8
0
  6
BYLAYER
 62
     7
 10
1048.105802
 20
-111.266212
 30
0.0
 11
1048.105802
 21
-119.266212
 31
0.0
  0
LINE
  8
0
  6
BYLAYER
 62
     7
 10
1048.105802
 20
-111.266212
 30
0.0
 11
1056.105802
 21
-111.266212
 31
0.0
  0
LINE
  8
0
  6
BYLAYER
 62
     7
 10
1056.105802
 20
-119.266212
 30
0.0
 11
1056.105802
 21
-111.266212
 31
0.0
  0
LINE
  8
0
  6
BYLAYER
 62
     7
 10
1058.105802
 20
-109.266212
 30
0.0
 11
1066.105802
 21
-109.266212
 31
0.0
  0
LINE
  8
0
  6
BYLAYER
 62
     7
 10
1058.105802
 20
-101.266212
 30
0.0
 11
1058.105802
 21
-109.266212
 31
0.0
  0
LINE
  8
0
  6
BYLAYER
 62
     7
 10
1058.105802
 20
-101.266212
 30
0.0
 11
1066.105802
 21
-101.266212
 31
0.0
  0
LINE
  8
0
  6
BYLAYER
 62
     7
 10
1066.105802
 20
-109.266212
 30
0.0
 11
1066.105802
 21
-101.266212
 31
0.0
  0
LINE
  8
0
  6
BYLAYER
 62
     7
 10
1058.105802
 20
-119.266212
 30
0.0
 11
1066.105802
 21
-119.266212
 31
0.0
  0
LINE
  8
0
  6
BYLAYER
 62
     7
 10
1058.105802
 20
-111.266212
 30
0.0
 11
1058.105802
 21
-119.266212
 31
0.0
  0
LINE
  8
0
  6
BYLAYER
 62
     7
 10
1058.105802
 20
-111.266212
 30
0.0
 11
1066.105802
 21
-111.266212
 31
0.0
  0
LINE
  8
0
  6
BYLAYER
 62
     7
 10
1066.105802
 20
-119.266212
 30
0.0
 11
1066.105802
 21
-111.266212
 31
0.0
  0
LINE
  8
0
  6
BYLAYER
 62
     7
 10
1068.105802
 20
-109.266212
 30
0.0
 11
1076.105802
 21
-109.266212
 31
0.0
  0
LINE
  8
0
  6
BYLAYER
 62
     7
 10
1068.105802
 20
-101.266212
 30
0.0
 11
1068.105802
 21
-109.266212
 31
0.0
  0
LINE
  8
0
  6
BYLAYER
 62
     7
 10
1068.105802
 20
-101.266212
 30
0.0
 11
1076.105802
 21
-101.266212
 31
0.0
  0
LINE
  8
0
  6
BYLAYER
 62
     7
 10
1076.105802
 20
-109.266212
 30
0.0
 11
1076.105802
 21
-101.266212
 31
0.0
  0
LINE
  8
0
  6
BYLAYER
 62
     7
 10
1068.105802
 20
-119.266212
 30
0.0
 11
1076.105802
 21
-119.266212
 31
0.0
  0
LINE
  8
0
  6
BYLAYER
 62
     7
 10
1068.105802
 20
-111.266212
 30
0.0
 11
1068.105802
 21
-119.266212
 31
0.0
  0
LINE
  8
0
  6
BYLAYER
 62
     7
 10
1068.105802
 20
-111.266212
 30
0.0
 11
1076.105802
 21
-111.266212
 31
0.0
  0
LINE
  8
0
  6
BYLAYER
 62
     7
 10
1076.105802
 20
-119.266212
 30
0.0
 11
1076.105802
 21
-111.266212
 31
0.0
  0
LINE
  8
0
  6
BYLAYER
 62
     7
 10
1028.105802
 20
-71.266212
 30
0.0
 11
1028.105802
 21
-79.266212
 31
0.0
  0
LINE
  8
0
  6
BYLAYER
 62
     7
 10
1036.105802
 20
-79.266212
 30
0.0
 11
1036.105802
 21
-71.266212
 31
0.0
  0
LINE
  8
0
  6
BYLAYER
 62
     7
 10
1038.105802
 20
-79.266212
 30
0.0
 11
1038.105802
 21
-71.266212
 31
0.0
  0
LINE
  8
0
  6
BYLAYER
 62
     7
 10
1038.105802
 20
-79.266212
 30
0.0
 11
1045.943801
 21
-79.266212
 31
0.0
  0
LINE
  8
0
  6
BYLAYER
 62
     7
 10
1028.105802
 20
-79.266212
 30
0.0
 11
1036.105802
 21
-79.266212
 31
0.0
  0
LINE
  8
0
  6
BYLAYER
 62
     7
 10
1038.105802
 20
-71.266212
 30
0.0
 11
1045.943801
 21
-71.266212
 31
0.0
  0
LINE
  8
0
  6
BYLAYER
 62
     7
 10
1028.105802
 20
-71.266212
 30
0.0
 11
1036.105802
 21
-71.266212
 31
0.0
  0
LINE
  8
0
  6
BYLAYER
 62
     7
 10
1045.943801
 20
-79.266212
 30
0.0
 11
1045.943801
 21
-71.266212
 31
0.0
  0
LINE
  8
0
  6
BYLAYER
 62
     7
 10
1048.105802
 20
-81.266212
 30
0.0
 11
1048.105802
 21
-89.266212
 31
0.0
  0
LINE
  8
0
  6
BYLAYER
 62
     7
 10
1048.105802
 20
-89.266212
 30
0.0
 11
1056.105802
 21
-89.266212
 31
0.0
  0
LINE
  8
0
  6
BYLAYER
 62
     7
 10
1048.105802
 20
-81.266212
 30
0.0
 11
1056.105802
 21
-81.266212
 31
0.0
  0
LINE
  8
0
  6
BYLAYER
 62
     7
 10
1056.105802
 20
-89.266212
 30
0.0
 11
1056.105802
 21
-81.266212
 31
0.0
  0
LINE
  8
0
  6
BYLAYER
 62
     7
 10
1048.105802
 20
-71.266212
 30
0.0
 11
1048.105802
 21
-79.266212
 31
0.0
  0
LINE
  8
0
  6
BYLAYER
 62
     7
 10
1048.105802
 20
-79.266212
 30
0.0
 11
1056.105802
 21
-79.266212
 31
0.0
  0
LINE
  8
0
  6
BYLAYER
 62
     7
 10
1048.105802
 20
-71.266212
 30
0.0
 11
1056.105802
 21
-71.266212
 31
0.0
  0
LINE
  8
0
  6
BYLAYER
 62
     7
 10
1056.105802
 20
-79.266212
 30
0.0
 11
1056.105802
 21
-71.266212
 31
0.0
  0
LINE
  8
0
  6
BYLAYER
 62
     7
 10
1058.105802
 20
-91.266212
 30
0.0
 11
1058.105802
 21
-99.266212
 31
0.0
  0
LINE
  8
0
  6
BYLAYER
 62
     7
 10
1058.105802
 20
-99.266212
 30
0.0
 11
1066.105802
 21
-99.266212
 31
0.0
  0
LINE
  8
0
  6
BYLAYER
 62
     7
 10
1058.105802
 20
-91.266212
 30
0.0
 11
1066.105802
 21
-91.266212
 31
0.0
  0
LINE
  8
0
  6
BYLAYER
 62
     7
 10
1066.105802
 20
-99.266212
 30
0.0
 11
1066.105802
 21
-91.266212
 31
0.0
  0
LINE
  8
0
  6
BYLAYER
 62
     7
 10
1058.105802
 20
-81.266212
 30
0.0
 11
1058.105802
 21
-89.266212
 31
0.0
  0
LINE
  8
0
  6
BYLAYER
 62
     7
 10
1058.105802
 20
-89.266212
 30
0.0
 11
1066.105802
 21
-89.266212
 31
0.0
  0
LINE
  8
0
  6
BYLAYER
 62
     7
 10
1058.105802
 20
-81.266212
 30
0.0
 11
1066.105802
 21
-81.266212
 31
0.0
  0
LINE
  8
0
  6
BYLAYER
 62
     7
 10
1066.105802
 20
-89.266212
 30
0.0
 11
1066.105802
 21
-81.266212
 31
0.0
  0
LINE
  8
0
  6
BYLAYER
 62
     7
 10
1068.105802
 20
-91.266212
 30
0.0
 11
1068.105802
 21
-99.266212
 31
0.0
  0
LINE
  8
0
  6
BYLAYER
 62
     7
 10
1068.105802
 20
-99.266212
 30
0.0
 11
1076.105802
 21
-99.266212
 31
0.0
  0
LINE
  8
0
  6
BYLAYER
 62
     7
 10
1068.105802
 20
-91.266212
 30
0.0
 11
1076.105802
 21
-91.266212
 31
0.0
  0
LINE
  8
0
  6
BYLAYER
 62
     7
 10
1076.105802
 20
-99.266212
 30
0.0
 11
1076.105802
 21
-91.266212
 31
0.0
  0
LINE
  8
0
  6
BYLAYER
 62
     7
 10
1028.105802
 20
-149.266212
 30
0.0
 11
1028.105802
 21
-141.266212
 31
0.0
  0
LINE
  8
0
  6
BYLAYER
 62
     7
 10
1028.105802
 20
-159.266212
 30
0.0
 11
1028.105802
 21
-151.266212
 31
0.0
  0
LINE
  8
0
  6
BYLAYER
 62
     7
 10
1036.105802
 20
-151.266212
 30
0.0
 11
1036.105802
 21
-159.266212
 31
0.0
  0
LINE
  8
0
  6
BYLAYER
 62
     7
 10
1038.105802
 20
-151.266212
 30
0.0
 11
1038.105802
 21
-159.266212
 31
0.0
  0
LINE
  8
0
  6
BYLAYER
 62
     7
 10
1028.105802
 20
-141.266212
 30
0.0
 11
1036.105802
 21
-141.266212
 31
0.0
  0
LINE
  8
0
  6
BYLAYER
 62
     7
 10
1028.105802
 20
-149.266212
 30
0.0
 11
1036.105802
 21
-149.266212
 31
0.0
  0
LINE
  8
0
  6
BYLAYER
 62
     7
 10
1038.105802
 20
-151.266212
 30
0.0
 11
1045.943801
 21
-151.266212
 31
0.0
  0
LINE
  8
0
  6
BYLAYER
 62
     7
 10
1028.105802
 20
-151.266212
 30
0.0
 11
1036.105802
 21
-151.266212
 31
0.0
  0
LINE
  8
0
  6
BYLAYER
 62
     7
 10
1038.105802
 20
-159.266212
 30
0.0
 11
1045.943801
 21
-159.266212
 31
0.0
  0
LINE
  8
0
  6
BYLAYER
 62
     7
 10
1028.105802
 20
-159.266212
 30
0.0
 11
1036.105802
 21
-159.266212
 31
0.0
  0
LINE
  8
0
  6
BYLAYER
 62
     7
 10
1045.943801
 20
-151.266212
 30
0.0
 11
1045.943801
 21
-159.266212
 31
0.0
  0
LINE
  8
0
  6
BYLAYER
 62
     7
 10
1036.105802
 20
-141.266212
 30
0.0
 11
1036.105802
 21
-149.266212
 31
0.0
  0
LINE
  8
0
  6
BYLAYER
 62
     7
 10
1038.105802
 20
-149.266212
 30
0.0
 11
1038.105802
 21
-141.266212
 31
0.0
  0
LINE
  8
0
  6
BYLAYER
 62
     7
 10
1038.105802
 20
-141.266212
 30
0.0
 11
1046.105802
 21
-141.266212
 31
0.0
  0
LINE
  8
0
  6
BYLAYER
 62
     7
 10
1038.105802
 20
-149.266212
 30
0.0
 11
1046.105802
 21
-149.266212
 31
0.0
  0
LINE
  8
0
  6
BYLAYER
 62
     7
 10
1046.105802
 20
-141.266212
 30
0.0
 11
1046.105802
 21
-149.266212
 31
0.0
  0
LINE
  8
0
  6
BYLAYER
 62
     7
 10
1048.105802
 20
-131.266212
 30
0.0
 11
1056.105802
 21
-131.266212
 31
0.0
  0
LINE
  8
0
  6
BYLAYER
 62
     7
 10
1048.105802
 20
-149.266212
 30
0.0
 11
1048.105802
 21
-141.266212
 31
0.0
  0
LINE
  8
0
  6
BYLAYER
 62
     7
 10
1048.105802
 20
-139.266212
 30
0.0
 11
1048.105802
 21
-131.266212
 31
0.0
  0
LINE
  8
0
  6
BYLAYER
 62
     7
 10
1048.105802
 20
-139.266212
 30
0.0
 11
1056.105802
 21
-139.266212
 31
0.0
  0
LINE
  8
0
  6
BYLAYER
 62
     7
 10
1048.105802
 20
-141.266212
 30
0.0
 11
1056.105802
 21
-141.266212
 31
0.0
  0
LINE
  8
0
  6
BYLAYER
 62
     7
 10
1048.105802
 20
-149.266212
 30
0.0
 11
1056.105802
 21
-149.266212
 31
0.0
  0
LINE
  8
0
  6
BYLAYER
 62
     7
 10
1056.105802
 20
-131.266212
 30
0.0
 11
1056.105802
 21
-139.266212
 31
0.0
  0
LINE
  8
0
  6
BYLAYER
 62
     7
 10
1056.105802
 20
-141.266212
 30
0.0
 11
1056.105802
 21
-149.266212
 31
0.0
  0
LINE
  8
0
  6
BYLAYER
 62
     7
 10
1048.105802
 20
-121.266212
 30
0.0
 11
1056.105802
 21
-121.266212
 31
0.0
  0
LINE
  8
0
  6
BYLAYER
 62
     7
 10
1048.105802
 20
-129.266212
 30
0.0
 11
1048.105802
 21
-121.266212
 31
0.0
  0
LINE
  8
0
  6
BYLAYER
 62
     7
 10
1048.105802
 20
-129.266212
 30
0.0
 11
1056.105802
 21
-129.266212
 31
0.0
  0
LINE
  8
0
  6
BYLAYER
 62
     7
 10
1056.105802
 20
-121.266212
 30
0.0
 11
1056.105802
 21
-129.266212
 31
0.0
  0
LINE
  8
0
  6
BYLAYER
 62
     7
 10
1058.105802
 20
-131.266212
 30
0.0
 11
1066.105802
 21
-131.266212
 31
0.0
  0
LINE
  8
0
  6
BYLAYER
 62
     7
 10
1058.105802
 20
-139.266212
 30
0.0
 11
1058.105802
 21
-131.266212
 31
0.0
  0
LINE
  8
0
  6
BYLAYER
 62
     7
 10
1058.105802
 20
-139.266212
 30
0.0
 11
1066.105802
 21
-139.266212
 31
0.0
  0
LINE
  8
0
  6
BYLAYER
 62
     7
 10
1066.105802
 20
-131.266212
 30
0.0
 11
1066.105802
 21
-139.266212
 31
0.0
  0
LINE
  8
0
  6
BYLAYER
 62
     7
 10
1058.105802
 20
-121.266212
 30
0.0
 11
1066.105802
 21
-121.266212
 31
0.0
  0
LINE
  8
0
  6
BYLAYER
 62
     7
 10
1058.105802
 20
-129.266212
 30
0.0
 11
1058.105802
 21
-121.266212
 31
0.0
  0
LINE
  8
0
  6
BYLAYER
 62
     7
 10
1058.105802
 20
-129.266212
 30
0.0
 11
1066.105802
 21
-129.266212
 31
0.0
  0
LINE
  8
0
  6
BYLAYER
 62
     7
 10
1066.105802
 20
-121.266212
 30
0.0
 11
1066.105802
 21
-129.266212
 31
0.0
  0
LINE
  8
0
  6
BYLAYER
 62
     7
 10
1068.105802
 20
-131.266212
 30
0.0
 11
1076.105802
 21
-131.266212
 31
0.0
  0
LINE
  8
0
  6
BYLAYER
 62
     7
 10
1068.105802
 20
-139.266212
 30
0.0
 11
1068.105802
 21
-131.266212
 31
0.0
  0
LINE
  8
0
  6
BYLAYER
 62
     7
 10
1068.105802
 20
-139.266212
 30
0.0
 11
1076.105802
 21
-139.266212
 31
0.0
  0
LINE
  8
0
  6
BYLAYER
 62
     7
 10
1076.105802
 20
-131.266212
 30
0.0
 11
1076.105802
 21
-139.266212
 31
0.0
  0
LINE
  8
0
  6
BYLAYER
 62
     7
 10
1068.105802
 20
-121.266212
 30
0.0
 11
1076.105802
 21
-121.266212
 31
0.0
  0
LINE
  8
0
  6
BYLAYER
 62
     7
 10
1068.105802
 20
-129.266212
 30
0.0
 11
1068.105802
 21
-121.266212
 31
0.0
  0
LINE
  8
0
  6
BYLAYER
 62
     7
 10
1068.105802
 20
-129.266212
 30
0.0
 11
1076.105802
 21
-129.266212
 31
0.0
  0
LINE
  8
0
  6
BYLAYER
 62
     7
 10
1076.105802
 20
-121.266212
 30
0.0
 11
1076.105802
 21
-129.266212
 31
0.0
  0
LINE
  8
0
  6
BYLAYER
 62
     7
 10
1028.105802
 20
-169.266212
 30
0.0
 11
1028.105802
 21
-161.266212
 31
0.0
  0
LINE
  8
0
  6
BYLAYER
 62
     7
 10
1036.105802
 20
-161.266212
 30
0.0
 11
1036.105802
 21
-169.266212
 31
0.0
  0
LINE
  8
0
  6
BYLAYER
 62
     7
 10
1038.105802
 20
-161.266212
 30
0.0
 11
1038.105802
 21
-169.266212
 31
0.0
  0
LINE
  8
0
  6
BYLAYER
 62
     7
 10
1038.105802
 20
-161.266212
 30
0.0
 11
1045.943801
 21
-161.266212
 31
0.0
  0
LINE
  8
0
  6
BYLAYER
 62
     7
 10
1028.105802
 20
-161.266212
 30
0.0
 11
1036.105802
 21
-161.266212
 31
0.0
  0
LINE
  8
0
  6
BYLAYER
 62
     7
 10
1038.105802
 20
-169.266212
 30
0.0
 11
1045.943801
 21
-169.266212
 31
0.0
  0
LINE
  8
0
  6
BYLAYER
 62
     7
 10
1028.105802
 20
-169.266212
 30
0.0
 11
1036.105802
 21
-169.266212
 31
0.0
  0
LINE
  8
0
  6
BYLAYER
 62
     7
 10
1045.943801
 20
-161.266212
 30
0.0
 11
1045.943801
 21
-169.266212
 31
0.0
  0
LINE
  8
0
  6
BYLAYER
 62
     7
 10
1048.105802
 20
-159.266212
 30
0.0
 11
1048.105802
 21
-151.266212
 31
0.0
  0
LINE
  8
0
  6
BYLAYER
 62
     7
 10
1048.105802
 20
-151.266212
 30
0.0
 11
1056.105802
 21
-151.266212
 31
0.0
  0
LINE
  8
0
  6
BYLAYER
 62
     7
 10
1048.105802
 20
-159.266212
 30
0.0
 11
1056.105802
 21
-159.266212
 31
0.0
  0
LINE
  8
0
  6
BYLAYER
 62
     7
 10
1056.105802
 20
-151.266212
 30
0.0
 11
1056.105802
 21
-159.266212
 31
0.0
  0
LINE
  8
0
  6
BYLAYER
 62
     7
 10
1048.105802
 20
-169.266212
 30
0.0
 11
1048.105802
 21
-161.266212
 31
0.0
  0
LINE
  8
0
  6
BYLAYER
 62
     7
 10
1048.105802
 20
-161.266212
 30
0.0
 11
1056.105802
 21
-161.266212
 31
0.0
  0
LINE
  8
0
  6
BYLAYER
 62
     7
 10
1048.105802
 20
-169.266212
 30
0.0
 11
1056.105802
 21
-169.266212
 31
0.0
  0
LINE
  8
0
  6
BYLAYER
 62
     7
 10
1056.105802
 20
-161.266212
 30
0.0
 11
1056.105802
 21
-169.266212
 31
0.0
  0
LINE
  8
0
  6
BYLAYER
 62
     7
 10
1058.105802
 20
-149.266212
 30
0.0
 11
1058.105802
 21
-141.266212
 31
0.0
  0
LINE
  8
0
  6
BYLAYER
 62
     7
 10
1058.105802
 20
-141.266212
 30
0.0
 11
1066.105802
 21
-141.266212
 31
0.0
  0
LINE
  8
0
  6
BYLAYER
 62
     7
 10
1058.105802
 20
-149.266212
 30
0.0
 11
1066.105802
 21
-149.266212
 31
0.0
  0
LINE
  8
0
  6
BYLAYER
 62
     7
 10
1066.105802
 20
-141.266212
 30
0.0
 11
1066.105802
 21
-149.266212
 31
0.0
  0
LINE
  8
0
  6
BYLAYER
 62
     7
 10
1058.105802
 20
-159.266212
 30
0.0
 11
1058.105802
 21
-151.266212
 31
0.0
  0
LINE
  8
0
  6
BYLAYER
 62
     7
 10
1058.105802
 20
-151.266212
 30
0.0
 11
1066.105802
 21
-151.266212
 31
0.0
  0
LINE
  8
0
  6
BYLAYER
 62
     7
 10
1058.105802
 20
-159.266212
 30
0.0
 11
1066.105802
 21
-159.266212
 31
0.0
  0
LINE
  8
0
  6
BYLAYER
 62
     7
 10
1066.105802
 20
-151.266212
 30
0.0
 11
1066.105802
 21
-159.266212
 31
0.0
  0
LINE
  8
0
  6
BYLAYER
 62
     7
 10
1068.105802
 20
-149.266212
 30
0.0
 11
1068.105802
 21
-141.266212
 31
0.0
  0
LINE
  8
0
  6
BYLAYER
 62
     7
 10
1068.105802
 20
-141.266212
 30
0.0
 11
1076.105802
 21
-141.266212
 31
0.0
  0
LINE
  8
0
  6
BYLAYER
 62
     7
 10
1068.105802
 20
-149.266212
 30
0.0
 11
1076.105802
 21
-149.266212
 31
0.0
  0
LINE
  8
0
  6
BYLAYER
 62
     7
 10
1076.105802
 20
-141.266212
 30
0.0
 11
1076.105802
 21
-149.266212
 31
0.0
  0
LINE
  8
0
  6
BYLAYER
 62
     7
 10
1026.105802
 20
-91.266212
 30
0.0
 11
1026.105802
 21
-99.266212
 31
0.0
  0
LINE
  8
0
  6
BYLAYER
 62
     7
 10
1026.105802
 20
-81.266212
 30
0.0
 11
1026.105802
 21
-89.266212
 31
0.0
  0
LINE
  8
0
  6
BYLAYER
 62
     7
 10
1018.105802
 20
-89.266212
 30
0.0
 11
1018.105802
 21
-81.266212
 31
0.0
  0
LINE
  8
0
  6
BYLAYER
 62
     7
 10
1016.105802
 20
-89.266212
 30
0.0
 11
1016.105802
 21
-81.266212
 31
0.0
  0
LINE
  8
0
  6
BYLAYER
 62
     7
 10
1026.105802
 20
-99.266212
 30
0.0
 11
1018.105802
 21
-99.266212
 31
0.0
  0
LINE
  8
0
  6
BYLAYER
 62
     7
 10
1026.105802
 20
-91.266212
 30
0.0
 11
1018.105802
 21
-91.266212
 31
0.0
  0
LINE
  8
0
  6
BYLAYER
 62
     7
 10
1016.105802
 20
-89.266212
 30
0.0
 11
1008.267803
 21
-89.266212
 31
0.0
  0
LINE
  8
0
  6
BYLAYER
 62
     7
 10
1026.105802
 20
-89.266212
 30
0.0
 11
1018.105802
 21
-89.266212
 31
0.0
  0
LINE
  8
0
  6
BYLAYER
 62
     7
 10
1016.105802
 20
-81.266212
 30
0.0
 11
1008.267803
 21
-81.266212
 31
0.0
  0
LINE
  8
0
  6
BYLAYER
 62
     7
 10
1026.105802
 20
-81.266212
 30
0.0
 11
1018.105802
 21
-81.266212
 31
0.0
  0
LINE
  8
0
  6
BYLAYER
 62
     7
 10
1008.267803
 20
-89.266212
 30
0.0
 11
1008.267803
 21
-81.266212
 31
0.0
  0
LINE
  8
0
  6
BYLAYER
 62
     7
 10
1018.105802
 20
-99.266212
 30
0.0
 11
1018.105802
 21
-91.266212
 31
0.0
  0
LINE
  8
0
  6
BYLAYER
 62
     7
 10
1016.105802
 20
-91.266212
 30
0.0
 11
1016.105802
 21
-99.266212
 31
0.0
  0
LINE
  8
0
  6
BYLAYER
 62
     7
 10
1016.105802
 20
-99.266212
 30
0.0
 11
1008.105802
 21
-99.266212
 31
0.0
  0
LINE
  8
0
  6
BYLAYER
 62
     7
 10
1016.105802
 20
-91.266212
 30
0.0
 11
1008.105802
 21
-91.266212
 31
0.0
  0
LINE
  8
0
  6
BYLAYER
 62
     7
 10
1008.105802
 20
-99.266212
 30
0.0
 11
1008.105802
 21
-91.266212
 31
0.0
  0
LINE
  8
0
  6
BYLAYER
 62
     7
 10
1006.105802
 20
-109.266212
 30
0.0
 11
998.105802
 21
-109.266212
 31
0.0
  0
LINE
  8
0
  6
BYLAYER
 62
     7
 10
1006.105802
 20
-91.266212
 30
0.0
 11
1006.105802
 21
-99.266212
 31
0.0
  0
LINE
  8
0
  6
BYLAYER
 62
     7
 10
1006.105802
 20
-101.266212
 30
0.0
 11
1006.105802
 21
-109.266212
 31
0.0
  0
LINE
  8
0
  6
BYLAYER
 62
     7
 10
1006.105802
 20
-101.266212
 30
0.0
 11
998.105802
 21
-101.266212
 31
0.0
  0
LINE
  8
0
  6
BYLAYER
 62
     7
 10
1006.105802
 20
-99.266212
 30
0.0
 11
998.105802
 21
-99.266212
 31
0.0
  0
LINE
  8
0
  6
BYLAYER
 62
     7
 10
1006.105802
 20
-91.266212
 30
0.0
 11
998.105802
 21
-91.266212
 31
0.0
  0
LINE
  8
0
  6
BYLAYER
 62
     7
 10
998.105802
 20
-109.266212
 30
0.0
 11
998.105802
 21
-101.266212
 31
0.0
  0
LINE
  8
0
  6
BYLAYER
 62
     7
 10
998.105802
 20
-99.266212
 30
0.0
 11
998.105802
 21
-91.266212
 31
0.0
  0
LINE
  8
0
  6
BYLAYER
 62
     7
 10
1006.105802
 20
-119.266212
 30
0.0
 11
998.105802
 21
-119.266212
 31
0.0
  0
LINE
  8
0
  6
BYLAYER
 62
     7
 10
1006.105802
 20
-111.266212
 30
0.0
 11
1006.105802
 21
-119.266212
 31
0.0
  0
LINE
  8
0
  6
BYLAYER
 62
     7
 10
1006.105802
 20
-111.266212
 30
0.0
 11
998.105802
 21
-111.266212
 31
0.0
  0
LINE
  8
0
  6
BYLAYER
 62
     7
 10
998.105802
 20
-119.266212
 30
0.0
 11
998.105802
 21
-111.266212
 31
0.0
  0
LINE
  8
0
  6
BYLAYER
 62
     7
 10
996.105802
 20
-109.266212
 30
0.0
 11
988.105802
 21
-109.266212
 31
0.0
  0
LINE
  8
0
  6
BYLAYER
 62
     7
 10
996.105802
 20
-101.266212
 30
0.0
 11
996.105802
 21
-109.266212
 31
0.0
  0
LINE
  8
0
  6
BYLAYER
 62
     7
 10
996.105802
 20
-101.266212
 30
0.0
 11
988.105802
 21
-101.266212
 31
0.0
  0
LINE
  8
0
  6
BYLAYER
 62
     7
 10
988.105802
 20
-109.266212
 30
0.0
 11
988.105802
 21
-101.266212
 31
0.0
  0
LINE
  8
0
  6
BYLAYER
 62
     7
 10
996.105802
 20
-119.266212
 30
0.0
 11
988.105802
 21
-119.266212
 31
0.0
  0
LINE
  8
0
  6
BYLAYER
 62
     7
 10
996.105802
 20
-111.266212
 30
0.0
 11
996.105802
 21
-119.266212
 31
0.0
  0
LINE
  8
0
  6
BYLAYER
 62
     7
 10
996.105802
 20
-111.266212
 30
0.0
 11
988.105802
 21
-111.266212
 31
0.0
  0
LINE
  8
0
  6
BYLAYER
 62
     7
 10
988.105802
 20
-119.266212
 30
0.0
 11
988.105802
 21
-111.266212
 31
0.0
  0
LINE
  8
0
  6
BYLAYER
 62
     7
 10
986.105802
 20
-109.266212
 30
0.0
 11
978.105802
 21
-109.266212
 31
0.0
  0
LINE
  8
0
  6
BYLAYER
 62
     7
 10
986.105802
 20
-101.266212
 30
0.0
 11
986.105802
 21
-109.266212
 31
0.0
  0
LINE
  8
0
  6
BYLAYER
 62
     7
 10
986.105802
 20
-101.266212
 30
0.0
 11
978.105802
 21
-101.266212
 31
0.0
  0
LINE
  8
0
  6
BYLAYER
 62
     7
 10
978.105802
 20
-109.266212
 30
0.0
 11
978.105802
 21
-101.266212
 31
0.0
  0
LINE
  8
0
  6
BYLAYER
 62
     7
 10
986.105802
 20
-119.266212
 30
0.0
 11
978.105802
 21
-119.266212
 31
0.0
  0
LINE
  8
0
  6
BYLAYER
 62
     7
 10
986.105802
 20
-111.266212
 30
0.0
 11
986.105802
 21
-119.266212
 31
0.0
  0
LINE
  8
0
  6
BYLAYER
 62
     7
 10
986.105802
 20
-111.266212
 30
0.0
 11
978.105802
 21
-111.266212
 31
0.0
  0
LINE
  8
0
  6
BYLAYER
 62
     7
 10
978.105802
 20
-119.266212
 30
0.0
 11
978.105802
 21
-111.266212
 31
0.0
  0
LINE
  8
0
  6
BYLAYER
 62
     7
 10
1026.105802
 20
-71.266212
 30
0.0
 11
1026.105802
 21
-79.266212
 31
0.0
  0
LINE
  8
0
  6
BYLAYER
 62
     7
 10
1018.105802
 20
-79.266212
 30
0.0
 11
1018.105802
 21
-71.266212
 31
0.0
  0
LINE
  8
0
  6
BYLAYER
 62
     7
 10
1016.105802
 20
-79.266212
 30
0.0
 11
1016.105802
 21
-71.266212
 31
0.0
  0
LINE
  8
0
  6
BYLAYER
 62
     7
 10
1016.105802
 20
-79.266212
 30
0.0
 11
1008.267803
 21
-79.266212
 31
0.0
  0
LINE
  8
0
  6
BYLAYER
 62
     7
 10
1026.105802
 20
-79.266212
 30
0.0
 11
1018.105802
 21
-79.266212
 31
0.0
  0
LINE
  8
0
  6
BYLAYER
 62
     7
 10
1016.105802
 20
-71.266212
 30
0.0
 11
1008.267803
 21
-71.266212
 31
0.0
  0
LINE
  8
0
  6
BYLAYER
 62
     7
 10
1026.105802
 20
-71.266212
 30
0.0
 11
1018.105802
 21
-71.266212
 31
0.0
  0
LINE
  8
0
  6
BYLAYER
 62
     7
 10
1008.267803
 20
-79.266212
 30
0.0
 11
1008.267803
 21
-71.266212
 31
0.0
  0
LINE
  8
0
  6
BYLAYER
 62
     7
 10
1006.105802
 20
-81.266212
 30
0.0
 11
1006.105802
 21
-89.266212
 31
0.0
  0
LINE
  8
0
  6
BYLAYER
 62
     7
 10
1006.105802
 20
-89.266212
 30
0.0
 11
998.105802
 21
-89.266212
 31
0.0
  0
LINE
  8
0
  6
BYLAYER
 62
     7
 10
1006.105802
 20
-81.266212
 30
0.0
 11
998.105802
 21
-81.266212
 31
0.0
  0
LINE
  8
0
  6
BYLAYER
 62
     7
 10
998.105802
 20
-89.266212
 30
0.0
 11
998.105802
 21
-81.266212
 31
0.0
  0
LINE
  8
0
  6
BYLAYER
 62
     7
 10
1006.105802
 20
-71.266212
 30
0.0
 11
1006.105802
 21
-79.266212
 31
0.0
  0
LINE
  8
0
  6
BYLAYER
 62
     7
 10
1006.105802
 20
-79.266212
 30
0.0
 11
998.105802
 21
-79.266212
 31
0.0
  0
LINE
  8
0
  6
BYLAYER
 62
     7
 10
1006.105802
 20
-71.266212
 30
0.0
 11
998.105802
 21
-71.266212
 31
0.0
  0
LINE
  8
0
  6
BYLAYER
 62
     7
 10
998.105802
 20
-79.266212
 30
0.0
 11
998.105802
 21
-71.266212
 31
0.0
  0
LINE
  8
0
  6
BYLAYER
 62
     7
 10
996.105802
 20
-91.266212
 30
0.0
 11
996.105802
 21
-99.266212
 31
0.0
  0
LINE
  8
0
  6
BYLAYER
 62
     7
 10
996.105802
 20
-99.266212
 30
0.0
 11
988.105802
 21
-99.266212
 31
0.0
  0
LINE
  8
0
  6
BYLAYER
 62
     7
 10
996.105802
 20
-91.266212
 30
0.0
 11
988.105802
 21
-91.266212
 31
0.0
  0
LINE
  8
0
  6
BYLAYER
 62
     7
 10
988.105802
 20
-99.266212
 30
0.0
 11
988.105802
 21
-91.266212
 31
0.0
  0
LINE
  8
0
  6
BYLAYER
 62
     7
 10
996.105802
 20
-81.266212
 30
0.0
 11
996.105802
 21
-89.266212
 31
0.0
  0
LINE
  8
0
  6
BYLAYER
 62
     7
 10
996.105802
 20
-89.266212
 30
0.0
 11
988.105802
 21
-89.266212
 31
0.0
  0
LINE
  8
0
  6
BYLAYER
 62
     7
 10
996.105802
 20
-81.266212
 30
0.0
 11
988.105802
 21
-81.266212
 31
0.0
  0
LINE
  8
0
  6
BYLAYER
 62
     7
 10
988.105802
 20
-89.266212
 30
0.0
 11
988.105802
 21
-81.266212
 31
0.0
  0
LINE
  8
0
  6
BYLAYER
 62
     7
 10
986.105802
 20
-91.266212
 30
0.0
 11
986.105802
 21
-99.266212
 31
0.0
  0
LINE
  8
0
  6
BYLAYER
 62
     7
 10
986.105802
 20
-99.266212
 30
0.0
 11
978.105802
 21
-99.266212
 31
0.0
  0
LINE
  8
0
  6
BYLAYER
 62
     7
 10
986.105802
 20
-91.266212
 30
0.0
 11
978.105802
 21
-91.266212
 31
0.0
  0
LINE
  8
0
  6
BYLAYER
 62
     7
 10
978.105802
 20
-99.266212
 30
0.0
 11
978.105802
 21
-91.266212
 31
0.0
  0
LINE
  8
0
  6
BYLAYER
 62
     7
 10
1026.105802
 20
-149.266212
 30
0.0
 11
1026.105802
 21
-141.266212
 31
0.0
  0
LINE
  8
0
  6
BYLAYER
 62
     7
 10
1026.105802
 20
-159.266212
 30
0.0
 11
1026.105802
 21
-151.266212
 31
0.0
  0
LINE
  8
0
  6
BYLAYER
 62
     7
 10
1018.105802
 20
-151.266212
 30
0.0
 11
1018.105802
 21
-159.266212
 31
0.0
  0
LINE
  8
0
  6
BYLAYER
 62
     7
 10
1016.105802
 20
-151.266212
 30
0.0
 11
1016.105802
 21
-159.266212
 31
0.0
  0
LINE
  8
0
  6
BYLAYER
 62
     7
 10
1026.105802
 20
-141.266212
 30
0.0
 11
1018.105802
 21
-141.266212
 31
0.0
  0
LINE
  8
0
  6
BYLAYER
 62
     7
 10
1026.105802
 20
-149.266212
 30
0.0
 11
1018.105802
 21
-149.266212
 31
0.0
  0
LINE
  8
0
  6
BYLAYER
 62
     7
 10
1016.105802
 20
-151.266212
 30
0.0
 11
1008.267803
 21
-151.266212
 31
0.0
  0
LINE
  8
0
  6
BYLAYER
 62
     7
 10
1026.105802
 20
-151.266212
 30
0.0
 11
1018.105802
 21
-151.266212
 31
0.0
  0
LINE
  8
0
  6
BYLAYER
 62
     7
 10
1016.105802
 20
-159.266212
 30
0.0
 11
1008.267803
 21
-159.266212
 31
0.0
  0
LINE
  8
0
  6
BYLAYER
 62
     7
 10
1026.105802
 20
-159.266212
 30
0.0
 11
1018.105802
 21
-159.266212
 31
0.0
  0
LINE
  8
0
  6
BYLAYER
 62
     7
 10
1008.267803
 20
-151.266212
 30
0.0
 11
1008.267803
 21
-159.266212
 31
0.0
  0
LINE
  8
0
  6
BYLAYER
 62
     7
 10
1018.105802
 20
-141.266212
 30
0.0
 11
1018.105802
 21
-149.266212
 31
0.0
  0
LINE
  8
0
  6
BYLAYER
 62
     7
 10
1016.105802
 20
-149.266212
 30
0.0
 11
1016.105802
 21
-141.266212
 31
0.0
  0
LINE
  8
0
  6
BYLAYER
 62
     7
 10
1016.105802
 20
-141.266212
 30
0.0
 11
1008.105802
 21
-141.266212
 31
0.0
  0
LINE
  8
0
  6
BYLAYER
 62
     7
 10
1016.105802
 20
-149.266212
 30
0.0
 11
1008.105802
 21
-149.266212
 31
0.0
  0
LINE
  8
0
  6
BYLAYER
 62
     7
 10
1008.105802
 20
-141.266212
 30
0.0
 11
1008.105802
 21
-149.266212
 31
0.0
  0
LINE
  8
0
  6
BYLAYER
 62
     7
 10
1006.105802
 20
-131.266212
 30
0.0
 11
998.105802
 21
-131.266212
 31
0.0
  0
LINE
  8
0
  6
BYLAYER
 62
     7
 10
1006.105802
 20
-149.266212
 30
0.0
 11
1006.105802
 21
-141.266212
 31
0.0
  0
LINE
  8
0
  6
BYLAYER
 62
     7
 10
1006.105802
 20
-139.266212
 30
0.0
 11
1006.105802
 21
-131.266212
 31
0.0
  0
LINE
  8
0
  6
BYLAYER
 62
     7
 10
1006.105802
 20
-139.266212
 30
0.0
 11
998.105802
 21
-139.266212
 31
0.0
  0
LINE
  8
0
  6
BYLAYER
 62
     7
 10
1006.105802
 20
-141.266212
 30
0.0
 11
998.105802
 21
-141.266212
 31
0.0
  0
LINE
  8
0
  6
BYLAYER
 62
     7
 10
1006.105802
 20
-149.266212
 30
0.0
 11
998.105802
 21
-149.266212
 31
0.0
  0
LINE
  8
0
  6
BYLAYER
 62
     7
 10
998.105802
 20
-131.266212
 30
0.0
 11
998.105802
 21
-139.266212
 31
0.0
  0
LINE
  8
0
  6
BYLAYER
 62
     7
 10
998.105802
 20
-141.266212
 30
0.0
 11
998.105802
 21
-149.266212
 31
0.0
  0
LINE
  8
0
  6
BYLAYER
 62
     7
 10
1006.105802
 20
-121.266212
 30
0.0
 11
998.105802
 21
-121.266212
 31
0.0
  0
LINE
  8
0
  6
BYLAYER
 62
     7
 10
1006.105802
 20
-129.266212
 30
0.0
 11
1006.105802
 21
-121.266212
 31
0.0
  0
LINE
  8
0
  6
BYLAYER
 62
     7
 10
1006.105802
 20
-129.266212
 30
0.0
 11
998.105802
 21
-129.266212
 31
0.0
  0
LINE
  8
0
  6
BYLAYER
 62
     7
 10
998.105802
 20
-121.266212
 30
0.0
 11
998.105802
 21
-129.266212
 31
0.0
  0
LINE
  8
0
  6
BYLAYER
 62
     7
 10
996.105802
 20
-131.266212
 30
0.0
 11
988.105802
 21
-131.266212
 31
0.0
  0
LINE
  8
0
  6
BYLAYER
 62
     7
 10
996.105802
 20
-139.266212
 30
0.0
 11
996.105802
 21
-131.266212
 31
0.0
  0
LINE
  8
0
  6
BYLAYER
 62
     7
 10
996.105802
 20
-139.266212
 30
0.0
 11
988.105802
 21
-139.266212
 31
0.0
  0
LINE
  8
0
  6
BYLAYER
 62
     7
 10
988.105802
 20
-131.266212
 30
0.0
 11
988.105802
 21
-139.266212
 31
0.0
  0
LINE
  8
0
  6
BYLAYER
 62
     7
 10
996.105802
 20
-121.266212
 30
0.0
 11
988.105802
 21
-121.266212
 31
0.0
  0
LINE
  8
0
  6
BYLAYER
 62
     7
 10
996.105802
 20
-129.266212
 30
0.0
 11
996.105802
 21
-121.266212
 31
0.0
  0
LINE
  8
0
  6
BYLAYER
 62
     7
 10
996.105802
 20
-129.266212
 30
0.0
 11
988.105802
 21
-129.266212
 31
0.0
  0
LINE
  8
0
  6
BYLAYER
 62
     7
 10
988.105802
 20
-121.266212
 30
0.0
 11
988.105802
 21
-129.266212
 31
0.0
  0
LINE
  8
0
  6
BYLAYER
 62
     7
 10
986.105802
 20
-131.266212
 30
0.0
 11
978.105802
 21
-131.266212
 31
0.0
  0
LINE
  8
0
  6
BYLAYER
 62
     7
 10
986.105802
 20
-139.266212
 30
0.0
 11
986.105802
 21
-131.266212
 31
0.0
  0
LINE
  8
0
  6
BYLAYER
 62
     7
 10
986.105802
 20
-139.266212
 30
0.0
 11
978.105802
 21
-139.266212
 31
0.0
  0
LINE
  8
0
  6
BYLAYER
 62
     7
 10
978.105802
 20
-131.266212
 30
0.0
 11
978.105802
 21
-139.266212
 31
0.0
  0
LINE
  8
0
  6
BYLAYER
 62
     7
 10
986.105802
 20
-121.266212
 30
0.0
 11
978.105802
 21
-121.266212
 31
0.0
  0
LINE
  8
0
  6
BYLAYER
 62
     7
 10
986.105802
 20
-129.266212
 30
0.0
 11
986.105802
 21
-121.266212
 31
0.0
  0
LINE
  8
0
  6
BYLAYER
 62
     7
 10
986.105802
 20
-129.266212
 30
0.0
 11
978.105802
 21
-129.266212
 31
0.0
  0
LINE
  8
0
  6
BYLAYER
 62
     7
 10
978.105802
 20
-121.266212
 30
0.0
 11
978.105802
 21
-129.266212
 31
0.0
  0
LINE
  8
0
  6
BYLAYER
 62
     7
 10
1026.105802
 20
-169.266212
 30
0.0
 11
1026.105802
 21
-161.266212
 31
0.0
  0
LINE
  8
0
  6
BYLAYER
 62
     7
 10
1018.105802
 20
-161.266212
 30
0.0
 11
1018.105802
 21
-169.266212
 31
0.0
  0
LINE
  8
0
  6
BYLAYER
 62
     7
 10
1016.105802
 20
-161.266212
 30
0.0
 11
1016.105802
 21
-169.266212
 31
0.0
  0
LINE
  8
0
  6
BYLAYER
 62
     7
 10
1016.105802
 20
-161.266212
 30
0.0
 11
1008.267803
 21
-161.266212
 31
0.0
  0
LINE
  8
0
  6
BYLAYER
 62
     7
 10
1026.105802
 20
-161.266212
 30
0.0
 11
1018.105802
 21
-161.266212
 31
0.0
  0
LINE
  8
0
  6
BYLAYER
 62
     7
 10
1016.105802
 20
-169.266212
 30
0.0
 11
1008.267803
 21
-169.266212
 31
0.0
  0
LINE
  8
0
  6
BYLAYER
 62
     7
 10
1026.105802
 20
-169.266212
 30
0.0
 11
1018.105802
 21
-169.266212
 31
0.0
  0
LINE
  8
0
  6
BYLAYER
 62
     7
 10
1008.267803
 20
-161.266212
 30
0.0
 11
1008.267803
 21
-169.266212
 31
0.0
  0
LINE
  8
0
  6
BYLAYER
 62
     7
 10
1006.105802
 20
-159.266212
 30
0.0
 11
1006.105802
 21
-151.266212
 31
0.0
  0
LINE
  8
0
  6
BYLAYER
 62
     7
 10
1006.105802
 20
-151.266212
 30
0.0
 11
998.105802
 21
-151.266212
 31
0.0
  0
LINE
  8
0
  6
BYLAYER
 62
     7
 10
1006.105802
 20
-159.266212
 30
0.0
 11
998.105802
 21
-159.266212
 31
0.0
  0
LINE
  8
0
  6
BYLAYER
 62
     7
 10
998.105802
 20
-151.266212
 30
0.0
 11
998.105802
 21
-159.266212
 31
0.0
  0
LINE
  8
0
  6
BYLAYER
 62
     7
 10
1006.105802
 20
-169.266212
 30
0.0
 11
1006.105802
 21
-161.266212
 31
0.0
  0
LINE
  8
0
  6
BYLAYER
 62
     7
 10
1006.105802
 20
-161.266212
 30
0.0
 11
998.105802
 21
-161.266212
 31
0.0
  0
LINE
  8
0
  6
BYLAYER
 62
     7
 10
1006.105802
 20
-169.266212
 30
0.0
 11
998.105802
 21
-169.266212
 31
0.0
  0
LINE
  8
0
  6
BYLAYER
 62
     7
 10
998.105802
 20
-161.266212
 30
0.0
 11
998.105802
 21
-169.266212
 31
0.0
  0
LINE
  8
0
  6
BYLAYER
 62
     7
 10
996.105802
 20
-149.266212
 30
0.0
 11
996.105802
 21
-141.266212
 31
0.0
  0
LINE
  8
0
  6
BYLAYER
 62
     7
 10
996.105802
 20
-141.266212
 30
0.0
 11
988.105802
 21
-141.266212
 31
0.0
  0
LINE
  8
0
  6
BYLAYER
 62
     7
 10
996.105802
 20
-149.266212
 30
0.0
 11
988.105802
 21
-149.266212
 31
0.0
  0
LINE
  8
0
  6
BYLAYER
 62
     7
 10
988.105802
 20
-141.266212
 30
0.0
 11
988.105802
 21
-149.266212
 31
0.0
  0
LINE
  8
0
  6
BYLAYER
 62
     7
 10
996.105802
 20
-159.266212
 30
0.0
 11
996.105802
 21
-151.266212
 31
0.0
  0
LINE
  8
0
  6
BYLAYER
 62
     7
 10
996.105802
 20
-151.266212
 30
0.0
 11
988.105802
 21
-151.266212
 31
0.0
  0
LINE
  8
0
  6
BYLAYER
 62
     7
 10
996.105802
 20
-159.266212
 30
0.0
 11
988.105802
 21
-159.266212
 31
0.0
  0
LINE
  8
0
  6
BYLAYER
 62
     7
 10
988.105802
 20
-151.266212
 30
0.0
 11
988.105802
 21
-159.266212
 31
0.0
  0
LINE
  8
0
  6
BYLAYER
 62
     7
 10
986.105802
 20
-149.266212
 30
0.0
 11
986.105802
 21
-141.266212
 31
0.0
  0
LINE
  8
0
  6
BYLAYER
 62
     7
 10
986.105802
 20
-141.266212
 30
0.0
 11
978.105802
 21
-141.266212
 31
0.0
  0
LINE
  8
0
  6
BYLAYER
 62
     7
 10
986.105802
 20
-149.266212
 30
0.0
 11
978.105802
 21
-149.266212
 31
0.0
  0
LINE
  8
0
  6
BYLAYER
 62
     7
 10
978.105802
 20
-141.266212
 30
0.0
 11
978.105802
 21
-149.266212
 31
0.0
  0
CIRCLE
  8
0
  6
BYLAYER
 62
     7
 10
1027.105802
 20
-120.266212
 30
0.0
 40
4.0
  0
ARC
  8
0
  6
BYLAYER
 62
     7
 10
1062.855802
 20
-21.766181
 30
0.0
 40
1.5
 50
180.000000
 51
265.219808
  0
ARC
  8
0
  6
BYLAYER
 62
     7
 10
991.355802
 20
-21.766181
 30
0.0
 40
1.500000
 50
274.780192
 51
360.000000
  0
ARC
  8
0
  6
BYLAYER
 62
     7
 10
999.351464
 20
-21.766181
 30
0.0
 40
1.500000
 50
270.0
 51
360.0
  0
LINE
  8
0
  6
BYLAYER
 62
     7
 10
1061.355802
 20
-21.766181
 30
0.0
 11
1061.355802
 21
-0.266181
 31
0.0
  0
LINE
  8
0
  6
BYLAYER
 62
     7
 10
1059.855802
 20
1.233819
 30
0.0
 11
994.355802
 21
1.233819
 31
0.0
  0
ARC
  8
0
  6
BYLAYER
 62
     7
 10
1059.855802
 20
-0.266181
 30
0.0
 40
1.500000
 50
0.0
 51
90.0
  0
ARC
  8
0
  6
BYLAYER
 62
     7
 10
994.355802
 20
-0.266181
 30
0.0
 40
1.500000
 50
90.0
 51
180.0
  0
LINE
  8
0
  6
BYLAYER
 62
     7
 10
992.855802
 20
-21.766181
 30
0.0
 11
992.855802
 21
-0.266181
 31
0.0
  0
LINE
  8
0
  6
BYLAYER
 62
     7
 10
1000.851464
 20
-21.766181
 30
0.0
 11
1000.851464
 21
-0.266181
 31
0.0
  0
ARC
  8
0
  6
BYLAYER
 62
     7
 10
1002.351464
 20
-0.266181
 30
0.0
 40
1.500000
 50
90.0
 51
180.0
  0
ARC
  8
0
  6
BYLAYER
 62
     7
 10
1051.860140
 20
-0.266181
 30
0.0
 40
1.500000
 50
0.0
 51
90.0
  0
LINE
  8
0
  6
BYLAYER
 62
     7
 10
1006.512149
 20
1.233819
 30
0.0
 11
1007.004696
 21
-12.870879
 31
0.0
  0
ARC
  8
0
  6
BYLAYER
 62
     7
 10
1010.002868
 20
-12.766181
 30
0.0
 40
3.0
 50
182.000000
 51
270.000000
  0
LINE
  8
0
  6
BYLAYER
 62
     7
 10
1017.206908
 20
-12.870879
 30
0.0
 11
1017.699455
 21
1.233819
 31
0.0
  0
ARC
  8
0
  6
BYLAYER
 62
     7
 10
1014.208736
 20
-12.766181
 30
0.0
 40
3.0
 50
270.0
 51
358.0
  0
LINE
  8
0
  6
BYLAYER
 62
     7
 10
1032.206908
 20
-12.870879
 30
0.0
 11
1032.699455
 21
1.233819
 31
0.0
  0
ARC
  8
0
  6
BYLAYER
 62
     7
 10
1029.208736
 20
-12.766181
 30
0.0
 40
3.0
 50
270.0
 51
358.0
  0
LINE
  8
0
  6
BYLAYER
 62
     7
 10
1047.206908
 20
-12.870879
 30
0.0
 11
1047.699455
 21
1.233819
 31
0.0
  0
ARC
  8
0
  6
BYLAYER
 62
     7
 10
1044.208736
 20
-12.766181
 30
0.0
 40
3.0
 50
270.0
 51
358.0
  0
LINE
  8
0
  6
BYLAYER
 62
     7
 10
1036.512149
 20
1.233819
 30
0.0
 11
1037.004696
 21
-12.870879
 31
0.0
  0
ARC
  8
0
  6
BYLAYER
 62
     7
 10
1040.002868
 20
-12.766181
 30
0.0
 40
3.0
 50
182.000000
 51
270.000000
  0
LINE
  8
0
  6
BYLAYER
 62
     7
 10
1021.512149
 20
1.233819
 30
0.0
 11
1022.004696
 21
-12.870879
 31
0.0
  0
ARC
  8
0
  6
BYLAYER
 62
     7
 10
1025.002868
 20
-12.766181
 30
0.0
 40
3.0
 50
182.000000
 51
270.000000
  0
LINE
  8
0
  6
BYLAYER
 62
     7
 10
1040.002868
 20
-15.766181
 30
0.0
 11
1044.208736
 21
-15.766181
 31
0.0
  0
LINE
  8
0
  6
BYLAYER
 62
     7
 10
1025.002868
 20
-15.766181
 30
0.0
 11
1029.208736
 21
-15.766181
 31
0.0
  0
LINE
  8
0
  6
BYLAYER
 62
     7
 10
1010.002868
 20
-15.766181
 30
0.0
 11
1014.208736
 21
-15.766181
 31
0.0
  0
LINE
  8
0
  6
BYLAYER
 62
     7
 10
1021.547070
 20
0.233819
 30
0.0
 11
1032.664534
 21
0.233819
 31
0.0
  0
LINE
  8
0
  6
BYLAYER
 62
     7
 10
1036.547070
 20
0.233819
 30
0.0
 11
1047.664534
 21
0.233819
 31
0.0
  0
LINE
  8
0
  6
BYLAYER
 62
     7
 10
1006.547070
 20
0.233819
 30
0.0
 11
1017.664534
 21
0.233819
 31
0.0
  0
LINE
  8
0
  6
BYLAYER
 62
     7
 10
1053.360140
 20
-0.266181
 30
0.0
 11
1053.360140
 21
-21.766181
 31
0.0
  0
ARC
  8
0
  6
BYLAYER
 62
     7
 10
991.605802
 20
-24.755746
 30
0.0
 40
1.500000
 50
94.780192
 51
180.000000
  0
LINE
  8
0
  6
BYLAYER
 62
     7
 10
991.605802
 20
-23.266181
 30
0.0
 11
1062.855802
 21
-23.266181
 31
0.0
  0
ARC
  8
0
  6
BYLAYER
 62
     7
 10
1062.605802
 20
-24.755746
 30
0.0
 40
1.5
 50
0.0
 51
85.219808
  0
LINE
  8
0
  6
BYLAYER
 62
     7
 10
1064.105802
 20
-32.266181
 30
0.0
 11
1064.105802
 21
-24.755746
 31
0.0
  0
ARC
  8
0
  6
BYLAYER
 62
     7
 10
1054.860140
 20
-21.766181
 30
0.0
 40
1.500000
 50
180.000000
 51
270.000000
  0
LINE
  8
0
  6
BYLAYER
 62
     7
 10
1064.105802
 20
-30.266120
 30
0.0
 11
990.105802
 21
-30.266120
 31
0.0
  0
LINE
  8
0
  6
BYLAYER
 62
     7
 10
990.105802
 20
-24.755746
 30
0.0
 11
990.105802
 21
-32.266181
 31
0.0
  0
LINE
  8
0
  6
BYLAYER
 62
     7
 10
990.105802
 20
-32.266181
 30
0.0
 11
1064.105802
 21
-32.266181
 31
0.0
  0
ARC
  8
0
  6
BYLAYER
 62
     7
 10
1027.105802
 20
-620.266212
 30
0.0
 40
60.000000
 50
48.590378
 51
131.409622
  0
ARC
  8
0
  6
BYLAYER
 62
     7
 10
1038.989581
 20
-551.789750
 30
0.0
 40
2.0
 50
194.999901
 51
260.154637
  0
ARC
  8
0
  6
BYLAYER
 62
     7
 10
1015.222023
 20
-551.789750
 30
0.0
 40
2.000000
 50
279.845363
 51
345.000099
  0
ARC
  8
0
  6
BYLAYER
 62
     7
 10
1027.105802
 20
-620.266212
 30
0.0
 40
77.5
 50
85.500437
 51
94.499563
  0
ARC
  8
0
  6
BYLAYER
 62
     7
 10
1021.182714
 20
-544.998908
 30
0.0
 40
2.0
 50
94.499563
 51
165.000096
  0
ARC
  8
0
  6
BYLAYER
 62
     7
 10
1033.028890
 20
-544.998908
 30
0.0
 40
2.0
 50
14.999904
 51
85.500437
  0
LINE
  8
0
  6
BYLAYER
 62
     7
 10
1102.866447
 20
-628.127662
 30
0.0
 11
1095.064629
 21
-630.218138
 31
0.0
  0
ARC
  8
0
  6
BYLAYER
 62
     7
 10
1095.582264
 20
-632.149991
 30
0.0
 40
2.0
 50
104.999901
 51
137.580925
  0
LINE
  8
0
  6
BYLAYER
 62
     7
 10
1095.064629
 20
-610.314286
 30
0.0
 11
1102.866447
 21
-612.404762
 31
0.0
  0
ARC
  8
0
  6
BYLAYER
 62
     7
 10
1095.582264
 20
-608.382433
 30
0.0
 40
2.0
 50
189.845363
 51
255.000099
  0
ARC
  8
0
  6
BYLAYER
 62
     7
 10
1027.105802
 20
-620.266212
 30
0.0
 40
77.5
 50
355.500437
 51
364.499563
  0
ARC
  8
0
  6
BYLAYER
 62
     7
 10
1102.373106
 20
-614.343124
 30
0.0
 40
2.000000
 50
4.499563
 51
75.000096
  0
ARC
  8
0
  6
BYLAYER
 62
     7
 10
1102.373106
 20
-626.189300
 30
0.0
 40
2.0
 50
284.999904
 51
355.500437
  0
LINE
  8
0
  6
BYLAYER
 62
     7
 10
951.345157
 20
-612.404762
 30
0.0
 11
959.146975
 21
-610.314286
 31
0.0
  0
LINE
  8
0
  6
BYLAYER
 62
     7
 10
960.105802
 20
-630.475054
 30
0.0
 11
951.345157
 21
-628.127662
 31
0.0
  0
ARC
  8
0
  6
BYLAYER
 62
     7
 10
1027.105802
 20
-620.266212
 30
0.0
 40
77.5
 50
175.500437
 51
184.499563
  0
ARC
  8
0
  6
BYLAYER
 62
     7
 10
951.838498
 20
-626.189300
 30
0.0
 40
2.0
 50
184.499563
 51
255.000096
  0
ARC
  8
0
  6
BYLAYER
 62
     7
 10
951.838498
 20
-614.343124
 30
0.0
 40
2.000000
 50
104.999904
 51
175.500437
  0
ARC
  8
0
  6
BYLAYER
 62
     7
 10
1027.105802
 20
-620.266212
 30
0.0
 40
67.500000
 50
41.810315
 51
80.154637
  0
ARC
  8
0
  6
BYLAYER
 62
     7
 10
1027.105802
 20
-620.266212
 30
0.0
 40
67.500000
 50
99.845363
 51
138.189685
  0
ARC
  8
0
  6
BYLAYER
 62
     7
 10
958.629340
 20
-608.382433
 30
0.0
 40
2.0
 50
284.999901
 51
350.154637
  0
LINE
  8
0
  6
BYLAYER
 62
     7
 10
1034.967252
 20
-544.505567
 30
0.0
 11
1037.057728
 21
-552.307385
 31
0.0
  0
LINE
  8
0
  6
BYLAYER
 62
     7
 10
1019.244352
 20
-544.505567
 30
0.0
 11
1017.153876
 21
-552.307385
 31
0.0
  0
LINE
  8
0
  6
BYLAYER
 62
     7
 10
990.105802
 20
-532.266181
 30
0.0
 11
990.105802
 21
-558.253767
 31
0.0
  0
LINE
  8
0
  6
BYLAYER
 62
     7
 10
1064.105802
 20
-532.266181
 30
0.0
 11
1064.105802
 21
-558.266151
 31
0.0
  0
ARC
  8
0
  6
BYLAYER
 62
     7
 10
1063.605802
 20
-558.266151
 30
0.0
 40
0.500000
 50
270.0
 51
360.0
  0
LINE
  8
0
  6
BYLAYER
 62
     7
 10
990.105802
 20
-536.766181
 30
0.0
 11
993.105802
 21
-541.962318
 31
0.0
  0
LINE
  8
0
  6
BYLAYER
 62
     7
 10
1064.105802
 20
-536.766181
 30
0.0
 11
1061.105802
 21
-541.962318
 31
0.0
  0
LINE
  8
0
  6
BYLAYER
 62
     7
 10
993.105802
 20
-541.962318
 30
0.0
 11
993.105802
 21
-561.954549
 31
0.0
  0
LINE
  8
0
  6
BYLAYER
 62
     7
 10
1061.105802
 20
-541.962318
 30
0.0
 11
1061.105802
 21
-561.954549
 31
0.0
  0
ARC
  8
0
  6
BYLAYER
 62
     7
 10
990.605741
 20
-558.266120
 30
0.0
 40
0.500092
 50
180.000000
 51
269.999999
  0
LINE
  8
0
  6
BYLAYER
 62
     7
 10
1061.605802
 20
-558.766151
 30
0.0
 11
1063.605802
 21
-558.766151
 31
0.0
  0
ARC
  8
0
  6
BYLAYER
 62
     7
 10
1061.605802
 20
-559.266151
 30
0.0
 40
0.500000
 50
90.0
 51
180.0
  0
LINE
  8
0
  6
BYLAYER
 62
     7
 10
990.605741
 20
-558.766212
 30
0.0
 11
992.605802
 21
-558.766212
 31
0.0
  0
ARC
  8
0
  6
BYLAYER
 62
     7
 10
992.605802
 20
-559.266212
 30
0.0
 40
0.500000
 50
0.0
 51
90.0
  0
LINE
  8
0
  6
BYLAYER
 62
     7
 10
1101.440799
 20
-601.461685
 30
0.0
 11
1092.105802
 21
-601.135693
 31
0.0
  0
ARC
  8
0
  6
BYLAYER
 62
     7
 10
1101.412879
 20
-602.261190
 30
0.0
 40
0.799993
 50
272.000089
 51
447.999955
  0
LINE
  8
0
  6
BYLAYER
 62
     7
 10
1092.458051
 20
-603.374394
 30
0.0
 11
1101.440800
 21
-603.060696
 31
0.0
  0
LINE
  8
0
  6
BYLAYER
 62
     7
 10
1097.457416
 20
-589.461685
 30
0.0
 11
1092.105802
 21
-589.274798
 31
0.0
  0
ARC
  8
0
  6
BYLAYER
 62
     7
 10
1097.429496
 20
-590.261190
 30
0.0
 40
0.799993
 50
272.000089
 51
447.999955
  0
LINE
  8
0
  6
BYLAYER
 62
     7
 10
1092.105802
 20
-591.247587
 30
0.0
 11
1097.457417
 21
-591.060696
 31
0.0
  0
LINE
  8
0
  6
BYLAYER
 62
     7
 10
1099.781781
 20
-599.248491
 30
0.0
 11
1092.105802
 21
-598.980440
 31
0.0
  0
LINE
  8
0
  6
BYLAYER
 62
     7
 10
1101.018412
 20
-605.281843
 30
0.0
 11
1092.984838
 21
-605.562382
 31
0.0
  0
LINE
  8
0
  6
BYLAYER
 62
     7
 10
952.617221
 20
-642.220490
 30
0.0
 11
960.105802
 21
-642.481985
 31
0.0
  0
LINE
  8
0
  6
BYLAYER
 62
     7
 10
960.105802
 20
-633.903558
 30
0.0
 11
950.948680
 21
-634.223327
 31
0.0
  0
ARC
  8
0
  6
BYLAYER
 62
     7
 10
950.966130
 20
-634.723023
 30
0.0
 40
0.500000
 50
91.999973
 51
190.750924
  0
LINE
  8
0
  6
BYLAYER
 62
     7
 10
952.770805
 20
-601.461685
 30
0.0
 11
962.105802
 21
-601.135693
 31
0.0
  0
ARC
  8
0
  6
BYLAYER
 62
     7
 10
952.798725
 20
-602.261190
 30
0.0
 40
0.799993
 50
92.000045
 51
267.999911
  0
LINE
  8
0
  6
BYLAYER
 62
     7
 10
961.753553
 20
-603.374394
 30
0.0
 11
952.770805
 21
-603.060696
 31
0.0
  0
LINE
  8
0
  6
BYLAYER
 62
     7
 10
956.754189
 20
-589.461685
 30
0.0
 11
962.105802
 21
-589.274798
 31
0.0
  0
ARC
  8
0
  6
BYLAYER
 62
     7
 10
956.782109
 20
-590.261190
 30
0.0
 40
0.799993
 50
92.000045
 51
267.999911
  0
LINE
  8
0
  6
BYLAYER
 62
     7
 10
962.105802
 20
-591.247587
 30
0.0
 11
956.754188
 21
-591.060696
 31
0.0
  0
LINE
  8
0
  6
BYLAYER
 62
     7
 10
954.167512
 20
-599.257651
 30
0.0
 11
962.105802
 21
-598.980440
 31
0.0
  0
ARC
  8
0
  6
BYLAYER
 62
     7
 10
954.184962
 20
-599.757347
 30
0.0
 40
0.5
 50
92.000000
 51
164.291450
  0
LINE
  8
0
  6
BYLAYER
 62
     7
 10
961.226766
 20
-605.562382
 30
0.0
 11
952.939637
 21
-605.272989
 31
0.0
  0
LINE
  8
0
  6
BYLAYER
 62
     7
 10
952.770805
 20
-639.070678
 30
0.0
 11
960.105802
 21
-639.326827
 31
0.0
  0
ARC
  8
0
  6
BYLAYER
 62
     7
 10
952.798725
 20
-638.271172
 30
0.0
 40
0.799993
 50
92.000089
 51
267.999955
  0
LINE
  8
0
  6
BYLAYER
 62
     7
 10
960.105802
 20
-637.215512
 30
0.0
 11
952.770805
 21
-637.471667
 31
0.0
  0
LINE
  8
0
  6
BYLAYER
 62
     7
 10
956.754189
 20
-651.070678
 30
0.0
 11
960.105802
 21
-651.187721
 31
0.0
  0
ARC
  8
0
  6
BYLAYER
 62
     7
 10
956.782109
 20
-650.271172
 30
0.0
 40
0.799993
 50
92.000089
 51
267.999955
  0
LINE
  8
0
  6
BYLAYER
 62
     7
 10
960.105802
 20
-649.354621
 30
0.0
 11
956.754188
 21
-649.471667
 31
0.0
  0
ARC
  8
0
  6
BYLAYER
 62
     7
 10
1027.105802
 20
-620.266181
 30
0.0
 40
78.000000
 50
190.750924
 51
196.071322
  0
ARC
  8
0
  6
BYLAYER
 62
     7
 10
952.634670
 20
-641.720794
 30
0.0
 40
0.500000
 50
196.071322
 51
268.000088
  0
LINE
  8
0
  6
BYLAYER
 62
     7
 10
1101.594384
 20
-642.220490
 30
0.0
 11
1094.105802
 21
-642.481985
 31
0.0
  0
LINE
  8
0
  6
BYLAYER
 62
     7
 10
1094.105802
 20
-633.903558
 30
0.0
 11
1103.262924
 21
-634.223327
 31
0.0
  0
LINE
  8
0
  6
BYLAYER
 62
     7
 10
1101.440799
 20
-639.070678
 30
0.0
 11
1094.105802
 21
-639.326827
 31
0.0
  0
ARC
  8
0
  6
BYLAYER
 62
     7
 10
1101.412879
 20
-638.271172
 30
0.0
 40
0.799993
 50
272.000045
 51
447.999911
  0
LINE
  8
0
  6
BYLAYER
 62
     7
 10
1094.105802
 20
-637.215512
 30
0.0
 11
1101.440800
 21
-637.471667
 31
0.0
  0
LINE
  8
0
  6
BYLAYER
 62
     7
 10
1097.457416
 20
-651.070678
 30
0.0
 11
1094.105802
 21
-651.187721
 31
0.0
  0
ARC
  8
0
  6
BYLAYER
 62
     7
 10
1097.429496
 20
-650.271172
 30
0.0
 40
0.799993
 50
272.000045
 51
447.999911
  0
LINE
  8
0
  6
BYLAYER
 62
     7
 10
1094.105802
 20
-649.354621
 30
0.0
 11
1097.457417
 21
-649.471667
 31
0.0
  0
ARC
  8
0
  6
BYLAYER
 62
     7
 10
1027.105802
 20
-620.266181
 30
0.0
 40
78.000000
 50
343.928678
 51
349.249076
  0
ARC
  8
0
  6
BYLAYER
 62
     7
 10
1101.576935
 20
-641.720794
 30
0.0
 40
0.500000
 50
271.999912
 51
343.928678
  0
ARC
  8
0
  6
BYLAYER
 62
     7
 10
1103.245475
 20
-634.723023
 30
0.0
 40
0.500000
 50
349.249076
 51
448.000027
  0
LINE
  8
0
  6
BYLAYER
 62
     7
 10
973.792870
 20
-564.716676
 30
0.0
 11
989.569330
 21
-564.165737
 31
0.0
  0
ARC
  8
0
  6
BYLAYER
 62
     7
 10
973.820790
 20
-565.516181
 30
0.0
 40
0.799993
 50
92.000045
 51
267.999911
  0
LINE
  8
0
  6
BYLAYER
 62
     7
 10
985.979987
 20
-566.741289
 30
0.0
 11
973.792870
 21
-566.315687
 31
0.0
  0
LINE
  8
0
  6
BYLAYER
 62
     7
 10
1080.418734
 20
-564.716676
 30
0.0
 11
1064.642274
 21
-564.165737
 31
0.0
  0
ARC
  8
0
  6
BYLAYER
 62
     7
 10
1080.390814
 20
-565.516181
 30
0.0
 40
0.799993
 50
272.000089
 51
447.999955
  0
LINE
  8
0
  6
BYLAYER
 62
     7
 10
1068.231617
 20
-566.741289
 30
0.0
 11
1080.418735
 21
-566.315687
 31
0.0
  0
ARC
  8
0
  6
BYLAYER
 62
     7
 10
1027.105802
 20
-620.266212
 30
0.0
 40
76.250000
 50
166.960502
 51
168.198190
  0
ARC
  8
0
  6
BYLAYER
 62
     7
 10
1027.105802
 20
-620.266212
 30
0.0
 40
76.250000
 50
164.291450
 51
165.710577
  0
ARC
  8
0
  6
BYLAYER
 62
     7
 10
952.957087
 20
-604.773294
 30
0.0
 40
0.500000
 50
168.198190
 51
268.000000
  0
ARC
  8
0
  6
BYLAYER
 62
     7
 10
1100.026643
 20
-599.757347
 30
0.0
 40
0.5
 50
15.708550
 51
88.000000
  0
ARC
  8
0
  6
BYLAYER
 62
     7
 10
1027.105802
 20
-620.266212
 30
0.0
 40
76.250000
 50
11.801810
 51
13.039498
  0
ARC
  8
0
  6
BYLAYER
 62
     7
 10
1027.105802
 20
-620.266212
 30
0.0
 40
76.250000
 50
14.289423
 51
15.708550
  0
ARC
  8
0
  6
BYLAYER
 62
     7
 10
1101.254518
 20
-604.773294
 30
0.0
 40
0.500000
 50
272.000000
 51
371.801810
  0
LINE
  8
0
  6
BYLAYER
 62
     7
 10
1064.105802
 20
-532.266120
 30
0.0
 11
990.105802
 21
-532.266120
 31
0.0
  0
ARC
  8
0
  6
BYLAYER
 62
     7
 10
1027.105802
 20
-620.266212
 30
0.0
 40
79.25
 50
117.831764
 51
207.959312
  0
ARC
  8
0
  6
BYLAYER
 62
     7
 10
1062.855802
 20
-521.766181
 30
0.0
 40
1.5
 50
180.000000
 51
265.219808
  0
ARC
  8
0
  6
BYLAYER
 62
     7
 10
991.355802
 20
-521.766181
 30
0.0
 40
1.500000
 50
274.780192
 51
360.0
  0
ARC
  8
0
  6
BYLAYER
 62
     7
 10
999.351464
 20
-521.766181
 30
0.0
 40
1.5
 50
270.0
 51
360.0
  0
LINE
  8
0
  6
BYLAYER
 62
     7
 10
1061.355802
 20
-521.766181
 30
0.0
 11
1061.355802
 21
-500.266181
 31
0.0
  0
LINE
  8
0
  6
BYLAYER
 62
     7
 10
1059.855802
 20
-498.766181
 30
0.0
 11
994.355802
 21
-498.766181
 31
0.0
  0
ARC
  8
0
  6
BYLAYER
 62
     7
 10
1059.855802
 20
-500.266181
 30
0.0
 40
1.5
 50
0.0
 51
90.0
  0
ARC
  8
0
  6
BYLAYER
 62
     7
 10
994.355802
 20
-500.266181
 30
0.0
 40
1.5
 50
90.0
 51
180.0
  0
LINE
  8
0
  6
BYLAYER
 62
     7
 10
992.855802
 20
-521.766181
 30
0.0
 11
992.855802
 21
-500.266181
 31
0.0
  0
LINE
  8
0
  6
BYLAYER
 62
     7
 10
1000.851464
 20
-521.766181
 30
0.0
 11
1000.851464
 21
-500.266181
 31
0.0
  0
ARC
  8
0
  6
BYLAYER
 62
     7
 10
1002.351464
 20
-500.266181
 30
0.0
 40
1.5
 50
90.0
 51
180.0
  0
ARC
  8
0
  6
BYLAYER
 62
     7
 10
1051.860140
 20
-500.266181
 30
0.0
 40
1.5
 50
0.0
 51
90.0
  0
LINE
  8
0
  6
BYLAYER
 62
     7
 10
1006.512149
 20
-498.766181
 30
0.0
 11
1007.004696
 21
-512.870879
 31
0.0
  0
ARC
  8
0
  6
BYLAYER
 62
     7
 10
1010.002868
 20
-512.766181
 30
0.0
 40
3.0
 50
182.000000
 51
270.000000
  0
LINE
  8
0
  6
BYLAYER
 62
     7
 10
1017.206908
 20
-512.870879
 30
0.0
 11
1017.699455
 21
-498.766181
 31
0.0
  0
ARC
  8
0
  6
BYLAYER
 62
     7
 10
1014.208736
 20
-512.766181
 30
0.0
 40
3.0
 50
270.0
 51
358.0
  0
LINE
  8
0
  6
BYLAYER
 62
     7
 10
1032.206908
 20
-512.870879
 30
0.0
 11
1032.699455
 21
-498.766181
 31
0.0
  0
ARC
  8
0
  6
BYLAYER
 62
     7
 10
1029.208736
 20
-512.766181
 30
0.0
 40
3.0
 50
270.0
 51
358.0
  0
LINE
  8
0
  6
BYLAYER
 62
     7
 10
1047.206908
 20
-512.870879
 30
0.0
 11
1047.699455
 21
-498.766181
 31
0.0
  0
ARC
  8
0
  6
BYLAYER
 62
     7
 10
1044.208736
 20
-512.766181
 30
0.0
 40
3.0
 50
270.0
 51
358.0
  0
LINE
  8
0
  6
BYLAYER
 62
     7
 10
1036.512149
 20
-498.766181
 30
0.0
 11
1037.004696
 21
-512.870879
 31
0.0
  0
ARC
  8
0
  6
BYLAYER
 62
     7
 10
1040.002868
 20
-512.766181
 30
0.0
 40
3.0
 50
182.000000
 51
270.000000
  0
LINE
  8
0
  6
BYLAYER
 62
     7
 10
1021.512149
 20
-498.766181
 30
0.0
 11
1022.004696
 21
-512.870879
 31
0.0
  0
ARC
  8
0
  6
BYLAYER
 62
     7
 10
1025.002868
 20
-512.766181
 30
0.0
 40
3.0
 50
182.000000
 51
270.000000
  0
LINE
  8
0
  6
BYLAYER
 62
     7
 10
1040.002868
 20
-515.766181
 30
0.0
 11
1044.208736
 21
-515.766181
 31
0.0
  0
LINE
  8
0
  6
BYLAYER
 62
     7
 10
1025.002868
 20
-515.766181
 30
0.0
 11
1029.208736
 21
-515.766181
 31
0.0
  0
LINE
  8
0
  6
BYLAYER
 62
     7
 10
1010.002868
 20
-515.766181
 30
0.0
 11
1014.208736
 21
-515.766181
 31
0.0
  0
LINE
  8
0
  6
BYLAYER
 62
     7
 10
1021.547070
 20
-499.766181
 30
0.0
 11
1032.664534
 21
-499.766181
 31
0.0
  0
LINE
  8
0
  6
BYLAYER
 62
     7
 10
1036.547070
 20
-499.766181
 30
0.0
 11
1047.664534
 21
-499.766181
 31
0.0
  0
LINE
  8
0
  6
BYLAYER
 62
     7
 10
1006.547070
 20
-499.766181
 30
0.0
 11
1017.664534
 21
-499.766181
 31
0.0
  0
LINE
  8
0
  6
BYLAYER
 62
     7
 10
1053.360140
 20
-500.266181
 30
0.0
 11
1053.360140
 21
-521.766181
 31
0.0
  0
ARC
  8
0
  6
BYLAYER
 62
     7
 10
991.605802
 20
-524.755746
 30
0.0
 40
1.500000
 50
94.780192
 51
180.000000
  0
LINE
  8
0
  6
BYLAYER
 62
     7
 10
991.605802
 20
-523.266181
 30
0.0
 11
1062.855802
 21
-523.266181
 31
0.0
  0
ARC
  8
0
  6
BYLAYER
 62
     7
 10
1062.605802
 20
-524.755746
 30
0.0
 40
1.5
 50
0.0
 51
85.219808
  0
LINE
  8
0
  6
BYLAYER
 62
     7
 10
1064.105802
 20
-532.266181
 30
0.0
 11
1064.105802
 21
-524.755746
 31
0.0
  0
ARC
  8
0
  6
BYLAYER
 62
     7
 10
1054.860140
 20
-521.766181
 30
0.0
 40
1.5
 50
180.000000
 51
270.000000
  0
LINE
  8
0
  6
BYLAYER
 62
     7
 10
1064.105802
 20
-530.266120
 30
0.0
 11
990.105802
 21
-530.266120
 31
0.0
  0
LINE
  8
0
  6
BYLAYER
 62
     7
 10
990.105802
 20
-524.755746
 30
0.0
 11
990.105802
 21
-532.266181
 31
0.0
  0
LINE
  8
0
  6
BYLAYER
 62
     7
 10
990.105802
 20
-532.266181
 30
0.0
 11
1064.105802
 21
-532.266181
 31
0.0
  0
ARC
  8
0
  6
BYLAYER
 62
     7
 10
1027.105802
 20
-620.266212
 30
0.0
 40
79.25
 50
332.040688
 51
422.168236
  0
ARC
  8
0
  6
BYLAYER
 62
     7
 10
1027.105802
 20
-620.266212
 30
0.0
 40
65.290000
 50
43.569397
 51
124.520593
  0
ARC
  8
0
  6
BYLAYER
 62
     7
 10
1027.105802
 20
-620.266212
 30
0.0
 40
65.290000
 50
124.520593
 51
136.430603
  0
ARC
  8
0
  6
BYLAYER
 62
     7
 10
1027.105802
 20
-620.266212
 30
0.0
 40
67.500000
 50
164.357529
 51
170.154637
  0
ARC
  8
0
  6
BYLAYER
 62
     7
 10
1027.105802
 20
-620.266212
 30
0.0
 40
65.290000
 50
175.129049
 51
188.733782
  0
ARC
  8
0
  6
BYLAYER
 62
     7
 10
1027.105802
 20
-620.266212
 30
0.0
 40
67.5
 50
9.845363
 51
15.274430
  0
ARC
  8
0
  6
BYLAYER
 62
     7
 10
1027.105802
 20
-620.266212
 30
0.0
 40
65.290000
 50
351.266218
 51
364.832616
  0
LINE
  8
0
  6
BYLAYER
 62
     1
 10
406.605802
 20
-650.266214
 30
0.0
 11
406.605802
 21
-710.266212
 31
0.0
  0
ARC
  8
0
  6
BYLAYER
 62
     1
 10
394.605802
 20
-666.799018
 30
0.0
 40
1.999988
 50
281.000195
 51
360.0
  0
LINE
  8
0
  6
BYLAYER
 62
     1
 10
396.605802
 20
-652.688209
 30
0.0
 11
396.605802
 21
-710.266212
 31
0.0
  0
LINE
  8
0
  6
BYLAYER
 62
     1
 10
382.105802
 20
-671.266197
 30
0.0
 11
394.987424
 21
-668.762260
 31
0.0
  0
LINE
  8
0
  6
BYLAYER
 62
     1
 10
396.605802
 20
-652.688209
 30
0.0
 11
383.272916
 21
-671.039329
 31
0.0
  0
LINE
  8
0
  6
BYLAYER
 62
     1
 10
382.105802
 20
-671.266197
 30
0.0
 11
382.105802
 21
-710.266212
 31
0.0
  0
LINE
  8
0
  6
BYLAYER
 62
     1
 10
398.501127
 20
-650.690956
 30
0.0
 11
406.605802
 21
-650.266214
 31
0.0
  0
ARC
  8
0
  6
BYLAYER
 62
     1
 10
398.605802
 20
-652.688209
 30
0.0
 40
2.000000
 50
93.000097
 51
180.000000
  0
LINE
  8
0
  6
BYLAYER
 62
     1
 10
406.605802
 20
-770.266210
 30
0.0
 11
406.605802
 21
-710.266212
 31
0.0
  0
ARC
  8
0
  6
BYLAYER
 62
     1
 10
394.605802
 20
-753.733406
 30
0.0
 40
1.999988
 50
0.0
 51
78.999805
  0
LINE
  8
0
  6
BYLAYER
 62
     1
 10
396.605802
 20
-767.844215
 30
0.0
 11
396.605802
 21
-710.266212
 31
0.0
  0
LINE
  8
0
  6
BYLAYER
 62
     1
 10
382.105802
 20
-749.266227
 30
0.0
 11
394.987424
 21
-751.770164
 31
0.0
  0
LINE
  8
0
  6
BYLAYER
 62
     1
 10
396.605802
 20
-767.844215
 30
0.0
 11
383.272916
 21
-749.493095
 31
0.0
  0
LINE
  8
0
  6
BYLAYER
 62
     1
 10
382.105802
 20
-749.266227
 30
0.0
 11
382.105802
 21
-710.266212
 31
0.0
  0
LINE
  8
0
  6
BYLAYER
 62
     1
 10
398.501127
 20
-769.841468
 30
0.0
 11
406.605802
 21
-770.266210
 31
0.0
  0
ARC
  8
0
  6
BYLAYER
 62
     1
 10
398.605802
 20
-767.844215
 30
0.0
 40
2.000000
 50
180.000000
 51
266.999903
  0
ENDSEC
  0
EOF
