  0
SECTION
  2
HEADER
  9
$EXTMIN
 10
190.034130
 20
870.0
 30
0.0
  9
$EXTMAX
 10
1175.836177
 20
0.0
 30
0.0
  0
ENDSEC
  0
SECTION
  2
TABLES
  0
ENDSEC
  0
SECTION
  2
BLOCKS
  0
ENDSEC
  0
SECTION
  2
ENTITIES
  0
LINE
  8
0
  6
BYLAYER
 62
     7
 10
470.428328
 20
-257.481233
 30
0.0
 11
440.928328
 21
-257.996151
 31
0.0
  0
LINE
  8
0
  6
BYLAYER
 62
     7
 10
470.428328
 20
-245.533601
 30
0.0
 11
470.428328
 21
-257.481233
 31
0.0
  0
LINE
  8
0
  6
BYLAYER
 62
     7
 10
472.928328
 20
-61.481233
 30
0.0
 11
441.910876
 21
-60.939821
 31
0.0
  0
ARC
  8
0
  6
BYLAYER
 62
     7
 10
441.928328
 20
-59.939973
 30
0.0
 40
1.000000
 50
180.000000
 51
269.000015
  0
LINE
  8
0
  6
BYLAYER
 62
     7
 10
472.928328
 20
-245.481233
 30
0.0
 11
470.428328
 21
-245.524873
 31
0.0
  0
LINE
  8
0
  6
BYLAYER
 62
     7
 10
426.428328
 20
-153.481229
 30
0.0
 11
426.428328
 21
-29.481233
 31
0.0
  0
ARC
  8
0
  6
BYLAYER
 62
     7
 10
427.428328
 20
-29.481233
 30
0.0
 40
1.000000
 50
90.0
 51
179.999996
  0
LINE
  8
0
  6
BYLAYER
 62
     7
 10
427.428328
 20
-28.481233
 30
0.0
 11
439.928328
 21
-28.481233
 31
0.0
  0
LINE
  8
0
  6
BYLAYER
 62
     7
 10
440.928328
 20
-29.481233
 30
0.0
 11
440.928328
 21
-153.481229
 31
0.0
  0
ARC
  8
0
  6
BYLAYER
 62
     7
 10
439.928328
 20
-29.481233
 30
0.0
 40
1.000000
 50
0.0
 51
89.999999
  0
LINE
  8
0
  6
BYLAYER
 62
     7
 10
426.428328
 20
-153.481229
 30
0.0
 11
426.428328
 21
-277.481233
 31
0.0
  0
ARC
  8
0
  6
BYLAYER
 62
     7
 10
427.428328
 20
-277.481233
 30
0.0
 40
1.0
 50
180.000000
 51
270.000003
  0
LINE
  8
0
  6
BYLAYER
 62
     7
 10
427.428328
 20
-278.481233
 30
0.0
 11
439.928328
 21
-278.481233
 31
0.0
  0
LINE
  8
0
  6
BYLAYER
 62
     7
 10
440.928328
 20
-277.481233
 30
0.0
 11
440.928328
 21
-153.481229
 31
0.0
  0
ARC
  8
0
  6
BYLAYER
 62
     7
 10
439.928328
 20
-277.481233
 30
0.0
 40
1.0
 50
270.0
 51
360.000003
  0
LINE
  8
0
  6
BYLAYER
 62
     7
 10
472.928328
 20
-245.481233
 30
0.0
 11
472.928328
 21
-61.481229
 31
0.0
  0
ARC
  8
0
  6
BYLAYER
 62
     7
 10
506.928328
 20
-51.481748
 30
0.0
 40
13.0
 50
180.000019
 51
360.000018
  0
ARC
  8
0
  6
BYLAYER
 62
     7
 10
545.928328
 20
-51.481748
 30
0.0
 40
13.000000
 50
180.000019
 51
360.000018
  0
LINE
  8
0
  6
BYLAYER
 62
     7
 10
477.428328
 20
-42.981748
 30
0.0
 11
491.928328
 21
-42.981748
 31
0.0
  0
LINE
  8
0
  6
BYLAYER
 62
     7
 10
493.928328
 20
-51.481748
 30
0.0
 11
493.928328
 21
-44.981748
 31
0.0
  0
ARC
  8
0
  6
BYLAYER
 62
     7
 10
491.928328
 20
-44.981748
 30
0.0
 40
2.0
 50
0.0
 51
90.000003
  0
LINE
  8
0
  6
BYLAYER
 62
     7
 10
519.928328
 20
-51.481748
 30
0.0
 11
519.928328
 21
-44.981748
 31
0.0
  0
ARC
  8
0
  6
BYLAYER
 62
     7
 10
521.928328
 20
-44.981748
 30
0.0
 40
2.0
 50
90.0
 51
180.000003
  0
LINE
  8
0
  6
BYLAYER
 62
     7
 10
521.928328
 20
-42.981748
 30
0.0
 11
530.928328
 21
-42.981748
 31
0.0
  0
LINE
  8
0
  6
BYLAYER
 62
     7
 10
532.928328
 20
-51.481748
 30
0.0
 11
532.928328
 21
-44.981748
 31
0.0
  0
ARC
  8
0
  6
BYLAYER
 62
     7
 10
530.928328
 20
-44.981748
 30
0.0
 40
2.0
 50
0.0
 51
90.000003
  0
LINE
  8
0
  6
BYLAYER
 62
     7
 10
558.928328
 20
-51.481748
 30
0.0
 11
558.928328
 21
-44.981748
 31
0.0
  0
LINE
  8
0
  6
BYLAYER
 62
     7
 10
560.928358
 20
-42.981748
 30
0.0
 11
575.428358
 21
-42.981748
 31
0.0
  0
ARC
  8
0
  6
BYLAYER
 62
     7
 10
560.928358
 20
-44.981748
 30
0.0
 40
2.000031
 50
90.0
 51
180.000003
  0
ARC
  8
0
  6
BYLAYER
 62
     7
 10
478.428328
 20
-136.131223
 30
0.0
 40
1.0
 50
90.0
 51
180.000003
  0
ARC
  8
0
  6
BYLAYER
 62
     7
 10
478.428328
 20
-136.131223
 30
0.0
 40
1.0
 50
180.000000
 51
269.999996
  0
ARC
  8
0
  6
BYLAYER
 62
     7
 10
478.428328
 20
-123.431241
 30
0.0
 40
1.0
 50
90.0
 51
180.000003
  0
ARC
  8
0
  6
BYLAYER
 62
     7
 10
478.428328
 20
-123.431241
 30
0.0
 40
1.0
 50
180.000000
 51
269.999996
  0
ARC
  8
0
  6
BYLAYER
 62
     7
 10
478.428328
 20
-110.731229
 30
0.0
 40
1.0
 50
90.0
 51
180.000003
  0
ARC
  8
0
  6
BYLAYER
 62
     7
 10
478.428328
 20
-110.731229
 30
0.0
 40
1.0
 50
180.000000
 51
269.999996
  0
ARC
  8
0
  6
BYLAYER
 62
     7
 10
478.428328
 20
-98.031217
 30
0.0
 40
1.0
 50
90.0
 51
180.000003
  0
ARC
  8
0
  6
BYLAYER
 62
     7
 10
478.428328
 20
-98.031217
 30
0.0
 40
1.0
 50
180.000000
 51
269.999996
  0
ARC
  8
0
  6
BYLAYER
 62
     7
 10
478.428328
 20
-85.331235
 30
0.0
 40
1.0
 50
90.0
 51
180.000003
  0
ARC
  8
0
  6
BYLAYER
 62
     7
 10
478.428328
 20
-85.331235
 30
0.0
 40
1.0
 50
180.000000
 51
269.999996
  0
LINE
  8
0
  6
BYLAYER
 62
     7
 10
575.428358
 20
-84.331235
 30
0.0
 11
575.428358
 21
-37.481748
 31
0.0
  0
ARC
  8
0
  6
BYLAYER
 62
     7
 10
478.428328
 20
-170.831235
 30
0.0
 40
1.0
 50
180.000000
 51
270.000009
  0
ARC
  8
0
  6
BYLAYER
 62
     7
 10
478.428328
 20
-170.831235
 30
0.0
 40
1.000000
 50
90.0
 51
179.999989
  0
ARC
  8
0
  6
BYLAYER
 62
     7
 10
478.428328
 20
-183.531217
 30
0.0
 40
1.0
 50
180.000000
 51
270.000009
  0
ARC
  8
0
  6
BYLAYER
 62
     7
 10
478.428328
 20
-183.531217
 30
0.0
 40
1.000000
 50
90.0
 51
179.999989
  0
ARC
  8
0
  6
BYLAYER
 62
     7
 10
478.428328
 20
-196.231229
 30
0.0
 40
1.0
 50
180.000000
 51
270.000009
  0
ARC
  8
0
  6
BYLAYER
 62
     7
 10
478.428328
 20
-196.231229
 30
0.0
 40
1.000000
 50
90.0
 51
179.999989
  0
ARC
  8
0
  6
BYLAYER
 62
     7
 10
478.428328
 20
-208.931211
 30
0.0
 40
1.0
 50
180.000000
 51
270.000009
  0
ARC
  8
0
  6
BYLAYER
 62
     7
 10
478.428328
 20
-208.931211
 30
0.0
 40
1.000000
 50
90.0
 51
179.999989
  0
ARC
  8
0
  6
BYLAYER
 62
     7
 10
478.428328
 20
-221.631223
 30
0.0
 40
1.0
 50
180.000000
 51
270.000009
  0
ARC
  8
0
  6
BYLAYER
 62
     7
 10
478.428328
 20
-221.631223
 30
0.0
 40
1.0
 50
90.0
 51
179.999989
  0
LINE
  8
0
  6
BYLAYER
 62
     7
 10
478.428328
 20
-195.231229
 30
0.0
 11
645.906996
 21
-195.231229
 31
0.0
  0
LINE
  8
0
  6
BYLAYER
 62
     7
 10
478.428328
 20
-197.231229
 30
0.0
 11
645.906996
 21
-197.231229
 31
0.0
  0
LINE
  8
0
  6
BYLAYER
 62
     7
 10
478.428328
 20
-122.431241
 30
0.0
 11
530.866591
 21
-122.431241
 31
0.0
  0
LINE
  8
0
  6
BYLAYER
 62
     7
 10
478.428328
 20
-124.431241
 30
0.0
 11
530.866591
 21
-124.431241
 31
0.0
  0
LINE
  8
0
  6
BYLAYER
 62
     7
 10
535.990065
 20
-122.431241
 30
0.0
 11
585.866591
 21
-122.431241
 31
0.0
  0
LINE
  8
0
  6
BYLAYER
 62
     7
 10
535.990065
 20
-124.431241
 30
0.0
 11
585.866591
 21
-124.431241
 31
0.0
  0
ARC
  8
0
  6
BYLAYER
 62
     7
 10
533.428328
 20
-123.431241
 30
0.0
 40
2.750000
 50
21.323692
 51
158.676305
  0
ARC
  8
0
  6
BYLAYER
 62
     7
 10
588.428328
 20
-123.431241
 30
0.0
 40
2.75
 50
21.323692
 51
158.676305
  0
ARC
  8
0
  6
BYLAYER
 62
     7
 10
533.428328
 20
-123.431241
 30
0.0
 40
2.75
 50
201.323692
 51
338.676296
  0
ARC
  8
0
  6
BYLAYER
 62
     7
 10
588.428328
 20
-123.431241
 30
0.0
 40
2.75
 50
201.323692
 51
338.676296
  0
LINE
  8
0
  6
BYLAYER
 62
     7
 10
477.428328
 20
-61.481260
 30
0.0
 11
472.928328
 21
-61.481260
 31
0.0
  0
LINE
  8
0
  6
BYLAYER
 62
     7
 10
483.428328
 20
-224.300107
 30
0.0
 11
477.428328
 21
-226.920499
 31
0.0
  0
LINE
  8
0
  6
BYLAYER
 62
     7
 10
477.428328
 20
-245.481229
 30
0.0
 11
477.428328
 21
-37.481748
 31
0.0
  0
LINE
  8
0
  6
BYLAYER
 62
     7
 10
472.928328
 20
-245.481229
 30
0.0
 11
477.428328
 21
-245.481229
 31
0.0
  0
LINE
  8
0
  6
BYLAYER
 62
     7
 10
477.428328
 20
-226.920499
 30
0.0
 11
480.788466
 21
-235.016141
 31
0.0
  0
ARC
  8
0
  6
BYLAYER
 62
     7
 10
483.097487
 20
-234.057767
 30
0.0
 40
2.500012
 50
202.541214
 51
270.000001
  0
LINE
  8
0
  6
BYLAYER
 62
     7
 10
477.428328
 20
-231.318937
 30
0.0
 11
480.911238
 21
-243.543973
 31
0.0
  0
ARC
  8
0
  6
BYLAYER
 62
     7
 10
483.315566
 20
-242.858976
 30
0.0
 40
2.500002
 50
195.902352
 51
270.000001
  0
LINE
  8
0
  6
BYLAYER
 62
     7
 10
477.428328
 20
-238.406553
 30
0.0
 11
480.878828
 21
-249.405973
 31
0.0
  0
ARC
  8
0
  6
BYLAYER
 62
     7
 10
483.264204
 20
-248.657682
 30
0.0
 40
2.499992
 50
197.416605
 51
270.000001
  0
ARC
  8
0
  6
BYLAYER
 62
     7
 10
483.368788
 20
-252.332029
 30
0.0
 40
2.499992
 50
197.416605
 51
270.000001
  0
LINE
  8
0
  6
BYLAYER
 62
     7
 10
477.428328
 20
-245.481229
 30
0.0
 11
480.696913
 21
-254.900815
 31
0.0
  0
ARC
  8
0
  6
BYLAYER
 62
     7
 10
483.058760
 20
-254.081266
 30
0.0
 40
2.499996
 50
199.136528
 51
270.000001
  0
LINE
  8
0
  6
BYLAYER
 62
     7
 10
480.983412
 20
-253.080320
 30
0.0
 11
477.428328
 21
-241.747526
 31
0.0
  0
ARC
  8
0
  6
BYLAYER
 62
     7
 10
482.428328
 20
-136.131223
 30
0.0
 40
1.0
 50
90.0
 51
180.000003
  0
ARC
  8
0
  6
BYLAYER
 62
     7
 10
482.428328
 20
-136.131223
 30
0.0
 40
1.0
 50
180.000000
 51
269.999996
  0
ARC
  8
0
  6
BYLAYER
 62
     7
 10
482.428328
 20
-170.831235
 30
0.0
 40
1.0
 50
180.000000
 51
270.000009
  0
ARC
  8
0
  6
BYLAYER
 62
     7
 10
482.428328
 20
-170.831235
 30
0.0
 40
1.000000
 50
90.0
 51
179.999989
  0
ARC
  8
0
  6
BYLAYER
 62
     7
 10
482.428328
 20
-183.531217
 30
0.0
 40
1.0
 50
180.000000
 51
270.000009
  0
ARC
  8
0
  6
BYLAYER
 62
     7
 10
482.428328
 20
-183.531217
 30
0.0
 40
1.0
 50
90.0
 51
179.999989
  0
ARC
  8
0
  6
BYLAYER
 62
     7
 10
482.428328
 20
-196.231229
 30
0.0
 40
1.0
 50
180.000000
 51
270.000009
  0
ARC
  8
0
  6
BYLAYER
 62
     7
 10
482.428328
 20
-196.231229
 30
0.0
 40
1.0
 50
90.0
 51
179.999989
  0
ARC
  8
0
  6
BYLAYER
 62
     7
 10
482.428328
 20
-208.931211
 30
0.0
 40
1.0
 50
180.000000
 51
270.000009
  0
ARC
  8
0
  6
BYLAYER
 62
     7
 10
482.428328
 20
-208.931211
 30
0.0
 40
1.0
 50
90.0
 51
179.999989
  0
ARC
  8
0
  6
BYLAYER
 62
     7
 10
482.428328
 20
-221.631223
 30
0.0
 40
1.0
 50
180.000000
 51
270.000009
  0
ARC
  8
0
  6
BYLAYER
 62
     7
 10
482.428328
 20
-221.631223
 30
0.0
 40
1.0
 50
90.0
 51
179.999989
  0
ARC
  8
0
  6
BYLAYER
 62
     7
 10
482.428328
 20
-123.431241
 30
0.0
 40
1.0
 50
90.0
 51
180.000003
  0
ARC
  8
0
  6
BYLAYER
 62
     7
 10
482.428328
 20
-123.431241
 30
0.0
 40
1.0
 50
180.000000
 51
269.999996
  0
ARC
  8
0
  6
BYLAYER
 62
     7
 10
482.428328
 20
-110.731229
 30
0.0
 40
1.0
 50
90.0
 51
180.000003
  0
ARC
  8
0
  6
BYLAYER
 62
     7
 10
482.428328
 20
-110.731229
 30
0.0
 40
1.0
 50
180.000000
 51
269.999996
  0
ARC
  8
0
  6
BYLAYER
 62
     7
 10
482.428328
 20
-98.031217
 30
0.0
 40
1.0
 50
90.0
 51
180.000003
  0
ARC
  8
0
  6
BYLAYER
 62
     7
 10
482.428328
 20
-98.031217
 30
0.0
 40
1.0
 50
180.000000
 51
269.999996
  0
ARC
  8
0
  6
BYLAYER
 62
     7
 10
482.428328
 20
-85.331235
 30
0.0
 40
1.0
 50
90.0
 51
180.000003
  0
ARC
  8
0
  6
BYLAYER
 62
     7
 10
482.428328
 20
-85.331235
 30
0.0
 40
1.0
 50
180.000000
 51
269.999996
  0
LINE
  8
0
  6
BYLAYER
 62
     7
 10
483.928328
 20
-220.631223
 30
0.0
 11
483.928328
 21
-209.931211
 31
0.0
  0
LINE
  8
0
  6
BYLAYER
 62
     7
 10
483.928328
 20
-207.931211
 30
0.0
 11
483.928328
 21
-197.231229
 31
0.0
  0
LINE
  8
0
  6
BYLAYER
 62
     7
 10
483.928328
 20
-195.231229
 30
0.0
 11
483.928328
 21
-184.531217
 31
0.0
  0
LINE
  8
0
  6
BYLAYER
 62
     7
 10
483.928328
 20
-169.831235
 30
0.0
 11
483.928328
 21
-159.131253
 31
0.0
  0
LINE
  8
0
  6
BYLAYER
 62
     7
 10
483.928328
 20
-182.531217
 30
0.0
 11
483.928328
 21
-171.831235
 31
0.0
  0
LINE
  8
0
  6
BYLAYER
 62
     7
 10
483.928328
 20
-149.831205
 30
0.0
 11
483.928328
 21
-153.481229
 31
0.0
  0
LINE
  8
0
  6
BYLAYER
 62
     7
 10
483.928328
 20
-157.131253
 30
0.0
 11
483.928328
 21
-153.481229
 31
0.0
  0
LINE
  8
0
  6
BYLAYER
 62
     7
 10
483.928328
 20
-137.131223
 30
0.0
 11
483.928328
 21
-147.831205
 31
0.0
  0
LINE
  8
0
  6
BYLAYER
 62
     7
 10
483.928328
 20
-124.431241
 30
0.0
 11
483.928328
 21
-135.131223
 31
0.0
  0
LINE
  8
0
  6
BYLAYER
 62
     7
 10
483.928328
 20
-111.731229
 30
0.0
 11
483.928328
 21
-122.431241
 31
0.0
  0
LINE
  8
0
  6
BYLAYER
 62
     7
 10
483.928328
 20
-99.031217
 30
0.0
 11
483.928328
 21
-109.731229
 31
0.0
  0
LINE
  8
0
  6
BYLAYER
 62
     7
 10
483.928328
 20
-86.331235
 30
0.0
 11
483.928328
 21
-97.031217
 31
0.0
  0
LINE
  8
0
  6
BYLAYER
 62
     7
 10
472.928328
 20
-245.481229
 30
0.0
 11
472.928328
 21
-61.481260
 31
0.0
  0
LINE
  8
0
  6
BYLAYER
 62
     7
 10
575.428358
 20
-48.481748
 30
0.0
 11
645.906996
 21
-48.481609
 31
0.0
  0
LINE
  8
0
  6
BYLAYER
 62
     7
 10
575.428358
 20
-51.481748
 30
0.0
 11
645.906996
 21
-51.481608
 31
0.0
  0
LINE
  8
0
  6
BYLAYER
 62
     7
 10
575.428358
 20
-55.481748
 30
0.0
 11
645.906996
 21
-55.481609
 31
0.0
  0
LINE
  8
0
  6
BYLAYER
 62
     7
 10
575.428358
 20
-61.481687
 30
0.0
 11
645.906996
 21
-61.481687
 31
0.0
  0
LINE
  8
0
  6
BYLAYER
 62
     7
 10
478.428328
 20
-84.331235
 30
0.0
 11
645.906996
 21
-84.331235
 31
0.0
  0
LINE
  8
0
  6
BYLAYER
 62
     7
 10
478.428328
 20
-86.331235
 30
0.0
 11
645.906996
 21
-86.331235
 31
0.0
  0
LINE
  8
0
  6
BYLAYER
 62
     7
 10
478.428328
 20
-97.031217
 30
0.0
 11
645.906996
 21
-97.031217
 31
0.0
  0
LINE
  8
0
  6
BYLAYER
 62
     7
 10
478.428328
 20
-99.031217
 30
0.0
 11
645.906996
 21
-99.031217
 31
0.0
  0
LINE
  8
0
  6
BYLAYER
 62
     7
 10
478.428328
 20
-109.731229
 30
0.0
 11
645.906996
 21
-109.731229
 31
0.0
  0
LINE
  8
0
  6
BYLAYER
 62
     7
 10
478.428328
 20
-111.731229
 30
0.0
 11
645.906996
 21
-111.731229
 31
0.0
  0
LINE
  8
0
  6
BYLAYER
 62
     7
 10
590.990065
 20
-122.431241
 30
0.0
 11
645.906996
 21
-122.431241
 31
0.0
  0
LINE
  8
0
  6
BYLAYER
 62
     7
 10
590.990065
 20
-124.431241
 30
0.0
 11
645.906996
 21
-124.431241
 31
0.0
  0
LINE
  8
0
  6
BYLAYER
 62
     7
 10
478.428328
 20
-135.131223
 30
0.0
 11
645.906996
 21
-135.131223
 31
0.0
  0
LINE
  8
0
  6
BYLAYER
 62
     7
 10
478.428328
 20
-137.131223
 30
0.0
 11
645.906996
 21
-137.131223
 31
0.0
  0
LINE
  8
0
  6
BYLAYER
 62
     7
 10
478.428328
 20
-169.831235
 30
0.0
 11
645.906996
 21
-169.831235
 31
0.0
  0
LINE
  8
0
  6
BYLAYER
 62
     7
 10
478.428328
 20
-171.831235
 30
0.0
 11
645.906996
 21
-171.831235
 31
0.0
  0
LINE
  8
0
  6
BYLAYER
 62
     7
 10
478.428328
 20
-182.531217
 30
0.0
 11
645.906996
 21
-182.531217
 31
0.0
  0
LINE
  8
0
  6
BYLAYER
 62
     7
 10
478.428328
 20
-184.531217
 30
0.0
 11
645.906996
 21
-184.531217
 31
0.0
  0
LINE
  8
0
  6
BYLAYER
 62
     7
 10
478.428328
 20
-207.931211
 30
0.0
 11
645.906996
 21
-207.931211
 31
0.0
  0
LINE
  8
0
  6
BYLAYER
 62
     7
 10
478.428328
 20
-209.931211
 30
0.0
 11
645.906996
 21
-209.931211
 31
0.0
  0
LINE
  8
0
  6
BYLAYER
 62
     7
 10
478.428328
 20
-220.631223
 30
0.0
 11
645.906996
 21
-220.631223
 31
0.0
  0
LINE
  8
0
  6
BYLAYER
 62
     7
 10
478.428328
 20
-222.631223
 30
0.0
 11
645.906996
 21
-222.631223
 31
0.0
  0
LINE
  8
0
  6
BYLAYER
 62
     7
 10
483.428328
 20
-224.300107
 30
0.0
 11
645.906996
 21
-224.300107
 31
0.0
  0
LINE
  8
0
  6
BYLAYER
 62
     7
 10
483.097487
 20
-236.557767
 30
0.0
 11
645.906996
 21
-236.557767
 31
0.0
  0
LINE
  8
0
  6
BYLAYER
 62
     7
 10
483.315566
 20
-245.358976
 30
0.0
 11
645.906996
 21
-245.358976
 31
0.0
  0
LINE
  8
0
  6
BYLAYER
 62
     7
 10
483.264204
 20
-251.157682
 30
0.0
 11
645.906996
 21
-251.157682
 31
0.0
  0
LINE
  8
0
  6
BYLAYER
 62
     7
 10
483.368788
 20
-254.832029
 30
0.0
 11
645.906996
 21
-254.832029
 31
0.0
  0
LINE
  8
0
  6
BYLAYER
 62
     7
 10
483.058760
 20
-256.581266
 30
0.0
 11
645.906996
 21
-256.581266
 31
0.0
  0
ARC
  8
0
  6
BYLAYER
 62
     7
 10
478.428328
 20
-148.831205
 30
0.0
 40
1.0
 50
180.000000
 51
270.000003
  0
ARC
  8
0
  6
BYLAYER
 62
     7
 10
478.428328
 20
-148.831205
 30
0.0
 40
1.0
 50
90.0
 51
179.999996
  0
ARC
  8
0
  6
BYLAYER
 62
     7
 10
482.428328
 20
-148.831205
 30
0.0
 40
1.0
 50
180.000000
 51
270.000003
  0
ARC
  8
0
  6
BYLAYER
 62
     7
 10
482.428328
 20
-148.831205
 30
0.0
 40
1.0
 50
90.0
 51
179.999996
  0
LINE
  8
0
  6
BYLAYER
 62
     7
 10
590.990065
 20
-149.831205
 30
0.0
 11
645.906996
 21
-149.831205
 31
0.0
  0
LINE
  8
0
  6
BYLAYER
 62
     7
 10
590.990065
 20
-147.831205
 30
0.0
 11
645.906996
 21
-147.831205
 31
0.0
  0
LINE
  8
0
  6
BYLAYER
 62
     7
 10
478.428328
 20
-147.831205
 30
0.0
 11
590.990065
 21
-147.831205
 31
0.0
  0
LINE
  8
0
  6
BYLAYER
 62
     7
 10
478.428328
 20
-149.831205
 30
0.0
 11
590.990065
 21
-149.831205
 31
0.0
  0
ARC
  8
0
  6
BYLAYER
 62
     7
 10
478.428328
 20
-158.131253
 30
0.0
 40
1.000000
 50
90.0
 51
180.000003
  0
ARC
  8
0
  6
BYLAYER
 62
     7
 10
478.428328
 20
-158.131253
 30
0.0
 40
1.0
 50
180.000000
 51
269.999996
  0
ARC
  8
0
  6
BYLAYER
 62
     7
 10
482.428328
 20
-158.131253
 30
0.0
 40
1.000000
 50
90.0
 51
180.000003
  0
ARC
  8
0
  6
BYLAYER
 62
     7
 10
482.428328
 20
-158.131253
 30
0.0
 40
1.0
 50
180.000000
 51
269.999996
  0
LINE
  8
0
  6
BYLAYER
 62
     7
 10
590.990065
 20
-157.131253
 30
0.0
 11
645.906996
 21
-157.131253
 31
0.0
  0
LINE
  8
0
  6
BYLAYER
 62
     7
 10
590.990065
 20
-159.131253
 30
0.0
 11
645.906996
 21
-159.131253
 31
0.0
  0
LINE
  8
0
  6
BYLAYER
 62
     7
 10
478.428328
 20
-159.131253
 30
0.0
 11
590.990065
 21
-159.131253
 31
0.0
  0
LINE
  8
0
  6
BYLAYER
 62
     7
 10
478.428328
 20
-157.131253
 30
0.0
 11
590.990065
 21
-157.131253
 31
0.0
  0
LINE
  8
0
  6
BYLAYER
 62
     7
 10
645.906996
 20
-48.081778
 30
0.0
 11
645.906996
 21
-153.481229
 31
0.0
  0
LINE
  8
0
  6
BYLAYER
 62
     7
 10
645.906996
 20
-153.481229
 30
0.0
 11
645.906996
 21
-258.881778
 31
0.0
  0
LINE
  8
0
  6
BYLAYER
 62
     7
 10
729.506996
 20
-48.081778
 30
0.0
 11
645.906996
 21
-48.081778
 31
0.0
  0
LINE
  8
0
  6
BYLAYER
 62
     7
 10
645.906996
 20
-258.881778
 30
0.0
 11
729.506996
 21
-258.881778
 31
0.0
  0
LINE
  8
0
  6
BYLAYER
 62
     7
 10
750.906996
 20
-237.481778
 30
0.0
 11
750.906996
 21
-69.481778
 31
0.0
  0
LINE
  8
0
  6
BYLAYER
 62
     7
 10
729.506996
 20
-258.881778
 30
0.0
 11
750.906996
 21
-237.481778
 31
0.0
  0
LINE
  8
0
  6
BYLAYER
 62
     7
 10
750.906996
 20
-69.481778
 30
0.0
 11
729.506996
 21
-48.081778
 31
0.0
  0
LINE
  8
0
  6
BYLAYER
 62
     7
 10
569.928328
 20
-26.981748
 30
0.0
 11
569.928328
 21
-5.481748
 31
0.0
  0
ARC
  8
0
  6
BYLAYER
 62
     7
 10
571.428328
 20
-26.981748
 30
0.0
 40
1.5
 50
180.000000
 51
270.000000
  0
ARC
  8
0
  6
BYLAYER
 62
     7
 10
568.428328
 20
-5.481748
 30
0.0
 40
1.5
 50
0.0
 51
90.0
  0
LINE
  8
0
  6
BYLAYER
 62
     7
 10
482.928328
 20
-26.981748
 30
0.0
 11
482.928328
 21
-5.481748
 31
0.0
  0
ARC
  8
0
  6
BYLAYER
 62
     7
 10
481.428328
 20
-26.981748
 30
0.0
 40
1.5
 50
270.0
 51
360.0
  0
ARC
  8
0
  6
BYLAYER
 62
     7
 10
484.428328
 20
-5.481748
 30
0.0
 40
1.5
 50
90.0
 51
180.0
  0
LINE
  8
0
  6
BYLAYER
 62
     7
 10
484.428328
 20
-3.981748
 30
0.0
 11
568.428328
 21
-3.981748
 31
0.0
  0
LINE
  8
0
  6
BYLAYER
 62
     7
 10
488.300569
 20
-26.981748
 30
0.0
 11
488.300569
 21
-5.481748
 31
0.0
  0
ARC
  8
0
  6
BYLAYER
 62
     7
 10
486.800569
 20
-26.981748
 30
0.0
 40
1.5
 50
270.0
 51
360.0
  0
ARC
  8
0
  6
BYLAYER
 62
     7
 10
489.800569
 20
-5.481748
 30
0.0
 40
1.5
 50
90.0
 51
180.0
  0
LINE
  8
0
  6
BYLAYER
 62
     7
 10
564.556087
 20
-26.981748
 30
0.0
 11
564.556087
 21
-5.481748
 31
0.0
  0
ARC
  8
0
  6
BYLAYER
 62
     7
 10
566.056087
 20
-26.981748
 30
0.0
 40
1.5
 50
180.000000
 51
270.000000
  0
ARC
  8
0
  6
BYLAYER
 62
     7
 10
563.056087
 20
-5.481748
 30
0.0
 40
1.5
 50
0.0
 51
90.0
  0
LINE
  8
0
  6
BYLAYER
 62
     7
 10
526.428328
 20
-28.481748
 30
0.0
 11
573.928328
 21
-28.481748
 31
0.0
  0
ARC
  8
0
  6
BYLAYER
 62
     7
 10
573.928328
 20
-29.981748
 30
0.0
 40
1.5
 50
0.0
 51
90.0
  0
LINE
  8
0
  6
BYLAYER
 62
     7
 10
575.428328
 20
-37.481748
 30
0.0
 11
575.428328
 21
-29.981748
 31
0.0
  0
LINE
  8
0
  6
BYLAYER
 62
     7
 10
478.928328
 20
-28.481748
 30
0.0
 11
526.428328
 21
-28.481748
 31
0.0
  0
ARC
  8
0
  6
BYLAYER
 62
     7
 10
478.928328
 20
-29.981748
 30
0.0
 40
1.5
 50
90.0
 51
180.0
  0
LINE
  8
0
  6
BYLAYER
 62
     7
 10
477.428328
 20
-35.481748
 30
0.0
 11
477.428328
 21
-29.981748
 31
0.0
  0
LINE
  8
0
  6
BYLAYER
 62
     7
 10
575.428328
 20
-35.481748
 30
0.0
 11
477.428328
 21
-35.481748
 31
0.0
  0
LINE
  8
0
  6
BYLAYER
 62
     7
 10
477.428328
 20
-35.481748
 30
0.0
 11
477.428328
 21
-37.481748
 31
0.0
  0
LINE
  8
0
  6
BYLAYER
 62
     7
 10
477.428328
 20
-37.481748
 30
0.0
 11
575.428328
 21
-37.481748
 31
0.0
  0
LINE
  8
0
  6
BYLAYER
 62
     7
 10
729.506996
 20
-258.881778
 30
0.0
 11
729.506996
 21
-48.081778
 31
0.0
  0
LINE
  8
0
  6
BYLAYER
 62
     7
 10
472.928328
 20
-651.481233
 30
0.0
 11
441.910876
 21
-650.939821
 31
0.0
  0
ARC
  8
0
  6
BYLAYER
 62
     7
 10
441.928328
 20
-649.939973
 30
0.0
 40
1.000000
 50
180.000000
 51
269.000015
  0
LINE
  8
0
  6
BYLAYER
 62
     7
 10
426.428328
 20
-743.481229
 30
0.0
 11
426.428328
 21
-619.481233
 31
0.0
  0
ARC
  8
0
  6
BYLAYER
 62
     7
 10
427.428328
 20
-619.481233
 30
0.0
 40
1.000000
 50
90.0
 51
179.999996
  0
LINE
  8
0
  6
BYLAYER
 62
     7
 10
427.428328
 20
-618.481233
 30
0.0
 11
439.928328
 21
-618.481233
 31
0.0
  0
LINE
  8
0
  6
BYLAYER
 62
     7
 10
440.928328
 20
-619.481233
 30
0.0
 11
440.928328
 21
-743.481229
 31
0.0
  0
ARC
  8
0
  6
BYLAYER
 62
     7
 10
439.928328
 20
-619.481233
 30
0.0
 40
1.000000
 50
0.0
 51
89.999999
  0
LINE
  8
0
  6
BYLAYER
 62
     7
 10
472.928328
 20
-743.481229
 30
0.0
 11
472.928328
 21
-651.481229
 31
0.0
  0
LINE
  8
0
  6
BYLAYER
 62
     7
 10
472.928328
 20
-835.481225
 30
0.0
 11
441.910876
 21
-836.022637
 31
0.0
  0
ARC
  8
0
  6
BYLAYER
 62
     7
 10
441.928328
 20
-837.022485
 30
0.0
 40
1.000000
 50
90.999990
 51
180.000005
  0
LINE
  8
0
  6
BYLAYER
 62
     7
 10
426.428328
 20
-743.481229
 30
0.0
 11
426.428328
 21
-867.481225
 31
0.0
  0
ARC
  8
0
  6
BYLAYER
 62
     7
 10
427.428328
 20
-867.481225
 30
0.0
 40
1.0
 50
180.000000
 51
269.999996
  0
LINE
  8
0
  6
BYLAYER
 62
     7
 10
427.428328
 20
-868.481225
 30
0.0
 11
439.928328
 21
-868.481225
 31
0.0
  0
LINE
  8
0
  6
BYLAYER
 62
     7
 10
440.928328
 20
-867.481225
 30
0.0
 11
440.928328
 21
-743.481229
 31
0.0
  0
ARC
  8
0
  6
BYLAYER
 62
     7
 10
439.928328
 20
-867.481225
 30
0.0
 40
1.0
 50
270.0
 51
359.999999
  0
LINE
  8
0
  6
BYLAYER
 62
     7
 10
472.928328
 20
-743.481229
 30
0.0
 11
472.928328
 21
-835.481229
 31
0.0
  0
ARC
  8
0
  6
BYLAYER
 62
     7
 10
478.428328
 20
-798.931211
 30
0.0
 40
1.0
 50
180.000000
 51
270.000009
  0
ARC
  8
0
  6
BYLAYER
 62
     7
 10
478.428328
 20
-798.931211
 30
0.0
 40
1.000000
 50
90.0
 51
179.999989
  0
ARC
  8
0
  6
BYLAYER
 62
     7
 10
478.428328
 20
-811.631223
 30
0.0
 40
1.0
 50
180.000000
 51
270.000009
  0
ARC
  8
0
  6
BYLAYER
 62
     7
 10
478.428328
 20
-811.631223
 30
0.0
 40
1.000000
 50
90.0
 51
179.999989
  0
LINE
  8
0
  6
BYLAYER
 62
     7
 10
575.428328
 20
-785.231229
 30
0.0
 11
645.906996
 21
-785.231229
 31
0.0
  0
LINE
  8
0
  6
BYLAYER
 62
     7
 10
575.428328
 20
-787.231229
 30
0.0
 11
645.906996
 21
-787.231229
 31
0.0
  0
LINE
  8
0
  6
BYLAYER
 62
     7
 10
483.428328
 20
-814.300107
 30
0.0
 11
477.428328
 21
-816.920499
 31
0.0
  0
LINE
  8
0
  6
BYLAYER
 62
     7
 10
477.428328
 20
-835.481229
 30
0.0
 11
477.428328
 21
-743.481229
 31
0.0
  0
LINE
  8
0
  6
BYLAYER
 62
     7
 10
472.928328
 20
-835.481229
 30
0.0
 11
477.428328
 21
-835.481229
 31
0.0
  0
LINE
  8
0
  6
BYLAYER
 62
     7
 10
477.428328
 20
-816.920499
 30
0.0
 11
480.788466
 21
-825.016141
 31
0.0
  0
ARC
  8
0
  6
BYLAYER
 62
     7
 10
483.097487
 20
-824.057767
 30
0.0
 40
2.500012
 50
202.541214
 51
270.000001
  0
LINE
  8
0
  6
BYLAYER
 62
     7
 10
477.428328
 20
-821.318937
 30
0.0
 11
480.911238
 21
-833.543973
 31
0.0
  0
ARC
  8
0
  6
BYLAYER
 62
     7
 10
483.315566
 20
-832.858976
 30
0.0
 40
2.500002
 50
195.902352
 51
270.000001
  0
LINE
  8
0
  6
BYLAYER
 62
     7
 10
477.428328
 20
-828.406553
 30
0.0
 11
480.878828
 21
-839.405973
 31
0.0
  0
ARC
  8
0
  6
BYLAYER
 62
     7
 10
483.264204
 20
-838.657682
 30
0.0
 40
2.499992
 50
197.416605
 51
270.000001
  0
ARC
  8
0
  6
BYLAYER
 62
     7
 10
483.368788
 20
-842.332029
 30
0.0
 40
2.499992
 50
197.416605
 51
270.000001
  0
LINE
  8
0
  6
BYLAYER
 62
     7
 10
477.428328
 20
-835.481229
 30
0.0
 11
480.696913
 21
-844.900815
 31
0.0
  0
ARC
  8
0
  6
BYLAYER
 62
     7
 10
483.058760
 20
-844.081266
 30
0.0
 40
2.499996
 50
199.136528
 51
270.000001
  0
LINE
  8
0
  6
BYLAYER
 62
     7
 10
480.983412
 20
-843.080320
 30
0.0
 11
477.428328
 21
-831.747526
 31
0.0
  0
ARC
  8
0
  6
BYLAYER
 62
     7
 10
482.428328
 20
-798.931211
 30
0.0
 40
1.0
 50
180.000000
 51
270.000009
  0
ARC
  8
0
  6
BYLAYER
 62
     7
 10
482.428328
 20
-798.931211
 30
0.0
 40
1.000000
 50
90.0
 51
179.999989
  0
ARC
  8
0
  6
BYLAYER
 62
     7
 10
482.428328
 20
-811.631223
 30
0.0
 40
1.0
 50
180.000000
 51
270.000009
  0
ARC
  8
0
  6
BYLAYER
 62
     7
 10
482.428328
 20
-811.631223
 30
0.0
 40
1.000000
 50
90.0
 51
179.999989
  0
LINE
  8
0
  6
BYLAYER
 62
     7
 10
483.928328
 20
-810.631223
 30
0.0
 11
483.928328
 21
-799.931211
 31
0.0
  0
LINE
  8
0
  6
BYLAYER
 62
     7
 10
483.928328
 20
-797.931211
 30
0.0
 11
483.928328
 21
-792.481229
 31
0.0
  0
LINE
  8
0
  6
BYLAYER
 62
     7
 10
472.928328
 20
-835.481229
 30
0.0
 11
472.928328
 21
-743.481229
 31
0.0
  0
LINE
  8
0
  6
BYLAYER
 62
     7
 10
575.428328
 20
-759.831235
 30
0.0
 11
645.906996
 21
-759.831235
 31
0.0
  0
LINE
  8
0
  6
BYLAYER
 62
     7
 10
575.428328
 20
-761.831235
 30
0.0
 11
645.906996
 21
-761.831235
 31
0.0
  0
LINE
  8
0
  6
BYLAYER
 62
     7
 10
575.428328
 20
-772.531217
 30
0.0
 11
645.906996
 21
-772.531217
 31
0.0
  0
LINE
  8
0
  6
BYLAYER
 62
     7
 10
575.428328
 20
-774.531217
 30
0.0
 11
645.906996
 21
-774.531217
 31
0.0
  0
LINE
  8
0
  6
BYLAYER
 62
     7
 10
478.428328
 20
-797.931211
 30
0.0
 11
645.906996
 21
-797.931211
 31
0.0
  0
LINE
  8
0
  6
BYLAYER
 62
     7
 10
478.428328
 20
-799.931211
 30
0.0
 11
645.906996
 21
-799.931211
 31
0.0
  0
LINE
  8
0
  6
BYLAYER
 62
     7
 10
478.428328
 20
-810.631223
 30
0.0
 11
645.906996
 21
-810.631223
 31
0.0
  0
LINE
  8
0
  6
BYLAYER
 62
     7
 10
478.428328
 20
-812.631223
 30
0.0
 11
645.906996
 21
-812.631223
 31
0.0
  0
LINE
  8
0
  6
BYLAYER
 62
     7
 10
483.428328
 20
-814.300107
 30
0.0
 11
645.906996
 21
-814.300107
 31
0.0
  0
LINE
  8
0
  6
BYLAYER
 62
     7
 10
483.097487
 20
-826.557767
 30
0.0
 11
645.906996
 21
-826.557767
 31
0.0
  0
LINE
  8
0
  6
BYLAYER
 62
     7
 10
483.315566
 20
-835.358976
 30
0.0
 11
645.906996
 21
-835.358976
 31
0.0
  0
LINE
  8
0
  6
BYLAYER
 62
     7
 10
483.264204
 20
-841.157682
 30
0.0
 11
645.906996
 21
-841.157682
 31
0.0
  0
LINE
  8
0
  6
BYLAYER
 62
     7
 10
483.368788
 20
-844.832029
 30
0.0
 11
645.906996
 21
-844.832029
 31
0.0
  0
LINE
  8
0
  6
BYLAYER
 62
     7
 10
483.058760
 20
-846.581266
 30
0.0
 11
645.906996
 21
-846.581266
 31
0.0
  0
LINE
  8
0
  6
BYLAYER
 62
     7
 10
590.990065
 20
-747.131253
 30
0.0
 11
645.906996
 21
-747.131253
 31
0.0
  0
LINE
  8
0
  6
BYLAYER
 62
     7
 10
590.990065
 20
-749.131253
 30
0.0
 11
645.906996
 21
-749.131253
 31
0.0
  0
LINE
  8
0
  6
BYLAYER
 62
     7
 10
575.428328
 20
-749.131253
 30
0.0
 11
590.990065
 21
-749.131253
 31
0.0
  0
LINE
  8
0
  6
BYLAYER
 62
     7
 10
575.428328
 20
-747.131253
 30
0.0
 11
590.990065
 21
-747.131253
 31
0.0
  0
LINE
  8
0
  6
BYLAYER
 62
     7
 10
645.906996
 20
-743.481229
 30
0.0
 11
645.906996
 21
-848.881778
 31
0.0
  0
LINE
  8
0
  6
BYLAYER
 62
     7
 10
645.906996
 20
-848.881778
 30
0.0
 11
729.506996
 21
-848.881778
 31
0.0
  0
LINE
  8
0
  6
BYLAYER
 62
     7
 10
750.906996
 20
-827.481778
 30
0.0
 11
750.906996
 21
-743.481229
 31
0.0
  0
LINE
  8
0
  6
BYLAYER
 62
     7
 10
729.506996
 20
-848.881778
 30
0.0
 11
750.906996
 21
-827.481778
 31
0.0
  0
LINE
  8
0
  6
BYLAYER
 62
     7
 10
490.276797
 20
-786.981229
 30
0.0
 11
526.428328
 21
-786.981229
 31
0.0
  0
ARC
  8
0
  6
BYLAYER
 62
     7
 10
490.276797
 20
-785.481229
 30
0.0
 40
1.5
 50
191.536959
 51
270.000000
  0
LINE
  8
0
  6
BYLAYER
 62
     7
 10
482.928328
 20
-743.481229
 30
0.0
 11
482.928328
 21
-779.632760
 31
0.0
  0
LINE
  8
0
  6
BYLAYER
 62
     7
 10
526.428328
 20
-786.981229
 30
0.0
 11
562.579859
 21
-786.981229
 31
0.0
  0
LINE
  8
0
  6
BYLAYER
 62
     7
 10
569.928328
 20
-779.632760
 30
0.0
 11
569.928328
 21
-743.481229
 31
0.0
  0
LINE
  8
0
  6
BYLAYER
 62
     7
 10
497.033026
 20
-756.082335
 30
0.0
 11
482.928328
 21
-756.574882
 31
0.0
  0
ARC
  8
0
  6
BYLAYER
 62
     7
 10
496.928328
 20
-753.084163
 30
0.0
 40
3.000000
 50
272.0
 51
360.0
  0
LINE
  8
0
  6
BYLAYER
 62
     7
 10
497.033026
 20
-771.082335
 30
0.0
 11
482.928328
 21
-771.574882
 31
0.0
  0
ARC
  8
0
  6
BYLAYER
 62
     7
 10
496.928328
 20
-768.084163
 30
0.0
 40
3.000000
 50
272.0
 51
360.0
  0
LINE
  8
0
  6
BYLAYER
 62
     7
 10
482.928328
 20
-760.387576
 30
0.0
 11
497.033026
 21
-760.880123
 31
0.0
  0
ARC
  8
0
  6
BYLAYER
 62
     7
 10
496.928328
 20
-763.878295
 30
0.0
 40
3.000000
 50
0.0
 51
88.0
  0
LINE
  8
0
  6
BYLAYER
 62
     7
 10
482.928328
 20
-745.387576
 30
0.0
 11
497.033026
 21
-745.880123
 31
0.0
  0
ARC
  8
0
  6
BYLAYER
 62
     7
 10
496.928328
 20
-748.878295
 30
0.0
 40
3.000000
 50
0.0
 51
88.0
  0
LINE
  8
0
  6
BYLAYER
 62
     7
 10
499.928328
 20
-763.878295
 30
0.0
 11
499.928328
 21
-768.084163
 31
0.0
  0
LINE
  8
0
  6
BYLAYER
 62
     7
 10
499.928328
 20
-748.878295
 30
0.0
 11
499.928328
 21
-753.084163
 31
0.0
  0
LINE
  8
0
  6
BYLAYER
 62
     7
 10
483.928328
 20
-745.422497
 30
0.0
 11
483.928328
 21
-756.539961
 31
0.0
  0
LINE
  8
0
  6
BYLAYER
 62
     7
 10
483.928328
 20
-760.422497
 30
0.0
 11
483.928328
 21
-771.539961
 31
0.0
  0
LINE
  8
0
  6
BYLAYER
 62
     7
 10
555.823630
 20
-756.082335
 30
0.0
 11
569.928328
 21
-756.574882
 31
0.0
  0
ARC
  8
0
  6
BYLAYER
 62
     7
 10
555.928328
 20
-753.084163
 30
0.0
 40
3.0
 50
180.000000
 51
268.000000
  0
LINE
  8
0
  6
BYLAYER
 62
     7
 10
555.823630
 20
-771.082335
 30
0.0
 11
569.928328
 21
-771.574882
 31
0.0
  0
ARC
  8
0
  6
BYLAYER
 62
     7
 10
555.928328
 20
-768.084163
 30
0.0
 40
3.0
 50
180.000000
 51
268.000000
  0
LINE
  8
0
  6
BYLAYER
 62
     7
 10
569.928328
 20
-760.387576
 30
0.0
 11
555.823630
 21
-760.880123
 31
0.0
  0
ARC
  8
0
  6
BYLAYER
 62
     7
 10
555.928328
 20
-763.878295
 30
0.0
 40
3.000000
 50
92.000000
 51
180.000000
  0
LINE
  8
0
  6
BYLAYER
 62
     7
 10
569.928328
 20
-745.387576
 30
0.0
 11
555.823630
 21
-745.880123
 31
0.0
  0
ARC
  8
0
  6
BYLAYER
 62
     7
 10
555.928328
 20
-748.878295
 30
0.0
 40
3.000000
 50
92.000000
 51
180.000000
  0
LINE
  8
0
  6
BYLAYER
 62
     7
 10
552.928328
 20
-763.878295
 30
0.0
 11
552.928328
 21
-768.084163
 31
0.0
  0
LINE
  8
0
  6
BYLAYER
 62
     7
 10
552.928328
 20
-748.878295
 30
0.0
 11
552.928328
 21
-753.084163
 31
0.0
  0
LINE
  8
0
  6
BYLAYER
 62
     7
 10
568.928328
 20
-745.422497
 30
0.0
 11
568.928328
 21
-756.539961
 31
0.0
  0
LINE
  8
0
  6
BYLAYER
 62
     7
 10
568.928328
 20
-760.422497
 30
0.0
 11
568.928328
 21
-771.539961
 31
0.0
  0
LINE
  8
0
  6
BYLAYER
 62
     7
 10
513.428328
 20
-773.481229
 30
0.0
 11
539.428328
 21
-773.481229
 31
0.0
  0
ARC
  8
0
  6
BYLAYER
 62
     7
 10
539.428328
 20
-770.481229
 30
0.0
 40
3.0
 50
270.0
 51
360.0
  0
ARC
  8
0
  6
BYLAYER
 62
     7
 10
513.428328
 20
-770.481229
 30
0.0
 40
3.0
 50
180.000000
 51
270.000000
  0
LINE
  8
0
  6
BYLAYER
 62
     7
 10
510.428328
 20
-743.481229
 30
0.0
 11
510.428328
 21
-770.481229
 31
0.0
  0
LINE
  8
0
  6
BYLAYER
 62
     7
 10
542.428328
 20
-770.481229
 30
0.0
 11
542.428328
 21
-743.481229
 31
0.0
  0
ARC
  8
0
  6
BYLAYER
 62
     7
 10
482.928328
 20
-786.981229
 30
0.0
 40
6.000000
 50
11.536959
 51
78.463041
  0
ARC
  8
0
  6
BYLAYER
 62
     7
 10
484.428328
 20
-779.632760
 30
0.0
 40
1.500000
 50
180.000000
 51
258.463041
  0
ARC
  8
0
  6
BYLAYER
 62
     7
 10
569.928328
 20
-786.981229
 30
0.0
 40
6.000000
 50
101.536959
 51
168.463041
  0
ARC
  8
0
  6
BYLAYER
 62
     7
 10
568.428328
 20
-779.632760
 30
0.0
 40
1.500000
 50
281.536959
 51
360.000000
  0
ARC
  8
0
  6
BYLAYER
 62
     7
 10
562.579859
 20
-785.481229
 30
0.0
 40
1.5
 50
270.0
 51
348.463041
  0
LINE
  8
0
  6
BYLAYER
 62
     7
 10
477.428328
 20
-743.481229
 30
0.0
 11
477.428328
 21
-790.981229
 31
0.0
  0
LINE
  8
0
  6
BYLAYER
 62
     7
 10
478.928328
 20
-792.481229
 30
0.0
 11
573.928328
 21
-792.481229
 31
0.0
  0
ARC
  8
0
  6
BYLAYER
 62
     7
 10
478.928328
 20
-790.981229
 30
0.0
 40
1.500000
 50
180.000000
 51
270.000000
  0
LINE
  8
0
  6
BYLAYER
 62
     7
 10
575.428328
 20
-790.981229
 30
0.0
 11
575.428328
 21
-743.481229
 31
0.0
  0
ARC
  8
0
  6
BYLAYER
 62
     7
 10
573.928328
 20
-790.981229
 30
0.0
 40
1.500000
 50
270.0
 51
360.0
  0
ARC
  8
0
  6
BYLAYER
 62
     7
 10
478.428328
 20
-688.031247
 30
0.0
 40
1.0
 50
90.0
 51
180.000009
  0
ARC
  8
0
  6
BYLAYER
 62
     7
 10
478.428328
 20
-688.031247
 30
0.0
 40
1.0
 50
180.000000
 51
269.999989
  0
ARC
  8
0
  6
BYLAYER
 62
     7
 10
478.428328
 20
-675.331235
 30
0.0
 40
1.0
 50
90.0
 51
180.000009
  0
ARC
  8
0
  6
BYLAYER
 62
     7
 10
478.428328
 20
-675.331235
 30
0.0
 40
1.0
 50
180.000000
 51
269.999989
  0
LINE
  8
0
  6
BYLAYER
 62
     7
 10
575.428328
 20
-701.731229
 30
0.0
 11
645.906996
 21
-701.731229
 31
0.0
  0
LINE
  8
0
  6
BYLAYER
 62
     7
 10
575.428328
 20
-699.731229
 30
0.0
 11
645.906996
 21
-699.731229
 31
0.0
  0
LINE
  8
0
  6
BYLAYER
 62
     7
 10
483.428328
 20
-672.662351
 30
0.0
 11
477.428328
 21
-670.041959
 31
0.0
  0
LINE
  8
0
  6
BYLAYER
 62
     7
 10
477.428328
 20
-651.481229
 30
0.0
 11
477.428328
 21
-743.481229
 31
0.0
  0
LINE
  8
0
  6
BYLAYER
 62
     7
 10
472.928328
 20
-651.481229
 30
0.0
 11
477.428328
 21
-651.481229
 31
0.0
  0
LINE
  8
0
  6
BYLAYER
 62
     7
 10
477.428328
 20
-670.041959
 30
0.0
 11
480.788466
 21
-661.946317
 31
0.0
  0
ARC
  8
0
  6
BYLAYER
 62
     7
 10
483.097487
 20
-662.904691
 30
0.0
 40
2.500012
 50
90.0
 51
157.458787
  0
LINE
  8
0
  6
BYLAYER
 62
     7
 10
477.428328
 20
-665.643521
 30
0.0
 11
480.911238
 21
-653.418485
 31
0.0
  0
ARC
  8
0
  6
BYLAYER
 62
     7
 10
483.315566
 20
-654.103482
 30
0.0
 40
2.500002
 50
90.0
 51
164.097649
  0
LINE
  8
0
  6
BYLAYER
 62
     7
 10
477.428328
 20
-658.555905
 30
0.0
 11
480.878828
 21
-647.556485
 31
0.0
  0
ARC
  8
0
  6
BYLAYER
 62
     7
 10
483.264204
 20
-648.304776
 30
0.0
 40
2.499992
 50
90.0
 51
162.583396
  0
ARC
  8
0
  6
BYLAYER
 62
     7
 10
483.368788
 20
-644.630429
 30
0.0
 40
2.499992
 50
90.0
 51
162.583396
  0
LINE
  8
0
  6
BYLAYER
 62
     7
 10
477.428328
 20
-651.481229
 30
0.0
 11
480.696913
 21
-642.061643
 31
0.0
  0
ARC
  8
0
  6
BYLAYER
 62
     7
 10
483.058760
 20
-642.881192
 30
0.0
 40
2.499996
 50
90.0
 51
160.863473
  0
LINE
  8
0
  6
BYLAYER
 62
     7
 10
480.983412
 20
-643.882138
 30
0.0
 11
477.428328
 21
-655.214932
 31
0.0
  0
ARC
  8
0
  6
BYLAYER
 62
     7
 10
482.428328
 20
-688.031247
 30
0.0
 40
1.0
 50
90.0
 51
180.000009
  0
ARC
  8
0
  6
BYLAYER
 62
     7
 10
482.428328
 20
-688.031247
 30
0.0
 40
1.000000
 50
180.000000
 51
269.999989
  0
ARC
  8
0
  6
BYLAYER
 62
     7
 10
482.428328
 20
-675.331235
 30
0.0
 40
1.0
 50
90.0
 51
180.000009
  0
ARC
  8
0
  6
BYLAYER
 62
     7
 10
482.428328
 20
-675.331235
 30
0.0
 40
1.0
 50
180.000000
 51
269.999989
  0
LINE
  8
0
  6
BYLAYER
 62
     7
 10
483.928328
 20
-676.331235
 30
0.0
 11
483.928328
 21
-687.031247
 31
0.0
  0
LINE
  8
0
  6
BYLAYER
 62
     7
 10
483.928328
 20
-689.031247
 30
0.0
 11
483.928328
 21
-694.481229
 31
0.0
  0
LINE
  8
0
  6
BYLAYER
 62
     7
 10
472.928328
 20
-651.481229
 30
0.0
 11
472.928328
 21
-743.481229
 31
0.0
  0
LINE
  8
0
  6
BYLAYER
 62
     7
 10
575.428328
 20
-727.131223
 30
0.0
 11
645.906996
 21
-727.131223
 31
0.0
  0
LINE
  8
0
  6
BYLAYER
 62
     7
 10
575.428328
 20
-725.131223
 30
0.0
 11
645.906996
 21
-725.131223
 31
0.0
  0
LINE
  8
0
  6
BYLAYER
 62
     7
 10
575.428328
 20
-714.431241
 30
0.0
 11
645.906996
 21
-714.431241
 31
0.0
  0
LINE
  8
0
  6
BYLAYER
 62
     7
 10
575.428328
 20
-712.431241
 30
0.0
 11
645.906996
 21
-712.431241
 31
0.0
  0
LINE
  8
0
  6
BYLAYER
 62
     7
 10
478.428328
 20
-689.031247
 30
0.0
 11
645.906996
 21
-689.031247
 31
0.0
  0
LINE
  8
0
  6
BYLAYER
 62
     7
 10
478.428328
 20
-687.031247
 30
0.0
 11
645.906996
 21
-687.031247
 31
0.0
  0
LINE
  8
0
  6
BYLAYER
 62
     7
 10
478.428328
 20
-676.331235
 30
0.0
 11
645.906996
 21
-676.331235
 31
0.0
  0
LINE
  8
0
  6
BYLAYER
 62
     7
 10
478.428328
 20
-674.331235
 30
0.0
 11
645.906996
 21
-674.331235
 31
0.0
  0
LINE
  8
0
  6
BYLAYER
 62
     7
 10
483.428328
 20
-672.662351
 30
0.0
 11
645.906996
 21
-672.662351
 31
0.0
  0
LINE
  8
0
  6
BYLAYER
 62
     7
 10
483.097487
 20
-660.404691
 30
0.0
 11
645.906996
 21
-660.404691
 31
0.0
  0
LINE
  8
0
  6
BYLAYER
 62
     7
 10
483.315566
 20
-651.603482
 30
0.0
 11
645.906996
 21
-651.603482
 31
0.0
  0
LINE
  8
0
  6
BYLAYER
 62
     7
 10
483.264204
 20
-645.804776
 30
0.0
 11
645.906996
 21
-645.804776
 31
0.0
  0
LINE
  8
0
  6
BYLAYER
 62
     7
 10
483.368788
 20
-642.130429
 30
0.0
 11
645.906996
 21
-642.130429
 31
0.0
  0
LINE
  8
0
  6
BYLAYER
 62
     7
 10
483.058760
 20
-640.381192
 30
0.0
 11
645.906996
 21
-640.381192
 31
0.0
  0
LINE
  8
0
  6
BYLAYER
 62
     7
 10
590.990065
 20
-739.831205
 30
0.0
 11
645.906996
 21
-739.831205
 31
0.0
  0
LINE
  8
0
  6
BYLAYER
 62
     7
 10
590.990065
 20
-737.831205
 30
0.0
 11
645.906996
 21
-737.831205
 31
0.0
  0
LINE
  8
0
  6
BYLAYER
 62
     7
 10
575.428328
 20
-737.831205
 30
0.0
 11
590.990065
 21
-737.831205
 31
0.0
  0
LINE
  8
0
  6
BYLAYER
 62
     7
 10
575.428328
 20
-739.831205
 30
0.0
 11
590.990065
 21
-739.831205
 31
0.0
  0
LINE
  8
0
  6
BYLAYER
 62
     7
 10
645.906996
 20
-743.481229
 30
0.0
 11
645.906996
 21
-638.080680
 31
0.0
  0
LINE
  8
0
  6
BYLAYER
 62
     7
 10
645.906996
 20
-638.080680
 30
0.0
 11
729.506996
 21
-638.080680
 31
0.0
  0
LINE
  8
0
  6
BYLAYER
 62
     7
 10
750.906996
 20
-659.480680
 30
0.0
 11
750.906996
 21
-743.481229
 31
0.0
  0
LINE
  8
0
  6
BYLAYER
 62
     7
 10
729.506996
 20
-638.080680
 30
0.0
 11
750.906996
 21
-659.480680
 31
0.0
  0
LINE
  8
0
  6
BYLAYER
 62
     7
 10
490.276797
 20
-699.981229
 30
0.0
 11
526.428328
 21
-699.981229
 31
0.0
  0
ARC
  8
0
  6
BYLAYER
 62
     7
 10
490.276797
 20
-701.481229
 30
0.0
 40
1.5
 50
90.0
 51
168.463041
  0
LINE
  8
0
  6
BYLAYER
 62
     7
 10
482.928328
 20
-743.481229
 30
0.0
 11
482.928328
 21
-707.329698
 31
0.0
  0
LINE
  8
0
  6
BYLAYER
 62
     7
 10
526.428328
 20
-699.981229
 30
0.0
 11
562.579859
 21
-699.981229
 31
0.0
  0
LINE
  8
0
  6
BYLAYER
 62
     7
 10
569.928328
 20
-707.329698
 30
0.0
 11
569.928328
 21
-743.481229
 31
0.0
  0
LINE
  8
0
  6
BYLAYER
 62
     7
 10
497.033026
 20
-730.880123
 30
0.0
 11
482.928328
 21
-730.387576
 31
0.0
  0
ARC
  8
0
  6
BYLAYER
 62
     7
 10
496.928328
 20
-733.878295
 30
0.0
 40
3.000000
 50
0.0
 51
88.0
  0
LINE
  8
0
  6
BYLAYER
 62
     7
 10
497.033026
 20
-715.880123
 30
0.0
 11
482.928328
 21
-715.387576
 31
0.0
  0
ARC
  8
0
  6
BYLAYER
 62
     7
 10
496.928328
 20
-718.878295
 30
0.0
 40
3.000000
 50
0.0
 51
88.0
  0
LINE
  8
0
  6
BYLAYER
 62
     7
 10
482.928328
 20
-726.574882
 30
0.0
 11
497.033026
 21
-726.082335
 31
0.0
  0
ARC
  8
0
  6
BYLAYER
 62
     7
 10
496.928328
 20
-723.084163
 30
0.0
 40
3.000000
 50
272.0
 51
360.0
  0
LINE
  8
0
  6
BYLAYER
 62
     7
 10
482.928328
 20
-741.574882
 30
0.0
 11
497.033026
 21
-741.082335
 31
0.0
  0
ARC
  8
0
  6
BYLAYER
 62
     7
 10
496.928328
 20
-738.084163
 30
0.0
 40
3.000000
 50
272.0
 51
360.0
  0
LINE
  8
0
  6
BYLAYER
 62
     7
 10
499.928328
 20
-723.084163
 30
0.0
 11
499.928328
 21
-718.878295
 31
0.0
  0
LINE
  8
0
  6
BYLAYER
 62
     7
 10
499.928328
 20
-738.084163
 30
0.0
 11
499.928328
 21
-733.878295
 31
0.0
  0
LINE
  8
0
  6
BYLAYER
 62
     7
 10
483.928328
 20
-741.539961
 30
0.0
 11
483.928328
 21
-730.422497
 31
0.0
  0
LINE
  8
0
  6
BYLAYER
 62
     7
 10
483.928328
 20
-726.539961
 30
0.0
 11
483.928328
 21
-715.422497
 31
0.0
  0
LINE
  8
0
  6
BYLAYER
 62
     7
 10
555.823630
 20
-730.880123
 30
0.0
 11
569.928328
 21
-730.387576
 31
0.0
  0
ARC
  8
0
  6
BYLAYER
 62
     7
 10
555.928328
 20
-733.878295
 30
0.0
 40
3.000000
 50
92.000000
 51
180.000000
  0
LINE
  8
0
  6
BYLAYER
 62
     7
 10
555.823630
 20
-715.880123
 30
0.0
 11
569.928328
 21
-715.387576
 31
0.0
  0
ARC
  8
0
  6
BYLAYER
 62
     7
 10
555.928328
 20
-718.878295
 30
0.0
 40
3.000000
 50
92.000000
 51
180.000000
  0
LINE
  8
0
  6
BYLAYER
 62
     7
 10
569.928328
 20
-726.574882
 30
0.0
 11
555.823630
 21
-726.082335
 31
0.0
  0
ARC
  8
0
  6
BYLAYER
 62
     7
 10
555.928328
 20
-723.084163
 30
0.0
 40
3.0
 50
180.000000
 51
268.000000
  0
LINE
  8
0
  6
BYLAYER
 62
     7
 10
569.928328
 20
-741.574882
 30
0.0
 11
555.823630
 21
-741.082335
 31
0.0
  0
ARC
  8
0
  6
BYLAYER
 62
     7
 10
555.928328
 20
-738.084163
 30
0.0
 40
3.0
 50
180.000000
 51
268.000000
  0
LINE
  8
0
  6
BYLAYER
 62
     7
 10
552.928328
 20
-723.084163
 30
0.0
 11
552.928328
 21
-718.878295
 31
0.0
  0
LINE
  8
0
  6
BYLAYER
 62
     7
 10
552.928328
 20
-738.084163
 30
0.0
 11
552.928328
 21
-733.878295
 31
0.0
  0
LINE
  8
0
  6
BYLAYER
 62
     7
 10
568.928328
 20
-741.539961
 30
0.0
 11
568.928328
 21
-730.422497
 31
0.0
  0
LINE
  8
0
  6
BYLAYER
 62
     7
 10
568.928328
 20
-726.539961
 30
0.0
 11
568.928328
 21
-715.422497
 31
0.0
  0
LINE
  8
0
  6
BYLAYER
 62
     7
 10
513.428328
 20
-713.481229
 30
0.0
 11
539.428328
 21
-713.481229
 31
0.0
  0
ARC
  8
0
  6
BYLAYER
 62
     7
 10
539.428328
 20
-716.481229
 30
0.0
 40
3.0
 50
0.0
 51
90.0
  0
ARC
  8
0
  6
BYLAYER
 62
     7
 10
513.428328
 20
-716.481229
 30
0.0
 40
3.0
 50
90.0
 51
180.0
  0
LINE
  8
0
  6
BYLAYER
 62
     7
 10
510.428328
 20
-743.481229
 30
0.0
 11
510.428328
 21
-716.481229
 31
0.0
  0
LINE
  8
0
  6
BYLAYER
 62
     7
 10
542.428328
 20
-716.481229
 30
0.0
 11
542.428328
 21
-743.481229
 31
0.0
  0
ARC
  8
0
  6
BYLAYER
 62
     7
 10
482.928328
 20
-699.981229
 30
0.0
 40
6.0
 50
281.536959
 51
348.463041
  0
ARC
  8
0
  6
BYLAYER
 62
     7
 10
484.428328
 20
-707.329698
 30
0.0
 40
1.500000
 50
101.536959
 51
180.000000
  0
ARC
  8
0
  6
BYLAYER
 62
     7
 10
569.928328
 20
-699.981229
 30
0.0
 40
6.0
 50
191.536959
 51
258.463041
  0
ARC
  8
0
  6
BYLAYER
 62
     7
 10
568.428328
 20
-707.329698
 30
0.0
 40
1.500000
 50
0.0
 51
78.463041
  0
ARC
  8
0
  6
BYLAYER
 62
     7
 10
562.579859
 20
-701.481229
 30
0.0
 40
1.500000
 50
11.536959
 51
90.000000
  0
LINE
  8
0
  6
BYLAYER
 62
     7
 10
477.428328
 20
-743.481229
 30
0.0
 11
477.428328
 21
-695.981229
 31
0.0
  0
LINE
  8
0
  6
BYLAYER
 62
     7
 10
478.928328
 20
-694.481229
 30
0.0
 11
573.928328
 21
-694.481229
 31
0.0
  0
ARC
  8
0
  6
BYLAYER
 62
     7
 10
478.928328
 20
-695.981229
 30
0.0
 40
1.5
 50
90.0
 51
180.0
  0
LINE
  8
0
  6
BYLAYER
 62
     7
 10
575.428328
 20
-695.981229
 30
0.0
 11
575.428328
 21
-743.481229
 31
0.0
  0
ARC
  8
0
  6
BYLAYER
 62
     7
 10
573.928328
 20
-695.981229
 30
0.0
 40
1.5
 50
0.0
 51
90.0
  0
LINE
  8
0
  6
BYLAYER
 62
     7
 10
729.506996
 20
-848.881778
 30
0.0
 11
729.506996
 21
-638.080680
 31
0.0
  0
LINE
  8
0
  6
BYLAYER
 62
     1
 10
349.928267
 20
-108.481229
 30
0.0
 11
348.428267
 21
-109.981229
 31
0.0
  0
LINE
  8
0
  6
BYLAYER
 62
     1
 10
399.928267
 20
-109.981229
 30
0.0
 11
398.428267
 21
-108.481229
 31
0.0
  0
LINE
  8
0
  6
BYLAYER
 62
     1
 10
243.928328
 20
-108.481229
 30
0.0
 11
245.428328
 21
-109.981229
 31
0.0
  0
LINE
  8
0
  6
BYLAYER
 62
     1
 10
193.928328
 20
-109.981229
 30
0.0
 11
195.428328
 21
-108.481229
 31
0.0
  0
LINE
  8
0
  6
BYLAYER
 62
     1
 10
399.928267
 20
-296.481229
 30
0.0
 11
398.428267
 21
-294.981229
 31
0.0
  0
LINE
  8
0
  6
BYLAYER
 62
     1
 10
349.928267
 20
-346.481229
 30
0.0
 11
348.428267
 21
-344.981168
 31
0.0
  0
LINE
  8
0
  6
BYLAYER
 62
     1
 10
193.928328
 20
-296.481229
 30
0.0
 11
195.428328
 21
-294.981229
 31
0.0
  0
LINE
  8
0
  6
BYLAYER
 62
     1
 10
243.928328
 20
-346.481229
 30
0.0
 11
245.428328
 21
-344.981168
 31
0.0
  0
LINE
  8
0
  6
BYLAYER
 62
     1
 10
348.428267
 20
-344.981168
 30
0.0
 11
245.428328
 21
-344.981168
 31
0.0
  0
LINE
  8
0
  6
BYLAYER
 62
     1
 10
399.928267
 20
-344.981229
 30
0.0
 11
398.428267
 21
-346.481229
 31
0.0
  0
LINE
  8
0
  6
BYLAYER
 62
     1
 10
193.928328
 20
-344.981229
 30
0.0
 11
195.428328
 21
-346.481229
 31
0.0
  0
LINE
  8
0
  6
BYLAYER
 62
     1
 10
245.428328
 20
-109.981229
 30
0.0
 11
348.428267
 21
-109.981229
 31
0.0
  0
LINE
  8
0
  6
BYLAYER
 62
     1
 10
399.928267
 20
-158.481229
 30
0.0
 11
398.428267
 21
-159.981229
 31
0.0
  0
LINE
  8
0
  6
BYLAYER
 62
     1
 10
399.928267
 20
-158.481229
 30
0.0
 11
399.928267
 21
-109.981229
 31
0.0
  0
LINE
  8
0
  6
BYLAYER
 62
     1
 10
193.928328
 20
-158.481229
 30
0.0
 11
195.428328
 21
-159.981229
 31
0.0
  0
LINE
  8
0
  6
BYLAYER
 62
     1
 10
195.428328
 20
-294.981229
 30
0.0
 11
195.428328
 21
-159.981229
 31
0.0
  0
LINE
  8
0
  6
BYLAYER
 62
     1
 10
193.928328
 20
-189.481229
 30
0.0
 11
195.428328
 21
-189.533597
 31
0.0
  0
ARC
  8
0
  6
BYLAYER
 62
     1
 10
386.928267
 20
-121.481229
 30
0.0
 40
2.000000
 50
0.0
 51
90.000016
  0
LINE
  8
0
  6
BYLAYER
 62
     1
 10
206.928328
 20
-119.481229
 30
0.0
 11
386.928267
 21
-119.481229
 31
0.0
  0
ARC
  8
0
  6
BYLAYER
 62
     1
 10
206.928328
 20
-121.481229
 30
0.0
 40
2.000000
 50
90.0
 51
180.000009
  0
ARC
  8
0
  6
BYLAYER
 62
     1
 10
206.928328
 20
-333.481229
 30
0.0
 40
2.0
 50
180.000000
 51
269.999996
  0
ARC
  8
0
  6
BYLAYER
 62
     1
 10
386.928267
 20
-333.481290
 30
0.0
 40
2.0
 50
270.0
 51
359.999982
  0
LINE
  8
0
  6
BYLAYER
 62
     1
 10
399.928267
 20
-296.481229
 30
0.0
 11
388.928267
 21
-296.481229
 31
0.0
  0
LINE
  8
0
  6
BYLAYER
 62
     1
 10
399.928267
 20
-158.481229
 30
0.0
 11
388.928267
 21
-158.481229
 31
0.0
  0
LINE
  8
0
  6
BYLAYER
 62
     1
 10
193.928328
 20
-158.481229
 30
0.0
 11
204.928328
 21
-158.481229
 31
0.0
  0
LINE
  8
0
  6
BYLAYER
 62
     1
 10
193.928328
 20
-296.481229
 30
0.0
 11
204.928328
 21
-296.481229
 31
0.0
  0
LINE
  8
0
  6
BYLAYER
 62
     1
 10
349.928267
 20
-346.481229
 30
0.0
 11
349.928267
 21
-335.481290
 31
0.0
  0
LINE
  8
0
  6
BYLAYER
 62
     1
 10
243.928328
 20
-346.481229
 30
0.0
 11
243.928328
 21
-335.481290
 31
0.0
  0
LINE
  8
0
  6
BYLAYER
 62
     1
 10
349.928267
 20
-108.481229
 30
0.0
 11
349.928267
 21
-119.481168
 31
0.0
  0
LINE
  8
0
  6
BYLAYER
 62
     1
 10
348.428267
 20
-109.981290
 30
0.0
 11
348.428267
 21
-119.481168
 31
0.0
  0
LINE
  8
0
  6
BYLAYER
 62
     1
 10
245.428328
 20
-109.981290
 30
0.0
 11
245.428328
 21
-119.481168
 31
0.0
  0
LINE
  8
0
  6
BYLAYER
 62
     1
 10
243.928328
 20
-108.481229
 30
0.0
 11
243.928328
 21
-119.481168
 31
0.0
  0
LINE
  8
0
  6
BYLAYER
 62
     1
 10
401.928267
 20
-195.122220
 30
0.0
 11
398.428267
 21
-195.244474
 31
0.0
  0
LINE
  8
0
  6
BYLAYER
 62
     1
 10
398.428267
 20
-183.188382
 30
0.0
 11
401.928267
 21
-183.188382
 31
0.0
  0
LINE
  8
0
  6
BYLAYER
 62
     1
 10
398.428267
 20
-160.481229
 30
0.0
 11
401.928267
 21
-160.481229
 31
0.0
  0
LINE
  8
0
  6
BYLAYER
 62
     1
 10
401.928267
 20
-111.840238
 30
0.0
 11
399.928267
 21
-111.770353
 31
0.0
  0
LINE
  8
0
  6
BYLAYER
 62
     1
 10
401.928267
 20
-195.122220
 30
0.0
 11
401.928267
 21
-111.840238
 31
0.0
  0
LINE
  8
0
  6
BYLAYER
 62
     1
 10
399.928267
 20
-146.481229
 30
0.0
 11
401.928267
 21
-146.481229
 31
0.0
  0
LINE
  8
0
  6
BYLAYER
 62
     1
 10
399.928267
 20
-123.774076
 30
0.0
 11
401.928267
 21
-123.774076
 31
0.0
  0
ARC
  8
0
  6
BYLAYER
 62
     1
 10
212.428328
 20
-327.981229
 30
0.0
 40
2.0
 50
180.000000
 51
269.999996
  0
LINE
  8
0
  6
BYLAYER
 62
     1
 10
388.342452
 20
-334.895475
 30
0.0
 11
382.842452
 21
-329.395475
 31
0.0
  0
LINE
  8
0
  6
BYLAYER
 62
     1
 10
386.928267
 20
-335.481290
 30
0.0
 11
332.116927
 21
-335.481290
 31
0.0
  0
LINE
  8
0
  6
BYLAYER
 62
     1
 10
204.928328
 20
-121.481229
 30
0.0
 11
204.928328
 21
-207.924894
 31
0.0
  0
ARC
  8
0
  6
BYLAYER
 62
     1
 10
202.928328
 20
-207.924894
 30
0.0
 40
1.999980
 50
339.280495
 51
360.000000
  0
ARC
  8
0
  6
BYLAYER
 62
     1
 10
296.928328
 20
-243.481229
 30
0.0
 40
98.500038
 50
159.280449
 51
200.719548
  0
LINE
  8
0
  6
BYLAYER
 62
     1
 10
204.928328
 20
-279.037503
 30
0.0
 11
204.928328
 21
-333.481229
 31
0.0
  0
ARC
  8
0
  6
BYLAYER
 62
     1
 10
202.928328
 20
-279.037503
 30
0.0
 40
1.999959
 50
0.0
 51
20.719577
  0
LINE
  8
0
  6
BYLAYER
 62
     1
 10
261.372237
 20
-335.481290
 30
0.0
 11
206.928328
 21
-335.481290
 31
0.0
  0
ARC
  8
0
  6
BYLAYER
 62
     1
 10
296.928328
 20
-243.481229
 30
0.0
 40
98.500031
 50
249.280595
 51
290.931197
  0
ARC
  8
0
  6
BYLAYER
 62
     1
 10
261.372237
 20
-337.481290
 30
0.0
 40
2.000000
 50
69.280601
 51
90.000000
  0
LINE
  8
0
  6
BYLAYER
 62
     1
 10
388.928267
 20
-279.037503
 30
0.0
 11
388.928267
 21
-333.481290
 31
0.0
  0
ARC
  8
0
  6
BYLAYER
 62
     1
 10
390.928267
 20
-279.037503
 30
0.0
 40
2.0
 50
159.280416
 51
180.000000
  0
ARC
  8
0
  6
BYLAYER
 62
     1
 10
390.928267
 20
-207.924894
 30
0.0
 40
2.0
 50
180.000000
 51
200.719584
  0
LINE
  8
0
  6
BYLAYER
 62
     1
 10
212.428328
 20
-329.981229
 30
0.0
 11
254.883528
 21
-329.981229
 31
0.0
  0
ARC
  8
0
  6
BYLAYER
 62
     1
 10
245.428328
 20
-148.481229
 30
0.0
 40
1.0
 50
90.0
 51
270.000005
  0
ARC
  8
0
  6
BYLAYER
 62
     1
 10
348.428267
 20
-148.481229
 30
0.0
 40
1.000000
 50
270.0
 51
449.999991
  0
LINE
  8
0
  6
BYLAYER
 62
     1
 10
313.965056
 20
-147.481229
 30
0.0
 11
348.428267
 21
-147.481229
 31
0.0
  0
LINE
  8
0
  6
BYLAYER
 62
     1
 10
245.428328
 20
-147.481229
 30
0.0
 11
279.891600
 21
-147.481229
 31
0.0
  0
LINE
  8
0
  6
BYLAYER
 62
     1
 10
322.817519
 20
-149.481229
 30
0.0
 11
348.428267
 21
-149.481229
 31
0.0
  0
LINE
  8
0
  6
BYLAYER
 62
     1
 10
245.428328
 20
-149.481229
 30
0.0
 11
271.039137
 21
-149.481229
 31
0.0
  0
ARC
  8
0
  6
BYLAYER
 62
     1
 10
248.928328
 20
-160.481229
 30
0.0
 40
1.0
 50
270.0
 51
450.000005
  0
ARC
  8
0
  6
BYLAYER
 62
     1
 10
237.928328
 20
-172.481229
 30
0.0
 40
1.0
 50
270.0
 51
450.000005
  0
ARC
  8
0
  6
BYLAYER
 62
     1
 10
225.928328
 20
-184.481229
 30
0.0
 40
1.0
 50
270.0
 51
450.000005
  0
ARC
  8
0
  6
BYLAYER
 62
     1
 10
344.928267
 20
-160.481229
 30
0.0
 40
1.0
 50
90.0
 51
270.000005
  0
ARC
  8
0
  6
BYLAYER
 62
     1
 10
355.928267
 20
-172.481229
 30
0.0
 40
1.0
 50
90.0
 51
270.000005
  0
ARC
  8
0
  6
BYLAYER
 62
     1
 10
367.928267
 20
-184.481229
 30
0.0
 40
1.0
 50
90.0
 51
270.000005
  0
LINE
  8
0
  6
BYLAYER
 62
     1
 10
388.928267
 20
-207.924894
 30
0.0
 11
388.928267
 21
-121.481229
 31
0.0
  0
LINE
  8
0
  6
BYLAYER
 62
     1
 10
248.928328
 20
-161.481229
 30
0.0
 11
205.928328
 21
-161.481229
 31
0.0
  0
LINE
  8
0
  6
BYLAYER
 62
     1
 10
248.928328
 20
-159.481229
 30
0.0
 11
205.928328
 21
-159.481229
 31
0.0
  0
ARC
  8
0
  6
BYLAYER
 62
     1
 10
205.928328
 20
-170.481229
 30
0.0
 40
1.000000
 50
180.000000
 51
269.999996
  0
ARC
  8
0
  6
BYLAYER
 62
     1
 10
205.928328
 20
-182.481229
 30
0.0
 40
1.000000
 50
180.000000
 51
269.999996
  0
ARC
  8
0
  6
BYLAYER
 62
     1
 10
205.928328
 20
-174.481229
 30
0.0
 40
1.0
 50
90.0
 51
180.000003
  0
ARC
  8
0
  6
BYLAYER
 62
     1
 10
205.928328
 20
-186.481229
 30
0.0
 40
1.0
 50
90.0
 51
180.000003
  0
LINE
  8
0
  6
BYLAYER
 62
     1
 10
237.928328
 20
-171.481229
 30
0.0
 11
205.928328
 21
-171.481229
 31
0.0
  0
LINE
  8
0
  6
BYLAYER
 62
     1
 10
237.928328
 20
-173.481229
 30
0.0
 11
205.928328
 21
-173.481229
 31
0.0
  0
LINE
  8
0
  6
BYLAYER
 62
     1
 10
225.928328
 20
-183.481229
 30
0.0
 11
205.928328
 21
-183.481229
 31
0.0
  0
LINE
  8
0
  6
BYLAYER
 62
     1
 10
225.928328
 20
-185.481229
 30
0.0
 11
205.928328
 21
-185.481229
 31
0.0
  0
ARC
  8
0
  6
BYLAYER
 62
     1
 10
387.928267
 20
-158.481229
 30
0.0
 40
1.000000
 50
270.0
 51
359.999982
  0
ARC
  8
0
  6
BYLAYER
 62
     1
 10
387.928267
 20
-162.481229
 30
0.0
 40
1.000000
 50
0.0
 51
90.000016
  0
ARC
  8
0
  6
BYLAYER
 62
     1
 10
387.928267
 20
-170.481229
 30
0.0
 40
1.0
 50
270.0
 51
359.999982
  0
ARC
  8
0
  6
BYLAYER
 62
     1
 10
387.928267
 20
-174.481229
 30
0.0
 40
1.000000
 50
0.0
 51
90.000016
  0
ARC
  8
0
  6
BYLAYER
 62
     1
 10
387.928267
 20
-182.481229
 30
0.0
 40
1.000000
 50
270.0
 51
359.999982
  0
ARC
  8
0
  6
BYLAYER
 62
     1
 10
387.928267
 20
-186.481229
 30
0.0
 40
1.000000
 50
0.0
 51
90.000016
  0
LINE
  8
0
  6
BYLAYER
 62
     1
 10
344.928267
 20
-161.481229
 30
0.0
 11
387.928267
 21
-161.481229
 31
0.0
  0
LINE
  8
0
  6
BYLAYER
 62
     1
 10
355.928267
 20
-171.481229
 30
0.0
 11
387.928267
 21
-171.481229
 31
0.0
  0
LINE
  8
0
  6
BYLAYER
 62
     1
 10
355.928267
 20
-173.481229
 30
0.0
 11
387.928267
 21
-173.481229
 31
0.0
  0
LINE
  8
0
  6
BYLAYER
 62
     1
 10
367.928267
 20
-183.481229
 30
0.0
 11
387.928267
 21
-183.481229
 31
0.0
  0
LINE
  8
0
  6
BYLAYER
 62
     1
 10
367.928267
 20
-185.481229
 30
0.0
 11
387.928267
 21
-185.481229
 31
0.0
  0
LINE
  8
0
  6
BYLAYER
 62
     1
 10
195.428328
 20
-174.803250
 30
0.0
 11
193.928328
 21
-174.803250
 31
0.0
  0
LINE
  8
0
  6
BYLAYER
 62
     1
 10
195.428328
 20
-188.659208
 30
0.0
 11
193.928328
 21
-188.659208
 31
0.0
  0
LINE
  8
0
  6
BYLAYER
 62
     1
 10
388.928267
 20
-159.981229
 30
0.0
 11
398.428267
 21
-159.981229
 31
0.0
  0
LINE
  8
0
  6
BYLAYER
 62
     1
 10
388.928267
 20
-294.981229
 30
0.0
 11
398.428267
 21
-294.981229
 31
0.0
  0
LINE
  8
0
  6
BYLAYER
 62
     1
 10
348.428267
 20
-335.481290
 30
0.0
 11
348.428267
 21
-344.981168
 31
0.0
  0
LINE
  8
0
  6
BYLAYER
 62
     1
 10
245.428328
 20
-344.981168
 30
0.0
 11
245.428328
 21
-335.481290
 31
0.0
  0
LINE
  8
0
  6
BYLAYER
 62
     1
 10
195.428328
 20
-294.981229
 30
0.0
 11
204.928328
 21
-294.981229
 31
0.0
  0
LINE
  8
0
  6
BYLAYER
 62
     1
 10
195.428328
 20
-159.981229
 30
0.0
 11
204.928328
 21
-159.981229
 31
0.0
  0
LINE
  8
0
  6
BYLAYER
 62
     1
 10
360.428267
 20
-119.481229
 30
0.0
 11
360.428267
 21
-108.481229
 31
0.0
  0
LINE
  8
0
  6
BYLAYER
 62
     1
 10
373.428267
 20
-119.481229
 30
0.0
 11
373.428267
 21
-108.481229
 31
0.0
  0
LINE
  8
0
  6
BYLAYER
 62
     1
 10
220.428328
 20
-119.481229
 30
0.0
 11
220.428328
 21
-108.481229
 31
0.0
  0
LINE
  8
0
  6
BYLAYER
 62
     1
 10
233.428328
 20
-119.481229
 30
0.0
 11
233.428328
 21
-108.481229
 31
0.0
  0
LINE
  8
0
  6
BYLAYER
 62
     1
 10
204.928328
 20
-134.981229
 30
0.0
 11
193.928328
 21
-134.981229
 31
0.0
  0
LINE
  8
0
  6
BYLAYER
 62
     1
 10
204.928328
 20
-147.981229
 30
0.0
 11
193.928328
 21
-147.981229
 31
0.0
  0
LINE
  8
0
  6
BYLAYER
 62
     1
 10
233.428328
 20
-335.481229
 30
0.0
 11
233.428328
 21
-346.481229
 31
0.0
  0
LINE
  8
0
  6
BYLAYER
 62
     1
 10
220.428328
 20
-335.481229
 30
0.0
 11
220.428328
 21
-346.481229
 31
0.0
  0
LINE
  8
0
  6
BYLAYER
 62
     1
 10
204.928328
 20
-319.981229
 30
0.0
 11
193.928328
 21
-319.981229
 31
0.0
  0
LINE
  8
0
  6
BYLAYER
 62
     1
 10
204.928328
 20
-306.981229
 30
0.0
 11
193.928328
 21
-306.981229
 31
0.0
  0
LINE
  8
0
  6
BYLAYER
 62
     1
 10
388.928328
 20
-306.981229
 30
0.0
 11
399.928267
 21
-306.981229
 31
0.0
  0
LINE
  8
0
  6
BYLAYER
 62
     1
 10
388.928328
 20
-319.981229
 30
0.0
 11
399.928267
 21
-319.981229
 31
0.0
  0
LINE
  8
0
  6
BYLAYER
 62
     1
 10
373.428267
 20
-335.481229
 30
0.0
 11
373.428267
 21
-346.481229
 31
0.0
  0
LINE
  8
0
  6
BYLAYER
 62
     1
 10
360.428267
 20
-335.481229
 30
0.0
 11
360.428267
 21
-346.481229
 31
0.0
  0
LINE
  8
0
  6
BYLAYER
 62
     1
 10
344.928267
 20
-159.481229
 30
0.0
 11
379.877120
 21
-159.481229
 31
0.0
  0
LINE
  8
0
  6
BYLAYER
 62
     1
 10
387.928267
 20
-159.481229
 30
0.0
 11
379.877120
 21
-159.481229
 31
0.0
  0
LINE
  8
0
  6
BYLAYER
 62
     1
 10
349.928267
 20
-346.481229
 30
0.0
 11
398.428267
 21
-346.481229
 31
0.0
  0
LINE
  8
0
  6
BYLAYER
 62
     1
 10
338.973128
 20
-329.981229
 30
0.0
 11
359.472029
 21
-329.981229
 31
0.0
  0
LINE
  8
0
  6
BYLAYER
 62
     1
 10
359.472029
 20
-329.981229
 30
0.0
 11
381.428267
 21
-329.981229
 31
0.0
  0
LINE
  8
0
  6
BYLAYER
 62
     1
 10
243.928328
 20
-346.481229
 30
0.0
 11
195.428328
 21
-346.481229
 31
0.0
  0
ARC
  8
0
  6
BYLAYER
 62
     1
 10
375.928267
 20
-290.481229
 30
0.0
 40
1.0
 50
90.0
 51
270.000005
  0
ARC
  8
0
  6
BYLAYER
 62
     1
 10
387.928267
 20
-292.481229
 30
0.0
 40
1.0
 50
0.0
 51
89.999982
  0
ARC
  8
0
  6
BYLAYER
 62
     1
 10
387.928267
 20
-288.481229
 30
0.0
 40
1.000000
 50
270.0
 51
360.000016
  0
LINE
  8
0
  6
BYLAYER
 62
     1
 10
375.928267
 20
-291.481229
 30
0.0
 11
387.928267
 21
-291.481229
 31
0.0
  0
LINE
  8
0
  6
BYLAYER
 62
     1
 10
375.928267
 20
-289.481229
 30
0.0
 11
387.928267
 21
-289.481229
 31
0.0
  0
LINE
  8
0
  6
BYLAYER
 62
     1
 10
399.928267
 20
-296.481229
 30
0.0
 11
399.928267
 21
-344.981229
 31
0.0
  0
ARC
  8
0
  6
BYLAYER
 62
     1
 10
217.928328
 20
-290.481229
 30
0.0
 40
1.0
 50
270.0
 51
449.999991
  0
ARC
  8
0
  6
BYLAYER
 62
     1
 10
205.928328
 20
-292.481229
 30
0.0
 40
1.0
 50
90.0
 51
179.999982
  0
ARC
  8
0
  6
BYLAYER
 62
     1
 10
205.928328
 20
-288.481229
 30
0.0
 40
1.0
 50
180.000000
 51
270.000023
  0
LINE
  8
0
  6
BYLAYER
 62
     1
 10
217.928328
 20
-291.481229
 30
0.0
 11
205.928328
 21
-291.481229
 31
0.0
  0
LINE
  8
0
  6
BYLAYER
 62
     1
 10
217.928328
 20
-289.481229
 30
0.0
 11
205.928328
 21
-289.481229
 31
0.0
  0
ARC
  8
0
  6
BYLAYER
 62
     1
 10
205.928328
 20
-158.481229
 30
0.0
 40
1.000000
 50
180.000000
 51
269.999996
  0
ARC
  8
0
  6
BYLAYER
 62
     1
 10
205.928328
 20
-162.481229
 30
0.0
 40
1.000000
 50
90.0
 51
180.000003
  0
ARC
  8
0
  6
BYLAYER
 62
     1
 10
296.928328
 20
-243.481229
 30
0.0
 40
98.499939
 50
0.0
 51
20.719575
  0
ARC
  8
0
  6
BYLAYER
 62
     1
 10
296.928328
 20
-243.481229
 30
0.0
 40
98.499939
 50
339.280413
 51
360.000000
  0
LINE
  8
0
  6
BYLAYER
 62
     1
 10
193.928328
 20
-344.981229
 30
0.0
 11
193.928328
 21
-296.481229
 31
0.0
  0
LINE
  8
0
  6
BYLAYER
 62
     1
 10
243.928328
 20
-108.481229
 30
0.0
 11
195.428328
 21
-108.481229
 31
0.0
  0
LINE
  8
0
  6
BYLAYER
 62
     1
 10
193.928328
 20
-153.481229
 30
0.0
 11
193.928328
 21
-189.481229
 31
0.0
  0
LINE
  8
0
  6
BYLAYER
 62
     1
 10
193.928328
 20
-153.481229
 30
0.0
 11
193.928328
 21
-109.981229
 31
0.0
  0
LINE
  8
0
  6
BYLAYER
 62
     1
 10
349.928267
 20
-108.481229
 30
0.0
 11
398.428267
 21
-108.481229
 31
0.0
  0
LINE
  8
0
  6
BYLAYER
 62
     1
 10
210.428328
 20
-289.481229
 30
0.0
 11
210.428328
 21
-285.526029
 31
0.0
  0
LINE
  8
0
  6
BYLAYER
 62
     1
 10
210.428328
 20
-327.981229
 30
0.0
 11
210.428328
 21
-291.481229
 31
0.0
  0
ARC
  8
0
  6
BYLAYER
 62
     1
 10
381.428267
 20
-327.981229
 30
0.0
 40
2.000000
 50
314.998762
 51
360.000000
  0
ARC
  8
0
  6
BYLAYER
 62
     1
 10
381.428267
 20
-327.981229
 30
0.0
 40
2.000002
 50
270.0
 51
314.998762
  0
LINE
  8
0
  6
BYLAYER
 62
     1
 10
383.428267
 20
-327.981229
 30
0.0
 11
383.428267
 21
-291.481229
 31
0.0
  0
LINE
  8
0
  6
BYLAYER
 62
     1
 10
383.428267
 20
-289.481229
 30
0.0
 11
383.428267
 21
-285.526029
 31
0.0
  0
LINE
  8
0
  6
BYLAYER
 62
     1
 10
205.514204
 20
-334.895475
 30
0.0
 11
211.014204
 21
-329.395475
 31
0.0
  0
LINE
  8
0
  6
BYLAYER
 62
     1
 10
398.428267
 20
-294.981229
 30
0.0
 11
398.428267
 21
-159.981229
 31
0.0
  0
ARC
  8
0
  6
BYLAYER
 62
     1
 10
296.928328
 20
-243.481229
 30
0.0
 40
42.500000
 50
90.0
 51
180.000002
  0
CIRCLE
  8
0
  6
BYLAYER
 62
     1
 10
296.928328
 20
-178.481229
 30
0.0
 40
4.5
  0
ARC
  8
0
  6
BYLAYER
 62
     1
 10
296.928328
 20
-178.481229
 30
0.0
 40
4.999938
 50
353.660000
 51
636.340001
  0
ARC
  8
0
  6
BYLAYER
 62
     1
 10
250.966353
 20
-197.519315
 30
0.0
 40
4.999972
 50
38.659991
 51
321.339992
  0
ARC
  8
0
  6
BYLAYER
 62
     1
 10
250.966353
 20
-197.519315
 30
0.0
 40
4.999972
 50
38.659991
 51
321.339992
  0
CIRCLE
  8
0
  6
BYLAYER
 62
     1
 10
250.966353
 20
-197.519315
 30
0.0
 40
4.5
  0
CIRCLE
  8
0
  6
BYLAYER
 62
     1
 10
231.928328
 20
-243.481229
 30
0.0
 40
4.5
  0
ARC
  8
0
  6
BYLAYER
 62
     1
 10
231.928328
 20
-243.481229
 30
0.0
 40
5.000012
 50
83.660009
 51
366.340010
  0
ARC
  8
0
  6
BYLAYER
 62
     1
 10
296.928328
 20
-243.481229
 30
0.0
 40
55.000000
 50
90.0
 51
180.000002
  0
ARC
  8
0
  6
BYLAYER
 62
     1
 10
296.928328
 20
-243.481229
 30
0.0
 40
55.0
 50
359.999986
 51
450.000003
  0
ARC
  8
0
  6
BYLAYER
 62
     1
 10
296.928328
 20
-243.481229
 30
0.0
 40
54.999939
 50
179.999991
 51
270.0
  0
CIRCLE
  8
0
  6
BYLAYER
 62
     1
 10
296.928328
 20
-178.481229
 30
0.0
 40
4.5
  0
CIRCLE
  8
0
  6
BYLAYER
 62
     1
 10
250.966353
 20
-197.519315
 30
0.0
 40
4.5
  0
CIRCLE
  8
0
  6
BYLAYER
 62
     1
 10
231.928328
 20
-243.481229
 30
0.0
 40
4.5
  0
CIRCLE
  8
0
  6
BYLAYER
 62
     1
 10
296.928328
 20
-178.481229
 30
0.0
 40
4.5
  0
ARC
  8
0
  6
BYLAYER
 62
     1
 10
296.928328
 20
-243.481229
 30
0.0
 40
80.000000
 50
90.000003
 51
94.744108
  0
ARC
  8
0
  6
BYLAYER
 62
     1
 10
290.477278
 20
-165.748441
 30
0.0
 40
2.000037
 50
94.743931
 51
150.255446
  0
ARC
  8
0
  6
BYLAYER
 62
     1
 10
237.401350
 20
-193.077420
 30
0.0
 40
2.000029
 50
139.743649
 51
195.255574
  0
ARC
  8
0
  6
BYLAYER
 62
     1
 10
296.928328
 20
-243.481229
 30
0.0
 40
80.000031
 50
130.255874
 51
139.744113
  0
ARC
  8
0
  6
BYLAYER
 62
     1
 10
256.746565
 20
-146.473783
 30
0.0
 40
36.849331
 50
254.744800
 51
330.255247
  0
ARC
  8
0
  6
BYLAYER
 62
     1
 10
246.524580
 20
-183.954251
 30
0.0
 40
2.000036
 50
74.744591
 51
130.256270
  0
ARC
  8
0
  6
BYLAYER
 62
     1
 10
199.921004
 20
-203.299466
 30
0.0
 40
36.8493
 50
299.744739
 51
375.255260
  0
ARC
  8
0
  6
BYLAYER
 62
     1
 10
219.195540
 20
-237.030057
 30
0.0
 40
1.999955
 50
119.744117
 51
175.255742
  0
ARC
  8
0
  6
BYLAYER
 62
     1
 10
296.928328
 20
-243.481229
 30
0.0
 40
79.999977
 50
175.255865
 51
180.000005
  0
CIRCLE
  8
0
  6
BYLAYER
 62
     1
 10
250.966475
 20
-289.443143
 30
0.0
 40
4.5
  0
ARC
  8
0
  6
BYLAYER
 62
     1
 10
296.928328
 20
-243.481229
 30
0.0
 40
80.0
 50
180.000005
 51
184.744104
  0
ARC
  8
0
  6
BYLAYER
 62
     1
 10
219.195540
 20
-249.932279
 30
0.0
 40
1.999954
 50
184.743940
 51
240.255456
  0
ARC
  8
0
  6
BYLAYER
 62
     1
 10
246.524580
 20
-303.008146
 30
0.0
 40
1.999990
 50
229.743658
 51
285.255583
  0
ARC
  8
0
  6
BYLAYER
 62
     1
 10
296.928328
 20
-243.481229
 30
0.0
 40
79.999939
 50
220.255870
 51
229.744122
  0
ARC
  8
0
  6
BYLAYER
 62
     1
 10
199.921004
 20
-283.662992
 30
0.0
 40
36.849354
 50
344.744807
 51
420.255253
  0
ARC
  8
0
  6
BYLAYER
 62
     1
 10
237.401350
 20
-293.884916
 30
0.0
 40
1.99999
 50
164.744600
 51
220.256279
  0
ARC
  8
0
  6
BYLAYER
 62
     1
 10
256.746565
 20
-340.488492
 30
0.0
 40
36.849285
 50
29.744750
 51
105.255264
  0
ARC
  8
0
  6
BYLAYER
 62
     1
 10
290.477278
 20
-321.213956
 30
0.0
 40
1.999955
 50
209.744126
 51
265.255751
  0
ARC
  8
0
  6
BYLAYER
 62
     1
 10
296.928328
 20
-243.481229
 30
0.0
 40
79.999908
 50
265.255861
 51
270.000001
  0
CIRCLE
  8
0
  6
BYLAYER
 62
     1
 10
342.890273
 20
-289.443021
 30
0.0
 40
4.5
  0
ARC
  8
0
  6
BYLAYER
 62
     1
 10
296.928328
 20
-243.481229
 30
0.0
 40
79.999939
 50
270.0
 51
274.744113
  0
ARC
  8
0
  6
BYLAYER
 62
     1
 10
303.379378
 20
-321.213956
 30
0.0
 40
2.000007
 50
274.743922
 51
330.255438
  0
ARC
  8
0
  6
BYLAYER
 62
     1
 10
356.455336
 20
-293.884916
 30
0.0
 40
1.999982
 50
319.743667
 51
375.255565
  0
ARC
  8
0
  6
BYLAYER
 62
     1
 10
296.928328
 20
-243.481229
 30
0.0
 40
79.999954
 50
310.255879
 51
319.744104
  0
ARC
  8
0
  6
BYLAYER
 62
     1
 10
337.110121
 20
-340.488553
 30
0.0
 40
36.849358
 50
74.744816
 51
150.255242
  0
ARC
  8
0
  6
BYLAYER
 62
     1
 10
347.332045
 20
-303.008146
 30
0.0
 40
2.000029
 50
254.744582
 51
310.256261
  0
ARC
  8
0
  6
BYLAYER
 62
     1
 10
393.935683
 20
-283.662992
 30
0.0
 40
36.849327
 50
119.744732
 51
195.25526
  0
ARC
  8
0
  6
BYLAYER
 62
     1
 10
374.661147
 20
-249.932279
 30
0.0
 40
1.999894
 50
299.744108
 51
355.255733
  0
ARC
  8
0
  6
BYLAYER
 62
     1
 10
296.928328
 20
-243.481229
 30
0.0
 40
79.999939
 50
355.25587
 51
360.000010
  0
CIRCLE
  8
0
  6
BYLAYER
 62
     1
 10
342.890151
 20
-197.519193
 30
0.0
 40
4.5
  0
ARC
  8
0
  6
BYLAYER
 62
     1
 10
296.928328
 20
-243.481229
 30
0.0
 40
80.000031
 50
0.000010
 51
4.744123
  0
ARC
  8
0
  6
BYLAYER
 62
     1
 10
374.661147
 20
-237.030179
 30
0.0
 40
2.000030
 50
4.743932
 51
60.255444
  0
ARC
  8
0
  6
BYLAYER
 62
     1
 10
347.332167
 20
-183.954251
 30
0.0
 40
1.999997
 50
49.743650
 51
105.255544
  0
ARC
  8
0
  6
BYLAYER
 62
     1
 10
296.928328
 20
-243.481229
 30
0.0
 40
79.999962
 50
40.255861
 51
49.744114
  0
ARC
  8
0
  6
BYLAYER
 62
     1
 10
356.455336
 20
-193.077420
 30
0.0
 40
1.999904
 50
344.744591
 51
400.256271
  0
ARC
  8
0
  6
BYLAYER
 62
     1
 10
303.379378
 20
-165.748441
 30
0.0
 40
2.000015
 50
29.744118
 51
85.255739
  0
ARC
  8
0
  6
BYLAYER
 62
     1
 10
296.928328
 20
-243.481229
 30
0.0
 40
80.000031
 50
85.255876
 51
90.000016
  0
ARC
  8
0
  6
BYLAYER
 62
     1
 10
250.966414
 20
-197.519193
 30
0.0
 40
5.0
 50
38.659991
 51
321.339992
  0
ARC
  8
0
  6
BYLAYER
 62
     1
 10
231.928328
 20
-243.481229
 30
0.0
 40
4.999999
 50
83.660009
 51
366.340010
  0
ARC
  8
0
  6
BYLAYER
 62
     1
 10
250.966414
 20
-289.443143
 30
0.0
 40
4.999962
 50
128.660028
 51
411.340001
  0
ARC
  8
0
  6
BYLAYER
 62
     1
 10
296.928328
 20
-308.481168
 30
0.0
 40
4.999999
 50
173.660015
 51
456.340016
  0
ARC
  8
0
  6
BYLAYER
 62
     1
 10
342.890273
 20
-289.443143
 30
0.0
 40
5.0
 50
218.660013
 51
501.340041
  0
ARC
  8
0
  6
BYLAYER
 62
     1
 10
361.928359
 20
-243.481229
 30
0.0
 40
5.000060
 50
263.659977
 51
546.340005
  0
ARC
  8
0
  6
BYLAYER
 62
     1
 10
342.890273
 20
-197.519193
 30
0.0
 40
5.000096
 50
308.659982
 51
591.339955
  0
CIRCLE
  8
0
  6
BYLAYER
 62
     1
 10
296.928328
 20
-308.481168
 30
0.0
 40
4.5
  0
CIRCLE
  8
0
  6
BYLAYER
 62
     1
 10
361.928359
 20
-243.481229
 30
0.0
 40
4.5
  0
ARC
  8
0
  6
BYLAYER
 62
     1
 10
337.110121
 20
-146.473783
 30
0.0
 40
36.849327
 50
209.744796
 51
285.255256
  0
ARC
  8
0
  6
BYLAYER
 62
     1
 10
296.928328
 20
-243.481229
 30
0.0
 40
54.999939
 50
270.0
 51
360.000003
  0
ARC
  8
0
  6
BYLAYER
 62
     1
 10
296.928328
 20
-243.481229
 30
0.0
 40
97.5
 50
245.301818
 51
294.698190
  0
ARC
  8
0
  6
BYLAYER
 62
     1
 10
296.928328
 20
-243.481229
 30
0.0
 40
97.500000
 50
155.301809
 51
204.698181
  0
ARC
  8
0
  6
BYLAYER
 62
     1
 10
210.164534
 20
-283.384793
 30
0.0
 40
2.0
 50
204.698188
 51
255.0
  0
ARC
  8
0
  6
BYLAYER
 62
     1
 10
210.164534
 20
-203.577665
 30
0.0
 40
2.0
 50
104.999996
 51
155.301809
  0
ARC
  8
0
  6
BYLAYER
 62
     1
 10
296.928328
 20
-243.481229
 30
0.0
 40
97.500000
 50
65.301813
 51
114.698185
  0
ARC
  8
0
  6
BYLAYER
 62
     1
 10
296.928328
 20
-243.481229
 30
0.0
 40
97.5
 50
335.301827
 51
384.698199
  0
ARC
  8
0
  6
BYLAYER
 62
     1
 10
296.928328
 20
-243.481229
 30
0.0
 40
42.500015
 50
45.000015
 51
90.000003
  0
ARC
  8
0
  6
BYLAYER
 62
     1
 10
296.928328
 20
-243.481229
 30
0.0
 40
42.500000
 50
180.000005
 51
404.999974
  0
ARC
  8
0
  6
BYLAYER
 62
     1
 10
393.935683
 20
-203.299344
 30
0.0
 40
36.849373
 50
225.361600
 51
240.255401
  0
ARC
  8
0
  6
BYLAYER
 62
     1
 10
359.086440
 20
-203.312894
 30
0.0
 40
2.000022
 50
180.022736
 51
274.620241
  0
ARC
  8
0
  6
BYLAYER
 62
     1
 10
360.214125
 20
-217.267423
 30
0.0
 40
11.999949
 50
310.379888
 51
454.620246
  0
ARC
  8
0
  6
BYLAYER
 62
     1
 10
369.284071
 20
-227.932157
 30
0.0
 40
2.000067
 50
130.380156
 51
224.977743
  0
ARC
  8
0
  6
BYLAYER
 62
     1
 10
393.935805
 20
-203.299405
 30
0.0
 40
36.849331
 50
164.744791
 51
240.255265
  0
LINE
  8
0
  6
BYLAYER
 62
     1
 10
384.209731
 20
-285.316648
 30
0.0
 11
368.361586
 21
-289.563138
 31
0.0
  0
ARC
  8
0
  6
BYLAYER
 62
     1
 10
383.692152
 20
-283.384793
 30
0.0
 40
2.0
 50
284.999998
 51
335.301810
  0
LINE
  8
0
  6
BYLAYER
 62
     1
 10
343.007597
 20
-314.924436
 30
0.0
 11
338.763747
 21
-330.762662
 31
0.0
  0
ARC
  8
0
  6
BYLAYER
 62
     1
 10
336.831862
 20
-330.245023
 30
0.0
 40
2.0
 50
294.698200
 51
345.000013
  0
ARC
  8
0
  6
BYLAYER
 62
     1
 10
344.942091
 20
-315.432096
 30
0.0
 40
2.000000
 50
123.715705
 51
164.999994
  0
ARC
  8
0
  6
BYLAYER
 62
     1
 10
343.602126
 20
-320.432859
 30
0.0
 40
2.0
 50
121.238252
 51
164.999994
  0
ARC
  8
0
  6
BYLAYER
 62
     1
 10
296.928328
 20
-243.481229
 30
0.0
 40
88.0
 50
301.238253
 51
328.761739
  0
ARC
  8
0
  6
BYLAYER
 62
     1
 10
373.879958
 20
-290.155057
 30
0.0
 40
2.0
 50
104.999996
 51
148.761739
  0
ARC
  8
0
  6
BYLAYER
 62
     1
 10
296.928328
 20
-243.481229
 30
0.0
 40
84.5
 50
303.715700
 51
326.284277
  0
ARC
  8
0
  6
BYLAYER
 62
     1
 10
368.879225
 20
-291.494992
 30
0.0
 40
2.0
 50
105.000003
 51
146.284292
  0
LINE
  8
0
  6
BYLAYER
 62
     1
 10
338.763747
 20
-156.199796
 30
0.0
 11
343.010268
 21
-172.048001
 31
0.0
  0
ARC
  8
0
  6
BYLAYER
 62
     1
 10
336.831862
 20
-156.717435
 30
0.0
 40
2.0
 50
15.0
 51
65.301813
  0
LINE
  8
0
  6
BYLAYER
 62
     1
 10
368.361586
 20
-197.399320
 30
0.0
 11
384.209731
 21
-201.645810
 31
0.0
  0
ARC
  8
0
  6
BYLAYER
 62
     1
 10
383.692152
 20
-203.577665
 30
0.0
 40
2.0
 50
24.698186
 51
74.999999
  0
ARC
  8
0
  6
BYLAYER
 62
     1
 10
368.879225
 20
-195.467466
 30
0.0
 40
2.0
 50
213.715714
 51
255.000004
  0
ARC
  8
0
  6
BYLAYER
 62
     1
 10
373.879958
 20
-196.807401
 30
0.0
 40
2.0
 50
211.238261
 51
255.000004
  0
ARC
  8
0
  6
BYLAYER
 62
     1
 10
296.928328
 20
-243.481229
 30
0.0
 40
88.0
 50
31.238256
 51
58.761741
  0
ARC
  8
0
  6
BYLAYER
 62
     1
 10
343.602126
 20
-166.529599
 30
0.0
 40
2.000000
 50
195.000005
 51
238.761748
  0
ARC
  8
0
  6
BYLAYER
 62
     1
 10
296.928328
 20
-243.481229
 30
0.0
 40
84.5
 50
33.715713
 51
56.284290
  0
ARC
  8
0
  6
BYLAYER
 62
     1
 10
344.942091
 20
-171.530362
 30
0.0
 40
2.0
 50
195.000012
 51
236.284302
  0
LINE
  8
0
  6
BYLAYER
 62
     1
 10
209.646895
 20
-201.645810
 30
0.0
 11
225.495100
 21
-197.399320
 31
0.0
  0
LINE
  8
0
  6
BYLAYER
 62
     1
 10
250.846419
 20
-172.048001
 30
0.0
 11
255.092909
 21
-156.199796
 31
0.0
  0
ARC
  8
0
  6
BYLAYER
 62
     1
 10
257.024764
 20
-156.717435
 30
0.0
 40
2.000000
 50
114.698182
 51
164.999994
  0
ARC
  8
0
  6
BYLAYER
 62
     1
 10
248.914565
 20
-171.530362
 30
0.0
 40
2.0
 50
303.715723
 51
345.000013
  0
ARC
  8
0
  6
BYLAYER
 62
     1
 10
250.254500
 20
-166.529599
 30
0.0
 40
2.0
 50
301.238270
 51
345.000013
  0
ARC
  8
0
  6
BYLAYER
 62
     1
 10
296.928328
 20
-243.481229
 30
0.0
 40
88.000000
 50
121.238262
 51
148.761747
  0
ARC
  8
0
  6
BYLAYER
 62
     1
 10
219.976698
 20
-196.807401
 30
0.0
 40
2.0
 50
284.999987
 51
328.761730
  0
ARC
  8
0
  6
BYLAYER
 62
     1
 10
296.928328
 20
-243.481229
 30
0.0
 40
84.500000
 50
123.715708
 51
146.284286
  0
ARC
  8
0
  6
BYLAYER
 62
     1
 10
224.977461
 20
-195.467466
 30
0.0
 40
2.000000
 50
284.999994
 51
326.284284
  0
LINE
  8
0
  6
BYLAYER
 62
     1
 10
255.092909
 20
-330.762662
 30
0.0
 11
250.846419
 21
-314.914457
 31
0.0
  0
ARC
  8
0
  6
BYLAYER
 62
     1
 10
257.024764
 20
-330.245023
 30
0.0
 40
2.0
 50
195.000002
 51
245.301815
  0
LINE
  8
0
  6
BYLAYER
 62
     1
 10
225.495100
 20
-289.563138
 30
0.0
 11
209.646895
 21
-285.316648
 31
0.0
  0
ARC
  8
0
  6
BYLAYER
 62
     1
 10
224.977461
 20
-291.494992
 30
0.0
 40
2.000000
 50
33.715709
 51
74.999999
  0
ARC
  8
0
  6
BYLAYER
 62
     1
 10
219.976698
 20
-290.155057
 30
0.0
 40
2.0
 50
31.238256
 51
74.999999
  0
ARC
  8
0
  6
BYLAYER
 62
     1
 10
296.928328
 20
-243.481229
 30
0.0
 40
88.0
 50
211.238258
 51
238.761743
  0
ARC
  8
0
  6
BYLAYER
 62
     1
 10
250.254500
 20
-320.432859
 30
0.0
 40
2.000000
 50
15.000000
 51
58.761743
  0
ARC
  8
0
  6
BYLAYER
 62
     1
 10
296.928328
 20
-243.481229
 30
0.0
 40
84.5
 50
213.715718
 51
236.284295
  0
ARC
  8
0
  6
BYLAYER
 62
     1
 10
248.914565
 20
-315.432096
 30
0.0
 40
2.000000
 50
15.000000
 51
56.284290
  0
ARC
  8
0
  6
BYLAYER
 62
     1
 10
281.988062
 20
-139.411872
 30
0.0
 40
2.873727
 50
270.0
 51
308.795511
  0
ARC
  8
0
  6
BYLAYER
 62
     1
 10
281.709960
 20
-139.115692
 30
0.0
 40
3.278957
 50
309.340351
 51
360.000000
  0
ARC
  8
0
  6
BYLAYER
 62
     1
 10
281.709960
 20
-139.115692
 30
0.0
 40
3.278957
 50
0.0
 51
50.659649
  0
ARC
  8
0
  6
BYLAYER
 62
     1
 10
281.988062
 20
-138.819512
 30
0.0
 40
2.873727
 50
51.204489
 51
90.000000
  0
ARC
  8
0
  6
BYLAYER
 62
     1
 10
281.988062
 20
-138.819486
 30
0.0
 40
2.873701
 50
90.0
 51
128.795693
  0
ARC
  8
0
  6
BYLAYER
 62
     1
 10
282.266190
 20
-139.115692
 30
0.0
 40
3.278967
 50
129.340576
 51
180.0
  0
ARC
  8
0
  6
BYLAYER
 62
     1
 10
282.266190
 20
-139.115692
 30
0.0
 40
3.278967
 50
180.000000
 51
230.659424
  0
ARC
  8
0
  6
BYLAYER
 62
     1
 10
281.988062
 20
-139.411898
 30
0.0
 40
2.873701
 50
231.204307
 51
270.000000
  0
ARC
  8
0
  6
BYLAYER
 62
     1
 10
281.988062
 20
-138.272541
 30
0.0
 40
1.329747
 50
90.0
 51
140.793201
  0
ARC
  8
0
  6
BYLAYER
 62
     1
 10
283.021617
 20
-139.115692
 30
0.0
 40
2.663590
 50
140.793201
 51
180.000000
  0
ARC
  8
0
  6
BYLAYER
 62
     1
 10
283.021601
 20
-139.115692
 30
0.0
 40
2.663574
 50
180.000000
 51
219.206869
  0
ARC
  8
0
  6
BYLAYER
 62
     1
 10
281.988062
 20
-139.958832
 30
0.0
 40
1.329750
 50
219.206869
 51
270.000000
  0
ARC
  8
0
  6
BYLAYER
 62
     1
 10
281.988062
 20
-139.958832
 30
0.0
 40
1.329750
 50
270.0
 51
320.793131
  0
ARC
  8
0
  6
BYLAYER
 62
     1
 10
280.954524
 20
-139.115692
 30
0.0
 40
2.663574
 50
320.793131
 51
360.000000
  0
ARC
  8
0
  6
BYLAYER
 62
     1
 10
280.954508
 20
-139.115692
 30
0.0
 40
2.663590
 50
0.0
 51
39.206799
  0
ARC
  8
0
  6
BYLAYER
 62
     1
 10
281.988062
 20
-138.272541
 30
0.0
 40
1.329747
 50
39.206799
 51
90.0
  0
LINE
  8
0
  6
BYLAYER
 62
     1
 10
272.140223
 20
-142.074264
 30
0.0
 11
272.140223
 21
-136.072571
 31
0.0
  0
LINE
  8
0
  6
BYLAYER
 62
     1
 10
272.140223
 20
-136.072571
 30
0.0
 11
274.580348
 21
-136.072571
 31
0.0
  0
LINE
  8
0
  6
BYLAYER
 62
     1
 10
274.580348
 20
-136.072571
 30
0.0
 11
275.394663
 21
-139.200226
 31
0.0
  0
LINE
  8
0
  6
BYLAYER
 62
     1
 10
272.140223
 20
-142.074264
 30
0.0
 11
273.605433
 21
-142.074264
 31
0.0
  0
LINE
  8
0
  6
BYLAYER
 62
     1
 10
273.605433
 20
-142.074264
 30
0.0
 11
273.605433
 21
-138.608505
 31
0.0
  0
LINE
  8
0
  6
BYLAYER
 62
     1
 10
274.760676
 20
-142.074264
 30
0.0
 11
273.605433
 21
-138.608505
 31
0.0
  0
LINE
  8
0
  6
BYLAYER
 62
     1
 10
278.649104
 20
-142.074264
 30
0.0
 11
278.649104
 21
-136.072571
 31
0.0
  0
LINE
  8
0
  6
BYLAYER
 62
     1
 10
278.649104
 20
-136.072571
 30
0.0
 11
276.208979
 21
-136.072571
 31
0.0
  0
LINE
  8
0
  6
BYLAYER
 62
     1
 10
276.208979
 20
-136.072571
 30
0.0
 11
275.394663
 21
-139.200226
 31
0.0
  0
LINE
  8
0
  6
BYLAYER
 62
     1
 10
278.649104
 20
-142.074264
 30
0.0
 11
277.183894
 21
-142.074264
 31
0.0
  0
LINE
  8
0
  6
BYLAYER
 62
     1
 10
277.183894
 20
-142.074264
 30
0.0
 11
277.183894
 21
-138.608505
 31
0.0
  0
LINE
  8
0
  6
BYLAYER
 62
     1
 10
276.028651
 20
-142.074264
 30
0.0
 11
277.183894
 21
-138.608505
 31
0.0
  0
LINE
  8
0
  6
BYLAYER
 62
     1
 10
276.028651
 20
-142.074264
 30
0.0
 11
274.760676
 21
-142.074264
 31
0.0
  0
LINE
  8
0
  6
BYLAYER
 62
     1
 10
300.119944
 20
-142.074264
 30
0.0
 11
302.402262
 21
-136.072571
 31
0.0
  0
LINE
  8
0
  6
BYLAYER
 62
     1
 10
300.119944
 20
-142.074264
 30
0.0
 11
302.064158
 21
-142.074264
 31
0.0
  0
LINE
  8
0
  6
BYLAYER
 62
     1
 10
302.402262
 20
-136.072571
 30
0.0
 11
304.261942
 21
-136.072571
 31
0.0
  0
LINE
  8
0
  6
BYLAYER
 62
     1
 10
302.064158
 20
-142.074264
 30
0.0
 11
302.352335
 21
-141.228958
 31
0.0
  0
LINE
  8
0
  6
BYLAYER
 62
     1
 10
302.813395
 20
-139.876465
 30
0.0
 11
303.332102
 21
-138.354904
 31
0.0
  0
LINE
  8
0
  6
BYLAYER
 62
     1
 10
306.544291
 20
-142.074264
 30
0.0
 11
304.261942
 21
-136.072571
 31
0.0
  0
LINE
  8
0
  6
BYLAYER
 62
     1
 10
306.544291
 20
-142.074264
 30
0.0
 11
304.600077
 21
-142.074264
 31
0.0
  0
LINE
  8
0
  6
BYLAYER
 62
     1
 10
304.311900
 20
-141.228958
 30
0.0
 11
302.352335
 21
-141.228958
 31
0.0
  0
LINE
  8
0
  6
BYLAYER
 62
     1
 10
303.850810
 20
-139.876465
 30
0.0
 11
302.813395
 21
-139.876465
 31
0.0
  0
LINE
  8
0
  6
BYLAYER
 62
     1
 10
304.600077
 20
-142.074264
 30
0.0
 11
304.311900
 21
-141.228958
 31
0.0
  0
LINE
  8
0
  6
BYLAYER
 62
     1
 10
303.850810
 20
-139.876465
 30
0.0
 11
303.332102
 21
-138.354904
 31
0.0
  0
LINE
  8
0
  6
BYLAYER
 62
     1
 10
284.988917
 20
-137.551864
 30
0.0
 11
286.679530
 21
-137.551864
 31
0.0
  0
LINE
  8
0
  6
BYLAYER
 62
     1
 10
286.679530
 20
-137.551864
 30
0.0
 11
286.679530
 21
-142.074264
 31
0.0
  0
LINE
  8
0
  6
BYLAYER
 62
     1
 10
286.679530
 20
-142.074264
 30
0.0
 11
288.539225
 21
-142.074264
 31
0.0
  0
LINE
  8
0
  6
BYLAYER
 62
     1
 10
288.539225
 20
-142.074264
 30
0.0
 11
288.539225
 21
-137.551864
 31
0.0
  0
LINE
  8
0
  6
BYLAYER
 62
     1
 10
288.539225
 20
-137.551864
 30
0.0
 11
290.229838
 21
-137.551864
 31
0.0
  0
LINE
  8
0
  6
BYLAYER
 62
     1
 10
290.229838
 20
-137.551864
 30
0.0
 11
290.229838
 21
-136.072571
 31
0.0
  0
LINE
  8
0
  6
BYLAYER
 62
     1
 10
290.229838
 20
-136.072571
 30
0.0
 11
284.988917
 21
-136.072571
 31
0.0
  0
LINE
  8
0
  6
BYLAYER
 62
     1
 10
284.988917
 20
-136.072571
 30
0.0
 11
284.988917
 21
-137.551864
 31
0.0
  0
ARC
  8
0
  6
BYLAYER
 62
     1
 10
293.230677
 20
-139.411898
 30
0.0
 40
2.873701
 50
270.0
 51
308.795693
  0
ARC
  8
0
  6
BYLAYER
 62
     1
 10
292.952549
 20
-139.115692
 30
0.0
 40
3.278967
 50
309.340576
 51
360.000000
  0
ARC
  8
0
  6
BYLAYER
 62
     1
 10
292.952560
 20
-139.115692
 30
0.0
 40
3.278957
 50
0.0
 51
50.659649
  0
ARC
  8
0
  6
BYLAYER
 62
     1
 10
293.230662
 20
-138.819512
 30
0.0
 40
2.873727
 50
51.204489
 51
90.000000
  0
ARC
  8
0
  6
BYLAYER
 62
     1
 10
293.230662
 20
-138.819486
 30
0.0
 40
2.873701
 50
90.0
 51
128.795693
  0
ARC
  8
0
  6
BYLAYER
 62
     1
 10
293.508790
 20
-139.115692
 30
0.0
 40
3.278967
 50
129.340576
 51
180.000000
  0
ARC
  8
0
  6
BYLAYER
 62
     1
 10
293.508779
 20
-139.115692
 30
0.0
 40
3.278957
 50
180.000000
 51
230.659649
  0
ARC
  8
0
  6
BYLAYER
 62
     1
 10
293.230677
 20
-139.411872
 30
0.0
 40
2.873727
 50
231.204489
 51
270.000000
  0
ARC
  8
0
  6
BYLAYER
 62
     1
 10
293.230662
 20
-138.272541
 30
0.0
 40
1.329747
 50
90.0
 51
140.793201
  0
ARC
  8
0
  6
BYLAYER
 62
     1
 10
294.264216
 20
-139.115692
 30
0.0
 40
2.663590
 50
140.793201
 51
180.000000
  0
ARC
  8
0
  6
BYLAYER
 62
     1
 10
294.264183
 20
-139.115692
 30
0.0
 40
2.663556
 50
180.000000
 51
219.207055
  0
ARC
  8
0
  6
BYLAYER
 62
     1
 10
293.230677
 20
-139.958810
 30
0.0
 40
1.329771
 50
219.207055
 51
270.0
  0
ARC
  8
0
  6
BYLAYER
 62
     1
 10
293.230677
 20
-139.958832
 30
0.0
 40
1.329750
 50
270.0
 51
320.793131
  0
ARC
  8
0
  6
BYLAYER
 62
     1
 10
292.197138
 20
-139.115692
 30
0.0
 40
2.663574
 50
320.793131
 51
360.0
  0
ARC
  8
0
  6
BYLAYER
 62
     1
 10
292.197140
 20
-139.115692
 30
0.0
 40
2.663572
 50
0.0
 51
39.206985
  0
ARC
  8
0
  6
BYLAYER
 62
     1
 10
293.230662
 20
-138.272562
 30
0.0
 40
1.329768
 50
39.206985
 51
90.000000
  0
LINE
  8
0
  6
BYLAYER
 62
     1
 10
306.706278
 20
-142.074264
 30
0.0
 11
306.706278
 21
-136.072571
 31
0.0
  0
LINE
  8
0
  6
BYLAYER
 62
     1
 10
306.706278
 20
-136.072571
 30
0.0
 11
310.425623
 21
-136.072571
 31
0.0
  0
ARC
  8
0
  6
BYLAYER
 62
     1
 10
310.425623
 20
-137.763199
 30
0.0
 40
1.690610
 50
287.134650
 51
450.000006
  0
ARC
  8
0
  6
BYLAYER
 62
     1
 10
310.763758
 20
-140.721771
 30
0.0
 40
1.352493
 50
0.0
 51
83.207557
  0
LINE
  8
0
  6
BYLAYER
 62
     1
 10
312.116251
 20
-140.721771
 30
0.0
 11
312.116251
 21
-141.567077
 31
0.0
  0
ARC
  8
0
  6
BYLAYER
 62
     1
 10
313.468745
 20
-141.567077
 30
0.0
 40
1.352493
 50
180.000000
 51
202.024314
  0
LINE
  8
0
  6
BYLAYER
 62
     1
 10
310.355265
 20
-142.074264
 30
0.0
 11
312.214945
 21
-142.074264
 31
0.0
  0
ARC
  8
0
  6
BYLAYER
 62
     1
 10
311.609065
 20
-141.567077
 30
0.0
 40
1.352493
 50
180.000000
 51
202.024314
  0
LINE
  8
0
  6
BYLAYER
 62
     1
 10
310.256571
 20
-141.567077
 30
0.0
 11
310.256571
 21
-140.890838
 31
0.0
  0
LINE
  8
0
  6
BYLAYER
 62
     1
 10
306.706278
 20
-142.074264
 30
0.0
 11
308.481425
 21
-142.074264
 31
0.0
  0
LINE
  8
0
  6
BYLAYER
 62
     1
 10
308.481425
 20
-142.074264
 30
0.0
 11
308.481425
 21
-140.045532
 31
0.0
  0
LINE
  8
0
  6
BYLAYER
 62
     1
 10
309.411265
 20
-140.045532
 30
0.0
 11
308.481425
 21
-140.045532
 31
0.0
  0
ARC
  8
0
  6
BYLAYER
 62
     1
 10
309.411265
 20
-140.890838
 30
0.0
 40
0.845306
 50
0.0
 51
90.000003
  0
LINE
  8
0
  6
BYLAYER
 62
     1
 10
308.481425
 20
-138.693039
 30
0.0
 11
308.481425
 21
-137.425064
 31
0.0
  0
LINE
  8
0
  6
BYLAYER
 62
     1
 10
308.481425
 20
-137.425064
 30
0.0
 11
309.664851
 21
-137.425064
 31
0.0
  0
LINE
  8
0
  6
BYLAYER
 62
     1
 10
308.481425
 20
-138.693039
 30
0.0
 11
309.664851
 21
-138.693039
 31
0.0
  0
ARC
  8
0
  6
BYLAYER
 62
     1
 10
309.664851
 20
-138.059051
 30
0.0
 40
0.633987
 50
270.0
 51
450.000005
  0
LINE
  8
0
  6
BYLAYER
 62
     1
 10
298.640666
 20
-140.176468
 30
0.0
 11
297.541758
 21
-136.072571
 31
0.0
  0
LINE
  8
0
  6
BYLAYER
 62
     1
 10
297.541758
 20
-136.072571
 30
0.0
 11
295.766612
 21
-136.072571
 31
0.0
  0
LINE
  8
0
  6
BYLAYER
 62
     1
 10
295.766612
 20
-136.072571
 30
0.0
 11
297.626292
 21
-142.074264
 31
0.0
  0
LINE
  8
0
  6
BYLAYER
 62
     1
 10
298.640666
 20
-140.176468
 30
0.0
 11
299.739542
 21
-136.072571
 31
0.0
  0
LINE
  8
0
  6
BYLAYER
 62
     1
 10
299.739542
 20
-136.072571
 30
0.0
 11
301.514689
 21
-136.072571
 31
0.0
  0
LINE
  8
0
  6
BYLAYER
 62
     1
 10
301.514689
 20
-136.072571
 30
0.0
 11
299.655009
 21
-142.074264
 31
0.0
  0
LINE
  8
0
  6
BYLAYER
 62
     1
 10
299.655009
 20
-142.074264
 30
0.0
 11
297.626292
 21
-142.074264
 31
0.0
  0
LINE
  8
0
  6
BYLAYER
 62
     1
 10
312.376933
 20
-142.074264
 30
0.0
 11
314.152079
 21
-142.074264
 31
0.0
  0
LINE
  8
0
  6
BYLAYER
 62
     1
 10
314.152079
 20
-142.074264
 30
0.0
 11
314.152079
 21
-136.072571
 31
0.0
  0
LINE
  8
0
  6
BYLAYER
 62
     1
 10
314.152079
 20
-136.072571
 30
0.0
 11
312.376933
 21
-136.072571
 31
0.0
  0
LINE
  8
0
  6
BYLAYER
 62
     1
 10
312.376933
 20
-136.072571
 30
0.0
 11
312.376933
 21
-142.074264
 31
0.0
  0
ARC
  8
0
  6
BYLAYER
 62
     1
 10
317.491053
 20
-139.411898
 30
0.0
 40
2.873701
 50
270.0
 51
308.795693
  0
ARC
  8
0
  6
BYLAYER
 62
     1
 10
317.212925
 20
-139.115692
 30
0.0
 40
3.278967
 50
309.340576
 51
360.000000
  0
ARC
  8
0
  6
BYLAYER
 62
     1
 10
317.212925
 20
-139.115692
 30
0.0
 40
3.278967
 50
0.0
 51
50.659424
  0
ARC
  8
0
  6
BYLAYER
 62
     1
 10
317.491053
 20
-138.819486
 30
0.0
 40
2.873701
 50
51.204307
 51
90.000000
  0
ARC
  8
0
  6
BYLAYER
 62
     1
 10
317.491053
 20
-138.819486
 30
0.0
 40
2.873701
 50
90.0
 51
128.795693
  0
ARC
  8
0
  6
BYLAYER
 62
     1
 10
317.769181
 20
-139.115692
 30
0.0
 40
3.278967
 50
129.340576
 51
180.000000
  0
ARC
  8
0
  6
BYLAYER
 62
     1
 10
317.769181
 20
-139.115692
 30
0.0
 40
3.278967
 50
180.000000
 51
230.659424
  0
ARC
  8
0
  6
BYLAYER
 62
     1
 10
317.491053
 20
-139.411898
 30
0.0
 40
2.873701
 50
231.204307
 51
270.000000
  0
ARC
  8
0
  6
BYLAYER
 62
     1
 10
317.491053
 20
-138.272541
 30
0.0
 40
1.329747
 50
39.206799
 51
90.0
  0
ARC
  8
0
  6
BYLAYER
 62
     1
 10
316.457498
 20
-139.115692
 30
0.0
 40
2.663590
 50
0.0
 51
39.206799
  0
ARC
  8
0
  6
BYLAYER
 62
     1
 10
316.457514
 20
-139.115692
 30
0.0
 40
2.663574
 50
320.793131
 51
360.0
  0
ARC
  8
0
  6
BYLAYER
 62
     1
 10
317.491053
 20
-139.958832
 30
0.0
 40
1.329750
 50
270.0
 51
320.793131
  0
ARC
  8
0
  6
BYLAYER
 62
     1
 10
317.491053
 20
-139.958832
 30
0.0
 40
1.329750
 50
219.206869
 51
270.000000
  0
ARC
  8
0
  6
BYLAYER
 62
     1
 10
318.524592
 20
-139.115692
 30
0.0
 40
2.663574
 50
180.000000
 51
219.206869
  0
ARC
  8
0
  6
BYLAYER
 62
     1
 10
318.524608
 20
-139.115692
 30
0.0
 40
2.663590
 50
140.793201
 51
180.000000
  0
ARC
  8
0
  6
BYLAYER
 62
     1
 10
317.491053
 20
-138.272541
 30
0.0
 40
1.329747
 50
90.0
 51
140.793201
  0
ARC
  8
0
  6
BYLAYER
 62
     1
 10
287.519190
 20
-129.201843
 30
0.0
 40
7.429995
 50
174.535650
 51
180.0
  0
LINE
  8
0
  6
BYLAYER
 62
     1
 10
280.122958
 20
-128.494308
 30
0.0
 11
280.122958
 21
-128.494301
 31
0.0
  0
LINE
  8
0
  6
BYLAYER
 62
     1
 10
280.131043
 20
-128.414378
 30
0.0
 11
280.840145
 21
-128.115835
 31
0.0
  0
ARC
  8
0
  6
BYLAYER
 62
     1
 10
287.519221
 20
-129.201904
 30
0.0
 40
6.766781
 50
159.235383
 51
170.763998
  0
LINE
  8
0
  6
BYLAYER
 62
     1
 10
281.191946
 20
-126.802839
 30
0.0
 11
280.727147
 21
-126.189725
 31
0.0
  0
ARC
  8
0
  6
BYLAYER
 62
     1
 10
287.519190
 20
-129.201843
 30
0.0
 40
7.429986
 50
144.139514
 51
156.083795
  0
LINE
  8
0
  6
BYLAYER
 62
     1
 10
281.448725
 20
-124.917648
 30
0.0
 11
281.449168
 21
-124.917022
 31
0.0
  0
LINE
  8
0
  6
BYLAYER
 62
     1
 10
281.497589
 20
-124.849256
 30
0.0
 11
282.252514
 21
-124.953120
 31
0.0
  0
ARC
  8
0
  6
BYLAYER
 62
     1
 10
287.519190
 20
-129.201843
 30
0.0
 40
6.766741
 50
129.235643
 51
141.105976
  0
LINE
  8
0
  6
BYLAYER
 62
     1
 10
283.128504
 20
-124.052986
 30
0.0
 11
283.129237
 21
-124.052353
 31
0.0
  0
LINE
  8
0
  6
BYLAYER
 62
     1
 10
283.239151
 20
-123.960656
 30
0.0
 11
283.143157
 21
-123.197250
 31
0.0
  0
ARC
  8
0
  6
BYLAYER
 62
     1
 10
287.519190
 20
-129.201843
 30
0.0
 40
7.429994
 50
114.139607
 51
126.083853
  0
LINE
  8
0
  6
BYLAYER
 62
     1
 10
284.404643
 20
-122.456146
 30
0.0
 11
284.405146
 21
-122.455910
 31
0.0
  0
LINE
  8
0
  6
BYLAYER
 62
     1
 10
284.480610
 20
-122.421589
 30
0.0
 11
285.082439
 21
-122.888984
 31
0.0
  0
LINE
  8
0
  6
BYLAYER
 62
     1
 10
285.220042
 20
-122.837662
 30
0.0
 11
285.220805
 21
-122.837394
 31
0.0
  0
ARC
  8
0
  6
BYLAYER
 62
     1
 10
287.519190
 20
-129.201843
 30
0.0
 40
6.766738
 50
99.235601
 51
111.106038
  0
ARC
  8
0
  6
BYLAYER
 62
     1
 10
287.519190
 20
-129.201843
 30
0.0
 40
7.429995
 50
90.0
 51
96.083892
  0
LINE
  8
0
  6
BYLAYER
 62
     1
 10
286.731726
 20
-121.813695
 30
0.0
 11
286.433166
 21
-122.522824
 31
0.0
  0
LINE
  8
0
  6
BYLAYER
 62
     1
 10
294.915415
 20
-128.494308
 30
0.0
 11
294.915415
 21
-128.494301
 31
0.0
  0
LINE
  8
0
  6
BYLAYER
 62
     1
 10
294.907338
 20
-128.414377
 30
0.0
 11
294.198199
 21
-128.115828
 31
0.0
  0
ARC
  8
0
  6
BYLAYER
 62
     1
 10
287.519145
 20
-129.201904
 30
0.0
 40
6.766781
 50
9.235986
 51
20.764650
  0
LINE
  8
0
  6
BYLAYER
 62
     1
 10
293.846468
 20
-126.802768
 30
0.0
 11
294.311234
 21
-126.189727
 31
0.0
  0
ARC
  8
0
  6
BYLAYER
 62
     1
 10
287.519190
 20
-129.201843
 30
0.0
 40
7.429986
 50
23.916189
 51
35.860484
  0
LINE
  8
0
  6
BYLAYER
 62
     1
 10
293.589640
 20
-124.917648
 30
0.0
 11
293.589198
 21
-124.917022
 31
0.0
  0
LINE
  8
0
  6
BYLAYER
 62
     1
 10
293.540792
 20
-124.849256
 30
0.0
 11
292.785920
 21
-124.953110
 31
0.0
  0
ARC
  8
0
  6
BYLAYER
 62
     1
 10
287.519190
 20
-129.201843
 30
0.0
 40
6.766741
 50
38.894050
 51
50.764315
  0
LINE
  8
0
  6
BYLAYER
 62
     1
 10
291.909876
 20
-124.052986
 30
0.0
 11
291.909144
 21
-124.052353
 31
0.0
  0
LINE
  8
0
  6
BYLAYER
 62
     1
 10
291.799250
 20
-123.960534
 30
0.0
 11
291.895208
 21
-123.197238
 31
0.0
  0
ARC
  8
0
  6
BYLAYER
 62
     1
 10
287.519190
 20
-129.201843
 30
0.0
 40
7.429994
 50
53.916300
 51
65.860381
  0
LINE
  8
0
  6
BYLAYER
 62
     1
 10
290.633738
 20
-122.456146
 30
0.0
 11
290.633219
 21
-122.455910
 31
0.0
  0
LINE
  8
0
  6
BYLAYER
 62
     1
 10
290.557772
 20
-122.421590
 30
0.0
 11
289.955949
 21
-122.888963
 31
0.0
  0
LINE
  8
0
  6
BYLAYER
 62
     1
 10
289.818324
 20
-122.837662
 30
0.0
 11
289.817576
 21
-122.837394
 31
0.0
  0
ARC
  8
0
  6
BYLAYER
 62
     1
 10
287.519190
 20
-129.201843
 30
0.0
 40
6.766738
 50
68.894081
 51
80.764578
  0
ARC
  8
0
  6
BYLAYER
 62
     1
 10
287.519190
 20
-129.201843
 30
0.0
 40
7.429995
 50
84.535428
 51
90.000003
  0
LINE
  8
0
  6
BYLAYER
 62
     1
 10
288.306657
 20
-121.813696
 30
0.0
 11
288.605144
 21
-122.522703
 31
0.0
  0
ARC
  8
0
  6
BYLAYER
 62
     1
 10
287.519190
 20
-129.201843
 30
0.0
 40
7.429995
 50
180.000000
 51
186.083899
  0
LINE
  8
0
  6
BYLAYER
 62
     1
 10
280.122958
 20
-129.909370
 30
0.0
 11
280.122958
 21
-129.909385
 31
0.0
  0
LINE
  8
0
  6
BYLAYER
 62
     1
 10
280.131043
 20
-129.989308
 30
0.0
 11
280.840167
 21
-130.287860
 31
0.0
  0
ARC
  8
0
  6
BYLAYER
 62
     1
 10
287.519221
 20
-129.201782
 30
0.0
 40
6.766781
 50
189.236002
 51
200.764629
  0
LINE
  8
0
  6
BYLAYER
 62
     1
 10
281.191971
 20
-131.600817
 30
0.0
 11
280.727145
 21
-132.213955
 31
0.0
  0
ARC
  8
0
  6
BYLAYER
 62
     1
 10
287.519190
 20
-129.201843
 30
0.0
 40
7.429986
 50
203.916158
 51
215.860410
  0
LINE
  8
0
  6
BYLAYER
 62
     1
 10
281.448725
 20
-133.486030
 30
0.0
 11
281.449168
 21
-133.486656
 31
0.0
  0
LINE
  8
0
  6
BYLAYER
 62
     1
 10
281.497583
 20
-133.554422
 30
0.0
 11
282.252579
 21
-133.450559
 31
0.0
  0
ARC
  8
0
  6
BYLAYER
 62
     1
 10
287.519190
 20
-129.201843
 30
0.0
 40
6.766741
 50
218.894045
 51
230.764345
  0
LINE
  8
0
  6
BYLAYER
 62
     1
 10
283.128504
 20
-134.350693
 30
0.0
 11
283.129237
 21
-134.351326
 31
0.0
  0
LINE
  8
0
  6
BYLAYER
 62
     1
 10
283.239149
 20
-134.443029
 30
0.0
 11
283.143157
 21
-135.206437
 31
0.0
  0
ARC
  8
0
  6
BYLAYER
 62
     1
 10
287.519190
 20
-129.201843
 30
0.0
 40
7.429994
 50
233.916148
 51
245.860401
  0
LINE
  8
0
  6
BYLAYER
 62
     1
 10
284.404643
 20
-135.947532
 30
0.0
 11
284.405146
 21
-135.947777
 31
0.0
  0
LINE
  8
0
  6
BYLAYER
 62
     1
 10
284.480611
 20
-135.982097
 30
0.0
 11
285.082510
 21
-135.514637
 31
0.0
  0
LINE
  8
0
  6
BYLAYER
 62
     1
 10
285.220042
 20
-135.566017
 30
0.0
 11
285.220805
 21
-135.566292
 31
0.0
  0
LINE
  8
0
  6
BYLAYER
 62
     1
 10
294.915415
 20
-129.909370
 30
0.0
 11
294.915415
 21
-129.909385
 31
0.0
  0
LINE
  8
0
  6
BYLAYER
 62
     1
 10
294.907337
 20
-129.989310
 30
0.0
 11
294.198199
 21
-130.287858
 31
0.0
  0
LINE
  8
0
  6
BYLAYER
 62
     1
 10
293.846403
 20
-131.600834
 30
0.0
 11
294.311242
 21
-132.213960
 31
0.0
  0
LINE
  8
0
  6
BYLAYER
 62
     1
 10
293.589640
 20
-133.486030
 30
0.0
 11
293.589198
 21
-133.486656
 31
0.0
  0
LINE
  8
0
  6
BYLAYER
 62
     1
 10
293.540806
 20
-133.554423
 30
0.0
 11
292.785761
 21
-133.450556
 31
0.0
  0
LINE
  8
0
  6
BYLAYER
 62
     1
 10
291.909876
 20
-134.350693
 30
0.0
 11
291.909144
 21
-134.351326
 31
0.0
  0
LINE
  8
0
  6
BYLAYER
 62
     1
 10
291.799235
 20
-134.443026
 30
0.0
 11
291.895208
 21
-135.206448
 31
0.0
  0
LINE
  8
0
  6
BYLAYER
 62
     1
 10
290.557771
 20
-135.982096
 30
0.0
 11
289.955857
 21
-135.514642
 31
0.0
  0
ARC
  8
0
  6
BYLAYER
 62
     1
 10
287.519190
 20
-129.201843
 30
0.0
 40
6.766741
 50
309.235697
 51
321.105929
  0
ARC
  8
0
  6
BYLAYER
 62
     1
 10
287.519190
 20
-129.201843
 30
0.0
 40
6.766738
 50
248.893873
 51
270.000000
  0
ARC
  8
0
  6
BYLAYER
 62
     1
 10
287.519190
 20
-129.201843
 30
0.0
 40
7.429994
 50
294.783232
 51
306.083699
  0
LINE
  8
0
  6
BYLAYER
 62
     1
 10
290.633219
 20
-135.947777
 30
0.0
 11
290.558229
 21
-135.983066
 31
0.0
  0
ARC
  8
0
  6
BYLAYER
 62
     1
 10
287.519190
 20
-129.201843
 30
0.0
 40
7.429986
 50
324.139593
 51
336.083825
  0
ARC
  8
0
  6
BYLAYER
 62
     1
 10
287.519145
 20
-129.201782
 30
0.0
 40
6.766781
 50
339.235210
 51
350.764014
  0
ARC
  8
0
  6
BYLAYER
 62
     1
 10
287.519190
 20
-129.201843
 30
0.0
 40
7.429995
 50
353.916089
 51
360.000000
  0
ARC
  8
0
  6
BYLAYER
 62
     1
 10
287.519190
 20
-129.201843
 30
0.0
 40
7.429995
 50
0.0
 51
6.083907
  0
ARC
  8
0
  6
BYLAYER
 62
     1
 10
287.519190
 20
-129.201843
 30
0.0
 40
6.766738
 50
270.0
 51
291.106008
  0
CIRCLE
  8
0
  6
BYLAYER
 62
     1
 10
287.519190
 20
-129.201843
 30
0.0
 40
3.630081
  0
CIRCLE
  8
0
  6
BYLAYER
 62
     1
 10
287.519190
 20
-129.201843
 30
0.0
 40
5.296032
  0
LINE
  8
0
  6
BYLAYER
 62
     1
 10
296.928328
 20
-243.481229
 30
0.0
 11
296.928328
 21
-238.481229
 31
0.0
  0
LINE
  8
0
  6
BYLAYER
 62
     1
 10
296.928328
 20
-243.481229
 30
0.0
 11
291.928328
 21
-243.481229
 31
0.0
  0
LINE
  8
0
  6
BYLAYER
 62
     1
 10
296.928328
 20
-243.481229
 30
0.0
 11
296.928328
 21
-248.481229
 31
0.0
  0
LINE
  8
0
  6
BYLAYER
 62
     1
 10
296.928328
 20
-243.481229
 30
0.0
 11
301.928328
 21
-243.481229
 31
0.0
  0
LINE
  8
0
  6
BYLAYER
 62
     1
 10
1111.928328
 20
-608.481229
 30
0.0
 11
1083.928328
 21
-608.481229
 31
0.0
  0
LINE
  8
0
  6
BYLAYER
 62
     1
 10
1111.928328
 20
-658.481229
 30
0.0
 11
1111.928328
 21
-608.481229
 31
0.0
  0
LINE
  8
0
  6
BYLAYER
 62
     1
 10
1111.928328
 20
-658.481229
 30
0.0
 11
1110.428328
 21
-659.981168
 31
0.0
  0
LINE
  8
0
  6
BYLAYER
 62
     1
 10
981.928328
 20
-608.481229
 30
0.0
 11
1009.928328
 21
-608.481229
 31
0.0
  0
LINE
  8
0
  6
BYLAYER
 62
     1
 10
981.928328
 20
-658.481229
 30
0.0
 11
981.928328
 21
-608.481229
 31
0.0
  0
LINE
  8
0
  6
BYLAYER
 62
     1
 10
981.928328
 20
-658.481229
 30
0.0
 11
983.428328
 21
-659.981168
 31
0.0
  0
LINE
  8
0
  6
BYLAYER
 62
     1
 10
1111.928328
 20
-846.481229
 30
0.0
 11
1083.928328
 21
-846.481229
 31
0.0
  0
LINE
  8
0
  6
BYLAYER
 62
     1
 10
1111.928328
 20
-796.481229
 30
0.0
 11
1111.928328
 21
-846.481229
 31
0.0
  0
LINE
  8
0
  6
BYLAYER
 62
     1
 10
1111.928328
 20
-796.481229
 30
0.0
 11
1110.428328
 21
-794.981229
 31
0.0
  0
LINE
  8
0
  6
BYLAYER
 62
     1
 10
1110.428328
 20
-659.981168
 30
0.0
 11
1110.428328
 21
-794.981229
 31
0.0
  0
LINE
  8
0
  6
BYLAYER
 62
     1
 10
981.928328
 20
-846.481229
 30
0.0
 11
1009.928328
 21
-846.481229
 31
0.0
  0
LINE
  8
0
  6
BYLAYER
 62
     1
 10
981.928328
 20
-846.481229
 30
0.0
 11
981.928328
 21
-796.481229
 31
0.0
  0
LINE
  8
0
  6
BYLAYER
 62
     1
 10
1083.928328
 20
-609.981229
 30
0.0
 11
1009.928328
 21
-609.981229
 31
0.0
  0
LINE
  8
0
  6
BYLAYER
 62
     1
 10
1083.928328
 20
-794.981229
 30
0.0
 11
1110.428328
 21
-794.981229
 31
0.0
  0
LINE
  8
0
  6
BYLAYER
 62
     1
 10
1083.928328
 20
-796.481229
 30
0.0
 11
1111.928328
 21
-796.481229
 31
0.0
  0
LINE
  8
0
  6
BYLAYER
 62
     1
 10
1009.928328
 20
-796.481229
 30
0.0
 11
981.928328
 21
-796.481229
 31
0.0
  0
LINE
  8
0
  6
BYLAYER
 62
     1
 10
1083.928328
 20
-659.981168
 30
0.0
 11
1110.428328
 21
-659.981168
 31
0.0
  0
LINE
  8
0
  6
BYLAYER
 62
     1
 10
1009.928328
 20
-794.981229
 30
0.0
 11
983.428328
 21
-794.981229
 31
0.0
  0
LINE
  8
0
  6
BYLAYER
 62
     1
 10
983.428328
 20
-659.981168
 30
0.0
 11
1009.928328
 21
-659.981168
 31
0.0
  0
CIRCLE
  8
0
  6
BYLAYER
 62
     1
 10
996.928328
 20
-813.481229
 30
0.0
 40
6.5
  0
CIRCLE
  8
0
  6
BYLAYER
 62
     1
 10
996.928328
 20
-641.481229
 30
0.0
 40
6.5
  0
CIRCLE
  8
0
  6
BYLAYER
 62
     1
 10
1096.928328
 20
-641.481229
 30
0.0
 40
6.5
  0
CIRCLE
  8
0
  6
BYLAYER
 62
     1
 10
1074.151839
 20
-680.704892
 30
0.0
 40
3.525002
  0
CIRCLE
  8
0
  6
BYLAYER
 62
     1
 10
1074.151961
 20
-626.257657
 30
0.0
 40
3.525002
  0
CIRCLE
  8
0
  6
BYLAYER
 62
     1
 10
1019.704817
 20
-626.257535
 30
0.0
 40
3.525002
  0
CIRCLE
  8
0
  6
BYLAYER
 62
     1
 10
1019.704695
 20
-680.704770
 30
0.0
 40
3.525002
  0
LINE
  8
0
  6
BYLAYER
 62
     1
 10
1009.070052
 20
-658.481229
 30
0.0
 11
981.928328
 21
-658.481229
 31
0.0
  0
ARC
  8
0
  6
BYLAYER
 62
     1
 10
1009.070052
 20
-660.481229
 30
0.0
 40
2.0
 50
10.476094
 51
90.000000
  0
LINE
  8
0
  6
BYLAYER
 62
     1
 10
1084.786604
 20
-658.481229
 30
0.0
 11
1111.928328
 21
-658.481229
 31
0.0
  0
ARC
  8
0
  6
BYLAYER
 62
     1
 10
1084.786604
 20
-660.481229
 30
0.0
 40
2.000012
 50
90.0
 51
169.524063
  0
LINE
  8
0
  6
BYLAYER
 62
     1
 10
1009.928328
 20
-658.674741
 30
0.0
 11
1009.928328
 21
-846.481229
 31
0.0
  0
CIRCLE
  8
0
  6
BYLAYER
 62
     1
 10
1096.928328
 20
-813.481229
 30
0.0
 40
6.5
  0
LINE
  8
0
  6
BYLAYER
 62
     1
 10
1083.928328
 20
-658.674741
 30
0.0
 11
1083.928328
 21
-846.481229
 31
0.0
  0
LINE
  8
0
  6
BYLAYER
 62
     1
 10
981.928633
 20
-796.481015
 30
0.0
 11
983.428328
 21
-794.981229
 31
0.0
  0
LINE
  8
0
  6
BYLAYER
 62
     1
 10
983.428328
 20
-659.981168
 30
0.0
 11
983.428328
 21
-794.981229
 31
0.0
  0
LINE
  8
0
  6
BYLAYER
 62
     1
 10
981.928328
 20
-796.481229
 30
0.0
 11
983.428328
 21
-794.981290
 31
0.0
  0
ARC
  8
0
  6
BYLAYER
 62
     1
 10
1046.928328
 20
-653.481229
 30
0.0
 40
36.499996
 50
59.173767
 51
121.575305
  0
ARC
  8
0
  6
BYLAYER
 62
     1
 10
1026.769026
 20
-620.681028
 30
0.0
 40
2.000008
 50
218.287737
 51
301.575200
  0
LINE
  8
0
  6
BYLAYER
 62
     1
 10
1009.928328
 20
-621.726957
 30
0.0
 11
1009.928328
 21
-608.481229
 31
0.0
  0
ARC
  8
0
  6
BYLAYER
 62
     1
 10
1019.704817
 20
-626.257535
 30
0.0
 40
7.000019
 50
38.287800
 51
149.774970
  0
ARC
  8
0
  6
BYLAYER
 62
     1
 10
1011.928328
 20
-621.726957
 30
0.0
 40
2.000039
 50
180.000000
 51
329.774833
  0
ARC
  8
0
  6
BYLAYER
 62
     1
 10
1074.151839
 20
-626.257535
 30
0.0
 40
6.999995
 50
30.225035
 51
141.712205
  0
ARC
  8
0
  6
BYLAYER
 62
     1
 10
1067.087660
 20
-620.681028
 30
0.0
 40
2.000008
 50
238.424801
 51
321.712264
  0
ARC
  8
0
  6
BYLAYER
 62
     1
 10
1081.928328
 20
-621.726957
 30
0.0
 40
2.000013
 50
210.225163
 51
359.999983
  0
LINE
  8
0
  6
BYLAYER
 62
     1
 10
1083.928328
 20
-608.481229
 30
0.0
 11
1083.928328
 21
-621.726957
 31
0.0
  0
ARC
  8
0
  6
BYLAYER
 62
     1
 10
1026.769026
 20
-686.281430
 30
0.0
 40
2.000008
 50
58.424803
 51
141.712259
  0
ARC
  8
0
  6
BYLAYER
 62
     1
 10
1046.928328
 20
-653.481229
 30
0.0
 40
36.500011
 50
238.424692
 51
301.575310
  0
ARC
  8
0
  6
BYLAYER
 62
     1
 10
1067.087660
 20
-686.281430
 30
0.0
 40
2.000013
 50
38.287746
 51
121.575195
  0
ARC
  8
0
  6
BYLAYER
 62
     1
 10
1046.928328
 20
-653.481229
 30
0.0
 40
36.500061
 50
328.424291
 51
349.524330
  0
ARC
  8
0
  6
BYLAYER
 62
     1
 10
1074.151839
 20
-680.704923
 30
0.0
 40
6.999995
 50
218.287805
 51
411.711659
  0
ARC
  8
0
  6
BYLAYER
 62
     1
 10
1079.728407
 20
-673.640805
 30
0.0
 40
1.999987
 50
148.424341
 51
231.711709
  0
ARC
  8
0
  6
BYLAYER
 62
     1
 10
1046.928328
 20
-653.481229
 30
0.0
 40
36.500046
 50
190.475671
 51
211.575696
  0
ARC
  8
0
  6
BYLAYER
 62
     1
 10
1019.704817
 20
-680.704923
 30
0.0
 40
7.000019
 50
128.288151
 51
321.712210
  0
ARC
  8
0
  6
BYLAYER
 62
     1
 10
1014.128279
 20
-673.640775
 30
0.0
 40
1.999961
 50
308.287743
 51
391.575657
  0
LINE
  8
0
  6
BYLAYER
 62
     1
 10
983.428328
 20
-663.359037
 30
0.0
 11
979.928328
 21
-663.481229
 31
0.0
  0
LINE
  8
0
  6
BYLAYER
 62
     1
 10
979.928328
 20
-743.481229
 30
0.0
 11
979.928328
 21
-663.481229
 31
0.0
  0
LINE
  8
0
  6
BYLAYER
 62
     1
 10
979.928328
 20
-743.481229
 30
0.0
 11
979.928328
 21
-823.481229
 31
0.0
  0
LINE
  8
0
  6
BYLAYER
 62
     1
 10
981.928328
 20
-823.551053
 30
0.0
 11
979.928328
 21
-823.481229
 31
0.0
  0
LINE
  8
0
  6
BYLAYER
 62
     1
 10
979.928328
 20
-688.481229
 30
0.0
 11
977.428328
 21
-688.481229
 31
0.0
  0
LINE
  8
0
  6
BYLAYER
 62
     1
 10
977.428328
 20
-688.481229
 30
0.0
 11
976.928328
 21
-688.981229
 31
0.0
  0
LINE
  8
0
  6
BYLAYER
 62
     1
 10
976.928328
 20
-688.981229
 30
0.0
 11
976.928328
 21
-743.481229
 31
0.0
  0
LINE
  8
0
  6
BYLAYER
 62
     1
 10
979.928328
 20
-798.481229
 30
0.0
 11
977.428328
 21
-798.481229
 31
0.0
  0
LINE
  8
0
  6
BYLAYER
 62
     1
 10
977.428328
 20
-798.481229
 30
0.0
 11
976.928328
 21
-797.981229
 31
0.0
  0
LINE
  8
0
  6
BYLAYER
 62
     1
 10
976.928328
 20
-797.981229
 30
0.0
 11
976.928328
 21
-743.481229
 31
0.0
  0
LINE
  8
0
  6
BYLAYER
 62
     1
 10
1110.428328
 20
-663.359037
 30
0.0
 11
1113.928328
 21
-663.481229
 31
0.0
  0
LINE
  8
0
  6
BYLAYER
 62
     1
 10
1113.928328
 20
-743.481229
 30
0.0
 11
1113.928328
 21
-663.481229
 31
0.0
  0
LINE
  8
0
  6
BYLAYER
 62
     1
 10
1113.928328
 20
-743.481229
 30
0.0
 11
1113.928328
 21
-823.481229
 31
0.0
  0
LINE
  8
0
  6
BYLAYER
 62
     1
 10
1111.928328
 20
-823.551053
 30
0.0
 11
1113.928328
 21
-823.481229
 31
0.0
  0
LINE
  8
0
  6
BYLAYER
 62
     1
 10
1113.928328
 20
-688.481229
 30
0.0
 11
1116.428328
 21
-688.481229
 31
0.0
  0
LINE
  8
0
  6
BYLAYER
 62
     1
 10
1116.428328
 20
-688.481229
 30
0.0
 11
1116.928328
 21
-688.981229
 31
0.0
  0
LINE
  8
0
  6
BYLAYER
 62
     1
 10
1116.928328
 20
-688.981229
 30
0.0
 11
1116.928328
 21
-743.481229
 31
0.0
  0
LINE
  8
0
  6
BYLAYER
 62
     1
 10
1113.928328
 20
-798.481229
 30
0.0
 11
1116.428328
 21
-798.481229
 31
0.0
  0
LINE
  8
0
  6
BYLAYER
 62
     1
 10
1116.428328
 20
-798.481229
 30
0.0
 11
1116.928328
 21
-797.981229
 31
0.0
  0
LINE
  8
0
  6
BYLAYER
 62
     1
 10
1116.928328
 20
-797.981229
 30
0.0
 11
1116.928328
 21
-743.481229
 31
0.0
  0
CIRCLE
  8
0
  6
BYLAYER
 62
     1
 10
1046.928328
 20
-653.481229
 30
0.0
 40
31.0
  0
LINE
  8
0
  6
BYLAYER
 62
     1
 10
1083.928328
 20
-841.481198
 30
0.0
 11
1009.928328
 21
-841.481198
 31
0.0
  0
LINE
  8
0
  6
BYLAYER
 62
     1
 10
243.928267
 20
-808.481229
 30
0.0
 11
193.928267
 21
-808.481229
 31
0.0
  0
LINE
  8
0
  6
BYLAYER
 62
     1
 10
243.928267
 20
-808.481229
 30
0.0
 11
245.428267
 21
-806.981229
 31
0.0
  0
LINE
  8
0
  6
BYLAYER
 62
     1
 10
193.928267
 20
-678.481229
 30
0.0
 11
243.928267
 21
-678.481229
 31
0.0
  0
LINE
  8
0
  6
BYLAYER
 62
     1
 10
243.928267
 20
-780.481229
 30
0.0
 11
243.928267
 21
-808.481229
 31
0.0
  0
LINE
  8
0
  6
BYLAYER
 62
     1
 10
243.928267
 20
-706.481229
 30
0.0
 11
243.928267
 21
-678.481229
 31
0.0
  0
LINE
  8
0
  6
BYLAYER
 62
     1
 10
245.428267
 20
-706.481229
 30
0.0
 11
245.428267
 21
-679.981229
 31
0.0
  0
LINE
  8
0
  6
BYLAYER
 62
     1
 10
399.928267
 20
-678.481229
 30
0.0
 11
399.928267
 21
-706.481229
 31
0.0
  0
LINE
  8
0
  6
BYLAYER
 62
     1
 10
399.928267
 20
-678.481229
 30
0.0
 11
349.928328
 21
-678.481229
 31
0.0
  0
LINE
  8
0
  6
BYLAYER
 62
     1
 10
348.428328
 20
-706.481229
 30
0.0
 11
348.428328
 21
-679.981229
 31
0.0
  0
LINE
  8
0
  6
BYLAYER
 62
     1
 10
349.928328
 20
-706.481229
 30
0.0
 11
349.928328
 21
-678.481229
 31
0.0
  0
LINE
  8
0
  6
BYLAYER
 62
     1
 10
399.928267
 20
-808.481229
 30
0.0
 11
399.928267
 21
-780.481229
 31
0.0
  0
LINE
  8
0
  6
BYLAYER
 62
     1
 10
349.928328
 20
-808.481229
 30
0.0
 11
399.928267
 21
-808.481229
 31
0.0
  0
LINE
  8
0
  6
BYLAYER
 62
     1
 10
349.928328
 20
-780.481229
 30
0.0
 11
349.928328
 21
-808.481229
 31
0.0
  0
LINE
  8
0
  6
BYLAYER
 62
     1
 10
349.928328
 20
-808.481229
 30
0.0
 11
348.428328
 21
-806.981229
 31
0.0
  0
CIRCLE
  8
0
  6
BYLAYER
 62
     1
 10
366.928328
 20
-793.481229
 30
0.0
 40
6.5
  0
CIRCLE
  8
0
  6
BYLAYER
 62
     1
 10
366.928328
 20
-693.481229
 30
0.0
 40
6.5
  0
LINE
  8
0
  6
BYLAYER
 62
     1
 10
348.428328
 20
-806.981229
 30
0.0
 11
245.428267
 21
-806.981229
 31
0.0
  0
LINE
  8
0
  6
BYLAYER
 62
     1
 10
193.928267
 20
-678.481229
 30
0.0
 11
193.928267
 21
-808.481229
 31
0.0
  0
ARC
  8
0
  6
BYLAYER
 62
     1
 10
223.928267
 20
-778.481229
 30
0.0
 40
2.000000
 50
180.000000
 51
269.999996
  0
ARC
  8
0
  6
BYLAYER
 62
     1
 10
223.928267
 20
-708.481229
 30
0.0
 40
1.999939
 50
90.0
 51
180.000003
  0
ARC
  8
0
  6
BYLAYER
 62
     1
 10
369.928328
 20
-778.481229
 30
0.0
 40
2.0
 50
270.0
 51
359.999982
  0
ARC
  8
0
  6
BYLAYER
 62
     1
 10
369.928328
 20
-708.481229
 30
0.0
 40
1.999939
 50
0.0
 51
90.000016
  0
LINE
  8
0
  6
BYLAYER
 62
     1
 10
399.928267
 20
-696.481290
 30
0.0
 11
401.928267
 21
-696.481290
 31
0.0
  0
LINE
  8
0
  6
BYLAYER
 62
     1
 10
399.928267
 20
-790.481229
 30
0.0
 11
401.928267
 21
-790.481229
 31
0.0
  0
LINE
  8
0
  6
BYLAYER
 62
     1
 10
401.928267
 20
-696.481290
 30
0.0
 11
401.928267
 21
-790.481229
 31
0.0
  0
CIRCLE
  8
0
  6
BYLAYER
 62
     1
 10
351.928267
 20
-743.481229
 30
0.0
 40
7.0
  0
ARC
  8
0
  6
BYLAYER
 62
     1
 10
222.928267
 20
-741.481229
 30
0.0
 40
1.0
 50
180.000000
 51
269.999996
  0
ARC
  8
0
  6
BYLAYER
 62
     1
 10
222.928267
 20
-745.481229
 30
0.0
 40
1.000000
 50
90.0
 51
180.000003
  0
ARC
  8
0
  6
BYLAYER
 62
     1
 10
222.928267
 20
-731.481229
 30
0.0
 40
1.0
 50
180.000000
 51
269.999996
  0
ARC
  8
0
  6
BYLAYER
 62
     1
 10
222.928267
 20
-735.481229
 30
0.0
 40
1.000000
 50
90.0
 51
180.000003
  0
ARC
  8
0
  6
BYLAYER
 62
     1
 10
222.928267
 20
-721.481229
 30
0.0
 40
1.0
 50
180.000000
 51
269.999996
  0
ARC
  8
0
  6
BYLAYER
 62
     1
 10
222.928267
 20
-725.481229
 30
0.0
 40
1.000000
 50
90.0
 51
180.000003
  0
ARC
  8
0
  6
BYLAYER
 62
     1
 10
222.928267
 20
-711.481229
 30
0.0
 40
1.0
 50
180.000000
 51
269.999996
  0
ARC
  8
0
  6
BYLAYER
 62
     1
 10
222.928267
 20
-715.481229
 30
0.0
 40
1.000000
 50
90.0
 51
180.000003
  0
ARC
  8
0
  6
BYLAYER
 62
     1
 10
222.928267
 20
-751.481229
 30
0.0
 40
1.0
 50
180.000000
 51
269.999996
  0
ARC
  8
0
  6
BYLAYER
 62
     1
 10
222.928267
 20
-761.481229
 30
0.0
 40
1.000000
 50
180.000000
 51
269.999996
  0
ARC
  8
0
  6
BYLAYER
 62
     1
 10
222.928267
 20
-771.481229
 30
0.0
 40
1.0
 50
180.000000
 51
269.999996
  0
ARC
  8
0
  6
BYLAYER
 62
     1
 10
222.928267
 20
-755.481229
 30
0.0
 40
1.000000
 50
90.0
 51
180.000003
  0
ARC
  8
0
  6
BYLAYER
 62
     1
 10
222.928267
 20
-765.481229
 30
0.0
 40
1.000000
 50
90.0
 51
180.000003
  0
ARC
  8
0
  6
BYLAYER
 62
     1
 10
222.928267
 20
-775.481229
 30
0.0
 40
1.000000
 50
90.0
 51
180.000003
  0
ARC
  8
0
  6
BYLAYER
 62
     1
 10
370.928328
 20
-761.481229
 30
0.0
 40
1.000000
 50
270.0
 51
360.000003
  0
ARC
  8
0
  6
BYLAYER
 62
     1
 10
370.928328
 20
-765.481229
 30
0.0
 40
1.0
 50
0.0
 51
90.000003
  0
ARC
  8
0
  6
BYLAYER
 62
     1
 10
370.928328
 20
-771.481229
 30
0.0
 40
1.0
 50
270.0
 51
360.000003
  0
ARC
  8
0
  6
BYLAYER
 62
     1
 10
370.928328
 20
-775.481229
 30
0.0
 40
1.0
 50
0.0
 51
90.000003
  0
ARC
  8
0
  6
BYLAYER
 62
     1
 10
370.928328
 20
-721.481290
 30
0.0
 40
1.0
 50
270.0
 51
360.000003
  0
ARC
  8
0
  6
BYLAYER
 62
     1
 10
370.928328
 20
-725.481290
 30
0.0
 40
1.0
 50
0.0
 51
90.000003
  0
ARC
  8
0
  6
BYLAYER
 62
     1
 10
370.928328
 20
-711.481290
 30
0.0
 40
1.0
 50
270.0
 51
360.000003
  0
ARC
  8
0
  6
BYLAYER
 62
     1
 10
370.928328
 20
-715.481290
 30
0.0
 40
1.0
 50
0.0
 51
90.000003
  0
LINE
  8
0
  6
BYLAYER
 62
     1
 10
193.928267
 20
-706.481229
 30
0.0
 11
399.928267
 21
-706.481229
 31
0.0
  0
LINE
  8
0
  6
BYLAYER
 62
     1
 10
399.928267
 20
-780.481229
 30
0.0
 11
193.928267
 21
-780.481229
 31
0.0
  0
LINE
  8
0
  6
BYLAYER
 62
     1
 10
348.428328
 20
-780.481229
 30
0.0
 11
348.428328
 21
-806.981229
 31
0.0
  0
LINE
  8
0
  6
BYLAYER
 62
     1
 10
245.428267
 20
-780.481229
 30
0.0
 11
245.428267
 21
-806.981229
 31
0.0
  0
CIRCLE
  8
0
  6
BYLAYER
 62
     1
 10
226.928267
 20
-793.481229
 30
0.0
 40
6.5
  0
CIRCLE
  8
0
  6
BYLAYER
 62
     1
 10
226.928267
 20
-693.481229
 30
0.0
 40
6.5
  0
CIRCLE
  8
0
  6
BYLAYER
 62
     1
 10
226.928267
 20
-693.481229
 30
0.0
 40
6.5
  0
CIRCLE
  8
0
  6
BYLAYER
 62
     1
 10
351.928267
 20
-743.481229
 30
0.0
 40
12.0
  0
LINE
  8
0
  6
BYLAYER
 62
     1
 10
371.928328
 20
-708.481229
 30
0.0
 11
371.928328
 21
-713.481229
 31
0.0
  0
LINE
  8
0
  6
BYLAYER
 62
     1
 10
371.928328
 20
-743.481229
 30
0.0
 11
371.928328
 21
-723.481229
 31
0.0
  0
LINE
  8
0
  6
BYLAYER
 62
     1
 10
371.928328
 20
-723.481229
 30
0.0
 11
371.928328
 21
-713.481229
 31
0.0
  0
LINE
  8
0
  6
BYLAYER
 62
     1
 10
371.928328
 20
-763.481229
 30
0.0
 11
371.928328
 21
-743.481229
 31
0.0
  0
LINE
  8
0
  6
BYLAYER
 62
     1
 10
371.928328
 20
-773.481229
 30
0.0
 11
371.928328
 21
-763.481229
 31
0.0
  0
LINE
  8
0
  6
BYLAYER
 62
     1
 10
371.928328
 20
-773.481229
 30
0.0
 11
371.928328
 21
-778.481229
 31
0.0
  0
LINE
  8
0
  6
BYLAYER
 62
     1
 10
221.928267
 20
-708.481229
 30
0.0
 11
221.928267
 21
-713.481229
 31
0.0
  0
LINE
  8
0
  6
BYLAYER
 62
     1
 10
221.928267
 20
-723.481229
 30
0.0
 11
221.928267
 21
-713.481229
 31
0.0
  0
LINE
  8
0
  6
BYLAYER
 62
     1
 10
221.928267
 20
-733.481290
 30
0.0
 11
221.928267
 21
-723.481229
 31
0.0
  0
LINE
  8
0
  6
BYLAYER
 62
     1
 10
221.928267
 20
-743.481229
 30
0.0
 11
221.928267
 21
-733.481290
 31
0.0
  0
LINE
  8
0
  6
BYLAYER
 62
     1
 10
221.928267
 20
-753.481229
 30
0.0
 11
221.928267
 21
-743.481229
 31
0.0
  0
LINE
  8
0
  6
BYLAYER
 62
     1
 10
221.928267
 20
-763.481229
 30
0.0
 11
221.928267
 21
-753.481229
 31
0.0
  0
LINE
  8
0
  6
BYLAYER
 62
     1
 10
221.928267
 20
-773.481229
 30
0.0
 11
221.928267
 21
-763.481229
 31
0.0
  0
LINE
  8
0
  6
BYLAYER
 62
     1
 10
221.928267
 20
-773.481229
 30
0.0
 11
221.928267
 21
-778.481229
 31
0.0
  0
LINE
  8
0
  6
BYLAYER
 62
     1
 10
245.428206
 20
-679.981229
 30
0.0
 11
348.428389
 21
-679.981229
 31
0.0
  0
LINE
  8
0
  6
BYLAYER
 62
     1
 10
243.928267
 20
-678.481229
 30
0.0
 11
245.428206
 21
-679.981229
 31
0.0
  0
LINE
  8
0
  6
BYLAYER
 62
     1
 10
349.928328
 20
-678.481229
 30
0.0
 11
348.428389
 21
-679.981229
 31
0.0
  0
LINE
  8
0
  6
BYLAYER
 62
     1
 10
348.428328
 20
-679.981229
 30
0.0
 11
245.428206
 21
-679.981229
 31
0.0
  0
LINE
  8
0
  6
BYLAYER
 62
     1
 10
296.928328
 20
-676.481229
 30
0.0
 11
216.928328
 21
-676.481229
 31
0.0
  0
LINE
  8
0
  6
BYLAYER
 62
     1
 10
349.928389
 20
-678.481229
 30
0.0
 11
348.428450
 21
-679.981229
 31
0.0
  0
LINE
  8
0
  6
BYLAYER
 62
     1
 10
296.928328
 20
-676.481229
 30
0.0
 11
376.928328
 21
-676.481229
 31
0.0
  0
LINE
  8
0
  6
BYLAYER
 62
     1
 10
216.858504
 20
-678.481229
 30
0.0
 11
216.928328
 21
-676.481229
 31
0.0
  0
LINE
  8
0
  6
BYLAYER
 62
     1
 10
376.998152
 20
-678.481229
 30
0.0
 11
376.928328
 21
-676.481229
 31
0.0
  0
LINE
  8
0
  6
BYLAYER
 62
     1
 10
242.428328
 20
-673.481229
 30
0.0
 11
241.928328
 21
-673.981229
 31
0.0
  0
LINE
  8
0
  6
BYLAYER
 62
     1
 10
241.928328
 20
-673.981229
 30
0.0
 11
241.928328
 21
-676.481229
 31
0.0
  0
LINE
  8
0
  6
BYLAYER
 62
     1
 10
242.428328
 20
-673.481229
 30
0.0
 11
351.428328
 21
-673.481229
 31
0.0
  0
LINE
  8
0
  6
BYLAYER
 62
     1
 10
351.428328
 20
-673.481229
 30
0.0
 11
351.928328
 21
-673.981229
 31
0.0
  0
LINE
  8
0
  6
BYLAYER
 62
     1
 10
351.928328
 20
-673.981229
 30
0.0
 11
351.928328
 21
-676.481229
 31
0.0
  0
LINE
  8
0
  6
BYLAYER
 62
     1
 10
296.928328
 20
-810.481229
 30
0.0
 11
216.928328
 21
-810.481229
 31
0.0
  0
LINE
  8
0
  6
BYLAYER
 62
     1
 10
296.928328
 20
-810.481229
 30
0.0
 11
376.928328
 21
-810.481229
 31
0.0
  0
LINE
  8
0
  6
BYLAYER
 62
     1
 10
216.858504
 20
-808.481229
 30
0.0
 11
216.928328
 21
-810.481229
 31
0.0
  0
LINE
  8
0
  6
BYLAYER
 62
     1
 10
376.998152
 20
-808.481229
 30
0.0
 11
376.928328
 21
-810.481229
 31
0.0
  0
LINE
  8
0
  6
BYLAYER
 62
     1
 10
242.428328
 20
-813.481229
 30
0.0
 11
241.928328
 21
-812.981229
 31
0.0
  0
LINE
  8
0
  6
BYLAYER
 62
     1
 10
241.928328
 20
-812.981229
 30
0.0
 11
241.928328
 21
-810.481229
 31
0.0
  0
LINE
  8
0
  6
BYLAYER
 62
     1
 10
242.428328
 20
-813.481229
 30
0.0
 11
351.428328
 21
-813.481229
 31
0.0
  0
LINE
  8
0
  6
BYLAYER
 62
     1
 10
351.428328
 20
-813.481229
 30
0.0
 11
351.928328
 21
-812.981229
 31
0.0
  0
LINE
  8
0
  6
BYLAYER
 62
     1
 10
351.928328
 20
-812.981229
 30
0.0
 11
351.928328
 21
-810.481229
 31
0.0
  0
ARC
  8
0
  6
BYLAYER
 62
     1
 10
259.524332
 20
-763.481229
 30
0.0
 40
1.0
 50
270.0
 51
450.000005
  0
ARC
  8
0
  6
BYLAYER
 62
     1
 10
259.524332
 20
-773.481229
 30
0.0
 40
1.0
 50
270.0
 51
450.000005
  0
LINE
  8
0
  6
BYLAYER
 62
     1
 10
259.524332
 20
-772.481229
 30
0.0
 11
222.928267
 21
-772.481290
 31
0.0
  0
LINE
  8
0
  6
BYLAYER
 62
     1
 10
259.524332
 20
-774.481229
 30
0.0
 11
222.928267
 21
-774.481290
 31
0.0
  0
LINE
  8
0
  6
BYLAYER
 62
     1
 10
259.524332
 20
-762.481229
 30
0.0
 11
222.928267
 21
-762.481290
 31
0.0
  0
LINE
  8
0
  6
BYLAYER
 62
     1
 10
259.524332
 20
-764.481229
 30
0.0
 11
222.928267
 21
-764.481290
 31
0.0
  0
ARC
  8
0
  6
BYLAYER
 62
     1
 10
259.524332
 20
-723.481229
 30
0.0
 40
1.0
 50
270.0
 51
450.000005
  0
ARC
  8
0
  6
BYLAYER
 62
     1
 10
259.524332
 20
-713.481229
 30
0.0
 40
1.0
 50
270.0
 51
450.000005
  0
LINE
  8
0
  6
BYLAYER
 62
     1
 10
259.524332
 20
-712.481229
 30
0.0
 11
222.928267
 21
-712.481229
 31
0.0
  0
LINE
  8
0
  6
BYLAYER
 62
     1
 10
259.524332
 20
-714.481229
 30
0.0
 11
222.928267
 21
-714.481229
 31
0.0
  0
LINE
  8
0
  6
BYLAYER
 62
     1
 10
259.524332
 20
-722.481229
 30
0.0
 11
222.928267
 21
-722.481229
 31
0.0
  0
LINE
  8
0
  6
BYLAYER
 62
     1
 10
259.524332
 20
-724.481229
 30
0.0
 11
222.928267
 21
-724.481229
 31
0.0
  0
ARC
  8
0
  6
BYLAYER
 62
     1
 10
263.938432
 20
-743.481290
 30
0.0
 40
1.0
 50
270.0
 51
450.000005
  0
LINE
  8
0
  6
BYLAYER
 62
     1
 10
222.928267
 20
-742.481229
 30
0.0
 11
263.938432
 21
-742.481290
 31
0.0
  0
LINE
  8
0
  6
BYLAYER
 62
     1
 10
222.928267
 20
-744.481229
 30
0.0
 11
263.938432
 21
-744.481290
 31
0.0
  0
ARC
  8
0
  6
BYLAYER
 62
     1
 10
265.938432
 20
-733.481290
 30
0.0
 40
1.0
 50
270.0
 51
450.000005
  0
LINE
  8
0
  6
BYLAYER
 62
     1
 10
222.928267
 20
-732.481229
 30
0.0
 11
265.938432
 21
-732.481290
 31
0.0
  0
LINE
  8
0
  6
BYLAYER
 62
     1
 10
222.928267
 20
-734.481229
 30
0.0
 11
265.938432
 21
-734.481290
 31
0.0
  0
ARC
  8
0
  6
BYLAYER
 62
     1
 10
265.938432
 20
-753.481229
 30
0.0
 40
1.0
 50
270.0
 51
450.000005
  0
LINE
  8
0
  6
BYLAYER
 62
     1
 10
222.928267
 20
-754.481290
 30
0.0
 11
265.938432
 21
-754.481229
 31
0.0
  0
LINE
  8
0
  6
BYLAYER
 62
     1
 10
222.928267
 20
-752.481290
 30
0.0
 11
265.938432
 21
-752.481229
 31
0.0
  0
ARC
  8
0
  6
BYLAYER
 62
     1
 10
332.542459
 20
-763.481229
 30
0.0
 40
1.0
 50
90.0
 51
270.000005
  0
ARC
  8
0
  6
BYLAYER
 62
     1
 10
332.542459
 20
-773.481229
 30
0.0
 40
1.0
 50
90.0
 51
270.000005
  0
LINE
  8
0
  6
BYLAYER
 62
     1
 10
370.928328
 20
-772.481229
 30
0.0
 11
332.542459
 21
-772.481290
 31
0.0
  0
LINE
  8
0
  6
BYLAYER
 62
     1
 10
370.928328
 20
-774.481229
 30
0.0
 11
332.542459
 21
-774.481290
 31
0.0
  0
LINE
  8
0
  6
BYLAYER
 62
     1
 10
370.928328
 20
-762.481229
 30
0.0
 11
332.542459
 21
-762.481290
 31
0.0
  0
ARC
  8
0
  6
BYLAYER
 62
     1
 10
332.542459
 20
-723.481229
 30
0.0
 40
1.0
 50
90.0
 51
270.000005
  0
ARC
  8
0
  6
BYLAYER
 62
     1
 10
332.542459
 20
-713.481229
 30
0.0
 40
1.0
 50
90.0
 51
270.000005
  0
LINE
  8
0
  6
BYLAYER
 62
     1
 10
370.928328
 20
-722.481290
 30
0.0
 11
332.542459
 21
-722.481229
 31
0.0
  0
LINE
  8
0
  6
BYLAYER
 62
     1
 10
370.928328
 20
-724.481290
 30
0.0
 11
332.542459
 21
-724.481229
 31
0.0
  0
LINE
  8
0
  6
BYLAYER
 62
     1
 10
332.542459
 20
-764.481290
 30
0.0
 11
370.928328
 21
-764.481229
 31
0.0
  0
LINE
  8
0
  6
BYLAYER
 62
     1
 10
332.542459
 20
-712.481229
 30
0.0
 11
370.928328
 21
-712.481229
 31
0.0
  0
LINE
  8
0
  6
BYLAYER
 62
     1
 10
332.542459
 20
-714.481229
 30
0.0
 11
370.928328
 21
-714.481229
 31
0.0
  0
LINE
  8
0
  6
BYLAYER
 62
     1
 10
401.928328
 20
-153.481229
 30
0.0
 11
401.928758
 21
-200.981229
 31
0.0
  0
ARC
  8
0
  6
BYLAYER
 62
     1
 10
416.428819
 20
-275.954404
 30
0.0
 40
2.0
 50
180.000000
 51
266.999903
  0
LINE
  8
0
  6
BYLAYER
 62
     1
 10
414.428819
 20
-275.954404
 30
0.0
 11
414.428819
 21
-153.481229
 31
0.0
  0
ARC
  8
0
  6
BYLAYER
 62
     1
 10
412.428758
 20
-239.255552
 30
0.0
 40
2.000061
 50
0.0
 51
15.000024
  0
LINE
  8
0
  6
BYLAYER
 62
     1
 10
401.928758
 20
-200.981229
 30
0.0
 11
402.709031
 21
-200.981839
 31
0.0
  0
LINE
  8
0
  6
BYLAYER
 62
     1
 10
404.640916
 20
-202.463529
 30
0.0
 11
414.360703
 21
-238.737912
 31
0.0
  0
ARC
  8
0
  6
BYLAYER
 62
     1
 10
402.709031
 20
-202.981168
 30
0.0
 40
1.999329
 50
15.000031
 51
90.000003
  0
LINE
  8
0
  6
BYLAYER
 62
     1
 10
404.352280
 20
-201.842252
 30
0.0
 11
414.428819
 21
-258.030149
 31
0.0
  0
LINE
  8
0
  6
BYLAYER
 62
     1
 10
416.324082
 20
-277.951657
 30
0.0
 11
426.428819
 21
-278.481245
 31
0.0
  0
LINE
  8
0
  6
BYLAYER
 62
     1
 10
426.428819
 20
-278.481245
 30
0.0
 11
426.428819
 21
-153.481137
 31
0.0
  0
LINE
  8
0
  6
BYLAYER
 62
     1
 10
404.640916
 20
-202.463529
 30
0.0
 11
404.640916
 21
-153.481229
 31
0.0
  0
LINE
  8
0
  6
BYLAYER
 62
     1
 10
401.928328
 20
-153.481229
 30
0.0
 11
401.928758
 21
-105.981229
 31
0.0
  0
ARC
  8
0
  6
BYLAYER
 62
     1
 10
416.428819
 20
-31.008054
 30
0.0
 40
2.000000
 50
93.000092
 51
179.999995
  0
LINE
  8
0
  6
BYLAYER
 62
     1
 10
414.428819
 20
-31.008054
 30
0.0
 11
414.428819
 21
-153.481229
 31
0.0
  0
ARC
  8
0
  6
BYLAYER
 62
     1
 10
412.428758
 20
-67.706906
 30
0.0
 40
2.000061
 50
344.999976
 51
360.000000
  0
LINE
  8
0
  6
BYLAYER
 62
     1
 10
401.928758
 20
-105.981229
 30
0.0
 11
402.709031
 21
-105.980619
 31
0.0
  0
LINE
  8
0
  6
BYLAYER
 62
     1
 10
404.640916
 20
-104.498929
 30
0.0
 11
414.360703
 21
-68.224546
 31
0.0
  0
ARC
  8
0
  6
BYLAYER
 62
     1
 10
402.709031
 20
-103.981290
 30
0.0
 40
1.999329
 50
270.0
 51
344.999971
  0
LINE
  8
0
  6
BYLAYER
 62
     1
 10
404.352280
 20
-105.120206
 30
0.0
 11
414.428819
 21
-48.932309
 31
0.0
  0
LINE
  8
0
  6
BYLAYER
 62
     1
 10
416.324082
 20
-29.010801
 30
0.0
 11
426.428819
 21
-28.481213
 31
0.0
  0
LINE
  8
0
  6
BYLAYER
 62
     1
 10
426.428819
 20
-28.481213
 30
0.0
 11
426.428819
 21
-153.481321
 31
0.0
  0
LINE
  8
0
  6
BYLAYER
 62
     1
 10
404.640916
 20
-104.498929
 30
0.0
 11
404.640916
 21
-153.481229
 31
0.0
  0
LINE
  8
0
  6
BYLAYER
 62
     1
 10
981.928450
 20
-346.481229
 30
0.0
 11
1009.928328
 21
-346.481229
 31
0.0
  0
LINE
  8
0
  6
BYLAYER
 62
     1
 10
981.928450
 20
-296.481229
 30
0.0
 11
981.928450
 21
-346.481229
 31
0.0
  0
LINE
  8
0
  6
BYLAYER
 62
     1
 10
981.928450
 20
-296.481229
 30
0.0
 11
983.428450
 21
-294.981229
 31
0.0
  0
LINE
  8
0
  6
BYLAYER
 62
     1
 10
983.428450
 20
-261.150935
 30
0.0
 11
983.428450
 21
-294.981229
 31
0.0
  0
LINE
  8
0
  6
BYLAYER
 62
     1
 10
1111.928328
 20
-346.481229
 30
0.0
 11
1083.928328
 21
-346.481229
 31
0.0
  0
LINE
  8
0
  6
BYLAYER
 62
     1
 10
1111.928328
 20
-296.481229
 30
0.0
 11
1110.428328
 21
-294.981290
 31
0.0
  0
LINE
  8
0
  6
BYLAYER
 62
     1
 10
1111.928328
 20
-346.481229
 30
0.0
 11
1111.928328
 21
-296.481229
 31
0.0
  0
LINE
  8
0
  6
BYLAYER
 62
     1
 10
1110.428328
 20
-261.150863
 30
0.0
 11
1110.428328
 21
-294.981290
 31
0.0
  0
LINE
  8
0
  6
BYLAYER
 62
     1
 10
1113.928328
 20
-323.481229
 30
0.0
 11
1111.928328
 21
-323.551053
 31
0.0
  0
CIRCLE
  8
0
  6
BYLAYER
 62
     1
 10
1096.928328
 20
-313.481229
 30
0.0
 40
6.5
  0
LINE
  8
0
  6
BYLAYER
 62
     1
 10
1009.928328
 20
-294.981229
 30
0.0
 11
983.428450
 21
-294.981229
 31
0.0
  0
LINE
  8
0
  6
BYLAYER
 62
     1
 10
1009.928328
 20
-296.481229
 30
0.0
 11
981.928450
 21
-296.481229
 31
0.0
  0
LINE
  8
0
  6
BYLAYER
 62
     1
 10
1083.928328
 20
-296.481229
 30
0.0
 11
1111.928328
 21
-296.481229
 31
0.0
  0
LINE
  8
0
  6
BYLAYER
 62
     1
 10
1083.928328
 20
-294.981229
 30
0.0
 11
1110.428328
 21
-294.981229
 31
0.0
  0
CIRCLE
  8
0
  6
BYLAYER
 62
     1
 10
996.928328
 20
-313.481229
 30
0.0
 40
6.5
  0
LINE
  8
0
  6
BYLAYER
 62
     1
 10
1083.928328
 20
-272.879721
 30
0.0
 11
1083.928328
 21
-346.481229
 31
0.0
  0
LINE
  8
0
  6
BYLAYER
 62
     1
 10
1009.928328
 20
-272.879721
 30
0.0
 11
1009.928328
 21
-346.481229
 31
0.0
  0
LINE
  8
0
  6
BYLAYER
 62
     1
 10
1113.928328
 20
-323.481229
 30
0.0
 11
1113.928328
 21
-259.008477
 31
0.0
  0
LINE
  8
0
  6
BYLAYER
 62
     1
 10
1116.928328
 20
-257.042805
 30
0.0
 11
1116.928328
 21
-297.981229
 31
0.0
  0
LINE
  8
0
  6
BYLAYER
 62
     1
 10
1116.928328
 20
-297.981229
 30
0.0
 11
1116.428328
 21
-298.481229
 31
0.0
  0
LINE
  8
0
  6
BYLAYER
 62
     1
 10
1116.428328
 20
-298.481229
 30
0.0
 11
1113.928328
 21
-298.481229
 31
0.0
  0
LINE
  8
0
  6
BYLAYER
 62
     1
 10
981.928328
 20
-296.481229
 30
0.0
 11
983.428328
 21
-294.981290
 31
0.0
  0
LINE
  8
0
  6
BYLAYER
 62
     1
 10
979.928328
 20
-323.481229
 30
0.0
 11
981.928328
 21
-323.551053
 31
0.0
  0
LINE
  8
0
  6
BYLAYER
 62
     1
 10
979.928328
 20
-323.481229
 30
0.0
 11
979.928328
 21
-259.008477
 31
0.0
  0
LINE
  8
0
  6
BYLAYER
 62
     1
 10
976.928328
 20
-257.042805
 30
0.0
 11
976.928328
 21
-297.981229
 31
0.0
  0
LINE
  8
0
  6
BYLAYER
 62
     1
 10
976.928328
 20
-297.981229
 30
0.0
 11
977.428328
 21
-298.481229
 31
0.0
  0
LINE
  8
0
  6
BYLAYER
 62
     1
 10
977.428328
 20
-298.481229
 30
0.0
 11
979.928328
 21
-298.481229
 31
0.0
  0
LINE
  8
0
  6
BYLAYER
 62
     1
 10
1083.928328
 20
-341.481198
 30
0.0
 11
1009.928328
 21
-341.481198
 31
0.0
  0
LINE
  8
0
  6
BYLAYER
 62
     7
 10
997.928328
 20
-39.481229
 30
0.0
 11
1000.928328
 21
-44.677396
 31
0.0
  0
LINE
  8
0
  6
BYLAYER
 62
     7
 10
997.928328
 20
-60.163086
 30
0.0
 11
997.928328
 21
-33.481229
 31
0.0
  0
LINE
  8
0
  6
BYLAYER
 62
     7
 10
1095.928297
 20
-60.163070
 30
0.0
 11
1095.928297
 21
-33.481229
 31
0.0
  0
LINE
  8
0
  6
BYLAYER
 62
     7
 10
1000.928328
 20
-48.481229
 30
0.0
 11
1000.928328
 21
-44.677396
 31
0.0
  0
ARC
  8
0
  6
BYLAYER
 62
     7
 10
1094.178297
 20
-49.481229
 30
0.0
 40
1.000000
 50
0.0
 51
90.000003
  0
LINE
  8
0
  6
BYLAYER
 62
     7
 10
1089.643995
 20
-48.481229
 30
0.0
 11
1094.178297
 21
-48.481229
 31
0.0
  0
ARC
  8
0
  6
BYLAYER
 62
     7
 10
1089.643995
 20
-49.481229
 30
0.0
 40
1.000000
 50
90.0
 51
178.00015
  0
LINE
  8
0
  6
BYLAYER
 62
     7
 10
1088.395466
 20
-56.580495
 30
0.0
 11
1088.644606
 21
-49.446317
 31
0.0
  0
LINE
  8
0
  6
BYLAYER
 62
     7
 10
1095.178297
 20
-59.773085
 30
0.0
 11
1095.178297
 21
-49.481229
 31
0.0
  0
LINE
  8
0
  6
BYLAYER
 62
     7
 10
999.678328
 20
-48.481229
 30
0.0
 11
1000.928328
 21
-48.481229
 31
0.0
  0
ARC
  8
0
  6
BYLAYER
 62
     7
 10
999.678328
 20
-49.481229
 30
0.0
 40
1.0
 50
90.0
 51
180.000003
  0
LINE
  8
0
  6
BYLAYER
 62
     7
 10
998.678328
 20
-49.481229
 30
0.0
 11
998.678328
 21
-59.773101
 31
0.0
  0
LINE
  8
0
  6
BYLAYER
 62
     7
 10
1003.428328
 20
-22.981229
 30
0.0
 11
1003.428328
 21
-1.481229
 31
0.0
  0
ARC
  8
0
  6
BYLAYER
 62
     7
 10
1001.928328
 20
-22.981229
 30
0.0
 40
1.5
 50
270.0
 51
360.0
  0
ARC
  8
0
  6
BYLAYER
 62
     7
 10
1004.928328
 20
-1.481229
 30
0.0
 40
1.5
 50
90.0
 51
180.0
  0
LINE
  8
0
  6
BYLAYER
 62
     7
 10
1046.928328
 20
0.018771
 30
0.0
 11
1004.928328
 21
0.018771
 31
0.0
  0
LINE
  8
0
  6
BYLAYER
 62
     7
 10
1008.800569
 20
-22.981229
 30
0.0
 11
1008.800569
 21
-1.481229
 31
0.0
  0
ARC
  8
0
  6
BYLAYER
 62
     7
 10
1007.300569
 20
-22.981229
 30
0.0
 40
1.5
 50
270.0
 51
360.0
  0
ARC
  8
0
  6
BYLAYER
 62
     7
 10
1010.300569
 20
-1.481229
 30
0.0
 40
1.500000
 50
90.0
 51
180.0
  0
LINE
  8
0
  6
BYLAYER
 62
     7
 10
1033.834675
 20
0.018771
 30
0.0
 11
1034.327222
 21
-14.085927
 31
0.0
  0
ARC
  8
0
  6
BYLAYER
 62
     7
 10
1037.325394
 20
-13.981229
 30
0.0
 40
3.000000
 50
182.0
 51
270.0
  0
LINE
  8
0
  6
BYLAYER
 62
     7
 10
1044.529434
 20
-14.085927
 30
0.0
 11
1045.021981
 21
0.018771
 31
0.0
  0
ARC
  8
0
  6
BYLAYER
 62
     7
 10
1041.531262
 20
-13.981229
 30
0.0
 40
3.000000
 50
270.0
 51
358.0
  0
LINE
  8
0
  6
BYLAYER
 62
     7
 10
1037.325394
 20
-16.981229
 30
0.0
 11
1041.531262
 21
-16.981229
 31
0.0
  0
LINE
  8
0
  6
BYLAYER
 62
     7
 10
1018.834675
 20
0.018771
 30
0.0
 11
1019.327222
 21
-14.085927
 31
0.0
  0
ARC
  8
0
  6
BYLAYER
 62
     7
 10
1022.325394
 20
-13.981229
 30
0.0
 40
3.000000
 50
182.0
 51
270.0
  0
LINE
  8
0
  6
BYLAYER
 62
     7
 10
1029.529434
 20
-14.085927
 30
0.0
 11
1030.021981
 21
0.018771
 31
0.0
  0
ARC
  8
0
  6
BYLAYER
 62
     7
 10
1026.531262
 20
-13.981229
 30
0.0
 40
3.000000
 50
270.0
 51
358.0
  0
LINE
  8
0
  6
BYLAYER
 62
     7
 10
1022.325394
 20
-16.981229
 30
0.0
 11
1026.531262
 21
-16.981229
 31
0.0
  0
LINE
  8
0
  6
BYLAYER
 62
     7
 10
1018.869596
 20
-0.981229
 30
0.0
 11
1029.987060
 21
-0.981229
 31
0.0
  0
LINE
  8
0
  6
BYLAYER
 62
     7
 10
1033.869596
 20
-0.981229
 30
0.0
 11
1044.987060
 21
-0.981229
 31
0.0
  0
LINE
  8
0
  6
BYLAYER
 62
     7
 10
1046.928328
 20
-24.481229
 30
0.0
 11
999.428328
 21
-24.481229
 31
0.0
  0
ARC
  8
0
  6
BYLAYER
 62
     7
 10
999.428328
 20
-25.981229
 30
0.0
 40
1.5
 50
90.0
 51
180.0
  0
LINE
  8
0
  6
BYLAYER
 62
     7
 10
997.928328
 20
-31.481229
 30
0.0
 11
997.928328
 21
-25.981229
 31
0.0
  0
LINE
  8
0
  6
BYLAYER
 62
     7
 10
997.928328
 20
-31.481229
 30
0.0
 11
1046.928328
 21
-31.481229
 31
0.0
  0
LINE
  8
0
  6
BYLAYER
 62
     7
 10
1090.428328
 20
-22.981229
 30
0.0
 11
1090.428328
 21
-1.481229
 31
0.0
  0
ARC
  8
0
  6
BYLAYER
 62
     7
 10
1091.928328
 20
-22.981229
 30
0.0
 40
1.5
 50
180.000000
 51
270.000000
  0
ARC
  8
0
  6
BYLAYER
 62
     7
 10
1088.928328
 20
-1.481229
 30
0.0
 40
1.5
 50
0.0
 51
90.0
  0
LINE
  8
0
  6
BYLAYER
 62
     7
 10
1046.928328
 20
0.018771
 30
0.0
 11
1088.928328
 21
0.018771
 31
0.0
  0
LINE
  8
0
  6
BYLAYER
 62
     7
 10
1085.056087
 20
-22.981229
 30
0.0
 11
1085.056087
 21
-1.481229
 31
0.0
  0
ARC
  8
0
  6
BYLAYER
 62
     7
 10
1086.556087
 20
-22.981229
 30
0.0
 40
1.5
 50
180.000000
 51
270.000000
  0
ARC
  8
0
  6
BYLAYER
 62
     7
 10
1083.556087
 20
-1.481229
 30
0.0
 40
1.5
 50
0.0
 51
90.0
  0
LINE
  8
0
  6
BYLAYER
 62
     7
 10
1060.021981
 20
0.018771
 30
0.0
 11
1059.529434
 21
-14.085927
 31
0.0
  0
ARC
  8
0
  6
BYLAYER
 62
     7
 10
1056.531262
 20
-13.981229
 30
0.0
 40
3.000000
 50
270.0
 51
358.0
  0
LINE
  8
0
  6
BYLAYER
 62
     7
 10
1049.327222
 20
-14.085927
 30
0.0
 11
1048.834675
 21
0.018771
 31
0.0
  0
ARC
  8
0
  6
BYLAYER
 62
     7
 10
1052.325394
 20
-13.981229
 30
0.0
 40
3.000000
 50
182.0
 51
270.0
  0
LINE
  8
0
  6
BYLAYER
 62
     7
 10
1056.531262
 20
-16.981229
 30
0.0
 11
1052.325394
 21
-16.981229
 31
0.0
  0
LINE
  8
0
  6
BYLAYER
 62
     7
 10
1075.021981
 20
0.018771
 30
0.0
 11
1074.529434
 21
-14.085927
 31
0.0
  0
ARC
  8
0
  6
BYLAYER
 62
     7
 10
1071.531262
 20
-13.981229
 30
0.0
 40
3.000000
 50
270.0
 51
358.0
  0
LINE
  8
0
  6
BYLAYER
 62
     7
 10
1064.327222
 20
-14.085927
 30
0.0
 11
1063.834675
 21
0.018771
 31
0.0
  0
ARC
  8
0
  6
BYLAYER
 62
     7
 10
1067.325394
 20
-13.981229
 30
0.0
 40
3.000000
 50
182.0
 51
270.0
  0
LINE
  8
0
  6
BYLAYER
 62
     7
 10
1071.531262
 20
-16.981229
 30
0.0
 11
1067.325394
 21
-16.981229
 31
0.0
  0
LINE
  8
0
  6
BYLAYER
 62
     7
 10
1074.987060
 20
-0.981229
 30
0.0
 11
1063.869596
 21
-0.981229
 31
0.0
  0
LINE
  8
0
  6
BYLAYER
 62
     7
 10
1059.987060
 20
-0.981229
 30
0.0
 11
1048.869596
 21
-0.981229
 31
0.0
  0
LINE
  8
0
  6
BYLAYER
 62
     7
 10
1046.928328
 20
-24.481229
 30
0.0
 11
1094.428328
 21
-24.481229
 31
0.0
  0
ARC
  8
0
  6
BYLAYER
 62
     7
 10
1094.428328
 20
-25.981229
 30
0.0
 40
1.5
 50
0.0
 51
90.0
  0
LINE
  8
0
  6
BYLAYER
 62
     7
 10
1095.928328
 20
-33.481229
 30
0.0
 11
1095.928328
 21
-25.981229
 31
0.0
  0
LINE
  8
0
  6
BYLAYER
 62
     7
 10
1095.928328
 20
-31.481229
 30
0.0
 11
1046.928328
 21
-31.481229
 31
0.0
  0
LINE
  8
0
  6
BYLAYER
 62
     7
 10
997.928328
 20
-33.481229
 30
0.0
 11
1046.928312
 21
-33.481229
 31
0.0
  0
LINE
  8
0
  6
BYLAYER
 62
     7
 10
1095.928312
 20
-33.481107
 30
0.0
 11
1046.928312
 21
-33.481229
 31
0.0
  0
LINE
  8
0
  6
BYLAYER
 62
     7
 10
997.928328
 20
-31.481229
 30
0.0
 11
997.928328
 21
-33.481229
 31
0.0
  0
LINE
  8
0
  6
BYLAYER
 62
     7
 10
1047.928328
 20
-124.481229
 30
0.0
 11
1047.928328
 21
-132.481229
 31
0.0
  0
LINE
  8
0
  6
BYLAYER
 62
     7
 10
1047.928328
 20
-114.481229
 30
0.0
 11
1047.928328
 21
-122.481229
 31
0.0
  0
LINE
  8
0
  6
BYLAYER
 62
     7
 10
1055.928328
 20
-122.481229
 30
0.0
 11
1055.928328
 21
-114.481229
 31
0.0
  0
LINE
  8
0
  6
BYLAYER
 62
     7
 10
1057.928328
 20
-122.481229
 30
0.0
 11
1057.928328
 21
-114.481229
 31
0.0
  0
LINE
  8
0
  6
BYLAYER
 62
     7
 10
1047.928328
 20
-132.481229
 30
0.0
 11
1055.928328
 21
-132.481229
 31
0.0
  0
LINE
  8
0
  6
BYLAYER
 62
     7
 10
1047.928328
 20
-124.481229
 30
0.0
 11
1055.928328
 21
-124.481229
 31
0.0
  0
LINE
  8
0
  6
BYLAYER
 62
     7
 10
1057.928328
 20
-122.481229
 30
0.0
 11
1065.766327
 21
-122.481229
 31
0.0
  0
LINE
  8
0
  6
BYLAYER
 62
     7
 10
1047.928328
 20
-122.481229
 30
0.0
 11
1055.928328
 21
-122.481229
 31
0.0
  0
LINE
  8
0
  6
BYLAYER
 62
     7
 10
1057.928328
 20
-114.481229
 30
0.0
 11
1065.766327
 21
-114.481229
 31
0.0
  0
LINE
  8
0
  6
BYLAYER
 62
     7
 10
1047.928328
 20
-114.481229
 30
0.0
 11
1055.928328
 21
-114.481229
 31
0.0
  0
LINE
  8
0
  6
BYLAYER
 62
     7
 10
1065.766327
 20
-122.481229
 30
0.0
 11
1065.766327
 21
-114.481229
 31
0.0
  0
LINE
  8
0
  6
BYLAYER
 62
     7
 10
1055.928328
 20
-132.481229
 30
0.0
 11
1055.928328
 21
-124.481229
 31
0.0
  0
LINE
  8
0
  6
BYLAYER
 62
     7
 10
1057.928328
 20
-124.481229
 30
0.0
 11
1057.928328
 21
-132.481229
 31
0.0
  0
LINE
  8
0
  6
BYLAYER
 62
     7
 10
1057.928328
 20
-132.481229
 30
0.0
 11
1065.928328
 21
-132.481229
 31
0.0
  0
LINE
  8
0
  6
BYLAYER
 62
     7
 10
1057.928328
 20
-124.481229
 30
0.0
 11
1065.928328
 21
-124.481229
 31
0.0
  0
LINE
  8
0
  6
BYLAYER
 62
     7
 10
1065.928328
 20
-132.481229
 30
0.0
 11
1065.928328
 21
-124.481229
 31
0.0
  0
LINE
  8
0
  6
BYLAYER
 62
     7
 10
1067.928328
 20
-142.481229
 30
0.0
 11
1075.928328
 21
-142.481229
 31
0.0
  0
LINE
  8
0
  6
BYLAYER
 62
     7
 10
1067.928328
 20
-124.481229
 30
0.0
 11
1067.928328
 21
-132.481229
 31
0.0
  0
LINE
  8
0
  6
BYLAYER
 62
     7
 10
1067.928328
 20
-134.481229
 30
0.0
 11
1067.928328
 21
-142.481229
 31
0.0
  0
LINE
  8
0
  6
BYLAYER
 62
     7
 10
1067.928328
 20
-134.481229
 30
0.0
 11
1075.928328
 21
-134.481229
 31
0.0
  0
LINE
  8
0
  6
BYLAYER
 62
     7
 10
1067.928328
 20
-132.481229
 30
0.0
 11
1075.928328
 21
-132.481229
 31
0.0
  0
LINE
  8
0
  6
BYLAYER
 62
     7
 10
1067.928328
 20
-124.481229
 30
0.0
 11
1075.928328
 21
-124.481229
 31
0.0
  0
LINE
  8
0
  6
BYLAYER
 62
     7
 10
1075.928328
 20
-142.481229
 30
0.0
 11
1075.928328
 21
-134.481229
 31
0.0
  0
LINE
  8
0
  6
BYLAYER
 62
     7
 10
1075.928328
 20
-132.481229
 30
0.0
 11
1075.928328
 21
-124.481229
 31
0.0
  0
LINE
  8
0
  6
BYLAYER
 62
     7
 10
1067.928328
 20
-152.481229
 30
0.0
 11
1075.928328
 21
-152.481229
 31
0.0
  0
LINE
  8
0
  6
BYLAYER
 62
     7
 10
1067.928328
 20
-144.481229
 30
0.0
 11
1067.928328
 21
-152.481229
 31
0.0
  0
LINE
  8
0
  6
BYLAYER
 62
     7
 10
1067.928328
 20
-144.481229
 30
0.0
 11
1075.928328
 21
-144.481229
 31
0.0
  0
LINE
  8
0
  6
BYLAYER
 62
     7
 10
1075.928328
 20
-152.481229
 30
0.0
 11
1075.928328
 21
-144.481229
 31
0.0
  0
LINE
  8
0
  6
BYLAYER
 62
     7
 10
1077.928328
 20
-142.481229
 30
0.0
 11
1085.928328
 21
-142.481229
 31
0.0
  0
LINE
  8
0
  6
BYLAYER
 62
     7
 10
1077.928328
 20
-134.481229
 30
0.0
 11
1077.928328
 21
-142.481229
 31
0.0
  0
LINE
  8
0
  6
BYLAYER
 62
     7
 10
1077.928328
 20
-134.481229
 30
0.0
 11
1085.928328
 21
-134.481229
 31
0.0
  0
LINE
  8
0
  6
BYLAYER
 62
     7
 10
1085.928328
 20
-142.481229
 30
0.0
 11
1085.928328
 21
-134.481229
 31
0.0
  0
LINE
  8
0
  6
BYLAYER
 62
     7
 10
1077.928328
 20
-152.481229
 30
0.0
 11
1085.928328
 21
-152.481229
 31
0.0
  0
LINE
  8
0
  6
BYLAYER
 62
     7
 10
1077.928328
 20
-144.481229
 30
0.0
 11
1077.928328
 21
-152.481229
 31
0.0
  0
LINE
  8
0
  6
BYLAYER
 62
     7
 10
1077.928328
 20
-144.481229
 30
0.0
 11
1085.928328
 21
-144.481229
 31
0.0
  0
LINE
  8
0
  6
BYLAYER
 62
     7
 10
1085.928328
 20
-152.481229
 30
0.0
 11
1085.928328
 21
-144.481229
 31
0.0
  0
LINE
  8
0
  6
BYLAYER
 62
     7
 10
1087.928328
 20
-142.481229
 30
0.0
 11
1095.928328
 21
-142.481229
 31
0.0
  0
LINE
  8
0
  6
BYLAYER
 62
     7
 10
1087.928328
 20
-134.481229
 30
0.0
 11
1087.928328
 21
-142.481229
 31
0.0
  0
LINE
  8
0
  6
BYLAYER
 62
     7
 10
1087.928328
 20
-134.481229
 30
0.0
 11
1095.928328
 21
-134.481229
 31
0.0
  0
LINE
  8
0
  6
BYLAYER
 62
     7
 10
1095.928328
 20
-142.481229
 30
0.0
 11
1095.928328
 21
-134.481229
 31
0.0
  0
LINE
  8
0
  6
BYLAYER
 62
     7
 10
1087.928328
 20
-152.481229
 30
0.0
 11
1095.928328
 21
-152.481229
 31
0.0
  0
LINE
  8
0
  6
BYLAYER
 62
     7
 10
1087.928328
 20
-144.481229
 30
0.0
 11
1087.928328
 21
-152.481229
 31
0.0
  0
LINE
  8
0
  6
BYLAYER
 62
     7
 10
1087.928328
 20
-144.481229
 30
0.0
 11
1095.928328
 21
-144.481229
 31
0.0
  0
LINE
  8
0
  6
BYLAYER
 62
     7
 10
1095.928328
 20
-152.481229
 30
0.0
 11
1095.928328
 21
-144.481229
 31
0.0
  0
LINE
  8
0
  6
BYLAYER
 62
     7
 10
1047.928328
 20
-104.481229
 30
0.0
 11
1047.928328
 21
-112.481229
 31
0.0
  0
LINE
  8
0
  6
BYLAYER
 62
     7
 10
1055.928328
 20
-112.481229
 30
0.0
 11
1055.928328
 21
-104.481229
 31
0.0
  0
LINE
  8
0
  6
BYLAYER
 62
     7
 10
1057.928328
 20
-112.481229
 30
0.0
 11
1057.928328
 21
-104.481229
 31
0.0
  0
LINE
  8
0
  6
BYLAYER
 62
     7
 10
1057.928328
 20
-112.481229
 30
0.0
 11
1065.766327
 21
-112.481229
 31
0.0
  0
LINE
  8
0
  6
BYLAYER
 62
     7
 10
1047.928328
 20
-112.481229
 30
0.0
 11
1055.928328
 21
-112.481229
 31
0.0
  0
LINE
  8
0
  6
BYLAYER
 62
     7
 10
1057.928328
 20
-104.481229
 30
0.0
 11
1065.766327
 21
-104.481229
 31
0.0
  0
LINE
  8
0
  6
BYLAYER
 62
     7
 10
1047.928328
 20
-104.481229
 30
0.0
 11
1055.928328
 21
-104.481229
 31
0.0
  0
LINE
  8
0
  6
BYLAYER
 62
     7
 10
1065.766327
 20
-112.481229
 30
0.0
 11
1065.766327
 21
-104.481229
 31
0.0
  0
LINE
  8
0
  6
BYLAYER
 62
     7
 10
1067.928328
 20
-114.481229
 30
0.0
 11
1067.928328
 21
-122.481229
 31
0.0
  0
LINE
  8
0
  6
BYLAYER
 62
     7
 10
1067.928328
 20
-122.481229
 30
0.0
 11
1075.928328
 21
-122.481229
 31
0.0
  0
LINE
  8
0
  6
BYLAYER
 62
     7
 10
1067.928328
 20
-114.481229
 30
0.0
 11
1075.928328
 21
-114.481229
 31
0.0
  0
LINE
  8
0
  6
BYLAYER
 62
     7
 10
1075.928328
 20
-122.481229
 30
0.0
 11
1075.928328
 21
-114.481229
 31
0.0
  0
LINE
  8
0
  6
BYLAYER
 62
     7
 10
1067.928328
 20
-104.481229
 30
0.0
 11
1067.928328
 21
-112.481229
 31
0.0
  0
LINE
  8
0
  6
BYLAYER
 62
     7
 10
1067.928328
 20
-112.481229
 30
0.0
 11
1075.928328
 21
-112.481229
 31
0.0
  0
LINE
  8
0
  6
BYLAYER
 62
     7
 10
1067.928328
 20
-104.481229
 30
0.0
 11
1075.928328
 21
-104.481229
 31
0.0
  0
LINE
  8
0
  6
BYLAYER
 62
     7
 10
1075.928328
 20
-112.481229
 30
0.0
 11
1075.928328
 21
-104.481229
 31
0.0
  0
LINE
  8
0
  6
BYLAYER
 62
     7
 10
1077.928328
 20
-124.481229
 30
0.0
 11
1077.928328
 21
-132.481229
 31
0.0
  0
LINE
  8
0
  6
BYLAYER
 62
     7
 10
1077.928328
 20
-132.481229
 30
0.0
 11
1085.928328
 21
-132.481229
 31
0.0
  0
LINE
  8
0
  6
BYLAYER
 62
     7
 10
1077.928328
 20
-124.481229
 30
0.0
 11
1085.928328
 21
-124.481229
 31
0.0
  0
LINE
  8
0
  6
BYLAYER
 62
     7
 10
1085.928328
 20
-132.481229
 30
0.0
 11
1085.928328
 21
-124.481229
 31
0.0
  0
LINE
  8
0
  6
BYLAYER
 62
     7
 10
1077.928328
 20
-114.481229
 30
0.0
 11
1077.928328
 21
-122.481229
 31
0.0
  0
LINE
  8
0
  6
BYLAYER
 62
     7
 10
1077.928328
 20
-122.481229
 30
0.0
 11
1085.928328
 21
-122.481229
 31
0.0
  0
LINE
  8
0
  6
BYLAYER
 62
     7
 10
1077.928328
 20
-114.481229
 30
0.0
 11
1085.928328
 21
-114.481229
 31
0.0
  0
LINE
  8
0
  6
BYLAYER
 62
     7
 10
1085.928328
 20
-122.481229
 30
0.0
 11
1085.928328
 21
-114.481229
 31
0.0
  0
LINE
  8
0
  6
BYLAYER
 62
     7
 10
1087.928328
 20
-124.481229
 30
0.0
 11
1087.928328
 21
-132.481229
 31
0.0
  0
LINE
  8
0
  6
BYLAYER
 62
     7
 10
1087.928328
 20
-132.481229
 30
0.0
 11
1095.928328
 21
-132.481229
 31
0.0
  0
LINE
  8
0
  6
BYLAYER
 62
     7
 10
1087.928328
 20
-124.481229
 30
0.0
 11
1095.928328
 21
-124.481229
 31
0.0
  0
LINE
  8
0
  6
BYLAYER
 62
     7
 10
1095.928328
 20
-132.481229
 30
0.0
 11
1095.928328
 21
-124.481229
 31
0.0
  0
CIRCLE
  8
0
  6
BYLAYER
 62
     7
 10
1046.928328
 20
-153.481229
 30
0.0
 40
4.0
  0
LINE
  8
0
  6
BYLAYER
 62
     7
 10
1097.928328
 20
-142.481229
 30
0.0
 11
1105.928328
 21
-142.481229
 31
0.0
  0
LINE
  8
0
  6
BYLAYER
 62
     7
 10
1097.928328
 20
-134.481229
 30
0.0
 11
1097.928328
 21
-142.481229
 31
0.0
  0
LINE
  8
0
  6
BYLAYER
 62
     7
 10
1097.928328
 20
-134.481229
 30
0.0
 11
1105.928328
 21
-134.481229
 31
0.0
  0
LINE
  8
0
  6
BYLAYER
 62
     7
 10
1105.928328
 20
-142.481229
 30
0.0
 11
1105.928328
 21
-134.481229
 31
0.0
  0
LINE
  8
0
  6
BYLAYER
 62
     7
 10
1097.928328
 20
-152.481229
 30
0.0
 11
1105.928328
 21
-152.481229
 31
0.0
  0
LINE
  8
0
  6
BYLAYER
 62
     7
 10
1097.928328
 20
-144.481229
 30
0.0
 11
1097.928328
 21
-152.481229
 31
0.0
  0
LINE
  8
0
  6
BYLAYER
 62
     7
 10
1097.928328
 20
-144.481229
 30
0.0
 11
1105.928328
 21
-144.481229
 31
0.0
  0
LINE
  8
0
  6
BYLAYER
 62
     7
 10
1105.928328
 20
-152.481229
 30
0.0
 11
1105.928328
 21
-144.481229
 31
0.0
  0
LINE
  8
0
  6
BYLAYER
 62
     7
 10
1097.928328
 20
-124.481229
 30
0.0
 11
1097.928328
 21
-132.481229
 31
0.0
  0
LINE
  8
0
  6
BYLAYER
 62
     7
 10
1097.928328
 20
-132.481229
 30
0.0
 11
1105.928328
 21
-132.481229
 31
0.0
  0
LINE
  8
0
  6
BYLAYER
 62
     7
 10
1097.928328
 20
-124.481229
 30
0.0
 11
1105.928328
 21
-124.481229
 31
0.0
  0
LINE
  8
0
  6
BYLAYER
 62
     7
 10
1105.928328
 20
-132.481229
 30
0.0
 11
1105.928328
 21
-124.481229
 31
0.0
  0
LINE
  8
0
  6
BYLAYER
 62
     7
 10
1047.928328
 20
-94.481229
 30
0.0
 11
1047.928328
 21
-102.481229
 31
0.0
  0
LINE
  8
0
  6
BYLAYER
 62
     7
 10
1055.928328
 20
-102.481229
 30
0.0
 11
1055.928328
 21
-94.481229
 31
0.0
  0
LINE
  8
0
  6
BYLAYER
 62
     7
 10
1057.928328
 20
-102.481229
 30
0.0
 11
1057.928328
 21
-94.481229
 31
0.0
  0
LINE
  8
0
  6
BYLAYER
 62
     7
 10
1057.928328
 20
-102.481229
 30
0.0
 11
1065.766327
 21
-102.481229
 31
0.0
  0
LINE
  8
0
  6
BYLAYER
 62
     7
 10
1047.928328
 20
-102.481229
 30
0.0
 11
1055.928328
 21
-102.481229
 31
0.0
  0
LINE
  8
0
  6
BYLAYER
 62
     7
 10
1057.928328
 20
-94.481229
 30
0.0
 11
1065.766327
 21
-94.481229
 31
0.0
  0
LINE
  8
0
  6
BYLAYER
 62
     7
 10
1047.928328
 20
-94.481229
 30
0.0
 11
1055.928328
 21
-94.481229
 31
0.0
  0
LINE
  8
0
  6
BYLAYER
 62
     7
 10
1065.766327
 20
-102.481229
 30
0.0
 11
1065.766327
 21
-94.481229
 31
0.0
  0
LINE
  8
0
  6
BYLAYER
 62
     7
 10
1067.928328
 20
-94.481229
 30
0.0
 11
1067.928328
 21
-102.481229
 31
0.0
  0
LINE
  8
0
  6
BYLAYER
 62
     7
 10
1067.928328
 20
-102.481229
 30
0.0
 11
1075.928328
 21
-102.481229
 31
0.0
  0
LINE
  8
0
  6
BYLAYER
 62
     7
 10
1067.928328
 20
-94.481229
 30
0.0
 11
1075.928328
 21
-94.481229
 31
0.0
  0
LINE
  8
0
  6
BYLAYER
 62
     7
 10
1075.928328
 20
-102.481229
 30
0.0
 11
1075.928328
 21
-94.481229
 31
0.0
  0
LINE
  8
0
  6
BYLAYER
 62
     7
 10
1077.928328
 20
-104.481229
 30
0.0
 11
1077.928328
 21
-112.481229
 31
0.0
  0
LINE
  8
0
  6
BYLAYER
 62
     7
 10
1077.928328
 20
-112.481229
 30
0.0
 11
1085.928328
 21
-112.481229
 31
0.0
  0
LINE
  8
0
  6
BYLAYER
 62
     7
 10
1077.928328
 20
-104.481229
 30
0.0
 11
1085.928328
 21
-104.481229
 31
0.0
  0
LINE
  8
0
  6
BYLAYER
 62
     7
 10
1085.928328
 20
-112.481229
 30
0.0
 11
1085.928328
 21
-104.481229
 31
0.0
  0
LINE
  8
0
  6
BYLAYER
 62
     7
 10
1087.928328
 20
-114.481229
 30
0.0
 11
1087.928328
 21
-122.481229
 31
0.0
  0
LINE
  8
0
  6
BYLAYER
 62
     7
 10
1087.928328
 20
-122.481229
 30
0.0
 11
1095.928328
 21
-122.481229
 31
0.0
  0
LINE
  8
0
  6
BYLAYER
 62
     7
 10
1087.928328
 20
-114.481229
 30
0.0
 11
1095.928328
 21
-114.481229
 31
0.0
  0
LINE
  8
0
  6
BYLAYER
 62
     7
 10
1095.928328
 20
-122.481229
 30
0.0
 11
1095.928328
 21
-114.481229
 31
0.0
  0
LINE
  8
0
  6
BYLAYER
 62
     7
 10
1047.928328
 20
-84.481229
 30
0.0
 11
1047.928328
 21
-92.481229
 31
0.0
  0
LINE
  8
0
  6
BYLAYER
 62
     7
 10
1055.928328
 20
-92.481229
 30
0.0
 11
1055.928328
 21
-84.481229
 31
0.0
  0
LINE
  8
0
  6
BYLAYER
 62
     7
 10
1057.928328
 20
-92.481229
 30
0.0
 11
1057.928328
 21
-84.481229
 31
0.0
  0
LINE
  8
0
  6
BYLAYER
 62
     7
 10
1057.928328
 20
-92.481229
 30
0.0
 11
1065.766327
 21
-92.481229
 31
0.0
  0
LINE
  8
0
  6
BYLAYER
 62
     7
 10
1047.928328
 20
-92.481229
 30
0.0
 11
1055.928328
 21
-92.481229
 31
0.0
  0
LINE
  8
0
  6
BYLAYER
 62
     7
 10
1057.928328
 20
-84.481229
 30
0.0
 11
1065.766327
 21
-84.481229
 31
0.0
  0
LINE
  8
0
  6
BYLAYER
 62
     7
 10
1047.928328
 20
-84.481229
 30
0.0
 11
1055.928328
 21
-84.481229
 31
0.0
  0
LINE
  8
0
  6
BYLAYER
 62
     7
 10
1065.766327
 20
-92.481229
 30
0.0
 11
1065.766327
 21
-84.481229
 31
0.0
  0
LINE
  8
0
  6
BYLAYER
 62
     7
 10
1107.928328
 20
-142.481229
 30
0.0
 11
1115.928328
 21
-142.481229
 31
0.0
  0
LINE
  8
0
  6
BYLAYER
 62
     7
 10
1107.928328
 20
-134.481229
 30
0.0
 11
1107.928328
 21
-142.481229
 31
0.0
  0
LINE
  8
0
  6
BYLAYER
 62
     7
 10
1107.928328
 20
-134.481229
 30
0.0
 11
1115.928328
 21
-134.481229
 31
0.0
  0
LINE
  8
0
  6
BYLAYER
 62
     7
 10
1115.928328
 20
-142.481229
 30
0.0
 11
1115.928328
 21
-134.481229
 31
0.0
  0
LINE
  8
0
  6
BYLAYER
 62
     7
 10
1107.928328
 20
-152.481229
 30
0.0
 11
1115.928328
 21
-152.481229
 31
0.0
  0
LINE
  8
0
  6
BYLAYER
 62
     7
 10
1107.928328
 20
-144.481229
 30
0.0
 11
1107.928328
 21
-152.481229
 31
0.0
  0
LINE
  8
0
  6
BYLAYER
 62
     7
 10
1107.928328
 20
-144.481229
 30
0.0
 11
1115.928328
 21
-144.481229
 31
0.0
  0
LINE
  8
0
  6
BYLAYER
 62
     7
 10
1115.928328
 20
-152.481229
 30
0.0
 11
1115.928328
 21
-144.481229
 31
0.0
  0
LINE
  8
0
  6
BYLAYER
 62
     7
 10
1077.928328
 20
-94.481229
 30
0.0
 11
1077.928328
 21
-102.481229
 31
0.0
  0
LINE
  8
0
  6
BYLAYER
 62
     7
 10
1077.928328
 20
-102.481229
 30
0.0
 11
1085.928328
 21
-102.481229
 31
0.0
  0
LINE
  8
0
  6
BYLAYER
 62
     7
 10
1077.928328
 20
-94.481229
 30
0.0
 11
1085.928328
 21
-94.481229
 31
0.0
  0
LINE
  8
0
  6
BYLAYER
 62
     7
 10
1085.928328
 20
-102.481229
 30
0.0
 11
1085.928328
 21
-94.481229
 31
0.0
  0
LINE
  8
0
  6
BYLAYER
 62
     7
 10
1087.928328
 20
-104.481229
 30
0.0
 11
1087.928328
 21
-112.481229
 31
0.0
  0
LINE
  8
0
  6
BYLAYER
 62
     7
 10
1087.928328
 20
-112.481229
 30
0.0
 11
1095.928328
 21
-112.481229
 31
0.0
  0
LINE
  8
0
  6
BYLAYER
 62
     7
 10
1087.928328
 20
-104.481229
 30
0.0
 11
1095.928328
 21
-104.481229
 31
0.0
  0
LINE
  8
0
  6
BYLAYER
 62
     7
 10
1095.928328
 20
-112.481229
 30
0.0
 11
1095.928328
 21
-104.481229
 31
0.0
  0
LINE
  8
0
  6
BYLAYER
 62
     7
 10
1097.928328
 20
-114.481229
 30
0.0
 11
1097.928328
 21
-122.481229
 31
0.0
  0
LINE
  8
0
  6
BYLAYER
 62
     7
 10
1097.928328
 20
-122.481229
 30
0.0
 11
1105.928328
 21
-122.481229
 31
0.0
  0
LINE
  8
0
  6
BYLAYER
 62
     7
 10
1097.928328
 20
-114.481229
 30
0.0
 11
1105.928328
 21
-114.481229
 31
0.0
  0
LINE
  8
0
  6
BYLAYER
 62
     7
 10
1105.928328
 20
-122.481229
 30
0.0
 11
1105.928328
 21
-114.481229
 31
0.0
  0
LINE
  8
0
  6
BYLAYER
 62
     7
 10
1047.928328
 20
-74.481229
 30
0.0
 11
1047.928328
 21
-82.481229
 31
0.0
  0
LINE
  8
0
  6
BYLAYER
 62
     7
 10
1055.928328
 20
-82.481229
 30
0.0
 11
1055.928328
 21
-74.481229
 31
0.0
  0
LINE
  8
0
  6
BYLAYER
 62
     7
 10
1047.928328
 20
-82.481229
 30
0.0
 11
1055.928328
 21
-82.481229
 31
0.0
  0
LINE
  8
0
  6
BYLAYER
 62
     7
 10
1047.928328
 20
-74.481229
 30
0.0
 11
1055.928328
 21
-74.481229
 31
0.0
  0
LINE
  8
0
  6
BYLAYER
 62
     7
 10
1117.928328
 20
-152.481229
 30
0.0
 11
1125.928328
 21
-152.481229
 31
0.0
  0
LINE
  8
0
  6
BYLAYER
 62
     7
 10
1117.928328
 20
-144.481229
 30
0.0
 11
1117.928328
 21
-152.481229
 31
0.0
  0
LINE
  8
0
  6
BYLAYER
 62
     7
 10
1117.928328
 20
-144.481229
 30
0.0
 11
1125.928328
 21
-144.481229
 31
0.0
  0
LINE
  8
0
  6
BYLAYER
 62
     7
 10
1125.928328
 20
-152.481229
 30
0.0
 11
1125.928328
 21
-144.481229
 31
0.0
  0
LINE
  8
0
  6
BYLAYER
 62
     7
 10
1067.928328
 20
-84.481229
 30
0.0
 11
1067.928328
 21
-92.481229
 31
0.0
  0
LINE
  8
0
  6
BYLAYER
 62
     7
 10
1067.928328
 20
-92.481229
 30
0.0
 11
1075.928328
 21
-92.481229
 31
0.0
  0
LINE
  8
0
  6
BYLAYER
 62
     7
 10
1067.928328
 20
-84.481229
 30
0.0
 11
1075.928328
 21
-84.481229
 31
0.0
  0
LINE
  8
0
  6
BYLAYER
 62
     7
 10
1075.928328
 20
-92.481229
 30
0.0
 11
1075.928328
 21
-84.481229
 31
0.0
  0
LINE
  8
0
  6
BYLAYER
 62
     7
 10
1107.928328
 20
-124.481229
 30
0.0
 11
1107.928328
 21
-132.481229
 31
0.0
  0
LINE
  8
0
  6
BYLAYER
 62
     7
 10
1107.928328
 20
-132.481229
 30
0.0
 11
1115.928328
 21
-132.481229
 31
0.0
  0
LINE
  8
0
  6
BYLAYER
 62
     7
 10
1107.928328
 20
-124.481229
 30
0.0
 11
1115.928328
 21
-124.481229
 31
0.0
  0
LINE
  8
0
  6
BYLAYER
 62
     7
 10
1115.928328
 20
-132.481229
 30
0.0
 11
1115.928328
 21
-124.481229
 31
0.0
  0
CIRCLE
  8
0
  6
BYLAYER
 62
     7
 10
1046.928328
 20
-153.481229
 30
0.0
 40
84.000549
  0
CIRCLE
  8
0
  6
BYLAYER
 62
     7
 10
1046.928328
 20
-153.481229
 30
0.0
 40
105.400549
  0
LINE
  8
0
  6
BYLAYER
 62
     7
 10
1077.928328
 20
-84.481229
 30
0.0
 11
1077.928328
 21
-92.481229
 31
0.0
  0
LINE
  8
0
  6
BYLAYER
 62
     7
 10
1077.928328
 20
-92.481229
 30
0.0
 11
1085.928328
 21
-92.481229
 31
0.0
  0
LINE
  8
0
  6
BYLAYER
 62
     7
 10
1077.928328
 20
-84.481229
 30
0.0
 11
1085.928328
 21
-84.481229
 31
0.0
  0
LINE
  8
0
  6
BYLAYER
 62
     7
 10
1085.928328
 20
-92.481229
 30
0.0
 11
1085.928328
 21
-84.481229
 31
0.0
  0
LINE
  8
0
  6
BYLAYER
 62
     7
 10
1087.928328
 20
-94.481229
 30
0.0
 11
1087.928328
 21
-102.481229
 31
0.0
  0
LINE
  8
0
  6
BYLAYER
 62
     7
 10
1087.928328
 20
-102.481229
 30
0.0
 11
1095.928328
 21
-102.481229
 31
0.0
  0
LINE
  8
0
  6
BYLAYER
 62
     7
 10
1087.928328
 20
-94.481229
 30
0.0
 11
1095.928328
 21
-94.481229
 31
0.0
  0
LINE
  8
0
  6
BYLAYER
 62
     7
 10
1095.928328
 20
-102.481229
 30
0.0
 11
1095.928328
 21
-94.481229
 31
0.0
  0
LINE
  8
0
  6
BYLAYER
 62
     7
 10
1097.928328
 20
-104.481229
 30
0.0
 11
1097.928328
 21
-112.481229
 31
0.0
  0
LINE
  8
0
  6
BYLAYER
 62
     7
 10
1097.928328
 20
-112.481229
 30
0.0
 11
1105.928328
 21
-112.481229
 31
0.0
  0
LINE
  8
0
  6
BYLAYER
 62
     7
 10
1097.928328
 20
-104.481229
 30
0.0
 11
1105.928328
 21
-104.481229
 31
0.0
  0
LINE
  8
0
  6
BYLAYER
 62
     7
 10
1105.928328
 20
-112.481229
 30
0.0
 11
1105.928328
 21
-104.481229
 31
0.0
  0
LINE
  8
0
  6
BYLAYER
 62
     7
 10
1107.928328
 20
-114.481229
 30
0.0
 11
1107.928328
 21
-122.481229
 31
0.0
  0
LINE
  8
0
  6
BYLAYER
 62
     7
 10
1107.928328
 20
-122.481229
 30
0.0
 11
1115.928328
 21
-122.481229
 31
0.0
  0
LINE
  8
0
  6
BYLAYER
 62
     7
 10
1107.928328
 20
-114.481229
 30
0.0
 11
1115.928328
 21
-114.481229
 31
0.0
  0
LINE
  8
0
  6
BYLAYER
 62
     7
 10
1115.928328
 20
-122.481229
 30
0.0
 11
1115.928328
 21
-114.481229
 31
0.0
  0
LINE
  8
0
  6
BYLAYER
 62
     7
 10
1057.928328
 20
-82.481229
 30
0.0
 11
1057.928328
 21
-74.481229
 31
0.0
  0
LINE
  8
0
  6
BYLAYER
 62
     7
 10
1057.928328
 20
-82.481229
 30
0.0
 11
1065.766327
 21
-82.481229
 31
0.0
  0
LINE
  8
0
  6
BYLAYER
 62
     7
 10
1057.928328
 20
-74.481229
 30
0.0
 11
1065.766327
 21
-74.481229
 31
0.0
  0
LINE
  8
0
  6
BYLAYER
 62
     7
 10
1065.766327
 20
-82.481229
 30
0.0
 11
1065.766327
 21
-74.481229
 31
0.0
  0
LINE
  8
0
  6
BYLAYER
 62
     7
 10
1117.928328
 20
-142.481229
 30
0.0
 11
1125.928328
 21
-142.481229
 31
0.0
  0
LINE
  8
0
  6
BYLAYER
 62
     7
 10
1117.928328
 20
-134.481229
 30
0.0
 11
1117.928328
 21
-142.481229
 31
0.0
  0
LINE
  8
0
  6
BYLAYER
 62
     7
 10
1117.928328
 20
-134.481229
 30
0.0
 11
1125.928328
 21
-134.481229
 31
0.0
  0
LINE
  8
0
  6
BYLAYER
 62
     7
 10
1125.928328
 20
-142.481229
 30
0.0
 11
1125.928328
 21
-134.481229
 31
0.0
  0
LINE
  8
0
  6
BYLAYER
 62
     7
 10
1047.928328
 20
-182.481229
 30
0.0
 11
1047.928328
 21
-174.481229
 31
0.0
  0
LINE
  8
0
  6
BYLAYER
 62
     7
 10
1047.928328
 20
-192.481229
 30
0.0
 11
1047.928328
 21
-184.481229
 31
0.0
  0
LINE
  8
0
  6
BYLAYER
 62
     7
 10
1055.928328
 20
-184.481229
 30
0.0
 11
1055.928328
 21
-192.481229
 31
0.0
  0
LINE
  8
0
  6
BYLAYER
 62
     7
 10
1057.928328
 20
-184.481229
 30
0.0
 11
1057.928328
 21
-192.481229
 31
0.0
  0
LINE
  8
0
  6
BYLAYER
 62
     7
 10
1047.928328
 20
-174.481229
 30
0.0
 11
1055.928328
 21
-174.481229
 31
0.0
  0
LINE
  8
0
  6
BYLAYER
 62
     7
 10
1047.928328
 20
-182.481229
 30
0.0
 11
1055.928328
 21
-182.481229
 31
0.0
  0
LINE
  8
0
  6
BYLAYER
 62
     7
 10
1057.928328
 20
-184.481229
 30
0.0
 11
1065.766327
 21
-184.481229
 31
0.0
  0
LINE
  8
0
  6
BYLAYER
 62
     7
 10
1047.928328
 20
-184.481229
 30
0.0
 11
1055.928328
 21
-184.481229
 31
0.0
  0
LINE
  8
0
  6
BYLAYER
 62
     7
 10
1057.928328
 20
-192.481229
 30
0.0
 11
1065.766327
 21
-192.481229
 31
0.0
  0
LINE
  8
0
  6
BYLAYER
 62
     7
 10
1047.928328
 20
-192.481229
 30
0.0
 11
1055.928328
 21
-192.481229
 31
0.0
  0
LINE
  8
0
  6
BYLAYER
 62
     7
 10
1065.766327
 20
-184.481229
 30
0.0
 11
1065.766327
 21
-192.481229
 31
0.0
  0
LINE
  8
0
  6
BYLAYER
 62
     7
 10
1055.928328
 20
-174.481229
 30
0.0
 11
1055.928328
 21
-182.481229
 31
0.0
  0
LINE
  8
0
  6
BYLAYER
 62
     7
 10
1057.928328
 20
-182.481229
 30
0.0
 11
1057.928328
 21
-174.481229
 31
0.0
  0
LINE
  8
0
  6
BYLAYER
 62
     7
 10
1057.928328
 20
-174.481229
 30
0.0
 11
1065.928328
 21
-174.481229
 31
0.0
  0
LINE
  8
0
  6
BYLAYER
 62
     7
 10
1057.928328
 20
-182.481229
 30
0.0
 11
1065.928328
 21
-182.481229
 31
0.0
  0
LINE
  8
0
  6
BYLAYER
 62
     7
 10
1065.928328
 20
-174.481229
 30
0.0
 11
1065.928328
 21
-182.481229
 31
0.0
  0
LINE
  8
0
  6
BYLAYER
 62
     7
 10
1067.928328
 20
-164.481229
 30
0.0
 11
1075.928328
 21
-164.481229
 31
0.0
  0
LINE
  8
0
  6
BYLAYER
 62
     7
 10
1067.928328
 20
-182.481229
 30
0.0
 11
1067.928328
 21
-174.481229
 31
0.0
  0
LINE
  8
0
  6
BYLAYER
 62
     7
 10
1067.928328
 20
-172.481229
 30
0.0
 11
1067.928328
 21
-164.481229
 31
0.0
  0
LINE
  8
0
  6
BYLAYER
 62
     7
 10
1067.928328
 20
-172.481229
 30
0.0
 11
1075.928328
 21
-172.481229
 31
0.0
  0
LINE
  8
0
  6
BYLAYER
 62
     7
 10
1067.928328
 20
-174.481229
 30
0.0
 11
1075.928328
 21
-174.481229
 31
0.0
  0
LINE
  8
0
  6
BYLAYER
 62
     7
 10
1067.928328
 20
-182.481229
 30
0.0
 11
1075.928328
 21
-182.481229
 31
0.0
  0
LINE
  8
0
  6
BYLAYER
 62
     7
 10
1075.928328
 20
-164.481229
 30
0.0
 11
1075.928328
 21
-172.481229
 31
0.0
  0
LINE
  8
0
  6
BYLAYER
 62
     7
 10
1075.928328
 20
-174.481229
 30
0.0
 11
1075.928328
 21
-182.481229
 31
0.0
  0
LINE
  8
0
  6
BYLAYER
 62
     7
 10
1067.928328
 20
-154.481229
 30
0.0
 11
1075.928328
 21
-154.481229
 31
0.0
  0
LINE
  8
0
  6
BYLAYER
 62
     7
 10
1067.928328
 20
-162.481229
 30
0.0
 11
1067.928328
 21
-154.481229
 31
0.0
  0
LINE
  8
0
  6
BYLAYER
 62
     7
 10
1067.928328
 20
-162.481229
 30
0.0
 11
1075.928328
 21
-162.481229
 31
0.0
  0
LINE
  8
0
  6
BYLAYER
 62
     7
 10
1075.928328
 20
-154.481229
 30
0.0
 11
1075.928328
 21
-162.481229
 31
0.0
  0
LINE
  8
0
  6
BYLAYER
 62
     7
 10
1077.928328
 20
-164.481229
 30
0.0
 11
1085.928328
 21
-164.481229
 31
0.0
  0
LINE
  8
0
  6
BYLAYER
 62
     7
 10
1077.928328
 20
-172.481229
 30
0.0
 11
1077.928328
 21
-164.481229
 31
0.0
  0
LINE
  8
0
  6
BYLAYER
 62
     7
 10
1077.928328
 20
-172.481229
 30
0.0
 11
1085.928328
 21
-172.481229
 31
0.0
  0
LINE
  8
0
  6
BYLAYER
 62
     7
 10
1085.928328
 20
-164.481229
 30
0.0
 11
1085.928328
 21
-172.481229
 31
0.0
  0
LINE
  8
0
  6
BYLAYER
 62
     7
 10
1077.928328
 20
-154.481229
 30
0.0
 11
1085.928328
 21
-154.481229
 31
0.0
  0
LINE
  8
0
  6
BYLAYER
 62
     7
 10
1077.928328
 20
-162.481229
 30
0.0
 11
1077.928328
 21
-154.481229
 31
0.0
  0
LINE
  8
0
  6
BYLAYER
 62
     7
 10
1077.928328
 20
-162.481229
 30
0.0
 11
1085.928328
 21
-162.481229
 31
0.0
  0
LINE
  8
0
  6
BYLAYER
 62
     7
 10
1085.928328
 20
-154.481229
 30
0.0
 11
1085.928328
 21
-162.481229
 31
0.0
  0
LINE
  8
0
  6
BYLAYER
 62
     7
 10
1087.928328
 20
-164.481229
 30
0.0
 11
1095.928328
 21
-164.481229
 31
0.0
  0
LINE
  8
0
  6
BYLAYER
 62
     7
 10
1087.928328
 20
-172.481229
 30
0.0
 11
1087.928328
 21
-164.481229
 31
0.0
  0
LINE
  8
0
  6
BYLAYER
 62
     7
 10
1087.928328
 20
-172.481229
 30
0.0
 11
1095.928328
 21
-172.481229
 31
0.0
  0
LINE
  8
0
  6
BYLAYER
 62
     7
 10
1095.928328
 20
-164.481229
 30
0.0
 11
1095.928328
 21
-172.481229
 31
0.0
  0
LINE
  8
0
  6
BYLAYER
 62
     7
 10
1087.928328
 20
-154.481229
 30
0.0
 11
1095.928328
 21
-154.481229
 31
0.0
  0
LINE
  8
0
  6
BYLAYER
 62
     7
 10
1087.928328
 20
-162.481229
 30
0.0
 11
1087.928328
 21
-154.481229
 31
0.0
  0
LINE
  8
0
  6
BYLAYER
 62
     7
 10
1087.928328
 20
-162.481229
 30
0.0
 11
1095.928328
 21
-162.481229
 31
0.0
  0
LINE
  8
0
  6
BYLAYER
 62
     7
 10
1095.928328
 20
-154.481229
 30
0.0
 11
1095.928328
 21
-162.481229
 31
0.0
  0
LINE
  8
0
  6
BYLAYER
 62
     7
 10
1047.928328
 20
-202.481229
 30
0.0
 11
1047.928328
 21
-194.481229
 31
0.0
  0
LINE
  8
0
  6
BYLAYER
 62
     7
 10
1055.928328
 20
-194.481229
 30
0.0
 11
1055.928328
 21
-202.481229
 31
0.0
  0
LINE
  8
0
  6
BYLAYER
 62
     7
 10
1057.928328
 20
-194.481229
 30
0.0
 11
1057.928328
 21
-202.481229
 31
0.0
  0
LINE
  8
0
  6
BYLAYER
 62
     7
 10
1057.928328
 20
-194.481229
 30
0.0
 11
1065.766327
 21
-194.481229
 31
0.0
  0
LINE
  8
0
  6
BYLAYER
 62
     7
 10
1047.928328
 20
-194.481229
 30
0.0
 11
1055.928328
 21
-194.481229
 31
0.0
  0
LINE
  8
0
  6
BYLAYER
 62
     7
 10
1057.928328
 20
-202.481229
 30
0.0
 11
1065.766327
 21
-202.481229
 31
0.0
  0
LINE
  8
0
  6
BYLAYER
 62
     7
 10
1047.928328
 20
-202.481229
 30
0.0
 11
1055.928328
 21
-202.481229
 31
0.0
  0
LINE
  8
0
  6
BYLAYER
 62
     7
 10
1065.766327
 20
-194.481229
 30
0.0
 11
1065.766327
 21
-202.481229
 31
0.0
  0
LINE
  8
0
  6
BYLAYER
 62
     7
 10
1067.928328
 20
-192.481229
 30
0.0
 11
1067.928328
 21
-184.481229
 31
0.0
  0
LINE
  8
0
  6
BYLAYER
 62
     7
 10
1067.928328
 20
-184.481229
 30
0.0
 11
1075.928328
 21
-184.481229
 31
0.0
  0
LINE
  8
0
  6
BYLAYER
 62
     7
 10
1067.928328
 20
-192.481229
 30
0.0
 11
1075.928328
 21
-192.481229
 31
0.0
  0
LINE
  8
0
  6
BYLAYER
 62
     7
 10
1075.928328
 20
-184.481229
 30
0.0
 11
1075.928328
 21
-192.481229
 31
0.0
  0
LINE
  8
0
  6
BYLAYER
 62
     7
 10
1067.928328
 20
-202.481229
 30
0.0
 11
1067.928328
 21
-194.481229
 31
0.0
  0
LINE
  8
0
  6
BYLAYER
 62
     7
 10
1067.928328
 20
-194.481229
 30
0.0
 11
1075.928328
 21
-194.481229
 31
0.0
  0
LINE
  8
0
  6
BYLAYER
 62
     7
 10
1067.928328
 20
-202.481229
 30
0.0
 11
1075.928328
 21
-202.481229
 31
0.0
  0
LINE
  8
0
  6
BYLAYER
 62
     7
 10
1075.928328
 20
-194.481229
 30
0.0
 11
1075.928328
 21
-202.481229
 31
0.0
  0
LINE
  8
0
  6
BYLAYER
 62
     7
 10
1077.928328
 20
-182.481229
 30
0.0
 11
1077.928328
 21
-174.481229
 31
0.0
  0
LINE
  8
0
  6
BYLAYER
 62
     7
 10
1077.928328
 20
-174.481229
 30
0.0
 11
1085.928328
 21
-174.481229
 31
0.0
  0
LINE
  8
0
  6
BYLAYER
 62
     7
 10
1077.928328
 20
-182.481229
 30
0.0
 11
1085.928328
 21
-182.481229
 31
0.0
  0
LINE
  8
0
  6
BYLAYER
 62
     7
 10
1085.928328
 20
-174.481229
 30
0.0
 11
1085.928328
 21
-182.481229
 31
0.0
  0
LINE
  8
0
  6
BYLAYER
 62
     7
 10
1077.928328
 20
-192.481229
 30
0.0
 11
1077.928328
 21
-184.481229
 31
0.0
  0
LINE
  8
0
  6
BYLAYER
 62
     7
 10
1077.928328
 20
-184.481229
 30
0.0
 11
1085.928328
 21
-184.481229
 31
0.0
  0
LINE
  8
0
  6
BYLAYER
 62
     7
 10
1077.928328
 20
-192.481229
 30
0.0
 11
1085.928328
 21
-192.481229
 31
0.0
  0
LINE
  8
0
  6
BYLAYER
 62
     7
 10
1085.928328
 20
-184.481229
 30
0.0
 11
1085.928328
 21
-192.481229
 31
0.0
  0
LINE
  8
0
  6
BYLAYER
 62
     7
 10
1087.928328
 20
-182.481229
 30
0.0
 11
1087.928328
 21
-174.481229
 31
0.0
  0
LINE
  8
0
  6
BYLAYER
 62
     7
 10
1087.928328
 20
-174.481229
 30
0.0
 11
1095.928328
 21
-174.481229
 31
0.0
  0
LINE
  8
0
  6
BYLAYER
 62
     7
 10
1087.928328
 20
-182.481229
 30
0.0
 11
1095.928328
 21
-182.481229
 31
0.0
  0
LINE
  8
0
  6
BYLAYER
 62
     7
 10
1095.928328
 20
-174.481229
 30
0.0
 11
1095.928328
 21
-182.481229
 31
0.0
  0
LINE
  8
0
  6
BYLAYER
 62
     7
 10
1097.928328
 20
-164.481229
 30
0.0
 11
1105.928328
 21
-164.481229
 31
0.0
  0
LINE
  8
0
  6
BYLAYER
 62
     7
 10
1097.928328
 20
-172.481229
 30
0.0
 11
1097.928328
 21
-164.481229
 31
0.0
  0
LINE
  8
0
  6
BYLAYER
 62
     7
 10
1097.928328
 20
-172.481229
 30
0.0
 11
1105.928328
 21
-172.481229
 31
0.0
  0
LINE
  8
0
  6
BYLAYER
 62
     7
 10
1105.928328
 20
-164.481229
 30
0.0
 11
1105.928328
 21
-172.481229
 31
0.0
  0
LINE
  8
0
  6
BYLAYER
 62
     7
 10
1097.928328
 20
-154.481229
 30
0.0
 11
1105.928328
 21
-154.481229
 31
0.0
  0
LINE
  8
0
  6
BYLAYER
 62
     7
 10
1097.928328
 20
-162.481229
 30
0.0
 11
1097.928328
 21
-154.481229
 31
0.0
  0
LINE
  8
0
  6
BYLAYER
 62
     7
 10
1097.928328
 20
-162.481229
 30
0.0
 11
1105.928328
 21
-162.481229
 31
0.0
  0
LINE
  8
0
  6
BYLAYER
 62
     7
 10
1105.928328
 20
-154.481229
 30
0.0
 11
1105.928328
 21
-162.481229
 31
0.0
  0
LINE
  8
0
  6
BYLAYER
 62
     7
 10
1097.928328
 20
-182.481229
 30
0.0
 11
1097.928328
 21
-174.481229
 31
0.0
  0
LINE
  8
0
  6
BYLAYER
 62
     7
 10
1097.928328
 20
-174.481229
 30
0.0
 11
1105.928328
 21
-174.481229
 31
0.0
  0
LINE
  8
0
  6
BYLAYER
 62
     7
 10
1097.928328
 20
-182.481229
 30
0.0
 11
1105.928328
 21
-182.481229
 31
0.0
  0
LINE
  8
0
  6
BYLAYER
 62
     7
 10
1105.928328
 20
-174.481229
 30
0.0
 11
1105.928328
 21
-182.481229
 31
0.0
  0
LINE
  8
0
  6
BYLAYER
 62
     7
 10
1047.928328
 20
-212.481229
 30
0.0
 11
1047.928328
 21
-204.481229
 31
0.0
  0
LINE
  8
0
  6
BYLAYER
 62
     7
 10
1055.928328
 20
-204.481229
 30
0.0
 11
1055.928328
 21
-212.481229
 31
0.0
  0
LINE
  8
0
  6
BYLAYER
 62
     7
 10
1057.928328
 20
-204.481229
 30
0.0
 11
1057.928328
 21
-212.481229
 31
0.0
  0
LINE
  8
0
  6
BYLAYER
 62
     7
 10
1057.928328
 20
-204.481229
 30
0.0
 11
1065.766327
 21
-204.481229
 31
0.0
  0
LINE
  8
0
  6
BYLAYER
 62
     7
 10
1047.928328
 20
-204.481229
 30
0.0
 11
1055.928328
 21
-204.481229
 31
0.0
  0
LINE
  8
0
  6
BYLAYER
 62
     7
 10
1057.928328
 20
-212.481229
 30
0.0
 11
1065.766327
 21
-212.481229
 31
0.0
  0
LINE
  8
0
  6
BYLAYER
 62
     7
 10
1047.928328
 20
-212.481229
 30
0.0
 11
1055.928328
 21
-212.481229
 31
0.0
  0
LINE
  8
0
  6
BYLAYER
 62
     7
 10
1065.766327
 20
-204.481229
 30
0.0
 11
1065.766327
 21
-212.481229
 31
0.0
  0
LINE
  8
0
  6
BYLAYER
 62
     7
 10
1067.928328
 20
-212.481229
 30
0.0
 11
1067.928328
 21
-204.481229
 31
0.0
  0
LINE
  8
0
  6
BYLAYER
 62
     7
 10
1067.928328
 20
-204.481229
 30
0.0
 11
1075.928328
 21
-204.481229
 31
0.0
  0
LINE
  8
0
  6
BYLAYER
 62
     7
 10
1067.928328
 20
-212.481229
 30
0.0
 11
1075.928328
 21
-212.481229
 31
0.0
  0
LINE
  8
0
  6
BYLAYER
 62
     7
 10
1075.928328
 20
-204.481229
 30
0.0
 11
1075.928328
 21
-212.481229
 31
0.0
  0
LINE
  8
0
  6
BYLAYER
 62
     7
 10
1077.928328
 20
-202.481229
 30
0.0
 11
1077.928328
 21
-194.481229
 31
0.0
  0
LINE
  8
0
  6
BYLAYER
 62
     7
 10
1077.928328
 20
-194.481229
 30
0.0
 11
1085.928328
 21
-194.481229
 31
0.0
  0
LINE
  8
0
  6
BYLAYER
 62
     7
 10
1077.928328
 20
-202.481229
 30
0.0
 11
1085.928328
 21
-202.481229
 31
0.0
  0
LINE
  8
0
  6
BYLAYER
 62
     7
 10
1085.928328
 20
-194.481229
 30
0.0
 11
1085.928328
 21
-202.481229
 31
0.0
  0
LINE
  8
0
  6
BYLAYER
 62
     7
 10
1087.928328
 20
-192.481229
 30
0.0
 11
1087.928328
 21
-184.481229
 31
0.0
  0
LINE
  8
0
  6
BYLAYER
 62
     7
 10
1087.928328
 20
-184.481229
 30
0.0
 11
1095.928328
 21
-184.481229
 31
0.0
  0
LINE
  8
0
  6
BYLAYER
 62
     7
 10
1087.928328
 20
-192.481229
 30
0.0
 11
1095.928328
 21
-192.481229
 31
0.0
  0
LINE
  8
0
  6
BYLAYER
 62
     7
 10
1095.928328
 20
-184.481229
 30
0.0
 11
1095.928328
 21
-192.481229
 31
0.0
  0
LINE
  8
0
  6
BYLAYER
 62
     7
 10
1047.928328
 20
-222.481229
 30
0.0
 11
1047.928328
 21
-214.481229
 31
0.0
  0
LINE
  8
0
  6
BYLAYER
 62
     7
 10
1055.928328
 20
-214.481229
 30
0.0
 11
1055.928328
 21
-222.481229
 31
0.0
  0
LINE
  8
0
  6
BYLAYER
 62
     7
 10
1057.928328
 20
-214.481229
 30
0.0
 11
1057.928328
 21
-222.481229
 31
0.0
  0
LINE
  8
0
  6
BYLAYER
 62
     7
 10
1057.928328
 20
-214.481229
 30
0.0
 11
1065.766327
 21
-214.481229
 31
0.0
  0
LINE
  8
0
  6
BYLAYER
 62
     7
 10
1047.928328
 20
-214.481229
 30
0.0
 11
1055.928328
 21
-214.481229
 31
0.0
  0
LINE
  8
0
  6
BYLAYER
 62
     7
 10
1057.928328
 20
-222.481229
 30
0.0
 11
1065.766327
 21
-222.481229
 31
0.0
  0
LINE
  8
0
  6
BYLAYER
 62
     7
 10
1047.928328
 20
-222.481229
 30
0.0
 11
1055.928328
 21
-222.481229
 31
0.0
  0
LINE
  8
0
  6
BYLAYER
 62
     7
 10
1065.766327
 20
-214.481229
 30
0.0
 11
1065.766327
 21
-222.481229
 31
0.0
  0
LINE
  8
0
  6
BYLAYER
 62
     7
 10
1107.928328
 20
-164.481229
 30
0.0
 11
1115.928328
 21
-164.481229
 31
0.0
  0
LINE
  8
0
  6
BYLAYER
 62
     7
 10
1107.928328
 20
-172.481229
 30
0.0
 11
1107.928328
 21
-164.481229
 31
0.0
  0
LINE
  8
0
  6
BYLAYER
 62
     7
 10
1107.928328
 20
-172.481229
 30
0.0
 11
1115.928328
 21
-172.481229
 31
0.0
  0
LINE
  8
0
  6
BYLAYER
 62
     7
 10
1115.928328
 20
-164.481229
 30
0.0
 11
1115.928328
 21
-172.481229
 31
0.0
  0
LINE
  8
0
  6
BYLAYER
 62
     7
 10
1107.928328
 20
-154.481229
 30
0.0
 11
1115.928328
 21
-154.481229
 31
0.0
  0
LINE
  8
0
  6
BYLAYER
 62
     7
 10
1107.928328
 20
-162.481229
 30
0.0
 11
1107.928328
 21
-154.481229
 31
0.0
  0
LINE
  8
0
  6
BYLAYER
 62
     7
 10
1107.928328
 20
-162.481229
 30
0.0
 11
1115.928328
 21
-162.481229
 31
0.0
  0
LINE
  8
0
  6
BYLAYER
 62
     7
 10
1115.928328
 20
-154.481229
 30
0.0
 11
1115.928328
 21
-162.481229
 31
0.0
  0
LINE
  8
0
  6
BYLAYER
 62
     7
 10
1077.928328
 20
-212.481229
 30
0.0
 11
1077.928328
 21
-204.481229
 31
0.0
  0
LINE
  8
0
  6
BYLAYER
 62
     7
 10
1077.928328
 20
-204.481229
 30
0.0
 11
1085.928328
 21
-204.481229
 31
0.0
  0
LINE
  8
0
  6
BYLAYER
 62
     7
 10
1077.928328
 20
-212.481229
 30
0.0
 11
1085.928328
 21
-212.481229
 31
0.0
  0
LINE
  8
0
  6
BYLAYER
 62
     7
 10
1085.928328
 20
-204.481229
 30
0.0
 11
1085.928328
 21
-212.481229
 31
0.0
  0
LINE
  8
0
  6
BYLAYER
 62
     7
 10
1087.928328
 20
-202.481229
 30
0.0
 11
1087.928328
 21
-194.481229
 31
0.0
  0
LINE
  8
0
  6
BYLAYER
 62
     7
 10
1087.928328
 20
-194.481229
 30
0.0
 11
1095.928328
 21
-194.481229
 31
0.0
  0
LINE
  8
0
  6
BYLAYER
 62
     7
 10
1087.928328
 20
-202.481229
 30
0.0
 11
1095.928328
 21
-202.481229
 31
0.0
  0
LINE
  8
0
  6
BYLAYER
 62
     7
 10
1095.928328
 20
-194.481229
 30
0.0
 11
1095.928328
 21
-202.481229
 31
0.0
  0
LINE
  8
0
  6
BYLAYER
 62
     7
 10
1097.928328
 20
-192.481229
 30
0.0
 11
1097.928328
 21
-184.481229
 31
0.0
  0
LINE
  8
0
  6
BYLAYER
 62
     7
 10
1097.928328
 20
-184.481229
 30
0.0
 11
1105.928328
 21
-184.481229
 31
0.0
  0
LINE
  8
0
  6
BYLAYER
 62
     7
 10
1097.928328
 20
-192.481229
 30
0.0
 11
1105.928328
 21
-192.481229
 31
0.0
  0
LINE
  8
0
  6
BYLAYER
 62
     7
 10
1105.928328
 20
-184.481229
 30
0.0
 11
1105.928328
 21
-192.481229
 31
0.0
  0
LINE
  8
0
  6
BYLAYER
 62
     7
 10
1047.928328
 20
-232.481229
 30
0.0
 11
1047.928328
 21
-224.481229
 31
0.0
  0
LINE
  8
0
  6
BYLAYER
 62
     7
 10
1055.928328
 20
-224.481229
 30
0.0
 11
1055.928328
 21
-232.481229
 31
0.0
  0
LINE
  8
0
  6
BYLAYER
 62
     7
 10
1047.928328
 20
-224.481229
 30
0.0
 11
1055.928328
 21
-224.481229
 31
0.0
  0
LINE
  8
0
  6
BYLAYER
 62
     7
 10
1047.928328
 20
-232.481229
 30
0.0
 11
1055.928328
 21
-232.481229
 31
0.0
  0
LINE
  8
0
  6
BYLAYER
 62
     7
 10
1117.928328
 20
-154.481229
 30
0.0
 11
1125.928328
 21
-154.481229
 31
0.0
  0
LINE
  8
0
  6
BYLAYER
 62
     7
 10
1117.928328
 20
-162.481229
 30
0.0
 11
1117.928328
 21
-154.481229
 31
0.0
  0
LINE
  8
0
  6
BYLAYER
 62
     7
 10
1117.928328
 20
-162.481229
 30
0.0
 11
1125.928328
 21
-162.481229
 31
0.0
  0
LINE
  8
0
  6
BYLAYER
 62
     7
 10
1125.928328
 20
-154.481229
 30
0.0
 11
1125.928328
 21
-162.481229
 31
0.0
  0
LINE
  8
0
  6
BYLAYER
 62
     7
 10
1067.928328
 20
-222.481229
 30
0.0
 11
1067.928328
 21
-214.481229
 31
0.0
  0
LINE
  8
0
  6
BYLAYER
 62
     7
 10
1067.928328
 20
-214.481229
 30
0.0
 11
1075.928328
 21
-214.481229
 31
0.0
  0
LINE
  8
0
  6
BYLAYER
 62
     7
 10
1067.928328
 20
-222.481229
 30
0.0
 11
1075.928328
 21
-222.481229
 31
0.0
  0
LINE
  8
0
  6
BYLAYER
 62
     7
 10
1075.928328
 20
-214.481229
 30
0.0
 11
1075.928328
 21
-222.481229
 31
0.0
  0
LINE
  8
0
  6
BYLAYER
 62
     7
 10
1107.928328
 20
-182.481229
 30
0.0
 11
1107.928328
 21
-174.481229
 31
0.0
  0
LINE
  8
0
  6
BYLAYER
 62
     7
 10
1107.928328
 20
-174.481229
 30
0.0
 11
1115.928328
 21
-174.481229
 31
0.0
  0
LINE
  8
0
  6
BYLAYER
 62
     7
 10
1107.928328
 20
-182.481229
 30
0.0
 11
1115.928328
 21
-182.481229
 31
0.0
  0
LINE
  8
0
  6
BYLAYER
 62
     7
 10
1115.928328
 20
-174.481229
 30
0.0
 11
1115.928328
 21
-182.481229
 31
0.0
  0
LINE
  8
0
  6
BYLAYER
 62
     7
 10
1077.928328
 20
-222.481229
 30
0.0
 11
1077.928328
 21
-214.481229
 31
0.0
  0
LINE
  8
0
  6
BYLAYER
 62
     7
 10
1077.928328
 20
-214.481229
 30
0.0
 11
1085.928328
 21
-214.481229
 31
0.0
  0
LINE
  8
0
  6
BYLAYER
 62
     7
 10
1077.928328
 20
-222.481229
 30
0.0
 11
1085.928328
 21
-222.481229
 31
0.0
  0
LINE
  8
0
  6
BYLAYER
 62
     7
 10
1085.928328
 20
-214.481229
 30
0.0
 11
1085.928328
 21
-222.481229
 31
0.0
  0
LINE
  8
0
  6
BYLAYER
 62
     7
 10
1087.928328
 20
-212.481229
 30
0.0
 11
1087.928328
 21
-204.481229
 31
0.0
  0
LINE
  8
0
  6
BYLAYER
 62
     7
 10
1087.928328
 20
-204.481229
 30
0.0
 11
1095.928328
 21
-204.481229
 31
0.0
  0
LINE
  8
0
  6
BYLAYER
 62
     7
 10
1087.928328
 20
-212.481229
 30
0.0
 11
1095.928328
 21
-212.481229
 31
0.0
  0
LINE
  8
0
  6
BYLAYER
 62
     7
 10
1095.928328
 20
-204.481229
 30
0.0
 11
1095.928328
 21
-212.481229
 31
0.0
  0
LINE
  8
0
  6
BYLAYER
 62
     7
 10
1097.928328
 20
-202.481229
 30
0.0
 11
1097.928328
 21
-194.481229
 31
0.0
  0
LINE
  8
0
  6
BYLAYER
 62
     7
 10
1097.928328
 20
-194.481229
 30
0.0
 11
1105.928328
 21
-194.481229
 31
0.0
  0
LINE
  8
0
  6
BYLAYER
 62
     7
 10
1097.928328
 20
-202.481229
 30
0.0
 11
1105.928328
 21
-202.481229
 31
0.0
  0
LINE
  8
0
  6
BYLAYER
 62
     7
 10
1105.928328
 20
-194.481229
 30
0.0
 11
1105.928328
 21
-202.481229
 31
0.0
  0
LINE
  8
0
  6
BYLAYER
 62
     7
 10
1107.928328
 20
-192.481229
 30
0.0
 11
1107.928328
 21
-184.481229
 31
0.0
  0
LINE
  8
0
  6
BYLAYER
 62
     7
 10
1107.928328
 20
-184.481229
 30
0.0
 11
1115.928328
 21
-184.481229
 31
0.0
  0
LINE
  8
0
  6
BYLAYER
 62
     7
 10
1107.928328
 20
-192.481229
 30
0.0
 11
1115.928328
 21
-192.481229
 31
0.0
  0
LINE
  8
0
  6
BYLAYER
 62
     7
 10
1115.928328
 20
-184.481229
 30
0.0
 11
1115.928328
 21
-192.481229
 31
0.0
  0
LINE
  8
0
  6
BYLAYER
 62
     7
 10
1057.928328
 20
-224.481229
 30
0.0
 11
1057.928328
 21
-232.481229
 31
0.0
  0
LINE
  8
0
  6
BYLAYER
 62
     7
 10
1057.928328
 20
-224.481229
 30
0.0
 11
1065.766327
 21
-224.481229
 31
0.0
  0
LINE
  8
0
  6
BYLAYER
 62
     7
 10
1057.928328
 20
-232.481229
 30
0.0
 11
1065.766327
 21
-232.481229
 31
0.0
  0
LINE
  8
0
  6
BYLAYER
 62
     7
 10
1065.766327
 20
-224.481229
 30
0.0
 11
1065.766327
 21
-232.481229
 31
0.0
  0
LINE
  8
0
  6
BYLAYER
 62
     7
 10
1117.928328
 20
-164.481229
 30
0.0
 11
1125.928328
 21
-164.481229
 31
0.0
  0
LINE
  8
0
  6
BYLAYER
 62
     7
 10
1117.928328
 20
-172.481229
 30
0.0
 11
1117.928328
 21
-164.481229
 31
0.0
  0
LINE
  8
0
  6
BYLAYER
 62
     7
 10
1117.928328
 20
-172.481229
 30
0.0
 11
1125.928328
 21
-172.481229
 31
0.0
  0
LINE
  8
0
  6
BYLAYER
 62
     7
 10
1125.928328
 20
-164.481229
 30
0.0
 11
1125.928328
 21
-172.481229
 31
0.0
  0
LINE
  8
0
  6
BYLAYER
 62
     7
 10
1045.928328
 20
-124.481229
 30
0.0
 11
1045.928328
 21
-132.481229
 31
0.0
  0
LINE
  8
0
  6
BYLAYER
 62
     7
 10
1045.928328
 20
-114.481229
 30
0.0
 11
1045.928328
 21
-122.481229
 31
0.0
  0
LINE
  8
0
  6
BYLAYER
 62
     7
 10
1037.928328
 20
-122.481229
 30
0.0
 11
1037.928328
 21
-114.481229
 31
0.0
  0
LINE
  8
0
  6
BYLAYER
 62
     7
 10
1035.928328
 20
-122.481229
 30
0.0
 11
1035.928328
 21
-114.481229
 31
0.0
  0
LINE
  8
0
  6
BYLAYER
 62
     7
 10
1045.928328
 20
-132.481229
 30
0.0
 11
1037.928328
 21
-132.481229
 31
0.0
  0
LINE
  8
0
  6
BYLAYER
 62
     7
 10
1045.928328
 20
-124.481229
 30
0.0
 11
1037.928328
 21
-124.481229
 31
0.0
  0
LINE
  8
0
  6
BYLAYER
 62
     7
 10
1035.928328
 20
-122.481229
 30
0.0
 11
1028.090329
 21
-122.481229
 31
0.0
  0
LINE
  8
0
  6
BYLAYER
 62
     7
 10
1045.928328
 20
-122.481229
 30
0.0
 11
1037.928328
 21
-122.481229
 31
0.0
  0
LINE
  8
0
  6
BYLAYER
 62
     7
 10
1035.928328
 20
-114.481229
 30
0.0
 11
1028.090329
 21
-114.481229
 31
0.0
  0
LINE
  8
0
  6
BYLAYER
 62
     7
 10
1045.928328
 20
-114.481229
 30
0.0
 11
1037.928328
 21
-114.481229
 31
0.0
  0
LINE
  8
0
  6
BYLAYER
 62
     7
 10
1028.090329
 20
-122.481229
 30
0.0
 11
1028.090329
 21
-114.481229
 31
0.0
  0
LINE
  8
0
  6
BYLAYER
 62
     7
 10
1037.928328
 20
-132.481229
 30
0.0
 11
1037.928328
 21
-124.481229
 31
0.0
  0
LINE
  8
0
  6
BYLAYER
 62
     7
 10
1035.928328
 20
-124.481229
 30
0.0
 11
1035.928328
 21
-132.481229
 31
0.0
  0
LINE
  8
0
  6
BYLAYER
 62
     7
 10
1035.928328
 20
-132.481229
 30
0.0
 11
1027.928328
 21
-132.481229
 31
0.0
  0
LINE
  8
0
  6
BYLAYER
 62
     7
 10
1035.928328
 20
-124.481229
 30
0.0
 11
1027.928328
 21
-124.481229
 31
0.0
  0
LINE
  8
0
  6
BYLAYER
 62
     7
 10
1027.928328
 20
-132.481229
 30
0.0
 11
1027.928328
 21
-124.481229
 31
0.0
  0
LINE
  8
0
  6
BYLAYER
 62
     7
 10
1025.928328
 20
-142.481229
 30
0.0
 11
1017.928328
 21
-142.481229
 31
0.0
  0
LINE
  8
0
  6
BYLAYER
 62
     7
 10
1025.928328
 20
-124.481229
 30
0.0
 11
1025.928328
 21
-132.481229
 31
0.0
  0
LINE
  8
0
  6
BYLAYER
 62
     7
 10
1025.928328
 20
-134.481229
 30
0.0
 11
1025.928328
 21
-142.481229
 31
0.0
  0
LINE
  8
0
  6
BYLAYER
 62
     7
 10
1025.928328
 20
-134.481229
 30
0.0
 11
1017.928328
 21
-134.481229
 31
0.0
  0
LINE
  8
0
  6
BYLAYER
 62
     7
 10
1025.928328
 20
-132.481229
 30
0.0
 11
1017.928328
 21
-132.481229
 31
0.0
  0
LINE
  8
0
  6
BYLAYER
 62
     7
 10
1025.928328
 20
-124.481229
 30
0.0
 11
1017.928328
 21
-124.481229
 31
0.0
  0
LINE
  8
0
  6
BYLAYER
 62
     7
 10
1017.928328
 20
-142.481229
 30
0.0
 11
1017.928328
 21
-134.481229
 31
0.0
  0
LINE
  8
0
  6
BYLAYER
 62
     7
 10
1017.928328
 20
-132.481229
 30
0.0
 11
1017.928328
 21
-124.481229
 31
0.0
  0
LINE
  8
0
  6
BYLAYER
 62
     7
 10
1025.928328
 20
-152.481229
 30
0.0
 11
1017.928328
 21
-152.481229
 31
0.0
  0
LINE
  8
0
  6
BYLAYER
 62
     7
 10
1025.928328
 20
-144.481229
 30
0.0
 11
1025.928328
 21
-152.481229
 31
0.0
  0
LINE
  8
0
  6
BYLAYER
 62
     7
 10
1025.928328
 20
-144.481229
 30
0.0
 11
1017.928328
 21
-144.481229
 31
0.0
  0
LINE
  8
0
  6
BYLAYER
 62
     7
 10
1017.928328
 20
-152.481229
 30
0.0
 11
1017.928328
 21
-144.481229
 31
0.0
  0
LINE
  8
0
  6
BYLAYER
 62
     7
 10
1015.928328
 20
-142.481229
 30
0.0
 11
1007.928328
 21
-142.481229
 31
0.0
  0
LINE
  8
0
  6
BYLAYER
 62
     7
 10
1015.928328
 20
-134.481229
 30
0.0
 11
1015.928328
 21
-142.481229
 31
0.0
  0
LINE
  8
0
  6
BYLAYER
 62
     7
 10
1015.928328
 20
-134.481229
 30
0.0
 11
1007.928328
 21
-134.481229
 31
0.0
  0
LINE
  8
0
  6
BYLAYER
 62
     7
 10
1007.928328
 20
-142.481229
 30
0.0
 11
1007.928328
 21
-134.481229
 31
0.0
  0
LINE
  8
0
  6
BYLAYER
 62
     7
 10
1015.928328
 20
-152.481229
 30
0.0
 11
1007.928328
 21
-152.481229
 31
0.0
  0
LINE
  8
0
  6
BYLAYER
 62
     7
 10
1015.928328
 20
-144.481229
 30
0.0
 11
1015.928328
 21
-152.481229
 31
0.0
  0
LINE
  8
0
  6
BYLAYER
 62
     7
 10
1015.928328
 20
-144.481229
 30
0.0
 11
1007.928328
 21
-144.481229
 31
0.0
  0
LINE
  8
0
  6
BYLAYER
 62
     7
 10
1007.928328
 20
-152.481229
 30
0.0
 11
1007.928328
 21
-144.481229
 31
0.0
  0
LINE
  8
0
  6
BYLAYER
 62
     7
 10
1005.928328
 20
-142.481229
 30
0.0
 11
997.928328
 21
-142.481229
 31
0.0
  0
LINE
  8
0
  6
BYLAYER
 62
     7
 10
1005.928328
 20
-134.481229
 30
0.0
 11
1005.928328
 21
-142.481229
 31
0.0
  0
LINE
  8
0
  6
BYLAYER
 62
     7
 10
1005.928328
 20
-134.481229
 30
0.0
 11
997.928328
 21
-134.481229
 31
0.0
  0
LINE
  8
0
  6
BYLAYER
 62
     7
 10
997.928328
 20
-142.481229
 30
0.0
 11
997.928328
 21
-134.481229
 31
0.0
  0
LINE
  8
0
  6
BYLAYER
 62
     7
 10
1005.928328
 20
-152.481229
 30
0.0
 11
997.928328
 21
-152.481229
 31
0.0
  0
LINE
  8
0
  6
BYLAYER
 62
     7
 10
1005.928328
 20
-144.481229
 30
0.0
 11
1005.928328
 21
-152.481229
 31
0.0
  0
LINE
  8
0
  6
BYLAYER
 62
     7
 10
1005.928328
 20
-144.481229
 30
0.0
 11
997.928328
 21
-144.481229
 31
0.0
  0
LINE
  8
0
  6
BYLAYER
 62
     7
 10
997.928328
 20
-152.481229
 30
0.0
 11
997.928328
 21
-144.481229
 31
0.0
  0
LINE
  8
0
  6
BYLAYER
 62
     7
 10
1045.928328
 20
-104.481229
 30
0.0
 11
1045.928328
 21
-112.481229
 31
0.0
  0
LINE
  8
0
  6
BYLAYER
 62
     7
 10
1037.928328
 20
-112.481229
 30
0.0
 11
1037.928328
 21
-104.481229
 31
0.0
  0
LINE
  8
0
  6
BYLAYER
 62
     7
 10
1035.928328
 20
-112.481229
 30
0.0
 11
1035.928328
 21
-104.481229
 31
0.0
  0
LINE
  8
0
  6
BYLAYER
 62
     7
 10
1035.928328
 20
-112.481229
 30
0.0
 11
1028.090329
 21
-112.481229
 31
0.0
  0
LINE
  8
0
  6
BYLAYER
 62
     7
 10
1045.928328
 20
-112.481229
 30
0.0
 11
1037.928328
 21
-112.481229
 31
0.0
  0
LINE
  8
0
  6
BYLAYER
 62
     7
 10
1035.928328
 20
-104.481229
 30
0.0
 11
1028.090329
 21
-104.481229
 31
0.0
  0
LINE
  8
0
  6
BYLAYER
 62
     7
 10
1045.928328
 20
-104.481229
 30
0.0
 11
1037.928328
 21
-104.481229
 31
0.0
  0
LINE
  8
0
  6
BYLAYER
 62
     7
 10
1028.090329
 20
-112.481229
 30
0.0
 11
1028.090329
 21
-104.481229
 31
0.0
  0
LINE
  8
0
  6
BYLAYER
 62
     7
 10
1025.928328
 20
-114.481229
 30
0.0
 11
1025.928328
 21
-122.481229
 31
0.0
  0
LINE
  8
0
  6
BYLAYER
 62
     7
 10
1025.928328
 20
-122.481229
 30
0.0
 11
1017.928328
 21
-122.481229
 31
0.0
  0
LINE
  8
0
  6
BYLAYER
 62
     7
 10
1025.928328
 20
-114.481229
 30
0.0
 11
1017.928328
 21
-114.481229
 31
0.0
  0
LINE
  8
0
  6
BYLAYER
 62
     7
 10
1017.928328
 20
-122.481229
 30
0.0
 11
1017.928328
 21
-114.481229
 31
0.0
  0
LINE
  8
0
  6
BYLAYER
 62
     7
 10
1025.928328
 20
-104.481229
 30
0.0
 11
1025.928328
 21
-112.481229
 31
0.0
  0
LINE
  8
0
  6
BYLAYER
 62
     7
 10
1025.928328
 20
-112.481229
 30
0.0
 11
1017.928328
 21
-112.481229
 31
0.0
  0
LINE
  8
0
  6
BYLAYER
 62
     7
 10
1025.928328
 20
-104.481229
 30
0.0
 11
1017.928328
 21
-104.481229
 31
0.0
  0
LINE
  8
0
  6
BYLAYER
 62
     7
 10
1017.928328
 20
-112.481229
 30
0.0
 11
1017.928328
 21
-104.481229
 31
0.0
  0
LINE
  8
0
  6
BYLAYER
 62
     7
 10
1015.928328
 20
-124.481229
 30
0.0
 11
1015.928328
 21
-132.481229
 31
0.0
  0
LINE
  8
0
  6
BYLAYER
 62
     7
 10
1015.928328
 20
-132.481229
 30
0.0
 11
1007.928328
 21
-132.481229
 31
0.0
  0
LINE
  8
0
  6
BYLAYER
 62
     7
 10
1015.928328
 20
-124.481229
 30
0.0
 11
1007.928328
 21
-124.481229
 31
0.0
  0
LINE
  8
0
  6
BYLAYER
 62
     7
 10
1007.928328
 20
-132.481229
 30
0.0
 11
1007.928328
 21
-124.481229
 31
0.0
  0
LINE
  8
0
  6
BYLAYER
 62
     7
 10
1015.928328
 20
-114.481229
 30
0.0
 11
1015.928328
 21
-122.481229
 31
0.0
  0
LINE
  8
0
  6
BYLAYER
 62
     7
 10
1015.928328
 20
-122.481229
 30
0.0
 11
1007.928328
 21
-122.481229
 31
0.0
  0
LINE
  8
0
  6
BYLAYER
 62
     7
 10
1015.928328
 20
-114.481229
 30
0.0
 11
1007.928328
 21
-114.481229
 31
0.0
  0
LINE
  8
0
  6
BYLAYER
 62
     7
 10
1007.928328
 20
-122.481229
 30
0.0
 11
1007.928328
 21
-114.481229
 31
0.0
  0
LINE
  8
0
  6
BYLAYER
 62
     7
 10
1005.928328
 20
-124.481229
 30
0.0
 11
1005.928328
 21
-132.481229
 31
0.0
  0
LINE
  8
0
  6
BYLAYER
 62
     7
 10
1005.928328
 20
-132.481229
 30
0.0
 11
997.928328
 21
-132.481229
 31
0.0
  0
LINE
  8
0
  6
BYLAYER
 62
     7
 10
1005.928328
 20
-124.481229
 30
0.0
 11
997.928328
 21
-124.481229
 31
0.0
  0
LINE
  8
0
  6
BYLAYER
 62
     7
 10
997.928328
 20
-132.481229
 30
0.0
 11
997.928328
 21
-124.481229
 31
0.0
  0
LINE
  8
0
  6
BYLAYER
 62
     7
 10
995.928328
 20
-142.481229
 30
0.0
 11
987.928328
 21
-142.481229
 31
0.0
  0
LINE
  8
0
  6
BYLAYER
 62
     7
 10
995.928328
 20
-134.481229
 30
0.0
 11
995.928328
 21
-142.481229
 31
0.0
  0
LINE
  8
0
  6
BYLAYER
 62
     7
 10
995.928328
 20
-134.481229
 30
0.0
 11
987.928328
 21
-134.481229
 31
0.0
  0
LINE
  8
0
  6
BYLAYER
 62
     7
 10
987.928328
 20
-142.481229
 30
0.0
 11
987.928328
 21
-134.481229
 31
0.0
  0
LINE
  8
0
  6
BYLAYER
 62
     7
 10
995.928328
 20
-152.481229
 30
0.0
 11
987.928328
 21
-152.481229
 31
0.0
  0
LINE
  8
0
  6
BYLAYER
 62
     7
 10
995.928328
 20
-144.481229
 30
0.0
 11
995.928328
 21
-152.481229
 31
0.0
  0
LINE
  8
0
  6
BYLAYER
 62
     7
 10
995.928328
 20
-144.481229
 30
0.0
 11
987.928328
 21
-144.481229
 31
0.0
  0
LINE
  8
0
  6
BYLAYER
 62
     7
 10
987.928328
 20
-152.481229
 30
0.0
 11
987.928328
 21
-144.481229
 31
0.0
  0
LINE
  8
0
  6
BYLAYER
 62
     7
 10
995.928328
 20
-124.481229
 30
0.0
 11
995.928328
 21
-132.481229
 31
0.0
  0
LINE
  8
0
  6
BYLAYER
 62
     7
 10
995.928328
 20
-132.481229
 30
0.0
 11
987.928328
 21
-132.481229
 31
0.0
  0
LINE
  8
0
  6
BYLAYER
 62
     7
 10
995.928328
 20
-124.481229
 30
0.0
 11
987.928328
 21
-124.481229
 31
0.0
  0
LINE
  8
0
  6
BYLAYER
 62
     7
 10
987.928328
 20
-132.481229
 30
0.0
 11
987.928328
 21
-124.481229
 31
0.0
  0
LINE
  8
0
  6
BYLAYER
 62
     7
 10
1045.928328
 20
-94.481229
 30
0.0
 11
1045.928328
 21
-102.481229
 31
0.0
  0
LINE
  8
0
  6
BYLAYER
 62
     7
 10
1037.928328
 20
-102.481229
 30
0.0
 11
1037.928328
 21
-94.481229
 31
0.0
  0
LINE
  8
0
  6
BYLAYER
 62
     7
 10
1035.928328
 20
-102.481229
 30
0.0
 11
1035.928328
 21
-94.481229
 31
0.0
  0
LINE
  8
0
  6
BYLAYER
 62
     7
 10
1035.928328
 20
-102.481229
 30
0.0
 11
1028.090329
 21
-102.481229
 31
0.0
  0
LINE
  8
0
  6
BYLAYER
 62
     7
 10
1045.928328
 20
-102.481229
 30
0.0
 11
1037.928328
 21
-102.481229
 31
0.0
  0
LINE
  8
0
  6
BYLAYER
 62
     7
 10
1035.928328
 20
-94.481229
 30
0.0
 11
1028.090329
 21
-94.481229
 31
0.0
  0
LINE
  8
0
  6
BYLAYER
 62
     7
 10
1045.928328
 20
-94.481229
 30
0.0
 11
1037.928328
 21
-94.481229
 31
0.0
  0
LINE
  8
0
  6
BYLAYER
 62
     7
 10
1028.090329
 20
-102.481229
 30
0.0
 11
1028.090329
 21
-94.481229
 31
0.0
  0
LINE
  8
0
  6
BYLAYER
 62
     7
 10
1025.928328
 20
-94.481229
 30
0.0
 11
1025.928328
 21
-102.481229
 31
0.0
  0
LINE
  8
0
  6
BYLAYER
 62
     7
 10
1025.928328
 20
-102.481229
 30
0.0
 11
1017.928328
 21
-102.481229
 31
0.0
  0
LINE
  8
0
  6
BYLAYER
 62
     7
 10
1025.928328
 20
-94.481229
 30
0.0
 11
1017.928328
 21
-94.481229
 31
0.0
  0
LINE
  8
0
  6
BYLAYER
 62
     7
 10
1017.928328
 20
-102.481229
 30
0.0
 11
1017.928328
 21
-94.481229
 31
0.0
  0
LINE
  8
0
  6
BYLAYER
 62
     7
 10
1015.928328
 20
-104.481229
 30
0.0
 11
1015.928328
 21
-112.481229
 31
0.0
  0
LINE
  8
0
  6
BYLAYER
 62
     7
 10
1015.928328
 20
-112.481229
 30
0.0
 11
1007.928328
 21
-112.481229
 31
0.0
  0
LINE
  8
0
  6
BYLAYER
 62
     7
 10
1015.928328
 20
-104.481229
 30
0.0
 11
1007.928328
 21
-104.481229
 31
0.0
  0
LINE
  8
0
  6
BYLAYER
 62
     7
 10
1007.928328
 20
-112.481229
 30
0.0
 11
1007.928328
 21
-104.481229
 31
0.0
  0
LINE
  8
0
  6
BYLAYER
 62
     7
 10
1005.928328
 20
-114.481229
 30
0.0
 11
1005.928328
 21
-122.481229
 31
0.0
  0
LINE
  8
0
  6
BYLAYER
 62
     7
 10
1005.928328
 20
-122.481229
 30
0.0
 11
997.928328
 21
-122.481229
 31
0.0
  0
LINE
  8
0
  6
BYLAYER
 62
     7
 10
1005.928328
 20
-114.481229
 30
0.0
 11
997.928328
 21
-114.481229
 31
0.0
  0
LINE
  8
0
  6
BYLAYER
 62
     7
 10
997.928328
 20
-122.481229
 30
0.0
 11
997.928328
 21
-114.481229
 31
0.0
  0
LINE
  8
0
  6
BYLAYER
 62
     7
 10
1045.928328
 20
-84.481229
 30
0.0
 11
1045.928328
 21
-92.481229
 31
0.0
  0
LINE
  8
0
  6
BYLAYER
 62
     7
 10
1037.928328
 20
-92.481229
 30
0.0
 11
1037.928328
 21
-84.481229
 31
0.0
  0
LINE
  8
0
  6
BYLAYER
 62
     7
 10
1035.928328
 20
-92.481229
 30
0.0
 11
1035.928328
 21
-84.481229
 31
0.0
  0
LINE
  8
0
  6
BYLAYER
 62
     7
 10
1035.928328
 20
-92.481229
 30
0.0
 11
1028.090329
 21
-92.481229
 31
0.0
  0
LINE
  8
0
  6
BYLAYER
 62
     7
 10
1045.928328
 20
-92.481229
 30
0.0
 11
1037.928328
 21
-92.481229
 31
0.0
  0
LINE
  8
0
  6
BYLAYER
 62
     7
 10
1035.928328
 20
-84.481229
 30
0.0
 11
1028.090329
 21
-84.481229
 31
0.0
  0
LINE
  8
0
  6
BYLAYER
 62
     7
 10
1045.928328
 20
-84.481229
 30
0.0
 11
1037.928328
 21
-84.481229
 31
0.0
  0
LINE
  8
0
  6
BYLAYER
 62
     7
 10
1028.090329
 20
-92.481229
 30
0.0
 11
1028.090329
 21
-84.481229
 31
0.0
  0
LINE
  8
0
  6
BYLAYER
 62
     7
 10
985.928328
 20
-142.481229
 30
0.0
 11
977.928328
 21
-142.481229
 31
0.0
  0
LINE
  8
0
  6
BYLAYER
 62
     7
 10
985.928328
 20
-134.481229
 30
0.0
 11
985.928328
 21
-142.481229
 31
0.0
  0
LINE
  8
0
  6
BYLAYER
 62
     7
 10
985.928328
 20
-134.481229
 30
0.0
 11
977.928328
 21
-134.481229
 31
0.0
  0
LINE
  8
0
  6
BYLAYER
 62
     7
 10
977.928328
 20
-142.481229
 30
0.0
 11
977.928328
 21
-134.481229
 31
0.0
  0
LINE
  8
0
  6
BYLAYER
 62
     7
 10
985.928328
 20
-152.481229
 30
0.0
 11
977.928328
 21
-152.481229
 31
0.0
  0
LINE
  8
0
  6
BYLAYER
 62
     7
 10
985.928328
 20
-144.481229
 30
0.0
 11
985.928328
 21
-152.481229
 31
0.0
  0
LINE
  8
0
  6
BYLAYER
 62
     7
 10
985.928328
 20
-144.481229
 30
0.0
 11
977.928328
 21
-144.481229
 31
0.0
  0
LINE
  8
0
  6
BYLAYER
 62
     7
 10
977.928328
 20
-152.481229
 30
0.0
 11
977.928328
 21
-144.481229
 31
0.0
  0
LINE
  8
0
  6
BYLAYER
 62
     7
 10
1015.928328
 20
-94.481229
 30
0.0
 11
1015.928328
 21
-102.481229
 31
0.0
  0
LINE
  8
0
  6
BYLAYER
 62
     7
 10
1015.928328
 20
-102.481229
 30
0.0
 11
1007.928328
 21
-102.481229
 31
0.0
  0
LINE
  8
0
  6
BYLAYER
 62
     7
 10
1015.928328
 20
-94.481229
 30
0.0
 11
1007.928328
 21
-94.481229
 31
0.0
  0
LINE
  8
0
  6
BYLAYER
 62
     7
 10
1007.928328
 20
-102.481229
 30
0.0
 11
1007.928328
 21
-94.481229
 31
0.0
  0
LINE
  8
0
  6
BYLAYER
 62
     7
 10
1005.928328
 20
-104.481229
 30
0.0
 11
1005.928328
 21
-112.481229
 31
0.0
  0
LINE
  8
0
  6
BYLAYER
 62
     7
 10
1005.928328
 20
-112.481229
 30
0.0
 11
997.928328
 21
-112.481229
 31
0.0
  0
LINE
  8
0
  6
BYLAYER
 62
     7
 10
1005.928328
 20
-104.481229
 30
0.0
 11
997.928328
 21
-104.481229
 31
0.0
  0
LINE
  8
0
  6
BYLAYER
 62
     7
 10
997.928328
 20
-112.481229
 30
0.0
 11
997.928328
 21
-104.481229
 31
0.0
  0
LINE
  8
0
  6
BYLAYER
 62
     7
 10
995.928328
 20
-114.481229
 30
0.0
 11
995.928328
 21
-122.481229
 31
0.0
  0
LINE
  8
0
  6
BYLAYER
 62
     7
 10
995.928328
 20
-122.481229
 30
0.0
 11
987.928328
 21
-122.481229
 31
0.0
  0
LINE
  8
0
  6
BYLAYER
 62
     7
 10
995.928328
 20
-114.481229
 30
0.0
 11
987.928328
 21
-114.481229
 31
0.0
  0
LINE
  8
0
  6
BYLAYER
 62
     7
 10
987.928328
 20
-122.481229
 30
0.0
 11
987.928328
 21
-114.481229
 31
0.0
  0
LINE
  8
0
  6
BYLAYER
 62
     7
 10
1045.928328
 20
-74.481229
 30
0.0
 11
1045.928328
 21
-82.481229
 31
0.0
  0
LINE
  8
0
  6
BYLAYER
 62
     7
 10
1037.928328
 20
-82.481229
 30
0.0
 11
1037.928328
 21
-74.481229
 31
0.0
  0
LINE
  8
0
  6
BYLAYER
 62
     7
 10
1045.928328
 20
-82.481229
 30
0.0
 11
1037.928328
 21
-82.481229
 31
0.0
  0
LINE
  8
0
  6
BYLAYER
 62
     7
 10
1045.928328
 20
-74.481229
 30
0.0
 11
1037.928328
 21
-74.481229
 31
0.0
  0
LINE
  8
0
  6
BYLAYER
 62
     7
 10
975.928328
 20
-152.481229
 30
0.0
 11
967.928328
 21
-152.481229
 31
0.0
  0
LINE
  8
0
  6
BYLAYER
 62
     7
 10
975.928328
 20
-144.481229
 30
0.0
 11
975.928328
 21
-152.481229
 31
0.0
  0
LINE
  8
0
  6
BYLAYER
 62
     7
 10
975.928328
 20
-144.481229
 30
0.0
 11
967.928328
 21
-144.481229
 31
0.0
  0
LINE
  8
0
  6
BYLAYER
 62
     7
 10
967.928328
 20
-152.481229
 30
0.0
 11
967.928328
 21
-144.481229
 31
0.0
  0
LINE
  8
0
  6
BYLAYER
 62
     7
 10
1025.928328
 20
-84.481229
 30
0.0
 11
1025.928328
 21
-92.481229
 31
0.0
  0
LINE
  8
0
  6
BYLAYER
 62
     7
 10
1025.928328
 20
-92.481229
 30
0.0
 11
1017.928328
 21
-92.481229
 31
0.0
  0
LINE
  8
0
  6
BYLAYER
 62
     7
 10
1025.928328
 20
-84.481229
 30
0.0
 11
1017.928328
 21
-84.481229
 31
0.0
  0
LINE
  8
0
  6
BYLAYER
 62
     7
 10
1017.928328
 20
-92.481229
 30
0.0
 11
1017.928328
 21
-84.481229
 31
0.0
  0
LINE
  8
0
  6
BYLAYER
 62
     7
 10
985.928328
 20
-124.481229
 30
0.0
 11
985.928328
 21
-132.481229
 31
0.0
  0
LINE
  8
0
  6
BYLAYER
 62
     7
 10
985.928328
 20
-132.481229
 30
0.0
 11
977.928328
 21
-132.481229
 31
0.0
  0
LINE
  8
0
  6
BYLAYER
 62
     7
 10
985.928328
 20
-124.481229
 30
0.0
 11
977.928328
 21
-124.481229
 31
0.0
  0
LINE
  8
0
  6
BYLAYER
 62
     7
 10
977.928328
 20
-132.481229
 30
0.0
 11
977.928328
 21
-124.481229
 31
0.0
  0
LINE
  8
0
  6
BYLAYER
 62
     7
 10
1015.928328
 20
-84.481229
 30
0.0
 11
1015.928328
 21
-92.481229
 31
0.0
  0
LINE
  8
0
  6
BYLAYER
 62
     7
 10
1015.928328
 20
-92.481229
 30
0.0
 11
1007.928328
 21
-92.481229
 31
0.0
  0
LINE
  8
0
  6
BYLAYER
 62
     7
 10
1015.928328
 20
-84.481229
 30
0.0
 11
1007.928328
 21
-84.481229
 31
0.0
  0
LINE
  8
0
  6
BYLAYER
 62
     7
 10
1007.928328
 20
-92.481229
 30
0.0
 11
1007.928328
 21
-84.481229
 31
0.0
  0
LINE
  8
0
  6
BYLAYER
 62
     7
 10
1005.928328
 20
-94.481229
 30
0.0
 11
1005.928328
 21
-102.481229
 31
0.0
  0
LINE
  8
0
  6
BYLAYER
 62
     7
 10
1005.928328
 20
-102.481229
 30
0.0
 11
997.928328
 21
-102.481229
 31
0.0
  0
LINE
  8
0
  6
BYLAYER
 62
     7
 10
1005.928328
 20
-94.481229
 30
0.0
 11
997.928328
 21
-94.481229
 31
0.0
  0
LINE
  8
0
  6
BYLAYER
 62
     7
 10
997.928328
 20
-102.481229
 30
0.0
 11
997.928328
 21
-94.481229
 31
0.0
  0
LINE
  8
0
  6
BYLAYER
 62
     7
 10
995.928328
 20
-104.481229
 30
0.0
 11
995.928328
 21
-112.481229
 31
0.0
  0
LINE
  8
0
  6
BYLAYER
 62
     7
 10
995.928328
 20
-112.481229
 30
0.0
 11
987.928328
 21
-112.481229
 31
0.0
  0
LINE
  8
0
  6
BYLAYER
 62
     7
 10
995.928328
 20
-104.481229
 30
0.0
 11
987.928328
 21
-104.481229
 31
0.0
  0
LINE
  8
0
  6
BYLAYER
 62
     7
 10
987.928328
 20
-112.481229
 30
0.0
 11
987.928328
 21
-104.481229
 31
0.0
  0
LINE
  8
0
  6
BYLAYER
 62
     7
 10
985.928328
 20
-114.481229
 30
0.0
 11
985.928328
 21
-122.481229
 31
0.0
  0
LINE
  8
0
  6
BYLAYER
 62
     7
 10
985.928328
 20
-122.481229
 30
0.0
 11
977.928328
 21
-122.481229
 31
0.0
  0
LINE
  8
0
  6
BYLAYER
 62
     7
 10
985.928328
 20
-114.481229
 30
0.0
 11
977.928328
 21
-114.481229
 31
0.0
  0
LINE
  8
0
  6
BYLAYER
 62
     7
 10
977.928328
 20
-122.481229
 30
0.0
 11
977.928328
 21
-114.481229
 31
0.0
  0
LINE
  8
0
  6
BYLAYER
 62
     7
 10
1035.928328
 20
-82.481229
 30
0.0
 11
1035.928328
 21
-74.481229
 31
0.0
  0
LINE
  8
0
  6
BYLAYER
 62
     7
 10
1035.928328
 20
-82.481229
 30
0.0
 11
1028.090329
 21
-82.481229
 31
0.0
  0
LINE
  8
0
  6
BYLAYER
 62
     7
 10
1035.928328
 20
-74.481229
 30
0.0
 11
1028.090329
 21
-74.481229
 31
0.0
  0
LINE
  8
0
  6
BYLAYER
 62
     7
 10
1028.090329
 20
-82.481229
 30
0.0
 11
1028.090329
 21
-74.481229
 31
0.0
  0
LINE
  8
0
  6
BYLAYER
 62
     7
 10
975.928328
 20
-142.481229
 30
0.0
 11
967.928328
 21
-142.481229
 31
0.0
  0
LINE
  8
0
  6
BYLAYER
 62
     7
 10
975.928328
 20
-134.481229
 30
0.0
 11
975.928328
 21
-142.481229
 31
0.0
  0
LINE
  8
0
  6
BYLAYER
 62
     7
 10
975.928328
 20
-134.481229
 30
0.0
 11
967.928328
 21
-134.481229
 31
0.0
  0
LINE
  8
0
  6
BYLAYER
 62
     7
 10
967.928328
 20
-142.481229
 30
0.0
 11
967.928328
 21
-134.481229
 31
0.0
  0
LINE
  8
0
  6
BYLAYER
 62
     7
 10
1045.928328
 20
-182.481229
 30
0.0
 11
1045.928328
 21
-174.481229
 31
0.0
  0
LINE
  8
0
  6
BYLAYER
 62
     7
 10
1045.928328
 20
-192.481229
 30
0.0
 11
1045.928328
 21
-184.481229
 31
0.0
  0
LINE
  8
0
  6
BYLAYER
 62
     7
 10
1037.928328
 20
-184.481229
 30
0.0
 11
1037.928328
 21
-192.481229
 31
0.0
  0
LINE
  8
0
  6
BYLAYER
 62
     7
 10
1035.928328
 20
-184.481229
 30
0.0
 11
1035.928328
 21
-192.481229
 31
0.0
  0
LINE
  8
0
  6
BYLAYER
 62
     7
 10
1045.928328
 20
-174.481229
 30
0.0
 11
1037.928328
 21
-174.481229
 31
0.0
  0
LINE
  8
0
  6
BYLAYER
 62
     7
 10
1045.928328
 20
-182.481229
 30
0.0
 11
1037.928328
 21
-182.481229
 31
0.0
  0
LINE
  8
0
  6
BYLAYER
 62
     7
 10
1035.928328
 20
-184.481229
 30
0.0
 11
1028.090329
 21
-184.481229
 31
0.0
  0
LINE
  8
0
  6
BYLAYER
 62
     7
 10
1045.928328
 20
-184.481229
 30
0.0
 11
1037.928328
 21
-184.481229
 31
0.0
  0
LINE
  8
0
  6
BYLAYER
 62
     7
 10
1035.928328
 20
-192.481229
 30
0.0
 11
1028.090329
 21
-192.481229
 31
0.0
  0
LINE
  8
0
  6
BYLAYER
 62
     7
 10
1045.928328
 20
-192.481229
 30
0.0
 11
1037.928328
 21
-192.481229
 31
0.0
  0
LINE
  8
0
  6
BYLAYER
 62
     7
 10
1028.090329
 20
-184.481229
 30
0.0
 11
1028.090329
 21
-192.481229
 31
0.0
  0
LINE
  8
0
  6
BYLAYER
 62
     7
 10
1037.928328
 20
-174.481229
 30
0.0
 11
1037.928328
 21
-182.481229
 31
0.0
  0
LINE
  8
0
  6
BYLAYER
 62
     7
 10
1035.928328
 20
-182.481229
 30
0.0
 11
1035.928328
 21
-174.481229
 31
0.0
  0
LINE
  8
0
  6
BYLAYER
 62
     7
 10
1035.928328
 20
-174.481229
 30
0.0
 11
1027.928328
 21
-174.481229
 31
0.0
  0
LINE
  8
0
  6
BYLAYER
 62
     7
 10
1035.928328
 20
-182.481229
 30
0.0
 11
1027.928328
 21
-182.481229
 31
0.0
  0
LINE
  8
0
  6
BYLAYER
 62
     7
 10
1027.928328
 20
-174.481229
 30
0.0
 11
1027.928328
 21
-182.481229
 31
0.0
  0
LINE
  8
0
  6
BYLAYER
 62
     7
 10
1025.928328
 20
-164.481229
 30
0.0
 11
1017.928328
 21
-164.481229
 31
0.0
  0
LINE
  8
0
  6
BYLAYER
 62
     7
 10
1025.928328
 20
-182.481229
 30
0.0
 11
1025.928328
 21
-174.481229
 31
0.0
  0
LINE
  8
0
  6
BYLAYER
 62
     7
 10
1025.928328
 20
-172.481229
 30
0.0
 11
1025.928328
 21
-164.481229
 31
0.0
  0
LINE
  8
0
  6
BYLAYER
 62
     7
 10
1025.928328
 20
-172.481229
 30
0.0
 11
1017.928328
 21
-172.481229
 31
0.0
  0
LINE
  8
0
  6
BYLAYER
 62
     7
 10
1025.928328
 20
-174.481229
 30
0.0
 11
1017.928328
 21
-174.481229
 31
0.0
  0
LINE
  8
0
  6
BYLAYER
 62
     7
 10
1025.928328
 20
-182.481229
 30
0.0
 11
1017.928328
 21
-182.481229
 31
0.0
  0
LINE
  8
0
  6
BYLAYER
 62
     7
 10
1017.928328
 20
-164.481229
 30
0.0
 11
1017.928328
 21
-172.481229
 31
0.0
  0
LINE
  8
0
  6
BYLAYER
 62
     7
 10
1017.928328
 20
-174.481229
 30
0.0
 11
1017.928328
 21
-182.481229
 31
0.0
  0
LINE
  8
0
  6
BYLAYER
 62
     7
 10
1025.928328
 20
-154.481229
 30
0.0
 11
1017.928328
 21
-154.481229
 31
0.0
  0
LINE
  8
0
  6
BYLAYER
 62
     7
 10
1025.928328
 20
-162.481229
 30
0.0
 11
1025.928328
 21
-154.481229
 31
0.0
  0
LINE
  8
0
  6
BYLAYER
 62
     7
 10
1025.928328
 20
-162.481229
 30
0.0
 11
1017.928328
 21
-162.481229
 31
0.0
  0
LINE
  8
0
  6
BYLAYER
 62
     7
 10
1017.928328
 20
-154.481229
 30
0.0
 11
1017.928328
 21
-162.481229
 31
0.0
  0
LINE
  8
0
  6
BYLAYER
 62
     7
 10
1015.928328
 20
-164.481229
 30
0.0
 11
1007.928328
 21
-164.481229
 31
0.0
  0
LINE
  8
0
  6
BYLAYER
 62
     7
 10
1015.928328
 20
-172.481229
 30
0.0
 11
1015.928328
 21
-164.481229
 31
0.0
  0
LINE
  8
0
  6
BYLAYER
 62
     7
 10
1015.928328
 20
-172.481229
 30
0.0
 11
1007.928328
 21
-172.481229
 31
0.0
  0
LINE
  8
0
  6
BYLAYER
 62
     7
 10
1007.928328
 20
-164.481229
 30
0.0
 11
1007.928328
 21
-172.481229
 31
0.0
  0
LINE
  8
0
  6
BYLAYER
 62
     7
 10
1015.928328
 20
-154.481229
 30
0.0
 11
1007.928328
 21
-154.481229
 31
0.0
  0
LINE
  8
0
  6
BYLAYER
 62
     7
 10
1015.928328
 20
-162.481229
 30
0.0
 11
1015.928328
 21
-154.481229
 31
0.0
  0
LINE
  8
0
  6
BYLAYER
 62
     7
 10
1015.928328
 20
-162.481229
 30
0.0
 11
1007.928328
 21
-162.481229
 31
0.0
  0
LINE
  8
0
  6
BYLAYER
 62
     7
 10
1007.928328
 20
-154.481229
 30
0.0
 11
1007.928328
 21
-162.481229
 31
0.0
  0
LINE
  8
0
  6
BYLAYER
 62
     7
 10
1005.928328
 20
-164.481229
 30
0.0
 11
997.928328
 21
-164.481229
 31
0.0
  0
LINE
  8
0
  6
BYLAYER
 62
     7
 10
1005.928328
 20
-172.481229
 30
0.0
 11
1005.928328
 21
-164.481229
 31
0.0
  0
LINE
  8
0
  6
BYLAYER
 62
     7
 10
1005.928328
 20
-172.481229
 30
0.0
 11
997.928328
 21
-172.481229
 31
0.0
  0
LINE
  8
0
  6
BYLAYER
 62
     7
 10
997.928328
 20
-164.481229
 30
0.0
 11
997.928328
 21
-172.481229
 31
0.0
  0
LINE
  8
0
  6
BYLAYER
 62
     7
 10
1005.928328
 20
-154.481229
 30
0.0
 11
997.928328
 21
-154.481229
 31
0.0
  0
LINE
  8
0
  6
BYLAYER
 62
     7
 10
1005.928328
 20
-162.481229
 30
0.0
 11
1005.928328
 21
-154.481229
 31
0.0
  0
LINE
  8
0
  6
BYLAYER
 62
     7
 10
1005.928328
 20
-162.481229
 30
0.0
 11
997.928328
 21
-162.481229
 31
0.0
  0
LINE
  8
0
  6
BYLAYER
 62
     7
 10
997.928328
 20
-154.481229
 30
0.0
 11
997.928328
 21
-162.481229
 31
0.0
  0
LINE
  8
0
  6
BYLAYER
 62
     7
 10
1045.928328
 20
-202.481229
 30
0.0
 11
1045.928328
 21
-194.481229
 31
0.0
  0
LINE
  8
0
  6
BYLAYER
 62
     7
 10
1037.928328
 20
-194.481229
 30
0.0
 11
1037.928328
 21
-202.481229
 31
0.0
  0
LINE
  8
0
  6
BYLAYER
 62
     7
 10
1035.928328
 20
-194.481229
 30
0.0
 11
1035.928328
 21
-202.481229
 31
0.0
  0
LINE
  8
0
  6
BYLAYER
 62
     7
 10
1035.928328
 20
-194.481229
 30
0.0
 11
1028.090329
 21
-194.481229
 31
0.0
  0
LINE
  8
0
  6
BYLAYER
 62
     7
 10
1045.928328
 20
-194.481229
 30
0.0
 11
1037.928328
 21
-194.481229
 31
0.0
  0
LINE
  8
0
  6
BYLAYER
 62
     7
 10
1035.928328
 20
-202.481229
 30
0.0
 11
1028.090329
 21
-202.481229
 31
0.0
  0
LINE
  8
0
  6
BYLAYER
 62
     7
 10
1045.928328
 20
-202.481229
 30
0.0
 11
1037.928328
 21
-202.481229
 31
0.0
  0
LINE
  8
0
  6
BYLAYER
 62
     7
 10
1028.090329
 20
-194.481229
 30
0.0
 11
1028.090329
 21
-202.481229
 31
0.0
  0
LINE
  8
0
  6
BYLAYER
 62
     7
 10
1025.928328
 20
-192.481229
 30
0.0
 11
1025.928328
 21
-184.481229
 31
0.0
  0
LINE
  8
0
  6
BYLAYER
 62
     7
 10
1025.928328
 20
-184.481229
 30
0.0
 11
1017.928328
 21
-184.481229
 31
0.0
  0
LINE
  8
0
  6
BYLAYER
 62
     7
 10
1025.928328
 20
-192.481229
 30
0.0
 11
1017.928328
 21
-192.481229
 31
0.0
  0
LINE
  8
0
  6
BYLAYER
 62
     7
 10
1017.928328
 20
-184.481229
 30
0.0
 11
1017.928328
 21
-192.481229
 31
0.0
  0
LINE
  8
0
  6
BYLAYER
 62
     7
 10
1025.928328
 20
-202.481229
 30
0.0
 11
1025.928328
 21
-194.481229
 31
0.0
  0
LINE
  8
0
  6
BYLAYER
 62
     7
 10
1025.928328
 20
-194.481229
 30
0.0
 11
1017.928328
 21
-194.481229
 31
0.0
  0
LINE
  8
0
  6
BYLAYER
 62
     7
 10
1025.928328
 20
-202.481229
 30
0.0
 11
1017.928328
 21
-202.481229
 31
0.0
  0
LINE
  8
0
  6
BYLAYER
 62
     7
 10
1017.928328
 20
-194.481229
 30
0.0
 11
1017.928328
 21
-202.481229
 31
0.0
  0
LINE
  8
0
  6
BYLAYER
 62
     7
 10
1015.928328
 20
-182.481229
 30
0.0
 11
1015.928328
 21
-174.481229
 31
0.0
  0
LINE
  8
0
  6
BYLAYER
 62
     7
 10
1015.928328
 20
-174.481229
 30
0.0
 11
1007.928328
 21
-174.481229
 31
0.0
  0
LINE
  8
0
  6
BYLAYER
 62
     7
 10
1015.928328
 20
-182.481229
 30
0.0
 11
1007.928328
 21
-182.481229
 31
0.0
  0
LINE
  8
0
  6
BYLAYER
 62
     7
 10
1007.928328
 20
-174.481229
 30
0.0
 11
1007.928328
 21
-182.481229
 31
0.0
  0
LINE
  8
0
  6
BYLAYER
 62
     7
 10
1015.928328
 20
-192.481229
 30
0.0
 11
1015.928328
 21
-184.481229
 31
0.0
  0
LINE
  8
0
  6
BYLAYER
 62
     7
 10
1015.928328
 20
-184.481229
 30
0.0
 11
1007.928328
 21
-184.481229
 31
0.0
  0
LINE
  8
0
  6
BYLAYER
 62
     7
 10
1015.928328
 20
-192.481229
 30
0.0
 11
1007.928328
 21
-192.481229
 31
0.0
  0
LINE
  8
0
  6
BYLAYER
 62
     7
 10
1007.928328
 20
-184.481229
 30
0.0
 11
1007.928328
 21
-192.481229
 31
0.0
  0
LINE
  8
0
  6
BYLAYER
 62
     7
 10
1005.928328
 20
-182.481229
 30
0.0
 11
1005.928328
 21
-174.481229
 31
0.0
  0
LINE
  8
0
  6
BYLAYER
 62
     7
 10
1005.928328
 20
-174.481229
 30
0.0
 11
997.928328
 21
-174.481229
 31
0.0
  0
LINE
  8
0
  6
BYLAYER
 62
     7
 10
1005.928328
 20
-182.481229
 30
0.0
 11
997.928328
 21
-182.481229
 31
0.0
  0
LINE
  8
0
  6
BYLAYER
 62
     7
 10
997.928328
 20
-174.481229
 30
0.0
 11
997.928328
 21
-182.481229
 31
0.0
  0
LINE
  8
0
  6
BYLAYER
 62
     7
 10
995.928328
 20
-164.481229
 30
0.0
 11
987.928328
 21
-164.481229
 31
0.0
  0
LINE
  8
0
  6
BYLAYER
 62
     7
 10
995.928328
 20
-172.481229
 30
0.0
 11
995.928328
 21
-164.481229
 31
0.0
  0
LINE
  8
0
  6
BYLAYER
 62
     7
 10
995.928328
 20
-172.481229
 30
0.0
 11
987.928328
 21
-172.481229
 31
0.0
  0
LINE
  8
0
  6
BYLAYER
 62
     7
 10
987.928328
 20
-164.481229
 30
0.0
 11
987.928328
 21
-172.481229
 31
0.0
  0
LINE
  8
0
  6
BYLAYER
 62
     7
 10
995.928328
 20
-154.481229
 30
0.0
 11
987.928328
 21
-154.481229
 31
0.0
  0
LINE
  8
0
  6
BYLAYER
 62
     7
 10
995.928328
 20
-162.481229
 30
0.0
 11
995.928328
 21
-154.481229
 31
0.0
  0
LINE
  8
0
  6
BYLAYER
 62
     7
 10
995.928328
 20
-162.481229
 30
0.0
 11
987.928328
 21
-162.481229
 31
0.0
  0
LINE
  8
0
  6
BYLAYER
 62
     7
 10
987.928328
 20
-154.481229
 30
0.0
 11
987.928328
 21
-162.481229
 31
0.0
  0
LINE
  8
0
  6
BYLAYER
 62
     7
 10
995.928328
 20
-182.481229
 30
0.0
 11
995.928328
 21
-174.481229
 31
0.0
  0
LINE
  8
0
  6
BYLAYER
 62
     7
 10
995.928328
 20
-174.481229
 30
0.0
 11
987.928328
 21
-174.481229
 31
0.0
  0
LINE
  8
0
  6
BYLAYER
 62
     7
 10
995.928328
 20
-182.481229
 30
0.0
 11
987.928328
 21
-182.481229
 31
0.0
  0
LINE
  8
0
  6
BYLAYER
 62
     7
 10
987.928328
 20
-174.481229
 30
0.0
 11
987.928328
 21
-182.481229
 31
0.0
  0
LINE
  8
0
  6
BYLAYER
 62
     7
 10
1045.928328
 20
-212.481229
 30
0.0
 11
1045.928328
 21
-204.481229
 31
0.0
  0
LINE
  8
0
  6
BYLAYER
 62
     7
 10
1037.928328
 20
-204.481229
 30
0.0
 11
1037.928328
 21
-212.481229
 31
0.0
  0
LINE
  8
0
  6
BYLAYER
 62
     7
 10
1035.928328
 20
-204.481229
 30
0.0
 11
1035.928328
 21
-212.481229
 31
0.0
  0
LINE
  8
0
  6
BYLAYER
 62
     7
 10
1035.928328
 20
-204.481229
 30
0.0
 11
1028.090329
 21
-204.481229
 31
0.0
  0
LINE
  8
0
  6
BYLAYER
 62
     7
 10
1045.928328
 20
-204.481229
 30
0.0
 11
1037.928328
 21
-204.481229
 31
0.0
  0
LINE
  8
0
  6
BYLAYER
 62
     7
 10
1035.928328
 20
-212.481229
 30
0.0
 11
1028.090329
 21
-212.481229
 31
0.0
  0
LINE
  8
0
  6
BYLAYER
 62
     7
 10
1045.928328
 20
-212.481229
 30
0.0
 11
1037.928328
 21
-212.481229
 31
0.0
  0
LINE
  8
0
  6
BYLAYER
 62
     7
 10
1028.090329
 20
-204.481229
 30
0.0
 11
1028.090329
 21
-212.481229
 31
0.0
  0
LINE
  8
0
  6
BYLAYER
 62
     7
 10
1025.928328
 20
-212.481229
 30
0.0
 11
1025.928328
 21
-204.481229
 31
0.0
  0
LINE
  8
0
  6
BYLAYER
 62
     7
 10
1025.928328
 20
-204.481229
 30
0.0
 11
1017.928328
 21
-204.481229
 31
0.0
  0
LINE
  8
0
  6
BYLAYER
 62
     7
 10
1025.928328
 20
-212.481229
 30
0.0
 11
1017.928328
 21
-212.481229
 31
0.0
  0
LINE
  8
0
  6
BYLAYER
 62
     7
 10
1017.928328
 20
-204.481229
 30
0.0
 11
1017.928328
 21
-212.481229
 31
0.0
  0
LINE
  8
0
  6
BYLAYER
 62
     7
 10
1015.928328
 20
-202.481229
 30
0.0
 11
1015.928328
 21
-194.481229
 31
0.0
  0
LINE
  8
0
  6
BYLAYER
 62
     7
 10
1015.928328
 20
-194.481229
 30
0.0
 11
1007.928328
 21
-194.481229
 31
0.0
  0
LINE
  8
0
  6
BYLAYER
 62
     7
 10
1015.928328
 20
-202.481229
 30
0.0
 11
1007.928328
 21
-202.481229
 31
0.0
  0
LINE
  8
0
  6
BYLAYER
 62
     7
 10
1007.928328
 20
-194.481229
 30
0.0
 11
1007.928328
 21
-202.481229
 31
0.0
  0
LINE
  8
0
  6
BYLAYER
 62
     7
 10
1005.928328
 20
-192.481229
 30
0.0
 11
1005.928328
 21
-184.481229
 31
0.0
  0
LINE
  8
0
  6
BYLAYER
 62
     7
 10
1005.928328
 20
-184.481229
 30
0.0
 11
997.928328
 21
-184.481229
 31
0.0
  0
LINE
  8
0
  6
BYLAYER
 62
     7
 10
1005.928328
 20
-192.481229
 30
0.0
 11
997.928328
 21
-192.481229
 31
0.0
  0
LINE
  8
0
  6
BYLAYER
 62
     7
 10
997.928328
 20
-184.481229
 30
0.0
 11
997.928328
 21
-192.481229
 31
0.0
  0
LINE
  8
0
  6
BYLAYER
 62
     7
 10
1045.928328
 20
-222.481229
 30
0.0
 11
1045.928328
 21
-214.481229
 31
0.0
  0
LINE
  8
0
  6
BYLAYER
 62
     7
 10
1037.928328
 20
-214.481229
 30
0.0
 11
1037.928328
 21
-222.481229
 31
0.0
  0
LINE
  8
0
  6
BYLAYER
 62
     7
 10
1035.928328
 20
-214.481229
 30
0.0
 11
1035.928328
 21
-222.481229
 31
0.0
  0
LINE
  8
0
  6
BYLAYER
 62
     7
 10
1035.928328
 20
-214.481229
 30
0.0
 11
1028.090329
 21
-214.481229
 31
0.0
  0
LINE
  8
0
  6
BYLAYER
 62
     7
 10
1045.928328
 20
-214.481229
 30
0.0
 11
1037.928328
 21
-214.481229
 31
0.0
  0
LINE
  8
0
  6
BYLAYER
 62
     7
 10
1035.928328
 20
-222.481229
 30
0.0
 11
1028.090329
 21
-222.481229
 31
0.0
  0
LINE
  8
0
  6
BYLAYER
 62
     7
 10
1045.928328
 20
-222.481229
 30
0.0
 11
1037.928328
 21
-222.481229
 31
0.0
  0
LINE
  8
0
  6
BYLAYER
 62
     7
 10
1028.090329
 20
-214.481229
 30
0.0
 11
1028.090329
 21
-222.481229
 31
0.0
  0
LINE
  8
0
  6
BYLAYER
 62
     7
 10
985.928328
 20
-164.481229
 30
0.0
 11
977.928328
 21
-164.481229
 31
0.0
  0
LINE
  8
0
  6
BYLAYER
 62
     7
 10
985.928328
 20
-172.481229
 30
0.0
 11
985.928328
 21
-164.481229
 31
0.0
  0
LINE
  8
0
  6
BYLAYER
 62
     7
 10
985.928328
 20
-172.481229
 30
0.0
 11
977.928328
 21
-172.481229
 31
0.0
  0
LINE
  8
0
  6
BYLAYER
 62
     7
 10
977.928328
 20
-164.481229
 30
0.0
 11
977.928328
 21
-172.481229
 31
0.0
  0
LINE
  8
0
  6
BYLAYER
 62
     7
 10
985.928328
 20
-154.481229
 30
0.0
 11
977.928328
 21
-154.481229
 31
0.0
  0
LINE
  8
0
  6
BYLAYER
 62
     7
 10
985.928328
 20
-162.481229
 30
0.0
 11
985.928328
 21
-154.481229
 31
0.0
  0
LINE
  8
0
  6
BYLAYER
 62
     7
 10
985.928328
 20
-162.481229
 30
0.0
 11
977.928328
 21
-162.481229
 31
0.0
  0
LINE
  8
0
  6
BYLAYER
 62
     7
 10
977.928328
 20
-154.481229
 30
0.0
 11
977.928328
 21
-162.481229
 31
0.0
  0
LINE
  8
0
  6
BYLAYER
 62
     7
 10
1015.928328
 20
-212.481229
 30
0.0
 11
1015.928328
 21
-204.481229
 31
0.0
  0
LINE
  8
0
  6
BYLAYER
 62
     7
 10
1015.928328
 20
-204.481229
 30
0.0
 11
1007.928328
 21
-204.481229
 31
0.0
  0
LINE
  8
0
  6
BYLAYER
 62
     7
 10
1015.928328
 20
-212.481229
 30
0.0
 11
1007.928328
 21
-212.481229
 31
0.0
  0
LINE
  8
0
  6
BYLAYER
 62
     7
 10
1007.928328
 20
-204.481229
 30
0.0
 11
1007.928328
 21
-212.481229
 31
0.0
  0
LINE
  8
0
  6
BYLAYER
 62
     7
 10
1005.928328
 20
-202.481229
 30
0.0
 11
1005.928328
 21
-194.481229
 31
0.0
  0
LINE
  8
0
  6
BYLAYER
 62
     7
 10
1005.928328
 20
-194.481229
 30
0.0
 11
997.928328
 21
-194.481229
 31
0.0
  0
LINE
  8
0
  6
BYLAYER
 62
     7
 10
1005.928328
 20
-202.481229
 30
0.0
 11
997.928328
 21
-202.481229
 31
0.0
  0
LINE
  8
0
  6
BYLAYER
 62
     7
 10
997.928328
 20
-194.481229
 30
0.0
 11
997.928328
 21
-202.481229
 31
0.0
  0
LINE
  8
0
  6
BYLAYER
 62
     7
 10
995.928328
 20
-192.481229
 30
0.0
 11
995.928328
 21
-184.481229
 31
0.0
  0
LINE
  8
0
  6
BYLAYER
 62
     7
 10
995.928328
 20
-184.481229
 30
0.0
 11
987.928328
 21
-184.481229
 31
0.0
  0
LINE
  8
0
  6
BYLAYER
 62
     7
 10
995.928328
 20
-192.481229
 30
0.0
 11
987.928328
 21
-192.481229
 31
0.0
  0
LINE
  8
0
  6
BYLAYER
 62
     7
 10
987.928328
 20
-184.481229
 30
0.0
 11
987.928328
 21
-192.481229
 31
0.0
  0
LINE
  8
0
  6
BYLAYER
 62
     7
 10
1045.928328
 20
-232.481229
 30
0.0
 11
1045.928328
 21
-224.481229
 31
0.0
  0
LINE
  8
0
  6
BYLAYER
 62
     7
 10
1037.928328
 20
-224.481229
 30
0.0
 11
1037.928328
 21
-232.481229
 31
0.0
  0
LINE
  8
0
  6
BYLAYER
 62
     7
 10
1045.928328
 20
-224.481229
 30
0.0
 11
1037.928328
 21
-224.481229
 31
0.0
  0
LINE
  8
0
  6
BYLAYER
 62
     7
 10
1045.928328
 20
-232.481229
 30
0.0
 11
1037.928328
 21
-232.481229
 31
0.0
  0
LINE
  8
0
  6
BYLAYER
 62
     7
 10
975.928328
 20
-154.481229
 30
0.0
 11
967.928328
 21
-154.481229
 31
0.0
  0
LINE
  8
0
  6
BYLAYER
 62
     7
 10
975.928328
 20
-162.481229
 30
0.0
 11
975.928328
 21
-154.481229
 31
0.0
  0
LINE
  8
0
  6
BYLAYER
 62
     7
 10
975.928328
 20
-162.481229
 30
0.0
 11
967.928328
 21
-162.481229
 31
0.0
  0
LINE
  8
0
  6
BYLAYER
 62
     7
 10
967.928328
 20
-154.481229
 30
0.0
 11
967.928328
 21
-162.481229
 31
0.0
  0
LINE
  8
0
  6
BYLAYER
 62
     7
 10
1025.928328
 20
-222.481229
 30
0.0
 11
1025.928328
 21
-214.481229
 31
0.0
  0
LINE
  8
0
  6
BYLAYER
 62
     7
 10
1025.928328
 20
-214.481229
 30
0.0
 11
1017.928328
 21
-214.481229
 31
0.0
  0
LINE
  8
0
  6
BYLAYER
 62
     7
 10
1025.928328
 20
-222.481229
 30
0.0
 11
1017.928328
 21
-222.481229
 31
0.0
  0
LINE
  8
0
  6
BYLAYER
 62
     7
 10
1017.928328
 20
-214.481229
 30
0.0
 11
1017.928328
 21
-222.481229
 31
0.0
  0
LINE
  8
0
  6
BYLAYER
 62
     7
 10
985.928328
 20
-182.481229
 30
0.0
 11
985.928328
 21
-174.481229
 31
0.0
  0
LINE
  8
0
  6
BYLAYER
 62
     7
 10
985.928328
 20
-174.481229
 30
0.0
 11
977.928328
 21
-174.481229
 31
0.0
  0
LINE
  8
0
  6
BYLAYER
 62
     7
 10
985.928328
 20
-182.481229
 30
0.0
 11
977.928328
 21
-182.481229
 31
0.0
  0
LINE
  8
0
  6
BYLAYER
 62
     7
 10
977.928328
 20
-174.481229
 30
0.0
 11
977.928328
 21
-182.481229
 31
0.0
  0
LINE
  8
0
  6
BYLAYER
 62
     7
 10
1015.928328
 20
-222.481229
 30
0.0
 11
1015.928328
 21
-214.481229
 31
0.0
  0
LINE
  8
0
  6
BYLAYER
 62
     7
 10
1015.928328
 20
-214.481229
 30
0.0
 11
1007.928328
 21
-214.481229
 31
0.0
  0
LINE
  8
0
  6
BYLAYER
 62
     7
 10
1015.928328
 20
-222.481229
 30
0.0
 11
1007.928328
 21
-222.481229
 31
0.0
  0
LINE
  8
0
  6
BYLAYER
 62
     7
 10
1007.928328
 20
-214.481229
 30
0.0
 11
1007.928328
 21
-222.481229
 31
0.0
  0
LINE
  8
0
  6
BYLAYER
 62
     7
 10
1005.928328
 20
-212.481229
 30
0.0
 11
1005.928328
 21
-204.481229
 31
0.0
  0
LINE
  8
0
  6
BYLAYER
 62
     7
 10
1005.928328
 20
-204.481229
 30
0.0
 11
997.928328
 21
-204.481229
 31
0.0
  0
LINE
  8
0
  6
BYLAYER
 62
     7
 10
1005.928328
 20
-212.481229
 30
0.0
 11
997.928328
 21
-212.481229
 31
0.0
  0
LINE
  8
0
  6
BYLAYER
 62
     7
 10
997.928328
 20
-204.481229
 30
0.0
 11
997.928328
 21
-212.481229
 31
0.0
  0
LINE
  8
0
  6
BYLAYER
 62
     7
 10
995.928328
 20
-202.481229
 30
0.0
 11
995.928328
 21
-194.481229
 31
0.0
  0
LINE
  8
0
  6
BYLAYER
 62
     7
 10
995.928328
 20
-194.481229
 30
0.0
 11
987.928328
 21
-194.481229
 31
0.0
  0
LINE
  8
0
  6
BYLAYER
 62
     7
 10
995.928328
 20
-202.481229
 30
0.0
 11
987.928328
 21
-202.481229
 31
0.0
  0
LINE
  8
0
  6
BYLAYER
 62
     7
 10
987.928328
 20
-194.481229
 30
0.0
 11
987.928328
 21
-202.481229
 31
0.0
  0
LINE
  8
0
  6
BYLAYER
 62
     7
 10
985.928328
 20
-192.481229
 30
0.0
 11
985.928328
 21
-184.481229
 31
0.0
  0
LINE
  8
0
  6
BYLAYER
 62
     7
 10
985.928328
 20
-184.481229
 30
0.0
 11
977.928328
 21
-184.481229
 31
0.0
  0
LINE
  8
0
  6
BYLAYER
 62
     7
 10
985.928328
 20
-192.481229
 30
0.0
 11
977.928328
 21
-192.481229
 31
0.0
  0
LINE
  8
0
  6
BYLAYER
 62
     7
 10
977.928328
 20
-184.481229
 30
0.0
 11
977.928328
 21
-192.481229
 31
0.0
  0
LINE
  8
0
  6
BYLAYER
 62
     7
 10
1035.928328
 20
-224.481229
 30
0.0
 11
1035.928328
 21
-232.481229
 31
0.0
  0
LINE
  8
0
  6
BYLAYER
 62
     7
 10
1035.928328
 20
-224.481229
 30
0.0
 11
1028.090329
 21
-224.481229
 31
0.0
  0
LINE
  8
0
  6
BYLAYER
 62
     7
 10
1035.928328
 20
-232.481229
 30
0.0
 11
1028.090329
 21
-232.481229
 31
0.0
  0
LINE
  8
0
  6
BYLAYER
 62
     7
 10
1028.090329
 20
-224.481229
 30
0.0
 11
1028.090329
 21
-232.481229
 31
0.0
  0
LINE
  8
0
  6
BYLAYER
 62
     7
 10
975.928328
 20
-164.481229
 30
0.0
 11
967.928328
 21
-164.481229
 31
0.0
  0
LINE
  8
0
  6
BYLAYER
 62
     7
 10
975.928328
 20
-172.481229
 30
0.0
 11
975.928328
 21
-164.481229
 31
0.0
  0
LINE
  8
0
  6
BYLAYER
 62
     7
 10
975.928328
 20
-172.481229
 30
0.0
 11
967.928328
 21
-172.481229
 31
0.0
  0
LINE
  8
0
  6
BYLAYER
 62
     7
 10
967.928328
 20
-164.481229
 30
0.0
 11
967.928328
 21
-172.481229
 31
0.0
  0
CIRCLE
  8
0
  6
BYLAYER
 62
     7
 10
1046.928328
 20
-153.481229
 30
0.0
 40
82.542439
  0
ARC
  8
0
  6
BYLAYER
 62
     7
 10
1046.928328
 20
-153.481229
 30
0.0
 40
125.000000
 50
113.079003
 51
426.921013
  0
LINE
  8
0
  6
BYLAYER
 62
     7
 10
1043.928328
 20
-258.807462
 30
0.0
 11
1043.928328
 21
-269.269818
 31
0.0
  0
LINE
  8
0
  6
BYLAYER
 62
     7
 10
1049.928328
 20
-258.807462
 30
0.0
 11
1049.928328
 21
-269.269818
 31
0.0
  0
ARC
  8
0
  6
BYLAYER
 62
     7
 10
1053.928328
 20
-269.269818
 30
0.0
 40
4.0
 50
180.000000
 51
273.459814
  0
ARC
  8
0
  6
BYLAYER
 62
     7
 10
1046.928328
 20
-153.481229
 30
0.0
 40
120.0
 50
273.459601
 51
306.572850
  0
ARC
  8
0
  6
BYLAYER
 62
     7
 10
1116.046278
 20
-246.640821
 30
0.0
 40
4.0
 50
306.572822
 51
405.000076
  0
LINE
  8
0
  6
BYLAYER
 62
     7
 10
1118.874709
 20
-243.812390
 30
0.0
 11
1111.696314
 21
-236.634003
 31
0.0
  0
LINE
  8
0
  6
BYLAYER
 62
     7
 10
974.981978
 20
-243.812375
 30
0.0
 11
982.160351
 21
-236.634010
 31
0.0
  0
ARC
  8
0
  6
BYLAYER
 62
     7
 10
977.810408
 20
-246.640805
 30
0.0
 40
4.000000
 50
135.000000
 51
233.427015
  0
ARC
  8
0
  6
BYLAYER
 62
     7
 10
1046.928328
 20
-153.481229
 30
0.0
 40
120.0
 50
233.427152
 51
266.540401
  0
ARC
  8
0
  6
BYLAYER
 62
     7
 10
1039.928328
 20
-269.269818
 30
0.0
 40
4.000000
 50
266.540182
 51
360.000000
  0
LINE
  8
0
  6
BYLAYER
 62
     7
 10
1152.286174
 20
-156.481224
 30
0.0
 11
1162.716933
 21
-156.481224
 31
0.0
  0
LINE
  8
0
  6
BYLAYER
 62
     7
 10
1152.286174
 20
-150.481225
 30
0.0
 11
1162.716933
 21
-150.481224
 31
0.0
  0
ARC
  8
0
  6
BYLAYER
 62
     7
 10
1162.716933
 20
-146.481224
 30
0.0
 40
4.0
 50
270.0
 51
363.459828
  0
ARC
  8
0
  6
BYLAYER
 62
     7
 10
1046.928328
 20
-153.481229
 30
0.0
 40
120.0
 50
3.459610
 51
36.572859
  0
ARC
  8
0
  6
BYLAYER
 62
     7
 10
1140.087935
 20
-84.363279
 30
0.0
 40
4.0
 50
36.572832
 51
135.000082
  0
LINE
  8
0
  6
BYLAYER
 62
     7
 10
1137.259505
 20
-81.534864
 30
0.0
 11
1130.081109
 21
-88.713252
 31
0.0
  0
LINE
  8
0
  6
BYLAYER
 62
     7
 10
1137.259474
 20
-225.427594
 30
0.0
 11
1130.081104
 21
-218.249212
 31
0.0
  0
ARC
  8
0
  6
BYLAYER
 62
     7
 10
1140.087904
 20
-222.599164
 30
0.0
 40
4.0
 50
225.000010
 51
323.427024
  0
ARC
  8
0
  6
BYLAYER
 62
     7
 10
1046.928328
 20
-153.481229
 30
0.0
 40
120.0
 50
323.427161
 51
356.54041
  0
ARC
  8
0
  6
BYLAYER
 62
     7
 10
1162.716933
 20
-160.481223
 30
0.0
 40
4.000000
 50
356.540191
 51
450.000003
  0
ARC
  8
0
  6
BYLAYER
 62
     7
 10
1046.928328
 20
-153.481229
 30
0.0
 40
120.000000
 50
114.100180
 51
126.572841
  0
ARC
  8
0
  6
BYLAYER
 62
     7
 10
977.810408
 20
-60.321653
 30
0.0
 40
4.0
 50
126.572841
 51
225.000078
  0
LINE
  8
0
  6
BYLAYER
 62
     7
 10
974.981978
 20
-63.150068
 30
0.0
 11
982.160356
 21
-70.328445
 31
0.0
  0
LINE
  8
0
  6
BYLAYER
 62
     7
 10
1118.874709
 20
-63.150068
 30
0.0
 11
1111.696318
 21
-70.328459
 31
0.0
  0
ARC
  8
0
  6
BYLAYER
 62
     7
 10
1116.046278
 20
-60.321637
 30
0.0
 40
4.000000
 50
315.000019
 51
413.427034
  0
ARC
  8
0
  6
BYLAYER
 62
     7
 10
1046.928328
 20
-153.481229
 30
0.0
 40
120.000000
 50
53.427143
 51
65.899836
  0
LINE
  8
0
  6
BYLAYER
 62
     7
 10
941.570482
 20
-150.481230
 30
0.0
 11
931.139754
 21
-150.481230
 31
0.0
  0
LINE
  8
0
  6
BYLAYER
 62
     7
 10
941.570482
 20
-156.481230
 30
0.0
 11
931.139754
 21
-156.481230
 31
0.0
  0
ARC
  8
0
  6
BYLAYER
 62
     7
 10
931.139754
 20
-160.481230
 30
0.0
 40
4.0
 50
90.0
 51
183.459774
  0
ARC
  8
0
  6
BYLAYER
 62
     7
 10
1046.928328
 20
-153.481229
 30
0.0
 40
120.000000
 50
183.459574
 51
216.572878
  0
ARC
  8
0
  6
BYLAYER
 62
     7
 10
953.768721
 20
-222.599179
 30
0.0
 40
4.0
 50
216.572823
 51
315.000074
  0
LINE
  8
0
  6
BYLAYER
 62
     7
 10
956.597151
 20
-225.427594
 30
0.0
 11
963.775547
 21
-218.249206
 31
0.0
  0
LINE
  8
0
  6
BYLAYER
 62
     7
 10
956.597212
 20
-81.534848
 30
0.0
 11
963.775564
 21
-88.713231
 31
0.0
  0
ARC
  8
0
  6
BYLAYER
 62
     7
 10
953.768782
 20
-84.363279
 30
0.0
 40
4.000000
 50
45.000001
 51
143.427016
  0
ARC
  8
0
  6
BYLAYER
 62
     7
 10
1046.928328
 20
-153.481229
 30
0.0
 40
120.0
 50
143.427125
 51
176.540429
  0
ARC
  8
0
  6
BYLAYER
 62
     7
 10
931.139754
 20
-146.481231
 30
0.0
 40
4.000000
 50
176.540210
 51
270.000001
  0
ARC
  8
0
  6
BYLAYER
 62
     7
 10
1122.942305
 20
-229.495221
 30
0.0
 40
7.0
 50
205.758402
 51
424.241587
  0
ARC
  8
0
  6
BYLAYER
 62
     7
 10
1122.942305
 20
-77.467252
 30
0.0
 40
7.0
 50
295.758498
 51
514.241502
  0
ARC
  8
0
  6
BYLAYER
 62
     7
 10
970.914351
 20
-77.467237
 30
0.0
 40
7.0
 50
25.758402
 51
244.241587
  0
ARC
  8
0
  6
BYLAYER
 62
     7
 10
970.914351
 20
-229.495206
 30
0.0
 40
7.0
 50
115.758498
 51
334.241502
  0
LINE
  8
0
  6
BYLAYER
 62
     7
 10
997.928328
 20
-533.481229
 30
0.0
 11
1011.928328
 21
-533.481229
 31
0.0
  0
LINE
  8
0
  6
BYLAYER
 62
     7
 10
1081.928328
 20
-533.481229
 30
0.0
 11
1095.928297
 21
-533.481229
 31
0.0
  0
LINE
  8
0
  6
BYLAYER
 62
     7
 10
997.928328
 20
-538.485577
 30
0.0
 11
997.928328
 21
-533.481229
 31
0.0
  0
LINE
  8
0
  6
BYLAYER
 62
     7
 10
1095.928297
 20
-538.485564
 30
0.0
 11
1095.928297
 21
-533.481229
 31
0.0
  0
LINE
  8
0
  6
BYLAYER
 62
     7
 10
1003.428328
 20
-522.981229
 30
0.0
 11
1003.428328
 21
-501.481229
 31
0.0
  0
ARC
  8
0
  6
BYLAYER
 62
     7
 10
1001.928328
 20
-522.981229
 30
0.0
 40
1.5
 50
270.0
 51
360.0
  0
ARC
  8
0
  6
BYLAYER
 62
     7
 10
1004.928328
 20
-501.481229
 30
0.0
 40
1.5
 50
90.0
 51
180.0
  0
LINE
  8
0
  6
BYLAYER
 62
     7
 10
1046.928328
 20
-499.981229
 30
0.0
 11
1004.928328
 21
-499.981229
 31
0.0
  0
LINE
  8
0
  6
BYLAYER
 62
     7
 10
1008.800569
 20
-522.981229
 30
0.0
 11
1008.800569
 21
-501.481229
 31
0.0
  0
ARC
  8
0
  6
BYLAYER
 62
     7
 10
1007.300569
 20
-522.981229
 30
0.0
 40
1.5
 50
270.0
 51
360.0
  0
ARC
  8
0
  6
BYLAYER
 62
     7
 10
1010.300569
 20
-501.481229
 30
0.0
 40
1.500000
 50
90.0
 51
180.0
  0
LINE
  8
0
  6
BYLAYER
 62
     7
 10
1033.834675
 20
-499.981229
 30
0.0
 11
1034.327222
 21
-514.085927
 31
0.0
  0
ARC
  8
0
  6
BYLAYER
 62
     7
 10
1037.325394
 20
-513.981229
 30
0.0
 40
3.000000
 50
182.000000
 51
270.000000
  0
LINE
  8
0
  6
BYLAYER
 62
     7
 10
1044.529434
 20
-514.085927
 30
0.0
 11
1045.021981
 21
-499.981229
 31
0.0
  0
ARC
  8
0
  6
BYLAYER
 62
     7
 10
1041.531262
 20
-513.981229
 30
0.0
 40
3.0
 50
270.0
 51
358.0
  0
LINE
  8
0
  6
BYLAYER
 62
     7
 10
1037.325394
 20
-516.981229
 30
0.0
 11
1041.531262
 21
-516.981229
 31
0.0
  0
LINE
  8
0
  6
BYLAYER
 62
     7
 10
1018.834675
 20
-499.981229
 30
0.0
 11
1019.327222
 21
-514.085927
 31
0.0
  0
ARC
  8
0
  6
BYLAYER
 62
     7
 10
1022.325394
 20
-513.981229
 30
0.0
 40
3.000000
 50
182.000000
 51
270.000000
  0
LINE
  8
0
  6
BYLAYER
 62
     7
 10
1029.529434
 20
-514.085927
 30
0.0
 11
1030.021981
 21
-499.981229
 31
0.0
  0
ARC
  8
0
  6
BYLAYER
 62
     7
 10
1026.531262
 20
-513.981229
 30
0.0
 40
3.0
 50
270.0
 51
358.0
  0
LINE
  8
0
  6
BYLAYER
 62
     7
 10
1022.325394
 20
-516.981229
 30
0.0
 11
1026.531262
 21
-516.981229
 31
0.0
  0
LINE
  8
0
  6
BYLAYER
 62
     7
 10
1018.869596
 20
-500.981229
 30
0.0
 11
1029.987060
 21
-500.981229
 31
0.0
  0
LINE
  8
0
  6
BYLAYER
 62
     7
 10
1033.869596
 20
-500.981229
 30
0.0
 11
1044.987060
 21
-500.981229
 31
0.0
  0
LINE
  8
0
  6
BYLAYER
 62
     7
 10
1046.928328
 20
-524.481229
 30
0.0
 11
999.428328
 21
-524.481229
 31
0.0
  0
ARC
  8
0
  6
BYLAYER
 62
     7
 10
999.428328
 20
-525.981229
 30
0.0
 40
1.5
 50
90.0
 51
180.0
  0
LINE
  8
0
  6
BYLAYER
 62
     7
 10
997.928328
 20
-531.481229
 30
0.0
 11
997.928328
 21
-525.981229
 31
0.0
  0
LINE
  8
0
  6
BYLAYER
 62
     7
 10
997.928328
 20
-531.481229
 30
0.0
 11
1019.707013
 21
-531.481229
 31
0.0
  0
LINE
  8
0
  6
BYLAYER
 62
     7
 10
1090.428328
 20
-522.981229
 30
0.0
 11
1090.428328
 21
-501.481229
 31
0.0
  0
ARC
  8
0
  6
BYLAYER
 62
     7
 10
1091.928328
 20
-522.981229
 30
0.0
 40
1.5
 50
180.000000
 51
270.000000
  0
ARC
  8
0
  6
BYLAYER
 62
     7
 10
1088.928328
 20
-501.481229
 30
0.0
 40
1.5
 50
0.0
 51
90.0
  0
LINE
  8
0
  6
BYLAYER
 62
     7
 10
1046.928328
 20
-499.981229
 30
0.0
 11
1088.928328
 21
-499.981229
 31
0.0
  0
LINE
  8
0
  6
BYLAYER
 62
     7
 10
1085.056087
 20
-522.981229
 30
0.0
 11
1085.056087
 21
-501.481229
 31
0.0
  0
ARC
  8
0
  6
BYLAYER
 62
     7
 10
1086.556087
 20
-522.981229
 30
0.0
 40
1.5
 50
180.000000
 51
270.000000
  0
ARC
  8
0
  6
BYLAYER
 62
     7
 10
1083.556087
 20
-501.481229
 30
0.0
 40
1.5
 50
0.0
 51
90.0
  0
LINE
  8
0
  6
BYLAYER
 62
     7
 10
1060.021981
 20
-499.981229
 30
0.0
 11
1059.529434
 21
-514.085927
 31
0.0
  0
ARC
  8
0
  6
BYLAYER
 62
     7
 10
1056.531262
 20
-513.981229
 30
0.0
 40
3.0
 50
270.0
 51
358.0
  0
LINE
  8
0
  6
BYLAYER
 62
     7
 10
1049.327222
 20
-514.085927
 30
0.0
 11
1048.834675
 21
-499.981229
 31
0.0
  0
ARC
  8
0
  6
BYLAYER
 62
     7
 10
1052.325394
 20
-513.981229
 30
0.0
 40
3.000000
 50
182.000000
 51
270.000000
  0
LINE
  8
0
  6
BYLAYER
 62
     7
 10
1056.531262
 20
-516.981229
 30
0.0
 11
1052.325394
 21
-516.981229
 31
0.0
  0
LINE
  8
0
  6
BYLAYER
 62
     7
 10
1075.021981
 20
-499.981229
 30
0.0
 11
1074.529434
 21
-514.085927
 31
0.0
  0
ARC
  8
0
  6
BYLAYER
 62
     7
 10
1071.531262
 20
-513.981229
 30
0.0
 40
3.0
 50
270.0
 51
358.0
  0
LINE
  8
0
  6
BYLAYER
 62
     7
 10
1064.327222
 20
-514.085927
 30
0.0
 11
1063.834675
 21
-499.981229
 31
0.0
  0
ARC
  8
0
  6
BYLAYER
 62
     7
 10
1067.325394
 20
-513.981229
 30
0.0
 40
3.000000
 50
182.000000
 51
270.000000
  0
LINE
  8
0
  6
BYLAYER
 62
     7
 10
1071.531262
 20
-516.981229
 30
0.0
 11
1067.325394
 21
-516.981229
 31
0.0
  0
LINE
  8
0
  6
BYLAYER
 62
     7
 10
1074.987060
 20
-500.981229
 30
0.0
 11
1063.869596
 21
-500.981229
 31
0.0
  0
LINE
  8
0
  6
BYLAYER
 62
     7
 10
1059.987060
 20
-500.981229
 30
0.0
 11
1048.869596
 21
-500.981229
 31
0.0
  0
LINE
  8
0
  6
BYLAYER
 62
     7
 10
1046.928328
 20
-524.481229
 30
0.0
 11
1094.428328
 21
-524.481229
 31
0.0
  0
ARC
  8
0
  6
BYLAYER
 62
     7
 10
1094.428328
 20
-525.981229
 30
0.0
 40
1.5
 50
0.0
 51
90.0
  0
LINE
  8
0
  6
BYLAYER
 62
     7
 10
1095.928328
 20
-533.481229
 30
0.0
 11
1095.928328
 21
-525.981229
 31
0.0
  0
LINE
  8
0
  6
BYLAYER
 62
     7
 10
1095.928328
 20
-531.481229
 30
0.0
 11
1074.149643
 21
-531.481229
 31
0.0
  0
LINE
  8
0
  6
BYLAYER
 62
     7
 10
997.928328
 20
-531.481229
 30
0.0
 11
997.928328
 21
-533.481229
 31
0.0
  0
ARC
  8
0
  6
BYLAYER
 62
     1
 10
1046.928328
 20
-653.481229
 30
0.0
 40
125.0
 50
304.055798
 51
595.944202
  0
ARC
  8
0
  6
BYLAYER
 62
     1
 10
1046.928328
 20
-653.481229
 30
0.0
 40
47.500000
 50
66.318093
 51
113.681907
  0
ARC
  8
0
  6
BYLAYER
 62
     1
 10
1046.928450
 20
-653.481107
 30
0.0
 40
85.499985
 50
211.675800
 51
215.043631
  0
ARC
  8
0
  6
BYLAYER
 62
     1
 10
1046.928450
 20
-653.481107
 30
0.0
 40
85.500008
 50
31.675685
 51
88.324448
  0
ARC
  8
0
  6
BYLAYER
 62
     1
 10
1046.928450
 20
-653.481107
 30
0.0
 40
85.499939
 50
91.675598
 51
148.324511
  0
ARC
  8
0
  6
BYLAYER
 62
     1
 10
1046.928450
 20
-653.481107
 30
0.0
 40
85.499969
 50
331.675735
 51
388.324302
  0
ARC
  8
0
  6
BYLAYER
 62
     1
 10
1046.928450
 20
-653.481107
 30
0.0
 40
85.499969
 50
324.956098
 51
328.324325
  0
ARC
  8
0
  6
BYLAYER
 62
     1
 10
1046.928450
 20
-653.481107
 30
0.0
 40
85.499947
 50
151.675306
 51
208.324595
  0
LINE
  8
0
  6
BYLAYER
 62
     1
 10
1049.428572
 20
-550.481473
 30
0.0
 11
1049.428572
 21
-550.481351
 31
0.0
  0
ARC
  8
0
  6
BYLAYER
 62
     1
 10
949.724738
 20
-550.481351
 30
0.0
 40
99.703834
 50
0.0
 51
6.806706
  0
ARC
  8
0
  6
BYLAYER
 62
     1
 10
1026.879066
 20
-541.272095
 30
0.0
 40
22.001835
 50
6.806706
 51
14.994394
  0
ARC
  8
0
  6
BYLAYER
 62
     1
 10
1037.412615
 20
-538.450744
 30
0.0
 40
11.096988
 50
14.994394
 51
20.442704
  0
ARC
  8
0
  6
BYLAYER
 62
     1
 10
1044.715575
 20
-535.672702
 30
0.0
 40
3.284084
 50
19.528864
 51
31.929848
  0
ARC
  8
0
  6
BYLAYER
 62
     1
 10
1046.177987
 20
-534.761374
 30
0.0
 40
1.560957
 50
31.929848
 51
48.967938
  0
ARC
  8
0
  6
BYLAYER
 62
     1
 10
1046.928572
 20
-533.899153
 30
0.0
 40
0.417802
 50
48.990774
 51
90.000000
  0
ARC
  8
0
  6
BYLAYER
 62
     1
 10
1046.928572
 20
-533.899153
 30
0.0
 40
0.417802
 50
90.0
 51
131.009226
  0
ARC
  8
0
  6
BYLAYER
 62
     1
 10
1047.679158
 20
-534.761374
 30
0.0
 40
1.560957
 50
131.032062
 51
148.070152
  0
ARC
  8
0
  6
BYLAYER
 62
     1
 10
1049.141569
 20
-535.672702
 30
0.0
 40
3.284084
 50
148.070152
 51
160.471136
  0
ARC
  8
0
  6
BYLAYER
 62
     1
 10
1056.444529
 20
-538.450744
 30
0.0
 40
11.096988
 50
159.557296
 51
165.005606
  0
ARC
  8
0
  6
BYLAYER
 62
     1
 10
1066.978079
 20
-541.272095
 30
0.0
 40
22.001835
 50
165.005606
 51
173.193294
  0
ARC
  8
0
  6
BYLAYER
 62
     1
 10
1144.132407
 20
-550.481351
 30
0.0
 40
99.703834
 50
173.193294
 51
180.000000
  0
LINE
  8
0
  6
BYLAYER
 62
     1
 10
1044.428572
 20
-550.481351
 30
0.0
 11
1044.428572
 21
-550.481412
 31
0.0
  0
LINE
  8
0
  6
BYLAYER
 62
     1
 10
1049.428511
 20
-588.214017
 30
0.0
 11
1049.428511
 21
-550.481351
 31
0.0
  0
LINE
  8
0
  6
BYLAYER
 62
     1
 10
1044.428389
 20
-588.183133
 30
0.0
 11
1044.428389
 21
-550.481351
 31
0.0
  0
LINE
  8
0
  6
BYLAYER
 62
     1
 10
958.978034
 20
-599.816117
 30
0.0
 11
958.977950
 21
-599.816068
 31
0.0
  0
ARC
  8
0
  6
BYLAYER
 62
     1
 10
909.125681
 20
-686.162614
 30
0.0
 40
99.704436
 50
59.999967
 51
66.806642
  0
ARC
  8
0
  6
BYLAYER
 62
     1
 10
939.727723
 20
-614.739835
 30
0.0
 40
22.001809
 50
66.806642
 51
74.994313
  0
ARC
  8
0
  6
BYLAYER
 62
     1
 10
942.551154
 20
-604.206828
 30
0.0
 40
11.096948
 50
74.994313
 51
80.442606
  0
ARC
  8
0
  6
BYLAYER
 62
     1
 10
943.796790
 20
-596.493277
 30
0.0
 40
3.284061
 50
79.528762
 51
91.929738
  0
ARC
  8
0
  6
BYLAYER
 62
     1
 10
943.738766
 20
-594.771138
 30
0.0
 40
1.560944
 50
91.929738
 51
108.967744
  0
ARC
  8
0
  6
BYLAYER
 62
     1
 10
943.367359
 20
-593.690007
 30
0.0
 40
0.417797
 50
108.990522
 51
149.999720
  0
ARC
  8
0
  6
BYLAYER
 62
     1
 10
943.367357
 20
-593.690006
 30
0.0
 40
0.417794
 50
149.999720
 51
191.009080
  0
ARC
  8
0
  6
BYLAYER
 62
     1
 10
944.489338
 20
-593.471096
 30
0.0
 40
1.560932
 50
191.031925
 51
208.070038
  0
ARC
  8
0
  6
BYLAYER
 62
     1
 10
946.009763
 20
-592.660287
 30
0.0
 40
3.284040
 50
208.070038
 51
220.471056
  0
ARC
  8
0
  6
BYLAYER
 62
     1
 10
952.067067
 20
-587.724799
 30
0.0
 40
11.096895
 50
219.557208
 51
225.005511
  0
ARC
  8
0
  6
BYLAYER
 62
     1
 10
959.777210
 20
-580.013173
 30
0.0
 40
22.001733
 50
225.005511
 51
233.193203
  0
ARC
  8
0
  6
BYLAYER
 62
     1
 10
1006.330395
 20
-517.799634
 30
0.0
 40
99.704522
 50
233.193203
 51
239.999878
  0
LINE
  8
0
  6
BYLAYER
 62
     1
 10
956.477950
 20
-604.146177
 30
0.0
 11
956.477992
 21
-604.146201
 31
0.0
  0
LINE
  8
0
  6
BYLAYER
 62
     1
 10
981.928328
 20
-613.066507
 30
0.0
 11
958.977950
 21
-599.816068
 31
0.0
  0
LINE
  8
0
  6
BYLAYER
 62
     1
 10
981.928328
 20
-618.840120
 30
0.0
 11
956.477828
 21
-604.146268
 31
0.0
  0
LINE
  8
0
  6
BYLAYER
 62
     1
 10
1134.878887
 20
-707.145987
 30
0.0
 11
1134.878951
 21
-707.146024
 31
0.0
  0
ARC
  8
0
  6
BYLAYER
 62
     1
 10
1184.730721
 20
-620.800340
 30
0.0
 40
99.703442
 50
239.999967
 51
246.806686
  0
ARC
  8
0
  6
BYLAYER
 62
     1
 10
1154.129128
 20
-692.222223
 30
0.0
 40
22.001814
 50
246.806686
 51
254.994380
  0
ARC
  8
0
  6
BYLAYER
 62
     1
 10
1151.305718
 20
-702.755198
 30
0.0
 40
11.096989
 50
254.994380
 51
260.442698
  0
ARC
  8
0
  6
BYLAYER
 62
     1
 10
1150.060093
 20
-710.468763
 30
0.0
 40
3.284089
 50
259.528860
 51
271.929846
  0
ARC
  8
0
  6
BYLAYER
 62
     1
 10
1150.118121
 20
-712.190915
 30
0.0
 40
1.560960
 50
271.929846
 51
288.967972
  0
ARC
  8
0
  6
BYLAYER
 62
     1
 10
1150.489534
 20
-713.272053
 30
0.0
 40
0.417804
 50
288.990832
 51
330.000070
  0
ARC
  8
0
  6
BYLAYER
 62
     1
 10
1150.489533
 20
-713.272053
 30
0.0
 40
0.417804
 50
330.000070
 51
371.009228
  0
ARC
  8
0
  6
BYLAYER
 62
     1
 10
1149.367529
 20
-713.490969
 30
0.0
 40
1.560966
 50
11.032054
 51
28.070124
  0
ARC
  8
0
  6
BYLAYER
 62
     1
 10
1147.847084
 20
-714.301793
 30
0.0
 40
3.284099
 50
28.070124
 51
40.471090
  0
ARC
  8
0
  6
BYLAYER
 62
     1
 10
1141.789735
 20
-719.237325
 30
0.0
 40
11.097017
 50
39.557254
 51
45.005565
  0
ARC
  8
0
  6
BYLAYER
 62
     1
 10
1134.079596
 20
-726.948962
 30
0.0
 40
22.001860
 50
45.005565
 51
53.193249
  0
ARC
  8
0
  6
BYLAYER
 62
     1
 10
1087.527159
 20
-789.161605
 30
0.0
 40
99.703484
 50
53.193249
 51
59.999967
  0
LINE
  8
0
  6
BYLAYER
 62
     1
 10
1137.378951
 20
-702.815885
 30
0.0
 11
1137.378856
 21
-702.815830
 31
0.0
  0
LINE
  8
0
  6
BYLAYER
 62
     1
 10
1116.928328
 20
-691.008777
 30
0.0
 11
1137.378951
 21
-702.815915
 31
0.0
  0
LINE
  8
0
  6
BYLAYER
 62
     1
 10
1116.928328
 20
-696.782400
 30
0.0
 11
1134.878890
 21
-707.146146
 31
0.0
  0
LINE
  8
0
  6
BYLAYER
 62
     1
 10
1137.378650
 20
-604.146209
 30
0.0
 11
1137.378706
 21
-604.146177
 31
0.0
  0
ARC
  8
0
  6
BYLAYER
 62
     1
 10
1087.527568
 20
-517.801277
 30
0.0
 40
99.702446
 50
299.999944
 51
306.806705
  0
ARC
  8
0
  6
BYLAYER
 62
     1
 10
1134.079257
 20
-580.013025
 30
0.0
 40
22.001986
 50
306.806705
 51
314.994381
  0
ARC
  8
0
  6
BYLAYER
 62
     1
 10
1141.789392
 20
-587.724673
 30
0.0
 40
11.097139
 50
314.994381
 51
320.442699
  0
ARC
  8
0
  6
BYLAYER
 62
     1
 10
1147.846786
 20
-592.660250
 30
0.0
 40
3.284158
 50
319.528876
 51
331.929790
  0
ARC
  8
0
  6
BYLAYER
 62
     1
 10
1149.367252
 20
-593.471088
 30
0.0
 40
1.561000
 50
331.929790
 51
348.967817
  0
ARC
  8
0
  6
BYLAYER
 62
     1
 10
1150.489279
 20
-593.690012
 30
0.0
 40
0.417815
 50
348.990623
 51
389.999581
  0
ARC
  8
0
  6
BYLAYER
 62
     1
 10
1150.489297
 20
-593.690007
 30
0.0
 40
0.417797
 50
30.000280
 51
71.009478
  0
ARC
  8
0
  6
BYLAYER
 62
     1
 10
1150.117890
 20
-594.771138
 30
0.0
 40
1.560944
 50
71.032256
 51
88.070262
  0
ARC
  8
0
  6
BYLAYER
 62
     1
 10
1150.059866
 20
-596.493277
 30
0.0
 40
3.284061
 50
88.070262
 51
100.471238
  0
ARC
  8
0
  6
BYLAYER
 62
     1
 10
1151.305502
 20
-604.206828
 30
0.0
 40
11.096948
 50
99.557394
 51
105.005687
  0
ARC
  8
0
  6
BYLAYER
 62
     1
 10
1154.128933
 20
-614.739835
 30
0.0
 40
22.001809
 50
105.005687
 51
113.193358
  0
ARC
  8
0
  6
BYLAYER
 62
     1
 10
1184.730975
 20
-686.162614
 30
0.0
 40
99.704436
 50
113.193358
 51
120.000033
  0
LINE
  8
0
  6
BYLAYER
 62
     1
 10
1134.878706
 20
-599.816068
 30
0.0
 11
1134.878622
 21
-599.816117
 31
0.0
  0
LINE
  8
0
  6
BYLAYER
 62
     1
 10
1111.928328
 20
-618.840120
 30
0.0
 11
1137.378828
 21
-604.146268
 31
0.0
  0
LINE
  8
0
  6
BYLAYER
 62
     1
 10
1111.928328
 20
-613.066489
 30
0.0
 11
1134.878706
 21
-599.816007
 31
0.0
  0
LINE
  8
0
  6
BYLAYER
 62
     1
 10
976.928328
 20
-691.008789
 30
0.0
 11
956.477705
 21
-702.815946
 31
0.0
  0
LINE
  8
0
  6
BYLAYER
 62
     1
 10
976.928328
 20
-696.782400
 30
0.0
 11
958.977766
 21
-707.146146
 31
0.0
  0
LINE
  8
0
  6
BYLAYER
 62
     1
 10
956.477797
 20
-702.815832
 30
0.0
 11
956.477705
 21
-702.815885
 31
0.0
  0
ARC
  8
0
  6
BYLAYER
 62
     1
 10
1006.329497
 20
-789.161605
 30
0.0
 40
99.703484
 50
120.000033
 51
126.806751
  0
ARC
  8
0
  6
BYLAYER
 62
     1
 10
959.777060
 20
-726.948962
 30
0.0
 40
22.001860
 50
126.806751
 51
134.994435
  0
ARC
  8
0
  6
BYLAYER
 62
     1
 10
952.066921
 20
-719.237325
 30
0.0
 40
11.097017
 50
134.994435
 51
140.442746
  0
ARC
  8
0
  6
BYLAYER
 62
     1
 10
946.009572
 20
-714.301793
 30
0.0
 40
3.284099
 50
139.528910
 51
151.929876
  0
ARC
  8
0
  6
BYLAYER
 62
     1
 10
944.489127
 20
-713.490969
 30
0.0
 40
1.560966
 50
151.929876
 51
168.967946
  0
ARC
  8
0
  6
BYLAYER
 62
     1
 10
943.367123
 20
-713.272053
 30
0.0
 40
0.417804
 50
168.990772
 51
209.999930
  0
ARC
  8
0
  6
BYLAYER
 62
     1
 10
943.367122
 20
-713.272053
 30
0.0
 40
0.417804
 50
209.999930
 51
251.009168
  0
ARC
  8
0
  6
BYLAYER
 62
     1
 10
943.738535
 20
-712.190915
 30
0.0
 40
1.560960
 50
251.032028
 51
268.070154
  0
ARC
  8
0
  6
BYLAYER
 62
     1
 10
943.796563
 20
-710.468763
 30
0.0
 40
3.284089
 50
268.070154
 51
280.471140
  0
ARC
  8
0
  6
BYLAYER
 62
     1
 10
942.550938
 20
-702.755198
 30
0.0
 40
11.096989
 50
279.557302
 51
285.005620
  0
ARC
  8
0
  6
BYLAYER
 62
     1
 10
939.727528
 20
-692.222223
 30
0.0
 40
22.001814
 50
285.005620
 51
293.193314
  0
ARC
  8
0
  6
BYLAYER
 62
     1
 10
909.125935
 20
-620.800340
 30
0.0
 40
99.703442
 50
293.193314
 51
300.000033
  0
LINE
  8
0
  6
BYLAYER
 62
     1
 10
958.977705
 20
-707.146024
 30
0.0
 11
958.977769
 21
-707.145987
 31
0.0
  0
LINE
  8
0
  6
BYLAYER
 62
     1
 10
1044.428572
 20
-588.214082
 30
0.0
 11
1044.428572
 21
-588.214139
 31
0.0
  0
ARC
  8
0
  6
BYLAYER
 62
     1
 10
1144.132407
 20
-588.214139
 30
0.0
 40
99.703834
 50
180.000000
 51
186.806706
  0
ARC
  8
0
  6
BYLAYER
 62
     1
 10
1066.978079
 20
-597.423395
 30
0.0
 40
22.001835
 50
186.806706
 51
194.994394
  0
ARC
  8
0
  6
BYLAYER
 62
     1
 10
1056.444529
 20
-600.244746
 30
0.0
 40
11.096988
 50
194.994394
 51
200.442704
  0
ARC
  8
0
  6
BYLAYER
 62
     1
 10
1049.141569
 20
-603.022788
 30
0.0
 40
3.284084
 50
199.528864
 51
211.929848
  0
ARC
  8
0
  6
BYLAYER
 62
     1
 10
1047.679158
 20
-603.934116
 30
0.0
 40
1.560957
 50
211.929848
 51
228.967938
  0
ARC
  8
0
  6
BYLAYER
 62
     1
 10
1046.928572
 20
-604.796337
 30
0.0
 40
0.417802
 50
228.990774
 51
270.000000
  0
ARC
  8
0
  6
BYLAYER
 62
     1
 10
1046.928572
 20
-604.796337
 30
0.0
 40
0.417802
 50
270.0
 51
311.009226
  0
ARC
  8
0
  6
BYLAYER
 62
     1
 10
1046.177987
 20
-603.934116
 30
0.0
 40
1.560957
 50
311.032062
 51
328.070152
  0
ARC
  8
0
  6
BYLAYER
 62
     1
 10
1044.715575
 20
-603.022788
 30
0.0
 40
3.284084
 50
328.070152
 51
340.471136
  0
ARC
  8
0
  6
BYLAYER
 62
     1
 10
1037.412615
 20
-600.244746
 30
0.0
 40
11.096988
 50
339.557296
 51
345.005606
  0
ARC
  8
0
  6
BYLAYER
 62
     1
 10
1026.879066
 20
-597.423395
 30
0.0
 40
22.001835
 50
345.005606
 51
353.193294
  0
ARC
  8
0
  6
BYLAYER
 62
     1
 10
949.724738
 20
-588.214139
 30
0.0
 40
99.703834
 50
353.193294
 51
360.000000
  0
LINE
  8
0
  6
BYLAYER
 62
     1
 10
1049.428572
 20
-588.214139
 30
0.0
 11
1049.428572
 21
-588.214018
 31
0.0
  0
LINE
  8
0
  6
BYLAYER
 62
     2
 10
1133.649703
 20
-726.626172
 30
0.0
 11
1130.780684
 21
-737.333570
 31
0.0
  0
LINE
  8
0
  6
BYLAYER
 62
     2
 10
1130.780684
 20
-737.333570
 30
0.0
 11
1120.073286
 21
-740.202619
 31
0.0
  0
LINE
  8
0
  6
BYLAYER
 62
     2
 10
1120.073286
 20
-740.202619
 30
0.0
 11
1116.928328
 21
-737.057660
 31
0.0
  0
LINE
  8
0
  6
BYLAYER
 62
     2
 10
1116.928328
 20
-721.167971
 30
0.0
 11
1125.811324
 21
-718.787809
 31
0.0
  0
LINE
  8
0
  6
BYLAYER
 62
     2
 10
1125.811324
 20
-718.787809
 30
0.0
 11
1133.649703
 21
-726.626172
 31
0.0
  0
LINE
  8
0
  6
BYLAYER
 62
     2
 10
1133.649703
 20
-580.336271
 30
0.0
 11
1130.780684
 21
-569.628934
 31
0.0
  0
LINE
  8
0
  6
BYLAYER
 62
     2
 10
1130.780684
 20
-569.628934
 30
0.0
 11
1120.073286
 21
-566.759854
 31
0.0
  0
LINE
  8
0
  6
BYLAYER
 62
     2
 10
1120.073286
 20
-566.759854
 30
0.0
 11
1112.234969
 21
-574.598172
 31
0.0
  0
LINE
  8
0
  6
BYLAYER
 62
     2
 10
1112.234969
 20
-574.598172
 30
0.0
 11
1115.103926
 21
-585.305692
 31
0.0
  0
LINE
  8
0
  6
BYLAYER
 62
     2
 10
1115.103926
 20
-585.305692
 30
0.0
 11
1125.811324
 21
-588.174710
 31
0.0
  0
LINE
  8
0
  6
BYLAYER
 62
     2
 10
1125.811324
 20
-588.174710
 30
0.0
 11
1133.649703
 21
-580.336271
 31
0.0
  0
LINE
  8
0
  6
BYLAYER
 62
     2
 10
960.206953
 20
-726.626172
 30
0.0
 11
963.075972
 21
-737.333570
 31
0.0
  0
LINE
  8
0
  6
BYLAYER
 62
     2
 10
963.075972
 20
-737.333570
 30
0.0
 11
973.783308
 21
-740.202619
 31
0.0
  0
LINE
  8
0
  6
BYLAYER
 62
     2
 10
973.783308
 20
-740.202619
 30
0.0
 11
976.928328
 21
-737.057611
 31
0.0
  0
LINE
  8
0
  6
BYLAYER
 62
     2
 10
976.928328
 20
-721.167957
 30
0.0
 11
968.045332
 21
-718.787809
 31
0.0
  0
LINE
  8
0
  6
BYLAYER
 62
     2
 10
968.045332
 20
-718.787809
 30
0.0
 11
960.206953
 21
-726.626172
 31
0.0
  0
LINE
  8
0
  6
BYLAYER
 62
     2
 10
960.207076
 20
-580.336332
 30
0.0
 11
963.076094
 21
-569.628873
 31
0.0
  0
LINE
  8
0
  6
BYLAYER
 62
     2
 10
963.076094
 20
-569.628873
 30
0.0
 11
973.783431
 21
-566.759854
 31
0.0
  0
LINE
  8
0
  6
BYLAYER
 62
     2
 10
973.783431
 20
-566.759854
 30
0.0
 11
981.621687
 21
-574.598172
 31
0.0
  0
LINE
  8
0
  6
BYLAYER
 62
     2
 10
981.621687
 20
-574.598172
 30
0.0
 11
978.752669
 21
-585.305570
 31
0.0
  0
LINE
  8
0
  6
BYLAYER
 62
     2
 10
978.752669
 20
-585.305570
 30
0.0
 11
968.045332
 21
-588.174710
 31
0.0
  0
LINE
  8
0
  6
BYLAYER
 62
     2
 10
968.045332
 20
-588.174710
 30
0.0
 11
960.207076
 21
-580.336332
 31
0.0
  0
LINE
  8
0
  6
BYLAYER
 62
     1
 10
401.928328
 20
-743.481229
 30
0.0
 11
401.928758
 21
-790.981229
 31
0.0
  0
ARC
  8
0
  6
BYLAYER
 62
     1
 10
416.428819
 20
-865.954404
 30
0.0
 40
2.0
 50
180.000000
 51
266.999903
  0
LINE
  8
0
  6
BYLAYER
 62
     1
 10
414.428819
 20
-865.954404
 30
0.0
 11
414.428819
 21
-743.481229
 31
0.0
  0
ARC
  8
0
  6
BYLAYER
 62
     1
 10
412.428758
 20
-829.255552
 30
0.0
 40
2.000061
 50
0.0
 51
15.000024
  0
LINE
  8
0
  6
BYLAYER
 62
     1
 10
401.928758
 20
-790.981229
 30
0.0
 11
402.709031
 21
-790.981839
 31
0.0
  0
LINE
  8
0
  6
BYLAYER
 62
     1
 10
404.640916
 20
-792.463529
 30
0.0
 11
414.360703
 21
-828.737912
 31
0.0
  0
ARC
  8
0
  6
BYLAYER
 62
     1
 10
402.709031
 20
-792.981168
 30
0.0
 40
1.999329
 50
15.000031
 51
90.000003
  0
LINE
  8
0
  6
BYLAYER
 62
     1
 10
404.352280
 20
-791.842252
 30
0.0
 11
414.428819
 21
-848.030149
 31
0.0
  0
LINE
  8
0
  6
BYLAYER
 62
     1
 10
416.324082
 20
-867.951657
 30
0.0
 11
426.428819
 21
-868.481245
 31
0.0
  0
LINE
  8
0
  6
BYLAYER
 62
     1
 10
426.428819
 20
-868.481245
 30
0.0
 11
426.428819
 21
-743.481137
 31
0.0
  0
LINE
  8
0
  6
BYLAYER
 62
     1
 10
404.640916
 20
-792.463529
 30
0.0
 11
404.640916
 21
-743.481229
 31
0.0
  0
LINE
  8
0
  6
BYLAYER
 62
     1
 10
401.928328
 20
-743.481229
 30
0.0
 11
401.928758
 21
-695.981229
 31
0.0
  0
ARC
  8
0
  6
BYLAYER
 62
     1
 10
416.428819
 20
-621.008054
 30
0.0
 40
2.0
 50
93.000092
 51
179.999995
  0
LINE
  8
0
  6
BYLAYER
 62
     1
 10
414.428819
 20
-621.008054
 30
0.0
 11
414.428819
 21
-743.481229
 31
0.0
  0
ARC
  8
0
  6
BYLAYER
 62
     1
 10
412.428758
 20
-657.706906
 30
0.0
 40
2.000061
 50
344.999976
 51
360.000000
  0
LINE
  8
0
  6
BYLAYER
 62
     1
 10
401.928758
 20
-695.981229
 30
0.0
 11
402.709031
 21
-695.980619
 31
0.0
  0
LINE
  8
0
  6
BYLAYER
 62
     1
 10
404.640916
 20
-694.498929
 30
0.0
 11
414.360703
 21
-658.224546
 31
0.0
  0
ARC
  8
0
  6
BYLAYER
 62
     1
 10
402.709031
 20
-693.981290
 30
0.0
 40
1.999329
 50
270.0
 51
344.999971
  0
LINE
  8
0
  6
BYLAYER
 62
     1
 10
404.352280
 20
-695.120206
 30
0.0
 11
414.428819
 21
-638.932309
 31
0.0
  0
LINE
  8
0
  6
BYLAYER
 62
     1
 10
416.324082
 20
-619.010801
 30
0.0
 11
426.428819
 21
-618.481213
 31
0.0
  0
LINE
  8
0
  6
BYLAYER
 62
     1
 10
426.428819
 20
-618.481213
 30
0.0
 11
426.428819
 21
-743.481321
 31
0.0
  0
LINE
  8
0
  6
BYLAYER
 62
     1
 10
404.640916
 20
-694.498929
 30
0.0
 11
404.640916
 21
-743.481229
 31
0.0
  0
ENDSEC
  0
EOF
