  0
SECTION
  2
HEADER
  9
$EXTMIN
 10
118.068259
 20
706.0
 30
0.0
  9
$EXTMAX
 10
990.327645
 20
0.0
 30
0.0
  0
ENDSEC
  0
SECTION
  2
TABLES
  0
ENDSEC
  0
SECTION
  2
BLOCKS
  0
ENDSEC
  0
SECTION
  2
ENTITIES
  0
LINE
  8
0
  6
BYLAYER
 62
     7
 10
354.221843
 20
-201.857509
 30
0.0
 11
354.221843
 21
-214.107509
 31
0.0
  0
LINE
  8
0
  6
BYLAYER
 62
     7
 10
356.721843
 20
-201.857509
 30
0.0
 11
354.221843
 21
-201.857509
 31
0.0
  0
LINE
  8
0
  6
BYLAYER
 62
     7
 10
354.221843
 20
-214.107509
 30
0.0
 11
331.721843
 21
-214.500248
 31
0.0
  0
LINE
  8
0
  6
BYLAYER
 62
     7
 10
331.721843
 20
-228.607509
 30
0.0
 11
319.721843
 21
-228.607509
 31
0.0
  0
LINE
  8
0
  6
BYLAYER
 62
     7
 10
331.721843
 20
-28.607509
 30
0.0
 11
319.721843
 21
-28.607509
 31
0.0
  0
LINE
  8
0
  6
BYLAYER
 62
     7
 10
331.721843
 20
-28.607509
 30
0.0
 11
331.721843
 21
-128.607509
 31
0.0
  0
ARC
  8
0
  6
BYLAYER
 62
     7
 10
332.721843
 20
-55.124812
 30
0.0
 40
1.0
 50
180.000000
 51
269.000000
  0
LINE
  8
0
  6
BYLAYER
 62
     7
 10
331.721843
 20
-128.607509
 30
0.0
 11
331.721843
 21
-228.607509
 31
0.0
  0
LINE
  8
0
  6
BYLAYER
 62
     7
 10
332.704391
 20
-56.124659
 30
0.0
 11
356.721843
 21
-56.543886
 31
0.0
  0
LINE
  8
0
  6
BYLAYER
 62
     7
 10
356.721843
 20
-56.543886
 30
0.0
 11
356.721843
 21
-201.857509
 31
0.0
  0
LINE
  8
0
  6
BYLAYER
 62
     7
 10
319.721843
 20
-128.607509
 30
0.0
 11
319.721843
 21
-228.607509
 31
0.0
  0
LINE
  8
0
  6
BYLAYER
 62
     7
 10
319.721843
 20
-28.607509
 30
0.0
 11
319.721843
 21
-128.607509
 31
0.0
  0
LINE
  8
0
  6
BYLAYER
 62
     7
 10
436.221812
 20
-122.207470
 30
0.0
 11
361.021800
 21
-122.207470
 31
0.0
  0
LINE
  8
0
  6
BYLAYER
 62
     7
 10
436.221812
 20
-123.807476
 30
0.0
 11
361.021800
 21
-123.807476
 31
0.0
  0
ARC
  8
0
  6
BYLAYER
 62
     7
 10
365.021800
 20
-78.207470
 30
0.0
 40
0.799927
 50
90.0
 51
270.000012
  0
ARC
  8
0
  6
BYLAYER
 62
     7
 10
361.021800
 20
-123.007458
 30
0.0
 40
0.800018
 50
90.0
 51
270.000012
  0
ARC
  8
0
  6
BYLAYER
 62
     7
 10
365.021800
 20
-123.007458
 30
0.0
 40
0.800018
 50
90.0
 51
270.000012
  0
ARC
  8
0
  6
BYLAYER
 62
     7
 10
361.021800
 20
-111.807476
 30
0.0
 40
0.799988
 50
90.0
 51
270.000012
  0
ARC
  8
0
  6
BYLAYER
 62
     7
 10
365.021800
 20
-111.807476
 30
0.0
 40
0.799988
 50
90.0
 51
270.000012
  0
ARC
  8
0
  6
BYLAYER
 62
     7
 10
361.021800
 20
-100.607495
 30
0.0
 40
0.799927
 50
90.0
 51
270.000012
  0
ARC
  8
0
  6
BYLAYER
 62
     7
 10
365.021800
 20
-100.607495
 30
0.0
 40
0.799927
 50
90.0
 51
270.000012
  0
LINE
  8
0
  6
BYLAYER
 62
     7
 10
436.221812
 20
-99.807446
 30
0.0
 11
361.021800
 21
-99.807446
 31
0.0
  0
LINE
  8
0
  6
BYLAYER
 62
     7
 10
436.221812
 20
-101.407421
 30
0.0
 11
361.021800
 21
-101.407421
 31
0.0
  0
ARC
  8
0
  6
BYLAYER
 62
     7
 10
361.021800
 20
-89.407421
 30
0.0
 40
0.800049
 50
90.0
 51
270.000012
  0
ARC
  8
0
  6
BYLAYER
 62
     7
 10
365.021800
 20
-89.407421
 30
0.0
 40
0.800049
 50
90.0
 51
270.000012
  0
LINE
  8
0
  6
BYLAYER
 62
     7
 10
436.221812
 20
-88.607495
 30
0.0
 11
361.021800
 21
-88.607495
 31
0.0
  0
LINE
  8
0
  6
BYLAYER
 62
     7
 10
436.221812
 20
-90.207470
 30
0.0
 11
361.021800
 21
-90.207470
 31
0.0
  0
ARC
  8
0
  6
BYLAYER
 62
     7
 10
361.021800
 20
-78.207470
 30
0.0
 40
0.799927
 50
90.0
 51
270.000012
  0
LINE
  8
0
  6
BYLAYER
 62
     7
 10
436.221812
 20
-77.407421
 30
0.0
 11
361.021800
 21
-77.407421
 31
0.0
  0
LINE
  8
0
  6
BYLAYER
 62
     7
 10
436.221812
 20
-79.007397
 30
0.0
 11
361.021800
 21
-79.007397
 31
0.0
  0
LINE
  8
0
  6
BYLAYER
 62
     7
 10
360.221812
 20
-32.607464
 30
0.0
 11
458.221873
 21
-32.607464
 31
0.0
  0
LINE
  8
0
  6
BYLAYER
 62
     7
 10
458.221873
 20
-32.607464
 30
0.0
 11
458.221873
 21
-77.407421
 31
0.0
  0
LINE
  8
0
  6
BYLAYER
 62
     7
 10
360.221812
 20
-55.857495
 30
0.0
 11
356.721812
 21
-55.857495
 31
0.0
  0
ARC
  8
0
  6
BYLAYER
 62
     7
 10
389.721812
 20
-46.607464
 30
0.0
 40
13.000000
 50
180.000019
 51
360.000018
  0
ARC
  8
0
  6
BYLAYER
 62
     7
 10
428.721812
 20
-46.607464
 30
0.0
 40
12.999985
 50
180.000019
 51
360.000018
  0
LINE
  8
0
  6
BYLAYER
 62
     7
 10
365.721812
 20
-79.007397
 30
0.0
 11
365.721812
 21
-88.607495
 31
0.0
  0
LINE
  8
0
  6
BYLAYER
 62
     7
 10
365.721812
 20
-90.207470
 30
0.0
 11
365.721812
 21
-99.807446
 31
0.0
  0
LINE
  8
0
  6
BYLAYER
 62
     7
 10
365.721812
 20
-101.407421
 30
0.0
 11
365.721812
 21
-111.007458
 31
0.0
  0
LINE
  8
0
  6
BYLAYER
 62
     7
 10
365.721812
 20
-112.607464
 30
0.0
 11
365.721812
 21
-122.207470
 31
0.0
  0
LINE
  8
0
  6
BYLAYER
 62
     7
 10
365.721812
 20
-123.807476
 30
0.0
 11
365.721873
 21
-133.407452
 31
0.0
  0
LINE
  8
0
  6
BYLAYER
 62
     7
 10
360.221812
 20
-38.107464
 30
0.0
 11
374.721812
 21
-38.107464
 31
0.0
  0
LINE
  8
0
  6
BYLAYER
 62
     7
 10
376.721812
 20
-46.607464
 30
0.0
 11
376.721812
 21
-40.107464
 31
0.0
  0
ARC
  8
0
  6
BYLAYER
 62
     7
 10
374.721812
 20
-40.107464
 30
0.0
 40
2.000000
 50
0.0
 51
90.000003
  0
LINE
  8
0
  6
BYLAYER
 62
     7
 10
402.721812
 20
-46.607464
 30
0.0
 11
402.721812
 21
-40.107464
 31
0.0
  0
ARC
  8
0
  6
BYLAYER
 62
     7
 10
404.721812
 20
-40.107464
 30
0.0
 40
2.0
 50
90.0
 51
180.000003
  0
LINE
  8
0
  6
BYLAYER
 62
     7
 10
404.721812
 20
-38.107464
 30
0.0
 11
413.721812
 21
-38.107464
 31
0.0
  0
LINE
  8
0
  6
BYLAYER
 62
     7
 10
415.721812
 20
-46.607464
 30
0.0
 11
415.721812
 21
-40.107464
 31
0.0
  0
ARC
  8
0
  6
BYLAYER
 62
     7
 10
413.721812
 20
-40.107464
 30
0.0
 40
2.0
 50
0.0
 51
90.000003
  0
LINE
  8
0
  6
BYLAYER
 62
     7
 10
441.721812
 20
-46.607464
 30
0.0
 11
441.721812
 21
-40.107464
 31
0.0
  0
LINE
  8
0
  6
BYLAYER
 62
     7
 10
443.721873
 20
-38.107464
 30
0.0
 11
458.221873
 21
-38.107464
 31
0.0
  0
ARC
  8
0
  6
BYLAYER
 62
     7
 10
443.721873
 20
-40.107464
 30
0.0
 40
2.000061
 50
90.0
 51
180.000003
  0
LINE
  8
0
  6
BYLAYER
 62
     7
 10
360.221812
 20
-44.107464
 30
0.0
 11
376.721812
 21
-44.107464
 31
0.0
  0
LINE
  8
0
  6
BYLAYER
 62
     7
 10
402.721812
 20
-44.107464
 30
0.0
 11
415.721812
 21
-44.107464
 31
0.0
  0
LINE
  8
0
  6
BYLAYER
 62
     7
 10
441.721812
 20
-44.107464
 30
0.0
 11
458.221873
 21
-44.107464
 31
0.0
  0
LINE
  8
0
  6
BYLAYER
 62
     7
 10
436.221812
 20
-133.407482
 30
0.0
 11
361.021800
 21
-133.407482
 31
0.0
  0
LINE
  8
0
  6
BYLAYER
 62
     7
 10
436.221812
 20
-135.007488
 30
0.0
 11
361.021800
 21
-135.007488
 31
0.0
  0
ARC
  8
0
  6
BYLAYER
 62
     7
 10
361.021800
 20
-134.207470
 30
0.0
 40
0.800018
 50
90.0
 51
270.000012
  0
ARC
  8
0
  6
BYLAYER
 62
     7
 10
365.021800
 20
-134.207470
 30
0.0
 40
0.800018
 50
90.0
 51
270.000012
  0
LINE
  8
0
  6
BYLAYER
 62
     7
 10
436.221812
 20
-144.607464
 30
0.0
 11
361.021800
 21
-144.607464
 31
0.0
  0
LINE
  8
0
  6
BYLAYER
 62
     7
 10
436.221812
 20
-146.207470
 30
0.0
 11
361.021800
 21
-146.207470
 31
0.0
  0
ARC
  8
0
  6
BYLAYER
 62
     7
 10
361.021800
 20
-145.407452
 30
0.0
 40
0.800018
 50
90.0
 51
270.000012
  0
ARC
  8
0
  6
BYLAYER
 62
     7
 10
365.021800
 20
-145.407452
 30
0.0
 40
0.800018
 50
90.0
 51
270.000012
  0
LINE
  8
0
  6
BYLAYER
 62
     7
 10
436.221812
 20
-155.807476
 30
0.0
 11
361.021800
 21
-155.807476
 31
0.0
  0
LINE
  8
0
  6
BYLAYER
 62
     7
 10
436.221812
 20
-157.407482
 30
0.0
 11
361.021800
 21
-157.407482
 31
0.0
  0
ARC
  8
0
  6
BYLAYER
 62
     7
 10
361.021800
 20
-156.607464
 30
0.0
 40
0.800018
 50
90.0
 51
270.000012
  0
ARC
  8
0
  6
BYLAYER
 62
     7
 10
365.021800
 20
-156.607464
 30
0.0
 40
0.800018
 50
90.0
 51
270.000012
  0
LINE
  8
0
  6
BYLAYER
 62
     7
 10
436.221812
 20
-167.007458
 30
0.0
 11
361.021800
 21
-167.007458
 31
0.0
  0
LINE
  8
0
  6
BYLAYER
 62
     7
 10
436.221812
 20
-168.607464
 30
0.0
 11
361.021800
 21
-168.607464
 31
0.0
  0
ARC
  8
0
  6
BYLAYER
 62
     7
 10
361.021800
 20
-167.807446
 30
0.0
 40
0.800018
 50
90.0
 51
270.000012
  0
ARC
  8
0
  6
BYLAYER
 62
     7
 10
365.021800
 20
-167.807446
 30
0.0
 40
0.800018
 50
90.0
 51
270.000012
  0
LINE
  8
0
  6
BYLAYER
 62
     7
 10
436.221812
 20
-178.207470
 30
0.0
 11
361.021800
 21
-178.207470
 31
0.0
  0
ARC
  8
0
  6
BYLAYER
 62
     7
 10
361.021800
 20
-179.007458
 30
0.0
 40
0.800018
 50
90.0
 51
270.000012
  0
ARC
  8
0
  6
BYLAYER
 62
     7
 10
365.021800
 20
-179.007458
 30
0.0
 40
0.800018
 50
90.0
 51
270.000012
  0
LINE
  8
0
  6
BYLAYER
 62
     7
 10
360.221812
 20
-32.607464
 30
0.0
 11
360.221873
 21
-201.357464
 31
0.0
  0
LINE
  8
0
  6
BYLAYER
 62
     7
 10
436.221812
 20
-155.807476
 30
0.0
 11
502.756845
 21
-155.807430
 31
0.0
  0
LINE
  8
0
  6
BYLAYER
 62
     7
 10
436.221812
 20
-157.407482
 30
0.0
 11
502.756845
 21
-157.407436
 31
0.0
  0
LINE
  8
0
  6
BYLAYER
 62
     7
 10
365.721812
 20
-135.007458
 30
0.0
 11
365.721873
 21
-144.607464
 31
0.0
  0
LINE
  8
0
  6
BYLAYER
 62
     7
 10
365.721812
 20
-146.207470
 30
0.0
 11
365.721873
 21
-155.807446
 31
0.0
  0
LINE
  8
0
  6
BYLAYER
 62
     7
 10
365.721812
 20
-157.407482
 30
0.0
 11
365.721873
 21
-167.007458
 31
0.0
  0
LINE
  8
0
  6
BYLAYER
 62
     7
 10
365.721812
 20
-168.607464
 30
0.0
 11
365.721873
 21
-178.207440
 31
0.0
  0
ARC
  8
0
  6
BYLAYER
 62
     7
 10
396.221812
 20
-111.807476
 30
0.0
 40
3.000015
 50
13.212986
 51
166.787045
  0
ARC
  8
0
  6
BYLAYER
 62
     7
 10
451.221873
 20
-111.807446
 30
0.0
 40
3.000015
 50
13.213048
 51
166.786990
  0
ARC
  8
0
  6
BYLAYER
 62
     7
 10
451.221873
 20
-111.807446
 30
0.0
 40
3.000008
 50
193.212979
 51
346.787064
  0
ARC
  8
0
  6
BYLAYER
 62
     7
 10
396.221812
 20
-111.807476
 30
0.0
 40
3.000008
 50
193.212979
 51
346.787064
  0
LINE
  8
0
  6
BYLAYER
 62
     7
 10
448.330516
 20
-111.007427
 30
0.0
 11
423.721812
 21
-111.007458
 31
0.0
  0
LINE
  8
0
  6
BYLAYER
 62
     7
 10
448.330516
 20
-112.607433
 30
0.0
 11
423.721812
 21
-112.607464
 31
0.0
  0
LINE
  8
0
  6
BYLAYER
 62
     7
 10
361.021800
 20
-111.007458
 30
0.0
 11
393.330455
 21
-111.007458
 31
0.0
  0
LINE
  8
0
  6
BYLAYER
 62
     7
 10
361.021800
 20
-112.607464
 30
0.0
 11
393.330455
 21
-112.607464
 31
0.0
  0
LINE
  8
0
  6
BYLAYER
 62
     7
 10
423.721812
 20
-111.007458
 30
0.0
 11
399.113200
 21
-111.007458
 31
0.0
  0
LINE
  8
0
  6
BYLAYER
 62
     7
 10
399.113200
 20
-112.607464
 30
0.0
 11
423.721812
 21
-112.607464
 31
0.0
  0
LINE
  8
0
  6
BYLAYER
 62
     7
 10
365.721873
 20
-181.548687
 30
0.0
 11
360.221873
 21
-184.388256
 31
0.0
  0
LINE
  8
0
  6
BYLAYER
 62
     7
 10
360.221873
 20
-184.388256
 30
0.0
 11
363.723887
 21
-193.321301
 31
0.0
  0
ARC
  8
0
  6
BYLAYER
 62
     7
 10
365.585917
 20
-192.591320
 30
0.0
 40
2.000007
 50
201.406501
 51
270.000001
  0
LINE
  8
0
  6
BYLAYER
 62
     7
 10
360.221873
 20
-201.357495
 30
0.0
 11
356.721873
 21
-201.357495
 31
0.0
  0
LINE
  8
0
  6
BYLAYER
 62
     7
 10
360.221873
 20
-189.057598
 30
0.0
 11
363.815043
 21
-201.999157
 31
0.0
  0
ARC
  8
0
  6
BYLAYER
 62
     7
 10
365.742137
 20
-201.464092
 30
0.0
 40
2.000010
 50
195.517184
 51
270.000001
  0
LINE
  8
0
  6
BYLAYER
 62
     7
 10
360.221873
 20
-195.226391
 30
0.0
 11
363.789561
 21
-206.916760
 31
0.0
  0
ARC
  8
0
  6
BYLAYER
 62
     7
 10
365.702464
 20
-206.332989
 30
0.0
 40
1.999996
 50
196.971318
 51
270.000001
  0
LINE
  8
0
  6
BYLAYER
 62
     7
 10
360.221873
 20
-199.094219
 30
0.0
 11
363.773081
 21
-210.037365
 31
0.0
  0
ARC
  8
0
  6
BYLAYER
 62
     7
 10
365.675425
 20
-209.420025
 30
0.0
 40
2.000005
 50
197.979057
 51
270.000001
  0
ARC
  8
0
  6
BYLAYER
 62
     7
 10
365.111216
 20
-210.921154
 30
0.0
 40
2.000005
 50
197.979057
 51
270.000001
  0
LINE
  8
0
  6
BYLAYER
 62
     7
 10
363.208873
 20
-211.538494
 30
0.0
 11
359.904978
 21
-201.357495
 31
0.0
  0
LINE
  8
0
  6
BYLAYER
 62
     7
 10
458.221873
 20
-57.052380
 30
0.0
 11
502.756845
 21
-57.052380
 31
0.0
  0
LINE
  8
0
  6
BYLAYER
 62
     7
 10
458.221873
 20
-47.595318
 30
0.0
 11
502.756845
 21
-47.595318
 31
0.0
  0
LINE
  8
0
  6
BYLAYER
 62
     7
 10
458.221873
 20
-49.096478
 30
0.0
 11
502.756845
 21
-49.096478
 31
0.0
  0
LINE
  8
0
  6
BYLAYER
 62
     7
 10
356.721873
 20
-201.357495
 30
0.0
 11
356.721812
 21
-55.857493
 31
0.0
  0
LINE
  8
0
  6
BYLAYER
 62
     7
 10
458.221873
 20
-52.183483
 30
0.0
 11
502.756845
 21
-52.183483
 31
0.0
  0
LINE
  8
0
  6
BYLAYER
 62
     7
 10
436.221812
 20
-77.407421
 30
0.0
 11
502.756845
 21
-77.407421
 31
0.0
  0
LINE
  8
0
  6
BYLAYER
 62
     7
 10
436.221812
 20
-79.007397
 30
0.0
 11
502.756845
 21
-79.007397
 31
0.0
  0
LINE
  8
0
  6
BYLAYER
 62
     7
 10
436.221812
 20
-88.607495
 30
0.0
 11
502.756845
 21
-88.607332
 31
0.0
  0
LINE
  8
0
  6
BYLAYER
 62
     7
 10
436.221812
 20
-90.207470
 30
0.0
 11
502.756845
 21
-90.207470
 31
0.0
  0
LINE
  8
0
  6
BYLAYER
 62
     7
 10
436.221812
 20
-99.807446
 30
0.0
 11
502.756845
 21
-99.807446
 31
0.0
  0
LINE
  8
0
  6
BYLAYER
 62
     7
 10
436.221812
 20
-101.407421
 30
0.0
 11
502.756845
 21
-101.407421
 31
0.0
  0
LINE
  8
0
  6
BYLAYER
 62
     7
 10
454.113230
 20
-111.007427
 30
0.0
 11
502.756845
 21
-111.007427
 31
0.0
  0
LINE
  8
0
  6
BYLAYER
 62
     7
 10
454.113230
 20
-112.607433
 30
0.0
 11
502.756845
 21
-112.607433
 31
0.0
  0
LINE
  8
0
  6
BYLAYER
 62
     7
 10
436.221812
 20
-122.207470
 30
0.0
 11
502.756845
 21
-122.207430
 31
0.0
  0
LINE
  8
0
  6
BYLAYER
 62
     7
 10
436.221812
 20
-123.807476
 30
0.0
 11
502.756845
 21
-123.807436
 31
0.0
  0
LINE
  8
0
  6
BYLAYER
 62
     7
 10
436.221812
 20
-133.407482
 30
0.0
 11
502.756845
 21
-133.407442
 31
0.0
  0
LINE
  8
0
  6
BYLAYER
 62
     7
 10
436.221812
 20
-135.007488
 30
0.0
 11
502.756845
 21
-135.007448
 31
0.0
  0
LINE
  8
0
  6
BYLAYER
 62
     7
 10
436.221812
 20
-144.607464
 30
0.0
 11
502.756845
 21
-144.607423
 31
0.0
  0
LINE
  8
0
  6
BYLAYER
 62
     7
 10
436.221812
 20
-146.207470
 30
0.0
 11
502.756845
 21
-146.207430
 31
0.0
  0
LINE
  8
0
  6
BYLAYER
 62
     7
 10
436.221812
 20
-167.007458
 30
0.0
 11
502.756845
 21
-167.007417
 31
0.0
  0
LINE
  8
0
  6
BYLAYER
 62
     7
 10
436.221812
 20
-168.607464
 30
0.0
 11
502.756845
 21
-168.607423
 31
0.0
  0
LINE
  8
0
  6
BYLAYER
 62
     7
 10
436.221812
 20
-178.207470
 30
0.0
 11
502.756845
 21
-178.207430
 31
0.0
  0
LINE
  8
0
  6
BYLAYER
 62
     7
 10
361.021800
 20
-179.807446
 30
0.0
 11
502.756845
 21
-179.807446
 31
0.0
  0
LINE
  8
0
  6
BYLAYER
 62
     7
 10
365.721873
 20
-181.548687
 30
0.0
 11
502.756845
 21
-181.548687
 31
0.0
  0
LINE
  8
0
  6
BYLAYER
 62
     7
 10
365.585917
 20
-194.591320
 30
0.0
 11
502.756845
 21
-194.591320
 31
0.0
  0
LINE
  8
0
  6
BYLAYER
 62
     7
 10
365.742137
 20
-203.464092
 30
0.0
 11
502.756845
 21
-203.464092
 31
0.0
  0
LINE
  8
0
  6
BYLAYER
 62
     7
 10
365.702464
 20
-208.332989
 30
0.0
 11
502.756845
 21
-208.332989
 31
0.0
  0
LINE
  8
0
  6
BYLAYER
 62
     7
 10
365.675425
 20
-211.420025
 30
0.0
 11
502.756845
 21
-211.420025
 31
0.0
  0
LINE
  8
0
  6
BYLAYER
 62
     7
 10
365.111216
 20
-212.921154
 30
0.0
 11
502.756845
 21
-212.921154
 31
0.0
  0
LINE
  8
0
  6
BYLAYER
 62
     7
 10
502.756845
 20
-215.157464
 30
0.0
 11
502.756845
 21
-128.607509
 31
0.0
  0
LINE
  8
0
  6
BYLAYER
 62
     7
 10
592.756845
 20
-128.607509
 30
0.0
 11
592.756845
 21
-200.607464
 31
0.0
  0
LINE
  8
0
  6
BYLAYER
 62
     7
 10
592.756845
 20
-200.607464
 30
0.0
 11
578.206845
 21
-215.157464
 31
0.0
  0
LINE
  8
0
  6
BYLAYER
 62
     7
 10
578.206845
 20
-215.157464
 30
0.0
 11
502.756845
 21
-215.157464
 31
0.0
  0
LINE
  8
0
  6
BYLAYER
 62
     7
 10
502.756845
 20
-42.057554
 30
0.0
 11
502.756845
 21
-128.607509
 31
0.0
  0
LINE
  8
0
  6
BYLAYER
 62
     7
 10
592.756845
 20
-128.607509
 30
0.0
 11
592.756845
 21
-56.607554
 31
0.0
  0
LINE
  8
0
  6
BYLAYER
 62
     7
 10
592.756845
 20
-56.607554
 30
0.0
 11
578.206845
 21
-42.057554
 31
0.0
  0
LINE
  8
0
  6
BYLAYER
 62
     7
 10
578.206845
 20
-42.057554
 30
0.0
 11
502.756845
 21
-42.057554
 31
0.0
  0
LINE
  8
0
  6
BYLAYER
 62
     7
 10
452.721812
 20
-22.107464
 30
0.0
 11
452.721812
 21
-0.607464
 31
0.0
  0
ARC
  8
0
  6
BYLAYER
 62
     7
 10
454.221812
 20
-22.107464
 30
0.0
 40
1.5
 50
180.000000
 51
270.000000
  0
ARC
  8
0
  6
BYLAYER
 62
     7
 10
451.221812
 20
-0.607464
 30
0.0
 40
1.5
 50
0.0
 51
90.0
  0
LINE
  8
0
  6
BYLAYER
 62
     7
 10
365.721812
 20
-22.107464
 30
0.0
 11
365.721812
 21
-0.607464
 31
0.0
  0
ARC
  8
0
  6
BYLAYER
 62
     7
 10
364.221812
 20
-22.107464
 30
0.0
 40
1.5
 50
270.0
 51
360.0
  0
ARC
  8
0
  6
BYLAYER
 62
     7
 10
367.221812
 20
-0.607464
 30
0.0
 40
1.5
 50
90.0
 51
180.0
  0
LINE
  8
0
  6
BYLAYER
 62
     7
 10
367.221812
 20
0.892536
 30
0.0
 11
451.221812
 21
0.892536
 31
0.0
  0
LINE
  8
0
  6
BYLAYER
 62
     7
 10
371.094053
 20
-22.107464
 30
0.0
 11
371.094053
 21
-0.607464
 31
0.0
  0
ARC
  8
0
  6
BYLAYER
 62
     7
 10
369.594053
 20
-22.107464
 30
0.0
 40
1.5
 50
270.0
 51
360.0
  0
ARC
  8
0
  6
BYLAYER
 62
     7
 10
372.594053
 20
-0.607464
 30
0.0
 40
1.500000
 50
90.0
 51
180.0
  0
LINE
  8
0
  6
BYLAYER
 62
     7
 10
447.349572
 20
-22.107464
 30
0.0
 11
447.349572
 21
-0.607464
 31
0.0
  0
ARC
  8
0
  6
BYLAYER
 62
     7
 10
448.849572
 20
-22.107464
 30
0.0
 40
1.5
 50
180.000000
 51
270.000000
  0
ARC
  8
0
  6
BYLAYER
 62
     7
 10
445.849572
 20
-0.607464
 30
0.0
 40
1.5
 50
0.0
 51
90.0
  0
LINE
  8
0
  6
BYLAYER
 62
     7
 10
409.221812
 20
-23.607464
 30
0.0
 11
456.721812
 21
-23.607464
 31
0.0
  0
ARC
  8
0
  6
BYLAYER
 62
     7
 10
456.721812
 20
-25.107464
 30
0.0
 40
1.5
 50
0.0
 51
90.0
  0
LINE
  8
0
  6
BYLAYER
 62
     7
 10
458.221812
 20
-32.607464
 30
0.0
 11
458.221812
 21
-25.107464
 31
0.0
  0
LINE
  8
0
  6
BYLAYER
 62
     7
 10
361.721812
 20
-23.607464
 30
0.0
 11
409.221812
 21
-23.607464
 31
0.0
  0
ARC
  8
0
  6
BYLAYER
 62
     7
 10
361.721812
 20
-25.107464
 30
0.0
 40
1.500000
 50
90.0
 51
180.0
  0
LINE
  8
0
  6
BYLAYER
 62
     7
 10
360.221812
 20
-30.607464
 30
0.0
 11
360.221812
 21
-25.107464
 31
0.0
  0
LINE
  8
0
  6
BYLAYER
 62
     7
 10
458.221812
 20
-30.607464
 30
0.0
 11
360.221812
 21
-30.607464
 31
0.0
  0
LINE
  8
0
  6
BYLAYER
 62
     7
 10
360.221812
 20
-30.607464
 30
0.0
 11
360.221812
 21
-32.607464
 31
0.0
  0
LINE
  8
0
  6
BYLAYER
 62
     7
 10
360.221812
 20
-32.607464
 30
0.0
 11
458.221812
 21
-32.607464
 31
0.0
  0
LINE
  8
0
  6
BYLAYER
 62
     7
 10
578.206845
 20
-215.157464
 30
0.0
 11
578.206845
 21
-42.057554
 31
0.0
  0
LINE
  8
0
  6
BYLAYER
 62
     7
 10
331.721843
 20
-503.607509
 30
0.0
 11
319.721843
 21
-503.607509
 31
0.0
  0
LINE
  8
0
  6
BYLAYER
 62
     7
 10
331.721843
 20
-503.607509
 30
0.0
 11
331.721843
 21
-603.607509
 31
0.0
  0
ARC
  8
0
  6
BYLAYER
 62
     7
 10
332.721843
 20
-530.124812
 30
0.0
 40
1.0
 50
180.000000
 51
269.000000
  0
LINE
  8
0
  6
BYLAYER
 62
     7
 10
332.704391
 20
-531.124659
 30
0.0
 11
356.721843
 21
-531.543886
 31
0.0
  0
LINE
  8
0
  6
BYLAYER
 62
     7
 10
356.721843
 20
-531.543886
 30
0.0
 11
356.721843
 21
-603.607509
 31
0.0
  0
LINE
  8
0
  6
BYLAYER
 62
     7
 10
319.721843
 20
-503.607509
 30
0.0
 11
319.721843
 21
-603.607509
 31
0.0
  0
LINE
  8
0
  6
BYLAYER
 62
     7
 10
331.721843
 20
-703.607509
 30
0.0
 11
319.721843
 21
-703.607509
 31
0.0
  0
LINE
  8
0
  6
BYLAYER
 62
     7
 10
331.721843
 20
-703.607509
 30
0.0
 11
331.721843
 21
-603.607509
 31
0.0
  0
ARC
  8
0
  6
BYLAYER
 62
     7
 10
332.721843
 20
-677.090206
 30
0.0
 40
1.0
 50
91.000000
 51
180.000000
  0
LINE
  8
0
  6
BYLAYER
 62
     7
 10
332.704391
 20
-676.090359
 30
0.0
 11
356.721843
 21
-675.671132
 31
0.0
  0
LINE
  8
0
  6
BYLAYER
 62
     7
 10
356.721843
 20
-675.671132
 30
0.0
 11
356.721843
 21
-603.607509
 31
0.0
  0
LINE
  8
0
  6
BYLAYER
 62
     7
 10
319.721843
 20
-703.607509
 30
0.0
 11
319.721843
 21
-603.607509
 31
0.0
  0
LINE
  8
0
  6
BYLAYER
 62
     7
 10
436.221812
 20
-653.207470
 30
0.0
 11
361.021800
 21
-653.207470
 31
0.0
  0
ARC
  8
0
  6
BYLAYER
 62
     7
 10
361.021800
 20
-654.007458
 30
0.0
 40
0.800018
 50
90.0
 51
270.000012
  0
ARC
  8
0
  6
BYLAYER
 62
     7
 10
365.021800
 20
-654.007458
 30
0.0
 40
0.800018
 50
90.0
 51
270.000012
  0
LINE
  8
0
  6
BYLAYER
 62
     7
 10
360.221847
 20
-603.607509
 30
0.0
 11
360.221873
 21
-676.357464
 31
0.0
  0
LINE
  8
0
  6
BYLAYER
 62
     7
 10
458.221847
 20
-630.807461
 30
0.0
 11
502.756845
 21
-630.807430
 31
0.0
  0
LINE
  8
0
  6
BYLAYER
 62
     7
 10
458.221847
 20
-632.407467
 30
0.0
 11
502.756845
 21
-632.407436
 31
0.0
  0
LINE
  8
0
  6
BYLAYER
 62
     7
 10
365.721873
 20
-656.548687
 30
0.0
 11
360.221873
 21
-659.388256
 31
0.0
  0
LINE
  8
0
  6
BYLAYER
 62
     7
 10
360.221873
 20
-659.388256
 30
0.0
 11
363.723887
 21
-668.321301
 31
0.0
  0
ARC
  8
0
  6
BYLAYER
 62
     7
 10
365.585917
 20
-667.591320
 30
0.0
 40
2.000007
 50
201.406501
 51
270.000001
  0
LINE
  8
0
  6
BYLAYER
 62
     7
 10
360.221873
 20
-676.357495
 30
0.0
 11
356.721873
 21
-676.357495
 31
0.0
  0
LINE
  8
0
  6
BYLAYER
 62
     7
 10
360.221873
 20
-664.057598
 30
0.0
 11
363.815043
 21
-676.999157
 31
0.0
  0
ARC
  8
0
  6
BYLAYER
 62
     7
 10
365.742137
 20
-676.464092
 30
0.0
 40
2.000010
 50
195.517184
 51
270.000001
  0
LINE
  8
0
  6
BYLAYER
 62
     7
 10
360.221873
 20
-670.226391
 30
0.0
 11
363.789561
 21
-681.916760
 31
0.0
  0
ARC
  8
0
  6
BYLAYER
 62
     7
 10
365.702464
 20
-681.332989
 30
0.0
 40
1.999996
 50
196.971318
 51
270.000001
  0
LINE
  8
0
  6
BYLAYER
 62
     7
 10
360.221873
 20
-674.094219
 30
0.0
 11
363.773081
 21
-685.037365
 31
0.0
  0
ARC
  8
0
  6
BYLAYER
 62
     7
 10
365.675425
 20
-684.420025
 30
0.0
 40
2.000005
 50
197.979057
 51
270.000001
  0
ARC
  8
0
  6
BYLAYER
 62
     7
 10
365.111216
 20
-685.921154
 30
0.0
 40
2.000005
 50
197.979057
 51
270.000001
  0
LINE
  8
0
  6
BYLAYER
 62
     7
 10
363.208873
 20
-686.538494
 30
0.0
 11
359.904978
 21
-676.357495
 31
0.0
  0
LINE
  8
0
  6
BYLAYER
 62
     7
 10
356.721873
 20
-676.357495
 30
0.0
 11
356.721843
 21
-603.607509
 31
0.0
  0
LINE
  8
0
  6
BYLAYER
 62
     7
 10
458.221847
 20
-608.407469
 30
0.0
 11
502.756845
 21
-608.407442
 31
0.0
  0
LINE
  8
0
  6
BYLAYER
 62
     7
 10
458.221847
 20
-610.007475
 30
0.0
 11
502.756845
 21
-610.007448
 31
0.0
  0
LINE
  8
0
  6
BYLAYER
 62
     7
 10
458.221847
 20
-619.607451
 30
0.0
 11
502.756845
 21
-619.607423
 31
0.0
  0
LINE
  8
0
  6
BYLAYER
 62
     7
 10
458.221847
 20
-621.207457
 30
0.0
 11
502.756845
 21
-621.207430
 31
0.0
  0
LINE
  8
0
  6
BYLAYER
 62
     7
 10
458.221847
 20
-642.007445
 30
0.0
 11
502.756845
 21
-642.007417
 31
0.0
  0
LINE
  8
0
  6
BYLAYER
 62
     7
 10
458.221847
 20
-643.607451
 30
0.0
 11
502.756845
 21
-643.607423
 31
0.0
  0
LINE
  8
0
  6
BYLAYER
 62
     7
 10
436.221812
 20
-653.207470
 30
0.0
 11
502.756845
 21
-653.207430
 31
0.0
  0
LINE
  8
0
  6
BYLAYER
 62
     7
 10
361.021800
 20
-654.807446
 30
0.0
 11
502.756845
 21
-654.807446
 31
0.0
  0
LINE
  8
0
  6
BYLAYER
 62
     7
 10
365.721873
 20
-656.548687
 30
0.0
 11
502.756845
 21
-656.548687
 31
0.0
  0
LINE
  8
0
  6
BYLAYER
 62
     7
 10
365.585917
 20
-669.591320
 30
0.0
 11
502.756845
 21
-669.591320
 31
0.0
  0
LINE
  8
0
  6
BYLAYER
 62
     7
 10
365.742137
 20
-678.464092
 30
0.0
 11
502.756845
 21
-678.464092
 31
0.0
  0
LINE
  8
0
  6
BYLAYER
 62
     7
 10
365.702464
 20
-683.332989
 30
0.0
 11
502.756845
 21
-683.332989
 31
0.0
  0
LINE
  8
0
  6
BYLAYER
 62
     7
 10
365.675425
 20
-686.420025
 30
0.0
 11
502.756845
 21
-686.420025
 31
0.0
  0
LINE
  8
0
  6
BYLAYER
 62
     7
 10
365.111216
 20
-687.921154
 30
0.0
 11
502.756845
 21
-687.921154
 31
0.0
  0
LINE
  8
0
  6
BYLAYER
 62
     7
 10
502.756845
 20
-690.157464
 30
0.0
 11
502.756845
 21
-603.607509
 31
0.0
  0
LINE
  8
0
  6
BYLAYER
 62
     7
 10
592.756845
 20
-603.607509
 30
0.0
 11
592.756845
 21
-675.607464
 31
0.0
  0
LINE
  8
0
  6
BYLAYER
 62
     7
 10
592.756845
 20
-675.607464
 30
0.0
 11
578.206845
 21
-690.157464
 31
0.0
  0
LINE
  8
0
  6
BYLAYER
 62
     7
 10
578.206845
 20
-690.157464
 30
0.0
 11
502.756845
 21
-690.157464
 31
0.0
  0
LINE
  8
0
  6
BYLAYER
 62
     7
 10
373.070316
 20
-647.107509
 30
0.0
 11
409.221847
 21
-647.107509
 31
0.0
  0
ARC
  8
0
  6
BYLAYER
 62
     7
 10
373.070316
 20
-645.607509
 30
0.0
 40
1.500000
 50
191.536959
 51
270.000000
  0
LINE
  8
0
  6
BYLAYER
 62
     7
 10
365.721847
 20
-603.607509
 30
0.0
 11
365.721847
 21
-639.759040
 31
0.0
  0
LINE
  8
0
  6
BYLAYER
 62
     7
 10
409.221847
 20
-647.107509
 30
0.0
 11
445.373378
 21
-647.107509
 31
0.0
  0
LINE
  8
0
  6
BYLAYER
 62
     7
 10
452.721847
 20
-639.759040
 30
0.0
 11
452.721847
 21
-603.607509
 31
0.0
  0
LINE
  8
0
  6
BYLAYER
 62
     7
 10
379.826546
 20
-616.208615
 30
0.0
 11
365.721847
 21
-616.701162
 31
0.0
  0
ARC
  8
0
  6
BYLAYER
 62
     7
 10
379.721847
 20
-613.210443
 30
0.0
 40
3.000000
 50
272.0
 51
360.0
  0
LINE
  8
0
  6
BYLAYER
 62
     7
 10
379.826546
 20
-631.208615
 30
0.0
 11
365.721847
 21
-631.701162
 31
0.0
  0
ARC
  8
0
  6
BYLAYER
 62
     7
 10
379.721847
 20
-628.210443
 30
0.0
 40
3.000000
 50
272.0
 51
360.0
  0
LINE
  8
0
  6
BYLAYER
 62
     7
 10
365.721847
 20
-620.513856
 30
0.0
 11
379.826546
 21
-621.006403
 31
0.0
  0
ARC
  8
0
  6
BYLAYER
 62
     7
 10
379.721847
 20
-624.004575
 30
0.0
 40
3.000000
 50
0.0
 51
88.0
  0
LINE
  8
0
  6
BYLAYER
 62
     7
 10
365.721847
 20
-605.513856
 30
0.0
 11
379.826546
 21
-606.006403
 31
0.0
  0
ARC
  8
0
  6
BYLAYER
 62
     7
 10
379.721847
 20
-609.004575
 30
0.0
 40
3.000000
 50
0.0
 51
88.0
  0
LINE
  8
0
  6
BYLAYER
 62
     7
 10
382.721847
 20
-624.004575
 30
0.0
 11
382.721847
 21
-628.210443
 31
0.0
  0
LINE
  8
0
  6
BYLAYER
 62
     7
 10
382.721847
 20
-609.004575
 30
0.0
 11
382.721847
 21
-613.210443
 31
0.0
  0
LINE
  8
0
  6
BYLAYER
 62
     7
 10
366.721847
 20
-605.548777
 30
0.0
 11
366.721847
 21
-616.666241
 31
0.0
  0
LINE
  8
0
  6
BYLAYER
 62
     7
 10
366.721847
 20
-620.548777
 30
0.0
 11
366.721847
 21
-631.666241
 31
0.0
  0
LINE
  8
0
  6
BYLAYER
 62
     7
 10
438.617149
 20
-616.208615
 30
0.0
 11
452.721847
 21
-616.701162
 31
0.0
  0
ARC
  8
0
  6
BYLAYER
 62
     7
 10
438.721847
 20
-613.210443
 30
0.0
 40
3.000000
 50
180.000000
 51
268.000000
  0
LINE
  8
0
  6
BYLAYER
 62
     7
 10
438.617149
 20
-631.208615
 30
0.0
 11
452.721847
 21
-631.701162
 31
0.0
  0
ARC
  8
0
  6
BYLAYER
 62
     7
 10
438.721847
 20
-628.210443
 30
0.0
 40
3.000000
 50
180.000000
 51
268.000000
  0
LINE
  8
0
  6
BYLAYER
 62
     7
 10
452.721847
 20
-620.513856
 30
0.0
 11
438.617149
 21
-621.006403
 31
0.0
  0
ARC
  8
0
  6
BYLAYER
 62
     7
 10
438.721847
 20
-624.004575
 30
0.0
 40
3.000000
 50
92.000000
 51
180.000000
  0
LINE
  8
0
  6
BYLAYER
 62
     7
 10
452.721847
 20
-605.513856
 30
0.0
 11
438.617149
 21
-606.006403
 31
0.0
  0
ARC
  8
0
  6
BYLAYER
 62
     7
 10
438.721847
 20
-609.004575
 30
0.0
 40
3.000000
 50
92.0
 51
180.0
  0
LINE
  8
0
  6
BYLAYER
 62
     7
 10
435.721847
 20
-624.004575
 30
0.0
 11
435.721847
 21
-628.210443
 31
0.0
  0
LINE
  8
0
  6
BYLAYER
 62
     7
 10
435.721847
 20
-609.004575
 30
0.0
 11
435.721847
 21
-613.210443
 31
0.0
  0
LINE
  8
0
  6
BYLAYER
 62
     7
 10
451.721847
 20
-605.548777
 30
0.0
 11
451.721847
 21
-616.666241
 31
0.0
  0
LINE
  8
0
  6
BYLAYER
 62
     7
 10
451.721847
 20
-620.548777
 30
0.0
 11
451.721847
 21
-631.666241
 31
0.0
  0
LINE
  8
0
  6
BYLAYER
 62
     7
 10
396.221847
 20
-633.607509
 30
0.0
 11
422.221847
 21
-633.607509
 31
0.0
  0
ARC
  8
0
  6
BYLAYER
 62
     7
 10
422.221847
 20
-630.607509
 30
0.0
 40
3.0
 50
270.0
 51
360.0
  0
ARC
  8
0
  6
BYLAYER
 62
     7
 10
396.221847
 20
-630.607509
 30
0.0
 40
3.0
 50
180.000000
 51
270.000000
  0
LINE
  8
0
  6
BYLAYER
 62
     7
 10
393.221847
 20
-603.607509
 30
0.0
 11
393.221847
 21
-630.607509
 31
0.0
  0
LINE
  8
0
  6
BYLAYER
 62
     7
 10
425.221847
 20
-630.607509
 30
0.0
 11
425.221847
 21
-603.607509
 31
0.0
  0
ARC
  8
0
  6
BYLAYER
 62
     7
 10
365.721847
 20
-647.107509
 30
0.0
 40
6.0
 50
11.536959
 51
78.463041
  0
ARC
  8
0
  6
BYLAYER
 62
     7
 10
367.221847
 20
-639.759040
 30
0.0
 40
1.500000
 50
180.000000
 51
258.463041
  0
ARC
  8
0
  6
BYLAYER
 62
     7
 10
452.721847
 20
-647.107509
 30
0.0
 40
6.0
 50
101.536959
 51
168.463041
  0
ARC
  8
0
  6
BYLAYER
 62
     7
 10
451.221847
 20
-639.759040
 30
0.0
 40
1.500000
 50
281.536959
 51
360.000000
  0
ARC
  8
0
  6
BYLAYER
 62
     7
 10
445.373378
 20
-645.607509
 30
0.0
 40
1.500000
 50
270.0
 51
348.463041
  0
LINE
  8
0
  6
BYLAYER
 62
     7
 10
360.221847
 20
-603.607509
 30
0.0
 11
360.221847
 21
-651.107509
 31
0.0
  0
LINE
  8
0
  6
BYLAYER
 62
     7
 10
361.721847
 20
-652.607509
 30
0.0
 11
456.721847
 21
-652.607509
 31
0.0
  0
ARC
  8
0
  6
BYLAYER
 62
     7
 10
361.721847
 20
-651.107509
 30
0.0
 40
1.5
 50
180.000000
 51
270.000000
  0
LINE
  8
0
  6
BYLAYER
 62
     7
 10
458.221847
 20
-651.107509
 30
0.0
 11
458.221847
 21
-603.607509
 31
0.0
  0
ARC
  8
0
  6
BYLAYER
 62
     7
 10
456.721847
 20
-651.107509
 30
0.0
 40
1.5
 50
270.0
 51
360.0
  0
LINE
  8
0
  6
BYLAYER
 62
     7
 10
436.221812
 20
-554.007548
 30
0.0
 11
361.021800
 21
-554.007548
 31
0.0
  0
ARC
  8
0
  6
BYLAYER
 62
     7
 10
361.021800
 20
-553.207560
 30
0.0
 40
0.800018
 50
90.0
 51
270.000012
  0
ARC
  8
0
  6
BYLAYER
 62
     7
 10
365.021800
 20
-553.207560
 30
0.0
 40
0.800018
 50
90.0
 51
270.000012
  0
LINE
  8
0
  6
BYLAYER
 62
     7
 10
360.221847
 20
-603.607509
 30
0.0
 11
360.221873
 21
-530.857554
 31
0.0
  0
LINE
  8
0
  6
BYLAYER
 62
     7
 10
458.221847
 20
-576.407557
 30
0.0
 11
502.756845
 21
-576.407588
 31
0.0
  0
LINE
  8
0
  6
BYLAYER
 62
     7
 10
458.221847
 20
-574.807551
 30
0.0
 11
502.756845
 21
-574.807582
 31
0.0
  0
LINE
  8
0
  6
BYLAYER
 62
     7
 10
365.721873
 20
-550.666331
 30
0.0
 11
360.221873
 21
-547.826762
 31
0.0
  0
LINE
  8
0
  6
BYLAYER
 62
     7
 10
360.221873
 20
-547.826762
 30
0.0
 11
363.723887
 21
-538.893717
 31
0.0
  0
ARC
  8
0
  6
BYLAYER
 62
     7
 10
365.585917
 20
-539.623698
 30
0.0
 40
2.000007
 50
90.0
 51
158.593500
  0
LINE
  8
0
  6
BYLAYER
 62
     7
 10
360.221873
 20
-530.857523
 30
0.0
 11
356.721873
 21
-530.857523
 31
0.0
  0
LINE
  8
0
  6
BYLAYER
 62
     7
 10
360.221873
 20
-543.157420
 30
0.0
 11
363.815043
 21
-530.215861
 31
0.0
  0
ARC
  8
0
  6
BYLAYER
 62
     7
 10
365.742137
 20
-530.750926
 30
0.0
 40
2.000010
 50
90.0
 51
164.482817
  0
LINE
  8
0
  6
BYLAYER
 62
     7
 10
360.221873
 20
-536.988627
 30
0.0
 11
363.789561
 21
-525.298258
 31
0.0
  0
ARC
  8
0
  6
BYLAYER
 62
     7
 10
365.702464
 20
-525.882029
 30
0.0
 40
1.999996
 50
90.0
 51
163.028683
  0
LINE
  8
0
  6
BYLAYER
 62
     7
 10
360.221873
 20
-533.120799
 30
0.0
 11
363.773081
 21
-522.177653
 31
0.0
  0
ARC
  8
0
  6
BYLAYER
 62
     7
 10
365.675425
 20
-522.794993
 30
0.0
 40
2.000005
 50
90.0
 51
162.020944
  0
ARC
  8
0
  6
BYLAYER
 62
     7
 10
365.111216
 20
-521.293864
 30
0.0
 40
2.000005
 50
90.0
 51
162.020944
  0
LINE
  8
0
  6
BYLAYER
 62
     7
 10
363.208873
 20
-520.676524
 30
0.0
 11
359.904978
 21
-530.857523
 31
0.0
  0
LINE
  8
0
  6
BYLAYER
 62
     7
 10
356.721873
 20
-530.857523
 30
0.0
 11
356.721843
 21
-603.607509
 31
0.0
  0
LINE
  8
0
  6
BYLAYER
 62
     7
 10
458.221847
 20
-598.807549
 30
0.0
 11
502.756845
 21
-598.807576
 31
0.0
  0
LINE
  8
0
  6
BYLAYER
 62
     7
 10
458.221847
 20
-597.207543
 30
0.0
 11
502.756845
 21
-597.207570
 31
0.0
  0
LINE
  8
0
  6
BYLAYER
 62
     7
 10
458.221847
 20
-587.607567
 30
0.0
 11
502.756845
 21
-587.607595
 31
0.0
  0
LINE
  8
0
  6
BYLAYER
 62
     7
 10
458.221847
 20
-586.007561
 30
0.0
 11
502.756845
 21
-586.007588
 31
0.0
  0
LINE
  8
0
  6
BYLAYER
 62
     7
 10
458.221847
 20
-565.207573
 30
0.0
 11
502.756845
 21
-565.207601
 31
0.0
  0
LINE
  8
0
  6
BYLAYER
 62
     7
 10
458.221847
 20
-563.607567
 30
0.0
 11
502.756845
 21
-563.607595
 31
0.0
  0
LINE
  8
0
  6
BYLAYER
 62
     7
 10
436.221812
 20
-554.007548
 30
0.0
 11
502.756845
 21
-554.007588
 31
0.0
  0
LINE
  8
0
  6
BYLAYER
 62
     7
 10
361.021800
 20
-552.407572
 30
0.0
 11
502.756845
 21
-552.407572
 31
0.0
  0
LINE
  8
0
  6
BYLAYER
 62
     7
 10
365.721873
 20
-550.666331
 30
0.0
 11
502.756845
 21
-550.666331
 31
0.0
  0
LINE
  8
0
  6
BYLAYER
 62
     7
 10
365.585917
 20
-537.623698
 30
0.0
 11
502.756845
 21
-537.623698
 31
0.0
  0
LINE
  8
0
  6
BYLAYER
 62
     7
 10
365.742137
 20
-528.750926
 30
0.0
 11
502.756845
 21
-528.750926
 31
0.0
  0
LINE
  8
0
  6
BYLAYER
 62
     7
 10
365.702464
 20
-523.882029
 30
0.0
 11
502.756845
 21
-523.882029
 31
0.0
  0
LINE
  8
0
  6
BYLAYER
 62
     7
 10
365.675425
 20
-520.794993
 30
0.0
 11
502.756845
 21
-520.794993
 31
0.0
  0
LINE
  8
0
  6
BYLAYER
 62
     7
 10
365.111216
 20
-519.293864
 30
0.0
 11
502.756845
 21
-519.293864
 31
0.0
  0
LINE
  8
0
  6
BYLAYER
 62
     7
 10
502.756845
 20
-517.057554
 30
0.0
 11
502.756845
 21
-603.607509
 31
0.0
  0
LINE
  8
0
  6
BYLAYER
 62
     7
 10
592.756845
 20
-603.607509
 30
0.0
 11
592.756845
 21
-531.607554
 31
0.0
  0
LINE
  8
0
  6
BYLAYER
 62
     7
 10
592.756845
 20
-531.607554
 30
0.0
 11
578.206845
 21
-517.057554
 31
0.0
  0
LINE
  8
0
  6
BYLAYER
 62
     7
 10
578.206845
 20
-517.057554
 30
0.0
 11
502.756845
 21
-517.057554
 31
0.0
  0
LINE
  8
0
  6
BYLAYER
 62
     7
 10
373.070316
 20
-560.107509
 30
0.0
 11
409.221847
 21
-560.107509
 31
0.0
  0
ARC
  8
0
  6
BYLAYER
 62
     7
 10
373.070316
 20
-561.607509
 30
0.0
 40
1.5
 50
90.0
 51
168.463041
  0
LINE
  8
0
  6
BYLAYER
 62
     7
 10
365.721847
 20
-603.607509
 30
0.0
 11
365.721847
 21
-567.455978
 31
0.0
  0
LINE
  8
0
  6
BYLAYER
 62
     7
 10
409.221847
 20
-560.107509
 30
0.0
 11
445.373378
 21
-560.107509
 31
0.0
  0
LINE
  8
0
  6
BYLAYER
 62
     7
 10
452.721847
 20
-567.455978
 30
0.0
 11
452.721847
 21
-603.607509
 31
0.0
  0
LINE
  8
0
  6
BYLAYER
 62
     7
 10
379.826546
 20
-591.006403
 30
0.0
 11
365.721847
 21
-590.513856
 31
0.0
  0
ARC
  8
0
  6
BYLAYER
 62
     7
 10
379.721847
 20
-594.004575
 30
0.0
 40
3.000000
 50
0.0
 51
88.0
  0
LINE
  8
0
  6
BYLAYER
 62
     7
 10
379.826546
 20
-576.006403
 30
0.0
 11
365.721847
 21
-575.513856
 31
0.0
  0
ARC
  8
0
  6
BYLAYER
 62
     7
 10
379.721847
 20
-579.004575
 30
0.0
 40
3.000000
 50
0.0
 51
88.0
  0
LINE
  8
0
  6
BYLAYER
 62
     7
 10
365.721847
 20
-586.701162
 30
0.0
 11
379.826546
 21
-586.208615
 31
0.0
  0
ARC
  8
0
  6
BYLAYER
 62
     7
 10
379.721847
 20
-583.210443
 30
0.0
 40
3.000000
 50
272.0
 51
360.0
  0
LINE
  8
0
  6
BYLAYER
 62
     7
 10
365.721847
 20
-601.701162
 30
0.0
 11
379.826546
 21
-601.208615
 31
0.0
  0
ARC
  8
0
  6
BYLAYER
 62
     7
 10
379.721847
 20
-598.210443
 30
0.0
 40
3.000000
 50
272.0
 51
360.0
  0
LINE
  8
0
  6
BYLAYER
 62
     7
 10
382.721847
 20
-583.210443
 30
0.0
 11
382.721847
 21
-579.004575
 31
0.0
  0
LINE
  8
0
  6
BYLAYER
 62
     7
 10
382.721847
 20
-598.210443
 30
0.0
 11
382.721847
 21
-594.004575
 31
0.0
  0
LINE
  8
0
  6
BYLAYER
 62
     7
 10
366.721847
 20
-601.666241
 30
0.0
 11
366.721847
 21
-590.548777
 31
0.0
  0
LINE
  8
0
  6
BYLAYER
 62
     7
 10
366.721847
 20
-586.666241
 30
0.0
 11
366.721847
 21
-575.548777
 31
0.0
  0
LINE
  8
0
  6
BYLAYER
 62
     7
 10
438.617149
 20
-591.006403
 30
0.0
 11
452.721847
 21
-590.513856
 31
0.0
  0
ARC
  8
0
  6
BYLAYER
 62
     7
 10
438.721847
 20
-594.004575
 30
0.0
 40
3.000000
 50
92.0
 51
180.0
  0
LINE
  8
0
  6
BYLAYER
 62
     7
 10
438.617149
 20
-576.006403
 30
0.0
 11
452.721847
 21
-575.513856
 31
0.0
  0
ARC
  8
0
  6
BYLAYER
 62
     7
 10
438.721847
 20
-579.004575
 30
0.0
 40
3.000000
 50
92.0
 51
180.0
  0
LINE
  8
0
  6
BYLAYER
 62
     7
 10
452.721847
 20
-586.701162
 30
0.0
 11
438.617149
 21
-586.208615
 31
0.0
  0
ARC
  8
0
  6
BYLAYER
 62
     7
 10
438.721847
 20
-583.210443
 30
0.0
 40
3.000000
 50
180.000000
 51
268.000000
  0
LINE
  8
0
  6
BYLAYER
 62
     7
 10
452.721847
 20
-601.701162
 30
0.0
 11
438.617149
 21
-601.208615
 31
0.0
  0
ARC
  8
0
  6
BYLAYER
 62
     7
 10
438.721847
 20
-598.210443
 30
0.0
 40
3.000000
 50
180.000000
 51
268.000000
  0
LINE
  8
0
  6
BYLAYER
 62
     7
 10
435.721847
 20
-583.210443
 30
0.0
 11
435.721847
 21
-579.004575
 31
0.0
  0
LINE
  8
0
  6
BYLAYER
 62
     7
 10
435.721847
 20
-598.210443
 30
0.0
 11
435.721847
 21
-594.004575
 31
0.0
  0
LINE
  8
0
  6
BYLAYER
 62
     7
 10
451.721847
 20
-601.666241
 30
0.0
 11
451.721847
 21
-590.548777
 31
0.0
  0
LINE
  8
0
  6
BYLAYER
 62
     7
 10
451.721847
 20
-586.666241
 30
0.0
 11
451.721847
 21
-575.548777
 31
0.0
  0
LINE
  8
0
  6
BYLAYER
 62
     7
 10
396.221847
 20
-573.607509
 30
0.0
 11
422.221847
 21
-573.607509
 31
0.0
  0
ARC
  8
0
  6
BYLAYER
 62
     7
 10
422.221847
 20
-576.607509
 30
0.0
 40
3.0
 50
0.0
 51
90.0
  0
ARC
  8
0
  6
BYLAYER
 62
     7
 10
396.221847
 20
-576.607509
 30
0.0
 40
3.0
 50
90.0
 51
180.0
  0
LINE
  8
0
  6
BYLAYER
 62
     7
 10
393.221847
 20
-603.607509
 30
0.0
 11
393.221847
 21
-576.607509
 31
0.0
  0
LINE
  8
0
  6
BYLAYER
 62
     7
 10
425.221847
 20
-576.607509
 30
0.0
 11
425.221847
 21
-603.607509
 31
0.0
  0
ARC
  8
0
  6
BYLAYER
 62
     7
 10
365.721847
 20
-560.107509
 30
0.0
 40
6.0
 50
281.536959
 51
348.463041
  0
ARC
  8
0
  6
BYLAYER
 62
     7
 10
367.221847
 20
-567.455978
 30
0.0
 40
1.500000
 50
101.536959
 51
180.000000
  0
ARC
  8
0
  6
BYLAYER
 62
     7
 10
452.721847
 20
-560.107509
 30
0.0
 40
6.0
 50
191.536959
 51
258.463041
  0
ARC
  8
0
  6
BYLAYER
 62
     7
 10
451.221847
 20
-567.455978
 30
0.0
 40
1.500000
 50
0.0
 51
78.463041
  0
ARC
  8
0
  6
BYLAYER
 62
     7
 10
445.373378
 20
-561.607509
 30
0.0
 40
1.500000
 50
11.536959
 51
90.000000
  0
LINE
  8
0
  6
BYLAYER
 62
     7
 10
360.221847
 20
-603.607509
 30
0.0
 11
360.221847
 21
-556.107509
 31
0.0
  0
LINE
  8
0
  6
BYLAYER
 62
     7
 10
361.721847
 20
-554.607509
 30
0.0
 11
456.721847
 21
-554.607509
 31
0.0
  0
ARC
  8
0
  6
BYLAYER
 62
     7
 10
361.721847
 20
-556.107509
 30
0.0
 40
1.5
 50
90.0
 51
180.0
  0
LINE
  8
0
  6
BYLAYER
 62
     7
 10
458.221847
 20
-556.107509
 30
0.0
 11
458.221847
 21
-603.607509
 31
0.0
  0
ARC
  8
0
  6
BYLAYER
 62
     7
 10
456.721847
 20
-556.107509
 30
0.0
 40
1.5
 50
0.0
 51
90.0
  0
LINE
  8
0
  6
BYLAYER
 62
     7
 10
578.206845
 20
-517.057554
 30
0.0
 11
578.206845
 21
-690.157464
 31
0.0
  0
LINE
  8
0
  6
BYLAYER
 62
     1
 10
248.221843
 20
-289.607509
 30
0.0
 11
248.221843
 21
-279.607509
 31
0.0
  0
LINE
  8
0
  6
BYLAYER
 62
     1
 10
293.221843
 20
-244.607509
 30
0.0
 11
283.221843
 21
-244.607509
 31
0.0
  0
LINE
  8
0
  6
BYLAYER
 62
     1
 10
291.721843
 20
-243.107509
 30
0.0
 11
293.221843
 21
-244.607509
 31
0.0
  0
LINE
  8
0
  6
BYLAYER
 62
     1
 10
293.221843
 20
-244.607509
 30
0.0
 11
293.221843
 21
-287.607509
 31
0.0
  0
LINE
  8
0
  6
BYLAYER
 62
     1
 10
293.221843
 20
-287.607509
 30
0.0
 11
291.221843
 21
-289.607509
 31
0.0
  0
LINE
  8
0
  6
BYLAYER
 62
     1
 10
293.221843
 20
-287.607509
 30
0.0
 11
291.221843
 21
-289.607509
 31
0.0
  0
LINE
  8
0
  6
BYLAYER
 62
     1
 10
246.721843
 20
-288.107509
 30
0.0
 11
248.221843
 21
-289.607509
 31
0.0
  0
LINE
  8
0
  6
BYLAYER
 62
     1
 10
248.221843
 20
-289.607509
 30
0.0
 11
291.221843
 21
-289.607509
 31
0.0
  0
LINE
  8
0
  6
BYLAYER
 62
     1
 10
121.221843
 20
-244.607509
 30
0.0
 11
121.221843
 21
-287.607509
 31
0.0
  0
LINE
  8
0
  6
BYLAYER
 62
     1
 10
166.221843
 20
-289.607509
 30
0.0
 11
166.221843
 21
-279.607509
 31
0.0
  0
LINE
  8
0
  6
BYLAYER
 62
     1
 10
167.721843
 20
-288.107509
 30
0.0
 11
166.221843
 21
-289.607509
 31
0.0
  0
LINE
  8
0
  6
BYLAYER
 62
     1
 10
166.221843
 20
-289.607509
 30
0.0
 11
123.221843
 21
-289.607509
 31
0.0
  0
LINE
  8
0
  6
BYLAYER
 62
     1
 10
121.221843
 20
-287.607509
 30
0.0
 11
123.221843
 21
-289.607509
 31
0.0
  0
LINE
  8
0
  6
BYLAYER
 62
     1
 10
121.221843
 20
-244.607509
 30
0.0
 11
131.221843
 21
-244.607509
 31
0.0
  0
LINE
  8
0
  6
BYLAYER
 62
     1
 10
122.721843
 20
-243.107509
 30
0.0
 11
121.221843
 21
-244.607509
 31
0.0
  0
LINE
  8
0
  6
BYLAYER
 62
     1
 10
141.721843
 20
-279.607509
 30
0.0
 11
141.721843
 21
-289.607509
 31
0.0
  0
LINE
  8
0
  6
BYLAYER
 62
     1
 10
261.971843
 20
-279.607509
 30
0.0
 11
261.971843
 21
-289.607509
 31
0.0
  0
LINE
  8
0
  6
BYLAYER
 62
     1
 10
272.971843
 20
-279.607509
 30
0.0
 11
272.971843
 21
-289.607509
 31
0.0
  0
LINE
  8
0
  6
BYLAYER
 62
     1
 10
286.721843
 20
-289.607509
 30
0.0
 11
285.721843
 21
-289.607509
 31
0.0
  0
LINE
  8
0
  6
BYLAYER
 62
     1
 10
122.721843
 20
-189.607509
 30
0.0
 11
122.721843
 21
-243.107509
 31
0.0
  0
LINE
  8
0
  6
BYLAYER
 62
     1
 10
291.721843
 20
-189.607509
 30
0.0
 11
291.721843
 21
-243.107509
 31
0.0
  0
LINE
  8
0
  6
BYLAYER
 62
     1
 10
190.527324
 20
-124.857631
 30
0.0
 11
168.471843
 21
-124.857631
 31
0.0
  0
LINE
  8
0
  6
BYLAYER
 62
     1
 10
207.221843
 20
-122.357631
 30
0.0
 11
168.471843
 21
-122.357631
 31
0.0
  0
ARC
  8
0
  6
BYLAYER
 62
     1
 10
168.471843
 20
-123.607631
 30
0.0
 40
1.25
 50
90.0
 51
270.000005
  0
LINE
  8
0
  6
BYLAYER
 62
     1
 10
207.221843
 20
-122.357631
 30
0.0
 11
245.971843
 21
-122.357631
 31
0.0
  0
ARC
  8
0
  6
BYLAYER
 62
     1
 10
245.971843
 20
-123.607631
 30
0.0
 40
1.25
 50
270.0
 51
450.000005
  0
ARC
  8
0
  6
BYLAYER
 62
     1
 10
132.221843
 20
-131.357631
 30
0.0
 40
1.000000
 50
180.000000
 51
269.999996
  0
ARC
  8
0
  6
BYLAYER
 62
     1
 10
132.221843
 20
-135.857631
 30
0.0
 40
1.000000
 50
90.0
 51
180.000003
  0
ARC
  8
0
  6
BYLAYER
 62
     1
 10
160.971843
 20
-143.607631
 30
0.0
 40
1.25
 50
270.0
 51
450.000005
  0
ARC
  8
0
  6
BYLAYER
 62
     1
 10
132.221843
 20
-145.857631
 30
0.0
 40
1.000000
 50
90.0
 51
180.000003
  0
ARC
  8
0
  6
BYLAYER
 62
     1
 10
132.221843
 20
-151.357631
 30
0.0
 40
1.000000
 50
180.000000
 51
269.999996
  0
LINE
  8
0
  6
BYLAYER
 62
     1
 10
150.971782
 20
-152.357631
 30
0.0
 11
132.221843
 21
-152.357631
 31
0.0
  0
ARC
  8
0
  6
BYLAYER
 62
     1
 10
150.971782
 20
-153.607631
 30
0.0
 40
1.25
 50
270.0
 51
450.000005
  0
LINE
  8
0
  6
BYLAYER
 62
     1
 10
160.971843
 20
-142.357631
 30
0.0
 11
132.221843
 21
-142.357631
 31
0.0
  0
LINE
  8
0
  6
BYLAYER
 62
     1
 10
160.971843
 20
-144.857631
 30
0.0
 11
132.221843
 21
-144.857631
 31
0.0
  0
LINE
  8
0
  6
BYLAYER
 62
     1
 10
132.221843
 20
-134.857631
 30
0.0
 11
166.321697
 21
-134.857631
 31
0.0
  0
LINE
  8
0
  6
BYLAYER
 62
     1
 10
132.221843
 20
-132.357631
 30
0.0
 11
166.321697
 21
-132.357631
 31
0.0
  0
LINE
  8
0
  6
BYLAYER
 62
     1
 10
253.471599
 20
-142.357631
 30
0.0
 11
282.221843
 21
-142.357631
 31
0.0
  0
LINE
  8
0
  6
BYLAYER
 62
     1
 10
253.471599
 20
-144.857631
 30
0.0
 11
282.221843
 21
-144.857631
 31
0.0
  0
ARC
  8
0
  6
BYLAYER
 62
     1
 10
253.471599
 20
-143.607631
 30
0.0
 40
1.25
 50
90.0
 51
270.000005
  0
LINE
  8
0
  6
BYLAYER
 62
     1
 10
263.471660
 20
-154.857631
 30
0.0
 11
282.221843
 21
-154.857631
 31
0.0
  0
ARC
  8
0
  6
BYLAYER
 62
     1
 10
263.471660
 20
-153.607631
 30
0.0
 40
1.25
 50
90.0
 51
270.000005
  0
ARC
  8
0
  6
BYLAYER
 62
     1
 10
282.221843
 20
-145.857631
 30
0.0
 40
1.0
 50
0.0
 51
90.000016
  0
ARC
  8
0
  6
BYLAYER
 62
     1
 10
282.221843
 20
-145.857631
 30
0.0
 40
1.0
 50
0.0
 51
90.000016
  0
ARC
  8
0
  6
BYLAYER
 62
     1
 10
282.221843
 20
-155.857631
 30
0.0
 40
1.0
 50
0.0
 51
90.000016
  0
ARC
  8
0
  6
BYLAYER
 62
     1
 10
132.221843
 20
-141.357631
 30
0.0
 40
1.0
 50
180.000000
 51
270.000009
  0
ARC
  8
0
  6
BYLAYER
 62
     1
 10
282.221843
 20
-141.357631
 30
0.0
 40
1.000000
 50
270.0
 51
360.000003
  0
ARC
  8
0
  6
BYLAYER
 62
     1
 10
282.221843
 20
-151.357631
 30
0.0
 40
1.0
 50
270.0
 51
359.999982
  0
LINE
  8
0
  6
BYLAYER
 62
     1
 10
293.221843
 20
-268.107509
 30
0.0
 11
283.221843
 21
-268.107509
 31
0.0
  0
LINE
  8
0
  6
BYLAYER
 62
     1
 10
293.221843
 20
-257.107509
 30
0.0
 11
283.221843
 21
-257.107509
 31
0.0
  0
LINE
  8
0
  6
BYLAYER
 62
     1
 10
152.721843
 20
-279.607509
 30
0.0
 11
152.721843
 21
-289.607509
 31
0.0
  0
LINE
  8
0
  6
BYLAYER
 62
     1
 10
223.916362
 20
-124.857631
 30
0.0
 11
245.971843
 21
-124.857631
 31
0.0
  0
LINE
  8
0
  6
BYLAYER
 62
     1
 10
248.221843
 20
-84.607509
 30
0.0
 11
291.221843
 21
-84.607509
 31
0.0
  0
LINE
  8
0
  6
BYLAYER
 62
     1
 10
166.221843
 20
-84.607509
 30
0.0
 11
166.221843
 21
-94.607509
 31
0.0
  0
LINE
  8
0
  6
BYLAYER
 62
     1
 10
167.721843
 20
-86.107509
 30
0.0
 11
207.221843
 21
-86.107509
 31
0.0
  0
LINE
  8
0
  6
BYLAYER
 62
     1
 10
246.721843
 20
-86.107509
 30
0.0
 11
207.221843
 21
-86.107509
 31
0.0
  0
LINE
  8
0
  6
BYLAYER
 62
     1
 10
246.721843
 20
-86.107509
 30
0.0
 11
246.721843
 21
-94.607509
 31
0.0
  0
LINE
  8
0
  6
BYLAYER
 62
     1
 10
248.221843
 20
-84.607509
 30
0.0
 11
248.221843
 21
-94.607509
 31
0.0
  0
LINE
  8
0
  6
BYLAYER
 62
     1
 10
166.221843
 20
-84.607509
 30
0.0
 11
123.221843
 21
-84.607509
 31
0.0
  0
LINE
  8
0
  6
BYLAYER
 62
     1
 10
248.221843
 20
-84.607509
 30
0.0
 11
248.221843
 21
-94.607509
 31
0.0
  0
LINE
  8
0
  6
BYLAYER
 62
     1
 10
121.221843
 20
-86.607631
 30
0.0
 11
123.221843
 21
-84.607631
 31
0.0
  0
LINE
  8
0
  6
BYLAYER
 62
     1
 10
246.721843
 20
-86.107509
 30
0.0
 11
248.221843
 21
-84.607509
 31
0.0
  0
LINE
  8
0
  6
BYLAYER
 62
     1
 10
167.721843
 20
-86.107509
 30
0.0
 11
166.221843
 21
-84.607509
 31
0.0
  0
LINE
  8
0
  6
BYLAYER
 62
     1
 10
293.221843
 20
-86.607631
 30
0.0
 11
291.221843
 21
-84.607509
 31
0.0
  0
ARC
  8
0
  6
BYLAYER
 62
     1
 10
281.221843
 20
-96.607631
 30
0.0
 40
2.000000
 50
0.0
 51
89.999996
  0
LINE
  8
0
  6
BYLAYER
 62
     1
 10
121.221843
 20
-116.107509
 30
0.0
 11
131.221843
 21
-116.107509
 31
0.0
  0
LINE
  8
0
  6
BYLAYER
 62
     1
 10
121.221843
 20
-105.107509
 30
0.0
 11
131.221843
 21
-105.107509
 31
0.0
  0
LINE
  8
0
  6
BYLAYER
 62
     1
 10
121.221843
 20
-258.107509
 30
0.0
 11
131.221843
 21
-258.107509
 31
0.0
  0
LINE
  8
0
  6
BYLAYER
 62
     1
 10
121.221843
 20
-269.107509
 30
0.0
 11
131.221843
 21
-269.107509
 31
0.0
  0
LINE
  8
0
  6
BYLAYER
 62
     1
 10
295.221843
 20
-134.357631
 30
0.0
 11
295.221843
 21
-113.857631
 31
0.0
  0
LINE
  8
0
  6
BYLAYER
 62
     1
 10
167.721843
 20
-94.607631
 30
0.0
 11
167.721843
 21
-86.107509
 31
0.0
  0
ARC
  8
0
  6
BYLAYER
 62
     1
 10
282.221843
 20
-278.607509
 30
0.0
 40
1.0
 50
270.0
 51
360.000003
  0
ARC
  8
0
  6
BYLAYER
 62
     1
 10
132.221843
 20
-278.607509
 30
0.0
 40
1.000000
 50
180.000000
 51
269.999996
  0
LINE
  8
0
  6
BYLAYER
 62
     1
 10
152.971843
 20
-94.607631
 30
0.0
 11
152.971843
 21
-84.607509
 31
0.0
  0
LINE
  8
0
  6
BYLAYER
 62
     1
 10
141.471843
 20
-94.607631
 30
0.0
 11
141.471843
 21
-84.607509
 31
0.0
  0
LINE
  8
0
  6
BYLAYER
 62
     1
 10
261.471843
 20
-94.607631
 30
0.0
 11
261.471843
 21
-84.607509
 31
0.0
  0
LINE
  8
0
  6
BYLAYER
 62
     1
 10
272.971843
 20
-94.607631
 30
0.0
 11
272.971843
 21
-84.607509
 31
0.0
  0
ARC
  8
0
  6
BYLAYER
 62
     1
 10
248.467693
 20
-133.607631
 30
0.0
 40
1.25
 50
90.0
 51
270.000005
  0
ARC
  8
0
  6
BYLAYER
 62
     1
 10
166.005840
 20
-133.607631
 30
0.0
 40
1.25
 50
270.0
 51
450.000005
  0
LINE
  8
0
  6
BYLAYER
 62
     1
 10
293.221843
 20
-129.607631
 30
0.0
 11
283.221843
 21
-129.607631
 31
0.0
  0
LINE
  8
0
  6
BYLAYER
 62
     1
 10
291.721843
 20
-131.107631
 30
0.0
 11
293.221843
 21
-129.607631
 31
0.0
  0
LINE
  8
0
  6
BYLAYER
 62
     1
 10
291.721843
 20
-131.107631
 30
0.0
 11
291.721843
 21
-189.607509
 31
0.0
  0
LINE
  8
0
  6
BYLAYER
 62
     1
 10
293.221843
 20
-86.607631
 30
0.0
 11
293.221843
 21
-129.607631
 31
0.0
  0
LINE
  8
0
  6
BYLAYER
 62
     1
 10
121.221843
 20
-129.607631
 30
0.0
 11
131.221843
 21
-129.607631
 31
0.0
  0
LINE
  8
0
  6
BYLAYER
 62
     1
 10
122.721843
 20
-131.107631
 30
0.0
 11
121.221843
 21
-129.607631
 31
0.0
  0
LINE
  8
0
  6
BYLAYER
 62
     1
 10
122.721843
 20
-131.107631
 30
0.0
 11
122.721843
 21
-189.607509
 31
0.0
  0
LINE
  8
0
  6
BYLAYER
 62
     1
 10
281.221843
 20
-94.607631
 30
0.0
 11
133.221843
 21
-94.607631
 31
0.0
  0
LINE
  8
0
  6
BYLAYER
 62
     1
 10
291.721843
 20
-131.107631
 30
0.0
 11
283.221843
 21
-131.107631
 31
0.0
  0
LINE
  8
0
  6
BYLAYER
 62
     1
 10
291.721843
 20
-243.107509
 30
0.0
 11
283.221843
 21
-243.107509
 31
0.0
  0
LINE
  8
0
  6
BYLAYER
 62
     1
 10
167.721843
 20
-288.107509
 30
0.0
 11
167.721843
 21
-279.607509
 31
0.0
  0
LINE
  8
0
  6
BYLAYER
 62
     1
 10
246.721843
 20
-279.607509
 30
0.0
 11
246.721843
 21
-288.107509
 31
0.0
  0
LINE
  8
0
  6
BYLAYER
 62
     1
 10
122.721843
 20
-243.107509
 30
0.0
 11
131.221843
 21
-243.107509
 31
0.0
  0
LINE
  8
0
  6
BYLAYER
 62
     1
 10
131.221843
 20
-131.107631
 30
0.0
 11
122.721843
 21
-131.107631
 31
0.0
  0
LINE
  8
0
  6
BYLAYER
 62
     1
 10
246.721843
 20
-288.107509
 30
0.0
 11
167.721843
 21
-288.107509
 31
0.0
  0
LINE
  8
0
  6
BYLAYER
 62
     1
 10
131.221843
 20
-173.803981
 30
0.0
 11
131.221843
 21
-96.607631
 31
0.0
  0
LINE
  8
0
  6
BYLAYER
 62
     1
 10
131.221843
 20
-96.607631
 30
0.0
 11
133.221843
 21
-94.607631
 31
0.0
  0
ARC
  8
0
  6
BYLAYER
 62
     1
 10
129.221843
 20
-173.803981
 30
0.0
 40
2.000004
 50
339.088047
 51
360.0
  0
ARC
  8
0
  6
BYLAYER
 62
     1
 10
207.221843
 20
-203.607509
 30
0.0
 40
81.5
 50
159.088329
 51
200.911681
  0
LINE
  8
0
  6
BYLAYER
 62
     1
 10
131.221843
 20
-233.411037
 30
0.0
 11
131.221843
 21
-278.607509
 31
0.0
  0
ARC
  8
0
  6
BYLAYER
 62
     1
 10
129.221843
 20
-233.411037
 30
0.0
 40
2.000004
 50
0.0
 51
20.911958
  0
LINE
  8
0
  6
BYLAYER
 62
     1
 10
132.221843
 20
-279.607509
 30
0.0
 11
177.418315
 21
-279.607509
 31
0.0
  0
ARC
  8
0
  6
BYLAYER
 62
     1
 10
177.418315
 20
-281.607509
 30
0.0
 40
2.000000
 50
69.087962
 51
90.000000
  0
ARC
  8
0
  6
BYLAYER
 62
     1
 10
207.221843
 20
-203.607509
 30
0.0
 40
81.500008
 50
249.088338
 51
290.911690
  0
LINE
  8
0
  6
BYLAYER
 62
     1
 10
237.025371
 20
-279.607509
 30
0.0
 11
282.221843
 21
-279.607509
 31
0.0
  0
ARC
  8
0
  6
BYLAYER
 62
     1
 10
237.025371
 20
-281.607509
 30
0.0
 40
1.999991
 50
90.0
 51
110.911628
  0
LINE
  8
0
  6
BYLAYER
 62
     1
 10
283.221843
 20
-233.411037
 30
0.0
 11
283.221843
 21
-278.607509
 31
0.0
  0
ARC
  8
0
  6
BYLAYER
 62
     1
 10
285.221843
 20
-233.411037
 30
0.0
 40
2.000000
 50
159.087955
 51
180.000000
  0
LINE
  8
0
  6
BYLAYER
 62
     1
 10
283.221843
 20
-173.803981
 30
0.0
 11
283.221843
 21
-96.107631
 31
0.0
  0
ARC
  8
0
  6
BYLAYER
 62
     1
 10
207.221843
 20
-203.607509
 30
0.0
 40
81.500008
 50
339.088320
 51
380.911693
  0
ARC
  8
0
  6
BYLAYER
 62
     1
 10
285.221843
 20
-173.803951
 30
0.0
 40
2.0
 50
180.000000
 51
200.912031
  0
ARC
  8
0
  6
BYLAYER
 62
     1
 10
135.221843
 20
-275.607509
 30
0.0
 40
1.0
 50
180.000000
 51
269.999996
  0
LINE
  8
0
  6
BYLAYER
 62
     1
 10
280.221843
 20
-244.607509
 30
0.0
 11
280.221843
 21
-275.607509
 31
0.0
  0
ARC
  8
0
  6
BYLAYER
 62
     1
 10
279.221843
 20
-275.607509
 30
0.0
 40
1.0
 50
270.0
 51
360.000003
  0
LINE
  8
0
  6
BYLAYER
 62
     1
 10
134.514751
 20
-276.314632
 30
0.0
 11
131.514751
 21
-279.314632
 31
0.0
  0
LINE
  8
0
  6
BYLAYER
 62
     1
 10
279.928935
 20
-276.314632
 30
0.0
 11
282.928935
 21
-279.314632
 31
0.0
  0
ARC
  8
0
  6
BYLAYER
 62
     1
 10
132.221843
 20
-155.857631
 30
0.0
 40
1.000000
 50
90.0
 51
179.999989
  0
LINE
  8
0
  6
BYLAYER
 62
     1
 10
150.971782
 20
-154.857631
 30
0.0
 11
132.221843
 21
-154.857631
 31
0.0
  0
ARC
  8
0
  6
BYLAYER
 62
     1
 10
277.221843
 20
-123.607509
 30
0.0
 40
2.0
 50
90.0
 51
180.000003
  0
LINE
  8
0
  6
BYLAYER
 62
     1
 10
275.221843
 20
-123.607509
 30
0.0
 11
275.221843
 21
-133.607509
 31
0.0
  0
ARC
  8
0
  6
BYLAYER
 62
     1
 10
277.221843
 20
-133.607509
 30
0.0
 40
2.000000
 50
180.000000
 51
269.999996
  0
LINE
  8
0
  6
BYLAYER
 62
     1
 10
277.221843
 20
-135.607509
 30
0.0
 11
281.221843
 21
-135.607509
 31
0.0
  0
ARC
  8
0
  6
BYLAYER
 62
     1
 10
281.221843
 20
-137.607509
 30
0.0
 40
2.000000
 50
0.0
 51
90.000003
  0
LINE
  8
0
  6
BYLAYER
 62
     1
 10
277.221843
 20
-121.607509
 30
0.0
 11
281.221843
 21
-121.607509
 31
0.0
  0
ARC
  8
0
  6
BYLAYER
 62
     1
 10
281.221843
 20
-119.607509
 30
0.0
 40
2.0
 50
270.0
 51
360.000003
  0
LINE
  8
0
  6
BYLAYER
 62
     1
 10
275.237651
 20
-134.857631
 30
0.0
 11
248.467693
 21
-134.857631
 31
0.0
  0
ARC
  8
0
  6
BYLAYER
 62
     1
 10
275.237651
 20
-135.857631
 30
0.0
 40
1.000026
 50
48.593996
 51
90.000003
  0
LINE
  8
0
  6
BYLAYER
 62
     1
 10
274.221843
 20
-132.357631
 30
0.0
 11
248.467693
 21
-132.357631
 31
0.0
  0
ARC
  8
0
  6
BYLAYER
 62
     1
 10
274.221843
 20
-131.357631
 30
0.0
 40
1.000000
 50
270.0
 51
360.000003
  0
LINE
  8
0
  6
BYLAYER
 62
     1
 10
241.632671
 20
-276.607509
 30
0.0
 11
279.221843
 21
-276.607509
 31
0.0
  0
LINE
  8
0
  6
BYLAYER
 62
     1
 10
280.221843
 20
-238.018367
 30
0.0
 11
280.221843
 21
-275.607509
 31
0.0
  0
LINE
  8
0
  6
BYLAYER
 62
     1
 10
134.221843
 20
-238.018367
 30
0.0
 11
134.221843
 21
-275.607509
 31
0.0
  0
LINE
  8
0
  6
BYLAYER
 62
     1
 10
135.221843
 20
-276.607509
 30
0.0
 11
172.810954
 21
-276.607509
 31
0.0
  0
LINE
  8
0
  6
BYLAYER
 62
     1
 10
295.221843
 20
-171.114498
 30
0.0
 11
295.221843
 21
-86.100520
 31
0.0
  0
LINE
  8
0
  6
BYLAYER
 62
     1
 10
295.221843
 20
-171.114498
 30
0.0
 11
291.721843
 21
-171.236720
 31
0.0
  0
LINE
  8
0
  6
BYLAYER
 62
     1
 10
295.221843
 20
-86.100520
 30
0.0
 11
292.624065
 21
-86.009792
 31
0.0
  0
LINE
  8
0
  6
BYLAYER
 62
     1
 10
121.221843
 20
-162.831508
 30
0.0
 11
121.221843
 21
-86.607631
 31
0.0
  0
LINE
  8
0
  6
BYLAYER
 62
     1
 10
121.221843
 20
-162.831508
 30
0.0
 11
122.721843
 21
-162.883876
 31
0.0
  0
LINE
  8
0
  6
BYLAYER
 62
     1
 10
282.221843
 20
-152.357631
 30
0.0
 11
263.471660
 21
-152.357631
 31
0.0
  0
ARC
  8
0
  6
BYLAYER
 62
     1
 10
168.906535
 20
-147.429775
 30
0.0
 40
2.000066
 50
61.945103
 51
124.296261
  0
ARC
  8
0
  6
BYLAYER
 62
     1
 10
194.591106
 20
-136.790859
 30
0.0
 40
1.999995
 50
100.705532
 51
163.055904
  0
ARC
  8
0
  6
BYLAYER
 62
     1
 10
207.221843
 20
-203.607509
 30
0.0
 40
69.999878
 50
79.295443
 51
100.704664
  0
ARC
  8
0
  6
BYLAYER
 62
     1
 10
219.852458
 20
-136.790859
 30
0.0
 40
1.9999
 50
16.944094
 51
79.294466
  0
ARC
  8
0
  6
BYLAYER
 62
     1
 10
245.536968
 20
-147.429775
 30
0.0
 40
1.999928
 50
55.705179
 51
118.056036
  0
ARC
  8
0
  6
BYLAYER
 62
     1
 10
274.038371
 20
-216.238368
 30
0.0
 40
2.000030
 50
286.944361
 51
349.295492
  0
ARC
  8
0
  6
BYLAYER
 62
     1
 10
263.399516
 20
-241.922939
 30
0.0
 40
2.000036
 50
325.704454
 51
388.055618
  0
ARC
  8
0
  6
BYLAYER
 62
     1
 10
207.221843
 20
-203.607509
 30
0.0
 40
69.999969
 50
304.295309
 51
325.704537
  0
ARC
  8
0
  6
BYLAYER
 62
     1
 10
245.537029
 20
-259.785365
 30
0.0
 40
2.000036
 50
241.943960
 51
304.294326
  0
ARC
  8
0
  6
BYLAYER
 62
     1
 10
219.852458
 20
-270.424159
 30
0.0
 40
2.000139
 50
280.705366
 51
343.055895
  0
ARC
  8
0
  6
BYLAYER
 62
     1
 10
207.221843
 20
-203.607509
 30
0.0
 40
70.000023
 50
259.295346
 51
280.704546
  0
ARC
  8
0
  6
BYLAYER
 62
     1
 10
194.591045
 20
-270.424159
 30
0.0
 40
2.000007
 50
196.944598
 51
259.296193
  0
ARC
  8
0
  6
BYLAYER
 62
     1
 10
168.906535
 20
-259.785365
 30
0.0
 40
2.000031
 50
235.705676
 51
298.056041
  0
ARC
  8
0
  6
BYLAYER
 62
     1
 10
207.221843
 20
-203.607509
 30
0.0
 40
70.000069
 50
214.295423
 51
235.704610
  0
ARC
  8
0
  6
BYLAYER
 62
     1
 10
151.044048
 20
-241.922939
 30
0.0
 40
2.000036
 50
151.944375
 51
214.295546
  0
ARC
  8
0
  6
BYLAYER
 62
     1
 10
140.405132
 20
-216.238368
 30
0.0
 40
2.000008
 50
190.704510
 51
253.055640
  0
ARC
  8
0
  6
BYLAYER
 62
     1
 10
207.221843
 20
-203.607509
 30
0.0
 40
70.000046
 50
169.295473
 51
190.704646
  0
ARC
  8
0
  6
BYLAYER
 62
     1
 10
140.405132
 20
-190.976894
 30
0.0
 40
2.000008
 50
106.944349
 51
169.295487
  0
ARC
  8
0
  6
BYLAYER
 62
     1
 10
151.044048
 20
-165.292323
 30
0.0
 40
2.000036
 50
145.704450
 51
208.055622
  0
ARC
  8
0
  6
BYLAYER
 62
     1
 10
207.221843
 20
-203.607509
 30
0.0
 40
70.0
 50
124.295441
 51
145.704587
  0
ARC
  8
0
  6
BYLAYER
 62
     1
 10
207.221843
 20
-203.607509
 30
0.0
 40
80.5
 50
154.482405
 51
205.517595
  0
ARC
  8
0
  6
BYLAYER
 62
     1
 10
136.379253
 20
-169.790645
 30
0.0
 40
2.000000
 50
105.0
 51
154.482405
  0
ARC
  8
0
  6
BYLAYER
 62
     1
 10
207.221843
 20
-203.607509
 30
0.0
 40
80.5
 50
244.482414
 51
295.517604
  0
ARC
  8
0
  6
BYLAYER
 62
     1
 10
207.221843
 20
-203.607509
 30
0.0
 40
80.5
 50
64.482402
 51
115.517593
  0
ARC
  8
0
  6
BYLAYER
 62
     1
 10
241.038738
 20
-132.764949
 30
0.0
 40
2.0
 50
14.999997
 51
64.482402
  0
ARC
  8
0
  6
BYLAYER
 62
     1
 10
207.221843
 20
-203.607509
 30
0.0
 40
80.500000
 50
334.482396
 51
385.517587
  0
ARC
  8
0
  6
BYLAYER
 62
     1
 10
207.221843
 20
-203.607509
 30
0.0
 40
47.5
 50
22.499997
 51
374.817192
  0
ARC
  8
0
  6
BYLAYER
 62
     1
 10
207.221843
 20
-203.607509
 30
0.0
 40
47.500004
 50
14.817201
 51
22.499997
  0
ARC
  8
0
  6
BYLAYER
 62
     1
 10
279.284343
 20
-233.456874
 30
0.0
 40
16.000019
 50
106.944527
 51
208.056127
  0
ARC
  8
0
  6
BYLAYER
 62
     1
 10
237.071086
 20
-275.670253
 30
0.0
 40
16.000034
 50
61.944358
 51
163.055330
  0
ARC
  8
0
  6
BYLAYER
 62
     1
 10
177.372478
 20
-275.670253
 30
0.0
 40
16.000015
 50
16.944695
 51
118.055640
  0
ARC
  8
0
  6
BYLAYER
 62
     1
 10
135.159221
 20
-233.456874
 30
0.0
 40
15.999969
 50
331.943912
 51
433.055724
  0
ARC
  8
0
  6
BYLAYER
 62
     1
 10
177.372478
 20
-131.545009
 30
0.0
 40
15.999943
 50
241.944206
 51
343.056032
  0
ARC
  8
0
  6
BYLAYER
 62
     1
 10
237.071086
 20
-131.545009
 30
0.0
 40
16.000040
 50
196.943969
 51
298.055604
  0
ARC
  8
0
  6
BYLAYER
 62
     1
 10
135.159221
 20
-173.758388
 30
0.0
 40
16.000046
 50
286.944222
 51
388.056081
  0
ARC
  8
0
  6
BYLAYER
 62
     1
 10
263.399516
 20
-165.292201
 30
0.0
 40
1.999947
 50
331.944107
 51
394.294465
  0
ARC
  8
0
  6
BYLAYER
 62
     1
 10
274.038371
 20
-190.976741
 30
0.0
 40
1.999925
 50
10.705174
 51
73.056031
  0
ARC
  8
0
  6
BYLAYER
 62
     1
 10
207.221843
 20
-203.607509
 30
0.0
 40
69.999832
 50
34.295490
 51
55.704670
  0
ARC
  8
0
  6
BYLAYER
 62
     1
 10
207.221843
 20
-203.607509
 30
0.0
 40
69.999840
 50
349.295164
 51
370.704686
  0
ARC
  8
0
  6
BYLAYER
 62
     1
 10
279.284343
 20
-173.758235
 30
0.0
 40
16.000053
 50
230.812200
 51
253.055476
  0
ARC
  8
0
  6
BYLAYER
 62
     1
 10
279.284343
 20
-173.758235
 30
0.0
 40
16.000072
 50
151.943965
 51
174.188129
  0
ARC
  8
0
  6
BYLAYER
 62
     1
 10
279.284343
 20
-173.758235
 30
0.0
 40
16.000027
 50
174.188211
 51
230.812255
  0
LINE
  8
0
  6
BYLAYER
 62
     1
 10
278.582072
 20
-239.356227
 30
0.0
 11
268.759868
 21
-241.988063
 31
0.0
  0
ARC
  8
0
  6
BYLAYER
 62
     1
 10
278.064433
 20
-237.424373
 30
0.0
 40
2.0
 50
284.999998
 51
334.482403
  0
LINE
  8
0
  6
BYLAYER
 62
     1
 10
245.602397
 20
-265.145564
 30
0.0
 11
242.970561
 21
-274.967708
 31
0.0
  0
ARC
  8
0
  6
BYLAYER
 62
     1
 10
241.038738
 20
-274.450069
 30
0.0
 40
2.000000
 50
295.517608
 51
345.000013
  0
ARC
  8
0
  6
BYLAYER
 62
     1
 10
207.221843
 20
-203.607509
 30
0.0
 40
72.0
 50
303.00842
 51
326.991564
  0
ARC
  8
0
  6
BYLAYER
 62
     1
 10
269.277507
 20
-243.919917
 30
0.0
 40
2.000000
 50
105.000000
 51
146.991572
  0
ARC
  8
0
  6
BYLAYER
 62
     1
 10
247.534282
 20
-265.663204
 30
0.0
 40
2.0
 50
123.008428
 51
165.000001
  0
LINE
  8
0
  6
BYLAYER
 62
     1
 10
242.970561
 20
-132.247310
 30
0.0
 11
245.602397
 21
-142.069454
 31
0.0
  0
LINE
  8
0
  6
BYLAYER
 62
     1
 10
268.759868
 20
-165.226955
 30
0.0
 11
278.582072
 21
-167.858791
 31
0.0
  0
ARC
  8
0
  6
BYLAYER
 62
     1
 10
278.064433
 20
-169.790645
 30
0.0
 40
2.0
 50
25.517594
 51
74.999999
  0
ARC
  8
0
  6
BYLAYER
 62
     1
 10
207.221843
 20
-203.607509
 30
0.0
 40
72.000000
 50
33.008429
 51
56.991573
  0
ARC
  8
0
  6
BYLAYER
 62
     1
 10
247.534282
 20
-141.551814
 30
0.0
 40
2.0
 50
195.000009
 51
236.991582
  0
ARC
  8
0
  6
BYLAYER
 62
     1
 10
269.277507
 20
-163.295101
 30
0.0
 40
2.0
 50
213.008424
 51
254.999997
  0
LINE
  8
0
  6
BYLAYER
 62
     1
 10
135.861614
 20
-167.858791
 30
0.0
 11
145.683757
 21
-165.226955
 31
0.0
  0
LINE
  8
0
  6
BYLAYER
 62
     1
 10
168.841289
 20
-142.069454
 30
0.0
 11
171.473125
 21
-132.247310
 31
0.0
  0
ARC
  8
0
  6
BYLAYER
 62
     1
 10
173.404948
 20
-132.764949
 30
0.0
 40
2.000000
 50
115.517589
 51
164.999994
  0
ARC
  8
0
  6
BYLAYER
 62
     1
 10
207.221843
 20
-203.607509
 30
0.0
 40
72.000000
 50
123.008428
 51
146.991572
  0
ARC
  8
0
  6
BYLAYER
 62
     1
 10
145.166118
 20
-163.295101
 30
0.0
 40
2.0
 50
284.999991
 51
326.991564
  0
ARC
  8
0
  6
BYLAYER
 62
     1
 10
166.909404
 20
-141.551814
 30
0.0
 40
2.000000
 50
303.008420
 51
344.999993
  0
LINE
  8
0
  6
BYLAYER
 62
     1
 10
171.473125
 20
-274.967708
 30
0.0
 11
168.841289
 21
-265.145564
 31
0.0
  0
ARC
  8
0
  6
BYLAYER
 62
     1
 10
173.404948
 20
-274.450069
 30
0.0
 40
2.0
 50
195.000002
 51
244.482407
  0
LINE
  8
0
  6
BYLAYER
 62
     1
 10
145.683757
 20
-241.988063
 30
0.0
 11
135.861614
 21
-239.356227
 31
0.0
  0
ARC
  8
0
  6
BYLAYER
 62
     1
 10
136.379253
 20
-237.424373
 30
0.0
 40
2.000000
 50
205.517599
 51
255.000004
  0
ARC
  8
0
  6
BYLAYER
 62
     1
 10
207.221843
 20
-203.607509
 30
0.0
 40
72.0
 50
213.008424
 51
236.991568
  0
ARC
  8
0
  6
BYLAYER
 62
     1
 10
166.909404
 20
-265.663204
 30
0.0
 40
2.000000
 50
15.0
 51
56.991573
  0
ARC
  8
0
  6
BYLAYER
 62
     1
 10
145.166118
 20
-243.919917
 30
0.0
 40
2.0
 50
33.008429
 51
75.000002
  0
ARC
  8
0
  6
BYLAYER
 62
     1
 10
166.563152
 20
-162.948818
 30
0.0
 40
4.0
 50
270.0
 51
540.0
  0
CIRCLE
  8
0
  6
BYLAYER
 62
     1
 10
166.563152
 20
-162.948818
 30
0.0
 40
3.5
  0
ARC
  8
0
  6
BYLAYER
 62
     1
 10
207.221843
 20
-146.107509
 30
0.0
 40
4.0
 50
270.0
 51
540.0
  0
CIRCLE
  8
0
  6
BYLAYER
 62
     1
 10
207.221843
 20
-146.107509
 30
0.0
 40
3.5
  0
ARC
  8
0
  6
BYLAYER
 62
     1
 10
247.880412
 20
-162.949062
 30
0.0
 40
4.0
 50
270.0
 51
540.0
  0
CIRCLE
  8
0
  6
BYLAYER
 62
     1
 10
247.880412
 20
-162.949062
 30
0.0
 40
3.5
  0
ARC
  8
0
  6
BYLAYER
 62
     1
 10
264.721843
 20
-203.607509
 30
0.0
 40
4.0
 50
270.0
 51
540.0
  0
CIRCLE
  8
0
  6
BYLAYER
 62
     1
 10
264.721843
 20
-203.607509
 30
0.0
 40
3.5
  0
ARC
  8
0
  6
BYLAYER
 62
     1
 10
247.880412
 20
-244.266200
 30
0.0
 40
4.0
 50
270.0
 51
540.0
  0
CIRCLE
  8
0
  6
BYLAYER
 62
     1
 10
247.880412
 20
-244.266200
 30
0.0
 40
3.5
  0
ARC
  8
0
  6
BYLAYER
 62
     1
 10
207.221721
 20
-261.107509
 30
0.0
 40
4.0
 50
270.0
 51
540.0
  0
CIRCLE
  8
0
  6
BYLAYER
 62
     1
 10
207.221721
 20
-261.107509
 30
0.0
 40
3.5
  0
ARC
  8
0
  6
BYLAYER
 62
     1
 10
166.563152
 20
-244.266200
 30
0.0
 40
4.0
 50
270.0
 51
540.0
  0
CIRCLE
  8
0
  6
BYLAYER
 62
     1
 10
166.563152
 20
-244.266200
 30
0.0
 40
3.5
  0
ARC
  8
0
  6
BYLAYER
 62
     1
 10
149.721843
 20
-203.607509
 30
0.0
 40
4.0
 50
270.0
 51
540.0
  0
CIRCLE
  8
0
  6
BYLAYER
 62
     1
 10
149.721843
 20
-203.607509
 30
0.0
 40
3.5
  0
ARC
  8
0
  6
BYLAYER
 62
     1
 10
194.690715
 20
-115.067538
 30
0.0
 40
2.873727
 50
270.0
 51
308.795511
  0
ARC
  8
0
  6
BYLAYER
 62
     1
 10
194.412613
 20
-114.771358
 30
0.0
 40
3.278957
 50
309.340351
 51
360.000000
  0
ARC
  8
0
  6
BYLAYER
 62
     1
 10
194.412613
 20
-114.771358
 30
0.0
 40
3.278957
 50
0.0
 51
50.659649
  0
ARC
  8
0
  6
BYLAYER
 62
     1
 10
194.690715
 20
-114.475178
 30
0.0
 40
2.873727
 50
51.204489
 51
90.0
  0
ARC
  8
0
  6
BYLAYER
 62
     1
 10
194.690715
 20
-114.475152
 30
0.0
 40
2.873701
 50
90.0
 51
128.795693
  0
ARC
  8
0
  6
BYLAYER
 62
     1
 10
194.968843
 20
-114.771358
 30
0.0
 40
3.278967
 50
129.340576
 51
180.0
  0
ARC
  8
0
  6
BYLAYER
 62
     1
 10
194.968843
 20
-114.771358
 30
0.0
 40
3.278967
 50
180.000000
 51
230.659424
  0
ARC
  8
0
  6
BYLAYER
 62
     1
 10
194.690715
 20
-115.067564
 30
0.0
 40
2.873701
 50
231.204307
 51
270.000000
  0
ARC
  8
0
  6
BYLAYER
 62
     1
 10
194.690715
 20
-113.928207
 30
0.0
 40
1.329747
 50
90.0
 51
140.793201
  0
ARC
  8
0
  6
BYLAYER
 62
     1
 10
195.724270
 20
-114.771358
 30
0.0
 40
2.663590
 50
140.793201
 51
180.000000
  0
ARC
  8
0
  6
BYLAYER
 62
     1
 10
195.724254
 20
-114.771358
 30
0.0
 40
2.663574
 50
180.000000
 51
219.206869
  0
ARC
  8
0
  6
BYLAYER
 62
     1
 10
194.690715
 20
-115.614498
 30
0.0
 40
1.329750
 50
219.206869
 51
270.0
  0
ARC
  8
0
  6
BYLAYER
 62
     1
 10
194.690715
 20
-115.614498
 30
0.0
 40
1.329750
 50
270.0
 51
320.793131
  0
ARC
  8
0
  6
BYLAYER
 62
     1
 10
193.657176
 20
-114.771358
 30
0.0
 40
2.663574
 50
320.793131
 51
360.000000
  0
ARC
  8
0
  6
BYLAYER
 62
     1
 10
193.657160
 20
-114.771358
 30
0.0
 40
2.663590
 50
0.0
 51
39.206799
  0
ARC
  8
0
  6
BYLAYER
 62
     1
 10
194.690715
 20
-113.928207
 30
0.0
 40
1.329747
 50
39.206799
 51
90.0
  0
LINE
  8
0
  6
BYLAYER
 62
     1
 10
184.842876
 20
-117.729930
 30
0.0
 11
184.842876
 21
-111.728237
 31
0.0
  0
LINE
  8
0
  6
BYLAYER
 62
     1
 10
184.842876
 20
-111.728237
 30
0.0
 11
187.283000
 21
-111.728237
 31
0.0
  0
LINE
  8
0
  6
BYLAYER
 62
     1
 10
187.283000
 20
-111.728237
 30
0.0
 11
188.097316
 21
-114.855892
 31
0.0
  0
LINE
  8
0
  6
BYLAYER
 62
     1
 10
184.842876
 20
-117.729930
 30
0.0
 11
186.308086
 21
-117.729930
 31
0.0
  0
LINE
  8
0
  6
BYLAYER
 62
     1
 10
186.308086
 20
-117.729930
 30
0.0
 11
186.308086
 21
-114.264171
 31
0.0
  0
LINE
  8
0
  6
BYLAYER
 62
     1
 10
187.463329
 20
-117.729930
 30
0.0
 11
186.308086
 21
-114.264171
 31
0.0
  0
LINE
  8
0
  6
BYLAYER
 62
     1
 10
191.351756
 20
-117.729930
 30
0.0
 11
191.351756
 21
-111.728237
 31
0.0
  0
LINE
  8
0
  6
BYLAYER
 62
     1
 10
191.351756
 20
-111.728237
 30
0.0
 11
188.911632
 21
-111.728237
 31
0.0
  0
LINE
  8
0
  6
BYLAYER
 62
     1
 10
188.911632
 20
-111.728237
 30
0.0
 11
188.097316
 21
-114.855892
 31
0.0
  0
LINE
  8
0
  6
BYLAYER
 62
     1
 10
191.351756
 20
-117.729930
 30
0.0
 11
189.886546
 21
-117.729930
 31
0.0
  0
LINE
  8
0
  6
BYLAYER
 62
     1
 10
189.886546
 20
-117.729930
 30
0.0
 11
189.886546
 21
-114.264171
 31
0.0
  0
LINE
  8
0
  6
BYLAYER
 62
     1
 10
188.731303
 20
-117.729930
 30
0.0
 11
189.886546
 21
-114.264171
 31
0.0
  0
LINE
  8
0
  6
BYLAYER
 62
     1
 10
188.731303
 20
-117.729930
 30
0.0
 11
187.463329
 21
-117.729930
 31
0.0
  0
LINE
  8
0
  6
BYLAYER
 62
     1
 10
212.822597
 20
-117.729930
 30
0.0
 11
215.104915
 21
-111.728237
 31
0.0
  0
LINE
  8
0
  6
BYLAYER
 62
     1
 10
212.822597
 20
-117.729930
 30
0.0
 11
214.766811
 21
-117.729930
 31
0.0
  0
LINE
  8
0
  6
BYLAYER
 62
     1
 10
215.104915
 20
-111.728237
 30
0.0
 11
216.964595
 21
-111.728237
 31
0.0
  0
LINE
  8
0
  6
BYLAYER
 62
     1
 10
214.766811
 20
-117.729930
 30
0.0
 11
215.054988
 21
-116.884624
 31
0.0
  0
LINE
  8
0
  6
BYLAYER
 62
     1
 10
215.516048
 20
-115.532131
 30
0.0
 11
216.034755
 21
-114.010570
 31
0.0
  0
LINE
  8
0
  6
BYLAYER
 62
     1
 10
219.246944
 20
-117.729930
 30
0.0
 11
216.964595
 21
-111.728237
 31
0.0
  0
LINE
  8
0
  6
BYLAYER
 62
     1
 10
219.246944
 20
-117.729930
 30
0.0
 11
217.302730
 21
-117.729930
 31
0.0
  0
LINE
  8
0
  6
BYLAYER
 62
     1
 10
217.014552
 20
-116.884624
 30
0.0
 11
215.054988
 21
-116.884624
 31
0.0
  0
LINE
  8
0
  6
BYLAYER
 62
     1
 10
216.553462
 20
-115.532131
 30
0.0
 11
215.516048
 21
-115.532131
 31
0.0
  0
LINE
  8
0
  6
BYLAYER
 62
     1
 10
217.302730
 20
-117.729930
 30
0.0
 11
217.014552
 21
-116.884624
 31
0.0
  0
LINE
  8
0
  6
BYLAYER
 62
     1
 10
216.553462
 20
-115.532131
 30
0.0
 11
216.034755
 21
-114.010570
 31
0.0
  0
LINE
  8
0
  6
BYLAYER
 62
     1
 10
197.691570
 20
-113.207530
 30
0.0
 11
199.382182
 21
-113.207530
 31
0.0
  0
LINE
  8
0
  6
BYLAYER
 62
     1
 10
199.382182
 20
-113.207530
 30
0.0
 11
199.382182
 21
-117.729930
 31
0.0
  0
LINE
  8
0
  6
BYLAYER
 62
     1
 10
199.382182
 20
-117.729930
 30
0.0
 11
201.241878
 21
-117.729930
 31
0.0
  0
LINE
  8
0
  6
BYLAYER
 62
     1
 10
201.241878
 20
-117.729930
 30
0.0
 11
201.241878
 21
-113.207530
 31
0.0
  0
LINE
  8
0
  6
BYLAYER
 62
     1
 10
201.241878
 20
-113.207530
 30
0.0
 11
202.932491
 21
-113.207530
 31
0.0
  0
LINE
  8
0
  6
BYLAYER
 62
     1
 10
202.932491
 20
-113.207530
 30
0.0
 11
202.932491
 21
-111.728237
 31
0.0
  0
LINE
  8
0
  6
BYLAYER
 62
     1
 10
202.932491
 20
-111.728237
 30
0.0
 11
197.691570
 21
-111.728237
 31
0.0
  0
LINE
  8
0
  6
BYLAYER
 62
     1
 10
197.691570
 20
-111.728237
 30
0.0
 11
197.691570
 21
-113.207530
 31
0.0
  0
ARC
  8
0
  6
BYLAYER
 62
     1
 10
205.933330
 20
-115.067564
 30
0.0
 40
2.873701
 50
270.0
 51
308.795693
  0
ARC
  8
0
  6
BYLAYER
 62
     1
 10
205.655202
 20
-114.771358
 30
0.0
 40
3.278967
 50
309.340576
 51
360.000000
  0
ARC
  8
0
  6
BYLAYER
 62
     1
 10
205.655212
 20
-114.771358
 30
0.0
 40
3.278957
 50
0.0
 51
50.659649
  0
ARC
  8
0
  6
BYLAYER
 62
     1
 10
205.933315
 20
-114.475178
 30
0.0
 40
2.873727
 50
51.204489
 51
90.0
  0
ARC
  8
0
  6
BYLAYER
 62
     1
 10
205.933315
 20
-114.475152
 30
0.0
 40
2.873701
 50
90.0
 51
128.795693
  0
ARC
  8
0
  6
BYLAYER
 62
     1
 10
206.211443
 20
-114.771358
 30
0.0
 40
3.278967
 50
129.340576
 51
180.0
  0
ARC
  8
0
  6
BYLAYER
 62
     1
 10
206.211432
 20
-114.771358
 30
0.0
 40
3.278957
 50
180.000000
 51
230.659649
  0
ARC
  8
0
  6
BYLAYER
 62
     1
 10
205.933330
 20
-115.067538
 30
0.0
 40
2.873727
 50
231.204489
 51
270.000000
  0
ARC
  8
0
  6
BYLAYER
 62
     1
 10
205.933315
 20
-113.928207
 30
0.0
 40
1.329747
 50
90.0
 51
140.793201
  0
ARC
  8
0
  6
BYLAYER
 62
     1
 10
206.966869
 20
-114.771358
 30
0.0
 40
2.663590
 50
140.793201
 51
180.000000
  0
ARC
  8
0
  6
BYLAYER
 62
     1
 10
206.966835
 20
-114.771358
 30
0.0
 40
2.663556
 50
180.000000
 51
219.207055
  0
ARC
  8
0
  6
BYLAYER
 62
     1
 10
205.933330
 20
-115.614476
 30
0.0
 40
1.329771
 50
219.207055
 51
270.000000
  0
ARC
  8
0
  6
BYLAYER
 62
     1
 10
205.933330
 20
-115.614498
 30
0.0
 40
1.329750
 50
270.0
 51
320.793131
  0
ARC
  8
0
  6
BYLAYER
 62
     1
 10
204.899791
 20
-114.771358
 30
0.0
 40
2.663574
 50
320.793131
 51
360.000000
  0
ARC
  8
0
  6
BYLAYER
 62
     1
 10
204.899793
 20
-114.771358
 30
0.0
 40
2.663572
 50
0.0
 51
39.206985
  0
ARC
  8
0
  6
BYLAYER
 62
     1
 10
205.933315
 20
-113.928228
 30
0.0
 40
1.329768
 50
39.206985
 51
90.0
  0
LINE
  8
0
  6
BYLAYER
 62
     1
 10
219.408931
 20
-117.729930
 30
0.0
 11
219.408931
 21
-111.728237
 31
0.0
  0
LINE
  8
0
  6
BYLAYER
 62
     1
 10
219.408931
 20
-111.728237
 30
0.0
 11
223.128276
 21
-111.728237
 31
0.0
  0
ARC
  8
0
  6
BYLAYER
 62
     1
 10
223.128276
 20
-113.418865
 30
0.0
 40
1.690610
 50
287.134650
 51
450.000006
  0
ARC
  8
0
  6
BYLAYER
 62
     1
 10
223.466411
 20
-116.377437
 30
0.0
 40
1.352493
 50
0.0
 51
83.207557
  0
LINE
  8
0
  6
BYLAYER
 62
     1
 10
224.818904
 20
-116.377437
 30
0.0
 11
224.818904
 21
-117.222743
 31
0.0
  0
ARC
  8
0
  6
BYLAYER
 62
     1
 10
226.171397
 20
-117.222743
 30
0.0
 40
1.352493
 50
180.000000
 51
202.024314
  0
LINE
  8
0
  6
BYLAYER
 62
     1
 10
223.057918
 20
-117.729930
 30
0.0
 11
224.917598
 21
-117.729930
 31
0.0
  0
ARC
  8
0
  6
BYLAYER
 62
     1
 10
224.311717
 20
-117.222743
 30
0.0
 40
1.352493
 50
180.000000
 51
202.024314
  0
LINE
  8
0
  6
BYLAYER
 62
     1
 10
222.959224
 20
-117.222743
 30
0.0
 11
222.959224
 21
-116.546504
 31
0.0
  0
LINE
  8
0
  6
BYLAYER
 62
     1
 10
219.408931
 20
-117.729930
 30
0.0
 11
221.184077
 21
-117.729930
 31
0.0
  0
LINE
  8
0
  6
BYLAYER
 62
     1
 10
221.184077
 20
-117.729930
 30
0.0
 11
221.184077
 21
-115.701198
 31
0.0
  0
LINE
  8
0
  6
BYLAYER
 62
     1
 10
222.113918
 20
-115.701198
 30
0.0
 11
221.184077
 21
-115.701198
 31
0.0
  0
ARC
  8
0
  6
BYLAYER
 62
     1
 10
222.113918
 20
-116.546504
 30
0.0
 40
0.845306
 50
0.0
 51
90.000003
  0
LINE
  8
0
  6
BYLAYER
 62
     1
 10
221.184077
 20
-114.348705
 30
0.0
 11
221.184077
 21
-113.080730
 31
0.0
  0
LINE
  8
0
  6
BYLAYER
 62
     1
 10
221.184077
 20
-113.080730
 30
0.0
 11
222.367503
 21
-113.080730
 31
0.0
  0
LINE
  8
0
  6
BYLAYER
 62
     1
 10
221.184077
 20
-114.348705
 30
0.0
 11
222.367503
 21
-114.348705
 31
0.0
  0
ARC
  8
0
  6
BYLAYER
 62
     1
 10
222.367503
 20
-113.714717
 30
0.0
 40
0.633987
 50
270.0
 51
450.000005
  0
LINE
  8
0
  6
BYLAYER
 62
     1
 10
211.343318
 20
-115.832134
 30
0.0
 11
210.244411
 21
-111.728237
 31
0.0
  0
LINE
  8
0
  6
BYLAYER
 62
     1
 10
210.244411
 20
-111.728237
 30
0.0
 11
208.469264
 21
-111.728237
 31
0.0
  0
LINE
  8
0
  6
BYLAYER
 62
     1
 10
208.469264
 20
-111.728237
 30
0.0
 11
210.328944
 21
-117.729930
 31
0.0
  0
LINE
  8
0
  6
BYLAYER
 62
     1
 10
211.343318
 20
-115.832134
 30
0.0
 11
212.442195
 21
-111.728237
 31
0.0
  0
LINE
  8
0
  6
BYLAYER
 62
     1
 10
212.442195
 20
-111.728237
 30
0.0
 11
214.217342
 21
-111.728237
 31
0.0
  0
LINE
  8
0
  6
BYLAYER
 62
     1
 10
214.217342
 20
-111.728237
 30
0.0
 11
212.357661
 21
-117.729930
 31
0.0
  0
LINE
  8
0
  6
BYLAYER
 62
     1
 10
212.357661
 20
-117.729930
 30
0.0
 11
210.328944
 21
-117.729930
 31
0.0
  0
LINE
  8
0
  6
BYLAYER
 62
     1
 10
225.079585
 20
-117.729930
 30
0.0
 11
226.854732
 21
-117.729930
 31
0.0
  0
LINE
  8
0
  6
BYLAYER
 62
     1
 10
226.854732
 20
-117.729930
 30
0.0
 11
226.854732
 21
-111.728237
 31
0.0
  0
LINE
  8
0
  6
BYLAYER
 62
     1
 10
226.854732
 20
-111.728237
 30
0.0
 11
225.079585
 21
-111.728237
 31
0.0
  0
LINE
  8
0
  6
BYLAYER
 62
     1
 10
225.079585
 20
-111.728237
 30
0.0
 11
225.079585
 21
-117.729930
 31
0.0
  0
ARC
  8
0
  6
BYLAYER
 62
     1
 10
230.193706
 20
-115.067564
 30
0.0
 40
2.873701
 50
270.0
 51
308.795693
  0
ARC
  8
0
  6
BYLAYER
 62
     1
 10
229.915578
 20
-114.771358
 30
0.0
 40
3.278967
 50
309.340576
 51
360.0
  0
ARC
  8
0
  6
BYLAYER
 62
     1
 10
229.915578
 20
-114.771358
 30
0.0
 40
3.278967
 50
0.0
 51
50.659424
  0
ARC
  8
0
  6
BYLAYER
 62
     1
 10
230.193706
 20
-114.475152
 30
0.0
 40
2.873701
 50
51.204307
 51
90.000000
  0
ARC
  8
0
  6
BYLAYER
 62
     1
 10
230.193706
 20
-114.475152
 30
0.0
 40
2.873701
 50
90.0
 51
128.795693
  0
ARC
  8
0
  6
BYLAYER
 62
     1
 10
230.471834
 20
-114.771358
 30
0.0
 40
3.278967
 50
129.340576
 51
180.0
  0
ARC
  8
0
  6
BYLAYER
 62
     1
 10
230.471834
 20
-114.771358
 30
0.0
 40
3.278967
 50
180.000000
 51
230.659424
  0
ARC
  8
0
  6
BYLAYER
 62
     1
 10
230.193706
 20
-115.067564
 30
0.0
 40
2.873701
 50
231.204307
 51
270.000000
  0
ARC
  8
0
  6
BYLAYER
 62
     1
 10
230.193706
 20
-113.928207
 30
0.0
 40
1.329747
 50
39.206799
 51
90.0
  0
ARC
  8
0
  6
BYLAYER
 62
     1
 10
229.160151
 20
-114.771358
 30
0.0
 40
2.663590
 50
0.0
 51
39.206799
  0
ARC
  8
0
  6
BYLAYER
 62
     1
 10
229.160167
 20
-114.771358
 30
0.0
 40
2.663574
 50
320.793131
 51
360.0
  0
ARC
  8
0
  6
BYLAYER
 62
     1
 10
230.193706
 20
-115.614498
 30
0.0
 40
1.329750
 50
270.0
 51
320.793131
  0
ARC
  8
0
  6
BYLAYER
 62
     1
 10
230.193706
 20
-115.614498
 30
0.0
 40
1.329750
 50
219.206869
 51
270.0
  0
ARC
  8
0
  6
BYLAYER
 62
     1
 10
231.227244
 20
-114.771358
 30
0.0
 40
2.663574
 50
180.000000
 51
219.206869
  0
ARC
  8
0
  6
BYLAYER
 62
     1
 10
231.227260
 20
-114.771358
 30
0.0
 40
2.663590
 50
140.793201
 51
180.000000
  0
ARC
  8
0
  6
BYLAYER
 62
     1
 10
230.193706
 20
-113.928207
 30
0.0
 40
1.329747
 50
90.0
 51
140.793201
  0
ARC
  8
0
  6
BYLAYER
 62
     1
 10
200.221843
 20
-104.857509
 30
0.0
 40
7.429995
 50
174.535650
 51
180.000000
  0
LINE
  8
0
  6
BYLAYER
 62
     1
 10
192.825610
 20
-104.149974
 30
0.0
 11
192.825610
 21
-104.149967
 31
0.0
  0
LINE
  8
0
  6
BYLAYER
 62
     1
 10
192.833695
 20
-104.070044
 30
0.0
 11
193.542798
 21
-103.771501
 31
0.0
  0
ARC
  8
0
  6
BYLAYER
 62
     1
 10
200.221874
 20
-104.857570
 30
0.0
 40
6.766781
 50
159.235383
 51
170.763998
  0
LINE
  8
0
  6
BYLAYER
 62
     1
 10
193.894599
 20
-102.458505
 30
0.0
 11
193.429800
 21
-101.845391
 31
0.0
  0
ARC
  8
0
  6
BYLAYER
 62
     1
 10
200.221843
 20
-104.857509
 30
0.0
 40
7.429986
 50
144.139514
 51
156.083795
  0
LINE
  8
0
  6
BYLAYER
 62
     1
 10
194.151378
 20
-100.573314
 30
0.0
 11
194.151820
 21
-100.572688
 31
0.0
  0
LINE
  8
0
  6
BYLAYER
 62
     1
 10
194.200241
 20
-100.504922
 30
0.0
 11
194.955166
 21
-100.608786
 31
0.0
  0
ARC
  8
0
  6
BYLAYER
 62
     1
 10
200.221843
 20
-104.857509
 30
0.0
 40
6.766741
 50
129.235643
 51
141.105976
  0
LINE
  8
0
  6
BYLAYER
 62
     1
 10
195.831157
 20
-99.708652
 30
0.0
 11
195.831889
 21
-99.708019
 31
0.0
  0
LINE
  8
0
  6
BYLAYER
 62
     1
 10
195.941803
 20
-99.616322
 30
0.0
 11
195.845810
 21
-98.852915
 31
0.0
  0
ARC
  8
0
  6
BYLAYER
 62
     1
 10
200.221843
 20
-104.857509
 30
0.0
 40
7.429994
 50
114.139607
 51
126.083853
  0
LINE
  8
0
  6
BYLAYER
 62
     1
 10
197.107295
 20
-98.111812
 30
0.0
 11
197.107799
 21
-98.111575
 31
0.0
  0
LINE
  8
0
  6
BYLAYER
 62
     1
 10
197.183262
 20
-98.077255
 30
0.0
 11
197.785092
 21
-98.544650
 31
0.0
  0
LINE
  8
0
  6
BYLAYER
 62
     1
 10
197.922694
 20
-98.493327
 30
0.0
 11
197.923457
 21
-98.493060
 31
0.0
  0
ARC
  8
0
  6
BYLAYER
 62
     1
 10
200.221843
 20
-104.857509
 30
0.0
 40
6.766738
 50
99.235601
 51
111.106038
  0
ARC
  8
0
  6
BYLAYER
 62
     1
 10
200.221843
 20
-104.857509
 30
0.0
 40
7.429995
 50
90.0
 51
96.083892
  0
LINE
  8
0
  6
BYLAYER
 62
     1
 10
199.434378
 20
-97.469361
 30
0.0
 11
199.135819
 21
-98.178490
 31
0.0
  0
LINE
  8
0
  6
BYLAYER
 62
     1
 10
207.618068
 20
-104.149974
 30
0.0
 11
207.618068
 21
-104.149967
 31
0.0
  0
LINE
  8
0
  6
BYLAYER
 62
     1
 10
207.609990
 20
-104.070043
 30
0.0
 11
206.900852
 21
-103.771494
 31
0.0
  0
ARC
  8
0
  6
BYLAYER
 62
     1
 10
200.221797
 20
-104.857570
 30
0.0
 40
6.766781
 50
9.235986
 51
20.764650
  0
LINE
  8
0
  6
BYLAYER
 62
     1
 10
206.549121
 20
-102.458434
 30
0.0
 11
207.013887
 21
-101.845393
 31
0.0
  0
ARC
  8
0
  6
BYLAYER
 62
     1
 10
200.221843
 20
-104.857509
 30
0.0
 40
7.429986
 50
23.916189
 51
35.860484
  0
LINE
  8
0
  6
BYLAYER
 62
     1
 10
206.292293
 20
-100.573314
 30
0.0
 11
206.291850
 21
-100.572688
 31
0.0
  0
LINE
  8
0
  6
BYLAYER
 62
     1
 10
206.243445
 20
-100.504922
 30
0.0
 11
205.488573
 21
-100.608776
 31
0.0
  0
ARC
  8
0
  6
BYLAYER
 62
     1
 10
200.221843
 20
-104.857509
 30
0.0
 40
6.766741
 50
38.894050
 51
50.764315
  0
LINE
  8
0
  6
BYLAYER
 62
     1
 10
204.612529
 20
-99.708652
 30
0.0
 11
204.611797
 21
-99.708019
 31
0.0
  0
LINE
  8
0
  6
BYLAYER
 62
     1
 10
204.501902
 20
-99.616200
 30
0.0
 11
204.597860
 21
-98.852904
 31
0.0
  0
ARC
  8
0
  6
BYLAYER
 62
     1
 10
200.221843
 20
-104.857509
 30
0.0
 40
7.429994
 50
53.916300
 51
65.860381
  0
LINE
  8
0
  6
BYLAYER
 62
     1
 10
203.336391
 20
-98.111812
 30
0.0
 11
203.335872
 21
-98.111575
 31
0.0
  0
LINE
  8
0
  6
BYLAYER
 62
     1
 10
203.260425
 20
-98.077256
 30
0.0
 11
202.658602
 21
-98.544629
 31
0.0
  0
LINE
  8
0
  6
BYLAYER
 62
     1
 10
202.520976
 20
-98.493327
 30
0.0
 11
202.520229
 21
-98.493060
 31
0.0
  0
ARC
  8
0
  6
BYLAYER
 62
     1
 10
200.221843
 20
-104.857509
 30
0.0
 40
6.766738
 50
68.894081
 51
80.764578
  0
ARC
  8
0
  6
BYLAYER
 62
     1
 10
200.221843
 20
-104.857509
 30
0.0
 40
7.429995
 50
84.535428
 51
90.000003
  0
LINE
  8
0
  6
BYLAYER
 62
     1
 10
201.009310
 20
-97.469362
 30
0.0
 11
201.307797
 21
-98.178369
 31
0.0
  0
ARC
  8
0
  6
BYLAYER
 62
     1
 10
200.221843
 20
-104.857509
 30
0.0
 40
7.429995
 50
180.000000
 51
186.083899
  0
LINE
  8
0
  6
BYLAYER
 62
     1
 10
192.825610
 20
-105.565036
 30
0.0
 11
192.825610
 21
-105.565051
 31
0.0
  0
LINE
  8
0
  6
BYLAYER
 62
     1
 10
192.833695
 20
-105.644974
 30
0.0
 11
193.542819
 21
-105.943526
 31
0.0
  0
ARC
  8
0
  6
BYLAYER
 62
     1
 10
200.221874
 20
-104.857448
 30
0.0
 40
6.766781
 50
189.236002
 51
200.764629
  0
LINE
  8
0
  6
BYLAYER
 62
     1
 10
193.894623
 20
-107.256483
 30
0.0
 11
193.429798
 21
-107.869621
 31
0.0
  0
ARC
  8
0
  6
BYLAYER
 62
     1
 10
200.221843
 20
-104.857509
 30
0.0
 40
7.429986
 50
203.916158
 51
215.860410
  0
LINE
  8
0
  6
BYLAYER
 62
     1
 10
194.151378
 20
-109.141696
 30
0.0
 11
194.151820
 21
-109.142322
 31
0.0
  0
LINE
  8
0
  6
BYLAYER
 62
     1
 10
194.200236
 20
-109.210088
 30
0.0
 11
194.955232
 21
-109.106225
 31
0.0
  0
ARC
  8
0
  6
BYLAYER
 62
     1
 10
200.221843
 20
-104.857509
 30
0.0
 40
6.766741
 50
218.894045
 51
230.764345
  0
LINE
  8
0
  6
BYLAYER
 62
     1
 10
195.831157
 20
-110.006358
 30
0.0
 11
195.831889
 21
-110.006992
 31
0.0
  0
LINE
  8
0
  6
BYLAYER
 62
     1
 10
195.941802
 20
-110.098695
 30
0.0
 11
195.845810
 21
-110.862103
 31
0.0
  0
ARC
  8
0
  6
BYLAYER
 62
     1
 10
200.221843
 20
-104.857509
 30
0.0
 40
7.429994
 50
233.916148
 51
245.860401
  0
LINE
  8
0
  6
BYLAYER
 62
     1
 10
197.107295
 20
-111.603198
 30
0.0
 11
197.107799
 21
-111.603443
 31
0.0
  0
LINE
  8
0
  6
BYLAYER
 62
     1
 10
197.183263
 20
-111.637763
 30
0.0
 11
197.785163
 21
-111.170303
 31
0.0
  0
LINE
  8
0
  6
BYLAYER
 62
     1
 10
197.922694
 20
-111.221683
 30
0.0
 11
197.923457
 21
-111.221958
 31
0.0
  0
LINE
  8
0
  6
BYLAYER
 62
     1
 10
207.618068
 20
-105.565036
 30
0.0
 11
207.618068
 21
-105.565051
 31
0.0
  0
LINE
  8
0
  6
BYLAYER
 62
     1
 10
207.609989
 20
-105.644976
 30
0.0
 11
206.900852
 21
-105.943524
 31
0.0
  0
LINE
  8
0
  6
BYLAYER
 62
     1
 10
206.549056
 20
-107.256500
 30
0.0
 11
207.013894
 21
-107.869626
 31
0.0
  0
LINE
  8
0
  6
BYLAYER
 62
     1
 10
206.292293
 20
-109.141696
 30
0.0
 11
206.291850
 21
-109.142322
 31
0.0
  0
LINE
  8
0
  6
BYLAYER
 62
     1
 10
206.243459
 20
-109.210089
 30
0.0
 11
205.488414
 21
-109.106222
 31
0.0
  0
LINE
  8
0
  6
BYLAYER
 62
     1
 10
204.612529
 20
-110.006358
 30
0.0
 11
204.611797
 21
-110.006992
 31
0.0
  0
LINE
  8
0
  6
BYLAYER
 62
     1
 10
204.501888
 20
-110.098692
 30
0.0
 11
204.597860
 21
-110.862114
 31
0.0
  0
LINE
  8
0
  6
BYLAYER
 62
     1
 10
203.260424
 20
-111.637762
 30
0.0
 11
202.658510
 21
-111.170308
 31
0.0
  0
ARC
  8
0
  6
BYLAYER
 62
     1
 10
200.221843
 20
-104.857509
 30
0.0
 40
6.766741
 50
309.235697
 51
321.105929
  0
ARC
  8
0
  6
BYLAYER
 62
     1
 10
200.221843
 20
-104.857509
 30
0.0
 40
6.766738
 50
248.893873
 51
270.0
  0
ARC
  8
0
  6
BYLAYER
 62
     1
 10
200.221843
 20
-104.857509
 30
0.0
 40
7.429994
 50
294.783232
 51
306.083699
  0
LINE
  8
0
  6
BYLAYER
 62
     1
 10
203.335872
 20
-111.603443
 30
0.0
 11
203.260882
 21
-111.638732
 31
0.0
  0
ARC
  8
0
  6
BYLAYER
 62
     1
 10
200.221843
 20
-104.857509
 30
0.0
 40
7.429986
 50
324.139593
 51
336.083825
  0
ARC
  8
0
  6
BYLAYER
 62
     1
 10
200.221797
 20
-104.857448
 30
0.0
 40
6.766781
 50
339.235210
 51
350.764014
  0
ARC
  8
0
  6
BYLAYER
 62
     1
 10
200.221843
 20
-104.857509
 30
0.0
 40
7.429995
 50
353.916089
 51
360.000000
  0
ARC
  8
0
  6
BYLAYER
 62
     1
 10
200.221843
 20
-104.857509
 30
0.0
 40
7.429995
 50
0.0
 51
6.083907
  0
ARC
  8
0
  6
BYLAYER
 62
     1
 10
200.221843
 20
-104.857509
 30
0.0
 40
6.766738
 50
270.0
 51
291.106008
  0
CIRCLE
  8
0
  6
BYLAYER
 62
     1
 10
200.221843
 20
-104.857509
 30
0.0
 40
3.630081
  0
CIRCLE
  8
0
  6
BYLAYER
 62
     1
 10
200.221843
 20
-104.857509
 30
0.0
 40
5.296032
  0
LINE
  8
0
  6
BYLAYER
 62
     1
 10
207.221843
 20
-203.607509
 30
0.0
 11
207.221843
 21
-198.607509
 31
0.0
  0
LINE
  8
0
  6
BYLAYER
 62
     1
 10
207.221843
 20
-203.607509
 30
0.0
 11
202.221843
 21
-203.607509
 31
0.0
  0
LINE
  8
0
  6
BYLAYER
 62
     1
 10
207.221843
 20
-203.607509
 30
0.0
 11
207.221843
 21
-208.607509
 31
0.0
  0
LINE
  8
0
  6
BYLAYER
 62
     1
 10
207.221843
 20
-203.607509
 30
0.0
 11
212.221843
 21
-203.607509
 31
0.0
  0
LINE
  8
0
  6
BYLAYER
 62
     1
 10
831.221843
 20
-484.607509
 30
0.0
 11
851.221843
 21
-484.607509
 31
0.0
  0
LINE
  8
0
  6
BYLAYER
 62
     1
 10
827.221843
 20
-603.607509
 30
0.0
 11
827.221843
 21
-556.607509
 31
0.0
  0
LINE
  8
0
  6
BYLAYER
 62
     1
 10
827.221843
 20
-556.607509
 30
0.0
 11
827.721843
 21
-556.107509
 31
0.0
  0
LINE
  8
0
  6
BYLAYER
 62
     1
 10
827.221843
 20
-603.607509
 30
0.0
 11
827.221843
 21
-650.607509
 31
0.0
  0
LINE
  8
0
  6
BYLAYER
 62
     1
 10
827.221843
 20
-650.607509
 30
0.0
 11
827.721843
 21
-651.107509
 31
0.0
  0
LINE
  8
0
  6
BYLAYER
 62
     1
 10
831.221843
 20
-689.607509
 30
0.0
 11
851.221843
 21
-689.607509
 31
0.0
  0
LINE
  8
0
  6
BYLAYER
 62
     1
 10
831.221843
 20
-644.607509
 30
0.0
 11
831.221843
 21
-689.607509
 31
0.0
  0
LINE
  8
0
  6
BYLAYER
 62
     1
 10
851.221843
 20
-644.607509
 30
0.0
 11
831.221843
 21
-644.607509
 31
0.0
  0
LINE
  8
0
  6
BYLAYER
 62
     1
 10
832.721843
 20
-643.107509
 30
0.0
 11
831.221843
 21
-644.607509
 31
0.0
  0
CIRCLE
  8
0
  6
BYLAYER
 62
     1
 10
887.221843
 20
-528.607509
 30
0.0
 40
31.0
  0
LINE
  8
0
  6
BYLAYER
 62
     1
 10
943.221904
 20
-484.607509
 30
0.0
 11
923.221904
 21
-484.607509
 31
0.0
  0
LINE
  8
0
  6
BYLAYER
 62
     1
 10
943.221904
 20
-689.607509
 30
0.0
 11
923.221904
 21
-689.607509
 31
0.0
  0
LINE
  8
0
  6
BYLAYER
 62
     1
 10
923.221904
 20
-644.607509
 30
0.0
 11
943.221904
 21
-644.607509
 31
0.0
  0
LINE
  8
0
  6
BYLAYER
 62
     1
 10
941.721904
 20
-643.107509
 30
0.0
 11
943.221904
 21
-644.607509
 31
0.0
  0
LINE
  8
0
  6
BYLAYER
 62
     1
 10
943.221904
 20
-644.607509
 30
0.0
 11
943.221904
 21
-689.607509
 31
0.0
  0
LINE
  8
0
  6
BYLAYER
 62
     1
 10
830.221843
 20
-556.107509
 30
0.0
 11
827.721843
 21
-556.107509
 31
0.0
  0
LINE
  8
0
  6
BYLAYER
 62
     1
 10
830.221843
 20
-651.107509
 30
0.0
 11
827.721843
 21
-651.107509
 31
0.0
  0
LINE
  8
0
  6
BYLAYER
 62
     1
 10
850.221843
 20
-484.607509
 30
0.0
 11
851.221843
 21
-484.607509
 31
0.0
  0
CIRCLE
  8
0
  6
BYLAYER
 62
     1
 10
932.171794
 20
-510.607753
 30
0.0
 40
5.75
  0
CIRCLE
  8
0
  6
BYLAYER
 62
     1
 10
842.271892
 20
-510.607753
 30
0.0
 40
5.75
  0
LINE
  8
0
  6
BYLAYER
 62
     1
 10
941.721904
 20
-531.107631
 30
0.0
 11
943.221904
 21
-529.607631
 31
0.0
  0
LINE
  8
0
  6
BYLAYER
 62
     1
 10
943.221904
 20
-529.607631
 30
0.0
 11
943.221904
 21
-484.607509
 31
0.0
  0
LINE
  8
0
  6
BYLAYER
 62
     1
 10
832.721843
 20
-531.107631
 30
0.0
 11
831.221843
 21
-529.607631
 31
0.0
  0
LINE
  8
0
  6
BYLAYER
 62
     1
 10
831.221843
 20
-529.607631
 30
0.0
 11
831.221843
 21
-484.607509
 31
0.0
  0
LINE
  8
0
  6
BYLAYER
 62
     1
 10
849.775188
 20
-529.607631
 30
0.0
 11
831.221843
 21
-529.607631
 31
0.0
  0
ARC
  8
0
  6
BYLAYER
 62
     1
 10
849.775188
 20
-530.607631
 30
0.0
 40
1.000000
 50
3.057907
 51
90.000000
  0
LINE
  8
0
  6
BYLAYER
 62
     1
 10
923.221904
 20
-484.607509
 30
0.0
 11
923.221904
 21
-515.144710
 31
0.0
  0
ARC
  8
0
  6
BYLAYER
 62
     1
 10
922.221904
 20
-515.144710
 30
0.0
 40
1.000014
 50
201.039023
 51
359.999996
  0
LINE
  8
0
  6
BYLAYER
 62
     1
 10
851.221843
 20
-515.144588
 30
0.0
 11
851.221843
 21
-484.607509
 31
0.0
  0
ARC
  8
0
  6
BYLAYER
 62
     1
 10
852.221843
 20
-515.144588
 30
0.0
 40
1.000014
 50
180.000000
 51
338.960973
  0
LINE
  8
0
  6
BYLAYER
 62
     1
 10
924.668498
 20
-529.607631
 30
0.0
 11
943.221904
 21
-529.607631
 31
0.0
  0
ARC
  8
0
  6
BYLAYER
 62
     1
 10
924.668498
 20
-530.607631
 30
0.0
 40
1.000020
 50
90.0
 51
176.942086
  0
LINE
  8
0
  6
BYLAYER
 62
     1
 10
923.221904
 20
-484.607509
 30
0.0
 11
923.221904
 21
-515.144710
 31
0.0
  0
LINE
  8
0
  6
BYLAYER
 62
     1
 10
851.221843
 20
-689.607509
 30
0.0
 11
851.221843
 21
-534.628322
 31
0.0
  0
CIRCLE
  8
0
  6
BYLAYER
 62
     1
 10
914.445476
 20
-501.383998
 30
0.0
 40
4.0
  0
CIRCLE
  8
0
  6
BYLAYER
 62
     1
 10
859.998332
 20
-501.383846
 30
0.0
 40
4.0
  0
CIRCLE
  8
0
  6
BYLAYER
 62
     1
 10
859.998210
 20
-555.831020
 30
0.0
 40
4.0
  0
CIRCLE
  8
0
  6
BYLAYER
 62
     1
 10
914.445354
 20
-555.831172
 30
0.0
 40
4.0
  0
ARC
  8
0
  6
BYLAYER
 62
     1
 10
887.221843
 20
-528.607509
 30
0.0
 40
36.500004
 50
148.424355
 51
158.960509
  0
ARC
  8
0
  6
BYLAYER
 62
     1
 10
854.421764
 20
-508.447994
 30
0.0
 40
2.000013
 50
328.424810
 51
411.711570
  0
ARC
  8
0
  6
BYLAYER
 62
     1
 10
859.998332
 20
-501.383846
 30
0.0
 40
6.999995
 50
38.287800
 51
231.711845
  0
ARC
  8
0
  6
BYLAYER
 62
     1
 10
867.062511
 20
-495.807338
 30
0.0
 40
2.000008
 50
218.287737
 51
301.575200
  0
ARC
  8
0
  6
BYLAYER
 62
     1
 10
887.221843
 20
-528.607509
 30
0.0
 40
36.499985
 50
58.424666
 51
121.575332
  0
ARC
  8
0
  6
BYLAYER
 62
     1
 10
907.381175
 20
-495.807338
 30
0.0
 40
2.000013
 50
238.424801
 51
321.712264
  0
ARC
  8
0
  6
BYLAYER
 62
     1
 10
914.445354
 20
-501.383846
 30
0.0
 40
6.999995
 50
308.288160
 51
501.712205
  0
ARC
  8
0
  6
BYLAYER
 62
     1
 10
887.221843
 20
-528.607509
 30
0.0
 40
36.500004
 50
21.039496
 51
31.575650
  0
ARC
  8
0
  6
BYLAYER
 62
     1
 10
920.021892
 20
-508.447994
 30
0.0
 40
2.000008
 50
128.287741
 51
211.575655
  0
ARC
  8
0
  6
BYLAYER
 62
     1
 10
867.062511
 20
-561.407680
 30
0.0
 40
2.000008
 50
58.424803
 51
141.712259
  0
ARC
  8
0
  6
BYLAYER
 62
     1
 10
859.998332
 20
-555.831172
 30
0.0
 40
6.999995
 50
128.288151
 51
321.712210
  0
ARC
  8
0
  6
BYLAYER
 62
     1
 10
887.221843
 20
-528.607509
 30
0.0
 40
36.500004
 50
183.057403
 51
211.575655
  0
ARC
  8
0
  6
BYLAYER
 62
     1
 10
854.421794
 20
-548.767024
 30
0.0
 40
2.000008
 50
308.287746
 51
391.575660
  0
ARC
  8
0
  6
BYLAYER
 62
     1
 10
887.221843
 20
-528.607509
 30
0.0
 40
36.500004
 50
328.424346
 51
356.942599
  0
ARC
  8
0
  6
BYLAYER
 62
     1
 10
920.021892
 20
-548.767024
 30
0.0
 40
2.000008
 50
148.424341
 51
231.712255
  0
ARC
  8
0
  6
BYLAYER
 62
     1
 10
887.221843
 20
-528.607509
 30
0.0
 40
36.499985
 50
238.424665
 51
301.575337
  0
ARC
  8
0
  6
BYLAYER
 62
     1
 10
914.445354
 20
-555.831172
 30
0.0
 40
6.999995
 50
218.287805
 51
411.711850
  0
ARC
  8
0
  6
BYLAYER
 62
     1
 10
907.381175
 20
-561.407680
 30
0.0
 40
2.000013
 50
38.287746
 51
121.575195
  0
LINE
  8
0
  6
BYLAYER
 62
     1
 10
851.221843
 20
-486.107509
 30
0.0
 11
923.221904
 21
-486.107509
 31
0.0
  0
CIRCLE
  8
0
  6
BYLAYER
 62
     1
 10
842.271892
 20
-663.607265
 30
0.0
 40
5.75
  0
CIRCLE
  8
0
  6
BYLAYER
 62
     1
 10
932.171794
 20
-663.607265
 30
0.0
 40
5.75
  0
LINE
  8
0
  6
BYLAYER
 62
     1
 10
832.721843
 20
-531.107631
 30
0.0
 11
832.721843
 21
-643.107509
 31
0.0
  0
LINE
  8
0
  6
BYLAYER
 62
     1
 10
941.721904
 20
-531.107631
 30
0.0
 11
941.721904
 21
-643.107509
 31
0.0
  0
LINE
  8
0
  6
BYLAYER
 62
     1
 10
923.221904
 20
-689.607509
 30
0.0
 11
923.221904
 21
-534.628017
 31
0.0
  0
LINE
  8
0
  6
BYLAYER
 62
     1
 10
851.221843
 20
-643.107509
 30
0.0
 11
832.721843
 21
-643.107509
 31
0.0
  0
LINE
  8
0
  6
BYLAYER
 62
     1
 10
850.807567
 20
-531.107631
 30
0.0
 11
832.721843
 21
-531.107631
 31
0.0
  0
LINE
  8
0
  6
BYLAYER
 62
     1
 10
923.636119
 20
-531.107631
 30
0.0
 11
941.721904
 21
-531.107631
 31
0.0
  0
LINE
  8
0
  6
BYLAYER
 62
     1
 10
923.221904
 20
-643.107509
 30
0.0
 11
941.721904
 21
-643.107509
 31
0.0
  0
LINE
  8
0
  6
BYLAYER
 62
     1
 10
830.221965
 20
-673.607448
 30
0.0
 11
831.221843
 21
-673.642360
 31
0.0
  0
LINE
  8
0
  6
BYLAYER
 62
     1
 10
830.221965
 20
-533.607509
 30
0.0
 11
832.721843
 21
-533.520198
 31
0.0
  0
LINE
  8
0
  6
BYLAYER
 62
     1
 10
830.221843
 20
-673.607509
 30
0.0
 11
830.221843
 21
-556.107509
 31
0.0
  0
LINE
  8
0
  6
BYLAYER
 62
     1
 10
830.221843
 20
-556.107509
 30
0.0
 11
830.221843
 21
-533.607509
 31
0.0
  0
LINE
  8
0
  6
BYLAYER
 62
     1
 10
947.221843
 20
-603.607509
 30
0.0
 11
947.221843
 21
-556.607509
 31
0.0
  0
LINE
  8
0
  6
BYLAYER
 62
     1
 10
947.221843
 20
-556.607509
 30
0.0
 11
946.721843
 21
-556.107509
 31
0.0
  0
LINE
  8
0
  6
BYLAYER
 62
     1
 10
947.221843
 20
-603.607509
 30
0.0
 11
947.221843
 21
-650.607509
 31
0.0
  0
LINE
  8
0
  6
BYLAYER
 62
     1
 10
947.221843
 20
-650.607509
 30
0.0
 11
946.721843
 21
-651.107509
 31
0.0
  0
LINE
  8
0
  6
BYLAYER
 62
     1
 10
944.221843
 20
-556.107509
 30
0.0
 11
946.721843
 21
-556.107509
 31
0.0
  0
LINE
  8
0
  6
BYLAYER
 62
     1
 10
944.221843
 20
-651.107509
 30
0.0
 11
946.721843
 21
-651.107509
 31
0.0
  0
LINE
  8
0
  6
BYLAYER
 62
     1
 10
944.221721
 20
-673.607448
 30
0.0
 11
943.221843
 21
-673.642360
 31
0.0
  0
LINE
  8
0
  6
BYLAYER
 62
     1
 10
944.221721
 20
-533.607509
 30
0.0
 11
941.721843
 21
-533.520198
 31
0.0
  0
LINE
  8
0
  6
BYLAYER
 62
     1
 10
944.221843
 20
-673.607509
 30
0.0
 11
944.221843
 21
-556.107509
 31
0.0
  0
LINE
  8
0
  6
BYLAYER
 62
     1
 10
944.221843
 20
-556.107509
 30
0.0
 11
944.221843
 21
-533.607509
 31
0.0
  0
LINE
  8
0
  6
BYLAYER
 62
     1
 10
923.221904
 20
-685.607448
 30
0.0
 11
851.221843
 21
-685.607448
 31
0.0
  0
LINE
  8
0
  6
BYLAYER
 62
     1
 10
246.721965
 20
-549.107511
 30
0.0
 11
248.221965
 21
-547.607511
 31
0.0
  0
LINE
  8
0
  6
BYLAYER
 62
     1
 10
248.221965
 20
-547.607511
 30
0.0
 11
293.221965
 21
-547.607511
 31
0.0
  0
LINE
  8
0
  6
BYLAYER
 62
     1
 10
248.221965
 20
-567.607511
 30
0.0
 11
248.221965
 21
-547.607511
 31
0.0
  0
LINE
  8
0
  6
BYLAYER
 62
     1
 10
248.221965
 20
-639.607511
 30
0.0
 11
248.221965
 21
-659.607511
 31
0.0
  0
LINE
  8
0
  6
BYLAYER
 62
     1
 10
246.721965
 20
-658.107511
 30
0.0
 11
248.221965
 21
-659.607511
 31
0.0
  0
LINE
  8
0
  6
BYLAYER
 62
     1
 10
246.721965
 20
-639.607511
 30
0.0
 11
246.721965
 21
-658.107511
 31
0.0
  0
LINE
  8
0
  6
BYLAYER
 62
     1
 10
166.221965
 20
-639.607511
 30
0.0
 11
166.221965
 21
-659.607511
 31
0.0
  0
LINE
  8
0
  6
BYLAYER
 62
     1
 10
167.721965
 20
-658.107511
 30
0.0
 11
166.221965
 21
-659.607511
 31
0.0
  0
LINE
  8
0
  6
BYLAYER
 62
     1
 10
166.221965
 20
-547.607511
 30
0.0
 11
121.221965
 21
-547.607511
 31
0.0
  0
LINE
  8
0
  6
BYLAYER
 62
     1
 10
166.221965
 20
-567.607511
 30
0.0
 11
166.221965
 21
-547.607511
 31
0.0
  0
LINE
  8
0
  6
BYLAYER
 62
     1
 10
167.721965
 20
-549.107511
 30
0.0
 11
166.221965
 21
-547.607511
 31
0.0
  0
LINE
  8
0
  6
BYLAYER
 62
     1
 10
167.721965
 20
-639.607511
 30
0.0
 11
167.721965
 21
-658.107511
 31
0.0
  0
LINE
  8
0
  6
BYLAYER
 62
     1
 10
248.221965
 20
-659.607511
 30
0.0
 11
293.221965
 21
-659.607511
 31
0.0
  0
LINE
  8
0
  6
BYLAYER
 62
     1
 10
166.221965
 20
-659.607511
 30
0.0
 11
121.221965
 21
-659.607511
 31
0.0
  0
LINE
  8
0
  6
BYLAYER
 62
     1
 10
121.221965
 20
-639.607511
 30
0.0
 11
293.221965
 21
-639.607511
 31
0.0
  0
LINE
  8
0
  6
BYLAYER
 62
     1
 10
121.221965
 20
-567.607511
 30
0.0
 11
293.221965
 21
-567.607511
 31
0.0
  0
LINE
  8
0
  6
BYLAYER
 62
     1
 10
293.221965
 20
-567.607511
 30
0.0
 11
293.221965
 21
-547.607511
 31
0.0
  0
LINE
  8
0
  6
BYLAYER
 62
     1
 10
293.221965
 20
-639.607511
 30
0.0
 11
293.221965
 21
-659.607511
 31
0.0
  0
CIRCLE
  8
0
  6
BYLAYER
 62
     1
 10
147.221965
 20
-558.607694
 30
0.0
 40
5.75
  0
LINE
  8
0
  6
BYLAYER
 62
     1
 10
207.221843
 20
-543.607511
 30
0.0
 11
160.721843
 21
-543.607511
 31
0.0
  0
ARC
  8
0
  6
BYLAYER
 62
     1
 10
160.721843
 20
-544.607511
 30
0.0
 40
1.000000
 50
90.0
 51
180.000003
  0
LINE
  8
0
  6
BYLAYER
 62
     1
 10
207.221843
 20
-543.607511
 30
0.0
 11
253.721843
 21
-543.607511
 31
0.0
  0
ARC
  8
0
  6
BYLAYER
 62
     1
 10
253.721843
 20
-544.607511
 30
0.0
 40
1.000000
 50
0.0
 51
90.000003
  0
LINE
  8
0
  6
BYLAYER
 62
     1
 10
167.721965
 20
-549.107511
 30
0.0
 11
246.721965
 21
-549.107511
 31
0.0
  0
LINE
  8
0
  6
BYLAYER
 62
     1
 10
167.721965
 20
-567.607511
 30
0.0
 11
167.721965
 21
-549.107511
 31
0.0
  0
LINE
  8
0
  6
BYLAYER
 62
     1
 10
246.721965
 20
-567.607511
 30
0.0
 11
246.721965
 21
-549.107511
 31
0.0
  0
CIRCLE
  8
0
  6
BYLAYER
 62
     1
 10
267.221965
 20
-558.607694
 30
0.0
 40
5.75
  0
LINE
  8
0
  6
BYLAYER
 62
     1
 10
122.721965
 20
-639.607511
 30
0.0
 11
122.721965
 21
-567.607511
 31
0.0
  0
LINE
  8
0
  6
BYLAYER
 62
     1
 10
121.221965
 20
-547.607511
 30
0.0
 11
121.221965
 21
-659.607511
 31
0.0
  0
LINE
  8
0
  6
BYLAYER
 62
     1
 10
246.721965
 20
-658.107511
 30
0.0
 11
167.721965
 21
-658.107511
 31
0.0
  0
CIRCLE
  8
0
  6
BYLAYER
 62
     1
 10
147.221965
 20
-648.607328
 30
0.0
 40
5.75
  0
CIRCLE
  8
0
  6
BYLAYER
 62
     1
 10
267.221965
 20
-648.607328
 30
0.0
 40
5.75
  0
LINE
  8
0
  6
BYLAYER
 62
     1
 10
140.721965
 20
-567.607511
 30
0.0
 11
140.721965
 21
-639.607511
 31
0.0
  0
LINE
  8
0
  6
BYLAYER
 62
     1
 10
273.721965
 20
-567.607511
 30
0.0
 11
273.721965
 21
-639.607511
 31
0.0
  0
LINE
  8
0
  6
BYLAYER
 62
     1
 10
291.721965
 20
-567.607511
 30
0.0
 11
291.721965
 21
-639.607511
 31
0.0
  0
LINE
  8
0
  6
BYLAYER
 62
     1
 10
277.221843
 20
-546.607511
 30
0.0
 11
137.221843
 21
-546.607511
 31
0.0
  0
LINE
  8
0
  6
BYLAYER
 62
     1
 10
254.721843
 20
-546.607511
 30
0.0
 11
254.721843
 21
-544.607511
 31
0.0
  0
LINE
  8
0
  6
BYLAYER
 62
     1
 10
159.721843
 20
-546.607511
 30
0.0
 11
159.721843
 21
-544.607511
 31
0.0
  0
LINE
  8
0
  6
BYLAYER
 62
     1
 10
137.221904
 20
-546.607633
 30
0.0
 11
137.186984
 21
-547.607511
 31
0.0
  0
LINE
  8
0
  6
BYLAYER
 62
     1
 10
277.221904
 20
-546.607633
 30
0.0
 11
277.256816
 21
-547.607511
 31
0.0
  0
LINE
  8
0
  6
BYLAYER
 62
     1
 10
295.221843
 20
-652.607328
 30
0.0
 11
293.221843
 21
-652.677152
 31
0.0
  0
LINE
  8
0
  6
BYLAYER
 62
     1
 10
295.221843
 20
-554.607694
 30
0.0
 11
293.221843
 21
-554.537870
 31
0.0
  0
LINE
  8
0
  6
BYLAYER
 62
     1
 10
295.221965
 20
-554.607694
 30
0.0
 11
295.221965
 21
-652.607324
 31
0.0
  0
LINE
  8
0
  6
BYLAYER
 62
     1
 10
207.221843
 20
-663.607507
 30
0.0
 11
160.721843
 21
-663.607507
 31
0.0
  0
ARC
  8
0
  6
BYLAYER
 62
     1
 10
160.721843
 20
-662.607507
 30
0.0
 40
1.000000
 50
180.000000
 51
270.000003
  0
LINE
  8
0
  6
BYLAYER
 62
     1
 10
207.221843
 20
-663.607507
 30
0.0
 11
253.721843
 21
-663.607507
 31
0.0
  0
ARC
  8
0
  6
BYLAYER
 62
     1
 10
253.721843
 20
-662.607507
 30
0.0
 40
1.000000
 50
270.0
 51
360.000003
  0
LINE
  8
0
  6
BYLAYER
 62
     1
 10
277.221843
 20
-660.607507
 30
0.0
 11
137.221843
 21
-660.607507
 31
0.0
  0
LINE
  8
0
  6
BYLAYER
 62
     1
 10
254.721843
 20
-660.607507
 30
0.0
 11
254.721843
 21
-662.607507
 31
0.0
  0
LINE
  8
0
  6
BYLAYER
 62
     1
 10
159.721843
 20
-660.607507
 30
0.0
 11
159.721843
 21
-662.607507
 31
0.0
  0
LINE
  8
0
  6
BYLAYER
 62
     1
 10
137.221904
 20
-660.607385
 30
0.0
 11
137.186984
 21
-659.607507
 31
0.0
  0
LINE
  8
0
  6
BYLAYER
 62
     1
 10
277.221904
 20
-660.607385
 30
0.0
 11
277.256816
 21
-659.607507
 31
0.0
  0
ARC
  8
0
  6
BYLAYER
 62
     1
 10
169.947339
 20
-583.607511
 30
0.0
 40
1.25
 50
270.0
 51
450.000005
  0
ARC
  8
0
  6
BYLAYER
 62
     1
 10
169.947339
 20
-573.607511
 30
0.0
 40
1.25
 50
270.0
 51
450.000005
  0
ARC
  8
0
  6
BYLAYER
 62
     1
 10
169.947339
 20
-623.607511
 30
0.0
 40
1.25
 50
270.0
 51
450.000005
  0
ARC
  8
0
  6
BYLAYER
 62
     1
 10
169.947339
 20
-633.607511
 30
0.0
 40
1.25
 50
270.0
 51
450.000005
  0
LINE
  8
0
  6
BYLAYER
 62
     1
 10
169.947339
 20
-572.357511
 30
0.0
 11
140.721965
 21
-572.357511
 31
0.0
  0
LINE
  8
0
  6
BYLAYER
 62
     1
 10
169.947339
 20
-582.357511
 30
0.0
 11
140.721965
 21
-582.357511
 31
0.0
  0
LINE
  8
0
  6
BYLAYER
 62
     1
 10
169.947339
 20
-584.857511
 30
0.0
 11
140.721965
 21
-584.857511
 31
0.0
  0
LINE
  8
0
  6
BYLAYER
 62
     1
 10
169.947339
 20
-632.357511
 30
0.0
 11
140.721965
 21
-632.357511
 31
0.0
  0
LINE
  8
0
  6
BYLAYER
 62
     1
 10
169.947339
 20
-634.857511
 30
0.0
 11
140.721965
 21
-634.857511
 31
0.0
  0
LINE
  8
0
  6
BYLAYER
 62
     1
 10
140.721965
 20
-622.357511
 30
0.0
 11
169.947339
 21
-622.357511
 31
0.0
  0
LINE
  8
0
  6
BYLAYER
 62
     1
 10
140.721965
 20
-624.857511
 30
0.0
 11
169.947339
 21
-624.857511
 31
0.0
  0
LINE
  8
0
  6
BYLAYER
 62
     1
 10
140.721965
 20
-574.857511
 30
0.0
 11
169.947339
 21
-574.857511
 31
0.0
  0
ARC
  8
0
  6
BYLAYER
 62
     1
 10
182.697637
 20
-593.607511
 30
0.0
 40
1.25
 50
270.0
 51
450.000005
  0
ARC
  8
0
  6
BYLAYER
 62
     1
 10
182.697637
 20
-613.607511
 30
0.0
 40
1.25
 50
270.0
 51
450.000005
  0
ARC
  8
0
  6
BYLAYER
 62
     1
 10
182.697637
 20
-603.607511
 30
0.0
 40
1.25
 50
270.0
 51
360.000009
  0
ARC
  8
0
  6
BYLAYER
 62
     1
 10
182.697637
 20
-603.607511
 30
0.0
 40
1.250000
 50
0.0
 51
89.999996
  0
LINE
  8
0
  6
BYLAYER
 62
     1
 10
140.721965
 20
-604.857511
 30
0.0
 11
182.697637
 21
-604.857511
 31
0.0
  0
LINE
  8
0
  6
BYLAYER
 62
     1
 10
140.721965
 20
-592.357511
 30
0.0
 11
182.697637
 21
-592.357511
 31
0.0
  0
LINE
  8
0
  6
BYLAYER
 62
     1
 10
140.721965
 20
-602.357511
 30
0.0
 11
182.697637
 21
-602.357511
 31
0.0
  0
LINE
  8
0
  6
BYLAYER
 62
     1
 10
140.721965
 20
-612.357387
 30
0.0
 11
182.697637
 21
-612.357557
 31
0.0
  0
LINE
  8
0
  6
BYLAYER
 62
     1
 10
140.721965
 20
-614.857387
 30
0.0
 11
182.697637
 21
-614.857557
 31
0.0
  0
LINE
  8
0
  6
BYLAYER
 62
     1
 10
140.721965
 20
-594.857511
 30
0.0
 11
182.697637
 21
-594.857511
 31
0.0
  0
LINE
  8
0
  6
BYLAYER
 62
     1
 10
236.621694
 20
-572.357511
 30
0.0
 11
273.721965
 21
-572.357511
 31
0.0
  0
ARC
  8
0
  6
BYLAYER
 62
     1
 10
236.621694
 20
-573.607511
 30
0.0
 40
1.25
 50
90.0
 51
270.000005
  0
LINE
  8
0
  6
BYLAYER
 62
     1
 10
236.621694
 20
-622.357511
 30
0.0
 11
273.721965
 21
-622.357511
 31
0.0
  0
LINE
  8
0
  6
BYLAYER
 62
     1
 10
236.621694
 20
-624.857511
 30
0.0
 11
273.721965
 21
-624.857511
 31
0.0
  0
ARC
  8
0
  6
BYLAYER
 62
     1
 10
236.621694
 20
-623.607511
 30
0.0
 40
1.25
 50
90.0
 51
270.000005
  0
LINE
  8
0
  6
BYLAYER
 62
     1
 10
236.621694
 20
-634.857511
 30
0.0
 11
273.721965
 21
-634.857511
 31
0.0
  0
ARC
  8
0
  6
BYLAYER
 62
     1
 10
236.621694
 20
-633.607511
 30
0.0
 40
1.25
 50
90.0
 51
270.000005
  0
LINE
  8
0
  6
BYLAYER
 62
     1
 10
273.721965
 20
-584.857511
 30
0.0
 11
236.621694
 21
-584.857511
 31
0.0
  0
LINE
  8
0
  6
BYLAYER
 62
     1
 10
236.621694
 20
-632.357511
 30
0.0
 11
273.721965
 21
-632.357511
 31
0.0
  0
LINE
  8
0
  6
BYLAYER
 62
     1
 10
273.721965
 20
-582.357511
 30
0.0
 11
236.621694
 21
-582.357511
 31
0.0
  0
LINE
  8
0
  6
BYLAYER
 62
     1
 10
236.621694
 20
-574.857511
 30
0.0
 11
273.721965
 21
-574.857511
 31
0.0
  0
ARC
  8
0
  6
BYLAYER
 62
     1
 10
236.621694
 20
-583.607511
 30
0.0
 40
1.25
 50
90.0
 51
270.000005
  0
LINE
  8
0
  6
BYLAYER
 62
     1
 10
295.221843
 20
-176.107387
 30
0.0
 11
295.221843
 21
-128.607509
 31
0.0
  0
ARC
  8
0
  6
BYLAYER
 62
     1
 10
310.721843
 20
-226.132961
 30
0.0
 40
2.000089
 50
180.000000
 51
266.999958
  0
LINE
  8
0
  6
BYLAYER
 62
     1
 10
308.721843
 20
-211.107448
 30
0.0
 11
308.721843
 21
-226.132991
 31
0.0
  0
LINE
  8
0
  6
BYLAYER
 62
     1
 10
308.721843
 20
-211.107448
 30
0.0
 11
308.721843
 21
-128.607509
 31
0.0
  0
ARC
  8
0
  6
BYLAYER
 62
     1
 10
306.721843
 20
-194.238124
 30
0.0
 40
2.000003
 50
0.0
 51
35.000041
  0
LINE
  8
0
  6
BYLAYER
 62
     1
 10
295.427013
 20
-176.107417
 30
0.0
 11
295.221843
 21
-176.107417
 31
0.0
  0
LINE
  8
0
  6
BYLAYER
 62
     1
 10
308.360149
 20
-193.090968
 30
0.0
 11
297.065318
 21
-176.960262
 31
0.0
  0
ARC
  8
0
  6
BYLAYER
 62
     1
 10
295.427013
 20
-178.107417
 30
0.0
 40
2.0
 50
34.999973
 51
90.000000
  0
LINE
  8
0
  6
BYLAYER
 62
     1
 10
297.065318
 20
-176.960262
 30
0.0
 11
308.721843
 21
-211.107448
 31
0.0
  0
LINE
  8
0
  6
BYLAYER
 62
     1
 10
310.617107
 20
-228.130306
 30
0.0
 11
319.721843
 21
-228.607495
 31
0.0
  0
LINE
  8
0
  6
BYLAYER
 62
     1
 10
319.721843
 20
-228.607495
 30
0.0
 11
319.721843
 21
-128.607509
 31
0.0
  0
LINE
  8
0
  6
BYLAYER
 62
     1
 10
297.065318
 20
-176.960262
 30
0.0
 11
297.065318
 21
-128.607509
 31
0.0
  0
LINE
  8
0
  6
BYLAYER
 62
     1
 10
295.221843
 20
-81.107631
 30
0.0
 11
295.221843
 21
-128.607509
 31
0.0
  0
ARC
  8
0
  6
BYLAYER
 62
     1
 10
310.721843
 20
-31.082057
 30
0.0
 40
2.000089
 50
93.000064
 51
180.000022
  0
LINE
  8
0
  6
BYLAYER
 62
     1
 10
308.721843
 20
-46.107570
 30
0.0
 11
308.721843
 21
-31.082027
 31
0.0
  0
LINE
  8
0
  6
BYLAYER
 62
     1
 10
308.721843
 20
-46.107570
 30
0.0
 11
308.721843
 21
-128.607509
 31
0.0
  0
ARC
  8
0
  6
BYLAYER
 62
     1
 10
306.721843
 20
-62.976894
 30
0.0
 40
2.000003
 50
324.999959
 51
360.000000
  0
LINE
  8
0
  6
BYLAYER
 62
     1
 10
295.427013
 20
-81.107601
 30
0.0
 11
295.221843
 21
-81.107601
 31
0.0
  0
LINE
  8
0
  6
BYLAYER
 62
     1
 10
308.360149
 20
-64.124050
 30
0.0
 11
297.065318
 21
-80.254756
 31
0.0
  0
ARC
  8
0
  6
BYLAYER
 62
     1
 10
295.427013
 20
-79.107601
 30
0.0
 40
2.0
 50
270.0
 51
325.000027
  0
LINE
  8
0
  6
BYLAYER
 62
     1
 10
297.065318
 20
-80.254756
 30
0.0
 11
308.721843
 21
-46.107570
 31
0.0
  0
LINE
  8
0
  6
BYLAYER
 62
     1
 10
310.617107
 20
-29.084712
 30
0.0
 11
319.721843
 21
-28.607523
 31
0.0
  0
LINE
  8
0
  6
BYLAYER
 62
     1
 10
319.721843
 20
-28.607523
 30
0.0
 11
319.721843
 21
-128.607509
 31
0.0
  0
LINE
  8
0
  6
BYLAYER
 62
     1
 10
297.065318
 20
-80.254756
 30
0.0
 11
297.065318
 21
-128.607509
 31
0.0
  0
LINE
  8
0
  6
BYLAYER
 62
     1
 10
923.221843
 20
-285.607692
 30
0.0
 11
851.221843
 21
-285.607692
 31
0.0
  0
LINE
  8
0
  6
BYLAYER
 62
     1
 10
830.221843
 20
-251.107509
 30
0.0
 11
827.721843
 21
-251.107509
 31
0.0
  0
LINE
  8
0
  6
BYLAYER
 62
     1
 10
830.221843
 20
-273.607509
 30
0.0
 11
830.221843
 21
-210.771978
 31
0.0
  0
LINE
  8
0
  6
BYLAYER
 62
     1
 10
830.221965
 20
-273.607448
 30
0.0
 11
831.221843
 21
-273.642360
 31
0.0
  0
LINE
  8
0
  6
BYLAYER
 62
     1
 10
827.221843
 20
-208.607509
 30
0.0
 11
827.221843
 21
-250.607509
 31
0.0
  0
LINE
  8
0
  6
BYLAYER
 62
     1
 10
827.721843
 20
-251.107509
 30
0.0
 11
827.221843
 21
-250.607509
 31
0.0
  0
LINE
  8
0
  6
BYLAYER
 62
     1
 10
944.221843
 20
-251.107509
 30
0.0
 11
946.721843
 21
-251.107509
 31
0.0
  0
LINE
  8
0
  6
BYLAYER
 62
     1
 10
944.221843
 20
-273.607509
 30
0.0
 11
944.221843
 21
-210.771978
 31
0.0
  0
LINE
  8
0
  6
BYLAYER
 62
     1
 10
831.221843
 20
-289.607509
 30
0.0
 11
851.221843
 21
-289.607509
 31
0.0
  0
CIRCLE
  8
0
  6
BYLAYER
 62
     1
 10
842.271892
 20
-263.607265
 30
0.0
 40
5.75
  0
LINE
  8
0
  6
BYLAYER
 62
     1
 10
944.221721
 20
-273.607448
 30
0.0
 11
943.221843
 21
-273.642360
 31
0.0
  0
LINE
  8
0
  6
BYLAYER
 62
     1
 10
943.221843
 20
-289.607509
 30
0.0
 11
923.221843
 21
-289.607509
 31
0.0
  0
CIRCLE
  8
0
  6
BYLAYER
 62
     1
 10
932.171794
 20
-263.607265
 30
0.0
 40
5.75
  0
LINE
  8
0
  6
BYLAYER
 62
     1
 10
832.721843
 20
-212.451113
 30
0.0
 11
832.721843
 21
-243.107509
 31
0.0
  0
LINE
  8
0
  6
BYLAYER
 62
     1
 10
947.221843
 20
-208.607509
 30
0.0
 11
947.221843
 21
-250.607509
 31
0.0
  0
LINE
  8
0
  6
BYLAYER
 62
     1
 10
851.221843
 20
-289.607509
 30
0.0
 11
851.221843
 21
-221.902739
 31
0.0
  0
LINE
  8
0
  6
BYLAYER
 62
     1
 10
923.221843
 20
-289.607509
 30
0.0
 11
923.221843
 21
-221.902739
 31
0.0
  0
LINE
  8
0
  6
BYLAYER
 62
     1
 10
941.721843
 20
-243.107509
 30
0.0
 11
941.721843
 21
-212.451113
 31
0.0
  0
LINE
  8
0
  6
BYLAYER
 62
     1
 10
946.721843
 20
-251.107509
 30
0.0
 11
947.221843
 21
-250.607509
 31
0.0
  0
LINE
  8
0
  6
BYLAYER
 62
     1
 10
923.221843
 20
-243.107509
 30
0.0
 11
941.721843
 21
-243.107509
 31
0.0
  0
LINE
  8
0
  6
BYLAYER
 62
     1
 10
943.221843
 20
-244.607509
 30
0.0
 11
943.221843
 21
-289.607509
 31
0.0
  0
LINE
  8
0
  6
BYLAYER
 62
     1
 10
941.721843
 20
-243.107509
 30
0.0
 11
943.221843
 21
-244.607509
 31
0.0
  0
LINE
  8
0
  6
BYLAYER
 62
     1
 10
923.221843
 20
-244.607509
 30
0.0
 11
943.221843
 21
-244.607509
 31
0.0
  0
LINE
  8
0
  6
BYLAYER
 62
     1
 10
851.221843
 20
-243.107509
 30
0.0
 11
832.721843
 21
-243.107509
 31
0.0
  0
LINE
  8
0
  6
BYLAYER
 62
     1
 10
832.721843
 20
-243.107509
 30
0.0
 11
831.221843
 21
-244.607509
 31
0.0
  0
LINE
  8
0
  6
BYLAYER
 62
     1
 10
851.221843
 20
-244.607509
 30
0.0
 11
831.221843
 21
-244.607509
 31
0.0
  0
LINE
  8
0
  6
BYLAYER
 62
     1
 10
831.221843
 20
-244.607509
 30
0.0
 11
831.221843
 21
-289.607509
 31
0.0
  0
LINE
  8
0
  6
BYLAYER
 62
     7
 10
843.721736
 20
-22.107540
 30
0.0
 11
843.721736
 21
-0.607540
 31
0.0
  0
ARC
  8
0
  6
BYLAYER
 62
     7
 10
842.221736
 20
-22.107540
 30
0.0
 40
1.5
 50
270.0
 51
360.0
  0
ARC
  8
0
  6
BYLAYER
 62
     7
 10
845.221736
 20
-0.607540
 30
0.0
 40
1.500000
 50
90.0
 51
180.0
  0
LINE
  8
0
  6
BYLAYER
 62
     7
 10
887.221736
 20
0.892460
 30
0.0
 11
845.221736
 21
0.892460
 31
0.0
  0
LINE
  8
0
  6
BYLAYER
 62
     7
 10
849.093977
 20
-22.107540
 30
0.0
 11
849.093977
 21
-0.607540
 31
0.0
  0
ARC
  8
0
  6
BYLAYER
 62
     7
 10
847.593977
 20
-22.107540
 30
0.0
 40
1.5
 50
270.0
 51
360.0
  0
ARC
  8
0
  6
BYLAYER
 62
     7
 10
850.593977
 20
-0.607540
 30
0.0
 40
1.500000
 50
90.0
 51
180.0
  0
LINE
  8
0
  6
BYLAYER
 62
     7
 10
874.128083
 20
0.892460
 30
0.0
 11
874.620630
 21
-13.212238
 31
0.0
  0
ARC
  8
0
  6
BYLAYER
 62
     7
 10
877.618802
 20
-13.107540
 30
0.0
 40
3.0
 50
182.000000
 51
270.000000
  0
LINE
  8
0
  6
BYLAYER
 62
     7
 10
884.822842
 20
-13.212238
 30
0.0
 11
885.315389
 21
0.892460
 31
0.0
  0
ARC
  8
0
  6
BYLAYER
 62
     7
 10
881.824670
 20
-13.107540
 30
0.0
 40
3.0
 50
270.0
 51
358.0
  0
LINE
  8
0
  6
BYLAYER
 62
     7
 10
877.618802
 20
-16.107540
 30
0.0
 11
881.824670
 21
-16.107540
 31
0.0
  0
LINE
  8
0
  6
BYLAYER
 62
     7
 10
859.128083
 20
0.892460
 30
0.0
 11
859.620630
 21
-13.212238
 31
0.0
  0
ARC
  8
0
  6
BYLAYER
 62
     7
 10
862.618802
 20
-13.107540
 30
0.0
 40
3.0
 50
182.000000
 51
270.000000
  0
LINE
  8
0
  6
BYLAYER
 62
     7
 10
869.822842
 20
-13.212238
 30
0.0
 11
870.315389
 21
0.892460
 31
0.0
  0
ARC
  8
0
  6
BYLAYER
 62
     7
 10
866.824670
 20
-13.107540
 30
0.0
 40
3.0
 50
270.0
 51
358.0
  0
LINE
  8
0
  6
BYLAYER
 62
     7
 10
862.618802
 20
-16.107540
 30
0.0
 11
866.824670
 21
-16.107540
 31
0.0
  0
LINE
  8
0
  6
BYLAYER
 62
     7
 10
859.163004
 20
-0.107540
 30
0.0
 11
870.280468
 21
-0.107540
 31
0.0
  0
LINE
  8
0
  6
BYLAYER
 62
     7
 10
874.163004
 20
-0.107540
 30
0.0
 11
885.280468
 21
-0.107540
 31
0.0
  0
LINE
  8
0
  6
BYLAYER
 62
     7
 10
887.221736
 20
-23.607540
 30
0.0
 11
839.721736
 21
-23.607540
 31
0.0
  0
ARC
  8
0
  6
BYLAYER
 62
     7
 10
839.721736
 20
-25.107540
 30
0.0
 40
1.500000
 50
90.0
 51
180.0
  0
LINE
  8
0
  6
BYLAYER
 62
     7
 10
838.221736
 20
-30.607540
 30
0.0
 11
838.221736
 21
-25.107540
 31
0.0
  0
LINE
  8
0
  6
BYLAYER
 62
     7
 10
838.221736
 20
-30.607540
 30
0.0
 11
887.221736
 21
-30.607540
 31
0.0
  0
LINE
  8
0
  6
BYLAYER
 62
     7
 10
930.721736
 20
-22.107540
 30
0.0
 11
930.721736
 21
-0.607540
 31
0.0
  0
ARC
  8
0
  6
BYLAYER
 62
     7
 10
932.221736
 20
-22.107540
 30
0.0
 40
1.5
 50
180.000000
 51
270.000000
  0
ARC
  8
0
  6
BYLAYER
 62
     7
 10
929.221736
 20
-0.607540
 30
0.0
 40
1.500000
 50
0.0
 51
90.0
  0
LINE
  8
0
  6
BYLAYER
 62
     7
 10
887.221736
 20
0.892460
 30
0.0
 11
929.221736
 21
0.892460
 31
0.0
  0
LINE
  8
0
  6
BYLAYER
 62
     7
 10
925.349495
 20
-22.107540
 30
0.0
 11
925.349495
 21
-0.607540
 31
0.0
  0
ARC
  8
0
  6
BYLAYER
 62
     7
 10
926.849495
 20
-22.107540
 30
0.0
 40
1.5
 50
180.000000
 51
270.000000
  0
ARC
  8
0
  6
BYLAYER
 62
     7
 10
923.849495
 20
-0.607540
 30
0.0
 40
1.500000
 50
0.0
 51
90.0
  0
LINE
  8
0
  6
BYLAYER
 62
     7
 10
900.315389
 20
0.892460
 30
0.0
 11
899.822842
 21
-13.212238
 31
0.0
  0
ARC
  8
0
  6
BYLAYER
 62
     7
 10
896.824670
 20
-13.107540
 30
0.0
 40
3.0
 50
270.0
 51
358.0
  0
LINE
  8
0
  6
BYLAYER
 62
     7
 10
889.620630
 20
-13.212238
 30
0.0
 11
889.128083
 21
0.892460
 31
0.0
  0
ARC
  8
0
  6
BYLAYER
 62
     7
 10
892.618802
 20
-13.107540
 30
0.0
 40
3.0
 50
182.000000
 51
270.000000
  0
LINE
  8
0
  6
BYLAYER
 62
     7
 10
896.824670
 20
-16.107540
 30
0.0
 11
892.618802
 21
-16.107540
 31
0.0
  0
LINE
  8
0
  6
BYLAYER
 62
     7
 10
915.315389
 20
0.892460
 30
0.0
 11
914.822842
 21
-13.212238
 31
0.0
  0
ARC
  8
0
  6
BYLAYER
 62
     7
 10
911.824670
 20
-13.107540
 30
0.0
 40
3.0
 50
270.0
 51
358.0
  0
LINE
  8
0
  6
BYLAYER
 62
     7
 10
904.620630
 20
-13.212238
 30
0.0
 11
904.128083
 21
0.892460
 31
0.0
  0
ARC
  8
0
  6
BYLAYER
 62
     7
 10
907.618802
 20
-13.107540
 30
0.0
 40
3.0
 50
182.000000
 51
270.000000
  0
LINE
  8
0
  6
BYLAYER
 62
     7
 10
911.824670
 20
-16.107540
 30
0.0
 11
907.618802
 21
-16.107540
 31
0.0
  0
LINE
  8
0
  6
BYLAYER
 62
     7
 10
915.280468
 20
-0.107540
 30
0.0
 11
904.163004
 21
-0.107540
 31
0.0
  0
LINE
  8
0
  6
BYLAYER
 62
     7
 10
900.280468
 20
-0.107540
 30
0.0
 11
889.163004
 21
-0.107540
 31
0.0
  0
LINE
  8
0
  6
BYLAYER
 62
     7
 10
887.221736
 20
-23.607540
 30
0.0
 11
934.721736
 21
-23.607540
 31
0.0
  0
ARC
  8
0
  6
BYLAYER
 62
     7
 10
934.721736
 20
-25.107540
 30
0.0
 40
1.5
 50
0.0
 51
90.0
  0
LINE
  8
0
  6
BYLAYER
 62
     7
 10
936.221736
 20
-32.607540
 30
0.0
 11
936.221736
 21
-25.107540
 31
0.0
  0
LINE
  8
0
  6
BYLAYER
 62
     7
 10
936.221736
 20
-30.607540
 30
0.0
 11
887.221736
 21
-30.607540
 31
0.0
  0
LINE
  8
0
  6
BYLAYER
 62
     7
 10
838.221736
 20
-32.607540
 30
0.0
 11
887.221720
 21
-32.607540
 31
0.0
  0
LINE
  8
0
  6
BYLAYER
 62
     7
 10
838.221736
 20
-38.107540
 30
0.0
 11
841.221736
 21
-43.303707
 31
0.0
  0
LINE
  8
0
  6
BYLAYER
 62
     7
 10
936.221720
 20
-32.607418
 30
0.0
 11
887.221720
 21
-32.607540
 31
0.0
  0
LINE
  8
0
  6
BYLAYER
 62
     7
 10
936.221720
 20
-38.107418
 30
0.0
 11
933.221720
 21
-43.303585
 31
0.0
  0
LINE
  8
0
  6
BYLAYER
 62
     7
 10
841.221736
 20
-43.303707
 30
0.0
 11
841.221736
 21
-55.293943
 31
0.0
  0
LINE
  8
0
  6
BYLAYER
 62
     7
 10
838.221736
 20
-32.607540
 30
0.0
 11
838.221736
 21
-57.264126
 31
0.0
  0
LINE
  8
0
  6
BYLAYER
 62
     7
 10
936.221720
 20
-32.607418
 30
0.0
 11
936.221749
 21
-57.263988
 31
0.0
  0
LINE
  8
0
  6
BYLAYER
 62
     7
 10
933.221720
 20
-43.303585
 30
0.0
 11
933.221731
 21
-55.293806
 31
0.0
  0
LINE
  8
0
  6
BYLAYER
 62
     7
 10
838.221736
 20
-30.607540
 30
0.0
 11
838.221736
 21
-32.607540
 31
0.0
  0
LINE
  8
0
  6
BYLAYER
 62
     7
 10
838.221736
 20
-32.607540
 30
0.0
 11
936.221736
 21
-32.607540
 31
0.0
  0
LINE
  8
0
  6
BYLAYER
 62
     7
 10
888.221843
 20
-99.607509
 30
0.0
 11
888.221843
 21
-107.607509
 31
0.0
  0
LINE
  8
0
  6
BYLAYER
 62
     7
 10
888.221843
 20
-89.607509
 30
0.0
 11
888.221843
 21
-97.607509
 31
0.0
  0
LINE
  8
0
  6
BYLAYER
 62
     7
 10
896.221843
 20
-97.607509
 30
0.0
 11
896.221843
 21
-89.607509
 31
0.0
  0
LINE
  8
0
  6
BYLAYER
 62
     7
 10
898.221843
 20
-97.607509
 30
0.0
 11
898.221843
 21
-89.607509
 31
0.0
  0
LINE
  8
0
  6
BYLAYER
 62
     7
 10
888.221843
 20
-107.607509
 30
0.0
 11
896.221843
 21
-107.607509
 31
0.0
  0
LINE
  8
0
  6
BYLAYER
 62
     7
 10
888.221843
 20
-99.607509
 30
0.0
 11
896.221843
 21
-99.607509
 31
0.0
  0
LINE
  8
0
  6
BYLAYER
 62
     7
 10
898.221843
 20
-97.607509
 30
0.0
 11
906.059842
 21
-97.607509
 31
0.0
  0
LINE
  8
0
  6
BYLAYER
 62
     7
 10
888.221843
 20
-97.607509
 30
0.0
 11
896.221843
 21
-97.607509
 31
0.0
  0
LINE
  8
0
  6
BYLAYER
 62
     7
 10
898.221843
 20
-89.607509
 30
0.0
 11
906.059842
 21
-89.607509
 31
0.0
  0
LINE
  8
0
  6
BYLAYER
 62
     7
 10
888.221843
 20
-89.607509
 30
0.0
 11
896.221843
 21
-89.607509
 31
0.0
  0
LINE
  8
0
  6
BYLAYER
 62
     7
 10
906.059842
 20
-97.607509
 30
0.0
 11
906.059842
 21
-89.607509
 31
0.0
  0
LINE
  8
0
  6
BYLAYER
 62
     7
 10
896.221843
 20
-107.607509
 30
0.0
 11
896.221843
 21
-99.607509
 31
0.0
  0
LINE
  8
0
  6
BYLAYER
 62
     7
 10
898.221843
 20
-99.607509
 30
0.0
 11
898.221843
 21
-107.607509
 31
0.0
  0
LINE
  8
0
  6
BYLAYER
 62
     7
 10
898.221843
 20
-107.607509
 30
0.0
 11
906.221843
 21
-107.607509
 31
0.0
  0
LINE
  8
0
  6
BYLAYER
 62
     7
 10
898.221843
 20
-99.607509
 30
0.0
 11
906.221843
 21
-99.607509
 31
0.0
  0
LINE
  8
0
  6
BYLAYER
 62
     7
 10
906.221843
 20
-107.607509
 30
0.0
 11
906.221843
 21
-99.607509
 31
0.0
  0
LINE
  8
0
  6
BYLAYER
 62
     7
 10
908.221843
 20
-117.607509
 30
0.0
 11
916.221843
 21
-117.607509
 31
0.0
  0
LINE
  8
0
  6
BYLAYER
 62
     7
 10
908.221843
 20
-99.607509
 30
0.0
 11
908.221843
 21
-107.607509
 31
0.0
  0
LINE
  8
0
  6
BYLAYER
 62
     7
 10
908.221843
 20
-109.607509
 30
0.0
 11
908.221843
 21
-117.607509
 31
0.0
  0
LINE
  8
0
  6
BYLAYER
 62
     7
 10
908.221843
 20
-109.607509
 30
0.0
 11
916.221843
 21
-109.607509
 31
0.0
  0
LINE
  8
0
  6
BYLAYER
 62
     7
 10
908.221843
 20
-107.607509
 30
0.0
 11
916.221843
 21
-107.607509
 31
0.0
  0
LINE
  8
0
  6
BYLAYER
 62
     7
 10
908.221843
 20
-99.607509
 30
0.0
 11
916.221843
 21
-99.607509
 31
0.0
  0
LINE
  8
0
  6
BYLAYER
 62
     7
 10
916.221843
 20
-117.607509
 30
0.0
 11
916.221843
 21
-109.607509
 31
0.0
  0
LINE
  8
0
  6
BYLAYER
 62
     7
 10
916.221843
 20
-107.607509
 30
0.0
 11
916.221843
 21
-99.607509
 31
0.0
  0
LINE
  8
0
  6
BYLAYER
 62
     7
 10
908.221843
 20
-127.607509
 30
0.0
 11
916.221843
 21
-127.607509
 31
0.0
  0
LINE
  8
0
  6
BYLAYER
 62
     7
 10
908.221843
 20
-119.607509
 30
0.0
 11
908.221843
 21
-127.607509
 31
0.0
  0
LINE
  8
0
  6
BYLAYER
 62
     7
 10
908.221843
 20
-119.607509
 30
0.0
 11
916.221843
 21
-119.607509
 31
0.0
  0
LINE
  8
0
  6
BYLAYER
 62
     7
 10
916.221843
 20
-127.607509
 30
0.0
 11
916.221843
 21
-119.607509
 31
0.0
  0
LINE
  8
0
  6
BYLAYER
 62
     7
 10
918.221843
 20
-117.607509
 30
0.0
 11
926.221843
 21
-117.607509
 31
0.0
  0
LINE
  8
0
  6
BYLAYER
 62
     7
 10
918.221843
 20
-109.607509
 30
0.0
 11
918.221843
 21
-117.607509
 31
0.0
  0
LINE
  8
0
  6
BYLAYER
 62
     7
 10
918.221843
 20
-109.607509
 30
0.0
 11
926.221843
 21
-109.607509
 31
0.0
  0
LINE
  8
0
  6
BYLAYER
 62
     7
 10
926.221843
 20
-117.607509
 30
0.0
 11
926.221843
 21
-109.607509
 31
0.0
  0
LINE
  8
0
  6
BYLAYER
 62
     7
 10
918.221843
 20
-127.607509
 30
0.0
 11
926.221843
 21
-127.607509
 31
0.0
  0
LINE
  8
0
  6
BYLAYER
 62
     7
 10
918.221843
 20
-119.607509
 30
0.0
 11
918.221843
 21
-127.607509
 31
0.0
  0
LINE
  8
0
  6
BYLAYER
 62
     7
 10
918.221843
 20
-119.607509
 30
0.0
 11
926.221843
 21
-119.607509
 31
0.0
  0
LINE
  8
0
  6
BYLAYER
 62
     7
 10
926.221843
 20
-127.607509
 30
0.0
 11
926.221843
 21
-119.607509
 31
0.0
  0
LINE
  8
0
  6
BYLAYER
 62
     7
 10
928.221843
 20
-117.607509
 30
0.0
 11
936.221843
 21
-117.607509
 31
0.0
  0
LINE
  8
0
  6
BYLAYER
 62
     7
 10
928.221843
 20
-109.607509
 30
0.0
 11
928.221843
 21
-117.607509
 31
0.0
  0
LINE
  8
0
  6
BYLAYER
 62
     7
 10
928.221843
 20
-109.607509
 30
0.0
 11
936.221843
 21
-109.607509
 31
0.0
  0
LINE
  8
0
  6
BYLAYER
 62
     7
 10
936.221843
 20
-117.607509
 30
0.0
 11
936.221843
 21
-109.607509
 31
0.0
  0
LINE
  8
0
  6
BYLAYER
 62
     7
 10
928.221843
 20
-127.607509
 30
0.0
 11
936.221843
 21
-127.607509
 31
0.0
  0
LINE
  8
0
  6
BYLAYER
 62
     7
 10
928.221843
 20
-119.607509
 30
0.0
 11
928.221843
 21
-127.607509
 31
0.0
  0
LINE
  8
0
  6
BYLAYER
 62
     7
 10
928.221843
 20
-119.607509
 30
0.0
 11
936.221843
 21
-119.607509
 31
0.0
  0
LINE
  8
0
  6
BYLAYER
 62
     7
 10
936.221843
 20
-127.607509
 30
0.0
 11
936.221843
 21
-119.607509
 31
0.0
  0
LINE
  8
0
  6
BYLAYER
 62
     7
 10
888.221843
 20
-79.607509
 30
0.0
 11
888.221843
 21
-87.607509
 31
0.0
  0
LINE
  8
0
  6
BYLAYER
 62
     7
 10
896.221843
 20
-87.607509
 30
0.0
 11
896.221843
 21
-79.607509
 31
0.0
  0
LINE
  8
0
  6
BYLAYER
 62
     7
 10
898.221843
 20
-87.607509
 30
0.0
 11
898.221843
 21
-79.607509
 31
0.0
  0
LINE
  8
0
  6
BYLAYER
 62
     7
 10
898.221843
 20
-87.607509
 30
0.0
 11
906.059842
 21
-87.607509
 31
0.0
  0
LINE
  8
0
  6
BYLAYER
 62
     7
 10
888.221843
 20
-87.607509
 30
0.0
 11
896.221843
 21
-87.607509
 31
0.0
  0
LINE
  8
0
  6
BYLAYER
 62
     7
 10
898.221843
 20
-79.607509
 30
0.0
 11
906.059842
 21
-79.607509
 31
0.0
  0
LINE
  8
0
  6
BYLAYER
 62
     7
 10
888.221843
 20
-79.607509
 30
0.0
 11
896.221843
 21
-79.607509
 31
0.0
  0
LINE
  8
0
  6
BYLAYER
 62
     7
 10
906.059842
 20
-87.607509
 30
0.0
 11
906.059842
 21
-79.607509
 31
0.0
  0
LINE
  8
0
  6
BYLAYER
 62
     7
 10
908.221843
 20
-89.607509
 30
0.0
 11
908.221843
 21
-97.607509
 31
0.0
  0
LINE
  8
0
  6
BYLAYER
 62
     7
 10
908.221843
 20
-97.607509
 30
0.0
 11
916.221843
 21
-97.607509
 31
0.0
  0
LINE
  8
0
  6
BYLAYER
 62
     7
 10
908.221843
 20
-89.607509
 30
0.0
 11
916.221843
 21
-89.607509
 31
0.0
  0
LINE
  8
0
  6
BYLAYER
 62
     7
 10
916.221843
 20
-97.607509
 30
0.0
 11
916.221843
 21
-89.607509
 31
0.0
  0
LINE
  8
0
  6
BYLAYER
 62
     7
 10
908.221843
 20
-79.607509
 30
0.0
 11
908.221843
 21
-87.607509
 31
0.0
  0
LINE
  8
0
  6
BYLAYER
 62
     7
 10
908.221843
 20
-87.607509
 30
0.0
 11
916.221843
 21
-87.607509
 31
0.0
  0
LINE
  8
0
  6
BYLAYER
 62
     7
 10
908.221843
 20
-79.607509
 30
0.0
 11
916.221843
 21
-79.607509
 31
0.0
  0
LINE
  8
0
  6
BYLAYER
 62
     7
 10
916.221843
 20
-87.607509
 30
0.0
 11
916.221843
 21
-79.607509
 31
0.0
  0
LINE
  8
0
  6
BYLAYER
 62
     7
 10
918.221843
 20
-99.607509
 30
0.0
 11
918.221843
 21
-107.607509
 31
0.0
  0
LINE
  8
0
  6
BYLAYER
 62
     7
 10
918.221843
 20
-107.607509
 30
0.0
 11
926.221843
 21
-107.607509
 31
0.0
  0
LINE
  8
0
  6
BYLAYER
 62
     7
 10
918.221843
 20
-99.607509
 30
0.0
 11
926.221843
 21
-99.607509
 31
0.0
  0
LINE
  8
0
  6
BYLAYER
 62
     7
 10
926.221843
 20
-107.607509
 30
0.0
 11
926.221843
 21
-99.607509
 31
0.0
  0
LINE
  8
0
  6
BYLAYER
 62
     7
 10
918.221843
 20
-89.607509
 30
0.0
 11
918.221843
 21
-97.607509
 31
0.0
  0
LINE
  8
0
  6
BYLAYER
 62
     7
 10
918.221843
 20
-97.607509
 30
0.0
 11
926.221843
 21
-97.607509
 31
0.0
  0
LINE
  8
0
  6
BYLAYER
 62
     7
 10
918.221843
 20
-89.607509
 30
0.0
 11
926.221843
 21
-89.607509
 31
0.0
  0
LINE
  8
0
  6
BYLAYER
 62
     7
 10
926.221843
 20
-97.607509
 30
0.0
 11
926.221843
 21
-89.607509
 31
0.0
  0
LINE
  8
0
  6
BYLAYER
 62
     7
 10
928.221843
 20
-99.607509
 30
0.0
 11
928.221843
 21
-107.607509
 31
0.0
  0
LINE
  8
0
  6
BYLAYER
 62
     7
 10
928.221843
 20
-107.607509
 30
0.0
 11
936.221843
 21
-107.607509
 31
0.0
  0
LINE
  8
0
  6
BYLAYER
 62
     7
 10
928.221843
 20
-99.607509
 30
0.0
 11
936.221843
 21
-99.607509
 31
0.0
  0
LINE
  8
0
  6
BYLAYER
 62
     7
 10
936.221843
 20
-107.607509
 30
0.0
 11
936.221843
 21
-99.607509
 31
0.0
  0
CIRCLE
  8
0
  6
BYLAYER
 62
     7
 10
887.221843
 20
-128.607509
 30
0.0
 40
4.0
  0
LINE
  8
0
  6
BYLAYER
 62
     7
 10
938.221843
 20
-117.607509
 30
0.0
 11
946.221843
 21
-117.607509
 31
0.0
  0
LINE
  8
0
  6
BYLAYER
 62
     7
 10
938.221843
 20
-109.607509
 30
0.0
 11
938.221843
 21
-117.607509
 31
0.0
  0
LINE
  8
0
  6
BYLAYER
 62
     7
 10
938.221843
 20
-109.607509
 30
0.0
 11
946.221843
 21
-109.607509
 31
0.0
  0
LINE
  8
0
  6
BYLAYER
 62
     7
 10
946.221843
 20
-117.607509
 30
0.0
 11
946.221843
 21
-109.607509
 31
0.0
  0
LINE
  8
0
  6
BYLAYER
 62
     7
 10
938.221843
 20
-127.607509
 30
0.0
 11
946.221843
 21
-127.607509
 31
0.0
  0
LINE
  8
0
  6
BYLAYER
 62
     7
 10
938.221843
 20
-119.607509
 30
0.0
 11
938.221843
 21
-127.607509
 31
0.0
  0
LINE
  8
0
  6
BYLAYER
 62
     7
 10
938.221843
 20
-119.607509
 30
0.0
 11
946.221843
 21
-119.607509
 31
0.0
  0
LINE
  8
0
  6
BYLAYER
 62
     7
 10
946.221843
 20
-127.607509
 30
0.0
 11
946.221843
 21
-119.607509
 31
0.0
  0
LINE
  8
0
  6
BYLAYER
 62
     7
 10
938.221843
 20
-99.607509
 30
0.0
 11
938.221843
 21
-107.607509
 31
0.0
  0
LINE
  8
0
  6
BYLAYER
 62
     7
 10
938.221843
 20
-107.607509
 30
0.0
 11
946.221843
 21
-107.607509
 31
0.0
  0
LINE
  8
0
  6
BYLAYER
 62
     7
 10
938.221843
 20
-99.607509
 30
0.0
 11
946.221843
 21
-99.607509
 31
0.0
  0
LINE
  8
0
  6
BYLAYER
 62
     7
 10
946.221843
 20
-107.607509
 30
0.0
 11
946.221843
 21
-99.607509
 31
0.0
  0
LINE
  8
0
  6
BYLAYER
 62
     7
 10
888.221843
 20
-69.607509
 30
0.0
 11
888.221843
 21
-77.607509
 31
0.0
  0
LINE
  8
0
  6
BYLAYER
 62
     7
 10
896.221843
 20
-77.607509
 30
0.0
 11
896.221843
 21
-69.607509
 31
0.0
  0
LINE
  8
0
  6
BYLAYER
 62
     7
 10
898.221843
 20
-77.607509
 30
0.0
 11
898.221843
 21
-69.607509
 31
0.0
  0
LINE
  8
0
  6
BYLAYER
 62
     7
 10
898.221843
 20
-77.607509
 30
0.0
 11
906.059842
 21
-77.607509
 31
0.0
  0
LINE
  8
0
  6
BYLAYER
 62
     7
 10
888.221843
 20
-77.607509
 30
0.0
 11
896.221843
 21
-77.607509
 31
0.0
  0
LINE
  8
0
  6
BYLAYER
 62
     7
 10
898.221843
 20
-69.607509
 30
0.0
 11
906.059842
 21
-69.607509
 31
0.0
  0
LINE
  8
0
  6
BYLAYER
 62
     7
 10
888.221843
 20
-69.607509
 30
0.0
 11
896.221843
 21
-69.607509
 31
0.0
  0
LINE
  8
0
  6
BYLAYER
 62
     7
 10
906.059842
 20
-77.607509
 30
0.0
 11
906.059842
 21
-69.607509
 31
0.0
  0
LINE
  8
0
  6
BYLAYER
 62
     7
 10
908.221843
 20
-69.607509
 30
0.0
 11
908.221843
 21
-77.607509
 31
0.0
  0
LINE
  8
0
  6
BYLAYER
 62
     7
 10
908.221843
 20
-77.607509
 30
0.0
 11
916.221843
 21
-77.607509
 31
0.0
  0
LINE
  8
0
  6
BYLAYER
 62
     7
 10
908.221843
 20
-69.607509
 30
0.0
 11
916.221843
 21
-69.607509
 31
0.0
  0
LINE
  8
0
  6
BYLAYER
 62
     7
 10
916.221843
 20
-77.607509
 30
0.0
 11
916.221843
 21
-69.607509
 31
0.0
  0
LINE
  8
0
  6
BYLAYER
 62
     7
 10
918.221843
 20
-79.607509
 30
0.0
 11
918.221843
 21
-87.607509
 31
0.0
  0
LINE
  8
0
  6
BYLAYER
 62
     7
 10
918.221843
 20
-87.607509
 30
0.0
 11
926.221843
 21
-87.607509
 31
0.0
  0
LINE
  8
0
  6
BYLAYER
 62
     7
 10
918.221843
 20
-79.607509
 30
0.0
 11
926.221843
 21
-79.607509
 31
0.0
  0
LINE
  8
0
  6
BYLAYER
 62
     7
 10
926.221843
 20
-87.607509
 30
0.0
 11
926.221843
 21
-79.607509
 31
0.0
  0
LINE
  8
0
  6
BYLAYER
 62
     7
 10
928.221843
 20
-89.607509
 30
0.0
 11
928.221843
 21
-97.607509
 31
0.0
  0
LINE
  8
0
  6
BYLAYER
 62
     7
 10
928.221843
 20
-97.607509
 30
0.0
 11
936.221843
 21
-97.607509
 31
0.0
  0
LINE
  8
0
  6
BYLAYER
 62
     7
 10
928.221843
 20
-89.607509
 30
0.0
 11
936.221843
 21
-89.607509
 31
0.0
  0
LINE
  8
0
  6
BYLAYER
 62
     7
 10
936.221843
 20
-97.607509
 30
0.0
 11
936.221843
 21
-89.607509
 31
0.0
  0
LINE
  8
0
  6
BYLAYER
 62
     7
 10
888.221843
 20
-157.607509
 30
0.0
 11
888.221843
 21
-149.607509
 31
0.0
  0
LINE
  8
0
  6
BYLAYER
 62
     7
 10
888.221843
 20
-167.607509
 30
0.0
 11
888.221843
 21
-159.607509
 31
0.0
  0
LINE
  8
0
  6
BYLAYER
 62
     7
 10
896.221843
 20
-159.607509
 30
0.0
 11
896.221843
 21
-167.607509
 31
0.0
  0
LINE
  8
0
  6
BYLAYER
 62
     7
 10
898.221843
 20
-159.607509
 30
0.0
 11
898.221843
 21
-167.607509
 31
0.0
  0
LINE
  8
0
  6
BYLAYER
 62
     7
 10
888.221843
 20
-149.607509
 30
0.0
 11
896.221843
 21
-149.607509
 31
0.0
  0
LINE
  8
0
  6
BYLAYER
 62
     7
 10
888.221843
 20
-157.607509
 30
0.0
 11
896.221843
 21
-157.607509
 31
0.0
  0
LINE
  8
0
  6
BYLAYER
 62
     7
 10
898.221843
 20
-159.607509
 30
0.0
 11
906.059842
 21
-159.607509
 31
0.0
  0
LINE
  8
0
  6
BYLAYER
 62
     7
 10
888.221843
 20
-159.607509
 30
0.0
 11
896.221843
 21
-159.607509
 31
0.0
  0
LINE
  8
0
  6
BYLAYER
 62
     7
 10
898.221843
 20
-167.607509
 30
0.0
 11
906.059842
 21
-167.607509
 31
0.0
  0
LINE
  8
0
  6
BYLAYER
 62
     7
 10
888.221843
 20
-167.607509
 30
0.0
 11
896.221843
 21
-167.607509
 31
0.0
  0
LINE
  8
0
  6
BYLAYER
 62
     7
 10
906.059842
 20
-159.607509
 30
0.0
 11
906.059842
 21
-167.607509
 31
0.0
  0
LINE
  8
0
  6
BYLAYER
 62
     7
 10
896.221843
 20
-149.607509
 30
0.0
 11
896.221843
 21
-157.607509
 31
0.0
  0
LINE
  8
0
  6
BYLAYER
 62
     7
 10
898.221843
 20
-157.607509
 30
0.0
 11
898.221843
 21
-149.607509
 31
0.0
  0
LINE
  8
0
  6
BYLAYER
 62
     7
 10
898.221843
 20
-149.607509
 30
0.0
 11
906.221843
 21
-149.607509
 31
0.0
  0
LINE
  8
0
  6
BYLAYER
 62
     7
 10
898.221843
 20
-157.607509
 30
0.0
 11
906.221843
 21
-157.607509
 31
0.0
  0
LINE
  8
0
  6
BYLAYER
 62
     7
 10
906.221843
 20
-149.607509
 30
0.0
 11
906.221843
 21
-157.607509
 31
0.0
  0
LINE
  8
0
  6
BYLAYER
 62
     7
 10
908.221843
 20
-139.607509
 30
0.0
 11
916.221843
 21
-139.607509
 31
0.0
  0
LINE
  8
0
  6
BYLAYER
 62
     7
 10
908.221843
 20
-157.607509
 30
0.0
 11
908.221843
 21
-149.607509
 31
0.0
  0
LINE
  8
0
  6
BYLAYER
 62
     7
 10
908.221843
 20
-147.607509
 30
0.0
 11
908.221843
 21
-139.607509
 31
0.0
  0
LINE
  8
0
  6
BYLAYER
 62
     7
 10
908.221843
 20
-147.607509
 30
0.0
 11
916.221843
 21
-147.607509
 31
0.0
  0
LINE
  8
0
  6
BYLAYER
 62
     7
 10
908.221843
 20
-149.607509
 30
0.0
 11
916.221843
 21
-149.607509
 31
0.0
  0
LINE
  8
0
  6
BYLAYER
 62
     7
 10
908.221843
 20
-157.607509
 30
0.0
 11
916.221843
 21
-157.607509
 31
0.0
  0
LINE
  8
0
  6
BYLAYER
 62
     7
 10
916.221843
 20
-139.607509
 30
0.0
 11
916.221843
 21
-147.607509
 31
0.0
  0
LINE
  8
0
  6
BYLAYER
 62
     7
 10
916.221843
 20
-149.607509
 30
0.0
 11
916.221843
 21
-157.607509
 31
0.0
  0
LINE
  8
0
  6
BYLAYER
 62
     7
 10
908.221843
 20
-129.607509
 30
0.0
 11
916.221843
 21
-129.607509
 31
0.0
  0
LINE
  8
0
  6
BYLAYER
 62
     7
 10
908.221843
 20
-137.607509
 30
0.0
 11
908.221843
 21
-129.607509
 31
0.0
  0
LINE
  8
0
  6
BYLAYER
 62
     7
 10
908.221843
 20
-137.607509
 30
0.0
 11
916.221843
 21
-137.607509
 31
0.0
  0
LINE
  8
0
  6
BYLAYER
 62
     7
 10
916.221843
 20
-129.607509
 30
0.0
 11
916.221843
 21
-137.607509
 31
0.0
  0
LINE
  8
0
  6
BYLAYER
 62
     7
 10
918.221843
 20
-139.607509
 30
0.0
 11
926.221843
 21
-139.607509
 31
0.0
  0
LINE
  8
0
  6
BYLAYER
 62
     7
 10
918.221843
 20
-147.607509
 30
0.0
 11
918.221843
 21
-139.607509
 31
0.0
  0
LINE
  8
0
  6
BYLAYER
 62
     7
 10
918.221843
 20
-147.607509
 30
0.0
 11
926.221843
 21
-147.607509
 31
0.0
  0
LINE
  8
0
  6
BYLAYER
 62
     7
 10
926.221843
 20
-139.607509
 30
0.0
 11
926.221843
 21
-147.607509
 31
0.0
  0
LINE
  8
0
  6
BYLAYER
 62
     7
 10
918.221843
 20
-129.607509
 30
0.0
 11
926.221843
 21
-129.607509
 31
0.0
  0
LINE
  8
0
  6
BYLAYER
 62
     7
 10
918.221843
 20
-137.607509
 30
0.0
 11
918.221843
 21
-129.607509
 31
0.0
  0
LINE
  8
0
  6
BYLAYER
 62
     7
 10
918.221843
 20
-137.607509
 30
0.0
 11
926.221843
 21
-137.607509
 31
0.0
  0
LINE
  8
0
  6
BYLAYER
 62
     7
 10
926.221843
 20
-129.607509
 30
0.0
 11
926.221843
 21
-137.607509
 31
0.0
  0
LINE
  8
0
  6
BYLAYER
 62
     7
 10
928.221843
 20
-139.607509
 30
0.0
 11
936.221843
 21
-139.607509
 31
0.0
  0
LINE
  8
0
  6
BYLAYER
 62
     7
 10
928.221843
 20
-147.607509
 30
0.0
 11
928.221843
 21
-139.607509
 31
0.0
  0
LINE
  8
0
  6
BYLAYER
 62
     7
 10
928.221843
 20
-147.607509
 30
0.0
 11
936.221843
 21
-147.607509
 31
0.0
  0
LINE
  8
0
  6
BYLAYER
 62
     7
 10
936.221843
 20
-139.607509
 30
0.0
 11
936.221843
 21
-147.607509
 31
0.0
  0
LINE
  8
0
  6
BYLAYER
 62
     7
 10
928.221843
 20
-129.607509
 30
0.0
 11
936.221843
 21
-129.607509
 31
0.0
  0
LINE
  8
0
  6
BYLAYER
 62
     7
 10
928.221843
 20
-137.607509
 30
0.0
 11
928.221843
 21
-129.607509
 31
0.0
  0
LINE
  8
0
  6
BYLAYER
 62
     7
 10
928.221843
 20
-137.607509
 30
0.0
 11
936.221843
 21
-137.607509
 31
0.0
  0
LINE
  8
0
  6
BYLAYER
 62
     7
 10
936.221843
 20
-129.607509
 30
0.0
 11
936.221843
 21
-137.607509
 31
0.0
  0
LINE
  8
0
  6
BYLAYER
 62
     7
 10
888.221843
 20
-177.607509
 30
0.0
 11
888.221843
 21
-169.607509
 31
0.0
  0
LINE
  8
0
  6
BYLAYER
 62
     7
 10
896.221843
 20
-169.607509
 30
0.0
 11
896.221843
 21
-177.607509
 31
0.0
  0
LINE
  8
0
  6
BYLAYER
 62
     7
 10
898.221843
 20
-169.607509
 30
0.0
 11
898.221843
 21
-177.607509
 31
0.0
  0
LINE
  8
0
  6
BYLAYER
 62
     7
 10
898.221843
 20
-169.607509
 30
0.0
 11
906.059842
 21
-169.607509
 31
0.0
  0
LINE
  8
0
  6
BYLAYER
 62
     7
 10
888.221843
 20
-169.607509
 30
0.0
 11
896.221843
 21
-169.607509
 31
0.0
  0
LINE
  8
0
  6
BYLAYER
 62
     7
 10
898.221843
 20
-177.607509
 30
0.0
 11
906.059842
 21
-177.607509
 31
0.0
  0
LINE
  8
0
  6
BYLAYER
 62
     7
 10
888.221843
 20
-177.607509
 30
0.0
 11
896.221843
 21
-177.607509
 31
0.0
  0
LINE
  8
0
  6
BYLAYER
 62
     7
 10
906.059842
 20
-169.607509
 30
0.0
 11
906.059842
 21
-177.607509
 31
0.0
  0
LINE
  8
0
  6
BYLAYER
 62
     7
 10
908.221843
 20
-167.607509
 30
0.0
 11
908.221843
 21
-159.607509
 31
0.0
  0
LINE
  8
0
  6
BYLAYER
 62
     7
 10
908.221843
 20
-159.607509
 30
0.0
 11
916.221843
 21
-159.607509
 31
0.0
  0
LINE
  8
0
  6
BYLAYER
 62
     7
 10
908.221843
 20
-167.607509
 30
0.0
 11
916.221843
 21
-167.607509
 31
0.0
  0
LINE
  8
0
  6
BYLAYER
 62
     7
 10
916.221843
 20
-159.607509
 30
0.0
 11
916.221843
 21
-167.607509
 31
0.0
  0
LINE
  8
0
  6
BYLAYER
 62
     7
 10
908.221843
 20
-177.607509
 30
0.0
 11
908.221843
 21
-169.607509
 31
0.0
  0
LINE
  8
0
  6
BYLAYER
 62
     7
 10
908.221843
 20
-169.607509
 30
0.0
 11
916.221843
 21
-169.607509
 31
0.0
  0
LINE
  8
0
  6
BYLAYER
 62
     7
 10
908.221843
 20
-177.607509
 30
0.0
 11
916.221843
 21
-177.607509
 31
0.0
  0
LINE
  8
0
  6
BYLAYER
 62
     7
 10
916.221843
 20
-169.607509
 30
0.0
 11
916.221843
 21
-177.607509
 31
0.0
  0
LINE
  8
0
  6
BYLAYER
 62
     7
 10
918.221843
 20
-157.607509
 30
0.0
 11
918.221843
 21
-149.607509
 31
0.0
  0
LINE
  8
0
  6
BYLAYER
 62
     7
 10
918.221843
 20
-149.607509
 30
0.0
 11
926.221843
 21
-149.607509
 31
0.0
  0
LINE
  8
0
  6
BYLAYER
 62
     7
 10
918.221843
 20
-157.607509
 30
0.0
 11
926.221843
 21
-157.607509
 31
0.0
  0
LINE
  8
0
  6
BYLAYER
 62
     7
 10
926.221843
 20
-149.607509
 30
0.0
 11
926.221843
 21
-157.607509
 31
0.0
  0
LINE
  8
0
  6
BYLAYER
 62
     7
 10
918.221843
 20
-167.607509
 30
0.0
 11
918.221843
 21
-159.607509
 31
0.0
  0
LINE
  8
0
  6
BYLAYER
 62
     7
 10
918.221843
 20
-159.607509
 30
0.0
 11
926.221843
 21
-159.607509
 31
0.0
  0
LINE
  8
0
  6
BYLAYER
 62
     7
 10
918.221843
 20
-167.607509
 30
0.0
 11
926.221843
 21
-167.607509
 31
0.0
  0
LINE
  8
0
  6
BYLAYER
 62
     7
 10
926.221843
 20
-159.607509
 30
0.0
 11
926.221843
 21
-167.607509
 31
0.0
  0
LINE
  8
0
  6
BYLAYER
 62
     7
 10
928.221843
 20
-157.607509
 30
0.0
 11
928.221843
 21
-149.607509
 31
0.0
  0
LINE
  8
0
  6
BYLAYER
 62
     7
 10
928.221843
 20
-149.607509
 30
0.0
 11
936.221843
 21
-149.607509
 31
0.0
  0
LINE
  8
0
  6
BYLAYER
 62
     7
 10
928.221843
 20
-157.607509
 30
0.0
 11
936.221843
 21
-157.607509
 31
0.0
  0
LINE
  8
0
  6
BYLAYER
 62
     7
 10
936.221843
 20
-149.607509
 30
0.0
 11
936.221843
 21
-157.607509
 31
0.0
  0
LINE
  8
0
  6
BYLAYER
 62
     7
 10
938.221843
 20
-139.607509
 30
0.0
 11
946.221843
 21
-139.607509
 31
0.0
  0
LINE
  8
0
  6
BYLAYER
 62
     7
 10
938.221843
 20
-147.607509
 30
0.0
 11
938.221843
 21
-139.607509
 31
0.0
  0
LINE
  8
0
  6
BYLAYER
 62
     7
 10
938.221843
 20
-147.607509
 30
0.0
 11
946.221843
 21
-147.607509
 31
0.0
  0
LINE
  8
0
  6
BYLAYER
 62
     7
 10
946.221843
 20
-139.607509
 30
0.0
 11
946.221843
 21
-147.607509
 31
0.0
  0
LINE
  8
0
  6
BYLAYER
 62
     7
 10
938.221843
 20
-129.607509
 30
0.0
 11
946.221843
 21
-129.607509
 31
0.0
  0
LINE
  8
0
  6
BYLAYER
 62
     7
 10
938.221843
 20
-137.607509
 30
0.0
 11
938.221843
 21
-129.607509
 31
0.0
  0
LINE
  8
0
  6
BYLAYER
 62
     7
 10
938.221843
 20
-137.607509
 30
0.0
 11
946.221843
 21
-137.607509
 31
0.0
  0
LINE
  8
0
  6
BYLAYER
 62
     7
 10
946.221843
 20
-129.607509
 30
0.0
 11
946.221843
 21
-137.607509
 31
0.0
  0
LINE
  8
0
  6
BYLAYER
 62
     7
 10
938.221843
 20
-157.607509
 30
0.0
 11
938.221843
 21
-149.607509
 31
0.0
  0
LINE
  8
0
  6
BYLAYER
 62
     7
 10
938.221843
 20
-149.607509
 30
0.0
 11
946.221843
 21
-149.607509
 31
0.0
  0
LINE
  8
0
  6
BYLAYER
 62
     7
 10
938.221843
 20
-157.607509
 30
0.0
 11
946.221843
 21
-157.607509
 31
0.0
  0
LINE
  8
0
  6
BYLAYER
 62
     7
 10
946.221843
 20
-149.607509
 30
0.0
 11
946.221843
 21
-157.607509
 31
0.0
  0
LINE
  8
0
  6
BYLAYER
 62
     7
 10
888.221843
 20
-187.607509
 30
0.0
 11
888.221843
 21
-179.607509
 31
0.0
  0
LINE
  8
0
  6
BYLAYER
 62
     7
 10
896.221843
 20
-179.607509
 30
0.0
 11
896.221843
 21
-187.607509
 31
0.0
  0
LINE
  8
0
  6
BYLAYER
 62
     7
 10
898.221843
 20
-179.607509
 30
0.0
 11
898.221843
 21
-187.607509
 31
0.0
  0
LINE
  8
0
  6
BYLAYER
 62
     7
 10
898.221843
 20
-179.607509
 30
0.0
 11
906.059842
 21
-179.607509
 31
0.0
  0
LINE
  8
0
  6
BYLAYER
 62
     7
 10
888.221843
 20
-179.607509
 30
0.0
 11
896.221843
 21
-179.607509
 31
0.0
  0
LINE
  8
0
  6
BYLAYER
 62
     7
 10
898.221843
 20
-187.607509
 30
0.0
 11
906.059842
 21
-187.607509
 31
0.0
  0
LINE
  8
0
  6
BYLAYER
 62
     7
 10
888.221843
 20
-187.607509
 30
0.0
 11
896.221843
 21
-187.607509
 31
0.0
  0
LINE
  8
0
  6
BYLAYER
 62
     7
 10
906.059842
 20
-179.607509
 30
0.0
 11
906.059842
 21
-187.607509
 31
0.0
  0
LINE
  8
0
  6
BYLAYER
 62
     7
 10
908.221843
 20
-187.607509
 30
0.0
 11
908.221843
 21
-179.607509
 31
0.0
  0
LINE
  8
0
  6
BYLAYER
 62
     7
 10
908.221843
 20
-179.607509
 30
0.0
 11
916.221843
 21
-179.607509
 31
0.0
  0
LINE
  8
0
  6
BYLAYER
 62
     7
 10
908.221843
 20
-187.607509
 30
0.0
 11
916.221843
 21
-187.607509
 31
0.0
  0
LINE
  8
0
  6
BYLAYER
 62
     7
 10
916.221843
 20
-179.607509
 30
0.0
 11
916.221843
 21
-187.607509
 31
0.0
  0
LINE
  8
0
  6
BYLAYER
 62
     7
 10
918.221843
 20
-177.607509
 30
0.0
 11
918.221843
 21
-169.607509
 31
0.0
  0
LINE
  8
0
  6
BYLAYER
 62
     7
 10
918.221843
 20
-169.607509
 30
0.0
 11
926.221843
 21
-169.607509
 31
0.0
  0
LINE
  8
0
  6
BYLAYER
 62
     7
 10
918.221843
 20
-177.607509
 30
0.0
 11
926.221843
 21
-177.607509
 31
0.0
  0
LINE
  8
0
  6
BYLAYER
 62
     7
 10
926.221843
 20
-169.607509
 30
0.0
 11
926.221843
 21
-177.607509
 31
0.0
  0
LINE
  8
0
  6
BYLAYER
 62
     7
 10
928.221843
 20
-167.607509
 30
0.0
 11
928.221843
 21
-159.607509
 31
0.0
  0
LINE
  8
0
  6
BYLAYER
 62
     7
 10
928.221843
 20
-159.607509
 30
0.0
 11
936.221843
 21
-159.607509
 31
0.0
  0
LINE
  8
0
  6
BYLAYER
 62
     7
 10
928.221843
 20
-167.607509
 30
0.0
 11
936.221843
 21
-167.607509
 31
0.0
  0
LINE
  8
0
  6
BYLAYER
 62
     7
 10
936.221843
 20
-159.607509
 30
0.0
 11
936.221843
 21
-167.607509
 31
0.0
  0
LINE
  8
0
  6
BYLAYER
 62
     7
 10
886.221843
 20
-99.607509
 30
0.0
 11
886.221843
 21
-107.607509
 31
0.0
  0
LINE
  8
0
  6
BYLAYER
 62
     7
 10
886.221843
 20
-89.607509
 30
0.0
 11
886.221843
 21
-97.607509
 31
0.0
  0
LINE
  8
0
  6
BYLAYER
 62
     7
 10
878.221843
 20
-97.607509
 30
0.0
 11
878.221843
 21
-89.607509
 31
0.0
  0
LINE
  8
0
  6
BYLAYER
 62
     7
 10
876.221843
 20
-97.607509
 30
0.0
 11
876.221843
 21
-89.607509
 31
0.0
  0
LINE
  8
0
  6
BYLAYER
 62
     7
 10
886.221843
 20
-107.607509
 30
0.0
 11
878.221843
 21
-107.607509
 31
0.0
  0
LINE
  8
0
  6
BYLAYER
 62
     7
 10
886.221843
 20
-99.607509
 30
0.0
 11
878.221843
 21
-99.607509
 31
0.0
  0
LINE
  8
0
  6
BYLAYER
 62
     7
 10
876.221843
 20
-97.607509
 30
0.0
 11
868.383844
 21
-97.607509
 31
0.0
  0
LINE
  8
0
  6
BYLAYER
 62
     7
 10
886.221843
 20
-97.607509
 30
0.0
 11
878.221843
 21
-97.607509
 31
0.0
  0
LINE
  8
0
  6
BYLAYER
 62
     7
 10
876.221843
 20
-89.607509
 30
0.0
 11
868.383844
 21
-89.607509
 31
0.0
  0
LINE
  8
0
  6
BYLAYER
 62
     7
 10
886.221843
 20
-89.607509
 30
0.0
 11
878.221843
 21
-89.607509
 31
0.0
  0
LINE
  8
0
  6
BYLAYER
 62
     7
 10
868.383844
 20
-97.607509
 30
0.0
 11
868.383844
 21
-89.607509
 31
0.0
  0
LINE
  8
0
  6
BYLAYER
 62
     7
 10
878.221843
 20
-107.607509
 30
0.0
 11
878.221843
 21
-99.607509
 31
0.0
  0
LINE
  8
0
  6
BYLAYER
 62
     7
 10
876.221843
 20
-99.607509
 30
0.0
 11
876.221843
 21
-107.607509
 31
0.0
  0
LINE
  8
0
  6
BYLAYER
 62
     7
 10
876.221843
 20
-107.607509
 30
0.0
 11
868.221843
 21
-107.607509
 31
0.0
  0
LINE
  8
0
  6
BYLAYER
 62
     7
 10
876.221843
 20
-99.607509
 30
0.0
 11
868.221843
 21
-99.607509
 31
0.0
  0
LINE
  8
0
  6
BYLAYER
 62
     7
 10
868.221843
 20
-107.607509
 30
0.0
 11
868.221843
 21
-99.607509
 31
0.0
  0
LINE
  8
0
  6
BYLAYER
 62
     7
 10
866.221843
 20
-117.607509
 30
0.0
 11
858.221843
 21
-117.607509
 31
0.0
  0
LINE
  8
0
  6
BYLAYER
 62
     7
 10
866.221843
 20
-99.607509
 30
0.0
 11
866.221843
 21
-107.607509
 31
0.0
  0
LINE
  8
0
  6
BYLAYER
 62
     7
 10
866.221843
 20
-109.607509
 30
0.0
 11
866.221843
 21
-117.607509
 31
0.0
  0
LINE
  8
0
  6
BYLAYER
 62
     7
 10
866.221843
 20
-109.607509
 30
0.0
 11
858.221843
 21
-109.607509
 31
0.0
  0
LINE
  8
0
  6
BYLAYER
 62
     7
 10
866.221843
 20
-107.607509
 30
0.0
 11
858.221843
 21
-107.607509
 31
0.0
  0
LINE
  8
0
  6
BYLAYER
 62
     7
 10
866.221843
 20
-99.607509
 30
0.0
 11
858.221843
 21
-99.607509
 31
0.0
  0
LINE
  8
0
  6
BYLAYER
 62
     7
 10
858.221843
 20
-117.607509
 30
0.0
 11
858.221843
 21
-109.607509
 31
0.0
  0
LINE
  8
0
  6
BYLAYER
 62
     7
 10
858.221843
 20
-107.607509
 30
0.0
 11
858.221843
 21
-99.607509
 31
0.0
  0
LINE
  8
0
  6
BYLAYER
 62
     7
 10
866.221843
 20
-127.607509
 30
0.0
 11
858.221843
 21
-127.607509
 31
0.0
  0
LINE
  8
0
  6
BYLAYER
 62
     7
 10
866.221843
 20
-119.607509
 30
0.0
 11
866.221843
 21
-127.607509
 31
0.0
  0
LINE
  8
0
  6
BYLAYER
 62
     7
 10
866.221843
 20
-119.607509
 30
0.0
 11
858.221843
 21
-119.607509
 31
0.0
  0
LINE
  8
0
  6
BYLAYER
 62
     7
 10
858.221843
 20
-127.607509
 30
0.0
 11
858.221843
 21
-119.607509
 31
0.0
  0
LINE
  8
0
  6
BYLAYER
 62
     7
 10
856.221843
 20
-117.607509
 30
0.0
 11
848.221843
 21
-117.607509
 31
0.0
  0
LINE
  8
0
  6
BYLAYER
 62
     7
 10
856.221843
 20
-109.607509
 30
0.0
 11
856.221843
 21
-117.607509
 31
0.0
  0
LINE
  8
0
  6
BYLAYER
 62
     7
 10
856.221843
 20
-109.607509
 30
0.0
 11
848.221843
 21
-109.607509
 31
0.0
  0
LINE
  8
0
  6
BYLAYER
 62
     7
 10
848.221843
 20
-117.607509
 30
0.0
 11
848.221843
 21
-109.607509
 31
0.0
  0
LINE
  8
0
  6
BYLAYER
 62
     7
 10
856.221843
 20
-127.607509
 30
0.0
 11
848.221843
 21
-127.607509
 31
0.0
  0
LINE
  8
0
  6
BYLAYER
 62
     7
 10
856.221843
 20
-119.607509
 30
0.0
 11
856.221843
 21
-127.607509
 31
0.0
  0
LINE
  8
0
  6
BYLAYER
 62
     7
 10
856.221843
 20
-119.607509
 30
0.0
 11
848.221843
 21
-119.607509
 31
0.0
  0
LINE
  8
0
  6
BYLAYER
 62
     7
 10
848.221843
 20
-127.607509
 30
0.0
 11
848.221843
 21
-119.607509
 31
0.0
  0
LINE
  8
0
  6
BYLAYER
 62
     7
 10
846.221843
 20
-117.607509
 30
0.0
 11
838.221843
 21
-117.607509
 31
0.0
  0
LINE
  8
0
  6
BYLAYER
 62
     7
 10
846.221843
 20
-109.607509
 30
0.0
 11
846.221843
 21
-117.607509
 31
0.0
  0
LINE
  8
0
  6
BYLAYER
 62
     7
 10
846.221843
 20
-109.607509
 30
0.0
 11
838.221843
 21
-109.607509
 31
0.0
  0
LINE
  8
0
  6
BYLAYER
 62
     7
 10
838.221843
 20
-117.607509
 30
0.0
 11
838.221843
 21
-109.607509
 31
0.0
  0
LINE
  8
0
  6
BYLAYER
 62
     7
 10
846.221843
 20
-127.607509
 30
0.0
 11
838.221843
 21
-127.607509
 31
0.0
  0
LINE
  8
0
  6
BYLAYER
 62
     7
 10
846.221843
 20
-119.607509
 30
0.0
 11
846.221843
 21
-127.607509
 31
0.0
  0
LINE
  8
0
  6
BYLAYER
 62
     7
 10
846.221843
 20
-119.607509
 30
0.0
 11
838.221843
 21
-119.607509
 31
0.0
  0
LINE
  8
0
  6
BYLAYER
 62
     7
 10
838.221843
 20
-127.607509
 30
0.0
 11
838.221843
 21
-119.607509
 31
0.0
  0
LINE
  8
0
  6
BYLAYER
 62
     7
 10
886.221843
 20
-79.607509
 30
0.0
 11
886.221843
 21
-87.607509
 31
0.0
  0
LINE
  8
0
  6
BYLAYER
 62
     7
 10
878.221843
 20
-87.607509
 30
0.0
 11
878.221843
 21
-79.607509
 31
0.0
  0
LINE
  8
0
  6
BYLAYER
 62
     7
 10
876.221843
 20
-87.607509
 30
0.0
 11
876.221843
 21
-79.607509
 31
0.0
  0
LINE
  8
0
  6
BYLAYER
 62
     7
 10
876.221843
 20
-87.607509
 30
0.0
 11
868.383844
 21
-87.607509
 31
0.0
  0
LINE
  8
0
  6
BYLAYER
 62
     7
 10
886.221843
 20
-87.607509
 30
0.0
 11
878.221843
 21
-87.607509
 31
0.0
  0
LINE
  8
0
  6
BYLAYER
 62
     7
 10
876.221843
 20
-79.607509
 30
0.0
 11
868.383844
 21
-79.607509
 31
0.0
  0
LINE
  8
0
  6
BYLAYER
 62
     7
 10
886.221843
 20
-79.607509
 30
0.0
 11
878.221843
 21
-79.607509
 31
0.0
  0
LINE
  8
0
  6
BYLAYER
 62
     7
 10
868.383844
 20
-87.607509
 30
0.0
 11
868.383844
 21
-79.607509
 31
0.0
  0
LINE
  8
0
  6
BYLAYER
 62
     7
 10
866.221843
 20
-89.607509
 30
0.0
 11
866.221843
 21
-97.607509
 31
0.0
  0
LINE
  8
0
  6
BYLAYER
 62
     7
 10
866.221843
 20
-97.607509
 30
0.0
 11
858.221843
 21
-97.607509
 31
0.0
  0
LINE
  8
0
  6
BYLAYER
 62
     7
 10
866.221843
 20
-89.607509
 30
0.0
 11
858.221843
 21
-89.607509
 31
0.0
  0
LINE
  8
0
  6
BYLAYER
 62
     7
 10
858.221843
 20
-97.607509
 30
0.0
 11
858.221843
 21
-89.607509
 31
0.0
  0
LINE
  8
0
  6
BYLAYER
 62
     7
 10
866.221843
 20
-79.607509
 30
0.0
 11
866.221843
 21
-87.607509
 31
0.0
  0
LINE
  8
0
  6
BYLAYER
 62
     7
 10
866.221843
 20
-87.607509
 30
0.0
 11
858.221843
 21
-87.607509
 31
0.0
  0
LINE
  8
0
  6
BYLAYER
 62
     7
 10
866.221843
 20
-79.607509
 30
0.0
 11
858.221843
 21
-79.607509
 31
0.0
  0
LINE
  8
0
  6
BYLAYER
 62
     7
 10
858.221843
 20
-87.607509
 30
0.0
 11
858.221843
 21
-79.607509
 31
0.0
  0
LINE
  8
0
  6
BYLAYER
 62
     7
 10
856.221843
 20
-99.607509
 30
0.0
 11
856.221843
 21
-107.607509
 31
0.0
  0
LINE
  8
0
  6
BYLAYER
 62
     7
 10
856.221843
 20
-107.607509
 30
0.0
 11
848.221843
 21
-107.607509
 31
0.0
  0
LINE
  8
0
  6
BYLAYER
 62
     7
 10
856.221843
 20
-99.607509
 30
0.0
 11
848.221843
 21
-99.607509
 31
0.0
  0
LINE
  8
0
  6
BYLAYER
 62
     7
 10
848.221843
 20
-107.607509
 30
0.0
 11
848.221843
 21
-99.607509
 31
0.0
  0
LINE
  8
0
  6
BYLAYER
 62
     7
 10
856.221843
 20
-89.607509
 30
0.0
 11
856.221843
 21
-97.607509
 31
0.0
  0
LINE
  8
0
  6
BYLAYER
 62
     7
 10
856.221843
 20
-97.607509
 30
0.0
 11
848.221843
 21
-97.607509
 31
0.0
  0
LINE
  8
0
  6
BYLAYER
 62
     7
 10
856.221843
 20
-89.607509
 30
0.0
 11
848.221843
 21
-89.607509
 31
0.0
  0
LINE
  8
0
  6
BYLAYER
 62
     7
 10
848.221843
 20
-97.607509
 30
0.0
 11
848.221843
 21
-89.607509
 31
0.0
  0
LINE
  8
0
  6
BYLAYER
 62
     7
 10
846.221843
 20
-99.607509
 30
0.0
 11
846.221843
 21
-107.607509
 31
0.0
  0
LINE
  8
0
  6
BYLAYER
 62
     7
 10
846.221843
 20
-107.607509
 30
0.0
 11
838.221843
 21
-107.607509
 31
0.0
  0
LINE
  8
0
  6
BYLAYER
 62
     7
 10
846.221843
 20
-99.607509
 30
0.0
 11
838.221843
 21
-99.607509
 31
0.0
  0
LINE
  8
0
  6
BYLAYER
 62
     7
 10
838.221843
 20
-107.607509
 30
0.0
 11
838.221843
 21
-99.607509
 31
0.0
  0
LINE
  8
0
  6
BYLAYER
 62
     7
 10
836.221843
 20
-117.607509
 30
0.0
 11
828.221843
 21
-117.607509
 31
0.0
  0
LINE
  8
0
  6
BYLAYER
 62
     7
 10
836.221843
 20
-109.607509
 30
0.0
 11
836.221843
 21
-117.607509
 31
0.0
  0
LINE
  8
0
  6
BYLAYER
 62
     7
 10
836.221843
 20
-109.607509
 30
0.0
 11
828.221843
 21
-109.607509
 31
0.0
  0
LINE
  8
0
  6
BYLAYER
 62
     7
 10
828.221843
 20
-117.607509
 30
0.0
 11
828.221843
 21
-109.607509
 31
0.0
  0
LINE
  8
0
  6
BYLAYER
 62
     7
 10
836.221843
 20
-127.607509
 30
0.0
 11
828.221843
 21
-127.607509
 31
0.0
  0
LINE
  8
0
  6
BYLAYER
 62
     7
 10
836.221843
 20
-119.607509
 30
0.0
 11
836.221843
 21
-127.607509
 31
0.0
  0
LINE
  8
0
  6
BYLAYER
 62
     7
 10
836.221843
 20
-119.607509
 30
0.0
 11
828.221843
 21
-119.607509
 31
0.0
  0
LINE
  8
0
  6
BYLAYER
 62
     7
 10
828.221843
 20
-127.607509
 30
0.0
 11
828.221843
 21
-119.607509
 31
0.0
  0
LINE
  8
0
  6
BYLAYER
 62
     7
 10
836.221843
 20
-99.607509
 30
0.0
 11
836.221843
 21
-107.607509
 31
0.0
  0
LINE
  8
0
  6
BYLAYER
 62
     7
 10
836.221843
 20
-107.607509
 30
0.0
 11
828.221843
 21
-107.607509
 31
0.0
  0
LINE
  8
0
  6
BYLAYER
 62
     7
 10
836.221843
 20
-99.607509
 30
0.0
 11
828.221843
 21
-99.607509
 31
0.0
  0
LINE
  8
0
  6
BYLAYER
 62
     7
 10
828.221843
 20
-107.607509
 30
0.0
 11
828.221843
 21
-99.607509
 31
0.0
  0
LINE
  8
0
  6
BYLAYER
 62
     7
 10
886.221843
 20
-69.607509
 30
0.0
 11
886.221843
 21
-77.607509
 31
0.0
  0
LINE
  8
0
  6
BYLAYER
 62
     7
 10
878.221843
 20
-77.607509
 30
0.0
 11
878.221843
 21
-69.607509
 31
0.0
  0
LINE
  8
0
  6
BYLAYER
 62
     7
 10
876.221843
 20
-77.607509
 30
0.0
 11
876.221843
 21
-69.607509
 31
0.0
  0
LINE
  8
0
  6
BYLAYER
 62
     7
 10
876.221843
 20
-77.607509
 30
0.0
 11
868.383844
 21
-77.607509
 31
0.0
  0
LINE
  8
0
  6
BYLAYER
 62
     7
 10
886.221843
 20
-77.607509
 30
0.0
 11
878.221843
 21
-77.607509
 31
0.0
  0
LINE
  8
0
  6
BYLAYER
 62
     7
 10
876.221843
 20
-69.607509
 30
0.0
 11
868.383844
 21
-69.607509
 31
0.0
  0
LINE
  8
0
  6
BYLAYER
 62
     7
 10
886.221843
 20
-69.607509
 30
0.0
 11
878.221843
 21
-69.607509
 31
0.0
  0
LINE
  8
0
  6
BYLAYER
 62
     7
 10
868.383844
 20
-77.607509
 30
0.0
 11
868.383844
 21
-69.607509
 31
0.0
  0
LINE
  8
0
  6
BYLAYER
 62
     7
 10
866.221843
 20
-69.607509
 30
0.0
 11
866.221843
 21
-77.607509
 31
0.0
  0
LINE
  8
0
  6
BYLAYER
 62
     7
 10
866.221843
 20
-77.607509
 30
0.0
 11
858.221843
 21
-77.607509
 31
0.0
  0
LINE
  8
0
  6
BYLAYER
 62
     7
 10
866.221843
 20
-69.607509
 30
0.0
 11
858.221843
 21
-69.607509
 31
0.0
  0
LINE
  8
0
  6
BYLAYER
 62
     7
 10
858.221843
 20
-77.607509
 30
0.0
 11
858.221843
 21
-69.607509
 31
0.0
  0
LINE
  8
0
  6
BYLAYER
 62
     7
 10
856.221843
 20
-79.607509
 30
0.0
 11
856.221843
 21
-87.607509
 31
0.0
  0
LINE
  8
0
  6
BYLAYER
 62
     7
 10
856.221843
 20
-87.607509
 30
0.0
 11
848.221843
 21
-87.607509
 31
0.0
  0
LINE
  8
0
  6
BYLAYER
 62
     7
 10
856.221843
 20
-79.607509
 30
0.0
 11
848.221843
 21
-79.607509
 31
0.0
  0
LINE
  8
0
  6
BYLAYER
 62
     7
 10
848.221843
 20
-87.607509
 30
0.0
 11
848.221843
 21
-79.607509
 31
0.0
  0
LINE
  8
0
  6
BYLAYER
 62
     7
 10
846.221843
 20
-89.607509
 30
0.0
 11
846.221843
 21
-97.607509
 31
0.0
  0
LINE
  8
0
  6
BYLAYER
 62
     7
 10
846.221843
 20
-97.607509
 30
0.0
 11
838.221843
 21
-97.607509
 31
0.0
  0
LINE
  8
0
  6
BYLAYER
 62
     7
 10
846.221843
 20
-89.607509
 30
0.0
 11
838.221843
 21
-89.607509
 31
0.0
  0
LINE
  8
0
  6
BYLAYER
 62
     7
 10
838.221843
 20
-97.607509
 30
0.0
 11
838.221843
 21
-89.607509
 31
0.0
  0
LINE
  8
0
  6
BYLAYER
 62
     7
 10
886.221843
 20
-157.607509
 30
0.0
 11
886.221843
 21
-149.607509
 31
0.0
  0
LINE
  8
0
  6
BYLAYER
 62
     7
 10
886.221843
 20
-167.607509
 30
0.0
 11
886.221843
 21
-159.607509
 31
0.0
  0
LINE
  8
0
  6
BYLAYER
 62
     7
 10
878.221843
 20
-159.607509
 30
0.0
 11
878.221843
 21
-167.607509
 31
0.0
  0
LINE
  8
0
  6
BYLAYER
 62
     7
 10
876.221843
 20
-159.607509
 30
0.0
 11
876.221843
 21
-167.607509
 31
0.0
  0
LINE
  8
0
  6
BYLAYER
 62
     7
 10
886.221843
 20
-149.607509
 30
0.0
 11
878.221843
 21
-149.607509
 31
0.0
  0
LINE
  8
0
  6
BYLAYER
 62
     7
 10
886.221843
 20
-157.607509
 30
0.0
 11
878.221843
 21
-157.607509
 31
0.0
  0
LINE
  8
0
  6
BYLAYER
 62
     7
 10
876.221843
 20
-159.607509
 30
0.0
 11
868.383844
 21
-159.607509
 31
0.0
  0
LINE
  8
0
  6
BYLAYER
 62
     7
 10
886.221843
 20
-159.607509
 30
0.0
 11
878.221843
 21
-159.607509
 31
0.0
  0
LINE
  8
0
  6
BYLAYER
 62
     7
 10
876.221843
 20
-167.607509
 30
0.0
 11
868.383844
 21
-167.607509
 31
0.0
  0
LINE
  8
0
  6
BYLAYER
 62
     7
 10
886.221843
 20
-167.607509
 30
0.0
 11
878.221843
 21
-167.607509
 31
0.0
  0
LINE
  8
0
  6
BYLAYER
 62
     7
 10
868.383844
 20
-159.607509
 30
0.0
 11
868.383844
 21
-167.607509
 31
0.0
  0
LINE
  8
0
  6
BYLAYER
 62
     7
 10
878.221843
 20
-149.607509
 30
0.0
 11
878.221843
 21
-157.607509
 31
0.0
  0
LINE
  8
0
  6
BYLAYER
 62
     7
 10
876.221843
 20
-157.607509
 30
0.0
 11
876.221843
 21
-149.607509
 31
0.0
  0
LINE
  8
0
  6
BYLAYER
 62
     7
 10
876.221843
 20
-149.607509
 30
0.0
 11
868.221843
 21
-149.607509
 31
0.0
  0
LINE
  8
0
  6
BYLAYER
 62
     7
 10
876.221843
 20
-157.607509
 30
0.0
 11
868.221843
 21
-157.607509
 31
0.0
  0
LINE
  8
0
  6
BYLAYER
 62
     7
 10
868.221843
 20
-149.607509
 30
0.0
 11
868.221843
 21
-157.607509
 31
0.0
  0
LINE
  8
0
  6
BYLAYER
 62
     7
 10
866.221843
 20
-139.607509
 30
0.0
 11
858.221843
 21
-139.607509
 31
0.0
  0
LINE
  8
0
  6
BYLAYER
 62
     7
 10
866.221843
 20
-157.607509
 30
0.0
 11
866.221843
 21
-149.607509
 31
0.0
  0
LINE
  8
0
  6
BYLAYER
 62
     7
 10
866.221843
 20
-147.607509
 30
0.0
 11
866.221843
 21
-139.607509
 31
0.0
  0
LINE
  8
0
  6
BYLAYER
 62
     7
 10
866.221843
 20
-147.607509
 30
0.0
 11
858.221843
 21
-147.607509
 31
0.0
  0
LINE
  8
0
  6
BYLAYER
 62
     7
 10
866.221843
 20
-149.607509
 30
0.0
 11
858.221843
 21
-149.607509
 31
0.0
  0
LINE
  8
0
  6
BYLAYER
 62
     7
 10
866.221843
 20
-157.607509
 30
0.0
 11
858.221843
 21
-157.607509
 31
0.0
  0
LINE
  8
0
  6
BYLAYER
 62
     7
 10
858.221843
 20
-139.607509
 30
0.0
 11
858.221843
 21
-147.607509
 31
0.0
  0
LINE
  8
0
  6
BYLAYER
 62
     7
 10
858.221843
 20
-149.607509
 30
0.0
 11
858.221843
 21
-157.607509
 31
0.0
  0
LINE
  8
0
  6
BYLAYER
 62
     7
 10
866.221843
 20
-129.607509
 30
0.0
 11
858.221843
 21
-129.607509
 31
0.0
  0
LINE
  8
0
  6
BYLAYER
 62
     7
 10
866.221843
 20
-137.607509
 30
0.0
 11
866.221843
 21
-129.607509
 31
0.0
  0
LINE
  8
0
  6
BYLAYER
 62
     7
 10
866.221843
 20
-137.607509
 30
0.0
 11
858.221843
 21
-137.607509
 31
0.0
  0
LINE
  8
0
  6
BYLAYER
 62
     7
 10
858.221843
 20
-129.607509
 30
0.0
 11
858.221843
 21
-137.607509
 31
0.0
  0
LINE
  8
0
  6
BYLAYER
 62
     7
 10
856.221843
 20
-139.607509
 30
0.0
 11
848.221843
 21
-139.607509
 31
0.0
  0
LINE
  8
0
  6
BYLAYER
 62
     7
 10
856.221843
 20
-147.607509
 30
0.0
 11
856.221843
 21
-139.607509
 31
0.0
  0
LINE
  8
0
  6
BYLAYER
 62
     7
 10
856.221843
 20
-147.607509
 30
0.0
 11
848.221843
 21
-147.607509
 31
0.0
  0
LINE
  8
0
  6
BYLAYER
 62
     7
 10
848.221843
 20
-139.607509
 30
0.0
 11
848.221843
 21
-147.607509
 31
0.0
  0
LINE
  8
0
  6
BYLAYER
 62
     7
 10
856.221843
 20
-129.607509
 30
0.0
 11
848.221843
 21
-129.607509
 31
0.0
  0
LINE
  8
0
  6
BYLAYER
 62
     7
 10
856.221843
 20
-137.607509
 30
0.0
 11
856.221843
 21
-129.607509
 31
0.0
  0
LINE
  8
0
  6
BYLAYER
 62
     7
 10
856.221843
 20
-137.607509
 30
0.0
 11
848.221843
 21
-137.607509
 31
0.0
  0
LINE
  8
0
  6
BYLAYER
 62
     7
 10
848.221843
 20
-129.607509
 30
0.0
 11
848.221843
 21
-137.607509
 31
0.0
  0
LINE
  8
0
  6
BYLAYER
 62
     7
 10
846.221843
 20
-139.607509
 30
0.0
 11
838.221843
 21
-139.607509
 31
0.0
  0
LINE
  8
0
  6
BYLAYER
 62
     7
 10
846.221843
 20
-147.607509
 30
0.0
 11
846.221843
 21
-139.607509
 31
0.0
  0
LINE
  8
0
  6
BYLAYER
 62
     7
 10
846.221843
 20
-147.607509
 30
0.0
 11
838.221843
 21
-147.607509
 31
0.0
  0
LINE
  8
0
  6
BYLAYER
 62
     7
 10
838.221843
 20
-139.607509
 30
0.0
 11
838.221843
 21
-147.607509
 31
0.0
  0
LINE
  8
0
  6
BYLAYER
 62
     7
 10
846.221843
 20
-129.607509
 30
0.0
 11
838.221843
 21
-129.607509
 31
0.0
  0
LINE
  8
0
  6
BYLAYER
 62
     7
 10
846.221843
 20
-137.607509
 30
0.0
 11
846.221843
 21
-129.607509
 31
0.0
  0
LINE
  8
0
  6
BYLAYER
 62
     7
 10
846.221843
 20
-137.607509
 30
0.0
 11
838.221843
 21
-137.607509
 31
0.0
  0
LINE
  8
0
  6
BYLAYER
 62
     7
 10
838.221843
 20
-129.607509
 30
0.0
 11
838.221843
 21
-137.607509
 31
0.0
  0
LINE
  8
0
  6
BYLAYER
 62
     7
 10
886.221843
 20
-177.607509
 30
0.0
 11
886.221843
 21
-169.607509
 31
0.0
  0
LINE
  8
0
  6
BYLAYER
 62
     7
 10
878.221843
 20
-169.607509
 30
0.0
 11
878.221843
 21
-177.607509
 31
0.0
  0
LINE
  8
0
  6
BYLAYER
 62
     7
 10
876.221843
 20
-169.607509
 30
0.0
 11
876.221843
 21
-177.607509
 31
0.0
  0
LINE
  8
0
  6
BYLAYER
 62
     7
 10
876.221843
 20
-169.607509
 30
0.0
 11
868.383844
 21
-169.607509
 31
0.0
  0
LINE
  8
0
  6
BYLAYER
 62
     7
 10
886.221843
 20
-169.607509
 30
0.0
 11
878.221843
 21
-169.607509
 31
0.0
  0
LINE
  8
0
  6
BYLAYER
 62
     7
 10
876.221843
 20
-177.607509
 30
0.0
 11
868.383844
 21
-177.607509
 31
0.0
  0
LINE
  8
0
  6
BYLAYER
 62
     7
 10
886.221843
 20
-177.607509
 30
0.0
 11
878.221843
 21
-177.607509
 31
0.0
  0
LINE
  8
0
  6
BYLAYER
 62
     7
 10
868.383844
 20
-169.607509
 30
0.0
 11
868.383844
 21
-177.607509
 31
0.0
  0
LINE
  8
0
  6
BYLAYER
 62
     7
 10
866.221843
 20
-167.607509
 30
0.0
 11
866.221843
 21
-159.607509
 31
0.0
  0
LINE
  8
0
  6
BYLAYER
 62
     7
 10
866.221843
 20
-159.607509
 30
0.0
 11
858.221843
 21
-159.607509
 31
0.0
  0
LINE
  8
0
  6
BYLAYER
 62
     7
 10
866.221843
 20
-167.607509
 30
0.0
 11
858.221843
 21
-167.607509
 31
0.0
  0
LINE
  8
0
  6
BYLAYER
 62
     7
 10
858.221843
 20
-159.607509
 30
0.0
 11
858.221843
 21
-167.607509
 31
0.0
  0
LINE
  8
0
  6
BYLAYER
 62
     7
 10
866.221843
 20
-177.607509
 30
0.0
 11
866.221843
 21
-169.607509
 31
0.0
  0
LINE
  8
0
  6
BYLAYER
 62
     7
 10
866.221843
 20
-169.607509
 30
0.0
 11
858.221843
 21
-169.607509
 31
0.0
  0
LINE
  8
0
  6
BYLAYER
 62
     7
 10
866.221843
 20
-177.607509
 30
0.0
 11
858.221843
 21
-177.607509
 31
0.0
  0
LINE
  8
0
  6
BYLAYER
 62
     7
 10
858.221843
 20
-169.607509
 30
0.0
 11
858.221843
 21
-177.607509
 31
0.0
  0
LINE
  8
0
  6
BYLAYER
 62
     7
 10
856.221843
 20
-157.607509
 30
0.0
 11
856.221843
 21
-149.607509
 31
0.0
  0
LINE
  8
0
  6
BYLAYER
 62
     7
 10
856.221843
 20
-149.607509
 30
0.0
 11
848.221843
 21
-149.607509
 31
0.0
  0
LINE
  8
0
  6
BYLAYER
 62
     7
 10
856.221843
 20
-157.607509
 30
0.0
 11
848.221843
 21
-157.607509
 31
0.0
  0
LINE
  8
0
  6
BYLAYER
 62
     7
 10
848.221843
 20
-149.607509
 30
0.0
 11
848.221843
 21
-157.607509
 31
0.0
  0
LINE
  8
0
  6
BYLAYER
 62
     7
 10
856.221843
 20
-167.607509
 30
0.0
 11
856.221843
 21
-159.607509
 31
0.0
  0
LINE
  8
0
  6
BYLAYER
 62
     7
 10
856.221843
 20
-159.607509
 30
0.0
 11
848.221843
 21
-159.607509
 31
0.0
  0
LINE
  8
0
  6
BYLAYER
 62
     7
 10
856.221843
 20
-167.607509
 30
0.0
 11
848.221843
 21
-167.607509
 31
0.0
  0
LINE
  8
0
  6
BYLAYER
 62
     7
 10
848.221843
 20
-159.607509
 30
0.0
 11
848.221843
 21
-167.607509
 31
0.0
  0
LINE
  8
0
  6
BYLAYER
 62
     7
 10
846.221843
 20
-157.607509
 30
0.0
 11
846.221843
 21
-149.607509
 31
0.0
  0
LINE
  8
0
  6
BYLAYER
 62
     7
 10
846.221843
 20
-149.607509
 30
0.0
 11
838.221843
 21
-149.607509
 31
0.0
  0
LINE
  8
0
  6
BYLAYER
 62
     7
 10
846.221843
 20
-157.607509
 30
0.0
 11
838.221843
 21
-157.607509
 31
0.0
  0
LINE
  8
0
  6
BYLAYER
 62
     7
 10
838.221843
 20
-149.607509
 30
0.0
 11
838.221843
 21
-157.607509
 31
0.0
  0
LINE
  8
0
  6
BYLAYER
 62
     7
 10
836.221843
 20
-139.607509
 30
0.0
 11
828.221843
 21
-139.607509
 31
0.0
  0
LINE
  8
0
  6
BYLAYER
 62
     7
 10
836.221843
 20
-147.607509
 30
0.0
 11
836.221843
 21
-139.607509
 31
0.0
  0
LINE
  8
0
  6
BYLAYER
 62
     7
 10
836.221843
 20
-147.607509
 30
0.0
 11
828.221843
 21
-147.607509
 31
0.0
  0
LINE
  8
0
  6
BYLAYER
 62
     7
 10
828.221843
 20
-139.607509
 30
0.0
 11
828.221843
 21
-147.607509
 31
0.0
  0
LINE
  8
0
  6
BYLAYER
 62
     7
 10
836.221843
 20
-129.607509
 30
0.0
 11
828.221843
 21
-129.607509
 31
0.0
  0
LINE
  8
0
  6
BYLAYER
 62
     7
 10
836.221843
 20
-137.607509
 30
0.0
 11
836.221843
 21
-129.607509
 31
0.0
  0
LINE
  8
0
  6
BYLAYER
 62
     7
 10
836.221843
 20
-137.607509
 30
0.0
 11
828.221843
 21
-137.607509
 31
0.0
  0
LINE
  8
0
  6
BYLAYER
 62
     7
 10
828.221843
 20
-129.607509
 30
0.0
 11
828.221843
 21
-137.607509
 31
0.0
  0
LINE
  8
0
  6
BYLAYER
 62
     7
 10
836.221843
 20
-157.607509
 30
0.0
 11
836.221843
 21
-149.607509
 31
0.0
  0
LINE
  8
0
  6
BYLAYER
 62
     7
 10
836.221843
 20
-149.607509
 30
0.0
 11
828.221843
 21
-149.607509
 31
0.0
  0
LINE
  8
0
  6
BYLAYER
 62
     7
 10
836.221843
 20
-157.607509
 30
0.0
 11
828.221843
 21
-157.607509
 31
0.0
  0
LINE
  8
0
  6
BYLAYER
 62
     7
 10
828.221843
 20
-149.607509
 30
0.0
 11
828.221843
 21
-157.607509
 31
0.0
  0
LINE
  8
0
  6
BYLAYER
 62
     7
 10
886.221843
 20
-187.607509
 30
0.0
 11
886.221843
 21
-179.607509
 31
0.0
  0
LINE
  8
0
  6
BYLAYER
 62
     7
 10
878.221843
 20
-179.607509
 30
0.0
 11
878.221843
 21
-187.607509
 31
0.0
  0
LINE
  8
0
  6
BYLAYER
 62
     7
 10
876.221843
 20
-179.607509
 30
0.0
 11
876.221843
 21
-187.607509
 31
0.0
  0
LINE
  8
0
  6
BYLAYER
 62
     7
 10
876.221843
 20
-179.607509
 30
0.0
 11
868.383844
 21
-179.607509
 31
0.0
  0
LINE
  8
0
  6
BYLAYER
 62
     7
 10
886.221843
 20
-179.607509
 30
0.0
 11
878.221843
 21
-179.607509
 31
0.0
  0
LINE
  8
0
  6
BYLAYER
 62
     7
 10
876.221843
 20
-187.607509
 30
0.0
 11
868.383844
 21
-187.607509
 31
0.0
  0
LINE
  8
0
  6
BYLAYER
 62
     7
 10
886.221843
 20
-187.607509
 30
0.0
 11
878.221843
 21
-187.607509
 31
0.0
  0
LINE
  8
0
  6
BYLAYER
 62
     7
 10
868.383844
 20
-179.607509
 30
0.0
 11
868.383844
 21
-187.607509
 31
0.0
  0
LINE
  8
0
  6
BYLAYER
 62
     7
 10
866.221843
 20
-187.607509
 30
0.0
 11
866.221843
 21
-179.607509
 31
0.0
  0
LINE
  8
0
  6
BYLAYER
 62
     7
 10
866.221843
 20
-179.607509
 30
0.0
 11
858.221843
 21
-179.607509
 31
0.0
  0
LINE
  8
0
  6
BYLAYER
 62
     7
 10
866.221843
 20
-187.607509
 30
0.0
 11
858.221843
 21
-187.607509
 31
0.0
  0
LINE
  8
0
  6
BYLAYER
 62
     7
 10
858.221843
 20
-179.607509
 30
0.0
 11
858.221843
 21
-187.607509
 31
0.0
  0
LINE
  8
0
  6
BYLAYER
 62
     7
 10
856.221843
 20
-177.607509
 30
0.0
 11
856.221843
 21
-169.607509
 31
0.0
  0
LINE
  8
0
  6
BYLAYER
 62
     7
 10
856.221843
 20
-169.607509
 30
0.0
 11
848.221843
 21
-169.607509
 31
0.0
  0
LINE
  8
0
  6
BYLAYER
 62
     7
 10
856.221843
 20
-177.607509
 30
0.0
 11
848.221843
 21
-177.607509
 31
0.0
  0
LINE
  8
0
  6
BYLAYER
 62
     7
 10
848.221843
 20
-169.607509
 30
0.0
 11
848.221843
 21
-177.607509
 31
0.0
  0
LINE
  8
0
  6
BYLAYER
 62
     7
 10
846.221843
 20
-167.607509
 30
0.0
 11
846.221843
 21
-159.607509
 31
0.0
  0
LINE
  8
0
  6
BYLAYER
 62
     7
 10
846.221843
 20
-159.607509
 30
0.0
 11
838.221843
 21
-159.607509
 31
0.0
  0
LINE
  8
0
  6
BYLAYER
 62
     7
 10
846.221843
 20
-167.607509
 30
0.0
 11
838.221843
 21
-167.607509
 31
0.0
  0
LINE
  8
0
  6
BYLAYER
 62
     7
 10
838.221843
 20
-159.607509
 30
0.0
 11
838.221843
 21
-167.607509
 31
0.0
  0
CIRCLE
  8
0
  6
BYLAYER
 62
     7
 10
887.221843
 20
-128.607509
 30
0.0
 40
71.999936
  0
CIRCLE
  8
0
  6
BYLAYER
 62
     7
 10
887.221843
 20
-128.607509
 30
0.0
 40
86.549921
  0
ARC
  8
0
  6
BYLAYER
 62
     7
 10
887.221843
 20
-128.607509
 30
0.0
 40
100.000000
 50
119.340652
 51
420.659492
  0
ARC
  8
0
  6
BYLAYER
 62
     7
 10
887.221843
 20
-128.607509
 30
0.0
 40
96.0
 50
323.301669
 51
356.934592
  0
ARC
  8
0
  6
BYLAYER
 62
     7
 10
887.221843
 20
-128.607509
 30
0.0
 40
96.0
 50
3.065408
 51
36.698331
  0
ARC
  8
0
  6
BYLAYER
 62
     7
 10
887.221843
 20
-128.607509
 30
0.0
 40
96.0
 50
233.301669
 51
266.934592
  0
ARC
  8
0
  6
BYLAYER
 62
     7
 10
887.221843
 20
-128.607509
 30
0.0
 40
96.0
 50
273.065408
 51
306.698331
  0
ARC
  8
0
  6
BYLAYER
 62
     7
 10
887.221843
 20
-128.607509
 30
0.0
 40
96.0
 50
183.065408
 51
216.698331
  0
ARC
  8
0
  6
BYLAYER
 62
     7
 10
887.221843
 20
-128.607509
 30
0.0
 40
96.0
 50
143.301669
 51
176.934592
  0
ARC
  8
0
  6
BYLAYER
 62
     7
 10
887.221843
 20
-128.607509
 30
0.0
 40
96.0
 50
120.691662
 51
126.698331
  0
ARC
  8
0
  6
BYLAYER
 62
     7
 10
887.221843
 20
-128.607509
 30
0.0
 40
96.000000
 50
53.301669
 51
59.308487
  0
ARC
  8
0
  6
BYLAYER
 62
     7
 10
943.097610
 20
-53.639859
 30
0.0
 40
2.500000
 50
315.0
 51
413.301669
  0
ARC
  8
0
  6
BYLAYER
 62
     7
 10
962.189493
 20
-72.731742
 30
0.0
 40
2.5
 50
36.698331
 51
135.0
  0
CIRCLE
  8
0
  6
BYLAYER
 62
     7
 10
887.221843
 20
-128.607509
 30
0.0
 40
70.0
  0
ARC
  8
0
  6
BYLAYER
 62
     7
 10
945.558152
 20
-70.271200
 30
0.0
 40
5.5
 50
1.144516
 51
88.855484
  0
LINE
  8
0
  6
BYLAYER
 62
     7
 10
940.147411
 20
-60.125591
 30
0.0
 11
944.865377
 21
-55.407625
 31
0.0
  0
LINE
  8
0
  6
BYLAYER
 62
     7
 10
955.703761
 20
-75.681941
 30
0.0
 11
960.421727
 21
-70.963975
 31
0.0
  0
ARC
  8
0
  6
BYLAYER
 62
     7
 10
831.346076
 20
-53.639859
 30
0.0
 40
2.500000
 50
126.698331
 51
225.000000
  0
ARC
  8
0
  6
BYLAYER
 62
     7
 10
812.254193
 20
-72.731742
 30
0.0
 40
2.500000
 50
45.0
 51
143.301669
  0
ARC
  8
0
  6
BYLAYER
 62
     7
 10
828.885534
 20
-70.271200
 30
0.0
 40
5.5
 50
91.144516
 51
178.855484
  0
LINE
  8
0
  6
BYLAYER
 62
     7
 10
834.296275
 20
-60.125591
 30
0.0
 11
829.578309
 21
-55.407625
 31
0.0
  0
LINE
  8
0
  6
BYLAYER
 62
     7
 10
818.739925
 20
-75.681941
 30
0.0
 11
814.021959
 21
-70.963975
 31
0.0
  0
ARC
  8
0
  6
BYLAYER
 62
     7
 10
943.097610
 20
-203.575159
 30
0.0
 40
2.500000
 50
306.698331
 51
405.000000
  0
ARC
  8
0
  6
BYLAYER
 62
     7
 10
962.189493
 20
-184.483276
 30
0.0
 40
2.5
 50
225.000000
 51
323.301669
  0
ARC
  8
0
  6
BYLAYER
 62
     7
 10
945.558152
 20
-186.943818
 30
0.0
 40
5.5
 50
271.144516
 51
358.855484
  0
LINE
  8
0
  6
BYLAYER
 62
     7
 10
940.147411
 20
-197.089427
 30
0.0
 11
944.865377
 21
-201.807393
 31
0.0
  0
LINE
  8
0
  6
BYLAYER
 62
     7
 10
955.703761
 20
-181.533077
 30
0.0
 11
960.421727
 21
-186.251043
 31
0.0
  0
ARC
  8
0
  6
BYLAYER
 62
     7
 10
831.346076
 20
-203.575159
 30
0.0
 40
2.500000
 50
135.000000
 51
233.301669
  0
ARC
  8
0
  6
BYLAYER
 62
     7
 10
812.254193
 20
-184.483276
 30
0.0
 40
2.500000
 50
216.698331
 51
315.000000
  0
ARC
  8
0
  6
BYLAYER
 62
     7
 10
828.885534
 20
-186.943818
 30
0.0
 40
5.5
 50
181.144516
 51
268.855484
  0
LINE
  8
0
  6
BYLAYER
 62
     7
 10
834.296275
 20
-197.089427
 30
0.0
 11
829.578309
 21
-201.807393
 31
0.0
  0
LINE
  8
0
  6
BYLAYER
 62
     7
 10
818.739925
 20
-181.533077
 30
0.0
 11
814.021959
 21
-186.251043
 31
0.0
  0
ARC
  8
0
  6
BYLAYER
 62
     7
 10
793.855629
 20
-133.607509
 30
0.0
 40
2.500000
 50
90.0
 51
183.065408
  0
ARC
  8
0
  6
BYLAYER
 62
     7
 10
793.855629
 20
-123.607509
 30
0.0
 40
2.500000
 50
176.934592
 51
270.000000
  0
LINE
  8
0
  6
BYLAYER
 62
     7
 10
793.855629
 20
-131.107509
 30
0.0
 11
800.708036
 21
-131.107509
 31
0.0
  0
LINE
  8
0
  6
BYLAYER
 62
     7
 10
793.855629
 20
-126.107509
 30
0.0
 11
800.708036
 21
-126.107509
 31
0.0
  0
ARC
  8
0
  6
BYLAYER
 62
     7
 10
892.221843
 20
-221.973723
 30
0.0
 40
2.5
 50
180.000000
 51
273.065408
  0
ARC
  8
0
  6
BYLAYER
 62
     7
 10
882.221843
 20
-221.973723
 30
0.0
 40
2.5
 50
266.934592
 51
360.000000
  0
LINE
  8
0
  6
BYLAYER
 62
     7
 10
889.721843
 20
-221.973723
 30
0.0
 11
889.721843
 21
-215.121316
 31
0.0
  0
LINE
  8
0
  6
BYLAYER
 62
     7
 10
884.721843
 20
-221.973723
 30
0.0
 11
884.721843
 21
-215.121316
 31
0.0
  0
ARC
  8
0
  6
BYLAYER
 62
     7
 10
980.588057
 20
-123.607509
 30
0.0
 40
2.500000
 50
270.0
 51
363.065408
  0
ARC
  8
0
  6
BYLAYER
 62
     7
 10
980.588057
 20
-133.607509
 30
0.0
 40
2.500000
 50
356.934592
 51
450.000000
  0
LINE
  8
0
  6
BYLAYER
 62
     7
 10
980.588057
 20
-126.107509
 30
0.0
 11
973.735650
 21
-126.107509
 31
0.0
  0
LINE
  8
0
  6
BYLAYER
 62
     7
 10
980.588057
 20
-131.107509
 30
0.0
 11
973.735650
 21
-131.107509
 31
0.0
  0
LINE
  8
0
  6
BYLAYER
 62
     7
 10
843.721736
 20
-422.107540
 30
0.0
 11
843.721736
 21
-400.607540
 31
0.0
  0
ARC
  8
0
  6
BYLAYER
 62
     7
 10
842.221736
 20
-422.107540
 30
0.0
 40
1.5
 50
270.0
 51
360.0
  0
ARC
  8
0
  6
BYLAYER
 62
     7
 10
845.221736
 20
-400.607540
 30
0.0
 40
1.5
 50
90.0
 51
180.0
  0
LINE
  8
0
  6
BYLAYER
 62
     7
 10
887.221736
 20
-399.107540
 30
0.0
 11
845.221736
 21
-399.107540
 31
0.0
  0
LINE
  8
0
  6
BYLAYER
 62
     7
 10
849.093977
 20
-422.107540
 30
0.0
 11
849.093977
 21
-400.607540
 31
0.0
  0
ARC
  8
0
  6
BYLAYER
 62
     7
 10
847.593977
 20
-422.107540
 30
0.0
 40
1.5
 50
270.0
 51
360.0
  0
ARC
  8
0
  6
BYLAYER
 62
     7
 10
850.593977
 20
-400.607540
 30
0.0
 40
1.5
 50
90.0
 51
180.0
  0
LINE
  8
0
  6
BYLAYER
 62
     7
 10
874.128083
 20
-399.107540
 30
0.0
 11
874.620630
 21
-413.212238
 31
0.0
  0
ARC
  8
0
  6
BYLAYER
 62
     7
 10
877.618802
 20
-413.107540
 30
0.0
 40
3.0
 50
182.000000
 51
270.000000
  0
LINE
  8
0
  6
BYLAYER
 62
     7
 10
884.822842
 20
-413.212238
 30
0.0
 11
885.315389
 21
-399.107540
 31
0.0
  0
ARC
  8
0
  6
BYLAYER
 62
     7
 10
881.824670
 20
-413.107540
 30
0.0
 40
3.000000
 50
270.0
 51
358.0
  0
LINE
  8
0
  6
BYLAYER
 62
     7
 10
877.618802
 20
-416.107540
 30
0.0
 11
881.824670
 21
-416.107540
 31
0.0
  0
LINE
  8
0
  6
BYLAYER
 62
     7
 10
859.128083
 20
-399.107540
 30
0.0
 11
859.620630
 21
-413.212238
 31
0.0
  0
ARC
  8
0
  6
BYLAYER
 62
     7
 10
862.618802
 20
-413.107540
 30
0.0
 40
3.0
 50
182.000000
 51
270.000000
  0
LINE
  8
0
  6
BYLAYER
 62
     7
 10
869.822842
 20
-413.212238
 30
0.0
 11
870.315389
 21
-399.107540
 31
0.0
  0
ARC
  8
0
  6
BYLAYER
 62
     7
 10
866.824670
 20
-413.107540
 30
0.0
 40
3.000000
 50
270.0
 51
358.0
  0
LINE
  8
0
  6
BYLAYER
 62
     7
 10
862.618802
 20
-416.107540
 30
0.0
 11
866.824670
 21
-416.107540
 31
0.0
  0
LINE
  8
0
  6
BYLAYER
 62
     7
 10
859.163004
 20
-400.107540
 30
0.0
 11
870.280468
 21
-400.107540
 31
0.0
  0
LINE
  8
0
  6
BYLAYER
 62
     7
 10
874.163004
 20
-400.107540
 30
0.0
 11
885.280468
 21
-400.107540
 31
0.0
  0
LINE
  8
0
  6
BYLAYER
 62
     7
 10
887.221736
 20
-423.607540
 30
0.0
 11
839.721736
 21
-423.607540
 31
0.0
  0
ARC
  8
0
  6
BYLAYER
 62
     7
 10
839.721736
 20
-425.107540
 30
0.0
 40
1.5
 50
90.0
 51
180.0
  0
LINE
  8
0
  6
BYLAYER
 62
     7
 10
838.221736
 20
-430.607540
 30
0.0
 11
838.221736
 21
-425.107540
 31
0.0
  0
LINE
  8
0
  6
BYLAYER
 62
     7
 10
838.221736
 20
-430.607540
 30
0.0
 11
867.321942
 21
-430.607540
 31
0.0
  0
LINE
  8
0
  6
BYLAYER
 62
     7
 10
930.721736
 20
-422.107540
 30
0.0
 11
930.721736
 21
-400.607540
 31
0.0
  0
ARC
  8
0
  6
BYLAYER
 62
     7
 10
932.221736
 20
-422.107540
 30
0.0
 40
1.5
 50
180.000000
 51
270.000000
  0
ARC
  8
0
  6
BYLAYER
 62
     7
 10
929.221736
 20
-400.607540
 30
0.0
 40
1.5
 50
0.0
 51
90.0
  0
LINE
  8
0
  6
BYLAYER
 62
     7
 10
887.221736
 20
-399.107540
 30
0.0
 11
929.221736
 21
-399.107540
 31
0.0
  0
LINE
  8
0
  6
BYLAYER
 62
     7
 10
925.349495
 20
-422.107540
 30
0.0
 11
925.349495
 21
-400.607540
 31
0.0
  0
ARC
  8
0
  6
BYLAYER
 62
     7
 10
926.849495
 20
-422.107540
 30
0.0
 40
1.5
 50
180.000000
 51
270.000000
  0
ARC
  8
0
  6
BYLAYER
 62
     7
 10
923.849495
 20
-400.607540
 30
0.0
 40
1.5
 50
0.0
 51
90.0
  0
LINE
  8
0
  6
BYLAYER
 62
     7
 10
900.315389
 20
-399.107540
 30
0.0
 11
899.822842
 21
-413.212238
 31
0.0
  0
ARC
  8
0
  6
BYLAYER
 62
     7
 10
896.824670
 20
-413.107540
 30
0.0
 40
3.000000
 50
270.0
 51
358.0
  0
LINE
  8
0
  6
BYLAYER
 62
     7
 10
889.620630
 20
-413.212238
 30
0.0
 11
889.128083
 21
-399.107540
 31
0.0
  0
ARC
  8
0
  6
BYLAYER
 62
     7
 10
892.618802
 20
-413.107540
 30
0.0
 40
3.0
 50
182.000000
 51
270.000000
  0
LINE
  8
0
  6
BYLAYER
 62
     7
 10
896.824670
 20
-416.107540
 30
0.0
 11
892.618802
 21
-416.107540
 31
0.0
  0
LINE
  8
0
  6
BYLAYER
 62
     7
 10
915.315389
 20
-399.107540
 30
0.0
 11
914.822842
 21
-413.212238
 31
0.0
  0
ARC
  8
0
  6
BYLAYER
 62
     7
 10
911.824670
 20
-413.107540
 30
0.0
 40
3.000000
 50
270.0
 51
358.0
  0
LINE
  8
0
  6
BYLAYER
 62
     7
 10
904.620630
 20
-413.212238
 30
0.0
 11
904.128083
 21
-399.107540
 31
0.0
  0
ARC
  8
0
  6
BYLAYER
 62
     7
 10
907.618802
 20
-413.107540
 30
0.0
 40
3.0
 50
182.000000
 51
270.000000
  0
LINE
  8
0
  6
BYLAYER
 62
     7
 10
911.824670
 20
-416.107540
 30
0.0
 11
907.618802
 21
-416.107540
 31
0.0
  0
LINE
  8
0
  6
BYLAYER
 62
     7
 10
915.280468
 20
-400.107540
 30
0.0
 11
904.163004
 21
-400.107540
 31
0.0
  0
LINE
  8
0
  6
BYLAYER
 62
     7
 10
900.280468
 20
-400.107540
 30
0.0
 11
889.163004
 21
-400.107540
 31
0.0
  0
LINE
  8
0
  6
BYLAYER
 62
     7
 10
887.221736
 20
-423.607540
 30
0.0
 11
934.721736
 21
-423.607540
 31
0.0
  0
ARC
  8
0
  6
BYLAYER
 62
     7
 10
934.721736
 20
-425.107540
 30
0.0
 40
1.5
 50
0.0
 51
90.0
  0
LINE
  8
0
  6
BYLAYER
 62
     7
 10
936.221736
 20
-432.607540
 30
0.0
 11
936.221736
 21
-425.107540
 31
0.0
  0
LINE
  8
0
  6
BYLAYER
 62
     7
 10
936.221736
 20
-430.607540
 30
0.0
 11
907.121744
 21
-430.607540
 31
0.0
  0
LINE
  8
0
  6
BYLAYER
 62
     7
 10
838.221736
 20
-432.607540
 30
0.0
 11
859.221737
 21
-432.607540
 31
0.0
  0
LINE
  8
0
  6
BYLAYER
 62
     7
 10
838.221736
 20
-438.107540
 30
0.0
 11
839.679205
 21
-440.631958
 31
0.0
  0
LINE
  8
0
  6
BYLAYER
 62
     7
 10
936.221720
 20
-432.607418
 30
0.0
 11
915.221710
 21
-432.607470
 31
0.0
  0
LINE
  8
0
  6
BYLAYER
 62
     7
 10
936.221720
 20
-438.107418
 30
0.0
 11
934.764252
 21
-440.631834
 31
0.0
  0
LINE
  8
0
  6
BYLAYER
 62
     7
 10
838.221736
 20
-432.607540
 30
0.0
 11
838.221736
 21
-441.435326
 31
0.0
  0
LINE
  8
0
  6
BYLAYER
 62
     7
 10
936.221720
 20
-432.607418
 30
0.0
 11
936.221731
 21
-441.435202
 31
0.0
  0
LINE
  8
0
  6
BYLAYER
 62
     7
 10
838.221736
 20
-430.607540
 30
0.0
 11
838.221736
 21
-432.607540
 31
0.0
  0
ARC
  8
0
  6
BYLAYER
 62
     1
 10
887.221843
 20
-528.607509
 30
0.0
 40
47.500000
 50
63.474648
 51
116.525352
  0
ARC
  8
0
  6
BYLAYER
 62
     1
 10
887.221843
 20
-528.607509
 30
0.0
 40
100.0
 50
306.869898
 51
593.130102
  0
ARC
  8
0
  6
BYLAYER
 62
     1
 10
887.221843
 20
-528.607509
 30
0.0
 40
65.000008
 50
62.204268
 51
117.795792
  0
ARC
  8
0
  6
BYLAYER
 62
     1
 10
887.221843
 20
-528.607509
 30
0.0
 40
64.999992
 50
149.489774
 51
177.795794
  0
ARC
  8
0
  6
BYLAYER
 62
     1
 10
887.221843
 20
-528.607509
 30
0.0
 40
64.999992
 50
122.204269
 51
137.396327
  0
ARC
  8
0
  6
BYLAYER
 62
     1
 10
887.221843
 20
-528.607509
 30
0.0
 40
65.0
 50
182.204271
 51
205.028999
  0
ARC
  8
0
  6
BYLAYER
 62
     1
 10
887.221843
 20
-528.607509
 30
0.0
 40
64.999992
 50
334.970997
 51
357.795799
  0
ARC
  8
0
  6
BYLAYER
 62
     1
 10
887.221843
 20
-528.607509
 30
0.0
 40
65.000000
 50
2.204276
 51
57.795783
  0
LINE
  8
0
  6
BYLAYER
 62
     1
 10
797.063396
 20
-531.107570
 30
0.0
 11
832.721843
 21
-531.107570
 31
0.0
  0
LINE
  8
0
  6
BYLAYER
 62
     1
 10
797.063396
 20
-526.107570
 30
0.0
 11
831.221843
 21
-526.107570
 31
0.0
  0
ARC
  8
0
  6
BYLAYER
 62
     1
 10
796.904765
 20
-521.732251
 30
0.0
 40
9.375319
 50
270.0
 51
270.484825
  0
ARC
  8
0
  6
BYLAYER
 62
     1
 10
796.904836
 20
-521.739632
 30
0.0
 40
9.367938
 50
270.484778
 51
270.969825
  0
ARC
  8
0
  6
BYLAYER
 62
     1
 10
797.063335
 20
-533.865500
 30
0.0
 40
7.757991
 50
90.0
 51
121.966526
  0
ARC
  8
0
  6
BYLAYER
 62
     1
 10
793.782047
 20
-528.607509
 30
0.0
 40
1.560143
 50
121.966526
 51
180.000000
  0
ARC
  8
0
  6
BYLAYER
 62
     1
 10
793.782047
 20
-528.607509
 30
0.0
 40
1.560143
 50
180.000000
 51
238.033474
  0
ARC
  8
0
  6
BYLAYER
 62
     1
 10
797.063335
 20
-523.349518
 30
0.0
 40
7.757991
 50
238.033474
 51
270.000000
  0
LINE
  8
0
  6
BYLAYER
 62
     1
 10
977.380290
 20
-531.107448
 30
0.0
 11
941.721904
 21
-531.107448
 31
0.0
  0
LINE
  8
0
  6
BYLAYER
 62
     1
 10
977.380290
 20
-526.107448
 30
0.0
 11
943.221904
 21
-526.107448
 31
0.0
  0
ARC
  8
0
  6
BYLAYER
 62
     1
 10
977.380351
 20
-523.349518
 30
0.0
 40
7.757991
 50
270.0
 51
301.966526
  0
ARC
  8
0
  6
BYLAYER
 62
     1
 10
980.661639
 20
-528.607509
 30
0.0
 40
1.560143
 50
301.966526
 51
360.000000
  0
ARC
  8
0
  6
BYLAYER
 62
     1
 10
980.661639
 20
-528.607509
 30
0.0
 40
1.560143
 50
0.0
 51
58.033474
  0
ARC
  8
0
  6
BYLAYER
 62
     1
 10
977.380351
 20
-533.865500
 30
0.0
 40
7.757991
 50
58.033474
 51
90.000000
  0
ARC
  8
0
  6
BYLAYER
 62
     1
 10
918.800629
 20
-485.344009
 30
0.0
 40
8.216232
 50
150.000161
 51
176.186233
  0
ARC
  8
0
  6
BYLAYER
 62
     1
 10
913.003680
 20
-484.957577
 30
0.0
 40
2.406417
 50
176.186233
 51
208.545780
  0
ARC
  8
0
  6
BYLAYER
 62
     1
 10
910.098551
 20
-480.958819
 30
0.0
 40
6.456352
 50
307.111668
 51
320.004338
  0
ARC
  8
0
  6
BYLAYER
 62
     1
 10
908.079125
 20
-479.153988
 30
0.0
 40
9.163831
 50
319.474602
 51
329.999970
  0
LINE
  8
0
  6
BYLAYER
 62
     1
 10
934.466045
 20
-451.777980
 30
0.0
 11
916.135967
 21
-483.526607
 31
0.0
  0
LINE
  8
0
  6
BYLAYER
 62
     1
 10
930.135967
 20
-449.277980
 30
0.0
 11
911.805888
 21
-481.026607
 31
0.0
  0
LINE
  8
0
  6
BYLAYER
 62
     1
 10
934.466160
 20
-451.777930
 30
0.0
 11
934.466167
 21
-451.777919
 31
0.0
  0
ARC
  8
0
  6
BYLAYER
 62
     1
 10
927.747473
 20
-447.898887
 30
0.0
 40
7.758075
 50
330.000048
 51
361.966418
  0
ARC
  8
0
  6
BYLAYER
 62
     1
 10
933.941774
 20
-447.686213
 30
0.0
 40
1.560124
 50
1.966418
 51
59.999720
  0
ARC
  8
0
  6
BYLAYER
 62
     1
 10
933.941780
 20
-447.686203
 30
0.0
 40
1.560113
 50
59.999720
 51
118.033737
  0
ARC
  8
0
  6
BYLAYER
 62
     1
 10
936.854752
 20
-453.156934
 30
0.0
 40
7.758041
 50
118.033737
 51
150.000048
  0
LINE
  8
0
  6
BYLAYER
 62
     1
 10
930.136089
 20
-449.277919
 30
0.0
 11
930.136079
 21
-449.277935
 31
0.0
  0
ARC
  8
0
  6
BYLAYER
 62
     1
 10
866.364561
 20
-479.153988
 30
0.0
 40
9.163830
 50
210.000037
 51
220.525401
  0
ARC
  8
0
  6
BYLAYER
 62
     1
 10
864.345135
 20
-480.958820
 30
0.0
 40
6.456352
 50
219.995666
 51
232.888332
  0
ARC
  8
0
  6
BYLAYER
 62
     1
 10
861.440006
 20
-484.957577
 30
0.0
 40
2.406417
 50
331.454220
 51
363.813768
  0
ARC
  8
0
  6
BYLAYER
 62
     1
 10
855.643057
 20
-485.344009
 30
0.0
 40
8.216233
 50
3.813768
 51
29.999843
  0
LINE
  8
0
  6
BYLAYER
 62
     1
 10
839.977519
 20
-451.778041
 30
0.0
 11
858.307597
 21
-483.526668
 31
0.0
  0
LINE
  8
0
  6
BYLAYER
 62
     1
 10
844.307597
 20
-449.278041
 30
0.0
 11
862.637676
 21
-481.026668
 31
0.0
  0
ARC
  8
0
  6
BYLAYER
 62
     1
 10
837.588939
 20
-453.156959
 30
0.0
 40
7.758033
 50
30.000023
 51
61.966287
  0
ARC
  8
0
  6
BYLAYER
 62
     1
 10
840.501906
 20
-447.686233
 30
0.0
 40
1.560113
 50
61.966287
 51
120.000280
  0
ARC
  8
0
  6
BYLAYER
 62
     1
 10
840.501912
 20
-447.686243
 30
0.0
 40
1.560124
 50
120.000280
 51
178.033582
  0
ARC
  8
0
  6
BYLAYER
 62
     1
 10
846.696213
 20
-447.898918
 30
0.0
 40
7.758075
 50
178.033582
 51
209.999952
  0
LINE
  8
0
  6
BYLAYER
 62
     1
 10
839.977519
 20
-451.777950
 30
0.0
 11
839.977526
 21
-451.777962
 31
0.0
  0
LINE
  8
0
  6
BYLAYER
 62
     2
 10
955.150188
 20
-472.841335
 30
0.0
 11
952.579997
 21
-463.249294
 31
0.0
  0
LINE
  8
0
  6
BYLAYER
 62
     2
 10
952.579997
 20
-463.249294
 30
0.0
 11
942.987956
 21
-460.679103
 31
0.0
  0
LINE
  8
0
  6
BYLAYER
 62
     2
 10
942.987956
 20
-460.679103
 30
0.0
 11
935.965984
 21
-467.700954
 31
0.0
  0
LINE
  8
0
  6
BYLAYER
 62
     2
 10
935.965984
 20
-467.700954
 30
0.0
 11
938.536174
 21
-477.293056
 31
0.0
  0
LINE
  8
0
  6
BYLAYER
 62
     2
 10
938.536174
 20
-477.293056
 30
0.0
 11
948.128215
 21
-479.863246
 31
0.0
  0
LINE
  8
0
  6
BYLAYER
 62
     2
 10
948.128215
 20
-479.863246
 30
0.0
 11
955.150188
 21
-472.841335
 31
0.0
  0
LINE
  8
0
  6
BYLAYER
 62
     2
 10
955.150188
 20
-584.373653
 30
0.0
 11
952.579997
 21
-593.965724
 31
0.0
  0
LINE
  8
0
  6
BYLAYER
 62
     2
 10
952.579997
 20
-593.965724
 30
0.0
 11
947.221843
 21
-595.401426
 31
0.0
  0
LINE
  8
0
  6
BYLAYER
 62
     2
 10
947.221843
 20
-577.594634
 30
0.0
 11
948.128215
 21
-577.351772
 31
0.0
  0
LINE
  8
0
  6
BYLAYER
 62
     2
 10
948.128215
 20
-577.351772
 30
0.0
 11
955.150188
 21
-584.373653
 31
0.0
  0
LINE
  8
0
  6
BYLAYER
 62
     2
 10
819.293559
 20
-584.373653
 30
0.0
 11
821.863750
 21
-593.965724
 31
0.0
  0
LINE
  8
0
  6
BYLAYER
 62
     2
 10
821.863750
 20
-593.965724
 30
0.0
 11
827.221843
 21
-595.401410
 31
0.0
  0
LINE
  8
0
  6
BYLAYER
 62
     2
 10
827.221843
 20
-577.594648
 30
0.0
 11
826.315410
 21
-577.351772
 31
0.0
  0
LINE
  8
0
  6
BYLAYER
 62
     2
 10
826.315410
 20
-577.351772
 30
0.0
 11
819.293559
 21
-584.373653
 31
0.0
  0
LINE
  8
0
  6
BYLAYER
 62
     2
 10
819.293559
 20
-472.841335
 30
0.0
 11
821.863750
 21
-463.249294
 31
0.0
  0
LINE
  8
0
  6
BYLAYER
 62
     2
 10
821.863750
 20
-463.249294
 30
0.0
 11
831.455791
 21
-460.679103
 31
0.0
  0
LINE
  8
0
  6
BYLAYER
 62
     2
 10
831.455791
 20
-460.679103
 30
0.0
 11
838.477763
 21
-467.700954
 31
0.0
  0
LINE
  8
0
  6
BYLAYER
 62
     2
 10
838.477763
 20
-467.700954
 30
0.0
 11
835.907573
 21
-477.293056
 31
0.0
  0
LINE
  8
0
  6
BYLAYER
 62
     2
 10
835.907573
 20
-477.293056
 30
0.0
 11
826.315410
 21
-479.863246
 31
0.0
  0
LINE
  8
0
  6
BYLAYER
 62
     2
 10
826.315410
 20
-479.863246
 30
0.0
 11
819.293559
 21
-472.841335
 31
0.0
  0
LINE
  8
0
  6
BYLAYER
 62
     1
 10
295.221843
 20
-651.107387
 30
0.0
 11
295.221843
 21
-603.607509
 31
0.0
  0
ARC
  8
0
  6
BYLAYER
 62
     1
 10
310.721843
 20
-701.132961
 30
0.0
 40
2.000089
 50
180.000000
 51
266.999958
  0
LINE
  8
0
  6
BYLAYER
 62
     1
 10
308.721843
 20
-686.107448
 30
0.0
 11
308.721843
 21
-701.132991
 31
0.0
  0
LINE
  8
0
  6
BYLAYER
 62
     1
 10
308.721843
 20
-686.107448
 30
0.0
 11
308.721843
 21
-603.607509
 31
0.0
  0
ARC
  8
0
  6
BYLAYER
 62
     1
 10
306.721843
 20
-669.238124
 30
0.0
 40
2.000003
 50
0.0
 51
35.000041
  0
LINE
  8
0
  6
BYLAYER
 62
     1
 10
295.427013
 20
-651.107417
 30
0.0
 11
295.221843
 21
-651.107417
 31
0.0
  0
LINE
  8
0
  6
BYLAYER
 62
     1
 10
308.360149
 20
-668.090968
 30
0.0
 11
297.065318
 21
-651.960262
 31
0.0
  0
ARC
  8
0
  6
BYLAYER
 62
     1
 10
295.427013
 20
-653.107417
 30
0.0
 40
2.000000
 50
34.999973
 51
90.000000
  0
LINE
  8
0
  6
BYLAYER
 62
     1
 10
297.065318
 20
-651.960262
 30
0.0
 11
308.721843
 21
-686.107448
 31
0.0
  0
LINE
  8
0
  6
BYLAYER
 62
     1
 10
310.617107
 20
-703.130306
 30
0.0
 11
319.721843
 21
-703.607495
 31
0.0
  0
LINE
  8
0
  6
BYLAYER
 62
     1
 10
319.721843
 20
-703.607495
 30
0.0
 11
319.721843
 21
-603.607509
 31
0.0
  0
LINE
  8
0
  6
BYLAYER
 62
     1
 10
297.065318
 20
-651.960262
 30
0.0
 11
297.065318
 21
-603.607509
 31
0.0
  0
LINE
  8
0
  6
BYLAYER
 62
     1
 10
295.221843
 20
-556.107631
 30
0.0
 11
295.221843
 21
-603.607509
 31
0.0
  0
ARC
  8
0
  6
BYLAYER
 62
     1
 10
310.721843
 20
-506.082057
 30
0.0
 40
2.000089
 50
93.000064
 51
180.000022
  0
LINE
  8
0
  6
BYLAYER
 62
     1
 10
308.721843
 20
-521.107570
 30
0.0
 11
308.721843
 21
-506.082027
 31
0.0
  0
LINE
  8
0
  6
BYLAYER
 62
     1
 10
308.721843
 20
-521.107570
 30
0.0
 11
308.721843
 21
-603.607509
 31
0.0
  0
ARC
  8
0
  6
BYLAYER
 62
     1
 10
306.721843
 20
-537.976894
 30
0.0
 40
2.000003
 50
324.999959
 51
360.0
  0
LINE
  8
0
  6
BYLAYER
 62
     1
 10
295.427013
 20
-556.107601
 30
0.0
 11
295.221843
 21
-556.107601
 31
0.0
  0
LINE
  8
0
  6
BYLAYER
 62
     1
 10
308.360149
 20
-539.124050
 30
0.0
 11
297.065318
 21
-555.254756
 31
0.0
  0
ARC
  8
0
  6
BYLAYER
 62
     1
 10
295.427013
 20
-554.107601
 30
0.0
 40
2.0
 50
270.0
 51
325.000027
  0
LINE
  8
0
  6
BYLAYER
 62
     1
 10
297.065318
 20
-555.254756
 30
0.0
 11
308.721843
 21
-521.107570
 31
0.0
  0
LINE
  8
0
  6
BYLAYER
 62
     1
 10
310.617107
 20
-504.084712
 30
0.0
 11
319.721843
 21
-503.607523
 31
0.0
  0
LINE
  8
0
  6
BYLAYER
 62
     1
 10
319.721843
 20
-503.607523
 30
0.0
 11
319.721843
 21
-603.607509
 31
0.0
  0
LINE
  8
0
  6
BYLAYER
 62
     1
 10
297.065318
 20
-555.254756
 30
0.0
 11
297.065318
 21
-603.607509
 31
0.0
  0
ENDSEC
  0
EOF
