  0
SECTION
  2
HEADER
  9
$EXTMIN
 10
115.894198
 20
693.0
 30
0.0
  9
$EXTMAX
 10
972.092150
 20
0.0
 30
0.0
  0
ENDSEC
  0
SECTION
  2
TABLES
  0
ENDSEC
  0
SECTION
  2
BLOCKS
  0
ENDSEC
  0
SECTION
  2
ENTITIES
  0
LINE
  8
0
  6
BYLAYER
 62
     7
 10
432.406112
 20
-122.006104
 30
0.0
 11
357.206100
 21
-122.006104
 31
0.0
  0
LINE
  8
0
  6
BYLAYER
 62
     7
 10
432.406112
 20
-123.606110
 30
0.0
 11
357.206100
 21
-123.606110
 31
0.0
  0
ARC
  8
0
  6
BYLAYER
 62
     7
 10
361.206100
 20
-78.006104
 30
0.0
 40
0.799927
 50
90.0
 51
270.000012
  0
ARC
  8
0
  6
BYLAYER
 62
     7
 10
357.206100
 20
-122.806092
 30
0.0
 40
0.800018
 50
90.0
 51
270.000012
  0
ARC
  8
0
  6
BYLAYER
 62
     7
 10
361.206100
 20
-122.806092
 30
0.0
 40
0.800018
 50
90.0
 51
270.000012
  0
ARC
  8
0
  6
BYLAYER
 62
     7
 10
357.206100
 20
-111.606110
 30
0.0
 40
0.799988
 50
90.0
 51
270.000012
  0
ARC
  8
0
  6
BYLAYER
 62
     7
 10
361.206100
 20
-111.606110
 30
0.0
 40
0.799988
 50
90.0
 51
270.000012
  0
ARC
  8
0
  6
BYLAYER
 62
     7
 10
357.206100
 20
-100.406129
 30
0.0
 40
0.799927
 50
90.0
 51
270.000012
  0
ARC
  8
0
  6
BYLAYER
 62
     7
 10
361.206100
 20
-100.406129
 30
0.0
 40
0.799927
 50
90.0
 51
270.000012
  0
LINE
  8
0
  6
BYLAYER
 62
     7
 10
432.406112
 20
-99.606080
 30
0.0
 11
357.206100
 21
-99.606080
 31
0.0
  0
LINE
  8
0
  6
BYLAYER
 62
     7
 10
432.406112
 20
-101.206055
 30
0.0
 11
357.206100
 21
-101.206055
 31
0.0
  0
ARC
  8
0
  6
BYLAYER
 62
     7
 10
357.206100
 20
-89.206055
 30
0.0
 40
0.800049
 50
90.0
 51
270.000012
  0
ARC
  8
0
  6
BYLAYER
 62
     7
 10
361.206100
 20
-89.206055
 30
0.0
 40
0.800049
 50
90.0
 51
270.000012
  0
LINE
  8
0
  6
BYLAYER
 62
     7
 10
432.406112
 20
-88.406129
 30
0.0
 11
357.206100
 21
-88.406129
 31
0.0
  0
LINE
  8
0
  6
BYLAYER
 62
     7
 10
432.406112
 20
-90.006104
 30
0.0
 11
357.206100
 21
-90.006104
 31
0.0
  0
ARC
  8
0
  6
BYLAYER
 62
     7
 10
357.206100
 20
-78.006104
 30
0.0
 40
0.799927
 50
90.0
 51
270.000012
  0
LINE
  8
0
  6
BYLAYER
 62
     7
 10
432.406112
 20
-77.206055
 30
0.0
 11
357.206100
 21
-77.206055
 31
0.0
  0
LINE
  8
0
  6
BYLAYER
 62
     7
 10
432.406112
 20
-78.806031
 30
0.0
 11
357.206100
 21
-78.806031
 31
0.0
  0
LINE
  8
0
  6
BYLAYER
 62
     7
 10
454.406173
 20
-32.406098
 30
0.0
 11
454.406173
 21
-77.206055
 31
0.0
  0
LINE
  8
0
  6
BYLAYER
 62
     7
 10
356.406112
 20
-55.656129
 30
0.0
 11
352.906112
 21
-55.656129
 31
0.0
  0
ARC
  8
0
  6
BYLAYER
 62
     7
 10
385.906112
 20
-46.406098
 30
0.0
 40
13.0
 50
180.000019
 51
360.000018
  0
ARC
  8
0
  6
BYLAYER
 62
     7
 10
424.906112
 20
-46.406098
 30
0.0
 40
12.999985
 50
180.000019
 51
360.000018
  0
LINE
  8
0
  6
BYLAYER
 62
     7
 10
361.906112
 20
-78.806031
 30
0.0
 11
361.906112
 21
-88.406129
 31
0.0
  0
LINE
  8
0
  6
BYLAYER
 62
     7
 10
361.906112
 20
-90.006104
 30
0.0
 11
361.906112
 21
-99.606080
 31
0.0
  0
LINE
  8
0
  6
BYLAYER
 62
     7
 10
361.906112
 20
-101.206055
 30
0.0
 11
361.906112
 21
-110.806092
 31
0.0
  0
LINE
  8
0
  6
BYLAYER
 62
     7
 10
361.906112
 20
-112.406098
 30
0.0
 11
361.906112
 21
-122.006104
 31
0.0
  0
LINE
  8
0
  6
BYLAYER
 62
     7
 10
361.906112
 20
-123.606110
 30
0.0
 11
361.906173
 21
-133.206086
 31
0.0
  0
LINE
  8
0
  6
BYLAYER
 62
     7
 10
356.406112
 20
-37.906098
 30
0.0
 11
370.906112
 21
-37.906098
 31
0.0
  0
LINE
  8
0
  6
BYLAYER
 62
     7
 10
372.906112
 20
-46.406098
 30
0.0
 11
372.906112
 21
-39.906098
 31
0.0
  0
ARC
  8
0
  6
BYLAYER
 62
     7
 10
370.906112
 20
-39.906098
 30
0.0
 40
2.000000
 50
0.0
 51
90.000003
  0
LINE
  8
0
  6
BYLAYER
 62
     7
 10
398.906112
 20
-46.406098
 30
0.0
 11
398.906112
 21
-39.906098
 31
0.0
  0
ARC
  8
0
  6
BYLAYER
 62
     7
 10
400.906112
 20
-39.906098
 30
0.0
 40
2.000000
 50
90.0
 51
180.000003
  0
LINE
  8
0
  6
BYLAYER
 62
     7
 10
400.906112
 20
-37.906098
 30
0.0
 11
409.906112
 21
-37.906098
 31
0.0
  0
LINE
  8
0
  6
BYLAYER
 62
     7
 10
411.906112
 20
-46.406098
 30
0.0
 11
411.906112
 21
-39.906098
 31
0.0
  0
ARC
  8
0
  6
BYLAYER
 62
     7
 10
409.906112
 20
-39.906098
 30
0.0
 40
2.000000
 50
0.0
 51
90.000003
  0
LINE
  8
0
  6
BYLAYER
 62
     7
 10
437.906112
 20
-46.406098
 30
0.0
 11
437.906112
 21
-39.906098
 31
0.0
  0
LINE
  8
0
  6
BYLAYER
 62
     7
 10
439.906173
 20
-37.906098
 30
0.0
 11
454.406173
 21
-37.906098
 31
0.0
  0
ARC
  8
0
  6
BYLAYER
 62
     7
 10
439.906173
 20
-39.906098
 30
0.0
 40
2.000061
 50
90.0
 51
180.000003
  0
LINE
  8
0
  6
BYLAYER
 62
     7
 10
356.406112
 20
-43.906098
 30
0.0
 11
372.906112
 21
-43.906098
 31
0.0
  0
LINE
  8
0
  6
BYLAYER
 62
     7
 10
398.906112
 20
-43.906098
 30
0.0
 11
411.906112
 21
-43.906098
 31
0.0
  0
LINE
  8
0
  6
BYLAYER
 62
     7
 10
437.906112
 20
-43.906098
 30
0.0
 11
454.406173
 21
-43.906098
 31
0.0
  0
LINE
  8
0
  6
BYLAYER
 62
     7
 10
432.406112
 20
-133.206116
 30
0.0
 11
357.206100
 21
-133.206116
 31
0.0
  0
LINE
  8
0
  6
BYLAYER
 62
     7
 10
432.406112
 20
-134.806122
 30
0.0
 11
357.206100
 21
-134.806122
 31
0.0
  0
ARC
  8
0
  6
BYLAYER
 62
     7
 10
357.206100
 20
-134.006104
 30
0.0
 40
0.800018
 50
90.0
 51
270.000012
  0
ARC
  8
0
  6
BYLAYER
 62
     7
 10
361.206100
 20
-134.006104
 30
0.0
 40
0.800018
 50
90.0
 51
270.000012
  0
LINE
  8
0
  6
BYLAYER
 62
     7
 10
432.406112
 20
-144.406098
 30
0.0
 11
357.206100
 21
-144.406098
 31
0.0
  0
LINE
  8
0
  6
BYLAYER
 62
     7
 10
432.406112
 20
-146.006104
 30
0.0
 11
357.206100
 21
-146.006104
 31
0.0
  0
ARC
  8
0
  6
BYLAYER
 62
     7
 10
357.206100
 20
-145.206086
 30
0.0
 40
0.800018
 50
90.0
 51
270.000012
  0
ARC
  8
0
  6
BYLAYER
 62
     7
 10
361.206100
 20
-145.206086
 30
0.0
 40
0.800018
 50
90.0
 51
270.000012
  0
LINE
  8
0
  6
BYLAYER
 62
     7
 10
432.406112
 20
-155.606110
 30
0.0
 11
357.206100
 21
-155.606110
 31
0.0
  0
LINE
  8
0
  6
BYLAYER
 62
     7
 10
432.406112
 20
-157.206116
 30
0.0
 11
357.206100
 21
-157.206116
 31
0.0
  0
ARC
  8
0
  6
BYLAYER
 62
     7
 10
357.206100
 20
-156.406098
 30
0.0
 40
0.800018
 50
90.0
 51
270.000012
  0
ARC
  8
0
  6
BYLAYER
 62
     7
 10
361.206100
 20
-156.406098
 30
0.0
 40
0.800018
 50
90.0
 51
270.000012
  0
LINE
  8
0
  6
BYLAYER
 62
     7
 10
432.406112
 20
-166.806092
 30
0.0
 11
357.206100
 21
-166.806092
 31
0.0
  0
LINE
  8
0
  6
BYLAYER
 62
     7
 10
432.406112
 20
-168.406098
 30
0.0
 11
357.206100
 21
-168.406098
 31
0.0
  0
ARC
  8
0
  6
BYLAYER
 62
     7
 10
357.206100
 20
-167.606080
 30
0.0
 40
0.800018
 50
90.0
 51
270.000012
  0
ARC
  8
0
  6
BYLAYER
 62
     7
 10
361.206100
 20
-167.606080
 30
0.0
 40
0.800018
 50
90.0
 51
270.000012
  0
LINE
  8
0
  6
BYLAYER
 62
     7
 10
432.406112
 20
-178.006104
 30
0.0
 11
357.206100
 21
-178.006104
 31
0.0
  0
ARC
  8
0
  6
BYLAYER
 62
     7
 10
357.206100
 20
-178.806092
 30
0.0
 40
0.800018
 50
90.0
 51
270.000012
  0
ARC
  8
0
  6
BYLAYER
 62
     7
 10
361.206100
 20
-178.806092
 30
0.0
 40
0.800018
 50
90.0
 51
270.000012
  0
LINE
  8
0
  6
BYLAYER
 62
     7
 10
356.406112
 20
-32.406098
 30
0.0
 11
356.406173
 21
-201.156098
 31
0.0
  0
LINE
  8
0
  6
BYLAYER
 62
     7
 10
432.406112
 20
-155.606110
 30
0.0
 11
498.941145
 21
-155.606064
 31
0.0
  0
LINE
  8
0
  6
BYLAYER
 62
     7
 10
432.406112
 20
-157.206116
 30
0.0
 11
498.941145
 21
-157.206070
 31
0.0
  0
LINE
  8
0
  6
BYLAYER
 62
     7
 10
361.906112
 20
-134.806092
 30
0.0
 11
361.906173
 21
-144.406098
 31
0.0
  0
LINE
  8
0
  6
BYLAYER
 62
     7
 10
361.906112
 20
-146.006104
 30
0.0
 11
361.906173
 21
-155.606080
 31
0.0
  0
LINE
  8
0
  6
BYLAYER
 62
     7
 10
361.906112
 20
-157.206116
 30
0.0
 11
361.906173
 21
-166.806092
 31
0.0
  0
LINE
  8
0
  6
BYLAYER
 62
     7
 10
361.906112
 20
-168.406098
 30
0.0
 11
361.906173
 21
-178.006074
 31
0.0
  0
ARC
  8
0
  6
BYLAYER
 62
     7
 10
392.406112
 20
-111.606110
 30
0.0
 40
3.000015
 50
13.212986
 51
166.787045
  0
ARC
  8
0
  6
BYLAYER
 62
     7
 10
447.406173
 20
-111.606080
 30
0.0
 40
3.000015
 50
13.213048
 51
166.786990
  0
ARC
  8
0
  6
BYLAYER
 62
     7
 10
447.406173
 20
-111.606080
 30
0.0
 40
3.000008
 50
193.212979
 51
346.787064
  0
ARC
  8
0
  6
BYLAYER
 62
     7
 10
392.406112
 20
-111.606110
 30
0.0
 40
3.000008
 50
193.212979
 51
346.787064
  0
LINE
  8
0
  6
BYLAYER
 62
     7
 10
444.514816
 20
-110.806061
 30
0.0
 11
419.906112
 21
-110.806092
 31
0.0
  0
LINE
  8
0
  6
BYLAYER
 62
     7
 10
444.514816
 20
-112.406067
 30
0.0
 11
419.906112
 21
-112.406098
 31
0.0
  0
LINE
  8
0
  6
BYLAYER
 62
     7
 10
357.206100
 20
-110.806092
 30
0.0
 11
389.514755
 21
-110.806092
 31
0.0
  0
LINE
  8
0
  6
BYLAYER
 62
     7
 10
357.206100
 20
-112.406098
 30
0.0
 11
389.514755
 21
-112.406098
 31
0.0
  0
LINE
  8
0
  6
BYLAYER
 62
     7
 10
419.906112
 20
-110.806092
 30
0.0
 11
395.297500
 21
-110.806092
 31
0.0
  0
LINE
  8
0
  6
BYLAYER
 62
     7
 10
395.297500
 20
-112.406098
 30
0.0
 11
419.906112
 21
-112.406098
 31
0.0
  0
LINE
  8
0
  6
BYLAYER
 62
     7
 10
361.906173
 20
-181.347321
 30
0.0
 11
356.406173
 21
-184.186890
 31
0.0
  0
LINE
  8
0
  6
BYLAYER
 62
     7
 10
356.406173
 20
-184.186890
 30
0.0
 11
359.908187
 21
-193.119935
 31
0.0
  0
ARC
  8
0
  6
BYLAYER
 62
     7
 10
361.770217
 20
-192.389954
 30
0.0
 40
2.000007
 50
201.406501
 51
270.000001
  0
LINE
  8
0
  6
BYLAYER
 62
     7
 10
356.406173
 20
-201.156129
 30
0.0
 11
352.906173
 21
-201.156129
 31
0.0
  0
LINE
  8
0
  6
BYLAYER
 62
     7
 10
356.406173
 20
-188.856232
 30
0.0
 11
359.999343
 21
-201.797791
 31
0.0
  0
ARC
  8
0
  6
BYLAYER
 62
     7
 10
361.926437
 20
-201.262726
 30
0.0
 40
2.000010
 50
195.517184
 51
270.000001
  0
LINE
  8
0
  6
BYLAYER
 62
     7
 10
356.406173
 20
-195.025025
 30
0.0
 11
359.973861
 21
-206.715394
 31
0.0
  0
ARC
  8
0
  6
BYLAYER
 62
     7
 10
361.886764
 20
-206.131623
 30
0.0
 40
1.999996
 50
196.971318
 51
270.000001
  0
LINE
  8
0
  6
BYLAYER
 62
     7
 10
356.406173
 20
-198.892853
 30
0.0
 11
359.957381
 21
-209.835999
 31
0.0
  0
ARC
  8
0
  6
BYLAYER
 62
     7
 10
361.859725
 20
-209.218659
 30
0.0
 40
2.000005
 50
197.979057
 51
270.000001
  0
ARC
  8
0
  6
BYLAYER
 62
     7
 10
361.295516
 20
-210.719788
 30
0.0
 40
2.000005
 50
197.979057
 51
270.000001
  0
LINE
  8
0
  6
BYLAYER
 62
     7
 10
359.393173
 20
-211.337128
 30
0.0
 11
356.089278
 21
-201.156129
 31
0.0
  0
LINE
  8
0
  6
BYLAYER
 62
     7
 10
454.406173
 20
-56.851014
 30
0.0
 11
498.941145
 21
-56.851014
 31
0.0
  0
LINE
  8
0
  6
BYLAYER
 62
     7
 10
454.406173
 20
-47.393952
 30
0.0
 11
498.941145
 21
-47.393952
 31
0.0
  0
LINE
  8
0
  6
BYLAYER
 62
     7
 10
454.406173
 20
-48.895112
 30
0.0
 11
498.941145
 21
-48.895112
 31
0.0
  0
LINE
  8
0
  6
BYLAYER
 62
     7
 10
352.906173
 20
-201.156129
 30
0.0
 11
352.906112
 21
-55.656127
 31
0.0
  0
LINE
  8
0
  6
BYLAYER
 62
     7
 10
454.406173
 20
-51.982117
 30
0.0
 11
498.941145
 21
-51.982117
 31
0.0
  0
LINE
  8
0
  6
BYLAYER
 62
     7
 10
432.406112
 20
-77.206055
 30
0.0
 11
498.941145
 21
-77.206055
 31
0.0
  0
LINE
  8
0
  6
BYLAYER
 62
     7
 10
432.406112
 20
-78.806031
 30
0.0
 11
498.941145
 21
-78.806031
 31
0.0
  0
LINE
  8
0
  6
BYLAYER
 62
     7
 10
432.406112
 20
-88.406129
 30
0.0
 11
498.941145
 21
-88.405966
 31
0.0
  0
LINE
  8
0
  6
BYLAYER
 62
     7
 10
432.406112
 20
-90.006104
 30
0.0
 11
498.941145
 21
-90.006104
 31
0.0
  0
LINE
  8
0
  6
BYLAYER
 62
     7
 10
432.406112
 20
-99.606080
 30
0.0
 11
498.941145
 21
-99.606080
 31
0.0
  0
LINE
  8
0
  6
BYLAYER
 62
     7
 10
432.406112
 20
-101.206055
 30
0.0
 11
498.941145
 21
-101.206055
 31
0.0
  0
LINE
  8
0
  6
BYLAYER
 62
     7
 10
450.297530
 20
-110.806061
 30
0.0
 11
498.941145
 21
-110.806061
 31
0.0
  0
LINE
  8
0
  6
BYLAYER
 62
     7
 10
450.297530
 20
-112.406067
 30
0.0
 11
498.941145
 21
-112.406067
 31
0.0
  0
LINE
  8
0
  6
BYLAYER
 62
     7
 10
432.406112
 20
-122.006104
 30
0.0
 11
498.941145
 21
-122.006064
 31
0.0
  0
LINE
  8
0
  6
BYLAYER
 62
     7
 10
432.406112
 20
-123.606110
 30
0.0
 11
498.941145
 21
-123.606070
 31
0.0
  0
LINE
  8
0
  6
BYLAYER
 62
     7
 10
432.406112
 20
-133.206116
 30
0.0
 11
498.941145
 21
-133.206076
 31
0.0
  0
LINE
  8
0
  6
BYLAYER
 62
     7
 10
432.406112
 20
-134.806122
 30
0.0
 11
498.941145
 21
-134.806082
 31
0.0
  0
LINE
  8
0
  6
BYLAYER
 62
     7
 10
432.406112
 20
-144.406098
 30
0.0
 11
498.941145
 21
-144.406057
 31
0.0
  0
LINE
  8
0
  6
BYLAYER
 62
     7
 10
432.406112
 20
-146.006104
 30
0.0
 11
498.941145
 21
-146.006064
 31
0.0
  0
LINE
  8
0
  6
BYLAYER
 62
     7
 10
432.406112
 20
-166.806092
 30
0.0
 11
498.941145
 21
-166.806051
 31
0.0
  0
LINE
  8
0
  6
BYLAYER
 62
     7
 10
432.406112
 20
-168.406098
 30
0.0
 11
498.941145
 21
-168.406057
 31
0.0
  0
LINE
  8
0
  6
BYLAYER
 62
     7
 10
432.406112
 20
-178.006104
 30
0.0
 11
498.941145
 21
-178.006064
 31
0.0
  0
LINE
  8
0
  6
BYLAYER
 62
     7
 10
357.206100
 20
-179.606080
 30
0.0
 11
498.941145
 21
-179.606080
 31
0.0
  0
LINE
  8
0
  6
BYLAYER
 62
     7
 10
361.906173
 20
-181.347321
 30
0.0
 11
498.941145
 21
-181.347321
 31
0.0
  0
LINE
  8
0
  6
BYLAYER
 62
     7
 10
361.770217
 20
-194.389954
 30
0.0
 11
498.941145
 21
-194.389954
 31
0.0
  0
LINE
  8
0
  6
BYLAYER
 62
     7
 10
361.926437
 20
-203.262726
 30
0.0
 11
498.941145
 21
-203.262726
 31
0.0
  0
LINE
  8
0
  6
BYLAYER
 62
     7
 10
361.886764
 20
-208.131623
 30
0.0
 11
498.941145
 21
-208.131623
 31
0.0
  0
LINE
  8
0
  6
BYLAYER
 62
     7
 10
361.859725
 20
-211.218659
 30
0.0
 11
498.941145
 21
-211.218659
 31
0.0
  0
LINE
  8
0
  6
BYLAYER
 62
     7
 10
361.295516
 20
-212.719788
 30
0.0
 11
498.941145
 21
-212.719788
 31
0.0
  0
LINE
  8
0
  6
BYLAYER
 62
     7
 10
498.941145
 20
-214.956098
 30
0.0
 11
498.941145
 21
-128.406143
 31
0.0
  0
LINE
  8
0
  6
BYLAYER
 62
     7
 10
588.941145
 20
-128.406143
 30
0.0
 11
588.941145
 21
-200.406098
 31
0.0
  0
LINE
  8
0
  6
BYLAYER
 62
     7
 10
588.941145
 20
-200.406098
 30
0.0
 11
574.391145
 21
-214.956098
 31
0.0
  0
LINE
  8
0
  6
BYLAYER
 62
     7
 10
574.391145
 20
-214.956098
 30
0.0
 11
498.941145
 21
-214.956098
 31
0.0
  0
LINE
  8
0
  6
BYLAYER
 62
     7
 10
498.941145
 20
-41.856188
 30
0.0
 11
498.941145
 21
-128.406143
 31
0.0
  0
LINE
  8
0
  6
BYLAYER
 62
     7
 10
588.941145
 20
-128.406143
 30
0.0
 11
588.941145
 21
-56.406188
 31
0.0
  0
LINE
  8
0
  6
BYLAYER
 62
     7
 10
588.941145
 20
-56.406188
 30
0.0
 11
574.391145
 21
-41.856188
 31
0.0
  0
LINE
  8
0
  6
BYLAYER
 62
     7
 10
574.391145
 20
-41.856188
 30
0.0
 11
498.941145
 21
-41.856188
 31
0.0
  0
LINE
  8
0
  6
BYLAYER
 62
     7
 10
350.406143
 20
-213.906143
 30
0.0
 11
340.888687
 21
-213.740005
 31
0.0
  0
ARC
  8
0
  6
BYLAYER
 62
     7
 10
340.906143
 20
-212.740158
 30
0.0
 40
1.000007
 50
180.000000
 51
269.000022
  0
LINE
  8
0
  6
BYLAYER
 62
     7
 10
350.406143
 20
-213.906143
 30
0.0
 11
350.406143
 21
-128.406143
 31
0.0
  0
LINE
  8
0
  6
BYLAYER
 62
     7
 10
352.906143
 20
-201.638682
 30
0.0
 11
350.406143
 21
-201.551376
 31
0.0
  0
LINE
  8
0
  6
BYLAYER
 62
     7
 10
339.906143
 20
-212.740158
 30
0.0
 11
339.906143
 21
-128.406143
 31
0.0
  0
ARC
  8
0
  6
BYLAYER
 62
     7
 10
338.906143
 20
-200.227371
 30
0.0
 40
1.000000
 50
0.0
 51
88.000038
  0
LINE
  8
0
  6
BYLAYER
 62
     7
 10
315.906143
 20
-198.423599
 30
0.0
 11
338.941055
 21
-199.227981
 31
0.0
  0
LINE
  8
0
  6
BYLAYER
 62
     7
 10
315.906143
 20
-128.406143
 30
0.0
 11
315.906143
 21
-198.423599
 31
0.0
  0
LINE
  8
0
  6
BYLAYER
 62
     7
 10
352.906143
 20
-201.638682
 30
0.0
 11
352.906143
 21
-128.406143
 31
0.0
  0
LINE
  8
0
  6
BYLAYER
 62
     7
 10
350.406143
 20
-42.906143
 30
0.0
 11
340.888687
 21
-43.072281
 31
0.0
  0
ARC
  8
0
  6
BYLAYER
 62
     7
 10
340.906143
 20
-44.072128
 30
0.0
 40
1.000007
 50
90.999983
 51
180.000005
  0
LINE
  8
0
  6
BYLAYER
 62
     7
 10
350.406143
 20
-42.906143
 30
0.0
 11
350.406143
 21
-128.406143
 31
0.0
  0
LINE
  8
0
  6
BYLAYER
 62
     7
 10
352.906143
 20
-55.173604
 30
0.0
 11
350.406143
 21
-55.260910
 31
0.0
  0
LINE
  8
0
  6
BYLAYER
 62
     7
 10
339.906143
 20
-44.072128
 30
0.0
 11
339.906143
 21
-128.406143
 31
0.0
  0
ARC
  8
0
  6
BYLAYER
 62
     7
 10
338.906143
 20
-56.584915
 30
0.0
 40
1.000000
 50
271.999962
 51
360.0
  0
LINE
  8
0
  6
BYLAYER
 62
     7
 10
315.906143
 20
-58.388687
 30
0.0
 11
338.941055
 21
-57.584305
 31
0.0
  0
LINE
  8
0
  6
BYLAYER
 62
     7
 10
315.906143
 20
-128.406143
 30
0.0
 11
315.906143
 21
-58.388687
 31
0.0
  0
LINE
  8
0
  6
BYLAYER
 62
     7
 10
352.906143
 20
-55.173604
 30
0.0
 11
352.906143
 21
-128.406143
 31
0.0
  0
LINE
  8
0
  6
BYLAYER
 62
     7
 10
448.906112
 20
-21.906098
 30
0.0
 11
448.906112
 21
-0.406098
 31
0.0
  0
ARC
  8
0
  6
BYLAYER
 62
     7
 10
450.406112
 20
-21.906098
 30
0.0
 40
1.500000
 50
180.000000
 51
270.000000
  0
ARC
  8
0
  6
BYLAYER
 62
     7
 10
447.406112
 20
-0.406098
 30
0.0
 40
1.5
 50
0.0
 51
90.0
  0
LINE
  8
0
  6
BYLAYER
 62
     7
 10
361.906112
 20
-21.906098
 30
0.0
 11
361.906112
 21
-0.406098
 31
0.0
  0
ARC
  8
0
  6
BYLAYER
 62
     7
 10
360.406112
 20
-21.906098
 30
0.0
 40
1.500000
 50
270.0
 51
360.0
  0
ARC
  8
0
  6
BYLAYER
 62
     7
 10
363.406112
 20
-0.406098
 30
0.0
 40
1.5
 50
90.0
 51
180.0
  0
LINE
  8
0
  6
BYLAYER
 62
     7
 10
363.406112
 20
1.093902
 30
0.0
 11
447.406112
 21
1.093902
 31
0.0
  0
LINE
  8
0
  6
BYLAYER
 62
     7
 10
367.278353
 20
-21.906098
 30
0.0
 11
367.278353
 21
-0.406098
 31
0.0
  0
ARC
  8
0
  6
BYLAYER
 62
     7
 10
365.778353
 20
-21.906098
 30
0.0
 40
1.5
 50
270.0
 51
360.0
  0
ARC
  8
0
  6
BYLAYER
 62
     7
 10
368.778353
 20
-0.406098
 30
0.0
 40
1.5
 50
90.0
 51
180.0
  0
LINE
  8
0
  6
BYLAYER
 62
     7
 10
443.533872
 20
-21.906098
 30
0.0
 11
443.533872
 21
-0.406098
 31
0.0
  0
ARC
  8
0
  6
BYLAYER
 62
     7
 10
445.033872
 20
-21.906098
 30
0.0
 40
1.5
 50
180.000000
 51
270.000000
  0
ARC
  8
0
  6
BYLAYER
 62
     7
 10
442.033872
 20
-0.406098
 30
0.0
 40
1.500000
 50
0.0
 51
90.0
  0
LINE
  8
0
  6
BYLAYER
 62
     7
 10
405.406112
 20
-23.406098
 30
0.0
 11
452.906112
 21
-23.406098
 31
0.0
  0
ARC
  8
0
  6
BYLAYER
 62
     7
 10
452.906112
 20
-24.906098
 30
0.0
 40
1.500000
 50
0.0
 51
90.0
  0
LINE
  8
0
  6
BYLAYER
 62
     7
 10
454.406112
 20
-32.406098
 30
0.0
 11
454.406112
 21
-24.906098
 31
0.0
  0
LINE
  8
0
  6
BYLAYER
 62
     7
 10
357.906112
 20
-23.406098
 30
0.0
 11
405.406112
 21
-23.406098
 31
0.0
  0
ARC
  8
0
  6
BYLAYER
 62
     7
 10
357.906112
 20
-24.906098
 30
0.0
 40
1.5
 50
90.0
 51
180.0
  0
LINE
  8
0
  6
BYLAYER
 62
     7
 10
356.406112
 20
-30.406098
 30
0.0
 11
356.406112
 21
-24.906098
 31
0.0
  0
LINE
  8
0
  6
BYLAYER
 62
     7
 10
454.406112
 20
-30.406098
 30
0.0
 11
356.406112
 21
-30.406098
 31
0.0
  0
LINE
  8
0
  6
BYLAYER
 62
     7
 10
356.406112
 20
-30.406098
 30
0.0
 11
356.406112
 21
-32.406098
 31
0.0
  0
LINE
  8
0
  6
BYLAYER
 62
     7
 10
356.406112
 20
-32.406098
 30
0.0
 11
454.406112
 21
-32.406098
 31
0.0
  0
LINE
  8
0
  6
BYLAYER
 62
     7
 10
574.391145
 20
-214.956098
 30
0.0
 11
574.391145
 21
-41.856188
 31
0.0
  0
LINE
  8
0
  6
BYLAYER
 62
     7
 10
432.406112
 20
-653.006104
 30
0.0
 11
357.206100
 21
-653.006104
 31
0.0
  0
ARC
  8
0
  6
BYLAYER
 62
     7
 10
357.206100
 20
-653.806092
 30
0.0
 40
0.800018
 50
90.0
 51
270.000012
  0
ARC
  8
0
  6
BYLAYER
 62
     7
 10
361.206100
 20
-653.806092
 30
0.0
 40
0.800018
 50
90.0
 51
270.000012
  0
LINE
  8
0
  6
BYLAYER
 62
     7
 10
356.406147
 20
-603.406143
 30
0.0
 11
356.406173
 21
-676.156098
 31
0.0
  0
LINE
  8
0
  6
BYLAYER
 62
     7
 10
454.406147
 20
-630.606095
 30
0.0
 11
498.941145
 21
-630.606064
 31
0.0
  0
LINE
  8
0
  6
BYLAYER
 62
     7
 10
454.406147
 20
-632.206101
 30
0.0
 11
498.941145
 21
-632.206070
 31
0.0
  0
LINE
  8
0
  6
BYLAYER
 62
     7
 10
361.906173
 20
-656.347321
 30
0.0
 11
356.406173
 21
-659.186890
 31
0.0
  0
LINE
  8
0
  6
BYLAYER
 62
     7
 10
356.406173
 20
-659.186890
 30
0.0
 11
359.908187
 21
-668.119935
 31
0.0
  0
ARC
  8
0
  6
BYLAYER
 62
     7
 10
361.770217
 20
-667.389954
 30
0.0
 40
2.000007
 50
201.406501
 51
270.000001
  0
LINE
  8
0
  6
BYLAYER
 62
     7
 10
356.406173
 20
-676.156129
 30
0.0
 11
352.906173
 21
-676.156129
 31
0.0
  0
LINE
  8
0
  6
BYLAYER
 62
     7
 10
356.406173
 20
-663.856232
 30
0.0
 11
359.999343
 21
-676.797791
 31
0.0
  0
ARC
  8
0
  6
BYLAYER
 62
     7
 10
361.926437
 20
-676.262726
 30
0.0
 40
2.000010
 50
195.517184
 51
270.000001
  0
LINE
  8
0
  6
BYLAYER
 62
     7
 10
356.406173
 20
-670.025025
 30
0.0
 11
359.973861
 21
-681.715394
 31
0.0
  0
ARC
  8
0
  6
BYLAYER
 62
     7
 10
361.886764
 20
-681.131623
 30
0.0
 40
1.999996
 50
196.971318
 51
270.000001
  0
LINE
  8
0
  6
BYLAYER
 62
     7
 10
356.406173
 20
-673.892853
 30
0.0
 11
359.957381
 21
-684.835999
 31
0.0
  0
ARC
  8
0
  6
BYLAYER
 62
     7
 10
361.859725
 20
-684.218659
 30
0.0
 40
2.000005
 50
197.979057
 51
270.000001
  0
ARC
  8
0
  6
BYLAYER
 62
     7
 10
361.295516
 20
-685.719788
 30
0.0
 40
2.000005
 50
197.979057
 51
270.000001
  0
LINE
  8
0
  6
BYLAYER
 62
     7
 10
359.393173
 20
-686.337128
 30
0.0
 11
356.089278
 21
-676.156129
 31
0.0
  0
LINE
  8
0
  6
BYLAYER
 62
     7
 10
352.906173
 20
-676.156129
 30
0.0
 11
352.906143
 21
-603.406143
 31
0.0
  0
LINE
  8
0
  6
BYLAYER
 62
     7
 10
454.406147
 20
-608.206103
 30
0.0
 11
498.941145
 21
-608.206076
 31
0.0
  0
LINE
  8
0
  6
BYLAYER
 62
     7
 10
454.406147
 20
-609.806109
 30
0.0
 11
498.941145
 21
-609.806082
 31
0.0
  0
LINE
  8
0
  6
BYLAYER
 62
     7
 10
454.406147
 20
-619.406085
 30
0.0
 11
498.941145
 21
-619.406057
 31
0.0
  0
LINE
  8
0
  6
BYLAYER
 62
     7
 10
454.406147
 20
-621.006091
 30
0.0
 11
498.941145
 21
-621.006064
 31
0.0
  0
LINE
  8
0
  6
BYLAYER
 62
     7
 10
454.406147
 20
-641.806079
 30
0.0
 11
498.941145
 21
-641.806051
 31
0.0
  0
LINE
  8
0
  6
BYLAYER
 62
     7
 10
454.406147
 20
-643.406085
 30
0.0
 11
498.941145
 21
-643.406057
 31
0.0
  0
LINE
  8
0
  6
BYLAYER
 62
     7
 10
432.406112
 20
-653.006104
 30
0.0
 11
498.941145
 21
-653.006064
 31
0.0
  0
LINE
  8
0
  6
BYLAYER
 62
     7
 10
357.206100
 20
-654.606080
 30
0.0
 11
498.941145
 21
-654.606080
 31
0.0
  0
LINE
  8
0
  6
BYLAYER
 62
     7
 10
361.906173
 20
-656.347321
 30
0.0
 11
498.941145
 21
-656.347321
 31
0.0
  0
LINE
  8
0
  6
BYLAYER
 62
     7
 10
361.770217
 20
-669.389954
 30
0.0
 11
498.941145
 21
-669.389954
 31
0.0
  0
LINE
  8
0
  6
BYLAYER
 62
     7
 10
361.926437
 20
-678.262726
 30
0.0
 11
498.941145
 21
-678.262726
 31
0.0
  0
LINE
  8
0
  6
BYLAYER
 62
     7
 10
361.886764
 20
-683.131623
 30
0.0
 11
498.941145
 21
-683.131623
 31
0.0
  0
LINE
  8
0
  6
BYLAYER
 62
     7
 10
361.859725
 20
-686.218659
 30
0.0
 11
498.941145
 21
-686.218659
 31
0.0
  0
LINE
  8
0
  6
BYLAYER
 62
     7
 10
361.295516
 20
-687.719788
 30
0.0
 11
498.941145
 21
-687.719788
 31
0.0
  0
LINE
  8
0
  6
BYLAYER
 62
     7
 10
498.941145
 20
-689.956098
 30
0.0
 11
498.941145
 21
-603.406143
 31
0.0
  0
LINE
  8
0
  6
BYLAYER
 62
     7
 10
588.941145
 20
-603.406143
 30
0.0
 11
588.941145
 21
-675.406098
 31
0.0
  0
LINE
  8
0
  6
BYLAYER
 62
     7
 10
588.941145
 20
-675.406098
 30
0.0
 11
574.391145
 21
-689.956098
 31
0.0
  0
LINE
  8
0
  6
BYLAYER
 62
     7
 10
574.391145
 20
-689.956098
 30
0.0
 11
498.941145
 21
-689.956098
 31
0.0
  0
LINE
  8
0
  6
BYLAYER
 62
     7
 10
369.254616
 20
-646.906143
 30
0.0
 11
405.406147
 21
-646.906143
 31
0.0
  0
ARC
  8
0
  6
BYLAYER
 62
     7
 10
369.254616
 20
-645.406143
 30
0.0
 40
1.500000
 50
191.536959
 51
270.000000
  0
LINE
  8
0
  6
BYLAYER
 62
     7
 10
361.906147
 20
-603.406143
 30
0.0
 11
361.906147
 21
-639.557674
 31
0.0
  0
LINE
  8
0
  6
BYLAYER
 62
     7
 10
405.406147
 20
-646.906143
 30
0.0
 11
441.557678
 21
-646.906143
 31
0.0
  0
LINE
  8
0
  6
BYLAYER
 62
     7
 10
448.906147
 20
-639.557674
 30
0.0
 11
448.906147
 21
-603.406143
 31
0.0
  0
LINE
  8
0
  6
BYLAYER
 62
     7
 10
376.010846
 20
-616.007249
 30
0.0
 11
361.906147
 21
-616.499796
 31
0.0
  0
ARC
  8
0
  6
BYLAYER
 62
     7
 10
375.906147
 20
-613.009077
 30
0.0
 40
3.0
 50
272.000000
 51
360.000000
  0
LINE
  8
0
  6
BYLAYER
 62
     7
 10
376.010846
 20
-631.007249
 30
0.0
 11
361.906147
 21
-631.499796
 31
0.0
  0
ARC
  8
0
  6
BYLAYER
 62
     7
 10
375.906147
 20
-628.009077
 30
0.0
 40
3.0
 50
272.000000
 51
360.000000
  0
LINE
  8
0
  6
BYLAYER
 62
     7
 10
361.906147
 20
-620.312490
 30
0.0
 11
376.010846
 21
-620.805037
 31
0.0
  0
ARC
  8
0
  6
BYLAYER
 62
     7
 10
375.906147
 20
-623.803209
 30
0.0
 40
3.000000
 50
0.0
 51
88.0
  0
LINE
  8
0
  6
BYLAYER
 62
     7
 10
361.906147
 20
-605.312490
 30
0.0
 11
376.010846
 21
-605.805037
 31
0.0
  0
ARC
  8
0
  6
BYLAYER
 62
     7
 10
375.906147
 20
-608.803209
 30
0.0
 40
3.000000
 50
0.0
 51
88.0
  0
LINE
  8
0
  6
BYLAYER
 62
     7
 10
378.906147
 20
-623.803209
 30
0.0
 11
378.906147
 21
-628.009077
 31
0.0
  0
LINE
  8
0
  6
BYLAYER
 62
     7
 10
378.906147
 20
-608.803209
 30
0.0
 11
378.906147
 21
-613.009077
 31
0.0
  0
LINE
  8
0
  6
BYLAYER
 62
     7
 10
362.906147
 20
-605.347411
 30
0.0
 11
362.906147
 21
-616.464875
 31
0.0
  0
LINE
  8
0
  6
BYLAYER
 62
     7
 10
362.906147
 20
-620.347411
 30
0.0
 11
362.906147
 21
-631.464875
 31
0.0
  0
LINE
  8
0
  6
BYLAYER
 62
     7
 10
434.801449
 20
-616.007249
 30
0.0
 11
448.906147
 21
-616.499796
 31
0.0
  0
ARC
  8
0
  6
BYLAYER
 62
     7
 10
434.906147
 20
-613.009077
 30
0.0
 40
3.0
 50
180.000000
 51
268.000000
  0
LINE
  8
0
  6
BYLAYER
 62
     7
 10
434.801449
 20
-631.007249
 30
0.0
 11
448.906147
 21
-631.499796
 31
0.0
  0
ARC
  8
0
  6
BYLAYER
 62
     7
 10
434.906147
 20
-628.009077
 30
0.0
 40
3.0
 50
180.000000
 51
268.000000
  0
LINE
  8
0
  6
BYLAYER
 62
     7
 10
448.906147
 20
-620.312490
 30
0.0
 11
434.801449
 21
-620.805037
 31
0.0
  0
ARC
  8
0
  6
BYLAYER
 62
     7
 10
434.906147
 20
-623.803209
 30
0.0
 40
3.0
 50
92.0
 51
180.0
  0
LINE
  8
0
  6
BYLAYER
 62
     7
 10
448.906147
 20
-605.312490
 30
0.0
 11
434.801449
 21
-605.805037
 31
0.0
  0
ARC
  8
0
  6
BYLAYER
 62
     7
 10
434.906147
 20
-608.803209
 30
0.0
 40
3.0
 50
92.000000
 51
180.000000
  0
LINE
  8
0
  6
BYLAYER
 62
     7
 10
431.906147
 20
-623.803209
 30
0.0
 11
431.906147
 21
-628.009077
 31
0.0
  0
LINE
  8
0
  6
BYLAYER
 62
     7
 10
431.906147
 20
-608.803209
 30
0.0
 11
431.906147
 21
-613.009077
 31
0.0
  0
LINE
  8
0
  6
BYLAYER
 62
     7
 10
447.906147
 20
-605.347411
 30
0.0
 11
447.906147
 21
-616.464875
 31
0.0
  0
LINE
  8
0
  6
BYLAYER
 62
     7
 10
447.906147
 20
-620.347411
 30
0.0
 11
447.906147
 21
-631.464875
 31
0.0
  0
LINE
  8
0
  6
BYLAYER
 62
     7
 10
392.406147
 20
-633.406143
 30
0.0
 11
418.406147
 21
-633.406143
 31
0.0
  0
ARC
  8
0
  6
BYLAYER
 62
     7
 10
418.406147
 20
-630.406143
 30
0.0
 40
3.000000
 50
270.0
 51
360.0
  0
ARC
  8
0
  6
BYLAYER
 62
     7
 10
392.406147
 20
-630.406143
 30
0.0
 40
3.0
 50
180.000000
 51
270.000000
  0
LINE
  8
0
  6
BYLAYER
 62
     7
 10
389.406147
 20
-603.406143
 30
0.0
 11
389.406147
 21
-630.406143
 31
0.0
  0
LINE
  8
0
  6
BYLAYER
 62
     7
 10
421.406147
 20
-630.406143
 30
0.0
 11
421.406147
 21
-603.406143
 31
0.0
  0
ARC
  8
0
  6
BYLAYER
 62
     7
 10
361.906147
 20
-646.906143
 30
0.0
 40
6.0
 50
11.536959
 51
78.463041
  0
ARC
  8
0
  6
BYLAYER
 62
     7
 10
363.406147
 20
-639.557674
 30
0.0
 40
1.5
 50
180.000000
 51
258.463041
  0
ARC
  8
0
  6
BYLAYER
 62
     7
 10
448.906147
 20
-646.906143
 30
0.0
 40
6.0
 50
101.536959
 51
168.463041
  0
ARC
  8
0
  6
BYLAYER
 62
     7
 10
447.406147
 20
-639.557674
 30
0.0
 40
1.500000
 50
281.536959
 51
360.000000
  0
ARC
  8
0
  6
BYLAYER
 62
     7
 10
441.557678
 20
-645.406143
 30
0.0
 40
1.500000
 50
270.0
 51
348.463041
  0
LINE
  8
0
  6
BYLAYER
 62
     7
 10
356.406147
 20
-603.406143
 30
0.0
 11
356.406147
 21
-650.906143
 31
0.0
  0
LINE
  8
0
  6
BYLAYER
 62
     7
 10
357.906147
 20
-652.406143
 30
0.0
 11
452.906147
 21
-652.406143
 31
0.0
  0
ARC
  8
0
  6
BYLAYER
 62
     7
 10
357.906147
 20
-650.906143
 30
0.0
 40
1.500000
 50
180.000000
 51
270.000000
  0
LINE
  8
0
  6
BYLAYER
 62
     7
 10
454.406147
 20
-650.906143
 30
0.0
 11
454.406147
 21
-603.406143
 31
0.0
  0
ARC
  8
0
  6
BYLAYER
 62
     7
 10
452.906147
 20
-650.906143
 30
0.0
 40
1.500000
 50
270.0
 51
360.0
  0
LINE
  8
0
  6
BYLAYER
 62
     7
 10
432.406112
 20
-553.806182
 30
0.0
 11
357.206100
 21
-553.806182
 31
0.0
  0
ARC
  8
0
  6
BYLAYER
 62
     7
 10
357.206100
 20
-553.006194
 30
0.0
 40
0.800018
 50
90.0
 51
270.000012
  0
ARC
  8
0
  6
BYLAYER
 62
     7
 10
361.206100
 20
-553.006194
 30
0.0
 40
0.800018
 50
90.0
 51
270.000012
  0
LINE
  8
0
  6
BYLAYER
 62
     7
 10
356.406147
 20
-603.406143
 30
0.0
 11
356.406173
 21
-530.656188
 31
0.0
  0
LINE
  8
0
  6
BYLAYER
 62
     7
 10
454.406147
 20
-576.206191
 30
0.0
 11
498.941145
 21
-576.206222
 31
0.0
  0
LINE
  8
0
  6
BYLAYER
 62
     7
 10
454.406147
 20
-574.606185
 30
0.0
 11
498.941145
 21
-574.606216
 31
0.0
  0
LINE
  8
0
  6
BYLAYER
 62
     7
 10
361.906173
 20
-550.464965
 30
0.0
 11
356.406173
 21
-547.625396
 31
0.0
  0
LINE
  8
0
  6
BYLAYER
 62
     7
 10
356.406173
 20
-547.625396
 30
0.0
 11
359.908187
 21
-538.692351
 31
0.0
  0
ARC
  8
0
  6
BYLAYER
 62
     7
 10
361.770217
 20
-539.422332
 30
0.0
 40
2.000007
 50
90.0
 51
158.593500
  0
LINE
  8
0
  6
BYLAYER
 62
     7
 10
356.406173
 20
-530.656157
 30
0.0
 11
352.906173
 21
-530.656157
 31
0.0
  0
LINE
  8
0
  6
BYLAYER
 62
     7
 10
356.406173
 20
-542.956054
 30
0.0
 11
359.999343
 21
-530.014495
 31
0.0
  0
ARC
  8
0
  6
BYLAYER
 62
     7
 10
361.926437
 20
-530.549560
 30
0.0
 40
2.000010
 50
90.0
 51
164.482817
  0
LINE
  8
0
  6
BYLAYER
 62
     7
 10
356.406173
 20
-536.787261
 30
0.0
 11
359.973861
 21
-525.096892
 31
0.0
  0
ARC
  8
0
  6
BYLAYER
 62
     7
 10
361.886764
 20
-525.680663
 30
0.0
 40
1.999996
 50
90.0
 51
163.028683
  0
LINE
  8
0
  6
BYLAYER
 62
     7
 10
356.406173
 20
-532.919433
 30
0.0
 11
359.957381
 21
-521.976287
 31
0.0
  0
ARC
  8
0
  6
BYLAYER
 62
     7
 10
361.859725
 20
-522.593627
 30
0.0
 40
2.000005
 50
90.0
 51
162.020944
  0
ARC
  8
0
  6
BYLAYER
 62
     7
 10
361.295516
 20
-521.092498
 30
0.0
 40
2.000005
 50
90.0
 51
162.020944
  0
LINE
  8
0
  6
BYLAYER
 62
     7
 10
359.393173
 20
-520.475158
 30
0.0
 11
356.089278
 21
-530.656157
 31
0.0
  0
LINE
  8
0
  6
BYLAYER
 62
     7
 10
352.906173
 20
-530.656157
 30
0.0
 11
352.906143
 21
-603.406143
 31
0.0
  0
LINE
  8
0
  6
BYLAYER
 62
     7
 10
454.406147
 20
-598.606183
 30
0.0
 11
498.941145
 21
-598.606210
 31
0.0
  0
LINE
  8
0
  6
BYLAYER
 62
     7
 10
454.406147
 20
-597.006177
 30
0.0
 11
498.941145
 21
-597.006204
 31
0.0
  0
LINE
  8
0
  6
BYLAYER
 62
     7
 10
454.406147
 20
-587.406201
 30
0.0
 11
498.941145
 21
-587.406229
 31
0.0
  0
LINE
  8
0
  6
BYLAYER
 62
     7
 10
454.406147
 20
-585.806195
 30
0.0
 11
498.941145
 21
-585.806222
 31
0.0
  0
LINE
  8
0
  6
BYLAYER
 62
     7
 10
454.406147
 20
-565.006207
 30
0.0
 11
498.941145
 21
-565.006235
 31
0.0
  0
LINE
  8
0
  6
BYLAYER
 62
     7
 10
454.406147
 20
-563.406201
 30
0.0
 11
498.941145
 21
-563.406229
 31
0.0
  0
LINE
  8
0
  6
BYLAYER
 62
     7
 10
432.406112
 20
-553.806182
 30
0.0
 11
498.941145
 21
-553.806222
 31
0.0
  0
LINE
  8
0
  6
BYLAYER
 62
     7
 10
357.206100
 20
-552.206206
 30
0.0
 11
498.941145
 21
-552.206206
 31
0.0
  0
LINE
  8
0
  6
BYLAYER
 62
     7
 10
361.906173
 20
-550.464965
 30
0.0
 11
498.941145
 21
-550.464965
 31
0.0
  0
LINE
  8
0
  6
BYLAYER
 62
     7
 10
361.770217
 20
-537.422332
 30
0.0
 11
498.941145
 21
-537.422332
 31
0.0
  0
LINE
  8
0
  6
BYLAYER
 62
     7
 10
361.926437
 20
-528.549560
 30
0.0
 11
498.941145
 21
-528.549560
 31
0.0
  0
LINE
  8
0
  6
BYLAYER
 62
     7
 10
361.886764
 20
-523.680663
 30
0.0
 11
498.941145
 21
-523.680663
 31
0.0
  0
LINE
  8
0
  6
BYLAYER
 62
     7
 10
361.859725
 20
-520.593627
 30
0.0
 11
498.941145
 21
-520.593627
 31
0.0
  0
LINE
  8
0
  6
BYLAYER
 62
     7
 10
361.295516
 20
-519.092498
 30
0.0
 11
498.941145
 21
-519.092498
 31
0.0
  0
LINE
  8
0
  6
BYLAYER
 62
     7
 10
498.941145
 20
-516.856188
 30
0.0
 11
498.941145
 21
-603.406143
 31
0.0
  0
LINE
  8
0
  6
BYLAYER
 62
     7
 10
588.941145
 20
-603.406143
 30
0.0
 11
588.941145
 21
-531.406188
 31
0.0
  0
LINE
  8
0
  6
BYLAYER
 62
     7
 10
588.941145
 20
-531.406188
 30
0.0
 11
574.391145
 21
-516.856188
 31
0.0
  0
LINE
  8
0
  6
BYLAYER
 62
     7
 10
574.391145
 20
-516.856188
 30
0.0
 11
498.941145
 21
-516.856188
 31
0.0
  0
LINE
  8
0
  6
BYLAYER
 62
     7
 10
369.254616
 20
-559.906143
 30
0.0
 11
405.406147
 21
-559.906143
 31
0.0
  0
ARC
  8
0
  6
BYLAYER
 62
     7
 10
369.254616
 20
-561.406143
 30
0.0
 40
1.5
 50
90.0
 51
168.463041
  0
LINE
  8
0
  6
BYLAYER
 62
     7
 10
361.906147
 20
-603.406143
 30
0.0
 11
361.906147
 21
-567.254612
 31
0.0
  0
LINE
  8
0
  6
BYLAYER
 62
     7
 10
405.406147
 20
-559.906143
 30
0.0
 11
441.557678
 21
-559.906143
 31
0.0
  0
LINE
  8
0
  6
BYLAYER
 62
     7
 10
448.906147
 20
-567.254612
 30
0.0
 11
448.906147
 21
-603.406143
 31
0.0
  0
LINE
  8
0
  6
BYLAYER
 62
     7
 10
376.010846
 20
-590.805037
 30
0.0
 11
361.906147
 21
-590.312490
 31
0.0
  0
ARC
  8
0
  6
BYLAYER
 62
     7
 10
375.906147
 20
-593.803209
 30
0.0
 40
3.000000
 50
0.0
 51
88.0
  0
LINE
  8
0
  6
BYLAYER
 62
     7
 10
376.010846
 20
-575.805037
 30
0.0
 11
361.906147
 21
-575.312490
 31
0.0
  0
ARC
  8
0
  6
BYLAYER
 62
     7
 10
375.906147
 20
-578.803209
 30
0.0
 40
3.000000
 50
0.0
 51
88.0
  0
LINE
  8
0
  6
BYLAYER
 62
     7
 10
361.906147
 20
-586.499796
 30
0.0
 11
376.010846
 21
-586.007249
 31
0.0
  0
ARC
  8
0
  6
BYLAYER
 62
     7
 10
375.906147
 20
-583.009077
 30
0.0
 40
3.000000
 50
272.0
 51
360.0
  0
LINE
  8
0
  6
BYLAYER
 62
     7
 10
361.906147
 20
-601.499796
 30
0.0
 11
376.010846
 21
-601.007249
 31
0.0
  0
ARC
  8
0
  6
BYLAYER
 62
     7
 10
375.906147
 20
-598.009077
 30
0.0
 40
3.000000
 50
272.0
 51
360.0
  0
LINE
  8
0
  6
BYLAYER
 62
     7
 10
378.906147
 20
-583.009077
 30
0.0
 11
378.906147
 21
-578.803209
 31
0.0
  0
LINE
  8
0
  6
BYLAYER
 62
     7
 10
378.906147
 20
-598.009077
 30
0.0
 11
378.906147
 21
-593.803209
 31
0.0
  0
LINE
  8
0
  6
BYLAYER
 62
     7
 10
362.906147
 20
-601.464875
 30
0.0
 11
362.906147
 21
-590.347411
 31
0.0
  0
LINE
  8
0
  6
BYLAYER
 62
     7
 10
362.906147
 20
-586.464875
 30
0.0
 11
362.906147
 21
-575.347411
 31
0.0
  0
LINE
  8
0
  6
BYLAYER
 62
     7
 10
434.801449
 20
-590.805037
 30
0.0
 11
448.906147
 21
-590.312490
 31
0.0
  0
ARC
  8
0
  6
BYLAYER
 62
     7
 10
434.906147
 20
-593.803209
 30
0.0
 40
3.0
 50
92.000000
 51
180.000000
  0
LINE
  8
0
  6
BYLAYER
 62
     7
 10
434.801449
 20
-575.805037
 30
0.0
 11
448.906147
 21
-575.312490
 31
0.0
  0
ARC
  8
0
  6
BYLAYER
 62
     7
 10
434.906147
 20
-578.803209
 30
0.0
 40
3.0
 50
92.000000
 51
180.000000
  0
LINE
  8
0
  6
BYLAYER
 62
     7
 10
448.906147
 20
-586.499796
 30
0.0
 11
434.801449
 21
-586.007249
 31
0.0
  0
ARC
  8
0
  6
BYLAYER
 62
     7
 10
434.906147
 20
-583.009077
 30
0.0
 40
3.000000
 50
180.000000
 51
268.000000
  0
LINE
  8
0
  6
BYLAYER
 62
     7
 10
448.906147
 20
-601.499796
 30
0.0
 11
434.801449
 21
-601.007249
 31
0.0
  0
ARC
  8
0
  6
BYLAYER
 62
     7
 10
434.906147
 20
-598.009077
 30
0.0
 40
3.000000
 50
180.000000
 51
268.000000
  0
LINE
  8
0
  6
BYLAYER
 62
     7
 10
431.906147
 20
-583.009077
 30
0.0
 11
431.906147
 21
-578.803209
 31
0.0
  0
LINE
  8
0
  6
BYLAYER
 62
     7
 10
431.906147
 20
-598.009077
 30
0.0
 11
431.906147
 21
-593.803209
 31
0.0
  0
LINE
  8
0
  6
BYLAYER
 62
     7
 10
447.906147
 20
-601.464875
 30
0.0
 11
447.906147
 21
-590.347411
 31
0.0
  0
LINE
  8
0
  6
BYLAYER
 62
     7
 10
447.906147
 20
-586.464875
 30
0.0
 11
447.906147
 21
-575.347411
 31
0.0
  0
LINE
  8
0
  6
BYLAYER
 62
     7
 10
392.406147
 20
-573.406143
 30
0.0
 11
418.406147
 21
-573.406143
 31
0.0
  0
ARC
  8
0
  6
BYLAYER
 62
     7
 10
418.406147
 20
-576.406143
 30
0.0
 40
3.0
 50
0.0
 51
90.0
  0
ARC
  8
0
  6
BYLAYER
 62
     7
 10
392.406147
 20
-576.406143
 30
0.0
 40
3.0
 50
90.0
 51
180.0
  0
LINE
  8
0
  6
BYLAYER
 62
     7
 10
389.406147
 20
-603.406143
 30
0.0
 11
389.406147
 21
-576.406143
 31
0.0
  0
LINE
  8
0
  6
BYLAYER
 62
     7
 10
421.406147
 20
-576.406143
 30
0.0
 11
421.406147
 21
-603.406143
 31
0.0
  0
ARC
  8
0
  6
BYLAYER
 62
     7
 10
361.906147
 20
-559.906143
 30
0.0
 40
6.0
 50
281.536959
 51
348.463041
  0
ARC
  8
0
  6
BYLAYER
 62
     7
 10
363.406147
 20
-567.254612
 30
0.0
 40
1.500000
 50
101.536959
 51
180.000000
  0
ARC
  8
0
  6
BYLAYER
 62
     7
 10
448.906147
 20
-559.906143
 30
0.0
 40
6.0
 50
191.536959
 51
258.463041
  0
ARC
  8
0
  6
BYLAYER
 62
     7
 10
447.406147
 20
-567.254612
 30
0.0
 40
1.500000
 50
0.0
 51
78.463041
  0
ARC
  8
0
  6
BYLAYER
 62
     7
 10
441.557678
 20
-561.406143
 30
0.0
 40
1.500000
 50
11.536959
 51
90.000000
  0
LINE
  8
0
  6
BYLAYER
 62
     7
 10
356.406147
 20
-603.406143
 30
0.0
 11
356.406147
 21
-555.906143
 31
0.0
  0
LINE
  8
0
  6
BYLAYER
 62
     7
 10
357.906147
 20
-554.406143
 30
0.0
 11
452.906147
 21
-554.406143
 31
0.0
  0
ARC
  8
0
  6
BYLAYER
 62
     7
 10
357.906147
 20
-555.906143
 30
0.0
 40
1.500000
 50
90.0
 51
180.0
  0
LINE
  8
0
  6
BYLAYER
 62
     7
 10
454.406147
 20
-555.906143
 30
0.0
 11
454.406147
 21
-603.406143
 31
0.0
  0
ARC
  8
0
  6
BYLAYER
 62
     7
 10
452.906147
 20
-555.906143
 30
0.0
 40
1.5
 50
0.0
 51
90.0
  0
LINE
  8
0
  6
BYLAYER
 62
     7
 10
350.406143
 20
-688.906143
 30
0.0
 11
340.888687
 21
-688.740005
 31
0.0
  0
ARC
  8
0
  6
BYLAYER
 62
     7
 10
340.906143
 20
-687.740158
 30
0.0
 40
1.000007
 50
180.000000
 51
269.000022
  0
LINE
  8
0
  6
BYLAYER
 62
     7
 10
350.406143
 20
-688.906143
 30
0.0
 11
350.406143
 21
-603.406143
 31
0.0
  0
LINE
  8
0
  6
BYLAYER
 62
     7
 10
352.906143
 20
-676.638682
 30
0.0
 11
350.406143
 21
-676.551376
 31
0.0
  0
LINE
  8
0
  6
BYLAYER
 62
     7
 10
339.906143
 20
-687.740158
 30
0.0
 11
339.906143
 21
-603.406143
 31
0.0
  0
ARC
  8
0
  6
BYLAYER
 62
     7
 10
338.906143
 20
-675.227371
 30
0.0
 40
1.0
 50
0.0
 51
88.000038
  0
LINE
  8
0
  6
BYLAYER
 62
     7
 10
315.906143
 20
-673.423599
 30
0.0
 11
338.941055
 21
-674.227981
 31
0.0
  0
LINE
  8
0
  6
BYLAYER
 62
     7
 10
315.906143
 20
-603.406143
 30
0.0
 11
315.906143
 21
-673.423599
 31
0.0
  0
LINE
  8
0
  6
BYLAYER
 62
     7
 10
352.906143
 20
-676.638682
 30
0.0
 11
352.906143
 21
-603.406143
 31
0.0
  0
LINE
  8
0
  6
BYLAYER
 62
     7
 10
350.406143
 20
-517.906143
 30
0.0
 11
340.888687
 21
-518.072281
 31
0.0
  0
ARC
  8
0
  6
BYLAYER
 62
     7
 10
340.906143
 20
-519.072128
 30
0.0
 40
1.000007
 50
90.999983
 51
180.000005
  0
LINE
  8
0
  6
BYLAYER
 62
     7
 10
350.406143
 20
-517.906143
 30
0.0
 11
350.406143
 21
-603.406143
 31
0.0
  0
LINE
  8
0
  6
BYLAYER
 62
     7
 10
352.906143
 20
-530.173604
 30
0.0
 11
350.406143
 21
-530.260910
 31
0.0
  0
LINE
  8
0
  6
BYLAYER
 62
     7
 10
339.906143
 20
-519.072128
 30
0.0
 11
339.906143
 21
-603.406143
 31
0.0
  0
ARC
  8
0
  6
BYLAYER
 62
     7
 10
338.906143
 20
-531.584915
 30
0.0
 40
1.0
 50
271.999962
 51
360.0
  0
LINE
  8
0
  6
BYLAYER
 62
     7
 10
315.906143
 20
-533.388687
 30
0.0
 11
338.941055
 21
-532.584305
 31
0.0
  0
LINE
  8
0
  6
BYLAYER
 62
     7
 10
315.906143
 20
-603.406143
 30
0.0
 11
315.906143
 21
-533.388687
 31
0.0
  0
LINE
  8
0
  6
BYLAYER
 62
     7
 10
352.906143
 20
-530.173604
 30
0.0
 11
352.906143
 21
-603.406143
 31
0.0
  0
LINE
  8
0
  6
BYLAYER
 62
     7
 10
574.391145
 20
-516.856188
 30
0.0
 11
574.391145
 21
-689.956098
 31
0.0
  0
LINE
  8
0
  6
BYLAYER
 62
     1
 10
244.406143
 20
-289.406143
 30
0.0
 11
244.406143
 21
-279.406143
 31
0.0
  0
LINE
  8
0
  6
BYLAYER
 62
     1
 10
289.406143
 20
-244.406143
 30
0.0
 11
279.406143
 21
-244.406143
 31
0.0
  0
LINE
  8
0
  6
BYLAYER
 62
     1
 10
287.906143
 20
-242.906143
 30
0.0
 11
289.406143
 21
-244.406143
 31
0.0
  0
LINE
  8
0
  6
BYLAYER
 62
     1
 10
289.406143
 20
-244.406143
 30
0.0
 11
289.406143
 21
-287.406143
 31
0.0
  0
LINE
  8
0
  6
BYLAYER
 62
     1
 10
289.406143
 20
-287.406143
 30
0.0
 11
287.406143
 21
-289.406143
 31
0.0
  0
LINE
  8
0
  6
BYLAYER
 62
     1
 10
289.406143
 20
-287.406143
 30
0.0
 11
287.406143
 21
-289.406143
 31
0.0
  0
LINE
  8
0
  6
BYLAYER
 62
     1
 10
242.906143
 20
-287.906143
 30
0.0
 11
244.406143
 21
-289.406143
 31
0.0
  0
LINE
  8
0
  6
BYLAYER
 62
     1
 10
244.406143
 20
-289.406143
 30
0.0
 11
287.406143
 21
-289.406143
 31
0.0
  0
LINE
  8
0
  6
BYLAYER
 62
     1
 10
117.406143
 20
-244.406143
 30
0.0
 11
117.406143
 21
-287.406143
 31
0.0
  0
LINE
  8
0
  6
BYLAYER
 62
     1
 10
162.406143
 20
-289.406143
 30
0.0
 11
162.406143
 21
-279.406143
 31
0.0
  0
LINE
  8
0
  6
BYLAYER
 62
     1
 10
163.906143
 20
-287.906143
 30
0.0
 11
162.406143
 21
-289.406143
 31
0.0
  0
LINE
  8
0
  6
BYLAYER
 62
     1
 10
162.406143
 20
-289.406143
 30
0.0
 11
119.406143
 21
-289.406143
 31
0.0
  0
LINE
  8
0
  6
BYLAYER
 62
     1
 10
117.406143
 20
-287.406143
 30
0.0
 11
119.406143
 21
-289.406143
 31
0.0
  0
LINE
  8
0
  6
BYLAYER
 62
     1
 10
117.406143
 20
-244.406143
 30
0.0
 11
127.406143
 21
-244.406143
 31
0.0
  0
LINE
  8
0
  6
BYLAYER
 62
     1
 10
118.906143
 20
-242.906143
 30
0.0
 11
117.406143
 21
-244.406143
 31
0.0
  0
LINE
  8
0
  6
BYLAYER
 62
     1
 10
137.906143
 20
-279.406143
 30
0.0
 11
137.906143
 21
-289.406143
 31
0.0
  0
LINE
  8
0
  6
BYLAYER
 62
     1
 10
258.156143
 20
-279.406143
 30
0.0
 11
258.156143
 21
-289.406143
 31
0.0
  0
LINE
  8
0
  6
BYLAYER
 62
     1
 10
269.156143
 20
-279.406143
 30
0.0
 11
269.156143
 21
-289.406143
 31
0.0
  0
LINE
  8
0
  6
BYLAYER
 62
     1
 10
282.906143
 20
-289.406143
 30
0.0
 11
281.906143
 21
-289.406143
 31
0.0
  0
LINE
  8
0
  6
BYLAYER
 62
     1
 10
118.906143
 20
-189.406143
 30
0.0
 11
118.906143
 21
-242.906143
 31
0.0
  0
LINE
  8
0
  6
BYLAYER
 62
     1
 10
287.906143
 20
-189.406143
 30
0.0
 11
287.906143
 21
-242.906143
 31
0.0
  0
LINE
  8
0
  6
BYLAYER
 62
     1
 10
186.711624
 20
-124.656265
 30
0.0
 11
164.656143
 21
-124.656265
 31
0.0
  0
LINE
  8
0
  6
BYLAYER
 62
     1
 10
203.406143
 20
-122.156265
 30
0.0
 11
164.656143
 21
-122.156265
 31
0.0
  0
ARC
  8
0
  6
BYLAYER
 62
     1
 10
164.656143
 20
-123.406265
 30
0.0
 40
1.25
 50
90.0
 51
270.000005
  0
LINE
  8
0
  6
BYLAYER
 62
     1
 10
203.406143
 20
-122.156265
 30
0.0
 11
242.156143
 21
-122.156265
 31
0.0
  0
ARC
  8
0
  6
BYLAYER
 62
     1
 10
242.156143
 20
-123.406265
 30
0.0
 40
1.25
 50
270.0
 51
450.000005
  0
ARC
  8
0
  6
BYLAYER
 62
     1
 10
128.406143
 20
-131.156265
 30
0.0
 40
1.000000
 50
180.000000
 51
269.999996
  0
ARC
  8
0
  6
BYLAYER
 62
     1
 10
128.406143
 20
-135.656265
 30
0.0
 40
1.000000
 50
90.0
 51
180.000003
  0
ARC
  8
0
  6
BYLAYER
 62
     1
 10
157.156143
 20
-143.406265
 30
0.0
 40
1.25
 50
270.0
 51
450.000005
  0
ARC
  8
0
  6
BYLAYER
 62
     1
 10
128.406143
 20
-145.656265
 30
0.0
 40
1.000000
 50
90.0
 51
180.000003
  0
ARC
  8
0
  6
BYLAYER
 62
     1
 10
128.406143
 20
-151.156265
 30
0.0
 40
1.000000
 50
180.000000
 51
269.999996
  0
LINE
  8
0
  6
BYLAYER
 62
     1
 10
147.156082
 20
-152.156265
 30
0.0
 11
128.406143
 21
-152.156265
 31
0.0
  0
ARC
  8
0
  6
BYLAYER
 62
     1
 10
147.156082
 20
-153.406265
 30
0.0
 40
1.25
 50
270.0
 51
450.000005
  0
LINE
  8
0
  6
BYLAYER
 62
     1
 10
157.156143
 20
-142.156265
 30
0.0
 11
128.406143
 21
-142.156265
 31
0.0
  0
LINE
  8
0
  6
BYLAYER
 62
     1
 10
157.156143
 20
-144.656265
 30
0.0
 11
128.406143
 21
-144.656265
 31
0.0
  0
LINE
  8
0
  6
BYLAYER
 62
     1
 10
128.406143
 20
-134.656265
 30
0.0
 11
162.505997
 21
-134.656265
 31
0.0
  0
LINE
  8
0
  6
BYLAYER
 62
     1
 10
128.406143
 20
-132.156265
 30
0.0
 11
162.505997
 21
-132.156265
 31
0.0
  0
LINE
  8
0
  6
BYLAYER
 62
     1
 10
249.655899
 20
-142.156265
 30
0.0
 11
278.406143
 21
-142.156265
 31
0.0
  0
LINE
  8
0
  6
BYLAYER
 62
     1
 10
249.655899
 20
-144.656265
 30
0.0
 11
278.406143
 21
-144.656265
 31
0.0
  0
ARC
  8
0
  6
BYLAYER
 62
     1
 10
249.655899
 20
-143.406265
 30
0.0
 40
1.25
 50
90.0
 51
270.000005
  0
LINE
  8
0
  6
BYLAYER
 62
     1
 10
259.655960
 20
-154.656265
 30
0.0
 11
278.406143
 21
-154.656265
 31
0.0
  0
ARC
  8
0
  6
BYLAYER
 62
     1
 10
259.655960
 20
-153.406265
 30
0.0
 40
1.25
 50
90.0
 51
270.000005
  0
ARC
  8
0
  6
BYLAYER
 62
     1
 10
278.406143
 20
-145.656265
 30
0.0
 40
1.000000
 50
0.0
 51
90.000016
  0
ARC
  8
0
  6
BYLAYER
 62
     1
 10
278.406143
 20
-145.656265
 30
0.0
 40
1.000000
 50
0.0
 51
90.000016
  0
ARC
  8
0
  6
BYLAYER
 62
     1
 10
278.406143
 20
-155.656265
 30
0.0
 40
1.000000
 50
0.0
 51
90.000016
  0
ARC
  8
0
  6
BYLAYER
 62
     1
 10
128.406143
 20
-141.156265
 30
0.0
 40
1.000000
 50
180.000000
 51
270.000009
  0
ARC
  8
0
  6
BYLAYER
 62
     1
 10
278.406143
 20
-141.156265
 30
0.0
 40
1.000000
 50
270.0
 51
360.000003
  0
ARC
  8
0
  6
BYLAYER
 62
     1
 10
278.406143
 20
-151.156265
 30
0.0
 40
1.0
 50
270.0
 51
359.999982
  0
LINE
  8
0
  6
BYLAYER
 62
     1
 10
289.406143
 20
-267.906143
 30
0.0
 11
279.406143
 21
-267.906143
 31
0.0
  0
LINE
  8
0
  6
BYLAYER
 62
     1
 10
289.406143
 20
-256.906143
 30
0.0
 11
279.406143
 21
-256.906143
 31
0.0
  0
LINE
  8
0
  6
BYLAYER
 62
     1
 10
148.906143
 20
-279.406143
 30
0.0
 11
148.906143
 21
-289.406143
 31
0.0
  0
LINE
  8
0
  6
BYLAYER
 62
     1
 10
220.100662
 20
-124.656265
 30
0.0
 11
242.156143
 21
-124.656265
 31
0.0
  0
LINE
  8
0
  6
BYLAYER
 62
     1
 10
244.406143
 20
-84.406143
 30
0.0
 11
287.406143
 21
-84.406143
 31
0.0
  0
LINE
  8
0
  6
BYLAYER
 62
     1
 10
162.406143
 20
-84.406143
 30
0.0
 11
162.406143
 21
-94.406143
 31
0.0
  0
LINE
  8
0
  6
BYLAYER
 62
     1
 10
163.906143
 20
-85.906143
 30
0.0
 11
203.406143
 21
-85.906143
 31
0.0
  0
LINE
  8
0
  6
BYLAYER
 62
     1
 10
242.906143
 20
-85.906143
 30
0.0
 11
203.406143
 21
-85.906143
 31
0.0
  0
LINE
  8
0
  6
BYLAYER
 62
     1
 10
242.906143
 20
-85.906143
 30
0.0
 11
242.906143
 21
-94.406143
 31
0.0
  0
LINE
  8
0
  6
BYLAYER
 62
     1
 10
244.406143
 20
-84.406143
 30
0.0
 11
244.406143
 21
-94.406143
 31
0.0
  0
LINE
  8
0
  6
BYLAYER
 62
     1
 10
162.406143
 20
-84.406143
 30
0.0
 11
119.406143
 21
-84.406143
 31
0.0
  0
LINE
  8
0
  6
BYLAYER
 62
     1
 10
244.406143
 20
-84.406143
 30
0.0
 11
244.406143
 21
-94.406143
 31
0.0
  0
LINE
  8
0
  6
BYLAYER
 62
     1
 10
117.406143
 20
-86.406265
 30
0.0
 11
119.406143
 21
-84.406265
 31
0.0
  0
LINE
  8
0
  6
BYLAYER
 62
     1
 10
242.906143
 20
-85.906143
 30
0.0
 11
244.406143
 21
-84.406143
 31
0.0
  0
LINE
  8
0
  6
BYLAYER
 62
     1
 10
163.906143
 20
-85.906143
 30
0.0
 11
162.406143
 21
-84.406143
 31
0.0
  0
LINE
  8
0
  6
BYLAYER
 62
     1
 10
289.406143
 20
-86.406265
 30
0.0
 11
287.406143
 21
-84.406143
 31
0.0
  0
ARC
  8
0
  6
BYLAYER
 62
     1
 10
277.406143
 20
-96.406265
 30
0.0
 40
2.000000
 50
0.0
 51
89.999996
  0
LINE
  8
0
  6
BYLAYER
 62
     1
 10
117.406143
 20
-115.906143
 30
0.0
 11
127.406143
 21
-115.906143
 31
0.0
  0
LINE
  8
0
  6
BYLAYER
 62
     1
 10
117.406143
 20
-104.906143
 30
0.0
 11
127.406143
 21
-104.906143
 31
0.0
  0
LINE
  8
0
  6
BYLAYER
 62
     1
 10
117.406143
 20
-257.906143
 30
0.0
 11
127.406143
 21
-257.906143
 31
0.0
  0
LINE
  8
0
  6
BYLAYER
 62
     1
 10
117.406143
 20
-268.906143
 30
0.0
 11
127.406143
 21
-268.906143
 31
0.0
  0
LINE
  8
0
  6
BYLAYER
 62
     1
 10
291.406143
 20
-134.156265
 30
0.0
 11
291.406143
 21
-113.656265
 31
0.0
  0
LINE
  8
0
  6
BYLAYER
 62
     1
 10
163.906143
 20
-94.406265
 30
0.0
 11
163.906143
 21
-85.906143
 31
0.0
  0
ARC
  8
0
  6
BYLAYER
 62
     1
 10
278.406143
 20
-278.406143
 30
0.0
 40
1.0
 50
270.0
 51
360.000003
  0
ARC
  8
0
  6
BYLAYER
 62
     1
 10
128.406143
 20
-278.406143
 30
0.0
 40
1.000000
 50
180.000000
 51
269.999996
  0
LINE
  8
0
  6
BYLAYER
 62
     1
 10
149.156143
 20
-94.406265
 30
0.0
 11
149.156143
 21
-84.406143
 31
0.0
  0
LINE
  8
0
  6
BYLAYER
 62
     1
 10
137.656143
 20
-94.406265
 30
0.0
 11
137.656143
 21
-84.406143
 31
0.0
  0
LINE
  8
0
  6
BYLAYER
 62
     1
 10
257.656143
 20
-94.406265
 30
0.0
 11
257.656143
 21
-84.406143
 31
0.0
  0
LINE
  8
0
  6
BYLAYER
 62
     1
 10
269.156143
 20
-94.406265
 30
0.0
 11
269.156143
 21
-84.406143
 31
0.0
  0
ARC
  8
0
  6
BYLAYER
 62
     1
 10
244.651993
 20
-133.406265
 30
0.0
 40
1.25
 50
90.0
 51
270.000005
  0
ARC
  8
0
  6
BYLAYER
 62
     1
 10
162.190140
 20
-133.406265
 30
0.0
 40
1.25
 50
270.0
 51
450.000005
  0
LINE
  8
0
  6
BYLAYER
 62
     1
 10
289.406143
 20
-129.406265
 30
0.0
 11
279.406143
 21
-129.406265
 31
0.0
  0
LINE
  8
0
  6
BYLAYER
 62
     1
 10
287.906143
 20
-130.906265
 30
0.0
 11
289.406143
 21
-129.406265
 31
0.0
  0
LINE
  8
0
  6
BYLAYER
 62
     1
 10
287.906143
 20
-130.906265
 30
0.0
 11
287.906143
 21
-189.406143
 31
0.0
  0
LINE
  8
0
  6
BYLAYER
 62
     1
 10
289.406143
 20
-86.406265
 30
0.0
 11
289.406143
 21
-129.406265
 31
0.0
  0
LINE
  8
0
  6
BYLAYER
 62
     1
 10
117.406143
 20
-129.406265
 30
0.0
 11
127.406143
 21
-129.406265
 31
0.0
  0
LINE
  8
0
  6
BYLAYER
 62
     1
 10
118.906143
 20
-130.906265
 30
0.0
 11
117.406143
 21
-129.406265
 31
0.0
  0
LINE
  8
0
  6
BYLAYER
 62
     1
 10
118.906143
 20
-130.906265
 30
0.0
 11
118.906143
 21
-189.406143
 31
0.0
  0
LINE
  8
0
  6
BYLAYER
 62
     1
 10
277.406143
 20
-94.406265
 30
0.0
 11
129.406143
 21
-94.406265
 31
0.0
  0
LINE
  8
0
  6
BYLAYER
 62
     1
 10
287.906143
 20
-130.906265
 30
0.0
 11
279.406143
 21
-130.906265
 31
0.0
  0
LINE
  8
0
  6
BYLAYER
 62
     1
 10
287.906143
 20
-242.906143
 30
0.0
 11
279.406143
 21
-242.906143
 31
0.0
  0
LINE
  8
0
  6
BYLAYER
 62
     1
 10
163.906143
 20
-287.906143
 30
0.0
 11
163.906143
 21
-279.406143
 31
0.0
  0
LINE
  8
0
  6
BYLAYER
 62
     1
 10
242.906143
 20
-279.406143
 30
0.0
 11
242.906143
 21
-287.906143
 31
0.0
  0
LINE
  8
0
  6
BYLAYER
 62
     1
 10
118.906143
 20
-242.906143
 30
0.0
 11
127.406143
 21
-242.906143
 31
0.0
  0
LINE
  8
0
  6
BYLAYER
 62
     1
 10
127.406143
 20
-130.906265
 30
0.0
 11
118.906143
 21
-130.906265
 31
0.0
  0
LINE
  8
0
  6
BYLAYER
 62
     1
 10
242.906143
 20
-287.906143
 30
0.0
 11
163.906143
 21
-287.906143
 31
0.0
  0
LINE
  8
0
  6
BYLAYER
 62
     1
 10
127.406143
 20
-173.602615
 30
0.0
 11
127.406143
 21
-96.406265
 31
0.0
  0
LINE
  8
0
  6
BYLAYER
 62
     1
 10
127.406143
 20
-96.406265
 30
0.0
 11
129.406143
 21
-94.406265
 31
0.0
  0
ARC
  8
0
  6
BYLAYER
 62
     1
 10
125.406143
 20
-173.602615
 30
0.0
 40
2.000004
 50
339.088047
 51
360.000000
  0
ARC
  8
0
  6
BYLAYER
 62
     1
 10
203.406143
 20
-203.406143
 30
0.0
 40
81.5
 50
159.088329
 51
200.911681
  0
LINE
  8
0
  6
BYLAYER
 62
     1
 10
127.406143
 20
-233.209671
 30
0.0
 11
127.406143
 21
-278.406143
 31
0.0
  0
ARC
  8
0
  6
BYLAYER
 62
     1
 10
125.406143
 20
-233.209671
 30
0.0
 40
2.000004
 50
0.0
 51
20.911958
  0
LINE
  8
0
  6
BYLAYER
 62
     1
 10
128.406143
 20
-279.406143
 30
0.0
 11
173.602615
 21
-279.406143
 31
0.0
  0
ARC
  8
0
  6
BYLAYER
 62
     1
 10
173.602615
 20
-281.406143
 30
0.0
 40
2.000000
 50
69.087962
 51
90.0
  0
ARC
  8
0
  6
BYLAYER
 62
     1
 10
203.406143
 20
-203.406143
 30
0.0
 40
81.500008
 50
249.088338
 51
290.911690
  0
LINE
  8
0
  6
BYLAYER
 62
     1
 10
233.209671
 20
-279.406143
 30
0.0
 11
278.406143
 21
-279.406143
 31
0.0
  0
ARC
  8
0
  6
BYLAYER
 62
     1
 10
233.209671
 20
-281.406143
 30
0.0
 40
1.999991
 50
90.0
 51
110.911628
  0
LINE
  8
0
  6
BYLAYER
 62
     1
 10
279.406143
 20
-233.209671
 30
0.0
 11
279.406143
 21
-278.406143
 31
0.0
  0
ARC
  8
0
  6
BYLAYER
 62
     1
 10
281.406143
 20
-233.209671
 30
0.0
 40
2.0
 50
159.087955
 51
180.000000
  0
LINE
  8
0
  6
BYLAYER
 62
     1
 10
279.406143
 20
-173.602615
 30
0.0
 11
279.406143
 21
-95.906265
 31
0.0
  0
ARC
  8
0
  6
BYLAYER
 62
     1
 10
203.406143
 20
-203.406143
 30
0.0
 40
81.500008
 50
339.08832
 51
380.911693
  0
ARC
  8
0
  6
BYLAYER
 62
     1
 10
281.406143
 20
-173.602585
 30
0.0
 40
2.0
 50
180.000000
 51
200.912031
  0
ARC
  8
0
  6
BYLAYER
 62
     1
 10
131.406143
 20
-275.406143
 30
0.0
 40
1.000000
 50
180.000000
 51
269.999996
  0
LINE
  8
0
  6
BYLAYER
 62
     1
 10
276.406143
 20
-244.406143
 30
0.0
 11
276.406143
 21
-275.406143
 31
0.0
  0
ARC
  8
0
  6
BYLAYER
 62
     1
 10
275.406143
 20
-275.406143
 30
0.0
 40
1.0
 50
270.0
 51
360.000003
  0
LINE
  8
0
  6
BYLAYER
 62
     1
 10
130.699051
 20
-276.113266
 30
0.0
 11
127.699051
 21
-279.113266
 31
0.0
  0
LINE
  8
0
  6
BYLAYER
 62
     1
 10
276.113235
 20
-276.113266
 30
0.0
 11
279.113235
 21
-279.113266
 31
0.0
  0
ARC
  8
0
  6
BYLAYER
 62
     1
 10
128.406143
 20
-155.656265
 30
0.0
 40
1.000000
 50
90.0
 51
179.999989
  0
LINE
  8
0
  6
BYLAYER
 62
     1
 10
147.156082
 20
-154.656265
 30
0.0
 11
128.406143
 21
-154.656265
 31
0.0
  0
ARC
  8
0
  6
BYLAYER
 62
     1
 10
273.406143
 20
-123.406143
 30
0.0
 40
2.000000
 50
90.0
 51
180.000003
  0
LINE
  8
0
  6
BYLAYER
 62
     1
 10
271.406143
 20
-123.406143
 30
0.0
 11
271.406143
 21
-133.406143
 31
0.0
  0
ARC
  8
0
  6
BYLAYER
 62
     1
 10
273.406143
 20
-133.406143
 30
0.0
 40
2.000000
 50
180.000000
 51
269.999996
  0
LINE
  8
0
  6
BYLAYER
 62
     1
 10
273.406143
 20
-135.406143
 30
0.0
 11
277.406143
 21
-135.406143
 31
0.0
  0
ARC
  8
0
  6
BYLAYER
 62
     1
 10
277.406143
 20
-137.406143
 30
0.0
 40
2.000000
 50
0.0
 51
90.000003
  0
LINE
  8
0
  6
BYLAYER
 62
     1
 10
273.406143
 20
-121.406143
 30
0.0
 11
277.406143
 21
-121.406143
 31
0.0
  0
ARC
  8
0
  6
BYLAYER
 62
     1
 10
277.406143
 20
-119.406143
 30
0.0
 40
2.0
 50
270.0
 51
360.000003
  0
LINE
  8
0
  6
BYLAYER
 62
     1
 10
271.421951
 20
-134.656265
 30
0.0
 11
244.651993
 21
-134.656265
 31
0.0
  0
ARC
  8
0
  6
BYLAYER
 62
     1
 10
271.421951
 20
-135.656265
 30
0.0
 40
1.000026
 50
48.593996
 51
90.000003
  0
LINE
  8
0
  6
BYLAYER
 62
     1
 10
270.406143
 20
-132.156265
 30
0.0
 11
244.651993
 21
-132.156265
 31
0.0
  0
ARC
  8
0
  6
BYLAYER
 62
     1
 10
270.406143
 20
-131.156265
 30
0.0
 40
1.0
 50
270.0
 51
360.000003
  0
LINE
  8
0
  6
BYLAYER
 62
     1
 10
237.816971
 20
-276.406143
 30
0.0
 11
275.406143
 21
-276.406143
 31
0.0
  0
LINE
  8
0
  6
BYLAYER
 62
     1
 10
276.406143
 20
-237.817001
 30
0.0
 11
276.406143
 21
-275.406143
 31
0.0
  0
LINE
  8
0
  6
BYLAYER
 62
     1
 10
130.406143
 20
-237.817001
 30
0.0
 11
130.406143
 21
-275.406143
 31
0.0
  0
LINE
  8
0
  6
BYLAYER
 62
     1
 10
131.406143
 20
-276.406143
 30
0.0
 11
168.995254
 21
-276.406143
 31
0.0
  0
LINE
  8
0
  6
BYLAYER
 62
     1
 10
291.406143
 20
-170.913132
 30
0.0
 11
291.406143
 21
-85.899154
 31
0.0
  0
LINE
  8
0
  6
BYLAYER
 62
     1
 10
291.406143
 20
-170.913132
 30
0.0
 11
287.906143
 21
-171.035354
 31
0.0
  0
LINE
  8
0
  6
BYLAYER
 62
     1
 10
291.406143
 20
-85.899154
 30
0.0
 11
288.808365
 21
-85.808426
 31
0.0
  0
LINE
  8
0
  6
BYLAYER
 62
     1
 10
117.406143
 20
-162.630142
 30
0.0
 11
117.406143
 21
-86.406265
 31
0.0
  0
LINE
  8
0
  6
BYLAYER
 62
     1
 10
117.406143
 20
-162.630142
 30
0.0
 11
118.906143
 21
-162.682510
 31
0.0
  0
LINE
  8
0
  6
BYLAYER
 62
     1
 10
278.406143
 20
-152.156265
 30
0.0
 11
259.655960
 21
-152.156265
 31
0.0
  0
ARC
  8
0
  6
BYLAYER
 62
     1
 10
165.090835
 20
-147.228409
 30
0.0
 40
2.000066
 50
61.945103
 51
124.296261
  0
ARC
  8
0
  6
BYLAYER
 62
     1
 10
190.775406
 20
-136.589493
 30
0.0
 40
1.999995
 50
100.705532
 51
163.055904
  0
ARC
  8
0
  6
BYLAYER
 62
     1
 10
203.406143
 20
-203.406143
 30
0.0
 40
69.999878
 50
79.295443
 51
100.704664
  0
ARC
  8
0
  6
BYLAYER
 62
     1
 10
216.036758
 20
-136.589493
 30
0.0
 40
1.999900
 50
16.944094
 51
79.294466
  0
ARC
  8
0
  6
BYLAYER
 62
     1
 10
241.721268
 20
-147.228409
 30
0.0
 40
1.999928
 50
55.705179
 51
118.056036
  0
ARC
  8
0
  6
BYLAYER
 62
     1
 10
270.222671
 20
-216.037002
 30
0.0
 40
2.000030
 50
286.944361
 51
349.295492
  0
ARC
  8
0
  6
BYLAYER
 62
     1
 10
259.583816
 20
-241.721573
 30
0.0
 40
2.000036
 50
325.704454
 51
388.055618
  0
ARC
  8
0
  6
BYLAYER
 62
     1
 10
203.406143
 20
-203.406143
 30
0.0
 40
69.999969
 50
304.295309
 51
325.704537
  0
ARC
  8
0
  6
BYLAYER
 62
     1
 10
241.721329
 20
-259.583999
 30
0.0
 40
2.000036
 50
241.943960
 51
304.294326
  0
ARC
  8
0
  6
BYLAYER
 62
     1
 10
216.036758
 20
-270.222793
 30
0.0
 40
2.000139
 50
280.705366
 51
343.055895
  0
ARC
  8
0
  6
BYLAYER
 62
     1
 10
203.406143
 20
-203.406143
 30
0.0
 40
70.000023
 50
259.295346
 51
280.704546
  0
ARC
  8
0
  6
BYLAYER
 62
     1
 10
190.775345
 20
-270.222793
 30
0.0
 40
2.000007
 50
196.944598
 51
259.296193
  0
ARC
  8
0
  6
BYLAYER
 62
     1
 10
165.090835
 20
-259.583999
 30
0.0
 40
2.000031
 50
235.705676
 51
298.056041
  0
ARC
  8
0
  6
BYLAYER
 62
     1
 10
203.406143
 20
-203.406143
 30
0.0
 40
70.000069
 50
214.295423
 51
235.704610
  0
ARC
  8
0
  6
BYLAYER
 62
     1
 10
147.228348
 20
-241.721573
 30
0.0
 40
2.000036
 50
151.944375
 51
214.295546
  0
ARC
  8
0
  6
BYLAYER
 62
     1
 10
136.589432
 20
-216.037002
 30
0.0
 40
2.000008
 50
190.704510
 51
253.055640
  0
ARC
  8
0
  6
BYLAYER
 62
     1
 10
203.406143
 20
-203.406143
 30
0.0
 40
70.000046
 50
169.295473
 51
190.704646
  0
ARC
  8
0
  6
BYLAYER
 62
     1
 10
136.589432
 20
-190.775528
 30
0.0
 40
2.000008
 50
106.944349
 51
169.295487
  0
ARC
  8
0
  6
BYLAYER
 62
     1
 10
147.228348
 20
-165.090957
 30
0.0
 40
2.000036
 50
145.704450
 51
208.055622
  0
ARC
  8
0
  6
BYLAYER
 62
     1
 10
203.406143
 20
-203.406143
 30
0.0
 40
70.0
 50
124.295441
 51
145.704587
  0
ARC
  8
0
  6
BYLAYER
 62
     1
 10
203.406143
 20
-203.406143
 30
0.0
 40
80.5
 50
154.482405
 51
205.517595
  0
ARC
  8
0
  6
BYLAYER
 62
     1
 10
132.563553
 20
-169.589279
 30
0.0
 40
2.000000
 50
105.000000
 51
154.482405
  0
ARC
  8
0
  6
BYLAYER
 62
     1
 10
203.406143
 20
-203.406143
 30
0.0
 40
80.5
 50
244.482414
 51
295.517604
  0
ARC
  8
0
  6
BYLAYER
 62
     1
 10
203.406143
 20
-203.406143
 30
0.0
 40
80.500000
 50
64.482402
 51
115.517593
  0
ARC
  8
0
  6
BYLAYER
 62
     1
 10
237.223038
 20
-132.563583
 30
0.0
 40
2.0
 50
14.999997
 51
64.482402
  0
ARC
  8
0
  6
BYLAYER
 62
     1
 10
203.406143
 20
-203.406143
 30
0.0
 40
80.5
 50
334.482396
 51
385.517587
  0
ARC
  8
0
  6
BYLAYER
 62
     1
 10
203.406143
 20
-203.406143
 30
0.0
 40
47.5
 50
22.499997
 51
374.817192
  0
ARC
  8
0
  6
BYLAYER
 62
     1
 10
203.406143
 20
-203.406143
 30
0.0
 40
47.500004
 50
14.817201
 51
22.499997
  0
ARC
  8
0
  6
BYLAYER
 62
     1
 10
275.468643
 20
-233.255508
 30
0.0
 40
16.000019
 50
106.944527
 51
208.056127
  0
ARC
  8
0
  6
BYLAYER
 62
     1
 10
233.255386
 20
-275.468887
 30
0.0
 40
16.000034
 50
61.944358
 51
163.055330
  0
ARC
  8
0
  6
BYLAYER
 62
     1
 10
173.556778
 20
-275.468887
 30
0.0
 40
16.000015
 50
16.944695
 51
118.055640
  0
ARC
  8
0
  6
BYLAYER
 62
     1
 10
131.343521
 20
-233.255508
 30
0.0
 40
15.999969
 50
331.943912
 51
433.055724
  0
ARC
  8
0
  6
BYLAYER
 62
     1
 10
173.556778
 20
-131.343643
 30
0.0
 40
15.999943
 50
241.944206
 51
343.056032
  0
ARC
  8
0
  6
BYLAYER
 62
     1
 10
233.255386
 20
-131.343643
 30
0.0
 40
16.000040
 50
196.943969
 51
298.055604
  0
ARC
  8
0
  6
BYLAYER
 62
     1
 10
131.343521
 20
-173.557022
 30
0.0
 40
16.000046
 50
286.944222
 51
388.056081
  0
ARC
  8
0
  6
BYLAYER
 62
     1
 10
259.583816
 20
-165.090835
 30
0.0
 40
1.999947
 50
331.944107
 51
394.294465
  0
ARC
  8
0
  6
BYLAYER
 62
     1
 10
270.222671
 20
-190.775375
 30
0.0
 40
1.999925
 50
10.705174
 51
73.056031
  0
ARC
  8
0
  6
BYLAYER
 62
     1
 10
203.406143
 20
-203.406143
 30
0.0
 40
69.999832
 50
34.295490
 51
55.704670
  0
ARC
  8
0
  6
BYLAYER
 62
     1
 10
203.406143
 20
-203.406143
 30
0.0
 40
69.999840
 50
349.295164
 51
370.704686
  0
ARC
  8
0
  6
BYLAYER
 62
     1
 10
275.468643
 20
-173.556869
 30
0.0
 40
16.000053
 50
230.812200
 51
253.055476
  0
ARC
  8
0
  6
BYLAYER
 62
     1
 10
275.468643
 20
-173.556869
 30
0.0
 40
16.000072
 50
151.943965
 51
174.188129
  0
ARC
  8
0
  6
BYLAYER
 62
     1
 10
275.468643
 20
-173.556869
 30
0.0
 40
16.000027
 50
174.188211
 51
230.812255
  0
LINE
  8
0
  6
BYLAYER
 62
     1
 10
274.766372
 20
-239.154861
 30
0.0
 11
264.944168
 21
-241.786697
 31
0.0
  0
ARC
  8
0
  6
BYLAYER
 62
     1
 10
274.248733
 20
-237.223007
 30
0.0
 40
2.0
 50
284.999998
 51
334.482403
  0
LINE
  8
0
  6
BYLAYER
 62
     1
 10
241.786697
 20
-264.944198
 30
0.0
 11
239.154861
 21
-274.766342
 31
0.0
  0
ARC
  8
0
  6
BYLAYER
 62
     1
 10
237.223038
 20
-274.248703
 30
0.0
 40
2.000000
 50
295.517608
 51
345.000013
  0
ARC
  8
0
  6
BYLAYER
 62
     1
 10
203.406143
 20
-203.406143
 30
0.0
 40
72.000000
 50
303.008420
 51
326.991564
  0
ARC
  8
0
  6
BYLAYER
 62
     1
 10
265.461807
 20
-243.718551
 30
0.0
 40
2.000000
 50
105.000000
 51
146.991572
  0
ARC
  8
0
  6
BYLAYER
 62
     1
 10
243.718582
 20
-265.461838
 30
0.0
 40
2.000000
 50
123.008428
 51
165.000001
  0
LINE
  8
0
  6
BYLAYER
 62
     1
 10
239.154861
 20
-132.045944
 30
0.0
 11
241.786697
 21
-141.868088
 31
0.0
  0
LINE
  8
0
  6
BYLAYER
 62
     1
 10
264.944168
 20
-165.025589
 30
0.0
 11
274.766372
 21
-167.657425
 31
0.0
  0
ARC
  8
0
  6
BYLAYER
 62
     1
 10
274.248733
 20
-169.589279
 30
0.0
 40
2.000000
 50
25.517594
 51
74.999999
  0
ARC
  8
0
  6
BYLAYER
 62
     1
 10
203.406143
 20
-203.406143
 30
0.0
 40
72.0
 50
33.008429
 51
56.991573
  0
ARC
  8
0
  6
BYLAYER
 62
     1
 10
243.718582
 20
-141.350448
 30
0.0
 40
2.0
 50
195.000009
 51
236.991582
  0
ARC
  8
0
  6
BYLAYER
 62
     1
 10
265.461807
 20
-163.093735
 30
0.0
 40
2.000000
 50
213.008424
 51
254.999997
  0
LINE
  8
0
  6
BYLAYER
 62
     1
 10
132.045914
 20
-167.657425
 30
0.0
 11
141.868057
 21
-165.025589
 31
0.0
  0
LINE
  8
0
  6
BYLAYER
 62
     1
 10
165.025589
 20
-141.868088
 30
0.0
 11
167.657425
 21
-132.045944
 31
0.0
  0
ARC
  8
0
  6
BYLAYER
 62
     1
 10
169.589248
 20
-132.563583
 30
0.0
 40
2.000000
 50
115.517589
 51
164.999994
  0
ARC
  8
0
  6
BYLAYER
 62
     1
 10
203.406143
 20
-203.406143
 30
0.0
 40
72.000000
 50
123.008428
 51
146.991572
  0
ARC
  8
0
  6
BYLAYER
 62
     1
 10
141.350418
 20
-163.093735
 30
0.0
 40
2.0
 50
284.999991
 51
326.991564
  0
ARC
  8
0
  6
BYLAYER
 62
     1
 10
163.093704
 20
-141.350448
 30
0.0
 40
2.0
 50
303.008420
 51
344.999993
  0
LINE
  8
0
  6
BYLAYER
 62
     1
 10
167.657425
 20
-274.766342
 30
0.0
 11
165.025589
 21
-264.944198
 31
0.0
  0
ARC
  8
0
  6
BYLAYER
 62
     1
 10
169.589248
 20
-274.248703
 30
0.0
 40
2.000000
 50
195.000002
 51
244.482407
  0
LINE
  8
0
  6
BYLAYER
 62
     1
 10
141.868057
 20
-241.786697
 30
0.0
 11
132.045914
 21
-239.154861
 31
0.0
  0
ARC
  8
0
  6
BYLAYER
 62
     1
 10
132.563553
 20
-237.223007
 30
0.0
 40
2.0
 50
205.517599
 51
255.000004
  0
ARC
  8
0
  6
BYLAYER
 62
     1
 10
203.406143
 20
-203.406143
 30
0.0
 40
72.0
 50
213.008424
 51
236.991568
  0
ARC
  8
0
  6
BYLAYER
 62
     1
 10
163.093704
 20
-265.461838
 30
0.0
 40
2.000000
 50
15.000000
 51
56.991573
  0
ARC
  8
0
  6
BYLAYER
 62
     1
 10
141.350418
 20
-243.718551
 30
0.0
 40
2.000000
 50
33.008429
 51
75.000002
  0
ARC
  8
0
  6
BYLAYER
 62
     1
 10
162.747452
 20
-162.747452
 30
0.0
 40
4.0
 50
270.0
 51
540.0
  0
CIRCLE
  8
0
  6
BYLAYER
 62
     1
 10
162.747452
 20
-162.747452
 30
0.0
 40
3.5
  0
ARC
  8
0
  6
BYLAYER
 62
     1
 10
203.406143
 20
-145.906143
 30
0.0
 40
4.0
 50
270.0
 51
540.0
  0
CIRCLE
  8
0
  6
BYLAYER
 62
     1
 10
203.406143
 20
-145.906143
 30
0.0
 40
3.5
  0
ARC
  8
0
  6
BYLAYER
 62
     1
 10
244.064712
 20
-162.747696
 30
0.0
 40
4.0
 50
270.0
 51
540.0
  0
CIRCLE
  8
0
  6
BYLAYER
 62
     1
 10
244.064712
 20
-162.747696
 30
0.0
 40
3.5
  0
ARC
  8
0
  6
BYLAYER
 62
     1
 10
260.906143
 20
-203.406143
 30
0.0
 40
4.0
 50
270.0
 51
540.0
  0
CIRCLE
  8
0
  6
BYLAYER
 62
     1
 10
260.906143
 20
-203.406143
 30
0.0
 40
3.5
  0
ARC
  8
0
  6
BYLAYER
 62
     1
 10
244.064712
 20
-244.064834
 30
0.0
 40
4.0
 50
270.0
 51
540.0
  0
CIRCLE
  8
0
  6
BYLAYER
 62
     1
 10
244.064712
 20
-244.064834
 30
0.0
 40
3.5
  0
ARC
  8
0
  6
BYLAYER
 62
     1
 10
203.406021
 20
-260.906143
 30
0.0
 40
4.0
 50
270.0
 51
540.0
  0
CIRCLE
  8
0
  6
BYLAYER
 62
     1
 10
203.406021
 20
-260.906143
 30
0.0
 40
3.5
  0
ARC
  8
0
  6
BYLAYER
 62
     1
 10
162.747452
 20
-244.064834
 30
0.0
 40
4.0
 50
270.0
 51
540.0
  0
CIRCLE
  8
0
  6
BYLAYER
 62
     1
 10
162.747452
 20
-244.064834
 30
0.0
 40
3.5
  0
ARC
  8
0
  6
BYLAYER
 62
     1
 10
145.906143
 20
-203.406143
 30
0.0
 40
4.0
 50
270.0
 51
540.0
  0
CIRCLE
  8
0
  6
BYLAYER
 62
     1
 10
145.906143
 20
-203.406143
 30
0.0
 40
3.5
  0
ARC
  8
0
  6
BYLAYER
 62
     1
 10
190.875015
 20
-114.866172
 30
0.0
 40
2.873727
 50
270.0
 51
308.795511
  0
ARC
  8
0
  6
BYLAYER
 62
     1
 10
190.596913
 20
-114.569992
 30
0.0
 40
3.278957
 50
309.340351
 51
360.000000
  0
ARC
  8
0
  6
BYLAYER
 62
     1
 10
190.596913
 20
-114.569992
 30
0.0
 40
3.278957
 50
0.0
 51
50.659649
  0
ARC
  8
0
  6
BYLAYER
 62
     1
 10
190.875015
 20
-114.273812
 30
0.0
 40
2.873727
 50
51.204489
 51
90.0
  0
ARC
  8
0
  6
BYLAYER
 62
     1
 10
190.875015
 20
-114.273786
 30
0.0
 40
2.873701
 50
90.0
 51
128.795693
  0
ARC
  8
0
  6
BYLAYER
 62
     1
 10
191.153143
 20
-114.569992
 30
0.0
 40
3.278967
 50
129.340576
 51
180.000000
  0
ARC
  8
0
  6
BYLAYER
 62
     1
 10
191.153143
 20
-114.569992
 30
0.0
 40
3.278967
 50
180.000000
 51
230.659424
  0
ARC
  8
0
  6
BYLAYER
 62
     1
 10
190.875015
 20
-114.866198
 30
0.0
 40
2.873701
 50
231.204307
 51
270.000000
  0
ARC
  8
0
  6
BYLAYER
 62
     1
 10
190.875015
 20
-113.726841
 30
0.0
 40
1.329747
 50
90.0
 51
140.793201
  0
ARC
  8
0
  6
BYLAYER
 62
     1
 10
191.908570
 20
-114.569992
 30
0.0
 40
2.663590
 50
140.793201
 51
180.0
  0
ARC
  8
0
  6
BYLAYER
 62
     1
 10
191.908554
 20
-114.569992
 30
0.0
 40
2.663574
 50
180.000000
 51
219.206869
  0
ARC
  8
0
  6
BYLAYER
 62
     1
 10
190.875015
 20
-115.413132
 30
0.0
 40
1.329750
 50
219.206869
 51
270.000000
  0
ARC
  8
0
  6
BYLAYER
 62
     1
 10
190.875015
 20
-115.413132
 30
0.0
 40
1.329750
 50
270.0
 51
320.793131
  0
ARC
  8
0
  6
BYLAYER
 62
     1
 10
189.841476
 20
-114.569992
 30
0.0
 40
2.663574
 50
320.793131
 51
360.0
  0
ARC
  8
0
  6
BYLAYER
 62
     1
 10
189.841460
 20
-114.569992
 30
0.0
 40
2.663590
 50
0.0
 51
39.206799
  0
ARC
  8
0
  6
BYLAYER
 62
     1
 10
190.875015
 20
-113.726841
 30
0.0
 40
1.329747
 50
39.206799
 51
90.0
  0
LINE
  8
0
  6
BYLAYER
 62
     1
 10
181.027176
 20
-117.528564
 30
0.0
 11
181.027176
 21
-111.526871
 31
0.0
  0
LINE
  8
0
  6
BYLAYER
 62
     1
 10
181.027176
 20
-111.526871
 30
0.0
 11
183.467300
 21
-111.526871
 31
0.0
  0
LINE
  8
0
  6
BYLAYER
 62
     1
 10
183.467300
 20
-111.526871
 30
0.0
 11
184.281616
 21
-114.654526
 31
0.0
  0
LINE
  8
0
  6
BYLAYER
 62
     1
 10
181.027176
 20
-117.528564
 30
0.0
 11
182.492386
 21
-117.528564
 31
0.0
  0
LINE
  8
0
  6
BYLAYER
 62
     1
 10
182.492386
 20
-117.528564
 30
0.0
 11
182.492386
 21
-114.062805
 31
0.0
  0
LINE
  8
0
  6
BYLAYER
 62
     1
 10
183.647629
 20
-117.528564
 30
0.0
 11
182.492386
 21
-114.062805
 31
0.0
  0
LINE
  8
0
  6
BYLAYER
 62
     1
 10
187.536056
 20
-117.528564
 30
0.0
 11
187.536056
 21
-111.526871
 31
0.0
  0
LINE
  8
0
  6
BYLAYER
 62
     1
 10
187.536056
 20
-111.526871
 30
0.0
 11
185.095932
 21
-111.526871
 31
0.0
  0
LINE
  8
0
  6
BYLAYER
 62
     1
 10
185.095932
 20
-111.526871
 30
0.0
 11
184.281616
 21
-114.654526
 31
0.0
  0
LINE
  8
0
  6
BYLAYER
 62
     1
 10
187.536056
 20
-117.528564
 30
0.0
 11
186.070846
 21
-117.528564
 31
0.0
  0
LINE
  8
0
  6
BYLAYER
 62
     1
 10
186.070846
 20
-117.528564
 30
0.0
 11
186.070846
 21
-114.062805
 31
0.0
  0
LINE
  8
0
  6
BYLAYER
 62
     1
 10
184.915603
 20
-117.528564
 30
0.0
 11
186.070846
 21
-114.062805
 31
0.0
  0
LINE
  8
0
  6
BYLAYER
 62
     1
 10
184.915603
 20
-117.528564
 30
0.0
 11
183.647629
 21
-117.528564
 31
0.0
  0
LINE
  8
0
  6
BYLAYER
 62
     1
 10
209.006897
 20
-117.528564
 30
0.0
 11
211.289215
 21
-111.526871
 31
0.0
  0
LINE
  8
0
  6
BYLAYER
 62
     1
 10
209.006897
 20
-117.528564
 30
0.0
 11
210.951111
 21
-117.528564
 31
0.0
  0
LINE
  8
0
  6
BYLAYER
 62
     1
 10
211.289215
 20
-111.526871
 30
0.0
 11
213.148895
 21
-111.526871
 31
0.0
  0
LINE
  8
0
  6
BYLAYER
 62
     1
 10
210.951111
 20
-117.528564
 30
0.0
 11
211.239288
 21
-116.683258
 31
0.0
  0
LINE
  8
0
  6
BYLAYER
 62
     1
 10
211.700348
 20
-115.330765
 30
0.0
 11
212.219055
 21
-113.809204
 31
0.0
  0
LINE
  8
0
  6
BYLAYER
 62
     1
 10
215.431244
 20
-117.528564
 30
0.0
 11
213.148895
 21
-111.526871
 31
0.0
  0
LINE
  8
0
  6
BYLAYER
 62
     1
 10
215.431244
 20
-117.528564
 30
0.0
 11
213.487030
 21
-117.528564
 31
0.0
  0
LINE
  8
0
  6
BYLAYER
 62
     1
 10
213.198852
 20
-116.683258
 30
0.0
 11
211.239288
 21
-116.683258
 31
0.0
  0
LINE
  8
0
  6
BYLAYER
 62
     1
 10
212.737762
 20
-115.330765
 30
0.0
 11
211.700348
 21
-115.330765
 31
0.0
  0
LINE
  8
0
  6
BYLAYER
 62
     1
 10
213.487030
 20
-117.528564
 30
0.0
 11
213.198852
 21
-116.683258
 31
0.0
  0
LINE
  8
0
  6
BYLAYER
 62
     1
 10
212.737762
 20
-115.330765
 30
0.0
 11
212.219055
 21
-113.809204
 31
0.0
  0
LINE
  8
0
  6
BYLAYER
 62
     1
 10
193.875870
 20
-113.006164
 30
0.0
 11
195.566482
 21
-113.006164
 31
0.0
  0
LINE
  8
0
  6
BYLAYER
 62
     1
 10
195.566482
 20
-113.006164
 30
0.0
 11
195.566482
 21
-117.528564
 31
0.0
  0
LINE
  8
0
  6
BYLAYER
 62
     1
 10
195.566482
 20
-117.528564
 30
0.0
 11
197.426178
 21
-117.528564
 31
0.0
  0
LINE
  8
0
  6
BYLAYER
 62
     1
 10
197.426178
 20
-117.528564
 30
0.0
 11
197.426178
 21
-113.006164
 31
0.0
  0
LINE
  8
0
  6
BYLAYER
 62
     1
 10
197.426178
 20
-113.006164
 30
0.0
 11
199.116791
 21
-113.006164
 31
0.0
  0
LINE
  8
0
  6
BYLAYER
 62
     1
 10
199.116791
 20
-113.006164
 30
0.0
 11
199.116791
 21
-111.526871
 31
0.0
  0
LINE
  8
0
  6
BYLAYER
 62
     1
 10
199.116791
 20
-111.526871
 30
0.0
 11
193.875870
 21
-111.526871
 31
0.0
  0
LINE
  8
0
  6
BYLAYER
 62
     1
 10
193.875870
 20
-111.526871
 30
0.0
 11
193.875870
 21
-113.006164
 31
0.0
  0
ARC
  8
0
  6
BYLAYER
 62
     1
 10
202.117630
 20
-114.866198
 30
0.0
 40
2.873701
 50
270.0
 51
308.795693
  0
ARC
  8
0
  6
BYLAYER
 62
     1
 10
201.839502
 20
-114.569992
 30
0.0
 40
3.278967
 50
309.340576
 51
360.000000
  0
ARC
  8
0
  6
BYLAYER
 62
     1
 10
201.839512
 20
-114.569992
 30
0.0
 40
3.278957
 50
0.0
 51
50.659649
  0
ARC
  8
0
  6
BYLAYER
 62
     1
 10
202.117615
 20
-114.273812
 30
0.0
 40
2.873727
 50
51.204489
 51
90.0
  0
ARC
  8
0
  6
BYLAYER
 62
     1
 10
202.117615
 20
-114.273786
 30
0.0
 40
2.873701
 50
90.0
 51
128.795693
  0
ARC
  8
0
  6
BYLAYER
 62
     1
 10
202.395743
 20
-114.569992
 30
0.0
 40
3.278967
 50
129.340576
 51
180.0
  0
ARC
  8
0
  6
BYLAYER
 62
     1
 10
202.395732
 20
-114.569992
 30
0.0
 40
3.278957
 50
180.000000
 51
230.659649
  0
ARC
  8
0
  6
BYLAYER
 62
     1
 10
202.117630
 20
-114.866172
 30
0.0
 40
2.873727
 50
231.204489
 51
270.000000
  0
ARC
  8
0
  6
BYLAYER
 62
     1
 10
202.117615
 20
-113.726841
 30
0.0
 40
1.329747
 50
90.0
 51
140.793201
  0
ARC
  8
0
  6
BYLAYER
 62
     1
 10
203.151169
 20
-114.569992
 30
0.0
 40
2.663590
 50
140.793201
 51
180.0
  0
ARC
  8
0
  6
BYLAYER
 62
     1
 10
203.151135
 20
-114.569992
 30
0.0
 40
2.663556
 50
180.000000
 51
219.207055
  0
ARC
  8
0
  6
BYLAYER
 62
     1
 10
202.117630
 20
-115.413110
 30
0.0
 40
1.329771
 50
219.207055
 51
270.000000
  0
ARC
  8
0
  6
BYLAYER
 62
     1
 10
202.117630
 20
-115.413132
 30
0.0
 40
1.329750
 50
270.0
 51
320.793131
  0
ARC
  8
0
  6
BYLAYER
 62
     1
 10
201.084091
 20
-114.569992
 30
0.0
 40
2.663574
 50
320.793131
 51
360.000000
  0
ARC
  8
0
  6
BYLAYER
 62
     1
 10
201.084093
 20
-114.569992
 30
0.0
 40
2.663572
 50
0.0
 51
39.206985
  0
ARC
  8
0
  6
BYLAYER
 62
     1
 10
202.117615
 20
-113.726862
 30
0.0
 40
1.329768
 50
39.206985
 51
90.0
  0
LINE
  8
0
  6
BYLAYER
 62
     1
 10
215.593231
 20
-117.528564
 30
0.0
 11
215.593231
 21
-111.526871
 31
0.0
  0
LINE
  8
0
  6
BYLAYER
 62
     1
 10
215.593231
 20
-111.526871
 30
0.0
 11
219.312576
 21
-111.526871
 31
0.0
  0
ARC
  8
0
  6
BYLAYER
 62
     1
 10
219.312576
 20
-113.217499
 30
0.0
 40
1.690610
 50
287.134650
 51
450.000006
  0
ARC
  8
0
  6
BYLAYER
 62
     1
 10
219.650711
 20
-116.176071
 30
0.0
 40
1.352493
 50
0.0
 51
83.207557
  0
LINE
  8
0
  6
BYLAYER
 62
     1
 10
221.003204
 20
-116.176071
 30
0.0
 11
221.003204
 21
-117.021377
 31
0.0
  0
ARC
  8
0
  6
BYLAYER
 62
     1
 10
222.355697
 20
-117.021377
 30
0.0
 40
1.352493
 50
180.000000
 51
202.024314
  0
LINE
  8
0
  6
BYLAYER
 62
     1
 10
219.242218
 20
-117.528564
 30
0.0
 11
221.101898
 21
-117.528564
 31
0.0
  0
ARC
  8
0
  6
BYLAYER
 62
     1
 10
220.496017
 20
-117.021377
 30
0.0
 40
1.352493
 50
180.000000
 51
202.024314
  0
LINE
  8
0
  6
BYLAYER
 62
     1
 10
219.143524
 20
-117.021377
 30
0.0
 11
219.143524
 21
-116.345138
 31
0.0
  0
LINE
  8
0
  6
BYLAYER
 62
     1
 10
215.593231
 20
-117.528564
 30
0.0
 11
217.368377
 21
-117.528564
 31
0.0
  0
LINE
  8
0
  6
BYLAYER
 62
     1
 10
217.368377
 20
-117.528564
 30
0.0
 11
217.368377
 21
-115.499832
 31
0.0
  0
LINE
  8
0
  6
BYLAYER
 62
     1
 10
218.298218
 20
-115.499832
 30
0.0
 11
217.368377
 21
-115.499832
 31
0.0
  0
ARC
  8
0
  6
BYLAYER
 62
     1
 10
218.298218
 20
-116.345138
 30
0.0
 40
0.845306
 50
0.0
 51
90.000003
  0
LINE
  8
0
  6
BYLAYER
 62
     1
 10
217.368377
 20
-114.147339
 30
0.0
 11
217.368377
 21
-112.879364
 31
0.0
  0
LINE
  8
0
  6
BYLAYER
 62
     1
 10
217.368377
 20
-112.879364
 30
0.0
 11
218.551803
 21
-112.879364
 31
0.0
  0
LINE
  8
0
  6
BYLAYER
 62
     1
 10
217.368377
 20
-114.147339
 30
0.0
 11
218.551803
 21
-114.147339
 31
0.0
  0
ARC
  8
0
  6
BYLAYER
 62
     1
 10
218.551803
 20
-113.513351
 30
0.0
 40
0.633987
 50
270.0
 51
450.000005
  0
LINE
  8
0
  6
BYLAYER
 62
     1
 10
207.527618
 20
-115.630768
 30
0.0
 11
206.428711
 21
-111.526871
 31
0.0
  0
LINE
  8
0
  6
BYLAYER
 62
     1
 10
206.428711
 20
-111.526871
 30
0.0
 11
204.653564
 21
-111.526871
 31
0.0
  0
LINE
  8
0
  6
BYLAYER
 62
     1
 10
204.653564
 20
-111.526871
 30
0.0
 11
206.513244
 21
-117.528564
 31
0.0
  0
LINE
  8
0
  6
BYLAYER
 62
     1
 10
207.527618
 20
-115.630768
 30
0.0
 11
208.626495
 21
-111.526871
 31
0.0
  0
LINE
  8
0
  6
BYLAYER
 62
     1
 10
208.626495
 20
-111.526871
 30
0.0
 11
210.401642
 21
-111.526871
 31
0.0
  0
LINE
  8
0
  6
BYLAYER
 62
     1
 10
210.401642
 20
-111.526871
 30
0.0
 11
208.541961
 21
-117.528564
 31
0.0
  0
LINE
  8
0
  6
BYLAYER
 62
     1
 10
208.541961
 20
-117.528564
 30
0.0
 11
206.513244
 21
-117.528564
 31
0.0
  0
LINE
  8
0
  6
BYLAYER
 62
     1
 10
221.263885
 20
-117.528564
 30
0.0
 11
223.039032
 21
-117.528564
 31
0.0
  0
LINE
  8
0
  6
BYLAYER
 62
     1
 10
223.039032
 20
-117.528564
 30
0.0
 11
223.039032
 21
-111.526871
 31
0.0
  0
LINE
  8
0
  6
BYLAYER
 62
     1
 10
223.039032
 20
-111.526871
 30
0.0
 11
221.263885
 21
-111.526871
 31
0.0
  0
LINE
  8
0
  6
BYLAYER
 62
     1
 10
221.263885
 20
-111.526871
 30
0.0
 11
221.263885
 21
-117.528564
 31
0.0
  0
ARC
  8
0
  6
BYLAYER
 62
     1
 10
226.378006
 20
-114.866198
 30
0.0
 40
2.873701
 50
270.0
 51
308.795693
  0
ARC
  8
0
  6
BYLAYER
 62
     1
 10
226.099878
 20
-114.569992
 30
0.0
 40
3.278967
 50
309.340576
 51
360.000000
  0
ARC
  8
0
  6
BYLAYER
 62
     1
 10
226.099878
 20
-114.569992
 30
0.0
 40
3.278967
 50
0.0
 51
50.659424
  0
ARC
  8
0
  6
BYLAYER
 62
     1
 10
226.378006
 20
-114.273786
 30
0.0
 40
2.873701
 50
51.204307
 51
90.000000
  0
ARC
  8
0
  6
BYLAYER
 62
     1
 10
226.378006
 20
-114.273786
 30
0.0
 40
2.873701
 50
90.0
 51
128.795693
  0
ARC
  8
0
  6
BYLAYER
 62
     1
 10
226.656134
 20
-114.569992
 30
0.0
 40
3.278967
 50
129.340576
 51
180.000000
  0
ARC
  8
0
  6
BYLAYER
 62
     1
 10
226.656134
 20
-114.569992
 30
0.0
 40
3.278967
 50
180.000000
 51
230.659424
  0
ARC
  8
0
  6
BYLAYER
 62
     1
 10
226.378006
 20
-114.866198
 30
0.0
 40
2.873701
 50
231.204307
 51
270.0
  0
ARC
  8
0
  6
BYLAYER
 62
     1
 10
226.378006
 20
-113.726841
 30
0.0
 40
1.329747
 50
39.206799
 51
90.0
  0
ARC
  8
0
  6
BYLAYER
 62
     1
 10
225.344451
 20
-114.569992
 30
0.0
 40
2.663590
 50
0.0
 51
39.206799
  0
ARC
  8
0
  6
BYLAYER
 62
     1
 10
225.344467
 20
-114.569992
 30
0.0
 40
2.663574
 50
320.793131
 51
360.000000
  0
ARC
  8
0
  6
BYLAYER
 62
     1
 10
226.378006
 20
-115.413132
 30
0.0
 40
1.329750
 50
270.0
 51
320.793131
  0
ARC
  8
0
  6
BYLAYER
 62
     1
 10
226.378006
 20
-115.413132
 30
0.0
 40
1.329750
 50
219.206869
 51
270.000000
  0
ARC
  8
0
  6
BYLAYER
 62
     1
 10
227.411544
 20
-114.569992
 30
0.0
 40
2.663574
 50
180.000000
 51
219.206869
  0
ARC
  8
0
  6
BYLAYER
 62
     1
 10
227.411560
 20
-114.569992
 30
0.0
 40
2.663590
 50
140.793201
 51
180.0
  0
ARC
  8
0
  6
BYLAYER
 62
     1
 10
226.378006
 20
-113.726841
 30
0.0
 40
1.329747
 50
90.0
 51
140.793201
  0
ARC
  8
0
  6
BYLAYER
 62
     1
 10
196.406143
 20
-104.656143
 30
0.0
 40
7.429995
 50
174.535650
 51
180.0
  0
LINE
  8
0
  6
BYLAYER
 62
     1
 10
189.009910
 20
-103.948608
 30
0.0
 11
189.009910
 21
-103.948601
 31
0.0
  0
LINE
  8
0
  6
BYLAYER
 62
     1
 10
189.017995
 20
-103.868678
 30
0.0
 11
189.727098
 21
-103.570135
 31
0.0
  0
ARC
  8
0
  6
BYLAYER
 62
     1
 10
196.406174
 20
-104.656204
 30
0.0
 40
6.766781
 50
159.235383
 51
170.763998
  0
LINE
  8
0
  6
BYLAYER
 62
     1
 10
190.078899
 20
-102.257139
 30
0.0
 11
189.614100
 21
-101.644025
 31
0.0
  0
ARC
  8
0
  6
BYLAYER
 62
     1
 10
196.406143
 20
-104.656143
 30
0.0
 40
7.429986
 50
144.139514
 51
156.083795
  0
LINE
  8
0
  6
BYLAYER
 62
     1
 10
190.335678
 20
-100.371948
 30
0.0
 11
190.336120
 21
-100.371322
 31
0.0
  0
LINE
  8
0
  6
BYLAYER
 62
     1
 10
190.384541
 20
-100.303556
 30
0.0
 11
191.139466
 21
-100.407420
 31
0.0
  0
ARC
  8
0
  6
BYLAYER
 62
     1
 10
196.406143
 20
-104.656143
 30
0.0
 40
6.766741
 50
129.235643
 51
141.105976
  0
LINE
  8
0
  6
BYLAYER
 62
     1
 10
192.015457
 20
-99.507286
 30
0.0
 11
192.016189
 21
-99.506653
 31
0.0
  0
LINE
  8
0
  6
BYLAYER
 62
     1
 10
192.126103
 20
-99.414956
 30
0.0
 11
192.030110
 21
-98.651549
 31
0.0
  0
ARC
  8
0
  6
BYLAYER
 62
     1
 10
196.406143
 20
-104.656143
 30
0.0
 40
7.429994
 50
114.139607
 51
126.083853
  0
LINE
  8
0
  6
BYLAYER
 62
     1
 10
193.291595
 20
-97.910446
 30
0.0
 11
193.292099
 21
-97.910209
 31
0.0
  0
LINE
  8
0
  6
BYLAYER
 62
     1
 10
193.367562
 20
-97.875889
 30
0.0
 11
193.969392
 21
-98.343284
 31
0.0
  0
LINE
  8
0
  6
BYLAYER
 62
     1
 10
194.106994
 20
-98.291961
 30
0.0
 11
194.107757
 21
-98.291694
 31
0.0
  0
ARC
  8
0
  6
BYLAYER
 62
     1
 10
196.406143
 20
-104.656143
 30
0.0
 40
6.766738
 50
99.235601
 51
111.106038
  0
ARC
  8
0
  6
BYLAYER
 62
     1
 10
196.406143
 20
-104.656143
 30
0.0
 40
7.429995
 50
90.0
 51
96.083892
  0
LINE
  8
0
  6
BYLAYER
 62
     1
 10
195.618678
 20
-97.267995
 30
0.0
 11
195.320119
 21
-97.977124
 31
0.0
  0
LINE
  8
0
  6
BYLAYER
 62
     1
 10
203.802368
 20
-103.948608
 30
0.0
 11
203.802368
 21
-103.948601
 31
0.0
  0
LINE
  8
0
  6
BYLAYER
 62
     1
 10
203.794290
 20
-103.868677
 30
0.0
 11
203.085152
 21
-103.570128
 31
0.0
  0
ARC
  8
0
  6
BYLAYER
 62
     1
 10
196.406097
 20
-104.656204
 30
0.0
 40
6.766781
 50
9.235986
 51
20.764650
  0
LINE
  8
0
  6
BYLAYER
 62
     1
 10
202.733421
 20
-102.257068
 30
0.0
 11
203.198187
 21
-101.644027
 31
0.0
  0
ARC
  8
0
  6
BYLAYER
 62
     1
 10
196.406143
 20
-104.656143
 30
0.0
 40
7.429986
 50
23.916189
 51
35.860484
  0
LINE
  8
0
  6
BYLAYER
 62
     1
 10
202.476593
 20
-100.371948
 30
0.0
 11
202.476150
 21
-100.371322
 31
0.0
  0
LINE
  8
0
  6
BYLAYER
 62
     1
 10
202.427745
 20
-100.303556
 30
0.0
 11
201.672873
 21
-100.407410
 31
0.0
  0
ARC
  8
0
  6
BYLAYER
 62
     1
 10
196.406143
 20
-104.656143
 30
0.0
 40
6.766741
 50
38.894050
 51
50.764315
  0
LINE
  8
0
  6
BYLAYER
 62
     1
 10
200.796829
 20
-99.507286
 30
0.0
 11
200.796097
 21
-99.506653
 31
0.0
  0
LINE
  8
0
  6
BYLAYER
 62
     1
 10
200.686202
 20
-99.414834
 30
0.0
 11
200.782160
 21
-98.651538
 31
0.0
  0
ARC
  8
0
  6
BYLAYER
 62
     1
 10
196.406143
 20
-104.656143
 30
0.0
 40
7.429994
 50
53.916300
 51
65.860381
  0
LINE
  8
0
  6
BYLAYER
 62
     1
 10
199.520691
 20
-97.910446
 30
0.0
 11
199.520172
 21
-97.910209
 31
0.0
  0
LINE
  8
0
  6
BYLAYER
 62
     1
 10
199.444725
 20
-97.875890
 30
0.0
 11
198.842902
 21
-98.343263
 31
0.0
  0
LINE
  8
0
  6
BYLAYER
 62
     1
 10
198.705276
 20
-98.291961
 30
0.0
 11
198.704529
 21
-98.291694
 31
0.0
  0
ARC
  8
0
  6
BYLAYER
 62
     1
 10
196.406143
 20
-104.656143
 30
0.0
 40
6.766738
 50
68.894081
 51
80.764578
  0
ARC
  8
0
  6
BYLAYER
 62
     1
 10
196.406143
 20
-104.656143
 30
0.0
 40
7.429995
 50
84.535428
 51
90.000003
  0
LINE
  8
0
  6
BYLAYER
 62
     1
 10
197.193610
 20
-97.267996
 30
0.0
 11
197.492097
 21
-97.977003
 31
0.0
  0
ARC
  8
0
  6
BYLAYER
 62
     1
 10
196.406143
 20
-104.656143
 30
0.0
 40
7.429995
 50
180.000000
 51
186.083899
  0
LINE
  8
0
  6
BYLAYER
 62
     1
 10
189.009910
 20
-105.363670
 30
0.0
 11
189.009910
 21
-105.363685
 31
0.0
  0
LINE
  8
0
  6
BYLAYER
 62
     1
 10
189.017995
 20
-105.443608
 30
0.0
 11
189.727119
 21
-105.742160
 31
0.0
  0
ARC
  8
0
  6
BYLAYER
 62
     1
 10
196.406174
 20
-104.656082
 30
0.0
 40
6.766781
 50
189.236002
 51
200.764629
  0
LINE
  8
0
  6
BYLAYER
 62
     1
 10
190.078923
 20
-107.055117
 30
0.0
 11
189.614098
 21
-107.668255
 31
0.0
  0
ARC
  8
0
  6
BYLAYER
 62
     1
 10
196.406143
 20
-104.656143
 30
0.0
 40
7.429986
 50
203.916158
 51
215.860410
  0
LINE
  8
0
  6
BYLAYER
 62
     1
 10
190.335678
 20
-108.940330
 30
0.0
 11
190.336120
 21
-108.940956
 31
0.0
  0
LINE
  8
0
  6
BYLAYER
 62
     1
 10
190.384536
 20
-109.008722
 30
0.0
 11
191.139532
 21
-108.904859
 31
0.0
  0
ARC
  8
0
  6
BYLAYER
 62
     1
 10
196.406143
 20
-104.656143
 30
0.0
 40
6.766741
 50
218.894045
 51
230.764345
  0
LINE
  8
0
  6
BYLAYER
 62
     1
 10
192.015457
 20
-109.804992
 30
0.0
 11
192.016189
 21
-109.805626
 31
0.0
  0
LINE
  8
0
  6
BYLAYER
 62
     1
 10
192.126102
 20
-109.897329
 30
0.0
 11
192.030110
 21
-110.660737
 31
0.0
  0
ARC
  8
0
  6
BYLAYER
 62
     1
 10
196.406143
 20
-104.656143
 30
0.0
 40
7.429994
 50
233.916148
 51
245.860401
  0
LINE
  8
0
  6
BYLAYER
 62
     1
 10
193.291595
 20
-111.401832
 30
0.0
 11
193.292099
 21
-111.402077
 31
0.0
  0
LINE
  8
0
  6
BYLAYER
 62
     1
 10
193.367563
 20
-111.436397
 30
0.0
 11
193.969463
 21
-110.968937
 31
0.0
  0
LINE
  8
0
  6
BYLAYER
 62
     1
 10
194.106994
 20
-111.020317
 30
0.0
 11
194.107757
 21
-111.020592
 31
0.0
  0
LINE
  8
0
  6
BYLAYER
 62
     1
 10
203.802368
 20
-105.363670
 30
0.0
 11
203.802368
 21
-105.363685
 31
0.0
  0
LINE
  8
0
  6
BYLAYER
 62
     1
 10
203.794289
 20
-105.443610
 30
0.0
 11
203.085152
 21
-105.742158
 31
0.0
  0
LINE
  8
0
  6
BYLAYER
 62
     1
 10
202.733356
 20
-107.055134
 30
0.0
 11
203.198194
 21
-107.668260
 31
0.0
  0
LINE
  8
0
  6
BYLAYER
 62
     1
 10
202.476593
 20
-108.940330
 30
0.0
 11
202.476150
 21
-108.940956
 31
0.0
  0
LINE
  8
0
  6
BYLAYER
 62
     1
 10
202.427759
 20
-109.008723
 30
0.0
 11
201.672714
 21
-108.904856
 31
0.0
  0
LINE
  8
0
  6
BYLAYER
 62
     1
 10
200.796829
 20
-109.804992
 30
0.0
 11
200.796097
 21
-109.805626
 31
0.0
  0
LINE
  8
0
  6
BYLAYER
 62
     1
 10
200.686188
 20
-109.897326
 30
0.0
 11
200.782160
 21
-110.660748
 31
0.0
  0
LINE
  8
0
  6
BYLAYER
 62
     1
 10
199.444724
 20
-111.436396
 30
0.0
 11
198.842810
 21
-110.968942
 31
0.0
  0
ARC
  8
0
  6
BYLAYER
 62
     1
 10
196.406143
 20
-104.656143
 30
0.0
 40
6.766741
 50
309.235697
 51
321.105929
  0
ARC
  8
0
  6
BYLAYER
 62
     1
 10
196.406143
 20
-104.656143
 30
0.0
 40
6.766738
 50
248.893873
 51
270.000000
  0
ARC
  8
0
  6
BYLAYER
 62
     1
 10
196.406143
 20
-104.656143
 30
0.0
 40
7.429994
 50
294.783232
 51
306.083699
  0
LINE
  8
0
  6
BYLAYER
 62
     1
 10
199.520172
 20
-111.402077
 30
0.0
 11
199.445182
 21
-111.437366
 31
0.0
  0
ARC
  8
0
  6
BYLAYER
 62
     1
 10
196.406143
 20
-104.656143
 30
0.0
 40
7.429986
 50
324.139593
 51
336.083825
  0
ARC
  8
0
  6
BYLAYER
 62
     1
 10
196.406097
 20
-104.656082
 30
0.0
 40
6.766781
 50
339.235210
 51
350.764014
  0
ARC
  8
0
  6
BYLAYER
 62
     1
 10
196.406143
 20
-104.656143
 30
0.0
 40
7.429995
 50
353.916089
 51
360.000000
  0
ARC
  8
0
  6
BYLAYER
 62
     1
 10
196.406143
 20
-104.656143
 30
0.0
 40
7.429995
 50
0.0
 51
6.083907
  0
ARC
  8
0
  6
BYLAYER
 62
     1
 10
196.406143
 20
-104.656143
 30
0.0
 40
6.766738
 50
270.0
 51
291.106008
  0
CIRCLE
  8
0
  6
BYLAYER
 62
     1
 10
196.406143
 20
-104.656143
 30
0.0
 40
3.630081
  0
CIRCLE
  8
0
  6
BYLAYER
 62
     1
 10
196.406143
 20
-104.656143
 30
0.0
 40
5.296032
  0
LINE
  8
0
  6
BYLAYER
 62
     1
 10
203.406143
 20
-203.406143
 30
0.0
 11
203.406143
 21
-198.406143
 31
0.0
  0
LINE
  8
0
  6
BYLAYER
 62
     1
 10
203.406143
 20
-203.406143
 30
0.0
 11
198.406143
 21
-203.406143
 31
0.0
  0
LINE
  8
0
  6
BYLAYER
 62
     1
 10
203.406143
 20
-203.406143
 30
0.0
 11
203.406143
 21
-208.406143
 31
0.0
  0
LINE
  8
0
  6
BYLAYER
 62
     1
 10
203.406143
 20
-203.406143
 30
0.0
 11
208.406143
 21
-203.406143
 31
0.0
  0
LINE
  8
0
  6
BYLAYER
 62
     1
 10
827.406143
 20
-484.406143
 30
0.0
 11
847.406143
 21
-484.406143
 31
0.0
  0
LINE
  8
0
  6
BYLAYER
 62
     1
 10
823.406143
 20
-603.406143
 30
0.0
 11
823.406143
 21
-556.406143
 31
0.0
  0
LINE
  8
0
  6
BYLAYER
 62
     1
 10
823.406143
 20
-556.406143
 30
0.0
 11
823.906143
 21
-555.906143
 31
0.0
  0
LINE
  8
0
  6
BYLAYER
 62
     1
 10
823.406143
 20
-603.406143
 30
0.0
 11
823.406143
 21
-650.406143
 31
0.0
  0
LINE
  8
0
  6
BYLAYER
 62
     1
 10
823.406143
 20
-650.406143
 30
0.0
 11
823.906143
 21
-650.906143
 31
0.0
  0
LINE
  8
0
  6
BYLAYER
 62
     1
 10
827.406143
 20
-689.406143
 30
0.0
 11
847.406143
 21
-689.406143
 31
0.0
  0
LINE
  8
0
  6
BYLAYER
 62
     1
 10
827.406143
 20
-644.406143
 30
0.0
 11
827.406143
 21
-689.406143
 31
0.0
  0
LINE
  8
0
  6
BYLAYER
 62
     1
 10
847.406143
 20
-644.406143
 30
0.0
 11
827.406143
 21
-644.406143
 31
0.0
  0
LINE
  8
0
  6
BYLAYER
 62
     1
 10
828.906143
 20
-642.906143
 30
0.0
 11
827.406143
 21
-644.406143
 31
0.0
  0
CIRCLE
  8
0
  6
BYLAYER
 62
     1
 10
883.406143
 20
-528.406143
 30
0.0
 40
31.000000
  0
LINE
  8
0
  6
BYLAYER
 62
     1
 10
939.406204
 20
-484.406143
 30
0.0
 11
919.406204
 21
-484.406143
 31
0.0
  0
LINE
  8
0
  6
BYLAYER
 62
     1
 10
939.406204
 20
-689.406143
 30
0.0
 11
919.406204
 21
-689.406143
 31
0.0
  0
LINE
  8
0
  6
BYLAYER
 62
     1
 10
919.406204
 20
-644.406143
 30
0.0
 11
939.406204
 21
-644.406143
 31
0.0
  0
LINE
  8
0
  6
BYLAYER
 62
     1
 10
937.906204
 20
-642.906143
 30
0.0
 11
939.406204
 21
-644.406143
 31
0.0
  0
LINE
  8
0
  6
BYLAYER
 62
     1
 10
939.406204
 20
-644.406143
 30
0.0
 11
939.406204
 21
-689.406143
 31
0.0
  0
LINE
  8
0
  6
BYLAYER
 62
     1
 10
826.406143
 20
-555.906143
 30
0.0
 11
823.906143
 21
-555.906143
 31
0.0
  0
LINE
  8
0
  6
BYLAYER
 62
     1
 10
826.406143
 20
-650.906143
 30
0.0
 11
823.906143
 21
-650.906143
 31
0.0
  0
LINE
  8
0
  6
BYLAYER
 62
     1
 10
846.406143
 20
-484.406143
 30
0.0
 11
847.406143
 21
-484.406143
 31
0.0
  0
CIRCLE
  8
0
  6
BYLAYER
 62
     1
 10
928.356094
 20
-510.406387
 30
0.0
 40
5.75
  0
CIRCLE
  8
0
  6
BYLAYER
 62
     1
 10
838.456192
 20
-510.406387
 30
0.0
 40
5.75
  0
LINE
  8
0
  6
BYLAYER
 62
     1
 10
937.906204
 20
-530.906265
 30
0.0
 11
939.406204
 21
-529.406265
 31
0.0
  0
LINE
  8
0
  6
BYLAYER
 62
     1
 10
939.406204
 20
-529.406265
 30
0.0
 11
939.406204
 21
-484.406143
 31
0.0
  0
LINE
  8
0
  6
BYLAYER
 62
     1
 10
828.906143
 20
-530.906265
 30
0.0
 11
827.406143
 21
-529.406265
 31
0.0
  0
LINE
  8
0
  6
BYLAYER
 62
     1
 10
827.406143
 20
-529.406265
 30
0.0
 11
827.406143
 21
-484.406143
 31
0.0
  0
LINE
  8
0
  6
BYLAYER
 62
     1
 10
845.959488
 20
-529.406265
 30
0.0
 11
827.406143
 21
-529.406265
 31
0.0
  0
ARC
  8
0
  6
BYLAYER
 62
     1
 10
845.959488
 20
-530.406265
 30
0.0
 40
1.000000
 50
3.057907
 51
90.000000
  0
LINE
  8
0
  6
BYLAYER
 62
     1
 10
919.406204
 20
-484.406143
 30
0.0
 11
919.406204
 21
-514.943344
 31
0.0
  0
ARC
  8
0
  6
BYLAYER
 62
     1
 10
918.406204
 20
-514.943344
 30
0.0
 40
1.000014
 50
201.039023
 51
359.999996
  0
LINE
  8
0
  6
BYLAYER
 62
     1
 10
847.406143
 20
-514.943222
 30
0.0
 11
847.406143
 21
-484.406143
 31
0.0
  0
ARC
  8
0
  6
BYLAYER
 62
     1
 10
848.406143
 20
-514.943222
 30
0.0
 40
1.000014
 50
180.000000
 51
338.960973
  0
LINE
  8
0
  6
BYLAYER
 62
     1
 10
920.852798
 20
-529.406265
 30
0.0
 11
939.406204
 21
-529.406265
 31
0.0
  0
ARC
  8
0
  6
BYLAYER
 62
     1
 10
920.852798
 20
-530.406265
 30
0.0
 40
1.000020
 50
90.0
 51
176.942086
  0
LINE
  8
0
  6
BYLAYER
 62
     1
 10
919.406204
 20
-484.406143
 30
0.0
 11
919.406204
 21
-514.943344
 31
0.0
  0
LINE
  8
0
  6
BYLAYER
 62
     1
 10
847.406143
 20
-689.406143
 30
0.0
 11
847.406143
 21
-534.426956
 31
0.0
  0
CIRCLE
  8
0
  6
BYLAYER
 62
     1
 10
910.629776
 20
-501.182632
 30
0.0
 40
4.0
  0
CIRCLE
  8
0
  6
BYLAYER
 62
     1
 10
856.182632
 20
-501.182480
 30
0.0
 40
4.0
  0
CIRCLE
  8
0
  6
BYLAYER
 62
     1
 10
856.182510
 20
-555.629654
 30
0.0
 40
4.0
  0
CIRCLE
  8
0
  6
BYLAYER
 62
     1
 10
910.629654
 20
-555.629806
 30
0.0
 40
4.0
  0
ARC
  8
0
  6
BYLAYER
 62
     1
 10
883.406143
 20
-528.406143
 30
0.0
 40
36.500004
 50
148.424355
 51
158.960509
  0
ARC
  8
0
  6
BYLAYER
 62
     1
 10
850.606064
 20
-508.246628
 30
0.0
 40
2.000013
 50
328.424810
 51
411.711570
  0
ARC
  8
0
  6
BYLAYER
 62
     1
 10
856.182632
 20
-501.182480
 30
0.0
 40
6.999995
 50
38.287800
 51
231.711845
  0
ARC
  8
0
  6
BYLAYER
 62
     1
 10
863.246811
 20
-495.605972
 30
0.0
 40
2.000008
 50
218.287737
 51
301.575200
  0
ARC
  8
0
  6
BYLAYER
 62
     1
 10
883.406143
 20
-528.406143
 30
0.0
 40
36.499985
 50
58.424666
 51
121.575332
  0
ARC
  8
0
  6
BYLAYER
 62
     1
 10
903.565475
 20
-495.605972
 30
0.0
 40
2.000013
 50
238.424801
 51
321.712264
  0
ARC
  8
0
  6
BYLAYER
 62
     1
 10
910.629654
 20
-501.182480
 30
0.0
 40
6.999995
 50
308.288160
 51
501.712205
  0
ARC
  8
0
  6
BYLAYER
 62
     1
 10
883.406143
 20
-528.406143
 30
0.0
 40
36.500004
 50
21.039496
 51
31.575650
  0
ARC
  8
0
  6
BYLAYER
 62
     1
 10
916.206192
 20
-508.246628
 30
0.0
 40
2.000008
 50
128.287741
 51
211.575655
  0
ARC
  8
0
  6
BYLAYER
 62
     1
 10
863.246811
 20
-561.206314
 30
0.0
 40
2.000008
 50
58.424803
 51
141.712259
  0
ARC
  8
0
  6
BYLAYER
 62
     1
 10
856.182632
 20
-555.629806
 30
0.0
 40
6.999995
 50
128.288151
 51
321.712210
  0
ARC
  8
0
  6
BYLAYER
 62
     1
 10
883.406143
 20
-528.406143
 30
0.0
 40
36.500004
 50
183.057403
 51
211.575655
  0
ARC
  8
0
  6
BYLAYER
 62
     1
 10
850.606094
 20
-548.565658
 30
0.0
 40
2.000008
 50
308.287746
 51
391.575660
  0
ARC
  8
0
  6
BYLAYER
 62
     1
 10
883.406143
 20
-528.406143
 30
0.0
 40
36.500004
 50
328.424346
 51
356.942599
  0
ARC
  8
0
  6
BYLAYER
 62
     1
 10
916.206192
 20
-548.565658
 30
0.0
 40
2.000008
 50
148.424341
 51
231.712255
  0
ARC
  8
0
  6
BYLAYER
 62
     1
 10
883.406143
 20
-528.406143
 30
0.0
 40
36.499985
 50
238.424665
 51
301.575337
  0
ARC
  8
0
  6
BYLAYER
 62
     1
 10
910.629654
 20
-555.629806
 30
0.0
 40
6.999995
 50
218.287805
 51
411.711850
  0
ARC
  8
0
  6
BYLAYER
 62
     1
 10
903.565475
 20
-561.206314
 30
0.0
 40
2.000013
 50
38.287746
 51
121.575195
  0
LINE
  8
0
  6
BYLAYER
 62
     1
 10
847.406143
 20
-485.906143
 30
0.0
 11
919.406204
 21
-485.906143
 31
0.0
  0
CIRCLE
  8
0
  6
BYLAYER
 62
     1
 10
838.456192
 20
-663.405899
 30
0.0
 40
5.75
  0
CIRCLE
  8
0
  6
BYLAYER
 62
     1
 10
928.356094
 20
-663.405899
 30
0.0
 40
5.75
  0
LINE
  8
0
  6
BYLAYER
 62
     1
 10
828.906143
 20
-530.906265
 30
0.0
 11
828.906143
 21
-642.906143
 31
0.0
  0
LINE
  8
0
  6
BYLAYER
 62
     1
 10
937.906204
 20
-530.906265
 30
0.0
 11
937.906204
 21
-642.906143
 31
0.0
  0
LINE
  8
0
  6
BYLAYER
 62
     1
 10
919.406204
 20
-689.406143
 30
0.0
 11
919.406204
 21
-534.426651
 31
0.0
  0
LINE
  8
0
  6
BYLAYER
 62
     1
 10
847.406143
 20
-642.906143
 30
0.0
 11
828.906143
 21
-642.906143
 31
0.0
  0
LINE
  8
0
  6
BYLAYER
 62
     1
 10
846.991867
 20
-530.906265
 30
0.0
 11
828.906143
 21
-530.906265
 31
0.0
  0
LINE
  8
0
  6
BYLAYER
 62
     1
 10
919.820419
 20
-530.906265
 30
0.0
 11
937.906204
 21
-530.906265
 31
0.0
  0
LINE
  8
0
  6
BYLAYER
 62
     1
 10
919.406204
 20
-642.906143
 30
0.0
 11
937.906204
 21
-642.906143
 31
0.0
  0
LINE
  8
0
  6
BYLAYER
 62
     1
 10
826.406265
 20
-673.406082
 30
0.0
 11
827.406143
 21
-673.440994
 31
0.0
  0
LINE
  8
0
  6
BYLAYER
 62
     1
 10
826.406265
 20
-533.406143
 30
0.0
 11
828.906143
 21
-533.318832
 31
0.0
  0
LINE
  8
0
  6
BYLAYER
 62
     1
 10
826.406143
 20
-673.406143
 30
0.0
 11
826.406143
 21
-555.906143
 31
0.0
  0
LINE
  8
0
  6
BYLAYER
 62
     1
 10
826.406143
 20
-555.906143
 30
0.0
 11
826.406143
 21
-533.406143
 31
0.0
  0
LINE
  8
0
  6
BYLAYER
 62
     1
 10
943.406143
 20
-603.406143
 30
0.0
 11
943.406143
 21
-556.406143
 31
0.0
  0
LINE
  8
0
  6
BYLAYER
 62
     1
 10
943.406143
 20
-556.406143
 30
0.0
 11
942.906143
 21
-555.906143
 31
0.0
  0
LINE
  8
0
  6
BYLAYER
 62
     1
 10
943.406143
 20
-603.406143
 30
0.0
 11
943.406143
 21
-650.406143
 31
0.0
  0
LINE
  8
0
  6
BYLAYER
 62
     1
 10
943.406143
 20
-650.406143
 30
0.0
 11
942.906143
 21
-650.906143
 31
0.0
  0
LINE
  8
0
  6
BYLAYER
 62
     1
 10
940.406143
 20
-555.906143
 30
0.0
 11
942.906143
 21
-555.906143
 31
0.0
  0
LINE
  8
0
  6
BYLAYER
 62
     1
 10
940.406143
 20
-650.906143
 30
0.0
 11
942.906143
 21
-650.906143
 31
0.0
  0
LINE
  8
0
  6
BYLAYER
 62
     1
 10
940.406021
 20
-673.406082
 30
0.0
 11
939.406143
 21
-673.440994
 31
0.0
  0
LINE
  8
0
  6
BYLAYER
 62
     1
 10
940.406021
 20
-533.406143
 30
0.0
 11
937.906143
 21
-533.318832
 31
0.0
  0
LINE
  8
0
  6
BYLAYER
 62
     1
 10
940.406143
 20
-673.406143
 30
0.0
 11
940.406143
 21
-555.906143
 31
0.0
  0
LINE
  8
0
  6
BYLAYER
 62
     1
 10
940.406143
 20
-555.906143
 30
0.0
 11
940.406143
 21
-533.406143
 31
0.0
  0
LINE
  8
0
  6
BYLAYER
 62
     1
 10
919.406204
 20
-685.406082
 30
0.0
 11
847.406143
 21
-685.406082
 31
0.0
  0
LINE
  8
0
  6
BYLAYER
 62
     1
 10
242.906265
 20
-548.906145
 30
0.0
 11
244.406265
 21
-547.406145
 31
0.0
  0
LINE
  8
0
  6
BYLAYER
 62
     1
 10
244.406265
 20
-547.406145
 30
0.0
 11
289.406265
 21
-547.406145
 31
0.0
  0
LINE
  8
0
  6
BYLAYER
 62
     1
 10
244.406265
 20
-567.406145
 30
0.0
 11
244.406265
 21
-547.406145
 31
0.0
  0
LINE
  8
0
  6
BYLAYER
 62
     1
 10
244.406265
 20
-639.406145
 30
0.0
 11
244.406265
 21
-659.406145
 31
0.0
  0
LINE
  8
0
  6
BYLAYER
 62
     1
 10
242.906265
 20
-657.906145
 30
0.0
 11
244.406265
 21
-659.406145
 31
0.0
  0
LINE
  8
0
  6
BYLAYER
 62
     1
 10
242.906265
 20
-639.406145
 30
0.0
 11
242.906265
 21
-657.906145
 31
0.0
  0
LINE
  8
0
  6
BYLAYER
 62
     1
 10
162.406265
 20
-639.406145
 30
0.0
 11
162.406265
 21
-659.406145
 31
0.0
  0
LINE
  8
0
  6
BYLAYER
 62
     1
 10
163.906265
 20
-657.906145
 30
0.0
 11
162.406265
 21
-659.406145
 31
0.0
  0
LINE
  8
0
  6
BYLAYER
 62
     1
 10
162.406265
 20
-547.406145
 30
0.0
 11
117.406265
 21
-547.406145
 31
0.0
  0
LINE
  8
0
  6
BYLAYER
 62
     1
 10
162.406265
 20
-567.406145
 30
0.0
 11
162.406265
 21
-547.406145
 31
0.0
  0
LINE
  8
0
  6
BYLAYER
 62
     1
 10
163.906265
 20
-548.906145
 30
0.0
 11
162.406265
 21
-547.406145
 31
0.0
  0
LINE
  8
0
  6
BYLAYER
 62
     1
 10
163.906265
 20
-639.406145
 30
0.0
 11
163.906265
 21
-657.906145
 31
0.0
  0
LINE
  8
0
  6
BYLAYER
 62
     1
 10
244.406265
 20
-659.406145
 30
0.0
 11
289.406265
 21
-659.406145
 31
0.0
  0
LINE
  8
0
  6
BYLAYER
 62
     1
 10
162.406265
 20
-659.406145
 30
0.0
 11
117.406265
 21
-659.406145
 31
0.0
  0
LINE
  8
0
  6
BYLAYER
 62
     1
 10
117.406265
 20
-639.406145
 30
0.0
 11
289.406265
 21
-639.406145
 31
0.0
  0
LINE
  8
0
  6
BYLAYER
 62
     1
 10
117.406265
 20
-567.406145
 30
0.0
 11
289.406265
 21
-567.406145
 31
0.0
  0
LINE
  8
0
  6
BYLAYER
 62
     1
 10
289.406265
 20
-567.406145
 30
0.0
 11
289.406265
 21
-547.406145
 31
0.0
  0
LINE
  8
0
  6
BYLAYER
 62
     1
 10
289.406265
 20
-639.406145
 30
0.0
 11
289.406265
 21
-659.406145
 31
0.0
  0
CIRCLE
  8
0
  6
BYLAYER
 62
     1
 10
143.406265
 20
-558.406328
 30
0.0
 40
5.75
  0
LINE
  8
0
  6
BYLAYER
 62
     1
 10
203.406143
 20
-543.406145
 30
0.0
 11
156.906143
 21
-543.406145
 31
0.0
  0
ARC
  8
0
  6
BYLAYER
 62
     1
 10
156.906143
 20
-544.406145
 30
0.0
 40
1.000000
 50
90.0
 51
180.000003
  0
LINE
  8
0
  6
BYLAYER
 62
     1
 10
203.406143
 20
-543.406145
 30
0.0
 11
249.906143
 21
-543.406145
 31
0.0
  0
ARC
  8
0
  6
BYLAYER
 62
     1
 10
249.906143
 20
-544.406145
 30
0.0
 40
1.000000
 50
0.0
 51
90.000003
  0
LINE
  8
0
  6
BYLAYER
 62
     1
 10
163.906265
 20
-548.906145
 30
0.0
 11
242.906265
 21
-548.906145
 31
0.0
  0
LINE
  8
0
  6
BYLAYER
 62
     1
 10
163.906265
 20
-567.406145
 30
0.0
 11
163.906265
 21
-548.906145
 31
0.0
  0
LINE
  8
0
  6
BYLAYER
 62
     1
 10
242.906265
 20
-567.406145
 30
0.0
 11
242.906265
 21
-548.906145
 31
0.0
  0
CIRCLE
  8
0
  6
BYLAYER
 62
     1
 10
263.406265
 20
-558.406328
 30
0.0
 40
5.75
  0
LINE
  8
0
  6
BYLAYER
 62
     1
 10
118.906265
 20
-639.406145
 30
0.0
 11
118.906265
 21
-567.406145
 31
0.0
  0
LINE
  8
0
  6
BYLAYER
 62
     1
 10
117.406265
 20
-547.406145
 30
0.0
 11
117.406265
 21
-659.406145
 31
0.0
  0
LINE
  8
0
  6
BYLAYER
 62
     1
 10
242.906265
 20
-657.906145
 30
0.0
 11
163.906265
 21
-657.906145
 31
0.0
  0
CIRCLE
  8
0
  6
BYLAYER
 62
     1
 10
143.406265
 20
-648.405962
 30
0.0
 40
5.75
  0
CIRCLE
  8
0
  6
BYLAYER
 62
     1
 10
263.406265
 20
-648.405962
 30
0.0
 40
5.75
  0
LINE
  8
0
  6
BYLAYER
 62
     1
 10
136.906265
 20
-567.406145
 30
0.0
 11
136.906265
 21
-639.406145
 31
0.0
  0
LINE
  8
0
  6
BYLAYER
 62
     1
 10
269.906265
 20
-567.406145
 30
0.0
 11
269.906265
 21
-639.406145
 31
0.0
  0
LINE
  8
0
  6
BYLAYER
 62
     1
 10
287.906265
 20
-567.406145
 30
0.0
 11
287.906265
 21
-639.406145
 31
0.0
  0
LINE
  8
0
  6
BYLAYER
 62
     1
 10
273.406143
 20
-546.406145
 30
0.0
 11
133.406143
 21
-546.406145
 31
0.0
  0
LINE
  8
0
  6
BYLAYER
 62
     1
 10
250.906143
 20
-546.406145
 30
0.0
 11
250.906143
 21
-544.406145
 31
0.0
  0
LINE
  8
0
  6
BYLAYER
 62
     1
 10
155.906143
 20
-546.406145
 30
0.0
 11
155.906143
 21
-544.406145
 31
0.0
  0
LINE
  8
0
  6
BYLAYER
 62
     1
 10
133.406204
 20
-546.406267
 30
0.0
 11
133.371284
 21
-547.406145
 31
0.0
  0
LINE
  8
0
  6
BYLAYER
 62
     1
 10
273.406204
 20
-546.406267
 30
0.0
 11
273.441116
 21
-547.406145
 31
0.0
  0
LINE
  8
0
  6
BYLAYER
 62
     1
 10
291.406143
 20
-652.405962
 30
0.0
 11
289.406143
 21
-652.475786
 31
0.0
  0
LINE
  8
0
  6
BYLAYER
 62
     1
 10
291.406143
 20
-554.406328
 30
0.0
 11
289.406143
 21
-554.336504
 31
0.0
  0
LINE
  8
0
  6
BYLAYER
 62
     1
 10
291.406265
 20
-554.406328
 30
0.0
 11
291.406265
 21
-652.405958
 31
0.0
  0
LINE
  8
0
  6
BYLAYER
 62
     1
 10
203.406143
 20
-663.406141
 30
0.0
 11
156.906143
 21
-663.406141
 31
0.0
  0
ARC
  8
0
  6
BYLAYER
 62
     1
 10
156.906143
 20
-662.406141
 30
0.0
 40
1.000000
 50
180.000000
 51
270.000003
  0
LINE
  8
0
  6
BYLAYER
 62
     1
 10
203.406143
 20
-663.406141
 30
0.0
 11
249.906143
 21
-663.406141
 31
0.0
  0
ARC
  8
0
  6
BYLAYER
 62
     1
 10
249.906143
 20
-662.406141
 30
0.0
 40
1.000000
 50
270.0
 51
360.000003
  0
LINE
  8
0
  6
BYLAYER
 62
     1
 10
273.406143
 20
-660.406141
 30
0.0
 11
133.406143
 21
-660.406141
 31
0.0
  0
LINE
  8
0
  6
BYLAYER
 62
     1
 10
250.906143
 20
-660.406141
 30
0.0
 11
250.906143
 21
-662.406141
 31
0.0
  0
LINE
  8
0
  6
BYLAYER
 62
     1
 10
155.906143
 20
-660.406141
 30
0.0
 11
155.906143
 21
-662.406141
 31
0.0
  0
LINE
  8
0
  6
BYLAYER
 62
     1
 10
133.406204
 20
-660.406019
 30
0.0
 11
133.371284
 21
-659.406141
 31
0.0
  0
LINE
  8
0
  6
BYLAYER
 62
     1
 10
273.406204
 20
-660.406019
 30
0.0
 11
273.441116
 21
-659.406141
 31
0.0
  0
ARC
  8
0
  6
BYLAYER
 62
     1
 10
166.131639
 20
-583.406145
 30
0.0
 40
1.25
 50
270.0
 51
450.000005
  0
ARC
  8
0
  6
BYLAYER
 62
     1
 10
166.131639
 20
-573.406145
 30
0.0
 40
1.25
 50
270.0
 51
450.000005
  0
ARC
  8
0
  6
BYLAYER
 62
     1
 10
166.131639
 20
-623.406145
 30
0.0
 40
1.25
 50
270.0
 51
450.000005
  0
ARC
  8
0
  6
BYLAYER
 62
     1
 10
166.131639
 20
-633.406145
 30
0.0
 40
1.25
 50
270.0
 51
450.000005
  0
LINE
  8
0
  6
BYLAYER
 62
     1
 10
166.131639
 20
-572.156145
 30
0.0
 11
136.906265
 21
-572.156145
 31
0.0
  0
LINE
  8
0
  6
BYLAYER
 62
     1
 10
166.131639
 20
-582.156145
 30
0.0
 11
136.906265
 21
-582.156145
 31
0.0
  0
LINE
  8
0
  6
BYLAYER
 62
     1
 10
166.131639
 20
-584.656145
 30
0.0
 11
136.906265
 21
-584.656145
 31
0.0
  0
LINE
  8
0
  6
BYLAYER
 62
     1
 10
166.131639
 20
-632.156145
 30
0.0
 11
136.906265
 21
-632.156145
 31
0.0
  0
LINE
  8
0
  6
BYLAYER
 62
     1
 10
166.131639
 20
-634.656145
 30
0.0
 11
136.906265
 21
-634.656145
 31
0.0
  0
LINE
  8
0
  6
BYLAYER
 62
     1
 10
136.906265
 20
-622.156145
 30
0.0
 11
166.131639
 21
-622.156145
 31
0.0
  0
LINE
  8
0
  6
BYLAYER
 62
     1
 10
136.906265
 20
-624.656145
 30
0.0
 11
166.131639
 21
-624.656145
 31
0.0
  0
LINE
  8
0
  6
BYLAYER
 62
     1
 10
136.906265
 20
-574.656145
 30
0.0
 11
166.131639
 21
-574.656145
 31
0.0
  0
ARC
  8
0
  6
BYLAYER
 62
     1
 10
178.881937
 20
-593.406145
 30
0.0
 40
1.25
 50
270.0
 51
450.000005
  0
ARC
  8
0
  6
BYLAYER
 62
     1
 10
178.881937
 20
-613.406145
 30
0.0
 40
1.25
 50
270.0
 51
450.000005
  0
ARC
  8
0
  6
BYLAYER
 62
     1
 10
178.881937
 20
-603.406145
 30
0.0
 40
1.25
 50
270.0
 51
360.000009
  0
ARC
  8
0
  6
BYLAYER
 62
     1
 10
178.881937
 20
-603.406145
 30
0.0
 40
1.250000
 50
0.0
 51
89.999996
  0
LINE
  8
0
  6
BYLAYER
 62
     1
 10
136.906265
 20
-604.656145
 30
0.0
 11
178.881937
 21
-604.656145
 31
0.0
  0
LINE
  8
0
  6
BYLAYER
 62
     1
 10
136.906265
 20
-592.156145
 30
0.0
 11
178.881937
 21
-592.156145
 31
0.0
  0
LINE
  8
0
  6
BYLAYER
 62
     1
 10
136.906265
 20
-602.156145
 30
0.0
 11
178.881937
 21
-602.156145
 31
0.0
  0
LINE
  8
0
  6
BYLAYER
 62
     1
 10
136.906265
 20
-612.156021
 30
0.0
 11
178.881937
 21
-612.156191
 31
0.0
  0
LINE
  8
0
  6
BYLAYER
 62
     1
 10
136.906265
 20
-614.656021
 30
0.0
 11
178.881937
 21
-614.656191
 31
0.0
  0
LINE
  8
0
  6
BYLAYER
 62
     1
 10
136.906265
 20
-594.656145
 30
0.0
 11
178.881937
 21
-594.656145
 31
0.0
  0
LINE
  8
0
  6
BYLAYER
 62
     1
 10
232.805994
 20
-572.156145
 30
0.0
 11
269.906265
 21
-572.156145
 31
0.0
  0
ARC
  8
0
  6
BYLAYER
 62
     1
 10
232.805994
 20
-573.406145
 30
0.0
 40
1.25
 50
90.0
 51
270.000005
  0
LINE
  8
0
  6
BYLAYER
 62
     1
 10
232.805994
 20
-622.156145
 30
0.0
 11
269.906265
 21
-622.156145
 31
0.0
  0
LINE
  8
0
  6
BYLAYER
 62
     1
 10
232.805994
 20
-624.656145
 30
0.0
 11
269.906265
 21
-624.656145
 31
0.0
  0
ARC
  8
0
  6
BYLAYER
 62
     1
 10
232.805994
 20
-623.406145
 30
0.0
 40
1.25
 50
90.0
 51
270.000005
  0
LINE
  8
0
  6
BYLAYER
 62
     1
 10
232.805994
 20
-634.656145
 30
0.0
 11
269.906265
 21
-634.656145
 31
0.0
  0
ARC
  8
0
  6
BYLAYER
 62
     1
 10
232.805994
 20
-633.406145
 30
0.0
 40
1.25
 50
90.0
 51
270.000005
  0
LINE
  8
0
  6
BYLAYER
 62
     1
 10
269.906265
 20
-584.656145
 30
0.0
 11
232.805994
 21
-584.656145
 31
0.0
  0
LINE
  8
0
  6
BYLAYER
 62
     1
 10
232.805994
 20
-632.156145
 30
0.0
 11
269.906265
 21
-632.156145
 31
0.0
  0
LINE
  8
0
  6
BYLAYER
 62
     1
 10
269.906265
 20
-582.156145
 30
0.0
 11
232.805994
 21
-582.156145
 31
0.0
  0
LINE
  8
0
  6
BYLAYER
 62
     1
 10
232.805994
 20
-574.656145
 30
0.0
 11
269.906265
 21
-574.656145
 31
0.0
  0
ARC
  8
0
  6
BYLAYER
 62
     1
 10
232.805994
 20
-583.406145
 30
0.0
 40
1.25
 50
90.0
 51
270.000005
  0
LINE
  8
0
  6
BYLAYER
 62
     1
 10
291.406143
 20
-128.406143
 30
0.0
 11
291.406143
 21
-175.906051
 31
0.0
  0
ARC
  8
0
  6
BYLAYER
 62
     1
 10
307.906143
 20
-195.984115
 30
0.0
 40
2.000022
 50
183.795336
 51
266.999963
  0
LINE
  8
0
  6
BYLAYER
 62
     1
 10
305.906143
 20
-195.984115
 30
0.0
 11
305.906143
 21
-128.406143
 31
0.0
  0
ARC
  8
0
  6
BYLAYER
 62
     1
 10
303.906143
 20
-178.563827
 30
0.0
 40
2.000000
 50
0.0
 51
87.000334
  0
LINE
  8
0
  6
BYLAYER
 62
     1
 10
291.406143
 20
-175.906051
 30
0.0
 11
304.010788
 21
-176.566574
 31
0.0
  0
LINE
  8
0
  6
BYLAYER
 62
     1
 10
305.908340
 20
-193.406143
 30
0.0
 11
293.740310
 21
-176.028366
 31
0.0
  0
LINE
  8
0
  6
BYLAYER
 62
     1
 10
307.801468
 20
-197.981369
 30
0.0
 11
315.906143
 21
-198.406160
 31
0.0
  0
LINE
  8
0
  6
BYLAYER
 62
     1
 10
315.906143
 20
-198.406160
 30
0.0
 11
315.906143
 21
-128.406143
 31
0.0
  0
LINE
  8
0
  6
BYLAYER
 62
     1
 10
291.406143
 20
-128.406143
 30
0.0
 11
291.406143
 21
-80.906235
 31
0.0
  0
ARC
  8
0
  6
BYLAYER
 62
     1
 10
307.906143
 20
-60.828171
 30
0.0
 40
2.000022
 50
93.000037
 51
176.204664
  0
LINE
  8
0
  6
BYLAYER
 62
     1
 10
305.906143
 20
-60.828171
 30
0.0
 11
305.906143
 21
-128.406143
 31
0.0
  0
ARC
  8
0
  6
BYLAYER
 62
     1
 10
303.906143
 20
-78.248459
 30
0.0
 40
2.000000
 50
272.999666
 51
360.000000
  0
LINE
  8
0
  6
BYLAYER
 62
     1
 10
291.406143
 20
-80.906235
 30
0.0
 11
304.010788
 21
-80.245712
 31
0.0
  0
LINE
  8
0
  6
BYLAYER
 62
     1
 10
305.908340
 20
-63.406143
 30
0.0
 11
293.740310
 21
-80.783920
 31
0.0
  0
LINE
  8
0
  6
BYLAYER
 62
     1
 10
307.801468
 20
-58.830917
 30
0.0
 11
315.906143
 21
-58.406126
 31
0.0
  0
LINE
  8
0
  6
BYLAYER
 62
     1
 10
315.906143
 20
-58.406126
 30
0.0
 11
315.906143
 21
-128.406143
 31
0.0
  0
LINE
  8
0
  6
BYLAYER
 62
     1
 10
827.406143
 20
-244.406143
 30
0.0
 11
827.406143
 21
-289.406143
 31
0.0
  0
LINE
  8
0
  6
BYLAYER
 62
     1
 10
847.406143
 20
-244.406143
 30
0.0
 11
827.406143
 21
-244.406143
 31
0.0
  0
LINE
  8
0
  6
BYLAYER
 62
     1
 10
828.906143
 20
-242.906143
 30
0.0
 11
827.406143
 21
-244.406143
 31
0.0
  0
LINE
  8
0
  6
BYLAYER
 62
     1
 10
847.406143
 20
-242.906143
 30
0.0
 11
828.906143
 21
-242.906143
 31
0.0
  0
LINE
  8
0
  6
BYLAYER
 62
     1
 10
919.406143
 20
-244.406143
 30
0.0
 11
939.406143
 21
-244.406143
 31
0.0
  0
LINE
  8
0
  6
BYLAYER
 62
     1
 10
937.906143
 20
-242.906143
 30
0.0
 11
939.406143
 21
-244.406143
 31
0.0
  0
LINE
  8
0
  6
BYLAYER
 62
     1
 10
939.406143
 20
-244.406143
 30
0.0
 11
939.406143
 21
-289.406143
 31
0.0
  0
LINE
  8
0
  6
BYLAYER
 62
     1
 10
919.406143
 20
-242.906143
 30
0.0
 11
937.906143
 21
-242.906143
 31
0.0
  0
LINE
  8
0
  6
BYLAYER
 62
     1
 10
942.906143
 20
-250.906143
 30
0.0
 11
943.406143
 21
-250.406143
 31
0.0
  0
LINE
  8
0
  6
BYLAYER
 62
     1
 10
937.906143
 20
-242.906143
 30
0.0
 11
937.906143
 21
-195.641839
 31
0.0
  0
LINE
  8
0
  6
BYLAYER
 62
     1
 10
919.406143
 20
-289.406143
 30
0.0
 11
919.406143
 21
-207.113759
 31
0.0
  0
LINE
  8
0
  6
BYLAYER
 62
     1
 10
847.406143
 20
-289.406143
 30
0.0
 11
847.406143
 21
-207.113759
 31
0.0
  0
LINE
  8
0
  6
BYLAYER
 62
     1
 10
943.406143
 20
-190.783133
 30
0.0
 11
943.406143
 21
-250.406143
 31
0.0
  0
LINE
  8
0
  6
BYLAYER
 62
     1
 10
828.906143
 20
-195.641839
 30
0.0
 11
828.906143
 21
-242.906143
 31
0.0
  0
CIRCLE
  8
0
  6
BYLAYER
 62
     1
 10
928.356094
 20
-263.405899
 30
0.0
 40
5.75
  0
LINE
  8
0
  6
BYLAYER
 62
     1
 10
939.406143
 20
-289.406143
 30
0.0
 11
919.406143
 21
-289.406143
 31
0.0
  0
LINE
  8
0
  6
BYLAYER
 62
     1
 10
940.406021
 20
-273.406082
 30
0.0
 11
939.406143
 21
-273.440994
 31
0.0
  0
CIRCLE
  8
0
  6
BYLAYER
 62
     1
 10
838.456192
 20
-263.405899
 30
0.0
 40
5.75
  0
LINE
  8
0
  6
BYLAYER
 62
     1
 10
827.406143
 20
-289.406143
 30
0.0
 11
847.406143
 21
-289.406143
 31
0.0
  0
LINE
  8
0
  6
BYLAYER
 62
     1
 10
940.406143
 20
-273.406143
 30
0.0
 11
940.406143
 21
-193.535928
 31
0.0
  0
LINE
  8
0
  6
BYLAYER
 62
     1
 10
940.406143
 20
-250.906143
 30
0.0
 11
942.906143
 21
-250.906143
 31
0.0
  0
LINE
  8
0
  6
BYLAYER
 62
     1
 10
823.906143
 20
-250.906143
 30
0.0
 11
823.406143
 21
-250.406143
 31
0.0
  0
LINE
  8
0
  6
BYLAYER
 62
     1
 10
823.406143
 20
-190.783133
 30
0.0
 11
823.406143
 21
-250.406143
 31
0.0
  0
LINE
  8
0
  6
BYLAYER
 62
     1
 10
826.406265
 20
-273.406082
 30
0.0
 11
827.406143
 21
-273.440994
 31
0.0
  0
LINE
  8
0
  6
BYLAYER
 62
     1
 10
826.406143
 20
-273.406143
 30
0.0
 11
826.406143
 21
-193.535928
 31
0.0
  0
LINE
  8
0
  6
BYLAYER
 62
     1
 10
826.406143
 20
-250.906143
 30
0.0
 11
823.906143
 21
-250.906143
 31
0.0
  0
LINE
  8
0
  6
BYLAYER
 62
     1
 10
919.406143
 20
-285.406326
 30
0.0
 11
847.406143
 21
-285.406326
 31
0.0
  0
LINE
  8
0
  6
BYLAYER
 62
     7
 10
839.906036
 20
-21.906174
 30
0.0
 11
839.906036
 21
-0.406174
 31
0.0
  0
ARC
  8
0
  6
BYLAYER
 62
     7
 10
838.406036
 20
-21.906174
 30
0.0
 40
1.5
 50
270.0
 51
360.0
  0
ARC
  8
0
  6
BYLAYER
 62
     7
 10
841.406036
 20
-0.406174
 30
0.0
 40
1.5
 50
90.0
 51
180.0
  0
LINE
  8
0
  6
BYLAYER
 62
     7
 10
883.406036
 20
1.093826
 30
0.0
 11
841.406036
 21
1.093826
 31
0.0
  0
LINE
  8
0
  6
BYLAYER
 62
     7
 10
845.278277
 20
-21.906174
 30
0.0
 11
845.278277
 21
-0.406174
 31
0.0
  0
ARC
  8
0
  6
BYLAYER
 62
     7
 10
843.778277
 20
-21.906174
 30
0.0
 40
1.5
 50
270.0
 51
360.0
  0
ARC
  8
0
  6
BYLAYER
 62
     7
 10
846.778277
 20
-0.406174
 30
0.0
 40
1.5
 50
90.0
 51
180.0
  0
LINE
  8
0
  6
BYLAYER
 62
     7
 10
870.312383
 20
1.093826
 30
0.0
 11
870.804930
 21
-13.010872
 31
0.0
  0
ARC
  8
0
  6
BYLAYER
 62
     7
 10
873.803102
 20
-12.906174
 30
0.0
 40
3.0
 50
182.000000
 51
270.000000
  0
LINE
  8
0
  6
BYLAYER
 62
     7
 10
881.007142
 20
-13.010872
 30
0.0
 11
881.499689
 21
1.093826
 31
0.0
  0
ARC
  8
0
  6
BYLAYER
 62
     7
 10
878.008970
 20
-12.906174
 30
0.0
 40
3.0
 50
270.0
 51
358.0
  0
LINE
  8
0
  6
BYLAYER
 62
     7
 10
873.803102
 20
-15.906174
 30
0.0
 11
878.008970
 21
-15.906174
 31
0.0
  0
LINE
  8
0
  6
BYLAYER
 62
     7
 10
855.312383
 20
1.093826
 30
0.0
 11
855.804930
 21
-13.010872
 31
0.0
  0
ARC
  8
0
  6
BYLAYER
 62
     7
 10
858.803102
 20
-12.906174
 30
0.0
 40
3.0
 50
182.000000
 51
270.000000
  0
LINE
  8
0
  6
BYLAYER
 62
     7
 10
866.007142
 20
-13.010872
 30
0.0
 11
866.499689
 21
1.093826
 31
0.0
  0
ARC
  8
0
  6
BYLAYER
 62
     7
 10
863.008970
 20
-12.906174
 30
0.0
 40
3.0
 50
270.0
 51
358.0
  0
LINE
  8
0
  6
BYLAYER
 62
     7
 10
858.803102
 20
-15.906174
 30
0.0
 11
863.008970
 21
-15.906174
 31
0.0
  0
LINE
  8
0
  6
BYLAYER
 62
     7
 10
855.347304
 20
0.093826
 30
0.0
 11
866.464768
 21
0.093826
 31
0.0
  0
LINE
  8
0
  6
BYLAYER
 62
     7
 10
870.347304
 20
0.093826
 30
0.0
 11
881.464768
 21
0.093826
 31
0.0
  0
LINE
  8
0
  6
BYLAYER
 62
     7
 10
883.406036
 20
-23.406174
 30
0.0
 11
835.906036
 21
-23.406174
 31
0.0
  0
ARC
  8
0
  6
BYLAYER
 62
     7
 10
835.906036
 20
-24.906174
 30
0.0
 40
1.5
 50
90.0
 51
180.0
  0
LINE
  8
0
  6
BYLAYER
 62
     7
 10
834.406036
 20
-30.406174
 30
0.0
 11
834.406036
 21
-24.906174
 31
0.0
  0
LINE
  8
0
  6
BYLAYER
 62
     7
 10
834.406036
 20
-30.406174
 30
0.0
 11
883.406036
 21
-30.406174
 31
0.0
  0
LINE
  8
0
  6
BYLAYER
 62
     7
 10
926.906036
 20
-21.906174
 30
0.0
 11
926.906036
 21
-0.406174
 31
0.0
  0
ARC
  8
0
  6
BYLAYER
 62
     7
 10
928.406036
 20
-21.906174
 30
0.0
 40
1.5
 50
180.000000
 51
270.000000
  0
ARC
  8
0
  6
BYLAYER
 62
     7
 10
925.406036
 20
-0.406174
 30
0.0
 40
1.5
 50
0.0
 51
90.0
  0
LINE
  8
0
  6
BYLAYER
 62
     7
 10
883.406036
 20
1.093826
 30
0.0
 11
925.406036
 21
1.093826
 31
0.0
  0
LINE
  8
0
  6
BYLAYER
 62
     7
 10
921.533795
 20
-21.906174
 30
0.0
 11
921.533795
 21
-0.406174
 31
0.0
  0
ARC
  8
0
  6
BYLAYER
 62
     7
 10
923.033795
 20
-21.906174
 30
0.0
 40
1.5
 50
180.000000
 51
270.000000
  0
ARC
  8
0
  6
BYLAYER
 62
     7
 10
920.033795
 20
-0.406174
 30
0.0
 40
1.5
 50
0.0
 51
90.0
  0
LINE
  8
0
  6
BYLAYER
 62
     7
 10
896.499689
 20
1.093826
 30
0.0
 11
896.007142
 21
-13.010872
 31
0.0
  0
ARC
  8
0
  6
BYLAYER
 62
     7
 10
893.008970
 20
-12.906174
 30
0.0
 40
3.0
 50
270.0
 51
358.0
  0
LINE
  8
0
  6
BYLAYER
 62
     7
 10
885.804930
 20
-13.010872
 30
0.0
 11
885.312383
 21
1.093826
 31
0.0
  0
ARC
  8
0
  6
BYLAYER
 62
     7
 10
888.803102
 20
-12.906174
 30
0.0
 40
3.0
 50
182.000000
 51
270.000000
  0
LINE
  8
0
  6
BYLAYER
 62
     7
 10
893.008970
 20
-15.906174
 30
0.0
 11
888.803102
 21
-15.906174
 31
0.0
  0
LINE
  8
0
  6
BYLAYER
 62
     7
 10
911.499689
 20
1.093826
 30
0.0
 11
911.007142
 21
-13.010872
 31
0.0
  0
ARC
  8
0
  6
BYLAYER
 62
     7
 10
908.008970
 20
-12.906174
 30
0.0
 40
3.0
 50
270.0
 51
358.0
  0
LINE
  8
0
  6
BYLAYER
 62
     7
 10
900.804930
 20
-13.010872
 30
0.0
 11
900.312383
 21
1.093826
 31
0.0
  0
ARC
  8
0
  6
BYLAYER
 62
     7
 10
903.803102
 20
-12.906174
 30
0.0
 40
3.0
 50
182.000000
 51
270.000000
  0
LINE
  8
0
  6
BYLAYER
 62
     7
 10
908.008970
 20
-15.906174
 30
0.0
 11
903.803102
 21
-15.906174
 31
0.0
  0
LINE
  8
0
  6
BYLAYER
 62
     7
 10
911.464768
 20
0.093826
 30
0.0
 11
900.347304
 21
0.093826
 31
0.0
  0
LINE
  8
0
  6
BYLAYER
 62
     7
 10
896.464768
 20
0.093826
 30
0.0
 11
885.347304
 21
0.093826
 31
0.0
  0
LINE
  8
0
  6
BYLAYER
 62
     7
 10
883.406036
 20
-23.406174
 30
0.0
 11
930.906036
 21
-23.406174
 31
0.0
  0
ARC
  8
0
  6
BYLAYER
 62
     7
 10
930.906036
 20
-24.906174
 30
0.0
 40
1.5
 50
0.0
 51
90.0
  0
LINE
  8
0
  6
BYLAYER
 62
     7
 10
932.406036
 20
-32.406174
 30
0.0
 11
932.406036
 21
-24.906174
 31
0.0
  0
LINE
  8
0
  6
BYLAYER
 62
     7
 10
932.406036
 20
-30.406174
 30
0.0
 11
883.406036
 21
-30.406174
 31
0.0
  0
LINE
  8
0
  6
BYLAYER
 62
     7
 10
834.406036
 20
-32.406174
 30
0.0
 11
883.406020
 21
-32.406174
 31
0.0
  0
LINE
  8
0
  6
BYLAYER
 62
     7
 10
834.406036
 20
-37.906174
 30
0.0
 11
837.406036
 21
-43.102341
 31
0.0
  0
LINE
  8
0
  6
BYLAYER
 62
     7
 10
932.406020
 20
-32.406052
 30
0.0
 11
883.406020
 21
-32.406174
 31
0.0
  0
LINE
  8
0
  6
BYLAYER
 62
     7
 10
932.406020
 20
-37.906052
 30
0.0
 11
929.406020
 21
-43.102219
 31
0.0
  0
LINE
  8
0
  6
BYLAYER
 62
     7
 10
837.406036
 20
-43.102341
 30
0.0
 11
837.406036
 21
-55.092577
 31
0.0
  0
LINE
  8
0
  6
BYLAYER
 62
     7
 10
834.406036
 20
-32.406174
 30
0.0
 11
834.406036
 21
-57.062760
 31
0.0
  0
LINE
  8
0
  6
BYLAYER
 62
     7
 10
932.406020
 20
-32.406052
 30
0.0
 11
932.406049
 21
-57.062622
 31
0.0
  0
LINE
  8
0
  6
BYLAYER
 62
     7
 10
929.406020
 20
-43.102219
 30
0.0
 11
929.406031
 21
-55.092440
 31
0.0
  0
LINE
  8
0
  6
BYLAYER
 62
     7
 10
834.406036
 20
-30.406174
 30
0.0
 11
834.406036
 21
-32.406174
 31
0.0
  0
LINE
  8
0
  6
BYLAYER
 62
     7
 10
834.406036
 20
-32.406174
 30
0.0
 11
932.406036
 21
-32.406174
 31
0.0
  0
LINE
  8
0
  6
BYLAYER
 62
     7
 10
884.406143
 20
-99.406143
 30
0.0
 11
884.406143
 21
-107.406143
 31
0.0
  0
LINE
  8
0
  6
BYLAYER
 62
     7
 10
884.406143
 20
-89.406143
 30
0.0
 11
884.406143
 21
-97.406143
 31
0.0
  0
LINE
  8
0
  6
BYLAYER
 62
     7
 10
892.406143
 20
-97.406143
 30
0.0
 11
892.406143
 21
-89.406143
 31
0.0
  0
LINE
  8
0
  6
BYLAYER
 62
     7
 10
894.406143
 20
-97.406143
 30
0.0
 11
894.406143
 21
-89.406143
 31
0.0
  0
LINE
  8
0
  6
BYLAYER
 62
     7
 10
884.406143
 20
-107.406143
 30
0.0
 11
892.406143
 21
-107.406143
 31
0.0
  0
LINE
  8
0
  6
BYLAYER
 62
     7
 10
884.406143
 20
-99.406143
 30
0.0
 11
892.406143
 21
-99.406143
 31
0.0
  0
LINE
  8
0
  6
BYLAYER
 62
     7
 10
894.406143
 20
-97.406143
 30
0.0
 11
902.244142
 21
-97.406143
 31
0.0
  0
LINE
  8
0
  6
BYLAYER
 62
     7
 10
884.406143
 20
-97.406143
 30
0.0
 11
892.406143
 21
-97.406143
 31
0.0
  0
LINE
  8
0
  6
BYLAYER
 62
     7
 10
894.406143
 20
-89.406143
 30
0.0
 11
902.244142
 21
-89.406143
 31
0.0
  0
LINE
  8
0
  6
BYLAYER
 62
     7
 10
884.406143
 20
-89.406143
 30
0.0
 11
892.406143
 21
-89.406143
 31
0.0
  0
LINE
  8
0
  6
BYLAYER
 62
     7
 10
902.244142
 20
-97.406143
 30
0.0
 11
902.244142
 21
-89.406143
 31
0.0
  0
LINE
  8
0
  6
BYLAYER
 62
     7
 10
892.406143
 20
-107.406143
 30
0.0
 11
892.406143
 21
-99.406143
 31
0.0
  0
LINE
  8
0
  6
BYLAYER
 62
     7
 10
894.406143
 20
-99.406143
 30
0.0
 11
894.406143
 21
-107.406143
 31
0.0
  0
LINE
  8
0
  6
BYLAYER
 62
     7
 10
894.406143
 20
-107.406143
 30
0.0
 11
902.406143
 21
-107.406143
 31
0.0
  0
LINE
  8
0
  6
BYLAYER
 62
     7
 10
894.406143
 20
-99.406143
 30
0.0
 11
902.406143
 21
-99.406143
 31
0.0
  0
LINE
  8
0
  6
BYLAYER
 62
     7
 10
902.406143
 20
-107.406143
 30
0.0
 11
902.406143
 21
-99.406143
 31
0.0
  0
LINE
  8
0
  6
BYLAYER
 62
     7
 10
904.406143
 20
-117.406143
 30
0.0
 11
912.406143
 21
-117.406143
 31
0.0
  0
LINE
  8
0
  6
BYLAYER
 62
     7
 10
904.406143
 20
-99.406143
 30
0.0
 11
904.406143
 21
-107.406143
 31
0.0
  0
LINE
  8
0
  6
BYLAYER
 62
     7
 10
904.406143
 20
-109.406143
 30
0.0
 11
904.406143
 21
-117.406143
 31
0.0
  0
LINE
  8
0
  6
BYLAYER
 62
     7
 10
904.406143
 20
-109.406143
 30
0.0
 11
912.406143
 21
-109.406143
 31
0.0
  0
LINE
  8
0
  6
BYLAYER
 62
     7
 10
904.406143
 20
-107.406143
 30
0.0
 11
912.406143
 21
-107.406143
 31
0.0
  0
LINE
  8
0
  6
BYLAYER
 62
     7
 10
904.406143
 20
-99.406143
 30
0.0
 11
912.406143
 21
-99.406143
 31
0.0
  0
LINE
  8
0
  6
BYLAYER
 62
     7
 10
912.406143
 20
-117.406143
 30
0.0
 11
912.406143
 21
-109.406143
 31
0.0
  0
LINE
  8
0
  6
BYLAYER
 62
     7
 10
912.406143
 20
-107.406143
 30
0.0
 11
912.406143
 21
-99.406143
 31
0.0
  0
LINE
  8
0
  6
BYLAYER
 62
     7
 10
904.406143
 20
-127.406143
 30
0.0
 11
912.406143
 21
-127.406143
 31
0.0
  0
LINE
  8
0
  6
BYLAYER
 62
     7
 10
904.406143
 20
-119.406143
 30
0.0
 11
904.406143
 21
-127.406143
 31
0.0
  0
LINE
  8
0
  6
BYLAYER
 62
     7
 10
904.406143
 20
-119.406143
 30
0.0
 11
912.406143
 21
-119.406143
 31
0.0
  0
LINE
  8
0
  6
BYLAYER
 62
     7
 10
912.406143
 20
-127.406143
 30
0.0
 11
912.406143
 21
-119.406143
 31
0.0
  0
LINE
  8
0
  6
BYLAYER
 62
     7
 10
914.406143
 20
-117.406143
 30
0.0
 11
922.406143
 21
-117.406143
 31
0.0
  0
LINE
  8
0
  6
BYLAYER
 62
     7
 10
914.406143
 20
-109.406143
 30
0.0
 11
914.406143
 21
-117.406143
 31
0.0
  0
LINE
  8
0
  6
BYLAYER
 62
     7
 10
914.406143
 20
-109.406143
 30
0.0
 11
922.406143
 21
-109.406143
 31
0.0
  0
LINE
  8
0
  6
BYLAYER
 62
     7
 10
922.406143
 20
-117.406143
 30
0.0
 11
922.406143
 21
-109.406143
 31
0.0
  0
LINE
  8
0
  6
BYLAYER
 62
     7
 10
914.406143
 20
-127.406143
 30
0.0
 11
922.406143
 21
-127.406143
 31
0.0
  0
LINE
  8
0
  6
BYLAYER
 62
     7
 10
914.406143
 20
-119.406143
 30
0.0
 11
914.406143
 21
-127.406143
 31
0.0
  0
LINE
  8
0
  6
BYLAYER
 62
     7
 10
914.406143
 20
-119.406143
 30
0.0
 11
922.406143
 21
-119.406143
 31
0.0
  0
LINE
  8
0
  6
BYLAYER
 62
     7
 10
922.406143
 20
-127.406143
 30
0.0
 11
922.406143
 21
-119.406143
 31
0.0
  0
LINE
  8
0
  6
BYLAYER
 62
     7
 10
924.406143
 20
-117.406143
 30
0.0
 11
932.406143
 21
-117.406143
 31
0.0
  0
LINE
  8
0
  6
BYLAYER
 62
     7
 10
924.406143
 20
-109.406143
 30
0.0
 11
924.406143
 21
-117.406143
 31
0.0
  0
LINE
  8
0
  6
BYLAYER
 62
     7
 10
924.406143
 20
-109.406143
 30
0.0
 11
932.406143
 21
-109.406143
 31
0.0
  0
LINE
  8
0
  6
BYLAYER
 62
     7
 10
932.406143
 20
-117.406143
 30
0.0
 11
932.406143
 21
-109.406143
 31
0.0
  0
LINE
  8
0
  6
BYLAYER
 62
     7
 10
924.406143
 20
-127.406143
 30
0.0
 11
932.406143
 21
-127.406143
 31
0.0
  0
LINE
  8
0
  6
BYLAYER
 62
     7
 10
924.406143
 20
-119.406143
 30
0.0
 11
924.406143
 21
-127.406143
 31
0.0
  0
LINE
  8
0
  6
BYLAYER
 62
     7
 10
924.406143
 20
-119.406143
 30
0.0
 11
932.406143
 21
-119.406143
 31
0.0
  0
LINE
  8
0
  6
BYLAYER
 62
     7
 10
932.406143
 20
-127.406143
 30
0.0
 11
932.406143
 21
-119.406143
 31
0.0
  0
LINE
  8
0
  6
BYLAYER
 62
     7
 10
884.406143
 20
-79.406143
 30
0.0
 11
884.406143
 21
-87.406143
 31
0.0
  0
LINE
  8
0
  6
BYLAYER
 62
     7
 10
892.406143
 20
-87.406143
 30
0.0
 11
892.406143
 21
-79.406143
 31
0.0
  0
LINE
  8
0
  6
BYLAYER
 62
     7
 10
894.406143
 20
-87.406143
 30
0.0
 11
894.406143
 21
-79.406143
 31
0.0
  0
LINE
  8
0
  6
BYLAYER
 62
     7
 10
894.406143
 20
-87.406143
 30
0.0
 11
902.244142
 21
-87.406143
 31
0.0
  0
LINE
  8
0
  6
BYLAYER
 62
     7
 10
884.406143
 20
-87.406143
 30
0.0
 11
892.406143
 21
-87.406143
 31
0.0
  0
LINE
  8
0
  6
BYLAYER
 62
     7
 10
894.406143
 20
-79.406143
 30
0.0
 11
902.244142
 21
-79.406143
 31
0.0
  0
LINE
  8
0
  6
BYLAYER
 62
     7
 10
884.406143
 20
-79.406143
 30
0.0
 11
892.406143
 21
-79.406143
 31
0.0
  0
LINE
  8
0
  6
BYLAYER
 62
     7
 10
902.244142
 20
-87.406143
 30
0.0
 11
902.244142
 21
-79.406143
 31
0.0
  0
LINE
  8
0
  6
BYLAYER
 62
     7
 10
904.406143
 20
-89.406143
 30
0.0
 11
904.406143
 21
-97.406143
 31
0.0
  0
LINE
  8
0
  6
BYLAYER
 62
     7
 10
904.406143
 20
-97.406143
 30
0.0
 11
912.406143
 21
-97.406143
 31
0.0
  0
LINE
  8
0
  6
BYLAYER
 62
     7
 10
904.406143
 20
-89.406143
 30
0.0
 11
912.406143
 21
-89.406143
 31
0.0
  0
LINE
  8
0
  6
BYLAYER
 62
     7
 10
912.406143
 20
-97.406143
 30
0.0
 11
912.406143
 21
-89.406143
 31
0.0
  0
LINE
  8
0
  6
BYLAYER
 62
     7
 10
904.406143
 20
-79.406143
 30
0.0
 11
904.406143
 21
-87.406143
 31
0.0
  0
LINE
  8
0
  6
BYLAYER
 62
     7
 10
904.406143
 20
-87.406143
 30
0.0
 11
912.406143
 21
-87.406143
 31
0.0
  0
LINE
  8
0
  6
BYLAYER
 62
     7
 10
904.406143
 20
-79.406143
 30
0.0
 11
912.406143
 21
-79.406143
 31
0.0
  0
LINE
  8
0
  6
BYLAYER
 62
     7
 10
912.406143
 20
-87.406143
 30
0.0
 11
912.406143
 21
-79.406143
 31
0.0
  0
LINE
  8
0
  6
BYLAYER
 62
     7
 10
914.406143
 20
-99.406143
 30
0.0
 11
914.406143
 21
-107.406143
 31
0.0
  0
LINE
  8
0
  6
BYLAYER
 62
     7
 10
914.406143
 20
-107.406143
 30
0.0
 11
922.406143
 21
-107.406143
 31
0.0
  0
LINE
  8
0
  6
BYLAYER
 62
     7
 10
914.406143
 20
-99.406143
 30
0.0
 11
922.406143
 21
-99.406143
 31
0.0
  0
LINE
  8
0
  6
BYLAYER
 62
     7
 10
922.406143
 20
-107.406143
 30
0.0
 11
922.406143
 21
-99.406143
 31
0.0
  0
LINE
  8
0
  6
BYLAYER
 62
     7
 10
914.406143
 20
-89.406143
 30
0.0
 11
914.406143
 21
-97.406143
 31
0.0
  0
LINE
  8
0
  6
BYLAYER
 62
     7
 10
914.406143
 20
-97.406143
 30
0.0
 11
922.406143
 21
-97.406143
 31
0.0
  0
LINE
  8
0
  6
BYLAYER
 62
     7
 10
914.406143
 20
-89.406143
 30
0.0
 11
922.406143
 21
-89.406143
 31
0.0
  0
LINE
  8
0
  6
BYLAYER
 62
     7
 10
922.406143
 20
-97.406143
 30
0.0
 11
922.406143
 21
-89.406143
 31
0.0
  0
LINE
  8
0
  6
BYLAYER
 62
     7
 10
924.406143
 20
-99.406143
 30
0.0
 11
924.406143
 21
-107.406143
 31
0.0
  0
LINE
  8
0
  6
BYLAYER
 62
     7
 10
924.406143
 20
-107.406143
 30
0.0
 11
932.406143
 21
-107.406143
 31
0.0
  0
LINE
  8
0
  6
BYLAYER
 62
     7
 10
924.406143
 20
-99.406143
 30
0.0
 11
932.406143
 21
-99.406143
 31
0.0
  0
LINE
  8
0
  6
BYLAYER
 62
     7
 10
932.406143
 20
-107.406143
 30
0.0
 11
932.406143
 21
-99.406143
 31
0.0
  0
CIRCLE
  8
0
  6
BYLAYER
 62
     7
 10
883.406143
 20
-128.406143
 30
0.0
 40
4.0
  0
LINE
  8
0
  6
BYLAYER
 62
     7
 10
934.406143
 20
-117.406143
 30
0.0
 11
942.406143
 21
-117.406143
 31
0.0
  0
LINE
  8
0
  6
BYLAYER
 62
     7
 10
934.406143
 20
-109.406143
 30
0.0
 11
934.406143
 21
-117.406143
 31
0.0
  0
LINE
  8
0
  6
BYLAYER
 62
     7
 10
934.406143
 20
-109.406143
 30
0.0
 11
942.406143
 21
-109.406143
 31
0.0
  0
LINE
  8
0
  6
BYLAYER
 62
     7
 10
942.406143
 20
-117.406143
 30
0.0
 11
942.406143
 21
-109.406143
 31
0.0
  0
LINE
  8
0
  6
BYLAYER
 62
     7
 10
934.406143
 20
-127.406143
 30
0.0
 11
942.406143
 21
-127.406143
 31
0.0
  0
LINE
  8
0
  6
BYLAYER
 62
     7
 10
934.406143
 20
-119.406143
 30
0.0
 11
934.406143
 21
-127.406143
 31
0.0
  0
LINE
  8
0
  6
BYLAYER
 62
     7
 10
934.406143
 20
-119.406143
 30
0.0
 11
942.406143
 21
-119.406143
 31
0.0
  0
LINE
  8
0
  6
BYLAYER
 62
     7
 10
942.406143
 20
-127.406143
 30
0.0
 11
942.406143
 21
-119.406143
 31
0.0
  0
LINE
  8
0
  6
BYLAYER
 62
     7
 10
934.406143
 20
-99.406143
 30
0.0
 11
934.406143
 21
-107.406143
 31
0.0
  0
LINE
  8
0
  6
BYLAYER
 62
     7
 10
934.406143
 20
-107.406143
 30
0.0
 11
942.406143
 21
-107.406143
 31
0.0
  0
LINE
  8
0
  6
BYLAYER
 62
     7
 10
934.406143
 20
-99.406143
 30
0.0
 11
942.406143
 21
-99.406143
 31
0.0
  0
LINE
  8
0
  6
BYLAYER
 62
     7
 10
942.406143
 20
-107.406143
 30
0.0
 11
942.406143
 21
-99.406143
 31
0.0
  0
LINE
  8
0
  6
BYLAYER
 62
     7
 10
884.406143
 20
-69.406143
 30
0.0
 11
884.406143
 21
-77.406143
 31
0.0
  0
LINE
  8
0
  6
BYLAYER
 62
     7
 10
892.406143
 20
-77.406143
 30
0.0
 11
892.406143
 21
-69.406143
 31
0.0
  0
LINE
  8
0
  6
BYLAYER
 62
     7
 10
894.406143
 20
-77.406143
 30
0.0
 11
894.406143
 21
-69.406143
 31
0.0
  0
LINE
  8
0
  6
BYLAYER
 62
     7
 10
894.406143
 20
-77.406143
 30
0.0
 11
902.244142
 21
-77.406143
 31
0.0
  0
LINE
  8
0
  6
BYLAYER
 62
     7
 10
884.406143
 20
-77.406143
 30
0.0
 11
892.406143
 21
-77.406143
 31
0.0
  0
LINE
  8
0
  6
BYLAYER
 62
     7
 10
894.406143
 20
-69.406143
 30
0.0
 11
902.244142
 21
-69.406143
 31
0.0
  0
LINE
  8
0
  6
BYLAYER
 62
     7
 10
884.406143
 20
-69.406143
 30
0.0
 11
892.406143
 21
-69.406143
 31
0.0
  0
LINE
  8
0
  6
BYLAYER
 62
     7
 10
902.244142
 20
-77.406143
 30
0.0
 11
902.244142
 21
-69.406143
 31
0.0
  0
LINE
  8
0
  6
BYLAYER
 62
     7
 10
904.406143
 20
-69.406143
 30
0.0
 11
904.406143
 21
-77.406143
 31
0.0
  0
LINE
  8
0
  6
BYLAYER
 62
     7
 10
904.406143
 20
-77.406143
 30
0.0
 11
912.406143
 21
-77.406143
 31
0.0
  0
LINE
  8
0
  6
BYLAYER
 62
     7
 10
904.406143
 20
-69.406143
 30
0.0
 11
912.406143
 21
-69.406143
 31
0.0
  0
LINE
  8
0
  6
BYLAYER
 62
     7
 10
912.406143
 20
-77.406143
 30
0.0
 11
912.406143
 21
-69.406143
 31
0.0
  0
LINE
  8
0
  6
BYLAYER
 62
     7
 10
914.406143
 20
-79.406143
 30
0.0
 11
914.406143
 21
-87.406143
 31
0.0
  0
LINE
  8
0
  6
BYLAYER
 62
     7
 10
914.406143
 20
-87.406143
 30
0.0
 11
922.406143
 21
-87.406143
 31
0.0
  0
LINE
  8
0
  6
BYLAYER
 62
     7
 10
914.406143
 20
-79.406143
 30
0.0
 11
922.406143
 21
-79.406143
 31
0.0
  0
LINE
  8
0
  6
BYLAYER
 62
     7
 10
922.406143
 20
-87.406143
 30
0.0
 11
922.406143
 21
-79.406143
 31
0.0
  0
LINE
  8
0
  6
BYLAYER
 62
     7
 10
924.406143
 20
-89.406143
 30
0.0
 11
924.406143
 21
-97.406143
 31
0.0
  0
LINE
  8
0
  6
BYLAYER
 62
     7
 10
924.406143
 20
-97.406143
 30
0.0
 11
932.406143
 21
-97.406143
 31
0.0
  0
LINE
  8
0
  6
BYLAYER
 62
     7
 10
924.406143
 20
-89.406143
 30
0.0
 11
932.406143
 21
-89.406143
 31
0.0
  0
LINE
  8
0
  6
BYLAYER
 62
     7
 10
932.406143
 20
-97.406143
 30
0.0
 11
932.406143
 21
-89.406143
 31
0.0
  0
LINE
  8
0
  6
BYLAYER
 62
     7
 10
884.406143
 20
-157.406143
 30
0.0
 11
884.406143
 21
-149.406143
 31
0.0
  0
LINE
  8
0
  6
BYLAYER
 62
     7
 10
884.406143
 20
-167.406143
 30
0.0
 11
884.406143
 21
-159.406143
 31
0.0
  0
LINE
  8
0
  6
BYLAYER
 62
     7
 10
892.406143
 20
-159.406143
 30
0.0
 11
892.406143
 21
-167.406143
 31
0.0
  0
LINE
  8
0
  6
BYLAYER
 62
     7
 10
894.406143
 20
-159.406143
 30
0.0
 11
894.406143
 21
-167.406143
 31
0.0
  0
LINE
  8
0
  6
BYLAYER
 62
     7
 10
884.406143
 20
-149.406143
 30
0.0
 11
892.406143
 21
-149.406143
 31
0.0
  0
LINE
  8
0
  6
BYLAYER
 62
     7
 10
884.406143
 20
-157.406143
 30
0.0
 11
892.406143
 21
-157.406143
 31
0.0
  0
LINE
  8
0
  6
BYLAYER
 62
     7
 10
894.406143
 20
-159.406143
 30
0.0
 11
902.244142
 21
-159.406143
 31
0.0
  0
LINE
  8
0
  6
BYLAYER
 62
     7
 10
884.406143
 20
-159.406143
 30
0.0
 11
892.406143
 21
-159.406143
 31
0.0
  0
LINE
  8
0
  6
BYLAYER
 62
     7
 10
894.406143
 20
-167.406143
 30
0.0
 11
902.244142
 21
-167.406143
 31
0.0
  0
LINE
  8
0
  6
BYLAYER
 62
     7
 10
884.406143
 20
-167.406143
 30
0.0
 11
892.406143
 21
-167.406143
 31
0.0
  0
LINE
  8
0
  6
BYLAYER
 62
     7
 10
902.244142
 20
-159.406143
 30
0.0
 11
902.244142
 21
-167.406143
 31
0.0
  0
LINE
  8
0
  6
BYLAYER
 62
     7
 10
892.406143
 20
-149.406143
 30
0.0
 11
892.406143
 21
-157.406143
 31
0.0
  0
LINE
  8
0
  6
BYLAYER
 62
     7
 10
894.406143
 20
-157.406143
 30
0.0
 11
894.406143
 21
-149.406143
 31
0.0
  0
LINE
  8
0
  6
BYLAYER
 62
     7
 10
894.406143
 20
-149.406143
 30
0.0
 11
902.406143
 21
-149.406143
 31
0.0
  0
LINE
  8
0
  6
BYLAYER
 62
     7
 10
894.406143
 20
-157.406143
 30
0.0
 11
902.406143
 21
-157.406143
 31
0.0
  0
LINE
  8
0
  6
BYLAYER
 62
     7
 10
902.406143
 20
-149.406143
 30
0.0
 11
902.406143
 21
-157.406143
 31
0.0
  0
LINE
  8
0
  6
BYLAYER
 62
     7
 10
904.406143
 20
-139.406143
 30
0.0
 11
912.406143
 21
-139.406143
 31
0.0
  0
LINE
  8
0
  6
BYLAYER
 62
     7
 10
904.406143
 20
-157.406143
 30
0.0
 11
904.406143
 21
-149.406143
 31
0.0
  0
LINE
  8
0
  6
BYLAYER
 62
     7
 10
904.406143
 20
-147.406143
 30
0.0
 11
904.406143
 21
-139.406143
 31
0.0
  0
LINE
  8
0
  6
BYLAYER
 62
     7
 10
904.406143
 20
-147.406143
 30
0.0
 11
912.406143
 21
-147.406143
 31
0.0
  0
LINE
  8
0
  6
BYLAYER
 62
     7
 10
904.406143
 20
-149.406143
 30
0.0
 11
912.406143
 21
-149.406143
 31
0.0
  0
LINE
  8
0
  6
BYLAYER
 62
     7
 10
904.406143
 20
-157.406143
 30
0.0
 11
912.406143
 21
-157.406143
 31
0.0
  0
LINE
  8
0
  6
BYLAYER
 62
     7
 10
912.406143
 20
-139.406143
 30
0.0
 11
912.406143
 21
-147.406143
 31
0.0
  0
LINE
  8
0
  6
BYLAYER
 62
     7
 10
912.406143
 20
-149.406143
 30
0.0
 11
912.406143
 21
-157.406143
 31
0.0
  0
LINE
  8
0
  6
BYLAYER
 62
     7
 10
904.406143
 20
-129.406143
 30
0.0
 11
912.406143
 21
-129.406143
 31
0.0
  0
LINE
  8
0
  6
BYLAYER
 62
     7
 10
904.406143
 20
-137.406143
 30
0.0
 11
904.406143
 21
-129.406143
 31
0.0
  0
LINE
  8
0
  6
BYLAYER
 62
     7
 10
904.406143
 20
-137.406143
 30
0.0
 11
912.406143
 21
-137.406143
 31
0.0
  0
LINE
  8
0
  6
BYLAYER
 62
     7
 10
912.406143
 20
-129.406143
 30
0.0
 11
912.406143
 21
-137.406143
 31
0.0
  0
LINE
  8
0
  6
BYLAYER
 62
     7
 10
914.406143
 20
-139.406143
 30
0.0
 11
922.406143
 21
-139.406143
 31
0.0
  0
LINE
  8
0
  6
BYLAYER
 62
     7
 10
914.406143
 20
-147.406143
 30
0.0
 11
914.406143
 21
-139.406143
 31
0.0
  0
LINE
  8
0
  6
BYLAYER
 62
     7
 10
914.406143
 20
-147.406143
 30
0.0
 11
922.406143
 21
-147.406143
 31
0.0
  0
LINE
  8
0
  6
BYLAYER
 62
     7
 10
922.406143
 20
-139.406143
 30
0.0
 11
922.406143
 21
-147.406143
 31
0.0
  0
LINE
  8
0
  6
BYLAYER
 62
     7
 10
914.406143
 20
-129.406143
 30
0.0
 11
922.406143
 21
-129.406143
 31
0.0
  0
LINE
  8
0
  6
BYLAYER
 62
     7
 10
914.406143
 20
-137.406143
 30
0.0
 11
914.406143
 21
-129.406143
 31
0.0
  0
LINE
  8
0
  6
BYLAYER
 62
     7
 10
914.406143
 20
-137.406143
 30
0.0
 11
922.406143
 21
-137.406143
 31
0.0
  0
LINE
  8
0
  6
BYLAYER
 62
     7
 10
922.406143
 20
-129.406143
 30
0.0
 11
922.406143
 21
-137.406143
 31
0.0
  0
LINE
  8
0
  6
BYLAYER
 62
     7
 10
924.406143
 20
-139.406143
 30
0.0
 11
932.406143
 21
-139.406143
 31
0.0
  0
LINE
  8
0
  6
BYLAYER
 62
     7
 10
924.406143
 20
-147.406143
 30
0.0
 11
924.406143
 21
-139.406143
 31
0.0
  0
LINE
  8
0
  6
BYLAYER
 62
     7
 10
924.406143
 20
-147.406143
 30
0.0
 11
932.406143
 21
-147.406143
 31
0.0
  0
LINE
  8
0
  6
BYLAYER
 62
     7
 10
932.406143
 20
-139.406143
 30
0.0
 11
932.406143
 21
-147.406143
 31
0.0
  0
LINE
  8
0
  6
BYLAYER
 62
     7
 10
924.406143
 20
-129.406143
 30
0.0
 11
932.406143
 21
-129.406143
 31
0.0
  0
LINE
  8
0
  6
BYLAYER
 62
     7
 10
924.406143
 20
-137.406143
 30
0.0
 11
924.406143
 21
-129.406143
 31
0.0
  0
LINE
  8
0
  6
BYLAYER
 62
     7
 10
924.406143
 20
-137.406143
 30
0.0
 11
932.406143
 21
-137.406143
 31
0.0
  0
LINE
  8
0
  6
BYLAYER
 62
     7
 10
932.406143
 20
-129.406143
 30
0.0
 11
932.406143
 21
-137.406143
 31
0.0
  0
LINE
  8
0
  6
BYLAYER
 62
     7
 10
884.406143
 20
-177.406143
 30
0.0
 11
884.406143
 21
-169.406143
 31
0.0
  0
LINE
  8
0
  6
BYLAYER
 62
     7
 10
892.406143
 20
-169.406143
 30
0.0
 11
892.406143
 21
-177.406143
 31
0.0
  0
LINE
  8
0
  6
BYLAYER
 62
     7
 10
894.406143
 20
-169.406143
 30
0.0
 11
894.406143
 21
-177.406143
 31
0.0
  0
LINE
  8
0
  6
BYLAYER
 62
     7
 10
894.406143
 20
-169.406143
 30
0.0
 11
902.244142
 21
-169.406143
 31
0.0
  0
LINE
  8
0
  6
BYLAYER
 62
     7
 10
884.406143
 20
-169.406143
 30
0.0
 11
892.406143
 21
-169.406143
 31
0.0
  0
LINE
  8
0
  6
BYLAYER
 62
     7
 10
894.406143
 20
-177.406143
 30
0.0
 11
902.244142
 21
-177.406143
 31
0.0
  0
LINE
  8
0
  6
BYLAYER
 62
     7
 10
884.406143
 20
-177.406143
 30
0.0
 11
892.406143
 21
-177.406143
 31
0.0
  0
LINE
  8
0
  6
BYLAYER
 62
     7
 10
902.244142
 20
-169.406143
 30
0.0
 11
902.244142
 21
-177.406143
 31
0.0
  0
LINE
  8
0
  6
BYLAYER
 62
     7
 10
904.406143
 20
-167.406143
 30
0.0
 11
904.406143
 21
-159.406143
 31
0.0
  0
LINE
  8
0
  6
BYLAYER
 62
     7
 10
904.406143
 20
-159.406143
 30
0.0
 11
912.406143
 21
-159.406143
 31
0.0
  0
LINE
  8
0
  6
BYLAYER
 62
     7
 10
904.406143
 20
-167.406143
 30
0.0
 11
912.406143
 21
-167.406143
 31
0.0
  0
LINE
  8
0
  6
BYLAYER
 62
     7
 10
912.406143
 20
-159.406143
 30
0.0
 11
912.406143
 21
-167.406143
 31
0.0
  0
LINE
  8
0
  6
BYLAYER
 62
     7
 10
904.406143
 20
-177.406143
 30
0.0
 11
904.406143
 21
-169.406143
 31
0.0
  0
LINE
  8
0
  6
BYLAYER
 62
     7
 10
904.406143
 20
-169.406143
 30
0.0
 11
912.406143
 21
-169.406143
 31
0.0
  0
LINE
  8
0
  6
BYLAYER
 62
     7
 10
904.406143
 20
-177.406143
 30
0.0
 11
912.406143
 21
-177.406143
 31
0.0
  0
LINE
  8
0
  6
BYLAYER
 62
     7
 10
912.406143
 20
-169.406143
 30
0.0
 11
912.406143
 21
-177.406143
 31
0.0
  0
LINE
  8
0
  6
BYLAYER
 62
     7
 10
914.406143
 20
-157.406143
 30
0.0
 11
914.406143
 21
-149.406143
 31
0.0
  0
LINE
  8
0
  6
BYLAYER
 62
     7
 10
914.406143
 20
-149.406143
 30
0.0
 11
922.406143
 21
-149.406143
 31
0.0
  0
LINE
  8
0
  6
BYLAYER
 62
     7
 10
914.406143
 20
-157.406143
 30
0.0
 11
922.406143
 21
-157.406143
 31
0.0
  0
LINE
  8
0
  6
BYLAYER
 62
     7
 10
922.406143
 20
-149.406143
 30
0.0
 11
922.406143
 21
-157.406143
 31
0.0
  0
LINE
  8
0
  6
BYLAYER
 62
     7
 10
914.406143
 20
-167.406143
 30
0.0
 11
914.406143
 21
-159.406143
 31
0.0
  0
LINE
  8
0
  6
BYLAYER
 62
     7
 10
914.406143
 20
-159.406143
 30
0.0
 11
922.406143
 21
-159.406143
 31
0.0
  0
LINE
  8
0
  6
BYLAYER
 62
     7
 10
914.406143
 20
-167.406143
 30
0.0
 11
922.406143
 21
-167.406143
 31
0.0
  0
LINE
  8
0
  6
BYLAYER
 62
     7
 10
922.406143
 20
-159.406143
 30
0.0
 11
922.406143
 21
-167.406143
 31
0.0
  0
LINE
  8
0
  6
BYLAYER
 62
     7
 10
924.406143
 20
-157.406143
 30
0.0
 11
924.406143
 21
-149.406143
 31
0.0
  0
LINE
  8
0
  6
BYLAYER
 62
     7
 10
924.406143
 20
-149.406143
 30
0.0
 11
932.406143
 21
-149.406143
 31
0.0
  0
LINE
  8
0
  6
BYLAYER
 62
     7
 10
924.406143
 20
-157.406143
 30
0.0
 11
932.406143
 21
-157.406143
 31
0.0
  0
LINE
  8
0
  6
BYLAYER
 62
     7
 10
932.406143
 20
-149.406143
 30
0.0
 11
932.406143
 21
-157.406143
 31
0.0
  0
LINE
  8
0
  6
BYLAYER
 62
     7
 10
934.406143
 20
-139.406143
 30
0.0
 11
942.406143
 21
-139.406143
 31
0.0
  0
LINE
  8
0
  6
BYLAYER
 62
     7
 10
934.406143
 20
-147.406143
 30
0.0
 11
934.406143
 21
-139.406143
 31
0.0
  0
LINE
  8
0
  6
BYLAYER
 62
     7
 10
934.406143
 20
-147.406143
 30
0.0
 11
942.406143
 21
-147.406143
 31
0.0
  0
LINE
  8
0
  6
BYLAYER
 62
     7
 10
942.406143
 20
-139.406143
 30
0.0
 11
942.406143
 21
-147.406143
 31
0.0
  0
LINE
  8
0
  6
BYLAYER
 62
     7
 10
934.406143
 20
-129.406143
 30
0.0
 11
942.406143
 21
-129.406143
 31
0.0
  0
LINE
  8
0
  6
BYLAYER
 62
     7
 10
934.406143
 20
-137.406143
 30
0.0
 11
934.406143
 21
-129.406143
 31
0.0
  0
LINE
  8
0
  6
BYLAYER
 62
     7
 10
934.406143
 20
-137.406143
 30
0.0
 11
942.406143
 21
-137.406143
 31
0.0
  0
LINE
  8
0
  6
BYLAYER
 62
     7
 10
942.406143
 20
-129.406143
 30
0.0
 11
942.406143
 21
-137.406143
 31
0.0
  0
LINE
  8
0
  6
BYLAYER
 62
     7
 10
934.406143
 20
-157.406143
 30
0.0
 11
934.406143
 21
-149.406143
 31
0.0
  0
LINE
  8
0
  6
BYLAYER
 62
     7
 10
934.406143
 20
-149.406143
 30
0.0
 11
942.406143
 21
-149.406143
 31
0.0
  0
LINE
  8
0
  6
BYLAYER
 62
     7
 10
934.406143
 20
-157.406143
 30
0.0
 11
942.406143
 21
-157.406143
 31
0.0
  0
LINE
  8
0
  6
BYLAYER
 62
     7
 10
942.406143
 20
-149.406143
 30
0.0
 11
942.406143
 21
-157.406143
 31
0.0
  0
LINE
  8
0
  6
BYLAYER
 62
     7
 10
884.406143
 20
-187.406143
 30
0.0
 11
884.406143
 21
-179.406143
 31
0.0
  0
LINE
  8
0
  6
BYLAYER
 62
     7
 10
892.406143
 20
-179.406143
 30
0.0
 11
892.406143
 21
-187.406143
 31
0.0
  0
LINE
  8
0
  6
BYLAYER
 62
     7
 10
894.406143
 20
-179.406143
 30
0.0
 11
894.406143
 21
-187.406143
 31
0.0
  0
LINE
  8
0
  6
BYLAYER
 62
     7
 10
894.406143
 20
-179.406143
 30
0.0
 11
902.244142
 21
-179.406143
 31
0.0
  0
LINE
  8
0
  6
BYLAYER
 62
     7
 10
884.406143
 20
-179.406143
 30
0.0
 11
892.406143
 21
-179.406143
 31
0.0
  0
LINE
  8
0
  6
BYLAYER
 62
     7
 10
894.406143
 20
-187.406143
 30
0.0
 11
902.244142
 21
-187.406143
 31
0.0
  0
LINE
  8
0
  6
BYLAYER
 62
     7
 10
884.406143
 20
-187.406143
 30
0.0
 11
892.406143
 21
-187.406143
 31
0.0
  0
LINE
  8
0
  6
BYLAYER
 62
     7
 10
902.244142
 20
-179.406143
 30
0.0
 11
902.244142
 21
-187.406143
 31
0.0
  0
LINE
  8
0
  6
BYLAYER
 62
     7
 10
904.406143
 20
-187.406143
 30
0.0
 11
904.406143
 21
-179.406143
 31
0.0
  0
LINE
  8
0
  6
BYLAYER
 62
     7
 10
904.406143
 20
-179.406143
 30
0.0
 11
912.406143
 21
-179.406143
 31
0.0
  0
LINE
  8
0
  6
BYLAYER
 62
     7
 10
904.406143
 20
-187.406143
 30
0.0
 11
912.406143
 21
-187.406143
 31
0.0
  0
LINE
  8
0
  6
BYLAYER
 62
     7
 10
912.406143
 20
-179.406143
 30
0.0
 11
912.406143
 21
-187.406143
 31
0.0
  0
LINE
  8
0
  6
BYLAYER
 62
     7
 10
914.406143
 20
-177.406143
 30
0.0
 11
914.406143
 21
-169.406143
 31
0.0
  0
LINE
  8
0
  6
BYLAYER
 62
     7
 10
914.406143
 20
-169.406143
 30
0.0
 11
922.406143
 21
-169.406143
 31
0.0
  0
LINE
  8
0
  6
BYLAYER
 62
     7
 10
914.406143
 20
-177.406143
 30
0.0
 11
922.406143
 21
-177.406143
 31
0.0
  0
LINE
  8
0
  6
BYLAYER
 62
     7
 10
922.406143
 20
-169.406143
 30
0.0
 11
922.406143
 21
-177.406143
 31
0.0
  0
LINE
  8
0
  6
BYLAYER
 62
     7
 10
924.406143
 20
-167.406143
 30
0.0
 11
924.406143
 21
-159.406143
 31
0.0
  0
LINE
  8
0
  6
BYLAYER
 62
     7
 10
924.406143
 20
-159.406143
 30
0.0
 11
932.406143
 21
-159.406143
 31
0.0
  0
LINE
  8
0
  6
BYLAYER
 62
     7
 10
924.406143
 20
-167.406143
 30
0.0
 11
932.406143
 21
-167.406143
 31
0.0
  0
LINE
  8
0
  6
BYLAYER
 62
     7
 10
932.406143
 20
-159.406143
 30
0.0
 11
932.406143
 21
-167.406143
 31
0.0
  0
LINE
  8
0
  6
BYLAYER
 62
     7
 10
882.406143
 20
-99.406143
 30
0.0
 11
882.406143
 21
-107.406143
 31
0.0
  0
LINE
  8
0
  6
BYLAYER
 62
     7
 10
882.406143
 20
-89.406143
 30
0.0
 11
882.406143
 21
-97.406143
 31
0.0
  0
LINE
  8
0
  6
BYLAYER
 62
     7
 10
874.406143
 20
-97.406143
 30
0.0
 11
874.406143
 21
-89.406143
 31
0.0
  0
LINE
  8
0
  6
BYLAYER
 62
     7
 10
872.406143
 20
-97.406143
 30
0.0
 11
872.406143
 21
-89.406143
 31
0.0
  0
LINE
  8
0
  6
BYLAYER
 62
     7
 10
882.406143
 20
-107.406143
 30
0.0
 11
874.406143
 21
-107.406143
 31
0.0
  0
LINE
  8
0
  6
BYLAYER
 62
     7
 10
882.406143
 20
-99.406143
 30
0.0
 11
874.406143
 21
-99.406143
 31
0.0
  0
LINE
  8
0
  6
BYLAYER
 62
     7
 10
872.406143
 20
-97.406143
 30
0.0
 11
864.568144
 21
-97.406143
 31
0.0
  0
LINE
  8
0
  6
BYLAYER
 62
     7
 10
882.406143
 20
-97.406143
 30
0.0
 11
874.406143
 21
-97.406143
 31
0.0
  0
LINE
  8
0
  6
BYLAYER
 62
     7
 10
872.406143
 20
-89.406143
 30
0.0
 11
864.568144
 21
-89.406143
 31
0.0
  0
LINE
  8
0
  6
BYLAYER
 62
     7
 10
882.406143
 20
-89.406143
 30
0.0
 11
874.406143
 21
-89.406143
 31
0.0
  0
LINE
  8
0
  6
BYLAYER
 62
     7
 10
864.568144
 20
-97.406143
 30
0.0
 11
864.568144
 21
-89.406143
 31
0.0
  0
LINE
  8
0
  6
BYLAYER
 62
     7
 10
874.406143
 20
-107.406143
 30
0.0
 11
874.406143
 21
-99.406143
 31
0.0
  0
LINE
  8
0
  6
BYLAYER
 62
     7
 10
872.406143
 20
-99.406143
 30
0.0
 11
872.406143
 21
-107.406143
 31
0.0
  0
LINE
  8
0
  6
BYLAYER
 62
     7
 10
872.406143
 20
-107.406143
 30
0.0
 11
864.406143
 21
-107.406143
 31
0.0
  0
LINE
  8
0
  6
BYLAYER
 62
     7
 10
872.406143
 20
-99.406143
 30
0.0
 11
864.406143
 21
-99.406143
 31
0.0
  0
LINE
  8
0
  6
BYLAYER
 62
     7
 10
864.406143
 20
-107.406143
 30
0.0
 11
864.406143
 21
-99.406143
 31
0.0
  0
LINE
  8
0
  6
BYLAYER
 62
     7
 10
862.406143
 20
-117.406143
 30
0.0
 11
854.406143
 21
-117.406143
 31
0.0
  0
LINE
  8
0
  6
BYLAYER
 62
     7
 10
862.406143
 20
-99.406143
 30
0.0
 11
862.406143
 21
-107.406143
 31
0.0
  0
LINE
  8
0
  6
BYLAYER
 62
     7
 10
862.406143
 20
-109.406143
 30
0.0
 11
862.406143
 21
-117.406143
 31
0.0
  0
LINE
  8
0
  6
BYLAYER
 62
     7
 10
862.406143
 20
-109.406143
 30
0.0
 11
854.406143
 21
-109.406143
 31
0.0
  0
LINE
  8
0
  6
BYLAYER
 62
     7
 10
862.406143
 20
-107.406143
 30
0.0
 11
854.406143
 21
-107.406143
 31
0.0
  0
LINE
  8
0
  6
BYLAYER
 62
     7
 10
862.406143
 20
-99.406143
 30
0.0
 11
854.406143
 21
-99.406143
 31
0.0
  0
LINE
  8
0
  6
BYLAYER
 62
     7
 10
854.406143
 20
-117.406143
 30
0.0
 11
854.406143
 21
-109.406143
 31
0.0
  0
LINE
  8
0
  6
BYLAYER
 62
     7
 10
854.406143
 20
-107.406143
 30
0.0
 11
854.406143
 21
-99.406143
 31
0.0
  0
LINE
  8
0
  6
BYLAYER
 62
     7
 10
862.406143
 20
-127.406143
 30
0.0
 11
854.406143
 21
-127.406143
 31
0.0
  0
LINE
  8
0
  6
BYLAYER
 62
     7
 10
862.406143
 20
-119.406143
 30
0.0
 11
862.406143
 21
-127.406143
 31
0.0
  0
LINE
  8
0
  6
BYLAYER
 62
     7
 10
862.406143
 20
-119.406143
 30
0.0
 11
854.406143
 21
-119.406143
 31
0.0
  0
LINE
  8
0
  6
BYLAYER
 62
     7
 10
854.406143
 20
-127.406143
 30
0.0
 11
854.406143
 21
-119.406143
 31
0.0
  0
LINE
  8
0
  6
BYLAYER
 62
     7
 10
852.406143
 20
-117.406143
 30
0.0
 11
844.406143
 21
-117.406143
 31
0.0
  0
LINE
  8
0
  6
BYLAYER
 62
     7
 10
852.406143
 20
-109.406143
 30
0.0
 11
852.406143
 21
-117.406143
 31
0.0
  0
LINE
  8
0
  6
BYLAYER
 62
     7
 10
852.406143
 20
-109.406143
 30
0.0
 11
844.406143
 21
-109.406143
 31
0.0
  0
LINE
  8
0
  6
BYLAYER
 62
     7
 10
844.406143
 20
-117.406143
 30
0.0
 11
844.406143
 21
-109.406143
 31
0.0
  0
LINE
  8
0
  6
BYLAYER
 62
     7
 10
852.406143
 20
-127.406143
 30
0.0
 11
844.406143
 21
-127.406143
 31
0.0
  0
LINE
  8
0
  6
BYLAYER
 62
     7
 10
852.406143
 20
-119.406143
 30
0.0
 11
852.406143
 21
-127.406143
 31
0.0
  0
LINE
  8
0
  6
BYLAYER
 62
     7
 10
852.406143
 20
-119.406143
 30
0.0
 11
844.406143
 21
-119.406143
 31
0.0
  0
LINE
  8
0
  6
BYLAYER
 62
     7
 10
844.406143
 20
-127.406143
 30
0.0
 11
844.406143
 21
-119.406143
 31
0.0
  0
LINE
  8
0
  6
BYLAYER
 62
     7
 10
842.406143
 20
-117.406143
 30
0.0
 11
834.406143
 21
-117.406143
 31
0.0
  0
LINE
  8
0
  6
BYLAYER
 62
     7
 10
842.406143
 20
-109.406143
 30
0.0
 11
842.406143
 21
-117.406143
 31
0.0
  0
LINE
  8
0
  6
BYLAYER
 62
     7
 10
842.406143
 20
-109.406143
 30
0.0
 11
834.406143
 21
-109.406143
 31
0.0
  0
LINE
  8
0
  6
BYLAYER
 62
     7
 10
834.406143
 20
-117.406143
 30
0.0
 11
834.406143
 21
-109.406143
 31
0.0
  0
LINE
  8
0
  6
BYLAYER
 62
     7
 10
842.406143
 20
-127.406143
 30
0.0
 11
834.406143
 21
-127.406143
 31
0.0
  0
LINE
  8
0
  6
BYLAYER
 62
     7
 10
842.406143
 20
-119.406143
 30
0.0
 11
842.406143
 21
-127.406143
 31
0.0
  0
LINE
  8
0
  6
BYLAYER
 62
     7
 10
842.406143
 20
-119.406143
 30
0.0
 11
834.406143
 21
-119.406143
 31
0.0
  0
LINE
  8
0
  6
BYLAYER
 62
     7
 10
834.406143
 20
-127.406143
 30
0.0
 11
834.406143
 21
-119.406143
 31
0.0
  0
LINE
  8
0
  6
BYLAYER
 62
     7
 10
882.406143
 20
-79.406143
 30
0.0
 11
882.406143
 21
-87.406143
 31
0.0
  0
LINE
  8
0
  6
BYLAYER
 62
     7
 10
874.406143
 20
-87.406143
 30
0.0
 11
874.406143
 21
-79.406143
 31
0.0
  0
LINE
  8
0
  6
BYLAYER
 62
     7
 10
872.406143
 20
-87.406143
 30
0.0
 11
872.406143
 21
-79.406143
 31
0.0
  0
LINE
  8
0
  6
BYLAYER
 62
     7
 10
872.406143
 20
-87.406143
 30
0.0
 11
864.568144
 21
-87.406143
 31
0.0
  0
LINE
  8
0
  6
BYLAYER
 62
     7
 10
882.406143
 20
-87.406143
 30
0.0
 11
874.406143
 21
-87.406143
 31
0.0
  0
LINE
  8
0
  6
BYLAYER
 62
     7
 10
872.406143
 20
-79.406143
 30
0.0
 11
864.568144
 21
-79.406143
 31
0.0
  0
LINE
  8
0
  6
BYLAYER
 62
     7
 10
882.406143
 20
-79.406143
 30
0.0
 11
874.406143
 21
-79.406143
 31
0.0
  0
LINE
  8
0
  6
BYLAYER
 62
     7
 10
864.568144
 20
-87.406143
 30
0.0
 11
864.568144
 21
-79.406143
 31
0.0
  0
LINE
  8
0
  6
BYLAYER
 62
     7
 10
862.406143
 20
-89.406143
 30
0.0
 11
862.406143
 21
-97.406143
 31
0.0
  0
LINE
  8
0
  6
BYLAYER
 62
     7
 10
862.406143
 20
-97.406143
 30
0.0
 11
854.406143
 21
-97.406143
 31
0.0
  0
LINE
  8
0
  6
BYLAYER
 62
     7
 10
862.406143
 20
-89.406143
 30
0.0
 11
854.406143
 21
-89.406143
 31
0.0
  0
LINE
  8
0
  6
BYLAYER
 62
     7
 10
854.406143
 20
-97.406143
 30
0.0
 11
854.406143
 21
-89.406143
 31
0.0
  0
LINE
  8
0
  6
BYLAYER
 62
     7
 10
862.406143
 20
-79.406143
 30
0.0
 11
862.406143
 21
-87.406143
 31
0.0
  0
LINE
  8
0
  6
BYLAYER
 62
     7
 10
862.406143
 20
-87.406143
 30
0.0
 11
854.406143
 21
-87.406143
 31
0.0
  0
LINE
  8
0
  6
BYLAYER
 62
     7
 10
862.406143
 20
-79.406143
 30
0.0
 11
854.406143
 21
-79.406143
 31
0.0
  0
LINE
  8
0
  6
BYLAYER
 62
     7
 10
854.406143
 20
-87.406143
 30
0.0
 11
854.406143
 21
-79.406143
 31
0.0
  0
LINE
  8
0
  6
BYLAYER
 62
     7
 10
852.406143
 20
-99.406143
 30
0.0
 11
852.406143
 21
-107.406143
 31
0.0
  0
LINE
  8
0
  6
BYLAYER
 62
     7
 10
852.406143
 20
-107.406143
 30
0.0
 11
844.406143
 21
-107.406143
 31
0.0
  0
LINE
  8
0
  6
BYLAYER
 62
     7
 10
852.406143
 20
-99.406143
 30
0.0
 11
844.406143
 21
-99.406143
 31
0.0
  0
LINE
  8
0
  6
BYLAYER
 62
     7
 10
844.406143
 20
-107.406143
 30
0.0
 11
844.406143
 21
-99.406143
 31
0.0
  0
LINE
  8
0
  6
BYLAYER
 62
     7
 10
852.406143
 20
-89.406143
 30
0.0
 11
852.406143
 21
-97.406143
 31
0.0
  0
LINE
  8
0
  6
BYLAYER
 62
     7
 10
852.406143
 20
-97.406143
 30
0.0
 11
844.406143
 21
-97.406143
 31
0.0
  0
LINE
  8
0
  6
BYLAYER
 62
     7
 10
852.406143
 20
-89.406143
 30
0.0
 11
844.406143
 21
-89.406143
 31
0.0
  0
LINE
  8
0
  6
BYLAYER
 62
     7
 10
844.406143
 20
-97.406143
 30
0.0
 11
844.406143
 21
-89.406143
 31
0.0
  0
LINE
  8
0
  6
BYLAYER
 62
     7
 10
842.406143
 20
-99.406143
 30
0.0
 11
842.406143
 21
-107.406143
 31
0.0
  0
LINE
  8
0
  6
BYLAYER
 62
     7
 10
842.406143
 20
-107.406143
 30
0.0
 11
834.406143
 21
-107.406143
 31
0.0
  0
LINE
  8
0
  6
BYLAYER
 62
     7
 10
842.406143
 20
-99.406143
 30
0.0
 11
834.406143
 21
-99.406143
 31
0.0
  0
LINE
  8
0
  6
BYLAYER
 62
     7
 10
834.406143
 20
-107.406143
 30
0.0
 11
834.406143
 21
-99.406143
 31
0.0
  0
LINE
  8
0
  6
BYLAYER
 62
     7
 10
832.406143
 20
-117.406143
 30
0.0
 11
824.406143
 21
-117.406143
 31
0.0
  0
LINE
  8
0
  6
BYLAYER
 62
     7
 10
832.406143
 20
-109.406143
 30
0.0
 11
832.406143
 21
-117.406143
 31
0.0
  0
LINE
  8
0
  6
BYLAYER
 62
     7
 10
832.406143
 20
-109.406143
 30
0.0
 11
824.406143
 21
-109.406143
 31
0.0
  0
LINE
  8
0
  6
BYLAYER
 62
     7
 10
824.406143
 20
-117.406143
 30
0.0
 11
824.406143
 21
-109.406143
 31
0.0
  0
LINE
  8
0
  6
BYLAYER
 62
     7
 10
832.406143
 20
-127.406143
 30
0.0
 11
824.406143
 21
-127.406143
 31
0.0
  0
LINE
  8
0
  6
BYLAYER
 62
     7
 10
832.406143
 20
-119.406143
 30
0.0
 11
832.406143
 21
-127.406143
 31
0.0
  0
LINE
  8
0
  6
BYLAYER
 62
     7
 10
832.406143
 20
-119.406143
 30
0.0
 11
824.406143
 21
-119.406143
 31
0.0
  0
LINE
  8
0
  6
BYLAYER
 62
     7
 10
824.406143
 20
-127.406143
 30
0.0
 11
824.406143
 21
-119.406143
 31
0.0
  0
LINE
  8
0
  6
BYLAYER
 62
     7
 10
832.406143
 20
-99.406143
 30
0.0
 11
832.406143
 21
-107.406143
 31
0.0
  0
LINE
  8
0
  6
BYLAYER
 62
     7
 10
832.406143
 20
-107.406143
 30
0.0
 11
824.406143
 21
-107.406143
 31
0.0
  0
LINE
  8
0
  6
BYLAYER
 62
     7
 10
832.406143
 20
-99.406143
 30
0.0
 11
824.406143
 21
-99.406143
 31
0.0
  0
LINE
  8
0
  6
BYLAYER
 62
     7
 10
824.406143
 20
-107.406143
 30
0.0
 11
824.406143
 21
-99.406143
 31
0.0
  0
LINE
  8
0
  6
BYLAYER
 62
     7
 10
882.406143
 20
-69.406143
 30
0.0
 11
882.406143
 21
-77.406143
 31
0.0
  0
LINE
  8
0
  6
BYLAYER
 62
     7
 10
874.406143
 20
-77.406143
 30
0.0
 11
874.406143
 21
-69.406143
 31
0.0
  0
LINE
  8
0
  6
BYLAYER
 62
     7
 10
872.406143
 20
-77.406143
 30
0.0
 11
872.406143
 21
-69.406143
 31
0.0
  0
LINE
  8
0
  6
BYLAYER
 62
     7
 10
872.406143
 20
-77.406143
 30
0.0
 11
864.568144
 21
-77.406143
 31
0.0
  0
LINE
  8
0
  6
BYLAYER
 62
     7
 10
882.406143
 20
-77.406143
 30
0.0
 11
874.406143
 21
-77.406143
 31
0.0
  0
LINE
  8
0
  6
BYLAYER
 62
     7
 10
872.406143
 20
-69.406143
 30
0.0
 11
864.568144
 21
-69.406143
 31
0.0
  0
LINE
  8
0
  6
BYLAYER
 62
     7
 10
882.406143
 20
-69.406143
 30
0.0
 11
874.406143
 21
-69.406143
 31
0.0
  0
LINE
  8
0
  6
BYLAYER
 62
     7
 10
864.568144
 20
-77.406143
 30
0.0
 11
864.568144
 21
-69.406143
 31
0.0
  0
LINE
  8
0
  6
BYLAYER
 62
     7
 10
862.406143
 20
-69.406143
 30
0.0
 11
862.406143
 21
-77.406143
 31
0.0
  0
LINE
  8
0
  6
BYLAYER
 62
     7
 10
862.406143
 20
-77.406143
 30
0.0
 11
854.406143
 21
-77.406143
 31
0.0
  0
LINE
  8
0
  6
BYLAYER
 62
     7
 10
862.406143
 20
-69.406143
 30
0.0
 11
854.406143
 21
-69.406143
 31
0.0
  0
LINE
  8
0
  6
BYLAYER
 62
     7
 10
854.406143
 20
-77.406143
 30
0.0
 11
854.406143
 21
-69.406143
 31
0.0
  0
LINE
  8
0
  6
BYLAYER
 62
     7
 10
852.406143
 20
-79.406143
 30
0.0
 11
852.406143
 21
-87.406143
 31
0.0
  0
LINE
  8
0
  6
BYLAYER
 62
     7
 10
852.406143
 20
-87.406143
 30
0.0
 11
844.406143
 21
-87.406143
 31
0.0
  0
LINE
  8
0
  6
BYLAYER
 62
     7
 10
852.406143
 20
-79.406143
 30
0.0
 11
844.406143
 21
-79.406143
 31
0.0
  0
LINE
  8
0
  6
BYLAYER
 62
     7
 10
844.406143
 20
-87.406143
 30
0.0
 11
844.406143
 21
-79.406143
 31
0.0
  0
LINE
  8
0
  6
BYLAYER
 62
     7
 10
842.406143
 20
-89.406143
 30
0.0
 11
842.406143
 21
-97.406143
 31
0.0
  0
LINE
  8
0
  6
BYLAYER
 62
     7
 10
842.406143
 20
-97.406143
 30
0.0
 11
834.406143
 21
-97.406143
 31
0.0
  0
LINE
  8
0
  6
BYLAYER
 62
     7
 10
842.406143
 20
-89.406143
 30
0.0
 11
834.406143
 21
-89.406143
 31
0.0
  0
LINE
  8
0
  6
BYLAYER
 62
     7
 10
834.406143
 20
-97.406143
 30
0.0
 11
834.406143
 21
-89.406143
 31
0.0
  0
LINE
  8
0
  6
BYLAYER
 62
     7
 10
882.406143
 20
-157.406143
 30
0.0
 11
882.406143
 21
-149.406143
 31
0.0
  0
LINE
  8
0
  6
BYLAYER
 62
     7
 10
882.406143
 20
-167.406143
 30
0.0
 11
882.406143
 21
-159.406143
 31
0.0
  0
LINE
  8
0
  6
BYLAYER
 62
     7
 10
874.406143
 20
-159.406143
 30
0.0
 11
874.406143
 21
-167.406143
 31
0.0
  0
LINE
  8
0
  6
BYLAYER
 62
     7
 10
872.406143
 20
-159.406143
 30
0.0
 11
872.406143
 21
-167.406143
 31
0.0
  0
LINE
  8
0
  6
BYLAYER
 62
     7
 10
882.406143
 20
-149.406143
 30
0.0
 11
874.406143
 21
-149.406143
 31
0.0
  0
LINE
  8
0
  6
BYLAYER
 62
     7
 10
882.406143
 20
-157.406143
 30
0.0
 11
874.406143
 21
-157.406143
 31
0.0
  0
LINE
  8
0
  6
BYLAYER
 62
     7
 10
872.406143
 20
-159.406143
 30
0.0
 11
864.568144
 21
-159.406143
 31
0.0
  0
LINE
  8
0
  6
BYLAYER
 62
     7
 10
882.406143
 20
-159.406143
 30
0.0
 11
874.406143
 21
-159.406143
 31
0.0
  0
LINE
  8
0
  6
BYLAYER
 62
     7
 10
872.406143
 20
-167.406143
 30
0.0
 11
864.568144
 21
-167.406143
 31
0.0
  0
LINE
  8
0
  6
BYLAYER
 62
     7
 10
882.406143
 20
-167.406143
 30
0.0
 11
874.406143
 21
-167.406143
 31
0.0
  0
LINE
  8
0
  6
BYLAYER
 62
     7
 10
864.568144
 20
-159.406143
 30
0.0
 11
864.568144
 21
-167.406143
 31
0.0
  0
LINE
  8
0
  6
BYLAYER
 62
     7
 10
874.406143
 20
-149.406143
 30
0.0
 11
874.406143
 21
-157.406143
 31
0.0
  0
LINE
  8
0
  6
BYLAYER
 62
     7
 10
872.406143
 20
-157.406143
 30
0.0
 11
872.406143
 21
-149.406143
 31
0.0
  0
LINE
  8
0
  6
BYLAYER
 62
     7
 10
872.406143
 20
-149.406143
 30
0.0
 11
864.406143
 21
-149.406143
 31
0.0
  0
LINE
  8
0
  6
BYLAYER
 62
     7
 10
872.406143
 20
-157.406143
 30
0.0
 11
864.406143
 21
-157.406143
 31
0.0
  0
LINE
  8
0
  6
BYLAYER
 62
     7
 10
864.406143
 20
-149.406143
 30
0.0
 11
864.406143
 21
-157.406143
 31
0.0
  0
LINE
  8
0
  6
BYLAYER
 62
     7
 10
862.406143
 20
-139.406143
 30
0.0
 11
854.406143
 21
-139.406143
 31
0.0
  0
LINE
  8
0
  6
BYLAYER
 62
     7
 10
862.406143
 20
-157.406143
 30
0.0
 11
862.406143
 21
-149.406143
 31
0.0
  0
LINE
  8
0
  6
BYLAYER
 62
     7
 10
862.406143
 20
-147.406143
 30
0.0
 11
862.406143
 21
-139.406143
 31
0.0
  0
LINE
  8
0
  6
BYLAYER
 62
     7
 10
862.406143
 20
-147.406143
 30
0.0
 11
854.406143
 21
-147.406143
 31
0.0
  0
LINE
  8
0
  6
BYLAYER
 62
     7
 10
862.406143
 20
-149.406143
 30
0.0
 11
854.406143
 21
-149.406143
 31
0.0
  0
LINE
  8
0
  6
BYLAYER
 62
     7
 10
862.406143
 20
-157.406143
 30
0.0
 11
854.406143
 21
-157.406143
 31
0.0
  0
LINE
  8
0
  6
BYLAYER
 62
     7
 10
854.406143
 20
-139.406143
 30
0.0
 11
854.406143
 21
-147.406143
 31
0.0
  0
LINE
  8
0
  6
BYLAYER
 62
     7
 10
854.406143
 20
-149.406143
 30
0.0
 11
854.406143
 21
-157.406143
 31
0.0
  0
LINE
  8
0
  6
BYLAYER
 62
     7
 10
862.406143
 20
-129.406143
 30
0.0
 11
854.406143
 21
-129.406143
 31
0.0
  0
LINE
  8
0
  6
BYLAYER
 62
     7
 10
862.406143
 20
-137.406143
 30
0.0
 11
862.406143
 21
-129.406143
 31
0.0
  0
LINE
  8
0
  6
BYLAYER
 62
     7
 10
862.406143
 20
-137.406143
 30
0.0
 11
854.406143
 21
-137.406143
 31
0.0
  0
LINE
  8
0
  6
BYLAYER
 62
     7
 10
854.406143
 20
-129.406143
 30
0.0
 11
854.406143
 21
-137.406143
 31
0.0
  0
LINE
  8
0
  6
BYLAYER
 62
     7
 10
852.406143
 20
-139.406143
 30
0.0
 11
844.406143
 21
-139.406143
 31
0.0
  0
LINE
  8
0
  6
BYLAYER
 62
     7
 10
852.406143
 20
-147.406143
 30
0.0
 11
852.406143
 21
-139.406143
 31
0.0
  0
LINE
  8
0
  6
BYLAYER
 62
     7
 10
852.406143
 20
-147.406143
 30
0.0
 11
844.406143
 21
-147.406143
 31
0.0
  0
LINE
  8
0
  6
BYLAYER
 62
     7
 10
844.406143
 20
-139.406143
 30
0.0
 11
844.406143
 21
-147.406143
 31
0.0
  0
LINE
  8
0
  6
BYLAYER
 62
     7
 10
852.406143
 20
-129.406143
 30
0.0
 11
844.406143
 21
-129.406143
 31
0.0
  0
LINE
  8
0
  6
BYLAYER
 62
     7
 10
852.406143
 20
-137.406143
 30
0.0
 11
852.406143
 21
-129.406143
 31
0.0
  0
LINE
  8
0
  6
BYLAYER
 62
     7
 10
852.406143
 20
-137.406143
 30
0.0
 11
844.406143
 21
-137.406143
 31
0.0
  0
LINE
  8
0
  6
BYLAYER
 62
     7
 10
844.406143
 20
-129.406143
 30
0.0
 11
844.406143
 21
-137.406143
 31
0.0
  0
LINE
  8
0
  6
BYLAYER
 62
     7
 10
842.406143
 20
-139.406143
 30
0.0
 11
834.406143
 21
-139.406143
 31
0.0
  0
LINE
  8
0
  6
BYLAYER
 62
     7
 10
842.406143
 20
-147.406143
 30
0.0
 11
842.406143
 21
-139.406143
 31
0.0
  0
LINE
  8
0
  6
BYLAYER
 62
     7
 10
842.406143
 20
-147.406143
 30
0.0
 11
834.406143
 21
-147.406143
 31
0.0
  0
LINE
  8
0
  6
BYLAYER
 62
     7
 10
834.406143
 20
-139.406143
 30
0.0
 11
834.406143
 21
-147.406143
 31
0.0
  0
LINE
  8
0
  6
BYLAYER
 62
     7
 10
842.406143
 20
-129.406143
 30
0.0
 11
834.406143
 21
-129.406143
 31
0.0
  0
LINE
  8
0
  6
BYLAYER
 62
     7
 10
842.406143
 20
-137.406143
 30
0.0
 11
842.406143
 21
-129.406143
 31
0.0
  0
LINE
  8
0
  6
BYLAYER
 62
     7
 10
842.406143
 20
-137.406143
 30
0.0
 11
834.406143
 21
-137.406143
 31
0.0
  0
LINE
  8
0
  6
BYLAYER
 62
     7
 10
834.406143
 20
-129.406143
 30
0.0
 11
834.406143
 21
-137.406143
 31
0.0
  0
LINE
  8
0
  6
BYLAYER
 62
     7
 10
882.406143
 20
-177.406143
 30
0.0
 11
882.406143
 21
-169.406143
 31
0.0
  0
LINE
  8
0
  6
BYLAYER
 62
     7
 10
874.406143
 20
-169.406143
 30
0.0
 11
874.406143
 21
-177.406143
 31
0.0
  0
LINE
  8
0
  6
BYLAYER
 62
     7
 10
872.406143
 20
-169.406143
 30
0.0
 11
872.406143
 21
-177.406143
 31
0.0
  0
LINE
  8
0
  6
BYLAYER
 62
     7
 10
872.406143
 20
-169.406143
 30
0.0
 11
864.568144
 21
-169.406143
 31
0.0
  0
LINE
  8
0
  6
BYLAYER
 62
     7
 10
882.406143
 20
-169.406143
 30
0.0
 11
874.406143
 21
-169.406143
 31
0.0
  0
LINE
  8
0
  6
BYLAYER
 62
     7
 10
872.406143
 20
-177.406143
 30
0.0
 11
864.568144
 21
-177.406143
 31
0.0
  0
LINE
  8
0
  6
BYLAYER
 62
     7
 10
882.406143
 20
-177.406143
 30
0.0
 11
874.406143
 21
-177.406143
 31
0.0
  0
LINE
  8
0
  6
BYLAYER
 62
     7
 10
864.568144
 20
-169.406143
 30
0.0
 11
864.568144
 21
-177.406143
 31
0.0
  0
LINE
  8
0
  6
BYLAYER
 62
     7
 10
862.406143
 20
-167.406143
 30
0.0
 11
862.406143
 21
-159.406143
 31
0.0
  0
LINE
  8
0
  6
BYLAYER
 62
     7
 10
862.406143
 20
-159.406143
 30
0.0
 11
854.406143
 21
-159.406143
 31
0.0
  0
LINE
  8
0
  6
BYLAYER
 62
     7
 10
862.406143
 20
-167.406143
 30
0.0
 11
854.406143
 21
-167.406143
 31
0.0
  0
LINE
  8
0
  6
BYLAYER
 62
     7
 10
854.406143
 20
-159.406143
 30
0.0
 11
854.406143
 21
-167.406143
 31
0.0
  0
LINE
  8
0
  6
BYLAYER
 62
     7
 10
862.406143
 20
-177.406143
 30
0.0
 11
862.406143
 21
-169.406143
 31
0.0
  0
LINE
  8
0
  6
BYLAYER
 62
     7
 10
862.406143
 20
-169.406143
 30
0.0
 11
854.406143
 21
-169.406143
 31
0.0
  0
LINE
  8
0
  6
BYLAYER
 62
     7
 10
862.406143
 20
-177.406143
 30
0.0
 11
854.406143
 21
-177.406143
 31
0.0
  0
LINE
  8
0
  6
BYLAYER
 62
     7
 10
854.406143
 20
-169.406143
 30
0.0
 11
854.406143
 21
-177.406143
 31
0.0
  0
LINE
  8
0
  6
BYLAYER
 62
     7
 10
852.406143
 20
-157.406143
 30
0.0
 11
852.406143
 21
-149.406143
 31
0.0
  0
LINE
  8
0
  6
BYLAYER
 62
     7
 10
852.406143
 20
-149.406143
 30
0.0
 11
844.406143
 21
-149.406143
 31
0.0
  0
LINE
  8
0
  6
BYLAYER
 62
     7
 10
852.406143
 20
-157.406143
 30
0.0
 11
844.406143
 21
-157.406143
 31
0.0
  0
LINE
  8
0
  6
BYLAYER
 62
     7
 10
844.406143
 20
-149.406143
 30
0.0
 11
844.406143
 21
-157.406143
 31
0.0
  0
LINE
  8
0
  6
BYLAYER
 62
     7
 10
852.406143
 20
-167.406143
 30
0.0
 11
852.406143
 21
-159.406143
 31
0.0
  0
LINE
  8
0
  6
BYLAYER
 62
     7
 10
852.406143
 20
-159.406143
 30
0.0
 11
844.406143
 21
-159.406143
 31
0.0
  0
LINE
  8
0
  6
BYLAYER
 62
     7
 10
852.406143
 20
-167.406143
 30
0.0
 11
844.406143
 21
-167.406143
 31
0.0
  0
LINE
  8
0
  6
BYLAYER
 62
     7
 10
844.406143
 20
-159.406143
 30
0.0
 11
844.406143
 21
-167.406143
 31
0.0
  0
LINE
  8
0
  6
BYLAYER
 62
     7
 10
842.406143
 20
-157.406143
 30
0.0
 11
842.406143
 21
-149.406143
 31
0.0
  0
LINE
  8
0
  6
BYLAYER
 62
     7
 10
842.406143
 20
-149.406143
 30
0.0
 11
834.406143
 21
-149.406143
 31
0.0
  0
LINE
  8
0
  6
BYLAYER
 62
     7
 10
842.406143
 20
-157.406143
 30
0.0
 11
834.406143
 21
-157.406143
 31
0.0
  0
LINE
  8
0
  6
BYLAYER
 62
     7
 10
834.406143
 20
-149.406143
 30
0.0
 11
834.406143
 21
-157.406143
 31
0.0
  0
LINE
  8
0
  6
BYLAYER
 62
     7
 10
832.406143
 20
-139.406143
 30
0.0
 11
824.406143
 21
-139.406143
 31
0.0
  0
LINE
  8
0
  6
BYLAYER
 62
     7
 10
832.406143
 20
-147.406143
 30
0.0
 11
832.406143
 21
-139.406143
 31
0.0
  0
LINE
  8
0
  6
BYLAYER
 62
     7
 10
832.406143
 20
-147.406143
 30
0.0
 11
824.406143
 21
-147.406143
 31
0.0
  0
LINE
  8
0
  6
BYLAYER
 62
     7
 10
824.406143
 20
-139.406143
 30
0.0
 11
824.406143
 21
-147.406143
 31
0.0
  0
LINE
  8
0
  6
BYLAYER
 62
     7
 10
832.406143
 20
-129.406143
 30
0.0
 11
824.406143
 21
-129.406143
 31
0.0
  0
LINE
  8
0
  6
BYLAYER
 62
     7
 10
832.406143
 20
-137.406143
 30
0.0
 11
832.406143
 21
-129.406143
 31
0.0
  0
LINE
  8
0
  6
BYLAYER
 62
     7
 10
832.406143
 20
-137.406143
 30
0.0
 11
824.406143
 21
-137.406143
 31
0.0
  0
LINE
  8
0
  6
BYLAYER
 62
     7
 10
824.406143
 20
-129.406143
 30
0.0
 11
824.406143
 21
-137.406143
 31
0.0
  0
LINE
  8
0
  6
BYLAYER
 62
     7
 10
832.406143
 20
-157.406143
 30
0.0
 11
832.406143
 21
-149.406143
 31
0.0
  0
LINE
  8
0
  6
BYLAYER
 62
     7
 10
832.406143
 20
-149.406143
 30
0.0
 11
824.406143
 21
-149.406143
 31
0.0
  0
LINE
  8
0
  6
BYLAYER
 62
     7
 10
832.406143
 20
-157.406143
 30
0.0
 11
824.406143
 21
-157.406143
 31
0.0
  0
LINE
  8
0
  6
BYLAYER
 62
     7
 10
824.406143
 20
-149.406143
 30
0.0
 11
824.406143
 21
-157.406143
 31
0.0
  0
LINE
  8
0
  6
BYLAYER
 62
     7
 10
882.406143
 20
-187.406143
 30
0.0
 11
882.406143
 21
-179.406143
 31
0.0
  0
LINE
  8
0
  6
BYLAYER
 62
     7
 10
874.406143
 20
-179.406143
 30
0.0
 11
874.406143
 21
-187.406143
 31
0.0
  0
LINE
  8
0
  6
BYLAYER
 62
     7
 10
872.406143
 20
-179.406143
 30
0.0
 11
872.406143
 21
-187.406143
 31
0.0
  0
LINE
  8
0
  6
BYLAYER
 62
     7
 10
872.406143
 20
-179.406143
 30
0.0
 11
864.568144
 21
-179.406143
 31
0.0
  0
LINE
  8
0
  6
BYLAYER
 62
     7
 10
882.406143
 20
-179.406143
 30
0.0
 11
874.406143
 21
-179.406143
 31
0.0
  0
LINE
  8
0
  6
BYLAYER
 62
     7
 10
872.406143
 20
-187.406143
 30
0.0
 11
864.568144
 21
-187.406143
 31
0.0
  0
LINE
  8
0
  6
BYLAYER
 62
     7
 10
882.406143
 20
-187.406143
 30
0.0
 11
874.406143
 21
-187.406143
 31
0.0
  0
LINE
  8
0
  6
BYLAYER
 62
     7
 10
864.568144
 20
-179.406143
 30
0.0
 11
864.568144
 21
-187.406143
 31
0.0
  0
LINE
  8
0
  6
BYLAYER
 62
     7
 10
862.406143
 20
-187.406143
 30
0.0
 11
862.406143
 21
-179.406143
 31
0.0
  0
LINE
  8
0
  6
BYLAYER
 62
     7
 10
862.406143
 20
-179.406143
 30
0.0
 11
854.406143
 21
-179.406143
 31
0.0
  0
LINE
  8
0
  6
BYLAYER
 62
     7
 10
862.406143
 20
-187.406143
 30
0.0
 11
854.406143
 21
-187.406143
 31
0.0
  0
LINE
  8
0
  6
BYLAYER
 62
     7
 10
854.406143
 20
-179.406143
 30
0.0
 11
854.406143
 21
-187.406143
 31
0.0
  0
LINE
  8
0
  6
BYLAYER
 62
     7
 10
852.406143
 20
-177.406143
 30
0.0
 11
852.406143
 21
-169.406143
 31
0.0
  0
LINE
  8
0
  6
BYLAYER
 62
     7
 10
852.406143
 20
-169.406143
 30
0.0
 11
844.406143
 21
-169.406143
 31
0.0
  0
LINE
  8
0
  6
BYLAYER
 62
     7
 10
852.406143
 20
-177.406143
 30
0.0
 11
844.406143
 21
-177.406143
 31
0.0
  0
LINE
  8
0
  6
BYLAYER
 62
     7
 10
844.406143
 20
-169.406143
 30
0.0
 11
844.406143
 21
-177.406143
 31
0.0
  0
LINE
  8
0
  6
BYLAYER
 62
     7
 10
842.406143
 20
-167.406143
 30
0.0
 11
842.406143
 21
-159.406143
 31
0.0
  0
LINE
  8
0
  6
BYLAYER
 62
     7
 10
842.406143
 20
-159.406143
 30
0.0
 11
834.406143
 21
-159.406143
 31
0.0
  0
LINE
  8
0
  6
BYLAYER
 62
     7
 10
842.406143
 20
-167.406143
 30
0.0
 11
834.406143
 21
-167.406143
 31
0.0
  0
LINE
  8
0
  6
BYLAYER
 62
     7
 10
834.406143
 20
-159.406143
 30
0.0
 11
834.406143
 21
-167.406143
 31
0.0
  0
CIRCLE
  8
0
  6
BYLAYER
 62
     7
 10
883.406143
 20
-128.406143
 30
0.0
 40
71.999936
  0
CIRCLE
  8
0
  6
BYLAYER
 62
     7
 10
883.406143
 20
-128.406143
 30
0.0
 40
86.549921
  0
CIRCLE
  8
0
  6
BYLAYER
 62
     7
 10
883.406143
 20
-128.406143
 30
0.0
 40
70.0
  0
LINE
  8
0
  6
BYLAYER
 62
     7
 10
839.906036
 20
-421.906174
 30
0.0
 11
839.906036
 21
-400.406174
 31
0.0
  0
ARC
  8
0
  6
BYLAYER
 62
     7
 10
838.406036
 20
-421.906174
 30
0.0
 40
1.5
 50
270.0
 51
360.0
  0
ARC
  8
0
  6
BYLAYER
 62
     7
 10
841.406036
 20
-400.406174
 30
0.0
 40
1.5
 50
90.0
 51
180.0
  0
LINE
  8
0
  6
BYLAYER
 62
     7
 10
883.406036
 20
-398.906174
 30
0.0
 11
841.406036
 21
-398.906174
 31
0.0
  0
LINE
  8
0
  6
BYLAYER
 62
     7
 10
845.278277
 20
-421.906174
 30
0.0
 11
845.278277
 21
-400.406174
 31
0.0
  0
ARC
  8
0
  6
BYLAYER
 62
     7
 10
843.778277
 20
-421.906174
 30
0.0
 40
1.5
 50
270.0
 51
360.0
  0
ARC
  8
0
  6
BYLAYER
 62
     7
 10
846.778277
 20
-400.406174
 30
0.0
 40
1.5
 50
90.0
 51
180.0
  0
LINE
  8
0
  6
BYLAYER
 62
     7
 10
870.312383
 20
-398.906174
 30
0.0
 11
870.804930
 21
-413.010872
 31
0.0
  0
ARC
  8
0
  6
BYLAYER
 62
     7
 10
873.803102
 20
-412.906174
 30
0.0
 40
3.0
 50
182.0
 51
270.0
  0
LINE
  8
0
  6
BYLAYER
 62
     7
 10
881.007142
 20
-413.010872
 30
0.0
 11
881.499689
 21
-398.906174
 31
0.0
  0
ARC
  8
0
  6
BYLAYER
 62
     7
 10
878.008970
 20
-412.906174
 30
0.0
 40
3.0
 50
270.0
 51
358.0
  0
LINE
  8
0
  6
BYLAYER
 62
     7
 10
873.803102
 20
-415.906174
 30
0.0
 11
878.008970
 21
-415.906174
 31
0.0
  0
LINE
  8
0
  6
BYLAYER
 62
     7
 10
855.312383
 20
-398.906174
 30
0.0
 11
855.804930
 21
-413.010872
 31
0.0
  0
ARC
  8
0
  6
BYLAYER
 62
     7
 10
858.803102
 20
-412.906174
 30
0.0
 40
3.0
 50
182.0
 51
270.0
  0
LINE
  8
0
  6
BYLAYER
 62
     7
 10
866.007142
 20
-413.010872
 30
0.0
 11
866.499689
 21
-398.906174
 31
0.0
  0
ARC
  8
0
  6
BYLAYER
 62
     7
 10
863.008970
 20
-412.906174
 30
0.0
 40
3.0
 50
270.0
 51
358.0
  0
LINE
  8
0
  6
BYLAYER
 62
     7
 10
858.803102
 20
-415.906174
 30
0.0
 11
863.008970
 21
-415.906174
 31
0.0
  0
LINE
  8
0
  6
BYLAYER
 62
     7
 10
855.347304
 20
-399.906174
 30
0.0
 11
866.464768
 21
-399.906174
 31
0.0
  0
LINE
  8
0
  6
BYLAYER
 62
     7
 10
870.347304
 20
-399.906174
 30
0.0
 11
881.464768
 21
-399.906174
 31
0.0
  0
LINE
  8
0
  6
BYLAYER
 62
     7
 10
883.406036
 20
-423.406174
 30
0.0
 11
835.906036
 21
-423.406174
 31
0.0
  0
ARC
  8
0
  6
BYLAYER
 62
     7
 10
835.906036
 20
-424.906174
 30
0.0
 40
1.5
 50
90.0
 51
180.0
  0
LINE
  8
0
  6
BYLAYER
 62
     7
 10
834.406036
 20
-430.406174
 30
0.0
 11
834.406036
 21
-424.906174
 31
0.0
  0
LINE
  8
0
  6
BYLAYER
 62
     7
 10
834.406036
 20
-430.406174
 30
0.0
 11
883.406036
 21
-430.406174
 31
0.0
  0
LINE
  8
0
  6
BYLAYER
 62
     7
 10
926.906036
 20
-421.906174
 30
0.0
 11
926.906036
 21
-400.406174
 31
0.0
  0
ARC
  8
0
  6
BYLAYER
 62
     7
 10
928.406036
 20
-421.906174
 30
0.0
 40
1.5
 50
180.000000
 51
270.000000
  0
ARC
  8
0
  6
BYLAYER
 62
     7
 10
925.406036
 20
-400.406174
 30
0.0
 40
1.5
 50
0.0
 51
90.0
  0
LINE
  8
0
  6
BYLAYER
 62
     7
 10
883.406036
 20
-398.906174
 30
0.0
 11
925.406036
 21
-398.906174
 31
0.0
  0
LINE
  8
0
  6
BYLAYER
 62
     7
 10
921.533795
 20
-421.906174
 30
0.0
 11
921.533795
 21
-400.406174
 31
0.0
  0
ARC
  8
0
  6
BYLAYER
 62
     7
 10
923.033795
 20
-421.906174
 30
0.0
 40
1.5
 50
180.000000
 51
270.000000
  0
ARC
  8
0
  6
BYLAYER
 62
     7
 10
920.033795
 20
-400.406174
 30
0.0
 40
1.5
 50
0.0
 51
90.0
  0
LINE
  8
0
  6
BYLAYER
 62
     7
 10
896.499689
 20
-398.906174
 30
0.0
 11
896.007142
 21
-413.010872
 31
0.0
  0
ARC
  8
0
  6
BYLAYER
 62
     7
 10
893.008970
 20
-412.906174
 30
0.0
 40
3.0
 50
270.0
 51
358.0
  0
LINE
  8
0
  6
BYLAYER
 62
     7
 10
885.804930
 20
-413.010872
 30
0.0
 11
885.312383
 21
-398.906174
 31
0.0
  0
ARC
  8
0
  6
BYLAYER
 62
     7
 10
888.803102
 20
-412.906174
 30
0.0
 40
3.0
 50
182.0
 51
270.0
  0
LINE
  8
0
  6
BYLAYER
 62
     7
 10
893.008970
 20
-415.906174
 30
0.0
 11
888.803102
 21
-415.906174
 31
0.0
  0
LINE
  8
0
  6
BYLAYER
 62
     7
 10
911.499689
 20
-398.906174
 30
0.0
 11
911.007142
 21
-413.010872
 31
0.0
  0
ARC
  8
0
  6
BYLAYER
 62
     7
 10
908.008970
 20
-412.906174
 30
0.0
 40
3.0
 50
270.0
 51
358.0
  0
LINE
  8
0
  6
BYLAYER
 62
     7
 10
900.804930
 20
-413.010872
 30
0.0
 11
900.312383
 21
-398.906174
 31
0.0
  0
ARC
  8
0
  6
BYLAYER
 62
     7
 10
903.803102
 20
-412.906174
 30
0.0
 40
3.0
 50
182.0
 51
270.0
  0
LINE
  8
0
  6
BYLAYER
 62
     7
 10
908.008970
 20
-415.906174
 30
0.0
 11
903.803102
 21
-415.906174
 31
0.0
  0
LINE
  8
0
  6
BYLAYER
 62
     7
 10
911.464768
 20
-399.906174
 30
0.0
 11
900.347304
 21
-399.906174
 31
0.0
  0
LINE
  8
0
  6
BYLAYER
 62
     7
 10
896.464768
 20
-399.906174
 30
0.0
 11
885.347304
 21
-399.906174
 31
0.0
  0
LINE
  8
0
  6
BYLAYER
 62
     7
 10
883.406036
 20
-423.406174
 30
0.0
 11
930.906036
 21
-423.406174
 31
0.0
  0
ARC
  8
0
  6
BYLAYER
 62
     7
 10
930.906036
 20
-424.906174
 30
0.0
 40
1.5
 50
0.0
 51
90.0
  0
LINE
  8
0
  6
BYLAYER
 62
     7
 10
932.406036
 20
-432.406174
 30
0.0
 11
932.406036
 21
-424.906174
 31
0.0
  0
LINE
  8
0
  6
BYLAYER
 62
     7
 10
932.406036
 20
-430.406174
 30
0.0
 11
883.406036
 21
-430.406174
 31
0.0
  0
LINE
  8
0
  6
BYLAYER
 62
     7
 10
834.406036
 20
-432.406174
 30
0.0
 11
883.406020
 21
-432.406174
 31
0.0
  0
LINE
  8
0
  6
BYLAYER
 62
     7
 10
834.406036
 20
-437.906174
 30
0.0
 11
837.406036
 21
-443.102341
 31
0.0
  0
LINE
  8
0
  6
BYLAYER
 62
     7
 10
932.406020
 20
-432.406052
 30
0.0
 11
883.406020
 21
-432.406174
 31
0.0
  0
LINE
  8
0
  6
BYLAYER
 62
     7
 10
932.406020
 20
-437.906052
 30
0.0
 11
929.406020
 21
-443.102219
 31
0.0
  0
LINE
  8
0
  6
BYLAYER
 62
     7
 10
837.406036
 20
-443.102341
 30
0.0
 11
837.406036
 21
-451.906204
 31
0.0
  0
ARC
  8
0
  6
BYLAYER
 62
     7
 10
835.406036
 20
-458.406204
 30
0.0
 40
1.000000
 50
180.000000
 51
269.999995
  0
LINE
  8
0
  6
BYLAYER
 62
     7
 10
836.406036
 20
-459.406204
 30
0.0
 11
835.406036
 21
-459.406204
 31
0.0
  0
ARC
  8
0
  6
BYLAYER
 62
     7
 10
836.406036
 20
-460.406204
 30
0.0
 40
1.000000
 50
0.0
 51
90.000008
  0
LINE
  8
0
  6
BYLAYER
 62
     7
 10
834.406036
 20
-432.406174
 30
0.0
 11
834.406036
 21
-458.406204
 31
0.0
  0
ARC
  8
0
  6
BYLAYER
 62
     7
 10
931.406051
 20
-458.406082
 30
0.0
 40
1.0
 50
270.0
 51
360.000009
  0
LINE
  8
0
  6
BYLAYER
 62
     7
 10
931.406051
 20
-459.406082
 30
0.0
 11
930.406051
 21
-459.406082
 31
0.0
  0
ARC
  8
0
  6
BYLAYER
 62
     7
 10
930.406051
 20
-460.406082
 30
0.0
 40
1.000000
 50
90.0
 51
179.999996
  0
LINE
  8
0
  6
BYLAYER
 62
     7
 10
932.406020
 20
-432.406052
 30
0.0
 11
932.406051
 21
-458.406082
 31
0.0
  0
ARC
  8
0
  6
BYLAYER
 62
     7
 10
965.417449
 20
-511.606064
 30
0.0
 40
0.799986
 50
272.000044
 51
447.999761
  0
ARC
  8
0
  6
BYLAYER
 62
     7
 10
962.330474
 20
-500.406082
 30
0.0
 40
0.799925
 50
272.000044
 51
447.999761
  0
ARC
  8
0
  6
BYLAYER
 62
     7
 10
957.461578
 20
-489.206009
 30
0.0
 40
0.800049
 50
272.000044
 51
447.999761
  0
ARC
  8
0
  6
BYLAYER
 62
     7
 10
950.428314
 20
-478.006058
 30
0.0
 40
0.800047
 50
272.000044
 51
447.999761
  0
LINE
  8
0
  6
BYLAYER
 62
     7
 10
965.445342
 20
-512.405563
 30
0.0
 11
954.968132
 21
-512.771431
 31
0.0
  0
LINE
  8
0
  6
BYLAYER
 62
     7
 10
965.445342
 20
-510.806564
 30
0.0
 11
954.413960
 21
-510.421358
 31
0.0
  0
LINE
  8
0
  6
BYLAYER
 62
     7
 10
962.358367
 20
-501.205521
 30
0.0
 11
951.568073
 21
-501.582388
 31
0.0
  0
LINE
  8
0
  6
BYLAYER
 62
     7
 10
950.579677
 20
-499.195207
 30
0.0
 11
962.358306
 21
-499.606522
 31
0.0
  0
LINE
  8
0
  6
BYLAYER
 62
     7
 10
957.489471
 20
-490.005569
 30
0.0
 11
946.028336
 21
-490.405835
 31
0.0
  0
LINE
  8
0
  6
BYLAYER
 62
     7
 10
944.471868
 20
-487.951975
 30
0.0
 11
957.489471
 21
-488.406570
 31
0.0
  0
ARC
  8
0
  6
BYLAYER
 62
     7
 10
804.481841
 20
-500.406204
 30
0.0
 40
0.800049
 50
92.000360
 51
268.000039
  0
ARC
  8
0
  6
BYLAYER
 62
     7
 10
809.350616
 20
-489.206253
 30
0.0
 40
0.799927
 50
92.000360
 51
268.000039
  0
ARC
  8
0
  6
BYLAYER
 62
     7
 10
816.383941
 20
-478.006180
 30
0.0
 40
0.800049
 50
92.000360
 51
268.000039
  0
ARC
  8
0
  6
BYLAYER
 62
     7
 10
962.330535
 20
-556.406052
 30
0.0
 40
0.800016
 50
272.000044
 51
448.000355
  0
ARC
  8
0
  6
BYLAYER
 62
     7
 10
957.461700
 20
-567.606064
 30
0.0
 40
0.800019
 50
272.000044
 51
448.000355
  0
ARC
  8
0
  6
BYLAYER
 62
     7
 10
950.428436
 20
-578.806107
 30
0.0
 40
0.799986
 50
272.000044
 51
448.000355
  0
LINE
  8
0
  6
BYLAYER
 62
     7
 10
962.358428
 20
-555.606552
 30
0.0
 11
951.568116
 21
-555.229829
 31
0.0
  0
LINE
  8
0
  6
BYLAYER
 62
     7
 10
950.579747
 20
-557.616956
 30
0.0
 11
962.358428
 21
-557.205551
 31
0.0
  0
LINE
  8
0
  6
BYLAYER
 62
     7
 10
957.489593
 20
-566.806564
 30
0.0
 11
946.028428
 21
-566.406328
 31
0.0
  0
LINE
  8
0
  6
BYLAYER
 62
     7
 10
944.471948
 20
-568.860217
 30
0.0
 11
957.489593
 21
-568.405563
 31
0.0
  0
LINE
  8
0
  6
BYLAYER
 62
     7
 10
950.456329
 20
-578.006607
 30
0.0
 11
943.406143
 21
-577.760396
 31
0.0
  0
ARC
  8
0
  6
BYLAYER
 62
     7
 10
809.350738
 20
-567.606247
 30
0.0
 40
0.800019
 50
91.999766
 51
268.000039
  0
ARC
  8
0
  6
BYLAYER
 62
     7
 10
816.384002
 20
-578.806198
 30
0.0
 40
0.799986
 50
91.999766
 51
268.000039
  0
LINE
  8
0
  6
BYLAYER
 62
     7
 10
822.340418
 20
-568.860311
 30
0.0
 11
809.322845
 21
-568.405746
 31
0.0
  0
LINE
  8
0
  6
BYLAYER
 62
     7
 10
816.356109
 20
-578.006699
 30
0.0
 11
823.406143
 21
-577.760492
 31
0.0
  0
LINE
  8
0
  6
BYLAYER
 62
     7
 10
954.437774
 20
-544.026108
 30
0.0
 11
954.459319
 21
-544.026871
 31
0.0
  0
ARC
  8
0
  6
BYLAYER
 62
     7
 10
965.717437
 20
-509.588913
 30
0.0
 40
0.5
 50
0.0
 51
88.000157
  0
LINE
  8
0
  6
BYLAYER
 62
     7
 10
966.217437
 20
-509.588913
 30
0.0
 11
966.217437
 21
-513.623215
 31
0.0
  0
ARC
  8
0
  6
BYLAYER
 62
     7
 10
965.717437
 20
-513.623215
 30
0.0
 40
0.500000
 50
271.999853
 51
360.000000
  0
LINE
  8
0
  6
BYLAYER
 62
     7
 10
953.949390
 20
-508.677666
 30
0.0
 11
965.734832
 21
-509.089218
 31
0.0
  0
LINE
  8
0
  6
BYLAYER
 62
     7
 10
956.251717
 20
-514.454071
 30
0.0
 11
965.734832
 21
-514.122910
 31
0.0
  0
LINE
  8
0
  6
BYLAYER
 62
     7
 10
823.406143
 20
-579.851914
 30
0.0
 11
816.356109
 21
-579.605698
 31
0.0
  0
LINE
  8
0
  6
BYLAYER
 62
     7
 10
965.445342
 20
-546.005722
 30
0.0
 11
954.413975
 21
-546.390927
 31
0.0
  0
LINE
  8
0
  6
BYLAYER
 62
     7
 10
965.445342
 20
-544.406723
 30
0.0
 11
955.215802
 21
-544.049504
 31
0.0
  0
ARC
  8
0
  6
BYLAYER
 62
     7
 10
965.417449
 20
-545.206223
 30
0.0
 40
0.799986
 50
272.000235
 51
447.999959
  0
ARC
  8
0
  6
BYLAYER
 62
     7
 10
801.394866
 20
-545.206223
 30
0.0
 40
0.799986
 50
92.000039
 51
267.999766
  0
ARC
  8
0
  6
BYLAYER
 62
     7
 10
801.752166
 20
-552.904922
 30
0.0
 40
0.499984
 50
93.000095
 51
196.700842
  0
ARC
  8
0
  6
BYLAYER
 62
     7
 10
883.406143
 20
-528.406143
 30
0.0
 40
85.750053
 50
196.700910
 51
201.724692
  0
ARC
  8
0
  6
BYLAYER
 62
     7
 10
804.211212
 20
-559.961166
 30
0.0
 40
0.500015
 50
201.724788
 51
266.999908
  0
ARC
  8
0
  6
BYLAYER
 62
     7
 10
965.060088
 20
-552.904922
 30
0.0
 40
0.499983
 50
343.299378
 51
446.999903
  0
ARC
  8
0
  6
BYLAYER
 62
     7
 10
883.406143
 20
-528.406143
 30
0.0
 40
85.749992
 50
338.275309
 51
343.299077
  0
ARC
  8
0
  6
BYLAYER
 62
     7
 10
962.601104
 20
-559.961166
 30
0.0
 40
0.499997
 50
273.000093
 51
338.275555
  0
LINE
  8
0
  6
BYLAYER
 62
     7
 10
952.832376
 20
-551.763432
 30
0.0
 11
965.086273
 21
-552.405624
 31
0.0
  0
LINE
  8
0
  6
BYLAYER
 62
     7
 10
948.915677
 20
-561.179085
 30
0.0
 11
962.627288
 21
-560.460495
 31
0.0
  0
ARC
  8
0
  6
BYLAYER
 62
     7
 10
801.078643
 20
-509.339096
 30
0.0
 40
0.500000
 50
92.000715
 51
180.000005
  0
LINE
  8
0
  6
BYLAYER
 62
     7
 10
800.578643
 20
-513.873398
 30
0.0
 11
800.578643
 21
-509.339096
 31
0.0
  0
ARC
  8
0
  6
BYLAYER
 62
     7
 10
801.078643
 20
-513.873398
 30
0.0
 40
0.5
 50
180.000000
 51
267.999269
  0
LINE
  8
0
  6
BYLAYER
 62
     7
 10
831.545009
 20
-476.676217
 30
0.0
 11
816.355987
 21
-477.206741
 31
0.0
  0
LINE
  8
0
  6
BYLAYER
 62
     7
 10
829.098673
 20
-479.250663
 30
0.0
 11
816.355987
 21
-478.805740
 31
0.0
  0
LINE
  8
0
  6
BYLAYER
 62
     7
 10
837.406036
 20
-451.906204
 30
0.0
 11
837.406036
 21
-471.401295
 31
0.0
  0
LINE
  8
0
  6
BYLAYER
 62
     7
 10
822.340337
 20
-487.952097
 30
0.0
 11
809.322784
 21
-488.406693
 31
0.0
  0
LINE
  8
0
  6
BYLAYER
 62
     7
 10
809.322784
 20
-490.005692
 30
0.0
 11
820.783841
 21
-490.406015
 31
0.0
  0
LINE
  8
0
  6
BYLAYER
 62
     7
 10
816.232528
 20
-499.195392
 30
0.0
 11
804.453887
 21
-499.606766
 31
0.0
  0
LINE
  8
0
  6
BYLAYER
 62
     7
 10
804.453887
 20
-501.205765
 30
0.0
 11
815.244175
 21
-501.582485
 31
0.0
  0
LINE
  8
0
  6
BYLAYER
 62
     7
 10
801.061187
 20
-508.839401
 30
0.0
 11
812.934107
 21
-508.424785
 31
0.0
  0
LINE
  8
0
  6
BYLAYER
 62
     7
 10
801.061187
 20
-514.373093
 30
0.0
 11
810.369405
 21
-514.698157
 31
0.0
  0
LINE
  8
0
  6
BYLAYER
 62
     7
 10
801.366973
 20
-544.406723
 30
0.0
 11
811.844154
 21
-544.040856
 31
0.0
  0
LINE
  8
0
  6
BYLAYER
 62
     7
 10
801.366973
 20
-546.005722
 30
0.0
 11
812.398326
 21
-546.390927
 31
0.0
  0
LINE
  8
0
  6
BYLAYER
 62
     7
 10
817.896629
 20
-561.179090
 30
0.0
 11
804.185027
 21
-560.460495
 31
0.0
  0
LINE
  8
0
  6
BYLAYER
 62
     7
 10
813.979924
 20
-551.763426
 30
0.0
 11
801.725982
 21
-552.405624
 31
0.0
  0
LINE
  8
0
  6
BYLAYER
 62
     7
 10
820.783933
 20
-566.406424
 30
0.0
 11
809.322845
 21
-566.806747
 31
0.0
  0
LINE
  8
0
  6
BYLAYER
 62
     7
 10
950.456207
 20
-478.805618
 30
0.0
 11
937.713607
 21
-479.250656
 31
0.0
  0
ARC
  8
0
  6
BYLAYER
 62
     7
 10
804.481780
 20
-556.406052
 30
0.0
 40
0.800016
 50
91.999643
 51
267.999957
  0
LINE
  8
0
  6
BYLAYER
 62
     7
 10
804.453887
 20
-555.606552
 30
0.0
 11
815.244186
 21
-555.229830
 31
0.0
  0
LINE
  8
0
  6
BYLAYER
 62
     7
 10
816.232555
 20
-557.616956
 30
0.0
 11
804.453887
 21
-557.205551
 31
0.0
  0
ARC
  8
0
  6
BYLAYER
 62
     7
 10
801.394866
 20
-511.606064
 30
0.0
 40
0.799986
 50
92.000237
 51
267.999957
  0
LINE
  8
0
  6
BYLAYER
 62
     7
 10
801.366973
 20
-512.405563
 30
0.0
 11
811.596488
 21
-512.762781
 31
0.0
  0
LINE
  8
0
  6
BYLAYER
 62
     7
 10
801.366973
 20
-510.806564
 30
0.0
 11
812.388808
 21
-510.421692
 31
0.0
  0
LINE
  8
0
  6
BYLAYER
 62
     7
 10
943.406143
 20
-579.851829
 30
0.0
 11
950.456329
 21
-579.605606
 31
0.0
  0
LINE
  8
0
  6
BYLAYER
 62
     7
 10
950.456207
 20
-477.206619
 30
0.0
 11
935.267246
 21
-476.676186
 31
0.0
  0
LINE
  8
0
  6
BYLAYER
 62
     7
 10
929.406020
 20
-443.102219
 30
0.0
 11
929.406047
 21
-471.401132
 31
0.0
  0
LINE
  8
0
  6
BYLAYER
 62
     7
 10
834.406036
 20
-430.406174
 30
0.0
 11
834.406036
 21
-432.406174
 31
0.0
  0
LINE
  8
0
  6
BYLAYER
 62
     7
 10
834.406036
 20
-432.406174
 30
0.0
 11
932.406036
 21
-432.406174
 31
0.0
  0
ARC
  8
0
  6
BYLAYER
 62
     7
 10
890.335159
 20
-445.194137
 30
0.0
 40
2.000001
 50
14.999814
 51
85.239989
  0
ARC
  8
0
  6
BYLAYER
 62
     7
 10
883.406143
 20
-528.406143
 30
0.0
 40
85.500008
 50
85.239989
 51
94.760009
  0
ARC
  8
0
  6
BYLAYER
 62
     7
 10
876.477127
 20
-445.194137
 30
0.0
 40
2.000001
 50
94.760002
 51
165.000186
  0
ARC
  8
0
  6
BYLAYER
 62
     7
 10
966.618179
 20
-535.335159
 30
0.0
 40
2.000001
 50
284.999806
 51
355.239997
  0
ARC
  8
0
  6
BYLAYER
 62
     7
 10
966.618179
 20
-521.477127
 30
0.0
 40
2.000001
 50
4.759995
 51
75.000176
  0
ARC
  8
0
  6
BYLAYER
 62
     7
 10
800.194137
 20
-521.477127
 30
0.0
 40
2.000001
 50
104.999815
 51
175.239978
  0
ARC
  8
0
  6
BYLAYER
 62
     7
 10
800.194137
 20
-535.335159
 30
0.0
 40
2.000001
 50
184.760005
 51
255.000168
  0
LINE
  8
0
  6
BYLAYER
 62
     7
 10
892.267013
 20
-444.676498
 30
0.0
 11
893.742019
 21
-450.181228
 31
0.0
  0
ARC
  8
0
  6
BYLAYER
 62
     7
 10
903.401260
 20
-447.593033
 30
0.0
 40
9.999995
 50
194.999961
 51
256.102697
  0
LINE
  8
0
  6
BYLAYER
 62
     7
 10
874.545273
 20
-444.676498
 30
0.0
 11
873.070267
 21
-450.181228
 31
0.0
  0
ARC
  8
0
  6
BYLAYER
 62
     7
 10
863.411026
 20
-447.593033
 30
0.0
 40
9.999999
 50
283.897223
 51
344.999958
  0
LINE
  8
0
  6
BYLAYER
 62
     7
 10
967.135757
 20
-519.545273
 30
0.0
 11
961.631058
 21
-518.070297
 31
0.0
  0
ARC
  8
0
  6
BYLAYER
 62
     7
 10
883.406143
 20
-528.406143
 30
0.0
 40
73.25
 50
13.897258
 51
76.102746
  0
ARC
  8
0
  6
BYLAYER
 62
     7
 10
964.219253
 20
-508.411026
 30
0.0
 40
10.000001
 50
193.897241
 51
254.999976
  0
LINE
  8
0
  6
BYLAYER
 62
     7
 10
967.135757
 20
-537.267013
 30
0.0
 11
961.631058
 21
-538.742004
 31
0.0
  0
ARC
  8
0
  6
BYLAYER
 62
     7
 10
964.219253
 20
-548.401275
 30
0.0
 40
10.000002
 50
105.000027
 51
166.102728
  0
LINE
  8
0
  6
BYLAYER
 62
     7
 10
799.676498
 20
-537.267013
 30
0.0
 11
805.181228
 21
-538.742004
 31
0.0
  0
ARC
  8
0
  6
BYLAYER
 62
     7
 10
802.593033
 20
-548.401260
 30
0.0
 40
10.0
 50
13.897258
 51
75.000012
  0
LINE
  8
0
  6
BYLAYER
 62
     7
 10
799.676498
 20
-519.545273
 30
0.0
 11
805.181228
 21
-518.070297
 31
0.0
  0
ARC
  8
0
  6
BYLAYER
 62
     7
 10
883.406143
 20
-528.406143
 30
0.0
 40
73.25
 50
103.897259
 51
166.102742
  0
ARC
  8
0
  6
BYLAYER
 62
     7
 10
802.593033
 20
-508.411026
 30
0.0
 40
9.999999
 50
284.999998
 51
346.102733
  0
ARC
  8
0
  6
BYLAYER
 62
     1
 10
883.406143
 20
-528.406143
 30
0.0
 40
70.0
 50
38.944804
 51
141.055196
  0
ARC
  8
0
  6
BYLAYER
 62
     1
 10
883.406143
 20
-528.406143
 30
0.0
 40
70.0
 50
328.997281
 51
396.869814
  0
ARC
  8
0
  6
BYLAYER
 62
     1
 10
883.406143
 20
-528.406143
 30
0.0
 40
70.0
 50
143.130102
 51
211.002719
  0
ARC
  8
0
  6
BYLAYER
 62
     7
 10
883.406143
 20
-528.406143
 30
0.0
 40
70.875000
 50
38.375403
 51
141.624597
  0
ARC
  8
0
  6
BYLAYER
 62
     7
 10
883.406143
 20
-528.406143
 30
0.0
 40
70.875000
 50
327.839555
 51
397.802869
  0
ARC
  8
0
  6
BYLAYER
 62
     7
 10
883.406143
 20
-528.406143
 30
0.0
 40
70.875000
 50
142.197050
 51
212.160445
  0
ARC
  8
0
  6
BYLAYER
 62
     7
 10
883.406143
 20
-528.406143
 30
0.0
 40
85.499992
 50
355.239997
 51
364.75208
  0
ARC
  8
0
  6
BYLAYER
 62
     7
 10
883.406143
 20
-528.406143
 30
0.0
 40
85.499992
 50
175.247920
 51
184.760003
  0
ARC
  8
0
  6
BYLAYER
 62
     7
 10
883.406143
 20
-528.406143
 30
0.0
 40
86.549921
 50
124.482082
 51
226.112745
  0
ARC
  8
0
  6
BYLAYER
 62
     7
 10
883.406143
 20
-528.406143
 30
0.0
 40
86.549921
 50
313.887255
 51
415.518079
  0
ARC
  8
0
  6
BYLAYER
 62
     7
 10
883.406143
 20
-528.406143
 30
0.0
 40
73.250000
 50
193.897268
 51
215.281553
  0
ARC
  8
0
  6
BYLAYER
 62
     7
 10
883.406143
 20
-528.406143
 30
0.0
 40
73.250015
 50
325.305677
 51
346.102733
  0
LINE
  8
0
  6
BYLAYER
 62
     1
 10
291.406143
 20
-603.406143
 30
0.0
 11
291.406143
 21
-650.906051
 31
0.0
  0
ARC
  8
0
  6
BYLAYER
 62
     1
 10
307.906143
 20
-670.984115
 30
0.0
 40
2.000022
 50
183.795336
 51
266.999963
  0
LINE
  8
0
  6
BYLAYER
 62
     1
 10
305.906143
 20
-670.984115
 30
0.0
 11
305.906143
 21
-603.406143
 31
0.0
  0
ARC
  8
0
  6
BYLAYER
 62
     1
 10
303.906143
 20
-653.563827
 30
0.0
 40
2.000000
 50
0.0
 51
87.000334
  0
LINE
  8
0
  6
BYLAYER
 62
     1
 10
291.406143
 20
-650.906051
 30
0.0
 11
304.010788
 21
-651.566574
 31
0.0
  0
LINE
  8
0
  6
BYLAYER
 62
     1
 10
305.908340
 20
-668.406143
 30
0.0
 11
293.740310
 21
-651.028366
 31
0.0
  0
LINE
  8
0
  6
BYLAYER
 62
     1
 10
307.801468
 20
-672.981369
 30
0.0
 11
315.906143
 21
-673.406160
 31
0.0
  0
LINE
  8
0
  6
BYLAYER
 62
     1
 10
315.906143
 20
-673.406160
 30
0.0
 11
315.906143
 21
-603.406143
 31
0.0
  0
LINE
  8
0
  6
BYLAYER
 62
     1
 10
291.406143
 20
-603.406143
 30
0.0
 11
291.406143
 21
-555.906235
 31
0.0
  0
ARC
  8
0
  6
BYLAYER
 62
     1
 10
307.906143
 20
-535.828171
 30
0.0
 40
2.000022
 50
93.000037
 51
176.204664
  0
LINE
  8
0
  6
BYLAYER
 62
     1
 10
305.906143
 20
-535.828171
 30
0.0
 11
305.906143
 21
-603.406143
 31
0.0
  0
ARC
  8
0
  6
BYLAYER
 62
     1
 10
303.906143
 20
-553.248459
 30
0.0
 40
2.0
 50
272.999666
 51
360.0
  0
LINE
  8
0
  6
BYLAYER
 62
     1
 10
291.406143
 20
-555.906235
 30
0.0
 11
304.010788
 21
-555.245712
 31
0.0
  0
LINE
  8
0
  6
BYLAYER
 62
     1
 10
305.908340
 20
-538.406143
 30
0.0
 11
293.740310
 21
-555.783920
 31
0.0
  0
LINE
  8
0
  6
BYLAYER
 62
     1
 10
307.801468
 20
-533.830917
 30
0.0
 11
315.906143
 21
-533.406126
 31
0.0
  0
LINE
  8
0
  6
BYLAYER
 62
     1
 10
315.906143
 20
-533.406126
 30
0.0
 11
315.906143
 21
-603.406143
 31
0.0
  0
ENDSEC
  0
EOF
