  0
SECTION
  2
HEADER
  9
$EXTMIN
 10
117.901024
 20
705.0
 30
0.0
  9
$EXTMAX
 10
988.924915
 20
0.0
 30
0.0
  0
ENDSEC
  0
SECTION
  2
TABLES
  0
ENDSEC
  0
SECTION
  2
BLOCKS
  0
ENDSEC
  0
SECTION
  2
ENTITIES
  0
LINE
  8
0
  6
BYLAYER
 62
     7
 10
331.428328
 20
-224.319113
 30
0.0
 11
331.428328
 21
-128.319113
 31
0.0
  0
LINE
  8
0
  6
BYLAYER
 62
     7
 10
331.428328
 20
-228.319113
 30
0.0
 11
331.428328
 21
-224.319113
 31
0.0
  0
LINE
  8
0
  6
BYLAYER
 62
     7
 10
331.428328
 20
-128.319113
 30
0.0
 11
331.428328
 21
-28.319113
 31
0.0
  0
LINE
  8
0
  6
BYLAYER
 62
     7
 10
331.428328
 20
-59.943732
 30
0.0
 11
331.428328
 21
-51.819113
 31
0.0
  0
LINE
  8
0
  6
BYLAYER
 62
     7
 10
319.428328
 20
-28.319113
 30
0.0
 11
331.428328
 21
-28.319113
 31
0.0
  0
LINE
  8
0
  6
BYLAYER
 62
     7
 10
319.428328
 20
-228.319113
 30
0.0
 11
331.428328
 21
-228.319113
 31
0.0
  0
LINE
  8
0
  6
BYLAYER
 62
     7
 10
351.428328
 20
-202.371560
 30
0.0
 11
351.428328
 21
-202.642753
 31
0.0
  0
LINE
  8
0
  6
BYLAYER
 62
     7
 10
351.428328
 20
-195.854025
 30
0.0
 11
351.428328
 21
-204.819113
 31
0.0
  0
LINE
  8
0
  6
BYLAYER
 62
     7
 10
351.428328
 20
-204.819113
 30
0.0
 11
331.428328
 21
-205.226361
 31
0.0
  0
LINE
  8
0
  6
BYLAYER
 62
     7
 10
352.928328
 20
-195.827841
 30
0.0
 11
351.428328
 21
-195.854025
 31
0.0
  0
LINE
  8
0
  6
BYLAYER
 62
     7
 10
331.919601
 20
-60.443655
 30
0.0
 11
352.928328
 21
-60.810385
 31
0.0
  0
ARC
  8
0
  6
BYLAYER
 62
     7
 10
331.928328
 20
-59.943732
 30
0.0
 40
0.500000
 50
180.000000
 51
268.999943
  0
LINE
  8
0
  6
BYLAYER
 62
     7
 10
352.928328
 20
-60.810385
 30
0.0
 11
352.928328
 21
-195.827841
 31
0.0
  0
LINE
  8
0
  6
BYLAYER
 62
     7
 10
319.428328
 20
-128.319113
 30
0.0
 11
319.428328
 21
-228.319113
 31
0.0
  0
LINE
  8
0
  6
BYLAYER
 62
     7
 10
319.428328
 20
-128.319113
 30
0.0
 11
319.428328
 21
-28.319113
 31
0.0
  0
LINE
  8
0
  6
BYLAYER
 62
     7
 10
362.228255
 20
-44.819174
 30
0.0
 11
356.428206
 21
-44.819174
 31
0.0
  0
ARC
  8
0
  6
BYLAYER
 62
     7
 10
362.228255
 20
-46.319174
 30
0.0
 40
1.500000
 50
0.0
 51
90.000003
  0
ARC
  8
0
  6
BYLAYER
 62
     7
 10
391.628280
 20
-46.319174
 30
0.0
 40
1.500000
 50
90.0
 51
180.000003
  0
LINE
  8
0
  6
BYLAYER
 62
     7
 10
401.228255
 20
-44.819174
 30
0.0
 11
391.628280
 21
-44.819174
 31
0.0
  0
ARC
  8
0
  6
BYLAYER
 62
     7
 10
401.228255
 20
-46.319174
 30
0.0
 40
1.500000
 50
0.0
 51
90.000003
  0
LINE
  8
0
  6
BYLAYER
 62
     7
 10
436.428267
 20
-44.819113
 30
0.0
 11
430.628280
 21
-44.819113
 31
0.0
  0
ARC
  8
0
  6
BYLAYER
 62
     7
 10
430.628280
 20
-46.319113
 30
0.0
 40
1.500000
 50
90.0
 51
180.000003
  0
ARC
  8
0
  6
BYLAYER
 62
     7
 10
376.928267
 20
-53.819113
 30
0.0
 40
13.200012
 50
180.000000
 51
359.999995
  0
ARC
  8
0
  6
BYLAYER
 62
     7
 10
415.928267
 20
-53.819113
 30
0.0
 40
13.200012
 50
180.000000
 51
359.999995
  0
LINE
  8
0
  6
BYLAYER
 62
     7
 10
356.428206
 20
-50.319174
 30
0.0
 11
362.228255
 21
-50.319174
 31
0.0
  0
LINE
  8
0
  6
BYLAYER
 62
     7
 10
363.728255
 20
-46.319174
 30
0.0
 11
363.728255
 21
-51.819174
 31
0.0
  0
LINE
  8
0
  6
BYLAYER
 62
     7
 10
363.728255
 20
-51.819174
 30
0.0
 11
363.728255
 21
-53.819113
 31
0.0
  0
ARC
  8
0
  6
BYLAYER
 62
     7
 10
362.228255
 20
-51.819174
 30
0.0
 40
1.500000
 50
0.0
 51
90.000003
  0
ARC
  8
0
  6
BYLAYER
 62
     7
 10
391.628280
 20
-51.819113
 30
0.0
 40
1.500000
 50
90.0
 51
180.000003
  0
LINE
  8
0
  6
BYLAYER
 62
     7
 10
391.628280
 20
-50.319113
 30
0.0
 11
401.228255
 21
-50.319113
 31
0.0
  0
LINE
  8
0
  6
BYLAYER
 62
     7
 10
402.728255
 20
-46.319174
 30
0.0
 11
402.728255
 21
-51.819113
 31
0.0
  0
LINE
  8
0
  6
BYLAYER
 62
     7
 10
402.728255
 20
-51.819113
 30
0.0
 11
402.728255
 21
-53.819113
 31
0.0
  0
ARC
  8
0
  6
BYLAYER
 62
     7
 10
401.228255
 20
-51.819113
 30
0.0
 40
1.500000
 50
0.0
 51
90.000003
  0
LINE
  8
0
  6
BYLAYER
 62
     7
 10
429.128280
 20
-53.819113
 30
0.0
 11
429.128280
 21
-51.819113
 31
0.0
  0
LINE
  8
0
  6
BYLAYER
 62
     7
 10
429.128280
 20
-51.819113
 30
0.0
 11
429.128280
 21
-46.319113
 31
0.0
  0
LINE
  8
0
  6
BYLAYER
 62
     7
 10
430.628280
 20
-50.319113
 30
0.0
 11
436.428267
 21
-50.319113
 31
0.0
  0
ARC
  8
0
  6
BYLAYER
 62
     7
 10
430.628280
 20
-51.819113
 30
0.0
 40
1.500000
 50
90.0
 51
180.000003
  0
LINE
  8
0
  6
BYLAYER
 62
     7
 10
390.128280
 20
-46.319174
 30
0.0
 11
390.128280
 21
-53.819113
 31
0.0
  0
ARC
  8
0
  6
BYLAYER
 62
     7
 10
357.328292
 20
-122.344138
 30
0.0
 40
0.899994
 50
90.0
 51
269.999998
  0
LINE
  8
0
  6
BYLAYER
 62
     7
 10
357.328292
 20
-121.444144
 30
0.0
 11
471.428419
 21
-121.444144
 31
0.0
  0
LINE
  8
0
  6
BYLAYER
 62
     7
 10
357.328292
 20
-123.244132
 30
0.0
 11
471.428419
 21
-123.244132
 31
0.0
  0
ARC
  8
0
  6
BYLAYER
 62
     7
 10
357.328292
 20
-110.394156
 30
0.0
 40
0.900024
 50
90.0
 51
269.999998
  0
ARC
  8
0
  6
BYLAYER
 62
     7
 10
357.328292
 20
-98.444144
 30
0.0
 40
0.899994
 50
90.0
 51
269.999998
  0
LINE
  8
0
  6
BYLAYER
 62
     7
 10
357.328292
 20
-97.544150
 30
0.0
 11
471.428419
 21
-97.544150
 31
0.0
  0
LINE
  8
0
  6
BYLAYER
 62
     7
 10
357.328292
 20
-99.344138
 30
0.0
 11
471.428419
 21
-99.344138
 31
0.0
  0
ARC
  8
0
  6
BYLAYER
 62
     7
 10
357.328292
 20
-86.494162
 30
0.0
 40
0.900024
 50
90.0
 51
269.999998
  0
LINE
  8
0
  6
BYLAYER
 62
     7
 10
357.328292
 20
-85.594138
 30
0.0
 11
471.428419
 21
-85.594138
 31
0.0
  0
LINE
  8
0
  6
BYLAYER
 62
     7
 10
357.328292
 20
-87.394156
 30
0.0
 11
471.428419
 21
-87.394156
 31
0.0
  0
ARC
  8
0
  6
BYLAYER
 62
     7
 10
357.328292
 20
-74.544150
 30
0.0
 40
0.899994
 50
90.0
 51
269.999998
  0
LINE
  8
0
  6
BYLAYER
 62
     7
 10
357.328292
 20
-73.644156
 30
0.0
 11
471.428419
 21
-73.644156
 31
0.0
  0
LINE
  8
0
  6
BYLAYER
 62
     7
 10
357.328292
 20
-75.444144
 30
0.0
 11
471.428419
 21
-75.444144
 31
0.0
  0
ARC
  8
0
  6
BYLAYER
 62
     7
 10
357.328292
 20
-134.294150
 30
0.0
 40
0.899994
 50
90.0
 51
269.999998
  0
LINE
  8
0
  6
BYLAYER
 62
     7
 10
357.328292
 20
-133.394156
 30
0.0
 11
471.428419
 21
-133.394156
 31
0.0
  0
LINE
  8
0
  6
BYLAYER
 62
     7
 10
357.328292
 20
-135.194144
 30
0.0
 11
471.428419
 21
-135.194144
 31
0.0
  0
ARC
  8
0
  6
BYLAYER
 62
     7
 10
357.328292
 20
-146.244132
 30
0.0
 40
0.899994
 50
90.0
 51
269.999998
  0
ARC
  8
0
  6
BYLAYER
 62
     7
 10
357.328292
 20
-158.194144
 30
0.0
 40
0.899994
 50
90.0
 51
269.999998
  0
LINE
  8
0
  6
BYLAYER
 62
     7
 10
357.328292
 20
-157.294150
 30
0.0
 11
471.428419
 21
-157.294150
 31
0.0
  0
LINE
  8
0
  6
BYLAYER
 62
     7
 10
357.328292
 20
-159.094138
 30
0.0
 11
471.428419
 21
-159.094138
 31
0.0
  0
LINE
  8
0
  6
BYLAYER
 62
     7
 10
367.428328
 20
-75.444144
 30
0.0
 11
367.428328
 21
-85.594138
 31
0.0
  0
LINE
  8
0
  6
BYLAYER
 62
     7
 10
469.428328
 20
-75.444144
 30
0.0
 11
469.428328
 21
-85.594138
 31
0.0
  0
LINE
  8
0
  6
BYLAYER
 62
     7
 10
436.428267
 20
-73.644156
 30
0.0
 11
436.428267
 21
-40.319113
 31
0.0
  0
LINE
  8
0
  6
BYLAYER
 62
     7
 10
367.428328
 20
-87.394156
 30
0.0
 11
367.428328
 21
-97.544150
 31
0.0
  0
LINE
  8
0
  6
BYLAYER
 62
     7
 10
367.428328
 20
-99.344138
 30
0.0
 11
367.428328
 21
-109.494132
 31
0.0
  0
LINE
  8
0
  6
BYLAYER
 62
     7
 10
367.428328
 20
-111.294150
 30
0.0
 11
367.428328
 21
-121.444144
 31
0.0
  0
LINE
  8
0
  6
BYLAYER
 62
     7
 10
367.428328
 20
-123.244132
 30
0.0
 11
367.428328
 21
-133.394156
 31
0.0
  0
LINE
  8
0
  6
BYLAYER
 62
     7
 10
367.428328
 20
-135.194144
 30
0.0
 11
367.428328
 21
-145.344138
 31
0.0
  0
LINE
  8
0
  6
BYLAYER
 62
     7
 10
367.428328
 20
-147.144156
 30
0.0
 11
367.428328
 21
-157.294150
 31
0.0
  0
LINE
  8
0
  6
BYLAYER
 62
     7
 10
367.428328
 20
-171.044150
 30
0.0
 11
367.428328
 21
-173.408213
 31
0.0
  0
LINE
  8
0
  6
BYLAYER
 62
     7
 10
367.428328
 20
-159.094138
 30
0.0
 11
367.428328
 21
-169.244132
 31
0.0
  0
LINE
  8
0
  6
BYLAYER
 62
     7
 10
469.428328
 20
-87.394156
 30
0.0
 11
469.428328
 21
-97.544150
 31
0.0
  0
LINE
  8
0
  6
BYLAYER
 62
     7
 10
469.428328
 20
-99.344138
 30
0.0
 11
469.428328
 21
-109.494132
 31
0.0
  0
LINE
  8
0
  6
BYLAYER
 62
     7
 10
469.428328
 20
-111.294150
 30
0.0
 11
469.428328
 21
-121.444144
 31
0.0
  0
LINE
  8
0
  6
BYLAYER
 62
     7
 10
469.428328
 20
-123.244132
 30
0.0
 11
469.428328
 21
-133.394156
 31
0.0
  0
LINE
  8
0
  6
BYLAYER
 62
     7
 10
469.428328
 20
-135.194144
 30
0.0
 11
469.428328
 21
-145.344138
 31
0.0
  0
LINE
  8
0
  6
BYLAYER
 62
     7
 10
469.428328
 20
-147.144156
 30
0.0
 11
469.428328
 21
-157.294150
 31
0.0
  0
LINE
  8
0
  6
BYLAYER
 62
     7
 10
469.428328
 20
-171.044150
 30
0.0
 11
469.428328
 21
-173.408213
 31
0.0
  0
LINE
  8
0
  6
BYLAYER
 62
     7
 10
469.428328
 20
-159.094138
 30
0.0
 11
469.428328
 21
-169.244132
 31
0.0
  0
CIRCLE
  8
0
  6
BYLAYER
 62
     7
 10
390.958297
 20
-110.394156
 30
0.0
 40
3.0
  0
CIRCLE
  8
0
  6
BYLAYER
 62
     7
 10
445.958297
 20
-110.394156
 30
0.0
 40
3.0
  0
LINE
  8
0
  6
BYLAYER
 62
     7
 10
448.820113
 20
-109.494132
 30
0.0
 11
471.428419
 21
-109.494132
 31
0.0
  0
LINE
  8
0
  6
BYLAYER
 62
     7
 10
448.820113
 20
-111.294150
 30
0.0
 11
471.428419
 21
-111.294150
 31
0.0
  0
LINE
  8
0
  6
BYLAYER
 62
     7
 10
393.820113
 20
-109.494132
 30
0.0
 11
443.096480
 21
-109.494132
 31
0.0
  0
LINE
  8
0
  6
BYLAYER
 62
     7
 10
393.820113
 20
-111.294150
 30
0.0
 11
443.096480
 21
-111.294150
 31
0.0
  0
LINE
  8
0
  6
BYLAYER
 62
     7
 10
357.328292
 20
-109.494132
 30
0.0
 11
388.096480
 21
-109.494132
 31
0.0
  0
LINE
  8
0
  6
BYLAYER
 62
     7
 10
357.328292
 20
-111.294150
 30
0.0
 11
388.096480
 21
-111.294150
 31
0.0
  0
LINE
  8
0
  6
BYLAYER
 62
     7
 10
357.328292
 20
-145.344138
 30
0.0
 11
471.428419
 21
-145.344138
 31
0.0
  0
LINE
  8
0
  6
BYLAYER
 62
     7
 10
357.328292
 20
-147.144156
 30
0.0
 11
471.428419
 21
-147.144156
 31
0.0
  0
ARC
  8
0
  6
BYLAYER
 62
     7
 10
357.328292
 20
-170.144125
 30
0.0
 40
0.899994
 50
90.0
 51
269.999998
  0
LINE
  8
0
  6
BYLAYER
 62
     7
 10
357.328292
 20
-169.244132
 30
0.0
 11
471.428419
 21
-169.244132
 31
0.0
  0
LINE
  8
0
  6
BYLAYER
 62
     7
 10
357.328292
 20
-171.044150
 30
0.0
 11
471.428419
 21
-171.044150
 31
0.0
  0
LINE
  8
0
  6
BYLAYER
 62
     7
 10
377.428328
 20
-135.194144
 30
0.0
 11
377.428328
 21
-133.394156
 31
0.0
  0
LINE
  8
0
  6
BYLAYER
 62
     7
 10
459.428328
 20
-133.394156
 30
0.0
 11
459.428328
 21
-135.194144
 31
0.0
  0
LINE
  8
0
  6
BYLAYER
 62
     7
 10
459.428328
 20
-123.244132
 30
0.0
 11
459.428328
 21
-121.444144
 31
0.0
  0
LINE
  8
0
  6
BYLAYER
 62
     7
 10
377.428328
 20
-121.444144
 30
0.0
 11
377.428328
 21
-123.244132
 31
0.0
  0
LINE
  8
0
  6
BYLAYER
 62
     7
 10
459.428328
 20
-111.294150
 30
0.0
 11
459.428328
 21
-109.494132
 31
0.0
  0
LINE
  8
0
  6
BYLAYER
 62
     7
 10
377.428328
 20
-109.494132
 30
0.0
 11
377.428328
 21
-111.294150
 31
0.0
  0
LINE
  8
0
  6
BYLAYER
 62
     7
 10
459.428328
 20
-99.344138
 30
0.0
 11
459.428328
 21
-97.544150
 31
0.0
  0
LINE
  8
0
  6
BYLAYER
 62
     7
 10
377.428328
 20
-97.544150
 30
0.0
 11
377.428328
 21
-99.344138
 31
0.0
  0
LINE
  8
0
  6
BYLAYER
 62
     7
 10
377.428328
 20
-85.594138
 30
0.0
 11
377.428328
 21
-87.394156
 31
0.0
  0
LINE
  8
0
  6
BYLAYER
 62
     7
 10
459.428328
 20
-87.394156
 30
0.0
 11
459.428328
 21
-85.594138
 31
0.0
  0
ARC
  8
0
  6
BYLAYER
 62
     7
 10
364.328322
 20
-170.144156
 30
0.0
 40
0.900024
 50
90.0
 51
269.999998
  0
ARC
  8
0
  6
BYLAYER
 62
     7
 10
364.328322
 20
-158.194144
 30
0.0
 40
0.899994
 50
90.0
 51
269.999998
  0
ARC
  8
0
  6
BYLAYER
 62
     7
 10
364.328322
 20
-146.244132
 30
0.0
 40
0.899994
 50
90.0
 51
269.999998
  0
ARC
  8
0
  6
BYLAYER
 62
     7
 10
364.328322
 20
-134.294150
 30
0.0
 40
0.899994
 50
90.0
 51
269.999998
  0
ARC
  8
0
  6
BYLAYER
 62
     7
 10
364.328322
 20
-122.344138
 30
0.0
 40
0.899994
 50
90.0
 51
269.999998
  0
ARC
  8
0
  6
BYLAYER
 62
     7
 10
364.328322
 20
-110.394156
 30
0.0
 40
0.900024
 50
90.0
 51
269.999998
  0
ARC
  8
0
  6
BYLAYER
 62
     7
 10
364.328322
 20
-98.444144
 30
0.0
 40
0.899994
 50
90.0
 51
269.999998
  0
LINE
  8
0
  6
BYLAYER
 62
     7
 10
356.428204
 20
-40.319113
 30
0.0
 11
356.428330
 21
-195.819113
 31
0.0
  0
ARC
  8
0
  6
BYLAYER
 62
     7
 10
364.328322
 20
-74.544150
 30
0.0
 40
0.899994
 50
90.0
 51
269.999998
  0
ARC
  8
0
  6
BYLAYER
 62
     7
 10
364.328322
 20
-86.494162
 30
0.0
 40
0.900024
 50
90.0
 51
269.999998
  0
LINE
  8
0
  6
BYLAYER
 62
     7
 10
436.428267
 20
-52.864071
 30
0.0
 11
471.538265
 21
-52.864071
 31
0.0
  0
LINE
  8
0
  6
BYLAYER
 62
     7
 10
436.428267
 20
-55.271103
 30
0.0
 11
471.524321
 21
-55.271103
 31
0.0
  0
LINE
  8
0
  6
BYLAYER
 62
     7
 10
436.428267
 20
-60.328511
 30
0.0
 11
471.433441
 21
-60.328511
 31
0.0
  0
LINE
  8
0
  6
BYLAYER
 62
     7
 10
356.428221
 20
-61.319113
 30
0.0
 11
352.928328
 21
-61.319113
 31
0.0
  0
LINE
  8
0
  6
BYLAYER
 62
     7
 10
356.428221
 20
-195.319113
 30
0.0
 11
352.928328
 21
-195.319113
 31
0.0
  0
LINE
  8
0
  6
BYLAYER
 62
     7
 10
360.835880
 20
-205.047760
 30
0.0
 11
471.428419
 21
-205.047760
 31
0.0
  0
LINE
  8
0
  6
BYLAYER
 62
     7
 10
360.875563
 20
-202.640728
 30
0.0
 11
471.428419
 21
-202.640728
 31
0.0
  0
LINE
  8
0
  6
BYLAYER
 62
     7
 10
360.903160
 20
-198.216323
 30
0.0
 11
471.428419
 21
-198.216323
 31
0.0
  0
LINE
  8
0
  6
BYLAYER
 62
     7
 10
360.995055
 20
-190.383993
 30
0.0
 11
471.428419
 21
-190.383993
 31
0.0
  0
LINE
  8
0
  6
BYLAYER
 62
     7
 10
471.428419
 20
-173.408213
 30
0.0
 11
364.922866
 21
-173.408213
 31
0.0
  0
LINE
  8
0
  6
BYLAYER
 62
     7
 10
359.426247
 20
-204.060531
 30
0.0
 11
356.428328
 21
-195.819113
 31
0.0
  0
ARC
  8
0
  6
BYLAYER
 62
     7
 10
360.835880
 20
-203.547760
 30
0.0
 40
1.500000
 50
199.989488
 51
270.000000
  0
LINE
  8
0
  6
BYLAYER
 62
     7
 10
359.448822
 20
-201.603774
 30
0.0
 11
356.428328
 21
-192.296999
 31
0.0
  0
ARC
  8
0
  6
BYLAYER
 62
     7
 10
360.875563
 20
-201.140728
 30
0.0
 40
1.500000
 50
197.980729
 51
270.000000
  0
LINE
  8
0
  6
BYLAYER
 62
     7
 10
359.465775
 20
-197.145187
 30
0.0
 11
356.428328
 21
-186.964855
 31
0.0
  0
ARC
  8
0
  6
BYLAYER
 62
     7
 10
360.903160
 20
-196.716323
 30
0.0
 40
1.500000
 50
196.613220
 51
270.0
  0
LINE
  8
0
  6
BYLAYER
 62
     7
 10
359.529099
 20
-189.201758
 30
0.0
 11
356.428328
 21
-174.896856
 31
0.0
  0
ARC
  8
0
  6
BYLAYER
 62
     7
 10
360.995055
 20
-188.883993
 30
0.0
 40
1.5
 50
192.230383
 51
270.0
  0
LINE
  8
0
  6
BYLAYER
 62
     7
 10
356.428328
 20
-186.964855
 30
0.0
 11
358.788660
 21
-185.785862
 31
0.0
  0
LINE
  8
0
  6
BYLAYER
 62
     7
 10
356.428328
 20
-192.296999
 30
0.0
 11
357.824406
 21
-191.643960
 31
0.0
  0
LINE
  8
0
  6
BYLAYER
 62
     7
 10
356.428328
 20
-174.896856
 30
0.0
 11
364.922866
 21
-173.408213
 31
0.0
  0
LINE
  8
0
  6
BYLAYER
 62
     7
 10
356.428328
 20
-195.819113
 30
0.0
 11
357.429380
 21
-195.381450
 31
0.0
  0
LINE
  8
0
  6
BYLAYER
 62
     7
 10
352.928328
 20
-195.319113
 30
0.0
 11
352.928328
 21
-61.319113
 31
0.0
  0
LINE
  8
0
  6
BYLAYER
 62
     7
 10
531.811940
 20
-49.069113
 30
0.0
 11
471.428419
 21
-49.069113
 31
0.0
  0
LINE
  8
0
  6
BYLAYER
 62
     7
 10
552.428419
 20
-63.831381
 30
0.0
 11
534.890248
 21
-50.129059
 31
0.0
  0
ARC
  8
0
  6
BYLAYER
 62
     7
 10
531.811940
 20
-54.069113
 30
0.0
 40
5.0
 50
52.0
 51
90.0
  0
LINE
  8
0
  6
BYLAYER
 62
     7
 10
552.428419
 20
-128.319113
 30
0.0
 11
552.428419
 21
-63.831381
 31
0.0
  0
LINE
  8
0
  6
BYLAYER
 62
     7
 10
552.428419
 20
-192.806845
 30
0.0
 11
552.428419
 21
-128.319113
 31
0.0
  0
LINE
  8
0
  6
BYLAYER
 62
     7
 10
534.890248
 20
-206.509167
 30
0.0
 11
552.428419
 21
-192.806845
 31
0.0
  0
ARC
  8
0
  6
BYLAYER
 62
     7
 10
531.811940
 20
-202.569113
 30
0.0
 40
5.0
 50
270.0
 51
308.0
  0
LINE
  8
0
  6
BYLAYER
 62
     7
 10
471.428419
 20
-207.569113
 30
0.0
 11
531.811940
 21
-207.569113
 31
0.0
  0
LINE
  8
0
  6
BYLAYER
 62
     7
 10
471.428419
 20
-207.569113
 30
0.0
 11
471.428419
 21
-128.319113
 31
0.0
  0
LINE
  8
0
  6
BYLAYER
 62
     7
 10
471.428419
 20
-49.069113
 30
0.0
 11
471.428419
 21
-128.319113
 31
0.0
  0
ARC
  8
0
  6
BYLAYER
 62
     7
 10
427.182542
 20
-29.819113
 30
0.0
 40
1.500000
 50
180.000000
 51
270.000000
  0
ARC
  8
0
  6
BYLAYER
 62
     7
 10
365.673866
 20
-29.819113
 30
0.0
 40
1.500000
 50
270.0
 51
360.0
  0
ARC
  8
0
  6
BYLAYER
 62
     7
 10
357.928204
 20
-29.819113
 30
0.0
 40
1.500000
 50
270.0
 51
360.0
  0
ARC
  8
0
  6
BYLAYER
 62
     7
 10
357.928204
 20
-32.819113
 30
0.0
 40
1.500000
 50
90.0
 51
180.0
  0
ARC
  8
0
  6
BYLAYER
 62
     7
 10
434.928204
 20
-29.819113
 30
0.0
 40
1.500000
 50
180.000000
 51
270.000000
  0
LINE
  8
0
  6
BYLAYER
 62
     7
 10
359.428204
 20
-29.819113
 30
0.0
 11
359.428204
 21
-8.319113
 31
0.0
  0
ARC
  8
0
  6
BYLAYER
 62
     7
 10
360.928204
 20
-8.319113
 30
0.0
 40
1.500000
 50
90.0
 51
180.0
  0
LINE
  8
0
  6
BYLAYER
 62
     7
 10
433.428204
 20
-29.819113
 30
0.0
 11
433.428204
 21
-8.319113
 31
0.0
  0
LINE
  8
0
  6
BYLAYER
 62
     7
 10
360.928204
 20
-6.819113
 30
0.0
 11
431.928204
 21
-6.819113
 31
0.0
  0
ARC
  8
0
  6
BYLAYER
 62
     7
 10
424.182542
 20
-8.319113
 30
0.0
 40
1.500000
 50
0.0
 51
90.0
  0
ARC
  8
0
  6
BYLAYER
 62
     7
 10
431.928204
 20
-8.319113
 30
0.0
 40
1.500000
 50
0.0
 51
90.0
  0
LINE
  8
0
  6
BYLAYER
 62
     7
 10
367.173866
 20
-29.819113
 30
0.0
 11
367.173866
 21
-8.319113
 31
0.0
  0
ARC
  8
0
  6
BYLAYER
 62
     7
 10
368.673866
 20
-8.319113
 30
0.0
 40
1.500000
 50
90.0
 51
180.0
  0
LINE
  8
0
  6
BYLAYER
 62
     7
 10
425.682542
 20
-29.819113
 30
0.0
 11
425.682542
 21
-8.319113
 31
0.0
  0
ARC
  8
0
  6
BYLAYER
 62
     7
 10
434.928204
 20
-32.819113
 30
0.0
 40
1.500000
 50
0.0
 51
90.0
  0
LINE
  8
0
  6
BYLAYER
 62
     7
 10
436.428204
 20
-40.319113
 30
0.0
 11
436.428204
 21
-32.819113
 31
0.0
  0
LINE
  8
0
  6
BYLAYER
 62
     7
 10
434.928204
 20
-31.319113
 30
0.0
 11
357.928204
 21
-31.319113
 31
0.0
  0
LINE
  8
0
  6
BYLAYER
 62
     7
 10
356.428204
 20
-32.819113
 30
0.0
 11
356.428204
 21
-40.319113
 31
0.0
  0
LINE
  8
0
  6
BYLAYER
 62
     7
 10
356.428204
 20
-40.319113
 30
0.0
 11
436.428204
 21
-40.319113
 31
0.0
  0
LINE
  8
0
  6
BYLAYER
 62
     7
 10
436.428204
 20
-38.319113
 30
0.0
 11
356.428204
 21
-38.319113
 31
0.0
  0
LINE
  8
0
  6
BYLAYER
 62
     7
 10
531.811940
 20
-207.569113
 30
0.0
 11
531.811940
 21
-49.069113
 31
0.0
  0
LINE
  8
0
  6
BYLAYER
 62
     7
 10
331.428328
 20
-603.319113
 30
0.0
 11
331.428328
 21
-503.319113
 31
0.0
  0
LINE
  8
0
  6
BYLAYER
 62
     7
 10
331.428328
 20
-534.943732
 30
0.0
 11
331.428328
 21
-526.819113
 31
0.0
  0
LINE
  8
0
  6
BYLAYER
 62
     7
 10
319.428328
 20
-503.319113
 30
0.0
 11
331.428328
 21
-503.319113
 31
0.0
  0
LINE
  8
0
  6
BYLAYER
 62
     7
 10
331.919601
 20
-535.443655
 30
0.0
 11
352.928328
 21
-535.810385
 31
0.0
  0
ARC
  8
0
  6
BYLAYER
 62
     7
 10
331.928328
 20
-534.943732
 30
0.0
 40
0.500000
 50
180.000000
 51
268.999943
  0
LINE
  8
0
  6
BYLAYER
 62
     7
 10
352.928328
 20
-535.810385
 30
0.0
 11
352.928328
 21
-603.319113
 31
0.0
  0
LINE
  8
0
  6
BYLAYER
 62
     7
 10
319.428328
 20
-603.319113
 30
0.0
 11
319.428328
 21
-503.319113
 31
0.0
  0
LINE
  8
0
  6
BYLAYER
 62
     7
 10
331.428328
 20
-603.319113
 30
0.0
 11
331.428328
 21
-703.319113
 31
0.0
  0
LINE
  8
0
  6
BYLAYER
 62
     7
 10
331.428328
 20
-671.694494
 30
0.0
 11
331.428328
 21
-679.819113
 31
0.0
  0
LINE
  8
0
  6
BYLAYER
 62
     7
 10
319.428328
 20
-703.319113
 30
0.0
 11
331.428328
 21
-703.319113
 31
0.0
  0
LINE
  8
0
  6
BYLAYER
 62
     7
 10
331.919601
 20
-671.194571
 30
0.0
 11
352.928328
 21
-670.827841
 31
0.0
  0
ARC
  8
0
  6
BYLAYER
 62
     7
 10
331.928328
 20
-671.694494
 30
0.0
 40
0.500000
 50
91.000057
 51
180.000000
  0
LINE
  8
0
  6
BYLAYER
 62
     7
 10
352.928328
 20
-670.827841
 30
0.0
 11
352.928328
 21
-603.319113
 31
0.0
  0
LINE
  8
0
  6
BYLAYER
 62
     7
 10
319.428328
 20
-603.319113
 30
0.0
 11
319.428328
 21
-703.319113
 31
0.0
  0
LINE
  8
0
  6
BYLAYER
 62
     7
 10
359.428275
 20
-627.835798
 30
0.0
 11
359.428275
 21
-603.319113
 31
0.0
  0
LINE
  8
0
  6
BYLAYER
 62
     7
 10
433.428275
 20
-603.319113
 30
0.0
 11
433.428275
 21
-627.835798
 31
0.0
  0
LINE
  8
0
  6
BYLAYER
 62
     7
 10
423.965870
 20
-637.569113
 30
0.0
 11
368.890681
 21
-637.569113
 31
0.0
  0
LINE
  8
0
  6
BYLAYER
 62
     7
 10
373.532974
 20
-608.420219
 30
0.0
 11
359.428275
 21
-608.912766
 31
0.0
  0
ARC
  8
0
  6
BYLAYER
 62
     7
 10
373.428275
 20
-605.422047
 30
0.0
 40
3.000000
 50
272.000000
 51
360.000000
  0
LINE
  8
0
  6
BYLAYER
 62
     7
 10
373.532974
 20
-623.420219
 30
0.0
 11
359.428275
 21
-623.912766
 31
0.0
  0
ARC
  8
0
  6
BYLAYER
 62
     7
 10
373.428275
 20
-620.422047
 30
0.0
 40
3.000000
 50
272.000000
 51
360.000000
  0
LINE
  8
0
  6
BYLAYER
 62
     7
 10
359.428275
 20
-612.725460
 30
0.0
 11
373.532974
 21
-613.218007
 31
0.0
  0
ARC
  8
0
  6
BYLAYER
 62
     7
 10
373.428275
 20
-616.216179
 30
0.0
 40
3.000000
 50
0.0
 51
88.0
  0
LINE
  8
0
  6
BYLAYER
 62
     7
 10
376.428275
 20
-616.216179
 30
0.0
 11
376.428275
 21
-620.422047
 31
0.0
  0
LINE
  8
0
  6
BYLAYER
 62
     7
 10
376.428275
 20
-603.319113
 30
0.0
 11
376.428275
 21
-605.422047
 31
0.0
  0
LINE
  8
0
  6
BYLAYER
 62
     7
 10
360.428275
 20
-603.319113
 30
0.0
 11
360.428275
 21
-608.877845
 31
0.0
  0
LINE
  8
0
  6
BYLAYER
 62
     7
 10
360.428275
 20
-612.760381
 30
0.0
 11
360.428275
 21
-623.877845
 31
0.0
  0
LINE
  8
0
  6
BYLAYER
 62
     7
 10
419.323577
 20
-608.420219
 30
0.0
 11
433.428275
 21
-608.912766
 31
0.0
  0
ARC
  8
0
  6
BYLAYER
 62
     7
 10
419.428275
 20
-605.422047
 30
0.0
 40
3.000000
 50
180.000000
 51
268.000000
  0
LINE
  8
0
  6
BYLAYER
 62
     7
 10
419.323577
 20
-623.420219
 30
0.0
 11
433.428275
 21
-623.912766
 31
0.0
  0
ARC
  8
0
  6
BYLAYER
 62
     7
 10
419.428275
 20
-620.422047
 30
0.0
 40
3.000000
 50
180.000000
 51
268.000000
  0
LINE
  8
0
  6
BYLAYER
 62
     7
 10
433.428275
 20
-612.725460
 30
0.0
 11
419.323577
 21
-613.218007
 31
0.0
  0
ARC
  8
0
  6
BYLAYER
 62
     7
 10
419.428275
 20
-616.216179
 30
0.0
 40
3.000000
 50
92.000000
 51
180.000000
  0
LINE
  8
0
  6
BYLAYER
 62
     7
 10
416.428275
 20
-616.216179
 30
0.0
 11
416.428275
 21
-620.422047
 31
0.0
  0
LINE
  8
0
  6
BYLAYER
 62
     7
 10
416.428275
 20
-603.319113
 30
0.0
 11
416.428275
 21
-605.422047
 31
0.0
  0
LINE
  8
0
  6
BYLAYER
 62
     7
 10
432.428275
 20
-603.319113
 30
0.0
 11
432.428275
 21
-608.877845
 31
0.0
  0
LINE
  8
0
  6
BYLAYER
 62
     7
 10
432.428275
 20
-612.760381
 30
0.0
 11
432.428275
 21
-623.877845
 31
0.0
  0
LINE
  8
0
  6
BYLAYER
 62
     7
 10
356.428275
 20
-603.319113
 30
0.0
 11
356.428275
 21
-638.819113
 31
0.0
  0
ARC
  8
0
  6
BYLAYER
 62
     7
 10
357.928275
 20
-638.819113
 30
0.0
 40
1.5
 50
180.000000
 51
270.000000
  0
LINE
  8
0
  6
BYLAYER
 62
     7
 10
436.428275
 20
-638.819113
 30
0.0
 11
436.428275
 21
-603.319113
 31
0.0
  0
LINE
  8
0
  6
BYLAYER
 62
     7
 10
357.928275
 20
-640.319113
 30
0.0
 11
434.928275
 21
-640.319113
 31
0.0
  0
ARC
  8
0
  6
BYLAYER
 62
     7
 10
434.928275
 20
-638.819113
 30
0.0
 40
1.5
 50
270.0
 51
360.0
  0
ARC
  8
0
  6
BYLAYER
 62
     7
 10
431.428275
 20
-635.319113
 30
0.0
 40
6.000000
 50
86.177446
 51
185.739170
  0
ARC
  8
0
  6
BYLAYER
 62
     7
 10
431.928275
 20
-627.835798
 30
0.0
 40
1.500000
 50
266.177446
 51
360.0
  0
ARC
  8
0
  6
BYLAYER
 62
     7
 10
423.965870
 20
-636.069113
 30
0.0
 40
1.5
 50
270.0
 51
365.739170
  0
ARC
  8
0
  6
BYLAYER
 62
     7
 10
361.428275
 20
-635.319113
 30
0.0
 40
6.000000
 50
354.260830
 51
453.822554
  0
ARC
  8
0
  6
BYLAYER
 62
     7
 10
368.890681
 20
-636.069113
 30
0.0
 40
1.500000
 50
174.260830
 51
270.000000
  0
ARC
  8
0
  6
BYLAYER
 62
     7
 10
360.928275
 20
-627.835798
 30
0.0
 40
1.500000
 50
180.000000
 51
273.822554
  0
ARC
  8
0
  6
BYLAYER
 62
     7
 10
383.428275
 20
-630.319113
 30
0.0
 40
3.0
 50
180.000000
 51
270.000000
  0
ARC
  8
0
  6
BYLAYER
 62
     7
 10
409.428275
 20
-630.319113
 30
0.0
 40
3.0
 50
270.0
 51
360.0
  0
LINE
  8
0
  6
BYLAYER
 62
     7
 10
383.428275
 20
-633.319113
 30
0.0
 11
409.428275
 21
-633.319113
 31
0.0
  0
LINE
  8
0
  6
BYLAYER
 62
     7
 10
380.428275
 20
-630.319113
 30
0.0
 11
380.428275
 21
-603.319113
 31
0.0
  0
LINE
  8
0
  6
BYLAYER
 62
     7
 10
412.428275
 20
-603.319113
 30
0.0
 11
412.428275
 21
-630.319113
 31
0.0
  0
LINE
  8
0
  6
BYLAYER
 62
     7
 10
436.428275
 20
-608.394156
 30
0.0
 11
471.428419
 21
-608.394156
 31
0.0
  0
LINE
  8
0
  6
BYLAYER
 62
     7
 10
436.428275
 20
-610.194144
 30
0.0
 11
471.428419
 21
-610.194144
 31
0.0
  0
LINE
  8
0
  6
BYLAYER
 62
     7
 10
436.428275
 20
-632.294150
 30
0.0
 11
471.428419
 21
-632.294150
 31
0.0
  0
LINE
  8
0
  6
BYLAYER
 62
     7
 10
436.428275
 20
-634.094138
 30
0.0
 11
471.428419
 21
-634.094138
 31
0.0
  0
LINE
  8
0
  6
BYLAYER
 62
     7
 10
367.428328
 20
-646.044150
 30
0.0
 11
367.428328
 21
-648.408213
 31
0.0
  0
LINE
  8
0
  6
BYLAYER
 62
     7
 10
367.428328
 20
-640.319113
 30
0.0
 11
367.428328
 21
-644.244132
 31
0.0
  0
LINE
  8
0
  6
BYLAYER
 62
     7
 10
469.428328
 20
-603.319113
 30
0.0
 11
469.428328
 21
-608.394156
 31
0.0
  0
LINE
  8
0
  6
BYLAYER
 62
     7
 10
469.428328
 20
-610.194144
 30
0.0
 11
469.428328
 21
-620.344138
 31
0.0
  0
LINE
  8
0
  6
BYLAYER
 62
     7
 10
469.428328
 20
-622.144156
 30
0.0
 11
469.428328
 21
-632.294150
 31
0.0
  0
LINE
  8
0
  6
BYLAYER
 62
     7
 10
469.428328
 20
-646.044150
 30
0.0
 11
469.428328
 21
-648.408213
 31
0.0
  0
LINE
  8
0
  6
BYLAYER
 62
     7
 10
469.428328
 20
-634.094138
 30
0.0
 11
469.428328
 21
-644.244132
 31
0.0
  0
LINE
  8
0
  6
BYLAYER
 62
     7
 10
436.428275
 20
-620.344138
 30
0.0
 11
471.428419
 21
-620.344138
 31
0.0
  0
LINE
  8
0
  6
BYLAYER
 62
     7
 10
436.428275
 20
-622.144156
 30
0.0
 11
471.428419
 21
-622.144156
 31
0.0
  0
ARC
  8
0
  6
BYLAYER
 62
     7
 10
357.328292
 20
-645.144125
 30
0.0
 40
0.899994
 50
90.0
 51
269.999998
  0
LINE
  8
0
  6
BYLAYER
 62
     7
 10
357.328292
 20
-644.244132
 30
0.0
 11
471.428419
 21
-644.244132
 31
0.0
  0
LINE
  8
0
  6
BYLAYER
 62
     7
 10
357.328292
 20
-646.044150
 30
0.0
 11
471.428419
 21
-646.044150
 31
0.0
  0
LINE
  8
0
  6
BYLAYER
 62
     7
 10
459.428328
 20
-608.394156
 30
0.0
 11
459.428328
 21
-610.194144
 31
0.0
  0
ARC
  8
0
  6
BYLAYER
 62
     7
 10
364.328322
 20
-645.144156
 30
0.0
 40
0.900024
 50
90.0
 51
269.999998
  0
LINE
  8
0
  6
BYLAYER
 62
     7
 10
356.428275
 20
-603.319113
 30
0.0
 11
356.428330
 21
-670.819113
 31
0.0
  0
LINE
  8
0
  6
BYLAYER
 62
     7
 10
356.428221
 20
-670.319113
 30
0.0
 11
352.928328
 21
-670.319113
 31
0.0
  0
LINE
  8
0
  6
BYLAYER
 62
     7
 10
360.835880
 20
-680.047760
 30
0.0
 11
471.428419
 21
-680.047760
 31
0.0
  0
LINE
  8
0
  6
BYLAYER
 62
     7
 10
360.875563
 20
-677.640728
 30
0.0
 11
471.428419
 21
-677.640728
 31
0.0
  0
LINE
  8
0
  6
BYLAYER
 62
     7
 10
360.903160
 20
-673.216323
 30
0.0
 11
471.428419
 21
-673.216323
 31
0.0
  0
LINE
  8
0
  6
BYLAYER
 62
     7
 10
360.995055
 20
-665.383993
 30
0.0
 11
471.428419
 21
-665.383993
 31
0.0
  0
LINE
  8
0
  6
BYLAYER
 62
     7
 10
471.428419
 20
-648.408213
 30
0.0
 11
364.922866
 21
-648.408213
 31
0.0
  0
LINE
  8
0
  6
BYLAYER
 62
     7
 10
359.426247
 20
-679.060531
 30
0.0
 11
356.428328
 21
-670.819113
 31
0.0
  0
ARC
  8
0
  6
BYLAYER
 62
     7
 10
360.835880
 20
-678.547760
 30
0.0
 40
1.500000
 50
199.989488
 51
270.000000
  0
LINE
  8
0
  6
BYLAYER
 62
     7
 10
359.448822
 20
-676.603774
 30
0.0
 11
356.428328
 21
-667.296999
 31
0.0
  0
ARC
  8
0
  6
BYLAYER
 62
     7
 10
360.875563
 20
-676.140728
 30
0.0
 40
1.500000
 50
197.980729
 51
270.000000
  0
LINE
  8
0
  6
BYLAYER
 62
     7
 10
359.465775
 20
-672.145187
 30
0.0
 11
356.428328
 21
-661.964855
 31
0.0
  0
ARC
  8
0
  6
BYLAYER
 62
     7
 10
360.903160
 20
-671.716323
 30
0.0
 40
1.5
 50
196.613220
 51
270.000000
  0
LINE
  8
0
  6
BYLAYER
 62
     7
 10
359.529099
 20
-664.201758
 30
0.0
 11
356.428328
 21
-649.896856
 31
0.0
  0
ARC
  8
0
  6
BYLAYER
 62
     7
 10
360.995055
 20
-663.883993
 30
0.0
 40
1.500000
 50
192.230383
 51
270.000000
  0
LINE
  8
0
  6
BYLAYER
 62
     7
 10
356.428328
 20
-661.964855
 30
0.0
 11
358.788660
 21
-660.785862
 31
0.0
  0
LINE
  8
0
  6
BYLAYER
 62
     7
 10
356.428328
 20
-667.296999
 30
0.0
 11
357.824406
 21
-666.643960
 31
0.0
  0
LINE
  8
0
  6
BYLAYER
 62
     7
 10
356.428328
 20
-649.896856
 30
0.0
 11
364.922866
 21
-648.408213
 31
0.0
  0
LINE
  8
0
  6
BYLAYER
 62
     7
 10
356.428328
 20
-670.819113
 30
0.0
 11
357.429380
 21
-670.381450
 31
0.0
  0
LINE
  8
0
  6
BYLAYER
 62
     7
 10
352.928328
 20
-670.319113
 30
0.0
 11
352.928328
 21
-603.319113
 31
0.0
  0
LINE
  8
0
  6
BYLAYER
 62
     7
 10
552.428419
 20
-667.806845
 30
0.0
 11
552.428419
 21
-603.319113
 31
0.0
  0
LINE
  8
0
  6
BYLAYER
 62
     7
 10
534.890248
 20
-681.509167
 30
0.0
 11
552.428419
 21
-667.806845
 31
0.0
  0
ARC
  8
0
  6
BYLAYER
 62
     7
 10
531.811940
 20
-677.569113
 30
0.0
 40
5.0
 50
270.0
 51
308.0
  0
LINE
  8
0
  6
BYLAYER
 62
     7
 10
471.428419
 20
-682.569113
 30
0.0
 11
531.811940
 21
-682.569113
 31
0.0
  0
LINE
  8
0
  6
BYLAYER
 62
     7
 10
471.428419
 20
-682.569113
 30
0.0
 11
471.428419
 21
-603.319113
 31
0.0
  0
LINE
  8
0
  6
BYLAYER
 62
     7
 10
359.428275
 20
-578.802428
 30
0.0
 11
359.428275
 21
-603.319113
 31
0.0
  0
LINE
  8
0
  6
BYLAYER
 62
     7
 10
433.428275
 20
-603.319113
 30
0.0
 11
433.428275
 21
-578.802428
 31
0.0
  0
LINE
  8
0
  6
BYLAYER
 62
     7
 10
423.965870
 20
-569.069113
 30
0.0
 11
368.890681
 21
-569.069113
 31
0.0
  0
LINE
  8
0
  6
BYLAYER
 62
     7
 10
373.532974
 20
-598.218007
 30
0.0
 11
359.428275
 21
-597.725460
 31
0.0
  0
ARC
  8
0
  6
BYLAYER
 62
     7
 10
373.428275
 20
-601.216179
 30
0.0
 40
3.000000
 50
0.0
 51
88.0
  0
LINE
  8
0
  6
BYLAYER
 62
     7
 10
373.532974
 20
-583.218007
 30
0.0
 11
359.428275
 21
-582.725460
 31
0.0
  0
ARC
  8
0
  6
BYLAYER
 62
     7
 10
373.428275
 20
-586.216179
 30
0.0
 40
3.000000
 50
0.0
 51
88.0
  0
LINE
  8
0
  6
BYLAYER
 62
     7
 10
359.428275
 20
-593.912766
 30
0.0
 11
373.532974
 21
-593.420219
 31
0.0
  0
ARC
  8
0
  6
BYLAYER
 62
     7
 10
373.428275
 20
-590.422047
 30
0.0
 40
3.000000
 50
272.000000
 51
360.000000
  0
LINE
  8
0
  6
BYLAYER
 62
     7
 10
376.428275
 20
-590.422047
 30
0.0
 11
376.428275
 21
-586.216179
 31
0.0
  0
LINE
  8
0
  6
BYLAYER
 62
     7
 10
376.428275
 20
-603.319113
 30
0.0
 11
376.428275
 21
-601.216179
 31
0.0
  0
LINE
  8
0
  6
BYLAYER
 62
     7
 10
360.428275
 20
-603.319113
 30
0.0
 11
360.428275
 21
-597.760381
 31
0.0
  0
LINE
  8
0
  6
BYLAYER
 62
     7
 10
360.428275
 20
-593.877845
 30
0.0
 11
360.428275
 21
-582.760381
 31
0.0
  0
LINE
  8
0
  6
BYLAYER
 62
     7
 10
419.323577
 20
-598.218007
 30
0.0
 11
433.428275
 21
-597.725460
 31
0.0
  0
ARC
  8
0
  6
BYLAYER
 62
     7
 10
419.428275
 20
-601.216179
 30
0.0
 40
3.000000
 50
92.000000
 51
180.000000
  0
LINE
  8
0
  6
BYLAYER
 62
     7
 10
419.323577
 20
-583.218007
 30
0.0
 11
433.428275
 21
-582.725460
 31
0.0
  0
ARC
  8
0
  6
BYLAYER
 62
     7
 10
419.428275
 20
-586.216179
 30
0.0
 40
3.000000
 50
92.000000
 51
180.000000
  0
LINE
  8
0
  6
BYLAYER
 62
     7
 10
433.428275
 20
-593.912766
 30
0.0
 11
419.323577
 21
-593.420219
 31
0.0
  0
ARC
  8
0
  6
BYLAYER
 62
     7
 10
419.428275
 20
-590.422047
 30
0.0
 40
3.000000
 50
180.000000
 51
268.000000
  0
LINE
  8
0
  6
BYLAYER
 62
     7
 10
416.428275
 20
-590.422047
 30
0.0
 11
416.428275
 21
-586.216179
 31
0.0
  0
LINE
  8
0
  6
BYLAYER
 62
     7
 10
416.428275
 20
-603.319113
 30
0.0
 11
416.428275
 21
-601.216179
 31
0.0
  0
LINE
  8
0
  6
BYLAYER
 62
     7
 10
432.428275
 20
-603.319113
 30
0.0
 11
432.428275
 21
-597.760381
 31
0.0
  0
LINE
  8
0
  6
BYLAYER
 62
     7
 10
432.428275
 20
-593.877845
 30
0.0
 11
432.428275
 21
-582.760381
 31
0.0
  0
LINE
  8
0
  6
BYLAYER
 62
     7
 10
356.428275
 20
-603.319113
 30
0.0
 11
356.428275
 21
-567.819113
 31
0.0
  0
ARC
  8
0
  6
BYLAYER
 62
     7
 10
357.928275
 20
-567.819113
 30
0.0
 40
1.5
 50
90.0
 51
180.0
  0
LINE
  8
0
  6
BYLAYER
 62
     7
 10
436.428275
 20
-567.819113
 30
0.0
 11
436.428275
 21
-603.319113
 31
0.0
  0
LINE
  8
0
  6
BYLAYER
 62
     7
 10
357.928275
 20
-566.319113
 30
0.0
 11
434.928275
 21
-566.319113
 31
0.0
  0
ARC
  8
0
  6
BYLAYER
 62
     7
 10
434.928275
 20
-567.819113
 30
0.0
 40
1.5
 50
0.0
 51
90.0
  0
ARC
  8
0
  6
BYLAYER
 62
     7
 10
431.428275
 20
-571.319113
 30
0.0
 40
6.000000
 50
174.260830
 51
273.822554
  0
ARC
  8
0
  6
BYLAYER
 62
     7
 10
431.928275
 20
-578.802428
 30
0.0
 40
1.500000
 50
0.0
 51
93.822554
  0
ARC
  8
0
  6
BYLAYER
 62
     7
 10
423.965870
 20
-570.569113
 30
0.0
 40
1.500000
 50
354.260830
 51
450.000000
  0
ARC
  8
0
  6
BYLAYER
 62
     7
 10
361.428275
 20
-571.319113
 30
0.0
 40
6.000000
 50
266.177446
 51
365.739170
  0
ARC
  8
0
  6
BYLAYER
 62
     7
 10
368.890681
 20
-570.569113
 30
0.0
 40
1.5
 50
90.0
 51
185.73917
  0
ARC
  8
0
  6
BYLAYER
 62
     7
 10
360.928275
 20
-578.802428
 30
0.0
 40
1.5
 50
86.177446
 51
180.000000
  0
ARC
  8
0
  6
BYLAYER
 62
     7
 10
383.428275
 20
-576.319113
 30
0.0
 40
3.0
 50
90.0
 51
180.0
  0
ARC
  8
0
  6
BYLAYER
 62
     7
 10
409.428275
 20
-576.319113
 30
0.0
 40
3.0
 50
0.0
 51
90.0
  0
LINE
  8
0
  6
BYLAYER
 62
     7
 10
383.428275
 20
-573.319113
 30
0.0
 11
409.428275
 21
-573.319113
 31
0.0
  0
LINE
  8
0
  6
BYLAYER
 62
     7
 10
380.428275
 20
-576.319113
 30
0.0
 11
380.428275
 21
-603.319113
 31
0.0
  0
LINE
  8
0
  6
BYLAYER
 62
     7
 10
412.428275
 20
-603.319113
 30
0.0
 11
412.428275
 21
-576.319113
 31
0.0
  0
LINE
  8
0
  6
BYLAYER
 62
     7
 10
436.428275
 20
-598.244070
 30
0.0
 11
471.428419
 21
-598.244070
 31
0.0
  0
LINE
  8
0
  6
BYLAYER
 62
     7
 10
436.428275
 20
-596.444082
 30
0.0
 11
471.428419
 21
-596.444082
 31
0.0
  0
LINE
  8
0
  6
BYLAYER
 62
     7
 10
436.428275
 20
-574.344076
 30
0.0
 11
471.428419
 21
-574.344076
 31
0.0
  0
LINE
  8
0
  6
BYLAYER
 62
     7
 10
436.428275
 20
-572.544088
 30
0.0
 11
471.428419
 21
-572.544088
 31
0.0
  0
LINE
  8
0
  6
BYLAYER
 62
     7
 10
367.428328
 20
-560.594076
 30
0.0
 11
367.428328
 21
-558.230013
 31
0.0
  0
LINE
  8
0
  6
BYLAYER
 62
     7
 10
367.428328
 20
-566.319113
 30
0.0
 11
367.428328
 21
-562.394094
 31
0.0
  0
LINE
  8
0
  6
BYLAYER
 62
     7
 10
469.428328
 20
-603.319113
 30
0.0
 11
469.428328
 21
-598.244070
 31
0.0
  0
LINE
  8
0
  6
BYLAYER
 62
     7
 10
469.428328
 20
-596.444082
 30
0.0
 11
469.428328
 21
-586.294088
 31
0.0
  0
LINE
  8
0
  6
BYLAYER
 62
     7
 10
469.428328
 20
-584.494070
 30
0.0
 11
469.428328
 21
-574.344076
 31
0.0
  0
LINE
  8
0
  6
BYLAYER
 62
     7
 10
469.428328
 20
-560.594076
 30
0.0
 11
469.428328
 21
-558.230013
 31
0.0
  0
LINE
  8
0
  6
BYLAYER
 62
     7
 10
469.428328
 20
-572.544088
 30
0.0
 11
469.428328
 21
-562.394094
 31
0.0
  0
LINE
  8
0
  6
BYLAYER
 62
     7
 10
436.428275
 20
-586.294088
 30
0.0
 11
471.428419
 21
-586.294088
 31
0.0
  0
LINE
  8
0
  6
BYLAYER
 62
     7
 10
436.428275
 20
-584.494070
 30
0.0
 11
471.428419
 21
-584.494070
 31
0.0
  0
ARC
  8
0
  6
BYLAYER
 62
     7
 10
357.328292
 20
-561.494101
 30
0.0
 40
0.899994
 50
90.0
 51
269.999998
  0
LINE
  8
0
  6
BYLAYER
 62
     7
 10
357.328292
 20
-562.394094
 30
0.0
 11
471.428419
 21
-562.394094
 31
0.0
  0
LINE
  8
0
  6
BYLAYER
 62
     7
 10
357.328292
 20
-560.594076
 30
0.0
 11
471.428419
 21
-560.594076
 31
0.0
  0
LINE
  8
0
  6
BYLAYER
 62
     7
 10
459.428328
 20
-598.244070
 30
0.0
 11
459.428328
 21
-596.444082
 31
0.0
  0
ARC
  8
0
  6
BYLAYER
 62
     7
 10
364.328322
 20
-561.494070
 30
0.0
 40
0.900024
 50
90.0
 51
269.999998
  0
LINE
  8
0
  6
BYLAYER
 62
     7
 10
356.428275
 20
-603.319113
 30
0.0
 11
356.428330
 21
-535.819113
 31
0.0
  0
LINE
  8
0
  6
BYLAYER
 62
     7
 10
356.428221
 20
-536.319113
 30
0.0
 11
352.928328
 21
-536.319113
 31
0.0
  0
LINE
  8
0
  6
BYLAYER
 62
     7
 10
360.835880
 20
-526.590466
 30
0.0
 11
471.428419
 21
-526.590466
 31
0.0
  0
LINE
  8
0
  6
BYLAYER
 62
     7
 10
360.875563
 20
-528.997498
 30
0.0
 11
471.428419
 21
-528.997498
 31
0.0
  0
LINE
  8
0
  6
BYLAYER
 62
     7
 10
360.903160
 20
-533.421903
 30
0.0
 11
471.428419
 21
-533.421903
 31
0.0
  0
LINE
  8
0
  6
BYLAYER
 62
     7
 10
360.995055
 20
-541.254233
 30
0.0
 11
471.428419
 21
-541.254233
 31
0.0
  0
LINE
  8
0
  6
BYLAYER
 62
     7
 10
471.428419
 20
-558.230013
 30
0.0
 11
364.922866
 21
-558.230013
 31
0.0
  0
LINE
  8
0
  6
BYLAYER
 62
     7
 10
359.426247
 20
-527.577695
 30
0.0
 11
356.428328
 21
-535.819113
 31
0.0
  0
ARC
  8
0
  6
BYLAYER
 62
     7
 10
360.835880
 20
-528.090466
 30
0.0
 40
1.5
 50
90.0
 51
160.010512
  0
LINE
  8
0
  6
BYLAYER
 62
     7
 10
359.448822
 20
-530.034452
 30
0.0
 11
356.428328
 21
-539.341227
 31
0.0
  0
ARC
  8
0
  6
BYLAYER
 62
     7
 10
360.875563
 20
-530.497498
 30
0.0
 40
1.500000
 50
90.0
 51
162.019271
  0
LINE
  8
0
  6
BYLAYER
 62
     7
 10
359.465775
 20
-534.493039
 30
0.0
 11
356.428328
 21
-544.673371
 31
0.0
  0
ARC
  8
0
  6
BYLAYER
 62
     7
 10
360.903160
 20
-534.921903
 30
0.0
 40
1.5
 50
90.0
 51
163.38678
  0
LINE
  8
0
  6
BYLAYER
 62
     7
 10
359.529099
 20
-542.436468
 30
0.0
 11
356.428328
 21
-556.741370
 31
0.0
  0
ARC
  8
0
  6
BYLAYER
 62
     7
 10
360.995055
 20
-542.754233
 30
0.0
 40
1.5
 50
90.0
 51
167.769617
  0
LINE
  8
0
  6
BYLAYER
 62
     7
 10
356.428328
 20
-544.673371
 30
0.0
 11
358.788660
 21
-545.852364
 31
0.0
  0
LINE
  8
0
  6
BYLAYER
 62
     7
 10
356.428328
 20
-539.341227
 30
0.0
 11
357.824406
 21
-539.994266
 31
0.0
  0
LINE
  8
0
  6
BYLAYER
 62
     7
 10
356.428328
 20
-556.741370
 30
0.0
 11
364.922866
 21
-558.230013
 31
0.0
  0
LINE
  8
0
  6
BYLAYER
 62
     7
 10
356.428328
 20
-535.819113
 30
0.0
 11
357.429380
 21
-536.256776
 31
0.0
  0
LINE
  8
0
  6
BYLAYER
 62
     7
 10
352.928328
 20
-536.319113
 30
0.0
 11
352.928328
 21
-603.319113
 31
0.0
  0
LINE
  8
0
  6
BYLAYER
 62
     7
 10
552.428419
 20
-538.831381
 30
0.0
 11
552.428419
 21
-603.319113
 31
0.0
  0
LINE
  8
0
  6
BYLAYER
 62
     7
 10
534.890248
 20
-525.129059
 30
0.0
 11
552.428419
 21
-538.831381
 31
0.0
  0
ARC
  8
0
  6
BYLAYER
 62
     7
 10
531.811940
 20
-529.069113
 30
0.0
 40
5.0
 50
52.000000
 51
90.000000
  0
LINE
  8
0
  6
BYLAYER
 62
     7
 10
471.428419
 20
-524.069113
 30
0.0
 11
531.811940
 21
-524.069113
 31
0.0
  0
LINE
  8
0
  6
BYLAYER
 62
     7
 10
471.428419
 20
-524.069113
 30
0.0
 11
471.428419
 21
-603.319113
 31
0.0
  0
LINE
  8
0
  6
BYLAYER
 62
     7
 10
531.811940
 20
-682.569113
 30
0.0
 11
531.811940
 21
-524.069113
 31
0.0
  0
LINE
  8
0
  6
BYLAYER
 62
     1
 10
247.928328
 20
-289.319113
 30
0.0
 11
247.928328
 21
-279.319113
 31
0.0
  0
LINE
  8
0
  6
BYLAYER
 62
     1
 10
292.928328
 20
-244.319113
 30
0.0
 11
282.928328
 21
-244.319113
 31
0.0
  0
LINE
  8
0
  6
BYLAYER
 62
     1
 10
291.428328
 20
-242.819113
 30
0.0
 11
292.928328
 21
-244.319113
 31
0.0
  0
LINE
  8
0
  6
BYLAYER
 62
     1
 10
292.928328
 20
-244.319113
 30
0.0
 11
292.928328
 21
-287.319113
 31
0.0
  0
LINE
  8
0
  6
BYLAYER
 62
     1
 10
292.928328
 20
-287.319113
 30
0.0
 11
290.928328
 21
-289.319113
 31
0.0
  0
LINE
  8
0
  6
BYLAYER
 62
     1
 10
292.928328
 20
-287.319113
 30
0.0
 11
290.928328
 21
-289.319113
 31
0.0
  0
LINE
  8
0
  6
BYLAYER
 62
     1
 10
246.428328
 20
-287.819113
 30
0.0
 11
247.928328
 21
-289.319113
 31
0.0
  0
LINE
  8
0
  6
BYLAYER
 62
     1
 10
247.928328
 20
-289.319113
 30
0.0
 11
290.928328
 21
-289.319113
 31
0.0
  0
LINE
  8
0
  6
BYLAYER
 62
     1
 10
120.928328
 20
-244.319113
 30
0.0
 11
120.928328
 21
-287.319113
 31
0.0
  0
LINE
  8
0
  6
BYLAYER
 62
     1
 10
165.928328
 20
-289.319113
 30
0.0
 11
165.928328
 21
-279.319113
 31
0.0
  0
LINE
  8
0
  6
BYLAYER
 62
     1
 10
167.428328
 20
-287.819113
 30
0.0
 11
165.928328
 21
-289.319113
 31
0.0
  0
LINE
  8
0
  6
BYLAYER
 62
     1
 10
165.928328
 20
-289.319113
 30
0.0
 11
122.928328
 21
-289.319113
 31
0.0
  0
LINE
  8
0
  6
BYLAYER
 62
     1
 10
120.928328
 20
-287.319113
 30
0.0
 11
122.928328
 21
-289.319113
 31
0.0
  0
LINE
  8
0
  6
BYLAYER
 62
     1
 10
120.928328
 20
-244.319113
 30
0.0
 11
130.928328
 21
-244.319113
 31
0.0
  0
LINE
  8
0
  6
BYLAYER
 62
     1
 10
122.428328
 20
-242.819113
 30
0.0
 11
120.928328
 21
-244.319113
 31
0.0
  0
LINE
  8
0
  6
BYLAYER
 62
     1
 10
141.428328
 20
-279.319113
 30
0.0
 11
141.428328
 21
-289.319113
 31
0.0
  0
LINE
  8
0
  6
BYLAYER
 62
     1
 10
261.678328
 20
-279.319113
 30
0.0
 11
261.678328
 21
-289.319113
 31
0.0
  0
LINE
  8
0
  6
BYLAYER
 62
     1
 10
272.678328
 20
-279.319113
 30
0.0
 11
272.678328
 21
-289.319113
 31
0.0
  0
LINE
  8
0
  6
BYLAYER
 62
     1
 10
286.428328
 20
-289.319113
 30
0.0
 11
285.428328
 21
-289.319113
 31
0.0
  0
LINE
  8
0
  6
BYLAYER
 62
     1
 10
122.428328
 20
-189.319113
 30
0.0
 11
122.428328
 21
-242.819113
 31
0.0
  0
LINE
  8
0
  6
BYLAYER
 62
     1
 10
291.428328
 20
-189.319113
 30
0.0
 11
291.428328
 21
-242.819113
 31
0.0
  0
LINE
  8
0
  6
BYLAYER
 62
     1
 10
190.233809
 20
-124.569235
 30
0.0
 11
168.178328
 21
-124.569235
 31
0.0
  0
LINE
  8
0
  6
BYLAYER
 62
     1
 10
206.928328
 20
-122.069235
 30
0.0
 11
168.178328
 21
-122.069235
 31
0.0
  0
ARC
  8
0
  6
BYLAYER
 62
     1
 10
168.178328
 20
-123.319235
 30
0.0
 40
1.25
 50
90.0
 51
270.000005
  0
LINE
  8
0
  6
BYLAYER
 62
     1
 10
206.928328
 20
-122.069235
 30
0.0
 11
245.678328
 21
-122.069235
 31
0.0
  0
ARC
  8
0
  6
BYLAYER
 62
     1
 10
245.678328
 20
-123.319235
 30
0.0
 40
1.25
 50
270.0
 51
450.000005
  0
ARC
  8
0
  6
BYLAYER
 62
     1
 10
131.928328
 20
-131.069235
 30
0.0
 40
1.000000
 50
180.000000
 51
269.999996
  0
ARC
  8
0
  6
BYLAYER
 62
     1
 10
131.928328
 20
-135.569235
 30
0.0
 40
1.000000
 50
90.0
 51
180.000003
  0
ARC
  8
0
  6
BYLAYER
 62
     1
 10
160.678328
 20
-143.319235
 30
0.0
 40
1.25
 50
270.0
 51
450.000005
  0
ARC
  8
0
  6
BYLAYER
 62
     1
 10
131.928328
 20
-145.569235
 30
0.0
 40
1.000000
 50
90.0
 51
180.000003
  0
ARC
  8
0
  6
BYLAYER
 62
     1
 10
131.928328
 20
-151.069235
 30
0.0
 40
1.000000
 50
180.000000
 51
269.999996
  0
LINE
  8
0
  6
BYLAYER
 62
     1
 10
150.678267
 20
-152.069235
 30
0.0
 11
131.928328
 21
-152.069235
 31
0.0
  0
ARC
  8
0
  6
BYLAYER
 62
     1
 10
150.678267
 20
-153.319235
 30
0.0
 40
1.25
 50
270.0
 51
450.000005
  0
LINE
  8
0
  6
BYLAYER
 62
     1
 10
160.678328
 20
-142.069235
 30
0.0
 11
131.928328
 21
-142.069235
 31
0.0
  0
LINE
  8
0
  6
BYLAYER
 62
     1
 10
160.678328
 20
-144.569235
 30
0.0
 11
131.928328
 21
-144.569235
 31
0.0
  0
LINE
  8
0
  6
BYLAYER
 62
     1
 10
131.928328
 20
-134.569235
 30
0.0
 11
166.028182
 21
-134.569235
 31
0.0
  0
LINE
  8
0
  6
BYLAYER
 62
     1
 10
131.928328
 20
-132.069235
 30
0.0
 11
166.028182
 21
-132.069235
 31
0.0
  0
LINE
  8
0
  6
BYLAYER
 62
     1
 10
253.178084
 20
-142.069235
 30
0.0
 11
281.928328
 21
-142.069235
 31
0.0
  0
LINE
  8
0
  6
BYLAYER
 62
     1
 10
253.178084
 20
-144.569235
 30
0.0
 11
281.928328
 21
-144.569235
 31
0.0
  0
ARC
  8
0
  6
BYLAYER
 62
     1
 10
253.178084
 20
-143.319235
 30
0.0
 40
1.25
 50
90.0
 51
270.000005
  0
LINE
  8
0
  6
BYLAYER
 62
     1
 10
263.178145
 20
-154.569235
 30
0.0
 11
281.928328
 21
-154.569235
 31
0.0
  0
ARC
  8
0
  6
BYLAYER
 62
     1
 10
263.178145
 20
-153.319235
 30
0.0
 40
1.25
 50
90.0
 51
270.000005
  0
ARC
  8
0
  6
BYLAYER
 62
     1
 10
281.928328
 20
-145.569235
 30
0.0
 40
1.000000
 50
0.0
 51
90.000016
  0
ARC
  8
0
  6
BYLAYER
 62
     1
 10
281.928328
 20
-145.569235
 30
0.0
 40
1.000000
 50
0.0
 51
90.000016
  0
ARC
  8
0
  6
BYLAYER
 62
     1
 10
281.928328
 20
-155.569235
 30
0.0
 40
1.000000
 50
0.0
 51
90.000016
  0
ARC
  8
0
  6
BYLAYER
 62
     1
 10
131.928328
 20
-141.069235
 30
0.0
 40
1.0
 50
180.000000
 51
270.000009
  0
ARC
  8
0
  6
BYLAYER
 62
     1
 10
281.928328
 20
-141.069235
 30
0.0
 40
1.000000
 50
270.0
 51
360.000003
  0
ARC
  8
0
  6
BYLAYER
 62
     1
 10
281.928328
 20
-151.069235
 30
0.0
 40
1.0
 50
270.0
 51
359.999982
  0
LINE
  8
0
  6
BYLAYER
 62
     1
 10
292.928328
 20
-267.819113
 30
0.0
 11
282.928328
 21
-267.819113
 31
0.0
  0
LINE
  8
0
  6
BYLAYER
 62
     1
 10
292.928328
 20
-256.819113
 30
0.0
 11
282.928328
 21
-256.819113
 31
0.0
  0
LINE
  8
0
  6
BYLAYER
 62
     1
 10
152.428328
 20
-279.319113
 30
0.0
 11
152.428328
 21
-289.319113
 31
0.0
  0
LINE
  8
0
  6
BYLAYER
 62
     1
 10
223.622847
 20
-124.569235
 30
0.0
 11
245.678328
 21
-124.569235
 31
0.0
  0
LINE
  8
0
  6
BYLAYER
 62
     1
 10
247.928328
 20
-84.319113
 30
0.0
 11
290.928328
 21
-84.319113
 31
0.0
  0
LINE
  8
0
  6
BYLAYER
 62
     1
 10
165.928328
 20
-84.319113
 30
0.0
 11
165.928328
 21
-94.319113
 31
0.0
  0
LINE
  8
0
  6
BYLAYER
 62
     1
 10
167.428328
 20
-85.819113
 30
0.0
 11
206.928328
 21
-85.819113
 31
0.0
  0
LINE
  8
0
  6
BYLAYER
 62
     1
 10
246.428328
 20
-85.819113
 30
0.0
 11
206.928328
 21
-85.819113
 31
0.0
  0
LINE
  8
0
  6
BYLAYER
 62
     1
 10
246.428328
 20
-85.819113
 30
0.0
 11
246.428328
 21
-94.319113
 31
0.0
  0
LINE
  8
0
  6
BYLAYER
 62
     1
 10
247.928328
 20
-84.319113
 30
0.0
 11
247.928328
 21
-94.319113
 31
0.0
  0
LINE
  8
0
  6
BYLAYER
 62
     1
 10
165.928328
 20
-84.319113
 30
0.0
 11
122.928328
 21
-84.319113
 31
0.0
  0
LINE
  8
0
  6
BYLAYER
 62
     1
 10
247.928328
 20
-84.319113
 30
0.0
 11
247.928328
 21
-94.319113
 31
0.0
  0
LINE
  8
0
  6
BYLAYER
 62
     1
 10
120.928328
 20
-86.319235
 30
0.0
 11
122.928328
 21
-84.319235
 31
0.0
  0
LINE
  8
0
  6
BYLAYER
 62
     1
 10
246.428328
 20
-85.819113
 30
0.0
 11
247.928328
 21
-84.319113
 31
0.0
  0
LINE
  8
0
  6
BYLAYER
 62
     1
 10
167.428328
 20
-85.819113
 30
0.0
 11
165.928328
 21
-84.319113
 31
0.0
  0
LINE
  8
0
  6
BYLAYER
 62
     1
 10
292.928328
 20
-86.319235
 30
0.0
 11
290.928328
 21
-84.319113
 31
0.0
  0
ARC
  8
0
  6
BYLAYER
 62
     1
 10
280.928328
 20
-96.319235
 30
0.0
 40
2.000000
 50
0.0
 51
89.999996
  0
LINE
  8
0
  6
BYLAYER
 62
     1
 10
120.928328
 20
-115.819113
 30
0.0
 11
130.928328
 21
-115.819113
 31
0.0
  0
LINE
  8
0
  6
BYLAYER
 62
     1
 10
120.928328
 20
-104.819113
 30
0.0
 11
130.928328
 21
-104.819113
 31
0.0
  0
LINE
  8
0
  6
BYLAYER
 62
     1
 10
120.928328
 20
-257.819113
 30
0.0
 11
130.928328
 21
-257.819113
 31
0.0
  0
LINE
  8
0
  6
BYLAYER
 62
     1
 10
120.928328
 20
-268.819113
 30
0.0
 11
130.928328
 21
-268.819113
 31
0.0
  0
LINE
  8
0
  6
BYLAYER
 62
     1
 10
294.928328
 20
-134.069235
 30
0.0
 11
294.928328
 21
-113.569235
 31
0.0
  0
LINE
  8
0
  6
BYLAYER
 62
     1
 10
167.428328
 20
-94.319235
 30
0.0
 11
167.428328
 21
-85.819113
 31
0.0
  0
ARC
  8
0
  6
BYLAYER
 62
     1
 10
281.928328
 20
-278.319113
 30
0.0
 40
1.0
 50
270.0
 51
360.000003
  0
ARC
  8
0
  6
BYLAYER
 62
     1
 10
131.928328
 20
-278.319113
 30
0.0
 40
1.000000
 50
180.000000
 51
269.999996
  0
LINE
  8
0
  6
BYLAYER
 62
     1
 10
152.678328
 20
-94.319235
 30
0.0
 11
152.678328
 21
-84.319113
 31
0.0
  0
LINE
  8
0
  6
BYLAYER
 62
     1
 10
141.178328
 20
-94.319235
 30
0.0
 11
141.178328
 21
-84.319113
 31
0.0
  0
LINE
  8
0
  6
BYLAYER
 62
     1
 10
261.178328
 20
-94.319235
 30
0.0
 11
261.178328
 21
-84.319113
 31
0.0
  0
LINE
  8
0
  6
BYLAYER
 62
     1
 10
272.678328
 20
-94.319235
 30
0.0
 11
272.678328
 21
-84.319113
 31
0.0
  0
ARC
  8
0
  6
BYLAYER
 62
     1
 10
248.174178
 20
-133.319235
 30
0.0
 40
1.25
 50
90.0
 51
270.000005
  0
ARC
  8
0
  6
BYLAYER
 62
     1
 10
165.712325
 20
-133.319235
 30
0.0
 40
1.25
 50
270.0
 51
450.000005
  0
LINE
  8
0
  6
BYLAYER
 62
     1
 10
292.928328
 20
-129.319235
 30
0.0
 11
282.928328
 21
-129.319235
 31
0.0
  0
LINE
  8
0
  6
BYLAYER
 62
     1
 10
291.428328
 20
-130.819235
 30
0.0
 11
292.928328
 21
-129.319235
 31
0.0
  0
LINE
  8
0
  6
BYLAYER
 62
     1
 10
291.428328
 20
-130.819235
 30
0.0
 11
291.428328
 21
-189.319113
 31
0.0
  0
LINE
  8
0
  6
BYLAYER
 62
     1
 10
292.928328
 20
-86.319235
 30
0.0
 11
292.928328
 21
-129.319235
 31
0.0
  0
LINE
  8
0
  6
BYLAYER
 62
     1
 10
120.928328
 20
-129.319235
 30
0.0
 11
130.928328
 21
-129.319235
 31
0.0
  0
LINE
  8
0
  6
BYLAYER
 62
     1
 10
122.428328
 20
-130.819235
 30
0.0
 11
120.928328
 21
-129.319235
 31
0.0
  0
LINE
  8
0
  6
BYLAYER
 62
     1
 10
122.428328
 20
-130.819235
 30
0.0
 11
122.428328
 21
-189.319113
 31
0.0
  0
LINE
  8
0
  6
BYLAYER
 62
     1
 10
280.928328
 20
-94.319235
 30
0.0
 11
132.928328
 21
-94.319235
 31
0.0
  0
LINE
  8
0
  6
BYLAYER
 62
     1
 10
291.428328
 20
-130.819235
 30
0.0
 11
282.928328
 21
-130.819235
 31
0.0
  0
LINE
  8
0
  6
BYLAYER
 62
     1
 10
291.428328
 20
-242.819113
 30
0.0
 11
282.928328
 21
-242.819113
 31
0.0
  0
LINE
  8
0
  6
BYLAYER
 62
     1
 10
167.428328
 20
-287.819113
 30
0.0
 11
167.428328
 21
-279.319113
 31
0.0
  0
LINE
  8
0
  6
BYLAYER
 62
     1
 10
246.428328
 20
-279.319113
 30
0.0
 11
246.428328
 21
-287.819113
 31
0.0
  0
LINE
  8
0
  6
BYLAYER
 62
     1
 10
122.428328
 20
-242.819113
 30
0.0
 11
130.928328
 21
-242.819113
 31
0.0
  0
LINE
  8
0
  6
BYLAYER
 62
     1
 10
130.928328
 20
-130.819235
 30
0.0
 11
122.428328
 21
-130.819235
 31
0.0
  0
LINE
  8
0
  6
BYLAYER
 62
     1
 10
246.428328
 20
-287.819113
 30
0.0
 11
167.428328
 21
-287.819113
 31
0.0
  0
LINE
  8
0
  6
BYLAYER
 62
     1
 10
130.928328
 20
-173.515585
 30
0.0
 11
130.928328
 21
-96.319235
 31
0.0
  0
LINE
  8
0
  6
BYLAYER
 62
     1
 10
130.928328
 20
-96.319235
 30
0.0
 11
132.928328
 21
-94.319235
 31
0.0
  0
ARC
  8
0
  6
BYLAYER
 62
     1
 10
128.928328
 20
-173.515585
 30
0.0
 40
2.000004
 50
339.088047
 51
360.0
  0
ARC
  8
0
  6
BYLAYER
 62
     1
 10
206.928328
 20
-203.319113
 30
0.0
 40
81.5
 50
159.088329
 51
200.911681
  0
LINE
  8
0
  6
BYLAYER
 62
     1
 10
130.928328
 20
-233.122641
 30
0.0
 11
130.928328
 21
-278.319113
 31
0.0
  0
ARC
  8
0
  6
BYLAYER
 62
     1
 10
128.928328
 20
-233.122641
 30
0.0
 40
2.000004
 50
0.0
 51
20.911958
  0
LINE
  8
0
  6
BYLAYER
 62
     1
 10
131.928328
 20
-279.319113
 30
0.0
 11
177.124800
 21
-279.319113
 31
0.0
  0
ARC
  8
0
  6
BYLAYER
 62
     1
 10
177.124800
 20
-281.319113
 30
0.0
 40
2.0
 50
69.087962
 51
90.000000
  0
ARC
  8
0
  6
BYLAYER
 62
     1
 10
206.928328
 20
-203.319113
 30
0.0
 40
81.500008
 50
249.088338
 51
290.911690
  0
LINE
  8
0
  6
BYLAYER
 62
     1
 10
236.731856
 20
-279.319113
 30
0.0
 11
281.928328
 21
-279.319113
 31
0.0
  0
ARC
  8
0
  6
BYLAYER
 62
     1
 10
236.731856
 20
-281.319113
 30
0.0
 40
1.999991
 50
90.0
 51
110.911628
  0
LINE
  8
0
  6
BYLAYER
 62
     1
 10
282.928328
 20
-233.122641
 30
0.0
 11
282.928328
 21
-278.319113
 31
0.0
  0
ARC
  8
0
  6
BYLAYER
 62
     1
 10
284.928328
 20
-233.122641
 30
0.0
 40
2.0
 50
159.087955
 51
180.000000
  0
LINE
  8
0
  6
BYLAYER
 62
     1
 10
282.928328
 20
-173.515585
 30
0.0
 11
282.928328
 21
-95.819235
 31
0.0
  0
ARC
  8
0
  6
BYLAYER
 62
     1
 10
206.928328
 20
-203.319113
 30
0.0
 40
81.500008
 50
339.088320
 51
380.911693
  0
ARC
  8
0
  6
BYLAYER
 62
     1
 10
284.928328
 20
-173.515555
 30
0.0
 40
2.000000
 50
180.000000
 51
200.912031
  0
ARC
  8
0
  6
BYLAYER
 62
     1
 10
134.928328
 20
-275.319113
 30
0.0
 40
1.000000
 50
180.000000
 51
269.999996
  0
LINE
  8
0
  6
BYLAYER
 62
     1
 10
279.928328
 20
-244.319113
 30
0.0
 11
279.928328
 21
-275.319113
 31
0.0
  0
ARC
  8
0
  6
BYLAYER
 62
     1
 10
278.928328
 20
-275.319113
 30
0.0
 40
1.0
 50
270.0
 51
360.000003
  0
LINE
  8
0
  6
BYLAYER
 62
     1
 10
134.221236
 20
-276.026236
 30
0.0
 11
131.221236
 21
-279.026236
 31
0.0
  0
LINE
  8
0
  6
BYLAYER
 62
     1
 10
279.635420
 20
-276.026236
 30
0.0
 11
282.635420
 21
-279.026236
 31
0.0
  0
ARC
  8
0
  6
BYLAYER
 62
     1
 10
131.928328
 20
-155.569235
 30
0.0
 40
1.000000
 50
90.0
 51
179.999989
  0
LINE
  8
0
  6
BYLAYER
 62
     1
 10
150.678267
 20
-154.569235
 30
0.0
 11
131.928328
 21
-154.569235
 31
0.0
  0
ARC
  8
0
  6
BYLAYER
 62
     1
 10
276.928328
 20
-123.319113
 30
0.0
 40
2.000000
 50
90.0
 51
180.000003
  0
LINE
  8
0
  6
BYLAYER
 62
     1
 10
274.928328
 20
-123.319113
 30
0.0
 11
274.928328
 21
-133.319113
 31
0.0
  0
ARC
  8
0
  6
BYLAYER
 62
     1
 10
276.928328
 20
-133.319113
 30
0.0
 40
2.000000
 50
180.000000
 51
269.999996
  0
LINE
  8
0
  6
BYLAYER
 62
     1
 10
276.928328
 20
-135.319113
 30
0.0
 11
280.928328
 21
-135.319113
 31
0.0
  0
ARC
  8
0
  6
BYLAYER
 62
     1
 10
280.928328
 20
-137.319113
 30
0.0
 40
2.000000
 50
0.0
 51
90.000003
  0
LINE
  8
0
  6
BYLAYER
 62
     1
 10
276.928328
 20
-121.319113
 30
0.0
 11
280.928328
 21
-121.319113
 31
0.0
  0
ARC
  8
0
  6
BYLAYER
 62
     1
 10
280.928328
 20
-119.319113
 30
0.0
 40
2.0
 50
270.0
 51
360.000003
  0
LINE
  8
0
  6
BYLAYER
 62
     1
 10
274.944136
 20
-134.569235
 30
0.0
 11
248.174178
 21
-134.569235
 31
0.0
  0
ARC
  8
0
  6
BYLAYER
 62
     1
 10
274.944136
 20
-135.569235
 30
0.0
 40
1.000026
 50
48.593996
 51
90.000003
  0
LINE
  8
0
  6
BYLAYER
 62
     1
 10
273.928328
 20
-132.069235
 30
0.0
 11
248.174178
 21
-132.069235
 31
0.0
  0
ARC
  8
0
  6
BYLAYER
 62
     1
 10
273.928328
 20
-131.069235
 30
0.0
 40
1.0
 50
270.0
 51
360.000003
  0
LINE
  8
0
  6
BYLAYER
 62
     1
 10
241.339156
 20
-276.319113
 30
0.0
 11
278.928328
 21
-276.319113
 31
0.0
  0
LINE
  8
0
  6
BYLAYER
 62
     1
 10
279.928328
 20
-237.729971
 30
0.0
 11
279.928328
 21
-275.319113
 31
0.0
  0
LINE
  8
0
  6
BYLAYER
 62
     1
 10
133.928328
 20
-237.729971
 30
0.0
 11
133.928328
 21
-275.319113
 31
0.0
  0
LINE
  8
0
  6
BYLAYER
 62
     1
 10
134.928328
 20
-276.319113
 30
0.0
 11
172.517439
 21
-276.319113
 31
0.0
  0
LINE
  8
0
  6
BYLAYER
 62
     1
 10
294.928328
 20
-170.826102
 30
0.0
 11
294.928328
 21
-85.812124
 31
0.0
  0
LINE
  8
0
  6
BYLAYER
 62
     1
 10
294.928328
 20
-170.826102
 30
0.0
 11
291.428328
 21
-170.948324
 31
0.0
  0
LINE
  8
0
  6
BYLAYER
 62
     1
 10
294.928328
 20
-85.812124
 30
0.0
 11
292.330550
 21
-85.721396
 31
0.0
  0
LINE
  8
0
  6
BYLAYER
 62
     1
 10
120.928328
 20
-162.543112
 30
0.0
 11
120.928328
 21
-86.319235
 31
0.0
  0
LINE
  8
0
  6
BYLAYER
 62
     1
 10
120.928328
 20
-162.543112
 30
0.0
 11
122.428328
 21
-162.595480
 31
0.0
  0
LINE
  8
0
  6
BYLAYER
 62
     1
 10
281.928328
 20
-152.069235
 30
0.0
 11
263.178145
 21
-152.069235
 31
0.0
  0
ARC
  8
0
  6
BYLAYER
 62
     1
 10
168.613020
 20
-147.141379
 30
0.0
 40
2.000066
 50
61.945103
 51
124.296261
  0
ARC
  8
0
  6
BYLAYER
 62
     1
 10
194.297591
 20
-136.502463
 30
0.0
 40
1.999995
 50
100.705532
 51
163.055904
  0
ARC
  8
0
  6
BYLAYER
 62
     1
 10
206.928328
 20
-203.319113
 30
0.0
 40
69.999878
 50
79.295443
 51
100.704664
  0
ARC
  8
0
  6
BYLAYER
 62
     1
 10
219.558943
 20
-136.502463
 30
0.0
 40
1.999900
 50
16.944094
 51
79.294466
  0
ARC
  8
0
  6
BYLAYER
 62
     1
 10
245.243453
 20
-147.141379
 30
0.0
 40
1.999928
 50
55.705179
 51
118.056036
  0
ARC
  8
0
  6
BYLAYER
 62
     1
 10
273.744856
 20
-215.949972
 30
0.0
 40
2.000030
 50
286.944361
 51
349.295492
  0
ARC
  8
0
  6
BYLAYER
 62
     1
 10
263.106001
 20
-241.634543
 30
0.0
 40
2.000036
 50
325.704454
 51
388.055618
  0
ARC
  8
0
  6
BYLAYER
 62
     1
 10
206.928328
 20
-203.319113
 30
0.0
 40
69.999969
 50
304.295309
 51
325.704537
  0
ARC
  8
0
  6
BYLAYER
 62
     1
 10
245.243514
 20
-259.496969
 30
0.0
 40
2.000036
 50
241.943960
 51
304.294326
  0
ARC
  8
0
  6
BYLAYER
 62
     1
 10
219.558943
 20
-270.135763
 30
0.0
 40
2.000139
 50
280.705366
 51
343.055895
  0
ARC
  8
0
  6
BYLAYER
 62
     1
 10
206.928328
 20
-203.319113
 30
0.0
 40
70.000023
 50
259.295346
 51
280.704546
  0
ARC
  8
0
  6
BYLAYER
 62
     1
 10
194.297530
 20
-270.135763
 30
0.0
 40
2.000007
 50
196.944598
 51
259.296193
  0
ARC
  8
0
  6
BYLAYER
 62
     1
 10
168.613020
 20
-259.496969
 30
0.0
 40
2.000031
 50
235.705676
 51
298.056041
  0
ARC
  8
0
  6
BYLAYER
 62
     1
 10
206.928328
 20
-203.319113
 30
0.0
 40
70.000069
 50
214.295423
 51
235.704610
  0
ARC
  8
0
  6
BYLAYER
 62
     1
 10
150.750533
 20
-241.634543
 30
0.0
 40
2.000036
 50
151.944375
 51
214.295546
  0
ARC
  8
0
  6
BYLAYER
 62
     1
 10
140.111617
 20
-215.949972
 30
0.0
 40
2.000008
 50
190.704510
 51
253.055640
  0
ARC
  8
0
  6
BYLAYER
 62
     1
 10
206.928328
 20
-203.319113
 30
0.0
 40
70.000046
 50
169.295473
 51
190.704646
  0
ARC
  8
0
  6
BYLAYER
 62
     1
 10
140.111617
 20
-190.688498
 30
0.0
 40
2.000008
 50
106.944349
 51
169.295487
  0
ARC
  8
0
  6
BYLAYER
 62
     1
 10
150.750533
 20
-165.003927
 30
0.0
 40
2.000036
 50
145.704450
 51
208.055622
  0
ARC
  8
0
  6
BYLAYER
 62
     1
 10
206.928328
 20
-203.319113
 30
0.0
 40
70.0
 50
124.295441
 51
145.704587
  0
ARC
  8
0
  6
BYLAYER
 62
     1
 10
206.928328
 20
-203.319113
 30
0.0
 40
80.5
 50
154.482405
 51
205.517595
  0
ARC
  8
0
  6
BYLAYER
 62
     1
 10
136.085738
 20
-169.502249
 30
0.0
 40
2.0
 50
105.0
 51
154.482405
  0
ARC
  8
0
  6
BYLAYER
 62
     1
 10
206.928328
 20
-203.319113
 30
0.0
 40
80.5
 50
244.482414
 51
295.517604
  0
ARC
  8
0
  6
BYLAYER
 62
     1
 10
206.928328
 20
-203.319113
 30
0.0
 40
80.500000
 50
64.482402
 51
115.517593
  0
ARC
  8
0
  6
BYLAYER
 62
     1
 10
240.745223
 20
-132.476553
 30
0.0
 40
2.000000
 50
14.999997
 51
64.482402
  0
ARC
  8
0
  6
BYLAYER
 62
     1
 10
206.928328
 20
-203.319113
 30
0.0
 40
80.5
 50
334.482396
 51
385.517587
  0
ARC
  8
0
  6
BYLAYER
 62
     1
 10
206.928328
 20
-203.319113
 30
0.0
 40
47.5
 50
22.499997
 51
374.817192
  0
ARC
  8
0
  6
BYLAYER
 62
     1
 10
206.928328
 20
-203.319113
 30
0.0
 40
47.500004
 50
14.817201
 51
22.499997
  0
ARC
  8
0
  6
BYLAYER
 62
     1
 10
278.990828
 20
-233.168478
 30
0.0
 40
16.000019
 50
106.944527
 51
208.056127
  0
ARC
  8
0
  6
BYLAYER
 62
     1
 10
236.777571
 20
-275.381857
 30
0.0
 40
16.000034
 50
61.944358
 51
163.055330
  0
ARC
  8
0
  6
BYLAYER
 62
     1
 10
177.078963
 20
-275.381857
 30
0.0
 40
16.000015
 50
16.944695
 51
118.055640
  0
ARC
  8
0
  6
BYLAYER
 62
     1
 10
134.865706
 20
-233.168478
 30
0.0
 40
15.999969
 50
331.943912
 51
433.055724
  0
ARC
  8
0
  6
BYLAYER
 62
     1
 10
177.078963
 20
-131.256613
 30
0.0
 40
15.999943
 50
241.944206
 51
343.056032
  0
ARC
  8
0
  6
BYLAYER
 62
     1
 10
236.777571
 20
-131.256613
 30
0.0
 40
16.000040
 50
196.943969
 51
298.055604
  0
ARC
  8
0
  6
BYLAYER
 62
     1
 10
134.865706
 20
-173.469992
 30
0.0
 40
16.000046
 50
286.944222
 51
388.056081
  0
ARC
  8
0
  6
BYLAYER
 62
     1
 10
263.106001
 20
-165.003805
 30
0.0
 40
1.999947
 50
331.944107
 51
394.294465
  0
ARC
  8
0
  6
BYLAYER
 62
     1
 10
273.744856
 20
-190.688345
 30
0.0
 40
1.999925
 50
10.705174
 51
73.056031
  0
ARC
  8
0
  6
BYLAYER
 62
     1
 10
206.928328
 20
-203.319113
 30
0.0
 40
69.999832
 50
34.295490
 51
55.704670
  0
ARC
  8
0
  6
BYLAYER
 62
     1
 10
206.928328
 20
-203.319113
 30
0.0
 40
69.999840
 50
349.295164
 51
370.704686
  0
ARC
  8
0
  6
BYLAYER
 62
     1
 10
278.990828
 20
-173.469839
 30
0.0
 40
16.000053
 50
230.812200
 51
253.055476
  0
ARC
  8
0
  6
BYLAYER
 62
     1
 10
278.990828
 20
-173.469839
 30
0.0
 40
16.000072
 50
151.943965
 51
174.188129
  0
ARC
  8
0
  6
BYLAYER
 62
     1
 10
278.990828
 20
-173.469839
 30
0.0
 40
16.000027
 50
174.188211
 51
230.812255
  0
LINE
  8
0
  6
BYLAYER
 62
     1
 10
278.288557
 20
-239.067831
 30
0.0
 11
268.466353
 21
-241.699667
 31
0.0
  0
ARC
  8
0
  6
BYLAYER
 62
     1
 10
277.770918
 20
-237.135977
 30
0.0
 40
2.0
 50
284.999998
 51
334.482403
  0
LINE
  8
0
  6
BYLAYER
 62
     1
 10
245.308882
 20
-264.857168
 30
0.0
 11
242.677046
 21
-274.679312
 31
0.0
  0
ARC
  8
0
  6
BYLAYER
 62
     1
 10
240.745223
 20
-274.161673
 30
0.0
 40
2.0
 50
295.517608
 51
345.000013
  0
ARC
  8
0
  6
BYLAYER
 62
     1
 10
206.928328
 20
-203.319113
 30
0.0
 40
72.0
 50
303.008420
 51
326.991564
  0
ARC
  8
0
  6
BYLAYER
 62
     1
 10
268.983992
 20
-243.631521
 30
0.0
 40
2.0
 50
105.000000
 51
146.991572
  0
ARC
  8
0
  6
BYLAYER
 62
     1
 10
247.240767
 20
-265.374808
 30
0.0
 40
2.000000
 50
123.008428
 51
165.000001
  0
LINE
  8
0
  6
BYLAYER
 62
     1
 10
242.677046
 20
-131.958914
 30
0.0
 11
245.308882
 21
-141.781058
 31
0.0
  0
LINE
  8
0
  6
BYLAYER
 62
     1
 10
268.466353
 20
-164.938559
 30
0.0
 11
278.288557
 21
-167.570395
 31
0.0
  0
ARC
  8
0
  6
BYLAYER
 62
     1
 10
277.770918
 20
-169.502249
 30
0.0
 40
2.0
 50
25.517594
 51
74.999999
  0
ARC
  8
0
  6
BYLAYER
 62
     1
 10
206.928328
 20
-203.319113
 30
0.0
 40
72.000000
 50
33.008429
 51
56.991573
  0
ARC
  8
0
  6
BYLAYER
 62
     1
 10
247.240767
 20
-141.263418
 30
0.0
 40
2.0
 50
195.000009
 51
236.991582
  0
ARC
  8
0
  6
BYLAYER
 62
     1
 10
268.983992
 20
-163.006705
 30
0.0
 40
2.000000
 50
213.008424
 51
254.999997
  0
LINE
  8
0
  6
BYLAYER
 62
     1
 10
135.568099
 20
-167.570395
 30
0.0
 11
145.390242
 21
-164.938559
 31
0.0
  0
LINE
  8
0
  6
BYLAYER
 62
     1
 10
168.547774
 20
-141.781058
 30
0.0
 11
171.179610
 21
-131.958914
 31
0.0
  0
ARC
  8
0
  6
BYLAYER
 62
     1
 10
173.111433
 20
-132.476553
 30
0.0
 40
2.0
 50
115.517589
 51
164.999994
  0
ARC
  8
0
  6
BYLAYER
 62
     1
 10
206.928328
 20
-203.319113
 30
0.0
 40
72.000000
 50
123.008428
 51
146.991572
  0
ARC
  8
0
  6
BYLAYER
 62
     1
 10
144.872603
 20
-163.006705
 30
0.0
 40
2.000000
 50
284.999991
 51
326.991564
  0
ARC
  8
0
  6
BYLAYER
 62
     1
 10
166.615889
 20
-141.263418
 30
0.0
 40
2.0
 50
303.008420
 51
344.999993
  0
LINE
  8
0
  6
BYLAYER
 62
     1
 10
171.179610
 20
-274.679312
 30
0.0
 11
168.547774
 21
-264.857168
 31
0.0
  0
ARC
  8
0
  6
BYLAYER
 62
     1
 10
173.111433
 20
-274.161673
 30
0.0
 40
2.0
 50
195.000002
 51
244.482407
  0
LINE
  8
0
  6
BYLAYER
 62
     1
 10
145.390242
 20
-241.699667
 30
0.0
 11
135.568099
 21
-239.067831
 31
0.0
  0
ARC
  8
0
  6
BYLAYER
 62
     1
 10
136.085738
 20
-237.135977
 30
0.0
 40
2.000000
 50
205.517599
 51
255.000004
  0
ARC
  8
0
  6
BYLAYER
 62
     1
 10
206.928328
 20
-203.319113
 30
0.0
 40
72.0
 50
213.008424
 51
236.991568
  0
ARC
  8
0
  6
BYLAYER
 62
     1
 10
166.615889
 20
-265.374808
 30
0.0
 40
2.0
 50
15.000000
 51
56.991573
  0
ARC
  8
0
  6
BYLAYER
 62
     1
 10
144.872603
 20
-243.631521
 30
0.0
 40
2.000000
 50
33.008429
 51
75.000002
  0
ARC
  8
0
  6
BYLAYER
 62
     1
 10
166.269637
 20
-162.660422
 30
0.0
 40
4.0
 50
270.0
 51
540.0
  0
CIRCLE
  8
0
  6
BYLAYER
 62
     1
 10
166.269637
 20
-162.660422
 30
0.0
 40
3.5
  0
ARC
  8
0
  6
BYLAYER
 62
     1
 10
206.928328
 20
-145.819113
 30
0.0
 40
4.0
 50
270.0
 51
540.0
  0
CIRCLE
  8
0
  6
BYLAYER
 62
     1
 10
206.928328
 20
-145.819113
 30
0.0
 40
3.5
  0
ARC
  8
0
  6
BYLAYER
 62
     1
 10
247.586897
 20
-162.660666
 30
0.0
 40
4.0
 50
270.0
 51
540.0
  0
CIRCLE
  8
0
  6
BYLAYER
 62
     1
 10
247.586897
 20
-162.660666
 30
0.0
 40
3.5
  0
ARC
  8
0
  6
BYLAYER
 62
     1
 10
264.428328
 20
-203.319113
 30
0.0
 40
4.0
 50
270.0
 51
540.0
  0
CIRCLE
  8
0
  6
BYLAYER
 62
     1
 10
264.428328
 20
-203.319113
 30
0.0
 40
3.5
  0
ARC
  8
0
  6
BYLAYER
 62
     1
 10
247.586897
 20
-243.977804
 30
0.0
 40
4.0
 50
270.0
 51
540.0
  0
CIRCLE
  8
0
  6
BYLAYER
 62
     1
 10
247.586897
 20
-243.977804
 30
0.0
 40
3.5
  0
ARC
  8
0
  6
BYLAYER
 62
     1
 10
206.928206
 20
-260.819113
 30
0.0
 40
4.0
 50
270.0
 51
540.0
  0
CIRCLE
  8
0
  6
BYLAYER
 62
     1
 10
206.928206
 20
-260.819113
 30
0.0
 40
3.5
  0
ARC
  8
0
  6
BYLAYER
 62
     1
 10
166.269637
 20
-243.977804
 30
0.0
 40
4.0
 50
270.0
 51
540.0
  0
CIRCLE
  8
0
  6
BYLAYER
 62
     1
 10
166.269637
 20
-243.977804
 30
0.0
 40
3.5
  0
ARC
  8
0
  6
BYLAYER
 62
     1
 10
149.428328
 20
-203.319113
 30
0.0
 40
4.0
 50
270.0
 51
540.0
  0
CIRCLE
  8
0
  6
BYLAYER
 62
     1
 10
149.428328
 20
-203.319113
 30
0.0
 40
3.5
  0
ARC
  8
0
  6
BYLAYER
 62
     1
 10
194.397200
 20
-114.779142
 30
0.0
 40
2.873727
 50
270.0
 51
308.795511
  0
ARC
  8
0
  6
BYLAYER
 62
     1
 10
194.119098
 20
-114.482962
 30
0.0
 40
3.278957
 50
309.340351
 51
360.0
  0
ARC
  8
0
  6
BYLAYER
 62
     1
 10
194.119098
 20
-114.482962
 30
0.0
 40
3.278957
 50
0.0
 51
50.659649
  0
ARC
  8
0
  6
BYLAYER
 62
     1
 10
194.397200
 20
-114.186782
 30
0.0
 40
2.873727
 50
51.204489
 51
90.0
  0
ARC
  8
0
  6
BYLAYER
 62
     1
 10
194.397200
 20
-114.186756
 30
0.0
 40
2.873701
 50
90.0
 51
128.795693
  0
ARC
  8
0
  6
BYLAYER
 62
     1
 10
194.675328
 20
-114.482962
 30
0.0
 40
3.278967
 50
129.340576
 51
180.0
  0
ARC
  8
0
  6
BYLAYER
 62
     1
 10
194.675328
 20
-114.482962
 30
0.0
 40
3.278967
 50
180.000000
 51
230.659424
  0
ARC
  8
0
  6
BYLAYER
 62
     1
 10
194.397200
 20
-114.779168
 30
0.0
 40
2.873701
 50
231.204307
 51
270.0
  0
ARC
  8
0
  6
BYLAYER
 62
     1
 10
194.397200
 20
-113.639811
 30
0.0
 40
1.329747
 50
90.0
 51
140.793201
  0
ARC
  8
0
  6
BYLAYER
 62
     1
 10
195.430755
 20
-114.482962
 30
0.0
 40
2.663590
 50
140.793201
 51
180.000000
  0
ARC
  8
0
  6
BYLAYER
 62
     1
 10
195.430739
 20
-114.482962
 30
0.0
 40
2.663574
 50
180.000000
 51
219.206869
  0
ARC
  8
0
  6
BYLAYER
 62
     1
 10
194.397200
 20
-115.326102
 30
0.0
 40
1.329750
 50
219.206869
 51
270.000000
  0
ARC
  8
0
  6
BYLAYER
 62
     1
 10
194.397200
 20
-115.326102
 30
0.0
 40
1.329750
 50
270.0
 51
320.793131
  0
ARC
  8
0
  6
BYLAYER
 62
     1
 10
193.363661
 20
-114.482962
 30
0.0
 40
2.663574
 50
320.793131
 51
360.000000
  0
ARC
  8
0
  6
BYLAYER
 62
     1
 10
193.363645
 20
-114.482962
 30
0.0
 40
2.663590
 50
0.0
 51
39.206799
  0
ARC
  8
0
  6
BYLAYER
 62
     1
 10
194.397200
 20
-113.639811
 30
0.0
 40
1.329747
 50
39.206799
 51
90.0
  0
LINE
  8
0
  6
BYLAYER
 62
     1
 10
184.549361
 20
-117.441534
 30
0.0
 11
184.549361
 21
-111.439841
 31
0.0
  0
LINE
  8
0
  6
BYLAYER
 62
     1
 10
184.549361
 20
-111.439841
 30
0.0
 11
186.989485
 21
-111.439841
 31
0.0
  0
LINE
  8
0
  6
BYLAYER
 62
     1
 10
186.989485
 20
-111.439841
 30
0.0
 11
187.803801
 21
-114.567496
 31
0.0
  0
LINE
  8
0
  6
BYLAYER
 62
     1
 10
184.549361
 20
-117.441534
 30
0.0
 11
186.014571
 21
-117.441534
 31
0.0
  0
LINE
  8
0
  6
BYLAYER
 62
     1
 10
186.014571
 20
-117.441534
 30
0.0
 11
186.014571
 21
-113.975775
 31
0.0
  0
LINE
  8
0
  6
BYLAYER
 62
     1
 10
187.169814
 20
-117.441534
 30
0.0
 11
186.014571
 21
-113.975775
 31
0.0
  0
LINE
  8
0
  6
BYLAYER
 62
     1
 10
191.058241
 20
-117.441534
 30
0.0
 11
191.058241
 21
-111.439841
 31
0.0
  0
LINE
  8
0
  6
BYLAYER
 62
     1
 10
191.058241
 20
-111.439841
 30
0.0
 11
188.618117
 21
-111.439841
 31
0.0
  0
LINE
  8
0
  6
BYLAYER
 62
     1
 10
188.618117
 20
-111.439841
 30
0.0
 11
187.803801
 21
-114.567496
 31
0.0
  0
LINE
  8
0
  6
BYLAYER
 62
     1
 10
191.058241
 20
-117.441534
 30
0.0
 11
189.593031
 21
-117.441534
 31
0.0
  0
LINE
  8
0
  6
BYLAYER
 62
     1
 10
189.593031
 20
-117.441534
 30
0.0
 11
189.593031
 21
-113.975775
 31
0.0
  0
LINE
  8
0
  6
BYLAYER
 62
     1
 10
188.437788
 20
-117.441534
 30
0.0
 11
189.593031
 21
-113.975775
 31
0.0
  0
LINE
  8
0
  6
BYLAYER
 62
     1
 10
188.437788
 20
-117.441534
 30
0.0
 11
187.169814
 21
-117.441534
 31
0.0
  0
LINE
  8
0
  6
BYLAYER
 62
     1
 10
212.529082
 20
-117.441534
 30
0.0
 11
214.811400
 21
-111.439841
 31
0.0
  0
LINE
  8
0
  6
BYLAYER
 62
     1
 10
212.529082
 20
-117.441534
 30
0.0
 11
214.473296
 21
-117.441534
 31
0.0
  0
LINE
  8
0
  6
BYLAYER
 62
     1
 10
214.811400
 20
-111.439841
 30
0.0
 11
216.671080
 21
-111.439841
 31
0.0
  0
LINE
  8
0
  6
BYLAYER
 62
     1
 10
214.473296
 20
-117.441534
 30
0.0
 11
214.761473
 21
-116.596228
 31
0.0
  0
LINE
  8
0
  6
BYLAYER
 62
     1
 10
215.222533
 20
-115.243735
 30
0.0
 11
215.741240
 21
-113.722174
 31
0.0
  0
LINE
  8
0
  6
BYLAYER
 62
     1
 10
218.953429
 20
-117.441534
 30
0.0
 11
216.671080
 21
-111.439841
 31
0.0
  0
LINE
  8
0
  6
BYLAYER
 62
     1
 10
218.953429
 20
-117.441534
 30
0.0
 11
217.009215
 21
-117.441534
 31
0.0
  0
LINE
  8
0
  6
BYLAYER
 62
     1
 10
216.721037
 20
-116.596228
 30
0.0
 11
214.761473
 21
-116.596228
 31
0.0
  0
LINE
  8
0
  6
BYLAYER
 62
     1
 10
216.259947
 20
-115.243735
 30
0.0
 11
215.222533
 21
-115.243735
 31
0.0
  0
LINE
  8
0
  6
BYLAYER
 62
     1
 10
217.009215
 20
-117.441534
 30
0.0
 11
216.721037
 21
-116.596228
 31
0.0
  0
LINE
  8
0
  6
BYLAYER
 62
     1
 10
216.259947
 20
-115.243735
 30
0.0
 11
215.741240
 21
-113.722174
 31
0.0
  0
LINE
  8
0
  6
BYLAYER
 62
     1
 10
197.398055
 20
-112.919134
 30
0.0
 11
199.088667
 21
-112.919134
 31
0.0
  0
LINE
  8
0
  6
BYLAYER
 62
     1
 10
199.088667
 20
-112.919134
 30
0.0
 11
199.088667
 21
-117.441534
 31
0.0
  0
LINE
  8
0
  6
BYLAYER
 62
     1
 10
199.088667
 20
-117.441534
 30
0.0
 11
200.948363
 21
-117.441534
 31
0.0
  0
LINE
  8
0
  6
BYLAYER
 62
     1
 10
200.948363
 20
-117.441534
 30
0.0
 11
200.948363
 21
-112.919134
 31
0.0
  0
LINE
  8
0
  6
BYLAYER
 62
     1
 10
200.948363
 20
-112.919134
 30
0.0
 11
202.638976
 21
-112.919134
 31
0.0
  0
LINE
  8
0
  6
BYLAYER
 62
     1
 10
202.638976
 20
-112.919134
 30
0.0
 11
202.638976
 21
-111.439841
 31
0.0
  0
LINE
  8
0
  6
BYLAYER
 62
     1
 10
202.638976
 20
-111.439841
 30
0.0
 11
197.398055
 21
-111.439841
 31
0.0
  0
LINE
  8
0
  6
BYLAYER
 62
     1
 10
197.398055
 20
-111.439841
 30
0.0
 11
197.398055
 21
-112.919134
 31
0.0
  0
ARC
  8
0
  6
BYLAYER
 62
     1
 10
205.639815
 20
-114.779168
 30
0.0
 40
2.873701
 50
270.0
 51
308.795693
  0
ARC
  8
0
  6
BYLAYER
 62
     1
 10
205.361687
 20
-114.482962
 30
0.0
 40
3.278967
 50
309.340576
 51
360.000000
  0
ARC
  8
0
  6
BYLAYER
 62
     1
 10
205.361697
 20
-114.482962
 30
0.0
 40
3.278957
 50
0.0
 51
50.659649
  0
ARC
  8
0
  6
BYLAYER
 62
     1
 10
205.639800
 20
-114.186782
 30
0.0
 40
2.873727
 50
51.204489
 51
90.0
  0
ARC
  8
0
  6
BYLAYER
 62
     1
 10
205.639800
 20
-114.186756
 30
0.0
 40
2.873701
 50
90.0
 51
128.795693
  0
ARC
  8
0
  6
BYLAYER
 62
     1
 10
205.917928
 20
-114.482962
 30
0.0
 40
3.278967
 50
129.340576
 51
180.0
  0
ARC
  8
0
  6
BYLAYER
 62
     1
 10
205.917917
 20
-114.482962
 30
0.0
 40
3.278957
 50
180.000000
 51
230.659649
  0
ARC
  8
0
  6
BYLAYER
 62
     1
 10
205.639815
 20
-114.779142
 30
0.0
 40
2.873727
 50
231.204489
 51
270.0
  0
ARC
  8
0
  6
BYLAYER
 62
     1
 10
205.639800
 20
-113.639811
 30
0.0
 40
1.329747
 50
90.0
 51
140.793201
  0
ARC
  8
0
  6
BYLAYER
 62
     1
 10
206.673354
 20
-114.482962
 30
0.0
 40
2.663590
 50
140.793201
 51
180.000000
  0
ARC
  8
0
  6
BYLAYER
 62
     1
 10
206.673320
 20
-114.482962
 30
0.0
 40
2.663556
 50
180.000000
 51
219.207055
  0
ARC
  8
0
  6
BYLAYER
 62
     1
 10
205.639815
 20
-115.326080
 30
0.0
 40
1.329771
 50
219.207055
 51
270.000000
  0
ARC
  8
0
  6
BYLAYER
 62
     1
 10
205.639815
 20
-115.326102
 30
0.0
 40
1.329750
 50
270.0
 51
320.793131
  0
ARC
  8
0
  6
BYLAYER
 62
     1
 10
204.606276
 20
-114.482962
 30
0.0
 40
2.663574
 50
320.793131
 51
360.000000
  0
ARC
  8
0
  6
BYLAYER
 62
     1
 10
204.606278
 20
-114.482962
 30
0.0
 40
2.663572
 50
0.0
 51
39.206985
  0
ARC
  8
0
  6
BYLAYER
 62
     1
 10
205.639800
 20
-113.639832
 30
0.0
 40
1.329768
 50
39.206985
 51
90.0
  0
LINE
  8
0
  6
BYLAYER
 62
     1
 10
219.115416
 20
-117.441534
 30
0.0
 11
219.115416
 21
-111.439841
 31
0.0
  0
LINE
  8
0
  6
BYLAYER
 62
     1
 10
219.115416
 20
-111.439841
 30
0.0
 11
222.834761
 21
-111.439841
 31
0.0
  0
ARC
  8
0
  6
BYLAYER
 62
     1
 10
222.834761
 20
-113.130469
 30
0.0
 40
1.690610
 50
287.134650
 51
450.000006
  0
ARC
  8
0
  6
BYLAYER
 62
     1
 10
223.172896
 20
-116.089041
 30
0.0
 40
1.352493
 50
0.0
 51
83.207557
  0
LINE
  8
0
  6
BYLAYER
 62
     1
 10
224.525389
 20
-116.089041
 30
0.0
 11
224.525389
 21
-116.934347
 31
0.0
  0
ARC
  8
0
  6
BYLAYER
 62
     1
 10
225.877882
 20
-116.934347
 30
0.0
 40
1.352493
 50
180.000000
 51
202.024314
  0
LINE
  8
0
  6
BYLAYER
 62
     1
 10
222.764403
 20
-117.441534
 30
0.0
 11
224.624083
 21
-117.441534
 31
0.0
  0
ARC
  8
0
  6
BYLAYER
 62
     1
 10
224.018202
 20
-116.934347
 30
0.0
 40
1.352493
 50
180.000000
 51
202.024314
  0
LINE
  8
0
  6
BYLAYER
 62
     1
 10
222.665709
 20
-116.934347
 30
0.0
 11
222.665709
 21
-116.258108
 31
0.0
  0
LINE
  8
0
  6
BYLAYER
 62
     1
 10
219.115416
 20
-117.441534
 30
0.0
 11
220.890562
 21
-117.441534
 31
0.0
  0
LINE
  8
0
  6
BYLAYER
 62
     1
 10
220.890562
 20
-117.441534
 30
0.0
 11
220.890562
 21
-115.412802
 31
0.0
  0
LINE
  8
0
  6
BYLAYER
 62
     1
 10
221.820403
 20
-115.412802
 30
0.0
 11
220.890562
 21
-115.412802
 31
0.0
  0
ARC
  8
0
  6
BYLAYER
 62
     1
 10
221.820403
 20
-116.258108
 30
0.0
 40
0.845306
 50
0.0
 51
90.000003
  0
LINE
  8
0
  6
BYLAYER
 62
     1
 10
220.890562
 20
-114.060309
 30
0.0
 11
220.890562
 21
-112.792334
 31
0.0
  0
LINE
  8
0
  6
BYLAYER
 62
     1
 10
220.890562
 20
-112.792334
 30
0.0
 11
222.073988
 21
-112.792334
 31
0.0
  0
LINE
  8
0
  6
BYLAYER
 62
     1
 10
220.890562
 20
-114.060309
 30
0.0
 11
222.073988
 21
-114.060309
 31
0.0
  0
ARC
  8
0
  6
BYLAYER
 62
     1
 10
222.073988
 20
-113.426321
 30
0.0
 40
0.633987
 50
270.0
 51
450.000005
  0
LINE
  8
0
  6
BYLAYER
 62
     1
 10
211.049803
 20
-115.543738
 30
0.0
 11
209.950896
 21
-111.439841
 31
0.0
  0
LINE
  8
0
  6
BYLAYER
 62
     1
 10
209.950896
 20
-111.439841
 30
0.0
 11
208.175749
 21
-111.439841
 31
0.0
  0
LINE
  8
0
  6
BYLAYER
 62
     1
 10
208.175749
 20
-111.439841
 30
0.0
 11
210.035429
 21
-117.441534
 31
0.0
  0
LINE
  8
0
  6
BYLAYER
 62
     1
 10
211.049803
 20
-115.543738
 30
0.0
 11
212.148680
 21
-111.439841
 31
0.0
  0
LINE
  8
0
  6
BYLAYER
 62
     1
 10
212.148680
 20
-111.439841
 30
0.0
 11
213.923827
 21
-111.439841
 31
0.0
  0
LINE
  8
0
  6
BYLAYER
 62
     1
 10
213.923827
 20
-111.439841
 30
0.0
 11
212.064146
 21
-117.441534
 31
0.0
  0
LINE
  8
0
  6
BYLAYER
 62
     1
 10
212.064146
 20
-117.441534
 30
0.0
 11
210.035429
 21
-117.441534
 31
0.0
  0
LINE
  8
0
  6
BYLAYER
 62
     1
 10
224.786070
 20
-117.441534
 30
0.0
 11
226.561217
 21
-117.441534
 31
0.0
  0
LINE
  8
0
  6
BYLAYER
 62
     1
 10
226.561217
 20
-117.441534
 30
0.0
 11
226.561217
 21
-111.439841
 31
0.0
  0
LINE
  8
0
  6
BYLAYER
 62
     1
 10
226.561217
 20
-111.439841
 30
0.0
 11
224.786070
 21
-111.439841
 31
0.0
  0
LINE
  8
0
  6
BYLAYER
 62
     1
 10
224.786070
 20
-111.439841
 30
0.0
 11
224.786070
 21
-117.441534
 31
0.0
  0
ARC
  8
0
  6
BYLAYER
 62
     1
 10
229.900191
 20
-114.779168
 30
0.0
 40
2.873701
 50
270.0
 51
308.795693
  0
ARC
  8
0
  6
BYLAYER
 62
     1
 10
229.622063
 20
-114.482962
 30
0.0
 40
3.278967
 50
309.340576
 51
360.000000
  0
ARC
  8
0
  6
BYLAYER
 62
     1
 10
229.622063
 20
-114.482962
 30
0.0
 40
3.278967
 50
0.0
 51
50.659424
  0
ARC
  8
0
  6
BYLAYER
 62
     1
 10
229.900191
 20
-114.186756
 30
0.0
 40
2.873701
 50
51.204307
 51
90.000000
  0
ARC
  8
0
  6
BYLAYER
 62
     1
 10
229.900191
 20
-114.186756
 30
0.0
 40
2.873701
 50
90.0
 51
128.795693
  0
ARC
  8
0
  6
BYLAYER
 62
     1
 10
230.178319
 20
-114.482962
 30
0.0
 40
3.278967
 50
129.340576
 51
180.0
  0
ARC
  8
0
  6
BYLAYER
 62
     1
 10
230.178319
 20
-114.482962
 30
0.0
 40
3.278967
 50
180.000000
 51
230.659424
  0
ARC
  8
0
  6
BYLAYER
 62
     1
 10
229.900191
 20
-114.779168
 30
0.0
 40
2.873701
 50
231.204307
 51
270.0
  0
ARC
  8
0
  6
BYLAYER
 62
     1
 10
229.900191
 20
-113.639811
 30
0.0
 40
1.329747
 50
39.206799
 51
90.0
  0
ARC
  8
0
  6
BYLAYER
 62
     1
 10
228.866636
 20
-114.482962
 30
0.0
 40
2.663590
 50
0.0
 51
39.206799
  0
ARC
  8
0
  6
BYLAYER
 62
     1
 10
228.866652
 20
-114.482962
 30
0.0
 40
2.663574
 50
320.793131
 51
360.000000
  0
ARC
  8
0
  6
BYLAYER
 62
     1
 10
229.900191
 20
-115.326102
 30
0.0
 40
1.329750
 50
270.0
 51
320.793131
  0
ARC
  8
0
  6
BYLAYER
 62
     1
 10
229.900191
 20
-115.326102
 30
0.0
 40
1.329750
 50
219.206869
 51
270.000000
  0
ARC
  8
0
  6
BYLAYER
 62
     1
 10
230.933729
 20
-114.482962
 30
0.0
 40
2.663574
 50
180.000000
 51
219.206869
  0
ARC
  8
0
  6
BYLAYER
 62
     1
 10
230.933745
 20
-114.482962
 30
0.0
 40
2.663590
 50
140.793201
 51
180.000000
  0
ARC
  8
0
  6
BYLAYER
 62
     1
 10
229.900191
 20
-113.639811
 30
0.0
 40
1.329747
 50
90.0
 51
140.793201
  0
ARC
  8
0
  6
BYLAYER
 62
     1
 10
199.928328
 20
-104.569113
 30
0.0
 40
7.429995
 50
174.535650
 51
180.000000
  0
LINE
  8
0
  6
BYLAYER
 62
     1
 10
192.532095
 20
-103.861578
 30
0.0
 11
192.532095
 21
-103.861571
 31
0.0
  0
LINE
  8
0
  6
BYLAYER
 62
     1
 10
192.540180
 20
-103.781648
 30
0.0
 11
193.249283
 21
-103.483105
 31
0.0
  0
ARC
  8
0
  6
BYLAYER
 62
     1
 10
199.928359
 20
-104.569174
 30
0.0
 40
6.766781
 50
159.235383
 51
170.763998
  0
LINE
  8
0
  6
BYLAYER
 62
     1
 10
193.601084
 20
-102.170109
 30
0.0
 11
193.136285
 21
-101.556995
 31
0.0
  0
ARC
  8
0
  6
BYLAYER
 62
     1
 10
199.928328
 20
-104.569113
 30
0.0
 40
7.429986
 50
144.139514
 51
156.083795
  0
LINE
  8
0
  6
BYLAYER
 62
     1
 10
193.857863
 20
-100.284918
 30
0.0
 11
193.858305
 21
-100.284292
 31
0.0
  0
LINE
  8
0
  6
BYLAYER
 62
     1
 10
193.906726
 20
-100.216526
 30
0.0
 11
194.661651
 21
-100.320390
 31
0.0
  0
ARC
  8
0
  6
BYLAYER
 62
     1
 10
199.928328
 20
-104.569113
 30
0.0
 40
6.766741
 50
129.235643
 51
141.105976
  0
LINE
  8
0
  6
BYLAYER
 62
     1
 10
195.537642
 20
-99.420256
 30
0.0
 11
195.538374
 21
-99.419623
 31
0.0
  0
LINE
  8
0
  6
BYLAYER
 62
     1
 10
195.648288
 20
-99.327926
 30
0.0
 11
195.552295
 21
-98.564519
 31
0.0
  0
ARC
  8
0
  6
BYLAYER
 62
     1
 10
199.928328
 20
-104.569113
 30
0.0
 40
7.429994
 50
114.139607
 51
126.083853
  0
LINE
  8
0
  6
BYLAYER
 62
     1
 10
196.813780
 20
-97.823416
 30
0.0
 11
196.814284
 21
-97.823179
 31
0.0
  0
LINE
  8
0
  6
BYLAYER
 62
     1
 10
196.889747
 20
-97.788859
 30
0.0
 11
197.491577
 21
-98.256254
 31
0.0
  0
LINE
  8
0
  6
BYLAYER
 62
     1
 10
197.629179
 20
-98.204931
 30
0.0
 11
197.629942
 21
-98.204664
 31
0.0
  0
ARC
  8
0
  6
BYLAYER
 62
     1
 10
199.928328
 20
-104.569113
 30
0.0
 40
6.766738
 50
99.235601
 51
111.106038
  0
ARC
  8
0
  6
BYLAYER
 62
     1
 10
199.928328
 20
-104.569113
 30
0.0
 40
7.429995
 50
90.0
 51
96.083892
  0
LINE
  8
0
  6
BYLAYER
 62
     1
 10
199.140863
 20
-97.180965
 30
0.0
 11
198.842304
 21
-97.890094
 31
0.0
  0
LINE
  8
0
  6
BYLAYER
 62
     1
 10
207.324553
 20
-103.861578
 30
0.0
 11
207.324553
 21
-103.861571
 31
0.0
  0
LINE
  8
0
  6
BYLAYER
 62
     1
 10
207.316475
 20
-103.781647
 30
0.0
 11
206.607337
 21
-103.483098
 31
0.0
  0
ARC
  8
0
  6
BYLAYER
 62
     1
 10
199.928282
 20
-104.569174
 30
0.0
 40
6.766781
 50
9.235986
 51
20.764650
  0
LINE
  8
0
  6
BYLAYER
 62
     1
 10
206.255606
 20
-102.170038
 30
0.0
 11
206.720372
 21
-101.556997
 31
0.0
  0
ARC
  8
0
  6
BYLAYER
 62
     1
 10
199.928328
 20
-104.569113
 30
0.0
 40
7.429986
 50
23.916189
 51
35.860484
  0
LINE
  8
0
  6
BYLAYER
 62
     1
 10
205.998778
 20
-100.284918
 30
0.0
 11
205.998335
 21
-100.284292
 31
0.0
  0
LINE
  8
0
  6
BYLAYER
 62
     1
 10
205.949930
 20
-100.216526
 30
0.0
 11
205.195058
 21
-100.320380
 31
0.0
  0
ARC
  8
0
  6
BYLAYER
 62
     1
 10
199.928328
 20
-104.569113
 30
0.0
 40
6.766741
 50
38.894050
 51
50.764315
  0
LINE
  8
0
  6
BYLAYER
 62
     1
 10
204.319014
 20
-99.420256
 30
0.0
 11
204.318282
 21
-99.419623
 31
0.0
  0
LINE
  8
0
  6
BYLAYER
 62
     1
 10
204.208387
 20
-99.327804
 30
0.0
 11
204.304345
 21
-98.564508
 31
0.0
  0
ARC
  8
0
  6
BYLAYER
 62
     1
 10
199.928328
 20
-104.569113
 30
0.0
 40
7.429994
 50
53.916300
 51
65.860381
  0
LINE
  8
0
  6
BYLAYER
 62
     1
 10
203.042876
 20
-97.823416
 30
0.0
 11
203.042357
 21
-97.823179
 31
0.0
  0
LINE
  8
0
  6
BYLAYER
 62
     1
 10
202.966910
 20
-97.788860
 30
0.0
 11
202.365087
 21
-98.256233
 31
0.0
  0
LINE
  8
0
  6
BYLAYER
 62
     1
 10
202.227461
 20
-98.204931
 30
0.0
 11
202.226714
 21
-98.204664
 31
0.0
  0
ARC
  8
0
  6
BYLAYER
 62
     1
 10
199.928328
 20
-104.569113
 30
0.0
 40
6.766738
 50
68.894081
 51
80.764578
  0
ARC
  8
0
  6
BYLAYER
 62
     1
 10
199.928328
 20
-104.569113
 30
0.0
 40
7.429995
 50
84.535428
 51
90.000003
  0
LINE
  8
0
  6
BYLAYER
 62
     1
 10
200.715795
 20
-97.180966
 30
0.0
 11
201.014282
 21
-97.889973
 31
0.0
  0
ARC
  8
0
  6
BYLAYER
 62
     1
 10
199.928328
 20
-104.569113
 30
0.0
 40
7.429995
 50
180.000000
 51
186.083899
  0
LINE
  8
0
  6
BYLAYER
 62
     1
 10
192.532095
 20
-105.276640
 30
0.0
 11
192.532095
 21
-105.276655
 31
0.0
  0
LINE
  8
0
  6
BYLAYER
 62
     1
 10
192.540180
 20
-105.356578
 30
0.0
 11
193.249304
 21
-105.655130
 31
0.0
  0
ARC
  8
0
  6
BYLAYER
 62
     1
 10
199.928359
 20
-104.569052
 30
0.0
 40
6.766781
 50
189.236002
 51
200.764629
  0
LINE
  8
0
  6
BYLAYER
 62
     1
 10
193.601108
 20
-106.968087
 30
0.0
 11
193.136283
 21
-107.581225
 31
0.0
  0
ARC
  8
0
  6
BYLAYER
 62
     1
 10
199.928328
 20
-104.569113
 30
0.0
 40
7.429986
 50
203.916158
 51
215.860410
  0
LINE
  8
0
  6
BYLAYER
 62
     1
 10
193.857863
 20
-108.853300
 30
0.0
 11
193.858305
 21
-108.853926
 31
0.0
  0
LINE
  8
0
  6
BYLAYER
 62
     1
 10
193.906721
 20
-108.921692
 30
0.0
 11
194.661717
 21
-108.817829
 31
0.0
  0
ARC
  8
0
  6
BYLAYER
 62
     1
 10
199.928328
 20
-104.569113
 30
0.0
 40
6.766741
 50
218.894045
 51
230.764345
  0
LINE
  8
0
  6
BYLAYER
 62
     1
 10
195.537642
 20
-109.717962
 30
0.0
 11
195.538374
 21
-109.718596
 31
0.0
  0
LINE
  8
0
  6
BYLAYER
 62
     1
 10
195.648287
 20
-109.810299
 30
0.0
 11
195.552295
 21
-110.573707
 31
0.0
  0
ARC
  8
0
  6
BYLAYER
 62
     1
 10
199.928328
 20
-104.569113
 30
0.0
 40
7.429994
 50
233.916148
 51
245.860401
  0
LINE
  8
0
  6
BYLAYER
 62
     1
 10
196.813780
 20
-111.314802
 30
0.0
 11
196.814284
 21
-111.315047
 31
0.0
  0
LINE
  8
0
  6
BYLAYER
 62
     1
 10
196.889748
 20
-111.349367
 30
0.0
 11
197.491648
 21
-110.881907
 31
0.0
  0
LINE
  8
0
  6
BYLAYER
 62
     1
 10
197.629179
 20
-110.933287
 30
0.0
 11
197.629942
 21
-110.933562
 31
0.0
  0
LINE
  8
0
  6
BYLAYER
 62
     1
 10
207.324553
 20
-105.276640
 30
0.0
 11
207.324553
 21
-105.276655
 31
0.0
  0
LINE
  8
0
  6
BYLAYER
 62
     1
 10
207.316474
 20
-105.356580
 30
0.0
 11
206.607337
 21
-105.655128
 31
0.0
  0
LINE
  8
0
  6
BYLAYER
 62
     1
 10
206.255541
 20
-106.968104
 30
0.0
 11
206.720379
 21
-107.581230
 31
0.0
  0
LINE
  8
0
  6
BYLAYER
 62
     1
 10
205.998778
 20
-108.853300
 30
0.0
 11
205.998335
 21
-108.853926
 31
0.0
  0
LINE
  8
0
  6
BYLAYER
 62
     1
 10
205.949944
 20
-108.921693
 30
0.0
 11
205.194899
 21
-108.817826
 31
0.0
  0
LINE
  8
0
  6
BYLAYER
 62
     1
 10
204.319014
 20
-109.717962
 30
0.0
 11
204.318282
 21
-109.718596
 31
0.0
  0
LINE
  8
0
  6
BYLAYER
 62
     1
 10
204.208373
 20
-109.810296
 30
0.0
 11
204.304345
 21
-110.573718
 31
0.0
  0
LINE
  8
0
  6
BYLAYER
 62
     1
 10
202.966909
 20
-111.349366
 30
0.0
 11
202.364995
 21
-110.881912
 31
0.0
  0
ARC
  8
0
  6
BYLAYER
 62
     1
 10
199.928328
 20
-104.569113
 30
0.0
 40
6.766741
 50
309.235697
 51
321.105929
  0
ARC
  8
0
  6
BYLAYER
 62
     1
 10
199.928328
 20
-104.569113
 30
0.0
 40
6.766738
 50
248.893873
 51
270.000000
  0
ARC
  8
0
  6
BYLAYER
 62
     1
 10
199.928328
 20
-104.569113
 30
0.0
 40
7.429994
 50
294.783232
 51
306.083699
  0
LINE
  8
0
  6
BYLAYER
 62
     1
 10
203.042357
 20
-111.315047
 30
0.0
 11
202.967367
 21
-111.350336
 31
0.0
  0
ARC
  8
0
  6
BYLAYER
 62
     1
 10
199.928328
 20
-104.569113
 30
0.0
 40
7.429986
 50
324.139593
 51
336.083825
  0
ARC
  8
0
  6
BYLAYER
 62
     1
 10
199.928282
 20
-104.569052
 30
0.0
 40
6.766781
 50
339.235210
 51
350.764014
  0
ARC
  8
0
  6
BYLAYER
 62
     1
 10
199.928328
 20
-104.569113
 30
0.0
 40
7.429995
 50
353.916089
 51
360.0
  0
ARC
  8
0
  6
BYLAYER
 62
     1
 10
199.928328
 20
-104.569113
 30
0.0
 40
7.429995
 50
0.0
 51
6.083907
  0
ARC
  8
0
  6
BYLAYER
 62
     1
 10
199.928328
 20
-104.569113
 30
0.0
 40
6.766738
 50
270.0
 51
291.106008
  0
CIRCLE
  8
0
  6
BYLAYER
 62
     1
 10
199.928328
 20
-104.569113
 30
0.0
 40
3.630081
  0
CIRCLE
  8
0
  6
BYLAYER
 62
     1
 10
199.928328
 20
-104.569113
 30
0.0
 40
5.296032
  0
LINE
  8
0
  6
BYLAYER
 62
     1
 10
206.928328
 20
-203.319113
 30
0.0
 11
206.928328
 21
-198.319113
 31
0.0
  0
LINE
  8
0
  6
BYLAYER
 62
     1
 10
206.928328
 20
-203.319113
 30
0.0
 11
201.928328
 21
-203.319113
 31
0.0
  0
LINE
  8
0
  6
BYLAYER
 62
     1
 10
206.928328
 20
-203.319113
 30
0.0
 11
206.928328
 21
-208.319113
 31
0.0
  0
LINE
  8
0
  6
BYLAYER
 62
     1
 10
206.928328
 20
-203.319113
 30
0.0
 11
211.928328
 21
-203.319113
 31
0.0
  0
LINE
  8
0
  6
BYLAYER
 62
     1
 10
830.928328
 20
-484.319113
 30
0.0
 11
850.928328
 21
-484.319113
 31
0.0
  0
LINE
  8
0
  6
BYLAYER
 62
     1
 10
826.928328
 20
-603.319113
 30
0.0
 11
826.928328
 21
-556.319113
 31
0.0
  0
LINE
  8
0
  6
BYLAYER
 62
     1
 10
826.928328
 20
-556.319113
 30
0.0
 11
827.428328
 21
-555.819113
 31
0.0
  0
LINE
  8
0
  6
BYLAYER
 62
     1
 10
826.928328
 20
-603.319113
 30
0.0
 11
826.928328
 21
-650.319113
 31
0.0
  0
LINE
  8
0
  6
BYLAYER
 62
     1
 10
826.928328
 20
-650.319113
 30
0.0
 11
827.428328
 21
-650.819113
 31
0.0
  0
LINE
  8
0
  6
BYLAYER
 62
     1
 10
830.928328
 20
-689.319113
 30
0.0
 11
850.928328
 21
-689.319113
 31
0.0
  0
LINE
  8
0
  6
BYLAYER
 62
     1
 10
830.928328
 20
-644.319113
 30
0.0
 11
830.928328
 21
-689.319113
 31
0.0
  0
LINE
  8
0
  6
BYLAYER
 62
     1
 10
850.928328
 20
-644.319113
 30
0.0
 11
830.928328
 21
-644.319113
 31
0.0
  0
LINE
  8
0
  6
BYLAYER
 62
     1
 10
832.428328
 20
-642.819113
 30
0.0
 11
830.928328
 21
-644.319113
 31
0.0
  0
CIRCLE
  8
0
  6
BYLAYER
 62
     1
 10
886.928328
 20
-528.319113
 30
0.0
 40
31.0
  0
LINE
  8
0
  6
BYLAYER
 62
     1
 10
942.928389
 20
-484.319113
 30
0.0
 11
922.928389
 21
-484.319113
 31
0.0
  0
LINE
  8
0
  6
BYLAYER
 62
     1
 10
942.928389
 20
-689.319113
 30
0.0
 11
922.928389
 21
-689.319113
 31
0.0
  0
LINE
  8
0
  6
BYLAYER
 62
     1
 10
922.928389
 20
-644.319113
 30
0.0
 11
942.928389
 21
-644.319113
 31
0.0
  0
LINE
  8
0
  6
BYLAYER
 62
     1
 10
941.428389
 20
-642.819113
 30
0.0
 11
942.928389
 21
-644.319113
 31
0.0
  0
LINE
  8
0
  6
BYLAYER
 62
     1
 10
942.928389
 20
-644.319113
 30
0.0
 11
942.928389
 21
-689.319113
 31
0.0
  0
LINE
  8
0
  6
BYLAYER
 62
     1
 10
829.928328
 20
-555.819113
 30
0.0
 11
827.428328
 21
-555.819113
 31
0.0
  0
LINE
  8
0
  6
BYLAYER
 62
     1
 10
829.928328
 20
-650.819113
 30
0.0
 11
827.428328
 21
-650.819113
 31
0.0
  0
LINE
  8
0
  6
BYLAYER
 62
     1
 10
849.928328
 20
-484.319113
 30
0.0
 11
850.928328
 21
-484.319113
 31
0.0
  0
CIRCLE
  8
0
  6
BYLAYER
 62
     1
 10
931.878279
 20
-510.319357
 30
0.0
 40
5.75
  0
CIRCLE
  8
0
  6
BYLAYER
 62
     1
 10
841.978377
 20
-510.319357
 30
0.0
 40
5.75
  0
LINE
  8
0
  6
BYLAYER
 62
     1
 10
941.428389
 20
-530.819235
 30
0.0
 11
942.928389
 21
-529.319235
 31
0.0
  0
LINE
  8
0
  6
BYLAYER
 62
     1
 10
942.928389
 20
-529.319235
 30
0.0
 11
942.928389
 21
-484.319113
 31
0.0
  0
LINE
  8
0
  6
BYLAYER
 62
     1
 10
832.428328
 20
-530.819235
 30
0.0
 11
830.928328
 21
-529.319235
 31
0.0
  0
LINE
  8
0
  6
BYLAYER
 62
     1
 10
830.928328
 20
-529.319235
 30
0.0
 11
830.928328
 21
-484.319113
 31
0.0
  0
LINE
  8
0
  6
BYLAYER
 62
     1
 10
849.481673
 20
-529.319235
 30
0.0
 11
830.928328
 21
-529.319235
 31
0.0
  0
ARC
  8
0
  6
BYLAYER
 62
     1
 10
849.481673
 20
-530.319235
 30
0.0
 40
1.000000
 50
3.057907
 51
90.000000
  0
LINE
  8
0
  6
BYLAYER
 62
     1
 10
922.928389
 20
-484.319113
 30
0.0
 11
922.928389
 21
-514.856314
 31
0.0
  0
ARC
  8
0
  6
BYLAYER
 62
     1
 10
921.928389
 20
-514.856314
 30
0.0
 40
1.000014
 50
201.039023
 51
359.999996
  0
LINE
  8
0
  6
BYLAYER
 62
     1
 10
850.928328
 20
-514.856192
 30
0.0
 11
850.928328
 21
-484.319113
 31
0.0
  0
ARC
  8
0
  6
BYLAYER
 62
     1
 10
851.928328
 20
-514.856192
 30
0.0
 40
1.000014
 50
180.000000
 51
338.960973
  0
LINE
  8
0
  6
BYLAYER
 62
     1
 10
924.374983
 20
-529.319235
 30
0.0
 11
942.928389
 21
-529.319235
 31
0.0
  0
ARC
  8
0
  6
BYLAYER
 62
     1
 10
924.374983
 20
-530.319235
 30
0.0
 40
1.000020
 50
90.0
 51
176.942086
  0
LINE
  8
0
  6
BYLAYER
 62
     1
 10
922.928389
 20
-484.319113
 30
0.0
 11
922.928389
 21
-514.856314
 31
0.0
  0
LINE
  8
0
  6
BYLAYER
 62
     1
 10
850.928328
 20
-689.319113
 30
0.0
 11
850.928328
 21
-534.339926
 31
0.0
  0
CIRCLE
  8
0
  6
BYLAYER
 62
     1
 10
914.151961
 20
-501.095602
 30
0.0
 40
4.0
  0
CIRCLE
  8
0
  6
BYLAYER
 62
     1
 10
859.704817
 20
-501.095450
 30
0.0
 40
4.0
  0
CIRCLE
  8
0
  6
BYLAYER
 62
     1
 10
859.704695
 20
-555.542624
 30
0.0
 40
4.0
  0
CIRCLE
  8
0
  6
BYLAYER
 62
     1
 10
914.151839
 20
-555.542776
 30
0.0
 40
4.0
  0
ARC
  8
0
  6
BYLAYER
 62
     1
 10
886.928328
 20
-528.319113
 30
0.0
 40
36.500004
 50
148.424355
 51
158.960509
  0
ARC
  8
0
  6
BYLAYER
 62
     1
 10
854.128249
 20
-508.159598
 30
0.0
 40
2.000013
 50
328.424810
 51
411.711570
  0
ARC
  8
0
  6
BYLAYER
 62
     1
 10
859.704817
 20
-501.095450
 30
0.0
 40
6.999995
 50
38.287800
 51
231.711845
  0
ARC
  8
0
  6
BYLAYER
 62
     1
 10
866.768996
 20
-495.518942
 30
0.0
 40
2.000008
 50
218.287737
 51
301.575200
  0
ARC
  8
0
  6
BYLAYER
 62
     1
 10
886.928328
 20
-528.319113
 30
0.0
 40
36.499985
 50
58.424666
 51
121.575332
  0
ARC
  8
0
  6
BYLAYER
 62
     1
 10
907.087660
 20
-495.518942
 30
0.0
 40
2.000013
 50
238.424801
 51
321.712264
  0
ARC
  8
0
  6
BYLAYER
 62
     1
 10
914.151839
 20
-501.095450
 30
0.0
 40
6.999995
 50
308.288160
 51
501.712205
  0
ARC
  8
0
  6
BYLAYER
 62
     1
 10
886.928328
 20
-528.319113
 30
0.0
 40
36.500004
 50
21.039496
 51
31.575650
  0
ARC
  8
0
  6
BYLAYER
 62
     1
 10
919.728377
 20
-508.159598
 30
0.0
 40
2.000008
 50
128.287741
 51
211.575655
  0
ARC
  8
0
  6
BYLAYER
 62
     1
 10
866.768996
 20
-561.119284
 30
0.0
 40
2.000008
 50
58.424803
 51
141.712259
  0
ARC
  8
0
  6
BYLAYER
 62
     1
 10
859.704817
 20
-555.542776
 30
0.0
 40
6.999995
 50
128.288151
 51
321.712210
  0
ARC
  8
0
  6
BYLAYER
 62
     1
 10
886.928328
 20
-528.319113
 30
0.0
 40
36.500004
 50
183.057403
 51
211.575655
  0
ARC
  8
0
  6
BYLAYER
 62
     1
 10
854.128279
 20
-548.478628
 30
0.0
 40
2.000008
 50
308.287746
 51
391.575660
  0
ARC
  8
0
  6
BYLAYER
 62
     1
 10
886.928328
 20
-528.319113
 30
0.0
 40
36.500004
 50
328.424346
 51
356.942599
  0
ARC
  8
0
  6
BYLAYER
 62
     1
 10
919.728377
 20
-548.478628
 30
0.0
 40
2.000008
 50
148.424341
 51
231.712255
  0
ARC
  8
0
  6
BYLAYER
 62
     1
 10
886.928328
 20
-528.319113
 30
0.0
 40
36.499985
 50
238.424665
 51
301.575337
  0
ARC
  8
0
  6
BYLAYER
 62
     1
 10
914.151839
 20
-555.542776
 30
0.0
 40
6.999995
 50
218.287805
 51
411.711850
  0
ARC
  8
0
  6
BYLAYER
 62
     1
 10
907.087660
 20
-561.119284
 30
0.0
 40
2.000013
 50
38.287746
 51
121.575195
  0
LINE
  8
0
  6
BYLAYER
 62
     1
 10
850.928328
 20
-485.819113
 30
0.0
 11
922.928389
 21
-485.819113
 31
0.0
  0
CIRCLE
  8
0
  6
BYLAYER
 62
     1
 10
841.978377
 20
-663.318869
 30
0.0
 40
5.75
  0
CIRCLE
  8
0
  6
BYLAYER
 62
     1
 10
931.878279
 20
-663.318869
 30
0.0
 40
5.75
  0
LINE
  8
0
  6
BYLAYER
 62
     1
 10
832.428328
 20
-530.819235
 30
0.0
 11
832.428328
 21
-642.819113
 31
0.0
  0
LINE
  8
0
  6
BYLAYER
 62
     1
 10
941.428389
 20
-530.819235
 30
0.0
 11
941.428389
 21
-642.819113
 31
0.0
  0
LINE
  8
0
  6
BYLAYER
 62
     1
 10
922.928389
 20
-689.319113
 30
0.0
 11
922.928389
 21
-534.339621
 31
0.0
  0
LINE
  8
0
  6
BYLAYER
 62
     1
 10
850.928328
 20
-642.819113
 30
0.0
 11
832.428328
 21
-642.819113
 31
0.0
  0
LINE
  8
0
  6
BYLAYER
 62
     1
 10
850.514052
 20
-530.819235
 30
0.0
 11
832.428328
 21
-530.819235
 31
0.0
  0
LINE
  8
0
  6
BYLAYER
 62
     1
 10
923.342604
 20
-530.819235
 30
0.0
 11
941.428389
 21
-530.819235
 31
0.0
  0
LINE
  8
0
  6
BYLAYER
 62
     1
 10
922.928389
 20
-642.819113
 30
0.0
 11
941.428389
 21
-642.819113
 31
0.0
  0
LINE
  8
0
  6
BYLAYER
 62
     1
 10
829.928450
 20
-673.319052
 30
0.0
 11
830.928328
 21
-673.353964
 31
0.0
  0
LINE
  8
0
  6
BYLAYER
 62
     1
 10
829.928450
 20
-533.319113
 30
0.0
 11
832.428328
 21
-533.231802
 31
0.0
  0
LINE
  8
0
  6
BYLAYER
 62
     1
 10
829.928328
 20
-673.319113
 30
0.0
 11
829.928328
 21
-555.819113
 31
0.0
  0
LINE
  8
0
  6
BYLAYER
 62
     1
 10
829.928328
 20
-555.819113
 30
0.0
 11
829.928328
 21
-533.319113
 31
0.0
  0
LINE
  8
0
  6
BYLAYER
 62
     1
 10
946.928328
 20
-603.319113
 30
0.0
 11
946.928328
 21
-556.319113
 31
0.0
  0
LINE
  8
0
  6
BYLAYER
 62
     1
 10
946.928328
 20
-556.319113
 30
0.0
 11
946.428328
 21
-555.819113
 31
0.0
  0
LINE
  8
0
  6
BYLAYER
 62
     1
 10
946.928328
 20
-603.319113
 30
0.0
 11
946.928328
 21
-650.319113
 31
0.0
  0
LINE
  8
0
  6
BYLAYER
 62
     1
 10
946.928328
 20
-650.319113
 30
0.0
 11
946.428328
 21
-650.819113
 31
0.0
  0
LINE
  8
0
  6
BYLAYER
 62
     1
 10
943.928328
 20
-555.819113
 30
0.0
 11
946.428328
 21
-555.819113
 31
0.0
  0
LINE
  8
0
  6
BYLAYER
 62
     1
 10
943.928328
 20
-650.819113
 30
0.0
 11
946.428328
 21
-650.819113
 31
0.0
  0
LINE
  8
0
  6
BYLAYER
 62
     1
 10
943.928206
 20
-673.319052
 30
0.0
 11
942.928328
 21
-673.353964
 31
0.0
  0
LINE
  8
0
  6
BYLAYER
 62
     1
 10
943.928206
 20
-533.319113
 30
0.0
 11
941.428328
 21
-533.231802
 31
0.0
  0
LINE
  8
0
  6
BYLAYER
 62
     1
 10
943.928328
 20
-673.319113
 30
0.0
 11
943.928328
 21
-555.819113
 31
0.0
  0
LINE
  8
0
  6
BYLAYER
 62
     1
 10
943.928328
 20
-555.819113
 30
0.0
 11
943.928328
 21
-533.319113
 31
0.0
  0
LINE
  8
0
  6
BYLAYER
 62
     1
 10
922.928389
 20
-685.319052
 30
0.0
 11
850.928328
 21
-685.319052
 31
0.0
  0
LINE
  8
0
  6
BYLAYER
 62
     1
 10
246.428450
 20
-548.819115
 30
0.0
 11
247.928450
 21
-547.319115
 31
0.0
  0
LINE
  8
0
  6
BYLAYER
 62
     1
 10
247.928450
 20
-547.319115
 30
0.0
 11
292.928450
 21
-547.319115
 31
0.0
  0
LINE
  8
0
  6
BYLAYER
 62
     1
 10
247.928450
 20
-567.319115
 30
0.0
 11
247.928450
 21
-547.319115
 31
0.0
  0
LINE
  8
0
  6
BYLAYER
 62
     1
 10
247.928450
 20
-639.319115
 30
0.0
 11
247.928450
 21
-659.319115
 31
0.0
  0
LINE
  8
0
  6
BYLAYER
 62
     1
 10
246.428450
 20
-657.819115
 30
0.0
 11
247.928450
 21
-659.319115
 31
0.0
  0
LINE
  8
0
  6
BYLAYER
 62
     1
 10
246.428450
 20
-639.319115
 30
0.0
 11
246.428450
 21
-657.819115
 31
0.0
  0
LINE
  8
0
  6
BYLAYER
 62
     1
 10
165.928450
 20
-639.319115
 30
0.0
 11
165.928450
 21
-659.319115
 31
0.0
  0
LINE
  8
0
  6
BYLAYER
 62
     1
 10
167.428450
 20
-657.819115
 30
0.0
 11
165.928450
 21
-659.319115
 31
0.0
  0
LINE
  8
0
  6
BYLAYER
 62
     1
 10
165.928450
 20
-547.319115
 30
0.0
 11
120.928450
 21
-547.319115
 31
0.0
  0
LINE
  8
0
  6
BYLAYER
 62
     1
 10
165.928450
 20
-567.319115
 30
0.0
 11
165.928450
 21
-547.319115
 31
0.0
  0
LINE
  8
0
  6
BYLAYER
 62
     1
 10
167.428450
 20
-548.819115
 30
0.0
 11
165.928450
 21
-547.319115
 31
0.0
  0
LINE
  8
0
  6
BYLAYER
 62
     1
 10
167.428450
 20
-639.319115
 30
0.0
 11
167.428450
 21
-657.819115
 31
0.0
  0
LINE
  8
0
  6
BYLAYER
 62
     1
 10
247.928450
 20
-659.319115
 30
0.0
 11
292.928450
 21
-659.319115
 31
0.0
  0
LINE
  8
0
  6
BYLAYER
 62
     1
 10
165.928450
 20
-659.319115
 30
0.0
 11
120.928450
 21
-659.319115
 31
0.0
  0
LINE
  8
0
  6
BYLAYER
 62
     1
 10
120.928450
 20
-639.319115
 30
0.0
 11
292.928450
 21
-639.319115
 31
0.0
  0
LINE
  8
0
  6
BYLAYER
 62
     1
 10
120.928450
 20
-567.319115
 30
0.0
 11
292.928450
 21
-567.319115
 31
0.0
  0
LINE
  8
0
  6
BYLAYER
 62
     1
 10
292.928450
 20
-567.319115
 30
0.0
 11
292.928450
 21
-547.319115
 31
0.0
  0
LINE
  8
0
  6
BYLAYER
 62
     1
 10
292.928450
 20
-639.319115
 30
0.0
 11
292.928450
 21
-659.319115
 31
0.0
  0
CIRCLE
  8
0
  6
BYLAYER
 62
     1
 10
146.928450
 20
-558.319298
 30
0.0
 40
5.75
  0
LINE
  8
0
  6
BYLAYER
 62
     1
 10
206.928328
 20
-543.319115
 30
0.0
 11
160.428328
 21
-543.319115
 31
0.0
  0
ARC
  8
0
  6
BYLAYER
 62
     1
 10
160.428328
 20
-544.319115
 30
0.0
 40
1.000000
 50
90.0
 51
180.000003
  0
LINE
  8
0
  6
BYLAYER
 62
     1
 10
206.928328
 20
-543.319115
 30
0.0
 11
253.428328
 21
-543.319115
 31
0.0
  0
ARC
  8
0
  6
BYLAYER
 62
     1
 10
253.428328
 20
-544.319115
 30
0.0
 40
1.000000
 50
0.0
 51
90.000003
  0
LINE
  8
0
  6
BYLAYER
 62
     1
 10
167.428450
 20
-548.819115
 30
0.0
 11
246.428450
 21
-548.819115
 31
0.0
  0
LINE
  8
0
  6
BYLAYER
 62
     1
 10
167.428450
 20
-567.319115
 30
0.0
 11
167.428450
 21
-548.819115
 31
0.0
  0
LINE
  8
0
  6
BYLAYER
 62
     1
 10
246.428450
 20
-567.319115
 30
0.0
 11
246.428450
 21
-548.819115
 31
0.0
  0
CIRCLE
  8
0
  6
BYLAYER
 62
     1
 10
266.928450
 20
-558.319298
 30
0.0
 40
5.75
  0
LINE
  8
0
  6
BYLAYER
 62
     1
 10
122.428450
 20
-639.319115
 30
0.0
 11
122.428450
 21
-567.319115
 31
0.0
  0
LINE
  8
0
  6
BYLAYER
 62
     1
 10
120.928450
 20
-547.319115
 30
0.0
 11
120.928450
 21
-659.319115
 31
0.0
  0
LINE
  8
0
  6
BYLAYER
 62
     1
 10
246.428450
 20
-657.819115
 30
0.0
 11
167.428450
 21
-657.819115
 31
0.0
  0
CIRCLE
  8
0
  6
BYLAYER
 62
     1
 10
146.928450
 20
-648.318932
 30
0.0
 40
5.75
  0
CIRCLE
  8
0
  6
BYLAYER
 62
     1
 10
266.928450
 20
-648.318932
 30
0.0
 40
5.75
  0
LINE
  8
0
  6
BYLAYER
 62
     1
 10
140.428450
 20
-567.319115
 30
0.0
 11
140.428450
 21
-639.319115
 31
0.0
  0
LINE
  8
0
  6
BYLAYER
 62
     1
 10
273.428450
 20
-567.319115
 30
0.0
 11
273.428450
 21
-639.319115
 31
0.0
  0
LINE
  8
0
  6
BYLAYER
 62
     1
 10
291.428450
 20
-567.319115
 30
0.0
 11
291.428450
 21
-639.319115
 31
0.0
  0
LINE
  8
0
  6
BYLAYER
 62
     1
 10
276.928328
 20
-546.319115
 30
0.0
 11
136.928328
 21
-546.319115
 31
0.0
  0
LINE
  8
0
  6
BYLAYER
 62
     1
 10
254.428328
 20
-546.319115
 30
0.0
 11
254.428328
 21
-544.319115
 31
0.0
  0
LINE
  8
0
  6
BYLAYER
 62
     1
 10
159.428328
 20
-546.319115
 30
0.0
 11
159.428328
 21
-544.319115
 31
0.0
  0
LINE
  8
0
  6
BYLAYER
 62
     1
 10
136.928389
 20
-546.319237
 30
0.0
 11
136.893469
 21
-547.319115
 31
0.0
  0
LINE
  8
0
  6
BYLAYER
 62
     1
 10
276.928389
 20
-546.319237
 30
0.0
 11
276.963301
 21
-547.319115
 31
0.0
  0
LINE
  8
0
  6
BYLAYER
 62
     1
 10
294.928328
 20
-652.318932
 30
0.0
 11
292.928328
 21
-652.388756
 31
0.0
  0
LINE
  8
0
  6
BYLAYER
 62
     1
 10
294.928328
 20
-554.319298
 30
0.0
 11
292.928328
 21
-554.249474
 31
0.0
  0
LINE
  8
0
  6
BYLAYER
 62
     1
 10
294.928450
 20
-554.319298
 30
0.0
 11
294.928450
 21
-652.318928
 31
0.0
  0
LINE
  8
0
  6
BYLAYER
 62
     1
 10
206.928328
 20
-663.319111
 30
0.0
 11
160.428328
 21
-663.319111
 31
0.0
  0
ARC
  8
0
  6
BYLAYER
 62
     1
 10
160.428328
 20
-662.319111
 30
0.0
 40
1.000000
 50
180.000000
 51
270.000003
  0
LINE
  8
0
  6
BYLAYER
 62
     1
 10
206.928328
 20
-663.319111
 30
0.0
 11
253.428328
 21
-663.319111
 31
0.0
  0
ARC
  8
0
  6
BYLAYER
 62
     1
 10
253.428328
 20
-662.319111
 30
0.0
 40
1.000000
 50
270.0
 51
360.000003
  0
LINE
  8
0
  6
BYLAYER
 62
     1
 10
276.928328
 20
-660.319111
 30
0.0
 11
136.928328
 21
-660.319111
 31
0.0
  0
LINE
  8
0
  6
BYLAYER
 62
     1
 10
254.428328
 20
-660.319111
 30
0.0
 11
254.428328
 21
-662.319111
 31
0.0
  0
LINE
  8
0
  6
BYLAYER
 62
     1
 10
159.428328
 20
-660.319111
 30
0.0
 11
159.428328
 21
-662.319111
 31
0.0
  0
LINE
  8
0
  6
BYLAYER
 62
     1
 10
136.928389
 20
-660.318989
 30
0.0
 11
136.893469
 21
-659.319111
 31
0.0
  0
LINE
  8
0
  6
BYLAYER
 62
     1
 10
276.928389
 20
-660.318989
 30
0.0
 11
276.963301
 21
-659.319111
 31
0.0
  0
ARC
  8
0
  6
BYLAYER
 62
     1
 10
169.653824
 20
-583.319115
 30
0.0
 40
1.25
 50
270.0
 51
450.000005
  0
ARC
  8
0
  6
BYLAYER
 62
     1
 10
169.653824
 20
-573.319115
 30
0.0
 40
1.25
 50
270.0
 51
450.000005
  0
ARC
  8
0
  6
BYLAYER
 62
     1
 10
169.653824
 20
-623.319115
 30
0.0
 40
1.25
 50
270.0
 51
450.000005
  0
ARC
  8
0
  6
BYLAYER
 62
     1
 10
169.653824
 20
-633.319115
 30
0.0
 40
1.250000
 50
270.0
 51
450.000005
  0
LINE
  8
0
  6
BYLAYER
 62
     1
 10
169.653824
 20
-572.069115
 30
0.0
 11
140.428450
 21
-572.069115
 31
0.0
  0
LINE
  8
0
  6
BYLAYER
 62
     1
 10
169.653824
 20
-582.069115
 30
0.0
 11
140.428450
 21
-582.069115
 31
0.0
  0
LINE
  8
0
  6
BYLAYER
 62
     1
 10
169.653824
 20
-584.569115
 30
0.0
 11
140.428450
 21
-584.569115
 31
0.0
  0
LINE
  8
0
  6
BYLAYER
 62
     1
 10
169.653824
 20
-632.069115
 30
0.0
 11
140.428450
 21
-632.069115
 31
0.0
  0
LINE
  8
0
  6
BYLAYER
 62
     1
 10
169.653824
 20
-634.569115
 30
0.0
 11
140.428450
 21
-634.569115
 31
0.0
  0
LINE
  8
0
  6
BYLAYER
 62
     1
 10
140.428450
 20
-622.069115
 30
0.0
 11
169.653824
 21
-622.069115
 31
0.0
  0
LINE
  8
0
  6
BYLAYER
 62
     1
 10
140.428450
 20
-624.569115
 30
0.0
 11
169.653824
 21
-624.569115
 31
0.0
  0
LINE
  8
0
  6
BYLAYER
 62
     1
 10
140.428450
 20
-574.569115
 30
0.0
 11
169.653824
 21
-574.569115
 31
0.0
  0
ARC
  8
0
  6
BYLAYER
 62
     1
 10
182.404122
 20
-593.319115
 30
0.0
 40
1.25
 50
270.0
 51
450.000005
  0
ARC
  8
0
  6
BYLAYER
 62
     1
 10
182.404122
 20
-613.319115
 30
0.0
 40
1.25
 50
270.0
 51
450.000005
  0
ARC
  8
0
  6
BYLAYER
 62
     1
 10
182.404122
 20
-603.319115
 30
0.0
 40
1.25
 50
270.0
 51
360.000009
  0
ARC
  8
0
  6
BYLAYER
 62
     1
 10
182.404122
 20
-603.319115
 30
0.0
 40
1.250000
 50
0.0
 51
89.999996
  0
LINE
  8
0
  6
BYLAYER
 62
     1
 10
140.428450
 20
-604.569115
 30
0.0
 11
182.404122
 21
-604.569115
 31
0.0
  0
LINE
  8
0
  6
BYLAYER
 62
     1
 10
140.428450
 20
-592.069115
 30
0.0
 11
182.404122
 21
-592.069115
 31
0.0
  0
LINE
  8
0
  6
BYLAYER
 62
     1
 10
140.428450
 20
-602.069115
 30
0.0
 11
182.404122
 21
-602.069115
 31
0.0
  0
LINE
  8
0
  6
BYLAYER
 62
     1
 10
140.428450
 20
-612.068991
 30
0.0
 11
182.404122
 21
-612.069161
 31
0.0
  0
LINE
  8
0
  6
BYLAYER
 62
     1
 10
140.428450
 20
-614.568991
 30
0.0
 11
182.404122
 21
-614.569161
 31
0.0
  0
LINE
  8
0
  6
BYLAYER
 62
     1
 10
140.428450
 20
-594.569115
 30
0.0
 11
182.404122
 21
-594.569115
 31
0.0
  0
LINE
  8
0
  6
BYLAYER
 62
     1
 10
236.328179
 20
-572.069115
 30
0.0
 11
273.428450
 21
-572.069115
 31
0.0
  0
ARC
  8
0
  6
BYLAYER
 62
     1
 10
236.328179
 20
-573.319115
 30
0.0
 40
1.25
 50
90.0
 51
270.000005
  0
LINE
  8
0
  6
BYLAYER
 62
     1
 10
236.328179
 20
-622.069115
 30
0.0
 11
273.428450
 21
-622.069115
 31
0.0
  0
LINE
  8
0
  6
BYLAYER
 62
     1
 10
236.328179
 20
-624.569115
 30
0.0
 11
273.428450
 21
-624.569115
 31
0.0
  0
ARC
  8
0
  6
BYLAYER
 62
     1
 10
236.328179
 20
-623.319115
 30
0.0
 40
1.25
 50
90.0
 51
270.000005
  0
LINE
  8
0
  6
BYLAYER
 62
     1
 10
236.328179
 20
-634.569115
 30
0.0
 11
273.428450
 21
-634.569115
 31
0.0
  0
ARC
  8
0
  6
BYLAYER
 62
     1
 10
236.328179
 20
-633.319115
 30
0.0
 40
1.250000
 50
90.0
 51
270.000005
  0
LINE
  8
0
  6
BYLAYER
 62
     1
 10
273.428450
 20
-584.569115
 30
0.0
 11
236.328179
 21
-584.569115
 31
0.0
  0
LINE
  8
0
  6
BYLAYER
 62
     1
 10
236.328179
 20
-632.069115
 30
0.0
 11
273.428450
 21
-632.069115
 31
0.0
  0
LINE
  8
0
  6
BYLAYER
 62
     1
 10
273.428450
 20
-582.069115
 30
0.0
 11
236.328179
 21
-582.069115
 31
0.0
  0
LINE
  8
0
  6
BYLAYER
 62
     1
 10
236.328179
 20
-574.569115
 30
0.0
 11
273.428450
 21
-574.569115
 31
0.0
  0
ARC
  8
0
  6
BYLAYER
 62
     1
 10
236.328179
 20
-583.319115
 30
0.0
 40
1.25
 50
90.0
 51
270.000005
  0
LINE
  8
0
  6
BYLAYER
 62
     1
 10
294.928328
 20
-175.818991
 30
0.0
 11
294.928328
 21
-128.319113
 31
0.0
  0
ARC
  8
0
  6
BYLAYER
 62
     1
 10
310.428328
 20
-225.844565
 30
0.0
 40
2.000089
 50
180.000000
 51
266.999958
  0
LINE
  8
0
  6
BYLAYER
 62
     1
 10
308.428328
 20
-210.819052
 30
0.0
 11
308.428328
 21
-225.844595
 31
0.0
  0
LINE
  8
0
  6
BYLAYER
 62
     1
 10
308.428328
 20
-210.819052
 30
0.0
 11
308.428328
 21
-128.319113
 31
0.0
  0
ARC
  8
0
  6
BYLAYER
 62
     1
 10
306.428328
 20
-193.949728
 30
0.0
 40
2.000003
 50
0.0
 51
35.000041
  0
LINE
  8
0
  6
BYLAYER
 62
     1
 10
295.133498
 20
-175.819021
 30
0.0
 11
294.928328
 21
-175.819021
 31
0.0
  0
LINE
  8
0
  6
BYLAYER
 62
     1
 10
308.066634
 20
-192.802572
 30
0.0
 11
296.771803
 21
-176.671866
 31
0.0
  0
ARC
  8
0
  6
BYLAYER
 62
     1
 10
295.133498
 20
-177.819021
 30
0.0
 40
2.0
 50
34.999973
 51
90.000000
  0
LINE
  8
0
  6
BYLAYER
 62
     1
 10
296.771803
 20
-176.671866
 30
0.0
 11
308.428328
 21
-210.819052
 31
0.0
  0
LINE
  8
0
  6
BYLAYER
 62
     1
 10
310.323592
 20
-227.841910
 30
0.0
 11
319.428328
 21
-228.319099
 31
0.0
  0
LINE
  8
0
  6
BYLAYER
 62
     1
 10
319.428328
 20
-228.319099
 30
0.0
 11
319.428328
 21
-128.319113
 31
0.0
  0
LINE
  8
0
  6
BYLAYER
 62
     1
 10
296.771803
 20
-176.671866
 30
0.0
 11
296.771803
 21
-128.319113
 31
0.0
  0
LINE
  8
0
  6
BYLAYER
 62
     1
 10
294.928328
 20
-80.819235
 30
0.0
 11
294.928328
 21
-128.319113
 31
0.0
  0
ARC
  8
0
  6
BYLAYER
 62
     1
 10
310.428328
 20
-30.793661
 30
0.0
 40
2.000089
 50
93.000064
 51
180.000022
  0
LINE
  8
0
  6
BYLAYER
 62
     1
 10
308.428328
 20
-45.819174
 30
0.0
 11
308.428328
 21
-30.793631
 31
0.0
  0
LINE
  8
0
  6
BYLAYER
 62
     1
 10
308.428328
 20
-45.819174
 30
0.0
 11
308.428328
 21
-128.319113
 31
0.0
  0
ARC
  8
0
  6
BYLAYER
 62
     1
 10
306.428328
 20
-62.688498
 30
0.0
 40
2.000003
 50
324.999959
 51
360.000000
  0
LINE
  8
0
  6
BYLAYER
 62
     1
 10
295.133498
 20
-80.819205
 30
0.0
 11
294.928328
 21
-80.819205
 31
0.0
  0
LINE
  8
0
  6
BYLAYER
 62
     1
 10
308.066634
 20
-63.835654
 30
0.0
 11
296.771803
 21
-79.966360
 31
0.0
  0
ARC
  8
0
  6
BYLAYER
 62
     1
 10
295.133498
 20
-78.819205
 30
0.0
 40
2.0
 50
270.0
 51
325.000027
  0
LINE
  8
0
  6
BYLAYER
 62
     1
 10
296.771803
 20
-79.966360
 30
0.0
 11
308.428328
 21
-45.819174
 31
0.0
  0
LINE
  8
0
  6
BYLAYER
 62
     1
 10
310.323592
 20
-28.796316
 30
0.0
 11
319.428328
 21
-28.319127
 31
0.0
  0
LINE
  8
0
  6
BYLAYER
 62
     1
 10
319.428328
 20
-28.319127
 30
0.0
 11
319.428328
 21
-128.319113
 31
0.0
  0
LINE
  8
0
  6
BYLAYER
 62
     1
 10
296.771803
 20
-79.966360
 30
0.0
 11
296.771803
 21
-128.319113
 31
0.0
  0
LINE
  8
0
  6
BYLAYER
 62
     1
 10
922.928328
 20
-285.319296
 30
0.0
 11
850.928328
 21
-285.319296
 31
0.0
  0
LINE
  8
0
  6
BYLAYER
 62
     1
 10
829.928328
 20
-250.819113
 30
0.0
 11
827.428328
 21
-250.819113
 31
0.0
  0
LINE
  8
0
  6
BYLAYER
 62
     1
 10
829.928328
 20
-273.319113
 30
0.0
 11
829.928328
 21
-210.483582
 31
0.0
  0
LINE
  8
0
  6
BYLAYER
 62
     1
 10
829.928450
 20
-273.319052
 30
0.0
 11
830.928328
 21
-273.353964
 31
0.0
  0
LINE
  8
0
  6
BYLAYER
 62
     1
 10
826.928328
 20
-208.319113
 30
0.0
 11
826.928328
 21
-250.319113
 31
0.0
  0
LINE
  8
0
  6
BYLAYER
 62
     1
 10
827.428328
 20
-250.819113
 30
0.0
 11
826.928328
 21
-250.319113
 31
0.0
  0
LINE
  8
0
  6
BYLAYER
 62
     1
 10
943.928328
 20
-250.819113
 30
0.0
 11
946.428328
 21
-250.819113
 31
0.0
  0
LINE
  8
0
  6
BYLAYER
 62
     1
 10
943.928328
 20
-273.319113
 30
0.0
 11
943.928328
 21
-210.483582
 31
0.0
  0
LINE
  8
0
  6
BYLAYER
 62
     1
 10
830.928328
 20
-289.319113
 30
0.0
 11
850.928328
 21
-289.319113
 31
0.0
  0
CIRCLE
  8
0
  6
BYLAYER
 62
     1
 10
841.978377
 20
-263.318869
 30
0.0
 40
5.75
  0
LINE
  8
0
  6
BYLAYER
 62
     1
 10
943.928206
 20
-273.319052
 30
0.0
 11
942.928328
 21
-273.353964
 31
0.0
  0
LINE
  8
0
  6
BYLAYER
 62
     1
 10
942.928328
 20
-289.319113
 30
0.0
 11
922.928328
 21
-289.319113
 31
0.0
  0
CIRCLE
  8
0
  6
BYLAYER
 62
     1
 10
931.878279
 20
-263.318869
 30
0.0
 40
5.75
  0
LINE
  8
0
  6
BYLAYER
 62
     1
 10
832.428328
 20
-212.162717
 30
0.0
 11
832.428328
 21
-242.819113
 31
0.0
  0
LINE
  8
0
  6
BYLAYER
 62
     1
 10
946.928328
 20
-208.319113
 30
0.0
 11
946.928328
 21
-250.319113
 31
0.0
  0
LINE
  8
0
  6
BYLAYER
 62
     1
 10
850.928328
 20
-289.319113
 30
0.0
 11
850.928328
 21
-221.614343
 31
0.0
  0
LINE
  8
0
  6
BYLAYER
 62
     1
 10
922.928328
 20
-289.319113
 30
0.0
 11
922.928328
 21
-221.614343
 31
0.0
  0
LINE
  8
0
  6
BYLAYER
 62
     1
 10
941.428328
 20
-242.819113
 30
0.0
 11
941.428328
 21
-212.162717
 31
0.0
  0
LINE
  8
0
  6
BYLAYER
 62
     1
 10
946.428328
 20
-250.819113
 30
0.0
 11
946.928328
 21
-250.319113
 31
0.0
  0
LINE
  8
0
  6
BYLAYER
 62
     1
 10
922.928328
 20
-242.819113
 30
0.0
 11
941.428328
 21
-242.819113
 31
0.0
  0
LINE
  8
0
  6
BYLAYER
 62
     1
 10
942.928328
 20
-244.319113
 30
0.0
 11
942.928328
 21
-289.319113
 31
0.0
  0
LINE
  8
0
  6
BYLAYER
 62
     1
 10
941.428328
 20
-242.819113
 30
0.0
 11
942.928328
 21
-244.319113
 31
0.0
  0
LINE
  8
0
  6
BYLAYER
 62
     1
 10
922.928328
 20
-244.319113
 30
0.0
 11
942.928328
 21
-244.319113
 31
0.0
  0
LINE
  8
0
  6
BYLAYER
 62
     1
 10
850.928328
 20
-242.819113
 30
0.0
 11
832.428328
 21
-242.819113
 31
0.0
  0
LINE
  8
0
  6
BYLAYER
 62
     1
 10
832.428328
 20
-242.819113
 30
0.0
 11
830.928328
 21
-244.319113
 31
0.0
  0
LINE
  8
0
  6
BYLAYER
 62
     1
 10
850.928328
 20
-244.319113
 30
0.0
 11
830.928328
 21
-244.319113
 31
0.0
  0
LINE
  8
0
  6
BYLAYER
 62
     1
 10
830.928328
 20
-244.319113
 30
0.0
 11
830.928328
 21
-289.319113
 31
0.0
  0
LINE
  8
0
  6
BYLAYER
 62
     7
 10
843.428221
 20
-21.819144
 30
0.0
 11
843.428221
 21
-0.319144
 31
0.0
  0
ARC
  8
0
  6
BYLAYER
 62
     7
 10
841.928221
 20
-21.819144
 30
0.0
 40
1.500000
 50
270.0
 51
360.0
  0
ARC
  8
0
  6
BYLAYER
 62
     7
 10
844.928221
 20
-0.319144
 30
0.0
 40
1.500000
 50
90.0
 51
180.0
  0
LINE
  8
0
  6
BYLAYER
 62
     7
 10
886.928221
 20
1.180856
 30
0.0
 11
844.928221
 21
1.180856
 31
0.0
  0
LINE
  8
0
  6
BYLAYER
 62
     7
 10
848.800462
 20
-21.819144
 30
0.0
 11
848.800462
 21
-0.319144
 31
0.0
  0
ARC
  8
0
  6
BYLAYER
 62
     7
 10
847.300462
 20
-21.819144
 30
0.0
 40
1.500000
 50
270.0
 51
360.0
  0
ARC
  8
0
  6
BYLAYER
 62
     7
 10
850.300462
 20
-0.319144
 30
0.0
 40
1.500000
 50
90.0
 51
180.0
  0
LINE
  8
0
  6
BYLAYER
 62
     7
 10
873.834568
 20
1.180856
 30
0.0
 11
874.327115
 21
-12.923842
 31
0.0
  0
ARC
  8
0
  6
BYLAYER
 62
     7
 10
877.325287
 20
-12.819144
 30
0.0
 40
3.0
 50
182.000000
 51
270.000000
  0
LINE
  8
0
  6
BYLAYER
 62
     7
 10
884.529327
 20
-12.923842
 30
0.0
 11
885.021874
 21
1.180856
 31
0.0
  0
ARC
  8
0
  6
BYLAYER
 62
     7
 10
881.531155
 20
-12.819144
 30
0.0
 40
3.0
 50
270.0
 51
358.0
  0
LINE
  8
0
  6
BYLAYER
 62
     7
 10
877.325287
 20
-15.819144
 30
0.0
 11
881.531155
 21
-15.819144
 31
0.0
  0
LINE
  8
0
  6
BYLAYER
 62
     7
 10
858.834568
 20
1.180856
 30
0.0
 11
859.327115
 21
-12.923842
 31
0.0
  0
ARC
  8
0
  6
BYLAYER
 62
     7
 10
862.325287
 20
-12.819144
 30
0.0
 40
3.0
 50
182.000000
 51
270.000000
  0
LINE
  8
0
  6
BYLAYER
 62
     7
 10
869.529327
 20
-12.923842
 30
0.0
 11
870.021874
 21
1.180856
 31
0.0
  0
ARC
  8
0
  6
BYLAYER
 62
     7
 10
866.531155
 20
-12.819144
 30
0.0
 40
3.0
 50
270.0
 51
358.0
  0
LINE
  8
0
  6
BYLAYER
 62
     7
 10
862.325287
 20
-15.819144
 30
0.0
 11
866.531155
 21
-15.819144
 31
0.0
  0
LINE
  8
0
  6
BYLAYER
 62
     7
 10
858.869489
 20
0.180856
 30
0.0
 11
869.986953
 21
0.180856
 31
0.0
  0
LINE
  8
0
  6
BYLAYER
 62
     7
 10
873.869489
 20
0.180856
 30
0.0
 11
884.986953
 21
0.180856
 31
0.0
  0
LINE
  8
0
  6
BYLAYER
 62
     7
 10
886.928221
 20
-23.319144
 30
0.0
 11
839.428221
 21
-23.319144
 31
0.0
  0
ARC
  8
0
  6
BYLAYER
 62
     7
 10
839.428221
 20
-24.819144
 30
0.0
 40
1.500000
 50
90.0
 51
180.0
  0
LINE
  8
0
  6
BYLAYER
 62
     7
 10
837.928221
 20
-30.319144
 30
0.0
 11
837.928221
 21
-24.819144
 31
0.0
  0
LINE
  8
0
  6
BYLAYER
 62
     7
 10
837.928221
 20
-30.319144
 30
0.0
 11
886.928221
 21
-30.319144
 31
0.0
  0
LINE
  8
0
  6
BYLAYER
 62
     7
 10
930.428221
 20
-21.819144
 30
0.0
 11
930.428221
 21
-0.319144
 31
0.0
  0
ARC
  8
0
  6
BYLAYER
 62
     7
 10
931.928221
 20
-21.819144
 30
0.0
 40
1.500000
 50
180.000000
 51
270.000000
  0
ARC
  8
0
  6
BYLAYER
 62
     7
 10
928.928221
 20
-0.319144
 30
0.0
 40
1.500000
 50
0.0
 51
90.0
  0
LINE
  8
0
  6
BYLAYER
 62
     7
 10
886.928221
 20
1.180856
 30
0.0
 11
928.928221
 21
1.180856
 31
0.0
  0
LINE
  8
0
  6
BYLAYER
 62
     7
 10
925.055980
 20
-21.819144
 30
0.0
 11
925.055980
 21
-0.319144
 31
0.0
  0
ARC
  8
0
  6
BYLAYER
 62
     7
 10
926.555980
 20
-21.819144
 30
0.0
 40
1.500000
 50
180.000000
 51
270.000000
  0
ARC
  8
0
  6
BYLAYER
 62
     7
 10
923.555980
 20
-0.319144
 30
0.0
 40
1.500000
 50
0.0
 51
90.0
  0
LINE
  8
0
  6
BYLAYER
 62
     7
 10
900.021874
 20
1.180856
 30
0.0
 11
899.529327
 21
-12.923842
 31
0.0
  0
ARC
  8
0
  6
BYLAYER
 62
     7
 10
896.531155
 20
-12.819144
 30
0.0
 40
3.0
 50
270.0
 51
358.0
  0
LINE
  8
0
  6
BYLAYER
 62
     7
 10
889.327115
 20
-12.923842
 30
0.0
 11
888.834568
 21
1.180856
 31
0.0
  0
ARC
  8
0
  6
BYLAYER
 62
     7
 10
892.325287
 20
-12.819144
 30
0.0
 40
3.0
 50
182.000000
 51
270.000000
  0
LINE
  8
0
  6
BYLAYER
 62
     7
 10
896.531155
 20
-15.819144
 30
0.0
 11
892.325287
 21
-15.819144
 31
0.0
  0
LINE
  8
0
  6
BYLAYER
 62
     7
 10
915.021874
 20
1.180856
 30
0.0
 11
914.529327
 21
-12.923842
 31
0.0
  0
ARC
  8
0
  6
BYLAYER
 62
     7
 10
911.531155
 20
-12.819144
 30
0.0
 40
3.0
 50
270.0
 51
358.0
  0
LINE
  8
0
  6
BYLAYER
 62
     7
 10
904.327115
 20
-12.923842
 30
0.0
 11
903.834568
 21
1.180856
 31
0.0
  0
ARC
  8
0
  6
BYLAYER
 62
     7
 10
907.325287
 20
-12.819144
 30
0.0
 40
3.0
 50
182.000000
 51
270.000000
  0
LINE
  8
0
  6
BYLAYER
 62
     7
 10
911.531155
 20
-15.819144
 30
0.0
 11
907.325287
 21
-15.819144
 31
0.0
  0
LINE
  8
0
  6
BYLAYER
 62
     7
 10
914.986953
 20
0.180856
 30
0.0
 11
903.869489
 21
0.180856
 31
0.0
  0
LINE
  8
0
  6
BYLAYER
 62
     7
 10
899.986953
 20
0.180856
 30
0.0
 11
888.869489
 21
0.180856
 31
0.0
  0
LINE
  8
0
  6
BYLAYER
 62
     7
 10
886.928221
 20
-23.319144
 30
0.0
 11
934.428221
 21
-23.319144
 31
0.0
  0
ARC
  8
0
  6
BYLAYER
 62
     7
 10
934.428221
 20
-24.819144
 30
0.0
 40
1.500000
 50
0.0
 51
90.0
  0
LINE
  8
0
  6
BYLAYER
 62
     7
 10
935.928221
 20
-32.319144
 30
0.0
 11
935.928221
 21
-24.819144
 31
0.0
  0
LINE
  8
0
  6
BYLAYER
 62
     7
 10
935.928221
 20
-30.319144
 30
0.0
 11
886.928221
 21
-30.319144
 31
0.0
  0
LINE
  8
0
  6
BYLAYER
 62
     7
 10
837.928221
 20
-32.319144
 30
0.0
 11
886.928205
 21
-32.319144
 31
0.0
  0
LINE
  8
0
  6
BYLAYER
 62
     7
 10
837.928221
 20
-37.819144
 30
0.0
 11
840.928221
 21
-43.015311
 31
0.0
  0
LINE
  8
0
  6
BYLAYER
 62
     7
 10
935.928205
 20
-32.319022
 30
0.0
 11
886.928205
 21
-32.319144
 31
0.0
  0
LINE
  8
0
  6
BYLAYER
 62
     7
 10
935.928205
 20
-37.819022
 30
0.0
 11
932.928205
 21
-43.015189
 31
0.0
  0
LINE
  8
0
  6
BYLAYER
 62
     7
 10
840.928221
 20
-43.015311
 30
0.0
 11
840.928221
 21
-55.005547
 31
0.0
  0
LINE
  8
0
  6
BYLAYER
 62
     7
 10
837.928221
 20
-32.319144
 30
0.0
 11
837.928221
 21
-56.975730
 31
0.0
  0
LINE
  8
0
  6
BYLAYER
 62
     7
 10
935.928205
 20
-32.319022
 30
0.0
 11
935.928234
 21
-56.975592
 31
0.0
  0
LINE
  8
0
  6
BYLAYER
 62
     7
 10
932.928205
 20
-43.015189
 30
0.0
 11
932.928216
 21
-55.005410
 31
0.0
  0
LINE
  8
0
  6
BYLAYER
 62
     7
 10
837.928221
 20
-30.319144
 30
0.0
 11
837.928221
 21
-32.319144
 31
0.0
  0
LINE
  8
0
  6
BYLAYER
 62
     7
 10
837.928221
 20
-32.319144
 30
0.0
 11
935.928221
 21
-32.319144
 31
0.0
  0
LINE
  8
0
  6
BYLAYER
 62
     7
 10
887.928328
 20
-99.319113
 30
0.0
 11
887.928328
 21
-107.319113
 31
0.0
  0
LINE
  8
0
  6
BYLAYER
 62
     7
 10
887.928328
 20
-89.319113
 30
0.0
 11
887.928328
 21
-97.319113
 31
0.0
  0
LINE
  8
0
  6
BYLAYER
 62
     7
 10
895.928328
 20
-97.319113
 30
0.0
 11
895.928328
 21
-89.319113
 31
0.0
  0
LINE
  8
0
  6
BYLAYER
 62
     7
 10
897.928328
 20
-97.319113
 30
0.0
 11
897.928328
 21
-89.319113
 31
0.0
  0
LINE
  8
0
  6
BYLAYER
 62
     7
 10
887.928328
 20
-107.319113
 30
0.0
 11
895.928328
 21
-107.319113
 31
0.0
  0
LINE
  8
0
  6
BYLAYER
 62
     7
 10
887.928328
 20
-99.319113
 30
0.0
 11
895.928328
 21
-99.319113
 31
0.0
  0
LINE
  8
0
  6
BYLAYER
 62
     7
 10
897.928328
 20
-97.319113
 30
0.0
 11
905.766327
 21
-97.319113
 31
0.0
  0
LINE
  8
0
  6
BYLAYER
 62
     7
 10
887.928328
 20
-97.319113
 30
0.0
 11
895.928328
 21
-97.319113
 31
0.0
  0
LINE
  8
0
  6
BYLAYER
 62
     7
 10
897.928328
 20
-89.319113
 30
0.0
 11
905.766327
 21
-89.319113
 31
0.0
  0
LINE
  8
0
  6
BYLAYER
 62
     7
 10
887.928328
 20
-89.319113
 30
0.0
 11
895.928328
 21
-89.319113
 31
0.0
  0
LINE
  8
0
  6
BYLAYER
 62
     7
 10
905.766327
 20
-97.319113
 30
0.0
 11
905.766327
 21
-89.319113
 31
0.0
  0
LINE
  8
0
  6
BYLAYER
 62
     7
 10
895.928328
 20
-107.319113
 30
0.0
 11
895.928328
 21
-99.319113
 31
0.0
  0
LINE
  8
0
  6
BYLAYER
 62
     7
 10
897.928328
 20
-99.319113
 30
0.0
 11
897.928328
 21
-107.319113
 31
0.0
  0
LINE
  8
0
  6
BYLAYER
 62
     7
 10
897.928328
 20
-107.319113
 30
0.0
 11
905.928328
 21
-107.319113
 31
0.0
  0
LINE
  8
0
  6
BYLAYER
 62
     7
 10
897.928328
 20
-99.319113
 30
0.0
 11
905.928328
 21
-99.319113
 31
0.0
  0
LINE
  8
0
  6
BYLAYER
 62
     7
 10
905.928328
 20
-107.319113
 30
0.0
 11
905.928328
 21
-99.319113
 31
0.0
  0
LINE
  8
0
  6
BYLAYER
 62
     7
 10
907.928328
 20
-117.319113
 30
0.0
 11
915.928328
 21
-117.319113
 31
0.0
  0
LINE
  8
0
  6
BYLAYER
 62
     7
 10
907.928328
 20
-99.319113
 30
0.0
 11
907.928328
 21
-107.319113
 31
0.0
  0
LINE
  8
0
  6
BYLAYER
 62
     7
 10
907.928328
 20
-109.319113
 30
0.0
 11
907.928328
 21
-117.319113
 31
0.0
  0
LINE
  8
0
  6
BYLAYER
 62
     7
 10
907.928328
 20
-109.319113
 30
0.0
 11
915.928328
 21
-109.319113
 31
0.0
  0
LINE
  8
0
  6
BYLAYER
 62
     7
 10
907.928328
 20
-107.319113
 30
0.0
 11
915.928328
 21
-107.319113
 31
0.0
  0
LINE
  8
0
  6
BYLAYER
 62
     7
 10
907.928328
 20
-99.319113
 30
0.0
 11
915.928328
 21
-99.319113
 31
0.0
  0
LINE
  8
0
  6
BYLAYER
 62
     7
 10
915.928328
 20
-117.319113
 30
0.0
 11
915.928328
 21
-109.319113
 31
0.0
  0
LINE
  8
0
  6
BYLAYER
 62
     7
 10
915.928328
 20
-107.319113
 30
0.0
 11
915.928328
 21
-99.319113
 31
0.0
  0
LINE
  8
0
  6
BYLAYER
 62
     7
 10
907.928328
 20
-127.319113
 30
0.0
 11
915.928328
 21
-127.319113
 31
0.0
  0
LINE
  8
0
  6
BYLAYER
 62
     7
 10
907.928328
 20
-119.319113
 30
0.0
 11
907.928328
 21
-127.319113
 31
0.0
  0
LINE
  8
0
  6
BYLAYER
 62
     7
 10
907.928328
 20
-119.319113
 30
0.0
 11
915.928328
 21
-119.319113
 31
0.0
  0
LINE
  8
0
  6
BYLAYER
 62
     7
 10
915.928328
 20
-127.319113
 30
0.0
 11
915.928328
 21
-119.319113
 31
0.0
  0
LINE
  8
0
  6
BYLAYER
 62
     7
 10
917.928328
 20
-117.319113
 30
0.0
 11
925.928328
 21
-117.319113
 31
0.0
  0
LINE
  8
0
  6
BYLAYER
 62
     7
 10
917.928328
 20
-109.319113
 30
0.0
 11
917.928328
 21
-117.319113
 31
0.0
  0
LINE
  8
0
  6
BYLAYER
 62
     7
 10
917.928328
 20
-109.319113
 30
0.0
 11
925.928328
 21
-109.319113
 31
0.0
  0
LINE
  8
0
  6
BYLAYER
 62
     7
 10
925.928328
 20
-117.319113
 30
0.0
 11
925.928328
 21
-109.319113
 31
0.0
  0
LINE
  8
0
  6
BYLAYER
 62
     7
 10
917.928328
 20
-127.319113
 30
0.0
 11
925.928328
 21
-127.319113
 31
0.0
  0
LINE
  8
0
  6
BYLAYER
 62
     7
 10
917.928328
 20
-119.319113
 30
0.0
 11
917.928328
 21
-127.319113
 31
0.0
  0
LINE
  8
0
  6
BYLAYER
 62
     7
 10
917.928328
 20
-119.319113
 30
0.0
 11
925.928328
 21
-119.319113
 31
0.0
  0
LINE
  8
0
  6
BYLAYER
 62
     7
 10
925.928328
 20
-127.319113
 30
0.0
 11
925.928328
 21
-119.319113
 31
0.0
  0
LINE
  8
0
  6
BYLAYER
 62
     7
 10
927.928328
 20
-117.319113
 30
0.0
 11
935.928328
 21
-117.319113
 31
0.0
  0
LINE
  8
0
  6
BYLAYER
 62
     7
 10
927.928328
 20
-109.319113
 30
0.0
 11
927.928328
 21
-117.319113
 31
0.0
  0
LINE
  8
0
  6
BYLAYER
 62
     7
 10
927.928328
 20
-109.319113
 30
0.0
 11
935.928328
 21
-109.319113
 31
0.0
  0
LINE
  8
0
  6
BYLAYER
 62
     7
 10
935.928328
 20
-117.319113
 30
0.0
 11
935.928328
 21
-109.319113
 31
0.0
  0
LINE
  8
0
  6
BYLAYER
 62
     7
 10
927.928328
 20
-127.319113
 30
0.0
 11
935.928328
 21
-127.319113
 31
0.0
  0
LINE
  8
0
  6
BYLAYER
 62
     7
 10
927.928328
 20
-119.319113
 30
0.0
 11
927.928328
 21
-127.319113
 31
0.0
  0
LINE
  8
0
  6
BYLAYER
 62
     7
 10
927.928328
 20
-119.319113
 30
0.0
 11
935.928328
 21
-119.319113
 31
0.0
  0
LINE
  8
0
  6
BYLAYER
 62
     7
 10
935.928328
 20
-127.319113
 30
0.0
 11
935.928328
 21
-119.319113
 31
0.0
  0
LINE
  8
0
  6
BYLAYER
 62
     7
 10
887.928328
 20
-79.319113
 30
0.0
 11
887.928328
 21
-87.319113
 31
0.0
  0
LINE
  8
0
  6
BYLAYER
 62
     7
 10
895.928328
 20
-87.319113
 30
0.0
 11
895.928328
 21
-79.319113
 31
0.0
  0
LINE
  8
0
  6
BYLAYER
 62
     7
 10
897.928328
 20
-87.319113
 30
0.0
 11
897.928328
 21
-79.319113
 31
0.0
  0
LINE
  8
0
  6
BYLAYER
 62
     7
 10
897.928328
 20
-87.319113
 30
0.0
 11
905.766327
 21
-87.319113
 31
0.0
  0
LINE
  8
0
  6
BYLAYER
 62
     7
 10
887.928328
 20
-87.319113
 30
0.0
 11
895.928328
 21
-87.319113
 31
0.0
  0
LINE
  8
0
  6
BYLAYER
 62
     7
 10
897.928328
 20
-79.319113
 30
0.0
 11
905.766327
 21
-79.319113
 31
0.0
  0
LINE
  8
0
  6
BYLAYER
 62
     7
 10
887.928328
 20
-79.319113
 30
0.0
 11
895.928328
 21
-79.319113
 31
0.0
  0
LINE
  8
0
  6
BYLAYER
 62
     7
 10
905.766327
 20
-87.319113
 30
0.0
 11
905.766327
 21
-79.319113
 31
0.0
  0
LINE
  8
0
  6
BYLAYER
 62
     7
 10
907.928328
 20
-89.319113
 30
0.0
 11
907.928328
 21
-97.319113
 31
0.0
  0
LINE
  8
0
  6
BYLAYER
 62
     7
 10
907.928328
 20
-97.319113
 30
0.0
 11
915.928328
 21
-97.319113
 31
0.0
  0
LINE
  8
0
  6
BYLAYER
 62
     7
 10
907.928328
 20
-89.319113
 30
0.0
 11
915.928328
 21
-89.319113
 31
0.0
  0
LINE
  8
0
  6
BYLAYER
 62
     7
 10
915.928328
 20
-97.319113
 30
0.0
 11
915.928328
 21
-89.319113
 31
0.0
  0
LINE
  8
0
  6
BYLAYER
 62
     7
 10
907.928328
 20
-79.319113
 30
0.0
 11
907.928328
 21
-87.319113
 31
0.0
  0
LINE
  8
0
  6
BYLAYER
 62
     7
 10
907.928328
 20
-87.319113
 30
0.0
 11
915.928328
 21
-87.319113
 31
0.0
  0
LINE
  8
0
  6
BYLAYER
 62
     7
 10
907.928328
 20
-79.319113
 30
0.0
 11
915.928328
 21
-79.319113
 31
0.0
  0
LINE
  8
0
  6
BYLAYER
 62
     7
 10
915.928328
 20
-87.319113
 30
0.0
 11
915.928328
 21
-79.319113
 31
0.0
  0
LINE
  8
0
  6
BYLAYER
 62
     7
 10
917.928328
 20
-99.319113
 30
0.0
 11
917.928328
 21
-107.319113
 31
0.0
  0
LINE
  8
0
  6
BYLAYER
 62
     7
 10
917.928328
 20
-107.319113
 30
0.0
 11
925.928328
 21
-107.319113
 31
0.0
  0
LINE
  8
0
  6
BYLAYER
 62
     7
 10
917.928328
 20
-99.319113
 30
0.0
 11
925.928328
 21
-99.319113
 31
0.0
  0
LINE
  8
0
  6
BYLAYER
 62
     7
 10
925.928328
 20
-107.319113
 30
0.0
 11
925.928328
 21
-99.319113
 31
0.0
  0
LINE
  8
0
  6
BYLAYER
 62
     7
 10
917.928328
 20
-89.319113
 30
0.0
 11
917.928328
 21
-97.319113
 31
0.0
  0
LINE
  8
0
  6
BYLAYER
 62
     7
 10
917.928328
 20
-97.319113
 30
0.0
 11
925.928328
 21
-97.319113
 31
0.0
  0
LINE
  8
0
  6
BYLAYER
 62
     7
 10
917.928328
 20
-89.319113
 30
0.0
 11
925.928328
 21
-89.319113
 31
0.0
  0
LINE
  8
0
  6
BYLAYER
 62
     7
 10
925.928328
 20
-97.319113
 30
0.0
 11
925.928328
 21
-89.319113
 31
0.0
  0
LINE
  8
0
  6
BYLAYER
 62
     7
 10
927.928328
 20
-99.319113
 30
0.0
 11
927.928328
 21
-107.319113
 31
0.0
  0
LINE
  8
0
  6
BYLAYER
 62
     7
 10
927.928328
 20
-107.319113
 30
0.0
 11
935.928328
 21
-107.319113
 31
0.0
  0
LINE
  8
0
  6
BYLAYER
 62
     7
 10
927.928328
 20
-99.319113
 30
0.0
 11
935.928328
 21
-99.319113
 31
0.0
  0
LINE
  8
0
  6
BYLAYER
 62
     7
 10
935.928328
 20
-107.319113
 30
0.0
 11
935.928328
 21
-99.319113
 31
0.0
  0
CIRCLE
  8
0
  6
BYLAYER
 62
     7
 10
886.928328
 20
-128.319113
 30
0.0
 40
4.0
  0
LINE
  8
0
  6
BYLAYER
 62
     7
 10
937.928328
 20
-117.319113
 30
0.0
 11
945.928328
 21
-117.319113
 31
0.0
  0
LINE
  8
0
  6
BYLAYER
 62
     7
 10
937.928328
 20
-109.319113
 30
0.0
 11
937.928328
 21
-117.319113
 31
0.0
  0
LINE
  8
0
  6
BYLAYER
 62
     7
 10
937.928328
 20
-109.319113
 30
0.0
 11
945.928328
 21
-109.319113
 31
0.0
  0
LINE
  8
0
  6
BYLAYER
 62
     7
 10
945.928328
 20
-117.319113
 30
0.0
 11
945.928328
 21
-109.319113
 31
0.0
  0
LINE
  8
0
  6
BYLAYER
 62
     7
 10
937.928328
 20
-127.319113
 30
0.0
 11
945.928328
 21
-127.319113
 31
0.0
  0
LINE
  8
0
  6
BYLAYER
 62
     7
 10
937.928328
 20
-119.319113
 30
0.0
 11
937.928328
 21
-127.319113
 31
0.0
  0
LINE
  8
0
  6
BYLAYER
 62
     7
 10
937.928328
 20
-119.319113
 30
0.0
 11
945.928328
 21
-119.319113
 31
0.0
  0
LINE
  8
0
  6
BYLAYER
 62
     7
 10
945.928328
 20
-127.319113
 30
0.0
 11
945.928328
 21
-119.319113
 31
0.0
  0
LINE
  8
0
  6
BYLAYER
 62
     7
 10
937.928328
 20
-99.319113
 30
0.0
 11
937.928328
 21
-107.319113
 31
0.0
  0
LINE
  8
0
  6
BYLAYER
 62
     7
 10
937.928328
 20
-107.319113
 30
0.0
 11
945.928328
 21
-107.319113
 31
0.0
  0
LINE
  8
0
  6
BYLAYER
 62
     7
 10
937.928328
 20
-99.319113
 30
0.0
 11
945.928328
 21
-99.319113
 31
0.0
  0
LINE
  8
0
  6
BYLAYER
 62
     7
 10
945.928328
 20
-107.319113
 30
0.0
 11
945.928328
 21
-99.319113
 31
0.0
  0
LINE
  8
0
  6
BYLAYER
 62
     7
 10
887.928328
 20
-69.319113
 30
0.0
 11
887.928328
 21
-77.319113
 31
0.0
  0
LINE
  8
0
  6
BYLAYER
 62
     7
 10
895.928328
 20
-77.319113
 30
0.0
 11
895.928328
 21
-69.319113
 31
0.0
  0
LINE
  8
0
  6
BYLAYER
 62
     7
 10
897.928328
 20
-77.319113
 30
0.0
 11
897.928328
 21
-69.319113
 31
0.0
  0
LINE
  8
0
  6
BYLAYER
 62
     7
 10
897.928328
 20
-77.319113
 30
0.0
 11
905.766327
 21
-77.319113
 31
0.0
  0
LINE
  8
0
  6
BYLAYER
 62
     7
 10
887.928328
 20
-77.319113
 30
0.0
 11
895.928328
 21
-77.319113
 31
0.0
  0
LINE
  8
0
  6
BYLAYER
 62
     7
 10
897.928328
 20
-69.319113
 30
0.0
 11
905.766327
 21
-69.319113
 31
0.0
  0
LINE
  8
0
  6
BYLAYER
 62
     7
 10
887.928328
 20
-69.319113
 30
0.0
 11
895.928328
 21
-69.319113
 31
0.0
  0
LINE
  8
0
  6
BYLAYER
 62
     7
 10
905.766327
 20
-77.319113
 30
0.0
 11
905.766327
 21
-69.319113
 31
0.0
  0
LINE
  8
0
  6
BYLAYER
 62
     7
 10
907.928328
 20
-69.319113
 30
0.0
 11
907.928328
 21
-77.319113
 31
0.0
  0
LINE
  8
0
  6
BYLAYER
 62
     7
 10
907.928328
 20
-77.319113
 30
0.0
 11
915.928328
 21
-77.319113
 31
0.0
  0
LINE
  8
0
  6
BYLAYER
 62
     7
 10
907.928328
 20
-69.319113
 30
0.0
 11
915.928328
 21
-69.319113
 31
0.0
  0
LINE
  8
0
  6
BYLAYER
 62
     7
 10
915.928328
 20
-77.319113
 30
0.0
 11
915.928328
 21
-69.319113
 31
0.0
  0
LINE
  8
0
  6
BYLAYER
 62
     7
 10
917.928328
 20
-79.319113
 30
0.0
 11
917.928328
 21
-87.319113
 31
0.0
  0
LINE
  8
0
  6
BYLAYER
 62
     7
 10
917.928328
 20
-87.319113
 30
0.0
 11
925.928328
 21
-87.319113
 31
0.0
  0
LINE
  8
0
  6
BYLAYER
 62
     7
 10
917.928328
 20
-79.319113
 30
0.0
 11
925.928328
 21
-79.319113
 31
0.0
  0
LINE
  8
0
  6
BYLAYER
 62
     7
 10
925.928328
 20
-87.319113
 30
0.0
 11
925.928328
 21
-79.319113
 31
0.0
  0
LINE
  8
0
  6
BYLAYER
 62
     7
 10
927.928328
 20
-89.319113
 30
0.0
 11
927.928328
 21
-97.319113
 31
0.0
  0
LINE
  8
0
  6
BYLAYER
 62
     7
 10
927.928328
 20
-97.319113
 30
0.0
 11
935.928328
 21
-97.319113
 31
0.0
  0
LINE
  8
0
  6
BYLAYER
 62
     7
 10
927.928328
 20
-89.319113
 30
0.0
 11
935.928328
 21
-89.319113
 31
0.0
  0
LINE
  8
0
  6
BYLAYER
 62
     7
 10
935.928328
 20
-97.319113
 30
0.0
 11
935.928328
 21
-89.319113
 31
0.0
  0
LINE
  8
0
  6
BYLAYER
 62
     7
 10
887.928328
 20
-157.319113
 30
0.0
 11
887.928328
 21
-149.319113
 31
0.0
  0
LINE
  8
0
  6
BYLAYER
 62
     7
 10
887.928328
 20
-167.319113
 30
0.0
 11
887.928328
 21
-159.319113
 31
0.0
  0
LINE
  8
0
  6
BYLAYER
 62
     7
 10
895.928328
 20
-159.319113
 30
0.0
 11
895.928328
 21
-167.319113
 31
0.0
  0
LINE
  8
0
  6
BYLAYER
 62
     7
 10
897.928328
 20
-159.319113
 30
0.0
 11
897.928328
 21
-167.319113
 31
0.0
  0
LINE
  8
0
  6
BYLAYER
 62
     7
 10
887.928328
 20
-149.319113
 30
0.0
 11
895.928328
 21
-149.319113
 31
0.0
  0
LINE
  8
0
  6
BYLAYER
 62
     7
 10
887.928328
 20
-157.319113
 30
0.0
 11
895.928328
 21
-157.319113
 31
0.0
  0
LINE
  8
0
  6
BYLAYER
 62
     7
 10
897.928328
 20
-159.319113
 30
0.0
 11
905.766327
 21
-159.319113
 31
0.0
  0
LINE
  8
0
  6
BYLAYER
 62
     7
 10
887.928328
 20
-159.319113
 30
0.0
 11
895.928328
 21
-159.319113
 31
0.0
  0
LINE
  8
0
  6
BYLAYER
 62
     7
 10
897.928328
 20
-167.319113
 30
0.0
 11
905.766327
 21
-167.319113
 31
0.0
  0
LINE
  8
0
  6
BYLAYER
 62
     7
 10
887.928328
 20
-167.319113
 30
0.0
 11
895.928328
 21
-167.319113
 31
0.0
  0
LINE
  8
0
  6
BYLAYER
 62
     7
 10
905.766327
 20
-159.319113
 30
0.0
 11
905.766327
 21
-167.319113
 31
0.0
  0
LINE
  8
0
  6
BYLAYER
 62
     7
 10
895.928328
 20
-149.319113
 30
0.0
 11
895.928328
 21
-157.319113
 31
0.0
  0
LINE
  8
0
  6
BYLAYER
 62
     7
 10
897.928328
 20
-157.319113
 30
0.0
 11
897.928328
 21
-149.319113
 31
0.0
  0
LINE
  8
0
  6
BYLAYER
 62
     7
 10
897.928328
 20
-149.319113
 30
0.0
 11
905.928328
 21
-149.319113
 31
0.0
  0
LINE
  8
0
  6
BYLAYER
 62
     7
 10
897.928328
 20
-157.319113
 30
0.0
 11
905.928328
 21
-157.319113
 31
0.0
  0
LINE
  8
0
  6
BYLAYER
 62
     7
 10
905.928328
 20
-149.319113
 30
0.0
 11
905.928328
 21
-157.319113
 31
0.0
  0
LINE
  8
0
  6
BYLAYER
 62
     7
 10
907.928328
 20
-139.319113
 30
0.0
 11
915.928328
 21
-139.319113
 31
0.0
  0
LINE
  8
0
  6
BYLAYER
 62
     7
 10
907.928328
 20
-157.319113
 30
0.0
 11
907.928328
 21
-149.319113
 31
0.0
  0
LINE
  8
0
  6
BYLAYER
 62
     7
 10
907.928328
 20
-147.319113
 30
0.0
 11
907.928328
 21
-139.319113
 31
0.0
  0
LINE
  8
0
  6
BYLAYER
 62
     7
 10
907.928328
 20
-147.319113
 30
0.0
 11
915.928328
 21
-147.319113
 31
0.0
  0
LINE
  8
0
  6
BYLAYER
 62
     7
 10
907.928328
 20
-149.319113
 30
0.0
 11
915.928328
 21
-149.319113
 31
0.0
  0
LINE
  8
0
  6
BYLAYER
 62
     7
 10
907.928328
 20
-157.319113
 30
0.0
 11
915.928328
 21
-157.319113
 31
0.0
  0
LINE
  8
0
  6
BYLAYER
 62
     7
 10
915.928328
 20
-139.319113
 30
0.0
 11
915.928328
 21
-147.319113
 31
0.0
  0
LINE
  8
0
  6
BYLAYER
 62
     7
 10
915.928328
 20
-149.319113
 30
0.0
 11
915.928328
 21
-157.319113
 31
0.0
  0
LINE
  8
0
  6
BYLAYER
 62
     7
 10
907.928328
 20
-129.319113
 30
0.0
 11
915.928328
 21
-129.319113
 31
0.0
  0
LINE
  8
0
  6
BYLAYER
 62
     7
 10
907.928328
 20
-137.319113
 30
0.0
 11
907.928328
 21
-129.319113
 31
0.0
  0
LINE
  8
0
  6
BYLAYER
 62
     7
 10
907.928328
 20
-137.319113
 30
0.0
 11
915.928328
 21
-137.319113
 31
0.0
  0
LINE
  8
0
  6
BYLAYER
 62
     7
 10
915.928328
 20
-129.319113
 30
0.0
 11
915.928328
 21
-137.319113
 31
0.0
  0
LINE
  8
0
  6
BYLAYER
 62
     7
 10
917.928328
 20
-139.319113
 30
0.0
 11
925.928328
 21
-139.319113
 31
0.0
  0
LINE
  8
0
  6
BYLAYER
 62
     7
 10
917.928328
 20
-147.319113
 30
0.0
 11
917.928328
 21
-139.319113
 31
0.0
  0
LINE
  8
0
  6
BYLAYER
 62
     7
 10
917.928328
 20
-147.319113
 30
0.0
 11
925.928328
 21
-147.319113
 31
0.0
  0
LINE
  8
0
  6
BYLAYER
 62
     7
 10
925.928328
 20
-139.319113
 30
0.0
 11
925.928328
 21
-147.319113
 31
0.0
  0
LINE
  8
0
  6
BYLAYER
 62
     7
 10
917.928328
 20
-129.319113
 30
0.0
 11
925.928328
 21
-129.319113
 31
0.0
  0
LINE
  8
0
  6
BYLAYER
 62
     7
 10
917.928328
 20
-137.319113
 30
0.0
 11
917.928328
 21
-129.319113
 31
0.0
  0
LINE
  8
0
  6
BYLAYER
 62
     7
 10
917.928328
 20
-137.319113
 30
0.0
 11
925.928328
 21
-137.319113
 31
0.0
  0
LINE
  8
0
  6
BYLAYER
 62
     7
 10
925.928328
 20
-129.319113
 30
0.0
 11
925.928328
 21
-137.319113
 31
0.0
  0
LINE
  8
0
  6
BYLAYER
 62
     7
 10
927.928328
 20
-139.319113
 30
0.0
 11
935.928328
 21
-139.319113
 31
0.0
  0
LINE
  8
0
  6
BYLAYER
 62
     7
 10
927.928328
 20
-147.319113
 30
0.0
 11
927.928328
 21
-139.319113
 31
0.0
  0
LINE
  8
0
  6
BYLAYER
 62
     7
 10
927.928328
 20
-147.319113
 30
0.0
 11
935.928328
 21
-147.319113
 31
0.0
  0
LINE
  8
0
  6
BYLAYER
 62
     7
 10
935.928328
 20
-139.319113
 30
0.0
 11
935.928328
 21
-147.319113
 31
0.0
  0
LINE
  8
0
  6
BYLAYER
 62
     7
 10
927.928328
 20
-129.319113
 30
0.0
 11
935.928328
 21
-129.319113
 31
0.0
  0
LINE
  8
0
  6
BYLAYER
 62
     7
 10
927.928328
 20
-137.319113
 30
0.0
 11
927.928328
 21
-129.319113
 31
0.0
  0
LINE
  8
0
  6
BYLAYER
 62
     7
 10
927.928328
 20
-137.319113
 30
0.0
 11
935.928328
 21
-137.319113
 31
0.0
  0
LINE
  8
0
  6
BYLAYER
 62
     7
 10
935.928328
 20
-129.319113
 30
0.0
 11
935.928328
 21
-137.319113
 31
0.0
  0
LINE
  8
0
  6
BYLAYER
 62
     7
 10
887.928328
 20
-177.319113
 30
0.0
 11
887.928328
 21
-169.319113
 31
0.0
  0
LINE
  8
0
  6
BYLAYER
 62
     7
 10
895.928328
 20
-169.319113
 30
0.0
 11
895.928328
 21
-177.319113
 31
0.0
  0
LINE
  8
0
  6
BYLAYER
 62
     7
 10
897.928328
 20
-169.319113
 30
0.0
 11
897.928328
 21
-177.319113
 31
0.0
  0
LINE
  8
0
  6
BYLAYER
 62
     7
 10
897.928328
 20
-169.319113
 30
0.0
 11
905.766327
 21
-169.319113
 31
0.0
  0
LINE
  8
0
  6
BYLAYER
 62
     7
 10
887.928328
 20
-169.319113
 30
0.0
 11
895.928328
 21
-169.319113
 31
0.0
  0
LINE
  8
0
  6
BYLAYER
 62
     7
 10
897.928328
 20
-177.319113
 30
0.0
 11
905.766327
 21
-177.319113
 31
0.0
  0
LINE
  8
0
  6
BYLAYER
 62
     7
 10
887.928328
 20
-177.319113
 30
0.0
 11
895.928328
 21
-177.319113
 31
0.0
  0
LINE
  8
0
  6
BYLAYER
 62
     7
 10
905.766327
 20
-169.319113
 30
0.0
 11
905.766327
 21
-177.319113
 31
0.0
  0
LINE
  8
0
  6
BYLAYER
 62
     7
 10
907.928328
 20
-167.319113
 30
0.0
 11
907.928328
 21
-159.319113
 31
0.0
  0
LINE
  8
0
  6
BYLAYER
 62
     7
 10
907.928328
 20
-159.319113
 30
0.0
 11
915.928328
 21
-159.319113
 31
0.0
  0
LINE
  8
0
  6
BYLAYER
 62
     7
 10
907.928328
 20
-167.319113
 30
0.0
 11
915.928328
 21
-167.319113
 31
0.0
  0
LINE
  8
0
  6
BYLAYER
 62
     7
 10
915.928328
 20
-159.319113
 30
0.0
 11
915.928328
 21
-167.319113
 31
0.0
  0
LINE
  8
0
  6
BYLAYER
 62
     7
 10
907.928328
 20
-177.319113
 30
0.0
 11
907.928328
 21
-169.319113
 31
0.0
  0
LINE
  8
0
  6
BYLAYER
 62
     7
 10
907.928328
 20
-169.319113
 30
0.0
 11
915.928328
 21
-169.319113
 31
0.0
  0
LINE
  8
0
  6
BYLAYER
 62
     7
 10
907.928328
 20
-177.319113
 30
0.0
 11
915.928328
 21
-177.319113
 31
0.0
  0
LINE
  8
0
  6
BYLAYER
 62
     7
 10
915.928328
 20
-169.319113
 30
0.0
 11
915.928328
 21
-177.319113
 31
0.0
  0
LINE
  8
0
  6
BYLAYER
 62
     7
 10
917.928328
 20
-157.319113
 30
0.0
 11
917.928328
 21
-149.319113
 31
0.0
  0
LINE
  8
0
  6
BYLAYER
 62
     7
 10
917.928328
 20
-149.319113
 30
0.0
 11
925.928328
 21
-149.319113
 31
0.0
  0
LINE
  8
0
  6
BYLAYER
 62
     7
 10
917.928328
 20
-157.319113
 30
0.0
 11
925.928328
 21
-157.319113
 31
0.0
  0
LINE
  8
0
  6
BYLAYER
 62
     7
 10
925.928328
 20
-149.319113
 30
0.0
 11
925.928328
 21
-157.319113
 31
0.0
  0
LINE
  8
0
  6
BYLAYER
 62
     7
 10
917.928328
 20
-167.319113
 30
0.0
 11
917.928328
 21
-159.319113
 31
0.0
  0
LINE
  8
0
  6
BYLAYER
 62
     7
 10
917.928328
 20
-159.319113
 30
0.0
 11
925.928328
 21
-159.319113
 31
0.0
  0
LINE
  8
0
  6
BYLAYER
 62
     7
 10
917.928328
 20
-167.319113
 30
0.0
 11
925.928328
 21
-167.319113
 31
0.0
  0
LINE
  8
0
  6
BYLAYER
 62
     7
 10
925.928328
 20
-159.319113
 30
0.0
 11
925.928328
 21
-167.319113
 31
0.0
  0
LINE
  8
0
  6
BYLAYER
 62
     7
 10
927.928328
 20
-157.319113
 30
0.0
 11
927.928328
 21
-149.319113
 31
0.0
  0
LINE
  8
0
  6
BYLAYER
 62
     7
 10
927.928328
 20
-149.319113
 30
0.0
 11
935.928328
 21
-149.319113
 31
0.0
  0
LINE
  8
0
  6
BYLAYER
 62
     7
 10
927.928328
 20
-157.319113
 30
0.0
 11
935.928328
 21
-157.319113
 31
0.0
  0
LINE
  8
0
  6
BYLAYER
 62
     7
 10
935.928328
 20
-149.319113
 30
0.0
 11
935.928328
 21
-157.319113
 31
0.0
  0
LINE
  8
0
  6
BYLAYER
 62
     7
 10
937.928328
 20
-139.319113
 30
0.0
 11
945.928328
 21
-139.319113
 31
0.0
  0
LINE
  8
0
  6
BYLAYER
 62
     7
 10
937.928328
 20
-147.319113
 30
0.0
 11
937.928328
 21
-139.319113
 31
0.0
  0
LINE
  8
0
  6
BYLAYER
 62
     7
 10
937.928328
 20
-147.319113
 30
0.0
 11
945.928328
 21
-147.319113
 31
0.0
  0
LINE
  8
0
  6
BYLAYER
 62
     7
 10
945.928328
 20
-139.319113
 30
0.0
 11
945.928328
 21
-147.319113
 31
0.0
  0
LINE
  8
0
  6
BYLAYER
 62
     7
 10
937.928328
 20
-129.319113
 30
0.0
 11
945.928328
 21
-129.319113
 31
0.0
  0
LINE
  8
0
  6
BYLAYER
 62
     7
 10
937.928328
 20
-137.319113
 30
0.0
 11
937.928328
 21
-129.319113
 31
0.0
  0
LINE
  8
0
  6
BYLAYER
 62
     7
 10
937.928328
 20
-137.319113
 30
0.0
 11
945.928328
 21
-137.319113
 31
0.0
  0
LINE
  8
0
  6
BYLAYER
 62
     7
 10
945.928328
 20
-129.319113
 30
0.0
 11
945.928328
 21
-137.319113
 31
0.0
  0
LINE
  8
0
  6
BYLAYER
 62
     7
 10
937.928328
 20
-157.319113
 30
0.0
 11
937.928328
 21
-149.319113
 31
0.0
  0
LINE
  8
0
  6
BYLAYER
 62
     7
 10
937.928328
 20
-149.319113
 30
0.0
 11
945.928328
 21
-149.319113
 31
0.0
  0
LINE
  8
0
  6
BYLAYER
 62
     7
 10
937.928328
 20
-157.319113
 30
0.0
 11
945.928328
 21
-157.319113
 31
0.0
  0
LINE
  8
0
  6
BYLAYER
 62
     7
 10
945.928328
 20
-149.319113
 30
0.0
 11
945.928328
 21
-157.319113
 31
0.0
  0
LINE
  8
0
  6
BYLAYER
 62
     7
 10
887.928328
 20
-187.319113
 30
0.0
 11
887.928328
 21
-179.319113
 31
0.0
  0
LINE
  8
0
  6
BYLAYER
 62
     7
 10
895.928328
 20
-179.319113
 30
0.0
 11
895.928328
 21
-187.319113
 31
0.0
  0
LINE
  8
0
  6
BYLAYER
 62
     7
 10
897.928328
 20
-179.319113
 30
0.0
 11
897.928328
 21
-187.319113
 31
0.0
  0
LINE
  8
0
  6
BYLAYER
 62
     7
 10
897.928328
 20
-179.319113
 30
0.0
 11
905.766327
 21
-179.319113
 31
0.0
  0
LINE
  8
0
  6
BYLAYER
 62
     7
 10
887.928328
 20
-179.319113
 30
0.0
 11
895.928328
 21
-179.319113
 31
0.0
  0
LINE
  8
0
  6
BYLAYER
 62
     7
 10
897.928328
 20
-187.319113
 30
0.0
 11
905.766327
 21
-187.319113
 31
0.0
  0
LINE
  8
0
  6
BYLAYER
 62
     7
 10
887.928328
 20
-187.319113
 30
0.0
 11
895.928328
 21
-187.319113
 31
0.0
  0
LINE
  8
0
  6
BYLAYER
 62
     7
 10
905.766327
 20
-179.319113
 30
0.0
 11
905.766327
 21
-187.319113
 31
0.0
  0
LINE
  8
0
  6
BYLAYER
 62
     7
 10
907.928328
 20
-187.319113
 30
0.0
 11
907.928328
 21
-179.319113
 31
0.0
  0
LINE
  8
0
  6
BYLAYER
 62
     7
 10
907.928328
 20
-179.319113
 30
0.0
 11
915.928328
 21
-179.319113
 31
0.0
  0
LINE
  8
0
  6
BYLAYER
 62
     7
 10
907.928328
 20
-187.319113
 30
0.0
 11
915.928328
 21
-187.319113
 31
0.0
  0
LINE
  8
0
  6
BYLAYER
 62
     7
 10
915.928328
 20
-179.319113
 30
0.0
 11
915.928328
 21
-187.319113
 31
0.0
  0
LINE
  8
0
  6
BYLAYER
 62
     7
 10
917.928328
 20
-177.319113
 30
0.0
 11
917.928328
 21
-169.319113
 31
0.0
  0
LINE
  8
0
  6
BYLAYER
 62
     7
 10
917.928328
 20
-169.319113
 30
0.0
 11
925.928328
 21
-169.319113
 31
0.0
  0
LINE
  8
0
  6
BYLAYER
 62
     7
 10
917.928328
 20
-177.319113
 30
0.0
 11
925.928328
 21
-177.319113
 31
0.0
  0
LINE
  8
0
  6
BYLAYER
 62
     7
 10
925.928328
 20
-169.319113
 30
0.0
 11
925.928328
 21
-177.319113
 31
0.0
  0
LINE
  8
0
  6
BYLAYER
 62
     7
 10
927.928328
 20
-167.319113
 30
0.0
 11
927.928328
 21
-159.319113
 31
0.0
  0
LINE
  8
0
  6
BYLAYER
 62
     7
 10
927.928328
 20
-159.319113
 30
0.0
 11
935.928328
 21
-159.319113
 31
0.0
  0
LINE
  8
0
  6
BYLAYER
 62
     7
 10
927.928328
 20
-167.319113
 30
0.0
 11
935.928328
 21
-167.319113
 31
0.0
  0
LINE
  8
0
  6
BYLAYER
 62
     7
 10
935.928328
 20
-159.319113
 30
0.0
 11
935.928328
 21
-167.319113
 31
0.0
  0
LINE
  8
0
  6
BYLAYER
 62
     7
 10
885.928328
 20
-99.319113
 30
0.0
 11
885.928328
 21
-107.319113
 31
0.0
  0
LINE
  8
0
  6
BYLAYER
 62
     7
 10
885.928328
 20
-89.319113
 30
0.0
 11
885.928328
 21
-97.319113
 31
0.0
  0
LINE
  8
0
  6
BYLAYER
 62
     7
 10
877.928328
 20
-97.319113
 30
0.0
 11
877.928328
 21
-89.319113
 31
0.0
  0
LINE
  8
0
  6
BYLAYER
 62
     7
 10
875.928328
 20
-97.319113
 30
0.0
 11
875.928328
 21
-89.319113
 31
0.0
  0
LINE
  8
0
  6
BYLAYER
 62
     7
 10
885.928328
 20
-107.319113
 30
0.0
 11
877.928328
 21
-107.319113
 31
0.0
  0
LINE
  8
0
  6
BYLAYER
 62
     7
 10
885.928328
 20
-99.319113
 30
0.0
 11
877.928328
 21
-99.319113
 31
0.0
  0
LINE
  8
0
  6
BYLAYER
 62
     7
 10
875.928328
 20
-97.319113
 30
0.0
 11
868.090329
 21
-97.319113
 31
0.0
  0
LINE
  8
0
  6
BYLAYER
 62
     7
 10
885.928328
 20
-97.319113
 30
0.0
 11
877.928328
 21
-97.319113
 31
0.0
  0
LINE
  8
0
  6
BYLAYER
 62
     7
 10
875.928328
 20
-89.319113
 30
0.0
 11
868.090329
 21
-89.319113
 31
0.0
  0
LINE
  8
0
  6
BYLAYER
 62
     7
 10
885.928328
 20
-89.319113
 30
0.0
 11
877.928328
 21
-89.319113
 31
0.0
  0
LINE
  8
0
  6
BYLAYER
 62
     7
 10
868.090329
 20
-97.319113
 30
0.0
 11
868.090329
 21
-89.319113
 31
0.0
  0
LINE
  8
0
  6
BYLAYER
 62
     7
 10
877.928328
 20
-107.319113
 30
0.0
 11
877.928328
 21
-99.319113
 31
0.0
  0
LINE
  8
0
  6
BYLAYER
 62
     7
 10
875.928328
 20
-99.319113
 30
0.0
 11
875.928328
 21
-107.319113
 31
0.0
  0
LINE
  8
0
  6
BYLAYER
 62
     7
 10
875.928328
 20
-107.319113
 30
0.0
 11
867.928328
 21
-107.319113
 31
0.0
  0
LINE
  8
0
  6
BYLAYER
 62
     7
 10
875.928328
 20
-99.319113
 30
0.0
 11
867.928328
 21
-99.319113
 31
0.0
  0
LINE
  8
0
  6
BYLAYER
 62
     7
 10
867.928328
 20
-107.319113
 30
0.0
 11
867.928328
 21
-99.319113
 31
0.0
  0
LINE
  8
0
  6
BYLAYER
 62
     7
 10
865.928328
 20
-117.319113
 30
0.0
 11
857.928328
 21
-117.319113
 31
0.0
  0
LINE
  8
0
  6
BYLAYER
 62
     7
 10
865.928328
 20
-99.319113
 30
0.0
 11
865.928328
 21
-107.319113
 31
0.0
  0
LINE
  8
0
  6
BYLAYER
 62
     7
 10
865.928328
 20
-109.319113
 30
0.0
 11
865.928328
 21
-117.319113
 31
0.0
  0
LINE
  8
0
  6
BYLAYER
 62
     7
 10
865.928328
 20
-109.319113
 30
0.0
 11
857.928328
 21
-109.319113
 31
0.0
  0
LINE
  8
0
  6
BYLAYER
 62
     7
 10
865.928328
 20
-107.319113
 30
0.0
 11
857.928328
 21
-107.319113
 31
0.0
  0
LINE
  8
0
  6
BYLAYER
 62
     7
 10
865.928328
 20
-99.319113
 30
0.0
 11
857.928328
 21
-99.319113
 31
0.0
  0
LINE
  8
0
  6
BYLAYER
 62
     7
 10
857.928328
 20
-117.319113
 30
0.0
 11
857.928328
 21
-109.319113
 31
0.0
  0
LINE
  8
0
  6
BYLAYER
 62
     7
 10
857.928328
 20
-107.319113
 30
0.0
 11
857.928328
 21
-99.319113
 31
0.0
  0
LINE
  8
0
  6
BYLAYER
 62
     7
 10
865.928328
 20
-127.319113
 30
0.0
 11
857.928328
 21
-127.319113
 31
0.0
  0
LINE
  8
0
  6
BYLAYER
 62
     7
 10
865.928328
 20
-119.319113
 30
0.0
 11
865.928328
 21
-127.319113
 31
0.0
  0
LINE
  8
0
  6
BYLAYER
 62
     7
 10
865.928328
 20
-119.319113
 30
0.0
 11
857.928328
 21
-119.319113
 31
0.0
  0
LINE
  8
0
  6
BYLAYER
 62
     7
 10
857.928328
 20
-127.319113
 30
0.0
 11
857.928328
 21
-119.319113
 31
0.0
  0
LINE
  8
0
  6
BYLAYER
 62
     7
 10
855.928328
 20
-117.319113
 30
0.0
 11
847.928328
 21
-117.319113
 31
0.0
  0
LINE
  8
0
  6
BYLAYER
 62
     7
 10
855.928328
 20
-109.319113
 30
0.0
 11
855.928328
 21
-117.319113
 31
0.0
  0
LINE
  8
0
  6
BYLAYER
 62
     7
 10
855.928328
 20
-109.319113
 30
0.0
 11
847.928328
 21
-109.319113
 31
0.0
  0
LINE
  8
0
  6
BYLAYER
 62
     7
 10
847.928328
 20
-117.319113
 30
0.0
 11
847.928328
 21
-109.319113
 31
0.0
  0
LINE
  8
0
  6
BYLAYER
 62
     7
 10
855.928328
 20
-127.319113
 30
0.0
 11
847.928328
 21
-127.319113
 31
0.0
  0
LINE
  8
0
  6
BYLAYER
 62
     7
 10
855.928328
 20
-119.319113
 30
0.0
 11
855.928328
 21
-127.319113
 31
0.0
  0
LINE
  8
0
  6
BYLAYER
 62
     7
 10
855.928328
 20
-119.319113
 30
0.0
 11
847.928328
 21
-119.319113
 31
0.0
  0
LINE
  8
0
  6
BYLAYER
 62
     7
 10
847.928328
 20
-127.319113
 30
0.0
 11
847.928328
 21
-119.319113
 31
0.0
  0
LINE
  8
0
  6
BYLAYER
 62
     7
 10
845.928328
 20
-117.319113
 30
0.0
 11
837.928328
 21
-117.319113
 31
0.0
  0
LINE
  8
0
  6
BYLAYER
 62
     7
 10
845.928328
 20
-109.319113
 30
0.0
 11
845.928328
 21
-117.319113
 31
0.0
  0
LINE
  8
0
  6
BYLAYER
 62
     7
 10
845.928328
 20
-109.319113
 30
0.0
 11
837.928328
 21
-109.319113
 31
0.0
  0
LINE
  8
0
  6
BYLAYER
 62
     7
 10
837.928328
 20
-117.319113
 30
0.0
 11
837.928328
 21
-109.319113
 31
0.0
  0
LINE
  8
0
  6
BYLAYER
 62
     7
 10
845.928328
 20
-127.319113
 30
0.0
 11
837.928328
 21
-127.319113
 31
0.0
  0
LINE
  8
0
  6
BYLAYER
 62
     7
 10
845.928328
 20
-119.319113
 30
0.0
 11
845.928328
 21
-127.319113
 31
0.0
  0
LINE
  8
0
  6
BYLAYER
 62
     7
 10
845.928328
 20
-119.319113
 30
0.0
 11
837.928328
 21
-119.319113
 31
0.0
  0
LINE
  8
0
  6
BYLAYER
 62
     7
 10
837.928328
 20
-127.319113
 30
0.0
 11
837.928328
 21
-119.319113
 31
0.0
  0
LINE
  8
0
  6
BYLAYER
 62
     7
 10
885.928328
 20
-79.319113
 30
0.0
 11
885.928328
 21
-87.319113
 31
0.0
  0
LINE
  8
0
  6
BYLAYER
 62
     7
 10
877.928328
 20
-87.319113
 30
0.0
 11
877.928328
 21
-79.319113
 31
0.0
  0
LINE
  8
0
  6
BYLAYER
 62
     7
 10
875.928328
 20
-87.319113
 30
0.0
 11
875.928328
 21
-79.319113
 31
0.0
  0
LINE
  8
0
  6
BYLAYER
 62
     7
 10
875.928328
 20
-87.319113
 30
0.0
 11
868.090329
 21
-87.319113
 31
0.0
  0
LINE
  8
0
  6
BYLAYER
 62
     7
 10
885.928328
 20
-87.319113
 30
0.0
 11
877.928328
 21
-87.319113
 31
0.0
  0
LINE
  8
0
  6
BYLAYER
 62
     7
 10
875.928328
 20
-79.319113
 30
0.0
 11
868.090329
 21
-79.319113
 31
0.0
  0
LINE
  8
0
  6
BYLAYER
 62
     7
 10
885.928328
 20
-79.319113
 30
0.0
 11
877.928328
 21
-79.319113
 31
0.0
  0
LINE
  8
0
  6
BYLAYER
 62
     7
 10
868.090329
 20
-87.319113
 30
0.0
 11
868.090329
 21
-79.319113
 31
0.0
  0
LINE
  8
0
  6
BYLAYER
 62
     7
 10
865.928328
 20
-89.319113
 30
0.0
 11
865.928328
 21
-97.319113
 31
0.0
  0
LINE
  8
0
  6
BYLAYER
 62
     7
 10
865.928328
 20
-97.319113
 30
0.0
 11
857.928328
 21
-97.319113
 31
0.0
  0
LINE
  8
0
  6
BYLAYER
 62
     7
 10
865.928328
 20
-89.319113
 30
0.0
 11
857.928328
 21
-89.319113
 31
0.0
  0
LINE
  8
0
  6
BYLAYER
 62
     7
 10
857.928328
 20
-97.319113
 30
0.0
 11
857.928328
 21
-89.319113
 31
0.0
  0
LINE
  8
0
  6
BYLAYER
 62
     7
 10
865.928328
 20
-79.319113
 30
0.0
 11
865.928328
 21
-87.319113
 31
0.0
  0
LINE
  8
0
  6
BYLAYER
 62
     7
 10
865.928328
 20
-87.319113
 30
0.0
 11
857.928328
 21
-87.319113
 31
0.0
  0
LINE
  8
0
  6
BYLAYER
 62
     7
 10
865.928328
 20
-79.319113
 30
0.0
 11
857.928328
 21
-79.319113
 31
0.0
  0
LINE
  8
0
  6
BYLAYER
 62
     7
 10
857.928328
 20
-87.319113
 30
0.0
 11
857.928328
 21
-79.319113
 31
0.0
  0
LINE
  8
0
  6
BYLAYER
 62
     7
 10
855.928328
 20
-99.319113
 30
0.0
 11
855.928328
 21
-107.319113
 31
0.0
  0
LINE
  8
0
  6
BYLAYER
 62
     7
 10
855.928328
 20
-107.319113
 30
0.0
 11
847.928328
 21
-107.319113
 31
0.0
  0
LINE
  8
0
  6
BYLAYER
 62
     7
 10
855.928328
 20
-99.319113
 30
0.0
 11
847.928328
 21
-99.319113
 31
0.0
  0
LINE
  8
0
  6
BYLAYER
 62
     7
 10
847.928328
 20
-107.319113
 30
0.0
 11
847.928328
 21
-99.319113
 31
0.0
  0
LINE
  8
0
  6
BYLAYER
 62
     7
 10
855.928328
 20
-89.319113
 30
0.0
 11
855.928328
 21
-97.319113
 31
0.0
  0
LINE
  8
0
  6
BYLAYER
 62
     7
 10
855.928328
 20
-97.319113
 30
0.0
 11
847.928328
 21
-97.319113
 31
0.0
  0
LINE
  8
0
  6
BYLAYER
 62
     7
 10
855.928328
 20
-89.319113
 30
0.0
 11
847.928328
 21
-89.319113
 31
0.0
  0
LINE
  8
0
  6
BYLAYER
 62
     7
 10
847.928328
 20
-97.319113
 30
0.0
 11
847.928328
 21
-89.319113
 31
0.0
  0
LINE
  8
0
  6
BYLAYER
 62
     7
 10
845.928328
 20
-99.319113
 30
0.0
 11
845.928328
 21
-107.319113
 31
0.0
  0
LINE
  8
0
  6
BYLAYER
 62
     7
 10
845.928328
 20
-107.319113
 30
0.0
 11
837.928328
 21
-107.319113
 31
0.0
  0
LINE
  8
0
  6
BYLAYER
 62
     7
 10
845.928328
 20
-99.319113
 30
0.0
 11
837.928328
 21
-99.319113
 31
0.0
  0
LINE
  8
0
  6
BYLAYER
 62
     7
 10
837.928328
 20
-107.319113
 30
0.0
 11
837.928328
 21
-99.319113
 31
0.0
  0
LINE
  8
0
  6
BYLAYER
 62
     7
 10
835.928328
 20
-117.319113
 30
0.0
 11
827.928328
 21
-117.319113
 31
0.0
  0
LINE
  8
0
  6
BYLAYER
 62
     7
 10
835.928328
 20
-109.319113
 30
0.0
 11
835.928328
 21
-117.319113
 31
0.0
  0
LINE
  8
0
  6
BYLAYER
 62
     7
 10
835.928328
 20
-109.319113
 30
0.0
 11
827.928328
 21
-109.319113
 31
0.0
  0
LINE
  8
0
  6
BYLAYER
 62
     7
 10
827.928328
 20
-117.319113
 30
0.0
 11
827.928328
 21
-109.319113
 31
0.0
  0
LINE
  8
0
  6
BYLAYER
 62
     7
 10
835.928328
 20
-127.319113
 30
0.0
 11
827.928328
 21
-127.319113
 31
0.0
  0
LINE
  8
0
  6
BYLAYER
 62
     7
 10
835.928328
 20
-119.319113
 30
0.0
 11
835.928328
 21
-127.319113
 31
0.0
  0
LINE
  8
0
  6
BYLAYER
 62
     7
 10
835.928328
 20
-119.319113
 30
0.0
 11
827.928328
 21
-119.319113
 31
0.0
  0
LINE
  8
0
  6
BYLAYER
 62
     7
 10
827.928328
 20
-127.319113
 30
0.0
 11
827.928328
 21
-119.319113
 31
0.0
  0
LINE
  8
0
  6
BYLAYER
 62
     7
 10
835.928328
 20
-99.319113
 30
0.0
 11
835.928328
 21
-107.319113
 31
0.0
  0
LINE
  8
0
  6
BYLAYER
 62
     7
 10
835.928328
 20
-107.319113
 30
0.0
 11
827.928328
 21
-107.319113
 31
0.0
  0
LINE
  8
0
  6
BYLAYER
 62
     7
 10
835.928328
 20
-99.319113
 30
0.0
 11
827.928328
 21
-99.319113
 31
0.0
  0
LINE
  8
0
  6
BYLAYER
 62
     7
 10
827.928328
 20
-107.319113
 30
0.0
 11
827.928328
 21
-99.319113
 31
0.0
  0
LINE
  8
0
  6
BYLAYER
 62
     7
 10
885.928328
 20
-69.319113
 30
0.0
 11
885.928328
 21
-77.319113
 31
0.0
  0
LINE
  8
0
  6
BYLAYER
 62
     7
 10
877.928328
 20
-77.319113
 30
0.0
 11
877.928328
 21
-69.319113
 31
0.0
  0
LINE
  8
0
  6
BYLAYER
 62
     7
 10
875.928328
 20
-77.319113
 30
0.0
 11
875.928328
 21
-69.319113
 31
0.0
  0
LINE
  8
0
  6
BYLAYER
 62
     7
 10
875.928328
 20
-77.319113
 30
0.0
 11
868.090329
 21
-77.319113
 31
0.0
  0
LINE
  8
0
  6
BYLAYER
 62
     7
 10
885.928328
 20
-77.319113
 30
0.0
 11
877.928328
 21
-77.319113
 31
0.0
  0
LINE
  8
0
  6
BYLAYER
 62
     7
 10
875.928328
 20
-69.319113
 30
0.0
 11
868.090329
 21
-69.319113
 31
0.0
  0
LINE
  8
0
  6
BYLAYER
 62
     7
 10
885.928328
 20
-69.319113
 30
0.0
 11
877.928328
 21
-69.319113
 31
0.0
  0
LINE
  8
0
  6
BYLAYER
 62
     7
 10
868.090329
 20
-77.319113
 30
0.0
 11
868.090329
 21
-69.319113
 31
0.0
  0
LINE
  8
0
  6
BYLAYER
 62
     7
 10
865.928328
 20
-69.319113
 30
0.0
 11
865.928328
 21
-77.319113
 31
0.0
  0
LINE
  8
0
  6
BYLAYER
 62
     7
 10
865.928328
 20
-77.319113
 30
0.0
 11
857.928328
 21
-77.319113
 31
0.0
  0
LINE
  8
0
  6
BYLAYER
 62
     7
 10
865.928328
 20
-69.319113
 30
0.0
 11
857.928328
 21
-69.319113
 31
0.0
  0
LINE
  8
0
  6
BYLAYER
 62
     7
 10
857.928328
 20
-77.319113
 30
0.0
 11
857.928328
 21
-69.319113
 31
0.0
  0
LINE
  8
0
  6
BYLAYER
 62
     7
 10
855.928328
 20
-79.319113
 30
0.0
 11
855.928328
 21
-87.319113
 31
0.0
  0
LINE
  8
0
  6
BYLAYER
 62
     7
 10
855.928328
 20
-87.319113
 30
0.0
 11
847.928328
 21
-87.319113
 31
0.0
  0
LINE
  8
0
  6
BYLAYER
 62
     7
 10
855.928328
 20
-79.319113
 30
0.0
 11
847.928328
 21
-79.319113
 31
0.0
  0
LINE
  8
0
  6
BYLAYER
 62
     7
 10
847.928328
 20
-87.319113
 30
0.0
 11
847.928328
 21
-79.319113
 31
0.0
  0
LINE
  8
0
  6
BYLAYER
 62
     7
 10
845.928328
 20
-89.319113
 30
0.0
 11
845.928328
 21
-97.319113
 31
0.0
  0
LINE
  8
0
  6
BYLAYER
 62
     7
 10
845.928328
 20
-97.319113
 30
0.0
 11
837.928328
 21
-97.319113
 31
0.0
  0
LINE
  8
0
  6
BYLAYER
 62
     7
 10
845.928328
 20
-89.319113
 30
0.0
 11
837.928328
 21
-89.319113
 31
0.0
  0
LINE
  8
0
  6
BYLAYER
 62
     7
 10
837.928328
 20
-97.319113
 30
0.0
 11
837.928328
 21
-89.319113
 31
0.0
  0
LINE
  8
0
  6
BYLAYER
 62
     7
 10
885.928328
 20
-157.319113
 30
0.0
 11
885.928328
 21
-149.319113
 31
0.0
  0
LINE
  8
0
  6
BYLAYER
 62
     7
 10
885.928328
 20
-167.319113
 30
0.0
 11
885.928328
 21
-159.319113
 31
0.0
  0
LINE
  8
0
  6
BYLAYER
 62
     7
 10
877.928328
 20
-159.319113
 30
0.0
 11
877.928328
 21
-167.319113
 31
0.0
  0
LINE
  8
0
  6
BYLAYER
 62
     7
 10
875.928328
 20
-159.319113
 30
0.0
 11
875.928328
 21
-167.319113
 31
0.0
  0
LINE
  8
0
  6
BYLAYER
 62
     7
 10
885.928328
 20
-149.319113
 30
0.0
 11
877.928328
 21
-149.319113
 31
0.0
  0
LINE
  8
0
  6
BYLAYER
 62
     7
 10
885.928328
 20
-157.319113
 30
0.0
 11
877.928328
 21
-157.319113
 31
0.0
  0
LINE
  8
0
  6
BYLAYER
 62
     7
 10
875.928328
 20
-159.319113
 30
0.0
 11
868.090329
 21
-159.319113
 31
0.0
  0
LINE
  8
0
  6
BYLAYER
 62
     7
 10
885.928328
 20
-159.319113
 30
0.0
 11
877.928328
 21
-159.319113
 31
0.0
  0
LINE
  8
0
  6
BYLAYER
 62
     7
 10
875.928328
 20
-167.319113
 30
0.0
 11
868.090329
 21
-167.319113
 31
0.0
  0
LINE
  8
0
  6
BYLAYER
 62
     7
 10
885.928328
 20
-167.319113
 30
0.0
 11
877.928328
 21
-167.319113
 31
0.0
  0
LINE
  8
0
  6
BYLAYER
 62
     7
 10
868.090329
 20
-159.319113
 30
0.0
 11
868.090329
 21
-167.319113
 31
0.0
  0
LINE
  8
0
  6
BYLAYER
 62
     7
 10
877.928328
 20
-149.319113
 30
0.0
 11
877.928328
 21
-157.319113
 31
0.0
  0
LINE
  8
0
  6
BYLAYER
 62
     7
 10
875.928328
 20
-157.319113
 30
0.0
 11
875.928328
 21
-149.319113
 31
0.0
  0
LINE
  8
0
  6
BYLAYER
 62
     7
 10
875.928328
 20
-149.319113
 30
0.0
 11
867.928328
 21
-149.319113
 31
0.0
  0
LINE
  8
0
  6
BYLAYER
 62
     7
 10
875.928328
 20
-157.319113
 30
0.0
 11
867.928328
 21
-157.319113
 31
0.0
  0
LINE
  8
0
  6
BYLAYER
 62
     7
 10
867.928328
 20
-149.319113
 30
0.0
 11
867.928328
 21
-157.319113
 31
0.0
  0
LINE
  8
0
  6
BYLAYER
 62
     7
 10
865.928328
 20
-139.319113
 30
0.0
 11
857.928328
 21
-139.319113
 31
0.0
  0
LINE
  8
0
  6
BYLAYER
 62
     7
 10
865.928328
 20
-157.319113
 30
0.0
 11
865.928328
 21
-149.319113
 31
0.0
  0
LINE
  8
0
  6
BYLAYER
 62
     7
 10
865.928328
 20
-147.319113
 30
0.0
 11
865.928328
 21
-139.319113
 31
0.0
  0
LINE
  8
0
  6
BYLAYER
 62
     7
 10
865.928328
 20
-147.319113
 30
0.0
 11
857.928328
 21
-147.319113
 31
0.0
  0
LINE
  8
0
  6
BYLAYER
 62
     7
 10
865.928328
 20
-149.319113
 30
0.0
 11
857.928328
 21
-149.319113
 31
0.0
  0
LINE
  8
0
  6
BYLAYER
 62
     7
 10
865.928328
 20
-157.319113
 30
0.0
 11
857.928328
 21
-157.319113
 31
0.0
  0
LINE
  8
0
  6
BYLAYER
 62
     7
 10
857.928328
 20
-139.319113
 30
0.0
 11
857.928328
 21
-147.319113
 31
0.0
  0
LINE
  8
0
  6
BYLAYER
 62
     7
 10
857.928328
 20
-149.319113
 30
0.0
 11
857.928328
 21
-157.319113
 31
0.0
  0
LINE
  8
0
  6
BYLAYER
 62
     7
 10
865.928328
 20
-129.319113
 30
0.0
 11
857.928328
 21
-129.319113
 31
0.0
  0
LINE
  8
0
  6
BYLAYER
 62
     7
 10
865.928328
 20
-137.319113
 30
0.0
 11
865.928328
 21
-129.319113
 31
0.0
  0
LINE
  8
0
  6
BYLAYER
 62
     7
 10
865.928328
 20
-137.319113
 30
0.0
 11
857.928328
 21
-137.319113
 31
0.0
  0
LINE
  8
0
  6
BYLAYER
 62
     7
 10
857.928328
 20
-129.319113
 30
0.0
 11
857.928328
 21
-137.319113
 31
0.0
  0
LINE
  8
0
  6
BYLAYER
 62
     7
 10
855.928328
 20
-139.319113
 30
0.0
 11
847.928328
 21
-139.319113
 31
0.0
  0
LINE
  8
0
  6
BYLAYER
 62
     7
 10
855.928328
 20
-147.319113
 30
0.0
 11
855.928328
 21
-139.319113
 31
0.0
  0
LINE
  8
0
  6
BYLAYER
 62
     7
 10
855.928328
 20
-147.319113
 30
0.0
 11
847.928328
 21
-147.319113
 31
0.0
  0
LINE
  8
0
  6
BYLAYER
 62
     7
 10
847.928328
 20
-139.319113
 30
0.0
 11
847.928328
 21
-147.319113
 31
0.0
  0
LINE
  8
0
  6
BYLAYER
 62
     7
 10
855.928328
 20
-129.319113
 30
0.0
 11
847.928328
 21
-129.319113
 31
0.0
  0
LINE
  8
0
  6
BYLAYER
 62
     7
 10
855.928328
 20
-137.319113
 30
0.0
 11
855.928328
 21
-129.319113
 31
0.0
  0
LINE
  8
0
  6
BYLAYER
 62
     7
 10
855.928328
 20
-137.319113
 30
0.0
 11
847.928328
 21
-137.319113
 31
0.0
  0
LINE
  8
0
  6
BYLAYER
 62
     7
 10
847.928328
 20
-129.319113
 30
0.0
 11
847.928328
 21
-137.319113
 31
0.0
  0
LINE
  8
0
  6
BYLAYER
 62
     7
 10
845.928328
 20
-139.319113
 30
0.0
 11
837.928328
 21
-139.319113
 31
0.0
  0
LINE
  8
0
  6
BYLAYER
 62
     7
 10
845.928328
 20
-147.319113
 30
0.0
 11
845.928328
 21
-139.319113
 31
0.0
  0
LINE
  8
0
  6
BYLAYER
 62
     7
 10
845.928328
 20
-147.319113
 30
0.0
 11
837.928328
 21
-147.319113
 31
0.0
  0
LINE
  8
0
  6
BYLAYER
 62
     7
 10
837.928328
 20
-139.319113
 30
0.0
 11
837.928328
 21
-147.319113
 31
0.0
  0
LINE
  8
0
  6
BYLAYER
 62
     7
 10
845.928328
 20
-129.319113
 30
0.0
 11
837.928328
 21
-129.319113
 31
0.0
  0
LINE
  8
0
  6
BYLAYER
 62
     7
 10
845.928328
 20
-137.319113
 30
0.0
 11
845.928328
 21
-129.319113
 31
0.0
  0
LINE
  8
0
  6
BYLAYER
 62
     7
 10
845.928328
 20
-137.319113
 30
0.0
 11
837.928328
 21
-137.319113
 31
0.0
  0
LINE
  8
0
  6
BYLAYER
 62
     7
 10
837.928328
 20
-129.319113
 30
0.0
 11
837.928328
 21
-137.319113
 31
0.0
  0
LINE
  8
0
  6
BYLAYER
 62
     7
 10
885.928328
 20
-177.319113
 30
0.0
 11
885.928328
 21
-169.319113
 31
0.0
  0
LINE
  8
0
  6
BYLAYER
 62
     7
 10
877.928328
 20
-169.319113
 30
0.0
 11
877.928328
 21
-177.319113
 31
0.0
  0
LINE
  8
0
  6
BYLAYER
 62
     7
 10
875.928328
 20
-169.319113
 30
0.0
 11
875.928328
 21
-177.319113
 31
0.0
  0
LINE
  8
0
  6
BYLAYER
 62
     7
 10
875.928328
 20
-169.319113
 30
0.0
 11
868.090329
 21
-169.319113
 31
0.0
  0
LINE
  8
0
  6
BYLAYER
 62
     7
 10
885.928328
 20
-169.319113
 30
0.0
 11
877.928328
 21
-169.319113
 31
0.0
  0
LINE
  8
0
  6
BYLAYER
 62
     7
 10
875.928328
 20
-177.319113
 30
0.0
 11
868.090329
 21
-177.319113
 31
0.0
  0
LINE
  8
0
  6
BYLAYER
 62
     7
 10
885.928328
 20
-177.319113
 30
0.0
 11
877.928328
 21
-177.319113
 31
0.0
  0
LINE
  8
0
  6
BYLAYER
 62
     7
 10
868.090329
 20
-169.319113
 30
0.0
 11
868.090329
 21
-177.319113
 31
0.0
  0
LINE
  8
0
  6
BYLAYER
 62
     7
 10
865.928328
 20
-167.319113
 30
0.0
 11
865.928328
 21
-159.319113
 31
0.0
  0
LINE
  8
0
  6
BYLAYER
 62
     7
 10
865.928328
 20
-159.319113
 30
0.0
 11
857.928328
 21
-159.319113
 31
0.0
  0
LINE
  8
0
  6
BYLAYER
 62
     7
 10
865.928328
 20
-167.319113
 30
0.0
 11
857.928328
 21
-167.319113
 31
0.0
  0
LINE
  8
0
  6
BYLAYER
 62
     7
 10
857.928328
 20
-159.319113
 30
0.0
 11
857.928328
 21
-167.319113
 31
0.0
  0
LINE
  8
0
  6
BYLAYER
 62
     7
 10
865.928328
 20
-177.319113
 30
0.0
 11
865.928328
 21
-169.319113
 31
0.0
  0
LINE
  8
0
  6
BYLAYER
 62
     7
 10
865.928328
 20
-169.319113
 30
0.0
 11
857.928328
 21
-169.319113
 31
0.0
  0
LINE
  8
0
  6
BYLAYER
 62
     7
 10
865.928328
 20
-177.319113
 30
0.0
 11
857.928328
 21
-177.319113
 31
0.0
  0
LINE
  8
0
  6
BYLAYER
 62
     7
 10
857.928328
 20
-169.319113
 30
0.0
 11
857.928328
 21
-177.319113
 31
0.0
  0
LINE
  8
0
  6
BYLAYER
 62
     7
 10
855.928328
 20
-157.319113
 30
0.0
 11
855.928328
 21
-149.319113
 31
0.0
  0
LINE
  8
0
  6
BYLAYER
 62
     7
 10
855.928328
 20
-149.319113
 30
0.0
 11
847.928328
 21
-149.319113
 31
0.0
  0
LINE
  8
0
  6
BYLAYER
 62
     7
 10
855.928328
 20
-157.319113
 30
0.0
 11
847.928328
 21
-157.319113
 31
0.0
  0
LINE
  8
0
  6
BYLAYER
 62
     7
 10
847.928328
 20
-149.319113
 30
0.0
 11
847.928328
 21
-157.319113
 31
0.0
  0
LINE
  8
0
  6
BYLAYER
 62
     7
 10
855.928328
 20
-167.319113
 30
0.0
 11
855.928328
 21
-159.319113
 31
0.0
  0
LINE
  8
0
  6
BYLAYER
 62
     7
 10
855.928328
 20
-159.319113
 30
0.0
 11
847.928328
 21
-159.319113
 31
0.0
  0
LINE
  8
0
  6
BYLAYER
 62
     7
 10
855.928328
 20
-167.319113
 30
0.0
 11
847.928328
 21
-167.319113
 31
0.0
  0
LINE
  8
0
  6
BYLAYER
 62
     7
 10
847.928328
 20
-159.319113
 30
0.0
 11
847.928328
 21
-167.319113
 31
0.0
  0
LINE
  8
0
  6
BYLAYER
 62
     7
 10
845.928328
 20
-157.319113
 30
0.0
 11
845.928328
 21
-149.319113
 31
0.0
  0
LINE
  8
0
  6
BYLAYER
 62
     7
 10
845.928328
 20
-149.319113
 30
0.0
 11
837.928328
 21
-149.319113
 31
0.0
  0
LINE
  8
0
  6
BYLAYER
 62
     7
 10
845.928328
 20
-157.319113
 30
0.0
 11
837.928328
 21
-157.319113
 31
0.0
  0
LINE
  8
0
  6
BYLAYER
 62
     7
 10
837.928328
 20
-149.319113
 30
0.0
 11
837.928328
 21
-157.319113
 31
0.0
  0
LINE
  8
0
  6
BYLAYER
 62
     7
 10
835.928328
 20
-139.319113
 30
0.0
 11
827.928328
 21
-139.319113
 31
0.0
  0
LINE
  8
0
  6
BYLAYER
 62
     7
 10
835.928328
 20
-147.319113
 30
0.0
 11
835.928328
 21
-139.319113
 31
0.0
  0
LINE
  8
0
  6
BYLAYER
 62
     7
 10
835.928328
 20
-147.319113
 30
0.0
 11
827.928328
 21
-147.319113
 31
0.0
  0
LINE
  8
0
  6
BYLAYER
 62
     7
 10
827.928328
 20
-139.319113
 30
0.0
 11
827.928328
 21
-147.319113
 31
0.0
  0
LINE
  8
0
  6
BYLAYER
 62
     7
 10
835.928328
 20
-129.319113
 30
0.0
 11
827.928328
 21
-129.319113
 31
0.0
  0
LINE
  8
0
  6
BYLAYER
 62
     7
 10
835.928328
 20
-137.319113
 30
0.0
 11
835.928328
 21
-129.319113
 31
0.0
  0
LINE
  8
0
  6
BYLAYER
 62
     7
 10
835.928328
 20
-137.319113
 30
0.0
 11
827.928328
 21
-137.319113
 31
0.0
  0
LINE
  8
0
  6
BYLAYER
 62
     7
 10
827.928328
 20
-129.319113
 30
0.0
 11
827.928328
 21
-137.319113
 31
0.0
  0
LINE
  8
0
  6
BYLAYER
 62
     7
 10
835.928328
 20
-157.319113
 30
0.0
 11
835.928328
 21
-149.319113
 31
0.0
  0
LINE
  8
0
  6
BYLAYER
 62
     7
 10
835.928328
 20
-149.319113
 30
0.0
 11
827.928328
 21
-149.319113
 31
0.0
  0
LINE
  8
0
  6
BYLAYER
 62
     7
 10
835.928328
 20
-157.319113
 30
0.0
 11
827.928328
 21
-157.319113
 31
0.0
  0
LINE
  8
0
  6
BYLAYER
 62
     7
 10
827.928328
 20
-149.319113
 30
0.0
 11
827.928328
 21
-157.319113
 31
0.0
  0
LINE
  8
0
  6
BYLAYER
 62
     7
 10
885.928328
 20
-187.319113
 30
0.0
 11
885.928328
 21
-179.319113
 31
0.0
  0
LINE
  8
0
  6
BYLAYER
 62
     7
 10
877.928328
 20
-179.319113
 30
0.0
 11
877.928328
 21
-187.319113
 31
0.0
  0
LINE
  8
0
  6
BYLAYER
 62
     7
 10
875.928328
 20
-179.319113
 30
0.0
 11
875.928328
 21
-187.319113
 31
0.0
  0
LINE
  8
0
  6
BYLAYER
 62
     7
 10
875.928328
 20
-179.319113
 30
0.0
 11
868.090329
 21
-179.319113
 31
0.0
  0
LINE
  8
0
  6
BYLAYER
 62
     7
 10
885.928328
 20
-179.319113
 30
0.0
 11
877.928328
 21
-179.319113
 31
0.0
  0
LINE
  8
0
  6
BYLAYER
 62
     7
 10
875.928328
 20
-187.319113
 30
0.0
 11
868.090329
 21
-187.319113
 31
0.0
  0
LINE
  8
0
  6
BYLAYER
 62
     7
 10
885.928328
 20
-187.319113
 30
0.0
 11
877.928328
 21
-187.319113
 31
0.0
  0
LINE
  8
0
  6
BYLAYER
 62
     7
 10
868.090329
 20
-179.319113
 30
0.0
 11
868.090329
 21
-187.319113
 31
0.0
  0
LINE
  8
0
  6
BYLAYER
 62
     7
 10
865.928328
 20
-187.319113
 30
0.0
 11
865.928328
 21
-179.319113
 31
0.0
  0
LINE
  8
0
  6
BYLAYER
 62
     7
 10
865.928328
 20
-179.319113
 30
0.0
 11
857.928328
 21
-179.319113
 31
0.0
  0
LINE
  8
0
  6
BYLAYER
 62
     7
 10
865.928328
 20
-187.319113
 30
0.0
 11
857.928328
 21
-187.319113
 31
0.0
  0
LINE
  8
0
  6
BYLAYER
 62
     7
 10
857.928328
 20
-179.319113
 30
0.0
 11
857.928328
 21
-187.319113
 31
0.0
  0
LINE
  8
0
  6
BYLAYER
 62
     7
 10
855.928328
 20
-177.319113
 30
0.0
 11
855.928328
 21
-169.319113
 31
0.0
  0
LINE
  8
0
  6
BYLAYER
 62
     7
 10
855.928328
 20
-169.319113
 30
0.0
 11
847.928328
 21
-169.319113
 31
0.0
  0
LINE
  8
0
  6
BYLAYER
 62
     7
 10
855.928328
 20
-177.319113
 30
0.0
 11
847.928328
 21
-177.319113
 31
0.0
  0
LINE
  8
0
  6
BYLAYER
 62
     7
 10
847.928328
 20
-169.319113
 30
0.0
 11
847.928328
 21
-177.319113
 31
0.0
  0
LINE
  8
0
  6
BYLAYER
 62
     7
 10
845.928328
 20
-167.319113
 30
0.0
 11
845.928328
 21
-159.319113
 31
0.0
  0
LINE
  8
0
  6
BYLAYER
 62
     7
 10
845.928328
 20
-159.319113
 30
0.0
 11
837.928328
 21
-159.319113
 31
0.0
  0
LINE
  8
0
  6
BYLAYER
 62
     7
 10
845.928328
 20
-167.319113
 30
0.0
 11
837.928328
 21
-167.319113
 31
0.0
  0
LINE
  8
0
  6
BYLAYER
 62
     7
 10
837.928328
 20
-159.319113
 30
0.0
 11
837.928328
 21
-167.319113
 31
0.0
  0
CIRCLE
  8
0
  6
BYLAYER
 62
     7
 10
886.928328
 20
-128.319113
 30
0.0
 40
71.999936
  0
CIRCLE
  8
0
  6
BYLAYER
 62
     7
 10
886.928328
 20
-128.319113
 30
0.0
 40
86.549921
  0
ARC
  8
0
  6
BYLAYER
 62
     7
 10
886.928328
 20
-128.319113
 30
0.0
 40
100.000000
 50
119.340652
 51
420.659492
  0
ARC
  8
0
  6
BYLAYER
 62
     7
 10
886.928328
 20
-128.319113
 30
0.0
 40
96.0
 50
323.301669
 51
356.934592
  0
ARC
  8
0
  6
BYLAYER
 62
     7
 10
886.928328
 20
-128.319113
 30
0.0
 40
96.0
 50
3.065408
 51
36.698331
  0
ARC
  8
0
  6
BYLAYER
 62
     7
 10
886.928328
 20
-128.319113
 30
0.0
 40
96.000000
 50
233.301669
 51
266.934592
  0
ARC
  8
0
  6
BYLAYER
 62
     7
 10
886.928328
 20
-128.319113
 30
0.0
 40
96.0
 50
273.065408
 51
306.698331
  0
ARC
  8
0
  6
BYLAYER
 62
     7
 10
886.928328
 20
-128.319113
 30
0.0
 40
96.0
 50
183.065408
 51
216.698331
  0
ARC
  8
0
  6
BYLAYER
 62
     7
 10
886.928328
 20
-128.319113
 30
0.0
 40
96.0
 50
143.301669
 51
176.934592
  0
ARC
  8
0
  6
BYLAYER
 62
     7
 10
886.928328
 20
-128.319113
 30
0.0
 40
96.0
 50
120.691662
 51
126.698331
  0
ARC
  8
0
  6
BYLAYER
 62
     7
 10
886.928328
 20
-128.319113
 30
0.0
 40
96.000000
 50
53.301669
 51
59.308487
  0
ARC
  8
0
  6
BYLAYER
 62
     7
 10
942.804095
 20
-53.351463
 30
0.0
 40
2.500000
 50
315.0
 51
413.301669
  0
ARC
  8
0
  6
BYLAYER
 62
     7
 10
961.895978
 20
-72.443346
 30
0.0
 40
2.5
 50
36.698331
 51
135.0
  0
CIRCLE
  8
0
  6
BYLAYER
 62
     7
 10
886.928328
 20
-128.319113
 30
0.0
 40
70.0
  0
ARC
  8
0
  6
BYLAYER
 62
     7
 10
945.264637
 20
-69.982804
 30
0.0
 40
5.5
 50
1.144516
 51
88.855484
  0
LINE
  8
0
  6
BYLAYER
 62
     7
 10
939.853896
 20
-59.837195
 30
0.0
 11
944.571862
 21
-55.119229
 31
0.0
  0
LINE
  8
0
  6
BYLAYER
 62
     7
 10
955.410246
 20
-75.393545
 30
0.0
 11
960.128212
 21
-70.675579
 31
0.0
  0
ARC
  8
0
  6
BYLAYER
 62
     7
 10
831.052561
 20
-53.351463
 30
0.0
 40
2.500000
 50
126.698331
 51
225.000000
  0
ARC
  8
0
  6
BYLAYER
 62
     7
 10
811.960678
 20
-72.443346
 30
0.0
 40
2.500000
 50
45.000000
 51
143.301669
  0
ARC
  8
0
  6
BYLAYER
 62
     7
 10
828.592019
 20
-69.982804
 30
0.0
 40
5.5
 50
91.144516
 51
178.855484
  0
LINE
  8
0
  6
BYLAYER
 62
     7
 10
834.002760
 20
-59.837195
 30
0.0
 11
829.284794
 21
-55.119229
 31
0.0
  0
LINE
  8
0
  6
BYLAYER
 62
     7
 10
818.446410
 20
-75.393545
 30
0.0
 11
813.728444
 21
-70.675579
 31
0.0
  0
ARC
  8
0
  6
BYLAYER
 62
     7
 10
942.804095
 20
-203.286763
 30
0.0
 40
2.500000
 50
306.698331
 51
405.000000
  0
ARC
  8
0
  6
BYLAYER
 62
     7
 10
961.895978
 20
-184.194880
 30
0.0
 40
2.500000
 50
225.000000
 51
323.301669
  0
ARC
  8
0
  6
BYLAYER
 62
     7
 10
945.264637
 20
-186.655422
 30
0.0
 40
5.5
 50
271.144516
 51
358.855484
  0
LINE
  8
0
  6
BYLAYER
 62
     7
 10
939.853896
 20
-196.801031
 30
0.0
 11
944.571862
 21
-201.518997
 31
0.0
  0
LINE
  8
0
  6
BYLAYER
 62
     7
 10
955.410246
 20
-181.244681
 30
0.0
 11
960.128212
 21
-185.962647
 31
0.0
  0
ARC
  8
0
  6
BYLAYER
 62
     7
 10
831.052561
 20
-203.286763
 30
0.0
 40
2.5
 50
135.000000
 51
233.301669
  0
ARC
  8
0
  6
BYLAYER
 62
     7
 10
811.960678
 20
-184.194880
 30
0.0
 40
2.500000
 50
216.698331
 51
315.0
  0
ARC
  8
0
  6
BYLAYER
 62
     7
 10
828.592019
 20
-186.655422
 30
0.0
 40
5.5
 50
181.144516
 51
268.855484
  0
LINE
  8
0
  6
BYLAYER
 62
     7
 10
834.002760
 20
-196.801031
 30
0.0
 11
829.284794
 21
-201.518997
 31
0.0
  0
LINE
  8
0
  6
BYLAYER
 62
     7
 10
818.446410
 20
-181.244681
 30
0.0
 11
813.728444
 21
-185.962647
 31
0.0
  0
ARC
  8
0
  6
BYLAYER
 62
     7
 10
793.562114
 20
-133.319113
 30
0.0
 40
2.500000
 50
90.0
 51
183.065408
  0
ARC
  8
0
  6
BYLAYER
 62
     7
 10
793.562114
 20
-123.319113
 30
0.0
 40
2.500000
 50
176.934592
 51
270.000000
  0
LINE
  8
0
  6
BYLAYER
 62
     7
 10
793.562114
 20
-130.819113
 30
0.0
 11
800.414521
 21
-130.819113
 31
0.0
  0
LINE
  8
0
  6
BYLAYER
 62
     7
 10
793.562114
 20
-125.819113
 30
0.0
 11
800.414521
 21
-125.819113
 31
0.0
  0
ARC
  8
0
  6
BYLAYER
 62
     7
 10
891.928328
 20
-221.685327
 30
0.0
 40
2.5
 50
180.000000
 51
273.065408
  0
ARC
  8
0
  6
BYLAYER
 62
     7
 10
881.928328
 20
-221.685327
 30
0.0
 40
2.500000
 50
266.934592
 51
360.000000
  0
LINE
  8
0
  6
BYLAYER
 62
     7
 10
889.428328
 20
-221.685327
 30
0.0
 11
889.428328
 21
-214.832920
 31
0.0
  0
LINE
  8
0
  6
BYLAYER
 62
     7
 10
884.428328
 20
-221.685327
 30
0.0
 11
884.428328
 21
-214.832920
 31
0.0
  0
ARC
  8
0
  6
BYLAYER
 62
     7
 10
980.294542
 20
-123.319113
 30
0.0
 40
2.5
 50
270.0
 51
363.065408
  0
ARC
  8
0
  6
BYLAYER
 62
     7
 10
980.294542
 20
-133.319113
 30
0.0
 40
2.5
 50
356.934592
 51
450.000000
  0
LINE
  8
0
  6
BYLAYER
 62
     7
 10
980.294542
 20
-125.819113
 30
0.0
 11
973.442135
 21
-125.819113
 31
0.0
  0
LINE
  8
0
  6
BYLAYER
 62
     7
 10
980.294542
 20
-130.819113
 30
0.0
 11
973.442135
 21
-130.819113
 31
0.0
  0
LINE
  8
0
  6
BYLAYER
 62
     7
 10
843.428221
 20
-421.819144
 30
0.0
 11
843.428221
 21
-400.319144
 31
0.0
  0
ARC
  8
0
  6
BYLAYER
 62
     7
 10
841.928221
 20
-421.819144
 30
0.0
 40
1.5
 50
270.0
 51
360.0
  0
ARC
  8
0
  6
BYLAYER
 62
     7
 10
844.928221
 20
-400.319144
 30
0.0
 40
1.5
 50
90.0
 51
180.0
  0
LINE
  8
0
  6
BYLAYER
 62
     7
 10
886.928221
 20
-398.819144
 30
0.0
 11
844.928221
 21
-398.819144
 31
0.0
  0
LINE
  8
0
  6
BYLAYER
 62
     7
 10
848.800462
 20
-421.819144
 30
0.0
 11
848.800462
 21
-400.319144
 31
0.0
  0
ARC
  8
0
  6
BYLAYER
 62
     7
 10
847.300462
 20
-421.819144
 30
0.0
 40
1.5
 50
270.0
 51
360.0
  0
ARC
  8
0
  6
BYLAYER
 62
     7
 10
850.300462
 20
-400.319144
 30
0.0
 40
1.5
 50
90.0
 51
180.0
  0
LINE
  8
0
  6
BYLAYER
 62
     7
 10
873.834568
 20
-398.819144
 30
0.0
 11
874.327115
 21
-412.923842
 31
0.0
  0
ARC
  8
0
  6
BYLAYER
 62
     7
 10
877.325287
 20
-412.819144
 30
0.0
 40
3.0
 50
182.000000
 51
270.000000
  0
LINE
  8
0
  6
BYLAYER
 62
     7
 10
884.529327
 20
-412.923842
 30
0.0
 11
885.021874
 21
-398.819144
 31
0.0
  0
ARC
  8
0
  6
BYLAYER
 62
     7
 10
881.531155
 20
-412.819144
 30
0.0
 40
3.0
 50
270.0
 51
358.0
  0
LINE
  8
0
  6
BYLAYER
 62
     7
 10
877.325287
 20
-415.819144
 30
0.0
 11
881.531155
 21
-415.819144
 31
0.0
  0
LINE
  8
0
  6
BYLAYER
 62
     7
 10
858.834568
 20
-398.819144
 30
0.0
 11
859.327115
 21
-412.923842
 31
0.0
  0
ARC
  8
0
  6
BYLAYER
 62
     7
 10
862.325287
 20
-412.819144
 30
0.0
 40
3.0
 50
182.000000
 51
270.000000
  0
LINE
  8
0
  6
BYLAYER
 62
     7
 10
869.529327
 20
-412.923842
 30
0.0
 11
870.021874
 21
-398.819144
 31
0.0
  0
ARC
  8
0
  6
BYLAYER
 62
     7
 10
866.531155
 20
-412.819144
 30
0.0
 40
3.0
 50
270.0
 51
358.0
  0
LINE
  8
0
  6
BYLAYER
 62
     7
 10
862.325287
 20
-415.819144
 30
0.0
 11
866.531155
 21
-415.819144
 31
0.0
  0
LINE
  8
0
  6
BYLAYER
 62
     7
 10
858.869489
 20
-399.819144
 30
0.0
 11
869.986953
 21
-399.819144
 31
0.0
  0
LINE
  8
0
  6
BYLAYER
 62
     7
 10
873.869489
 20
-399.819144
 30
0.0
 11
884.986953
 21
-399.819144
 31
0.0
  0
LINE
  8
0
  6
BYLAYER
 62
     7
 10
886.928221
 20
-423.319144
 30
0.0
 11
839.428221
 21
-423.319144
 31
0.0
  0
ARC
  8
0
  6
BYLAYER
 62
     7
 10
839.428221
 20
-424.819144
 30
0.0
 40
1.5
 50
90.0
 51
180.0
  0
LINE
  8
0
  6
BYLAYER
 62
     7
 10
837.928221
 20
-430.319144
 30
0.0
 11
837.928221
 21
-424.819144
 31
0.0
  0
LINE
  8
0
  6
BYLAYER
 62
     7
 10
837.928221
 20
-430.319144
 30
0.0
 11
867.028427
 21
-430.319144
 31
0.0
  0
LINE
  8
0
  6
BYLAYER
 62
     7
 10
930.428221
 20
-421.819144
 30
0.0
 11
930.428221
 21
-400.319144
 31
0.0
  0
ARC
  8
0
  6
BYLAYER
 62
     7
 10
931.928221
 20
-421.819144
 30
0.0
 40
1.5
 50
180.000000
 51
270.000000
  0
ARC
  8
0
  6
BYLAYER
 62
     7
 10
928.928221
 20
-400.319144
 30
0.0
 40
1.5
 50
0.0
 51
90.0
  0
LINE
  8
0
  6
BYLAYER
 62
     7
 10
886.928221
 20
-398.819144
 30
0.0
 11
928.928221
 21
-398.819144
 31
0.0
  0
LINE
  8
0
  6
BYLAYER
 62
     7
 10
925.055980
 20
-421.819144
 30
0.0
 11
925.055980
 21
-400.319144
 31
0.0
  0
ARC
  8
0
  6
BYLAYER
 62
     7
 10
926.555980
 20
-421.819144
 30
0.0
 40
1.5
 50
180.000000
 51
270.000000
  0
ARC
  8
0
  6
BYLAYER
 62
     7
 10
923.555980
 20
-400.319144
 30
0.0
 40
1.5
 50
0.0
 51
90.0
  0
LINE
  8
0
  6
BYLAYER
 62
     7
 10
900.021874
 20
-398.819144
 30
0.0
 11
899.529327
 21
-412.923842
 31
0.0
  0
ARC
  8
0
  6
BYLAYER
 62
     7
 10
896.531155
 20
-412.819144
 30
0.0
 40
3.0
 50
270.0
 51
358.0
  0
LINE
  8
0
  6
BYLAYER
 62
     7
 10
889.327115
 20
-412.923842
 30
0.0
 11
888.834568
 21
-398.819144
 31
0.0
  0
ARC
  8
0
  6
BYLAYER
 62
     7
 10
892.325287
 20
-412.819144
 30
0.0
 40
3.0
 50
182.000000
 51
270.000000
  0
LINE
  8
0
  6
BYLAYER
 62
     7
 10
896.531155
 20
-415.819144
 30
0.0
 11
892.325287
 21
-415.819144
 31
0.0
  0
LINE
  8
0
  6
BYLAYER
 62
     7
 10
915.021874
 20
-398.819144
 30
0.0
 11
914.529327
 21
-412.923842
 31
0.0
  0
ARC
  8
0
  6
BYLAYER
 62
     7
 10
911.531155
 20
-412.819144
 30
0.0
 40
3.0
 50
270.0
 51
358.0
  0
LINE
  8
0
  6
BYLAYER
 62
     7
 10
904.327115
 20
-412.923842
 30
0.0
 11
903.834568
 21
-398.819144
 31
0.0
  0
ARC
  8
0
  6
BYLAYER
 62
     7
 10
907.325287
 20
-412.819144
 30
0.0
 40
3.0
 50
182.000000
 51
270.000000
  0
LINE
  8
0
  6
BYLAYER
 62
     7
 10
911.531155
 20
-415.819144
 30
0.0
 11
907.325287
 21
-415.819144
 31
0.0
  0
LINE
  8
0
  6
BYLAYER
 62
     7
 10
914.986953
 20
-399.819144
 30
0.0
 11
903.869489
 21
-399.819144
 31
0.0
  0
LINE
  8
0
  6
BYLAYER
 62
     7
 10
899.986953
 20
-399.819144
 30
0.0
 11
888.869489
 21
-399.819144
 31
0.0
  0
LINE
  8
0
  6
BYLAYER
 62
     7
 10
886.928221
 20
-423.319144
 30
0.0
 11
934.428221
 21
-423.319144
 31
0.0
  0
ARC
  8
0
  6
BYLAYER
 62
     7
 10
934.428221
 20
-424.819144
 30
0.0
 40
1.5
 50
0.0
 51
90.0
  0
LINE
  8
0
  6
BYLAYER
 62
     7
 10
935.928221
 20
-432.319144
 30
0.0
 11
935.928221
 21
-424.819144
 31
0.0
  0
LINE
  8
0
  6
BYLAYER
 62
     7
 10
935.928221
 20
-430.319144
 30
0.0
 11
906.828229
 21
-430.319144
 31
0.0
  0
LINE
  8
0
  6
BYLAYER
 62
     7
 10
837.928221
 20
-432.319144
 30
0.0
 11
858.928222
 21
-432.319144
 31
0.0
  0
LINE
  8
0
  6
BYLAYER
 62
     7
 10
837.928221
 20
-437.819144
 30
0.0
 11
839.385690
 21
-440.343562
 31
0.0
  0
LINE
  8
0
  6
BYLAYER
 62
     7
 10
935.928205
 20
-432.319022
 30
0.0
 11
914.928195
 21
-432.319074
 31
0.0
  0
LINE
  8
0
  6
BYLAYER
 62
     7
 10
935.928205
 20
-437.819022
 30
0.0
 11
934.470737
 21
-440.343438
 31
0.0
  0
LINE
  8
0
  6
BYLAYER
 62
     7
 10
837.928221
 20
-432.319144
 30
0.0
 11
837.928221
 21
-441.146930
 31
0.0
  0
LINE
  8
0
  6
BYLAYER
 62
     7
 10
935.928205
 20
-432.319022
 30
0.0
 11
935.928216
 21
-441.146806
 31
0.0
  0
LINE
  8
0
  6
BYLAYER
 62
     7
 10
837.928221
 20
-430.319144
 30
0.0
 11
837.928221
 21
-432.319144
 31
0.0
  0
ARC
  8
0
  6
BYLAYER
 62
     1
 10
886.928328
 20
-528.319113
 30
0.0
 40
47.500000
 50
63.474648
 51
116.525352
  0
ARC
  8
0
  6
BYLAYER
 62
     1
 10
886.928328
 20
-528.319113
 30
0.0
 40
100.0
 50
306.869898
 51
593.130102
  0
ARC
  8
0
  6
BYLAYER
 62
     1
 10
886.928328
 20
-528.319113
 30
0.0
 40
65.000008
 50
62.204268
 51
117.795792
  0
ARC
  8
0
  6
BYLAYER
 62
     1
 10
886.928328
 20
-528.319113
 30
0.0
 40
64.999992
 50
149.489774
 51
177.795794
  0
ARC
  8
0
  6
BYLAYER
 62
     1
 10
886.928328
 20
-528.319113
 30
0.0
 40
64.999992
 50
122.204269
 51
137.396327
  0
ARC
  8
0
  6
BYLAYER
 62
     1
 10
886.928328
 20
-528.319113
 30
0.0
 40
65.0
 50
182.204271
 51
205.028999
  0
ARC
  8
0
  6
BYLAYER
 62
     1
 10
886.928328
 20
-528.319113
 30
0.0
 40
64.999992
 50
334.970997
 51
357.795799
  0
ARC
  8
0
  6
BYLAYER
 62
     1
 10
886.928328
 20
-528.319113
 30
0.0
 40
65.0
 50
2.204276
 51
57.795783
  0
LINE
  8
0
  6
BYLAYER
 62
     1
 10
796.769881
 20
-530.819174
 30
0.0
 11
832.428328
 21
-530.819174
 31
0.0
  0
LINE
  8
0
  6
BYLAYER
 62
     1
 10
796.769881
 20
-525.819174
 30
0.0
 11
830.928328
 21
-525.819174
 31
0.0
  0
ARC
  8
0
  6
BYLAYER
 62
     1
 10
796.611250
 20
-521.443855
 30
0.0
 40
9.375319
 50
270.0
 51
270.484825
  0
ARC
  8
0
  6
BYLAYER
 62
     1
 10
796.611321
 20
-521.451236
 30
0.0
 40
9.367938
 50
270.484778
 51
270.969825
  0
ARC
  8
0
  6
BYLAYER
 62
     1
 10
796.769820
 20
-533.577104
 30
0.0
 40
7.757991
 50
90.0
 51
121.966526
  0
ARC
  8
0
  6
BYLAYER
 62
     1
 10
793.488532
 20
-528.319113
 30
0.0
 40
1.560143
 50
121.966526
 51
180.000000
  0
ARC
  8
0
  6
BYLAYER
 62
     1
 10
793.488532
 20
-528.319113
 30
0.0
 40
1.560143
 50
180.000000
 51
238.033474
  0
ARC
  8
0
  6
BYLAYER
 62
     1
 10
796.769820
 20
-523.061122
 30
0.0
 40
7.757991
 50
238.033474
 51
270.000000
  0
LINE
  8
0
  6
BYLAYER
 62
     1
 10
977.086775
 20
-530.819052
 30
0.0
 11
941.428389
 21
-530.819052
 31
0.0
  0
LINE
  8
0
  6
BYLAYER
 62
     1
 10
977.086775
 20
-525.819052
 30
0.0
 11
942.928389
 21
-525.819052
 31
0.0
  0
ARC
  8
0
  6
BYLAYER
 62
     1
 10
977.086836
 20
-523.061122
 30
0.0
 40
7.757991
 50
270.0
 51
301.966526
  0
ARC
  8
0
  6
BYLAYER
 62
     1
 10
980.368124
 20
-528.319113
 30
0.0
 40
1.560143
 50
301.966526
 51
360.000000
  0
ARC
  8
0
  6
BYLAYER
 62
     1
 10
980.368124
 20
-528.319113
 30
0.0
 40
1.560143
 50
0.0
 51
58.033474
  0
ARC
  8
0
  6
BYLAYER
 62
     1
 10
977.086836
 20
-533.577104
 30
0.0
 40
7.757991
 50
58.033474
 51
90.000000
  0
ARC
  8
0
  6
BYLAYER
 62
     1
 10
918.507114
 20
-485.055613
 30
0.0
 40
8.216232
 50
150.000161
 51
176.186233
  0
ARC
  8
0
  6
BYLAYER
 62
     1
 10
912.710165
 20
-484.669181
 30
0.0
 40
2.406417
 50
176.186233
 51
208.545780
  0
ARC
  8
0
  6
BYLAYER
 62
     1
 10
909.805036
 20
-480.670423
 30
0.0
 40
6.456352
 50
307.111668
 51
320.004338
  0
ARC
  8
0
  6
BYLAYER
 62
     1
 10
907.785610
 20
-478.865592
 30
0.0
 40
9.163831
 50
319.474602
 51
329.999970
  0
LINE
  8
0
  6
BYLAYER
 62
     1
 10
934.172530
 20
-451.489584
 30
0.0
 11
915.842452
 21
-483.238211
 31
0.0
  0
LINE
  8
0
  6
BYLAYER
 62
     1
 10
929.842452
 20
-448.989584
 30
0.0
 11
911.512373
 21
-480.738211
 31
0.0
  0
LINE
  8
0
  6
BYLAYER
 62
     1
 10
934.172645
 20
-451.489534
 30
0.0
 11
934.172652
 21
-451.489523
 31
0.0
  0
ARC
  8
0
  6
BYLAYER
 62
     1
 10
927.453958
 20
-447.610491
 30
0.0
 40
7.758075
 50
330.000048
 51
361.966418
  0
ARC
  8
0
  6
BYLAYER
 62
     1
 10
933.648259
 20
-447.397817
 30
0.0
 40
1.560124
 50
1.966418
 51
59.999720
  0
ARC
  8
0
  6
BYLAYER
 62
     1
 10
933.648265
 20
-447.397807
 30
0.0
 40
1.560113
 50
59.999720
 51
118.033737
  0
ARC
  8
0
  6
BYLAYER
 62
     1
 10
936.561237
 20
-452.868538
 30
0.0
 40
7.758041
 50
118.033737
 51
150.000048
  0
LINE
  8
0
  6
BYLAYER
 62
     1
 10
929.842574
 20
-448.989523
 30
0.0
 11
929.842564
 21
-448.989539
 31
0.0
  0
ARC
  8
0
  6
BYLAYER
 62
     1
 10
866.071046
 20
-478.865592
 30
0.0
 40
9.163830
 50
210.000037
 51
220.525401
  0
ARC
  8
0
  6
BYLAYER
 62
     1
 10
864.051620
 20
-480.670424
 30
0.0
 40
6.456352
 50
219.995666
 51
232.888332
  0
ARC
  8
0
  6
BYLAYER
 62
     1
 10
861.146491
 20
-484.669181
 30
0.0
 40
2.406417
 50
331.454220
 51
363.813768
  0
ARC
  8
0
  6
BYLAYER
 62
     1
 10
855.349542
 20
-485.055613
 30
0.0
 40
8.216233
 50
3.813768
 51
29.999843
  0
LINE
  8
0
  6
BYLAYER
 62
     1
 10
839.684004
 20
-451.489645
 30
0.0
 11
858.014082
 21
-483.238272
 31
0.0
  0
LINE
  8
0
  6
BYLAYER
 62
     1
 10
844.014082
 20
-448.989645
 30
0.0
 11
862.344161
 21
-480.738272
 31
0.0
  0
ARC
  8
0
  6
BYLAYER
 62
     1
 10
837.295424
 20
-452.868563
 30
0.0
 40
7.758033
 50
30.000023
 51
61.966287
  0
ARC
  8
0
  6
BYLAYER
 62
     1
 10
840.208391
 20
-447.397837
 30
0.0
 40
1.560113
 50
61.966287
 51
120.000280
  0
ARC
  8
0
  6
BYLAYER
 62
     1
 10
840.208397
 20
-447.397847
 30
0.0
 40
1.560124
 50
120.000280
 51
178.033582
  0
ARC
  8
0
  6
BYLAYER
 62
     1
 10
846.402698
 20
-447.610522
 30
0.0
 40
7.758075
 50
178.033582
 51
209.999952
  0
LINE
  8
0
  6
BYLAYER
 62
     1
 10
839.684004
 20
-451.489554
 30
0.0
 11
839.684011
 21
-451.489566
 31
0.0
  0
LINE
  8
0
  6
BYLAYER
 62
     2
 10
954.856673
 20
-472.552939
 30
0.0
 11
952.286482
 21
-462.960898
 31
0.0
  0
LINE
  8
0
  6
BYLAYER
 62
     2
 10
952.286482
 20
-462.960898
 30
0.0
 11
942.694441
 21
-460.390707
 31
0.0
  0
LINE
  8
0
  6
BYLAYER
 62
     2
 10
942.694441
 20
-460.390707
 30
0.0
 11
935.672469
 21
-467.412558
 31
0.0
  0
LINE
  8
0
  6
BYLAYER
 62
     2
 10
935.672469
 20
-467.412558
 30
0.0
 11
938.242659
 21
-477.004660
 31
0.0
  0
LINE
  8
0
  6
BYLAYER
 62
     2
 10
938.242659
 20
-477.004660
 30
0.0
 11
947.834700
 21
-479.574850
 31
0.0
  0
LINE
  8
0
  6
BYLAYER
 62
     2
 10
947.834700
 20
-479.574850
 30
0.0
 11
954.856673
 21
-472.552939
 31
0.0
  0
LINE
  8
0
  6
BYLAYER
 62
     2
 10
954.856673
 20
-584.085257
 30
0.0
 11
952.286482
 21
-593.677328
 31
0.0
  0
LINE
  8
0
  6
BYLAYER
 62
     2
 10
952.286482
 20
-593.677328
 30
0.0
 11
946.928328
 21
-595.113030
 31
0.0
  0
LINE
  8
0
  6
BYLAYER
 62
     2
 10
946.928328
 20
-577.306238
 30
0.0
 11
947.834700
 21
-577.063376
 31
0.0
  0
LINE
  8
0
  6
BYLAYER
 62
     2
 10
947.834700
 20
-577.063376
 30
0.0
 11
954.856673
 21
-584.085257
 31
0.0
  0
LINE
  8
0
  6
BYLAYER
 62
     2
 10
819.000044
 20
-584.085257
 30
0.0
 11
821.570235
 21
-593.677328
 31
0.0
  0
LINE
  8
0
  6
BYLAYER
 62
     2
 10
821.570235
 20
-593.677328
 30
0.0
 11
826.928328
 21
-595.113014
 31
0.0
  0
LINE
  8
0
  6
BYLAYER
 62
     2
 10
826.928328
 20
-577.306252
 30
0.0
 11
826.021895
 21
-577.063376
 31
0.0
  0
LINE
  8
0
  6
BYLAYER
 62
     2
 10
826.021895
 20
-577.063376
 30
0.0
 11
819.000044
 21
-584.085257
 31
0.0
  0
LINE
  8
0
  6
BYLAYER
 62
     2
 10
819.000044
 20
-472.552939
 30
0.0
 11
821.570235
 21
-462.960898
 31
0.0
  0
LINE
  8
0
  6
BYLAYER
 62
     2
 10
821.570235
 20
-462.960898
 30
0.0
 11
831.162276
 21
-460.390707
 31
0.0
  0
LINE
  8
0
  6
BYLAYER
 62
     2
 10
831.162276
 20
-460.390707
 30
0.0
 11
838.184248
 21
-467.412558
 31
0.0
  0
LINE
  8
0
  6
BYLAYER
 62
     2
 10
838.184248
 20
-467.412558
 30
0.0
 11
835.614058
 21
-477.004660
 31
0.0
  0
LINE
  8
0
  6
BYLAYER
 62
     2
 10
835.614058
 20
-477.004660
 30
0.0
 11
826.021895
 21
-479.574850
 31
0.0
  0
LINE
  8
0
  6
BYLAYER
 62
     2
 10
826.021895
 20
-479.574850
 30
0.0
 11
819.000044
 21
-472.552939
 31
0.0
  0
LINE
  8
0
  6
BYLAYER
 62
     1
 10
294.928328
 20
-650.818991
 30
0.0
 11
294.928328
 21
-603.319113
 31
0.0
  0
ARC
  8
0
  6
BYLAYER
 62
     1
 10
310.428328
 20
-700.844565
 30
0.0
 40
2.000089
 50
180.000000
 51
266.999958
  0
LINE
  8
0
  6
BYLAYER
 62
     1
 10
308.428328
 20
-685.819052
 30
0.0
 11
308.428328
 21
-700.844595
 31
0.0
  0
LINE
  8
0
  6
BYLAYER
 62
     1
 10
308.428328
 20
-685.819052
 30
0.0
 11
308.428328
 21
-603.319113
 31
0.0
  0
ARC
  8
0
  6
BYLAYER
 62
     1
 10
306.428328
 20
-668.949728
 30
0.0
 40
2.000003
 50
0.0
 51
35.000041
  0
LINE
  8
0
  6
BYLAYER
 62
     1
 10
295.133498
 20
-650.819021
 30
0.0
 11
294.928328
 21
-650.819021
 31
0.0
  0
LINE
  8
0
  6
BYLAYER
 62
     1
 10
308.066634
 20
-667.802572
 30
0.0
 11
296.771803
 21
-651.671866
 31
0.0
  0
ARC
  8
0
  6
BYLAYER
 62
     1
 10
295.133498
 20
-652.819021
 30
0.0
 40
2.0
 50
34.999973
 51
90.000000
  0
LINE
  8
0
  6
BYLAYER
 62
     1
 10
296.771803
 20
-651.671866
 30
0.0
 11
308.428328
 21
-685.819052
 31
0.0
  0
LINE
  8
0
  6
BYLAYER
 62
     1
 10
310.323592
 20
-702.841910
 30
0.0
 11
319.428328
 21
-703.319099
 31
0.0
  0
LINE
  8
0
  6
BYLAYER
 62
     1
 10
319.428328
 20
-703.319099
 30
0.0
 11
319.428328
 21
-603.319113
 31
0.0
  0
LINE
  8
0
  6
BYLAYER
 62
     1
 10
296.771803
 20
-651.671866
 30
0.0
 11
296.771803
 21
-603.319113
 31
0.0
  0
LINE
  8
0
  6
BYLAYER
 62
     1
 10
294.928328
 20
-555.819235
 30
0.0
 11
294.928328
 21
-603.319113
 31
0.0
  0
ARC
  8
0
  6
BYLAYER
 62
     1
 10
310.428328
 20
-505.793661
 30
0.0
 40
2.000089
 50
93.000064
 51
180.000022
  0
LINE
  8
0
  6
BYLAYER
 62
     1
 10
308.428328
 20
-520.819174
 30
0.0
 11
308.428328
 21
-505.793631
 31
0.0
  0
LINE
  8
0
  6
BYLAYER
 62
     1
 10
308.428328
 20
-520.819174
 30
0.0
 11
308.428328
 21
-603.319113
 31
0.0
  0
ARC
  8
0
  6
BYLAYER
 62
     1
 10
306.428328
 20
-537.688498
 30
0.0
 40
2.000003
 50
324.999959
 51
360.000000
  0
LINE
  8
0
  6
BYLAYER
 62
     1
 10
295.133498
 20
-555.819205
 30
0.0
 11
294.928328
 21
-555.819205
 31
0.0
  0
LINE
  8
0
  6
BYLAYER
 62
     1
 10
308.066634
 20
-538.835654
 30
0.0
 11
296.771803
 21
-554.966360
 31
0.0
  0
ARC
  8
0
  6
BYLAYER
 62
     1
 10
295.133498
 20
-553.819205
 30
0.0
 40
2.0
 50
270.0
 51
325.000027
  0
LINE
  8
0
  6
BYLAYER
 62
     1
 10
296.771803
 20
-554.966360
 30
0.0
 11
308.428328
 21
-520.819174
 31
0.0
  0
LINE
  8
0
  6
BYLAYER
 62
     1
 10
310.323592
 20
-503.796316
 30
0.0
 11
319.428328
 21
-503.319127
 31
0.0
  0
LINE
  8
0
  6
BYLAYER
 62
     1
 10
319.428328
 20
-503.319127
 30
0.0
 11
319.428328
 21
-603.319113
 31
0.0
  0
LINE
  8
0
  6
BYLAYER
 62
     1
 10
296.771803
 20
-554.966360
 30
0.0
 11
296.771803
 21
-603.319113
 31
0.0
  0
ENDSEC
  0
EOF
