  0
SECTION
  2
HEADER
  9
$EXTMIN
 10
112.054608
 20
684.0
 30
0.0
  9
$EXTMAX
 10
961.802048
 20
0.0
 30
0.0
  0
ENDSEC
  0
SECTION
  2
TABLES
  0
ENDSEC
  0
SECTION
  2
BLOCKS
  0
ENDSEC
  0
SECTION
  2
ENTITIES
  0
LINE
  8
0
  6
BYLAYER
 62
     7
 10
356.064432
 20
-37.595624
 30
0.0
 11
350.264383
 21
-37.595624
 31
0.0
  0
ARC
  8
0
  6
BYLAYER
 62
     7
 10
356.064432
 20
-39.095624
 30
0.0
 40
1.500000
 50
0.0
 51
90.000003
  0
ARC
  8
0
  6
BYLAYER
 62
     7
 10
385.464457
 20
-39.095624
 30
0.0
 40
1.500000
 50
90.0
 51
180.000003
  0
LINE
  8
0
  6
BYLAYER
 62
     7
 10
395.064432
 20
-37.595624
 30
0.0
 11
385.464457
 21
-37.595624
 31
0.0
  0
ARC
  8
0
  6
BYLAYER
 62
     7
 10
395.064432
 20
-39.095624
 30
0.0
 40
1.5
 50
0.0
 51
90.000003
  0
LINE
  8
0
  6
BYLAYER
 62
     7
 10
430.264444
 20
-37.595563
 30
0.0
 11
424.464457
 21
-37.595563
 31
0.0
  0
ARC
  8
0
  6
BYLAYER
 62
     7
 10
424.464457
 20
-39.095563
 30
0.0
 40
1.500000
 50
90.0
 51
180.000003
  0
ARC
  8
0
  6
BYLAYER
 62
     7
 10
370.764444
 20
-46.595563
 30
0.0
 40
13.200012
 50
180.000000
 51
359.999995
  0
ARC
  8
0
  6
BYLAYER
 62
     7
 10
409.764444
 20
-46.595563
 30
0.0
 40
13.200012
 50
180.000000
 51
359.999995
  0
LINE
  8
0
  6
BYLAYER
 62
     7
 10
350.264383
 20
-43.095624
 30
0.0
 11
356.064432
 21
-43.095624
 31
0.0
  0
LINE
  8
0
  6
BYLAYER
 62
     7
 10
357.564432
 20
-39.095624
 30
0.0
 11
357.564432
 21
-44.595624
 31
0.0
  0
LINE
  8
0
  6
BYLAYER
 62
     7
 10
357.564432
 20
-44.595624
 30
0.0
 11
357.564432
 21
-46.595563
 31
0.0
  0
ARC
  8
0
  6
BYLAYER
 62
     7
 10
356.064432
 20
-44.595624
 30
0.0
 40
1.500000
 50
0.0
 51
90.000003
  0
ARC
  8
0
  6
BYLAYER
 62
     7
 10
385.464457
 20
-44.595563
 30
0.0
 40
1.500000
 50
90.0
 51
180.000003
  0
LINE
  8
0
  6
BYLAYER
 62
     7
 10
385.464457
 20
-43.095563
 30
0.0
 11
395.064432
 21
-43.095563
 31
0.0
  0
LINE
  8
0
  6
BYLAYER
 62
     7
 10
396.564432
 20
-39.095624
 30
0.0
 11
396.564432
 21
-44.595563
 31
0.0
  0
LINE
  8
0
  6
BYLAYER
 62
     7
 10
396.564432
 20
-44.595563
 30
0.0
 11
396.564432
 21
-46.595563
 31
0.0
  0
ARC
  8
0
  6
BYLAYER
 62
     7
 10
395.064432
 20
-44.595563
 30
0.0
 40
1.5
 50
0.0
 51
90.000003
  0
LINE
  8
0
  6
BYLAYER
 62
     7
 10
422.964457
 20
-46.595563
 30
0.0
 11
422.964457
 21
-44.595563
 31
0.0
  0
LINE
  8
0
  6
BYLAYER
 62
     7
 10
422.964457
 20
-44.595563
 30
0.0
 11
422.964457
 21
-39.095563
 31
0.0
  0
LINE
  8
0
  6
BYLAYER
 62
     7
 10
424.464457
 20
-43.095563
 30
0.0
 11
430.264444
 21
-43.095563
 31
0.0
  0
ARC
  8
0
  6
BYLAYER
 62
     7
 10
424.464457
 20
-44.595563
 30
0.0
 40
1.500000
 50
90.0
 51
180.000003
  0
LINE
  8
0
  6
BYLAYER
 62
     7
 10
383.964457
 20
-39.095624
 30
0.0
 11
383.964457
 21
-46.595563
 31
0.0
  0
ARC
  8
0
  6
BYLAYER
 62
     7
 10
351.164469
 20
-115.120588
 30
0.0
 40
0.899994
 50
90.0
 51
269.999998
  0
LINE
  8
0
  6
BYLAYER
 62
     7
 10
351.164469
 20
-114.220594
 30
0.0
 11
465.264596
 21
-114.220594
 31
0.0
  0
LINE
  8
0
  6
BYLAYER
 62
     7
 10
351.164469
 20
-116.020582
 30
0.0
 11
465.264596
 21
-116.020582
 31
0.0
  0
ARC
  8
0
  6
BYLAYER
 62
     7
 10
351.164469
 20
-103.170606
 30
0.0
 40
0.900024
 50
90.0
 51
269.999998
  0
ARC
  8
0
  6
BYLAYER
 62
     7
 10
351.164469
 20
-91.220594
 30
0.0
 40
0.899994
 50
90.0
 51
269.999998
  0
LINE
  8
0
  6
BYLAYER
 62
     7
 10
351.164469
 20
-90.320600
 30
0.0
 11
465.264596
 21
-90.320600
 31
0.0
  0
LINE
  8
0
  6
BYLAYER
 62
     7
 10
351.164469
 20
-92.120588
 30
0.0
 11
465.264596
 21
-92.120588
 31
0.0
  0
ARC
  8
0
  6
BYLAYER
 62
     7
 10
351.164469
 20
-79.270612
 30
0.0
 40
0.900024
 50
90.0
 51
269.999998
  0
LINE
  8
0
  6
BYLAYER
 62
     7
 10
351.164469
 20
-78.370588
 30
0.0
 11
465.264596
 21
-78.370588
 31
0.0
  0
LINE
  8
0
  6
BYLAYER
 62
     7
 10
351.164469
 20
-80.170606
 30
0.0
 11
465.264596
 21
-80.170606
 31
0.0
  0
ARC
  8
0
  6
BYLAYER
 62
     7
 10
351.164469
 20
-67.320600
 30
0.0
 40
0.899994
 50
90.0
 51
269.999998
  0
LINE
  8
0
  6
BYLAYER
 62
     7
 10
351.164469
 20
-66.420606
 30
0.0
 11
465.264596
 21
-66.420606
 31
0.0
  0
LINE
  8
0
  6
BYLAYER
 62
     7
 10
351.164469
 20
-68.220594
 30
0.0
 11
465.264596
 21
-68.220594
 31
0.0
  0
ARC
  8
0
  6
BYLAYER
 62
     7
 10
351.164469
 20
-127.070600
 30
0.0
 40
0.899994
 50
90.0
 51
269.999998
  0
LINE
  8
0
  6
BYLAYER
 62
     7
 10
351.164469
 20
-126.170606
 30
0.0
 11
465.264596
 21
-126.170606
 31
0.0
  0
LINE
  8
0
  6
BYLAYER
 62
     7
 10
351.164469
 20
-127.970594
 30
0.0
 11
465.264596
 21
-127.970594
 31
0.0
  0
ARC
  8
0
  6
BYLAYER
 62
     7
 10
351.164469
 20
-139.020582
 30
0.0
 40
0.899994
 50
90.0
 51
269.999998
  0
ARC
  8
0
  6
BYLAYER
 62
     7
 10
351.164469
 20
-150.970594
 30
0.0
 40
0.899994
 50
90.0
 51
269.999998
  0
LINE
  8
0
  6
BYLAYER
 62
     7
 10
351.164469
 20
-150.070600
 30
0.0
 11
465.264596
 21
-150.070600
 31
0.0
  0
LINE
  8
0
  6
BYLAYER
 62
     7
 10
351.164469
 20
-151.870588
 30
0.0
 11
465.264596
 21
-151.870588
 31
0.0
  0
LINE
  8
0
  6
BYLAYER
 62
     7
 10
361.264505
 20
-68.220594
 30
0.0
 11
361.264505
 21
-78.370588
 31
0.0
  0
LINE
  8
0
  6
BYLAYER
 62
     7
 10
463.264505
 20
-68.220594
 30
0.0
 11
463.264505
 21
-78.370588
 31
0.0
  0
LINE
  8
0
  6
BYLAYER
 62
     7
 10
430.264444
 20
-66.420606
 30
0.0
 11
430.264444
 21
-33.095563
 31
0.0
  0
LINE
  8
0
  6
BYLAYER
 62
     7
 10
361.264505
 20
-80.170606
 30
0.0
 11
361.264505
 21
-90.320600
 31
0.0
  0
LINE
  8
0
  6
BYLAYER
 62
     7
 10
361.264505
 20
-92.120588
 30
0.0
 11
361.264505
 21
-102.270582
 31
0.0
  0
LINE
  8
0
  6
BYLAYER
 62
     7
 10
361.264505
 20
-104.070600
 30
0.0
 11
361.264505
 21
-114.220594
 31
0.0
  0
LINE
  8
0
  6
BYLAYER
 62
     7
 10
361.264505
 20
-116.020582
 30
0.0
 11
361.264505
 21
-126.170606
 31
0.0
  0
LINE
  8
0
  6
BYLAYER
 62
     7
 10
361.264505
 20
-127.970594
 30
0.0
 11
361.264505
 21
-138.120588
 31
0.0
  0
LINE
  8
0
  6
BYLAYER
 62
     7
 10
361.264505
 20
-139.920606
 30
0.0
 11
361.264505
 21
-150.070600
 31
0.0
  0
LINE
  8
0
  6
BYLAYER
 62
     7
 10
361.264505
 20
-163.820600
 30
0.0
 11
361.264505
 21
-166.184663
 31
0.0
  0
LINE
  8
0
  6
BYLAYER
 62
     7
 10
361.264505
 20
-151.870588
 30
0.0
 11
361.264505
 21
-162.020582
 31
0.0
  0
LINE
  8
0
  6
BYLAYER
 62
     7
 10
463.264505
 20
-80.170606
 30
0.0
 11
463.264505
 21
-90.320600
 31
0.0
  0
LINE
  8
0
  6
BYLAYER
 62
     7
 10
463.264505
 20
-92.120588
 30
0.0
 11
463.264505
 21
-102.270582
 31
0.0
  0
LINE
  8
0
  6
BYLAYER
 62
     7
 10
463.264505
 20
-104.070600
 30
0.0
 11
463.264505
 21
-114.220594
 31
0.0
  0
LINE
  8
0
  6
BYLAYER
 62
     7
 10
463.264505
 20
-116.020582
 30
0.0
 11
463.264505
 21
-126.170606
 31
0.0
  0
LINE
  8
0
  6
BYLAYER
 62
     7
 10
463.264505
 20
-127.970594
 30
0.0
 11
463.264505
 21
-138.120588
 31
0.0
  0
LINE
  8
0
  6
BYLAYER
 62
     7
 10
463.264505
 20
-139.920606
 30
0.0
 11
463.264505
 21
-150.070600
 31
0.0
  0
LINE
  8
0
  6
BYLAYER
 62
     7
 10
463.264505
 20
-163.820600
 30
0.0
 11
463.264505
 21
-166.184663
 31
0.0
  0
LINE
  8
0
  6
BYLAYER
 62
     7
 10
463.264505
 20
-151.870588
 30
0.0
 11
463.264505
 21
-162.020582
 31
0.0
  0
CIRCLE
  8
0
  6
BYLAYER
 62
     7
 10
384.794474
 20
-103.170606
 30
0.0
 40
3.0
  0
CIRCLE
  8
0
  6
BYLAYER
 62
     7
 10
439.794474
 20
-103.170606
 30
0.0
 40
3.0
  0
LINE
  8
0
  6
BYLAYER
 62
     7
 10
442.656290
 20
-102.270582
 30
0.0
 11
465.264596
 21
-102.270582
 31
0.0
  0
LINE
  8
0
  6
BYLAYER
 62
     7
 10
442.656290
 20
-104.070600
 30
0.0
 11
465.264596
 21
-104.070600
 31
0.0
  0
LINE
  8
0
  6
BYLAYER
 62
     7
 10
387.656290
 20
-102.270582
 30
0.0
 11
436.932657
 21
-102.270582
 31
0.0
  0
LINE
  8
0
  6
BYLAYER
 62
     7
 10
387.656290
 20
-104.070600
 30
0.0
 11
436.932657
 21
-104.070600
 31
0.0
  0
LINE
  8
0
  6
BYLAYER
 62
     7
 10
351.164469
 20
-102.270582
 30
0.0
 11
381.932657
 21
-102.270582
 31
0.0
  0
LINE
  8
0
  6
BYLAYER
 62
     7
 10
351.164469
 20
-104.070600
 30
0.0
 11
381.932657
 21
-104.070600
 31
0.0
  0
LINE
  8
0
  6
BYLAYER
 62
     7
 10
351.164469
 20
-138.120588
 30
0.0
 11
465.264596
 21
-138.120588
 31
0.0
  0
LINE
  8
0
  6
BYLAYER
 62
     7
 10
351.164469
 20
-139.920606
 30
0.0
 11
465.264596
 21
-139.920606
 31
0.0
  0
ARC
  8
0
  6
BYLAYER
 62
     7
 10
351.164469
 20
-162.920575
 30
0.0
 40
0.899994
 50
90.0
 51
269.999998
  0
LINE
  8
0
  6
BYLAYER
 62
     7
 10
351.164469
 20
-162.020582
 30
0.0
 11
465.264596
 21
-162.020582
 31
0.0
  0
LINE
  8
0
  6
BYLAYER
 62
     7
 10
351.164469
 20
-163.820600
 30
0.0
 11
465.264596
 21
-163.820600
 31
0.0
  0
LINE
  8
0
  6
BYLAYER
 62
     7
 10
371.264505
 20
-127.970594
 30
0.0
 11
371.264505
 21
-126.170606
 31
0.0
  0
LINE
  8
0
  6
BYLAYER
 62
     7
 10
453.264505
 20
-126.170606
 30
0.0
 11
453.264505
 21
-127.970594
 31
0.0
  0
LINE
  8
0
  6
BYLAYER
 62
     7
 10
453.264505
 20
-116.020582
 30
0.0
 11
453.264505
 21
-114.220594
 31
0.0
  0
LINE
  8
0
  6
BYLAYER
 62
     7
 10
371.264505
 20
-114.220594
 30
0.0
 11
371.264505
 21
-116.020582
 31
0.0
  0
LINE
  8
0
  6
BYLAYER
 62
     7
 10
453.264505
 20
-104.070600
 30
0.0
 11
453.264505
 21
-102.270582
 31
0.0
  0
LINE
  8
0
  6
BYLAYER
 62
     7
 10
371.264505
 20
-102.270582
 30
0.0
 11
371.264505
 21
-104.070600
 31
0.0
  0
LINE
  8
0
  6
BYLAYER
 62
     7
 10
453.264505
 20
-92.120588
 30
0.0
 11
453.264505
 21
-90.320600
 31
0.0
  0
LINE
  8
0
  6
BYLAYER
 62
     7
 10
371.264505
 20
-90.320600
 30
0.0
 11
371.264505
 21
-92.120588
 31
0.0
  0
LINE
  8
0
  6
BYLAYER
 62
     7
 10
371.264505
 20
-78.370588
 30
0.0
 11
371.264505
 21
-80.170606
 31
0.0
  0
LINE
  8
0
  6
BYLAYER
 62
     7
 10
453.264505
 20
-80.170606
 30
0.0
 11
453.264505
 21
-78.370588
 31
0.0
  0
ARC
  8
0
  6
BYLAYER
 62
     7
 10
358.164499
 20
-162.920606
 30
0.0
 40
0.900024
 50
90.0
 51
269.999998
  0
ARC
  8
0
  6
BYLAYER
 62
     7
 10
358.164499
 20
-150.970594
 30
0.0
 40
0.899994
 50
90.0
 51
269.999998
  0
ARC
  8
0
  6
BYLAYER
 62
     7
 10
358.164499
 20
-139.020582
 30
0.0
 40
0.899994
 50
90.0
 51
269.999998
  0
ARC
  8
0
  6
BYLAYER
 62
     7
 10
358.164499
 20
-127.070600
 30
0.0
 40
0.899994
 50
90.0
 51
269.999998
  0
ARC
  8
0
  6
BYLAYER
 62
     7
 10
358.164499
 20
-115.120588
 30
0.0
 40
0.899994
 50
90.0
 51
269.999998
  0
ARC
  8
0
  6
BYLAYER
 62
     7
 10
358.164499
 20
-103.170606
 30
0.0
 40
0.900024
 50
90.0
 51
269.999998
  0
ARC
  8
0
  6
BYLAYER
 62
     7
 10
358.164499
 20
-91.220594
 30
0.0
 40
0.899994
 50
90.0
 51
269.999998
  0
LINE
  8
0
  6
BYLAYER
 62
     7
 10
350.264381
 20
-33.095563
 30
0.0
 11
350.264507
 21
-188.595563
 31
0.0
  0
ARC
  8
0
  6
BYLAYER
 62
     7
 10
358.164499
 20
-67.320600
 30
0.0
 40
0.899994
 50
90.0
 51
269.999998
  0
ARC
  8
0
  6
BYLAYER
 62
     7
 10
358.164499
 20
-79.270612
 30
0.0
 40
0.900024
 50
90.0
 51
269.999998
  0
LINE
  8
0
  6
BYLAYER
 62
     7
 10
430.264444
 20
-45.640521
 30
0.0
 11
465.374442
 21
-45.640521
 31
0.0
  0
LINE
  8
0
  6
BYLAYER
 62
     7
 10
430.264444
 20
-48.047553
 30
0.0
 11
465.360498
 21
-48.047553
 31
0.0
  0
LINE
  8
0
  6
BYLAYER
 62
     7
 10
430.264444
 20
-53.104961
 30
0.0
 11
465.269618
 21
-53.104961
 31
0.0
  0
LINE
  8
0
  6
BYLAYER
 62
     7
 10
350.264398
 20
-54.095563
 30
0.0
 11
346.764505
 21
-54.095563
 31
0.0
  0
LINE
  8
0
  6
BYLAYER
 62
     7
 10
350.264398
 20
-188.095563
 30
0.0
 11
346.764505
 21
-188.095563
 31
0.0
  0
LINE
  8
0
  6
BYLAYER
 62
     7
 10
354.672057
 20
-197.824210
 30
0.0
 11
465.264596
 21
-197.824210
 31
0.0
  0
LINE
  8
0
  6
BYLAYER
 62
     7
 10
354.711740
 20
-195.417178
 30
0.0
 11
465.264596
 21
-195.417178
 31
0.0
  0
LINE
  8
0
  6
BYLAYER
 62
     7
 10
354.739337
 20
-190.992773
 30
0.0
 11
465.264596
 21
-190.992773
 31
0.0
  0
LINE
  8
0
  6
BYLAYER
 62
     7
 10
354.831232
 20
-183.160443
 30
0.0
 11
465.264596
 21
-183.160443
 31
0.0
  0
LINE
  8
0
  6
BYLAYER
 62
     7
 10
465.264596
 20
-166.184663
 30
0.0
 11
358.759043
 21
-166.184663
 31
0.0
  0
LINE
  8
0
  6
BYLAYER
 62
     7
 10
353.262424
 20
-196.836981
 30
0.0
 11
350.264505
 21
-188.595563
 31
0.0
  0
ARC
  8
0
  6
BYLAYER
 62
     7
 10
354.672057
 20
-196.324210
 30
0.0
 40
1.500000
 50
199.989488
 51
270.000000
  0
LINE
  8
0
  6
BYLAYER
 62
     7
 10
353.284999
 20
-194.380224
 30
0.0
 11
350.264505
 21
-185.073449
 31
0.0
  0
ARC
  8
0
  6
BYLAYER
 62
     7
 10
354.711740
 20
-193.917178
 30
0.0
 40
1.500000
 50
197.980729
 51
270.000000
  0
LINE
  8
0
  6
BYLAYER
 62
     7
 10
353.301952
 20
-189.921637
 30
0.0
 11
350.264505
 21
-179.741305
 31
0.0
  0
ARC
  8
0
  6
BYLAYER
 62
     7
 10
354.739337
 20
-189.492773
 30
0.0
 40
1.5
 50
196.613220
 51
270.0
  0
LINE
  8
0
  6
BYLAYER
 62
     7
 10
353.365276
 20
-181.978208
 30
0.0
 11
350.264505
 21
-167.673306
 31
0.0
  0
ARC
  8
0
  6
BYLAYER
 62
     7
 10
354.831232
 20
-181.660443
 30
0.0
 40
1.5
 50
192.230383
 51
270.0
  0
LINE
  8
0
  6
BYLAYER
 62
     7
 10
350.264505
 20
-179.741305
 30
0.0
 11
352.624837
 21
-178.562312
 31
0.0
  0
LINE
  8
0
  6
BYLAYER
 62
     7
 10
350.264505
 20
-185.073449
 30
0.0
 11
351.660583
 21
-184.420410
 31
0.0
  0
LINE
  8
0
  6
BYLAYER
 62
     7
 10
350.264505
 20
-167.673306
 30
0.0
 11
358.759043
 21
-166.184663
 31
0.0
  0
LINE
  8
0
  6
BYLAYER
 62
     7
 10
350.264505
 20
-188.595563
 30
0.0
 11
351.265557
 21
-188.157900
 31
0.0
  0
LINE
  8
0
  6
BYLAYER
 62
     7
 10
346.764505
 20
-188.095563
 30
0.0
 11
346.764505
 21
-54.095563
 31
0.0
  0
LINE
  8
0
  6
BYLAYER
 62
     7
 10
525.648117
 20
-41.845563
 30
0.0
 11
465.264596
 21
-41.845563
 31
0.0
  0
LINE
  8
0
  6
BYLAYER
 62
     7
 10
546.264596
 20
-56.607831
 30
0.0
 11
528.726425
 21
-42.905509
 31
0.0
  0
ARC
  8
0
  6
BYLAYER
 62
     7
 10
525.648117
 20
-46.845563
 30
0.0
 40
5.0
 50
52.000000
 51
90.000000
  0
LINE
  8
0
  6
BYLAYER
 62
     7
 10
546.264596
 20
-121.095563
 30
0.0
 11
546.264596
 21
-56.607831
 31
0.0
  0
LINE
  8
0
  6
BYLAYER
 62
     7
 10
546.264596
 20
-185.583295
 30
0.0
 11
546.264596
 21
-121.095563
 31
0.0
  0
LINE
  8
0
  6
BYLAYER
 62
     7
 10
528.726425
 20
-199.285617
 30
0.0
 11
546.264596
 21
-185.583295
 31
0.0
  0
ARC
  8
0
  6
BYLAYER
 62
     7
 10
525.648117
 20
-195.345563
 30
0.0
 40
5.0
 50
270.0
 51
308.0
  0
LINE
  8
0
  6
BYLAYER
 62
     7
 10
465.264596
 20
-200.345563
 30
0.0
 11
525.648117
 21
-200.345563
 31
0.0
  0
LINE
  8
0
  6
BYLAYER
 62
     7
 10
465.264596
 20
-200.345563
 30
0.0
 11
465.264596
 21
-121.095563
 31
0.0
  0
LINE
  8
0
  6
BYLAYER
 62
     7
 10
465.264596
 20
-41.845563
 30
0.0
 11
465.264596
 21
-121.095563
 31
0.0
  0
LINE
  8
0
  6
BYLAYER
 62
     7
 10
345.264505
 20
-43.595563
 30
0.0
 11
336.747052
 21
-43.744244
 31
0.0
  0
ARC
  8
0
  6
BYLAYER
 62
     7
 10
336.764505
 20
-44.744092
 30
0.0
 40
1.0
 50
91.000058
 51
180.000000
  0
LINE
  8
0
  6
BYLAYER
 62
     7
 10
335.764505
 20
-121.095563
 30
0.0
 11
335.764505
 21
-44.744092
 31
0.0
  0
LINE
  8
0
  6
BYLAYER
 62
     7
 10
345.264505
 20
-53.665404
 30
0.0
 11
346.764505
 21
-53.613023
 31
0.0
  0
LINE
  8
0
  6
BYLAYER
 62
     7
 10
313.264505
 20
-60.980129
 30
0.0
 11
334.989456
 21
-55.964529
 31
0.0
  0
ARC
  8
0
  6
BYLAYER
 62
     7
 10
334.764505
 20
-54.990159
 30
0.0
 40
1.000000
 50
282.999999
 51
360.000000
  0
LINE
  8
0
  6
BYLAYER
 62
     7
 10
345.264505
 20
-121.095563
 30
0.0
 11
345.264505
 21
-43.595563
 31
0.0
  0
LINE
  8
0
  6
BYLAYER
 62
     7
 10
346.764505
 20
-53.613023
 30
0.0
 11
346.764505
 21
-121.095563
 31
0.0
  0
LINE
  8
0
  6
BYLAYER
 62
     7
 10
313.264505
 20
-60.980129
 30
0.0
 11
313.264505
 21
-121.095563
 31
0.0
  0
LINE
  8
0
  6
BYLAYER
 62
     7
 10
345.264505
 20
-198.595563
 30
0.0
 11
336.747052
 21
-198.446882
 31
0.0
  0
ARC
  8
0
  6
BYLAYER
 62
     7
 10
336.764505
 20
-197.447034
 30
0.0
 40
1.0
 50
180.000000
 51
268.999942
  0
LINE
  8
0
  6
BYLAYER
 62
     7
 10
335.764505
 20
-121.095563
 30
0.0
 11
335.764505
 21
-197.447034
 31
0.0
  0
LINE
  8
0
  6
BYLAYER
 62
     7
 10
345.264505
 20
-188.525722
 30
0.0
 11
346.764505
 21
-188.578103
 31
0.0
  0
LINE
  8
0
  6
BYLAYER
 62
     7
 10
313.264505
 20
-181.210997
 30
0.0
 11
334.989456
 21
-186.226597
 31
0.0
  0
ARC
  8
0
  6
BYLAYER
 62
     7
 10
334.764505
 20
-187.200967
 30
0.0
 40
1.000000
 50
0.0
 51
77.000001
  0
LINE
  8
0
  6
BYLAYER
 62
     7
 10
345.264505
 20
-121.095563
 30
0.0
 11
345.264505
 21
-198.595563
 31
0.0
  0
LINE
  8
0
  6
BYLAYER
 62
     7
 10
346.764505
 20
-188.578103
 30
0.0
 11
346.764505
 21
-121.095563
 31
0.0
  0
LINE
  8
0
  6
BYLAYER
 62
     7
 10
313.264505
 20
-181.210997
 30
0.0
 11
313.264505
 21
-121.095563
 31
0.0
  0
ARC
  8
0
  6
BYLAYER
 62
     7
 10
421.018719
 20
-22.595563
 30
0.0
 40
1.5
 50
180.000000
 51
270.000000
  0
ARC
  8
0
  6
BYLAYER
 62
     7
 10
359.510043
 20
-22.595563
 30
0.0
 40
1.5
 50
270.0
 51
360.0
  0
ARC
  8
0
  6
BYLAYER
 62
     7
 10
351.764381
 20
-22.595563
 30
0.0
 40
1.500000
 50
270.0
 51
360.0
  0
ARC
  8
0
  6
BYLAYER
 62
     7
 10
351.764381
 20
-25.595563
 30
0.0
 40
1.5
 50
90.0
 51
180.0
  0
ARC
  8
0
  6
BYLAYER
 62
     7
 10
428.764381
 20
-22.595563
 30
0.0
 40
1.5
 50
180.000000
 51
270.000000
  0
LINE
  8
0
  6
BYLAYER
 62
     7
 10
353.264381
 20
-22.595563
 30
0.0
 11
353.264381
 21
-1.095563
 31
0.0
  0
ARC
  8
0
  6
BYLAYER
 62
     7
 10
354.764381
 20
-1.095563
 30
0.0
 40
1.5
 50
90.0
 51
180.0
  0
LINE
  8
0
  6
BYLAYER
 62
     7
 10
427.264381
 20
-22.595563
 30
0.0
 11
427.264381
 21
-1.095563
 31
0.0
  0
LINE
  8
0
  6
BYLAYER
 62
     7
 10
354.764381
 20
0.404437
 30
0.0
 11
425.764381
 21
0.404437
 31
0.0
  0
ARC
  8
0
  6
BYLAYER
 62
     7
 10
418.018719
 20
-1.095563
 30
0.0
 40
1.500000
 50
0.0
 51
90.0
  0
ARC
  8
0
  6
BYLAYER
 62
     7
 10
425.764381
 20
-1.095563
 30
0.0
 40
1.500000
 50
0.0
 51
90.0
  0
LINE
  8
0
  6
BYLAYER
 62
     7
 10
361.010043
 20
-22.595563
 30
0.0
 11
361.010043
 21
-1.095563
 31
0.0
  0
ARC
  8
0
  6
BYLAYER
 62
     7
 10
362.510043
 20
-1.095563
 30
0.0
 40
1.500000
 50
90.0
 51
180.0
  0
LINE
  8
0
  6
BYLAYER
 62
     7
 10
419.518719
 20
-22.595563
 30
0.0
 11
419.518719
 21
-1.095563
 31
0.0
  0
ARC
  8
0
  6
BYLAYER
 62
     7
 10
428.764381
 20
-25.595563
 30
0.0
 40
1.500000
 50
0.0
 51
90.0
  0
LINE
  8
0
  6
BYLAYER
 62
     7
 10
430.264381
 20
-33.095563
 30
0.0
 11
430.264381
 21
-25.595563
 31
0.0
  0
LINE
  8
0
  6
BYLAYER
 62
     7
 10
428.764381
 20
-24.095563
 30
0.0
 11
351.764381
 21
-24.095563
 31
0.0
  0
LINE
  8
0
  6
BYLAYER
 62
     7
 10
350.264381
 20
-25.595563
 30
0.0
 11
350.264381
 21
-33.095563
 31
0.0
  0
LINE
  8
0
  6
BYLAYER
 62
     7
 10
350.264381
 20
-33.095563
 30
0.0
 11
430.264381
 21
-33.095563
 31
0.0
  0
LINE
  8
0
  6
BYLAYER
 62
     7
 10
430.264381
 20
-31.095563
 30
0.0
 11
350.264381
 21
-31.095563
 31
0.0
  0
LINE
  8
0
  6
BYLAYER
 62
     7
 10
525.648117
 20
-200.345563
 30
0.0
 11
525.648117
 21
-41.845563
 31
0.0
  0
LINE
  8
0
  6
BYLAYER
 62
     7
 10
353.264452
 20
-620.612248
 30
0.0
 11
353.264452
 21
-596.095563
 31
0.0
  0
LINE
  8
0
  6
BYLAYER
 62
     7
 10
427.264452
 20
-596.095563
 30
0.0
 11
427.264452
 21
-620.612248
 31
0.0
  0
LINE
  8
0
  6
BYLAYER
 62
     7
 10
417.802047
 20
-630.345563
 30
0.0
 11
362.726858
 21
-630.345563
 31
0.0
  0
LINE
  8
0
  6
BYLAYER
 62
     7
 10
367.369151
 20
-601.196669
 30
0.0
 11
353.264452
 21
-601.689216
 31
0.0
  0
ARC
  8
0
  6
BYLAYER
 62
     7
 10
367.264452
 20
-598.198497
 30
0.0
 40
3.000000
 50
272.000000
 51
360.000000
  0
LINE
  8
0
  6
BYLAYER
 62
     7
 10
367.369151
 20
-616.196669
 30
0.0
 11
353.264452
 21
-616.689216
 31
0.0
  0
ARC
  8
0
  6
BYLAYER
 62
     7
 10
367.264452
 20
-613.198497
 30
0.0
 40
3.000000
 50
272.000000
 51
360.000000
  0
LINE
  8
0
  6
BYLAYER
 62
     7
 10
353.264452
 20
-605.501910
 30
0.0
 11
367.369151
 21
-605.994457
 31
0.0
  0
ARC
  8
0
  6
BYLAYER
 62
     7
 10
367.264452
 20
-608.992629
 30
0.0
 40
3.000000
 50
0.0
 51
88.0
  0
LINE
  8
0
  6
BYLAYER
 62
     7
 10
370.264452
 20
-608.992629
 30
0.0
 11
370.264452
 21
-613.198497
 31
0.0
  0
LINE
  8
0
  6
BYLAYER
 62
     7
 10
370.264452
 20
-596.095563
 30
0.0
 11
370.264452
 21
-598.198497
 31
0.0
  0
LINE
  8
0
  6
BYLAYER
 62
     7
 10
354.264452
 20
-596.095563
 30
0.0
 11
354.264452
 21
-601.654295
 31
0.0
  0
LINE
  8
0
  6
BYLAYER
 62
     7
 10
354.264452
 20
-605.536831
 30
0.0
 11
354.264452
 21
-616.654295
 31
0.0
  0
LINE
  8
0
  6
BYLAYER
 62
     7
 10
413.159754
 20
-601.196669
 30
0.0
 11
427.264452
 21
-601.689216
 31
0.0
  0
ARC
  8
0
  6
BYLAYER
 62
     7
 10
413.264452
 20
-598.198497
 30
0.0
 40
3.000000
 50
180.000000
 51
268.000000
  0
LINE
  8
0
  6
BYLAYER
 62
     7
 10
413.159754
 20
-616.196669
 30
0.0
 11
427.264452
 21
-616.689216
 31
0.0
  0
ARC
  8
0
  6
BYLAYER
 62
     7
 10
413.264452
 20
-613.198497
 30
0.0
 40
3.000000
 50
180.000000
 51
268.000000
  0
LINE
  8
0
  6
BYLAYER
 62
     7
 10
427.264452
 20
-605.501910
 30
0.0
 11
413.159754
 21
-605.994457
 31
0.0
  0
ARC
  8
0
  6
BYLAYER
 62
     7
 10
413.264452
 20
-608.992629
 30
0.0
 40
3.000000
 50
92.000000
 51
180.000000
  0
LINE
  8
0
  6
BYLAYER
 62
     7
 10
410.264452
 20
-608.992629
 30
0.0
 11
410.264452
 21
-613.198497
 31
0.0
  0
LINE
  8
0
  6
BYLAYER
 62
     7
 10
410.264452
 20
-596.095563
 30
0.0
 11
410.264452
 21
-598.198497
 31
0.0
  0
LINE
  8
0
  6
BYLAYER
 62
     7
 10
426.264452
 20
-596.095563
 30
0.0
 11
426.264452
 21
-601.654295
 31
0.0
  0
LINE
  8
0
  6
BYLAYER
 62
     7
 10
426.264452
 20
-605.536831
 30
0.0
 11
426.264452
 21
-616.654295
 31
0.0
  0
LINE
  8
0
  6
BYLAYER
 62
     7
 10
350.264452
 20
-596.095563
 30
0.0
 11
350.264452
 21
-631.595563
 31
0.0
  0
ARC
  8
0
  6
BYLAYER
 62
     7
 10
351.764452
 20
-631.595563
 30
0.0
 40
1.500000
 50
180.000000
 51
270.000000
  0
LINE
  8
0
  6
BYLAYER
 62
     7
 10
430.264452
 20
-631.595563
 30
0.0
 11
430.264452
 21
-596.095563
 31
0.0
  0
LINE
  8
0
  6
BYLAYER
 62
     7
 10
351.764452
 20
-633.095563
 30
0.0
 11
428.764452
 21
-633.095563
 31
0.0
  0
ARC
  8
0
  6
BYLAYER
 62
     7
 10
428.764452
 20
-631.595563
 30
0.0
 40
1.500000
 50
270.0
 51
360.0
  0
ARC
  8
0
  6
BYLAYER
 62
     7
 10
425.264452
 20
-628.095563
 30
0.0
 40
6.0
 50
86.177446
 51
185.739170
  0
ARC
  8
0
  6
BYLAYER
 62
     7
 10
425.764452
 20
-620.612248
 30
0.0
 40
1.5
 50
266.177446
 51
360.000000
  0
ARC
  8
0
  6
BYLAYER
 62
     7
 10
417.802047
 20
-628.845563
 30
0.0
 40
1.5
 50
270.0
 51
365.739170
  0
ARC
  8
0
  6
BYLAYER
 62
     7
 10
355.264452
 20
-628.095563
 30
0.0
 40
6.0
 50
354.260830
 51
453.822554
  0
ARC
  8
0
  6
BYLAYER
 62
     7
 10
362.726858
 20
-628.845563
 30
0.0
 40
1.500000
 50
174.260830
 51
270.000000
  0
ARC
  8
0
  6
BYLAYER
 62
     7
 10
354.764452
 20
-620.612248
 30
0.0
 40
1.5
 50
180.000000
 51
273.822554
  0
ARC
  8
0
  6
BYLAYER
 62
     7
 10
377.264452
 20
-623.095563
 30
0.0
 40
3.000000
 50
180.000000
 51
270.000000
  0
ARC
  8
0
  6
BYLAYER
 62
     7
 10
403.264452
 20
-623.095563
 30
0.0
 40
3.000000
 50
270.0
 51
360.0
  0
LINE
  8
0
  6
BYLAYER
 62
     7
 10
377.264452
 20
-626.095563
 30
0.0
 11
403.264452
 21
-626.095563
 31
0.0
  0
LINE
  8
0
  6
BYLAYER
 62
     7
 10
374.264452
 20
-623.095563
 30
0.0
 11
374.264452
 21
-596.095563
 31
0.0
  0
LINE
  8
0
  6
BYLAYER
 62
     7
 10
406.264452
 20
-596.095563
 30
0.0
 11
406.264452
 21
-623.095563
 31
0.0
  0
LINE
  8
0
  6
BYLAYER
 62
     7
 10
430.264452
 20
-601.170606
 30
0.0
 11
465.264596
 21
-601.170606
 31
0.0
  0
LINE
  8
0
  6
BYLAYER
 62
     7
 10
430.264452
 20
-602.970594
 30
0.0
 11
465.264596
 21
-602.970594
 31
0.0
  0
LINE
  8
0
  6
BYLAYER
 62
     7
 10
430.264452
 20
-625.070600
 30
0.0
 11
465.264596
 21
-625.070600
 31
0.0
  0
LINE
  8
0
  6
BYLAYER
 62
     7
 10
430.264452
 20
-626.870588
 30
0.0
 11
465.264596
 21
-626.870588
 31
0.0
  0
LINE
  8
0
  6
BYLAYER
 62
     7
 10
361.264505
 20
-638.820600
 30
0.0
 11
361.264505
 21
-641.184663
 31
0.0
  0
LINE
  8
0
  6
BYLAYER
 62
     7
 10
361.264505
 20
-633.095563
 30
0.0
 11
361.264505
 21
-637.020582
 31
0.0
  0
LINE
  8
0
  6
BYLAYER
 62
     7
 10
463.264505
 20
-596.095563
 30
0.0
 11
463.264505
 21
-601.170606
 31
0.0
  0
LINE
  8
0
  6
BYLAYER
 62
     7
 10
463.264505
 20
-602.970594
 30
0.0
 11
463.264505
 21
-613.120588
 31
0.0
  0
LINE
  8
0
  6
BYLAYER
 62
     7
 10
463.264505
 20
-614.920606
 30
0.0
 11
463.264505
 21
-625.070600
 31
0.0
  0
LINE
  8
0
  6
BYLAYER
 62
     7
 10
463.264505
 20
-638.820600
 30
0.0
 11
463.264505
 21
-641.184663
 31
0.0
  0
LINE
  8
0
  6
BYLAYER
 62
     7
 10
463.264505
 20
-626.870588
 30
0.0
 11
463.264505
 21
-637.020582
 31
0.0
  0
LINE
  8
0
  6
BYLAYER
 62
     7
 10
430.264452
 20
-613.120588
 30
0.0
 11
465.264596
 21
-613.120588
 31
0.0
  0
LINE
  8
0
  6
BYLAYER
 62
     7
 10
430.264452
 20
-614.920606
 30
0.0
 11
465.264596
 21
-614.920606
 31
0.0
  0
ARC
  8
0
  6
BYLAYER
 62
     7
 10
351.164469
 20
-637.920575
 30
0.0
 40
0.899994
 50
90.0
 51
269.999998
  0
LINE
  8
0
  6
BYLAYER
 62
     7
 10
351.164469
 20
-637.020582
 30
0.0
 11
465.264596
 21
-637.020582
 31
0.0
  0
LINE
  8
0
  6
BYLAYER
 62
     7
 10
351.164469
 20
-638.820600
 30
0.0
 11
465.264596
 21
-638.820600
 31
0.0
  0
LINE
  8
0
  6
BYLAYER
 62
     7
 10
453.264505
 20
-601.170606
 30
0.0
 11
453.264505
 21
-602.970594
 31
0.0
  0
ARC
  8
0
  6
BYLAYER
 62
     7
 10
358.164499
 20
-637.920606
 30
0.0
 40
0.900024
 50
90.0
 51
269.999998
  0
LINE
  8
0
  6
BYLAYER
 62
     7
 10
350.264452
 20
-596.095563
 30
0.0
 11
350.264507
 21
-663.595563
 31
0.0
  0
LINE
  8
0
  6
BYLAYER
 62
     7
 10
350.264398
 20
-663.095563
 30
0.0
 11
346.764505
 21
-663.095563
 31
0.0
  0
LINE
  8
0
  6
BYLAYER
 62
     7
 10
354.672057
 20
-672.824210
 30
0.0
 11
465.264596
 21
-672.824210
 31
0.0
  0
LINE
  8
0
  6
BYLAYER
 62
     7
 10
354.711740
 20
-670.417178
 30
0.0
 11
465.264596
 21
-670.417178
 31
0.0
  0
LINE
  8
0
  6
BYLAYER
 62
     7
 10
354.739337
 20
-665.992773
 30
0.0
 11
465.264596
 21
-665.992773
 31
0.0
  0
LINE
  8
0
  6
BYLAYER
 62
     7
 10
354.831232
 20
-658.160443
 30
0.0
 11
465.264596
 21
-658.160443
 31
0.0
  0
LINE
  8
0
  6
BYLAYER
 62
     7
 10
465.264596
 20
-641.184663
 30
0.0
 11
358.759043
 21
-641.184663
 31
0.0
  0
LINE
  8
0
  6
BYLAYER
 62
     7
 10
353.262424
 20
-671.836981
 30
0.0
 11
350.264505
 21
-663.595563
 31
0.0
  0
ARC
  8
0
  6
BYLAYER
 62
     7
 10
354.672057
 20
-671.324210
 30
0.0
 40
1.5
 50
199.989488
 51
270.0
  0
LINE
  8
0
  6
BYLAYER
 62
     7
 10
353.284999
 20
-669.380224
 30
0.0
 11
350.264505
 21
-660.073449
 31
0.0
  0
ARC
  8
0
  6
BYLAYER
 62
     7
 10
354.711740
 20
-668.917178
 30
0.0
 40
1.5
 50
197.980729
 51
270.000000
  0
LINE
  8
0
  6
BYLAYER
 62
     7
 10
353.301952
 20
-664.921637
 30
0.0
 11
350.264505
 21
-654.741305
 31
0.0
  0
ARC
  8
0
  6
BYLAYER
 62
     7
 10
354.739337
 20
-664.492773
 30
0.0
 40
1.5
 50
196.613220
 51
270.000000
  0
LINE
  8
0
  6
BYLAYER
 62
     7
 10
353.365276
 20
-656.978208
 30
0.0
 11
350.264505
 21
-642.673306
 31
0.0
  0
ARC
  8
0
  6
BYLAYER
 62
     7
 10
354.831232
 20
-656.660443
 30
0.0
 40
1.5
 50
192.230383
 51
270.000000
  0
LINE
  8
0
  6
BYLAYER
 62
     7
 10
350.264505
 20
-654.741305
 30
0.0
 11
352.624837
 21
-653.562312
 31
0.0
  0
LINE
  8
0
  6
BYLAYER
 62
     7
 10
350.264505
 20
-660.073449
 30
0.0
 11
351.660583
 21
-659.420410
 31
0.0
  0
LINE
  8
0
  6
BYLAYER
 62
     7
 10
350.264505
 20
-642.673306
 30
0.0
 11
358.759043
 21
-641.184663
 31
0.0
  0
LINE
  8
0
  6
BYLAYER
 62
     7
 10
350.264505
 20
-663.595563
 30
0.0
 11
351.265557
 21
-663.157900
 31
0.0
  0
LINE
  8
0
  6
BYLAYER
 62
     7
 10
346.764505
 20
-663.095563
 30
0.0
 11
346.764505
 21
-596.095563
 31
0.0
  0
LINE
  8
0
  6
BYLAYER
 62
     7
 10
546.264596
 20
-660.583295
 30
0.0
 11
546.264596
 21
-596.095563
 31
0.0
  0
LINE
  8
0
  6
BYLAYER
 62
     7
 10
528.726425
 20
-674.285617
 30
0.0
 11
546.264596
 21
-660.583295
 31
0.0
  0
ARC
  8
0
  6
BYLAYER
 62
     7
 10
525.648117
 20
-670.345563
 30
0.0
 40
5.0
 50
270.0
 51
308.0
  0
LINE
  8
0
  6
BYLAYER
 62
     7
 10
465.264596
 20
-675.345563
 30
0.0
 11
525.648117
 21
-675.345563
 31
0.0
  0
LINE
  8
0
  6
BYLAYER
 62
     7
 10
465.264596
 20
-675.345563
 30
0.0
 11
465.264596
 21
-596.095563
 31
0.0
  0
LINE
  8
0
  6
BYLAYER
 62
     7
 10
353.264452
 20
-571.578878
 30
0.0
 11
353.264452
 21
-596.095563
 31
0.0
  0
LINE
  8
0
  6
BYLAYER
 62
     7
 10
427.264452
 20
-596.095563
 30
0.0
 11
427.264452
 21
-571.578878
 31
0.0
  0
LINE
  8
0
  6
BYLAYER
 62
     7
 10
417.802047
 20
-561.845563
 30
0.0
 11
362.726858
 21
-561.845563
 31
0.0
  0
LINE
  8
0
  6
BYLAYER
 62
     7
 10
367.369151
 20
-590.994457
 30
0.0
 11
353.264452
 21
-590.501910
 31
0.0
  0
ARC
  8
0
  6
BYLAYER
 62
     7
 10
367.264452
 20
-593.992629
 30
0.0
 40
3.000000
 50
0.0
 51
88.0
  0
LINE
  8
0
  6
BYLAYER
 62
     7
 10
367.369151
 20
-575.994457
 30
0.0
 11
353.264452
 21
-575.501910
 31
0.0
  0
ARC
  8
0
  6
BYLAYER
 62
     7
 10
367.264452
 20
-578.992629
 30
0.0
 40
3.000000
 50
0.0
 51
88.0
  0
LINE
  8
0
  6
BYLAYER
 62
     7
 10
353.264452
 20
-586.689216
 30
0.0
 11
367.369151
 21
-586.196669
 31
0.0
  0
ARC
  8
0
  6
BYLAYER
 62
     7
 10
367.264452
 20
-583.198497
 30
0.0
 40
3.000000
 50
272.000000
 51
360.000000
  0
LINE
  8
0
  6
BYLAYER
 62
     7
 10
370.264452
 20
-583.198497
 30
0.0
 11
370.264452
 21
-578.992629
 31
0.0
  0
LINE
  8
0
  6
BYLAYER
 62
     7
 10
370.264452
 20
-596.095563
 30
0.0
 11
370.264452
 21
-593.992629
 31
0.0
  0
LINE
  8
0
  6
BYLAYER
 62
     7
 10
354.264452
 20
-596.095563
 30
0.0
 11
354.264452
 21
-590.536831
 31
0.0
  0
LINE
  8
0
  6
BYLAYER
 62
     7
 10
354.264452
 20
-586.654295
 30
0.0
 11
354.264452
 21
-575.536831
 31
0.0
  0
LINE
  8
0
  6
BYLAYER
 62
     7
 10
413.159754
 20
-590.994457
 30
0.0
 11
427.264452
 21
-590.501910
 31
0.0
  0
ARC
  8
0
  6
BYLAYER
 62
     7
 10
413.264452
 20
-593.992629
 30
0.0
 40
3.000000
 50
92.0
 51
180.0
  0
LINE
  8
0
  6
BYLAYER
 62
     7
 10
413.159754
 20
-575.994457
 30
0.0
 11
427.264452
 21
-575.501910
 31
0.0
  0
ARC
  8
0
  6
BYLAYER
 62
     7
 10
413.264452
 20
-578.992629
 30
0.0
 40
3.000000
 50
92.0
 51
180.0
  0
LINE
  8
0
  6
BYLAYER
 62
     7
 10
427.264452
 20
-586.689216
 30
0.0
 11
413.159754
 21
-586.196669
 31
0.0
  0
ARC
  8
0
  6
BYLAYER
 62
     7
 10
413.264452
 20
-583.198497
 30
0.0
 40
3.000000
 50
180.000000
 51
268.000000
  0
LINE
  8
0
  6
BYLAYER
 62
     7
 10
410.264452
 20
-583.198497
 30
0.0
 11
410.264452
 21
-578.992629
 31
0.0
  0
LINE
  8
0
  6
BYLAYER
 62
     7
 10
410.264452
 20
-596.095563
 30
0.0
 11
410.264452
 21
-593.992629
 31
0.0
  0
LINE
  8
0
  6
BYLAYER
 62
     7
 10
426.264452
 20
-596.095563
 30
0.0
 11
426.264452
 21
-590.536831
 31
0.0
  0
LINE
  8
0
  6
BYLAYER
 62
     7
 10
426.264452
 20
-586.654295
 30
0.0
 11
426.264452
 21
-575.536831
 31
0.0
  0
LINE
  8
0
  6
BYLAYER
 62
     7
 10
350.264452
 20
-596.095563
 30
0.0
 11
350.264452
 21
-560.595563
 31
0.0
  0
ARC
  8
0
  6
BYLAYER
 62
     7
 10
351.764452
 20
-560.595563
 30
0.0
 40
1.5
 50
90.0
 51
180.0
  0
LINE
  8
0
  6
BYLAYER
 62
     7
 10
430.264452
 20
-560.595563
 30
0.0
 11
430.264452
 21
-596.095563
 31
0.0
  0
LINE
  8
0
  6
BYLAYER
 62
     7
 10
351.764452
 20
-559.095563
 30
0.0
 11
428.764452
 21
-559.095563
 31
0.0
  0
ARC
  8
0
  6
BYLAYER
 62
     7
 10
428.764452
 20
-560.595563
 30
0.0
 40
1.500000
 50
0.0
 51
90.0
  0
ARC
  8
0
  6
BYLAYER
 62
     7
 10
425.264452
 20
-564.095563
 30
0.0
 40
6.000000
 50
174.260830
 51
273.822554
  0
ARC
  8
0
  6
BYLAYER
 62
     7
 10
425.764452
 20
-571.578878
 30
0.0
 40
1.500000
 50
0.0
 51
93.822554
  0
ARC
  8
0
  6
BYLAYER
 62
     7
 10
417.802047
 20
-563.345563
 30
0.0
 40
1.5
 50
354.260830
 51
450.000000
  0
ARC
  8
0
  6
BYLAYER
 62
     7
 10
355.264452
 20
-564.095563
 30
0.0
 40
6.0
 50
266.177446
 51
365.739170
  0
ARC
  8
0
  6
BYLAYER
 62
     7
 10
362.726858
 20
-563.345563
 30
0.0
 40
1.5
 50
90.0
 51
185.73917
  0
ARC
  8
0
  6
BYLAYER
 62
     7
 10
354.764452
 20
-571.578878
 30
0.0
 40
1.5
 50
86.177446
 51
180.000000
  0
ARC
  8
0
  6
BYLAYER
 62
     7
 10
377.264452
 20
-569.095563
 30
0.0
 40
3.0
 50
90.0
 51
180.0
  0
ARC
  8
0
  6
BYLAYER
 62
     7
 10
403.264452
 20
-569.095563
 30
0.0
 40
3.0
 50
0.0
 51
90.0
  0
LINE
  8
0
  6
BYLAYER
 62
     7
 10
377.264452
 20
-566.095563
 30
0.0
 11
403.264452
 21
-566.095563
 31
0.0
  0
LINE
  8
0
  6
BYLAYER
 62
     7
 10
374.264452
 20
-569.095563
 30
0.0
 11
374.264452
 21
-596.095563
 31
0.0
  0
LINE
  8
0
  6
BYLAYER
 62
     7
 10
406.264452
 20
-596.095563
 30
0.0
 11
406.264452
 21
-569.095563
 31
0.0
  0
LINE
  8
0
  6
BYLAYER
 62
     7
 10
430.264452
 20
-591.020520
 30
0.0
 11
465.264596
 21
-591.020520
 31
0.0
  0
LINE
  8
0
  6
BYLAYER
 62
     7
 10
430.264452
 20
-589.220532
 30
0.0
 11
465.264596
 21
-589.220532
 31
0.0
  0
LINE
  8
0
  6
BYLAYER
 62
     7
 10
430.264452
 20
-567.120526
 30
0.0
 11
465.264596
 21
-567.120526
 31
0.0
  0
LINE
  8
0
  6
BYLAYER
 62
     7
 10
430.264452
 20
-565.320538
 30
0.0
 11
465.264596
 21
-565.320538
 31
0.0
  0
LINE
  8
0
  6
BYLAYER
 62
     7
 10
361.264505
 20
-553.370526
 30
0.0
 11
361.264505
 21
-551.006463
 31
0.0
  0
LINE
  8
0
  6
BYLAYER
 62
     7
 10
361.264505
 20
-559.095563
 30
0.0
 11
361.264505
 21
-555.170544
 31
0.0
  0
LINE
  8
0
  6
BYLAYER
 62
     7
 10
463.264505
 20
-596.095563
 30
0.0
 11
463.264505
 21
-591.020520
 31
0.0
  0
LINE
  8
0
  6
BYLAYER
 62
     7
 10
463.264505
 20
-589.220532
 30
0.0
 11
463.264505
 21
-579.070538
 31
0.0
  0
LINE
  8
0
  6
BYLAYER
 62
     7
 10
463.264505
 20
-577.270520
 30
0.0
 11
463.264505
 21
-567.120526
 31
0.0
  0
LINE
  8
0
  6
BYLAYER
 62
     7
 10
463.264505
 20
-553.370526
 30
0.0
 11
463.264505
 21
-551.006463
 31
0.0
  0
LINE
  8
0
  6
BYLAYER
 62
     7
 10
463.264505
 20
-565.320538
 30
0.0
 11
463.264505
 21
-555.170544
 31
0.0
  0
LINE
  8
0
  6
BYLAYER
 62
     7
 10
430.264452
 20
-579.070538
 30
0.0
 11
465.264596
 21
-579.070538
 31
0.0
  0
LINE
  8
0
  6
BYLAYER
 62
     7
 10
430.264452
 20
-577.270520
 30
0.0
 11
465.264596
 21
-577.270520
 31
0.0
  0
ARC
  8
0
  6
BYLAYER
 62
     7
 10
351.164469
 20
-554.270551
 30
0.0
 40
0.899994
 50
90.0
 51
269.999998
  0
LINE
  8
0
  6
BYLAYER
 62
     7
 10
351.164469
 20
-555.170544
 30
0.0
 11
465.264596
 21
-555.170544
 31
0.0
  0
LINE
  8
0
  6
BYLAYER
 62
     7
 10
351.164469
 20
-553.370526
 30
0.0
 11
465.264596
 21
-553.370526
 31
0.0
  0
LINE
  8
0
  6
BYLAYER
 62
     7
 10
453.264505
 20
-591.020520
 30
0.0
 11
453.264505
 21
-589.220532
 31
0.0
  0
ARC
  8
0
  6
BYLAYER
 62
     7
 10
358.164499
 20
-554.270520
 30
0.0
 40
0.900024
 50
90.0
 51
269.999998
  0
LINE
  8
0
  6
BYLAYER
 62
     7
 10
350.264452
 20
-596.095563
 30
0.0
 11
350.264507
 21
-528.595563
 31
0.0
  0
LINE
  8
0
  6
BYLAYER
 62
     7
 10
350.264398
 20
-529.095563
 30
0.0
 11
346.764505
 21
-529.095563
 31
0.0
  0
LINE
  8
0
  6
BYLAYER
 62
     7
 10
354.672057
 20
-519.366916
 30
0.0
 11
465.264596
 21
-519.366916
 31
0.0
  0
LINE
  8
0
  6
BYLAYER
 62
     7
 10
354.711740
 20
-521.773948
 30
0.0
 11
465.264596
 21
-521.773948
 31
0.0
  0
LINE
  8
0
  6
BYLAYER
 62
     7
 10
354.739337
 20
-526.198353
 30
0.0
 11
465.264596
 21
-526.198353
 31
0.0
  0
LINE
  8
0
  6
BYLAYER
 62
     7
 10
354.831232
 20
-534.030683
 30
0.0
 11
465.264596
 21
-534.030683
 31
0.0
  0
LINE
  8
0
  6
BYLAYER
 62
     7
 10
465.264596
 20
-551.006463
 30
0.0
 11
358.759043
 21
-551.006463
 31
0.0
  0
LINE
  8
0
  6
BYLAYER
 62
     7
 10
353.262424
 20
-520.354145
 30
0.0
 11
350.264505
 21
-528.595563
 31
0.0
  0
ARC
  8
0
  6
BYLAYER
 62
     7
 10
354.672057
 20
-520.866916
 30
0.0
 40
1.500000
 50
90.0
 51
160.010512
  0
LINE
  8
0
  6
BYLAYER
 62
     7
 10
353.284999
 20
-522.810902
 30
0.0
 11
350.264505
 21
-532.117677
 31
0.0
  0
ARC
  8
0
  6
BYLAYER
 62
     7
 10
354.711740
 20
-523.273948
 30
0.0
 40
1.5
 50
90.0
 51
162.019271
  0
LINE
  8
0
  6
BYLAYER
 62
     7
 10
353.301952
 20
-527.269489
 30
0.0
 11
350.264505
 21
-537.449821
 31
0.0
  0
ARC
  8
0
  6
BYLAYER
 62
     7
 10
354.739337
 20
-527.698353
 30
0.0
 40
1.500000
 50
90.0
 51
163.38678
  0
LINE
  8
0
  6
BYLAYER
 62
     7
 10
353.365276
 20
-535.212918
 30
0.0
 11
350.264505
 21
-549.517820
 31
0.0
  0
ARC
  8
0
  6
BYLAYER
 62
     7
 10
354.831232
 20
-535.530683
 30
0.0
 40
1.500000
 50
90.0
 51
167.769617
  0
LINE
  8
0
  6
BYLAYER
 62
     7
 10
350.264505
 20
-537.449821
 30
0.0
 11
352.624837
 21
-538.628814
 31
0.0
  0
LINE
  8
0
  6
BYLAYER
 62
     7
 10
350.264505
 20
-532.117677
 30
0.0
 11
351.660583
 21
-532.770716
 31
0.0
  0
LINE
  8
0
  6
BYLAYER
 62
     7
 10
350.264505
 20
-549.517820
 30
0.0
 11
358.759043
 21
-551.006463
 31
0.0
  0
LINE
  8
0
  6
BYLAYER
 62
     7
 10
350.264505
 20
-528.595563
 30
0.0
 11
351.265557
 21
-529.033226
 31
0.0
  0
LINE
  8
0
  6
BYLAYER
 62
     7
 10
346.764505
 20
-529.095563
 30
0.0
 11
346.764505
 21
-596.095563
 31
0.0
  0
LINE
  8
0
  6
BYLAYER
 62
     7
 10
546.264596
 20
-531.607831
 30
0.0
 11
546.264596
 21
-596.095563
 31
0.0
  0
LINE
  8
0
  6
BYLAYER
 62
     7
 10
528.726425
 20
-517.905509
 30
0.0
 11
546.264596
 21
-531.607831
 31
0.0
  0
ARC
  8
0
  6
BYLAYER
 62
     7
 10
525.648117
 20
-521.845563
 30
0.0
 40
5.0
 50
52.000000
 51
90.000000
  0
LINE
  8
0
  6
BYLAYER
 62
     7
 10
465.264596
 20
-516.845563
 30
0.0
 11
525.648117
 21
-516.845563
 31
0.0
  0
LINE
  8
0
  6
BYLAYER
 62
     7
 10
465.264596
 20
-516.845563
 30
0.0
 11
465.264596
 21
-596.095563
 31
0.0
  0
LINE
  8
0
  6
BYLAYER
 62
     7
 10
345.264505
 20
-518.595563
 30
0.0
 11
336.747052
 21
-518.744244
 31
0.0
  0
ARC
  8
0
  6
BYLAYER
 62
     7
 10
336.764505
 20
-519.744092
 30
0.0
 40
1.0
 50
91.000058
 51
180.000000
  0
LINE
  8
0
  6
BYLAYER
 62
     7
 10
335.764505
 20
-596.095563
 30
0.0
 11
335.764505
 21
-519.744092
 31
0.0
  0
LINE
  8
0
  6
BYLAYER
 62
     7
 10
345.264505
 20
-528.665404
 30
0.0
 11
346.764505
 21
-528.613023
 31
0.0
  0
LINE
  8
0
  6
BYLAYER
 62
     7
 10
313.264505
 20
-535.980129
 30
0.0
 11
334.989456
 21
-530.964529
 31
0.0
  0
ARC
  8
0
  6
BYLAYER
 62
     7
 10
334.764505
 20
-529.990159
 30
0.0
 40
1.000000
 50
282.999999
 51
360.000000
  0
LINE
  8
0
  6
BYLAYER
 62
     7
 10
345.264505
 20
-596.095563
 30
0.0
 11
345.264505
 21
-518.595563
 31
0.0
  0
LINE
  8
0
  6
BYLAYER
 62
     7
 10
346.764505
 20
-528.613023
 30
0.0
 11
346.764505
 21
-596.095563
 31
0.0
  0
LINE
  8
0
  6
BYLAYER
 62
     7
 10
313.264505
 20
-535.980129
 30
0.0
 11
313.264505
 21
-596.095563
 31
0.0
  0
LINE
  8
0
  6
BYLAYER
 62
     7
 10
345.264505
 20
-673.595563
 30
0.0
 11
336.747052
 21
-673.446882
 31
0.0
  0
ARC
  8
0
  6
BYLAYER
 62
     7
 10
336.764505
 20
-672.447034
 30
0.0
 40
1.0
 50
180.000000
 51
268.999942
  0
LINE
  8
0
  6
BYLAYER
 62
     7
 10
335.764505
 20
-596.095563
 30
0.0
 11
335.764505
 21
-672.447034
 31
0.0
  0
LINE
  8
0
  6
BYLAYER
 62
     7
 10
345.264505
 20
-663.525722
 30
0.0
 11
346.764505
 21
-663.578103
 31
0.0
  0
LINE
  8
0
  6
BYLAYER
 62
     7
 10
313.264505
 20
-656.210997
 30
0.0
 11
334.989456
 21
-661.226597
 31
0.0
  0
ARC
  8
0
  6
BYLAYER
 62
     7
 10
334.764505
 20
-662.200967
 30
0.0
 40
1.000000
 50
0.0
 51
77.000001
  0
LINE
  8
0
  6
BYLAYER
 62
     7
 10
345.264505
 20
-596.095563
 30
0.0
 11
345.264505
 21
-673.595563
 31
0.0
  0
LINE
  8
0
  6
BYLAYER
 62
     7
 10
346.764505
 20
-663.578103
 30
0.0
 11
346.764505
 21
-596.095563
 31
0.0
  0
LINE
  8
0
  6
BYLAYER
 62
     7
 10
313.264505
 20
-656.210997
 30
0.0
 11
313.264505
 21
-596.095563
 31
0.0
  0
LINE
  8
0
  6
BYLAYER
 62
     7
 10
525.648117
 20
-675.345563
 30
0.0
 11
525.648117
 21
-516.845563
 31
0.0
  0
LINE
  8
0
  6
BYLAYER
 62
     1
 10
241.764505
 20
-282.095563
 30
0.0
 11
241.764505
 21
-272.095563
 31
0.0
  0
LINE
  8
0
  6
BYLAYER
 62
     1
 10
286.764505
 20
-237.095563
 30
0.0
 11
276.764505
 21
-237.095563
 31
0.0
  0
LINE
  8
0
  6
BYLAYER
 62
     1
 10
285.264505
 20
-235.595563
 30
0.0
 11
286.764505
 21
-237.095563
 31
0.0
  0
LINE
  8
0
  6
BYLAYER
 62
     1
 10
286.764505
 20
-237.095563
 30
0.0
 11
286.764505
 21
-280.095563
 31
0.0
  0
LINE
  8
0
  6
BYLAYER
 62
     1
 10
286.764505
 20
-280.095563
 30
0.0
 11
284.764505
 21
-282.095563
 31
0.0
  0
LINE
  8
0
  6
BYLAYER
 62
     1
 10
286.764505
 20
-280.095563
 30
0.0
 11
284.764505
 21
-282.095563
 31
0.0
  0
LINE
  8
0
  6
BYLAYER
 62
     1
 10
240.264505
 20
-280.595563
 30
0.0
 11
241.764505
 21
-282.095563
 31
0.0
  0
LINE
  8
0
  6
BYLAYER
 62
     1
 10
241.764505
 20
-282.095563
 30
0.0
 11
284.764505
 21
-282.095563
 31
0.0
  0
LINE
  8
0
  6
BYLAYER
 62
     1
 10
114.764505
 20
-237.095563
 30
0.0
 11
114.764505
 21
-280.095563
 31
0.0
  0
LINE
  8
0
  6
BYLAYER
 62
     1
 10
159.764505
 20
-282.095563
 30
0.0
 11
159.764505
 21
-272.095563
 31
0.0
  0
LINE
  8
0
  6
BYLAYER
 62
     1
 10
161.264505
 20
-280.595563
 30
0.0
 11
159.764505
 21
-282.095563
 31
0.0
  0
LINE
  8
0
  6
BYLAYER
 62
     1
 10
159.764505
 20
-282.095563
 30
0.0
 11
116.764505
 21
-282.095563
 31
0.0
  0
LINE
  8
0
  6
BYLAYER
 62
     1
 10
114.764505
 20
-280.095563
 30
0.0
 11
116.764505
 21
-282.095563
 31
0.0
  0
LINE
  8
0
  6
BYLAYER
 62
     1
 10
114.764505
 20
-237.095563
 30
0.0
 11
124.764505
 21
-237.095563
 31
0.0
  0
LINE
  8
0
  6
BYLAYER
 62
     1
 10
116.264505
 20
-235.595563
 30
0.0
 11
114.764505
 21
-237.095563
 31
0.0
  0
LINE
  8
0
  6
BYLAYER
 62
     1
 10
135.264505
 20
-272.095563
 30
0.0
 11
135.264505
 21
-282.095563
 31
0.0
  0
LINE
  8
0
  6
BYLAYER
 62
     1
 10
255.514505
 20
-272.095563
 30
0.0
 11
255.514505
 21
-282.095563
 31
0.0
  0
LINE
  8
0
  6
BYLAYER
 62
     1
 10
266.514505
 20
-272.095563
 30
0.0
 11
266.514505
 21
-282.095563
 31
0.0
  0
LINE
  8
0
  6
BYLAYER
 62
     1
 10
280.264505
 20
-282.095563
 30
0.0
 11
279.264505
 21
-282.095563
 31
0.0
  0
LINE
  8
0
  6
BYLAYER
 62
     1
 10
116.264505
 20
-182.095563
 30
0.0
 11
116.264505
 21
-235.595563
 31
0.0
  0
LINE
  8
0
  6
BYLAYER
 62
     1
 10
285.264505
 20
-182.095563
 30
0.0
 11
285.264505
 21
-235.595563
 31
0.0
  0
LINE
  8
0
  6
BYLAYER
 62
     1
 10
184.069986
 20
-117.345685
 30
0.0
 11
162.014505
 21
-117.345685
 31
0.0
  0
LINE
  8
0
  6
BYLAYER
 62
     1
 10
200.764505
 20
-114.845685
 30
0.0
 11
162.014505
 21
-114.845685
 31
0.0
  0
ARC
  8
0
  6
BYLAYER
 62
     1
 10
162.014505
 20
-116.095685
 30
0.0
 40
1.25
 50
90.0
 51
270.000005
  0
LINE
  8
0
  6
BYLAYER
 62
     1
 10
200.764505
 20
-114.845685
 30
0.0
 11
239.514505
 21
-114.845685
 31
0.0
  0
ARC
  8
0
  6
BYLAYER
 62
     1
 10
239.514505
 20
-116.095685
 30
0.0
 40
1.25
 50
270.0
 51
450.000005
  0
ARC
  8
0
  6
BYLAYER
 62
     1
 10
125.764505
 20
-123.845685
 30
0.0
 40
1.0
 50
180.000000
 51
269.999996
  0
ARC
  8
0
  6
BYLAYER
 62
     1
 10
125.764505
 20
-128.345685
 30
0.0
 40
1.000000
 50
90.0
 51
180.000003
  0
ARC
  8
0
  6
BYLAYER
 62
     1
 10
154.514505
 20
-136.095685
 30
0.0
 40
1.25
 50
270.0
 51
450.000005
  0
ARC
  8
0
  6
BYLAYER
 62
     1
 10
125.764505
 20
-138.345685
 30
0.0
 40
1.000000
 50
90.0
 51
180.000003
  0
ARC
  8
0
  6
BYLAYER
 62
     1
 10
125.764505
 20
-143.845685
 30
0.0
 40
1.0
 50
180.000000
 51
269.999996
  0
LINE
  8
0
  6
BYLAYER
 62
     1
 10
144.514444
 20
-144.845685
 30
0.0
 11
125.764505
 21
-144.845685
 31
0.0
  0
ARC
  8
0
  6
BYLAYER
 62
     1
 10
144.514444
 20
-146.095685
 30
0.0
 40
1.25
 50
270.0
 51
450.000005
  0
LINE
  8
0
  6
BYLAYER
 62
     1
 10
154.514505
 20
-134.845685
 30
0.0
 11
125.764505
 21
-134.845685
 31
0.0
  0
LINE
  8
0
  6
BYLAYER
 62
     1
 10
154.514505
 20
-137.345685
 30
0.0
 11
125.764505
 21
-137.345685
 31
0.0
  0
LINE
  8
0
  6
BYLAYER
 62
     1
 10
125.764505
 20
-127.345685
 30
0.0
 11
159.864359
 21
-127.345685
 31
0.0
  0
LINE
  8
0
  6
BYLAYER
 62
     1
 10
125.764505
 20
-124.845685
 30
0.0
 11
159.864359
 21
-124.845685
 31
0.0
  0
LINE
  8
0
  6
BYLAYER
 62
     1
 10
247.014261
 20
-134.845685
 30
0.0
 11
275.764505
 21
-134.845685
 31
0.0
  0
LINE
  8
0
  6
BYLAYER
 62
     1
 10
247.014261
 20
-137.345685
 30
0.0
 11
275.764505
 21
-137.345685
 31
0.0
  0
ARC
  8
0
  6
BYLAYER
 62
     1
 10
247.014261
 20
-136.095685
 30
0.0
 40
1.25
 50
90.0
 51
270.000005
  0
LINE
  8
0
  6
BYLAYER
 62
     1
 10
257.014322
 20
-147.345685
 30
0.0
 11
275.764505
 21
-147.345685
 31
0.0
  0
ARC
  8
0
  6
BYLAYER
 62
     1
 10
257.014322
 20
-146.095685
 30
0.0
 40
1.25
 50
90.0
 51
270.000005
  0
ARC
  8
0
  6
BYLAYER
 62
     1
 10
275.764505
 20
-138.345685
 30
0.0
 40
1.0
 50
0.0
 51
90.000016
  0
ARC
  8
0
  6
BYLAYER
 62
     1
 10
275.764505
 20
-138.345685
 30
0.0
 40
1.0
 50
0.0
 51
90.000016
  0
ARC
  8
0
  6
BYLAYER
 62
     1
 10
275.764505
 20
-148.345685
 30
0.0
 40
1.0
 50
0.0
 51
90.000016
  0
ARC
  8
0
  6
BYLAYER
 62
     1
 10
125.764505
 20
-133.845685
 30
0.0
 40
1.0
 50
180.000000
 51
270.000009
  0
ARC
  8
0
  6
BYLAYER
 62
     1
 10
275.764505
 20
-133.845685
 30
0.0
 40
1.000000
 50
270.0
 51
360.000003
  0
ARC
  8
0
  6
BYLAYER
 62
     1
 10
275.764505
 20
-143.845685
 30
0.0
 40
1.0
 50
270.0
 51
359.999982
  0
LINE
  8
0
  6
BYLAYER
 62
     1
 10
286.764505
 20
-260.595563
 30
0.0
 11
276.764505
 21
-260.595563
 31
0.0
  0
LINE
  8
0
  6
BYLAYER
 62
     1
 10
286.764505
 20
-249.595563
 30
0.0
 11
276.764505
 21
-249.595563
 31
0.0
  0
LINE
  8
0
  6
BYLAYER
 62
     1
 10
146.264505
 20
-272.095563
 30
0.0
 11
146.264505
 21
-282.095563
 31
0.0
  0
LINE
  8
0
  6
BYLAYER
 62
     1
 10
217.459024
 20
-117.345685
 30
0.0
 11
239.514505
 21
-117.345685
 31
0.0
  0
LINE
  8
0
  6
BYLAYER
 62
     1
 10
241.764505
 20
-77.095563
 30
0.0
 11
284.764505
 21
-77.095563
 31
0.0
  0
LINE
  8
0
  6
BYLAYER
 62
     1
 10
159.764505
 20
-77.095563
 30
0.0
 11
159.764505
 21
-87.095563
 31
0.0
  0
LINE
  8
0
  6
BYLAYER
 62
     1
 10
161.264505
 20
-78.595563
 30
0.0
 11
200.764505
 21
-78.595563
 31
0.0
  0
LINE
  8
0
  6
BYLAYER
 62
     1
 10
240.264505
 20
-78.595563
 30
0.0
 11
200.764505
 21
-78.595563
 31
0.0
  0
LINE
  8
0
  6
BYLAYER
 62
     1
 10
240.264505
 20
-78.595563
 30
0.0
 11
240.264505
 21
-87.095563
 31
0.0
  0
LINE
  8
0
  6
BYLAYER
 62
     1
 10
241.764505
 20
-77.095563
 30
0.0
 11
241.764505
 21
-87.095563
 31
0.0
  0
LINE
  8
0
  6
BYLAYER
 62
     1
 10
159.764505
 20
-77.095563
 30
0.0
 11
116.764505
 21
-77.095563
 31
0.0
  0
LINE
  8
0
  6
BYLAYER
 62
     1
 10
241.764505
 20
-77.095563
 30
0.0
 11
241.764505
 21
-87.095563
 31
0.0
  0
LINE
  8
0
  6
BYLAYER
 62
     1
 10
114.764505
 20
-79.095685
 30
0.0
 11
116.764505
 21
-77.095685
 31
0.0
  0
LINE
  8
0
  6
BYLAYER
 62
     1
 10
240.264505
 20
-78.595563
 30
0.0
 11
241.764505
 21
-77.095563
 31
0.0
  0
LINE
  8
0
  6
BYLAYER
 62
     1
 10
161.264505
 20
-78.595563
 30
0.0
 11
159.764505
 21
-77.095563
 31
0.0
  0
LINE
  8
0
  6
BYLAYER
 62
     1
 10
286.764505
 20
-79.095685
 30
0.0
 11
284.764505
 21
-77.095563
 31
0.0
  0
ARC
  8
0
  6
BYLAYER
 62
     1
 10
274.764505
 20
-89.095685
 30
0.0
 40
2.000000
 50
0.0
 51
89.999996
  0
LINE
  8
0
  6
BYLAYER
 62
     1
 10
114.764505
 20
-108.595563
 30
0.0
 11
124.764505
 21
-108.595563
 31
0.0
  0
LINE
  8
0
  6
BYLAYER
 62
     1
 10
114.764505
 20
-97.595563
 30
0.0
 11
124.764505
 21
-97.595563
 31
0.0
  0
LINE
  8
0
  6
BYLAYER
 62
     1
 10
114.764505
 20
-250.595563
 30
0.0
 11
124.764505
 21
-250.595563
 31
0.0
  0
LINE
  8
0
  6
BYLAYER
 62
     1
 10
114.764505
 20
-261.595563
 30
0.0
 11
124.764505
 21
-261.595563
 31
0.0
  0
LINE
  8
0
  6
BYLAYER
 62
     1
 10
288.764505
 20
-126.845685
 30
0.0
 11
288.764505
 21
-106.345685
 31
0.0
  0
LINE
  8
0
  6
BYLAYER
 62
     1
 10
161.264505
 20
-87.095685
 30
0.0
 11
161.264505
 21
-78.595563
 31
0.0
  0
ARC
  8
0
  6
BYLAYER
 62
     1
 10
275.764505
 20
-271.095563
 30
0.0
 40
1.0
 50
270.0
 51
360.000003
  0
ARC
  8
0
  6
BYLAYER
 62
     1
 10
125.764505
 20
-271.095563
 30
0.0
 40
1.0
 50
180.000000
 51
269.999996
  0
LINE
  8
0
  6
BYLAYER
 62
     1
 10
146.514505
 20
-87.095685
 30
0.0
 11
146.514505
 21
-77.095563
 31
0.0
  0
LINE
  8
0
  6
BYLAYER
 62
     1
 10
135.014505
 20
-87.095685
 30
0.0
 11
135.014505
 21
-77.095563
 31
0.0
  0
LINE
  8
0
  6
BYLAYER
 62
     1
 10
255.014505
 20
-87.095685
 30
0.0
 11
255.014505
 21
-77.095563
 31
0.0
  0
LINE
  8
0
  6
BYLAYER
 62
     1
 10
266.514505
 20
-87.095685
 30
0.0
 11
266.514505
 21
-77.095563
 31
0.0
  0
ARC
  8
0
  6
BYLAYER
 62
     1
 10
242.010355
 20
-126.095685
 30
0.0
 40
1.25
 50
90.0
 51
270.000005
  0
ARC
  8
0
  6
BYLAYER
 62
     1
 10
159.548502
 20
-126.095685
 30
0.0
 40
1.25
 50
270.0
 51
450.000005
  0
LINE
  8
0
  6
BYLAYER
 62
     1
 10
286.764505
 20
-122.095685
 30
0.0
 11
276.764505
 21
-122.095685
 31
0.0
  0
LINE
  8
0
  6
BYLAYER
 62
     1
 10
285.264505
 20
-123.595685
 30
0.0
 11
286.764505
 21
-122.095685
 31
0.0
  0
LINE
  8
0
  6
BYLAYER
 62
     1
 10
285.264505
 20
-123.595685
 30
0.0
 11
285.264505
 21
-182.095563
 31
0.0
  0
LINE
  8
0
  6
BYLAYER
 62
     1
 10
286.764505
 20
-79.095685
 30
0.0
 11
286.764505
 21
-122.095685
 31
0.0
  0
LINE
  8
0
  6
BYLAYER
 62
     1
 10
114.764505
 20
-122.095685
 30
0.0
 11
124.764505
 21
-122.095685
 31
0.0
  0
LINE
  8
0
  6
BYLAYER
 62
     1
 10
116.264505
 20
-123.595685
 30
0.0
 11
114.764505
 21
-122.095685
 31
0.0
  0
LINE
  8
0
  6
BYLAYER
 62
     1
 10
116.264505
 20
-123.595685
 30
0.0
 11
116.264505
 21
-182.095563
 31
0.0
  0
LINE
  8
0
  6
BYLAYER
 62
     1
 10
274.764505
 20
-87.095685
 30
0.0
 11
126.764505
 21
-87.095685
 31
0.0
  0
LINE
  8
0
  6
BYLAYER
 62
     1
 10
285.264505
 20
-123.595685
 30
0.0
 11
276.764505
 21
-123.595685
 31
0.0
  0
LINE
  8
0
  6
BYLAYER
 62
     1
 10
285.264505
 20
-235.595563
 30
0.0
 11
276.764505
 21
-235.595563
 31
0.0
  0
LINE
  8
0
  6
BYLAYER
 62
     1
 10
161.264505
 20
-280.595563
 30
0.0
 11
161.264505
 21
-272.095563
 31
0.0
  0
LINE
  8
0
  6
BYLAYER
 62
     1
 10
240.264505
 20
-272.095563
 30
0.0
 11
240.264505
 21
-280.595563
 31
0.0
  0
LINE
  8
0
  6
BYLAYER
 62
     1
 10
116.264505
 20
-235.595563
 30
0.0
 11
124.764505
 21
-235.595563
 31
0.0
  0
LINE
  8
0
  6
BYLAYER
 62
     1
 10
124.764505
 20
-123.595685
 30
0.0
 11
116.264505
 21
-123.595685
 31
0.0
  0
LINE
  8
0
  6
BYLAYER
 62
     1
 10
240.264505
 20
-280.595563
 30
0.0
 11
161.264505
 21
-280.595563
 31
0.0
  0
LINE
  8
0
  6
BYLAYER
 62
     1
 10
124.764505
 20
-166.292035
 30
0.0
 11
124.764505
 21
-89.095685
 31
0.0
  0
LINE
  8
0
  6
BYLAYER
 62
     1
 10
124.764505
 20
-89.095685
 30
0.0
 11
126.764505
 21
-87.095685
 31
0.0
  0
ARC
  8
0
  6
BYLAYER
 62
     1
 10
122.764505
 20
-166.292035
 30
0.0
 40
2.000004
 50
339.088047
 51
360.0
  0
ARC
  8
0
  6
BYLAYER
 62
     1
 10
200.764505
 20
-196.095563
 30
0.0
 40
81.5
 50
159.088329
 51
200.911681
  0
LINE
  8
0
  6
BYLAYER
 62
     1
 10
124.764505
 20
-225.899091
 30
0.0
 11
124.764505
 21
-271.095563
 31
0.0
  0
ARC
  8
0
  6
BYLAYER
 62
     1
 10
122.764505
 20
-225.899091
 30
0.0
 40
2.000004
 50
0.0
 51
20.911958
  0
LINE
  8
0
  6
BYLAYER
 62
     1
 10
125.764505
 20
-272.095563
 30
0.0
 11
170.960977
 21
-272.095563
 31
0.0
  0
ARC
  8
0
  6
BYLAYER
 62
     1
 10
170.960977
 20
-274.095563
 30
0.0
 40
2.0
 50
69.087962
 51
90.000000
  0
ARC
  8
0
  6
BYLAYER
 62
     1
 10
200.764505
 20
-196.095563
 30
0.0
 40
81.500008
 50
249.088338
 51
290.911690
  0
LINE
  8
0
  6
BYLAYER
 62
     1
 10
230.568033
 20
-272.095563
 30
0.0
 11
275.764505
 21
-272.095563
 31
0.0
  0
ARC
  8
0
  6
BYLAYER
 62
     1
 10
230.568033
 20
-274.095563
 30
0.0
 40
1.999991
 50
90.0
 51
110.911628
  0
LINE
  8
0
  6
BYLAYER
 62
     1
 10
276.764505
 20
-225.899091
 30
0.0
 11
276.764505
 21
-271.095563
 31
0.0
  0
ARC
  8
0
  6
BYLAYER
 62
     1
 10
278.764505
 20
-225.899091
 30
0.0
 40
2.0
 50
159.087955
 51
180.000000
  0
LINE
  8
0
  6
BYLAYER
 62
     1
 10
276.764505
 20
-166.292035
 30
0.0
 11
276.764505
 21
-88.595685
 31
0.0
  0
ARC
  8
0
  6
BYLAYER
 62
     1
 10
200.764505
 20
-196.095563
 30
0.0
 40
81.500008
 50
339.08832
 51
380.911693
  0
ARC
  8
0
  6
BYLAYER
 62
     1
 10
278.764505
 20
-166.292005
 30
0.0
 40
2.000000
 50
180.000000
 51
200.912031
  0
ARC
  8
0
  6
BYLAYER
 62
     1
 10
128.764505
 20
-268.095563
 30
0.0
 40
1.0
 50
180.000000
 51
269.999996
  0
LINE
  8
0
  6
BYLAYER
 62
     1
 10
273.764505
 20
-237.095563
 30
0.0
 11
273.764505
 21
-268.095563
 31
0.0
  0
ARC
  8
0
  6
BYLAYER
 62
     1
 10
272.764505
 20
-268.095563
 30
0.0
 40
1.0
 50
270.0
 51
360.000003
  0
LINE
  8
0
  6
BYLAYER
 62
     1
 10
128.057413
 20
-268.802686
 30
0.0
 11
125.057413
 21
-271.802686
 31
0.0
  0
LINE
  8
0
  6
BYLAYER
 62
     1
 10
273.471597
 20
-268.802686
 30
0.0
 11
276.471597
 21
-271.802686
 31
0.0
  0
ARC
  8
0
  6
BYLAYER
 62
     1
 10
125.764505
 20
-148.345685
 30
0.0
 40
1.000000
 50
90.0
 51
179.999989
  0
LINE
  8
0
  6
BYLAYER
 62
     1
 10
144.514444
 20
-147.345685
 30
0.0
 11
125.764505
 21
-147.345685
 31
0.0
  0
ARC
  8
0
  6
BYLAYER
 62
     1
 10
270.764505
 20
-116.095563
 30
0.0
 40
2.000000
 50
90.0
 51
180.000003
  0
LINE
  8
0
  6
BYLAYER
 62
     1
 10
268.764505
 20
-116.095563
 30
0.0
 11
268.764505
 21
-126.095563
 31
0.0
  0
ARC
  8
0
  6
BYLAYER
 62
     1
 10
270.764505
 20
-126.095563
 30
0.0
 40
2.000000
 50
180.000000
 51
269.999996
  0
LINE
  8
0
  6
BYLAYER
 62
     1
 10
270.764505
 20
-128.095563
 30
0.0
 11
274.764505
 21
-128.095563
 31
0.0
  0
ARC
  8
0
  6
BYLAYER
 62
     1
 10
274.764505
 20
-130.095563
 30
0.0
 40
2.000000
 50
0.0
 51
90.000003
  0
LINE
  8
0
  6
BYLAYER
 62
     1
 10
270.764505
 20
-114.095563
 30
0.0
 11
274.764505
 21
-114.095563
 31
0.0
  0
ARC
  8
0
  6
BYLAYER
 62
     1
 10
274.764505
 20
-112.095563
 30
0.0
 40
2.0
 50
270.0
 51
360.000003
  0
LINE
  8
0
  6
BYLAYER
 62
     1
 10
268.780313
 20
-127.345685
 30
0.0
 11
242.010355
 21
-127.345685
 31
0.0
  0
ARC
  8
0
  6
BYLAYER
 62
     1
 10
268.780313
 20
-128.345685
 30
0.0
 40
1.000026
 50
48.593996
 51
90.000003
  0
LINE
  8
0
  6
BYLAYER
 62
     1
 10
267.764505
 20
-124.845685
 30
0.0
 11
242.010355
 21
-124.845685
 31
0.0
  0
ARC
  8
0
  6
BYLAYER
 62
     1
 10
267.764505
 20
-123.845685
 30
0.0
 40
1.0
 50
270.0
 51
360.000003
  0
LINE
  8
0
  6
BYLAYER
 62
     1
 10
235.175333
 20
-269.095563
 30
0.0
 11
272.764505
 21
-269.095563
 31
0.0
  0
LINE
  8
0
  6
BYLAYER
 62
     1
 10
273.764505
 20
-230.506421
 30
0.0
 11
273.764505
 21
-268.095563
 31
0.0
  0
LINE
  8
0
  6
BYLAYER
 62
     1
 10
127.764505
 20
-230.506421
 30
0.0
 11
127.764505
 21
-268.095563
 31
0.0
  0
LINE
  8
0
  6
BYLAYER
 62
     1
 10
128.764505
 20
-269.095563
 30
0.0
 11
166.353616
 21
-269.095563
 31
0.0
  0
LINE
  8
0
  6
BYLAYER
 62
     1
 10
288.764505
 20
-163.602552
 30
0.0
 11
288.764505
 21
-78.588574
 31
0.0
  0
LINE
  8
0
  6
BYLAYER
 62
     1
 10
288.764505
 20
-163.602552
 30
0.0
 11
285.264505
 21
-163.724774
 31
0.0
  0
LINE
  8
0
  6
BYLAYER
 62
     1
 10
288.764505
 20
-78.588574
 30
0.0
 11
286.166727
 21
-78.497846
 31
0.0
  0
LINE
  8
0
  6
BYLAYER
 62
     1
 10
114.764505
 20
-155.319562
 30
0.0
 11
114.764505
 21
-79.095685
 31
0.0
  0
LINE
  8
0
  6
BYLAYER
 62
     1
 10
114.764505
 20
-155.319562
 30
0.0
 11
116.264505
 21
-155.371930
 31
0.0
  0
LINE
  8
0
  6
BYLAYER
 62
     1
 10
275.764505
 20
-144.845685
 30
0.0
 11
257.014322
 21
-144.845685
 31
0.0
  0
ARC
  8
0
  6
BYLAYER
 62
     1
 10
162.449197
 20
-139.917829
 30
0.0
 40
2.000066
 50
61.945103
 51
124.296261
  0
ARC
  8
0
  6
BYLAYER
 62
     1
 10
188.133768
 20
-129.278913
 30
0.0
 40
1.999995
 50
100.705532
 51
163.055904
  0
ARC
  8
0
  6
BYLAYER
 62
     1
 10
200.764505
 20
-196.095563
 30
0.0
 40
69.999878
 50
79.295443
 51
100.704664
  0
ARC
  8
0
  6
BYLAYER
 62
     1
 10
213.395120
 20
-129.278913
 30
0.0
 40
1.9999
 50
16.944094
 51
79.294466
  0
ARC
  8
0
  6
BYLAYER
 62
     1
 10
239.079630
 20
-139.917829
 30
0.0
 40
1.999928
 50
55.705179
 51
118.056036
  0
ARC
  8
0
  6
BYLAYER
 62
     1
 10
267.581033
 20
-208.726422
 30
0.0
 40
2.000030
 50
286.944361
 51
349.295492
  0
ARC
  8
0
  6
BYLAYER
 62
     1
 10
256.942178
 20
-234.410993
 30
0.0
 40
2.000036
 50
325.704454
 51
388.055618
  0
ARC
  8
0
  6
BYLAYER
 62
     1
 10
200.764505
 20
-196.095563
 30
0.0
 40
69.999969
 50
304.295309
 51
325.704537
  0
ARC
  8
0
  6
BYLAYER
 62
     1
 10
239.079691
 20
-252.273419
 30
0.0
 40
2.000036
 50
241.943960
 51
304.294326
  0
ARC
  8
0
  6
BYLAYER
 62
     1
 10
213.395120
 20
-262.912213
 30
0.0
 40
2.000139
 50
280.705366
 51
343.055895
  0
ARC
  8
0
  6
BYLAYER
 62
     1
 10
200.764505
 20
-196.095563
 30
0.0
 40
70.000023
 50
259.295346
 51
280.704546
  0
ARC
  8
0
  6
BYLAYER
 62
     1
 10
188.133707
 20
-262.912213
 30
0.0
 40
2.000007
 50
196.944598
 51
259.296193
  0
ARC
  8
0
  6
BYLAYER
 62
     1
 10
162.449197
 20
-252.273419
 30
0.0
 40
2.000031
 50
235.705676
 51
298.056041
  0
ARC
  8
0
  6
BYLAYER
 62
     1
 10
200.764505
 20
-196.095563
 30
0.0
 40
70.000069
 50
214.295423
 51
235.704610
  0
ARC
  8
0
  6
BYLAYER
 62
     1
 10
144.586710
 20
-234.410993
 30
0.0
 40
2.000036
 50
151.944375
 51
214.295546
  0
ARC
  8
0
  6
BYLAYER
 62
     1
 10
133.947794
 20
-208.726422
 30
0.0
 40
2.000008
 50
190.70451
 51
253.05564
  0
ARC
  8
0
  6
BYLAYER
 62
     1
 10
200.764505
 20
-196.095563
 30
0.0
 40
70.000046
 50
169.295473
 51
190.704646
  0
ARC
  8
0
  6
BYLAYER
 62
     1
 10
133.947794
 20
-183.464948
 30
0.0
 40
2.000008
 50
106.944349
 51
169.295487
  0
ARC
  8
0
  6
BYLAYER
 62
     1
 10
144.586710
 20
-157.780377
 30
0.0
 40
2.000036
 50
145.704450
 51
208.055622
  0
ARC
  8
0
  6
BYLAYER
 62
     1
 10
200.764505
 20
-196.095563
 30
0.0
 40
70.0
 50
124.295441
 51
145.704587
  0
ARC
  8
0
  6
BYLAYER
 62
     1
 10
200.764505
 20
-196.095563
 30
0.0
 40
80.5
 50
154.482405
 51
205.517595
  0
ARC
  8
0
  6
BYLAYER
 62
     1
 10
129.921915
 20
-162.278699
 30
0.0
 40
2.000000
 50
105.0
 51
154.482405
  0
ARC
  8
0
  6
BYLAYER
 62
     1
 10
200.764505
 20
-196.095563
 30
0.0
 40
80.5
 50
244.482414
 51
295.517604
  0
ARC
  8
0
  6
BYLAYER
 62
     1
 10
200.764505
 20
-196.095563
 30
0.0
 40
80.5
 50
64.482402
 51
115.517593
  0
ARC
  8
0
  6
BYLAYER
 62
     1
 10
234.581400
 20
-125.253003
 30
0.0
 40
2.000000
 50
14.999997
 51
64.482402
  0
ARC
  8
0
  6
BYLAYER
 62
     1
 10
200.764505
 20
-196.095563
 30
0.0
 40
80.5
 50
334.482396
 51
385.517587
  0
ARC
  8
0
  6
BYLAYER
 62
     1
 10
200.764505
 20
-196.095563
 30
0.0
 40
47.5
 50
22.499997
 51
374.817192
  0
ARC
  8
0
  6
BYLAYER
 62
     1
 10
200.764505
 20
-196.095563
 30
0.0
 40
47.500004
 50
14.817201
 51
22.499997
  0
ARC
  8
0
  6
BYLAYER
 62
     1
 10
272.827005
 20
-225.944928
 30
0.0
 40
16.000019
 50
106.944527
 51
208.056127
  0
ARC
  8
0
  6
BYLAYER
 62
     1
 10
230.613748
 20
-268.158307
 30
0.0
 40
16.000034
 50
61.944358
 51
163.055330
  0
ARC
  8
0
  6
BYLAYER
 62
     1
 10
170.915140
 20
-268.158307
 30
0.0
 40
16.000015
 50
16.944695
 51
118.055640
  0
ARC
  8
0
  6
BYLAYER
 62
     1
 10
128.701883
 20
-225.944928
 30
0.0
 40
15.999969
 50
331.943912
 51
433.055724
  0
ARC
  8
0
  6
BYLAYER
 62
     1
 10
170.915140
 20
-124.033063
 30
0.0
 40
15.999943
 50
241.944206
 51
343.056032
  0
ARC
  8
0
  6
BYLAYER
 62
     1
 10
230.613748
 20
-124.033063
 30
0.0
 40
16.000040
 50
196.943969
 51
298.055604
  0
ARC
  8
0
  6
BYLAYER
 62
     1
 10
128.701883
 20
-166.246442
 30
0.0
 40
16.000046
 50
286.944222
 51
388.056081
  0
ARC
  8
0
  6
BYLAYER
 62
     1
 10
256.942178
 20
-157.780255
 30
0.0
 40
1.999947
 50
331.944107
 51
394.294465
  0
ARC
  8
0
  6
BYLAYER
 62
     1
 10
267.581033
 20
-183.464795
 30
0.0
 40
1.999925
 50
10.705174
 51
73.056031
  0
ARC
  8
0
  6
BYLAYER
 62
     1
 10
200.764505
 20
-196.095563
 30
0.0
 40
69.999832
 50
34.295490
 51
55.704670
  0
ARC
  8
0
  6
BYLAYER
 62
     1
 10
200.764505
 20
-196.095563
 30
0.0
 40
69.999840
 50
349.295164
 51
370.704686
  0
ARC
  8
0
  6
BYLAYER
 62
     1
 10
272.827005
 20
-166.246289
 30
0.0
 40
16.000053
 50
230.812200
 51
253.055476
  0
ARC
  8
0
  6
BYLAYER
 62
     1
 10
272.827005
 20
-166.246289
 30
0.0
 40
16.000072
 50
151.943965
 51
174.188129
  0
ARC
  8
0
  6
BYLAYER
 62
     1
 10
272.827005
 20
-166.246289
 30
0.0
 40
16.000027
 50
174.188211
 51
230.812255
  0
LINE
  8
0
  6
BYLAYER
 62
     1
 10
272.124734
 20
-231.844281
 30
0.0
 11
262.302530
 21
-234.476117
 31
0.0
  0
ARC
  8
0
  6
BYLAYER
 62
     1
 10
271.607095
 20
-229.912427
 30
0.0
 40
2.0
 50
284.999998
 51
334.482403
  0
LINE
  8
0
  6
BYLAYER
 62
     1
 10
239.145059
 20
-257.633618
 30
0.0
 11
236.513223
 21
-267.455762
 31
0.0
  0
ARC
  8
0
  6
BYLAYER
 62
     1
 10
234.581400
 20
-266.938123
 30
0.0
 40
2.0
 50
295.517608
 51
345.000013
  0
ARC
  8
0
  6
BYLAYER
 62
     1
 10
200.764505
 20
-196.095563
 30
0.0
 40
72.0
 50
303.008420
 51
326.991564
  0
ARC
  8
0
  6
BYLAYER
 62
     1
 10
262.820169
 20
-236.407971
 30
0.0
 40
2.0
 50
105.000000
 51
146.991572
  0
ARC
  8
0
  6
BYLAYER
 62
     1
 10
241.076944
 20
-258.151258
 30
0.0
 40
2.000000
 50
123.008428
 51
165.000001
  0
LINE
  8
0
  6
BYLAYER
 62
     1
 10
236.513223
 20
-124.735364
 30
0.0
 11
239.145059
 21
-134.557508
 31
0.0
  0
LINE
  8
0
  6
BYLAYER
 62
     1
 10
262.302530
 20
-157.715009
 30
0.0
 11
272.124734
 21
-160.346845
 31
0.0
  0
ARC
  8
0
  6
BYLAYER
 62
     1
 10
271.607095
 20
-162.278699
 30
0.0
 40
2.000000
 50
25.517594
 51
74.999999
  0
ARC
  8
0
  6
BYLAYER
 62
     1
 10
200.764505
 20
-196.095563
 30
0.0
 40
72.000000
 50
33.008429
 51
56.991573
  0
ARC
  8
0
  6
BYLAYER
 62
     1
 10
241.076944
 20
-134.039868
 30
0.0
 40
2.0
 50
195.000009
 51
236.991582
  0
ARC
  8
0
  6
BYLAYER
 62
     1
 10
262.820169
 20
-155.783155
 30
0.0
 40
2.0
 50
213.008424
 51
254.999997
  0
LINE
  8
0
  6
BYLAYER
 62
     1
 10
129.404276
 20
-160.346845
 30
0.0
 11
139.226419
 21
-157.715009
 31
0.0
  0
LINE
  8
0
  6
BYLAYER
 62
     1
 10
162.383951
 20
-134.557508
 30
0.0
 11
165.015787
 21
-124.735364
 31
0.0
  0
ARC
  8
0
  6
BYLAYER
 62
     1
 10
166.947610
 20
-125.253003
 30
0.0
 40
2.0
 50
115.517589
 51
164.999994
  0
ARC
  8
0
  6
BYLAYER
 62
     1
 10
200.764505
 20
-196.095563
 30
0.0
 40
72.000000
 50
123.008428
 51
146.991572
  0
ARC
  8
0
  6
BYLAYER
 62
     1
 10
138.708780
 20
-155.783155
 30
0.0
 40
2.0
 50
284.999991
 51
326.991564
  0
ARC
  8
0
  6
BYLAYER
 62
     1
 10
160.452066
 20
-134.039868
 30
0.0
 40
2.000000
 50
303.008420
 51
344.999993
  0
LINE
  8
0
  6
BYLAYER
 62
     1
 10
165.015787
 20
-267.455762
 30
0.0
 11
162.383951
 21
-257.633618
 31
0.0
  0
ARC
  8
0
  6
BYLAYER
 62
     1
 10
166.947610
 20
-266.938123
 30
0.0
 40
2.000000
 50
195.000002
 51
244.482407
  0
LINE
  8
0
  6
BYLAYER
 62
     1
 10
139.226419
 20
-234.476117
 30
0.0
 11
129.404276
 21
-231.844281
 31
0.0
  0
ARC
  8
0
  6
BYLAYER
 62
     1
 10
129.921915
 20
-229.912427
 30
0.0
 40
2.000000
 50
205.517599
 51
255.000004
  0
ARC
  8
0
  6
BYLAYER
 62
     1
 10
200.764505
 20
-196.095563
 30
0.0
 40
72.0
 50
213.008424
 51
236.991568
  0
ARC
  8
0
  6
BYLAYER
 62
     1
 10
160.452066
 20
-258.151258
 30
0.0
 40
2.0
 50
15.000000
 51
56.991573
  0
ARC
  8
0
  6
BYLAYER
 62
     1
 10
138.708780
 20
-236.407971
 30
0.0
 40
2.0
 50
33.008429
 51
75.000002
  0
ARC
  8
0
  6
BYLAYER
 62
     1
 10
160.105814
 20
-155.436872
 30
0.0
 40
4.0
 50
270.0
 51
540.0
  0
CIRCLE
  8
0
  6
BYLAYER
 62
     1
 10
160.105814
 20
-155.436872
 30
0.0
 40
3.5
  0
ARC
  8
0
  6
BYLAYER
 62
     1
 10
200.764505
 20
-138.595563
 30
0.0
 40
4.0
 50
270.0
 51
540.0
  0
CIRCLE
  8
0
  6
BYLAYER
 62
     1
 10
200.764505
 20
-138.595563
 30
0.0
 40
3.5
  0
ARC
  8
0
  6
BYLAYER
 62
     1
 10
241.423074
 20
-155.437116
 30
0.0
 40
4.0
 50
270.0
 51
540.0
  0
CIRCLE
  8
0
  6
BYLAYER
 62
     1
 10
241.423074
 20
-155.437116
 30
0.0
 40
3.5
  0
ARC
  8
0
  6
BYLAYER
 62
     1
 10
258.264505
 20
-196.095563
 30
0.0
 40
4.0
 50
270.0
 51
540.0
  0
CIRCLE
  8
0
  6
BYLAYER
 62
     1
 10
258.264505
 20
-196.095563
 30
0.0
 40
3.5
  0
ARC
  8
0
  6
BYLAYER
 62
     1
 10
241.423074
 20
-236.754254
 30
0.0
 40
4.0
 50
270.0
 51
540.0
  0
CIRCLE
  8
0
  6
BYLAYER
 62
     1
 10
241.423074
 20
-236.754254
 30
0.0
 40
3.5
  0
ARC
  8
0
  6
BYLAYER
 62
     1
 10
200.764383
 20
-253.595563
 30
0.0
 40
4.000000
 50
270.0
 51
540.0
  0
CIRCLE
  8
0
  6
BYLAYER
 62
     1
 10
200.764383
 20
-253.595563
 30
0.0
 40
3.5
  0
ARC
  8
0
  6
BYLAYER
 62
     1
 10
160.105814
 20
-236.754254
 30
0.0
 40
4.0
 50
270.0
 51
540.0
  0
CIRCLE
  8
0
  6
BYLAYER
 62
     1
 10
160.105814
 20
-236.754254
 30
0.0
 40
3.5
  0
ARC
  8
0
  6
BYLAYER
 62
     1
 10
143.264505
 20
-196.095563
 30
0.0
 40
4.0
 50
270.0
 51
540.0
  0
CIRCLE
  8
0
  6
BYLAYER
 62
     1
 10
143.264505
 20
-196.095563
 30
0.0
 40
3.5
  0
ARC
  8
0
  6
BYLAYER
 62
     1
 10
188.233377
 20
-107.555592
 30
0.0
 40
2.873727
 50
270.0
 51
308.795511
  0
ARC
  8
0
  6
BYLAYER
 62
     1
 10
187.955275
 20
-107.259412
 30
0.0
 40
3.278957
 50
309.340351
 51
360.0
  0
ARC
  8
0
  6
BYLAYER
 62
     1
 10
187.955275
 20
-107.259412
 30
0.0
 40
3.278957
 50
0.0
 51
50.659649
  0
ARC
  8
0
  6
BYLAYER
 62
     1
 10
188.233377
 20
-106.963232
 30
0.0
 40
2.873727
 50
51.204489
 51
90.0
  0
ARC
  8
0
  6
BYLAYER
 62
     1
 10
188.233377
 20
-106.963206
 30
0.0
 40
2.873701
 50
90.0
 51
128.795693
  0
ARC
  8
0
  6
BYLAYER
 62
     1
 10
188.511505
 20
-107.259412
 30
0.0
 40
3.278967
 50
129.340576
 51
180.0
  0
ARC
  8
0
  6
BYLAYER
 62
     1
 10
188.511505
 20
-107.259412
 30
0.0
 40
3.278967
 50
180.000000
 51
230.659424
  0
ARC
  8
0
  6
BYLAYER
 62
     1
 10
188.233377
 20
-107.555618
 30
0.0
 40
2.873701
 50
231.204307
 51
270.0
  0
ARC
  8
0
  6
BYLAYER
 62
     1
 10
188.233377
 20
-106.416261
 30
0.0
 40
1.329747
 50
90.0
 51
140.793201
  0
ARC
  8
0
  6
BYLAYER
 62
     1
 10
189.266932
 20
-107.259412
 30
0.0
 40
2.663590
 50
140.793201
 51
180.0
  0
ARC
  8
0
  6
BYLAYER
 62
     1
 10
189.266916
 20
-107.259412
 30
0.0
 40
2.663574
 50
180.000000
 51
219.206869
  0
ARC
  8
0
  6
BYLAYER
 62
     1
 10
188.233377
 20
-108.102552
 30
0.0
 40
1.329750
 50
219.206869
 51
270.000000
  0
ARC
  8
0
  6
BYLAYER
 62
     1
 10
188.233377
 20
-108.102552
 30
0.0
 40
1.329750
 50
270.0
 51
320.793131
  0
ARC
  8
0
  6
BYLAYER
 62
     1
 10
187.199838
 20
-107.259412
 30
0.0
 40
2.663574
 50
320.793131
 51
360.0
  0
ARC
  8
0
  6
BYLAYER
 62
     1
 10
187.199822
 20
-107.259412
 30
0.0
 40
2.663590
 50
0.0
 51
39.206799
  0
ARC
  8
0
  6
BYLAYER
 62
     1
 10
188.233377
 20
-106.416261
 30
0.0
 40
1.329747
 50
39.206799
 51
90.0
  0
LINE
  8
0
  6
BYLAYER
 62
     1
 10
178.385538
 20
-110.217984
 30
0.0
 11
178.385538
 21
-104.216291
 31
0.0
  0
LINE
  8
0
  6
BYLAYER
 62
     1
 10
178.385538
 20
-104.216291
 30
0.0
 11
180.825662
 21
-104.216291
 31
0.0
  0
LINE
  8
0
  6
BYLAYER
 62
     1
 10
180.825662
 20
-104.216291
 30
0.0
 11
181.639978
 21
-107.343946
 31
0.0
  0
LINE
  8
0
  6
BYLAYER
 62
     1
 10
178.385538
 20
-110.217984
 30
0.0
 11
179.850748
 21
-110.217984
 31
0.0
  0
LINE
  8
0
  6
BYLAYER
 62
     1
 10
179.850748
 20
-110.217984
 30
0.0
 11
179.850748
 21
-106.752225
 31
0.0
  0
LINE
  8
0
  6
BYLAYER
 62
     1
 10
181.005991
 20
-110.217984
 30
0.0
 11
179.850748
 21
-106.752225
 31
0.0
  0
LINE
  8
0
  6
BYLAYER
 62
     1
 10
184.894418
 20
-110.217984
 30
0.0
 11
184.894418
 21
-104.216291
 31
0.0
  0
LINE
  8
0
  6
BYLAYER
 62
     1
 10
184.894418
 20
-104.216291
 30
0.0
 11
182.454294
 21
-104.216291
 31
0.0
  0
LINE
  8
0
  6
BYLAYER
 62
     1
 10
182.454294
 20
-104.216291
 30
0.0
 11
181.639978
 21
-107.343946
 31
0.0
  0
LINE
  8
0
  6
BYLAYER
 62
     1
 10
184.894418
 20
-110.217984
 30
0.0
 11
183.429208
 21
-110.217984
 31
0.0
  0
LINE
  8
0
  6
BYLAYER
 62
     1
 10
183.429208
 20
-110.217984
 30
0.0
 11
183.429208
 21
-106.752225
 31
0.0
  0
LINE
  8
0
  6
BYLAYER
 62
     1
 10
182.273965
 20
-110.217984
 30
0.0
 11
183.429208
 21
-106.752225
 31
0.0
  0
LINE
  8
0
  6
BYLAYER
 62
     1
 10
182.273965
 20
-110.217984
 30
0.0
 11
181.005991
 21
-110.217984
 31
0.0
  0
LINE
  8
0
  6
BYLAYER
 62
     1
 10
206.365259
 20
-110.217984
 30
0.0
 11
208.647577
 21
-104.216291
 31
0.0
  0
LINE
  8
0
  6
BYLAYER
 62
     1
 10
206.365259
 20
-110.217984
 30
0.0
 11
208.309473
 21
-110.217984
 31
0.0
  0
LINE
  8
0
  6
BYLAYER
 62
     1
 10
208.647577
 20
-104.216291
 30
0.0
 11
210.507257
 21
-104.216291
 31
0.0
  0
LINE
  8
0
  6
BYLAYER
 62
     1
 10
208.309473
 20
-110.217984
 30
0.0
 11
208.597650
 21
-109.372678
 31
0.0
  0
LINE
  8
0
  6
BYLAYER
 62
     1
 10
209.058710
 20
-108.020185
 30
0.0
 11
209.577417
 21
-106.498624
 31
0.0
  0
LINE
  8
0
  6
BYLAYER
 62
     1
 10
212.789606
 20
-110.217984
 30
0.0
 11
210.507257
 21
-104.216291
 31
0.0
  0
LINE
  8
0
  6
BYLAYER
 62
     1
 10
212.789606
 20
-110.217984
 30
0.0
 11
210.845392
 21
-110.217984
 31
0.0
  0
LINE
  8
0
  6
BYLAYER
 62
     1
 10
210.557214
 20
-109.372678
 30
0.0
 11
208.597650
 21
-109.372678
 31
0.0
  0
LINE
  8
0
  6
BYLAYER
 62
     1
 10
210.096124
 20
-108.020185
 30
0.0
 11
209.058710
 21
-108.020185
 31
0.0
  0
LINE
  8
0
  6
BYLAYER
 62
     1
 10
210.845392
 20
-110.217984
 30
0.0
 11
210.557214
 21
-109.372678
 31
0.0
  0
LINE
  8
0
  6
BYLAYER
 62
     1
 10
210.096124
 20
-108.020185
 30
0.0
 11
209.577417
 21
-106.498624
 31
0.0
  0
LINE
  8
0
  6
BYLAYER
 62
     1
 10
191.234232
 20
-105.695584
 30
0.0
 11
192.924844
 21
-105.695584
 31
0.0
  0
LINE
  8
0
  6
BYLAYER
 62
     1
 10
192.924844
 20
-105.695584
 30
0.0
 11
192.924844
 21
-110.217984
 31
0.0
  0
LINE
  8
0
  6
BYLAYER
 62
     1
 10
192.924844
 20
-110.217984
 30
0.0
 11
194.784540
 21
-110.217984
 31
0.0
  0
LINE
  8
0
  6
BYLAYER
 62
     1
 10
194.784540
 20
-110.217984
 30
0.0
 11
194.784540
 21
-105.695584
 31
0.0
  0
LINE
  8
0
  6
BYLAYER
 62
     1
 10
194.784540
 20
-105.695584
 30
0.0
 11
196.475153
 21
-105.695584
 31
0.0
  0
LINE
  8
0
  6
BYLAYER
 62
     1
 10
196.475153
 20
-105.695584
 30
0.0
 11
196.475153
 21
-104.216291
 31
0.0
  0
LINE
  8
0
  6
BYLAYER
 62
     1
 10
196.475153
 20
-104.216291
 30
0.0
 11
191.234232
 21
-104.216291
 31
0.0
  0
LINE
  8
0
  6
BYLAYER
 62
     1
 10
191.234232
 20
-104.216291
 30
0.0
 11
191.234232
 21
-105.695584
 31
0.0
  0
ARC
  8
0
  6
BYLAYER
 62
     1
 10
199.475992
 20
-107.555618
 30
0.0
 40
2.873701
 50
270.0
 51
308.795693
  0
ARC
  8
0
  6
BYLAYER
 62
     1
 10
199.197864
 20
-107.259412
 30
0.0
 40
3.278967
 50
309.340576
 51
360.000000
  0
ARC
  8
0
  6
BYLAYER
 62
     1
 10
199.197874
 20
-107.259412
 30
0.0
 40
3.278957
 50
0.0
 51
50.659649
  0
ARC
  8
0
  6
BYLAYER
 62
     1
 10
199.475977
 20
-106.963232
 30
0.0
 40
2.873727
 50
51.204489
 51
90.000000
  0
ARC
  8
0
  6
BYLAYER
 62
     1
 10
199.475977
 20
-106.963206
 30
0.0
 40
2.873701
 50
90.0
 51
128.795693
  0
ARC
  8
0
  6
BYLAYER
 62
     1
 10
199.754105
 20
-107.259412
 30
0.0
 40
3.278967
 50
129.340576
 51
180.0
  0
ARC
  8
0
  6
BYLAYER
 62
     1
 10
199.754094
 20
-107.259412
 30
0.0
 40
3.278957
 50
180.000000
 51
230.659649
  0
ARC
  8
0
  6
BYLAYER
 62
     1
 10
199.475992
 20
-107.555592
 30
0.0
 40
2.873727
 50
231.204489
 51
270.0
  0
ARC
  8
0
  6
BYLAYER
 62
     1
 10
199.475977
 20
-106.416261
 30
0.0
 40
1.329747
 50
90.0
 51
140.793201
  0
ARC
  8
0
  6
BYLAYER
 62
     1
 10
200.509531
 20
-107.259412
 30
0.0
 40
2.663590
 50
140.793201
 51
180.0
  0
ARC
  8
0
  6
BYLAYER
 62
     1
 10
200.509497
 20
-107.259412
 30
0.0
 40
2.663556
 50
180.000000
 51
219.207055
  0
ARC
  8
0
  6
BYLAYER
 62
     1
 10
199.475992
 20
-108.102530
 30
0.0
 40
1.329771
 50
219.207055
 51
270.000000
  0
ARC
  8
0
  6
BYLAYER
 62
     1
 10
199.475992
 20
-108.102552
 30
0.0
 40
1.329750
 50
270.0
 51
320.793131
  0
ARC
  8
0
  6
BYLAYER
 62
     1
 10
198.442453
 20
-107.259412
 30
0.0
 40
2.663574
 50
320.793131
 51
360.0
  0
ARC
  8
0
  6
BYLAYER
 62
     1
 10
198.442455
 20
-107.259412
 30
0.0
 40
2.663572
 50
0.0
 51
39.206985
  0
ARC
  8
0
  6
BYLAYER
 62
     1
 10
199.475977
 20
-106.416282
 30
0.0
 40
1.329768
 50
39.206985
 51
90.000000
  0
LINE
  8
0
  6
BYLAYER
 62
     1
 10
212.951593
 20
-110.217984
 30
0.0
 11
212.951593
 21
-104.216291
 31
0.0
  0
LINE
  8
0
  6
BYLAYER
 62
     1
 10
212.951593
 20
-104.216291
 30
0.0
 11
216.670938
 21
-104.216291
 31
0.0
  0
ARC
  8
0
  6
BYLAYER
 62
     1
 10
216.670938
 20
-105.906919
 30
0.0
 40
1.690610
 50
287.134650
 51
450.000006
  0
ARC
  8
0
  6
BYLAYER
 62
     1
 10
217.009073
 20
-108.865491
 30
0.0
 40
1.352493
 50
0.0
 51
83.207557
  0
LINE
  8
0
  6
BYLAYER
 62
     1
 10
218.361566
 20
-108.865491
 30
0.0
 11
218.361566
 21
-109.710797
 31
0.0
  0
ARC
  8
0
  6
BYLAYER
 62
     1
 10
219.714059
 20
-109.710797
 30
0.0
 40
1.352493
 50
180.000000
 51
202.024314
  0
LINE
  8
0
  6
BYLAYER
 62
     1
 10
216.600580
 20
-110.217984
 30
0.0
 11
218.460260
 21
-110.217984
 31
0.0
  0
ARC
  8
0
  6
BYLAYER
 62
     1
 10
217.854379
 20
-109.710797
 30
0.0
 40
1.352493
 50
180.000000
 51
202.024314
  0
LINE
  8
0
  6
BYLAYER
 62
     1
 10
216.501886
 20
-109.710797
 30
0.0
 11
216.501886
 21
-109.034558
 31
0.0
  0
LINE
  8
0
  6
BYLAYER
 62
     1
 10
212.951593
 20
-110.217984
 30
0.0
 11
214.726739
 21
-110.217984
 31
0.0
  0
LINE
  8
0
  6
BYLAYER
 62
     1
 10
214.726739
 20
-110.217984
 30
0.0
 11
214.726739
 21
-108.189252
 31
0.0
  0
LINE
  8
0
  6
BYLAYER
 62
     1
 10
215.656580
 20
-108.189252
 30
0.0
 11
214.726739
 21
-108.189252
 31
0.0
  0
ARC
  8
0
  6
BYLAYER
 62
     1
 10
215.656580
 20
-109.034558
 30
0.0
 40
0.845306
 50
0.0
 51
90.000003
  0
LINE
  8
0
  6
BYLAYER
 62
     1
 10
214.726739
 20
-106.836759
 30
0.0
 11
214.726739
 21
-105.568784
 31
0.0
  0
LINE
  8
0
  6
BYLAYER
 62
     1
 10
214.726739
 20
-105.568784
 30
0.0
 11
215.910165
 21
-105.568784
 31
0.0
  0
LINE
  8
0
  6
BYLAYER
 62
     1
 10
214.726739
 20
-106.836759
 30
0.0
 11
215.910165
 21
-106.836759
 31
0.0
  0
ARC
  8
0
  6
BYLAYER
 62
     1
 10
215.910165
 20
-106.202771
 30
0.0
 40
0.633987
 50
270.0
 51
450.000005
  0
LINE
  8
0
  6
BYLAYER
 62
     1
 10
204.885980
 20
-108.320188
 30
0.0
 11
203.787073
 21
-104.216291
 31
0.0
  0
LINE
  8
0
  6
BYLAYER
 62
     1
 10
203.787073
 20
-104.216291
 30
0.0
 11
202.011926
 21
-104.216291
 31
0.0
  0
LINE
  8
0
  6
BYLAYER
 62
     1
 10
202.011926
 20
-104.216291
 30
0.0
 11
203.871606
 21
-110.217984
 31
0.0
  0
LINE
  8
0
  6
BYLAYER
 62
     1
 10
204.885980
 20
-108.320188
 30
0.0
 11
205.984857
 21
-104.216291
 31
0.0
  0
LINE
  8
0
  6
BYLAYER
 62
     1
 10
205.984857
 20
-104.216291
 30
0.0
 11
207.760004
 21
-104.216291
 31
0.0
  0
LINE
  8
0
  6
BYLAYER
 62
     1
 10
207.760004
 20
-104.216291
 30
0.0
 11
205.900323
 21
-110.217984
 31
0.0
  0
LINE
  8
0
  6
BYLAYER
 62
     1
 10
205.900323
 20
-110.217984
 30
0.0
 11
203.871606
 21
-110.217984
 31
0.0
  0
LINE
  8
0
  6
BYLAYER
 62
     1
 10
218.622247
 20
-110.217984
 30
0.0
 11
220.397394
 21
-110.217984
 31
0.0
  0
LINE
  8
0
  6
BYLAYER
 62
     1
 10
220.397394
 20
-110.217984
 30
0.0
 11
220.397394
 21
-104.216291
 31
0.0
  0
LINE
  8
0
  6
BYLAYER
 62
     1
 10
220.397394
 20
-104.216291
 30
0.0
 11
218.622247
 21
-104.216291
 31
0.0
  0
LINE
  8
0
  6
BYLAYER
 62
     1
 10
218.622247
 20
-104.216291
 30
0.0
 11
218.622247
 21
-110.217984
 31
0.0
  0
ARC
  8
0
  6
BYLAYER
 62
     1
 10
223.736368
 20
-107.555618
 30
0.0
 40
2.873701
 50
270.0
 51
308.795693
  0
ARC
  8
0
  6
BYLAYER
 62
     1
 10
223.458240
 20
-107.259412
 30
0.0
 40
3.278967
 50
309.340576
 51
360.0
  0
ARC
  8
0
  6
BYLAYER
 62
     1
 10
223.458240
 20
-107.259412
 30
0.0
 40
3.278967
 50
0.0
 51
50.659424
  0
ARC
  8
0
  6
BYLAYER
 62
     1
 10
223.736368
 20
-106.963206
 30
0.0
 40
2.873701
 50
51.204307
 51
90.0
  0
ARC
  8
0
  6
BYLAYER
 62
     1
 10
223.736368
 20
-106.963206
 30
0.0
 40
2.873701
 50
90.0
 51
128.795693
  0
ARC
  8
0
  6
BYLAYER
 62
     1
 10
224.014496
 20
-107.259412
 30
0.0
 40
3.278967
 50
129.340576
 51
180.000000
  0
ARC
  8
0
  6
BYLAYER
 62
     1
 10
224.014496
 20
-107.259412
 30
0.0
 40
3.278967
 50
180.000000
 51
230.659424
  0
ARC
  8
0
  6
BYLAYER
 62
     1
 10
223.736368
 20
-107.555618
 30
0.0
 40
2.873701
 50
231.204307
 51
270.0
  0
ARC
  8
0
  6
BYLAYER
 62
     1
 10
223.736368
 20
-106.416261
 30
0.0
 40
1.329747
 50
39.206799
 51
90.0
  0
ARC
  8
0
  6
BYLAYER
 62
     1
 10
222.702813
 20
-107.259412
 30
0.0
 40
2.663590
 50
0.0
 51
39.206799
  0
ARC
  8
0
  6
BYLAYER
 62
     1
 10
222.702829
 20
-107.259412
 30
0.0
 40
2.663574
 50
320.793131
 51
360.0
  0
ARC
  8
0
  6
BYLAYER
 62
     1
 10
223.736368
 20
-108.102552
 30
0.0
 40
1.329750
 50
270.0
 51
320.793131
  0
ARC
  8
0
  6
BYLAYER
 62
     1
 10
223.736368
 20
-108.102552
 30
0.0
 40
1.329750
 50
219.206869
 51
270.000000
  0
ARC
  8
0
  6
BYLAYER
 62
     1
 10
224.769906
 20
-107.259412
 30
0.0
 40
2.663574
 50
180.000000
 51
219.206869
  0
ARC
  8
0
  6
BYLAYER
 62
     1
 10
224.769922
 20
-107.259412
 30
0.0
 40
2.663590
 50
140.793201
 51
180.0
  0
ARC
  8
0
  6
BYLAYER
 62
     1
 10
223.736368
 20
-106.416261
 30
0.0
 40
1.329747
 50
90.0
 51
140.793201
  0
ARC
  8
0
  6
BYLAYER
 62
     1
 10
193.764505
 20
-97.345563
 30
0.0
 40
7.429995
 50
174.535650
 51
180.000000
  0
LINE
  8
0
  6
BYLAYER
 62
     1
 10
186.368272
 20
-96.638028
 30
0.0
 11
186.368272
 21
-96.638021
 31
0.0
  0
LINE
  8
0
  6
BYLAYER
 62
     1
 10
186.376357
 20
-96.558098
 30
0.0
 11
187.085460
 21
-96.259555
 31
0.0
  0
ARC
  8
0
  6
BYLAYER
 62
     1
 10
193.764536
 20
-97.345624
 30
0.0
 40
6.766781
 50
159.235383
 51
170.763998
  0
LINE
  8
0
  6
BYLAYER
 62
     1
 10
187.437261
 20
-94.946559
 30
0.0
 11
186.972462
 21
-94.333445
 31
0.0
  0
ARC
  8
0
  6
BYLAYER
 62
     1
 10
193.764505
 20
-97.345563
 30
0.0
 40
7.429986
 50
144.139514
 51
156.083795
  0
LINE
  8
0
  6
BYLAYER
 62
     1
 10
187.694040
 20
-93.061368
 30
0.0
 11
187.694482
 21
-93.060742
 31
0.0
  0
LINE
  8
0
  6
BYLAYER
 62
     1
 10
187.742903
 20
-92.992976
 30
0.0
 11
188.497828
 21
-93.096840
 31
0.0
  0
ARC
  8
0
  6
BYLAYER
 62
     1
 10
193.764505
 20
-97.345563
 30
0.0
 40
6.766741
 50
129.235643
 51
141.105976
  0
LINE
  8
0
  6
BYLAYER
 62
     1
 10
189.373819
 20
-92.196706
 30
0.0
 11
189.374551
 21
-92.196073
 31
0.0
  0
LINE
  8
0
  6
BYLAYER
 62
     1
 10
189.484465
 20
-92.104376
 30
0.0
 11
189.388472
 21
-91.340969
 31
0.0
  0
ARC
  8
0
  6
BYLAYER
 62
     1
 10
193.764505
 20
-97.345563
 30
0.0
 40
7.429994
 50
114.139607
 51
126.083853
  0
LINE
  8
0
  6
BYLAYER
 62
     1
 10
190.649957
 20
-90.599866
 30
0.0
 11
190.650461
 21
-90.599629
 31
0.0
  0
LINE
  8
0
  6
BYLAYER
 62
     1
 10
190.725924
 20
-90.565309
 30
0.0
 11
191.327754
 21
-91.032704
 31
0.0
  0
LINE
  8
0
  6
BYLAYER
 62
     1
 10
191.465356
 20
-90.981381
 30
0.0
 11
191.466119
 21
-90.981114
 31
0.0
  0
ARC
  8
0
  6
BYLAYER
 62
     1
 10
193.764505
 20
-97.345563
 30
0.0
 40
6.766738
 50
99.235601
 51
111.106038
  0
ARC
  8
0
  6
BYLAYER
 62
     1
 10
193.764505
 20
-97.345563
 30
0.0
 40
7.429995
 50
90.0
 51
96.083892
  0
LINE
  8
0
  6
BYLAYER
 62
     1
 10
192.977040
 20
-89.957415
 30
0.0
 11
192.678481
 21
-90.666544
 31
0.0
  0
LINE
  8
0
  6
BYLAYER
 62
     1
 10
201.160730
 20
-96.638028
 30
0.0
 11
201.160730
 21
-96.638021
 31
0.0
  0
LINE
  8
0
  6
BYLAYER
 62
     1
 10
201.152652
 20
-96.558097
 30
0.0
 11
200.443514
 21
-96.259548
 31
0.0
  0
ARC
  8
0
  6
BYLAYER
 62
     1
 10
193.764459
 20
-97.345624
 30
0.0
 40
6.766781
 50
9.235986
 51
20.764650
  0
LINE
  8
0
  6
BYLAYER
 62
     1
 10
200.091783
 20
-94.946488
 30
0.0
 11
200.556549
 21
-94.333447
 31
0.0
  0
ARC
  8
0
  6
BYLAYER
 62
     1
 10
193.764505
 20
-97.345563
 30
0.0
 40
7.429986
 50
23.916189
 51
35.860484
  0
LINE
  8
0
  6
BYLAYER
 62
     1
 10
199.834955
 20
-93.061368
 30
0.0
 11
199.834512
 21
-93.060742
 31
0.0
  0
LINE
  8
0
  6
BYLAYER
 62
     1
 10
199.786107
 20
-92.992976
 30
0.0
 11
199.031235
 21
-93.096830
 31
0.0
  0
ARC
  8
0
  6
BYLAYER
 62
     1
 10
193.764505
 20
-97.345563
 30
0.0
 40
6.766741
 50
38.894050
 51
50.764315
  0
LINE
  8
0
  6
BYLAYER
 62
     1
 10
198.155191
 20
-92.196706
 30
0.0
 11
198.154459
 21
-92.196073
 31
0.0
  0
LINE
  8
0
  6
BYLAYER
 62
     1
 10
198.044564
 20
-92.104254
 30
0.0
 11
198.140522
 21
-91.340958
 31
0.0
  0
ARC
  8
0
  6
BYLAYER
 62
     1
 10
193.764505
 20
-97.345563
 30
0.0
 40
7.429994
 50
53.916300
 51
65.860381
  0
LINE
  8
0
  6
BYLAYER
 62
     1
 10
196.879053
 20
-90.599866
 30
0.0
 11
196.878534
 21
-90.599629
 31
0.0
  0
LINE
  8
0
  6
BYLAYER
 62
     1
 10
196.803087
 20
-90.565310
 30
0.0
 11
196.201264
 21
-91.032683
 31
0.0
  0
LINE
  8
0
  6
BYLAYER
 62
     1
 10
196.063638
 20
-90.981381
 30
0.0
 11
196.062891
 21
-90.981114
 31
0.0
  0
ARC
  8
0
  6
BYLAYER
 62
     1
 10
193.764505
 20
-97.345563
 30
0.0
 40
6.766738
 50
68.894081
 51
80.764578
  0
ARC
  8
0
  6
BYLAYER
 62
     1
 10
193.764505
 20
-97.345563
 30
0.0
 40
7.429995
 50
84.535428
 51
90.000003
  0
LINE
  8
0
  6
BYLAYER
 62
     1
 10
194.551972
 20
-89.957416
 30
0.0
 11
194.850459
 21
-90.666423
 31
0.0
  0
ARC
  8
0
  6
BYLAYER
 62
     1
 10
193.764505
 20
-97.345563
 30
0.0
 40
7.429995
 50
180.000000
 51
186.083899
  0
LINE
  8
0
  6
BYLAYER
 62
     1
 10
186.368272
 20
-98.053090
 30
0.0
 11
186.368272
 21
-98.053105
 31
0.0
  0
LINE
  8
0
  6
BYLAYER
 62
     1
 10
186.376357
 20
-98.133028
 30
0.0
 11
187.085481
 21
-98.431580
 31
0.0
  0
ARC
  8
0
  6
BYLAYER
 62
     1
 10
193.764536
 20
-97.345502
 30
0.0
 40
6.766781
 50
189.236002
 51
200.764629
  0
LINE
  8
0
  6
BYLAYER
 62
     1
 10
187.437285
 20
-99.744537
 30
0.0
 11
186.972460
 21
-100.357675
 31
0.0
  0
ARC
  8
0
  6
BYLAYER
 62
     1
 10
193.764505
 20
-97.345563
 30
0.0
 40
7.429986
 50
203.916158
 51
215.860410
  0
LINE
  8
0
  6
BYLAYER
 62
     1
 10
187.694040
 20
-101.629750
 30
0.0
 11
187.694482
 21
-101.630376
 31
0.0
  0
LINE
  8
0
  6
BYLAYER
 62
     1
 10
187.742898
 20
-101.698142
 30
0.0
 11
188.497894
 21
-101.594279
 31
0.0
  0
ARC
  8
0
  6
BYLAYER
 62
     1
 10
193.764505
 20
-97.345563
 30
0.0
 40
6.766741
 50
218.894045
 51
230.764345
  0
LINE
  8
0
  6
BYLAYER
 62
     1
 10
189.373819
 20
-102.494412
 30
0.0
 11
189.374551
 21
-102.495046
 31
0.0
  0
LINE
  8
0
  6
BYLAYER
 62
     1
 10
189.484464
 20
-102.586749
 30
0.0
 11
189.388472
 21
-103.350157
 31
0.0
  0
ARC
  8
0
  6
BYLAYER
 62
     1
 10
193.764505
 20
-97.345563
 30
0.0
 40
7.429994
 50
233.916148
 51
245.860401
  0
LINE
  8
0
  6
BYLAYER
 62
     1
 10
190.649957
 20
-104.091252
 30
0.0
 11
190.650461
 21
-104.091497
 31
0.0
  0
LINE
  8
0
  6
BYLAYER
 62
     1
 10
190.725925
 20
-104.125817
 30
0.0
 11
191.327825
 21
-103.658357
 31
0.0
  0
LINE
  8
0
  6
BYLAYER
 62
     1
 10
191.465356
 20
-103.709737
 30
0.0
 11
191.466119
 21
-103.710012
 31
0.0
  0
LINE
  8
0
  6
BYLAYER
 62
     1
 10
201.160730
 20
-98.053090
 30
0.0
 11
201.160730
 21
-98.053105
 31
0.0
  0
LINE
  8
0
  6
BYLAYER
 62
     1
 10
201.152651
 20
-98.133030
 30
0.0
 11
200.443514
 21
-98.431578
 31
0.0
  0
LINE
  8
0
  6
BYLAYER
 62
     1
 10
200.091718
 20
-99.744554
 30
0.0
 11
200.556556
 21
-100.357680
 31
0.0
  0
LINE
  8
0
  6
BYLAYER
 62
     1
 10
199.834955
 20
-101.629750
 30
0.0
 11
199.834512
 21
-101.630376
 31
0.0
  0
LINE
  8
0
  6
BYLAYER
 62
     1
 10
199.786121
 20
-101.698143
 30
0.0
 11
199.031076
 21
-101.594276
 31
0.0
  0
LINE
  8
0
  6
BYLAYER
 62
     1
 10
198.155191
 20
-102.494412
 30
0.0
 11
198.154459
 21
-102.495046
 31
0.0
  0
LINE
  8
0
  6
BYLAYER
 62
     1
 10
198.044550
 20
-102.586746
 30
0.0
 11
198.140522
 21
-103.350168
 31
0.0
  0
LINE
  8
0
  6
BYLAYER
 62
     1
 10
196.803086
 20
-104.125816
 30
0.0
 11
196.201172
 21
-103.658362
 31
0.0
  0
ARC
  8
0
  6
BYLAYER
 62
     1
 10
193.764505
 20
-97.345563
 30
0.0
 40
6.766741
 50
309.235697
 51
321.105929
  0
ARC
  8
0
  6
BYLAYER
 62
     1
 10
193.764505
 20
-97.345563
 30
0.0
 40
6.766738
 50
248.893873
 51
270.0
  0
ARC
  8
0
  6
BYLAYER
 62
     1
 10
193.764505
 20
-97.345563
 30
0.0
 40
7.429994
 50
294.783232
 51
306.083699
  0
LINE
  8
0
  6
BYLAYER
 62
     1
 10
196.878534
 20
-104.091497
 30
0.0
 11
196.803544
 21
-104.126786
 31
0.0
  0
ARC
  8
0
  6
BYLAYER
 62
     1
 10
193.764505
 20
-97.345563
 30
0.0
 40
7.429986
 50
324.139593
 51
336.083825
  0
ARC
  8
0
  6
BYLAYER
 62
     1
 10
193.764459
 20
-97.345502
 30
0.0
 40
6.766781
 50
339.235210
 51
350.764014
  0
ARC
  8
0
  6
BYLAYER
 62
     1
 10
193.764505
 20
-97.345563
 30
0.0
 40
7.429995
 50
353.916089
 51
360.0
  0
ARC
  8
0
  6
BYLAYER
 62
     1
 10
193.764505
 20
-97.345563
 30
0.0
 40
7.429995
 50
0.0
 51
6.083907
  0
ARC
  8
0
  6
BYLAYER
 62
     1
 10
193.764505
 20
-97.345563
 30
0.0
 40
6.766738
 50
270.0
 51
291.106008
  0
CIRCLE
  8
0
  6
BYLAYER
 62
     1
 10
193.764505
 20
-97.345563
 30
0.0
 40
3.630081
  0
CIRCLE
  8
0
  6
BYLAYER
 62
     1
 10
193.764505
 20
-97.345563
 30
0.0
 40
5.296032
  0
LINE
  8
0
  6
BYLAYER
 62
     1
 10
200.764505
 20
-196.095563
 30
0.0
 11
200.764505
 21
-191.095563
 31
0.0
  0
LINE
  8
0
  6
BYLAYER
 62
     1
 10
200.764505
 20
-196.095563
 30
0.0
 11
195.764505
 21
-196.095563
 31
0.0
  0
LINE
  8
0
  6
BYLAYER
 62
     1
 10
200.764505
 20
-196.095563
 30
0.0
 11
200.764505
 21
-201.095563
 31
0.0
  0
LINE
  8
0
  6
BYLAYER
 62
     1
 10
200.764505
 20
-196.095563
 30
0.0
 11
205.764505
 21
-196.095563
 31
0.0
  0
LINE
  8
0
  6
BYLAYER
 62
     1
 10
824.764505
 20
-477.095563
 30
0.0
 11
844.764505
 21
-477.095563
 31
0.0
  0
LINE
  8
0
  6
BYLAYER
 62
     1
 10
820.764505
 20
-596.095563
 30
0.0
 11
820.764505
 21
-549.095563
 31
0.0
  0
LINE
  8
0
  6
BYLAYER
 62
     1
 10
820.764505
 20
-549.095563
 30
0.0
 11
821.264505
 21
-548.595563
 31
0.0
  0
LINE
  8
0
  6
BYLAYER
 62
     1
 10
820.764505
 20
-596.095563
 30
0.0
 11
820.764505
 21
-643.095563
 31
0.0
  0
LINE
  8
0
  6
BYLAYER
 62
     1
 10
820.764505
 20
-643.095563
 30
0.0
 11
821.264505
 21
-643.595563
 31
0.0
  0
LINE
  8
0
  6
BYLAYER
 62
     1
 10
824.764505
 20
-682.095563
 30
0.0
 11
844.764505
 21
-682.095563
 31
0.0
  0
LINE
  8
0
  6
BYLAYER
 62
     1
 10
824.764505
 20
-637.095563
 30
0.0
 11
824.764505
 21
-682.095563
 31
0.0
  0
LINE
  8
0
  6
BYLAYER
 62
     1
 10
844.764505
 20
-637.095563
 30
0.0
 11
824.764505
 21
-637.095563
 31
0.0
  0
LINE
  8
0
  6
BYLAYER
 62
     1
 10
826.264505
 20
-635.595563
 30
0.0
 11
824.764505
 21
-637.095563
 31
0.0
  0
CIRCLE
  8
0
  6
BYLAYER
 62
     1
 10
880.764505
 20
-521.095563
 30
0.0
 40
31.0
  0
LINE
  8
0
  6
BYLAYER
 62
     1
 10
936.764566
 20
-477.095563
 30
0.0
 11
916.764566
 21
-477.095563
 31
0.0
  0
LINE
  8
0
  6
BYLAYER
 62
     1
 10
936.764566
 20
-682.095563
 30
0.0
 11
916.764566
 21
-682.095563
 31
0.0
  0
LINE
  8
0
  6
BYLAYER
 62
     1
 10
916.764566
 20
-637.095563
 30
0.0
 11
936.764566
 21
-637.095563
 31
0.0
  0
LINE
  8
0
  6
BYLAYER
 62
     1
 10
935.264566
 20
-635.595563
 30
0.0
 11
936.764566
 21
-637.095563
 31
0.0
  0
LINE
  8
0
  6
BYLAYER
 62
     1
 10
936.764566
 20
-637.095563
 30
0.0
 11
936.764566
 21
-682.095563
 31
0.0
  0
LINE
  8
0
  6
BYLAYER
 62
     1
 10
823.764505
 20
-548.595563
 30
0.0
 11
821.264505
 21
-548.595563
 31
0.0
  0
LINE
  8
0
  6
BYLAYER
 62
     1
 10
823.764505
 20
-643.595563
 30
0.0
 11
821.264505
 21
-643.595563
 31
0.0
  0
LINE
  8
0
  6
BYLAYER
 62
     1
 10
843.764505
 20
-477.095563
 30
0.0
 11
844.764505
 21
-477.095563
 31
0.0
  0
CIRCLE
  8
0
  6
BYLAYER
 62
     1
 10
925.714456
 20
-503.095807
 30
0.0
 40
5.750000
  0
CIRCLE
  8
0
  6
BYLAYER
 62
     1
 10
835.814554
 20
-503.095807
 30
0.0
 40
5.750000
  0
LINE
  8
0
  6
BYLAYER
 62
     1
 10
935.264566
 20
-523.595685
 30
0.0
 11
936.764566
 21
-522.095685
 31
0.0
  0
LINE
  8
0
  6
BYLAYER
 62
     1
 10
936.764566
 20
-522.095685
 30
0.0
 11
936.764566
 21
-477.095563
 31
0.0
  0
LINE
  8
0
  6
BYLAYER
 62
     1
 10
826.264505
 20
-523.595685
 30
0.0
 11
824.764505
 21
-522.095685
 31
0.0
  0
LINE
  8
0
  6
BYLAYER
 62
     1
 10
824.764505
 20
-522.095685
 30
0.0
 11
824.764505
 21
-477.095563
 31
0.0
  0
LINE
  8
0
  6
BYLAYER
 62
     1
 10
843.317850
 20
-522.095685
 30
0.0
 11
824.764505
 21
-522.095685
 31
0.0
  0
ARC
  8
0
  6
BYLAYER
 62
     1
 10
843.317850
 20
-523.095685
 30
0.0
 40
1.000000
 50
3.057907
 51
90.000000
  0
LINE
  8
0
  6
BYLAYER
 62
     1
 10
916.764566
 20
-477.095563
 30
0.0
 11
916.764566
 21
-507.632764
 31
0.0
  0
ARC
  8
0
  6
BYLAYER
 62
     1
 10
915.764566
 20
-507.632764
 30
0.0
 40
1.000014
 50
201.039023
 51
359.999996
  0
LINE
  8
0
  6
BYLAYER
 62
     1
 10
844.764505
 20
-507.632642
 30
0.0
 11
844.764505
 21
-477.095563
 31
0.0
  0
ARC
  8
0
  6
BYLAYER
 62
     1
 10
845.764505
 20
-507.632642
 30
0.0
 40
1.000014
 50
180.000000
 51
338.960973
  0
LINE
  8
0
  6
BYLAYER
 62
     1
 10
918.211160
 20
-522.095685
 30
0.0
 11
936.764566
 21
-522.095685
 31
0.0
  0
ARC
  8
0
  6
BYLAYER
 62
     1
 10
918.211160
 20
-523.095685
 30
0.0
 40
1.000020
 50
90.0
 51
176.942086
  0
LINE
  8
0
  6
BYLAYER
 62
     1
 10
916.764566
 20
-477.095563
 30
0.0
 11
916.764566
 21
-507.632764
 31
0.0
  0
LINE
  8
0
  6
BYLAYER
 62
     1
 10
844.764505
 20
-682.095563
 30
0.0
 11
844.764505
 21
-527.116376
 31
0.0
  0
CIRCLE
  8
0
  6
BYLAYER
 62
     1
 10
907.988138
 20
-493.872052
 30
0.0
 40
4.0
  0
CIRCLE
  8
0
  6
BYLAYER
 62
     1
 10
853.540994
 20
-493.871900
 30
0.0
 40
4.0
  0
CIRCLE
  8
0
  6
BYLAYER
 62
     1
 10
853.540872
 20
-548.319074
 30
0.0
 40
4.0
  0
CIRCLE
  8
0
  6
BYLAYER
 62
     1
 10
907.988016
 20
-548.319226
 30
0.0
 40
4.0
  0
ARC
  8
0
  6
BYLAYER
 62
     1
 10
880.764505
 20
-521.095563
 30
0.0
 40
36.500004
 50
148.424355
 51
158.960509
  0
ARC
  8
0
  6
BYLAYER
 62
     1
 10
847.964426
 20
-500.936048
 30
0.0
 40
2.000013
 50
328.424810
 51
411.711570
  0
ARC
  8
0
  6
BYLAYER
 62
     1
 10
853.540994
 20
-493.871900
 30
0.0
 40
6.999995
 50
38.287800
 51
231.711845
  0
ARC
  8
0
  6
BYLAYER
 62
     1
 10
860.605173
 20
-488.295392
 30
0.0
 40
2.000008
 50
218.287737
 51
301.575200
  0
ARC
  8
0
  6
BYLAYER
 62
     1
 10
880.764505
 20
-521.095563
 30
0.0
 40
36.499985
 50
58.424666
 51
121.575332
  0
ARC
  8
0
  6
BYLAYER
 62
     1
 10
900.923837
 20
-488.295392
 30
0.0
 40
2.000013
 50
238.424801
 51
321.712264
  0
ARC
  8
0
  6
BYLAYER
 62
     1
 10
907.988016
 20
-493.871900
 30
0.0
 40
6.999995
 50
308.288160
 51
501.712205
  0
ARC
  8
0
  6
BYLAYER
 62
     1
 10
880.764505
 20
-521.095563
 30
0.0
 40
36.500004
 50
21.039496
 51
31.575650
  0
ARC
  8
0
  6
BYLAYER
 62
     1
 10
913.564554
 20
-500.936048
 30
0.0
 40
2.000008
 50
128.287741
 51
211.575655
  0
ARC
  8
0
  6
BYLAYER
 62
     1
 10
860.605173
 20
-553.895734
 30
0.0
 40
2.000008
 50
58.424803
 51
141.712259
  0
ARC
  8
0
  6
BYLAYER
 62
     1
 10
853.540994
 20
-548.319226
 30
0.0
 40
6.999995
 50
128.288151
 51
321.712210
  0
ARC
  8
0
  6
BYLAYER
 62
     1
 10
880.764505
 20
-521.095563
 30
0.0
 40
36.500004
 50
183.057403
 51
211.575655
  0
ARC
  8
0
  6
BYLAYER
 62
     1
 10
847.964456
 20
-541.255078
 30
0.0
 40
2.000008
 50
308.287746
 51
391.575660
  0
ARC
  8
0
  6
BYLAYER
 62
     1
 10
880.764505
 20
-521.095563
 30
0.0
 40
36.500004
 50
328.424346
 51
356.942599
  0
ARC
  8
0
  6
BYLAYER
 62
     1
 10
913.564554
 20
-541.255078
 30
0.0
 40
2.000008
 50
148.424341
 51
231.712255
  0
ARC
  8
0
  6
BYLAYER
 62
     1
 10
880.764505
 20
-521.095563
 30
0.0
 40
36.499985
 50
238.424665
 51
301.575337
  0
ARC
  8
0
  6
BYLAYER
 62
     1
 10
907.988016
 20
-548.319226
 30
0.0
 40
6.999995
 50
218.287805
 51
411.711850
  0
ARC
  8
0
  6
BYLAYER
 62
     1
 10
900.923837
 20
-553.895734
 30
0.0
 40
2.000013
 50
38.287746
 51
121.575195
  0
LINE
  8
0
  6
BYLAYER
 62
     1
 10
844.764505
 20
-478.595563
 30
0.0
 11
916.764566
 21
-478.595563
 31
0.0
  0
CIRCLE
  8
0
  6
BYLAYER
 62
     1
 10
835.814554
 20
-656.095319
 30
0.0
 40
5.750000
  0
CIRCLE
  8
0
  6
BYLAYER
 62
     1
 10
925.714456
 20
-656.095319
 30
0.0
 40
5.750000
  0
LINE
  8
0
  6
BYLAYER
 62
     1
 10
826.264505
 20
-523.595685
 30
0.0
 11
826.264505
 21
-635.595563
 31
0.0
  0
LINE
  8
0
  6
BYLAYER
 62
     1
 10
935.264566
 20
-523.595685
 30
0.0
 11
935.264566
 21
-635.595563
 31
0.0
  0
LINE
  8
0
  6
BYLAYER
 62
     1
 10
916.764566
 20
-682.095563
 30
0.0
 11
916.764566
 21
-527.116071
 31
0.0
  0
LINE
  8
0
  6
BYLAYER
 62
     1
 10
844.764505
 20
-635.595563
 30
0.0
 11
826.264505
 21
-635.595563
 31
0.0
  0
LINE
  8
0
  6
BYLAYER
 62
     1
 10
844.350229
 20
-523.595685
 30
0.0
 11
826.264505
 21
-523.595685
 31
0.0
  0
LINE
  8
0
  6
BYLAYER
 62
     1
 10
917.178781
 20
-523.595685
 30
0.0
 11
935.264566
 21
-523.595685
 31
0.0
  0
LINE
  8
0
  6
BYLAYER
 62
     1
 10
916.764566
 20
-635.595563
 30
0.0
 11
935.264566
 21
-635.595563
 31
0.0
  0
LINE
  8
0
  6
BYLAYER
 62
     1
 10
823.764627
 20
-666.095502
 30
0.0
 11
824.764505
 21
-666.130414
 31
0.0
  0
LINE
  8
0
  6
BYLAYER
 62
     1
 10
823.764627
 20
-526.095563
 30
0.0
 11
826.264505
 21
-526.008252
 31
0.0
  0
LINE
  8
0
  6
BYLAYER
 62
     1
 10
823.764505
 20
-666.095563
 30
0.0
 11
823.764505
 21
-548.595563
 31
0.0
  0
LINE
  8
0
  6
BYLAYER
 62
     1
 10
823.764505
 20
-548.595563
 30
0.0
 11
823.764505
 21
-526.095563
 31
0.0
  0
LINE
  8
0
  6
BYLAYER
 62
     1
 10
940.764505
 20
-596.095563
 30
0.0
 11
940.764505
 21
-549.095563
 31
0.0
  0
LINE
  8
0
  6
BYLAYER
 62
     1
 10
940.764505
 20
-549.095563
 30
0.0
 11
940.264505
 21
-548.595563
 31
0.0
  0
LINE
  8
0
  6
BYLAYER
 62
     1
 10
940.764505
 20
-596.095563
 30
0.0
 11
940.764505
 21
-643.095563
 31
0.0
  0
LINE
  8
0
  6
BYLAYER
 62
     1
 10
940.764505
 20
-643.095563
 30
0.0
 11
940.264505
 21
-643.595563
 31
0.0
  0
LINE
  8
0
  6
BYLAYER
 62
     1
 10
937.764505
 20
-548.595563
 30
0.0
 11
940.264505
 21
-548.595563
 31
0.0
  0
LINE
  8
0
  6
BYLAYER
 62
     1
 10
937.764505
 20
-643.595563
 30
0.0
 11
940.264505
 21
-643.595563
 31
0.0
  0
LINE
  8
0
  6
BYLAYER
 62
     1
 10
937.764383
 20
-666.095502
 30
0.0
 11
936.764505
 21
-666.130414
 31
0.0
  0
LINE
  8
0
  6
BYLAYER
 62
     1
 10
937.764383
 20
-526.095563
 30
0.0
 11
935.264505
 21
-526.008252
 31
0.0
  0
LINE
  8
0
  6
BYLAYER
 62
     1
 10
937.764505
 20
-666.095563
 30
0.0
 11
937.764505
 21
-548.595563
 31
0.0
  0
LINE
  8
0
  6
BYLAYER
 62
     1
 10
937.764505
 20
-548.595563
 30
0.0
 11
937.764505
 21
-526.095563
 31
0.0
  0
LINE
  8
0
  6
BYLAYER
 62
     1
 10
916.764566
 20
-678.095502
 30
0.0
 11
844.764505
 21
-678.095502
 31
0.0
  0
LINE
  8
0
  6
BYLAYER
 62
     1
 10
240.264627
 20
-541.595565
 30
0.0
 11
241.764627
 21
-540.095565
 31
0.0
  0
LINE
  8
0
  6
BYLAYER
 62
     1
 10
241.764627
 20
-540.095565
 30
0.0
 11
286.764627
 21
-540.095565
 31
0.0
  0
LINE
  8
0
  6
BYLAYER
 62
     1
 10
241.764627
 20
-560.095565
 30
0.0
 11
241.764627
 21
-540.095565
 31
0.0
  0
LINE
  8
0
  6
BYLAYER
 62
     1
 10
241.764627
 20
-632.095565
 30
0.0
 11
241.764627
 21
-652.095565
 31
0.0
  0
LINE
  8
0
  6
BYLAYER
 62
     1
 10
240.264627
 20
-650.595565
 30
0.0
 11
241.764627
 21
-652.095565
 31
0.0
  0
LINE
  8
0
  6
BYLAYER
 62
     1
 10
240.264627
 20
-632.095565
 30
0.0
 11
240.264627
 21
-650.595565
 31
0.0
  0
LINE
  8
0
  6
BYLAYER
 62
     1
 10
159.764627
 20
-632.095565
 30
0.0
 11
159.764627
 21
-652.095565
 31
0.0
  0
LINE
  8
0
  6
BYLAYER
 62
     1
 10
161.264627
 20
-650.595565
 30
0.0
 11
159.764627
 21
-652.095565
 31
0.0
  0
LINE
  8
0
  6
BYLAYER
 62
     1
 10
159.764627
 20
-540.095565
 30
0.0
 11
114.764627
 21
-540.095565
 31
0.0
  0
LINE
  8
0
  6
BYLAYER
 62
     1
 10
159.764627
 20
-560.095565
 30
0.0
 11
159.764627
 21
-540.095565
 31
0.0
  0
LINE
  8
0
  6
BYLAYER
 62
     1
 10
161.264627
 20
-541.595565
 30
0.0
 11
159.764627
 21
-540.095565
 31
0.0
  0
LINE
  8
0
  6
BYLAYER
 62
     1
 10
161.264627
 20
-632.095565
 30
0.0
 11
161.264627
 21
-650.595565
 31
0.0
  0
LINE
  8
0
  6
BYLAYER
 62
     1
 10
241.764627
 20
-652.095565
 30
0.0
 11
286.764627
 21
-652.095565
 31
0.0
  0
LINE
  8
0
  6
BYLAYER
 62
     1
 10
159.764627
 20
-652.095565
 30
0.0
 11
114.764627
 21
-652.095565
 31
0.0
  0
LINE
  8
0
  6
BYLAYER
 62
     1
 10
114.764627
 20
-632.095565
 30
0.0
 11
286.764627
 21
-632.095565
 31
0.0
  0
LINE
  8
0
  6
BYLAYER
 62
     1
 10
114.764627
 20
-560.095565
 30
0.0
 11
286.764627
 21
-560.095565
 31
0.0
  0
LINE
  8
0
  6
BYLAYER
 62
     1
 10
286.764627
 20
-560.095565
 30
0.0
 11
286.764627
 21
-540.095565
 31
0.0
  0
LINE
  8
0
  6
BYLAYER
 62
     1
 10
286.764627
 20
-632.095565
 30
0.0
 11
286.764627
 21
-652.095565
 31
0.0
  0
CIRCLE
  8
0
  6
BYLAYER
 62
     1
 10
140.764627
 20
-551.095748
 30
0.0
 40
5.75
  0
LINE
  8
0
  6
BYLAYER
 62
     1
 10
200.764505
 20
-536.095565
 30
0.0
 11
154.264505
 21
-536.095565
 31
0.0
  0
ARC
  8
0
  6
BYLAYER
 62
     1
 10
154.264505
 20
-537.095565
 30
0.0
 40
1.000000
 50
90.0
 51
180.000003
  0
LINE
  8
0
  6
BYLAYER
 62
     1
 10
200.764505
 20
-536.095565
 30
0.0
 11
247.264505
 21
-536.095565
 31
0.0
  0
ARC
  8
0
  6
BYLAYER
 62
     1
 10
247.264505
 20
-537.095565
 30
0.0
 40
1.000000
 50
0.0
 51
90.000003
  0
LINE
  8
0
  6
BYLAYER
 62
     1
 10
161.264627
 20
-541.595565
 30
0.0
 11
240.264627
 21
-541.595565
 31
0.0
  0
LINE
  8
0
  6
BYLAYER
 62
     1
 10
161.264627
 20
-560.095565
 30
0.0
 11
161.264627
 21
-541.595565
 31
0.0
  0
LINE
  8
0
  6
BYLAYER
 62
     1
 10
240.264627
 20
-560.095565
 30
0.0
 11
240.264627
 21
-541.595565
 31
0.0
  0
CIRCLE
  8
0
  6
BYLAYER
 62
     1
 10
260.764627
 20
-551.095748
 30
0.0
 40
5.75
  0
LINE
  8
0
  6
BYLAYER
 62
     1
 10
116.264627
 20
-632.095565
 30
0.0
 11
116.264627
 21
-560.095565
 31
0.0
  0
LINE
  8
0
  6
BYLAYER
 62
     1
 10
114.764627
 20
-540.095565
 30
0.0
 11
114.764627
 21
-652.095565
 31
0.0
  0
LINE
  8
0
  6
BYLAYER
 62
     1
 10
240.264627
 20
-650.595565
 30
0.0
 11
161.264627
 21
-650.595565
 31
0.0
  0
CIRCLE
  8
0
  6
BYLAYER
 62
     1
 10
140.764627
 20
-641.095382
 30
0.0
 40
5.75
  0
CIRCLE
  8
0
  6
BYLAYER
 62
     1
 10
260.764627
 20
-641.095382
 30
0.0
 40
5.75
  0
LINE
  8
0
  6
BYLAYER
 62
     1
 10
134.264627
 20
-560.095565
 30
0.0
 11
134.264627
 21
-632.095565
 31
0.0
  0
LINE
  8
0
  6
BYLAYER
 62
     1
 10
267.264627
 20
-560.095565
 30
0.0
 11
267.264627
 21
-632.095565
 31
0.0
  0
LINE
  8
0
  6
BYLAYER
 62
     1
 10
285.264627
 20
-560.095565
 30
0.0
 11
285.264627
 21
-632.095565
 31
0.0
  0
LINE
  8
0
  6
BYLAYER
 62
     1
 10
270.764505
 20
-539.095565
 30
0.0
 11
130.764505
 21
-539.095565
 31
0.0
  0
LINE
  8
0
  6
BYLAYER
 62
     1
 10
248.264505
 20
-539.095565
 30
0.0
 11
248.264505
 21
-537.095565
 31
0.0
  0
LINE
  8
0
  6
BYLAYER
 62
     1
 10
153.264505
 20
-539.095565
 30
0.0
 11
153.264505
 21
-537.095565
 31
0.0
  0
LINE
  8
0
  6
BYLAYER
 62
     1
 10
130.764566
 20
-539.095687
 30
0.0
 11
130.729646
 21
-540.095565
 31
0.0
  0
LINE
  8
0
  6
BYLAYER
 62
     1
 10
270.764566
 20
-539.095687
 30
0.0
 11
270.799478
 21
-540.095565
 31
0.0
  0
LINE
  8
0
  6
BYLAYER
 62
     1
 10
288.764505
 20
-645.095382
 30
0.0
 11
286.764505
 21
-645.165206
 31
0.0
  0
LINE
  8
0
  6
BYLAYER
 62
     1
 10
288.764505
 20
-547.095748
 30
0.0
 11
286.764505
 21
-547.025924
 31
0.0
  0
LINE
  8
0
  6
BYLAYER
 62
     1
 10
288.764627
 20
-547.095748
 30
0.0
 11
288.764627
 21
-645.095378
 31
0.0
  0
LINE
  8
0
  6
BYLAYER
 62
     1
 10
200.764505
 20
-656.095561
 30
0.0
 11
154.264505
 21
-656.095561
 31
0.0
  0
ARC
  8
0
  6
BYLAYER
 62
     1
 10
154.264505
 20
-655.095561
 30
0.0
 40
1.0
 50
180.000000
 51
270.000003
  0
LINE
  8
0
  6
BYLAYER
 62
     1
 10
200.764505
 20
-656.095561
 30
0.0
 11
247.264505
 21
-656.095561
 31
0.0
  0
ARC
  8
0
  6
BYLAYER
 62
     1
 10
247.264505
 20
-655.095561
 30
0.0
 40
1.000000
 50
270.0
 51
360.000003
  0
LINE
  8
0
  6
BYLAYER
 62
     1
 10
270.764505
 20
-653.095561
 30
0.0
 11
130.764505
 21
-653.095561
 31
0.0
  0
LINE
  8
0
  6
BYLAYER
 62
     1
 10
248.264505
 20
-653.095561
 30
0.0
 11
248.264505
 21
-655.095561
 31
0.0
  0
LINE
  8
0
  6
BYLAYER
 62
     1
 10
153.264505
 20
-653.095561
 30
0.0
 11
153.264505
 21
-655.095561
 31
0.0
  0
LINE
  8
0
  6
BYLAYER
 62
     1
 10
130.764566
 20
-653.095439
 30
0.0
 11
130.729646
 21
-652.095561
 31
0.0
  0
LINE
  8
0
  6
BYLAYER
 62
     1
 10
270.764566
 20
-653.095439
 30
0.0
 11
270.799478
 21
-652.095561
 31
0.0
  0
ARC
  8
0
  6
BYLAYER
 62
     1
 10
163.490001
 20
-576.095565
 30
0.0
 40
1.25
 50
270.0
 51
450.000005
  0
ARC
  8
0
  6
BYLAYER
 62
     1
 10
163.490001
 20
-566.095565
 30
0.0
 40
1.25
 50
270.0
 51
450.000005
  0
ARC
  8
0
  6
BYLAYER
 62
     1
 10
163.490001
 20
-616.095565
 30
0.0
 40
1.25
 50
270.0
 51
450.000005
  0
ARC
  8
0
  6
BYLAYER
 62
     1
 10
163.490001
 20
-626.095565
 30
0.0
 40
1.25
 50
270.0
 51
450.000005
  0
LINE
  8
0
  6
BYLAYER
 62
     1
 10
163.490001
 20
-564.845565
 30
0.0
 11
134.264627
 21
-564.845565
 31
0.0
  0
LINE
  8
0
  6
BYLAYER
 62
     1
 10
163.490001
 20
-574.845565
 30
0.0
 11
134.264627
 21
-574.845565
 31
0.0
  0
LINE
  8
0
  6
BYLAYER
 62
     1
 10
163.490001
 20
-577.345565
 30
0.0
 11
134.264627
 21
-577.345565
 31
0.0
  0
LINE
  8
0
  6
BYLAYER
 62
     1
 10
163.490001
 20
-624.845565
 30
0.0
 11
134.264627
 21
-624.845565
 31
0.0
  0
LINE
  8
0
  6
BYLAYER
 62
     1
 10
163.490001
 20
-627.345565
 30
0.0
 11
134.264627
 21
-627.345565
 31
0.0
  0
LINE
  8
0
  6
BYLAYER
 62
     1
 10
134.264627
 20
-614.845565
 30
0.0
 11
163.490001
 21
-614.845565
 31
0.0
  0
LINE
  8
0
  6
BYLAYER
 62
     1
 10
134.264627
 20
-617.345565
 30
0.0
 11
163.490001
 21
-617.345565
 31
0.0
  0
LINE
  8
0
  6
BYLAYER
 62
     1
 10
134.264627
 20
-567.345565
 30
0.0
 11
163.490001
 21
-567.345565
 31
0.0
  0
ARC
  8
0
  6
BYLAYER
 62
     1
 10
176.240299
 20
-586.095565
 30
0.0
 40
1.25
 50
270.0
 51
450.000005
  0
ARC
  8
0
  6
BYLAYER
 62
     1
 10
176.240299
 20
-606.095565
 30
0.0
 40
1.25
 50
270.0
 51
450.000005
  0
ARC
  8
0
  6
BYLAYER
 62
     1
 10
176.240299
 20
-596.095565
 30
0.0
 40
1.25
 50
270.0
 51
360.000009
  0
ARC
  8
0
  6
BYLAYER
 62
     1
 10
176.240299
 20
-596.095565
 30
0.0
 40
1.250000
 50
0.0
 51
89.999996
  0
LINE
  8
0
  6
BYLAYER
 62
     1
 10
134.264627
 20
-597.345565
 30
0.0
 11
176.240299
 21
-597.345565
 31
0.0
  0
LINE
  8
0
  6
BYLAYER
 62
     1
 10
134.264627
 20
-584.845565
 30
0.0
 11
176.240299
 21
-584.845565
 31
0.0
  0
LINE
  8
0
  6
BYLAYER
 62
     1
 10
134.264627
 20
-594.845565
 30
0.0
 11
176.240299
 21
-594.845565
 31
0.0
  0
LINE
  8
0
  6
BYLAYER
 62
     1
 10
134.264627
 20
-604.845441
 30
0.0
 11
176.240299
 21
-604.845611
 31
0.0
  0
LINE
  8
0
  6
BYLAYER
 62
     1
 10
134.264627
 20
-607.345441
 30
0.0
 11
176.240299
 21
-607.345611
 31
0.0
  0
LINE
  8
0
  6
BYLAYER
 62
     1
 10
134.264627
 20
-587.345565
 30
0.0
 11
176.240299
 21
-587.345565
 31
0.0
  0
LINE
  8
0
  6
BYLAYER
 62
     1
 10
230.164356
 20
-564.845565
 30
0.0
 11
267.264627
 21
-564.845565
 31
0.0
  0
ARC
  8
0
  6
BYLAYER
 62
     1
 10
230.164356
 20
-566.095565
 30
0.0
 40
1.25
 50
90.0
 51
270.000005
  0
LINE
  8
0
  6
BYLAYER
 62
     1
 10
230.164356
 20
-614.845565
 30
0.0
 11
267.264627
 21
-614.845565
 31
0.0
  0
LINE
  8
0
  6
BYLAYER
 62
     1
 10
230.164356
 20
-617.345565
 30
0.0
 11
267.264627
 21
-617.345565
 31
0.0
  0
ARC
  8
0
  6
BYLAYER
 62
     1
 10
230.164356
 20
-616.095565
 30
0.0
 40
1.25
 50
90.0
 51
270.000005
  0
LINE
  8
0
  6
BYLAYER
 62
     1
 10
230.164356
 20
-627.345565
 30
0.0
 11
267.264627
 21
-627.345565
 31
0.0
  0
ARC
  8
0
  6
BYLAYER
 62
     1
 10
230.164356
 20
-626.095565
 30
0.0
 40
1.25
 50
90.0
 51
270.000005
  0
LINE
  8
0
  6
BYLAYER
 62
     1
 10
267.264627
 20
-577.345565
 30
0.0
 11
230.164356
 21
-577.345565
 31
0.0
  0
LINE
  8
0
  6
BYLAYER
 62
     1
 10
230.164356
 20
-624.845565
 30
0.0
 11
267.264627
 21
-624.845565
 31
0.0
  0
LINE
  8
0
  6
BYLAYER
 62
     1
 10
267.264627
 20
-574.845565
 30
0.0
 11
230.164356
 21
-574.845565
 31
0.0
  0
LINE
  8
0
  6
BYLAYER
 62
     1
 10
230.164356
 20
-567.345565
 30
0.0
 11
267.264627
 21
-567.345565
 31
0.0
  0
ARC
  8
0
  6
BYLAYER
 62
     1
 10
230.164356
 20
-576.095565
 30
0.0
 40
1.25
 50
90.0
 51
270.000005
  0
LINE
  8
0
  6
BYLAYER
 62
     1
 10
313.264505
 20
-61.095565
 30
0.0
 11
313.264505
 21
-121.095563
 31
0.0
  0
ARC
  8
0
  6
BYLAYER
 62
     1
 10
301.264505
 20
-77.628369
 30
0.0
 40
1.999988
 50
281.000195
 51
360.000000
  0
LINE
  8
0
  6
BYLAYER
 62
     1
 10
303.264505
 20
-63.517560
 30
0.0
 11
303.264505
 21
-121.095563
 31
0.0
  0
LINE
  8
0
  6
BYLAYER
 62
     1
 10
288.764505
 20
-82.095548
 30
0.0
 11
301.646127
 21
-79.591611
 31
0.0
  0
LINE
  8
0
  6
BYLAYER
 62
     1
 10
303.264505
 20
-63.517560
 30
0.0
 11
289.931619
 21
-81.868680
 31
0.0
  0
LINE
  8
0
  6
BYLAYER
 62
     1
 10
288.764505
 20
-82.095548
 30
0.0
 11
288.764505
 21
-121.095563
 31
0.0
  0
LINE
  8
0
  6
BYLAYER
 62
     1
 10
305.159830
 20
-61.520307
 30
0.0
 11
313.264505
 21
-61.095565
 31
0.0
  0
ARC
  8
0
  6
BYLAYER
 62
     1
 10
305.264505
 20
-63.517560
 30
0.0
 40
2.0
 50
93.000097
 51
180.000000
  0
LINE
  8
0
  6
BYLAYER
 62
     1
 10
313.264505
 20
-181.095561
 30
0.0
 11
313.264505
 21
-121.095563
 31
0.0
  0
ARC
  8
0
  6
BYLAYER
 62
     1
 10
301.264505
 20
-164.562757
 30
0.0
 40
1.999988
 50
0.0
 51
78.999805
  0
LINE
  8
0
  6
BYLAYER
 62
     1
 10
303.264505
 20
-178.673566
 30
0.0
 11
303.264505
 21
-121.095563
 31
0.0
  0
LINE
  8
0
  6
BYLAYER
 62
     1
 10
288.764505
 20
-160.095578
 30
0.0
 11
301.646127
 21
-162.599515
 31
0.0
  0
LINE
  8
0
  6
BYLAYER
 62
     1
 10
303.264505
 20
-178.673566
 30
0.0
 11
289.931619
 21
-160.322446
 31
0.0
  0
LINE
  8
0
  6
BYLAYER
 62
     1
 10
288.764505
 20
-160.095578
 30
0.0
 11
288.764505
 21
-121.095563
 31
0.0
  0
LINE
  8
0
  6
BYLAYER
 62
     1
 10
305.159830
 20
-180.670819
 30
0.0
 11
313.264505
 21
-181.095561
 31
0.0
  0
ARC
  8
0
  6
BYLAYER
 62
     1
 10
305.264505
 20
-178.673566
 30
0.0
 40
2.0
 50
180.000000
 51
266.999903
  0
LINE
  8
0
  6
BYLAYER
 62
     1
 10
824.764505
 20
-237.095563
 30
0.0
 11
824.764505
 21
-282.095563
 31
0.0
  0
LINE
  8
0
  6
BYLAYER
 62
     1
 10
844.764505
 20
-237.095563
 30
0.0
 11
824.764505
 21
-237.095563
 31
0.0
  0
LINE
  8
0
  6
BYLAYER
 62
     1
 10
826.264505
 20
-235.595563
 30
0.0
 11
824.764505
 21
-237.095563
 31
0.0
  0
LINE
  8
0
  6
BYLAYER
 62
     1
 10
844.764505
 20
-235.595563
 30
0.0
 11
826.264505
 21
-235.595563
 31
0.0
  0
LINE
  8
0
  6
BYLAYER
 62
     1
 10
916.764505
 20
-237.095563
 30
0.0
 11
936.764505
 21
-237.095563
 31
0.0
  0
LINE
  8
0
  6
BYLAYER
 62
     1
 10
935.264505
 20
-235.595563
 30
0.0
 11
936.764505
 21
-237.095563
 31
0.0
  0
LINE
  8
0
  6
BYLAYER
 62
     1
 10
936.764505
 20
-237.095563
 30
0.0
 11
936.764505
 21
-282.095563
 31
0.0
  0
LINE
  8
0
  6
BYLAYER
 62
     1
 10
916.764505
 20
-235.595563
 30
0.0
 11
935.264505
 21
-235.595563
 31
0.0
  0
LINE
  8
0
  6
BYLAYER
 62
     1
 10
940.264505
 20
-243.595563
 30
0.0
 11
940.764505
 21
-243.095563
 31
0.0
  0
LINE
  8
0
  6
BYLAYER
 62
     1
 10
935.264505
 20
-235.595563
 30
0.0
 11
935.264505
 21
-178.630878
 31
0.0
  0
LINE
  8
0
  6
BYLAYER
 62
     1
 10
916.764505
 20
-282.095563
 30
0.0
 11
916.764505
 21
-191.696997
 31
0.0
  0
LINE
  8
0
  6
BYLAYER
 62
     1
 10
844.764505
 20
-282.095563
 30
0.0
 11
844.764505
 21
-191.696997
 31
0.0
  0
LINE
  8
0
  6
BYLAYER
 62
     1
 10
940.764505
 20
-172.869712
 30
0.0
 11
940.764505
 21
-243.095563
 31
0.0
  0
LINE
  8
0
  6
BYLAYER
 62
     1
 10
826.264505
 20
-178.630878
 30
0.0
 11
826.264505
 21
-235.595563
 31
0.0
  0
CIRCLE
  8
0
  6
BYLAYER
 62
     1
 10
925.714456
 20
-256.095319
 30
0.0
 40
5.750000
  0
LINE
  8
0
  6
BYLAYER
 62
     1
 10
936.764505
 20
-282.095563
 30
0.0
 11
916.764505
 21
-282.095563
 31
0.0
  0
LINE
  8
0
  6
BYLAYER
 62
     1
 10
937.764383
 20
-266.095502
 30
0.0
 11
936.764505
 21
-266.130414
 31
0.0
  0
CIRCLE
  8
0
  6
BYLAYER
 62
     1
 10
835.814554
 20
-256.095319
 30
0.0
 40
5.750000
  0
LINE
  8
0
  6
BYLAYER
 62
     1
 10
824.764505
 20
-282.095563
 30
0.0
 11
844.764505
 21
-282.095563
 31
0.0
  0
LINE
  8
0
  6
BYLAYER
 62
     1
 10
937.764505
 20
-266.095563
 30
0.0
 11
937.764505
 21
-176.155190
 31
0.0
  0
LINE
  8
0
  6
BYLAYER
 62
     1
 10
937.764505
 20
-243.595563
 30
0.0
 11
940.264505
 21
-243.595563
 31
0.0
  0
LINE
  8
0
  6
BYLAYER
 62
     1
 10
821.264505
 20
-243.595563
 30
0.0
 11
820.764505
 21
-243.095563
 31
0.0
  0
LINE
  8
0
  6
BYLAYER
 62
     1
 10
820.764505
 20
-172.869712
 30
0.0
 11
820.764505
 21
-243.095563
 31
0.0
  0
LINE
  8
0
  6
BYLAYER
 62
     1
 10
823.764627
 20
-266.095502
 30
0.0
 11
824.764505
 21
-266.130414
 31
0.0
  0
LINE
  8
0
  6
BYLAYER
 62
     1
 10
823.764505
 20
-266.095563
 30
0.0
 11
823.764505
 21
-176.155190
 31
0.0
  0
LINE
  8
0
  6
BYLAYER
 62
     1
 10
823.764505
 20
-243.595563
 30
0.0
 11
821.264505
 21
-243.595563
 31
0.0
  0
LINE
  8
0
  6
BYLAYER
 62
     1
 10
916.764505
 20
-278.095746
 30
0.0
 11
844.764505
 21
-278.095746
 31
0.0
  0
LINE
  8
0
  6
BYLAYER
 62
     7
 10
843.764505
 20
-33.095532
 30
0.0
 11
843.764505
 21
-51.013022
 31
0.0
  0
LINE
  8
0
  6
BYLAYER
 62
     7
 10
917.764505
 20
-33.095532
 30
0.0
 11
917.764505
 21
-51.013022
 31
0.0
  0
LINE
  8
0
  6
BYLAYER
 62
     7
 10
843.764505
 20
-37.595532
 30
0.0
 11
846.764505
 21
-42.791669
 31
0.0
  0
LINE
  8
0
  6
BYLAYER
 62
     7
 10
917.764505
 20
-37.595532
 30
0.0
 11
914.764505
 21
-42.791669
 31
0.0
  0
LINE
  8
0
  6
BYLAYER
 62
     7
 10
846.764505
 20
-42.791669
 30
0.0
 11
846.764505
 21
-49.509513
 31
0.0
  0
LINE
  8
0
  6
BYLAYER
 62
     7
 10
914.764505
 20
-42.791669
 30
0.0
 11
914.764505
 21
-49.509513
 31
0.0
  0
LINE
  8
0
  6
BYLAYER
 62
     7
 10
917.764505
 20
-33.095471
 30
0.0
 11
843.764505
 21
-33.095471
 31
0.0
  0
CIRCLE
  8
0
  6
BYLAYER
 62
     7
 10
880.764505
 20
-121.095563
 30
0.0
 40
59.0
  0
CIRCLE
  8
0
  6
BYLAYER
 62
     7
 10
880.764505
 20
-121.095563
 30
0.0
 40
64.487732
  0
CIRCLE
  8
0
  6
BYLAYER
 62
     7
 10
880.764505
 20
-121.095563
 30
0.0
 40
79.25
  0
LINE
  8
0
  6
BYLAYER
 62
     7
 10
881.764505
 20
-92.095563
 30
0.0
 11
881.764505
 21
-100.095563
 31
0.0
  0
LINE
  8
0
  6
BYLAYER
 62
     7
 10
881.764505
 20
-82.095563
 30
0.0
 11
881.764505
 21
-90.095563
 31
0.0
  0
LINE
  8
0
  6
BYLAYER
 62
     7
 10
889.764505
 20
-90.095563
 30
0.0
 11
889.764505
 21
-82.095563
 31
0.0
  0
LINE
  8
0
  6
BYLAYER
 62
     7
 10
891.764505
 20
-90.095563
 30
0.0
 11
891.764505
 21
-82.095563
 31
0.0
  0
LINE
  8
0
  6
BYLAYER
 62
     7
 10
881.764505
 20
-100.095563
 30
0.0
 11
889.764505
 21
-100.095563
 31
0.0
  0
LINE
  8
0
  6
BYLAYER
 62
     7
 10
881.764505
 20
-92.095563
 30
0.0
 11
889.764505
 21
-92.095563
 31
0.0
  0
LINE
  8
0
  6
BYLAYER
 62
     7
 10
891.764505
 20
-90.095563
 30
0.0
 11
899.602504
 21
-90.095563
 31
0.0
  0
LINE
  8
0
  6
BYLAYER
 62
     7
 10
881.764505
 20
-90.095563
 30
0.0
 11
889.764505
 21
-90.095563
 31
0.0
  0
LINE
  8
0
  6
BYLAYER
 62
     7
 10
891.764505
 20
-82.095563
 30
0.0
 11
899.602504
 21
-82.095563
 31
0.0
  0
LINE
  8
0
  6
BYLAYER
 62
     7
 10
881.764505
 20
-82.095563
 30
0.0
 11
889.764505
 21
-82.095563
 31
0.0
  0
LINE
  8
0
  6
BYLAYER
 62
     7
 10
899.602504
 20
-90.095563
 30
0.0
 11
899.602504
 21
-82.095563
 31
0.0
  0
LINE
  8
0
  6
BYLAYER
 62
     7
 10
889.764505
 20
-100.095563
 30
0.0
 11
889.764505
 21
-92.095563
 31
0.0
  0
LINE
  8
0
  6
BYLAYER
 62
     7
 10
891.764505
 20
-92.095563
 30
0.0
 11
891.764505
 21
-100.095563
 31
0.0
  0
LINE
  8
0
  6
BYLAYER
 62
     7
 10
891.764505
 20
-100.095563
 30
0.0
 11
899.764505
 21
-100.095563
 31
0.0
  0
LINE
  8
0
  6
BYLAYER
 62
     7
 10
891.764505
 20
-92.095563
 30
0.0
 11
899.764505
 21
-92.095563
 31
0.0
  0
LINE
  8
0
  6
BYLAYER
 62
     7
 10
899.764505
 20
-100.095563
 30
0.0
 11
899.764505
 21
-92.095563
 31
0.0
  0
LINE
  8
0
  6
BYLAYER
 62
     7
 10
901.764505
 20
-110.095563
 30
0.0
 11
909.764505
 21
-110.095563
 31
0.0
  0
LINE
  8
0
  6
BYLAYER
 62
     7
 10
901.764505
 20
-92.095563
 30
0.0
 11
901.764505
 21
-100.095563
 31
0.0
  0
LINE
  8
0
  6
BYLAYER
 62
     7
 10
901.764505
 20
-102.095563
 30
0.0
 11
901.764505
 21
-110.095563
 31
0.0
  0
LINE
  8
0
  6
BYLAYER
 62
     7
 10
901.764505
 20
-102.095563
 30
0.0
 11
909.764505
 21
-102.095563
 31
0.0
  0
LINE
  8
0
  6
BYLAYER
 62
     7
 10
901.764505
 20
-100.095563
 30
0.0
 11
909.764505
 21
-100.095563
 31
0.0
  0
LINE
  8
0
  6
BYLAYER
 62
     7
 10
901.764505
 20
-92.095563
 30
0.0
 11
909.764505
 21
-92.095563
 31
0.0
  0
LINE
  8
0
  6
BYLAYER
 62
     7
 10
909.764505
 20
-110.095563
 30
0.0
 11
909.764505
 21
-102.095563
 31
0.0
  0
LINE
  8
0
  6
BYLAYER
 62
     7
 10
909.764505
 20
-100.095563
 30
0.0
 11
909.764505
 21
-92.095563
 31
0.0
  0
LINE
  8
0
  6
BYLAYER
 62
     7
 10
901.764505
 20
-120.095563
 30
0.0
 11
909.764505
 21
-120.095563
 31
0.0
  0
LINE
  8
0
  6
BYLAYER
 62
     7
 10
901.764505
 20
-112.095563
 30
0.0
 11
901.764505
 21
-120.095563
 31
0.0
  0
LINE
  8
0
  6
BYLAYER
 62
     7
 10
901.764505
 20
-112.095563
 30
0.0
 11
909.764505
 21
-112.095563
 31
0.0
  0
LINE
  8
0
  6
BYLAYER
 62
     7
 10
909.764505
 20
-120.095563
 30
0.0
 11
909.764505
 21
-112.095563
 31
0.0
  0
LINE
  8
0
  6
BYLAYER
 62
     7
 10
911.764505
 20
-110.095563
 30
0.0
 11
919.764505
 21
-110.095563
 31
0.0
  0
LINE
  8
0
  6
BYLAYER
 62
     7
 10
911.764505
 20
-102.095563
 30
0.0
 11
911.764505
 21
-110.095563
 31
0.0
  0
LINE
  8
0
  6
BYLAYER
 62
     7
 10
911.764505
 20
-102.095563
 30
0.0
 11
919.764505
 21
-102.095563
 31
0.0
  0
LINE
  8
0
  6
BYLAYER
 62
     7
 10
919.764505
 20
-110.095563
 30
0.0
 11
919.764505
 21
-102.095563
 31
0.0
  0
LINE
  8
0
  6
BYLAYER
 62
     7
 10
911.764505
 20
-120.095563
 30
0.0
 11
919.764505
 21
-120.095563
 31
0.0
  0
LINE
  8
0
  6
BYLAYER
 62
     7
 10
911.764505
 20
-112.095563
 30
0.0
 11
911.764505
 21
-120.095563
 31
0.0
  0
LINE
  8
0
  6
BYLAYER
 62
     7
 10
911.764505
 20
-112.095563
 30
0.0
 11
919.764505
 21
-112.095563
 31
0.0
  0
LINE
  8
0
  6
BYLAYER
 62
     7
 10
919.764505
 20
-120.095563
 30
0.0
 11
919.764505
 21
-112.095563
 31
0.0
  0
LINE
  8
0
  6
BYLAYER
 62
     7
 10
921.764505
 20
-110.095563
 30
0.0
 11
929.764505
 21
-110.095563
 31
0.0
  0
LINE
  8
0
  6
BYLAYER
 62
     7
 10
921.764505
 20
-102.095563
 30
0.0
 11
921.764505
 21
-110.095563
 31
0.0
  0
LINE
  8
0
  6
BYLAYER
 62
     7
 10
921.764505
 20
-102.095563
 30
0.0
 11
929.764505
 21
-102.095563
 31
0.0
  0
LINE
  8
0
  6
BYLAYER
 62
     7
 10
929.764505
 20
-110.095563
 30
0.0
 11
929.764505
 21
-102.095563
 31
0.0
  0
LINE
  8
0
  6
BYLAYER
 62
     7
 10
921.764505
 20
-120.095563
 30
0.0
 11
929.764505
 21
-120.095563
 31
0.0
  0
LINE
  8
0
  6
BYLAYER
 62
     7
 10
921.764505
 20
-112.095563
 30
0.0
 11
921.764505
 21
-120.095563
 31
0.0
  0
LINE
  8
0
  6
BYLAYER
 62
     7
 10
921.764505
 20
-112.095563
 30
0.0
 11
929.764505
 21
-112.095563
 31
0.0
  0
LINE
  8
0
  6
BYLAYER
 62
     7
 10
929.764505
 20
-120.095563
 30
0.0
 11
929.764505
 21
-112.095563
 31
0.0
  0
LINE
  8
0
  6
BYLAYER
 62
     7
 10
881.764505
 20
-72.095563
 30
0.0
 11
881.764505
 21
-80.095563
 31
0.0
  0
LINE
  8
0
  6
BYLAYER
 62
     7
 10
889.764505
 20
-80.095563
 30
0.0
 11
889.764505
 21
-72.095563
 31
0.0
  0
LINE
  8
0
  6
BYLAYER
 62
     7
 10
891.764505
 20
-80.095563
 30
0.0
 11
891.764505
 21
-72.095563
 31
0.0
  0
LINE
  8
0
  6
BYLAYER
 62
     7
 10
891.764505
 20
-80.095563
 30
0.0
 11
899.602504
 21
-80.095563
 31
0.0
  0
LINE
  8
0
  6
BYLAYER
 62
     7
 10
881.764505
 20
-80.095563
 30
0.0
 11
889.764505
 21
-80.095563
 31
0.0
  0
LINE
  8
0
  6
BYLAYER
 62
     7
 10
891.764505
 20
-72.095563
 30
0.0
 11
899.602504
 21
-72.095563
 31
0.0
  0
LINE
  8
0
  6
BYLAYER
 62
     7
 10
881.764505
 20
-72.095563
 30
0.0
 11
889.764505
 21
-72.095563
 31
0.0
  0
LINE
  8
0
  6
BYLAYER
 62
     7
 10
899.602504
 20
-80.095563
 30
0.0
 11
899.602504
 21
-72.095563
 31
0.0
  0
LINE
  8
0
  6
BYLAYER
 62
     7
 10
901.764505
 20
-82.095563
 30
0.0
 11
901.764505
 21
-90.095563
 31
0.0
  0
LINE
  8
0
  6
BYLAYER
 62
     7
 10
901.764505
 20
-90.095563
 30
0.0
 11
909.764505
 21
-90.095563
 31
0.0
  0
LINE
  8
0
  6
BYLAYER
 62
     7
 10
901.764505
 20
-82.095563
 30
0.0
 11
909.764505
 21
-82.095563
 31
0.0
  0
LINE
  8
0
  6
BYLAYER
 62
     7
 10
909.764505
 20
-90.095563
 30
0.0
 11
909.764505
 21
-82.095563
 31
0.0
  0
LINE
  8
0
  6
BYLAYER
 62
     7
 10
901.764505
 20
-72.095563
 30
0.0
 11
901.764505
 21
-80.095563
 31
0.0
  0
LINE
  8
0
  6
BYLAYER
 62
     7
 10
901.764505
 20
-80.095563
 30
0.0
 11
909.764505
 21
-80.095563
 31
0.0
  0
LINE
  8
0
  6
BYLAYER
 62
     7
 10
901.764505
 20
-72.095563
 30
0.0
 11
909.764505
 21
-72.095563
 31
0.0
  0
LINE
  8
0
  6
BYLAYER
 62
     7
 10
909.764505
 20
-80.095563
 30
0.0
 11
909.764505
 21
-72.095563
 31
0.0
  0
LINE
  8
0
  6
BYLAYER
 62
     7
 10
911.764505
 20
-92.095563
 30
0.0
 11
911.764505
 21
-100.095563
 31
0.0
  0
LINE
  8
0
  6
BYLAYER
 62
     7
 10
911.764505
 20
-100.095563
 30
0.0
 11
919.764505
 21
-100.095563
 31
0.0
  0
LINE
  8
0
  6
BYLAYER
 62
     7
 10
911.764505
 20
-92.095563
 30
0.0
 11
919.764505
 21
-92.095563
 31
0.0
  0
LINE
  8
0
  6
BYLAYER
 62
     7
 10
919.764505
 20
-100.095563
 30
0.0
 11
919.764505
 21
-92.095563
 31
0.0
  0
LINE
  8
0
  6
BYLAYER
 62
     7
 10
911.764505
 20
-82.095563
 30
0.0
 11
911.764505
 21
-90.095563
 31
0.0
  0
LINE
  8
0
  6
BYLAYER
 62
     7
 10
911.764505
 20
-90.095563
 30
0.0
 11
919.764505
 21
-90.095563
 31
0.0
  0
LINE
  8
0
  6
BYLAYER
 62
     7
 10
911.764505
 20
-82.095563
 30
0.0
 11
919.764505
 21
-82.095563
 31
0.0
  0
LINE
  8
0
  6
BYLAYER
 62
     7
 10
919.764505
 20
-90.095563
 30
0.0
 11
919.764505
 21
-82.095563
 31
0.0
  0
LINE
  8
0
  6
BYLAYER
 62
     7
 10
921.764505
 20
-92.095563
 30
0.0
 11
921.764505
 21
-100.095563
 31
0.0
  0
LINE
  8
0
  6
BYLAYER
 62
     7
 10
921.764505
 20
-100.095563
 30
0.0
 11
929.764505
 21
-100.095563
 31
0.0
  0
LINE
  8
0
  6
BYLAYER
 62
     7
 10
921.764505
 20
-92.095563
 30
0.0
 11
929.764505
 21
-92.095563
 31
0.0
  0
LINE
  8
0
  6
BYLAYER
 62
     7
 10
929.764505
 20
-100.095563
 30
0.0
 11
929.764505
 21
-92.095563
 31
0.0
  0
LINE
  8
0
  6
BYLAYER
 62
     7
 10
881.764505
 20
-150.095563
 30
0.0
 11
881.764505
 21
-142.095563
 31
0.0
  0
LINE
  8
0
  6
BYLAYER
 62
     7
 10
881.764505
 20
-160.095563
 30
0.0
 11
881.764505
 21
-152.095563
 31
0.0
  0
LINE
  8
0
  6
BYLAYER
 62
     7
 10
889.764505
 20
-152.095563
 30
0.0
 11
889.764505
 21
-160.095563
 31
0.0
  0
LINE
  8
0
  6
BYLAYER
 62
     7
 10
891.764505
 20
-152.095563
 30
0.0
 11
891.764505
 21
-160.095563
 31
0.0
  0
LINE
  8
0
  6
BYLAYER
 62
     7
 10
881.764505
 20
-142.095563
 30
0.0
 11
889.764505
 21
-142.095563
 31
0.0
  0
LINE
  8
0
  6
BYLAYER
 62
     7
 10
881.764505
 20
-150.095563
 30
0.0
 11
889.764505
 21
-150.095563
 31
0.0
  0
LINE
  8
0
  6
BYLAYER
 62
     7
 10
891.764505
 20
-152.095563
 30
0.0
 11
899.602504
 21
-152.095563
 31
0.0
  0
LINE
  8
0
  6
BYLAYER
 62
     7
 10
881.764505
 20
-152.095563
 30
0.0
 11
889.764505
 21
-152.095563
 31
0.0
  0
LINE
  8
0
  6
BYLAYER
 62
     7
 10
891.764505
 20
-160.095563
 30
0.0
 11
899.602504
 21
-160.095563
 31
0.0
  0
LINE
  8
0
  6
BYLAYER
 62
     7
 10
881.764505
 20
-160.095563
 30
0.0
 11
889.764505
 21
-160.095563
 31
0.0
  0
LINE
  8
0
  6
BYLAYER
 62
     7
 10
899.602504
 20
-152.095563
 30
0.0
 11
899.602504
 21
-160.095563
 31
0.0
  0
LINE
  8
0
  6
BYLAYER
 62
     7
 10
889.764505
 20
-142.095563
 30
0.0
 11
889.764505
 21
-150.095563
 31
0.0
  0
LINE
  8
0
  6
BYLAYER
 62
     7
 10
891.764505
 20
-150.095563
 30
0.0
 11
891.764505
 21
-142.095563
 31
0.0
  0
LINE
  8
0
  6
BYLAYER
 62
     7
 10
891.764505
 20
-142.095563
 30
0.0
 11
899.764505
 21
-142.095563
 31
0.0
  0
LINE
  8
0
  6
BYLAYER
 62
     7
 10
891.764505
 20
-150.095563
 30
0.0
 11
899.764505
 21
-150.095563
 31
0.0
  0
LINE
  8
0
  6
BYLAYER
 62
     7
 10
899.764505
 20
-142.095563
 30
0.0
 11
899.764505
 21
-150.095563
 31
0.0
  0
LINE
  8
0
  6
BYLAYER
 62
     7
 10
901.764505
 20
-132.095563
 30
0.0
 11
909.764505
 21
-132.095563
 31
0.0
  0
LINE
  8
0
  6
BYLAYER
 62
     7
 10
901.764505
 20
-150.095563
 30
0.0
 11
901.764505
 21
-142.095563
 31
0.0
  0
LINE
  8
0
  6
BYLAYER
 62
     7
 10
901.764505
 20
-140.095563
 30
0.0
 11
901.764505
 21
-132.095563
 31
0.0
  0
LINE
  8
0
  6
BYLAYER
 62
     7
 10
901.764505
 20
-140.095563
 30
0.0
 11
909.764505
 21
-140.095563
 31
0.0
  0
LINE
  8
0
  6
BYLAYER
 62
     7
 10
901.764505
 20
-142.095563
 30
0.0
 11
909.764505
 21
-142.095563
 31
0.0
  0
LINE
  8
0
  6
BYLAYER
 62
     7
 10
901.764505
 20
-150.095563
 30
0.0
 11
909.764505
 21
-150.095563
 31
0.0
  0
LINE
  8
0
  6
BYLAYER
 62
     7
 10
909.764505
 20
-132.095563
 30
0.0
 11
909.764505
 21
-140.095563
 31
0.0
  0
LINE
  8
0
  6
BYLAYER
 62
     7
 10
909.764505
 20
-142.095563
 30
0.0
 11
909.764505
 21
-150.095563
 31
0.0
  0
LINE
  8
0
  6
BYLAYER
 62
     7
 10
901.764505
 20
-122.095563
 30
0.0
 11
909.764505
 21
-122.095563
 31
0.0
  0
LINE
  8
0
  6
BYLAYER
 62
     7
 10
901.764505
 20
-130.095563
 30
0.0
 11
901.764505
 21
-122.095563
 31
0.0
  0
LINE
  8
0
  6
BYLAYER
 62
     7
 10
901.764505
 20
-130.095563
 30
0.0
 11
909.764505
 21
-130.095563
 31
0.0
  0
LINE
  8
0
  6
BYLAYER
 62
     7
 10
909.764505
 20
-122.095563
 30
0.0
 11
909.764505
 21
-130.095563
 31
0.0
  0
LINE
  8
0
  6
BYLAYER
 62
     7
 10
911.764505
 20
-132.095563
 30
0.0
 11
919.764505
 21
-132.095563
 31
0.0
  0
LINE
  8
0
  6
BYLAYER
 62
     7
 10
911.764505
 20
-140.095563
 30
0.0
 11
911.764505
 21
-132.095563
 31
0.0
  0
LINE
  8
0
  6
BYLAYER
 62
     7
 10
911.764505
 20
-140.095563
 30
0.0
 11
919.764505
 21
-140.095563
 31
0.0
  0
LINE
  8
0
  6
BYLAYER
 62
     7
 10
919.764505
 20
-132.095563
 30
0.0
 11
919.764505
 21
-140.095563
 31
0.0
  0
LINE
  8
0
  6
BYLAYER
 62
     7
 10
911.764505
 20
-122.095563
 30
0.0
 11
919.764505
 21
-122.095563
 31
0.0
  0
LINE
  8
0
  6
BYLAYER
 62
     7
 10
911.764505
 20
-130.095563
 30
0.0
 11
911.764505
 21
-122.095563
 31
0.0
  0
LINE
  8
0
  6
BYLAYER
 62
     7
 10
911.764505
 20
-130.095563
 30
0.0
 11
919.764505
 21
-130.095563
 31
0.0
  0
LINE
  8
0
  6
BYLAYER
 62
     7
 10
919.764505
 20
-122.095563
 30
0.0
 11
919.764505
 21
-130.095563
 31
0.0
  0
LINE
  8
0
  6
BYLAYER
 62
     7
 10
921.764505
 20
-132.095563
 30
0.0
 11
929.764505
 21
-132.095563
 31
0.0
  0
LINE
  8
0
  6
BYLAYER
 62
     7
 10
921.764505
 20
-140.095563
 30
0.0
 11
921.764505
 21
-132.095563
 31
0.0
  0
LINE
  8
0
  6
BYLAYER
 62
     7
 10
921.764505
 20
-140.095563
 30
0.0
 11
929.764505
 21
-140.095563
 31
0.0
  0
LINE
  8
0
  6
BYLAYER
 62
     7
 10
929.764505
 20
-132.095563
 30
0.0
 11
929.764505
 21
-140.095563
 31
0.0
  0
LINE
  8
0
  6
BYLAYER
 62
     7
 10
921.764505
 20
-122.095563
 30
0.0
 11
929.764505
 21
-122.095563
 31
0.0
  0
LINE
  8
0
  6
BYLAYER
 62
     7
 10
921.764505
 20
-130.095563
 30
0.0
 11
921.764505
 21
-122.095563
 31
0.0
  0
LINE
  8
0
  6
BYLAYER
 62
     7
 10
921.764505
 20
-130.095563
 30
0.0
 11
929.764505
 21
-130.095563
 31
0.0
  0
LINE
  8
0
  6
BYLAYER
 62
     7
 10
929.764505
 20
-122.095563
 30
0.0
 11
929.764505
 21
-130.095563
 31
0.0
  0
LINE
  8
0
  6
BYLAYER
 62
     7
 10
881.764505
 20
-170.095563
 30
0.0
 11
881.764505
 21
-162.095563
 31
0.0
  0
LINE
  8
0
  6
BYLAYER
 62
     7
 10
889.764505
 20
-162.095563
 30
0.0
 11
889.764505
 21
-170.095563
 31
0.0
  0
LINE
  8
0
  6
BYLAYER
 62
     7
 10
891.764505
 20
-162.095563
 30
0.0
 11
891.764505
 21
-170.095563
 31
0.0
  0
LINE
  8
0
  6
BYLAYER
 62
     7
 10
891.764505
 20
-162.095563
 30
0.0
 11
899.602504
 21
-162.095563
 31
0.0
  0
LINE
  8
0
  6
BYLAYER
 62
     7
 10
881.764505
 20
-162.095563
 30
0.0
 11
889.764505
 21
-162.095563
 31
0.0
  0
LINE
  8
0
  6
BYLAYER
 62
     7
 10
891.764505
 20
-170.095563
 30
0.0
 11
899.602504
 21
-170.095563
 31
0.0
  0
LINE
  8
0
  6
BYLAYER
 62
     7
 10
881.764505
 20
-170.095563
 30
0.0
 11
889.764505
 21
-170.095563
 31
0.0
  0
LINE
  8
0
  6
BYLAYER
 62
     7
 10
899.602504
 20
-162.095563
 30
0.0
 11
899.602504
 21
-170.095563
 31
0.0
  0
LINE
  8
0
  6
BYLAYER
 62
     7
 10
901.764505
 20
-160.095563
 30
0.0
 11
901.764505
 21
-152.095563
 31
0.0
  0
LINE
  8
0
  6
BYLAYER
 62
     7
 10
901.764505
 20
-152.095563
 30
0.0
 11
909.764505
 21
-152.095563
 31
0.0
  0
LINE
  8
0
  6
BYLAYER
 62
     7
 10
901.764505
 20
-160.095563
 30
0.0
 11
909.764505
 21
-160.095563
 31
0.0
  0
LINE
  8
0
  6
BYLAYER
 62
     7
 10
909.764505
 20
-152.095563
 30
0.0
 11
909.764505
 21
-160.095563
 31
0.0
  0
LINE
  8
0
  6
BYLAYER
 62
     7
 10
901.764505
 20
-170.095563
 30
0.0
 11
901.764505
 21
-162.095563
 31
0.0
  0
LINE
  8
0
  6
BYLAYER
 62
     7
 10
901.764505
 20
-162.095563
 30
0.0
 11
909.764505
 21
-162.095563
 31
0.0
  0
LINE
  8
0
  6
BYLAYER
 62
     7
 10
901.764505
 20
-170.095563
 30
0.0
 11
909.764505
 21
-170.095563
 31
0.0
  0
LINE
  8
0
  6
BYLAYER
 62
     7
 10
909.764505
 20
-162.095563
 30
0.0
 11
909.764505
 21
-170.095563
 31
0.0
  0
LINE
  8
0
  6
BYLAYER
 62
     7
 10
911.764505
 20
-150.095563
 30
0.0
 11
911.764505
 21
-142.095563
 31
0.0
  0
LINE
  8
0
  6
BYLAYER
 62
     7
 10
911.764505
 20
-142.095563
 30
0.0
 11
919.764505
 21
-142.095563
 31
0.0
  0
LINE
  8
0
  6
BYLAYER
 62
     7
 10
911.764505
 20
-150.095563
 30
0.0
 11
919.764505
 21
-150.095563
 31
0.0
  0
LINE
  8
0
  6
BYLAYER
 62
     7
 10
919.764505
 20
-142.095563
 30
0.0
 11
919.764505
 21
-150.095563
 31
0.0
  0
LINE
  8
0
  6
BYLAYER
 62
     7
 10
911.764505
 20
-160.095563
 30
0.0
 11
911.764505
 21
-152.095563
 31
0.0
  0
LINE
  8
0
  6
BYLAYER
 62
     7
 10
911.764505
 20
-152.095563
 30
0.0
 11
919.764505
 21
-152.095563
 31
0.0
  0
LINE
  8
0
  6
BYLAYER
 62
     7
 10
911.764505
 20
-160.095563
 30
0.0
 11
919.764505
 21
-160.095563
 31
0.0
  0
LINE
  8
0
  6
BYLAYER
 62
     7
 10
919.764505
 20
-152.095563
 30
0.0
 11
919.764505
 21
-160.095563
 31
0.0
  0
LINE
  8
0
  6
BYLAYER
 62
     7
 10
921.764505
 20
-150.095563
 30
0.0
 11
921.764505
 21
-142.095563
 31
0.0
  0
LINE
  8
0
  6
BYLAYER
 62
     7
 10
921.764505
 20
-142.095563
 30
0.0
 11
929.764505
 21
-142.095563
 31
0.0
  0
LINE
  8
0
  6
BYLAYER
 62
     7
 10
921.764505
 20
-150.095563
 30
0.0
 11
929.764505
 21
-150.095563
 31
0.0
  0
LINE
  8
0
  6
BYLAYER
 62
     7
 10
929.764505
 20
-142.095563
 30
0.0
 11
929.764505
 21
-150.095563
 31
0.0
  0
LINE
  8
0
  6
BYLAYER
 62
     7
 10
879.764505
 20
-92.095563
 30
0.0
 11
879.764505
 21
-100.095563
 31
0.0
  0
LINE
  8
0
  6
BYLAYER
 62
     7
 10
879.764505
 20
-82.095563
 30
0.0
 11
879.764505
 21
-90.095563
 31
0.0
  0
LINE
  8
0
  6
BYLAYER
 62
     7
 10
871.764505
 20
-90.095563
 30
0.0
 11
871.764505
 21
-82.095563
 31
0.0
  0
LINE
  8
0
  6
BYLAYER
 62
     7
 10
869.764505
 20
-90.095563
 30
0.0
 11
869.764505
 21
-82.095563
 31
0.0
  0
LINE
  8
0
  6
BYLAYER
 62
     7
 10
879.764505
 20
-100.095563
 30
0.0
 11
871.764505
 21
-100.095563
 31
0.0
  0
LINE
  8
0
  6
BYLAYER
 62
     7
 10
879.764505
 20
-92.095563
 30
0.0
 11
871.764505
 21
-92.095563
 31
0.0
  0
LINE
  8
0
  6
BYLAYER
 62
     7
 10
869.764505
 20
-90.095563
 30
0.0
 11
861.926506
 21
-90.095563
 31
0.0
  0
LINE
  8
0
  6
BYLAYER
 62
     7
 10
879.764505
 20
-90.095563
 30
0.0
 11
871.764505
 21
-90.095563
 31
0.0
  0
LINE
  8
0
  6
BYLAYER
 62
     7
 10
869.764505
 20
-82.095563
 30
0.0
 11
861.926506
 21
-82.095563
 31
0.0
  0
LINE
  8
0
  6
BYLAYER
 62
     7
 10
879.764505
 20
-82.095563
 30
0.0
 11
871.764505
 21
-82.095563
 31
0.0
  0
LINE
  8
0
  6
BYLAYER
 62
     7
 10
861.926506
 20
-90.095563
 30
0.0
 11
861.926506
 21
-82.095563
 31
0.0
  0
LINE
  8
0
  6
BYLAYER
 62
     7
 10
871.764505
 20
-100.095563
 30
0.0
 11
871.764505
 21
-92.095563
 31
0.0
  0
LINE
  8
0
  6
BYLAYER
 62
     7
 10
869.764505
 20
-92.095563
 30
0.0
 11
869.764505
 21
-100.095563
 31
0.0
  0
LINE
  8
0
  6
BYLAYER
 62
     7
 10
869.764505
 20
-100.095563
 30
0.0
 11
861.764505
 21
-100.095563
 31
0.0
  0
LINE
  8
0
  6
BYLAYER
 62
     7
 10
869.764505
 20
-92.095563
 30
0.0
 11
861.764505
 21
-92.095563
 31
0.0
  0
LINE
  8
0
  6
BYLAYER
 62
     7
 10
861.764505
 20
-100.095563
 30
0.0
 11
861.764505
 21
-92.095563
 31
0.0
  0
LINE
  8
0
  6
BYLAYER
 62
     7
 10
859.764505
 20
-110.095563
 30
0.0
 11
851.764505
 21
-110.095563
 31
0.0
  0
LINE
  8
0
  6
BYLAYER
 62
     7
 10
859.764505
 20
-92.095563
 30
0.0
 11
859.764505
 21
-100.095563
 31
0.0
  0
LINE
  8
0
  6
BYLAYER
 62
     7
 10
859.764505
 20
-102.095563
 30
0.0
 11
859.764505
 21
-110.095563
 31
0.0
  0
LINE
  8
0
  6
BYLAYER
 62
     7
 10
859.764505
 20
-102.095563
 30
0.0
 11
851.764505
 21
-102.095563
 31
0.0
  0
LINE
  8
0
  6
BYLAYER
 62
     7
 10
859.764505
 20
-100.095563
 30
0.0
 11
851.764505
 21
-100.095563
 31
0.0
  0
LINE
  8
0
  6
BYLAYER
 62
     7
 10
859.764505
 20
-92.095563
 30
0.0
 11
851.764505
 21
-92.095563
 31
0.0
  0
LINE
  8
0
  6
BYLAYER
 62
     7
 10
851.764505
 20
-110.095563
 30
0.0
 11
851.764505
 21
-102.095563
 31
0.0
  0
LINE
  8
0
  6
BYLAYER
 62
     7
 10
851.764505
 20
-100.095563
 30
0.0
 11
851.764505
 21
-92.095563
 31
0.0
  0
LINE
  8
0
  6
BYLAYER
 62
     7
 10
859.764505
 20
-120.095563
 30
0.0
 11
851.764505
 21
-120.095563
 31
0.0
  0
LINE
  8
0
  6
BYLAYER
 62
     7
 10
859.764505
 20
-112.095563
 30
0.0
 11
859.764505
 21
-120.095563
 31
0.0
  0
LINE
  8
0
  6
BYLAYER
 62
     7
 10
859.764505
 20
-112.095563
 30
0.0
 11
851.764505
 21
-112.095563
 31
0.0
  0
LINE
  8
0
  6
BYLAYER
 62
     7
 10
851.764505
 20
-120.095563
 30
0.0
 11
851.764505
 21
-112.095563
 31
0.0
  0
LINE
  8
0
  6
BYLAYER
 62
     7
 10
849.764505
 20
-110.095563
 30
0.0
 11
841.764505
 21
-110.095563
 31
0.0
  0
LINE
  8
0
  6
BYLAYER
 62
     7
 10
849.764505
 20
-102.095563
 30
0.0
 11
849.764505
 21
-110.095563
 31
0.0
  0
LINE
  8
0
  6
BYLAYER
 62
     7
 10
849.764505
 20
-102.095563
 30
0.0
 11
841.764505
 21
-102.095563
 31
0.0
  0
LINE
  8
0
  6
BYLAYER
 62
     7
 10
841.764505
 20
-110.095563
 30
0.0
 11
841.764505
 21
-102.095563
 31
0.0
  0
LINE
  8
0
  6
BYLAYER
 62
     7
 10
849.764505
 20
-120.095563
 30
0.0
 11
841.764505
 21
-120.095563
 31
0.0
  0
LINE
  8
0
  6
BYLAYER
 62
     7
 10
849.764505
 20
-112.095563
 30
0.0
 11
849.764505
 21
-120.095563
 31
0.0
  0
LINE
  8
0
  6
BYLAYER
 62
     7
 10
849.764505
 20
-112.095563
 30
0.0
 11
841.764505
 21
-112.095563
 31
0.0
  0
LINE
  8
0
  6
BYLAYER
 62
     7
 10
841.764505
 20
-120.095563
 30
0.0
 11
841.764505
 21
-112.095563
 31
0.0
  0
LINE
  8
0
  6
BYLAYER
 62
     7
 10
839.764505
 20
-110.095563
 30
0.0
 11
831.764505
 21
-110.095563
 31
0.0
  0
LINE
  8
0
  6
BYLAYER
 62
     7
 10
839.764505
 20
-102.095563
 30
0.0
 11
839.764505
 21
-110.095563
 31
0.0
  0
LINE
  8
0
  6
BYLAYER
 62
     7
 10
839.764505
 20
-102.095563
 30
0.0
 11
831.764505
 21
-102.095563
 31
0.0
  0
LINE
  8
0
  6
BYLAYER
 62
     7
 10
831.764505
 20
-110.095563
 30
0.0
 11
831.764505
 21
-102.095563
 31
0.0
  0
LINE
  8
0
  6
BYLAYER
 62
     7
 10
839.764505
 20
-120.095563
 30
0.0
 11
831.764505
 21
-120.095563
 31
0.0
  0
LINE
  8
0
  6
BYLAYER
 62
     7
 10
839.764505
 20
-112.095563
 30
0.0
 11
839.764505
 21
-120.095563
 31
0.0
  0
LINE
  8
0
  6
BYLAYER
 62
     7
 10
839.764505
 20
-112.095563
 30
0.0
 11
831.764505
 21
-112.095563
 31
0.0
  0
LINE
  8
0
  6
BYLAYER
 62
     7
 10
831.764505
 20
-120.095563
 30
0.0
 11
831.764505
 21
-112.095563
 31
0.0
  0
LINE
  8
0
  6
BYLAYER
 62
     7
 10
879.764505
 20
-72.095563
 30
0.0
 11
879.764505
 21
-80.095563
 31
0.0
  0
LINE
  8
0
  6
BYLAYER
 62
     7
 10
871.764505
 20
-80.095563
 30
0.0
 11
871.764505
 21
-72.095563
 31
0.0
  0
LINE
  8
0
  6
BYLAYER
 62
     7
 10
869.764505
 20
-80.095563
 30
0.0
 11
869.764505
 21
-72.095563
 31
0.0
  0
LINE
  8
0
  6
BYLAYER
 62
     7
 10
869.764505
 20
-80.095563
 30
0.0
 11
861.926506
 21
-80.095563
 31
0.0
  0
LINE
  8
0
  6
BYLAYER
 62
     7
 10
879.764505
 20
-80.095563
 30
0.0
 11
871.764505
 21
-80.095563
 31
0.0
  0
LINE
  8
0
  6
BYLAYER
 62
     7
 10
869.764505
 20
-72.095563
 30
0.0
 11
861.926506
 21
-72.095563
 31
0.0
  0
LINE
  8
0
  6
BYLAYER
 62
     7
 10
879.764505
 20
-72.095563
 30
0.0
 11
871.764505
 21
-72.095563
 31
0.0
  0
LINE
  8
0
  6
BYLAYER
 62
     7
 10
861.926506
 20
-80.095563
 30
0.0
 11
861.926506
 21
-72.095563
 31
0.0
  0
LINE
  8
0
  6
BYLAYER
 62
     7
 10
859.764505
 20
-82.095563
 30
0.0
 11
859.764505
 21
-90.095563
 31
0.0
  0
LINE
  8
0
  6
BYLAYER
 62
     7
 10
859.764505
 20
-90.095563
 30
0.0
 11
851.764505
 21
-90.095563
 31
0.0
  0
LINE
  8
0
  6
BYLAYER
 62
     7
 10
859.764505
 20
-82.095563
 30
0.0
 11
851.764505
 21
-82.095563
 31
0.0
  0
LINE
  8
0
  6
BYLAYER
 62
     7
 10
851.764505
 20
-90.095563
 30
0.0
 11
851.764505
 21
-82.095563
 31
0.0
  0
LINE
  8
0
  6
BYLAYER
 62
     7
 10
859.764505
 20
-72.095563
 30
0.0
 11
859.764505
 21
-80.095563
 31
0.0
  0
LINE
  8
0
  6
BYLAYER
 62
     7
 10
859.764505
 20
-80.095563
 30
0.0
 11
851.764505
 21
-80.095563
 31
0.0
  0
LINE
  8
0
  6
BYLAYER
 62
     7
 10
859.764505
 20
-72.095563
 30
0.0
 11
851.764505
 21
-72.095563
 31
0.0
  0
LINE
  8
0
  6
BYLAYER
 62
     7
 10
851.764505
 20
-80.095563
 30
0.0
 11
851.764505
 21
-72.095563
 31
0.0
  0
LINE
  8
0
  6
BYLAYER
 62
     7
 10
849.764505
 20
-92.095563
 30
0.0
 11
849.764505
 21
-100.095563
 31
0.0
  0
LINE
  8
0
  6
BYLAYER
 62
     7
 10
849.764505
 20
-100.095563
 30
0.0
 11
841.764505
 21
-100.095563
 31
0.0
  0
LINE
  8
0
  6
BYLAYER
 62
     7
 10
849.764505
 20
-92.095563
 30
0.0
 11
841.764505
 21
-92.095563
 31
0.0
  0
LINE
  8
0
  6
BYLAYER
 62
     7
 10
841.764505
 20
-100.095563
 30
0.0
 11
841.764505
 21
-92.095563
 31
0.0
  0
LINE
  8
0
  6
BYLAYER
 62
     7
 10
849.764505
 20
-82.095563
 30
0.0
 11
849.764505
 21
-90.095563
 31
0.0
  0
LINE
  8
0
  6
BYLAYER
 62
     7
 10
849.764505
 20
-90.095563
 30
0.0
 11
841.764505
 21
-90.095563
 31
0.0
  0
LINE
  8
0
  6
BYLAYER
 62
     7
 10
849.764505
 20
-82.095563
 30
0.0
 11
841.764505
 21
-82.095563
 31
0.0
  0
LINE
  8
0
  6
BYLAYER
 62
     7
 10
841.764505
 20
-90.095563
 30
0.0
 11
841.764505
 21
-82.095563
 31
0.0
  0
LINE
  8
0
  6
BYLAYER
 62
     7
 10
839.764505
 20
-92.095563
 30
0.0
 11
839.764505
 21
-100.095563
 31
0.0
  0
LINE
  8
0
  6
BYLAYER
 62
     7
 10
839.764505
 20
-100.095563
 30
0.0
 11
831.764505
 21
-100.095563
 31
0.0
  0
LINE
  8
0
  6
BYLAYER
 62
     7
 10
839.764505
 20
-92.095563
 30
0.0
 11
831.764505
 21
-92.095563
 31
0.0
  0
LINE
  8
0
  6
BYLAYER
 62
     7
 10
831.764505
 20
-100.095563
 30
0.0
 11
831.764505
 21
-92.095563
 31
0.0
  0
LINE
  8
0
  6
BYLAYER
 62
     7
 10
879.764505
 20
-150.095563
 30
0.0
 11
879.764505
 21
-142.095563
 31
0.0
  0
LINE
  8
0
  6
BYLAYER
 62
     7
 10
879.764505
 20
-160.095563
 30
0.0
 11
879.764505
 21
-152.095563
 31
0.0
  0
LINE
  8
0
  6
BYLAYER
 62
     7
 10
871.764505
 20
-152.095563
 30
0.0
 11
871.764505
 21
-160.095563
 31
0.0
  0
LINE
  8
0
  6
BYLAYER
 62
     7
 10
869.764505
 20
-152.095563
 30
0.0
 11
869.764505
 21
-160.095563
 31
0.0
  0
LINE
  8
0
  6
BYLAYER
 62
     7
 10
879.764505
 20
-142.095563
 30
0.0
 11
871.764505
 21
-142.095563
 31
0.0
  0
LINE
  8
0
  6
BYLAYER
 62
     7
 10
879.764505
 20
-150.095563
 30
0.0
 11
871.764505
 21
-150.095563
 31
0.0
  0
LINE
  8
0
  6
BYLAYER
 62
     7
 10
869.764505
 20
-152.095563
 30
0.0
 11
861.926506
 21
-152.095563
 31
0.0
  0
LINE
  8
0
  6
BYLAYER
 62
     7
 10
879.764505
 20
-152.095563
 30
0.0
 11
871.764505
 21
-152.095563
 31
0.0
  0
LINE
  8
0
  6
BYLAYER
 62
     7
 10
869.764505
 20
-160.095563
 30
0.0
 11
861.926506
 21
-160.095563
 31
0.0
  0
LINE
  8
0
  6
BYLAYER
 62
     7
 10
879.764505
 20
-160.095563
 30
0.0
 11
871.764505
 21
-160.095563
 31
0.0
  0
LINE
  8
0
  6
BYLAYER
 62
     7
 10
861.926506
 20
-152.095563
 30
0.0
 11
861.926506
 21
-160.095563
 31
0.0
  0
LINE
  8
0
  6
BYLAYER
 62
     7
 10
871.764505
 20
-142.095563
 30
0.0
 11
871.764505
 21
-150.095563
 31
0.0
  0
LINE
  8
0
  6
BYLAYER
 62
     7
 10
869.764505
 20
-150.095563
 30
0.0
 11
869.764505
 21
-142.095563
 31
0.0
  0
LINE
  8
0
  6
BYLAYER
 62
     7
 10
869.764505
 20
-142.095563
 30
0.0
 11
861.764505
 21
-142.095563
 31
0.0
  0
LINE
  8
0
  6
BYLAYER
 62
     7
 10
869.764505
 20
-150.095563
 30
0.0
 11
861.764505
 21
-150.095563
 31
0.0
  0
LINE
  8
0
  6
BYLAYER
 62
     7
 10
861.764505
 20
-142.095563
 30
0.0
 11
861.764505
 21
-150.095563
 31
0.0
  0
LINE
  8
0
  6
BYLAYER
 62
     7
 10
859.764505
 20
-132.095563
 30
0.0
 11
851.764505
 21
-132.095563
 31
0.0
  0
LINE
  8
0
  6
BYLAYER
 62
     7
 10
859.764505
 20
-150.095563
 30
0.0
 11
859.764505
 21
-142.095563
 31
0.0
  0
LINE
  8
0
  6
BYLAYER
 62
     7
 10
859.764505
 20
-140.095563
 30
0.0
 11
859.764505
 21
-132.095563
 31
0.0
  0
LINE
  8
0
  6
BYLAYER
 62
     7
 10
859.764505
 20
-140.095563
 30
0.0
 11
851.764505
 21
-140.095563
 31
0.0
  0
LINE
  8
0
  6
BYLAYER
 62
     7
 10
859.764505
 20
-142.095563
 30
0.0
 11
851.764505
 21
-142.095563
 31
0.0
  0
LINE
  8
0
  6
BYLAYER
 62
     7
 10
859.764505
 20
-150.095563
 30
0.0
 11
851.764505
 21
-150.095563
 31
0.0
  0
LINE
  8
0
  6
BYLAYER
 62
     7
 10
851.764505
 20
-132.095563
 30
0.0
 11
851.764505
 21
-140.095563
 31
0.0
  0
LINE
  8
0
  6
BYLAYER
 62
     7
 10
851.764505
 20
-142.095563
 30
0.0
 11
851.764505
 21
-150.095563
 31
0.0
  0
LINE
  8
0
  6
BYLAYER
 62
     7
 10
859.764505
 20
-122.095563
 30
0.0
 11
851.764505
 21
-122.095563
 31
0.0
  0
LINE
  8
0
  6
BYLAYER
 62
     7
 10
859.764505
 20
-130.095563
 30
0.0
 11
859.764505
 21
-122.095563
 31
0.0
  0
LINE
  8
0
  6
BYLAYER
 62
     7
 10
859.764505
 20
-130.095563
 30
0.0
 11
851.764505
 21
-130.095563
 31
0.0
  0
LINE
  8
0
  6
BYLAYER
 62
     7
 10
851.764505
 20
-122.095563
 30
0.0
 11
851.764505
 21
-130.095563
 31
0.0
  0
LINE
  8
0
  6
BYLAYER
 62
     7
 10
849.764505
 20
-132.095563
 30
0.0
 11
841.764505
 21
-132.095563
 31
0.0
  0
LINE
  8
0
  6
BYLAYER
 62
     7
 10
849.764505
 20
-140.095563
 30
0.0
 11
849.764505
 21
-132.095563
 31
0.0
  0
LINE
  8
0
  6
BYLAYER
 62
     7
 10
849.764505
 20
-140.095563
 30
0.0
 11
841.764505
 21
-140.095563
 31
0.0
  0
LINE
  8
0
  6
BYLAYER
 62
     7
 10
841.764505
 20
-132.095563
 30
0.0
 11
841.764505
 21
-140.095563
 31
0.0
  0
LINE
  8
0
  6
BYLAYER
 62
     7
 10
849.764505
 20
-122.095563
 30
0.0
 11
841.764505
 21
-122.095563
 31
0.0
  0
LINE
  8
0
  6
BYLAYER
 62
     7
 10
849.764505
 20
-130.095563
 30
0.0
 11
849.764505
 21
-122.095563
 31
0.0
  0
LINE
  8
0
  6
BYLAYER
 62
     7
 10
849.764505
 20
-130.095563
 30
0.0
 11
841.764505
 21
-130.095563
 31
0.0
  0
LINE
  8
0
  6
BYLAYER
 62
     7
 10
841.764505
 20
-122.095563
 30
0.0
 11
841.764505
 21
-130.095563
 31
0.0
  0
LINE
  8
0
  6
BYLAYER
 62
     7
 10
839.764505
 20
-132.095563
 30
0.0
 11
831.764505
 21
-132.095563
 31
0.0
  0
LINE
  8
0
  6
BYLAYER
 62
     7
 10
839.764505
 20
-140.095563
 30
0.0
 11
839.764505
 21
-132.095563
 31
0.0
  0
LINE
  8
0
  6
BYLAYER
 62
     7
 10
839.764505
 20
-140.095563
 30
0.0
 11
831.764505
 21
-140.095563
 31
0.0
  0
LINE
  8
0
  6
BYLAYER
 62
     7
 10
831.764505
 20
-132.095563
 30
0.0
 11
831.764505
 21
-140.095563
 31
0.0
  0
LINE
  8
0
  6
BYLAYER
 62
     7
 10
839.764505
 20
-122.095563
 30
0.0
 11
831.764505
 21
-122.095563
 31
0.0
  0
LINE
  8
0
  6
BYLAYER
 62
     7
 10
839.764505
 20
-130.095563
 30
0.0
 11
839.764505
 21
-122.095563
 31
0.0
  0
LINE
  8
0
  6
BYLAYER
 62
     7
 10
839.764505
 20
-130.095563
 30
0.0
 11
831.764505
 21
-130.095563
 31
0.0
  0
LINE
  8
0
  6
BYLAYER
 62
     7
 10
831.764505
 20
-122.095563
 30
0.0
 11
831.764505
 21
-130.095563
 31
0.0
  0
LINE
  8
0
  6
BYLAYER
 62
     7
 10
879.764505
 20
-170.095563
 30
0.0
 11
879.764505
 21
-162.095563
 31
0.0
  0
LINE
  8
0
  6
BYLAYER
 62
     7
 10
871.764505
 20
-162.095563
 30
0.0
 11
871.764505
 21
-170.095563
 31
0.0
  0
LINE
  8
0
  6
BYLAYER
 62
     7
 10
869.764505
 20
-162.095563
 30
0.0
 11
869.764505
 21
-170.095563
 31
0.0
  0
LINE
  8
0
  6
BYLAYER
 62
     7
 10
869.764505
 20
-162.095563
 30
0.0
 11
861.926506
 21
-162.095563
 31
0.0
  0
LINE
  8
0
  6
BYLAYER
 62
     7
 10
879.764505
 20
-162.095563
 30
0.0
 11
871.764505
 21
-162.095563
 31
0.0
  0
LINE
  8
0
  6
BYLAYER
 62
     7
 10
869.764505
 20
-170.095563
 30
0.0
 11
861.926506
 21
-170.095563
 31
0.0
  0
LINE
  8
0
  6
BYLAYER
 62
     7
 10
879.764505
 20
-170.095563
 30
0.0
 11
871.764505
 21
-170.095563
 31
0.0
  0
LINE
  8
0
  6
BYLAYER
 62
     7
 10
861.926506
 20
-162.095563
 30
0.0
 11
861.926506
 21
-170.095563
 31
0.0
  0
LINE
  8
0
  6
BYLAYER
 62
     7
 10
859.764505
 20
-160.095563
 30
0.0
 11
859.764505
 21
-152.095563
 31
0.0
  0
LINE
  8
0
  6
BYLAYER
 62
     7
 10
859.764505
 20
-152.095563
 30
0.0
 11
851.764505
 21
-152.095563
 31
0.0
  0
LINE
  8
0
  6
BYLAYER
 62
     7
 10
859.764505
 20
-160.095563
 30
0.0
 11
851.764505
 21
-160.095563
 31
0.0
  0
LINE
  8
0
  6
BYLAYER
 62
     7
 10
851.764505
 20
-152.095563
 30
0.0
 11
851.764505
 21
-160.095563
 31
0.0
  0
LINE
  8
0
  6
BYLAYER
 62
     7
 10
859.764505
 20
-170.095563
 30
0.0
 11
859.764505
 21
-162.095563
 31
0.0
  0
LINE
  8
0
  6
BYLAYER
 62
     7
 10
859.764505
 20
-162.095563
 30
0.0
 11
851.764505
 21
-162.095563
 31
0.0
  0
LINE
  8
0
  6
BYLAYER
 62
     7
 10
859.764505
 20
-170.095563
 30
0.0
 11
851.764505
 21
-170.095563
 31
0.0
  0
LINE
  8
0
  6
BYLAYER
 62
     7
 10
851.764505
 20
-162.095563
 30
0.0
 11
851.764505
 21
-170.095563
 31
0.0
  0
LINE
  8
0
  6
BYLAYER
 62
     7
 10
849.764505
 20
-150.095563
 30
0.0
 11
849.764505
 21
-142.095563
 31
0.0
  0
LINE
  8
0
  6
BYLAYER
 62
     7
 10
849.764505
 20
-142.095563
 30
0.0
 11
841.764505
 21
-142.095563
 31
0.0
  0
LINE
  8
0
  6
BYLAYER
 62
     7
 10
849.764505
 20
-150.095563
 30
0.0
 11
841.764505
 21
-150.095563
 31
0.0
  0
LINE
  8
0
  6
BYLAYER
 62
     7
 10
841.764505
 20
-142.095563
 30
0.0
 11
841.764505
 21
-150.095563
 31
0.0
  0
LINE
  8
0
  6
BYLAYER
 62
     7
 10
849.764505
 20
-160.095563
 30
0.0
 11
849.764505
 21
-152.095563
 31
0.0
  0
LINE
  8
0
  6
BYLAYER
 62
     7
 10
849.764505
 20
-152.095563
 30
0.0
 11
841.764505
 21
-152.095563
 31
0.0
  0
LINE
  8
0
  6
BYLAYER
 62
     7
 10
849.764505
 20
-160.095563
 30
0.0
 11
841.764505
 21
-160.095563
 31
0.0
  0
LINE
  8
0
  6
BYLAYER
 62
     7
 10
841.764505
 20
-152.095563
 30
0.0
 11
841.764505
 21
-160.095563
 31
0.0
  0
LINE
  8
0
  6
BYLAYER
 62
     7
 10
839.764505
 20
-150.095563
 30
0.0
 11
839.764505
 21
-142.095563
 31
0.0
  0
LINE
  8
0
  6
BYLAYER
 62
     7
 10
839.764505
 20
-142.095563
 30
0.0
 11
831.764505
 21
-142.095563
 31
0.0
  0
LINE
  8
0
  6
BYLAYER
 62
     7
 10
839.764505
 20
-150.095563
 30
0.0
 11
831.764505
 21
-150.095563
 31
0.0
  0
LINE
  8
0
  6
BYLAYER
 62
     7
 10
831.764505
 20
-142.095563
 30
0.0
 11
831.764505
 21
-150.095563
 31
0.0
  0
CIRCLE
  8
0
  6
BYLAYER
 62
     7
 10
880.764505
 20
-121.095563
 30
0.0
 40
4.0
  0
ARC
  8
0
  6
BYLAYER
 62
     7
 10
916.514505
 20
-22.595532
 30
0.0
 40
1.500000
 50
180.000000
 51
265.219808
  0
ARC
  8
0
  6
BYLAYER
 62
     7
 10
845.014505
 20
-22.595532
 30
0.0
 40
1.500000
 50
274.780192
 51
360.000000
  0
ARC
  8
0
  6
BYLAYER
 62
     7
 10
853.010167
 20
-22.595532
 30
0.0
 40
1.500000
 50
270.0
 51
360.0
  0
LINE
  8
0
  6
BYLAYER
 62
     7
 10
915.014505
 20
-22.595532
 30
0.0
 11
915.014505
 21
-1.095532
 31
0.0
  0
LINE
  8
0
  6
BYLAYER
 62
     7
 10
913.514505
 20
0.404468
 30
0.0
 11
848.014505
 21
0.404468
 31
0.0
  0
ARC
  8
0
  6
BYLAYER
 62
     7
 10
913.514505
 20
-1.095532
 30
0.0
 40
1.500000
 50
0.0
 51
90.0
  0
ARC
  8
0
  6
BYLAYER
 62
     7
 10
848.014505
 20
-1.095532
 30
0.0
 40
1.500000
 50
90.0
 51
180.0
  0
LINE
  8
0
  6
BYLAYER
 62
     7
 10
846.514505
 20
-22.595532
 30
0.0
 11
846.514505
 21
-1.095532
 31
0.0
  0
LINE
  8
0
  6
BYLAYER
 62
     7
 10
854.510167
 20
-22.595532
 30
0.0
 11
854.510167
 21
-1.095532
 31
0.0
  0
ARC
  8
0
  6
BYLAYER
 62
     7
 10
856.010167
 20
-1.095532
 30
0.0
 40
1.500000
 50
90.0
 51
180.0
  0
ARC
  8
0
  6
BYLAYER
 62
     7
 10
905.518843
 20
-1.095532
 30
0.0
 40
1.500000
 50
0.0
 51
90.0
  0
LINE
  8
0
  6
BYLAYER
 62
     7
 10
860.170852
 20
0.404468
 30
0.0
 11
860.663399
 21
-13.700230
 31
0.0
  0
ARC
  8
0
  6
BYLAYER
 62
     7
 10
863.661571
 20
-13.595532
 30
0.0
 40
3.0
 50
182.000000
 51
270.000000
  0
LINE
  8
0
  6
BYLAYER
 62
     7
 10
870.865611
 20
-13.700230
 30
0.0
 11
871.358158
 21
0.404468
 31
0.0
  0
ARC
  8
0
  6
BYLAYER
 62
     7
 10
867.867439
 20
-13.595532
 30
0.0
 40
3.000000
 50
270.0
 51
358.0
  0
LINE
  8
0
  6
BYLAYER
 62
     7
 10
885.865611
 20
-13.700230
 30
0.0
 11
886.358158
 21
0.404468
 31
0.0
  0
ARC
  8
0
  6
BYLAYER
 62
     7
 10
882.867439
 20
-13.595532
 30
0.0
 40
3.000000
 50
270.0
 51
358.0
  0
LINE
  8
0
  6
BYLAYER
 62
     7
 10
900.865611
 20
-13.700230
 30
0.0
 11
901.358158
 21
0.404468
 31
0.0
  0
ARC
  8
0
  6
BYLAYER
 62
     7
 10
897.867439
 20
-13.595532
 30
0.0
 40
3.000000
 50
270.0
 51
358.0
  0
LINE
  8
0
  6
BYLAYER
 62
     7
 10
890.170852
 20
0.404468
 30
0.0
 11
890.663399
 21
-13.700230
 31
0.0
  0
ARC
  8
0
  6
BYLAYER
 62
     7
 10
893.661571
 20
-13.595532
 30
0.0
 40
3.0
 50
182.000000
 51
270.000000
  0
LINE
  8
0
  6
BYLAYER
 62
     7
 10
875.170852
 20
0.404468
 30
0.0
 11
875.663399
 21
-13.700230
 31
0.0
  0
ARC
  8
0
  6
BYLAYER
 62
     7
 10
878.661571
 20
-13.595532
 30
0.0
 40
3.0
 50
182.000000
 51
270.000000
  0
LINE
  8
0
  6
BYLAYER
 62
     7
 10
893.661571
 20
-16.595532
 30
0.0
 11
897.867439
 21
-16.595532
 31
0.0
  0
LINE
  8
0
  6
BYLAYER
 62
     7
 10
878.661571
 20
-16.595532
 30
0.0
 11
882.867439
 21
-16.595532
 31
0.0
  0
LINE
  8
0
  6
BYLAYER
 62
     7
 10
863.661571
 20
-16.595532
 30
0.0
 11
867.867439
 21
-16.595532
 31
0.0
  0
LINE
  8
0
  6
BYLAYER
 62
     7
 10
875.205773
 20
-0.595532
 30
0.0
 11
886.323237
 21
-0.595532
 31
0.0
  0
LINE
  8
0
  6
BYLAYER
 62
     7
 10
890.205773
 20
-0.595532
 30
0.0
 11
901.323237
 21
-0.595532
 31
0.0
  0
LINE
  8
0
  6
BYLAYER
 62
     7
 10
860.205773
 20
-0.595532
 30
0.0
 11
871.323237
 21
-0.595532
 31
0.0
  0
LINE
  8
0
  6
BYLAYER
 62
     7
 10
907.018843
 20
-1.095532
 30
0.0
 11
907.018843
 21
-22.595532
 31
0.0
  0
ARC
  8
0
  6
BYLAYER
 62
     7
 10
845.264505
 20
-25.585097
 30
0.0
 40
1.5
 50
94.780192
 51
180.000000
  0
LINE
  8
0
  6
BYLAYER
 62
     7
 10
845.264505
 20
-24.095532
 30
0.0
 11
916.514505
 21
-24.095532
 31
0.0
  0
ARC
  8
0
  6
BYLAYER
 62
     7
 10
916.264505
 20
-25.585097
 30
0.0
 40
1.500000
 50
0.0
 51
85.219808
  0
LINE
  8
0
  6
BYLAYER
 62
     7
 10
917.764505
 20
-33.095532
 30
0.0
 11
917.764505
 21
-25.585097
 31
0.0
  0
ARC
  8
0
  6
BYLAYER
 62
     7
 10
908.518843
 20
-22.595532
 30
0.0
 40
1.500000
 50
180.000000
 51
270.000000
  0
LINE
  8
0
  6
BYLAYER
 62
     7
 10
917.764505
 20
-31.095471
 30
0.0
 11
843.764505
 21
-31.095471
 31
0.0
  0
LINE
  8
0
  6
BYLAYER
 62
     7
 10
843.764505
 20
-25.585097
 30
0.0
 11
843.764505
 21
-33.095532
 31
0.0
  0
LINE
  8
0
  6
BYLAYER
 62
     7
 10
843.764505
 20
-33.095532
 30
0.0
 11
917.764505
 21
-33.095532
 31
0.0
  0
ARC
  8
0
  6
BYLAYER
 62
     1
 10
880.764505
 20
-521.095563
 30
0.0
 40
60.0
 50
158.960530
 51
198.194872
  0
ARC
  8
0
  6
BYLAYER
 62
     1
 10
880.764505
 20
-521.095563
 30
0.0
 40
60.0
 50
341.805128
 51
381.039308
  0
ARC
  8
0
  6
BYLAYER
 62
     1
 10
880.764505
 20
-521.095563
 30
0.0
 40
60.0
 50
47.166572
 51
132.833428
  0
ARC
  8
0
  6
BYLAYER
 62
     7
 10
892.648284
 20
-452.619101
 30
0.0
 40
2.0
 50
194.999901
 51
260.154637
  0
ARC
  8
0
  6
BYLAYER
 62
     7
 10
868.880726
 20
-452.619101
 30
0.0
 40
2.0
 50
279.845363
 51
345.000099
  0
ARC
  8
0
  6
BYLAYER
 62
     7
 10
880.764505
 20
-521.095563
 30
0.0
 40
77.5
 50
85.500437
 51
94.499563
  0
ARC
  8
0
  6
BYLAYER
 62
     7
 10
874.841417
 20
-445.828259
 30
0.0
 40
2.0
 50
94.499563
 51
165.000096
  0
ARC
  8
0
  6
BYLAYER
 62
     7
 10
886.687593
 20
-445.828259
 30
0.0
 40
2.0
 50
14.999904
 51
85.500437
  0
LINE
  8
0
  6
BYLAYER
 62
     7
 10
956.525150
 20
-528.957013
 30
0.0
 11
948.723332
 21
-531.047489
 31
0.0
  0
ARC
  8
0
  6
BYLAYER
 62
     7
 10
949.240967
 20
-532.979342
 30
0.0
 40
2.0
 50
104.999901
 51
170.154637
  0
LINE
  8
0
  6
BYLAYER
 62
     7
 10
948.723332
 20
-511.143637
 30
0.0
 11
956.525150
 21
-513.234113
 31
0.0
  0
ARC
  8
0
  6
BYLAYER
 62
     7
 10
949.240967
 20
-509.211784
 30
0.0
 40
2.000000
 50
189.845363
 51
255.000099
  0
ARC
  8
0
  6
BYLAYER
 62
     7
 10
880.764505
 20
-521.095563
 30
0.0
 40
77.5
 50
355.500437
 51
364.499563
  0
ARC
  8
0
  6
BYLAYER
 62
     7
 10
956.031809
 20
-515.172475
 30
0.0
 40
2.0
 50
4.499563
 51
75.000096
  0
ARC
  8
0
  6
BYLAYER
 62
     7
 10
956.031809
 20
-527.018651
 30
0.0
 40
2.0
 50
284.999904
 51
355.500437
  0
LINE
  8
0
  6
BYLAYER
 62
     7
 10
805.003860
 20
-513.234113
 30
0.0
 11
812.805678
 21
-511.143637
 31
0.0
  0
LINE
  8
0
  6
BYLAYER
 62
     7
 10
812.805678
 20
-531.047489
 30
0.0
 11
805.003860
 21
-528.957013
 31
0.0
  0
ARC
  8
0
  6
BYLAYER
 62
     7
 10
812.288043
 20
-532.979342
 30
0.0
 40
2.000000
 50
9.845363
 51
75.000099
  0
ARC
  8
0
  6
BYLAYER
 62
     7
 10
880.764505
 20
-521.095563
 30
0.0
 40
77.5
 50
175.500437
 51
184.499563
  0
ARC
  8
0
  6
BYLAYER
 62
     7
 10
805.497201
 20
-527.018651
 30
0.0
 40
2.0
 50
184.499563
 51
255.000096
  0
ARC
  8
0
  6
BYLAYER
 62
     7
 10
805.497201
 20
-515.172475
 30
0.0
 40
2.0
 50
104.999904
 51
175.500437
  0
ARC
  8
0
  6
BYLAYER
 62
     7
 10
880.764505
 20
-521.095563
 30
0.0
 40
67.5
 50
9.845363
 51
33.939196
  0
ARC
  8
0
  6
BYLAYER
 62
     7
 10
880.764505
 20
-521.095563
 30
0.0
 40
67.5
 50
40.681370
 51
80.154637
  0
ARC
  8
0
  6
BYLAYER
 62
     7
 10
880.764505
 20
-521.095563
 30
0.0
 40
67.5
 50
146.060711
 51
170.154637
  0
ARC
  8
0
  6
BYLAYER
 62
     7
 10
880.764505
 20
-521.095563
 30
0.0
 40
67.500000
 50
99.845363
 51
139.318630
  0
ARC
  8
0
  6
BYLAYER
 62
     7
 10
812.288043
 20
-509.211784
 30
0.0
 40
2.0
 50
284.999901
 51
350.154637
  0
LINE
  8
0
  6
BYLAYER
 62
     7
 10
888.625955
 20
-445.334918
 30
0.0
 11
890.716431
 21
-453.136736
 31
0.0
  0
LINE
  8
0
  6
BYLAYER
 62
     7
 10
872.903055
 20
-445.334918
 30
0.0
 11
870.812579
 21
-453.136736
 31
0.0
  0
ARC
  8
0
  6
BYLAYER
 62
     7
 10
880.764505
 20
-521.095563
 30
0.0
 40
65.29
 50
149.060621
 51
204.910229
  0
ARC
  8
0
  6
BYLAYER
 62
     7
 10
880.764505
 20
-521.095563
 30
0.0
 40
65.290000
 50
335.089771
 51
390.939275
  0
ARC
  8
0
  6
BYLAYER
 62
     7
 10
880.764505
 20
-521.095563
 30
0.0
 40
65.29
 50
42.370057
 51
137.629943
  0
LINE
  8
0
  6
BYLAYER
 62
     7
 10
843.764505
 20
-433.095532
 30
0.0
 11
843.764505
 21
-459.083118
 31
0.0
  0
LINE
  8
0
  6
BYLAYER
 62
     7
 10
917.764505
 20
-433.095532
 30
0.0
 11
917.764505
 21
-459.095502
 31
0.0
  0
ARC
  8
0
  6
BYLAYER
 62
     7
 10
917.264505
 20
-459.095502
 30
0.0
 40
0.500000
 50
270.0
 51
360.0
  0
LINE
  8
0
  6
BYLAYER
 62
     7
 10
843.764505
 20
-437.595532
 30
0.0
 11
846.764505
 21
-442.791669
 31
0.0
  0
LINE
  8
0
  6
BYLAYER
 62
     7
 10
917.764505
 20
-437.595532
 30
0.0
 11
914.764505
 21
-442.791669
 31
0.0
  0
LINE
  8
0
  6
BYLAYER
 62
     7
 10
846.764505
 20
-442.791669
 30
0.0
 11
846.764505
 21
-462.783900
 31
0.0
  0
LINE
  8
0
  6
BYLAYER
 62
     7
 10
914.764505
 20
-442.791669
 30
0.0
 11
914.764505
 21
-462.783900
 31
0.0
  0
ARC
  8
0
  6
BYLAYER
 62
     7
 10
844.264444
 20
-459.095471
 30
0.0
 40
0.500092
 50
180.000000
 51
269.999999
  0
LINE
  8
0
  6
BYLAYER
 62
     7
 10
915.264505
 20
-459.595502
 30
0.0
 11
917.264505
 21
-459.595502
 31
0.0
  0
ARC
  8
0
  6
BYLAYER
 62
     7
 10
915.264505
 20
-460.095502
 30
0.0
 40
0.500000
 50
90.0
 51
180.0
  0
LINE
  8
0
  6
BYLAYER
 62
     7
 10
844.264444
 20
-459.595563
 30
0.0
 11
846.264505
 21
-459.595563
 31
0.0
  0
ARC
  8
0
  6
BYLAYER
 62
     7
 10
846.264505
 20
-460.095563
 30
0.0
 40
0.500000
 50
0.0
 51
90.0
  0
LINE
  8
0
  6
BYLAYER
 62
     7
 10
955.099502
 20
-502.291036
 30
0.0
 11
945.494033
 21
-501.955598
 31
0.0
  0
ARC
  8
0
  6
BYLAYER
 62
     7
 10
955.071582
 20
-503.090541
 30
0.0
 40
0.799993
 50
272.000089
 51
447.999955
  0
LINE
  8
0
  6
BYLAYER
 62
     7
 10
946.116754
 20
-504.203745
 30
0.0
 11
955.099503
 21
-503.890047
 31
0.0
  0
LINE
  8
0
  6
BYLAYER
 62
     7
 10
951.116119
 20
-490.291036
 30
0.0
 11
940.636454
 21
-489.925069
 31
0.0
  0
ARC
  8
0
  6
BYLAYER
 62
     7
 10
951.088199
 20
-491.090541
 30
0.0
 40
0.799993
 50
272.000089
 51
447.999955
  0
LINE
  8
0
  6
BYLAYER
 62
     7
 10
941.774640
 20
-492.216273
 30
0.0
 11
951.116120
 21
-491.890047
 31
0.0
  0
LINE
  8
0
  6
BYLAYER
 62
     7
 10
944.677495
 20
-478.291036
 30
0.0
 11
936.764566
 21
-478.014704
 31
0.0
  0
ARC
  8
0
  6
BYLAYER
 62
     7
 10
944.649575
 20
-479.090541
 30
0.0
 40
0.799993
 50
272.000089
 51
447.999955
  0
LINE
  8
0
  6
BYLAYER
 62
     7
 10
936.764566
 20
-480.166385
 30
0.0
 11
944.677496
 21
-479.890047
 31
0.0
  0
LINE
  8
0
  6
BYLAYER
 62
     7
 10
953.440484
 20
-500.077842
 30
0.0
 11
944.809371
 21
-499.776437
 31
0.0
  0
LINE
  8
0
  6
BYLAYER
 62
     7
 10
954.677115
 20
-506.111194
 30
0.0
 11
946.643541
 21
-506.391733
 31
0.0
  0
LINE
  8
0
  6
BYLAYER
 62
     7
 10
806.275924
 20
-543.049841
 30
0.0
 11
817.065410
 21
-543.426601
 31
0.0
  0
LINE
  8
0
  6
BYLAYER
 62
     7
 10
814.650094
 20
-534.701984
 30
0.0
 11
804.607383
 21
-535.052678
 31
0.0
  0
ARC
  8
0
  6
BYLAYER
 62
     7
 10
804.624833
 20
-535.552374
 30
0.0
 40
0.500000
 50
91.999973
 51
190.750924
  0
LINE
  8
0
  6
BYLAYER
 62
     7
 10
806.429508
 20
-502.291036
 30
0.0
 11
816.034977
 21
-501.955598
 31
0.0
  0
ARC
  8
0
  6
BYLAYER
 62
     7
 10
806.457428
 20
-503.090541
 30
0.0
 40
0.799993
 50
92.000045
 51
267.999911
  0
LINE
  8
0
  6
BYLAYER
 62
     7
 10
815.412256
 20
-504.203745
 30
0.0
 11
806.429508
 21
-503.890047
 31
0.0
  0
LINE
  8
0
  6
BYLAYER
 62
     7
 10
810.412892
 20
-490.291036
 30
0.0
 11
820.892556
 21
-489.925069
 31
0.0
  0
ARC
  8
0
  6
BYLAYER
 62
     7
 10
810.440812
 20
-491.090541
 30
0.0
 40
0.799993
 50
92.000045
 51
267.999911
  0
LINE
  8
0
  6
BYLAYER
 62
     7
 10
819.754370
 20
-492.216273
 30
0.0
 11
810.412891
 21
-491.890047
 31
0.0
  0
LINE
  8
0
  6
BYLAYER
 62
     7
 10
816.851516
 20
-478.291036
 30
0.0
 11
824.764505
 21
-478.014702
 31
0.0
  0
ARC
  8
0
  6
BYLAYER
 62
     7
 10
816.879436
 20
-479.090541
 30
0.0
 40
0.799993
 50
92.000045
 51
267.999911
  0
LINE
  8
0
  6
BYLAYER
 62
     7
 10
824.764505
 20
-480.166387
 30
0.0
 11
816.851515
 21
-479.890047
 31
0.0
  0
LINE
  8
0
  6
BYLAYER
 62
     7
 10
807.826215
 20
-500.087002
 30
0.0
 11
816.719639
 21
-499.776437
 31
0.0
  0
ARC
  8
0
  6
BYLAYER
 62
     7
 10
807.843665
 20
-500.586698
 30
0.0
 40
0.500000
 50
92.000000
 51
164.291450
  0
LINE
  8
0
  6
BYLAYER
 62
     7
 10
814.885469
 20
-506.391733
 30
0.0
 11
806.598340
 21
-506.102340
 31
0.0
  0
LINE
  8
0
  6
BYLAYER
 62
     7
 10
806.429508
 20
-539.900029
 30
0.0
 11
816.034959
 21
-540.235466
 31
0.0
  0
ARC
  8
0
  6
BYLAYER
 62
     7
 10
806.457428
 20
-539.100523
 30
0.0
 40
0.799993
 50
92.000089
 51
267.999955
  0
LINE
  8
0
  6
BYLAYER
 62
     7
 10
815.412240
 20
-537.987320
 30
0.0
 11
806.429508
 21
-538.301018
 31
0.0
  0
LINE
  8
0
  6
BYLAYER
 62
     7
 10
810.412892
 20
-551.900029
 30
0.0
 11
820.892523
 21
-552.265994
 31
0.0
  0
ARC
  8
0
  6
BYLAYER
 62
     7
 10
810.440812
 20
-551.100523
 30
0.0
 40
0.799993
 50
92.000089
 51
267.999955
  0
LINE
  8
0
  6
BYLAYER
 62
     7
 10
819.754341
 20
-549.974792
 30
0.0
 11
810.412891
 21
-550.301018
 31
0.0
  0
LINE
  8
0
  6
BYLAYER
 62
     7
 10
816.851516
 20
-563.900029
 30
0.0
 11
820.764505
 21
-564.036676
 31
0.0
  0
ARC
  8
0
  6
BYLAYER
 62
     7
 10
816.879436
 20
-563.100523
 30
0.0
 40
0.799993
 50
92.000089
 51
267.999955
  0
LINE
  8
0
  6
BYLAYER
 62
     7
 10
820.764505
 20
-562.164367
 30
0.0
 11
816.851515
 21
-562.301018
 31
0.0
  0
ARC
  8
0
  6
BYLAYER
 62
     7
 10
880.764505
 20
-521.095532
 30
0.0
 40
78.000000
 50
190.750924
 51
196.071322
  0
ARC
  8
0
  6
BYLAYER
 62
     7
 10
806.293373
 20
-542.550145
 30
0.0
 40
0.500000
 50
196.071322
 51
268.000088
  0
LINE
  8
0
  6
BYLAYER
 62
     7
 10
955.253087
 20
-543.049841
 30
0.0
 11
944.463600
 21
-543.426601
 31
0.0
  0
LINE
  8
0
  6
BYLAYER
 62
     7
 10
946.878916
 20
-534.701984
 30
0.0
 11
956.921627
 21
-535.052678
 31
0.0
  0
LINE
  8
0
  6
BYLAYER
 62
     7
 10
955.099502
 20
-539.900029
 30
0.0
 11
945.494051
 21
-540.235466
 31
0.0
  0
ARC
  8
0
  6
BYLAYER
 62
     7
 10
955.071582
 20
-539.100523
 30
0.0
 40
0.799993
 50
272.000045
 51
447.999911
  0
LINE
  8
0
  6
BYLAYER
 62
     7
 10
946.116770
 20
-537.987320
 30
0.0
 11
955.099503
 21
-538.301018
 31
0.0
  0
LINE
  8
0
  6
BYLAYER
 62
     7
 10
951.116119
 20
-551.900029
 30
0.0
 11
940.636487
 21
-552.265994
 31
0.0
  0
ARC
  8
0
  6
BYLAYER
 62
     7
 10
951.088199
 20
-551.100523
 30
0.0
 40
0.799993
 50
272.000045
 51
447.999911
  0
LINE
  8
0
  6
BYLAYER
 62
     7
 10
941.774669
 20
-549.974792
 30
0.0
 11
951.116120
 21
-550.301018
 31
0.0
  0
LINE
  8
0
  6
BYLAYER
 62
     7
 10
944.677495
 20
-563.900029
 30
0.0
 11
940.764505
 21
-564.036676
 31
0.0
  0
ARC
  8
0
  6
BYLAYER
 62
     7
 10
944.649575
 20
-563.100523
 30
0.0
 40
0.799993
 50
272.000045
 51
447.999911
  0
LINE
  8
0
  6
BYLAYER
 62
     7
 10
940.764505
 20
-562.164367
 30
0.0
 11
944.677496
 21
-562.301018
 31
0.0
  0
ARC
  8
0
  6
BYLAYER
 62
     7
 10
880.764505
 20
-521.095532
 30
0.0
 40
78.000000
 50
343.928678
 51
349.249076
  0
ARC
  8
0
  6
BYLAYER
 62
     7
 10
955.235638
 20
-542.550145
 30
0.0
 40
0.500000
 50
271.999912
 51
343.928678
  0
ARC
  8
0
  6
BYLAYER
 62
     7
 10
956.904178
 20
-535.552374
 30
0.0
 40
0.500000
 50
349.249076
 51
448.000027
  0
LINE
  8
0
  6
BYLAYER
 62
     7
 10
827.451573
 20
-465.546027
 30
0.0
 11
843.228033
 21
-464.995088
 31
0.0
  0
ARC
  8
0
  6
BYLAYER
 62
     7
 10
827.479493
 20
-466.345532
 30
0.0
 40
0.799993
 50
92.000045
 51
267.999911
  0
LINE
  8
0
  6
BYLAYER
 62
     7
 10
839.638690
 20
-467.570640
 30
0.0
 11
827.451573
 21
-467.145038
 31
0.0
  0
LINE
  8
0
  6
BYLAYER
 62
     7
 10
934.077437
 20
-465.546027
 30
0.0
 11
918.300977
 21
-464.995088
 31
0.0
  0
ARC
  8
0
  6
BYLAYER
 62
     7
 10
934.049517
 20
-466.345532
 30
0.0
 40
0.799993
 50
272.000089
 51
447.999955
  0
LINE
  8
0
  6
BYLAYER
 62
     7
 10
921.890320
 20
-467.570640
 30
0.0
 11
934.077438
 21
-467.145038
 31
0.0
  0
ARC
  8
0
  6
BYLAYER
 62
     7
 10
880.764505
 20
-521.095563
 30
0.0
 40
76.250000
 50
166.960502
 51
168.198190
  0
ARC
  8
0
  6
BYLAYER
 62
     7
 10
880.764505
 20
-521.095563
 30
0.0
 40
76.250000
 50
164.291450
 51
165.710577
  0
ARC
  8
0
  6
BYLAYER
 62
     7
 10
806.615790
 20
-505.602645
 30
0.0
 40
0.5
 50
168.198190
 51
268.000000
  0
ARC
  8
0
  6
BYLAYER
 62
     7
 10
953.685346
 20
-500.586698
 30
0.0
 40
0.500000
 50
15.708550
 51
88.000000
  0
ARC
  8
0
  6
BYLAYER
 62
     7
 10
880.764505
 20
-521.095563
 30
0.0
 40
76.250000
 50
11.801810
 51
13.039498
  0
ARC
  8
0
  6
BYLAYER
 62
     7
 10
880.764505
 20
-521.095563
 30
0.0
 40
76.250000
 50
14.289423
 51
15.708550
  0
ARC
  8
0
  6
BYLAYER
 62
     7
 10
954.913221
 20
-505.602645
 30
0.0
 40
0.500000
 50
272.000000
 51
371.801810
  0
LINE
  8
0
  6
BYLAYER
 62
     7
 10
917.764505
 20
-433.095471
 30
0.0
 11
843.764505
 21
-433.095471
 31
0.0
  0
ARC
  8
0
  6
BYLAYER
 62
     7
 10
880.764505
 20
-521.095563
 30
0.0
 40
79.25
 50
117.831764
 51
220.790991
  0
ARC
  8
0
  6
BYLAYER
 62
     7
 10
880.764505
 20
-521.095563
 30
0.0
 40
79.25
 50
319.209009
 51
422.168236
  0
ARC
  8
0
  6
BYLAYER
 62
     7
 10
916.514505
 20
-422.595532
 30
0.0
 40
1.500000
 50
180.000000
 51
265.219808
  0
ARC
  8
0
  6
BYLAYER
 62
     7
 10
845.014505
 20
-422.595532
 30
0.0
 40
1.500000
 50
274.780192
 51
360.000000
  0
ARC
  8
0
  6
BYLAYER
 62
     7
 10
853.010167
 20
-422.595532
 30
0.0
 40
1.500000
 50
270.0
 51
360.0
  0
LINE
  8
0
  6
BYLAYER
 62
     7
 10
915.014505
 20
-422.595532
 30
0.0
 11
915.014505
 21
-401.095532
 31
0.0
  0
LINE
  8
0
  6
BYLAYER
 62
     7
 10
913.514505
 20
-399.595532
 30
0.0
 11
848.014505
 21
-399.595532
 31
0.0
  0
ARC
  8
0
  6
BYLAYER
 62
     7
 10
913.514505
 20
-401.095532
 30
0.0
 40
1.500000
 50
0.0
 51
90.0
  0
ARC
  8
0
  6
BYLAYER
 62
     7
 10
848.014505
 20
-401.095532
 30
0.0
 40
1.500000
 50
90.0
 51
180.0
  0
LINE
  8
0
  6
BYLAYER
 62
     7
 10
846.514505
 20
-422.595532
 30
0.0
 11
846.514505
 21
-401.095532
 31
0.0
  0
LINE
  8
0
  6
BYLAYER
 62
     7
 10
854.510167
 20
-422.595532
 30
0.0
 11
854.510167
 21
-401.095532
 31
0.0
  0
ARC
  8
0
  6
BYLAYER
 62
     7
 10
856.010167
 20
-401.095532
 30
0.0
 40
1.500000
 50
90.0
 51
180.0
  0
ARC
  8
0
  6
BYLAYER
 62
     7
 10
905.518843
 20
-401.095532
 30
0.0
 40
1.500000
 50
0.0
 51
90.0
  0
LINE
  8
0
  6
BYLAYER
 62
     7
 10
860.170852
 20
-399.595532
 30
0.0
 11
860.663399
 21
-413.700230
 31
0.0
  0
ARC
  8
0
  6
BYLAYER
 62
     7
 10
863.661571
 20
-413.595532
 30
0.0
 40
3.0
 50
182.0
 51
270.0
  0
LINE
  8
0
  6
BYLAYER
 62
     7
 10
870.865611
 20
-413.700230
 30
0.0
 11
871.358158
 21
-399.595532
 31
0.0
  0
ARC
  8
0
  6
BYLAYER
 62
     7
 10
867.867439
 20
-413.595532
 30
0.0
 40
3.000000
 50
270.0
 51
358.0
  0
LINE
  8
0
  6
BYLAYER
 62
     7
 10
885.865611
 20
-413.700230
 30
0.0
 11
886.358158
 21
-399.595532
 31
0.0
  0
ARC
  8
0
  6
BYLAYER
 62
     7
 10
882.867439
 20
-413.595532
 30
0.0
 40
3.000000
 50
270.0
 51
358.0
  0
LINE
  8
0
  6
BYLAYER
 62
     7
 10
900.865611
 20
-413.700230
 30
0.0
 11
901.358158
 21
-399.595532
 31
0.0
  0
ARC
  8
0
  6
BYLAYER
 62
     7
 10
897.867439
 20
-413.595532
 30
0.0
 40
3.000000
 50
270.0
 51
358.0
  0
LINE
  8
0
  6
BYLAYER
 62
     7
 10
890.170852
 20
-399.595532
 30
0.0
 11
890.663399
 21
-413.700230
 31
0.0
  0
ARC
  8
0
  6
BYLAYER
 62
     7
 10
893.661571
 20
-413.595532
 30
0.0
 40
3.0
 50
182.0
 51
270.0
  0
LINE
  8
0
  6
BYLAYER
 62
     7
 10
875.170852
 20
-399.595532
 30
0.0
 11
875.663399
 21
-413.700230
 31
0.0
  0
ARC
  8
0
  6
BYLAYER
 62
     7
 10
878.661571
 20
-413.595532
 30
0.0
 40
3.0
 50
182.0
 51
270.0
  0
LINE
  8
0
  6
BYLAYER
 62
     7
 10
893.661571
 20
-416.595532
 30
0.0
 11
897.867439
 21
-416.595532
 31
0.0
  0
LINE
  8
0
  6
BYLAYER
 62
     7
 10
878.661571
 20
-416.595532
 30
0.0
 11
882.867439
 21
-416.595532
 31
0.0
  0
LINE
  8
0
  6
BYLAYER
 62
     7
 10
863.661571
 20
-416.595532
 30
0.0
 11
867.867439
 21
-416.595532
 31
0.0
  0
LINE
  8
0
  6
BYLAYER
 62
     7
 10
875.205773
 20
-400.595532
 30
0.0
 11
886.323237
 21
-400.595532
 31
0.0
  0
LINE
  8
0
  6
BYLAYER
 62
     7
 10
890.205773
 20
-400.595532
 30
0.0
 11
901.323237
 21
-400.595532
 31
0.0
  0
LINE
  8
0
  6
BYLAYER
 62
     7
 10
860.205773
 20
-400.595532
 30
0.0
 11
871.323237
 21
-400.595532
 31
0.0
  0
LINE
  8
0
  6
BYLAYER
 62
     7
 10
907.018843
 20
-401.095532
 30
0.0
 11
907.018843
 21
-422.595532
 31
0.0
  0
ARC
  8
0
  6
BYLAYER
 62
     7
 10
845.264505
 20
-425.585097
 30
0.0
 40
1.500000
 50
94.780192
 51
180.000000
  0
LINE
  8
0
  6
BYLAYER
 62
     7
 10
845.264505
 20
-424.095532
 30
0.0
 11
916.514505
 21
-424.095532
 31
0.0
  0
ARC
  8
0
  6
BYLAYER
 62
     7
 10
916.264505
 20
-425.585097
 30
0.0
 40
1.500000
 50
0.0
 51
85.219808
  0
LINE
  8
0
  6
BYLAYER
 62
     7
 10
917.764505
 20
-433.095532
 30
0.0
 11
917.764505
 21
-425.585097
 31
0.0
  0
ARC
  8
0
  6
BYLAYER
 62
     7
 10
908.518843
 20
-422.595532
 30
0.0
 40
1.500000
 50
180.000000
 51
270.000000
  0
LINE
  8
0
  6
BYLAYER
 62
     7
 10
917.764505
 20
-431.095471
 30
0.0
 11
843.764505
 21
-431.095471
 31
0.0
  0
LINE
  8
0
  6
BYLAYER
 62
     7
 10
843.764505
 20
-425.585097
 30
0.0
 11
843.764505
 21
-433.095532
 31
0.0
  0
LINE
  8
0
  6
BYLAYER
 62
     7
 10
843.764505
 20
-433.095532
 30
0.0
 11
917.764505
 21
-433.095532
 31
0.0
  0
ARC
  8
0
  6
BYLAYER
 62
     7
 10
880.764505
 20
-521.095563
 30
0.0
 40
67.5
 50
189.845363
 51
207.301529
  0
ARC
  8
0
  6
BYLAYER
 62
     7
 10
880.764505
 20
-521.095563
 30
0.0
 40
67.5
 50
332.672435
 51
350.154637
  0
LINE
  8
0
  6
BYLAYER
 62
     1
 10
313.264505
 20
-536.095565
 30
0.0
 11
313.264505
 21
-596.095563
 31
0.0
  0
ARC
  8
0
  6
BYLAYER
 62
     1
 10
301.264505
 20
-552.628369
 30
0.0
 40
1.999988
 50
281.000195
 51
360.000000
  0
LINE
  8
0
  6
BYLAYER
 62
     1
 10
303.264505
 20
-538.517560
 30
0.0
 11
303.264505
 21
-596.095563
 31
0.0
  0
LINE
  8
0
  6
BYLAYER
 62
     1
 10
288.764505
 20
-557.095548
 30
0.0
 11
301.646127
 21
-554.591611
 31
0.0
  0
LINE
  8
0
  6
BYLAYER
 62
     1
 10
303.264505
 20
-538.517560
 30
0.0
 11
289.931619
 21
-556.868680
 31
0.0
  0
LINE
  8
0
  6
BYLAYER
 62
     1
 10
288.764505
 20
-557.095548
 30
0.0
 11
288.764505
 21
-596.095563
 31
0.0
  0
LINE
  8
0
  6
BYLAYER
 62
     1
 10
305.159830
 20
-536.520307
 30
0.0
 11
313.264505
 21
-536.095565
 31
0.0
  0
ARC
  8
0
  6
BYLAYER
 62
     1
 10
305.264505
 20
-538.517560
 30
0.0
 40
2.0
 50
93.000097
 51
180.000000
  0
LINE
  8
0
  6
BYLAYER
 62
     1
 10
313.264505
 20
-656.095561
 30
0.0
 11
313.264505
 21
-596.095563
 31
0.0
  0
ARC
  8
0
  6
BYLAYER
 62
     1
 10
301.264505
 20
-639.562757
 30
0.0
 40
1.999988
 50
0.0
 51
78.999805
  0
LINE
  8
0
  6
BYLAYER
 62
     1
 10
303.264505
 20
-653.673566
 30
0.0
 11
303.264505
 21
-596.095563
 31
0.0
  0
LINE
  8
0
  6
BYLAYER
 62
     1
 10
288.764505
 20
-635.095578
 30
0.0
 11
301.646127
 21
-637.599515
 31
0.0
  0
LINE
  8
0
  6
BYLAYER
 62
     1
 10
303.264505
 20
-653.673566
 30
0.0
 11
289.931619
 21
-635.322446
 31
0.0
  0
LINE
  8
0
  6
BYLAYER
 62
     1
 10
288.764505
 20
-635.095578
 30
0.0
 11
288.764505
 21
-596.095563
 31
0.0
  0
LINE
  8
0
  6
BYLAYER
 62
     1
 10
305.159830
 20
-655.670819
 30
0.0
 11
313.264505
 21
-656.095561
 31
0.0
  0
ARC
  8
0
  6
BYLAYER
 62
     1
 10
305.264505
 20
-653.673566
 30
0.0
 40
2.0
 50
180.000000
 51
266.999903
  0
ENDSEC
  0
EOF
