  0
SECTION
  2
HEADER
  9
$EXTMIN
 10
124.627986
 20
716.0
 30
0.0
  9
$EXTMAX
 10
999.467577
 20
0.0
 30
0.0
  0
ENDSEC
  0
SECTION
  2
TABLES
  0
ENDSEC
  0
SECTION
  2
BLOCKS
  0
ENDSEC
  0
SECTION
  2
ENTITIES
  0
LINE
  8
0
  6
BYLAYER
 62
     7
 10
363.900671
 20
-80.984581
 30
0.0
 11
358.100622
 21
-80.984581
 31
0.0
  0
ARC
  8
0
  6
BYLAYER
 62
     7
 10
363.900671
 20
-82.484581
 30
0.0
 40
1.500000
 50
0.0
 51
90.000003
  0
ARC
  8
0
  6
BYLAYER
 62
     7
 10
393.300680
 20
-82.484581
 30
0.0
 40
1.5
 50
90.0
 51
180.000003
  0
LINE
  8
0
  6
BYLAYER
 62
     7
 10
402.900671
 20
-80.984581
 30
0.0
 11
393.300680
 21
-80.984581
 31
0.0
  0
ARC
  8
0
  6
BYLAYER
 62
     7
 10
402.900671
 20
-82.484581
 30
0.0
 40
1.5
 50
0.0
 51
90.000003
  0
LINE
  8
0
  6
BYLAYER
 62
     7
 10
438.100683
 20
-80.984520
 30
0.0
 11
432.300695
 21
-80.984520
 31
0.0
  0
ARC
  8
0
  6
BYLAYER
 62
     7
 10
432.300695
 20
-82.484520
 30
0.0
 40
1.500000
 50
90.0
 51
180.000003
  0
ARC
  8
0
  6
BYLAYER
 62
     7
 10
378.600683
 20
-89.984520
 30
0.0
 40
13.200012
 50
180.000000
 51
359.999995
  0
ARC
  8
0
  6
BYLAYER
 62
     7
 10
417.600683
 20
-89.984520
 30
0.0
 40
13.200012
 50
180.000000
 51
359.999995
  0
LINE
  8
0
  6
BYLAYER
 62
     7
 10
358.100622
 20
-86.484581
 30
0.0
 11
363.900671
 21
-86.484581
 31
0.0
  0
LINE
  8
0
  6
BYLAYER
 62
     7
 10
365.400671
 20
-82.484581
 30
0.0
 11
365.400671
 21
-87.984581
 31
0.0
  0
LINE
  8
0
  6
BYLAYER
 62
     7
 10
365.400671
 20
-87.984581
 30
0.0
 11
365.400671
 21
-89.984520
 31
0.0
  0
ARC
  8
0
  6
BYLAYER
 62
     7
 10
363.900671
 20
-87.984581
 30
0.0
 40
1.500000
 50
0.0
 51
90.000003
  0
ARC
  8
0
  6
BYLAYER
 62
     7
 10
393.300680
 20
-87.984520
 30
0.0
 40
1.5
 50
90.0
 51
180.000003
  0
LINE
  8
0
  6
BYLAYER
 62
     7
 10
393.300680
 20
-86.484520
 30
0.0
 11
402.900671
 21
-86.484520
 31
0.0
  0
LINE
  8
0
  6
BYLAYER
 62
     7
 10
404.400671
 20
-82.484581
 30
0.0
 11
404.400671
 21
-87.984520
 31
0.0
  0
LINE
  8
0
  6
BYLAYER
 62
     7
 10
404.400671
 20
-87.984520
 30
0.0
 11
404.400671
 21
-89.984520
 31
0.0
  0
ARC
  8
0
  6
BYLAYER
 62
     7
 10
402.900671
 20
-87.984520
 30
0.0
 40
1.5
 50
0.0
 51
90.000003
  0
LINE
  8
0
  6
BYLAYER
 62
     7
 10
430.800695
 20
-89.984520
 30
0.0
 11
430.800695
 21
-87.984520
 31
0.0
  0
LINE
  8
0
  6
BYLAYER
 62
     7
 10
430.800695
 20
-87.984520
 30
0.0
 11
430.800695
 21
-82.484520
 31
0.0
  0
LINE
  8
0
  6
BYLAYER
 62
     7
 10
432.300695
 20
-86.484520
 30
0.0
 11
438.100683
 21
-86.484520
 31
0.0
  0
ARC
  8
0
  6
BYLAYER
 62
     7
 10
432.300695
 20
-87.984520
 30
0.0
 40
1.500000
 50
90.0
 51
180.000003
  0
LINE
  8
0
  6
BYLAYER
 62
     7
 10
391.800680
 20
-82.484581
 30
0.0
 11
391.800680
 21
-89.984520
 31
0.0
  0
LINE
  8
0
  6
BYLAYER
 62
     7
 10
356.100622
 20
-96.234642
 30
0.0
 11
358.100652
 21
-96.234642
 31
0.0
  0
LINE
  8
0
  6
BYLAYER
 62
     7
 10
458.600744
 20
-94.232353
 30
0.0
 11
438.100683
 21
-94.232353
 31
0.0
  0
LINE
  8
0
  6
BYLAYER
 62
     7
 10
438.100683
 20
-76.484520
 30
0.0
 11
438.100683
 21
-110.252555
 31
0.0
  0
LINE
  8
0
  6
BYLAYER
 62
     7
 10
458.600744
 20
-89.774253
 30
0.0
 11
438.100683
 21
-89.774253
 31
0.0
  0
LINE
  8
0
  6
BYLAYER
 62
     7
 10
438.100683
 20
-85.650810
 30
0.0
 11
458.600744
 21
-85.650810
 31
0.0
  0
LINE
  8
0
  6
BYLAYER
 62
     7
 10
438.100683
 20
-86.996513
 30
0.0
 11
458.600744
 21
-86.996513
 31
0.0
  0
ARC
  8
0
  6
BYLAYER
 62
     7
 10
358.950674
 20
-148.134666
 30
0.0
 40
0.850006
 50
90.0
 51
269.999998
  0
ARC
  8
0
  6
BYLAYER
 62
     7
 10
362.950598
 20
-148.134666
 30
0.0
 40
0.850006
 50
90.0
 51
269.999998
  0
LINE
  8
0
  6
BYLAYER
 62
     7
 10
358.950659
 20
-147.284660
 30
0.0
 11
458.600744
 21
-147.284742
 31
0.0
  0
LINE
  8
0
  6
BYLAYER
 62
     7
 10
358.950659
 20
-148.984642
 30
0.0
 11
458.600744
 21
-148.984724
 31
0.0
  0
ARC
  8
0
  6
BYLAYER
 62
     7
 10
358.950674
 20
-137.434654
 30
0.0
 40
0.850006
 50
90.0
 51
269.999998
  0
ARC
  8
0
  6
BYLAYER
 62
     7
 10
362.950598
 20
-137.434654
 30
0.0
 40
0.850006
 50
90.0
 51
269.999998
  0
ARC
  8
0
  6
BYLAYER
 62
     7
 10
358.950674
 20
-126.734672
 30
0.0
 40
0.850006
 50
90.0
 51
269.999998
  0
ARC
  8
0
  6
BYLAYER
 62
     7
 10
362.950598
 20
-126.734672
 30
0.0
 40
0.850006
 50
90.0
 51
269.999998
  0
LINE
  8
0
  6
BYLAYER
 62
     7
 10
358.950659
 20
-125.884666
 30
0.0
 11
458.600744
 21
-125.884749
 31
0.0
  0
LINE
  8
0
  6
BYLAYER
 62
     7
 10
358.950659
 20
-127.584648
 30
0.0
 11
458.600744
 21
-127.584730
 31
0.0
  0
ARC
  8
0
  6
BYLAYER
 62
     7
 10
358.950674
 20
-116.034660
 30
0.0
 40
0.850006
 50
90.0
 51
269.999998
  0
ARC
  8
0
  6
BYLAYER
 62
     7
 10
362.950598
 20
-116.034660
 30
0.0
 40
0.850006
 50
90.0
 51
269.999998
  0
LINE
  8
0
  6
BYLAYER
 62
     7
 10
358.950659
 20
-115.184654
 30
0.0
 11
458.600744
 21
-115.184736
 31
0.0
  0
LINE
  8
0
  6
BYLAYER
 62
     7
 10
358.950659
 20
-116.884635
 30
0.0
 11
458.600744
 21
-116.884718
 31
0.0
  0
LINE
  8
0
  6
BYLAYER
 62
     7
 10
366.100622
 20
-138.284629
 30
0.0
 11
366.100622
 21
-147.284660
 31
0.0
  0
LINE
  8
0
  6
BYLAYER
 62
     7
 10
366.100622
 20
-127.584617
 30
0.0
 11
366.100622
 21
-136.584648
 31
0.0
  0
LINE
  8
0
  6
BYLAYER
 62
     7
 10
366.100622
 20
-116.884635
 30
0.0
 11
366.100622
 21
-125.884666
 31
0.0
  0
LINE
  8
0
  6
BYLAYER
 62
     7
 10
366.100622
 20
-110.252555
 30
0.0
 11
366.100622
 21
-115.184654
 31
0.0
  0
LINE
  8
0
  6
BYLAYER
 62
     7
 10
358.100652
 20
-105.942619
 30
0.0
 11
366.100622
 21
-110.252555
 31
0.0
  0
LINE
  8
0
  6
BYLAYER
 62
     7
 10
458.600744
 20
-110.252555
 30
0.0
 11
366.100622
 21
-110.252555
 31
0.0
  0
ARC
  8
0
  6
BYLAYER
 62
     7
 10
358.950674
 20
-158.834617
 30
0.0
 40
0.850006
 50
90.0
 51
269.999998
  0
ARC
  8
0
  6
BYLAYER
 62
     7
 10
362.950598
 20
-158.834617
 30
0.0
 40
0.850006
 50
90.0
 51
269.999998
  0
LINE
  8
0
  6
BYLAYER
 62
     7
 10
358.950659
 20
-159.684623
 30
0.0
 11
458.600744
 21
-159.684541
 31
0.0
  0
LINE
  8
0
  6
BYLAYER
 62
     7
 10
358.950659
 20
-157.984642
 30
0.0
 11
458.600744
 21
-157.984559
 31
0.0
  0
ARC
  8
0
  6
BYLAYER
 62
     7
 10
358.950674
 20
-169.534629
 30
0.0
 40
0.850006
 50
90.0
 51
269.999998
  0
ARC
  8
0
  6
BYLAYER
 62
     7
 10
362.950598
 20
-169.534629
 30
0.0
 40
0.850006
 50
90.0
 51
269.999998
  0
ARC
  8
0
  6
BYLAYER
 62
     7
 10
358.950674
 20
-180.234611
 30
0.0
 40
0.850006
 50
90.0
 51
269.999998
  0
ARC
  8
0
  6
BYLAYER
 62
     7
 10
362.950598
 20
-180.234611
 30
0.0
 40
0.850006
 50
90.0
 51
269.999998
  0
LINE
  8
0
  6
BYLAYER
 62
     7
 10
358.950659
 20
-181.084617
 30
0.0
 11
458.600744
 21
-181.084535
 31
0.0
  0
LINE
  8
0
  6
BYLAYER
 62
     7
 10
358.950659
 20
-179.384635
 30
0.0
 11
458.600744
 21
-179.384553
 31
0.0
  0
ARC
  8
0
  6
BYLAYER
 62
     7
 10
358.950674
 20
-190.934623
 30
0.0
 40
0.850006
 50
90.0
 51
269.999998
  0
ARC
  8
0
  6
BYLAYER
 62
     7
 10
362.950598
 20
-190.934623
 30
0.0
 40
0.850006
 50
90.0
 51
269.999998
  0
LINE
  8
0
  6
BYLAYER
 62
     7
 10
358.950659
 20
-191.784629
 30
0.0
 11
458.600744
 21
-191.784547
 31
0.0
  0
LINE
  8
0
  6
BYLAYER
 62
     7
 10
358.950659
 20
-190.084648
 30
0.0
 11
458.600744
 21
-190.084565
 31
0.0
  0
LINE
  8
0
  6
BYLAYER
 62
     7
 10
366.100622
 20
-168.684654
 30
0.0
 11
366.100622
 21
-159.684623
 31
0.0
  0
LINE
  8
0
  6
BYLAYER
 62
     7
 10
366.100622
 20
-179.384666
 30
0.0
 11
366.100622
 21
-170.384635
 31
0.0
  0
LINE
  8
0
  6
BYLAYER
 62
     7
 10
366.100622
 20
-190.084648
 30
0.0
 11
366.100622
 21
-181.084617
 31
0.0
  0
LINE
  8
0
  6
BYLAYER
 62
     7
 10
358.100744
 20
-210.734642
 30
0.0
 11
358.100622
 21
-76.484520
 31
0.0
  0
LINE
  8
0
  6
BYLAYER
 62
     7
 10
358.100744
 20
-210.734642
 30
0.0
 11
356.100744
 21
-210.734642
 31
0.0
  0
LINE
  8
0
  6
BYLAYER
 62
     7
 10
366.100622
 20
-148.984642
 30
0.0
 11
366.100622
 21
-157.984642
 31
0.0
  0
LINE
  8
0
  6
BYLAYER
 62
     7
 10
358.100729
 20
-192.211052
 30
0.0
 11
360.273474
 21
-200.319877
 31
0.0
  0
ARC
  8
0
  6
BYLAYER
 62
     7
 10
362.205328
 20
-199.802238
 30
0.0
 40
2.000003
 50
195.000016
 51
270.000001
  0
LINE
  8
0
  6
BYLAYER
 62
     7
 10
358.100729
 20
-195.648643
 30
0.0
 11
361.570898
 21
-208.599449
 31
0.0
  0
ARC
  8
0
  6
BYLAYER
 62
     7
 10
363.502737
 20
-208.081810
 30
0.0
 40
1.999988
 50
195.000043
 51
270.000001
  0
LINE
  8
0
  6
BYLAYER
 62
     7
 10
358.100744
 20
-203.443244
 30
0.0
 11
361.049597
 21
-214.448524
 31
0.0
  0
ARC
  8
0
  6
BYLAYER
 62
     7
 10
362.981451
 20
-213.930885
 30
0.0
 40
2.000003
 50
195.000043
 51
270.000001
  0
LINE
  8
0
  6
BYLAYER
 62
     7
 10
358.100744
 20
-208.082496
 30
0.0
 11
360.773474
 21
-218.057289
 31
0.0
  0
ARC
  8
0
  6
BYLAYER
 62
     7
 10
362.705328
 20
-217.539650
 30
0.0
 40
2.000003
 50
195.000043
 51
270.000001
  0
LINE
  8
0
  6
BYLAYER
 62
     7
 10
358.100744
 20
-210.734642
 30
0.0
 11
360.526800
 21
-219.788826
 31
0.0
  0
ARC
  8
0
  6
BYLAYER
 62
     7
 10
362.458654
 20
-219.271186
 30
0.0
 40
2.000003
 50
195.000016
 51
270.000001
  0
LINE
  8
0
  6
BYLAYER
 62
     7
 10
362.205328
 20
-201.802238
 30
0.0
 11
458.600744
 21
-201.802224
 31
0.0
  0
LINE
  8
0
  6
BYLAYER
 62
     7
 10
363.502737
 20
-210.081810
 30
0.0
 11
458.600744
 21
-210.081795
 31
0.0
  0
LINE
  8
0
  6
BYLAYER
 62
     7
 10
362.981451
 20
-215.930885
 30
0.0
 11
458.600744
 21
-215.930871
 31
0.0
  0
LINE
  8
0
  6
BYLAYER
 62
     7
 10
362.705328
 20
-219.539650
 30
0.0
 11
458.600744
 21
-219.539635
 31
0.0
  0
LINE
  8
0
  6
BYLAYER
 62
     7
 10
362.458654
 20
-221.271186
 30
0.0
 11
458.600744
 21
-221.271172
 31
0.0
  0
CIRCLE
  8
0
  6
BYLAYER
 62
     7
 10
386.600714
 20
-137.434654
 30
0.0
 40
3.0
  0
CIRCLE
  8
0
  6
BYLAYER
 62
     7
 10
441.600714
 20
-137.434654
 30
0.0
 40
3.0
  0
LINE
  8
0
  6
BYLAYER
 62
     7
 10
358.950659
 20
-136.584648
 30
0.0
 11
383.723638
 21
-136.584678
 31
0.0
  0
LINE
  8
0
  6
BYLAYER
 62
     7
 10
383.723638
 20
-138.284660
 30
0.0
 11
358.950659
 21
-138.284629
 31
0.0
  0
LINE
  8
0
  6
BYLAYER
 62
     7
 10
389.477789
 20
-136.584678
 30
0.0
 11
438.723638
 21
-136.584709
 31
0.0
  0
LINE
  8
0
  6
BYLAYER
 62
     7
 10
438.723669
 20
-138.284690
 30
0.0
 11
389.477773
 21
-138.284660
 31
0.0
  0
LINE
  8
0
  6
BYLAYER
 62
     7
 10
444.477789
 20
-136.584709
 30
0.0
 11
458.600744
 21
-136.584726
 31
0.0
  0
LINE
  8
0
  6
BYLAYER
 62
     7
 10
458.600744
 20
-138.284708
 30
0.0
 11
444.477758
 21
-138.284690
 31
0.0
  0
LINE
  8
0
  6
BYLAYER
 62
     7
 10
358.950659
 20
-168.684654
 30
0.0
 11
458.600744
 21
-168.684566
 31
0.0
  0
LINE
  8
0
  6
BYLAYER
 62
     7
 10
358.950659
 20
-170.384635
 30
0.0
 11
458.600744
 21
-170.384548
 31
0.0
  0
LINE
  8
0
  6
BYLAYER
 62
     7
 10
356.100622
 20
-96.234638
 30
0.0
 11
356.100744
 21
-210.734638
 31
0.0
  0
LINE
  8
0
  6
BYLAYER
 62
     7
 10
532.100744
 20
-98.484642
 30
0.0
 11
532.100744
 21
-208.484642
 31
0.0
  0
LINE
  8
0
  6
BYLAYER
 62
     7
 10
458.600744
 20
-84.034642
 30
0.0
 11
517.650744
 21
-84.034642
 31
0.0
  0
LINE
  8
0
  6
BYLAYER
 62
     7
 10
458.600744
 20
-222.934642
 30
0.0
 11
517.650744
 21
-222.934642
 31
0.0
  0
LINE
  8
0
  6
BYLAYER
 62
     7
 10
532.100744
 20
-98.484642
 30
0.0
 11
517.650744
 21
-84.034642
 31
0.0
  0
LINE
  8
0
  6
BYLAYER
 62
     7
 10
532.100744
 20
-208.484642
 30
0.0
 11
517.650744
 21
-222.934642
 31
0.0
  0
LINE
  8
0
  6
BYLAYER
 62
     7
 10
458.600744
 20
-153.484642
 30
0.0
 11
458.600744
 21
-222.934642
 31
0.0
  0
LINE
  8
0
  6
BYLAYER
 62
     7
 10
458.600744
 20
-153.484642
 30
0.0
 11
458.600744
 21
-84.034642
 31
0.0
  0
LINE
  8
0
  6
BYLAYER
 62
     7
 10
356.100683
 20
-95.475915
 30
0.0
 11
356.100683
 21
-211.493369
 31
0.0
  0
LINE
  8
0
  6
BYLAYER
 62
     7
 10
325.100683
 20
-73.484642
 30
0.0
 11
335.100683
 21
-73.484642
 31
0.0
  0
LINE
  8
0
  6
BYLAYER
 62
     7
 10
356.100683
 20
-95.475915
 30
0.0
 11
336.083227
 21
-95.126511
 31
0.0
  0
LINE
  8
0
  6
BYLAYER
 62
     7
 10
335.100683
 20
-73.484642
 30
0.0
 11
335.100683
 21
-153.484642
 31
0.0
  0
ARC
  8
0
  6
BYLAYER
 62
     7
 10
336.100683
 20
-94.126663
 30
0.0
 40
1.0
 50
180.000000
 51
269.000015
  0
LINE
  8
0
  6
BYLAYER
 62
     7
 10
325.100683
 20
-233.484642
 30
0.0
 11
335.100683
 21
-233.484642
 31
0.0
  0
LINE
  8
0
  6
BYLAYER
 62
     7
 10
354.600683
 20
-220.484642
 30
0.0
 11
335.100683
 21
-220.825018
 31
0.0
  0
LINE
  8
0
  6
BYLAYER
 62
     7
 10
354.600683
 20
-220.484642
 30
0.0
 11
354.600683
 21
-211.484642
 31
0.0
  0
LINE
  8
0
  6
BYLAYER
 62
     7
 10
356.100683
 20
-211.493369
 30
0.0
 11
354.600683
 21
-211.519550
 31
0.0
  0
LINE
  8
0
  6
BYLAYER
 62
     7
 10
335.100683
 20
-233.484642
 30
0.0
 11
335.100683
 21
-153.484642
 31
0.0
  0
LINE
  8
0
  6
BYLAYER
 62
     7
 10
325.100683
 20
-233.484642
 30
0.0
 11
325.100683
 21
-153.484642
 31
0.0
  0
LINE
  8
0
  6
BYLAYER
 62
     7
 10
325.100683
 20
-73.484642
 30
0.0
 11
325.100683
 21
-153.484642
 31
0.0
  0
ARC
  8
0
  6
BYLAYER
 62
     7
 10
428.854960
 20
-65.984520
 30
0.0
 40
1.5
 50
180.000000
 51
270.000000
  0
ARC
  8
0
  6
BYLAYER
 62
     7
 10
367.346284
 20
-65.984520
 30
0.0
 40
1.5
 50
270.0
 51
360.0
  0
ARC
  8
0
  6
BYLAYER
 62
     7
 10
359.600622
 20
-65.984520
 30
0.0
 40
1.500000
 50
270.0
 51
360.0
  0
ARC
  8
0
  6
BYLAYER
 62
     7
 10
359.600622
 20
-68.984520
 30
0.0
 40
1.500000
 50
90.0
 51
180.0
  0
ARC
  8
0
  6
BYLAYER
 62
     7
 10
436.600622
 20
-65.984520
 30
0.0
 40
1.500000
 50
180.000000
 51
270.000000
  0
LINE
  8
0
  6
BYLAYER
 62
     7
 10
361.100622
 20
-65.984520
 30
0.0
 11
361.100622
 21
-44.484520
 31
0.0
  0
ARC
  8
0
  6
BYLAYER
 62
     7
 10
362.600622
 20
-44.484520
 30
0.0
 40
1.5
 50
90.0
 51
180.0
  0
LINE
  8
0
  6
BYLAYER
 62
     7
 10
435.100622
 20
-65.984520
 30
0.0
 11
435.100622
 21
-44.484520
 31
0.0
  0
LINE
  8
0
  6
BYLAYER
 62
     7
 10
362.600622
 20
-42.984520
 30
0.0
 11
433.600622
 21
-42.984520
 31
0.0
  0
ARC
  8
0
  6
BYLAYER
 62
     7
 10
425.854960
 20
-44.484520
 30
0.0
 40
1.500000
 50
0.0
 51
90.0
  0
ARC
  8
0
  6
BYLAYER
 62
     7
 10
433.600622
 20
-44.484520
 30
0.0
 40
1.5
 50
0.0
 51
90.0
  0
LINE
  8
0
  6
BYLAYER
 62
     7
 10
368.846284
 20
-65.984520
 30
0.0
 11
368.846284
 21
-44.484520
 31
0.0
  0
ARC
  8
0
  6
BYLAYER
 62
     7
 10
370.346284
 20
-44.484520
 30
0.0
 40
1.500000
 50
90.0
 51
180.0
  0
LINE
  8
0
  6
BYLAYER
 62
     7
 10
427.354960
 20
-65.984520
 30
0.0
 11
427.354960
 21
-44.484520
 31
0.0
  0
ARC
  8
0
  6
BYLAYER
 62
     7
 10
436.600622
 20
-68.984520
 30
0.0
 40
1.5
 50
0.0
 51
90.0
  0
LINE
  8
0
  6
BYLAYER
 62
     7
 10
438.100622
 20
-76.484520
 30
0.0
 11
438.100622
 21
-68.984520
 31
0.0
  0
LINE
  8
0
  6
BYLAYER
 62
     7
 10
436.600622
 20
-67.484520
 30
0.0
 11
359.600622
 21
-67.484520
 31
0.0
  0
LINE
  8
0
  6
BYLAYER
 62
     7
 10
358.100622
 20
-68.984520
 30
0.0
 11
358.100622
 21
-76.484520
 31
0.0
  0
LINE
  8
0
  6
BYLAYER
 62
     7
 10
358.100622
 20
-76.484520
 30
0.0
 11
438.100622
 21
-76.484520
 31
0.0
  0
LINE
  8
0
  6
BYLAYER
 62
     7
 10
438.100622
 20
-74.484520
 30
0.0
 11
358.100622
 21
-74.484520
 31
0.0
  0
LINE
  8
0
  6
BYLAYER
 62
     7
 10
517.650744
 20
-222.934642
 30
0.0
 11
517.650744
 21
-84.034642
 31
0.0
  0
ARC
  8
0
  6
BYLAYER
 62
     7
 10
358.950674
 20
-665.934623
 30
0.0
 40
0.850006
 50
111.034603
 51
269.999998
  0
ARC
  8
0
  6
BYLAYER
 62
     7
 10
362.950598
 20
-665.934623
 30
0.0
 40
0.850006
 50
148.036043
 51
269.999998
  0
LINE
  8
0
  6
BYLAYER
 62
     7
 10
358.950659
 20
-666.784629
 30
0.0
 11
458.600744
 21
-666.784547
 31
0.0
  0
LINE
  8
0
  6
BYLAYER
 62
     7
 10
358.100744
 20
-685.734642
 30
0.0
 11
358.100692
 21
-628.484642
 31
0.0
  0
LINE
  8
0
  6
BYLAYER
 62
     7
 10
358.100744
 20
-685.734642
 30
0.0
 11
356.100744
 21
-685.734642
 31
0.0
  0
LINE
  8
0
  6
BYLAYER
 62
     7
 10
358.100729
 20
-667.211052
 30
0.0
 11
360.273474
 21
-675.319877
 31
0.0
  0
ARC
  8
0
  6
BYLAYER
 62
     7
 10
362.205328
 20
-674.802238
 30
0.0
 40
2.000003
 50
195.000016
 51
270.000001
  0
LINE
  8
0
  6
BYLAYER
 62
     7
 10
358.100729
 20
-670.648643
 30
0.0
 11
361.570898
 21
-683.599449
 31
0.0
  0
ARC
  8
0
  6
BYLAYER
 62
     7
 10
363.502737
 20
-683.081810
 30
0.0
 40
1.999988
 50
195.000043
 51
270.000001
  0
LINE
  8
0
  6
BYLAYER
 62
     7
 10
358.100744
 20
-678.443244
 30
0.0
 11
361.049597
 21
-689.448524
 31
0.0
  0
ARC
  8
0
  6
BYLAYER
 62
     7
 10
362.981451
 20
-688.930885
 30
0.0
 40
2.000003
 50
195.000043
 51
270.000001
  0
LINE
  8
0
  6
BYLAYER
 62
     7
 10
358.100744
 20
-683.082496
 30
0.0
 11
360.773474
 21
-693.057289
 31
0.0
  0
ARC
  8
0
  6
BYLAYER
 62
     7
 10
362.705328
 20
-692.539650
 30
0.0
 40
2.000003
 50
195.000043
 51
270.000001
  0
LINE
  8
0
  6
BYLAYER
 62
     7
 10
358.100744
 20
-685.734642
 30
0.0
 11
360.526800
 21
-694.788826
 31
0.0
  0
ARC
  8
0
  6
BYLAYER
 62
     7
 10
362.458654
 20
-694.271186
 30
0.0
 40
2.000003
 50
195.000016
 51
270.000001
  0
LINE
  8
0
  6
BYLAYER
 62
     7
 10
362.205328
 20
-676.802238
 30
0.0
 11
458.600744
 21
-676.802224
 31
0.0
  0
LINE
  8
0
  6
BYLAYER
 62
     7
 10
363.502737
 20
-685.081810
 30
0.0
 11
458.600744
 21
-685.081795
 31
0.0
  0
LINE
  8
0
  6
BYLAYER
 62
     7
 10
362.981451
 20
-690.930885
 30
0.0
 11
458.600744
 21
-690.930871
 31
0.0
  0
LINE
  8
0
  6
BYLAYER
 62
     7
 10
362.705328
 20
-694.539650
 30
0.0
 11
458.600744
 21
-694.539635
 31
0.0
  0
LINE
  8
0
  6
BYLAYER
 62
     7
 10
362.458654
 20
-696.271186
 30
0.0
 11
458.600744
 21
-696.271172
 31
0.0
  0
LINE
  8
0
  6
BYLAYER
 62
     7
 10
356.100683
 20
-628.484642
 30
0.0
 11
356.100744
 21
-685.734638
 31
0.0
  0
LINE
  8
0
  6
BYLAYER
 62
     7
 10
532.100744
 20
-628.484642
 30
0.0
 11
532.100744
 21
-683.484642
 31
0.0
  0
LINE
  8
0
  6
BYLAYER
 62
     7
 10
458.600744
 20
-697.934642
 30
0.0
 11
517.650744
 21
-697.934642
 31
0.0
  0
LINE
  8
0
  6
BYLAYER
 62
     7
 10
532.100744
 20
-683.484642
 30
0.0
 11
517.650744
 21
-697.934642
 31
0.0
  0
LINE
  8
0
  6
BYLAYER
 62
     7
 10
458.600744
 20
-628.484642
 30
0.0
 11
458.600744
 21
-697.934642
 31
0.0
  0
LINE
  8
0
  6
BYLAYER
 62
     7
 10
361.100692
 20
-653.001327
 30
0.0
 11
361.100692
 21
-628.484642
 31
0.0
  0
LINE
  8
0
  6
BYLAYER
 62
     7
 10
435.100692
 20
-628.484642
 30
0.0
 11
435.100692
 21
-653.001327
 31
0.0
  0
LINE
  8
0
  6
BYLAYER
 62
     7
 10
425.638286
 20
-662.734642
 30
0.0
 11
370.563098
 21
-662.734642
 31
0.0
  0
LINE
  8
0
  6
BYLAYER
 62
     7
 10
375.205390
 20
-633.585748
 30
0.0
 11
361.100692
 21
-634.078295
 31
0.0
  0
ARC
  8
0
  6
BYLAYER
 62
     7
 10
375.100692
 20
-630.587576
 30
0.0
 40
3.0
 50
272.000000
 51
360.000000
  0
LINE
  8
0
  6
BYLAYER
 62
     7
 10
375.205390
 20
-648.585748
 30
0.0
 11
361.100692
 21
-649.078295
 31
0.0
  0
ARC
  8
0
  6
BYLAYER
 62
     7
 10
375.100692
 20
-645.587576
 30
0.0
 40
3.0
 50
272.000000
 51
360.000000
  0
LINE
  8
0
  6
BYLAYER
 62
     7
 10
361.100692
 20
-637.890989
 30
0.0
 11
375.205390
 21
-638.383536
 31
0.0
  0
ARC
  8
0
  6
BYLAYER
 62
     7
 10
375.100692
 20
-641.381708
 30
0.0
 40
3.000000
 50
0.0
 51
88.0
  0
LINE
  8
0
  6
BYLAYER
 62
     7
 10
378.100692
 20
-641.381708
 30
0.0
 11
378.100692
 21
-645.587576
 31
0.0
  0
LINE
  8
0
  6
BYLAYER
 62
     7
 10
378.100692
 20
-628.484642
 30
0.0
 11
378.100692
 21
-630.587576
 31
0.0
  0
LINE
  8
0
  6
BYLAYER
 62
     7
 10
362.100692
 20
-628.484642
 30
0.0
 11
362.100692
 21
-634.043374
 31
0.0
  0
LINE
  8
0
  6
BYLAYER
 62
     7
 10
362.100692
 20
-637.925910
 30
0.0
 11
362.100692
 21
-649.043374
 31
0.0
  0
LINE
  8
0
  6
BYLAYER
 62
     7
 10
420.995993
 20
-633.585748
 30
0.0
 11
435.100692
 21
-634.078295
 31
0.0
  0
ARC
  8
0
  6
BYLAYER
 62
     7
 10
421.100692
 20
-630.587576
 30
0.0
 40
3.000000
 50
180.000000
 51
268.000000
  0
LINE
  8
0
  6
BYLAYER
 62
     7
 10
420.995993
 20
-648.585748
 30
0.0
 11
435.100692
 21
-649.078295
 31
0.0
  0
ARC
  8
0
  6
BYLAYER
 62
     7
 10
421.100692
 20
-645.587576
 30
0.0
 40
3.000000
 50
180.000000
 51
268.000000
  0
LINE
  8
0
  6
BYLAYER
 62
     7
 10
435.100692
 20
-637.890989
 30
0.0
 11
420.995993
 21
-638.383536
 31
0.0
  0
ARC
  8
0
  6
BYLAYER
 62
     7
 10
421.100692
 20
-641.381708
 30
0.0
 40
3.0
 50
92.000000
 51
180.000000
  0
LINE
  8
0
  6
BYLAYER
 62
     7
 10
418.100692
 20
-641.381708
 30
0.0
 11
418.100692
 21
-645.587576
 31
0.0
  0
LINE
  8
0
  6
BYLAYER
 62
     7
 10
418.100692
 20
-628.484642
 30
0.0
 11
418.100692
 21
-630.587576
 31
0.0
  0
LINE
  8
0
  6
BYLAYER
 62
     7
 10
434.100692
 20
-628.484642
 30
0.0
 11
434.100692
 21
-634.043374
 31
0.0
  0
LINE
  8
0
  6
BYLAYER
 62
     7
 10
434.100692
 20
-637.925910
 30
0.0
 11
434.100692
 21
-649.043374
 31
0.0
  0
LINE
  8
0
  6
BYLAYER
 62
     7
 10
358.100692
 20
-628.484642
 30
0.0
 11
358.100692
 21
-663.984642
 31
0.0
  0
ARC
  8
0
  6
BYLAYER
 62
     7
 10
359.600692
 20
-663.984642
 30
0.0
 40
1.500000
 50
180.000000
 51
270.000000
  0
LINE
  8
0
  6
BYLAYER
 62
     7
 10
438.100692
 20
-663.984642
 30
0.0
 11
438.100692
 21
-628.484642
 31
0.0
  0
LINE
  8
0
  6
BYLAYER
 62
     7
 10
359.600692
 20
-665.484642
 30
0.0
 11
436.600692
 21
-665.484642
 31
0.0
  0
ARC
  8
0
  6
BYLAYER
 62
     7
 10
436.600692
 20
-663.984642
 30
0.0
 40
1.5
 50
270.0
 51
360.0
  0
ARC
  8
0
  6
BYLAYER
 62
     7
 10
433.100692
 20
-660.484642
 30
0.0
 40
6.0
 50
86.177446
 51
185.739170
  0
ARC
  8
0
  6
BYLAYER
 62
     7
 10
433.600692
 20
-653.001327
 30
0.0
 40
1.5
 50
266.177446
 51
360.000000
  0
ARC
  8
0
  6
BYLAYER
 62
     7
 10
425.638286
 20
-661.234642
 30
0.0
 40
1.5
 50
270.0
 51
365.739170
  0
ARC
  8
0
  6
BYLAYER
 62
     7
 10
363.100692
 20
-660.484642
 30
0.0
 40
6.000000
 50
354.260830
 51
453.822554
  0
ARC
  8
0
  6
BYLAYER
 62
     7
 10
370.563098
 20
-661.234642
 30
0.0
 40
1.5
 50
174.260830
 51
270.000000
  0
ARC
  8
0
  6
BYLAYER
 62
     7
 10
362.600692
 20
-653.001327
 30
0.0
 40
1.500000
 50
180.000000
 51
273.822554
  0
ARC
  8
0
  6
BYLAYER
 62
     7
 10
385.100692
 20
-655.484642
 30
0.0
 40
3.0
 50
180.000000
 51
270.000000
  0
ARC
  8
0
  6
BYLAYER
 62
     7
 10
411.100692
 20
-655.484642
 30
0.0
 40
3.0
 50
270.0
 51
360.0
  0
LINE
  8
0
  6
BYLAYER
 62
     7
 10
385.100692
 20
-658.484642
 30
0.0
 11
411.100692
 21
-658.484642
 31
0.0
  0
LINE
  8
0
  6
BYLAYER
 62
     7
 10
382.100692
 20
-655.484642
 30
0.0
 11
382.100692
 21
-628.484642
 31
0.0
  0
LINE
  8
0
  6
BYLAYER
 62
     7
 10
414.100692
 20
-628.484642
 30
0.0
 11
414.100692
 21
-655.484642
 31
0.0
  0
LINE
  8
0
  6
BYLAYER
 62
     7
 10
458.600744
 20
-654.384553
 30
0.0
 11
438.100692
 21
-654.384570
 31
0.0
  0
LINE
  8
0
  6
BYLAYER
 62
     7
 10
458.600744
 20
-656.084535
 30
0.0
 11
438.100692
 21
-656.084552
 31
0.0
  0
LINE
  8
0
  6
BYLAYER
 62
     7
 10
458.600744
 20
-665.084556
 30
0.0
 11
437.620589
 21
-665.084556
 31
0.0
  0
ARC
  8
0
  6
BYLAYER
 62
     7
 10
358.950674
 20
-591.034661
 30
0.0
 40
0.850006
 50
90.0
 51
248.965395
  0
ARC
  8
0
  6
BYLAYER
 62
     7
 10
362.950598
 20
-591.034661
 30
0.0
 40
0.850006
 50
90.0
 51
211.963955
  0
LINE
  8
0
  6
BYLAYER
 62
     7
 10
358.950659
 20
-590.184655
 30
0.0
 11
458.600744
 21
-590.184737
 31
0.0
  0
LINE
  8
0
  6
BYLAYER
 62
     7
 10
358.100744
 20
-571.234642
 30
0.0
 11
358.100692
 21
-628.484642
 31
0.0
  0
LINE
  8
0
  6
BYLAYER
 62
     7
 10
358.100744
 20
-571.234642
 30
0.0
 11
356.100744
 21
-571.234642
 31
0.0
  0
LINE
  8
0
  6
BYLAYER
 62
     7
 10
358.100729
 20
-589.758232
 30
0.0
 11
360.273474
 21
-581.649407
 31
0.0
  0
ARC
  8
0
  6
BYLAYER
 62
     7
 10
362.205328
 20
-582.167046
 30
0.0
 40
2.000003
 50
90.0
 51
164.999985
  0
LINE
  8
0
  6
BYLAYER
 62
     7
 10
358.100729
 20
-586.320641
 30
0.0
 11
361.570898
 21
-573.369835
 31
0.0
  0
ARC
  8
0
  6
BYLAYER
 62
     7
 10
363.502737
 20
-573.887474
 30
0.0
 40
1.999988
 50
90.0
 51
164.999958
  0
LINE
  8
0
  6
BYLAYER
 62
     7
 10
358.100744
 20
-578.526040
 30
0.0
 11
361.049597
 21
-567.520760
 31
0.0
  0
ARC
  8
0
  6
BYLAYER
 62
     7
 10
362.981451
 20
-568.038399
 30
0.0
 40
2.000003
 50
90.0
 51
164.999958
  0
LINE
  8
0
  6
BYLAYER
 62
     7
 10
358.100744
 20
-573.886788
 30
0.0
 11
360.773474
 21
-563.911995
 31
0.0
  0
ARC
  8
0
  6
BYLAYER
 62
     7
 10
362.705328
 20
-564.429634
 30
0.0
 40
2.000003
 50
90.0
 51
164.999958
  0
LINE
  8
0
  6
BYLAYER
 62
     7
 10
358.100744
 20
-571.234642
 30
0.0
 11
360.526800
 21
-562.180458
 31
0.0
  0
ARC
  8
0
  6
BYLAYER
 62
     7
 10
362.458654
 20
-562.698098
 30
0.0
 40
2.000003
 50
90.0
 51
164.999985
  0
LINE
  8
0
  6
BYLAYER
 62
     7
 10
362.205328
 20
-580.167046
 30
0.0
 11
458.600744
 21
-580.167060
 31
0.0
  0
LINE
  8
0
  6
BYLAYER
 62
     7
 10
363.502737
 20
-571.887474
 30
0.0
 11
458.600744
 21
-571.887489
 31
0.0
  0
LINE
  8
0
  6
BYLAYER
 62
     7
 10
362.981451
 20
-566.038399
 30
0.0
 11
458.600744
 21
-566.038413
 31
0.0
  0
LINE
  8
0
  6
BYLAYER
 62
     7
 10
362.705328
 20
-562.429634
 30
0.0
 11
458.600744
 21
-562.429649
 31
0.0
  0
LINE
  8
0
  6
BYLAYER
 62
     7
 10
362.458654
 20
-560.698098
 30
0.0
 11
458.600744
 21
-560.698112
 31
0.0
  0
LINE
  8
0
  6
BYLAYER
 62
     7
 10
356.100683
 20
-628.484642
 30
0.0
 11
356.100744
 21
-571.234646
 31
0.0
  0
LINE
  8
0
  6
BYLAYER
 62
     7
 10
532.100744
 20
-628.484642
 30
0.0
 11
532.100744
 21
-573.484642
 31
0.0
  0
LINE
  8
0
  6
BYLAYER
 62
     7
 10
458.600744
 20
-559.034642
 30
0.0
 11
517.650744
 21
-559.034642
 31
0.0
  0
LINE
  8
0
  6
BYLAYER
 62
     7
 10
532.100744
 20
-573.484642
 30
0.0
 11
517.650744
 21
-559.034642
 31
0.0
  0
LINE
  8
0
  6
BYLAYER
 62
     7
 10
458.600744
 20
-628.484642
 30
0.0
 11
458.600744
 21
-559.034642
 31
0.0
  0
LINE
  8
0
  6
BYLAYER
 62
     7
 10
361.100692
 20
-603.967957
 30
0.0
 11
361.100692
 21
-628.484642
 31
0.0
  0
LINE
  8
0
  6
BYLAYER
 62
     7
 10
435.100692
 20
-628.484642
 30
0.0
 11
435.100692
 21
-603.967957
 31
0.0
  0
LINE
  8
0
  6
BYLAYER
 62
     7
 10
425.638286
 20
-594.234642
 30
0.0
 11
370.563098
 21
-594.234642
 31
0.0
  0
LINE
  8
0
  6
BYLAYER
 62
     7
 10
375.205390
 20
-623.383536
 30
0.0
 11
361.100692
 21
-622.890989
 31
0.0
  0
ARC
  8
0
  6
BYLAYER
 62
     7
 10
375.100692
 20
-626.381708
 30
0.0
 40
3.000000
 50
0.0
 51
88.0
  0
LINE
  8
0
  6
BYLAYER
 62
     7
 10
375.205390
 20
-608.383536
 30
0.0
 11
361.100692
 21
-607.890989
 31
0.0
  0
ARC
  8
0
  6
BYLAYER
 62
     7
 10
375.100692
 20
-611.381708
 30
0.0
 40
3.000000
 50
0.0
 51
88.0
  0
LINE
  8
0
  6
BYLAYER
 62
     7
 10
361.100692
 20
-619.078295
 30
0.0
 11
375.205390
 21
-618.585748
 31
0.0
  0
ARC
  8
0
  6
BYLAYER
 62
     7
 10
375.100692
 20
-615.587576
 30
0.0
 40
3.0
 50
272.000000
 51
360.000000
  0
LINE
  8
0
  6
BYLAYER
 62
     7
 10
378.100692
 20
-615.587576
 30
0.0
 11
378.100692
 21
-611.381708
 31
0.0
  0
LINE
  8
0
  6
BYLAYER
 62
     7
 10
378.100692
 20
-628.484642
 30
0.0
 11
378.100692
 21
-626.381708
 31
0.0
  0
LINE
  8
0
  6
BYLAYER
 62
     7
 10
362.100692
 20
-628.484642
 30
0.0
 11
362.100692
 21
-622.925910
 31
0.0
  0
LINE
  8
0
  6
BYLAYER
 62
     7
 10
362.100692
 20
-619.043374
 30
0.0
 11
362.100692
 21
-607.925910
 31
0.0
  0
LINE
  8
0
  6
BYLAYER
 62
     7
 10
420.995993
 20
-623.383536
 30
0.0
 11
435.100692
 21
-622.890989
 31
0.0
  0
ARC
  8
0
  6
BYLAYER
 62
     7
 10
421.100692
 20
-626.381708
 30
0.0
 40
3.0
 50
92.000000
 51
180.000000
  0
LINE
  8
0
  6
BYLAYER
 62
     7
 10
420.995993
 20
-608.383536
 30
0.0
 11
435.100692
 21
-607.890989
 31
0.0
  0
ARC
  8
0
  6
BYLAYER
 62
     7
 10
421.100692
 20
-611.381708
 30
0.0
 40
3.0
 50
92.000000
 51
180.000000
  0
LINE
  8
0
  6
BYLAYER
 62
     7
 10
435.100692
 20
-619.078295
 30
0.0
 11
420.995993
 21
-618.585748
 31
0.0
  0
ARC
  8
0
  6
BYLAYER
 62
     7
 10
421.100692
 20
-615.587576
 30
0.0
 40
3.000000
 50
180.000000
 51
268.000000
  0
LINE
  8
0
  6
BYLAYER
 62
     7
 10
418.100692
 20
-615.587576
 30
0.0
 11
418.100692
 21
-611.381708
 31
0.0
  0
LINE
  8
0
  6
BYLAYER
 62
     7
 10
418.100692
 20
-628.484642
 30
0.0
 11
418.100692
 21
-626.381708
 31
0.0
  0
LINE
  8
0
  6
BYLAYER
 62
     7
 10
434.100692
 20
-628.484642
 30
0.0
 11
434.100692
 21
-622.925910
 31
0.0
  0
LINE
  8
0
  6
BYLAYER
 62
     7
 10
434.100692
 20
-619.043374
 30
0.0
 11
434.100692
 21
-607.925910
 31
0.0
  0
LINE
  8
0
  6
BYLAYER
 62
     7
 10
358.100692
 20
-628.484642
 30
0.0
 11
358.100692
 21
-592.984642
 31
0.0
  0
ARC
  8
0
  6
BYLAYER
 62
     7
 10
359.600692
 20
-592.984642
 30
0.0
 40
1.5
 50
90.0
 51
180.0
  0
LINE
  8
0
  6
BYLAYER
 62
     7
 10
438.100692
 20
-592.984642
 30
0.0
 11
438.100692
 21
-628.484642
 31
0.0
  0
LINE
  8
0
  6
BYLAYER
 62
     7
 10
359.600692
 20
-591.484642
 30
0.0
 11
436.600692
 21
-591.484642
 31
0.0
  0
ARC
  8
0
  6
BYLAYER
 62
     7
 10
436.600692
 20
-592.984642
 30
0.0
 40
1.5
 50
0.0
 51
90.0
  0
ARC
  8
0
  6
BYLAYER
 62
     7
 10
433.100692
 20
-596.484642
 30
0.0
 40
6.000000
 50
174.260830
 51
273.822554
  0
ARC
  8
0
  6
BYLAYER
 62
     7
 10
433.600692
 20
-603.967957
 30
0.0
 40
1.5
 50
0.0
 51
93.822554
  0
ARC
  8
0
  6
BYLAYER
 62
     7
 10
425.638286
 20
-595.734642
 30
0.0
 40
1.500000
 50
354.260830
 51
450.000000
  0
ARC
  8
0
  6
BYLAYER
 62
     7
 10
363.100692
 20
-596.484642
 30
0.0
 40
6.0
 50
266.177446
 51
365.739170
  0
ARC
  8
0
  6
BYLAYER
 62
     7
 10
370.563098
 20
-595.734642
 30
0.0
 40
1.5
 50
90.0
 51
185.73917
  0
ARC
  8
0
  6
BYLAYER
 62
     7
 10
362.600692
 20
-603.967957
 30
0.0
 40
1.500000
 50
86.177446
 51
180.0
  0
ARC
  8
0
  6
BYLAYER
 62
     7
 10
385.100692
 20
-601.484642
 30
0.0
 40
3.0
 50
90.0
 51
180.0
  0
ARC
  8
0
  6
BYLAYER
 62
     7
 10
411.100692
 20
-601.484642
 30
0.0
 40
3.0
 50
0.0
 51
90.0
  0
LINE
  8
0
  6
BYLAYER
 62
     7
 10
385.100692
 20
-598.484642
 30
0.0
 11
411.100692
 21
-598.484642
 31
0.0
  0
LINE
  8
0
  6
BYLAYER
 62
     7
 10
382.100692
 20
-601.484642
 30
0.0
 11
382.100692
 21
-628.484642
 31
0.0
  0
LINE
  8
0
  6
BYLAYER
 62
     7
 10
414.100692
 20
-628.484642
 30
0.0
 11
414.100692
 21
-601.484642
 31
0.0
  0
LINE
  8
0
  6
BYLAYER
 62
     7
 10
458.600744
 20
-602.584731
 30
0.0
 11
438.100692
 21
-602.584714
 31
0.0
  0
LINE
  8
0
  6
BYLAYER
 62
     7
 10
458.600744
 20
-600.884749
 30
0.0
 11
438.100692
 21
-600.884732
 31
0.0
  0
LINE
  8
0
  6
BYLAYER
 62
     7
 10
458.600744
 20
-591.884728
 30
0.0
 11
437.620589
 21
-591.884728
 31
0.0
  0
LINE
  8
0
  6
BYLAYER
 62
     7
 10
356.100683
 20
-570.475915
 30
0.0
 11
356.100683
 21
-628.484642
 31
0.0
  0
LINE
  8
0
  6
BYLAYER
 62
     7
 10
325.100683
 20
-548.484642
 30
0.0
 11
335.100683
 21
-548.484642
 31
0.0
  0
LINE
  8
0
  6
BYLAYER
 62
     7
 10
356.100683
 20
-570.475915
 30
0.0
 11
336.083227
 21
-570.126511
 31
0.0
  0
LINE
  8
0
  6
BYLAYER
 62
     7
 10
335.100683
 20
-548.484642
 30
0.0
 11
335.100683
 21
-628.484642
 31
0.0
  0
ARC
  8
0
  6
BYLAYER
 62
     7
 10
336.100683
 20
-569.126663
 30
0.0
 40
1.000000
 50
180.000000
 51
269.000015
  0
LINE
  8
0
  6
BYLAYER
 62
     7
 10
325.100683
 20
-548.484642
 30
0.0
 11
325.100683
 21
-628.484642
 31
0.0
  0
LINE
  8
0
  6
BYLAYER
 62
     7
 10
356.100683
 20
-686.493369
 30
0.0
 11
356.100683
 21
-628.484642
 31
0.0
  0
LINE
  8
0
  6
BYLAYER
 62
     7
 10
325.100683
 20
-708.484642
 30
0.0
 11
335.100683
 21
-708.484642
 31
0.0
  0
LINE
  8
0
  6
BYLAYER
 62
     7
 10
356.100683
 20
-686.493369
 30
0.0
 11
336.083227
 21
-686.842773
 31
0.0
  0
LINE
  8
0
  6
BYLAYER
 62
     7
 10
335.100683
 20
-708.484642
 30
0.0
 11
335.100683
 21
-628.484642
 31
0.0
  0
ARC
  8
0
  6
BYLAYER
 62
     7
 10
336.100683
 20
-687.842621
 30
0.0
 40
1.0
 50
90.999990
 51
180.000005
  0
LINE
  8
0
  6
BYLAYER
 62
     7
 10
325.100683
 20
-708.484642
 30
0.0
 11
325.100683
 21
-628.484642
 31
0.0
  0
LINE
  8
0
  6
BYLAYER
 62
     7
 10
517.650744
 20
-559.034642
 30
0.0
 11
517.650744
 21
-697.934642
 31
0.0
  0
LINE
  8
0
  6
BYLAYER
 62
     1
 10
253.600683
 20
-314.484642
 30
0.0
 11
253.600683
 21
-304.484642
 31
0.0
  0
LINE
  8
0
  6
BYLAYER
 62
     1
 10
298.600683
 20
-269.484642
 30
0.0
 11
288.600683
 21
-269.484642
 31
0.0
  0
LINE
  8
0
  6
BYLAYER
 62
     1
 10
297.100683
 20
-267.984642
 30
0.0
 11
298.600683
 21
-269.484642
 31
0.0
  0
LINE
  8
0
  6
BYLAYER
 62
     1
 10
298.600683
 20
-269.484642
 30
0.0
 11
298.600683
 21
-312.484642
 31
0.0
  0
LINE
  8
0
  6
BYLAYER
 62
     1
 10
298.600683
 20
-312.484642
 30
0.0
 11
296.600683
 21
-314.484642
 31
0.0
  0
LINE
  8
0
  6
BYLAYER
 62
     1
 10
298.600683
 20
-312.484642
 30
0.0
 11
296.600683
 21
-314.484642
 31
0.0
  0
LINE
  8
0
  6
BYLAYER
 62
     1
 10
252.100683
 20
-312.984642
 30
0.0
 11
253.600683
 21
-314.484642
 31
0.0
  0
LINE
  8
0
  6
BYLAYER
 62
     1
 10
253.600683
 20
-314.484642
 30
0.0
 11
296.600683
 21
-314.484642
 31
0.0
  0
LINE
  8
0
  6
BYLAYER
 62
     1
 10
126.600683
 20
-269.484642
 30
0.0
 11
126.600683
 21
-312.484642
 31
0.0
  0
LINE
  8
0
  6
BYLAYER
 62
     1
 10
171.600683
 20
-314.484642
 30
0.0
 11
171.600683
 21
-304.484642
 31
0.0
  0
LINE
  8
0
  6
BYLAYER
 62
     1
 10
173.100683
 20
-312.984642
 30
0.0
 11
171.600683
 21
-314.484642
 31
0.0
  0
LINE
  8
0
  6
BYLAYER
 62
     1
 10
171.600683
 20
-314.484642
 30
0.0
 11
128.600683
 21
-314.484642
 31
0.0
  0
LINE
  8
0
  6
BYLAYER
 62
     1
 10
126.600683
 20
-312.484642
 30
0.0
 11
128.600683
 21
-314.484642
 31
0.0
  0
LINE
  8
0
  6
BYLAYER
 62
     1
 10
126.600683
 20
-269.484642
 30
0.0
 11
136.600683
 21
-269.484642
 31
0.0
  0
LINE
  8
0
  6
BYLAYER
 62
     1
 10
128.100683
 20
-267.984642
 30
0.0
 11
126.600683
 21
-269.484642
 31
0.0
  0
LINE
  8
0
  6
BYLAYER
 62
     1
 10
147.100683
 20
-304.484642
 30
0.0
 11
147.100683
 21
-314.484642
 31
0.0
  0
LINE
  8
0
  6
BYLAYER
 62
     1
 10
267.350683
 20
-304.484642
 30
0.0
 11
267.350683
 21
-314.484642
 31
0.0
  0
LINE
  8
0
  6
BYLAYER
 62
     1
 10
278.350683
 20
-304.484642
 30
0.0
 11
278.350683
 21
-314.484642
 31
0.0
  0
LINE
  8
0
  6
BYLAYER
 62
     1
 10
292.100683
 20
-314.484642
 30
0.0
 11
291.100683
 21
-314.484642
 31
0.0
  0
LINE
  8
0
  6
BYLAYER
 62
     1
 10
128.100683
 20
-214.484642
 30
0.0
 11
128.100683
 21
-267.984642
 31
0.0
  0
LINE
  8
0
  6
BYLAYER
 62
     1
 10
297.100683
 20
-214.484642
 30
0.0
 11
297.100683
 21
-267.984642
 31
0.0
  0
LINE
  8
0
  6
BYLAYER
 62
     1
 10
195.906164
 20
-149.734764
 30
0.0
 11
173.850683
 21
-149.734764
 31
0.0
  0
LINE
  8
0
  6
BYLAYER
 62
     1
 10
212.600683
 20
-147.234764
 30
0.0
 11
173.850683
 21
-147.234764
 31
0.0
  0
ARC
  8
0
  6
BYLAYER
 62
     1
 10
173.850683
 20
-148.484764
 30
0.0
 40
1.25
 50
90.0
 51
270.000005
  0
LINE
  8
0
  6
BYLAYER
 62
     1
 10
212.600683
 20
-147.234764
 30
0.0
 11
251.350683
 21
-147.234764
 31
0.0
  0
ARC
  8
0
  6
BYLAYER
 62
     1
 10
251.350683
 20
-148.484764
 30
0.0
 40
1.25
 50
270.0
 51
450.000005
  0
ARC
  8
0
  6
BYLAYER
 62
     1
 10
137.600683
 20
-156.234764
 30
0.0
 40
1.000000
 50
180.000000
 51
269.999996
  0
ARC
  8
0
  6
BYLAYER
 62
     1
 10
137.600683
 20
-160.734764
 30
0.0
 40
1.000000
 50
90.0
 51
180.000003
  0
ARC
  8
0
  6
BYLAYER
 62
     1
 10
166.350683
 20
-168.484764
 30
0.0
 40
1.25
 50
270.0
 51
450.000005
  0
ARC
  8
0
  6
BYLAYER
 62
     1
 10
137.600683
 20
-170.734764
 30
0.0
 40
1.000000
 50
90.0
 51
180.000003
  0
ARC
  8
0
  6
BYLAYER
 62
     1
 10
137.600683
 20
-176.234764
 30
0.0
 40
1.000000
 50
180.000000
 51
269.999996
  0
LINE
  8
0
  6
BYLAYER
 62
     1
 10
156.350622
 20
-177.234764
 30
0.0
 11
137.600683
 21
-177.234764
 31
0.0
  0
ARC
  8
0
  6
BYLAYER
 62
     1
 10
156.350622
 20
-178.484764
 30
0.0
 40
1.25
 50
270.0
 51
450.000005
  0
LINE
  8
0
  6
BYLAYER
 62
     1
 10
166.350683
 20
-167.234764
 30
0.0
 11
137.600683
 21
-167.234764
 31
0.0
  0
LINE
  8
0
  6
BYLAYER
 62
     1
 10
166.350683
 20
-169.734764
 30
0.0
 11
137.600683
 21
-169.734764
 31
0.0
  0
LINE
  8
0
  6
BYLAYER
 62
     1
 10
137.600683
 20
-159.734764
 30
0.0
 11
171.700537
 21
-159.734764
 31
0.0
  0
LINE
  8
0
  6
BYLAYER
 62
     1
 10
137.600683
 20
-157.234764
 30
0.0
 11
171.700537
 21
-157.234764
 31
0.0
  0
LINE
  8
0
  6
BYLAYER
 62
     1
 10
258.850439
 20
-167.234764
 30
0.0
 11
287.600683
 21
-167.234764
 31
0.0
  0
LINE
  8
0
  6
BYLAYER
 62
     1
 10
258.850439
 20
-169.734764
 30
0.0
 11
287.600683
 21
-169.734764
 31
0.0
  0
ARC
  8
0
  6
BYLAYER
 62
     1
 10
258.850439
 20
-168.484764
 30
0.0
 40
1.250000
 50
90.0
 51
270.000005
  0
LINE
  8
0
  6
BYLAYER
 62
     1
 10
268.850500
 20
-179.734764
 30
0.0
 11
287.600683
 21
-179.734764
 31
0.0
  0
ARC
  8
0
  6
BYLAYER
 62
     1
 10
268.850500
 20
-178.484764
 30
0.0
 40
1.25
 50
90.0
 51
270.000005
  0
ARC
  8
0
  6
BYLAYER
 62
     1
 10
287.600683
 20
-170.734764
 30
0.0
 40
1.0
 50
0.0
 51
90.000016
  0
ARC
  8
0
  6
BYLAYER
 62
     1
 10
287.600683
 20
-170.734764
 30
0.0
 40
1.0
 50
0.0
 51
90.000016
  0
ARC
  8
0
  6
BYLAYER
 62
     1
 10
287.600683
 20
-180.734764
 30
0.0
 40
1.0
 50
0.0
 51
90.000016
  0
ARC
  8
0
  6
BYLAYER
 62
     1
 10
137.600683
 20
-166.234764
 30
0.0
 40
1.0
 50
180.000000
 51
270.000009
  0
ARC
  8
0
  6
BYLAYER
 62
     1
 10
287.600683
 20
-166.234764
 30
0.0
 40
1.000000
 50
270.0
 51
360.000003
  0
ARC
  8
0
  6
BYLAYER
 62
     1
 10
287.600683
 20
-176.234764
 30
0.0
 40
1.0
 50
270.0
 51
359.999982
  0
LINE
  8
0
  6
BYLAYER
 62
     1
 10
298.600683
 20
-292.984642
 30
0.0
 11
288.600683
 21
-292.984642
 31
0.0
  0
LINE
  8
0
  6
BYLAYER
 62
     1
 10
298.600683
 20
-281.984642
 30
0.0
 11
288.600683
 21
-281.984642
 31
0.0
  0
LINE
  8
0
  6
BYLAYER
 62
     1
 10
158.100683
 20
-304.484642
 30
0.0
 11
158.100683
 21
-314.484642
 31
0.0
  0
LINE
  8
0
  6
BYLAYER
 62
     1
 10
229.295202
 20
-149.734764
 30
0.0
 11
251.350683
 21
-149.734764
 31
0.0
  0
LINE
  8
0
  6
BYLAYER
 62
     1
 10
253.600683
 20
-109.484642
 30
0.0
 11
296.600683
 21
-109.484642
 31
0.0
  0
LINE
  8
0
  6
BYLAYER
 62
     1
 10
171.600683
 20
-109.484642
 30
0.0
 11
171.600683
 21
-119.484642
 31
0.0
  0
LINE
  8
0
  6
BYLAYER
 62
     1
 10
173.100683
 20
-110.984642
 30
0.0
 11
212.600683
 21
-110.984642
 31
0.0
  0
LINE
  8
0
  6
BYLAYER
 62
     1
 10
252.100683
 20
-110.984642
 30
0.0
 11
212.600683
 21
-110.984642
 31
0.0
  0
LINE
  8
0
  6
BYLAYER
 62
     1
 10
252.100683
 20
-110.984642
 30
0.0
 11
252.100683
 21
-119.484642
 31
0.0
  0
LINE
  8
0
  6
BYLAYER
 62
     1
 10
253.600683
 20
-109.484642
 30
0.0
 11
253.600683
 21
-119.484642
 31
0.0
  0
LINE
  8
0
  6
BYLAYER
 62
     1
 10
171.600683
 20
-109.484642
 30
0.0
 11
128.600683
 21
-109.484642
 31
0.0
  0
LINE
  8
0
  6
BYLAYER
 62
     1
 10
253.600683
 20
-109.484642
 30
0.0
 11
253.600683
 21
-119.484642
 31
0.0
  0
LINE
  8
0
  6
BYLAYER
 62
     1
 10
126.600683
 20
-111.484764
 30
0.0
 11
128.600683
 21
-109.484764
 31
0.0
  0
LINE
  8
0
  6
BYLAYER
 62
     1
 10
252.100683
 20
-110.984642
 30
0.0
 11
253.600683
 21
-109.484642
 31
0.0
  0
LINE
  8
0
  6
BYLAYER
 62
     1
 10
173.100683
 20
-110.984642
 30
0.0
 11
171.600683
 21
-109.484642
 31
0.0
  0
LINE
  8
0
  6
BYLAYER
 62
     1
 10
298.600683
 20
-111.484764
 30
0.0
 11
296.600683
 21
-109.484642
 31
0.0
  0
ARC
  8
0
  6
BYLAYER
 62
     1
 10
286.600683
 20
-121.484764
 30
0.0
 40
2.000000
 50
0.0
 51
89.999996
  0
LINE
  8
0
  6
BYLAYER
 62
     1
 10
126.600683
 20
-140.984642
 30
0.0
 11
136.600683
 21
-140.984642
 31
0.0
  0
LINE
  8
0
  6
BYLAYER
 62
     1
 10
126.600683
 20
-129.984642
 30
0.0
 11
136.600683
 21
-129.984642
 31
0.0
  0
LINE
  8
0
  6
BYLAYER
 62
     1
 10
126.600683
 20
-282.984642
 30
0.0
 11
136.600683
 21
-282.984642
 31
0.0
  0
LINE
  8
0
  6
BYLAYER
 62
     1
 10
126.600683
 20
-293.984642
 30
0.0
 11
136.600683
 21
-293.984642
 31
0.0
  0
LINE
  8
0
  6
BYLAYER
 62
     1
 10
300.600683
 20
-159.234764
 30
0.0
 11
300.600683
 21
-138.734764
 31
0.0
  0
LINE
  8
0
  6
BYLAYER
 62
     1
 10
173.100683
 20
-119.484764
 30
0.0
 11
173.100683
 21
-110.984642
 31
0.0
  0
ARC
  8
0
  6
BYLAYER
 62
     1
 10
287.600683
 20
-303.484642
 30
0.0
 40
1.0
 50
270.0
 51
360.000003
  0
ARC
  8
0
  6
BYLAYER
 62
     1
 10
137.600683
 20
-303.484642
 30
0.0
 40
1.000000
 50
180.000000
 51
269.999996
  0
LINE
  8
0
  6
BYLAYER
 62
     1
 10
158.350683
 20
-119.484764
 30
0.0
 11
158.350683
 21
-109.484642
 31
0.0
  0
LINE
  8
0
  6
BYLAYER
 62
     1
 10
146.850683
 20
-119.484764
 30
0.0
 11
146.850683
 21
-109.484642
 31
0.0
  0
LINE
  8
0
  6
BYLAYER
 62
     1
 10
266.850683
 20
-119.484764
 30
0.0
 11
266.850683
 21
-109.484642
 31
0.0
  0
LINE
  8
0
  6
BYLAYER
 62
     1
 10
278.350683
 20
-119.484764
 30
0.0
 11
278.350683
 21
-109.484642
 31
0.0
  0
ARC
  8
0
  6
BYLAYER
 62
     1
 10
253.846533
 20
-158.484764
 30
0.0
 40
1.25
 50
90.0
 51
270.000005
  0
ARC
  8
0
  6
BYLAYER
 62
     1
 10
171.384680
 20
-158.484764
 30
0.0
 40
1.25
 50
270.0
 51
450.000005
  0
LINE
  8
0
  6
BYLAYER
 62
     1
 10
298.600683
 20
-154.484764
 30
0.0
 11
288.600683
 21
-154.484764
 31
0.0
  0
LINE
  8
0
  6
BYLAYER
 62
     1
 10
297.100683
 20
-155.984764
 30
0.0
 11
298.600683
 21
-154.484764
 31
0.0
  0
LINE
  8
0
  6
BYLAYER
 62
     1
 10
297.100683
 20
-155.984764
 30
0.0
 11
297.100683
 21
-214.484642
 31
0.0
  0
LINE
  8
0
  6
BYLAYER
 62
     1
 10
298.600683
 20
-111.484764
 30
0.0
 11
298.600683
 21
-154.484764
 31
0.0
  0
LINE
  8
0
  6
BYLAYER
 62
     1
 10
126.600683
 20
-154.484764
 30
0.0
 11
136.600683
 21
-154.484764
 31
0.0
  0
LINE
  8
0
  6
BYLAYER
 62
     1
 10
128.100683
 20
-155.984764
 30
0.0
 11
126.600683
 21
-154.484764
 31
0.0
  0
LINE
  8
0
  6
BYLAYER
 62
     1
 10
128.100683
 20
-155.984764
 30
0.0
 11
128.100683
 21
-214.484642
 31
0.0
  0
LINE
  8
0
  6
BYLAYER
 62
     1
 10
286.600683
 20
-119.484764
 30
0.0
 11
138.600683
 21
-119.484764
 31
0.0
  0
LINE
  8
0
  6
BYLAYER
 62
     1
 10
297.100683
 20
-155.984764
 30
0.0
 11
288.600683
 21
-155.984764
 31
0.0
  0
LINE
  8
0
  6
BYLAYER
 62
     1
 10
297.100683
 20
-267.984642
 30
0.0
 11
288.600683
 21
-267.984642
 31
0.0
  0
LINE
  8
0
  6
BYLAYER
 62
     1
 10
173.100683
 20
-312.984642
 30
0.0
 11
173.100683
 21
-304.484642
 31
0.0
  0
LINE
  8
0
  6
BYLAYER
 62
     1
 10
252.100683
 20
-304.484642
 30
0.0
 11
252.100683
 21
-312.984642
 31
0.0
  0
LINE
  8
0
  6
BYLAYER
 62
     1
 10
128.100683
 20
-267.984642
 30
0.0
 11
136.600683
 21
-267.984642
 31
0.0
  0
LINE
  8
0
  6
BYLAYER
 62
     1
 10
136.600683
 20
-155.984764
 30
0.0
 11
128.100683
 21
-155.984764
 31
0.0
  0
LINE
  8
0
  6
BYLAYER
 62
     1
 10
252.100683
 20
-312.984642
 30
0.0
 11
173.100683
 21
-312.984642
 31
0.0
  0
LINE
  8
0
  6
BYLAYER
 62
     1
 10
136.600683
 20
-198.681114
 30
0.0
 11
136.600683
 21
-121.484764
 31
0.0
  0
LINE
  8
0
  6
BYLAYER
 62
     1
 10
136.600683
 20
-121.484764
 30
0.0
 11
138.600683
 21
-119.484764
 31
0.0
  0
ARC
  8
0
  6
BYLAYER
 62
     1
 10
134.600683
 20
-198.681114
 30
0.0
 40
2.000004
 50
339.088047
 51
360.0
  0
ARC
  8
0
  6
BYLAYER
 62
     1
 10
212.600683
 20
-228.484642
 30
0.0
 40
81.5
 50
159.088329
 51
200.911681
  0
LINE
  8
0
  6
BYLAYER
 62
     1
 10
136.600683
 20
-258.288170
 30
0.0
 11
136.600683
 21
-303.484642
 31
0.0
  0
ARC
  8
0
  6
BYLAYER
 62
     1
 10
134.600683
 20
-258.288170
 30
0.0
 40
2.000004
 50
0.0
 51
20.911958
  0
LINE
  8
0
  6
BYLAYER
 62
     1
 10
137.600683
 20
-304.484642
 30
0.0
 11
182.797155
 21
-304.484642
 31
0.0
  0
ARC
  8
0
  6
BYLAYER
 62
     1
 10
182.797155
 20
-306.484642
 30
0.0
 40
2.000000
 50
69.087962
 51
90.000000
  0
ARC
  8
0
  6
BYLAYER
 62
     1
 10
212.600683
 20
-228.484642
 30
0.0
 40
81.500008
 50
249.088338
 51
290.911690
  0
LINE
  8
0
  6
BYLAYER
 62
     1
 10
242.404211
 20
-304.484642
 30
0.0
 11
287.600683
 21
-304.484642
 31
0.0
  0
ARC
  8
0
  6
BYLAYER
 62
     1
 10
242.404211
 20
-306.484642
 30
0.0
 40
1.999991
 50
90.0
 51
110.911628
  0
LINE
  8
0
  6
BYLAYER
 62
     1
 10
288.600683
 20
-258.288170
 30
0.0
 11
288.600683
 21
-303.484642
 31
0.0
  0
ARC
  8
0
  6
BYLAYER
 62
     1
 10
290.600683
 20
-258.288170
 30
0.0
 40
2.0
 50
159.087955
 51
180.000000
  0
LINE
  8
0
  6
BYLAYER
 62
     1
 10
288.600683
 20
-198.681114
 30
0.0
 11
288.600683
 21
-120.984764
 31
0.0
  0
ARC
  8
0
  6
BYLAYER
 62
     1
 10
212.600683
 20
-228.484642
 30
0.0
 40
81.500008
 50
339.088320
 51
380.911693
  0
ARC
  8
0
  6
BYLAYER
 62
     1
 10
290.600683
 20
-198.681084
 30
0.0
 40
2.000000
 50
180.000000
 51
200.912031
  0
ARC
  8
0
  6
BYLAYER
 62
     1
 10
140.600683
 20
-300.484642
 30
0.0
 40
1.000000
 50
180.000000
 51
269.999996
  0
LINE
  8
0
  6
BYLAYER
 62
     1
 10
285.600683
 20
-269.484642
 30
0.0
 11
285.600683
 21
-300.484642
 31
0.0
  0
ARC
  8
0
  6
BYLAYER
 62
     1
 10
284.600683
 20
-300.484642
 30
0.0
 40
1.0
 50
270.0
 51
360.000003
  0
LINE
  8
0
  6
BYLAYER
 62
     1
 10
139.893591
 20
-301.191765
 30
0.0
 11
136.893591
 21
-304.191765
 31
0.0
  0
LINE
  8
0
  6
BYLAYER
 62
     1
 10
285.307775
 20
-301.191765
 30
0.0
 11
288.307775
 21
-304.191765
 31
0.0
  0
ARC
  8
0
  6
BYLAYER
 62
     1
 10
137.600683
 20
-180.734764
 30
0.0
 40
1.0
 50
90.0
 51
179.999989
  0
LINE
  8
0
  6
BYLAYER
 62
     1
 10
156.350622
 20
-179.734764
 30
0.0
 11
137.600683
 21
-179.734764
 31
0.0
  0
ARC
  8
0
  6
BYLAYER
 62
     1
 10
282.600683
 20
-148.484642
 30
0.0
 40
2.0
 50
90.0
 51
180.000003
  0
LINE
  8
0
  6
BYLAYER
 62
     1
 10
280.600683
 20
-148.484642
 30
0.0
 11
280.600683
 21
-158.484642
 31
0.0
  0
ARC
  8
0
  6
BYLAYER
 62
     1
 10
282.600683
 20
-158.484642
 30
0.0
 40
2.000000
 50
180.000000
 51
269.999996
  0
LINE
  8
0
  6
BYLAYER
 62
     1
 10
282.600683
 20
-160.484642
 30
0.0
 11
286.600683
 21
-160.484642
 31
0.0
  0
ARC
  8
0
  6
BYLAYER
 62
     1
 10
286.600683
 20
-162.484642
 30
0.0
 40
2.000000
 50
0.0
 51
90.000003
  0
LINE
  8
0
  6
BYLAYER
 62
     1
 10
282.600683
 20
-146.484642
 30
0.0
 11
286.600683
 21
-146.484642
 31
0.0
  0
ARC
  8
0
  6
BYLAYER
 62
     1
 10
286.600683
 20
-144.484642
 30
0.0
 40
2.0
 50
270.0
 51
360.000003
  0
LINE
  8
0
  6
BYLAYER
 62
     1
 10
280.616491
 20
-159.734764
 30
0.0
 11
253.846533
 21
-159.734764
 31
0.0
  0
ARC
  8
0
  6
BYLAYER
 62
     1
 10
280.616491
 20
-160.734764
 30
0.0
 40
1.000026
 50
48.593996
 51
90.000003
  0
LINE
  8
0
  6
BYLAYER
 62
     1
 10
279.600683
 20
-157.234764
 30
0.0
 11
253.846533
 21
-157.234764
 31
0.0
  0
ARC
  8
0
  6
BYLAYER
 62
     1
 10
279.600683
 20
-156.234764
 30
0.0
 40
1.000000
 50
270.0
 51
360.000003
  0
LINE
  8
0
  6
BYLAYER
 62
     1
 10
247.011511
 20
-301.484642
 30
0.0
 11
284.600683
 21
-301.484642
 31
0.0
  0
LINE
  8
0
  6
BYLAYER
 62
     1
 10
285.600683
 20
-262.895500
 30
0.0
 11
285.600683
 21
-300.484642
 31
0.0
  0
LINE
  8
0
  6
BYLAYER
 62
     1
 10
139.600683
 20
-262.895500
 30
0.0
 11
139.600683
 21
-300.484642
 31
0.0
  0
LINE
  8
0
  6
BYLAYER
 62
     1
 10
140.600683
 20
-301.484642
 30
0.0
 11
178.189794
 21
-301.484642
 31
0.0
  0
LINE
  8
0
  6
BYLAYER
 62
     1
 10
300.600683
 20
-195.991631
 30
0.0
 11
300.600683
 21
-110.977653
 31
0.0
  0
LINE
  8
0
  6
BYLAYER
 62
     1
 10
300.600683
 20
-195.991631
 30
0.0
 11
297.100683
 21
-196.113853
 31
0.0
  0
LINE
  8
0
  6
BYLAYER
 62
     1
 10
300.600683
 20
-110.977653
 30
0.0
 11
298.002905
 21
-110.886925
 31
0.0
  0
LINE
  8
0
  6
BYLAYER
 62
     1
 10
126.600683
 20
-187.708641
 30
0.0
 11
126.600683
 21
-111.484764
 31
0.0
  0
LINE
  8
0
  6
BYLAYER
 62
     1
 10
126.600683
 20
-187.708641
 30
0.0
 11
128.100683
 21
-187.761009
 31
0.0
  0
LINE
  8
0
  6
BYLAYER
 62
     1
 10
287.600683
 20
-177.234764
 30
0.0
 11
268.850500
 21
-177.234764
 31
0.0
  0
ARC
  8
0
  6
BYLAYER
 62
     1
 10
174.285375
 20
-172.306908
 30
0.0
 40
2.000066
 50
61.945103
 51
124.296261
  0
ARC
  8
0
  6
BYLAYER
 62
     1
 10
199.969946
 20
-161.667992
 30
0.0
 40
1.999995
 50
100.705532
 51
163.055904
  0
ARC
  8
0
  6
BYLAYER
 62
     1
 10
212.600683
 20
-228.484642
 30
0.0
 40
69.999878
 50
79.295443
 51
100.704664
  0
ARC
  8
0
  6
BYLAYER
 62
     1
 10
225.231298
 20
-161.667992
 30
0.0
 40
1.9999
 50
16.944094
 51
79.294466
  0
ARC
  8
0
  6
BYLAYER
 62
     1
 10
250.915808
 20
-172.306908
 30
0.0
 40
1.999928
 50
55.705179
 51
118.056036
  0
ARC
  8
0
  6
BYLAYER
 62
     1
 10
279.417211
 20
-241.115501
 30
0.0
 40
2.000030
 50
286.944361
 51
349.295492
  0
ARC
  8
0
  6
BYLAYER
 62
     1
 10
268.778356
 20
-266.800072
 30
0.0
 40
2.000036
 50
325.704454
 51
388.055618
  0
ARC
  8
0
  6
BYLAYER
 62
     1
 10
212.600683
 20
-228.484642
 30
0.0
 40
69.999969
 50
304.295309
 51
325.704537
  0
ARC
  8
0
  6
BYLAYER
 62
     1
 10
250.915869
 20
-284.662498
 30
0.0
 40
2.000036
 50
241.943960
 51
304.294326
  0
ARC
  8
0
  6
BYLAYER
 62
     1
 10
225.231298
 20
-295.301292
 30
0.0
 40
2.000139
 50
280.705366
 51
343.055895
  0
ARC
  8
0
  6
BYLAYER
 62
     1
 10
212.600683
 20
-228.484642
 30
0.0
 40
70.000023
 50
259.295346
 51
280.704546
  0
ARC
  8
0
  6
BYLAYER
 62
     1
 10
199.969885
 20
-295.301292
 30
0.0
 40
2.000007
 50
196.944598
 51
259.296193
  0
ARC
  8
0
  6
BYLAYER
 62
     1
 10
174.285375
 20
-284.662498
 30
0.0
 40
2.000031
 50
235.705676
 51
298.056041
  0
ARC
  8
0
  6
BYLAYER
 62
     1
 10
212.600683
 20
-228.484642
 30
0.0
 40
70.000069
 50
214.295423
 51
235.704610
  0
ARC
  8
0
  6
BYLAYER
 62
     1
 10
156.422888
 20
-266.800072
 30
0.0
 40
2.000036
 50
151.944375
 51
214.295546
  0
ARC
  8
0
  6
BYLAYER
 62
     1
 10
145.783972
 20
-241.115501
 30
0.0
 40
2.000008
 50
190.704510
 51
253.055640
  0
ARC
  8
0
  6
BYLAYER
 62
     1
 10
212.600683
 20
-228.484642
 30
0.0
 40
70.000046
 50
169.295473
 51
190.704646
  0
ARC
  8
0
  6
BYLAYER
 62
     1
 10
145.783972
 20
-215.854027
 30
0.0
 40
2.000008
 50
106.944349
 51
169.295487
  0
ARC
  8
0
  6
BYLAYER
 62
     1
 10
156.422888
 20
-190.169456
 30
0.0
 40
2.000036
 50
145.704450
 51
208.055622
  0
ARC
  8
0
  6
BYLAYER
 62
     1
 10
212.600683
 20
-228.484642
 30
0.0
 40
70.0
 50
124.295441
 51
145.704587
  0
ARC
  8
0
  6
BYLAYER
 62
     1
 10
212.600683
 20
-228.484642
 30
0.0
 40
80.5
 50
154.482405
 51
205.517595
  0
ARC
  8
0
  6
BYLAYER
 62
     1
 10
141.758093
 20
-194.667778
 30
0.0
 40
2.000000
 50
105.0
 51
154.482405
  0
ARC
  8
0
  6
BYLAYER
 62
     1
 10
212.600683
 20
-228.484642
 30
0.0
 40
80.500000
 50
244.482414
 51
295.517604
  0
ARC
  8
0
  6
BYLAYER
 62
     1
 10
212.600683
 20
-228.484642
 30
0.0
 40
80.500000
 50
64.482402
 51
115.517593
  0
ARC
  8
0
  6
BYLAYER
 62
     1
 10
246.417578
 20
-157.642082
 30
0.0
 40
2.000000
 50
14.999997
 51
64.482402
  0
ARC
  8
0
  6
BYLAYER
 62
     1
 10
212.600683
 20
-228.484642
 30
0.0
 40
80.5
 50
334.482396
 51
385.517587
  0
ARC
  8
0
  6
BYLAYER
 62
     1
 10
212.600683
 20
-228.484642
 30
0.0
 40
47.5
 50
22.499997
 51
374.817192
  0
ARC
  8
0
  6
BYLAYER
 62
     1
 10
212.600683
 20
-228.484642
 30
0.0
 40
47.500004
 50
14.817201
 51
22.499997
  0
ARC
  8
0
  6
BYLAYER
 62
     1
 10
284.663183
 20
-258.334007
 30
0.0
 40
16.000019
 50
106.944527
 51
208.056127
  0
ARC
  8
0
  6
BYLAYER
 62
     1
 10
242.449926
 20
-300.547386
 30
0.0
 40
16.000034
 50
61.944358
 51
163.055330
  0
ARC
  8
0
  6
BYLAYER
 62
     1
 10
182.751318
 20
-300.547386
 30
0.0
 40
16.000015
 50
16.944695
 51
118.055640
  0
ARC
  8
0
  6
BYLAYER
 62
     1
 10
140.538061
 20
-258.334007
 30
0.0
 40
15.999969
 50
331.943912
 51
433.055724
  0
ARC
  8
0
  6
BYLAYER
 62
     1
 10
182.751318
 20
-156.422142
 30
0.0
 40
15.999943
 50
241.944206
 51
343.056032
  0
ARC
  8
0
  6
BYLAYER
 62
     1
 10
242.449926
 20
-156.422142
 30
0.0
 40
16.000040
 50
196.943969
 51
298.055604
  0
ARC
  8
0
  6
BYLAYER
 62
     1
 10
140.538061
 20
-198.635521
 30
0.0
 40
16.000046
 50
286.944222
 51
388.056081
  0
ARC
  8
0
  6
BYLAYER
 62
     1
 10
268.778356
 20
-190.169334
 30
0.0
 40
1.999947
 50
331.944107
 51
394.294465
  0
ARC
  8
0
  6
BYLAYER
 62
     1
 10
279.417211
 20
-215.853874
 30
0.0
 40
1.999925
 50
10.705174
 51
73.056031
  0
ARC
  8
0
  6
BYLAYER
 62
     1
 10
212.600683
 20
-228.484642
 30
0.0
 40
69.999832
 50
34.295490
 51
55.704670
  0
ARC
  8
0
  6
BYLAYER
 62
     1
 10
212.600683
 20
-228.484642
 30
0.0
 40
69.999840
 50
349.295164
 51
370.704686
  0
ARC
  8
0
  6
BYLAYER
 62
     1
 10
284.663183
 20
-198.635368
 30
0.0
 40
16.000053
 50
230.812200
 51
253.055476
  0
ARC
  8
0
  6
BYLAYER
 62
     1
 10
284.663183
 20
-198.635368
 30
0.0
 40
16.000072
 50
151.943965
 51
174.188129
  0
ARC
  8
0
  6
BYLAYER
 62
     1
 10
284.663183
 20
-198.635368
 30
0.0
 40
16.000027
 50
174.188211
 51
230.812255
  0
LINE
  8
0
  6
BYLAYER
 62
     1
 10
283.960912
 20
-264.233360
 30
0.0
 11
274.138708
 21
-266.865196
 31
0.0
  0
ARC
  8
0
  6
BYLAYER
 62
     1
 10
283.443273
 20
-262.301506
 30
0.0
 40
2.0
 50
284.999998
 51
334.482403
  0
LINE
  8
0
  6
BYLAYER
 62
     1
 10
250.981237
 20
-290.022697
 30
0.0
 11
248.349401
 21
-299.844841
 31
0.0
  0
ARC
  8
0
  6
BYLAYER
 62
     1
 10
246.417578
 20
-299.327202
 30
0.0
 40
2.000000
 50
295.517608
 51
345.000013
  0
ARC
  8
0
  6
BYLAYER
 62
     1
 10
212.600683
 20
-228.484642
 30
0.0
 40
72.0
 50
303.00842
 51
326.991564
  0
ARC
  8
0
  6
BYLAYER
 62
     1
 10
274.656347
 20
-268.797050
 30
0.0
 40
2.000000
 50
105.000000
 51
146.991572
  0
ARC
  8
0
  6
BYLAYER
 62
     1
 10
252.913122
 20
-290.540337
 30
0.0
 40
2.000000
 50
123.008428
 51
165.000001
  0
LINE
  8
0
  6
BYLAYER
 62
     1
 10
248.349401
 20
-157.124443
 30
0.0
 11
250.981237
 21
-166.946587
 31
0.0
  0
LINE
  8
0
  6
BYLAYER
 62
     1
 10
274.138708
 20
-190.104088
 30
0.0
 11
283.960912
 21
-192.735924
 31
0.0
  0
ARC
  8
0
  6
BYLAYER
 62
     1
 10
283.443273
 20
-194.667778
 30
0.0
 40
2.000000
 50
25.517594
 51
74.999999
  0
ARC
  8
0
  6
BYLAYER
 62
     1
 10
212.600683
 20
-228.484642
 30
0.0
 40
72.000000
 50
33.008429
 51
56.991573
  0
ARC
  8
0
  6
BYLAYER
 62
     1
 10
252.913122
 20
-166.428947
 30
0.0
 40
2.0
 50
195.000009
 51
236.991582
  0
ARC
  8
0
  6
BYLAYER
 62
     1
 10
274.656347
 20
-188.172234
 30
0.0
 40
2.0
 50
213.008424
 51
254.999997
  0
LINE
  8
0
  6
BYLAYER
 62
     1
 10
141.240454
 20
-192.735924
 30
0.0
 11
151.062597
 21
-190.104088
 31
0.0
  0
LINE
  8
0
  6
BYLAYER
 62
     1
 10
174.220129
 20
-166.946587
 30
0.0
 11
176.851965
 21
-157.124443
 31
0.0
  0
ARC
  8
0
  6
BYLAYER
 62
     1
 10
178.783788
 20
-157.642082
 30
0.0
 40
2.0
 50
115.517589
 51
164.999994
  0
ARC
  8
0
  6
BYLAYER
 62
     1
 10
212.600683
 20
-228.484642
 30
0.0
 40
72.000000
 50
123.008428
 51
146.991572
  0
ARC
  8
0
  6
BYLAYER
 62
     1
 10
150.544958
 20
-188.172234
 30
0.0
 40
2.0
 50
284.999991
 51
326.991564
  0
ARC
  8
0
  6
BYLAYER
 62
     1
 10
172.288244
 20
-166.428947
 30
0.0
 40
2.0
 50
303.008420
 51
344.999993
  0
LINE
  8
0
  6
BYLAYER
 62
     1
 10
176.851965
 20
-299.844841
 30
0.0
 11
174.220129
 21
-290.022697
 31
0.0
  0
ARC
  8
0
  6
BYLAYER
 62
     1
 10
178.783788
 20
-299.327202
 30
0.0
 40
2.000000
 50
195.000002
 51
244.482407
  0
LINE
  8
0
  6
BYLAYER
 62
     1
 10
151.062597
 20
-266.865196
 30
0.0
 11
141.240454
 21
-264.233360
 31
0.0
  0
ARC
  8
0
  6
BYLAYER
 62
     1
 10
141.758093
 20
-262.301506
 30
0.0
 40
2.0
 50
205.517599
 51
255.000004
  0
ARC
  8
0
  6
BYLAYER
 62
     1
 10
212.600683
 20
-228.484642
 30
0.0
 40
72.0
 50
213.008424
 51
236.991568
  0
ARC
  8
0
  6
BYLAYER
 62
     1
 10
172.288244
 20
-290.540337
 30
0.0
 40
2.0
 50
15.000000
 51
56.991573
  0
ARC
  8
0
  6
BYLAYER
 62
     1
 10
150.544958
 20
-268.797050
 30
0.0
 40
2.0
 50
33.008429
 51
75.000002
  0
ARC
  8
0
  6
BYLAYER
 62
     1
 10
171.941992
 20
-187.825951
 30
0.0
 40
4.0
 50
270.0
 51
540.0
  0
CIRCLE
  8
0
  6
BYLAYER
 62
     1
 10
171.941992
 20
-187.825951
 30
0.0
 40
3.5
  0
ARC
  8
0
  6
BYLAYER
 62
     1
 10
212.600683
 20
-170.984642
 30
0.0
 40
4.0
 50
270.0
 51
540.0
  0
CIRCLE
  8
0
  6
BYLAYER
 62
     1
 10
212.600683
 20
-170.984642
 30
0.0
 40
3.5
  0
ARC
  8
0
  6
BYLAYER
 62
     1
 10
253.259252
 20
-187.826195
 30
0.0
 40
4.0
 50
270.0
 51
540.0
  0
CIRCLE
  8
0
  6
BYLAYER
 62
     1
 10
253.259252
 20
-187.826195
 30
0.0
 40
3.5
  0
ARC
  8
0
  6
BYLAYER
 62
     1
 10
270.100683
 20
-228.484642
 30
0.0
 40
4.0
 50
270.0
 51
540.0
  0
CIRCLE
  8
0
  6
BYLAYER
 62
     1
 10
270.100683
 20
-228.484642
 30
0.0
 40
3.5
  0
ARC
  8
0
  6
BYLAYER
 62
     1
 10
253.259252
 20
-269.143333
 30
0.0
 40
4.0
 50
270.0
 51
540.0
  0
CIRCLE
  8
0
  6
BYLAYER
 62
     1
 10
253.259252
 20
-269.143333
 30
0.0
 40
3.5
  0
ARC
  8
0
  6
BYLAYER
 62
     1
 10
212.600561
 20
-285.984642
 30
0.0
 40
4.0
 50
270.0
 51
540.0
  0
CIRCLE
  8
0
  6
BYLAYER
 62
     1
 10
212.600561
 20
-285.984642
 30
0.0
 40
3.5
  0
ARC
  8
0
  6
BYLAYER
 62
     1
 10
171.941992
 20
-269.143333
 30
0.0
 40
4.0
 50
270.0
 51
540.0
  0
CIRCLE
  8
0
  6
BYLAYER
 62
     1
 10
171.941992
 20
-269.143333
 30
0.0
 40
3.5
  0
ARC
  8
0
  6
BYLAYER
 62
     1
 10
155.100683
 20
-228.484642
 30
0.0
 40
4.0
 50
270.0
 51
540.0
  0
CIRCLE
  8
0
  6
BYLAYER
 62
     1
 10
155.100683
 20
-228.484642
 30
0.0
 40
3.5
  0
ARC
  8
0
  6
BYLAYER
 62
     1
 10
200.069555
 20
-139.944671
 30
0.0
 40
2.873727
 50
270.0
 51
308.795511
  0
ARC
  8
0
  6
BYLAYER
 62
     1
 10
199.791453
 20
-139.648491
 30
0.0
 40
3.278957
 50
309.340351
 51
360.0
  0
ARC
  8
0
  6
BYLAYER
 62
     1
 10
199.791453
 20
-139.648491
 30
0.0
 40
3.278957
 50
0.0
 51
50.659649
  0
ARC
  8
0
  6
BYLAYER
 62
     1
 10
200.069555
 20
-139.352311
 30
0.0
 40
2.873727
 50
51.204489
 51
90.0
  0
ARC
  8
0
  6
BYLAYER
 62
     1
 10
200.069555
 20
-139.352285
 30
0.0
 40
2.873701
 50
90.0
 51
128.795693
  0
ARC
  8
0
  6
BYLAYER
 62
     1
 10
200.347683
 20
-139.648491
 30
0.0
 40
3.278967
 50
129.340576
 51
180.000000
  0
ARC
  8
0
  6
BYLAYER
 62
     1
 10
200.347683
 20
-139.648491
 30
0.0
 40
3.278967
 50
180.000000
 51
230.659424
  0
ARC
  8
0
  6
BYLAYER
 62
     1
 10
200.069555
 20
-139.944697
 30
0.0
 40
2.873701
 50
231.204307
 51
270.0
  0
ARC
  8
0
  6
BYLAYER
 62
     1
 10
200.069555
 20
-138.805340
 30
0.0
 40
1.329747
 50
90.0
 51
140.793201
  0
ARC
  8
0
  6
BYLAYER
 62
     1
 10
201.103110
 20
-139.648491
 30
0.0
 40
2.663590
 50
140.793201
 51
180.0
  0
ARC
  8
0
  6
BYLAYER
 62
     1
 10
201.103094
 20
-139.648491
 30
0.0
 40
2.663574
 50
180.000000
 51
219.206869
  0
ARC
  8
0
  6
BYLAYER
 62
     1
 10
200.069555
 20
-140.491631
 30
0.0
 40
1.329750
 50
219.206869
 51
270.000000
  0
ARC
  8
0
  6
BYLAYER
 62
     1
 10
200.069555
 20
-140.491631
 30
0.0
 40
1.329750
 50
270.0
 51
320.793131
  0
ARC
  8
0
  6
BYLAYER
 62
     1
 10
199.036016
 20
-139.648491
 30
0.0
 40
2.663574
 50
320.793131
 51
360.000000
  0
ARC
  8
0
  6
BYLAYER
 62
     1
 10
199.036000
 20
-139.648491
 30
0.0
 40
2.663590
 50
0.0
 51
39.206799
  0
ARC
  8
0
  6
BYLAYER
 62
     1
 10
200.069555
 20
-138.805340
 30
0.0
 40
1.329747
 50
39.206799
 51
90.000000
  0
LINE
  8
0
  6
BYLAYER
 62
     1
 10
190.221716
 20
-142.607063
 30
0.0
 11
190.221716
 21
-136.605370
 31
0.0
  0
LINE
  8
0
  6
BYLAYER
 62
     1
 10
190.221716
 20
-136.605370
 30
0.0
 11
192.661840
 21
-136.605370
 31
0.0
  0
LINE
  8
0
  6
BYLAYER
 62
     1
 10
192.661840
 20
-136.605370
 30
0.0
 11
193.476156
 21
-139.733025
 31
0.0
  0
LINE
  8
0
  6
BYLAYER
 62
     1
 10
190.221716
 20
-142.607063
 30
0.0
 11
191.686926
 21
-142.607063
 31
0.0
  0
LINE
  8
0
  6
BYLAYER
 62
     1
 10
191.686926
 20
-142.607063
 30
0.0
 11
191.686926
 21
-139.141304
 31
0.0
  0
LINE
  8
0
  6
BYLAYER
 62
     1
 10
192.842169
 20
-142.607063
 30
0.0
 11
191.686926
 21
-139.141304
 31
0.0
  0
LINE
  8
0
  6
BYLAYER
 62
     1
 10
196.730596
 20
-142.607063
 30
0.0
 11
196.730596
 21
-136.605370
 31
0.0
  0
LINE
  8
0
  6
BYLAYER
 62
     1
 10
196.730596
 20
-136.605370
 30
0.0
 11
194.290472
 21
-136.605370
 31
0.0
  0
LINE
  8
0
  6
BYLAYER
 62
     1
 10
194.290472
 20
-136.605370
 30
0.0
 11
193.476156
 21
-139.733025
 31
0.0
  0
LINE
  8
0
  6
BYLAYER
 62
     1
 10
196.730596
 20
-142.607063
 30
0.0
 11
195.265386
 21
-142.607063
 31
0.0
  0
LINE
  8
0
  6
BYLAYER
 62
     1
 10
195.265386
 20
-142.607063
 30
0.0
 11
195.265386
 21
-139.141304
 31
0.0
  0
LINE
  8
0
  6
BYLAYER
 62
     1
 10
194.110143
 20
-142.607063
 30
0.0
 11
195.265386
 21
-139.141304
 31
0.0
  0
LINE
  8
0
  6
BYLAYER
 62
     1
 10
194.110143
 20
-142.607063
 30
0.0
 11
192.842169
 21
-142.607063
 31
0.0
  0
LINE
  8
0
  6
BYLAYER
 62
     1
 10
218.201437
 20
-142.607063
 30
0.0
 11
220.483755
 21
-136.605370
 31
0.0
  0
LINE
  8
0
  6
BYLAYER
 62
     1
 10
218.201437
 20
-142.607063
 30
0.0
 11
220.145651
 21
-142.607063
 31
0.0
  0
LINE
  8
0
  6
BYLAYER
 62
     1
 10
220.483755
 20
-136.605370
 30
0.0
 11
222.343435
 21
-136.605370
 31
0.0
  0
LINE
  8
0
  6
BYLAYER
 62
     1
 10
220.145651
 20
-142.607063
 30
0.0
 11
220.433828
 21
-141.761757
 31
0.0
  0
LINE
  8
0
  6
BYLAYER
 62
     1
 10
220.894888
 20
-140.409264
 30
0.0
 11
221.413595
 21
-138.887703
 31
0.0
  0
LINE
  8
0
  6
BYLAYER
 62
     1
 10
224.625784
 20
-142.607063
 30
0.0
 11
222.343435
 21
-136.605370
 31
0.0
  0
LINE
  8
0
  6
BYLAYER
 62
     1
 10
224.625784
 20
-142.607063
 30
0.0
 11
222.681570
 21
-142.607063
 31
0.0
  0
LINE
  8
0
  6
BYLAYER
 62
     1
 10
222.393392
 20
-141.761757
 30
0.0
 11
220.433828
 21
-141.761757
 31
0.0
  0
LINE
  8
0
  6
BYLAYER
 62
     1
 10
221.932302
 20
-140.409264
 30
0.0
 11
220.894888
 21
-140.409264
 31
0.0
  0
LINE
  8
0
  6
BYLAYER
 62
     1
 10
222.681570
 20
-142.607063
 30
0.0
 11
222.393392
 21
-141.761757
 31
0.0
  0
LINE
  8
0
  6
BYLAYER
 62
     1
 10
221.932302
 20
-140.409264
 30
0.0
 11
221.413595
 21
-138.887703
 31
0.0
  0
LINE
  8
0
  6
BYLAYER
 62
     1
 10
203.070410
 20
-138.084663
 30
0.0
 11
204.761022
 21
-138.084663
 31
0.0
  0
LINE
  8
0
  6
BYLAYER
 62
     1
 10
204.761022
 20
-138.084663
 30
0.0
 11
204.761022
 21
-142.607063
 31
0.0
  0
LINE
  8
0
  6
BYLAYER
 62
     1
 10
204.761022
 20
-142.607063
 30
0.0
 11
206.620718
 21
-142.607063
 31
0.0
  0
LINE
  8
0
  6
BYLAYER
 62
     1
 10
206.620718
 20
-142.607063
 30
0.0
 11
206.620718
 21
-138.084663
 31
0.0
  0
LINE
  8
0
  6
BYLAYER
 62
     1
 10
206.620718
 20
-138.084663
 30
0.0
 11
208.311331
 21
-138.084663
 31
0.0
  0
LINE
  8
0
  6
BYLAYER
 62
     1
 10
208.311331
 20
-138.084663
 30
0.0
 11
208.311331
 21
-136.605370
 31
0.0
  0
LINE
  8
0
  6
BYLAYER
 62
     1
 10
208.311331
 20
-136.605370
 30
0.0
 11
203.070410
 21
-136.605370
 31
0.0
  0
LINE
  8
0
  6
BYLAYER
 62
     1
 10
203.070410
 20
-136.605370
 30
0.0
 11
203.070410
 21
-138.084663
 31
0.0
  0
ARC
  8
0
  6
BYLAYER
 62
     1
 10
211.312170
 20
-139.944697
 30
0.0
 40
2.873701
 50
270.0
 51
308.795693
  0
ARC
  8
0
  6
BYLAYER
 62
     1
 10
211.034042
 20
-139.648491
 30
0.0
 40
3.278967
 50
309.340576
 51
360.0
  0
ARC
  8
0
  6
BYLAYER
 62
     1
 10
211.034052
 20
-139.648491
 30
0.0
 40
3.278957
 50
0.0
 51
50.659649
  0
ARC
  8
0
  6
BYLAYER
 62
     1
 10
211.312155
 20
-139.352311
 30
0.0
 40
2.873727
 50
51.204489
 51
90.000000
  0
ARC
  8
0
  6
BYLAYER
 62
     1
 10
211.312155
 20
-139.352285
 30
0.0
 40
2.873701
 50
90.0
 51
128.795693
  0
ARC
  8
0
  6
BYLAYER
 62
     1
 10
211.590283
 20
-139.648491
 30
0.0
 40
3.278967
 50
129.340576
 51
180.000000
  0
ARC
  8
0
  6
BYLAYER
 62
     1
 10
211.590272
 20
-139.648491
 30
0.0
 40
3.278957
 50
180.000000
 51
230.659649
  0
ARC
  8
0
  6
BYLAYER
 62
     1
 10
211.312170
 20
-139.944671
 30
0.0
 40
2.873727
 50
231.204489
 51
270.0
  0
ARC
  8
0
  6
BYLAYER
 62
     1
 10
211.312155
 20
-138.805340
 30
0.0
 40
1.329747
 50
90.0
 51
140.793201
  0
ARC
  8
0
  6
BYLAYER
 62
     1
 10
212.345709
 20
-139.648491
 30
0.0
 40
2.663590
 50
140.793201
 51
180.0
  0
ARC
  8
0
  6
BYLAYER
 62
     1
 10
212.345675
 20
-139.648491
 30
0.0
 40
2.663556
 50
180.000000
 51
219.207055
  0
ARC
  8
0
  6
BYLAYER
 62
     1
 10
211.312170
 20
-140.491609
 30
0.0
 40
1.329771
 50
219.207055
 51
270.0
  0
ARC
  8
0
  6
BYLAYER
 62
     1
 10
211.312170
 20
-140.491631
 30
0.0
 40
1.329750
 50
270.0
 51
320.793131
  0
ARC
  8
0
  6
BYLAYER
 62
     1
 10
210.278631
 20
-139.648491
 30
0.0
 40
2.663574
 50
320.793131
 51
360.000000
  0
ARC
  8
0
  6
BYLAYER
 62
     1
 10
210.278633
 20
-139.648491
 30
0.0
 40
2.663572
 50
0.0
 51
39.206985
  0
ARC
  8
0
  6
BYLAYER
 62
     1
 10
211.312155
 20
-138.805361
 30
0.0
 40
1.329768
 50
39.206985
 51
90.000000
  0
LINE
  8
0
  6
BYLAYER
 62
     1
 10
224.787771
 20
-142.607063
 30
0.0
 11
224.787771
 21
-136.605370
 31
0.0
  0
LINE
  8
0
  6
BYLAYER
 62
     1
 10
224.787771
 20
-136.605370
 30
0.0
 11
228.507116
 21
-136.605370
 31
0.0
  0
ARC
  8
0
  6
BYLAYER
 62
     1
 10
228.507116
 20
-138.295998
 30
0.0
 40
1.690610
 50
287.134650
 51
450.000006
  0
ARC
  8
0
  6
BYLAYER
 62
     1
 10
228.845251
 20
-141.254570
 30
0.0
 40
1.352493
 50
0.0
 51
83.207557
  0
LINE
  8
0
  6
BYLAYER
 62
     1
 10
230.197744
 20
-141.254570
 30
0.0
 11
230.197744
 21
-142.099876
 31
0.0
  0
ARC
  8
0
  6
BYLAYER
 62
     1
 10
231.550237
 20
-142.099876
 30
0.0
 40
1.352493
 50
180.000000
 51
202.024314
  0
LINE
  8
0
  6
BYLAYER
 62
     1
 10
228.436758
 20
-142.607063
 30
0.0
 11
230.296438
 21
-142.607063
 31
0.0
  0
ARC
  8
0
  6
BYLAYER
 62
     1
 10
229.690557
 20
-142.099876
 30
0.0
 40
1.352493
 50
180.000000
 51
202.024314
  0
LINE
  8
0
  6
BYLAYER
 62
     1
 10
228.338064
 20
-142.099876
 30
0.0
 11
228.338064
 21
-141.423637
 31
0.0
  0
LINE
  8
0
  6
BYLAYER
 62
     1
 10
224.787771
 20
-142.607063
 30
0.0
 11
226.562917
 21
-142.607063
 31
0.0
  0
LINE
  8
0
  6
BYLAYER
 62
     1
 10
226.562917
 20
-142.607063
 30
0.0
 11
226.562917
 21
-140.578331
 31
0.0
  0
LINE
  8
0
  6
BYLAYER
 62
     1
 10
227.492758
 20
-140.578331
 30
0.0
 11
226.562917
 21
-140.578331
 31
0.0
  0
ARC
  8
0
  6
BYLAYER
 62
     1
 10
227.492758
 20
-141.423637
 30
0.0
 40
0.845306
 50
0.0
 51
90.000003
  0
LINE
  8
0
  6
BYLAYER
 62
     1
 10
226.562917
 20
-139.225838
 30
0.0
 11
226.562917
 21
-137.957863
 31
0.0
  0
LINE
  8
0
  6
BYLAYER
 62
     1
 10
226.562917
 20
-137.957863
 30
0.0
 11
227.746343
 21
-137.957863
 31
0.0
  0
LINE
  8
0
  6
BYLAYER
 62
     1
 10
226.562917
 20
-139.225838
 30
0.0
 11
227.746343
 21
-139.225838
 31
0.0
  0
ARC
  8
0
  6
BYLAYER
 62
     1
 10
227.746343
 20
-138.591850
 30
0.0
 40
0.633987
 50
270.0
 51
450.000005
  0
LINE
  8
0
  6
BYLAYER
 62
     1
 10
216.722158
 20
-140.709267
 30
0.0
 11
215.623251
 21
-136.605370
 31
0.0
  0
LINE
  8
0
  6
BYLAYER
 62
     1
 10
215.623251
 20
-136.605370
 30
0.0
 11
213.848104
 21
-136.605370
 31
0.0
  0
LINE
  8
0
  6
BYLAYER
 62
     1
 10
213.848104
 20
-136.605370
 30
0.0
 11
215.707784
 21
-142.607063
 31
0.0
  0
LINE
  8
0
  6
BYLAYER
 62
     1
 10
216.722158
 20
-140.709267
 30
0.0
 11
217.821035
 21
-136.605370
 31
0.0
  0
LINE
  8
0
  6
BYLAYER
 62
     1
 10
217.821035
 20
-136.605370
 30
0.0
 11
219.596182
 21
-136.605370
 31
0.0
  0
LINE
  8
0
  6
BYLAYER
 62
     1
 10
219.596182
 20
-136.605370
 30
0.0
 11
217.736501
 21
-142.607063
 31
0.0
  0
LINE
  8
0
  6
BYLAYER
 62
     1
 10
217.736501
 20
-142.607063
 30
0.0
 11
215.707784
 21
-142.607063
 31
0.0
  0
LINE
  8
0
  6
BYLAYER
 62
     1
 10
230.458425
 20
-142.607063
 30
0.0
 11
232.233572
 21
-142.607063
 31
0.0
  0
LINE
  8
0
  6
BYLAYER
 62
     1
 10
232.233572
 20
-142.607063
 30
0.0
 11
232.233572
 21
-136.605370
 31
0.0
  0
LINE
  8
0
  6
BYLAYER
 62
     1
 10
232.233572
 20
-136.605370
 30
0.0
 11
230.458425
 21
-136.605370
 31
0.0
  0
LINE
  8
0
  6
BYLAYER
 62
     1
 10
230.458425
 20
-136.605370
 30
0.0
 11
230.458425
 21
-142.607063
 31
0.0
  0
ARC
  8
0
  6
BYLAYER
 62
     1
 10
235.572546
 20
-139.944697
 30
0.0
 40
2.873701
 50
270.0
 51
308.795693
  0
ARC
  8
0
  6
BYLAYER
 62
     1
 10
235.294418
 20
-139.648491
 30
0.0
 40
3.278967
 50
309.340576
 51
360.0
  0
ARC
  8
0
  6
BYLAYER
 62
     1
 10
235.294418
 20
-139.648491
 30
0.0
 40
3.278967
 50
0.0
 51
50.659424
  0
ARC
  8
0
  6
BYLAYER
 62
     1
 10
235.572546
 20
-139.352285
 30
0.0
 40
2.873701
 50
51.204307
 51
90.000000
  0
ARC
  8
0
  6
BYLAYER
 62
     1
 10
235.572546
 20
-139.352285
 30
0.0
 40
2.873701
 50
90.0
 51
128.795693
  0
ARC
  8
0
  6
BYLAYER
 62
     1
 10
235.850674
 20
-139.648491
 30
0.0
 40
3.278967
 50
129.340576
 51
180.0
  0
ARC
  8
0
  6
BYLAYER
 62
     1
 10
235.850674
 20
-139.648491
 30
0.0
 40
3.278967
 50
180.000000
 51
230.659424
  0
ARC
  8
0
  6
BYLAYER
 62
     1
 10
235.572546
 20
-139.944697
 30
0.0
 40
2.873701
 50
231.204307
 51
270.0
  0
ARC
  8
0
  6
BYLAYER
 62
     1
 10
235.572546
 20
-138.805340
 30
0.0
 40
1.329747
 50
39.206799
 51
90.000000
  0
ARC
  8
0
  6
BYLAYER
 62
     1
 10
234.538991
 20
-139.648491
 30
0.0
 40
2.663590
 50
0.0
 51
39.206799
  0
ARC
  8
0
  6
BYLAYER
 62
     1
 10
234.539007
 20
-139.648491
 30
0.0
 40
2.663574
 50
320.793131
 51
360.000000
  0
ARC
  8
0
  6
BYLAYER
 62
     1
 10
235.572546
 20
-140.491631
 30
0.0
 40
1.329750
 50
270.0
 51
320.793131
  0
ARC
  8
0
  6
BYLAYER
 62
     1
 10
235.572546
 20
-140.491631
 30
0.0
 40
1.329750
 50
219.206869
 51
270.000000
  0
ARC
  8
0
  6
BYLAYER
 62
     1
 10
236.606084
 20
-139.648491
 30
0.0
 40
2.663574
 50
180.000000
 51
219.206869
  0
ARC
  8
0
  6
BYLAYER
 62
     1
 10
236.606100
 20
-139.648491
 30
0.0
 40
2.663590
 50
140.793201
 51
180.0
  0
ARC
  8
0
  6
BYLAYER
 62
     1
 10
235.572546
 20
-138.805340
 30
0.0
 40
1.329747
 50
90.0
 51
140.793201
  0
ARC
  8
0
  6
BYLAYER
 62
     1
 10
205.600683
 20
-129.734642
 30
0.0
 40
7.429995
 50
174.535650
 51
180.000000
  0
LINE
  8
0
  6
BYLAYER
 62
     1
 10
198.204450
 20
-129.027107
 30
0.0
 11
198.204450
 21
-129.027100
 31
0.0
  0
LINE
  8
0
  6
BYLAYER
 62
     1
 10
198.212535
 20
-128.947177
 30
0.0
 11
198.921638
 21
-128.648634
 31
0.0
  0
ARC
  8
0
  6
BYLAYER
 62
     1
 10
205.600714
 20
-129.734703
 30
0.0
 40
6.766781
 50
159.235383
 51
170.763998
  0
LINE
  8
0
  6
BYLAYER
 62
     1
 10
199.273439
 20
-127.335638
 30
0.0
 11
198.808640
 21
-126.722524
 31
0.0
  0
ARC
  8
0
  6
BYLAYER
 62
     1
 10
205.600683
 20
-129.734642
 30
0.0
 40
7.429986
 50
144.139514
 51
156.083795
  0
LINE
  8
0
  6
BYLAYER
 62
     1
 10
199.530218
 20
-125.450447
 30
0.0
 11
199.530660
 21
-125.449821
 31
0.0
  0
LINE
  8
0
  6
BYLAYER
 62
     1
 10
199.579081
 20
-125.382055
 30
0.0
 11
200.334006
 21
-125.485919
 31
0.0
  0
ARC
  8
0
  6
BYLAYER
 62
     1
 10
205.600683
 20
-129.734642
 30
0.0
 40
6.766741
 50
129.235643
 51
141.105976
  0
LINE
  8
0
  6
BYLAYER
 62
     1
 10
201.209997
 20
-124.585785
 30
0.0
 11
201.210729
 21
-124.585152
 31
0.0
  0
LINE
  8
0
  6
BYLAYER
 62
     1
 10
201.320643
 20
-124.493455
 30
0.0
 11
201.224650
 21
-123.730048
 31
0.0
  0
ARC
  8
0
  6
BYLAYER
 62
     1
 10
205.600683
 20
-129.734642
 30
0.0
 40
7.429994
 50
114.139607
 51
126.083853
  0
LINE
  8
0
  6
BYLAYER
 62
     1
 10
202.486135
 20
-122.988945
 30
0.0
 11
202.486639
 21
-122.988708
 31
0.0
  0
LINE
  8
0
  6
BYLAYER
 62
     1
 10
202.562102
 20
-122.954388
 30
0.0
 11
203.163932
 21
-123.421783
 31
0.0
  0
LINE
  8
0
  6
BYLAYER
 62
     1
 10
203.301534
 20
-123.370460
 30
0.0
 11
203.302297
 21
-123.370193
 31
0.0
  0
ARC
  8
0
  6
BYLAYER
 62
     1
 10
205.600683
 20
-129.734642
 30
0.0
 40
6.766738
 50
99.235601
 51
111.106038
  0
ARC
  8
0
  6
BYLAYER
 62
     1
 10
205.600683
 20
-129.734642
 30
0.0
 40
7.429995
 50
90.0
 51
96.083892
  0
LINE
  8
0
  6
BYLAYER
 62
     1
 10
204.813218
 20
-122.346494
 30
0.0
 11
204.514659
 21
-123.055623
 31
0.0
  0
LINE
  8
0
  6
BYLAYER
 62
     1
 10
212.996908
 20
-129.027107
 30
0.0
 11
212.996908
 21
-129.027100
 31
0.0
  0
LINE
  8
0
  6
BYLAYER
 62
     1
 10
212.988830
 20
-128.947176
 30
0.0
 11
212.279692
 21
-128.648627
 31
0.0
  0
ARC
  8
0
  6
BYLAYER
 62
     1
 10
205.600637
 20
-129.734703
 30
0.0
 40
6.766781
 50
9.235986
 51
20.764650
  0
LINE
  8
0
  6
BYLAYER
 62
     1
 10
211.927961
 20
-127.335567
 30
0.0
 11
212.392727
 21
-126.722526
 31
0.0
  0
ARC
  8
0
  6
BYLAYER
 62
     1
 10
205.600683
 20
-129.734642
 30
0.0
 40
7.429986
 50
23.916189
 51
35.860484
  0
LINE
  8
0
  6
BYLAYER
 62
     1
 10
211.671133
 20
-125.450447
 30
0.0
 11
211.670690
 21
-125.449821
 31
0.0
  0
LINE
  8
0
  6
BYLAYER
 62
     1
 10
211.622285
 20
-125.382055
 30
0.0
 11
210.867413
 21
-125.485909
 31
0.0
  0
ARC
  8
0
  6
BYLAYER
 62
     1
 10
205.600683
 20
-129.734642
 30
0.0
 40
6.766741
 50
38.894050
 51
50.764315
  0
LINE
  8
0
  6
BYLAYER
 62
     1
 10
209.991369
 20
-124.585785
 30
0.0
 11
209.990637
 21
-124.585152
 31
0.0
  0
LINE
  8
0
  6
BYLAYER
 62
     1
 10
209.880742
 20
-124.493333
 30
0.0
 11
209.976700
 21
-123.730037
 31
0.0
  0
ARC
  8
0
  6
BYLAYER
 62
     1
 10
205.600683
 20
-129.734642
 30
0.0
 40
7.429994
 50
53.916300
 51
65.860381
  0
LINE
  8
0
  6
BYLAYER
 62
     1
 10
208.715231
 20
-122.988945
 30
0.0
 11
208.714712
 21
-122.988708
 31
0.0
  0
LINE
  8
0
  6
BYLAYER
 62
     1
 10
208.639265
 20
-122.954389
 30
0.0
 11
208.037442
 21
-123.421762
 31
0.0
  0
LINE
  8
0
  6
BYLAYER
 62
     1
 10
207.899816
 20
-123.370460
 30
0.0
 11
207.899069
 21
-123.370193
 31
0.0
  0
ARC
  8
0
  6
BYLAYER
 62
     1
 10
205.600683
 20
-129.734642
 30
0.0
 40
6.766738
 50
68.894081
 51
80.764578
  0
ARC
  8
0
  6
BYLAYER
 62
     1
 10
205.600683
 20
-129.734642
 30
0.0
 40
7.429995
 50
84.535428
 51
90.000003
  0
LINE
  8
0
  6
BYLAYER
 62
     1
 10
206.388150
 20
-122.346495
 30
0.0
 11
206.686637
 21
-123.055502
 31
0.0
  0
ARC
  8
0
  6
BYLAYER
 62
     1
 10
205.600683
 20
-129.734642
 30
0.0
 40
7.429995
 50
180.000000
 51
186.083899
  0
LINE
  8
0
  6
BYLAYER
 62
     1
 10
198.204450
 20
-130.442169
 30
0.0
 11
198.204450
 21
-130.442184
 31
0.0
  0
LINE
  8
0
  6
BYLAYER
 62
     1
 10
198.212535
 20
-130.522107
 30
0.0
 11
198.921659
 21
-130.820659
 31
0.0
  0
ARC
  8
0
  6
BYLAYER
 62
     1
 10
205.600714
 20
-129.734581
 30
0.0
 40
6.766781
 50
189.236002
 51
200.764629
  0
LINE
  8
0
  6
BYLAYER
 62
     1
 10
199.273463
 20
-132.133616
 30
0.0
 11
198.808638
 21
-132.746754
 31
0.0
  0
ARC
  8
0
  6
BYLAYER
 62
     1
 10
205.600683
 20
-129.734642
 30
0.0
 40
7.429986
 50
203.916158
 51
215.860410
  0
LINE
  8
0
  6
BYLAYER
 62
     1
 10
199.530218
 20
-134.018829
 30
0.0
 11
199.530660
 21
-134.019455
 31
0.0
  0
LINE
  8
0
  6
BYLAYER
 62
     1
 10
199.579076
 20
-134.087221
 30
0.0
 11
200.334072
 21
-133.983358
 31
0.0
  0
ARC
  8
0
  6
BYLAYER
 62
     1
 10
205.600683
 20
-129.734642
 30
0.0
 40
6.766741
 50
218.894045
 51
230.764345
  0
LINE
  8
0
  6
BYLAYER
 62
     1
 10
201.209997
 20
-134.883491
 30
0.0
 11
201.210729
 21
-134.884125
 31
0.0
  0
LINE
  8
0
  6
BYLAYER
 62
     1
 10
201.320642
 20
-134.975828
 30
0.0
 11
201.224650
 21
-135.739236
 31
0.0
  0
ARC
  8
0
  6
BYLAYER
 62
     1
 10
205.600683
 20
-129.734642
 30
0.0
 40
7.429994
 50
233.916148
 51
245.860401
  0
LINE
  8
0
  6
BYLAYER
 62
     1
 10
202.486135
 20
-136.480331
 30
0.0
 11
202.486639
 21
-136.480576
 31
0.0
  0
LINE
  8
0
  6
BYLAYER
 62
     1
 10
202.562103
 20
-136.514896
 30
0.0
 11
203.164003
 21
-136.047436
 31
0.0
  0
LINE
  8
0
  6
BYLAYER
 62
     1
 10
203.301534
 20
-136.098816
 30
0.0
 11
203.302297
 21
-136.099091
 31
0.0
  0
LINE
  8
0
  6
BYLAYER
 62
     1
 10
212.996908
 20
-130.442169
 30
0.0
 11
212.996908
 21
-130.442184
 31
0.0
  0
LINE
  8
0
  6
BYLAYER
 62
     1
 10
212.988829
 20
-130.522109
 30
0.0
 11
212.279692
 21
-130.820657
 31
0.0
  0
LINE
  8
0
  6
BYLAYER
 62
     1
 10
211.927896
 20
-132.133633
 30
0.0
 11
212.392734
 21
-132.746759
 31
0.0
  0
LINE
  8
0
  6
BYLAYER
 62
     1
 10
211.671133
 20
-134.018829
 30
0.0
 11
211.670690
 21
-134.019455
 31
0.0
  0
LINE
  8
0
  6
BYLAYER
 62
     1
 10
211.622299
 20
-134.087222
 30
0.0
 11
210.867254
 21
-133.983355
 31
0.0
  0
LINE
  8
0
  6
BYLAYER
 62
     1
 10
209.991369
 20
-134.883491
 30
0.0
 11
209.990637
 21
-134.884125
 31
0.0
  0
LINE
  8
0
  6
BYLAYER
 62
     1
 10
209.880728
 20
-134.975825
 30
0.0
 11
209.976700
 21
-135.739247
 31
0.0
  0
LINE
  8
0
  6
BYLAYER
 62
     1
 10
208.639264
 20
-136.514895
 30
0.0
 11
208.037350
 21
-136.047441
 31
0.0
  0
ARC
  8
0
  6
BYLAYER
 62
     1
 10
205.600683
 20
-129.734642
 30
0.0
 40
6.766741
 50
309.235697
 51
321.105929
  0
ARC
  8
0
  6
BYLAYER
 62
     1
 10
205.600683
 20
-129.734642
 30
0.0
 40
6.766738
 50
248.893873
 51
270.0
  0
ARC
  8
0
  6
BYLAYER
 62
     1
 10
205.600683
 20
-129.734642
 30
0.0
 40
7.429994
 50
294.783232
 51
306.083699
  0
LINE
  8
0
  6
BYLAYER
 62
     1
 10
208.714712
 20
-136.480576
 30
0.0
 11
208.639722
 21
-136.515865
 31
0.0
  0
ARC
  8
0
  6
BYLAYER
 62
     1
 10
205.600683
 20
-129.734642
 30
0.0
 40
7.429986
 50
324.139593
 51
336.083825
  0
ARC
  8
0
  6
BYLAYER
 62
     1
 10
205.600637
 20
-129.734581
 30
0.0
 40
6.766781
 50
339.235210
 51
350.764014
  0
ARC
  8
0
  6
BYLAYER
 62
     1
 10
205.600683
 20
-129.734642
 30
0.0
 40
7.429995
 50
353.916089
 51
360.0
  0
ARC
  8
0
  6
BYLAYER
 62
     1
 10
205.600683
 20
-129.734642
 30
0.0
 40
7.429995
 50
0.0
 51
6.083907
  0
ARC
  8
0
  6
BYLAYER
 62
     1
 10
205.600683
 20
-129.734642
 30
0.0
 40
6.766738
 50
270.0
 51
291.106008
  0
CIRCLE
  8
0
  6
BYLAYER
 62
     1
 10
205.600683
 20
-129.734642
 30
0.0
 40
3.630081
  0
CIRCLE
  8
0
  6
BYLAYER
 62
     1
 10
205.600683
 20
-129.734642
 30
0.0
 40
5.296032
  0
LINE
  8
0
  6
BYLAYER
 62
     1
 10
212.600683
 20
-228.484642
 30
0.0
 11
212.600683
 21
-223.484642
 31
0.0
  0
LINE
  8
0
  6
BYLAYER
 62
     1
 10
212.600683
 20
-228.484642
 30
0.0
 11
207.600683
 21
-228.484642
 31
0.0
  0
LINE
  8
0
  6
BYLAYER
 62
     1
 10
212.600683
 20
-228.484642
 30
0.0
 11
212.600683
 21
-233.484642
 31
0.0
  0
LINE
  8
0
  6
BYLAYER
 62
     1
 10
212.600683
 20
-228.484642
 30
0.0
 11
217.600683
 21
-228.484642
 31
0.0
  0
LINE
  8
0
  6
BYLAYER
 62
     1
 10
836.600683
 20
-509.484642
 30
0.0
 11
856.600683
 21
-509.484642
 31
0.0
  0
LINE
  8
0
  6
BYLAYER
 62
     1
 10
832.600683
 20
-628.484642
 30
0.0
 11
832.600683
 21
-581.484642
 31
0.0
  0
LINE
  8
0
  6
BYLAYER
 62
     1
 10
832.600683
 20
-581.484642
 30
0.0
 11
833.100683
 21
-580.984642
 31
0.0
  0
LINE
  8
0
  6
BYLAYER
 62
     1
 10
832.600683
 20
-628.484642
 30
0.0
 11
832.600683
 21
-675.484642
 31
0.0
  0
LINE
  8
0
  6
BYLAYER
 62
     1
 10
832.600683
 20
-675.484642
 30
0.0
 11
833.100683
 21
-675.984642
 31
0.0
  0
LINE
  8
0
  6
BYLAYER
 62
     1
 10
836.600683
 20
-714.484642
 30
0.0
 11
856.600683
 21
-714.484642
 31
0.0
  0
LINE
  8
0
  6
BYLAYER
 62
     1
 10
836.600683
 20
-669.484642
 30
0.0
 11
836.600683
 21
-714.484642
 31
0.0
  0
LINE
  8
0
  6
BYLAYER
 62
     1
 10
856.600683
 20
-669.484642
 30
0.0
 11
836.600683
 21
-669.484642
 31
0.0
  0
LINE
  8
0
  6
BYLAYER
 62
     1
 10
838.100683
 20
-667.984642
 30
0.0
 11
836.600683
 21
-669.484642
 31
0.0
  0
CIRCLE
  8
0
  6
BYLAYER
 62
     1
 10
892.600683
 20
-553.484642
 30
0.0
 40
31.0
  0
LINE
  8
0
  6
BYLAYER
 62
     1
 10
948.600744
 20
-509.484642
 30
0.0
 11
928.600744
 21
-509.484642
 31
0.0
  0
LINE
  8
0
  6
BYLAYER
 62
     1
 10
948.600744
 20
-714.484642
 30
0.0
 11
928.600744
 21
-714.484642
 31
0.0
  0
LINE
  8
0
  6
BYLAYER
 62
     1
 10
928.600744
 20
-669.484642
 30
0.0
 11
948.600744
 21
-669.484642
 31
0.0
  0
LINE
  8
0
  6
BYLAYER
 62
     1
 10
947.100744
 20
-667.984642
 30
0.0
 11
948.600744
 21
-669.484642
 31
0.0
  0
LINE
  8
0
  6
BYLAYER
 62
     1
 10
948.600744
 20
-669.484642
 30
0.0
 11
948.600744
 21
-714.484642
 31
0.0
  0
LINE
  8
0
  6
BYLAYER
 62
     1
 10
835.600683
 20
-580.984642
 30
0.0
 11
833.100683
 21
-580.984642
 31
0.0
  0
LINE
  8
0
  6
BYLAYER
 62
     1
 10
835.600683
 20
-675.984642
 30
0.0
 11
833.100683
 21
-675.984642
 31
0.0
  0
LINE
  8
0
  6
BYLAYER
 62
     1
 10
855.600683
 20
-509.484642
 30
0.0
 11
856.600683
 21
-509.484642
 31
0.0
  0
CIRCLE
  8
0
  6
BYLAYER
 62
     1
 10
937.550634
 20
-535.484886
 30
0.0
 40
5.75
  0
CIRCLE
  8
0
  6
BYLAYER
 62
     1
 10
847.650732
 20
-535.484886
 30
0.0
 40
5.75
  0
LINE
  8
0
  6
BYLAYER
 62
     1
 10
947.100744
 20
-555.984764
 30
0.0
 11
948.600744
 21
-554.484764
 31
0.0
  0
LINE
  8
0
  6
BYLAYER
 62
     1
 10
948.600744
 20
-554.484764
 30
0.0
 11
948.600744
 21
-509.484642
 31
0.0
  0
LINE
  8
0
  6
BYLAYER
 62
     1
 10
838.100683
 20
-555.984764
 30
0.0
 11
836.600683
 21
-554.484764
 31
0.0
  0
LINE
  8
0
  6
BYLAYER
 62
     1
 10
836.600683
 20
-554.484764
 30
0.0
 11
836.600683
 21
-509.484642
 31
0.0
  0
LINE
  8
0
  6
BYLAYER
 62
     1
 10
855.154028
 20
-554.484764
 30
0.0
 11
836.600683
 21
-554.484764
 31
0.0
  0
ARC
  8
0
  6
BYLAYER
 62
     1
 10
855.154028
 20
-555.484764
 30
0.0
 40
1.000000
 50
3.057907
 51
90.000000
  0
LINE
  8
0
  6
BYLAYER
 62
     1
 10
928.600744
 20
-509.484642
 30
0.0
 11
928.600744
 21
-540.021843
 31
0.0
  0
ARC
  8
0
  6
BYLAYER
 62
     1
 10
927.600744
 20
-540.021843
 30
0.0
 40
1.000014
 50
201.039023
 51
359.999996
  0
LINE
  8
0
  6
BYLAYER
 62
     1
 10
856.600683
 20
-540.021721
 30
0.0
 11
856.600683
 21
-509.484642
 31
0.0
  0
ARC
  8
0
  6
BYLAYER
 62
     1
 10
857.600683
 20
-540.021721
 30
0.0
 40
1.000014
 50
180.000000
 51
338.960973
  0
LINE
  8
0
  6
BYLAYER
 62
     1
 10
930.047338
 20
-554.484764
 30
0.0
 11
948.600744
 21
-554.484764
 31
0.0
  0
ARC
  8
0
  6
BYLAYER
 62
     1
 10
930.047338
 20
-555.484764
 30
0.0
 40
1.000020
 50
90.0
 51
176.942086
  0
LINE
  8
0
  6
BYLAYER
 62
     1
 10
928.600744
 20
-509.484642
 30
0.0
 11
928.600744
 21
-540.021843
 31
0.0
  0
LINE
  8
0
  6
BYLAYER
 62
     1
 10
856.600683
 20
-714.484642
 30
0.0
 11
856.600683
 21
-559.505455
 31
0.0
  0
CIRCLE
  8
0
  6
BYLAYER
 62
     1
 10
919.824316
 20
-526.261131
 30
0.0
 40
4.0
  0
CIRCLE
  8
0
  6
BYLAYER
 62
     1
 10
865.377172
 20
-526.260979
 30
0.0
 40
4.0
  0
CIRCLE
  8
0
  6
BYLAYER
 62
     1
 10
865.377050
 20
-580.708153
 30
0.0
 40
4.0
  0
CIRCLE
  8
0
  6
BYLAYER
 62
     1
 10
919.824194
 20
-580.708305
 30
0.0
 40
4.0
  0
ARC
  8
0
  6
BYLAYER
 62
     1
 10
892.600683
 20
-553.484642
 30
0.0
 40
36.500004
 50
148.424355
 51
158.960509
  0
ARC
  8
0
  6
BYLAYER
 62
     1
 10
859.800604
 20
-533.325127
 30
0.0
 40
2.000013
 50
328.424810
 51
411.711570
  0
ARC
  8
0
  6
BYLAYER
 62
     1
 10
865.377172
 20
-526.260979
 30
0.0
 40
6.999995
 50
38.287800
 51
231.711845
  0
ARC
  8
0
  6
BYLAYER
 62
     1
 10
872.441351
 20
-520.684471
 30
0.0
 40
2.000008
 50
218.287737
 51
301.575200
  0
ARC
  8
0
  6
BYLAYER
 62
     1
 10
892.600683
 20
-553.484642
 30
0.0
 40
36.499985
 50
58.424666
 51
121.575332
  0
ARC
  8
0
  6
BYLAYER
 62
     1
 10
912.760015
 20
-520.684471
 30
0.0
 40
2.000013
 50
238.424801
 51
321.712264
  0
ARC
  8
0
  6
BYLAYER
 62
     1
 10
919.824194
 20
-526.260979
 30
0.0
 40
6.999995
 50
308.288160
 51
501.712205
  0
ARC
  8
0
  6
BYLAYER
 62
     1
 10
892.600683
 20
-553.484642
 30
0.0
 40
36.500004
 50
21.039496
 51
31.575650
  0
ARC
  8
0
  6
BYLAYER
 62
     1
 10
925.400732
 20
-533.325127
 30
0.0
 40
2.000008
 50
128.287741
 51
211.575655
  0
ARC
  8
0
  6
BYLAYER
 62
     1
 10
872.441351
 20
-586.284813
 30
0.0
 40
2.000008
 50
58.424803
 51
141.712259
  0
ARC
  8
0
  6
BYLAYER
 62
     1
 10
865.377172
 20
-580.708305
 30
0.0
 40
6.999995
 50
128.288151
 51
321.712210
  0
ARC
  8
0
  6
BYLAYER
 62
     1
 10
892.600683
 20
-553.484642
 30
0.0
 40
36.500004
 50
183.057403
 51
211.575655
  0
ARC
  8
0
  6
BYLAYER
 62
     1
 10
859.800634
 20
-573.644157
 30
0.0
 40
2.000008
 50
308.287746
 51
391.575660
  0
ARC
  8
0
  6
BYLAYER
 62
     1
 10
892.600683
 20
-553.484642
 30
0.0
 40
36.500004
 50
328.424346
 51
356.942599
  0
ARC
  8
0
  6
BYLAYER
 62
     1
 10
925.400732
 20
-573.644157
 30
0.0
 40
2.000008
 50
148.424341
 51
231.712255
  0
ARC
  8
0
  6
BYLAYER
 62
     1
 10
892.600683
 20
-553.484642
 30
0.0
 40
36.499985
 50
238.424665
 51
301.575337
  0
ARC
  8
0
  6
BYLAYER
 62
     1
 10
919.824194
 20
-580.708305
 30
0.0
 40
6.999995
 50
218.287805
 51
411.711850
  0
ARC
  8
0
  6
BYLAYER
 62
     1
 10
912.760015
 20
-586.284813
 30
0.0
 40
2.000013
 50
38.287746
 51
121.575195
  0
LINE
  8
0
  6
BYLAYER
 62
     1
 10
856.600683
 20
-510.984642
 30
0.0
 11
928.600744
 21
-510.984642
 31
0.0
  0
CIRCLE
  8
0
  6
BYLAYER
 62
     1
 10
847.650732
 20
-688.484398
 30
0.0
 40
5.75
  0
CIRCLE
  8
0
  6
BYLAYER
 62
     1
 10
937.550634
 20
-688.484398
 30
0.0
 40
5.75
  0
LINE
  8
0
  6
BYLAYER
 62
     1
 10
838.100683
 20
-555.984764
 30
0.0
 11
838.100683
 21
-667.984642
 31
0.0
  0
LINE
  8
0
  6
BYLAYER
 62
     1
 10
947.100744
 20
-555.984764
 30
0.0
 11
947.100744
 21
-667.984642
 31
0.0
  0
LINE
  8
0
  6
BYLAYER
 62
     1
 10
928.600744
 20
-714.484642
 30
0.0
 11
928.600744
 21
-559.505150
 31
0.0
  0
LINE
  8
0
  6
BYLAYER
 62
     1
 10
856.600683
 20
-667.984642
 30
0.0
 11
838.100683
 21
-667.984642
 31
0.0
  0
LINE
  8
0
  6
BYLAYER
 62
     1
 10
856.186407
 20
-555.984764
 30
0.0
 11
838.100683
 21
-555.984764
 31
0.0
  0
LINE
  8
0
  6
BYLAYER
 62
     1
 10
929.014959
 20
-555.984764
 30
0.0
 11
947.100744
 21
-555.984764
 31
0.0
  0
LINE
  8
0
  6
BYLAYER
 62
     1
 10
928.600744
 20
-667.984642
 30
0.0
 11
947.100744
 21
-667.984642
 31
0.0
  0
LINE
  8
0
  6
BYLAYER
 62
     1
 10
835.600805
 20
-698.484581
 30
0.0
 11
836.600683
 21
-698.519493
 31
0.0
  0
LINE
  8
0
  6
BYLAYER
 62
     1
 10
835.600805
 20
-558.484642
 30
0.0
 11
838.100683
 21
-558.397331
 31
0.0
  0
LINE
  8
0
  6
BYLAYER
 62
     1
 10
835.600683
 20
-698.484642
 30
0.0
 11
835.600683
 21
-580.984642
 31
0.0
  0
LINE
  8
0
  6
BYLAYER
 62
     1
 10
835.600683
 20
-580.984642
 30
0.0
 11
835.600683
 21
-558.484642
 31
0.0
  0
LINE
  8
0
  6
BYLAYER
 62
     1
 10
952.600683
 20
-628.484642
 30
0.0
 11
952.600683
 21
-581.484642
 31
0.0
  0
LINE
  8
0
  6
BYLAYER
 62
     1
 10
952.600683
 20
-581.484642
 30
0.0
 11
952.100683
 21
-580.984642
 31
0.0
  0
LINE
  8
0
  6
BYLAYER
 62
     1
 10
952.600683
 20
-628.484642
 30
0.0
 11
952.600683
 21
-675.484642
 31
0.0
  0
LINE
  8
0
  6
BYLAYER
 62
     1
 10
952.600683
 20
-675.484642
 30
0.0
 11
952.100683
 21
-675.984642
 31
0.0
  0
LINE
  8
0
  6
BYLAYER
 62
     1
 10
949.600683
 20
-580.984642
 30
0.0
 11
952.100683
 21
-580.984642
 31
0.0
  0
LINE
  8
0
  6
BYLAYER
 62
     1
 10
949.600683
 20
-675.984642
 30
0.0
 11
952.100683
 21
-675.984642
 31
0.0
  0
LINE
  8
0
  6
BYLAYER
 62
     1
 10
949.600561
 20
-698.484581
 30
0.0
 11
948.600683
 21
-698.519493
 31
0.0
  0
LINE
  8
0
  6
BYLAYER
 62
     1
 10
949.600561
 20
-558.484642
 30
0.0
 11
947.100683
 21
-558.397331
 31
0.0
  0
LINE
  8
0
  6
BYLAYER
 62
     1
 10
949.600683
 20
-698.484642
 30
0.0
 11
949.600683
 21
-580.984642
 31
0.0
  0
LINE
  8
0
  6
BYLAYER
 62
     1
 10
949.600683
 20
-580.984642
 30
0.0
 11
949.600683
 21
-558.484642
 31
0.0
  0
LINE
  8
0
  6
BYLAYER
 62
     1
 10
928.600744
 20
-710.484581
 30
0.0
 11
856.600683
 21
-710.484581
 31
0.0
  0
LINE
  8
0
  6
BYLAYER
 62
     1
 10
252.100805
 20
-573.984644
 30
0.0
 11
253.600805
 21
-572.484644
 31
0.0
  0
LINE
  8
0
  6
BYLAYER
 62
     1
 10
253.600805
 20
-572.484644
 30
0.0
 11
298.600805
 21
-572.484644
 31
0.0
  0
LINE
  8
0
  6
BYLAYER
 62
     1
 10
253.600805
 20
-592.484644
 30
0.0
 11
253.600805
 21
-572.484644
 31
0.0
  0
LINE
  8
0
  6
BYLAYER
 62
     1
 10
253.600805
 20
-664.484644
 30
0.0
 11
253.600805
 21
-684.484644
 31
0.0
  0
LINE
  8
0
  6
BYLAYER
 62
     1
 10
252.100805
 20
-682.984644
 30
0.0
 11
253.600805
 21
-684.484644
 31
0.0
  0
LINE
  8
0
  6
BYLAYER
 62
     1
 10
252.100805
 20
-664.484644
 30
0.0
 11
252.100805
 21
-682.984644
 31
0.0
  0
LINE
  8
0
  6
BYLAYER
 62
     1
 10
171.600805
 20
-664.484644
 30
0.0
 11
171.600805
 21
-684.484644
 31
0.0
  0
LINE
  8
0
  6
BYLAYER
 62
     1
 10
173.100805
 20
-682.984644
 30
0.0
 11
171.600805
 21
-684.484644
 31
0.0
  0
LINE
  8
0
  6
BYLAYER
 62
     1
 10
171.600805
 20
-572.484644
 30
0.0
 11
126.600805
 21
-572.484644
 31
0.0
  0
LINE
  8
0
  6
BYLAYER
 62
     1
 10
171.600805
 20
-592.484644
 30
0.0
 11
171.600805
 21
-572.484644
 31
0.0
  0
LINE
  8
0
  6
BYLAYER
 62
     1
 10
173.100805
 20
-573.984644
 30
0.0
 11
171.600805
 21
-572.484644
 31
0.0
  0
LINE
  8
0
  6
BYLAYER
 62
     1
 10
173.100805
 20
-664.484644
 30
0.0
 11
173.100805
 21
-682.984644
 31
0.0
  0
LINE
  8
0
  6
BYLAYER
 62
     1
 10
253.600805
 20
-684.484644
 30
0.0
 11
298.600805
 21
-684.484644
 31
0.0
  0
LINE
  8
0
  6
BYLAYER
 62
     1
 10
171.600805
 20
-684.484644
 30
0.0
 11
126.600805
 21
-684.484644
 31
0.0
  0
LINE
  8
0
  6
BYLAYER
 62
     1
 10
126.600805
 20
-664.484644
 30
0.0
 11
298.600805
 21
-664.484644
 31
0.0
  0
LINE
  8
0
  6
BYLAYER
 62
     1
 10
126.600805
 20
-592.484644
 30
0.0
 11
298.600805
 21
-592.484644
 31
0.0
  0
LINE
  8
0
  6
BYLAYER
 62
     1
 10
298.600805
 20
-592.484644
 30
0.0
 11
298.600805
 21
-572.484644
 31
0.0
  0
LINE
  8
0
  6
BYLAYER
 62
     1
 10
298.600805
 20
-664.484644
 30
0.0
 11
298.600805
 21
-684.484644
 31
0.0
  0
CIRCLE
  8
0
  6
BYLAYER
 62
     1
 10
152.600805
 20
-583.484827
 30
0.0
 40
5.75
  0
LINE
  8
0
  6
BYLAYER
 62
     1
 10
212.600683
 20
-568.484644
 30
0.0
 11
166.100683
 21
-568.484644
 31
0.0
  0
ARC
  8
0
  6
BYLAYER
 62
     1
 10
166.100683
 20
-569.484644
 30
0.0
 40
1.000000
 50
90.0
 51
180.000003
  0
LINE
  8
0
  6
BYLAYER
 62
     1
 10
212.600683
 20
-568.484644
 30
0.0
 11
259.100683
 21
-568.484644
 31
0.0
  0
ARC
  8
0
  6
BYLAYER
 62
     1
 10
259.100683
 20
-569.484644
 30
0.0
 40
1.0
 50
0.0
 51
90.000003
  0
LINE
  8
0
  6
BYLAYER
 62
     1
 10
173.100805
 20
-573.984644
 30
0.0
 11
252.100805
 21
-573.984644
 31
0.0
  0
LINE
  8
0
  6
BYLAYER
 62
     1
 10
173.100805
 20
-592.484644
 30
0.0
 11
173.100805
 21
-573.984644
 31
0.0
  0
LINE
  8
0
  6
BYLAYER
 62
     1
 10
252.100805
 20
-592.484644
 30
0.0
 11
252.100805
 21
-573.984644
 31
0.0
  0
CIRCLE
  8
0
  6
BYLAYER
 62
     1
 10
272.600805
 20
-583.484827
 30
0.0
 40
5.75
  0
LINE
  8
0
  6
BYLAYER
 62
     1
 10
128.100805
 20
-664.484644
 30
0.0
 11
128.100805
 21
-592.484644
 31
0.0
  0
LINE
  8
0
  6
BYLAYER
 62
     1
 10
126.600805
 20
-572.484644
 30
0.0
 11
126.600805
 21
-684.484644
 31
0.0
  0
LINE
  8
0
  6
BYLAYER
 62
     1
 10
252.100805
 20
-682.984644
 30
0.0
 11
173.100805
 21
-682.984644
 31
0.0
  0
CIRCLE
  8
0
  6
BYLAYER
 62
     1
 10
152.600805
 20
-673.484461
 30
0.0
 40
5.75
  0
CIRCLE
  8
0
  6
BYLAYER
 62
     1
 10
272.600805
 20
-673.484461
 30
0.0
 40
5.75
  0
LINE
  8
0
  6
BYLAYER
 62
     1
 10
146.100805
 20
-592.484644
 30
0.0
 11
146.100805
 21
-664.484644
 31
0.0
  0
LINE
  8
0
  6
BYLAYER
 62
     1
 10
279.100805
 20
-592.484644
 30
0.0
 11
279.100805
 21
-664.484644
 31
0.0
  0
LINE
  8
0
  6
BYLAYER
 62
     1
 10
297.100805
 20
-592.484644
 30
0.0
 11
297.100805
 21
-664.484644
 31
0.0
  0
LINE
  8
0
  6
BYLAYER
 62
     1
 10
282.600683
 20
-571.484644
 30
0.0
 11
142.600683
 21
-571.484644
 31
0.0
  0
LINE
  8
0
  6
BYLAYER
 62
     1
 10
260.100683
 20
-571.484644
 30
0.0
 11
260.100683
 21
-569.484644
 31
0.0
  0
LINE
  8
0
  6
BYLAYER
 62
     1
 10
165.100683
 20
-571.484644
 30
0.0
 11
165.100683
 21
-569.484644
 31
0.0
  0
LINE
  8
0
  6
BYLAYER
 62
     1
 10
142.600744
 20
-571.484766
 30
0.0
 11
142.565824
 21
-572.484644
 31
0.0
  0
LINE
  8
0
  6
BYLAYER
 62
     1
 10
282.600744
 20
-571.484766
 30
0.0
 11
282.635656
 21
-572.484644
 31
0.0
  0
LINE
  8
0
  6
BYLAYER
 62
     1
 10
300.600683
 20
-677.484461
 30
0.0
 11
298.600683
 21
-677.554285
 31
0.0
  0
LINE
  8
0
  6
BYLAYER
 62
     1
 10
300.600683
 20
-579.484827
 30
0.0
 11
298.600683
 21
-579.415003
 31
0.0
  0
LINE
  8
0
  6
BYLAYER
 62
     1
 10
300.600805
 20
-579.484827
 30
0.0
 11
300.600805
 21
-677.484457
 31
0.0
  0
LINE
  8
0
  6
BYLAYER
 62
     1
 10
212.600683
 20
-688.484640
 30
0.0
 11
166.100683
 21
-688.484640
 31
0.0
  0
ARC
  8
0
  6
BYLAYER
 62
     1
 10
166.100683
 20
-687.484640
 30
0.0
 40
1.000000
 50
180.000000
 51
270.000003
  0
LINE
  8
0
  6
BYLAYER
 62
     1
 10
212.600683
 20
-688.484640
 30
0.0
 11
259.100683
 21
-688.484640
 31
0.0
  0
ARC
  8
0
  6
BYLAYER
 62
     1
 10
259.100683
 20
-687.484640
 30
0.0
 40
1.0
 50
270.0
 51
360.000003
  0
LINE
  8
0
  6
BYLAYER
 62
     1
 10
282.600683
 20
-685.484640
 30
0.0
 11
142.600683
 21
-685.484640
 31
0.0
  0
LINE
  8
0
  6
BYLAYER
 62
     1
 10
260.100683
 20
-685.484640
 30
0.0
 11
260.100683
 21
-687.484640
 31
0.0
  0
LINE
  8
0
  6
BYLAYER
 62
     1
 10
165.100683
 20
-685.484640
 30
0.0
 11
165.100683
 21
-687.484640
 31
0.0
  0
LINE
  8
0
  6
BYLAYER
 62
     1
 10
142.600744
 20
-685.484518
 30
0.0
 11
142.565824
 21
-684.484640
 31
0.0
  0
LINE
  8
0
  6
BYLAYER
 62
     1
 10
282.600744
 20
-685.484518
 30
0.0
 11
282.635656
 21
-684.484640
 31
0.0
  0
ARC
  8
0
  6
BYLAYER
 62
     1
 10
175.326179
 20
-608.484644
 30
0.0
 40
1.25
 50
270.0
 51
450.000005
  0
ARC
  8
0
  6
BYLAYER
 62
     1
 10
175.326179
 20
-598.484644
 30
0.0
 40
1.25
 50
270.0
 51
450.000005
  0
ARC
  8
0
  6
BYLAYER
 62
     1
 10
175.326179
 20
-648.484644
 30
0.0
 40
1.250000
 50
270.0
 51
450.000005
  0
ARC
  8
0
  6
BYLAYER
 62
     1
 10
175.326179
 20
-658.484644
 30
0.0
 40
1.25
 50
270.0
 51
450.000005
  0
LINE
  8
0
  6
BYLAYER
 62
     1
 10
175.326179
 20
-597.234644
 30
0.0
 11
146.100805
 21
-597.234644
 31
0.0
  0
LINE
  8
0
  6
BYLAYER
 62
     1
 10
175.326179
 20
-607.234644
 30
0.0
 11
146.100805
 21
-607.234644
 31
0.0
  0
LINE
  8
0
  6
BYLAYER
 62
     1
 10
175.326179
 20
-609.734644
 30
0.0
 11
146.100805
 21
-609.734644
 31
0.0
  0
LINE
  8
0
  6
BYLAYER
 62
     1
 10
175.326179
 20
-657.234644
 30
0.0
 11
146.100805
 21
-657.234644
 31
0.0
  0
LINE
  8
0
  6
BYLAYER
 62
     1
 10
175.326179
 20
-659.734644
 30
0.0
 11
146.100805
 21
-659.734644
 31
0.0
  0
LINE
  8
0
  6
BYLAYER
 62
     1
 10
146.100805
 20
-647.234644
 30
0.0
 11
175.326179
 21
-647.234644
 31
0.0
  0
LINE
  8
0
  6
BYLAYER
 62
     1
 10
146.100805
 20
-649.734644
 30
0.0
 11
175.326179
 21
-649.734644
 31
0.0
  0
LINE
  8
0
  6
BYLAYER
 62
     1
 10
146.100805
 20
-599.734644
 30
0.0
 11
175.326179
 21
-599.734644
 31
0.0
  0
ARC
  8
0
  6
BYLAYER
 62
     1
 10
188.076477
 20
-618.484644
 30
0.0
 40
1.25
 50
270.0
 51
450.000005
  0
ARC
  8
0
  6
BYLAYER
 62
     1
 10
188.076477
 20
-638.484644
 30
0.0
 40
1.25
 50
270.0
 51
450.000005
  0
ARC
  8
0
  6
BYLAYER
 62
     1
 10
188.076477
 20
-628.484644
 30
0.0
 40
1.25
 50
270.0
 51
360.000009
  0
ARC
  8
0
  6
BYLAYER
 62
     1
 10
188.076477
 20
-628.484644
 30
0.0
 40
1.250000
 50
0.0
 51
89.999996
  0
LINE
  8
0
  6
BYLAYER
 62
     1
 10
146.100805
 20
-629.734644
 30
0.0
 11
188.076477
 21
-629.734644
 31
0.0
  0
LINE
  8
0
  6
BYLAYER
 62
     1
 10
146.100805
 20
-617.234644
 30
0.0
 11
188.076477
 21
-617.234644
 31
0.0
  0
LINE
  8
0
  6
BYLAYER
 62
     1
 10
146.100805
 20
-627.234644
 30
0.0
 11
188.076477
 21
-627.234644
 31
0.0
  0
LINE
  8
0
  6
BYLAYER
 62
     1
 10
146.100805
 20
-637.234520
 30
0.0
 11
188.076477
 21
-637.234690
 31
0.0
  0
LINE
  8
0
  6
BYLAYER
 62
     1
 10
146.100805
 20
-639.734520
 30
0.0
 11
188.076477
 21
-639.734690
 31
0.0
  0
LINE
  8
0
  6
BYLAYER
 62
     1
 10
146.100805
 20
-619.734644
 30
0.0
 11
188.076477
 21
-619.734644
 31
0.0
  0
LINE
  8
0
  6
BYLAYER
 62
     1
 10
242.000534
 20
-597.234644
 30
0.0
 11
279.100805
 21
-597.234644
 31
0.0
  0
ARC
  8
0
  6
BYLAYER
 62
     1
 10
242.000534
 20
-598.484644
 30
0.0
 40
1.25
 50
90.0
 51
270.000005
  0
LINE
  8
0
  6
BYLAYER
 62
     1
 10
242.000534
 20
-647.234644
 30
0.0
 11
279.100805
 21
-647.234644
 31
0.0
  0
LINE
  8
0
  6
BYLAYER
 62
     1
 10
242.000534
 20
-649.734644
 30
0.0
 11
279.100805
 21
-649.734644
 31
0.0
  0
ARC
  8
0
  6
BYLAYER
 62
     1
 10
242.000534
 20
-648.484644
 30
0.0
 40
1.250000
 50
90.0
 51
270.000005
  0
LINE
  8
0
  6
BYLAYER
 62
     1
 10
242.000534
 20
-659.734644
 30
0.0
 11
279.100805
 21
-659.734644
 31
0.0
  0
ARC
  8
0
  6
BYLAYER
 62
     1
 10
242.000534
 20
-658.484644
 30
0.0
 40
1.25
 50
90.0
 51
270.000005
  0
LINE
  8
0
  6
BYLAYER
 62
     1
 10
279.100805
 20
-609.734644
 30
0.0
 11
242.000534
 21
-609.734644
 31
0.0
  0
LINE
  8
0
  6
BYLAYER
 62
     1
 10
242.000534
 20
-657.234644
 30
0.0
 11
279.100805
 21
-657.234644
 31
0.0
  0
LINE
  8
0
  6
BYLAYER
 62
     1
 10
279.100805
 20
-607.234644
 30
0.0
 11
242.000534
 21
-607.234644
 31
0.0
  0
LINE
  8
0
  6
BYLAYER
 62
     1
 10
242.000534
 20
-599.734644
 30
0.0
 11
279.100805
 21
-599.734644
 31
0.0
  0
ARC
  8
0
  6
BYLAYER
 62
     1
 10
242.000534
 20
-608.484644
 30
0.0
 40
1.25
 50
90.0
 51
270.000005
  0
LINE
  8
0
  6
BYLAYER
 62
     1
 10
315.121268
 20
-88.532738
 30
0.0
 11
308.842978
 21
-100.834434
 31
0.0
  0
LINE
  8
0
  6
BYLAYER
 62
     1
 10
315.121268
 20
-153.484642
 30
0.0
 11
315.121268
 21
-75.905540
 31
0.0
  0
LINE
  8
0
  6
BYLAYER
 62
     1
 10
325.100790
 20
-73.484656
 30
0.0
 11
325.100790
 21
-153.484642
 31
0.0
  0
LINE
  8
0
  6
BYLAYER
 62
     1
 10
317.016592
 20
-73.908348
 30
0.0
 11
325.100790
 21
-73.484656
 31
0.0
  0
ARC
  8
0
  6
BYLAYER
 62
     1
 10
314.121268
 20
-96.357048
 30
0.0
 40
0.999972
 50
302.000007
 51
360.000000
  0
LINE
  8
0
  6
BYLAYER
 62
     1
 10
300.600760
 20
-105.984764
 30
0.0
 11
314.651175
 21
-97.205070
 31
0.0
  0
LINE
  8
0
  6
BYLAYER
 62
     1
 10
300.600790
 20
-105.984764
 30
0.0
 11
300.600683
 21
-153.484642
 31
0.0
  0
ARC
  8
0
  6
BYLAYER
 62
     1
 10
317.121268
 20
-75.905540
 30
0.0
 40
1.999969
 50
93.000028
 51
180.000000
  0
LINE
  8
0
  6
BYLAYER
 62
     1
 10
315.121268
 20
-218.436546
 30
0.0
 11
308.842978
 21
-206.134850
 31
0.0
  0
LINE
  8
0
  6
BYLAYER
 62
     1
 10
315.121268
 20
-153.484642
 30
0.0
 11
315.121268
 21
-231.063744
 31
0.0
  0
LINE
  8
0
  6
BYLAYER
 62
     1
 10
325.100790
 20
-233.484628
 30
0.0
 11
325.100790
 21
-153.484642
 31
0.0
  0
LINE
  8
0
  6
BYLAYER
 62
     1
 10
317.016592
 20
-233.060936
 30
0.0
 11
325.100790
 21
-233.484628
 31
0.0
  0
ARC
  8
0
  6
BYLAYER
 62
     1
 10
314.121268
 20
-210.612236
 30
0.0
 40
0.999972
 50
0.0
 51
57.999993
  0
LINE
  8
0
  6
BYLAYER
 62
     1
 10
300.600760
 20
-200.984520
 30
0.0
 11
314.651175
 21
-209.764214
 31
0.0
  0
LINE
  8
0
  6
BYLAYER
 62
     1
 10
300.600790
 20
-200.984520
 30
0.0
 11
300.600683
 21
-153.484642
 31
0.0
  0
ARC
  8
0
  6
BYLAYER
 62
     1
 10
317.121268
 20
-231.063744
 30
0.0
 40
1.999969
 50
180.000000
 51
266.999972
  0
LINE
  8
0
  6
BYLAYER
 62
     1
 10
928.600683
 20
-310.484825
 30
0.0
 11
856.600683
 21
-310.484825
 31
0.0
  0
LINE
  8
0
  6
BYLAYER
 62
     1
 10
835.600683
 20
-275.984642
 30
0.0
 11
833.100683
 21
-275.984642
 31
0.0
  0
LINE
  8
0
  6
BYLAYER
 62
     1
 10
835.600683
 20
-298.484642
 30
0.0
 11
835.600683
 21
-242.142838
 31
0.0
  0
LINE
  8
0
  6
BYLAYER
 62
     1
 10
835.600805
 20
-298.484581
 30
0.0
 11
836.600683
 21
-298.519493
 31
0.0
  0
LINE
  8
0
  6
BYLAYER
 62
     1
 10
832.600683
 20
-240.140719
 30
0.0
 11
832.600683
 21
-275.484642
 31
0.0
  0
LINE
  8
0
  6
BYLAYER
 62
     1
 10
838.100683
 20
-267.984642
 30
0.0
 11
838.100683
 21
-243.701191
 31
0.0
  0
LINE
  8
0
  6
BYLAYER
 62
     1
 10
833.100683
 20
-275.984642
 30
0.0
 11
832.600683
 21
-275.484642
 31
0.0
  0
LINE
  8
0
  6
BYLAYER
 62
     1
 10
949.600683
 20
-275.984642
 30
0.0
 11
952.100683
 21
-275.984642
 31
0.0
  0
LINE
  8
0
  6
BYLAYER
 62
     1
 10
949.600683
 20
-298.484642
 30
0.0
 11
949.600683
 21
-242.142838
 31
0.0
  0
LINE
  8
0
  6
BYLAYER
 62
     1
 10
836.600683
 20
-314.484642
 30
0.0
 11
856.600683
 21
-314.484642
 31
0.0
  0
CIRCLE
  8
0
  6
BYLAYER
 62
     1
 10
847.650732
 20
-288.484398
 30
0.0
 40
5.75
  0
LINE
  8
0
  6
BYLAYER
 62
     1
 10
949.600561
 20
-298.484581
 30
0.0
 11
948.600683
 21
-298.519493
 31
0.0
  0
LINE
  8
0
  6
BYLAYER
 62
     1
 10
948.600683
 20
-314.484642
 30
0.0
 11
928.600683
 21
-314.484642
 31
0.0
  0
CIRCLE
  8
0
  6
BYLAYER
 62
     1
 10
937.550634
 20
-288.484398
 30
0.0
 40
5.75
  0
LINE
  8
0
  6
BYLAYER
 62
     1
 10
952.600683
 20
-240.140719
 30
0.0
 11
952.600683
 21
-275.484642
 31
0.0
  0
LINE
  8
0
  6
BYLAYER
 62
     1
 10
856.600683
 20
-314.484642
 30
0.0
 11
856.600683
 21
-252.546621
 31
0.0
  0
LINE
  8
0
  6
BYLAYER
 62
     1
 10
928.600683
 20
-314.484642
 30
0.0
 11
928.600683
 21
-252.546621
 31
0.0
  0
LINE
  8
0
  6
BYLAYER
 62
     1
 10
947.100683
 20
-267.984642
 30
0.0
 11
947.100683
 21
-243.701191
 31
0.0
  0
LINE
  8
0
  6
BYLAYER
 62
     1
 10
952.100683
 20
-275.984642
 30
0.0
 11
952.600683
 21
-275.484642
 31
0.0
  0
LINE
  8
0
  6
BYLAYER
 62
     1
 10
928.600683
 20
-267.984642
 30
0.0
 11
947.100683
 21
-267.984642
 31
0.0
  0
LINE
  8
0
  6
BYLAYER
 62
     1
 10
948.600683
 20
-269.484642
 30
0.0
 11
948.600683
 21
-314.484642
 31
0.0
  0
LINE
  8
0
  6
BYLAYER
 62
     1
 10
947.100683
 20
-267.984642
 30
0.0
 11
948.600683
 21
-269.484642
 31
0.0
  0
LINE
  8
0
  6
BYLAYER
 62
     1
 10
928.600683
 20
-269.484642
 30
0.0
 11
948.600683
 21
-269.484642
 31
0.0
  0
LINE
  8
0
  6
BYLAYER
 62
     1
 10
856.600683
 20
-267.984642
 30
0.0
 11
838.100683
 21
-267.984642
 31
0.0
  0
LINE
  8
0
  6
BYLAYER
 62
     1
 10
838.100683
 20
-267.984642
 30
0.0
 11
836.600683
 21
-269.484642
 31
0.0
  0
LINE
  8
0
  6
BYLAYER
 62
     1
 10
856.600683
 20
-269.484642
 30
0.0
 11
836.600683
 21
-269.484642
 31
0.0
  0
LINE
  8
0
  6
BYLAYER
 62
     1
 10
836.600683
 20
-269.484642
 30
0.0
 11
836.600683
 21
-314.484642
 31
0.0
  0
LINE
  8
0
  6
BYLAYER
 62
     7
 10
843.600683
 20
-39.484642
 30
0.0
 11
846.600683
 21
-44.680809
 31
0.0
  0
LINE
  8
0
  6
BYLAYER
 62
     7
 10
843.600683
 20
-60.166499
 30
0.0
 11
843.600683
 21
-33.484642
 31
0.0
  0
LINE
  8
0
  6
BYLAYER
 62
     7
 10
941.600652
 20
-60.166483
 30
0.0
 11
941.600652
 21
-33.484642
 31
0.0
  0
LINE
  8
0
  6
BYLAYER
 62
     7
 10
846.600683
 20
-48.484642
 30
0.0
 11
846.600683
 21
-44.680809
 31
0.0
  0
ARC
  8
0
  6
BYLAYER
 62
     7
 10
939.850652
 20
-49.484642
 30
0.0
 40
1.000000
 50
0.0
 51
90.000003
  0
LINE
  8
0
  6
BYLAYER
 62
     7
 10
935.316350
 20
-48.484642
 30
0.0
 11
939.850652
 21
-48.484642
 31
0.0
  0
ARC
  8
0
  6
BYLAYER
 62
     7
 10
935.316350
 20
-49.484642
 30
0.0
 40
1.0
 50
90.0
 51
178.00015
  0
LINE
  8
0
  6
BYLAYER
 62
     7
 10
934.067821
 20
-56.583908
 30
0.0
 11
934.316961
 21
-49.449730
 31
0.0
  0
LINE
  8
0
  6
BYLAYER
 62
     7
 10
940.850652
 20
-59.776498
 30
0.0
 11
940.850652
 21
-49.484642
 31
0.0
  0
LINE
  8
0
  6
BYLAYER
 62
     7
 10
845.350683
 20
-48.484642
 30
0.0
 11
846.600683
 21
-48.484642
 31
0.0
  0
ARC
  8
0
  6
BYLAYER
 62
     7
 10
845.350683
 20
-49.484642
 30
0.0
 40
1.0
 50
90.0
 51
180.000003
  0
LINE
  8
0
  6
BYLAYER
 62
     7
 10
844.350683
 20
-49.484642
 30
0.0
 11
844.350683
 21
-59.776514
 31
0.0
  0
LINE
  8
0
  6
BYLAYER
 62
     7
 10
849.100683
 20
-22.984642
 30
0.0
 11
849.100683
 21
-1.484642
 31
0.0
  0
ARC
  8
0
  6
BYLAYER
 62
     7
 10
847.600683
 20
-22.984642
 30
0.0
 40
1.5
 50
270.0
 51
360.0
  0
ARC
  8
0
  6
BYLAYER
 62
     7
 10
850.600683
 20
-1.484642
 30
0.0
 40
1.5
 50
90.0
 51
180.0
  0
LINE
  8
0
  6
BYLAYER
 62
     7
 10
892.600683
 20
0.015358
 30
0.0
 11
850.600683
 21
0.015358
 31
0.0
  0
LINE
  8
0
  6
BYLAYER
 62
     7
 10
854.472924
 20
-22.984642
 30
0.0
 11
854.472924
 21
-1.484642
 31
0.0
  0
ARC
  8
0
  6
BYLAYER
 62
     7
 10
852.972924
 20
-22.984642
 30
0.0
 40
1.5
 50
270.0
 51
360.0
  0
ARC
  8
0
  6
BYLAYER
 62
     7
 10
855.972924
 20
-1.484642
 30
0.0
 40
1.5
 50
90.0
 51
180.0
  0
LINE
  8
0
  6
BYLAYER
 62
     7
 10
879.507030
 20
0.015358
 30
0.0
 11
879.999577
 21
-14.089340
 31
0.0
  0
ARC
  8
0
  6
BYLAYER
 62
     7
 10
882.997749
 20
-13.984642
 30
0.0
 40
3.000000
 50
182.000000
 51
270.000000
  0
LINE
  8
0
  6
BYLAYER
 62
     7
 10
890.201789
 20
-14.089340
 30
0.0
 11
890.694336
 21
0.015358
 31
0.0
  0
ARC
  8
0
  6
BYLAYER
 62
     7
 10
887.203617
 20
-13.984642
 30
0.0
 40
3.0
 50
270.0
 51
358.0
  0
LINE
  8
0
  6
BYLAYER
 62
     7
 10
882.997749
 20
-16.984642
 30
0.0
 11
887.203617
 21
-16.984642
 31
0.0
  0
LINE
  8
0
  6
BYLAYER
 62
     7
 10
864.507030
 20
0.015358
 30
0.0
 11
864.999577
 21
-14.089340
 31
0.0
  0
ARC
  8
0
  6
BYLAYER
 62
     7
 10
867.997749
 20
-13.984642
 30
0.0
 40
3.000000
 50
182.000000
 51
270.000000
  0
LINE
  8
0
  6
BYLAYER
 62
     7
 10
875.201789
 20
-14.089340
 30
0.0
 11
875.694336
 21
0.015358
 31
0.0
  0
ARC
  8
0
  6
BYLAYER
 62
     7
 10
872.203617
 20
-13.984642
 30
0.0
 40
3.0
 50
270.0
 51
358.0
  0
LINE
  8
0
  6
BYLAYER
 62
     7
 10
867.997749
 20
-16.984642
 30
0.0
 11
872.203617
 21
-16.984642
 31
0.0
  0
LINE
  8
0
  6
BYLAYER
 62
     7
 10
864.541951
 20
-0.984642
 30
0.0
 11
875.659415
 21
-0.984642
 31
0.0
  0
LINE
  8
0
  6
BYLAYER
 62
     7
 10
879.541951
 20
-0.984642
 30
0.0
 11
890.659415
 21
-0.984642
 31
0.0
  0
LINE
  8
0
  6
BYLAYER
 62
     7
 10
892.600683
 20
-24.484642
 30
0.0
 11
845.100683
 21
-24.484642
 31
0.0
  0
ARC
  8
0
  6
BYLAYER
 62
     7
 10
845.100683
 20
-25.984642
 30
0.0
 40
1.5
 50
90.0
 51
180.0
  0
LINE
  8
0
  6
BYLAYER
 62
     7
 10
843.600683
 20
-31.484642
 30
0.0
 11
843.600683
 21
-25.984642
 31
0.0
  0
LINE
  8
0
  6
BYLAYER
 62
     7
 10
843.600683
 20
-31.484642
 30
0.0
 11
892.600683
 21
-31.484642
 31
0.0
  0
LINE
  8
0
  6
BYLAYER
 62
     7
 10
936.100683
 20
-22.984642
 30
0.0
 11
936.100683
 21
-1.484642
 31
0.0
  0
ARC
  8
0
  6
BYLAYER
 62
     7
 10
937.600683
 20
-22.984642
 30
0.0
 40
1.5
 50
180.000000
 51
270.000000
  0
ARC
  8
0
  6
BYLAYER
 62
     7
 10
934.600683
 20
-1.484642
 30
0.0
 40
1.5
 50
0.0
 51
90.0
  0
LINE
  8
0
  6
BYLAYER
 62
     7
 10
892.600683
 20
0.015358
 30
0.0
 11
934.600683
 21
0.015358
 31
0.0
  0
LINE
  8
0
  6
BYLAYER
 62
     7
 10
930.728442
 20
-22.984642
 30
0.0
 11
930.728442
 21
-1.484642
 31
0.0
  0
ARC
  8
0
  6
BYLAYER
 62
     7
 10
932.228442
 20
-22.984642
 30
0.0
 40
1.5
 50
180.000000
 51
270.000000
  0
ARC
  8
0
  6
BYLAYER
 62
     7
 10
929.228442
 20
-1.484642
 30
0.0
 40
1.5
 50
0.0
 51
90.0
  0
LINE
  8
0
  6
BYLAYER
 62
     7
 10
905.694336
 20
0.015358
 30
0.0
 11
905.201789
 21
-14.089340
 31
0.0
  0
ARC
  8
0
  6
BYLAYER
 62
     7
 10
902.203617
 20
-13.984642
 30
0.0
 40
3.0
 50
270.0
 51
358.0
  0
LINE
  8
0
  6
BYLAYER
 62
     7
 10
894.999577
 20
-14.089340
 30
0.0
 11
894.507030
 21
0.015358
 31
0.0
  0
ARC
  8
0
  6
BYLAYER
 62
     7
 10
897.997749
 20
-13.984642
 30
0.0
 40
3.000000
 50
182.000000
 51
270.000000
  0
LINE
  8
0
  6
BYLAYER
 62
     7
 10
902.203617
 20
-16.984642
 30
0.0
 11
897.997749
 21
-16.984642
 31
0.0
  0
LINE
  8
0
  6
BYLAYER
 62
     7
 10
920.694336
 20
0.015358
 30
0.0
 11
920.201789
 21
-14.089340
 31
0.0
  0
ARC
  8
0
  6
BYLAYER
 62
     7
 10
917.203617
 20
-13.984642
 30
0.0
 40
3.0
 50
270.0
 51
358.0
  0
LINE
  8
0
  6
BYLAYER
 62
     7
 10
909.999577
 20
-14.089340
 30
0.0
 11
909.507030
 21
0.015358
 31
0.0
  0
ARC
  8
0
  6
BYLAYER
 62
     7
 10
912.997749
 20
-13.984642
 30
0.0
 40
3.000000
 50
182.000000
 51
270.000000
  0
LINE
  8
0
  6
BYLAYER
 62
     7
 10
917.203617
 20
-16.984642
 30
0.0
 11
912.997749
 21
-16.984642
 31
0.0
  0
LINE
  8
0
  6
BYLAYER
 62
     7
 10
920.659415
 20
-0.984642
 30
0.0
 11
909.541951
 21
-0.984642
 31
0.0
  0
LINE
  8
0
  6
BYLAYER
 62
     7
 10
905.659415
 20
-0.984642
 30
0.0
 11
894.541951
 21
-0.984642
 31
0.0
  0
LINE
  8
0
  6
BYLAYER
 62
     7
 10
892.600683
 20
-24.484642
 30
0.0
 11
940.100683
 21
-24.484642
 31
0.0
  0
ARC
  8
0
  6
BYLAYER
 62
     7
 10
940.100683
 20
-25.984642
 30
0.0
 40
1.5
 50
0.0
 51
90.0
  0
LINE
  8
0
  6
BYLAYER
 62
     7
 10
941.600683
 20
-33.484642
 30
0.0
 11
941.600683
 21
-25.984642
 31
0.0
  0
LINE
  8
0
  6
BYLAYER
 62
     7
 10
941.600683
 20
-31.484642
 30
0.0
 11
892.600683
 21
-31.484642
 31
0.0
  0
LINE
  8
0
  6
BYLAYER
 62
     7
 10
843.600683
 20
-33.484642
 30
0.0
 11
892.600667
 21
-33.484642
 31
0.0
  0
LINE
  8
0
  6
BYLAYER
 62
     7
 10
941.600667
 20
-33.484520
 30
0.0
 11
892.600667
 21
-33.484642
 31
0.0
  0
LINE
  8
0
  6
BYLAYER
 62
     7
 10
843.600683
 20
-31.484642
 30
0.0
 11
843.600683
 21
-33.484642
 31
0.0
  0
LINE
  8
0
  6
BYLAYER
 62
     7
 10
893.600683
 20
-124.484642
 30
0.0
 11
893.600683
 21
-132.484642
 31
0.0
  0
LINE
  8
0
  6
BYLAYER
 62
     7
 10
893.600683
 20
-114.484642
 30
0.0
 11
893.600683
 21
-122.484642
 31
0.0
  0
LINE
  8
0
  6
BYLAYER
 62
     7
 10
901.600683
 20
-122.484642
 30
0.0
 11
901.600683
 21
-114.484642
 31
0.0
  0
LINE
  8
0
  6
BYLAYER
 62
     7
 10
903.600683
 20
-122.484642
 30
0.0
 11
903.600683
 21
-114.484642
 31
0.0
  0
LINE
  8
0
  6
BYLAYER
 62
     7
 10
893.600683
 20
-132.484642
 30
0.0
 11
901.600683
 21
-132.484642
 31
0.0
  0
LINE
  8
0
  6
BYLAYER
 62
     7
 10
893.600683
 20
-124.484642
 30
0.0
 11
901.600683
 21
-124.484642
 31
0.0
  0
LINE
  8
0
  6
BYLAYER
 62
     7
 10
903.600683
 20
-122.484642
 30
0.0
 11
911.438682
 21
-122.484642
 31
0.0
  0
LINE
  8
0
  6
BYLAYER
 62
     7
 10
893.600683
 20
-122.484642
 30
0.0
 11
901.600683
 21
-122.484642
 31
0.0
  0
LINE
  8
0
  6
BYLAYER
 62
     7
 10
903.600683
 20
-114.484642
 30
0.0
 11
911.438682
 21
-114.484642
 31
0.0
  0
LINE
  8
0
  6
BYLAYER
 62
     7
 10
893.600683
 20
-114.484642
 30
0.0
 11
901.600683
 21
-114.484642
 31
0.0
  0
LINE
  8
0
  6
BYLAYER
 62
     7
 10
911.438682
 20
-122.484642
 30
0.0
 11
911.438682
 21
-114.484642
 31
0.0
  0
LINE
  8
0
  6
BYLAYER
 62
     7
 10
901.600683
 20
-132.484642
 30
0.0
 11
901.600683
 21
-124.484642
 31
0.0
  0
LINE
  8
0
  6
BYLAYER
 62
     7
 10
903.600683
 20
-124.484642
 30
0.0
 11
903.600683
 21
-132.484642
 31
0.0
  0
LINE
  8
0
  6
BYLAYER
 62
     7
 10
903.600683
 20
-132.484642
 30
0.0
 11
911.600683
 21
-132.484642
 31
0.0
  0
LINE
  8
0
  6
BYLAYER
 62
     7
 10
903.600683
 20
-124.484642
 30
0.0
 11
911.600683
 21
-124.484642
 31
0.0
  0
LINE
  8
0
  6
BYLAYER
 62
     7
 10
911.600683
 20
-132.484642
 30
0.0
 11
911.600683
 21
-124.484642
 31
0.0
  0
LINE
  8
0
  6
BYLAYER
 62
     7
 10
913.600683
 20
-142.484642
 30
0.0
 11
921.600683
 21
-142.484642
 31
0.0
  0
LINE
  8
0
  6
BYLAYER
 62
     7
 10
913.600683
 20
-124.484642
 30
0.0
 11
913.600683
 21
-132.484642
 31
0.0
  0
LINE
  8
0
  6
BYLAYER
 62
     7
 10
913.600683
 20
-134.484642
 30
0.0
 11
913.600683
 21
-142.484642
 31
0.0
  0
LINE
  8
0
  6
BYLAYER
 62
     7
 10
913.600683
 20
-134.484642
 30
0.0
 11
921.600683
 21
-134.484642
 31
0.0
  0
LINE
  8
0
  6
BYLAYER
 62
     7
 10
913.600683
 20
-132.484642
 30
0.0
 11
921.600683
 21
-132.484642
 31
0.0
  0
LINE
  8
0
  6
BYLAYER
 62
     7
 10
913.600683
 20
-124.484642
 30
0.0
 11
921.600683
 21
-124.484642
 31
0.0
  0
LINE
  8
0
  6
BYLAYER
 62
     7
 10
921.600683
 20
-142.484642
 30
0.0
 11
921.600683
 21
-134.484642
 31
0.0
  0
LINE
  8
0
  6
BYLAYER
 62
     7
 10
921.600683
 20
-132.484642
 30
0.0
 11
921.600683
 21
-124.484642
 31
0.0
  0
LINE
  8
0
  6
BYLAYER
 62
     7
 10
913.600683
 20
-152.484642
 30
0.0
 11
921.600683
 21
-152.484642
 31
0.0
  0
LINE
  8
0
  6
BYLAYER
 62
     7
 10
913.600683
 20
-144.484642
 30
0.0
 11
913.600683
 21
-152.484642
 31
0.0
  0
LINE
  8
0
  6
BYLAYER
 62
     7
 10
913.600683
 20
-144.484642
 30
0.0
 11
921.600683
 21
-144.484642
 31
0.0
  0
LINE
  8
0
  6
BYLAYER
 62
     7
 10
921.600683
 20
-152.484642
 30
0.0
 11
921.600683
 21
-144.484642
 31
0.0
  0
LINE
  8
0
  6
BYLAYER
 62
     7
 10
923.600683
 20
-142.484642
 30
0.0
 11
931.600683
 21
-142.484642
 31
0.0
  0
LINE
  8
0
  6
BYLAYER
 62
     7
 10
923.600683
 20
-134.484642
 30
0.0
 11
923.600683
 21
-142.484642
 31
0.0
  0
LINE
  8
0
  6
BYLAYER
 62
     7
 10
923.600683
 20
-134.484642
 30
0.0
 11
931.600683
 21
-134.484642
 31
0.0
  0
LINE
  8
0
  6
BYLAYER
 62
     7
 10
931.600683
 20
-142.484642
 30
0.0
 11
931.600683
 21
-134.484642
 31
0.0
  0
LINE
  8
0
  6
BYLAYER
 62
     7
 10
923.600683
 20
-152.484642
 30
0.0
 11
931.600683
 21
-152.484642
 31
0.0
  0
LINE
  8
0
  6
BYLAYER
 62
     7
 10
923.600683
 20
-144.484642
 30
0.0
 11
923.600683
 21
-152.484642
 31
0.0
  0
LINE
  8
0
  6
BYLAYER
 62
     7
 10
923.600683
 20
-144.484642
 30
0.0
 11
931.600683
 21
-144.484642
 31
0.0
  0
LINE
  8
0
  6
BYLAYER
 62
     7
 10
931.600683
 20
-152.484642
 30
0.0
 11
931.600683
 21
-144.484642
 31
0.0
  0
LINE
  8
0
  6
BYLAYER
 62
     7
 10
933.600683
 20
-142.484642
 30
0.0
 11
941.600683
 21
-142.484642
 31
0.0
  0
LINE
  8
0
  6
BYLAYER
 62
     7
 10
933.600683
 20
-134.484642
 30
0.0
 11
933.600683
 21
-142.484642
 31
0.0
  0
LINE
  8
0
  6
BYLAYER
 62
     7
 10
933.600683
 20
-134.484642
 30
0.0
 11
941.600683
 21
-134.484642
 31
0.0
  0
LINE
  8
0
  6
BYLAYER
 62
     7
 10
941.600683
 20
-142.484642
 30
0.0
 11
941.600683
 21
-134.484642
 31
0.0
  0
LINE
  8
0
  6
BYLAYER
 62
     7
 10
933.600683
 20
-152.484642
 30
0.0
 11
941.600683
 21
-152.484642
 31
0.0
  0
LINE
  8
0
  6
BYLAYER
 62
     7
 10
933.600683
 20
-144.484642
 30
0.0
 11
933.600683
 21
-152.484642
 31
0.0
  0
LINE
  8
0
  6
BYLAYER
 62
     7
 10
933.600683
 20
-144.484642
 30
0.0
 11
941.600683
 21
-144.484642
 31
0.0
  0
LINE
  8
0
  6
BYLAYER
 62
     7
 10
941.600683
 20
-152.484642
 30
0.0
 11
941.600683
 21
-144.484642
 31
0.0
  0
LINE
  8
0
  6
BYLAYER
 62
     7
 10
893.600683
 20
-104.484642
 30
0.0
 11
893.600683
 21
-112.484642
 31
0.0
  0
LINE
  8
0
  6
BYLAYER
 62
     7
 10
901.600683
 20
-112.484642
 30
0.0
 11
901.600683
 21
-104.484642
 31
0.0
  0
LINE
  8
0
  6
BYLAYER
 62
     7
 10
903.600683
 20
-112.484642
 30
0.0
 11
903.600683
 21
-104.484642
 31
0.0
  0
LINE
  8
0
  6
BYLAYER
 62
     7
 10
903.600683
 20
-112.484642
 30
0.0
 11
911.438682
 21
-112.484642
 31
0.0
  0
LINE
  8
0
  6
BYLAYER
 62
     7
 10
893.600683
 20
-112.484642
 30
0.0
 11
901.600683
 21
-112.484642
 31
0.0
  0
LINE
  8
0
  6
BYLAYER
 62
     7
 10
903.600683
 20
-104.484642
 30
0.0
 11
911.438682
 21
-104.484642
 31
0.0
  0
LINE
  8
0
  6
BYLAYER
 62
     7
 10
893.600683
 20
-104.484642
 30
0.0
 11
901.600683
 21
-104.484642
 31
0.0
  0
LINE
  8
0
  6
BYLAYER
 62
     7
 10
911.438682
 20
-112.484642
 30
0.0
 11
911.438682
 21
-104.484642
 31
0.0
  0
LINE
  8
0
  6
BYLAYER
 62
     7
 10
913.600683
 20
-114.484642
 30
0.0
 11
913.600683
 21
-122.484642
 31
0.0
  0
LINE
  8
0
  6
BYLAYER
 62
     7
 10
913.600683
 20
-122.484642
 30
0.0
 11
921.600683
 21
-122.484642
 31
0.0
  0
LINE
  8
0
  6
BYLAYER
 62
     7
 10
913.600683
 20
-114.484642
 30
0.0
 11
921.600683
 21
-114.484642
 31
0.0
  0
LINE
  8
0
  6
BYLAYER
 62
     7
 10
921.600683
 20
-122.484642
 30
0.0
 11
921.600683
 21
-114.484642
 31
0.0
  0
LINE
  8
0
  6
BYLAYER
 62
     7
 10
913.600683
 20
-104.484642
 30
0.0
 11
913.600683
 21
-112.484642
 31
0.0
  0
LINE
  8
0
  6
BYLAYER
 62
     7
 10
913.600683
 20
-112.484642
 30
0.0
 11
921.600683
 21
-112.484642
 31
0.0
  0
LINE
  8
0
  6
BYLAYER
 62
     7
 10
913.600683
 20
-104.484642
 30
0.0
 11
921.600683
 21
-104.484642
 31
0.0
  0
LINE
  8
0
  6
BYLAYER
 62
     7
 10
921.600683
 20
-112.484642
 30
0.0
 11
921.600683
 21
-104.484642
 31
0.0
  0
LINE
  8
0
  6
BYLAYER
 62
     7
 10
923.600683
 20
-124.484642
 30
0.0
 11
923.600683
 21
-132.484642
 31
0.0
  0
LINE
  8
0
  6
BYLAYER
 62
     7
 10
923.600683
 20
-132.484642
 30
0.0
 11
931.600683
 21
-132.484642
 31
0.0
  0
LINE
  8
0
  6
BYLAYER
 62
     7
 10
923.600683
 20
-124.484642
 30
0.0
 11
931.600683
 21
-124.484642
 31
0.0
  0
LINE
  8
0
  6
BYLAYER
 62
     7
 10
931.600683
 20
-132.484642
 30
0.0
 11
931.600683
 21
-124.484642
 31
0.0
  0
LINE
  8
0
  6
BYLAYER
 62
     7
 10
923.600683
 20
-114.484642
 30
0.0
 11
923.600683
 21
-122.484642
 31
0.0
  0
LINE
  8
0
  6
BYLAYER
 62
     7
 10
923.600683
 20
-122.484642
 30
0.0
 11
931.600683
 21
-122.484642
 31
0.0
  0
LINE
  8
0
  6
BYLAYER
 62
     7
 10
923.600683
 20
-114.484642
 30
0.0
 11
931.600683
 21
-114.484642
 31
0.0
  0
LINE
  8
0
  6
BYLAYER
 62
     7
 10
931.600683
 20
-122.484642
 30
0.0
 11
931.600683
 21
-114.484642
 31
0.0
  0
LINE
  8
0
  6
BYLAYER
 62
     7
 10
933.600683
 20
-124.484642
 30
0.0
 11
933.600683
 21
-132.484642
 31
0.0
  0
LINE
  8
0
  6
BYLAYER
 62
     7
 10
933.600683
 20
-132.484642
 30
0.0
 11
941.600683
 21
-132.484642
 31
0.0
  0
LINE
  8
0
  6
BYLAYER
 62
     7
 10
933.600683
 20
-124.484642
 30
0.0
 11
941.600683
 21
-124.484642
 31
0.0
  0
LINE
  8
0
  6
BYLAYER
 62
     7
 10
941.600683
 20
-132.484642
 30
0.0
 11
941.600683
 21
-124.484642
 31
0.0
  0
CIRCLE
  8
0
  6
BYLAYER
 62
     7
 10
892.600683
 20
-153.484642
 30
0.0
 40
4.0
  0
LINE
  8
0
  6
BYLAYER
 62
     7
 10
943.600683
 20
-142.484642
 30
0.0
 11
951.600683
 21
-142.484642
 31
0.0
  0
LINE
  8
0
  6
BYLAYER
 62
     7
 10
943.600683
 20
-134.484642
 30
0.0
 11
943.600683
 21
-142.484642
 31
0.0
  0
LINE
  8
0
  6
BYLAYER
 62
     7
 10
943.600683
 20
-134.484642
 30
0.0
 11
951.600683
 21
-134.484642
 31
0.0
  0
LINE
  8
0
  6
BYLAYER
 62
     7
 10
951.600683
 20
-142.484642
 30
0.0
 11
951.600683
 21
-134.484642
 31
0.0
  0
LINE
  8
0
  6
BYLAYER
 62
     7
 10
943.600683
 20
-152.484642
 30
0.0
 11
951.600683
 21
-152.484642
 31
0.0
  0
LINE
  8
0
  6
BYLAYER
 62
     7
 10
943.600683
 20
-144.484642
 30
0.0
 11
943.600683
 21
-152.484642
 31
0.0
  0
LINE
  8
0
  6
BYLAYER
 62
     7
 10
943.600683
 20
-144.484642
 30
0.0
 11
951.600683
 21
-144.484642
 31
0.0
  0
LINE
  8
0
  6
BYLAYER
 62
     7
 10
951.600683
 20
-152.484642
 30
0.0
 11
951.600683
 21
-144.484642
 31
0.0
  0
LINE
  8
0
  6
BYLAYER
 62
     7
 10
943.600683
 20
-124.484642
 30
0.0
 11
943.600683
 21
-132.484642
 31
0.0
  0
LINE
  8
0
  6
BYLAYER
 62
     7
 10
943.600683
 20
-132.484642
 30
0.0
 11
951.600683
 21
-132.484642
 31
0.0
  0
LINE
  8
0
  6
BYLAYER
 62
     7
 10
943.600683
 20
-124.484642
 30
0.0
 11
951.600683
 21
-124.484642
 31
0.0
  0
LINE
  8
0
  6
BYLAYER
 62
     7
 10
951.600683
 20
-132.484642
 30
0.0
 11
951.600683
 21
-124.484642
 31
0.0
  0
LINE
  8
0
  6
BYLAYER
 62
     7
 10
893.600683
 20
-94.484642
 30
0.0
 11
893.600683
 21
-102.484642
 31
0.0
  0
LINE
  8
0
  6
BYLAYER
 62
     7
 10
901.600683
 20
-102.484642
 30
0.0
 11
901.600683
 21
-94.484642
 31
0.0
  0
LINE
  8
0
  6
BYLAYER
 62
     7
 10
903.600683
 20
-102.484642
 30
0.0
 11
903.600683
 21
-94.484642
 31
0.0
  0
LINE
  8
0
  6
BYLAYER
 62
     7
 10
903.600683
 20
-102.484642
 30
0.0
 11
911.438682
 21
-102.484642
 31
0.0
  0
LINE
  8
0
  6
BYLAYER
 62
     7
 10
893.600683
 20
-102.484642
 30
0.0
 11
901.600683
 21
-102.484642
 31
0.0
  0
LINE
  8
0
  6
BYLAYER
 62
     7
 10
903.600683
 20
-94.484642
 30
0.0
 11
911.438682
 21
-94.484642
 31
0.0
  0
LINE
  8
0
  6
BYLAYER
 62
     7
 10
893.600683
 20
-94.484642
 30
0.0
 11
901.600683
 21
-94.484642
 31
0.0
  0
LINE
  8
0
  6
BYLAYER
 62
     7
 10
911.438682
 20
-102.484642
 30
0.0
 11
911.438682
 21
-94.484642
 31
0.0
  0
LINE
  8
0
  6
BYLAYER
 62
     7
 10
913.600683
 20
-94.484642
 30
0.0
 11
913.600683
 21
-102.484642
 31
0.0
  0
LINE
  8
0
  6
BYLAYER
 62
     7
 10
913.600683
 20
-102.484642
 30
0.0
 11
921.600683
 21
-102.484642
 31
0.0
  0
LINE
  8
0
  6
BYLAYER
 62
     7
 10
913.600683
 20
-94.484642
 30
0.0
 11
921.600683
 21
-94.484642
 31
0.0
  0
LINE
  8
0
  6
BYLAYER
 62
     7
 10
921.600683
 20
-102.484642
 30
0.0
 11
921.600683
 21
-94.484642
 31
0.0
  0
LINE
  8
0
  6
BYLAYER
 62
     7
 10
923.600683
 20
-104.484642
 30
0.0
 11
923.600683
 21
-112.484642
 31
0.0
  0
LINE
  8
0
  6
BYLAYER
 62
     7
 10
923.600683
 20
-112.484642
 30
0.0
 11
931.600683
 21
-112.484642
 31
0.0
  0
LINE
  8
0
  6
BYLAYER
 62
     7
 10
923.600683
 20
-104.484642
 30
0.0
 11
931.600683
 21
-104.484642
 31
0.0
  0
LINE
  8
0
  6
BYLAYER
 62
     7
 10
931.600683
 20
-112.484642
 30
0.0
 11
931.600683
 21
-104.484642
 31
0.0
  0
LINE
  8
0
  6
BYLAYER
 62
     7
 10
933.600683
 20
-114.484642
 30
0.0
 11
933.600683
 21
-122.484642
 31
0.0
  0
LINE
  8
0
  6
BYLAYER
 62
     7
 10
933.600683
 20
-122.484642
 30
0.0
 11
941.600683
 21
-122.484642
 31
0.0
  0
LINE
  8
0
  6
BYLAYER
 62
     7
 10
933.600683
 20
-114.484642
 30
0.0
 11
941.600683
 21
-114.484642
 31
0.0
  0
LINE
  8
0
  6
BYLAYER
 62
     7
 10
941.600683
 20
-122.484642
 30
0.0
 11
941.600683
 21
-114.484642
 31
0.0
  0
LINE
  8
0
  6
BYLAYER
 62
     7
 10
893.600683
 20
-84.484642
 30
0.0
 11
893.600683
 21
-92.484642
 31
0.0
  0
LINE
  8
0
  6
BYLAYER
 62
     7
 10
901.600683
 20
-92.484642
 30
0.0
 11
901.600683
 21
-84.484642
 31
0.0
  0
LINE
  8
0
  6
BYLAYER
 62
     7
 10
903.600683
 20
-92.484642
 30
0.0
 11
903.600683
 21
-84.484642
 31
0.0
  0
LINE
  8
0
  6
BYLAYER
 62
     7
 10
903.600683
 20
-92.484642
 30
0.0
 11
911.438682
 21
-92.484642
 31
0.0
  0
LINE
  8
0
  6
BYLAYER
 62
     7
 10
893.600683
 20
-92.484642
 30
0.0
 11
901.600683
 21
-92.484642
 31
0.0
  0
LINE
  8
0
  6
BYLAYER
 62
     7
 10
903.600683
 20
-84.484642
 30
0.0
 11
911.438682
 21
-84.484642
 31
0.0
  0
LINE
  8
0
  6
BYLAYER
 62
     7
 10
893.600683
 20
-84.484642
 30
0.0
 11
901.600683
 21
-84.484642
 31
0.0
  0
LINE
  8
0
  6
BYLAYER
 62
     7
 10
911.438682
 20
-92.484642
 30
0.0
 11
911.438682
 21
-84.484642
 31
0.0
  0
LINE
  8
0
  6
BYLAYER
 62
     7
 10
953.600683
 20
-142.484642
 30
0.0
 11
961.600683
 21
-142.484642
 31
0.0
  0
LINE
  8
0
  6
BYLAYER
 62
     7
 10
953.600683
 20
-134.484642
 30
0.0
 11
953.600683
 21
-142.484642
 31
0.0
  0
LINE
  8
0
  6
BYLAYER
 62
     7
 10
953.600683
 20
-134.484642
 30
0.0
 11
961.600683
 21
-134.484642
 31
0.0
  0
LINE
  8
0
  6
BYLAYER
 62
     7
 10
961.600683
 20
-142.484642
 30
0.0
 11
961.600683
 21
-134.484642
 31
0.0
  0
LINE
  8
0
  6
BYLAYER
 62
     7
 10
953.600683
 20
-152.484642
 30
0.0
 11
961.600683
 21
-152.484642
 31
0.0
  0
LINE
  8
0
  6
BYLAYER
 62
     7
 10
953.600683
 20
-144.484642
 30
0.0
 11
953.600683
 21
-152.484642
 31
0.0
  0
LINE
  8
0
  6
BYLAYER
 62
     7
 10
953.600683
 20
-144.484642
 30
0.0
 11
961.600683
 21
-144.484642
 31
0.0
  0
LINE
  8
0
  6
BYLAYER
 62
     7
 10
961.600683
 20
-152.484642
 30
0.0
 11
961.600683
 21
-144.484642
 31
0.0
  0
LINE
  8
0
  6
BYLAYER
 62
     7
 10
923.600683
 20
-94.484642
 30
0.0
 11
923.600683
 21
-102.484642
 31
0.0
  0
LINE
  8
0
  6
BYLAYER
 62
     7
 10
923.600683
 20
-102.484642
 30
0.0
 11
931.600683
 21
-102.484642
 31
0.0
  0
LINE
  8
0
  6
BYLAYER
 62
     7
 10
923.600683
 20
-94.484642
 30
0.0
 11
931.600683
 21
-94.484642
 31
0.0
  0
LINE
  8
0
  6
BYLAYER
 62
     7
 10
931.600683
 20
-102.484642
 30
0.0
 11
931.600683
 21
-94.484642
 31
0.0
  0
LINE
  8
0
  6
BYLAYER
 62
     7
 10
933.600683
 20
-104.484642
 30
0.0
 11
933.600683
 21
-112.484642
 31
0.0
  0
LINE
  8
0
  6
BYLAYER
 62
     7
 10
933.600683
 20
-112.484642
 30
0.0
 11
941.600683
 21
-112.484642
 31
0.0
  0
LINE
  8
0
  6
BYLAYER
 62
     7
 10
933.600683
 20
-104.484642
 30
0.0
 11
941.600683
 21
-104.484642
 31
0.0
  0
LINE
  8
0
  6
BYLAYER
 62
     7
 10
941.600683
 20
-112.484642
 30
0.0
 11
941.600683
 21
-104.484642
 31
0.0
  0
LINE
  8
0
  6
BYLAYER
 62
     7
 10
943.600683
 20
-114.484642
 30
0.0
 11
943.600683
 21
-122.484642
 31
0.0
  0
LINE
  8
0
  6
BYLAYER
 62
     7
 10
943.600683
 20
-122.484642
 30
0.0
 11
951.600683
 21
-122.484642
 31
0.0
  0
LINE
  8
0
  6
BYLAYER
 62
     7
 10
943.600683
 20
-114.484642
 30
0.0
 11
951.600683
 21
-114.484642
 31
0.0
  0
LINE
  8
0
  6
BYLAYER
 62
     7
 10
951.600683
 20
-122.484642
 30
0.0
 11
951.600683
 21
-114.484642
 31
0.0
  0
LINE
  8
0
  6
BYLAYER
 62
     7
 10
893.600683
 20
-74.484642
 30
0.0
 11
893.600683
 21
-82.484642
 31
0.0
  0
LINE
  8
0
  6
BYLAYER
 62
     7
 10
901.600683
 20
-82.484642
 30
0.0
 11
901.600683
 21
-74.484642
 31
0.0
  0
LINE
  8
0
  6
BYLAYER
 62
     7
 10
893.600683
 20
-82.484642
 30
0.0
 11
901.600683
 21
-82.484642
 31
0.0
  0
LINE
  8
0
  6
BYLAYER
 62
     7
 10
893.600683
 20
-74.484642
 30
0.0
 11
901.600683
 21
-74.484642
 31
0.0
  0
LINE
  8
0
  6
BYLAYER
 62
     7
 10
963.600683
 20
-152.484642
 30
0.0
 11
971.600683
 21
-152.484642
 31
0.0
  0
LINE
  8
0
  6
BYLAYER
 62
     7
 10
963.600683
 20
-144.484642
 30
0.0
 11
963.600683
 21
-152.484642
 31
0.0
  0
LINE
  8
0
  6
BYLAYER
 62
     7
 10
963.600683
 20
-144.484642
 30
0.0
 11
971.600683
 21
-144.484642
 31
0.0
  0
LINE
  8
0
  6
BYLAYER
 62
     7
 10
971.600683
 20
-152.484642
 30
0.0
 11
971.600683
 21
-144.484642
 31
0.0
  0
LINE
  8
0
  6
BYLAYER
 62
     7
 10
913.600683
 20
-84.484642
 30
0.0
 11
913.600683
 21
-92.484642
 31
0.0
  0
LINE
  8
0
  6
BYLAYER
 62
     7
 10
913.600683
 20
-92.484642
 30
0.0
 11
921.600683
 21
-92.484642
 31
0.0
  0
LINE
  8
0
  6
BYLAYER
 62
     7
 10
913.600683
 20
-84.484642
 30
0.0
 11
921.600683
 21
-84.484642
 31
0.0
  0
LINE
  8
0
  6
BYLAYER
 62
     7
 10
921.600683
 20
-92.484642
 30
0.0
 11
921.600683
 21
-84.484642
 31
0.0
  0
LINE
  8
0
  6
BYLAYER
 62
     7
 10
953.600683
 20
-124.484642
 30
0.0
 11
953.600683
 21
-132.484642
 31
0.0
  0
LINE
  8
0
  6
BYLAYER
 62
     7
 10
953.600683
 20
-132.484642
 30
0.0
 11
961.600683
 21
-132.484642
 31
0.0
  0
LINE
  8
0
  6
BYLAYER
 62
     7
 10
953.600683
 20
-124.484642
 30
0.0
 11
961.600683
 21
-124.484642
 31
0.0
  0
LINE
  8
0
  6
BYLAYER
 62
     7
 10
961.600683
 20
-132.484642
 30
0.0
 11
961.600683
 21
-124.484642
 31
0.0
  0
CIRCLE
  8
0
  6
BYLAYER
 62
     7
 10
892.600683
 20
-153.484642
 30
0.0
 40
84.000549
  0
CIRCLE
  8
0
  6
BYLAYER
 62
     7
 10
892.600683
 20
-153.484642
 30
0.0
 40
105.400549
  0
LINE
  8
0
  6
BYLAYER
 62
     7
 10
923.600683
 20
-84.484642
 30
0.0
 11
923.600683
 21
-92.484642
 31
0.0
  0
LINE
  8
0
  6
BYLAYER
 62
     7
 10
923.600683
 20
-92.484642
 30
0.0
 11
931.600683
 21
-92.484642
 31
0.0
  0
LINE
  8
0
  6
BYLAYER
 62
     7
 10
923.600683
 20
-84.484642
 30
0.0
 11
931.600683
 21
-84.484642
 31
0.0
  0
LINE
  8
0
  6
BYLAYER
 62
     7
 10
931.600683
 20
-92.484642
 30
0.0
 11
931.600683
 21
-84.484642
 31
0.0
  0
LINE
  8
0
  6
BYLAYER
 62
     7
 10
933.600683
 20
-94.484642
 30
0.0
 11
933.600683
 21
-102.484642
 31
0.0
  0
LINE
  8
0
  6
BYLAYER
 62
     7
 10
933.600683
 20
-102.484642
 30
0.0
 11
941.600683
 21
-102.484642
 31
0.0
  0
LINE
  8
0
  6
BYLAYER
 62
     7
 10
933.600683
 20
-94.484642
 30
0.0
 11
941.600683
 21
-94.484642
 31
0.0
  0
LINE
  8
0
  6
BYLAYER
 62
     7
 10
941.600683
 20
-102.484642
 30
0.0
 11
941.600683
 21
-94.484642
 31
0.0
  0
LINE
  8
0
  6
BYLAYER
 62
     7
 10
943.600683
 20
-104.484642
 30
0.0
 11
943.600683
 21
-112.484642
 31
0.0
  0
LINE
  8
0
  6
BYLAYER
 62
     7
 10
943.600683
 20
-112.484642
 30
0.0
 11
951.600683
 21
-112.484642
 31
0.0
  0
LINE
  8
0
  6
BYLAYER
 62
     7
 10
943.600683
 20
-104.484642
 30
0.0
 11
951.600683
 21
-104.484642
 31
0.0
  0
LINE
  8
0
  6
BYLAYER
 62
     7
 10
951.600683
 20
-112.484642
 30
0.0
 11
951.600683
 21
-104.484642
 31
0.0
  0
LINE
  8
0
  6
BYLAYER
 62
     7
 10
953.600683
 20
-114.484642
 30
0.0
 11
953.600683
 21
-122.484642
 31
0.0
  0
LINE
  8
0
  6
BYLAYER
 62
     7
 10
953.600683
 20
-122.484642
 30
0.0
 11
961.600683
 21
-122.484642
 31
0.0
  0
LINE
  8
0
  6
BYLAYER
 62
     7
 10
953.600683
 20
-114.484642
 30
0.0
 11
961.600683
 21
-114.484642
 31
0.0
  0
LINE
  8
0
  6
BYLAYER
 62
     7
 10
961.600683
 20
-122.484642
 30
0.0
 11
961.600683
 21
-114.484642
 31
0.0
  0
LINE
  8
0
  6
BYLAYER
 62
     7
 10
903.600683
 20
-82.484642
 30
0.0
 11
903.600683
 21
-74.484642
 31
0.0
  0
LINE
  8
0
  6
BYLAYER
 62
     7
 10
903.600683
 20
-82.484642
 30
0.0
 11
911.438682
 21
-82.484642
 31
0.0
  0
LINE
  8
0
  6
BYLAYER
 62
     7
 10
903.600683
 20
-74.484642
 30
0.0
 11
911.438682
 21
-74.484642
 31
0.0
  0
LINE
  8
0
  6
BYLAYER
 62
     7
 10
911.438682
 20
-82.484642
 30
0.0
 11
911.438682
 21
-74.484642
 31
0.0
  0
LINE
  8
0
  6
BYLAYER
 62
     7
 10
963.600683
 20
-142.484642
 30
0.0
 11
971.600683
 21
-142.484642
 31
0.0
  0
LINE
  8
0
  6
BYLAYER
 62
     7
 10
963.600683
 20
-134.484642
 30
0.0
 11
963.600683
 21
-142.484642
 31
0.0
  0
LINE
  8
0
  6
BYLAYER
 62
     7
 10
963.600683
 20
-134.484642
 30
0.0
 11
971.600683
 21
-134.484642
 31
0.0
  0
LINE
  8
0
  6
BYLAYER
 62
     7
 10
971.600683
 20
-142.484642
 30
0.0
 11
971.600683
 21
-134.484642
 31
0.0
  0
LINE
  8
0
  6
BYLAYER
 62
     7
 10
893.600683
 20
-182.484642
 30
0.0
 11
893.600683
 21
-174.484642
 31
0.0
  0
LINE
  8
0
  6
BYLAYER
 62
     7
 10
893.600683
 20
-192.484642
 30
0.0
 11
893.600683
 21
-184.484642
 31
0.0
  0
LINE
  8
0
  6
BYLAYER
 62
     7
 10
901.600683
 20
-184.484642
 30
0.0
 11
901.600683
 21
-192.484642
 31
0.0
  0
LINE
  8
0
  6
BYLAYER
 62
     7
 10
903.600683
 20
-184.484642
 30
0.0
 11
903.600683
 21
-192.484642
 31
0.0
  0
LINE
  8
0
  6
BYLAYER
 62
     7
 10
893.600683
 20
-174.484642
 30
0.0
 11
901.600683
 21
-174.484642
 31
0.0
  0
LINE
  8
0
  6
BYLAYER
 62
     7
 10
893.600683
 20
-182.484642
 30
0.0
 11
901.600683
 21
-182.484642
 31
0.0
  0
LINE
  8
0
  6
BYLAYER
 62
     7
 10
903.600683
 20
-184.484642
 30
0.0
 11
911.438682
 21
-184.484642
 31
0.0
  0
LINE
  8
0
  6
BYLAYER
 62
     7
 10
893.600683
 20
-184.484642
 30
0.0
 11
901.600683
 21
-184.484642
 31
0.0
  0
LINE
  8
0
  6
BYLAYER
 62
     7
 10
903.600683
 20
-192.484642
 30
0.0
 11
911.438682
 21
-192.484642
 31
0.0
  0
LINE
  8
0
  6
BYLAYER
 62
     7
 10
893.600683
 20
-192.484642
 30
0.0
 11
901.600683
 21
-192.484642
 31
0.0
  0
LINE
  8
0
  6
BYLAYER
 62
     7
 10
911.438682
 20
-184.484642
 30
0.0
 11
911.438682
 21
-192.484642
 31
0.0
  0
LINE
  8
0
  6
BYLAYER
 62
     7
 10
901.600683
 20
-174.484642
 30
0.0
 11
901.600683
 21
-182.484642
 31
0.0
  0
LINE
  8
0
  6
BYLAYER
 62
     7
 10
903.600683
 20
-182.484642
 30
0.0
 11
903.600683
 21
-174.484642
 31
0.0
  0
LINE
  8
0
  6
BYLAYER
 62
     7
 10
903.600683
 20
-174.484642
 30
0.0
 11
911.600683
 21
-174.484642
 31
0.0
  0
LINE
  8
0
  6
BYLAYER
 62
     7
 10
903.600683
 20
-182.484642
 30
0.0
 11
911.600683
 21
-182.484642
 31
0.0
  0
LINE
  8
0
  6
BYLAYER
 62
     7
 10
911.600683
 20
-174.484642
 30
0.0
 11
911.600683
 21
-182.484642
 31
0.0
  0
LINE
  8
0
  6
BYLAYER
 62
     7
 10
913.600683
 20
-164.484642
 30
0.0
 11
921.600683
 21
-164.484642
 31
0.0
  0
LINE
  8
0
  6
BYLAYER
 62
     7
 10
913.600683
 20
-182.484642
 30
0.0
 11
913.600683
 21
-174.484642
 31
0.0
  0
LINE
  8
0
  6
BYLAYER
 62
     7
 10
913.600683
 20
-172.484642
 30
0.0
 11
913.600683
 21
-164.484642
 31
0.0
  0
LINE
  8
0
  6
BYLAYER
 62
     7
 10
913.600683
 20
-172.484642
 30
0.0
 11
921.600683
 21
-172.484642
 31
0.0
  0
LINE
  8
0
  6
BYLAYER
 62
     7
 10
913.600683
 20
-174.484642
 30
0.0
 11
921.600683
 21
-174.484642
 31
0.0
  0
LINE
  8
0
  6
BYLAYER
 62
     7
 10
913.600683
 20
-182.484642
 30
0.0
 11
921.600683
 21
-182.484642
 31
0.0
  0
LINE
  8
0
  6
BYLAYER
 62
     7
 10
921.600683
 20
-164.484642
 30
0.0
 11
921.600683
 21
-172.484642
 31
0.0
  0
LINE
  8
0
  6
BYLAYER
 62
     7
 10
921.600683
 20
-174.484642
 30
0.0
 11
921.600683
 21
-182.484642
 31
0.0
  0
LINE
  8
0
  6
BYLAYER
 62
     7
 10
913.600683
 20
-154.484642
 30
0.0
 11
921.600683
 21
-154.484642
 31
0.0
  0
LINE
  8
0
  6
BYLAYER
 62
     7
 10
913.600683
 20
-162.484642
 30
0.0
 11
913.600683
 21
-154.484642
 31
0.0
  0
LINE
  8
0
  6
BYLAYER
 62
     7
 10
913.600683
 20
-162.484642
 30
0.0
 11
921.600683
 21
-162.484642
 31
0.0
  0
LINE
  8
0
  6
BYLAYER
 62
     7
 10
921.600683
 20
-154.484642
 30
0.0
 11
921.600683
 21
-162.484642
 31
0.0
  0
LINE
  8
0
  6
BYLAYER
 62
     7
 10
923.600683
 20
-164.484642
 30
0.0
 11
931.600683
 21
-164.484642
 31
0.0
  0
LINE
  8
0
  6
BYLAYER
 62
     7
 10
923.600683
 20
-172.484642
 30
0.0
 11
923.600683
 21
-164.484642
 31
0.0
  0
LINE
  8
0
  6
BYLAYER
 62
     7
 10
923.600683
 20
-172.484642
 30
0.0
 11
931.600683
 21
-172.484642
 31
0.0
  0
LINE
  8
0
  6
BYLAYER
 62
     7
 10
931.600683
 20
-164.484642
 30
0.0
 11
931.600683
 21
-172.484642
 31
0.0
  0
LINE
  8
0
  6
BYLAYER
 62
     7
 10
923.600683
 20
-154.484642
 30
0.0
 11
931.600683
 21
-154.484642
 31
0.0
  0
LINE
  8
0
  6
BYLAYER
 62
     7
 10
923.600683
 20
-162.484642
 30
0.0
 11
923.600683
 21
-154.484642
 31
0.0
  0
LINE
  8
0
  6
BYLAYER
 62
     7
 10
923.600683
 20
-162.484642
 30
0.0
 11
931.600683
 21
-162.484642
 31
0.0
  0
LINE
  8
0
  6
BYLAYER
 62
     7
 10
931.600683
 20
-154.484642
 30
0.0
 11
931.600683
 21
-162.484642
 31
0.0
  0
LINE
  8
0
  6
BYLAYER
 62
     7
 10
933.600683
 20
-164.484642
 30
0.0
 11
941.600683
 21
-164.484642
 31
0.0
  0
LINE
  8
0
  6
BYLAYER
 62
     7
 10
933.600683
 20
-172.484642
 30
0.0
 11
933.600683
 21
-164.484642
 31
0.0
  0
LINE
  8
0
  6
BYLAYER
 62
     7
 10
933.600683
 20
-172.484642
 30
0.0
 11
941.600683
 21
-172.484642
 31
0.0
  0
LINE
  8
0
  6
BYLAYER
 62
     7
 10
941.600683
 20
-164.484642
 30
0.0
 11
941.600683
 21
-172.484642
 31
0.0
  0
LINE
  8
0
  6
BYLAYER
 62
     7
 10
933.600683
 20
-154.484642
 30
0.0
 11
941.600683
 21
-154.484642
 31
0.0
  0
LINE
  8
0
  6
BYLAYER
 62
     7
 10
933.600683
 20
-162.484642
 30
0.0
 11
933.600683
 21
-154.484642
 31
0.0
  0
LINE
  8
0
  6
BYLAYER
 62
     7
 10
933.600683
 20
-162.484642
 30
0.0
 11
941.600683
 21
-162.484642
 31
0.0
  0
LINE
  8
0
  6
BYLAYER
 62
     7
 10
941.600683
 20
-154.484642
 30
0.0
 11
941.600683
 21
-162.484642
 31
0.0
  0
LINE
  8
0
  6
BYLAYER
 62
     7
 10
893.600683
 20
-202.484642
 30
0.0
 11
893.600683
 21
-194.484642
 31
0.0
  0
LINE
  8
0
  6
BYLAYER
 62
     7
 10
901.600683
 20
-194.484642
 30
0.0
 11
901.600683
 21
-202.484642
 31
0.0
  0
LINE
  8
0
  6
BYLAYER
 62
     7
 10
903.600683
 20
-194.484642
 30
0.0
 11
903.600683
 21
-202.484642
 31
0.0
  0
LINE
  8
0
  6
BYLAYER
 62
     7
 10
903.600683
 20
-194.484642
 30
0.0
 11
911.438682
 21
-194.484642
 31
0.0
  0
LINE
  8
0
  6
BYLAYER
 62
     7
 10
893.600683
 20
-194.484642
 30
0.0
 11
901.600683
 21
-194.484642
 31
0.0
  0
LINE
  8
0
  6
BYLAYER
 62
     7
 10
903.600683
 20
-202.484642
 30
0.0
 11
911.438682
 21
-202.484642
 31
0.0
  0
LINE
  8
0
  6
BYLAYER
 62
     7
 10
893.600683
 20
-202.484642
 30
0.0
 11
901.600683
 21
-202.484642
 31
0.0
  0
LINE
  8
0
  6
BYLAYER
 62
     7
 10
911.438682
 20
-194.484642
 30
0.0
 11
911.438682
 21
-202.484642
 31
0.0
  0
LINE
  8
0
  6
BYLAYER
 62
     7
 10
913.600683
 20
-192.484642
 30
0.0
 11
913.600683
 21
-184.484642
 31
0.0
  0
LINE
  8
0
  6
BYLAYER
 62
     7
 10
913.600683
 20
-184.484642
 30
0.0
 11
921.600683
 21
-184.484642
 31
0.0
  0
LINE
  8
0
  6
BYLAYER
 62
     7
 10
913.600683
 20
-192.484642
 30
0.0
 11
921.600683
 21
-192.484642
 31
0.0
  0
LINE
  8
0
  6
BYLAYER
 62
     7
 10
921.600683
 20
-184.484642
 30
0.0
 11
921.600683
 21
-192.484642
 31
0.0
  0
LINE
  8
0
  6
BYLAYER
 62
     7
 10
913.600683
 20
-202.484642
 30
0.0
 11
913.600683
 21
-194.484642
 31
0.0
  0
LINE
  8
0
  6
BYLAYER
 62
     7
 10
913.600683
 20
-194.484642
 30
0.0
 11
921.600683
 21
-194.484642
 31
0.0
  0
LINE
  8
0
  6
BYLAYER
 62
     7
 10
913.600683
 20
-202.484642
 30
0.0
 11
921.600683
 21
-202.484642
 31
0.0
  0
LINE
  8
0
  6
BYLAYER
 62
     7
 10
921.600683
 20
-194.484642
 30
0.0
 11
921.600683
 21
-202.484642
 31
0.0
  0
LINE
  8
0
  6
BYLAYER
 62
     7
 10
923.600683
 20
-182.484642
 30
0.0
 11
923.600683
 21
-174.484642
 31
0.0
  0
LINE
  8
0
  6
BYLAYER
 62
     7
 10
923.600683
 20
-174.484642
 30
0.0
 11
931.600683
 21
-174.484642
 31
0.0
  0
LINE
  8
0
  6
BYLAYER
 62
     7
 10
923.600683
 20
-182.484642
 30
0.0
 11
931.600683
 21
-182.484642
 31
0.0
  0
LINE
  8
0
  6
BYLAYER
 62
     7
 10
931.600683
 20
-174.484642
 30
0.0
 11
931.600683
 21
-182.484642
 31
0.0
  0
LINE
  8
0
  6
BYLAYER
 62
     7
 10
923.600683
 20
-192.484642
 30
0.0
 11
923.600683
 21
-184.484642
 31
0.0
  0
LINE
  8
0
  6
BYLAYER
 62
     7
 10
923.600683
 20
-184.484642
 30
0.0
 11
931.600683
 21
-184.484642
 31
0.0
  0
LINE
  8
0
  6
BYLAYER
 62
     7
 10
923.600683
 20
-192.484642
 30
0.0
 11
931.600683
 21
-192.484642
 31
0.0
  0
LINE
  8
0
  6
BYLAYER
 62
     7
 10
931.600683
 20
-184.484642
 30
0.0
 11
931.600683
 21
-192.484642
 31
0.0
  0
LINE
  8
0
  6
BYLAYER
 62
     7
 10
933.600683
 20
-182.484642
 30
0.0
 11
933.600683
 21
-174.484642
 31
0.0
  0
LINE
  8
0
  6
BYLAYER
 62
     7
 10
933.600683
 20
-174.484642
 30
0.0
 11
941.600683
 21
-174.484642
 31
0.0
  0
LINE
  8
0
  6
BYLAYER
 62
     7
 10
933.600683
 20
-182.484642
 30
0.0
 11
941.600683
 21
-182.484642
 31
0.0
  0
LINE
  8
0
  6
BYLAYER
 62
     7
 10
941.600683
 20
-174.484642
 30
0.0
 11
941.600683
 21
-182.484642
 31
0.0
  0
LINE
  8
0
  6
BYLAYER
 62
     7
 10
943.600683
 20
-164.484642
 30
0.0
 11
951.600683
 21
-164.484642
 31
0.0
  0
LINE
  8
0
  6
BYLAYER
 62
     7
 10
943.600683
 20
-172.484642
 30
0.0
 11
943.600683
 21
-164.484642
 31
0.0
  0
LINE
  8
0
  6
BYLAYER
 62
     7
 10
943.600683
 20
-172.484642
 30
0.0
 11
951.600683
 21
-172.484642
 31
0.0
  0
LINE
  8
0
  6
BYLAYER
 62
     7
 10
951.600683
 20
-164.484642
 30
0.0
 11
951.600683
 21
-172.484642
 31
0.0
  0
LINE
  8
0
  6
BYLAYER
 62
     7
 10
943.600683
 20
-154.484642
 30
0.0
 11
951.600683
 21
-154.484642
 31
0.0
  0
LINE
  8
0
  6
BYLAYER
 62
     7
 10
943.600683
 20
-162.484642
 30
0.0
 11
943.600683
 21
-154.484642
 31
0.0
  0
LINE
  8
0
  6
BYLAYER
 62
     7
 10
943.600683
 20
-162.484642
 30
0.0
 11
951.600683
 21
-162.484642
 31
0.0
  0
LINE
  8
0
  6
BYLAYER
 62
     7
 10
951.600683
 20
-154.484642
 30
0.0
 11
951.600683
 21
-162.484642
 31
0.0
  0
LINE
  8
0
  6
BYLAYER
 62
     7
 10
943.600683
 20
-182.484642
 30
0.0
 11
943.600683
 21
-174.484642
 31
0.0
  0
LINE
  8
0
  6
BYLAYER
 62
     7
 10
943.600683
 20
-174.484642
 30
0.0
 11
951.600683
 21
-174.484642
 31
0.0
  0
LINE
  8
0
  6
BYLAYER
 62
     7
 10
943.600683
 20
-182.484642
 30
0.0
 11
951.600683
 21
-182.484642
 31
0.0
  0
LINE
  8
0
  6
BYLAYER
 62
     7
 10
951.600683
 20
-174.484642
 30
0.0
 11
951.600683
 21
-182.484642
 31
0.0
  0
LINE
  8
0
  6
BYLAYER
 62
     7
 10
893.600683
 20
-212.484642
 30
0.0
 11
893.600683
 21
-204.484642
 31
0.0
  0
LINE
  8
0
  6
BYLAYER
 62
     7
 10
901.600683
 20
-204.484642
 30
0.0
 11
901.600683
 21
-212.484642
 31
0.0
  0
LINE
  8
0
  6
BYLAYER
 62
     7
 10
903.600683
 20
-204.484642
 30
0.0
 11
903.600683
 21
-212.484642
 31
0.0
  0
LINE
  8
0
  6
BYLAYER
 62
     7
 10
903.600683
 20
-204.484642
 30
0.0
 11
911.438682
 21
-204.484642
 31
0.0
  0
LINE
  8
0
  6
BYLAYER
 62
     7
 10
893.600683
 20
-204.484642
 30
0.0
 11
901.600683
 21
-204.484642
 31
0.0
  0
LINE
  8
0
  6
BYLAYER
 62
     7
 10
903.600683
 20
-212.484642
 30
0.0
 11
911.438682
 21
-212.484642
 31
0.0
  0
LINE
  8
0
  6
BYLAYER
 62
     7
 10
893.600683
 20
-212.484642
 30
0.0
 11
901.600683
 21
-212.484642
 31
0.0
  0
LINE
  8
0
  6
BYLAYER
 62
     7
 10
911.438682
 20
-204.484642
 30
0.0
 11
911.438682
 21
-212.484642
 31
0.0
  0
LINE
  8
0
  6
BYLAYER
 62
     7
 10
913.600683
 20
-212.484642
 30
0.0
 11
913.600683
 21
-204.484642
 31
0.0
  0
LINE
  8
0
  6
BYLAYER
 62
     7
 10
913.600683
 20
-204.484642
 30
0.0
 11
921.600683
 21
-204.484642
 31
0.0
  0
LINE
  8
0
  6
BYLAYER
 62
     7
 10
913.600683
 20
-212.484642
 30
0.0
 11
921.600683
 21
-212.484642
 31
0.0
  0
LINE
  8
0
  6
BYLAYER
 62
     7
 10
921.600683
 20
-204.484642
 30
0.0
 11
921.600683
 21
-212.484642
 31
0.0
  0
LINE
  8
0
  6
BYLAYER
 62
     7
 10
923.600683
 20
-202.484642
 30
0.0
 11
923.600683
 21
-194.484642
 31
0.0
  0
LINE
  8
0
  6
BYLAYER
 62
     7
 10
923.600683
 20
-194.484642
 30
0.0
 11
931.600683
 21
-194.484642
 31
0.0
  0
LINE
  8
0
  6
BYLAYER
 62
     7
 10
923.600683
 20
-202.484642
 30
0.0
 11
931.600683
 21
-202.484642
 31
0.0
  0
LINE
  8
0
  6
BYLAYER
 62
     7
 10
931.600683
 20
-194.484642
 30
0.0
 11
931.600683
 21
-202.484642
 31
0.0
  0
LINE
  8
0
  6
BYLAYER
 62
     7
 10
933.600683
 20
-192.484642
 30
0.0
 11
933.600683
 21
-184.484642
 31
0.0
  0
LINE
  8
0
  6
BYLAYER
 62
     7
 10
933.600683
 20
-184.484642
 30
0.0
 11
941.600683
 21
-184.484642
 31
0.0
  0
LINE
  8
0
  6
BYLAYER
 62
     7
 10
933.600683
 20
-192.484642
 30
0.0
 11
941.600683
 21
-192.484642
 31
0.0
  0
LINE
  8
0
  6
BYLAYER
 62
     7
 10
941.600683
 20
-184.484642
 30
0.0
 11
941.600683
 21
-192.484642
 31
0.0
  0
LINE
  8
0
  6
BYLAYER
 62
     7
 10
893.600683
 20
-222.484642
 30
0.0
 11
893.600683
 21
-214.484642
 31
0.0
  0
LINE
  8
0
  6
BYLAYER
 62
     7
 10
901.600683
 20
-214.484642
 30
0.0
 11
901.600683
 21
-222.484642
 31
0.0
  0
LINE
  8
0
  6
BYLAYER
 62
     7
 10
903.600683
 20
-214.484642
 30
0.0
 11
903.600683
 21
-222.484642
 31
0.0
  0
LINE
  8
0
  6
BYLAYER
 62
     7
 10
903.600683
 20
-214.484642
 30
0.0
 11
911.438682
 21
-214.484642
 31
0.0
  0
LINE
  8
0
  6
BYLAYER
 62
     7
 10
893.600683
 20
-214.484642
 30
0.0
 11
901.600683
 21
-214.484642
 31
0.0
  0
LINE
  8
0
  6
BYLAYER
 62
     7
 10
903.600683
 20
-222.484642
 30
0.0
 11
911.438682
 21
-222.484642
 31
0.0
  0
LINE
  8
0
  6
BYLAYER
 62
     7
 10
893.600683
 20
-222.484642
 30
0.0
 11
901.600683
 21
-222.484642
 31
0.0
  0
LINE
  8
0
  6
BYLAYER
 62
     7
 10
911.438682
 20
-214.484642
 30
0.0
 11
911.438682
 21
-222.484642
 31
0.0
  0
LINE
  8
0
  6
BYLAYER
 62
     7
 10
953.600683
 20
-164.484642
 30
0.0
 11
961.600683
 21
-164.484642
 31
0.0
  0
LINE
  8
0
  6
BYLAYER
 62
     7
 10
953.600683
 20
-172.484642
 30
0.0
 11
953.600683
 21
-164.484642
 31
0.0
  0
LINE
  8
0
  6
BYLAYER
 62
     7
 10
953.600683
 20
-172.484642
 30
0.0
 11
961.600683
 21
-172.484642
 31
0.0
  0
LINE
  8
0
  6
BYLAYER
 62
     7
 10
961.600683
 20
-164.484642
 30
0.0
 11
961.600683
 21
-172.484642
 31
0.0
  0
LINE
  8
0
  6
BYLAYER
 62
     7
 10
953.600683
 20
-154.484642
 30
0.0
 11
961.600683
 21
-154.484642
 31
0.0
  0
LINE
  8
0
  6
BYLAYER
 62
     7
 10
953.600683
 20
-162.484642
 30
0.0
 11
953.600683
 21
-154.484642
 31
0.0
  0
LINE
  8
0
  6
BYLAYER
 62
     7
 10
953.600683
 20
-162.484642
 30
0.0
 11
961.600683
 21
-162.484642
 31
0.0
  0
LINE
  8
0
  6
BYLAYER
 62
     7
 10
961.600683
 20
-154.484642
 30
0.0
 11
961.600683
 21
-162.484642
 31
0.0
  0
LINE
  8
0
  6
BYLAYER
 62
     7
 10
923.600683
 20
-212.484642
 30
0.0
 11
923.600683
 21
-204.484642
 31
0.0
  0
LINE
  8
0
  6
BYLAYER
 62
     7
 10
923.600683
 20
-204.484642
 30
0.0
 11
931.600683
 21
-204.484642
 31
0.0
  0
LINE
  8
0
  6
BYLAYER
 62
     7
 10
923.600683
 20
-212.484642
 30
0.0
 11
931.600683
 21
-212.484642
 31
0.0
  0
LINE
  8
0
  6
BYLAYER
 62
     7
 10
931.600683
 20
-204.484642
 30
0.0
 11
931.600683
 21
-212.484642
 31
0.0
  0
LINE
  8
0
  6
BYLAYER
 62
     7
 10
933.600683
 20
-202.484642
 30
0.0
 11
933.600683
 21
-194.484642
 31
0.0
  0
LINE
  8
0
  6
BYLAYER
 62
     7
 10
933.600683
 20
-194.484642
 30
0.0
 11
941.600683
 21
-194.484642
 31
0.0
  0
LINE
  8
0
  6
BYLAYER
 62
     7
 10
933.600683
 20
-202.484642
 30
0.0
 11
941.600683
 21
-202.484642
 31
0.0
  0
LINE
  8
0
  6
BYLAYER
 62
     7
 10
941.600683
 20
-194.484642
 30
0.0
 11
941.600683
 21
-202.484642
 31
0.0
  0
LINE
  8
0
  6
BYLAYER
 62
     7
 10
943.600683
 20
-192.484642
 30
0.0
 11
943.600683
 21
-184.484642
 31
0.0
  0
LINE
  8
0
  6
BYLAYER
 62
     7
 10
943.600683
 20
-184.484642
 30
0.0
 11
951.600683
 21
-184.484642
 31
0.0
  0
LINE
  8
0
  6
BYLAYER
 62
     7
 10
943.600683
 20
-192.484642
 30
0.0
 11
951.600683
 21
-192.484642
 31
0.0
  0
LINE
  8
0
  6
BYLAYER
 62
     7
 10
951.600683
 20
-184.484642
 30
0.0
 11
951.600683
 21
-192.484642
 31
0.0
  0
LINE
  8
0
  6
BYLAYER
 62
     7
 10
893.600683
 20
-232.484642
 30
0.0
 11
893.600683
 21
-224.484642
 31
0.0
  0
LINE
  8
0
  6
BYLAYER
 62
     7
 10
901.600683
 20
-224.484642
 30
0.0
 11
901.600683
 21
-232.484642
 31
0.0
  0
LINE
  8
0
  6
BYLAYER
 62
     7
 10
893.600683
 20
-224.484642
 30
0.0
 11
901.600683
 21
-224.484642
 31
0.0
  0
LINE
  8
0
  6
BYLAYER
 62
     7
 10
893.600683
 20
-232.484642
 30
0.0
 11
901.600683
 21
-232.484642
 31
0.0
  0
LINE
  8
0
  6
BYLAYER
 62
     7
 10
963.600683
 20
-154.484642
 30
0.0
 11
971.600683
 21
-154.484642
 31
0.0
  0
LINE
  8
0
  6
BYLAYER
 62
     7
 10
963.600683
 20
-162.484642
 30
0.0
 11
963.600683
 21
-154.484642
 31
0.0
  0
LINE
  8
0
  6
BYLAYER
 62
     7
 10
963.600683
 20
-162.484642
 30
0.0
 11
971.600683
 21
-162.484642
 31
0.0
  0
LINE
  8
0
  6
BYLAYER
 62
     7
 10
971.600683
 20
-154.484642
 30
0.0
 11
971.600683
 21
-162.484642
 31
0.0
  0
LINE
  8
0
  6
BYLAYER
 62
     7
 10
913.600683
 20
-222.484642
 30
0.0
 11
913.600683
 21
-214.484642
 31
0.0
  0
LINE
  8
0
  6
BYLAYER
 62
     7
 10
913.600683
 20
-214.484642
 30
0.0
 11
921.600683
 21
-214.484642
 31
0.0
  0
LINE
  8
0
  6
BYLAYER
 62
     7
 10
913.600683
 20
-222.484642
 30
0.0
 11
921.600683
 21
-222.484642
 31
0.0
  0
LINE
  8
0
  6
BYLAYER
 62
     7
 10
921.600683
 20
-214.484642
 30
0.0
 11
921.600683
 21
-222.484642
 31
0.0
  0
LINE
  8
0
  6
BYLAYER
 62
     7
 10
953.600683
 20
-182.484642
 30
0.0
 11
953.600683
 21
-174.484642
 31
0.0
  0
LINE
  8
0
  6
BYLAYER
 62
     7
 10
953.600683
 20
-174.484642
 30
0.0
 11
961.600683
 21
-174.484642
 31
0.0
  0
LINE
  8
0
  6
BYLAYER
 62
     7
 10
953.600683
 20
-182.484642
 30
0.0
 11
961.600683
 21
-182.484642
 31
0.0
  0
LINE
  8
0
  6
BYLAYER
 62
     7
 10
961.600683
 20
-174.484642
 30
0.0
 11
961.600683
 21
-182.484642
 31
0.0
  0
LINE
  8
0
  6
BYLAYER
 62
     7
 10
923.600683
 20
-222.484642
 30
0.0
 11
923.600683
 21
-214.484642
 31
0.0
  0
LINE
  8
0
  6
BYLAYER
 62
     7
 10
923.600683
 20
-214.484642
 30
0.0
 11
931.600683
 21
-214.484642
 31
0.0
  0
LINE
  8
0
  6
BYLAYER
 62
     7
 10
923.600683
 20
-222.484642
 30
0.0
 11
931.600683
 21
-222.484642
 31
0.0
  0
LINE
  8
0
  6
BYLAYER
 62
     7
 10
931.600683
 20
-214.484642
 30
0.0
 11
931.600683
 21
-222.484642
 31
0.0
  0
LINE
  8
0
  6
BYLAYER
 62
     7
 10
933.600683
 20
-212.484642
 30
0.0
 11
933.600683
 21
-204.484642
 31
0.0
  0
LINE
  8
0
  6
BYLAYER
 62
     7
 10
933.600683
 20
-204.484642
 30
0.0
 11
941.600683
 21
-204.484642
 31
0.0
  0
LINE
  8
0
  6
BYLAYER
 62
     7
 10
933.600683
 20
-212.484642
 30
0.0
 11
941.600683
 21
-212.484642
 31
0.0
  0
LINE
  8
0
  6
BYLAYER
 62
     7
 10
941.600683
 20
-204.484642
 30
0.0
 11
941.600683
 21
-212.484642
 31
0.0
  0
LINE
  8
0
  6
BYLAYER
 62
     7
 10
943.600683
 20
-202.484642
 30
0.0
 11
943.600683
 21
-194.484642
 31
0.0
  0
LINE
  8
0
  6
BYLAYER
 62
     7
 10
943.600683
 20
-194.484642
 30
0.0
 11
951.600683
 21
-194.484642
 31
0.0
  0
LINE
  8
0
  6
BYLAYER
 62
     7
 10
943.600683
 20
-202.484642
 30
0.0
 11
951.600683
 21
-202.484642
 31
0.0
  0
LINE
  8
0
  6
BYLAYER
 62
     7
 10
951.600683
 20
-194.484642
 30
0.0
 11
951.600683
 21
-202.484642
 31
0.0
  0
LINE
  8
0
  6
BYLAYER
 62
     7
 10
953.600683
 20
-192.484642
 30
0.0
 11
953.600683
 21
-184.484642
 31
0.0
  0
LINE
  8
0
  6
BYLAYER
 62
     7
 10
953.600683
 20
-184.484642
 30
0.0
 11
961.600683
 21
-184.484642
 31
0.0
  0
LINE
  8
0
  6
BYLAYER
 62
     7
 10
953.600683
 20
-192.484642
 30
0.0
 11
961.600683
 21
-192.484642
 31
0.0
  0
LINE
  8
0
  6
BYLAYER
 62
     7
 10
961.600683
 20
-184.484642
 30
0.0
 11
961.600683
 21
-192.484642
 31
0.0
  0
LINE
  8
0
  6
BYLAYER
 62
     7
 10
903.600683
 20
-224.484642
 30
0.0
 11
903.600683
 21
-232.484642
 31
0.0
  0
LINE
  8
0
  6
BYLAYER
 62
     7
 10
903.600683
 20
-224.484642
 30
0.0
 11
911.438682
 21
-224.484642
 31
0.0
  0
LINE
  8
0
  6
BYLAYER
 62
     7
 10
903.600683
 20
-232.484642
 30
0.0
 11
911.438682
 21
-232.484642
 31
0.0
  0
LINE
  8
0
  6
BYLAYER
 62
     7
 10
911.438682
 20
-224.484642
 30
0.0
 11
911.438682
 21
-232.484642
 31
0.0
  0
LINE
  8
0
  6
BYLAYER
 62
     7
 10
963.600683
 20
-164.484642
 30
0.0
 11
971.600683
 21
-164.484642
 31
0.0
  0
LINE
  8
0
  6
BYLAYER
 62
     7
 10
963.600683
 20
-172.484642
 30
0.0
 11
963.600683
 21
-164.484642
 31
0.0
  0
LINE
  8
0
  6
BYLAYER
 62
     7
 10
963.600683
 20
-172.484642
 30
0.0
 11
971.600683
 21
-172.484642
 31
0.0
  0
LINE
  8
0
  6
BYLAYER
 62
     7
 10
971.600683
 20
-164.484642
 30
0.0
 11
971.600683
 21
-172.484642
 31
0.0
  0
LINE
  8
0
  6
BYLAYER
 62
     7
 10
891.600683
 20
-124.484642
 30
0.0
 11
891.600683
 21
-132.484642
 31
0.0
  0
LINE
  8
0
  6
BYLAYER
 62
     7
 10
891.600683
 20
-114.484642
 30
0.0
 11
891.600683
 21
-122.484642
 31
0.0
  0
LINE
  8
0
  6
BYLAYER
 62
     7
 10
883.600683
 20
-122.484642
 30
0.0
 11
883.600683
 21
-114.484642
 31
0.0
  0
LINE
  8
0
  6
BYLAYER
 62
     7
 10
881.600683
 20
-122.484642
 30
0.0
 11
881.600683
 21
-114.484642
 31
0.0
  0
LINE
  8
0
  6
BYLAYER
 62
     7
 10
891.600683
 20
-132.484642
 30
0.0
 11
883.600683
 21
-132.484642
 31
0.0
  0
LINE
  8
0
  6
BYLAYER
 62
     7
 10
891.600683
 20
-124.484642
 30
0.0
 11
883.600683
 21
-124.484642
 31
0.0
  0
LINE
  8
0
  6
BYLAYER
 62
     7
 10
881.600683
 20
-122.484642
 30
0.0
 11
873.762684
 21
-122.484642
 31
0.0
  0
LINE
  8
0
  6
BYLAYER
 62
     7
 10
891.600683
 20
-122.484642
 30
0.0
 11
883.600683
 21
-122.484642
 31
0.0
  0
LINE
  8
0
  6
BYLAYER
 62
     7
 10
881.600683
 20
-114.484642
 30
0.0
 11
873.762684
 21
-114.484642
 31
0.0
  0
LINE
  8
0
  6
BYLAYER
 62
     7
 10
891.600683
 20
-114.484642
 30
0.0
 11
883.600683
 21
-114.484642
 31
0.0
  0
LINE
  8
0
  6
BYLAYER
 62
     7
 10
873.762684
 20
-122.484642
 30
0.0
 11
873.762684
 21
-114.484642
 31
0.0
  0
LINE
  8
0
  6
BYLAYER
 62
     7
 10
883.600683
 20
-132.484642
 30
0.0
 11
883.600683
 21
-124.484642
 31
0.0
  0
LINE
  8
0
  6
BYLAYER
 62
     7
 10
881.600683
 20
-124.484642
 30
0.0
 11
881.600683
 21
-132.484642
 31
0.0
  0
LINE
  8
0
  6
BYLAYER
 62
     7
 10
881.600683
 20
-132.484642
 30
0.0
 11
873.600683
 21
-132.484642
 31
0.0
  0
LINE
  8
0
  6
BYLAYER
 62
     7
 10
881.600683
 20
-124.484642
 30
0.0
 11
873.600683
 21
-124.484642
 31
0.0
  0
LINE
  8
0
  6
BYLAYER
 62
     7
 10
873.600683
 20
-132.484642
 30
0.0
 11
873.600683
 21
-124.484642
 31
0.0
  0
LINE
  8
0
  6
BYLAYER
 62
     7
 10
871.600683
 20
-142.484642
 30
0.0
 11
863.600683
 21
-142.484642
 31
0.0
  0
LINE
  8
0
  6
BYLAYER
 62
     7
 10
871.600683
 20
-124.484642
 30
0.0
 11
871.600683
 21
-132.484642
 31
0.0
  0
LINE
  8
0
  6
BYLAYER
 62
     7
 10
871.600683
 20
-134.484642
 30
0.0
 11
871.600683
 21
-142.484642
 31
0.0
  0
LINE
  8
0
  6
BYLAYER
 62
     7
 10
871.600683
 20
-134.484642
 30
0.0
 11
863.600683
 21
-134.484642
 31
0.0
  0
LINE
  8
0
  6
BYLAYER
 62
     7
 10
871.600683
 20
-132.484642
 30
0.0
 11
863.600683
 21
-132.484642
 31
0.0
  0
LINE
  8
0
  6
BYLAYER
 62
     7
 10
871.600683
 20
-124.484642
 30
0.0
 11
863.600683
 21
-124.484642
 31
0.0
  0
LINE
  8
0
  6
BYLAYER
 62
     7
 10
863.600683
 20
-142.484642
 30
0.0
 11
863.600683
 21
-134.484642
 31
0.0
  0
LINE
  8
0
  6
BYLAYER
 62
     7
 10
863.600683
 20
-132.484642
 30
0.0
 11
863.600683
 21
-124.484642
 31
0.0
  0
LINE
  8
0
  6
BYLAYER
 62
     7
 10
871.600683
 20
-152.484642
 30
0.0
 11
863.600683
 21
-152.484642
 31
0.0
  0
LINE
  8
0
  6
BYLAYER
 62
     7
 10
871.600683
 20
-144.484642
 30
0.0
 11
871.600683
 21
-152.484642
 31
0.0
  0
LINE
  8
0
  6
BYLAYER
 62
     7
 10
871.600683
 20
-144.484642
 30
0.0
 11
863.600683
 21
-144.484642
 31
0.0
  0
LINE
  8
0
  6
BYLAYER
 62
     7
 10
863.600683
 20
-152.484642
 30
0.0
 11
863.600683
 21
-144.484642
 31
0.0
  0
LINE
  8
0
  6
BYLAYER
 62
     7
 10
861.600683
 20
-142.484642
 30
0.0
 11
853.600683
 21
-142.484642
 31
0.0
  0
LINE
  8
0
  6
BYLAYER
 62
     7
 10
861.600683
 20
-134.484642
 30
0.0
 11
861.600683
 21
-142.484642
 31
0.0
  0
LINE
  8
0
  6
BYLAYER
 62
     7
 10
861.600683
 20
-134.484642
 30
0.0
 11
853.600683
 21
-134.484642
 31
0.0
  0
LINE
  8
0
  6
BYLAYER
 62
     7
 10
853.600683
 20
-142.484642
 30
0.0
 11
853.600683
 21
-134.484642
 31
0.0
  0
LINE
  8
0
  6
BYLAYER
 62
     7
 10
861.600683
 20
-152.484642
 30
0.0
 11
853.600683
 21
-152.484642
 31
0.0
  0
LINE
  8
0
  6
BYLAYER
 62
     7
 10
861.600683
 20
-144.484642
 30
0.0
 11
861.600683
 21
-152.484642
 31
0.0
  0
LINE
  8
0
  6
BYLAYER
 62
     7
 10
861.600683
 20
-144.484642
 30
0.0
 11
853.600683
 21
-144.484642
 31
0.0
  0
LINE
  8
0
  6
BYLAYER
 62
     7
 10
853.600683
 20
-152.484642
 30
0.0
 11
853.600683
 21
-144.484642
 31
0.0
  0
LINE
  8
0
  6
BYLAYER
 62
     7
 10
851.600683
 20
-142.484642
 30
0.0
 11
843.600683
 21
-142.484642
 31
0.0
  0
LINE
  8
0
  6
BYLAYER
 62
     7
 10
851.600683
 20
-134.484642
 30
0.0
 11
851.600683
 21
-142.484642
 31
0.0
  0
LINE
  8
0
  6
BYLAYER
 62
     7
 10
851.600683
 20
-134.484642
 30
0.0
 11
843.600683
 21
-134.484642
 31
0.0
  0
LINE
  8
0
  6
BYLAYER
 62
     7
 10
843.600683
 20
-142.484642
 30
0.0
 11
843.600683
 21
-134.484642
 31
0.0
  0
LINE
  8
0
  6
BYLAYER
 62
     7
 10
851.600683
 20
-152.484642
 30
0.0
 11
843.600683
 21
-152.484642
 31
0.0
  0
LINE
  8
0
  6
BYLAYER
 62
     7
 10
851.600683
 20
-144.484642
 30
0.0
 11
851.600683
 21
-152.484642
 31
0.0
  0
LINE
  8
0
  6
BYLAYER
 62
     7
 10
851.600683
 20
-144.484642
 30
0.0
 11
843.600683
 21
-144.484642
 31
0.0
  0
LINE
  8
0
  6
BYLAYER
 62
     7
 10
843.600683
 20
-152.484642
 30
0.0
 11
843.600683
 21
-144.484642
 31
0.0
  0
LINE
  8
0
  6
BYLAYER
 62
     7
 10
891.600683
 20
-104.484642
 30
0.0
 11
891.600683
 21
-112.484642
 31
0.0
  0
LINE
  8
0
  6
BYLAYER
 62
     7
 10
883.600683
 20
-112.484642
 30
0.0
 11
883.600683
 21
-104.484642
 31
0.0
  0
LINE
  8
0
  6
BYLAYER
 62
     7
 10
881.600683
 20
-112.484642
 30
0.0
 11
881.600683
 21
-104.484642
 31
0.0
  0
LINE
  8
0
  6
BYLAYER
 62
     7
 10
881.600683
 20
-112.484642
 30
0.0
 11
873.762684
 21
-112.484642
 31
0.0
  0
LINE
  8
0
  6
BYLAYER
 62
     7
 10
891.600683
 20
-112.484642
 30
0.0
 11
883.600683
 21
-112.484642
 31
0.0
  0
LINE
  8
0
  6
BYLAYER
 62
     7
 10
881.600683
 20
-104.484642
 30
0.0
 11
873.762684
 21
-104.484642
 31
0.0
  0
LINE
  8
0
  6
BYLAYER
 62
     7
 10
891.600683
 20
-104.484642
 30
0.0
 11
883.600683
 21
-104.484642
 31
0.0
  0
LINE
  8
0
  6
BYLAYER
 62
     7
 10
873.762684
 20
-112.484642
 30
0.0
 11
873.762684
 21
-104.484642
 31
0.0
  0
LINE
  8
0
  6
BYLAYER
 62
     7
 10
871.600683
 20
-114.484642
 30
0.0
 11
871.600683
 21
-122.484642
 31
0.0
  0
LINE
  8
0
  6
BYLAYER
 62
     7
 10
871.600683
 20
-122.484642
 30
0.0
 11
863.600683
 21
-122.484642
 31
0.0
  0
LINE
  8
0
  6
BYLAYER
 62
     7
 10
871.600683
 20
-114.484642
 30
0.0
 11
863.600683
 21
-114.484642
 31
0.0
  0
LINE
  8
0
  6
BYLAYER
 62
     7
 10
863.600683
 20
-122.484642
 30
0.0
 11
863.600683
 21
-114.484642
 31
0.0
  0
LINE
  8
0
  6
BYLAYER
 62
     7
 10
871.600683
 20
-104.484642
 30
0.0
 11
871.600683
 21
-112.484642
 31
0.0
  0
LINE
  8
0
  6
BYLAYER
 62
     7
 10
871.600683
 20
-112.484642
 30
0.0
 11
863.600683
 21
-112.484642
 31
0.0
  0
LINE
  8
0
  6
BYLAYER
 62
     7
 10
871.600683
 20
-104.484642
 30
0.0
 11
863.600683
 21
-104.484642
 31
0.0
  0
LINE
  8
0
  6
BYLAYER
 62
     7
 10
863.600683
 20
-112.484642
 30
0.0
 11
863.600683
 21
-104.484642
 31
0.0
  0
LINE
  8
0
  6
BYLAYER
 62
     7
 10
861.600683
 20
-124.484642
 30
0.0
 11
861.600683
 21
-132.484642
 31
0.0
  0
LINE
  8
0
  6
BYLAYER
 62
     7
 10
861.600683
 20
-132.484642
 30
0.0
 11
853.600683
 21
-132.484642
 31
0.0
  0
LINE
  8
0
  6
BYLAYER
 62
     7
 10
861.600683
 20
-124.484642
 30
0.0
 11
853.600683
 21
-124.484642
 31
0.0
  0
LINE
  8
0
  6
BYLAYER
 62
     7
 10
853.600683
 20
-132.484642
 30
0.0
 11
853.600683
 21
-124.484642
 31
0.0
  0
LINE
  8
0
  6
BYLAYER
 62
     7
 10
861.600683
 20
-114.484642
 30
0.0
 11
861.600683
 21
-122.484642
 31
0.0
  0
LINE
  8
0
  6
BYLAYER
 62
     7
 10
861.600683
 20
-122.484642
 30
0.0
 11
853.600683
 21
-122.484642
 31
0.0
  0
LINE
  8
0
  6
BYLAYER
 62
     7
 10
861.600683
 20
-114.484642
 30
0.0
 11
853.600683
 21
-114.484642
 31
0.0
  0
LINE
  8
0
  6
BYLAYER
 62
     7
 10
853.600683
 20
-122.484642
 30
0.0
 11
853.600683
 21
-114.484642
 31
0.0
  0
LINE
  8
0
  6
BYLAYER
 62
     7
 10
851.600683
 20
-124.484642
 30
0.0
 11
851.600683
 21
-132.484642
 31
0.0
  0
LINE
  8
0
  6
BYLAYER
 62
     7
 10
851.600683
 20
-132.484642
 30
0.0
 11
843.600683
 21
-132.484642
 31
0.0
  0
LINE
  8
0
  6
BYLAYER
 62
     7
 10
851.600683
 20
-124.484642
 30
0.0
 11
843.600683
 21
-124.484642
 31
0.0
  0
LINE
  8
0
  6
BYLAYER
 62
     7
 10
843.600683
 20
-132.484642
 30
0.0
 11
843.600683
 21
-124.484642
 31
0.0
  0
LINE
  8
0
  6
BYLAYER
 62
     7
 10
841.600683
 20
-142.484642
 30
0.0
 11
833.600683
 21
-142.484642
 31
0.0
  0
LINE
  8
0
  6
BYLAYER
 62
     7
 10
841.600683
 20
-134.484642
 30
0.0
 11
841.600683
 21
-142.484642
 31
0.0
  0
LINE
  8
0
  6
BYLAYER
 62
     7
 10
841.600683
 20
-134.484642
 30
0.0
 11
833.600683
 21
-134.484642
 31
0.0
  0
LINE
  8
0
  6
BYLAYER
 62
     7
 10
833.600683
 20
-142.484642
 30
0.0
 11
833.600683
 21
-134.484642
 31
0.0
  0
LINE
  8
0
  6
BYLAYER
 62
     7
 10
841.600683
 20
-152.484642
 30
0.0
 11
833.600683
 21
-152.484642
 31
0.0
  0
LINE
  8
0
  6
BYLAYER
 62
     7
 10
841.600683
 20
-144.484642
 30
0.0
 11
841.600683
 21
-152.484642
 31
0.0
  0
LINE
  8
0
  6
BYLAYER
 62
     7
 10
841.600683
 20
-144.484642
 30
0.0
 11
833.600683
 21
-144.484642
 31
0.0
  0
LINE
  8
0
  6
BYLAYER
 62
     7
 10
833.600683
 20
-152.484642
 30
0.0
 11
833.600683
 21
-144.484642
 31
0.0
  0
LINE
  8
0
  6
BYLAYER
 62
     7
 10
841.600683
 20
-124.484642
 30
0.0
 11
841.600683
 21
-132.484642
 31
0.0
  0
LINE
  8
0
  6
BYLAYER
 62
     7
 10
841.600683
 20
-132.484642
 30
0.0
 11
833.600683
 21
-132.484642
 31
0.0
  0
LINE
  8
0
  6
BYLAYER
 62
     7
 10
841.600683
 20
-124.484642
 30
0.0
 11
833.600683
 21
-124.484642
 31
0.0
  0
LINE
  8
0
  6
BYLAYER
 62
     7
 10
833.600683
 20
-132.484642
 30
0.0
 11
833.600683
 21
-124.484642
 31
0.0
  0
LINE
  8
0
  6
BYLAYER
 62
     7
 10
891.600683
 20
-94.484642
 30
0.0
 11
891.600683
 21
-102.484642
 31
0.0
  0
LINE
  8
0
  6
BYLAYER
 62
     7
 10
883.600683
 20
-102.484642
 30
0.0
 11
883.600683
 21
-94.484642
 31
0.0
  0
LINE
  8
0
  6
BYLAYER
 62
     7
 10
881.600683
 20
-102.484642
 30
0.0
 11
881.600683
 21
-94.484642
 31
0.0
  0
LINE
  8
0
  6
BYLAYER
 62
     7
 10
881.600683
 20
-102.484642
 30
0.0
 11
873.762684
 21
-102.484642
 31
0.0
  0
LINE
  8
0
  6
BYLAYER
 62
     7
 10
891.600683
 20
-102.484642
 30
0.0
 11
883.600683
 21
-102.484642
 31
0.0
  0
LINE
  8
0
  6
BYLAYER
 62
     7
 10
881.600683
 20
-94.484642
 30
0.0
 11
873.762684
 21
-94.484642
 31
0.0
  0
LINE
  8
0
  6
BYLAYER
 62
     7
 10
891.600683
 20
-94.484642
 30
0.0
 11
883.600683
 21
-94.484642
 31
0.0
  0
LINE
  8
0
  6
BYLAYER
 62
     7
 10
873.762684
 20
-102.484642
 30
0.0
 11
873.762684
 21
-94.484642
 31
0.0
  0
LINE
  8
0
  6
BYLAYER
 62
     7
 10
871.600683
 20
-94.484642
 30
0.0
 11
871.600683
 21
-102.484642
 31
0.0
  0
LINE
  8
0
  6
BYLAYER
 62
     7
 10
871.600683
 20
-102.484642
 30
0.0
 11
863.600683
 21
-102.484642
 31
0.0
  0
LINE
  8
0
  6
BYLAYER
 62
     7
 10
871.600683
 20
-94.484642
 30
0.0
 11
863.600683
 21
-94.484642
 31
0.0
  0
LINE
  8
0
  6
BYLAYER
 62
     7
 10
863.600683
 20
-102.484642
 30
0.0
 11
863.600683
 21
-94.484642
 31
0.0
  0
LINE
  8
0
  6
BYLAYER
 62
     7
 10
861.600683
 20
-104.484642
 30
0.0
 11
861.600683
 21
-112.484642
 31
0.0
  0
LINE
  8
0
  6
BYLAYER
 62
     7
 10
861.600683
 20
-112.484642
 30
0.0
 11
853.600683
 21
-112.484642
 31
0.0
  0
LINE
  8
0
  6
BYLAYER
 62
     7
 10
861.600683
 20
-104.484642
 30
0.0
 11
853.600683
 21
-104.484642
 31
0.0
  0
LINE
  8
0
  6
BYLAYER
 62
     7
 10
853.600683
 20
-112.484642
 30
0.0
 11
853.600683
 21
-104.484642
 31
0.0
  0
LINE
  8
0
  6
BYLAYER
 62
     7
 10
851.600683
 20
-114.484642
 30
0.0
 11
851.600683
 21
-122.484642
 31
0.0
  0
LINE
  8
0
  6
BYLAYER
 62
     7
 10
851.600683
 20
-122.484642
 30
0.0
 11
843.600683
 21
-122.484642
 31
0.0
  0
LINE
  8
0
  6
BYLAYER
 62
     7
 10
851.600683
 20
-114.484642
 30
0.0
 11
843.600683
 21
-114.484642
 31
0.0
  0
LINE
  8
0
  6
BYLAYER
 62
     7
 10
843.600683
 20
-122.484642
 30
0.0
 11
843.600683
 21
-114.484642
 31
0.0
  0
LINE
  8
0
  6
BYLAYER
 62
     7
 10
891.600683
 20
-84.484642
 30
0.0
 11
891.600683
 21
-92.484642
 31
0.0
  0
LINE
  8
0
  6
BYLAYER
 62
     7
 10
883.600683
 20
-92.484642
 30
0.0
 11
883.600683
 21
-84.484642
 31
0.0
  0
LINE
  8
0
  6
BYLAYER
 62
     7
 10
881.600683
 20
-92.484642
 30
0.0
 11
881.600683
 21
-84.484642
 31
0.0
  0
LINE
  8
0
  6
BYLAYER
 62
     7
 10
881.600683
 20
-92.484642
 30
0.0
 11
873.762684
 21
-92.484642
 31
0.0
  0
LINE
  8
0
  6
BYLAYER
 62
     7
 10
891.600683
 20
-92.484642
 30
0.0
 11
883.600683
 21
-92.484642
 31
0.0
  0
LINE
  8
0
  6
BYLAYER
 62
     7
 10
881.600683
 20
-84.484642
 30
0.0
 11
873.762684
 21
-84.484642
 31
0.0
  0
LINE
  8
0
  6
BYLAYER
 62
     7
 10
891.600683
 20
-84.484642
 30
0.0
 11
883.600683
 21
-84.484642
 31
0.0
  0
LINE
  8
0
  6
BYLAYER
 62
     7
 10
873.762684
 20
-92.484642
 30
0.0
 11
873.762684
 21
-84.484642
 31
0.0
  0
LINE
  8
0
  6
BYLAYER
 62
     7
 10
831.600683
 20
-142.484642
 30
0.0
 11
823.600683
 21
-142.484642
 31
0.0
  0
LINE
  8
0
  6
BYLAYER
 62
     7
 10
831.600683
 20
-134.484642
 30
0.0
 11
831.600683
 21
-142.484642
 31
0.0
  0
LINE
  8
0
  6
BYLAYER
 62
     7
 10
831.600683
 20
-134.484642
 30
0.0
 11
823.600683
 21
-134.484642
 31
0.0
  0
LINE
  8
0
  6
BYLAYER
 62
     7
 10
823.600683
 20
-142.484642
 30
0.0
 11
823.600683
 21
-134.484642
 31
0.0
  0
LINE
  8
0
  6
BYLAYER
 62
     7
 10
831.600683
 20
-152.484642
 30
0.0
 11
823.600683
 21
-152.484642
 31
0.0
  0
LINE
  8
0
  6
BYLAYER
 62
     7
 10
831.600683
 20
-144.484642
 30
0.0
 11
831.600683
 21
-152.484642
 31
0.0
  0
LINE
  8
0
  6
BYLAYER
 62
     7
 10
831.600683
 20
-144.484642
 30
0.0
 11
823.600683
 21
-144.484642
 31
0.0
  0
LINE
  8
0
  6
BYLAYER
 62
     7
 10
823.600683
 20
-152.484642
 30
0.0
 11
823.600683
 21
-144.484642
 31
0.0
  0
LINE
  8
0
  6
BYLAYER
 62
     7
 10
861.600683
 20
-94.484642
 30
0.0
 11
861.600683
 21
-102.484642
 31
0.0
  0
LINE
  8
0
  6
BYLAYER
 62
     7
 10
861.600683
 20
-102.484642
 30
0.0
 11
853.600683
 21
-102.484642
 31
0.0
  0
LINE
  8
0
  6
BYLAYER
 62
     7
 10
861.600683
 20
-94.484642
 30
0.0
 11
853.600683
 21
-94.484642
 31
0.0
  0
LINE
  8
0
  6
BYLAYER
 62
     7
 10
853.600683
 20
-102.484642
 30
0.0
 11
853.600683
 21
-94.484642
 31
0.0
  0
LINE
  8
0
  6
BYLAYER
 62
     7
 10
851.600683
 20
-104.484642
 30
0.0
 11
851.600683
 21
-112.484642
 31
0.0
  0
LINE
  8
0
  6
BYLAYER
 62
     7
 10
851.600683
 20
-112.484642
 30
0.0
 11
843.600683
 21
-112.484642
 31
0.0
  0
LINE
  8
0
  6
BYLAYER
 62
     7
 10
851.600683
 20
-104.484642
 30
0.0
 11
843.600683
 21
-104.484642
 31
0.0
  0
LINE
  8
0
  6
BYLAYER
 62
     7
 10
843.600683
 20
-112.484642
 30
0.0
 11
843.600683
 21
-104.484642
 31
0.0
  0
LINE
  8
0
  6
BYLAYER
 62
     7
 10
841.600683
 20
-114.484642
 30
0.0
 11
841.600683
 21
-122.484642
 31
0.0
  0
LINE
  8
0
  6
BYLAYER
 62
     7
 10
841.600683
 20
-122.484642
 30
0.0
 11
833.600683
 21
-122.484642
 31
0.0
  0
LINE
  8
0
  6
BYLAYER
 62
     7
 10
841.600683
 20
-114.484642
 30
0.0
 11
833.600683
 21
-114.484642
 31
0.0
  0
LINE
  8
0
  6
BYLAYER
 62
     7
 10
833.600683
 20
-122.484642
 30
0.0
 11
833.600683
 21
-114.484642
 31
0.0
  0
LINE
  8
0
  6
BYLAYER
 62
     7
 10
891.600683
 20
-74.484642
 30
0.0
 11
891.600683
 21
-82.484642
 31
0.0
  0
LINE
  8
0
  6
BYLAYER
 62
     7
 10
883.600683
 20
-82.484642
 30
0.0
 11
883.600683
 21
-74.484642
 31
0.0
  0
LINE
  8
0
  6
BYLAYER
 62
     7
 10
891.600683
 20
-82.484642
 30
0.0
 11
883.600683
 21
-82.484642
 31
0.0
  0
LINE
  8
0
  6
BYLAYER
 62
     7
 10
891.600683
 20
-74.484642
 30
0.0
 11
883.600683
 21
-74.484642
 31
0.0
  0
LINE
  8
0
  6
BYLAYER
 62
     7
 10
821.600683
 20
-152.484642
 30
0.0
 11
813.600683
 21
-152.484642
 31
0.0
  0
LINE
  8
0
  6
BYLAYER
 62
     7
 10
821.600683
 20
-144.484642
 30
0.0
 11
821.600683
 21
-152.484642
 31
0.0
  0
LINE
  8
0
  6
BYLAYER
 62
     7
 10
821.600683
 20
-144.484642
 30
0.0
 11
813.600683
 21
-144.484642
 31
0.0
  0
LINE
  8
0
  6
BYLAYER
 62
     7
 10
813.600683
 20
-152.484642
 30
0.0
 11
813.600683
 21
-144.484642
 31
0.0
  0
LINE
  8
0
  6
BYLAYER
 62
     7
 10
871.600683
 20
-84.484642
 30
0.0
 11
871.600683
 21
-92.484642
 31
0.0
  0
LINE
  8
0
  6
BYLAYER
 62
     7
 10
871.600683
 20
-92.484642
 30
0.0
 11
863.600683
 21
-92.484642
 31
0.0
  0
LINE
  8
0
  6
BYLAYER
 62
     7
 10
871.600683
 20
-84.484642
 30
0.0
 11
863.600683
 21
-84.484642
 31
0.0
  0
LINE
  8
0
  6
BYLAYER
 62
     7
 10
863.600683
 20
-92.484642
 30
0.0
 11
863.600683
 21
-84.484642
 31
0.0
  0
LINE
  8
0
  6
BYLAYER
 62
     7
 10
831.600683
 20
-124.484642
 30
0.0
 11
831.600683
 21
-132.484642
 31
0.0
  0
LINE
  8
0
  6
BYLAYER
 62
     7
 10
831.600683
 20
-132.484642
 30
0.0
 11
823.600683
 21
-132.484642
 31
0.0
  0
LINE
  8
0
  6
BYLAYER
 62
     7
 10
831.600683
 20
-124.484642
 30
0.0
 11
823.600683
 21
-124.484642
 31
0.0
  0
LINE
  8
0
  6
BYLAYER
 62
     7
 10
823.600683
 20
-132.484642
 30
0.0
 11
823.600683
 21
-124.484642
 31
0.0
  0
LINE
  8
0
  6
BYLAYER
 62
     7
 10
861.600683
 20
-84.484642
 30
0.0
 11
861.600683
 21
-92.484642
 31
0.0
  0
LINE
  8
0
  6
BYLAYER
 62
     7
 10
861.600683
 20
-92.484642
 30
0.0
 11
853.600683
 21
-92.484642
 31
0.0
  0
LINE
  8
0
  6
BYLAYER
 62
     7
 10
861.600683
 20
-84.484642
 30
0.0
 11
853.600683
 21
-84.484642
 31
0.0
  0
LINE
  8
0
  6
BYLAYER
 62
     7
 10
853.600683
 20
-92.484642
 30
0.0
 11
853.600683
 21
-84.484642
 31
0.0
  0
LINE
  8
0
  6
BYLAYER
 62
     7
 10
851.600683
 20
-94.484642
 30
0.0
 11
851.600683
 21
-102.484642
 31
0.0
  0
LINE
  8
0
  6
BYLAYER
 62
     7
 10
851.600683
 20
-102.484642
 30
0.0
 11
843.600683
 21
-102.484642
 31
0.0
  0
LINE
  8
0
  6
BYLAYER
 62
     7
 10
851.600683
 20
-94.484642
 30
0.0
 11
843.600683
 21
-94.484642
 31
0.0
  0
LINE
  8
0
  6
BYLAYER
 62
     7
 10
843.600683
 20
-102.484642
 30
0.0
 11
843.600683
 21
-94.484642
 31
0.0
  0
LINE
  8
0
  6
BYLAYER
 62
     7
 10
841.600683
 20
-104.484642
 30
0.0
 11
841.600683
 21
-112.484642
 31
0.0
  0
LINE
  8
0
  6
BYLAYER
 62
     7
 10
841.600683
 20
-112.484642
 30
0.0
 11
833.600683
 21
-112.484642
 31
0.0
  0
LINE
  8
0
  6
BYLAYER
 62
     7
 10
841.600683
 20
-104.484642
 30
0.0
 11
833.600683
 21
-104.484642
 31
0.0
  0
LINE
  8
0
  6
BYLAYER
 62
     7
 10
833.600683
 20
-112.484642
 30
0.0
 11
833.600683
 21
-104.484642
 31
0.0
  0
LINE
  8
0
  6
BYLAYER
 62
     7
 10
831.600683
 20
-114.484642
 30
0.0
 11
831.600683
 21
-122.484642
 31
0.0
  0
LINE
  8
0
  6
BYLAYER
 62
     7
 10
831.600683
 20
-122.484642
 30
0.0
 11
823.600683
 21
-122.484642
 31
0.0
  0
LINE
  8
0
  6
BYLAYER
 62
     7
 10
831.600683
 20
-114.484642
 30
0.0
 11
823.600683
 21
-114.484642
 31
0.0
  0
LINE
  8
0
  6
BYLAYER
 62
     7
 10
823.600683
 20
-122.484642
 30
0.0
 11
823.600683
 21
-114.484642
 31
0.0
  0
LINE
  8
0
  6
BYLAYER
 62
     7
 10
881.600683
 20
-82.484642
 30
0.0
 11
881.600683
 21
-74.484642
 31
0.0
  0
LINE
  8
0
  6
BYLAYER
 62
     7
 10
881.600683
 20
-82.484642
 30
0.0
 11
873.762684
 21
-82.484642
 31
0.0
  0
LINE
  8
0
  6
BYLAYER
 62
     7
 10
881.600683
 20
-74.484642
 30
0.0
 11
873.762684
 21
-74.484642
 31
0.0
  0
LINE
  8
0
  6
BYLAYER
 62
     7
 10
873.762684
 20
-82.484642
 30
0.0
 11
873.762684
 21
-74.484642
 31
0.0
  0
LINE
  8
0
  6
BYLAYER
 62
     7
 10
821.600683
 20
-142.484642
 30
0.0
 11
813.600683
 21
-142.484642
 31
0.0
  0
LINE
  8
0
  6
BYLAYER
 62
     7
 10
821.600683
 20
-134.484642
 30
0.0
 11
821.600683
 21
-142.484642
 31
0.0
  0
LINE
  8
0
  6
BYLAYER
 62
     7
 10
821.600683
 20
-134.484642
 30
0.0
 11
813.600683
 21
-134.484642
 31
0.0
  0
LINE
  8
0
  6
BYLAYER
 62
     7
 10
813.600683
 20
-142.484642
 30
0.0
 11
813.600683
 21
-134.484642
 31
0.0
  0
LINE
  8
0
  6
BYLAYER
 62
     7
 10
891.600683
 20
-182.484642
 30
0.0
 11
891.600683
 21
-174.484642
 31
0.0
  0
LINE
  8
0
  6
BYLAYER
 62
     7
 10
891.600683
 20
-192.484642
 30
0.0
 11
891.600683
 21
-184.484642
 31
0.0
  0
LINE
  8
0
  6
BYLAYER
 62
     7
 10
883.600683
 20
-184.484642
 30
0.0
 11
883.600683
 21
-192.484642
 31
0.0
  0
LINE
  8
0
  6
BYLAYER
 62
     7
 10
881.600683
 20
-184.484642
 30
0.0
 11
881.600683
 21
-192.484642
 31
0.0
  0
LINE
  8
0
  6
BYLAYER
 62
     7
 10
891.600683
 20
-174.484642
 30
0.0
 11
883.600683
 21
-174.484642
 31
0.0
  0
LINE
  8
0
  6
BYLAYER
 62
     7
 10
891.600683
 20
-182.484642
 30
0.0
 11
883.600683
 21
-182.484642
 31
0.0
  0
LINE
  8
0
  6
BYLAYER
 62
     7
 10
881.600683
 20
-184.484642
 30
0.0
 11
873.762684
 21
-184.484642
 31
0.0
  0
LINE
  8
0
  6
BYLAYER
 62
     7
 10
891.600683
 20
-184.484642
 30
0.0
 11
883.600683
 21
-184.484642
 31
0.0
  0
LINE
  8
0
  6
BYLAYER
 62
     7
 10
881.600683
 20
-192.484642
 30
0.0
 11
873.762684
 21
-192.484642
 31
0.0
  0
LINE
  8
0
  6
BYLAYER
 62
     7
 10
891.600683
 20
-192.484642
 30
0.0
 11
883.600683
 21
-192.484642
 31
0.0
  0
LINE
  8
0
  6
BYLAYER
 62
     7
 10
873.762684
 20
-184.484642
 30
0.0
 11
873.762684
 21
-192.484642
 31
0.0
  0
LINE
  8
0
  6
BYLAYER
 62
     7
 10
883.600683
 20
-174.484642
 30
0.0
 11
883.600683
 21
-182.484642
 31
0.0
  0
LINE
  8
0
  6
BYLAYER
 62
     7
 10
881.600683
 20
-182.484642
 30
0.0
 11
881.600683
 21
-174.484642
 31
0.0
  0
LINE
  8
0
  6
BYLAYER
 62
     7
 10
881.600683
 20
-174.484642
 30
0.0
 11
873.600683
 21
-174.484642
 31
0.0
  0
LINE
  8
0
  6
BYLAYER
 62
     7
 10
881.600683
 20
-182.484642
 30
0.0
 11
873.600683
 21
-182.484642
 31
0.0
  0
LINE
  8
0
  6
BYLAYER
 62
     7
 10
873.600683
 20
-174.484642
 30
0.0
 11
873.600683
 21
-182.484642
 31
0.0
  0
LINE
  8
0
  6
BYLAYER
 62
     7
 10
871.600683
 20
-164.484642
 30
0.0
 11
863.600683
 21
-164.484642
 31
0.0
  0
LINE
  8
0
  6
BYLAYER
 62
     7
 10
871.600683
 20
-182.484642
 30
0.0
 11
871.600683
 21
-174.484642
 31
0.0
  0
LINE
  8
0
  6
BYLAYER
 62
     7
 10
871.600683
 20
-172.484642
 30
0.0
 11
871.600683
 21
-164.484642
 31
0.0
  0
LINE
  8
0
  6
BYLAYER
 62
     7
 10
871.600683
 20
-172.484642
 30
0.0
 11
863.600683
 21
-172.484642
 31
0.0
  0
LINE
  8
0
  6
BYLAYER
 62
     7
 10
871.600683
 20
-174.484642
 30
0.0
 11
863.600683
 21
-174.484642
 31
0.0
  0
LINE
  8
0
  6
BYLAYER
 62
     7
 10
871.600683
 20
-182.484642
 30
0.0
 11
863.600683
 21
-182.484642
 31
0.0
  0
LINE
  8
0
  6
BYLAYER
 62
     7
 10
863.600683
 20
-164.484642
 30
0.0
 11
863.600683
 21
-172.484642
 31
0.0
  0
LINE
  8
0
  6
BYLAYER
 62
     7
 10
863.600683
 20
-174.484642
 30
0.0
 11
863.600683
 21
-182.484642
 31
0.0
  0
LINE
  8
0
  6
BYLAYER
 62
     7
 10
871.600683
 20
-154.484642
 30
0.0
 11
863.600683
 21
-154.484642
 31
0.0
  0
LINE
  8
0
  6
BYLAYER
 62
     7
 10
871.600683
 20
-162.484642
 30
0.0
 11
871.600683
 21
-154.484642
 31
0.0
  0
LINE
  8
0
  6
BYLAYER
 62
     7
 10
871.600683
 20
-162.484642
 30
0.0
 11
863.600683
 21
-162.484642
 31
0.0
  0
LINE
  8
0
  6
BYLAYER
 62
     7
 10
863.600683
 20
-154.484642
 30
0.0
 11
863.600683
 21
-162.484642
 31
0.0
  0
LINE
  8
0
  6
BYLAYER
 62
     7
 10
861.600683
 20
-164.484642
 30
0.0
 11
853.600683
 21
-164.484642
 31
0.0
  0
LINE
  8
0
  6
BYLAYER
 62
     7
 10
861.600683
 20
-172.484642
 30
0.0
 11
861.600683
 21
-164.484642
 31
0.0
  0
LINE
  8
0
  6
BYLAYER
 62
     7
 10
861.600683
 20
-172.484642
 30
0.0
 11
853.600683
 21
-172.484642
 31
0.0
  0
LINE
  8
0
  6
BYLAYER
 62
     7
 10
853.600683
 20
-164.484642
 30
0.0
 11
853.600683
 21
-172.484642
 31
0.0
  0
LINE
  8
0
  6
BYLAYER
 62
     7
 10
861.600683
 20
-154.484642
 30
0.0
 11
853.600683
 21
-154.484642
 31
0.0
  0
LINE
  8
0
  6
BYLAYER
 62
     7
 10
861.600683
 20
-162.484642
 30
0.0
 11
861.600683
 21
-154.484642
 31
0.0
  0
LINE
  8
0
  6
BYLAYER
 62
     7
 10
861.600683
 20
-162.484642
 30
0.0
 11
853.600683
 21
-162.484642
 31
0.0
  0
LINE
  8
0
  6
BYLAYER
 62
     7
 10
853.600683
 20
-154.484642
 30
0.0
 11
853.600683
 21
-162.484642
 31
0.0
  0
LINE
  8
0
  6
BYLAYER
 62
     7
 10
851.600683
 20
-164.484642
 30
0.0
 11
843.600683
 21
-164.484642
 31
0.0
  0
LINE
  8
0
  6
BYLAYER
 62
     7
 10
851.600683
 20
-172.484642
 30
0.0
 11
851.600683
 21
-164.484642
 31
0.0
  0
LINE
  8
0
  6
BYLAYER
 62
     7
 10
851.600683
 20
-172.484642
 30
0.0
 11
843.600683
 21
-172.484642
 31
0.0
  0
LINE
  8
0
  6
BYLAYER
 62
     7
 10
843.600683
 20
-164.484642
 30
0.0
 11
843.600683
 21
-172.484642
 31
0.0
  0
LINE
  8
0
  6
BYLAYER
 62
     7
 10
851.600683
 20
-154.484642
 30
0.0
 11
843.600683
 21
-154.484642
 31
0.0
  0
LINE
  8
0
  6
BYLAYER
 62
     7
 10
851.600683
 20
-162.484642
 30
0.0
 11
851.600683
 21
-154.484642
 31
0.0
  0
LINE
  8
0
  6
BYLAYER
 62
     7
 10
851.600683
 20
-162.484642
 30
0.0
 11
843.600683
 21
-162.484642
 31
0.0
  0
LINE
  8
0
  6
BYLAYER
 62
     7
 10
843.600683
 20
-154.484642
 30
0.0
 11
843.600683
 21
-162.484642
 31
0.0
  0
LINE
  8
0
  6
BYLAYER
 62
     7
 10
891.600683
 20
-202.484642
 30
0.0
 11
891.600683
 21
-194.484642
 31
0.0
  0
LINE
  8
0
  6
BYLAYER
 62
     7
 10
883.600683
 20
-194.484642
 30
0.0
 11
883.600683
 21
-202.484642
 31
0.0
  0
LINE
  8
0
  6
BYLAYER
 62
     7
 10
881.600683
 20
-194.484642
 30
0.0
 11
881.600683
 21
-202.484642
 31
0.0
  0
LINE
  8
0
  6
BYLAYER
 62
     7
 10
881.600683
 20
-194.484642
 30
0.0
 11
873.762684
 21
-194.484642
 31
0.0
  0
LINE
  8
0
  6
BYLAYER
 62
     7
 10
891.600683
 20
-194.484642
 30
0.0
 11
883.600683
 21
-194.484642
 31
0.0
  0
LINE
  8
0
  6
BYLAYER
 62
     7
 10
881.600683
 20
-202.484642
 30
0.0
 11
873.762684
 21
-202.484642
 31
0.0
  0
LINE
  8
0
  6
BYLAYER
 62
     7
 10
891.600683
 20
-202.484642
 30
0.0
 11
883.600683
 21
-202.484642
 31
0.0
  0
LINE
  8
0
  6
BYLAYER
 62
     7
 10
873.762684
 20
-194.484642
 30
0.0
 11
873.762684
 21
-202.484642
 31
0.0
  0
LINE
  8
0
  6
BYLAYER
 62
     7
 10
871.600683
 20
-192.484642
 30
0.0
 11
871.600683
 21
-184.484642
 31
0.0
  0
LINE
  8
0
  6
BYLAYER
 62
     7
 10
871.600683
 20
-184.484642
 30
0.0
 11
863.600683
 21
-184.484642
 31
0.0
  0
LINE
  8
0
  6
BYLAYER
 62
     7
 10
871.600683
 20
-192.484642
 30
0.0
 11
863.600683
 21
-192.484642
 31
0.0
  0
LINE
  8
0
  6
BYLAYER
 62
     7
 10
863.600683
 20
-184.484642
 30
0.0
 11
863.600683
 21
-192.484642
 31
0.0
  0
LINE
  8
0
  6
BYLAYER
 62
     7
 10
871.600683
 20
-202.484642
 30
0.0
 11
871.600683
 21
-194.484642
 31
0.0
  0
LINE
  8
0
  6
BYLAYER
 62
     7
 10
871.600683
 20
-194.484642
 30
0.0
 11
863.600683
 21
-194.484642
 31
0.0
  0
LINE
  8
0
  6
BYLAYER
 62
     7
 10
871.600683
 20
-202.484642
 30
0.0
 11
863.600683
 21
-202.484642
 31
0.0
  0
LINE
  8
0
  6
BYLAYER
 62
     7
 10
863.600683
 20
-194.484642
 30
0.0
 11
863.600683
 21
-202.484642
 31
0.0
  0
LINE
  8
0
  6
BYLAYER
 62
     7
 10
861.600683
 20
-182.484642
 30
0.0
 11
861.600683
 21
-174.484642
 31
0.0
  0
LINE
  8
0
  6
BYLAYER
 62
     7
 10
861.600683
 20
-174.484642
 30
0.0
 11
853.600683
 21
-174.484642
 31
0.0
  0
LINE
  8
0
  6
BYLAYER
 62
     7
 10
861.600683
 20
-182.484642
 30
0.0
 11
853.600683
 21
-182.484642
 31
0.0
  0
LINE
  8
0
  6
BYLAYER
 62
     7
 10
853.600683
 20
-174.484642
 30
0.0
 11
853.600683
 21
-182.484642
 31
0.0
  0
LINE
  8
0
  6
BYLAYER
 62
     7
 10
861.600683
 20
-192.484642
 30
0.0
 11
861.600683
 21
-184.484642
 31
0.0
  0
LINE
  8
0
  6
BYLAYER
 62
     7
 10
861.600683
 20
-184.484642
 30
0.0
 11
853.600683
 21
-184.484642
 31
0.0
  0
LINE
  8
0
  6
BYLAYER
 62
     7
 10
861.600683
 20
-192.484642
 30
0.0
 11
853.600683
 21
-192.484642
 31
0.0
  0
LINE
  8
0
  6
BYLAYER
 62
     7
 10
853.600683
 20
-184.484642
 30
0.0
 11
853.600683
 21
-192.484642
 31
0.0
  0
LINE
  8
0
  6
BYLAYER
 62
     7
 10
851.600683
 20
-182.484642
 30
0.0
 11
851.600683
 21
-174.484642
 31
0.0
  0
LINE
  8
0
  6
BYLAYER
 62
     7
 10
851.600683
 20
-174.484642
 30
0.0
 11
843.600683
 21
-174.484642
 31
0.0
  0
LINE
  8
0
  6
BYLAYER
 62
     7
 10
851.600683
 20
-182.484642
 30
0.0
 11
843.600683
 21
-182.484642
 31
0.0
  0
LINE
  8
0
  6
BYLAYER
 62
     7
 10
843.600683
 20
-174.484642
 30
0.0
 11
843.600683
 21
-182.484642
 31
0.0
  0
LINE
  8
0
  6
BYLAYER
 62
     7
 10
841.600683
 20
-164.484642
 30
0.0
 11
833.600683
 21
-164.484642
 31
0.0
  0
LINE
  8
0
  6
BYLAYER
 62
     7
 10
841.600683
 20
-172.484642
 30
0.0
 11
841.600683
 21
-164.484642
 31
0.0
  0
LINE
  8
0
  6
BYLAYER
 62
     7
 10
841.600683
 20
-172.484642
 30
0.0
 11
833.600683
 21
-172.484642
 31
0.0
  0
LINE
  8
0
  6
BYLAYER
 62
     7
 10
833.600683
 20
-164.484642
 30
0.0
 11
833.600683
 21
-172.484642
 31
0.0
  0
LINE
  8
0
  6
BYLAYER
 62
     7
 10
841.600683
 20
-154.484642
 30
0.0
 11
833.600683
 21
-154.484642
 31
0.0
  0
LINE
  8
0
  6
BYLAYER
 62
     7
 10
841.600683
 20
-162.484642
 30
0.0
 11
841.600683
 21
-154.484642
 31
0.0
  0
LINE
  8
0
  6
BYLAYER
 62
     7
 10
841.600683
 20
-162.484642
 30
0.0
 11
833.600683
 21
-162.484642
 31
0.0
  0
LINE
  8
0
  6
BYLAYER
 62
     7
 10
833.600683
 20
-154.484642
 30
0.0
 11
833.600683
 21
-162.484642
 31
0.0
  0
LINE
  8
0
  6
BYLAYER
 62
     7
 10
841.600683
 20
-182.484642
 30
0.0
 11
841.600683
 21
-174.484642
 31
0.0
  0
LINE
  8
0
  6
BYLAYER
 62
     7
 10
841.600683
 20
-174.484642
 30
0.0
 11
833.600683
 21
-174.484642
 31
0.0
  0
LINE
  8
0
  6
BYLAYER
 62
     7
 10
841.600683
 20
-182.484642
 30
0.0
 11
833.600683
 21
-182.484642
 31
0.0
  0
LINE
  8
0
  6
BYLAYER
 62
     7
 10
833.600683
 20
-174.484642
 30
0.0
 11
833.600683
 21
-182.484642
 31
0.0
  0
LINE
  8
0
  6
BYLAYER
 62
     7
 10
891.600683
 20
-212.484642
 30
0.0
 11
891.600683
 21
-204.484642
 31
0.0
  0
LINE
  8
0
  6
BYLAYER
 62
     7
 10
883.600683
 20
-204.484642
 30
0.0
 11
883.600683
 21
-212.484642
 31
0.0
  0
LINE
  8
0
  6
BYLAYER
 62
     7
 10
881.600683
 20
-204.484642
 30
0.0
 11
881.600683
 21
-212.484642
 31
0.0
  0
LINE
  8
0
  6
BYLAYER
 62
     7
 10
881.600683
 20
-204.484642
 30
0.0
 11
873.762684
 21
-204.484642
 31
0.0
  0
LINE
  8
0
  6
BYLAYER
 62
     7
 10
891.600683
 20
-204.484642
 30
0.0
 11
883.600683
 21
-204.484642
 31
0.0
  0
LINE
  8
0
  6
BYLAYER
 62
     7
 10
881.600683
 20
-212.484642
 30
0.0
 11
873.762684
 21
-212.484642
 31
0.0
  0
LINE
  8
0
  6
BYLAYER
 62
     7
 10
891.600683
 20
-212.484642
 30
0.0
 11
883.600683
 21
-212.484642
 31
0.0
  0
LINE
  8
0
  6
BYLAYER
 62
     7
 10
873.762684
 20
-204.484642
 30
0.0
 11
873.762684
 21
-212.484642
 31
0.0
  0
LINE
  8
0
  6
BYLAYER
 62
     7
 10
871.600683
 20
-212.484642
 30
0.0
 11
871.600683
 21
-204.484642
 31
0.0
  0
LINE
  8
0
  6
BYLAYER
 62
     7
 10
871.600683
 20
-204.484642
 30
0.0
 11
863.600683
 21
-204.484642
 31
0.0
  0
LINE
  8
0
  6
BYLAYER
 62
     7
 10
871.600683
 20
-212.484642
 30
0.0
 11
863.600683
 21
-212.484642
 31
0.0
  0
LINE
  8
0
  6
BYLAYER
 62
     7
 10
863.600683
 20
-204.484642
 30
0.0
 11
863.600683
 21
-212.484642
 31
0.0
  0
LINE
  8
0
  6
BYLAYER
 62
     7
 10
861.600683
 20
-202.484642
 30
0.0
 11
861.600683
 21
-194.484642
 31
0.0
  0
LINE
  8
0
  6
BYLAYER
 62
     7
 10
861.600683
 20
-194.484642
 30
0.0
 11
853.600683
 21
-194.484642
 31
0.0
  0
LINE
  8
0
  6
BYLAYER
 62
     7
 10
861.600683
 20
-202.484642
 30
0.0
 11
853.600683
 21
-202.484642
 31
0.0
  0
LINE
  8
0
  6
BYLAYER
 62
     7
 10
853.600683
 20
-194.484642
 30
0.0
 11
853.600683
 21
-202.484642
 31
0.0
  0
LINE
  8
0
  6
BYLAYER
 62
     7
 10
851.600683
 20
-192.484642
 30
0.0
 11
851.600683
 21
-184.484642
 31
0.0
  0
LINE
  8
0
  6
BYLAYER
 62
     7
 10
851.600683
 20
-184.484642
 30
0.0
 11
843.600683
 21
-184.484642
 31
0.0
  0
LINE
  8
0
  6
BYLAYER
 62
     7
 10
851.600683
 20
-192.484642
 30
0.0
 11
843.600683
 21
-192.484642
 31
0.0
  0
LINE
  8
0
  6
BYLAYER
 62
     7
 10
843.600683
 20
-184.484642
 30
0.0
 11
843.600683
 21
-192.484642
 31
0.0
  0
LINE
  8
0
  6
BYLAYER
 62
     7
 10
891.600683
 20
-222.484642
 30
0.0
 11
891.600683
 21
-214.484642
 31
0.0
  0
LINE
  8
0
  6
BYLAYER
 62
     7
 10
883.600683
 20
-214.484642
 30
0.0
 11
883.600683
 21
-222.484642
 31
0.0
  0
LINE
  8
0
  6
BYLAYER
 62
     7
 10
881.600683
 20
-214.484642
 30
0.0
 11
881.600683
 21
-222.484642
 31
0.0
  0
LINE
  8
0
  6
BYLAYER
 62
     7
 10
881.600683
 20
-214.484642
 30
0.0
 11
873.762684
 21
-214.484642
 31
0.0
  0
LINE
  8
0
  6
BYLAYER
 62
     7
 10
891.600683
 20
-214.484642
 30
0.0
 11
883.600683
 21
-214.484642
 31
0.0
  0
LINE
  8
0
  6
BYLAYER
 62
     7
 10
881.600683
 20
-222.484642
 30
0.0
 11
873.762684
 21
-222.484642
 31
0.0
  0
LINE
  8
0
  6
BYLAYER
 62
     7
 10
891.600683
 20
-222.484642
 30
0.0
 11
883.600683
 21
-222.484642
 31
0.0
  0
LINE
  8
0
  6
BYLAYER
 62
     7
 10
873.762684
 20
-214.484642
 30
0.0
 11
873.762684
 21
-222.484642
 31
0.0
  0
LINE
  8
0
  6
BYLAYER
 62
     7
 10
831.600683
 20
-164.484642
 30
0.0
 11
823.600683
 21
-164.484642
 31
0.0
  0
LINE
  8
0
  6
BYLAYER
 62
     7
 10
831.600683
 20
-172.484642
 30
0.0
 11
831.600683
 21
-164.484642
 31
0.0
  0
LINE
  8
0
  6
BYLAYER
 62
     7
 10
831.600683
 20
-172.484642
 30
0.0
 11
823.600683
 21
-172.484642
 31
0.0
  0
LINE
  8
0
  6
BYLAYER
 62
     7
 10
823.600683
 20
-164.484642
 30
0.0
 11
823.600683
 21
-172.484642
 31
0.0
  0
LINE
  8
0
  6
BYLAYER
 62
     7
 10
831.600683
 20
-154.484642
 30
0.0
 11
823.600683
 21
-154.484642
 31
0.0
  0
LINE
  8
0
  6
BYLAYER
 62
     7
 10
831.600683
 20
-162.484642
 30
0.0
 11
831.600683
 21
-154.484642
 31
0.0
  0
LINE
  8
0
  6
BYLAYER
 62
     7
 10
831.600683
 20
-162.484642
 30
0.0
 11
823.600683
 21
-162.484642
 31
0.0
  0
LINE
  8
0
  6
BYLAYER
 62
     7
 10
823.600683
 20
-154.484642
 30
0.0
 11
823.600683
 21
-162.484642
 31
0.0
  0
LINE
  8
0
  6
BYLAYER
 62
     7
 10
861.600683
 20
-212.484642
 30
0.0
 11
861.600683
 21
-204.484642
 31
0.0
  0
LINE
  8
0
  6
BYLAYER
 62
     7
 10
861.600683
 20
-204.484642
 30
0.0
 11
853.600683
 21
-204.484642
 31
0.0
  0
LINE
  8
0
  6
BYLAYER
 62
     7
 10
861.600683
 20
-212.484642
 30
0.0
 11
853.600683
 21
-212.484642
 31
0.0
  0
LINE
  8
0
  6
BYLAYER
 62
     7
 10
853.600683
 20
-204.484642
 30
0.0
 11
853.600683
 21
-212.484642
 31
0.0
  0
LINE
  8
0
  6
BYLAYER
 62
     7
 10
851.600683
 20
-202.484642
 30
0.0
 11
851.600683
 21
-194.484642
 31
0.0
  0
LINE
  8
0
  6
BYLAYER
 62
     7
 10
851.600683
 20
-194.484642
 30
0.0
 11
843.600683
 21
-194.484642
 31
0.0
  0
LINE
  8
0
  6
BYLAYER
 62
     7
 10
851.600683
 20
-202.484642
 30
0.0
 11
843.600683
 21
-202.484642
 31
0.0
  0
LINE
  8
0
  6
BYLAYER
 62
     7
 10
843.600683
 20
-194.484642
 30
0.0
 11
843.600683
 21
-202.484642
 31
0.0
  0
LINE
  8
0
  6
BYLAYER
 62
     7
 10
841.600683
 20
-192.484642
 30
0.0
 11
841.600683
 21
-184.484642
 31
0.0
  0
LINE
  8
0
  6
BYLAYER
 62
     7
 10
841.600683
 20
-184.484642
 30
0.0
 11
833.600683
 21
-184.484642
 31
0.0
  0
LINE
  8
0
  6
BYLAYER
 62
     7
 10
841.600683
 20
-192.484642
 30
0.0
 11
833.600683
 21
-192.484642
 31
0.0
  0
LINE
  8
0
  6
BYLAYER
 62
     7
 10
833.600683
 20
-184.484642
 30
0.0
 11
833.600683
 21
-192.484642
 31
0.0
  0
LINE
  8
0
  6
BYLAYER
 62
     7
 10
891.600683
 20
-232.484642
 30
0.0
 11
891.600683
 21
-224.484642
 31
0.0
  0
LINE
  8
0
  6
BYLAYER
 62
     7
 10
883.600683
 20
-224.484642
 30
0.0
 11
883.600683
 21
-232.484642
 31
0.0
  0
LINE
  8
0
  6
BYLAYER
 62
     7
 10
891.600683
 20
-224.484642
 30
0.0
 11
883.600683
 21
-224.484642
 31
0.0
  0
LINE
  8
0
  6
BYLAYER
 62
     7
 10
891.600683
 20
-232.484642
 30
0.0
 11
883.600683
 21
-232.484642
 31
0.0
  0
LINE
  8
0
  6
BYLAYER
 62
     7
 10
821.600683
 20
-154.484642
 30
0.0
 11
813.600683
 21
-154.484642
 31
0.0
  0
LINE
  8
0
  6
BYLAYER
 62
     7
 10
821.600683
 20
-162.484642
 30
0.0
 11
821.600683
 21
-154.484642
 31
0.0
  0
LINE
  8
0
  6
BYLAYER
 62
     7
 10
821.600683
 20
-162.484642
 30
0.0
 11
813.600683
 21
-162.484642
 31
0.0
  0
LINE
  8
0
  6
BYLAYER
 62
     7
 10
813.600683
 20
-154.484642
 30
0.0
 11
813.600683
 21
-162.484642
 31
0.0
  0
LINE
  8
0
  6
BYLAYER
 62
     7
 10
871.600683
 20
-222.484642
 30
0.0
 11
871.600683
 21
-214.484642
 31
0.0
  0
LINE
  8
0
  6
BYLAYER
 62
     7
 10
871.600683
 20
-214.484642
 30
0.0
 11
863.600683
 21
-214.484642
 31
0.0
  0
LINE
  8
0
  6
BYLAYER
 62
     7
 10
871.600683
 20
-222.484642
 30
0.0
 11
863.600683
 21
-222.484642
 31
0.0
  0
LINE
  8
0
  6
BYLAYER
 62
     7
 10
863.600683
 20
-214.484642
 30
0.0
 11
863.600683
 21
-222.484642
 31
0.0
  0
LINE
  8
0
  6
BYLAYER
 62
     7
 10
831.600683
 20
-182.484642
 30
0.0
 11
831.600683
 21
-174.484642
 31
0.0
  0
LINE
  8
0
  6
BYLAYER
 62
     7
 10
831.600683
 20
-174.484642
 30
0.0
 11
823.600683
 21
-174.484642
 31
0.0
  0
LINE
  8
0
  6
BYLAYER
 62
     7
 10
831.600683
 20
-182.484642
 30
0.0
 11
823.600683
 21
-182.484642
 31
0.0
  0
LINE
  8
0
  6
BYLAYER
 62
     7
 10
823.600683
 20
-174.484642
 30
0.0
 11
823.600683
 21
-182.484642
 31
0.0
  0
LINE
  8
0
  6
BYLAYER
 62
     7
 10
861.600683
 20
-222.484642
 30
0.0
 11
861.600683
 21
-214.484642
 31
0.0
  0
LINE
  8
0
  6
BYLAYER
 62
     7
 10
861.600683
 20
-214.484642
 30
0.0
 11
853.600683
 21
-214.484642
 31
0.0
  0
LINE
  8
0
  6
BYLAYER
 62
     7
 10
861.600683
 20
-222.484642
 30
0.0
 11
853.600683
 21
-222.484642
 31
0.0
  0
LINE
  8
0
  6
BYLAYER
 62
     7
 10
853.600683
 20
-214.484642
 30
0.0
 11
853.600683
 21
-222.484642
 31
0.0
  0
LINE
  8
0
  6
BYLAYER
 62
     7
 10
851.600683
 20
-212.484642
 30
0.0
 11
851.600683
 21
-204.484642
 31
0.0
  0
LINE
  8
0
  6
BYLAYER
 62
     7
 10
851.600683
 20
-204.484642
 30
0.0
 11
843.600683
 21
-204.484642
 31
0.0
  0
LINE
  8
0
  6
BYLAYER
 62
     7
 10
851.600683
 20
-212.484642
 30
0.0
 11
843.600683
 21
-212.484642
 31
0.0
  0
LINE
  8
0
  6
BYLAYER
 62
     7
 10
843.600683
 20
-204.484642
 30
0.0
 11
843.600683
 21
-212.484642
 31
0.0
  0
LINE
  8
0
  6
BYLAYER
 62
     7
 10
841.600683
 20
-202.484642
 30
0.0
 11
841.600683
 21
-194.484642
 31
0.0
  0
LINE
  8
0
  6
BYLAYER
 62
     7
 10
841.600683
 20
-194.484642
 30
0.0
 11
833.600683
 21
-194.484642
 31
0.0
  0
LINE
  8
0
  6
BYLAYER
 62
     7
 10
841.600683
 20
-202.484642
 30
0.0
 11
833.600683
 21
-202.484642
 31
0.0
  0
LINE
  8
0
  6
BYLAYER
 62
     7
 10
833.600683
 20
-194.484642
 30
0.0
 11
833.600683
 21
-202.484642
 31
0.0
  0
LINE
  8
0
  6
BYLAYER
 62
     7
 10
831.600683
 20
-192.484642
 30
0.0
 11
831.600683
 21
-184.484642
 31
0.0
  0
LINE
  8
0
  6
BYLAYER
 62
     7
 10
831.600683
 20
-184.484642
 30
0.0
 11
823.600683
 21
-184.484642
 31
0.0
  0
LINE
  8
0
  6
BYLAYER
 62
     7
 10
831.600683
 20
-192.484642
 30
0.0
 11
823.600683
 21
-192.484642
 31
0.0
  0
LINE
  8
0
  6
BYLAYER
 62
     7
 10
823.600683
 20
-184.484642
 30
0.0
 11
823.600683
 21
-192.484642
 31
0.0
  0
LINE
  8
0
  6
BYLAYER
 62
     7
 10
881.600683
 20
-224.484642
 30
0.0
 11
881.600683
 21
-232.484642
 31
0.0
  0
LINE
  8
0
  6
BYLAYER
 62
     7
 10
881.600683
 20
-224.484642
 30
0.0
 11
873.762684
 21
-224.484642
 31
0.0
  0
LINE
  8
0
  6
BYLAYER
 62
     7
 10
881.600683
 20
-232.484642
 30
0.0
 11
873.762684
 21
-232.484642
 31
0.0
  0
LINE
  8
0
  6
BYLAYER
 62
     7
 10
873.762684
 20
-224.484642
 30
0.0
 11
873.762684
 21
-232.484642
 31
0.0
  0
LINE
  8
0
  6
BYLAYER
 62
     7
 10
821.600683
 20
-164.484642
 30
0.0
 11
813.600683
 21
-164.484642
 31
0.0
  0
LINE
  8
0
  6
BYLAYER
 62
     7
 10
821.600683
 20
-172.484642
 30
0.0
 11
821.600683
 21
-164.484642
 31
0.0
  0
LINE
  8
0
  6
BYLAYER
 62
     7
 10
821.600683
 20
-172.484642
 30
0.0
 11
813.600683
 21
-172.484642
 31
0.0
  0
LINE
  8
0
  6
BYLAYER
 62
     7
 10
813.600683
 20
-164.484642
 30
0.0
 11
813.600683
 21
-172.484642
 31
0.0
  0
CIRCLE
  8
0
  6
BYLAYER
 62
     7
 10
892.600683
 20
-153.484642
 30
0.0
 40
82.542439
  0
LINE
  8
0
  6
BYLAYER
 62
     7
 10
843.600683
 20
-433.484642
 30
0.0
 11
941.600652
 21
-433.484642
 31
0.0
  0
LINE
  8
0
  6
BYLAYER
 62
     7
 10
843.600683
 20
-465.484611
 30
0.0
 11
843.600683
 21
-433.484642
 31
0.0
  0
ARC
  8
0
  6
BYLAYER
 62
     7
 10
844.600683
 20
-465.484611
 30
0.0
 40
1.0
 50
180.000000
 51
255.522488
  0
LINE
  8
0
  6
BYLAYER
 62
     7
 10
941.600652
 20
-465.484611
 30
0.0
 11
941.600652
 21
-433.484642
 31
0.0
  0
ARC
  8
0
  6
BYLAYER
 62
     7
 10
940.600652
 20
-465.484611
 30
0.0
 40
1.000000
 50
284.477512
 51
359.999999
  0
ARC
  8
0
  6
BYLAYER
 62
     7
 10
789.958562
 20
-570.235557
 30
0.0
 40
0.499998
 50
90.0
 51
189.268938
  0
ARC
  8
0
  6
BYLAYER
 62
     7
 10
892.600683
 20
-553.484642
 30
0.0
 40
104.499985
 50
189.268804
 51
193.201381
  0
ARC
  8
0
  6
BYLAYER
 62
     7
 10
791.349065
 20
-577.235557
 30
0.0
 40
0.500001
 50
193.201408
 51
270.000001
  0
LINE
  8
0
  6
BYLAYER
 62
     7
 10
789.958562
 20
-569.735557
 30
0.0
 11
801.972992
 21
-569.316016
 31
0.0
  0
LINE
  8
0
  6
BYLAYER
 62
     7
 10
791.349065
 20
-577.735557
 30
0.0
 11
803.976068
 21
-578.176504
 31
0.0
  0
LINE
  8
0
  6
BYLAYER
 62
     7
 10
801.432287
 20
-505.394310
 30
0.0
 11
814.450854
 21
-504.939719
 31
0.0
  0
LINE
  8
0
  6
BYLAYER
 62
     7
 10
812.931010
 20
-507.476505
 30
0.0
 11
801.432287
 21
-507.075004
 31
0.0
  0
LINE
  8
0
  6
BYLAYER
 62
     7
 10
795.615972
 20
-518.896843
 30
0.0
 11
807.519785
 21
-518.481120
 31
0.0
  0
LINE
  8
0
  6
BYLAYER
 62
     7
 10
806.543894
 20
-520.954121
 30
0.0
 11
795.615972
 21
-520.572471
 31
0.0
  0
LINE
  8
0
  6
BYLAYER
 62
     7
 10
809.821905
 20
-491.890007
 30
0.0
 11
824.735481
 21
-491.369271
 31
0.0
  0
LINE
  8
0
  6
BYLAYER
 62
     7
 10
822.402447
 20
-494.018579
 30
0.0
 11
809.821905
 21
-493.579216
 31
0.0
  0
LINE
  8
0
  6
BYLAYER
 62
     7
 10
821.695318
 20
-478.382255
 30
0.0
 11
840.398132
 21
-477.729129
 31
0.0
  0
LINE
  8
0
  6
BYLAYER
 62
     7
 10
821.695318
 20
-480.087028
 30
0.0
 11
836.456214
 21
-480.602526
 31
0.0
  0
ARC
  8
0
  6
BYLAYER
 62
     7
 10
821.725072
 20
-479.234672
 30
0.0
 40
0.852936
 50
91.999185
 51
268.000777
  0
ARC
  8
0
  6
BYLAYER
 62
     7
 10
809.851385
 20
-492.734672
 30
0.0
 40
0.845180
 50
91.999014
 51
267.998892
  0
ARC
  8
0
  6
BYLAYER
 62
     7
 10
801.461645
 20
-506.234642
 30
0.0
 40
0.840845
 50
92.000859
 51
267.999138
  0
ARC
  8
0
  6
BYLAYER
 62
     7
 10
795.645238
 20
-519.734642
 30
0.0
 40
0.838310
 50
92.000606
 51
267.999384
  0
LINE
  8
0
  6
BYLAYER
 62
     7
 10
795.616002
 20
-586.396812
 30
0.0
 11
806.543879
 21
-586.015187
 31
0.0
  0
LINE
  8
0
  6
BYLAYER
 62
     7
 10
807.519764
 20
-588.488170
 30
0.0
 11
795.616002
 21
-588.072471
 31
0.0
  0
ARC
  8
0
  6
BYLAYER
 62
     7
 10
795.645269
 20
-587.234642
 30
0.0
 40
0.838341
 50
92.000613
 51
267.999384
  0
LINE
  8
0
  6
BYLAYER
 62
     7
 10
801.432104
 20
-599.894310
 30
0.0
 11
812.930978
 21
-599.492762
 31
0.0
  0
LINE
  8
0
  6
BYLAYER
 62
     7
 10
814.450860
 20
-602.029611
 30
0.0
 11
801.432104
 21
-601.574974
 31
0.0
  0
ARC
  8
0
  6
BYLAYER
 62
     7
 10
801.461461
 20
-600.734642
 30
0.0
 40
0.840845
 50
92.000879
 51
267.999110
  0
ARC
  8
0
  6
BYLAYER
 62
     7
 10
809.851201
 20
-614.234642
 30
0.0
 40
0.845119
 50
91.999062
 51
268.000941
  0
LINE
  8
0
  6
BYLAYER
 62
     7
 10
824.735494
 20
-615.600046
 30
0.0
 11
809.821721
 21
-615.079216
 31
0.0
  0
LINE
  8
0
  6
BYLAYER
 62
     7
 10
809.821721
 20
-613.390037
 30
0.0
 11
822.402419
 21
-612.950694
 31
0.0
  0
ARC
  8
0
  6
BYLAYER
 62
     7
 10
983.739873
 20
-600.734642
 30
0.0
 40
0.840845
 50
272.000891
 51
447.999119
  0
ARC
  8
0
  6
BYLAYER
 62
     7
 10
975.350164
 20
-614.234642
 30
0.0
 40
0.845119
 50
271.999060
 51
448.000936
  0
LINE
  8
0
  6
BYLAYER
 62
     7
 10
960.465843
 20
-615.600048
 30
0.0
 11
975.379644
 21
-615.079216
 31
0.0
  0
LINE
  8
0
  6
BYLAYER
 62
     7
 10
975.379644
 20
-613.390037
 30
0.0
 11
962.798921
 21
-612.950692
 31
0.0
  0
ARC
  8
0
  6
BYLAYER
 62
     7
 10
963.476262
 20
-479.234672
 30
0.0
 40
0.852937
 50
271.999224
 51
448.000813
  0
ARC
  8
0
  6
BYLAYER
 62
     7
 10
975.349981
 20
-492.734672
 30
0.0
 40
0.845180
 50
272.001110
 51
448.000984
  0
ARC
  8
0
  6
BYLAYER
 62
     7
 10
983.739690
 20
-506.234642
 30
0.0
 40
0.840845
 50
272.000864
 51
447.999140
  0
ARC
  8
0
  6
BYLAYER
 62
     7
 10
989.556096
 20
-519.734642
 30
0.0
 40
0.838311
 50
272.000618
 51
447.999392
  0
ARC
  8
0
  6
BYLAYER
 62
     7
 10
989.556096
 20
-587.234642
 30
0.0
 40
0.838340
 50
272.000618
 51
447.999385
  0
LINE
  8
0
  6
BYLAYER
 62
     7
 10
983.769231
 20
-599.894310
 30
0.0
 11
972.270358
 21
-599.492764
 31
0.0
  0
LINE
  8
0
  6
BYLAYER
 62
     7
 10
970.750475
 20
-602.029614
 30
0.0
 11
983.769231
 21
-601.574974
 31
0.0
  0
LINE
  8
0
  6
BYLAYER
 62
     7
 10
989.585332
 20
-586.396812
 30
0.0
 11
978.657459
 21
-586.015187
 31
0.0
  0
LINE
  8
0
  6
BYLAYER
 62
     7
 10
977.681570
 20
-588.488179
 30
0.0
 11
989.585332
 21
-588.072471
 31
0.0
  0
LINE
  8
0
  6
BYLAYER
 62
     7
 10
989.585393
 20
-518.896843
 30
0.0
 11
977.681569
 21
-518.481106
 31
0.0
  0
LINE
  8
0
  6
BYLAYER
 62
     7
 10
978.657468
 20
-520.954125
 30
0.0
 11
989.585393
 21
-520.572471
 31
0.0
  0
LINE
  8
0
  6
BYLAYER
 62
     7
 10
983.769048
 20
-505.394310
 30
0.0
 11
970.750492
 21
-504.939699
 31
0.0
  0
LINE
  8
0
  6
BYLAYER
 62
     7
 10
972.270357
 20
-507.476520
 30
0.0
 11
983.769048
 21
-507.075004
 31
0.0
  0
LINE
  8
0
  6
BYLAYER
 62
     7
 10
975.379461
 20
-491.890007
 30
0.0
 11
960.465838
 21
-491.369234
 31
0.0
  0
LINE
  8
0
  6
BYLAYER
 62
     7
 10
962.798915
 20
-494.018587
 30
0.0
 11
975.379461
 21
-493.579216
 31
0.0
  0
LINE
  8
0
  6
BYLAYER
 62
     7
 10
963.506048
 20
-478.382255
 30
0.0
 11
944.803258
 21
-477.729159
 31
0.0
  0
LINE
  8
0
  6
BYLAYER
 62
     7
 10
963.506048
 20
-480.087028
 30
0.0
 11
948.745121
 21
-480.602516
 31
0.0
  0
ARC
  8
0
  6
BYLAYER
 62
     7
 10
995.242803
 20
-536.733726
 30
0.0
 40
0.499998
 50
270.0
 51
369.268938
  0
ARC
  8
0
  6
BYLAYER
 62
     7
 10
892.600683
 20
-553.484642
 30
0.0
 40
104.499985
 50
9.268802
 51
13.201379
  0
ARC
  8
0
  6
BYLAYER
 62
     7
 10
993.852300
 20
-529.733726
 30
0.0
 40
0.499965
 50
13.201407
 51
90.000003
  0
LINE
  8
0
  6
BYLAYER
 62
     7
 10
995.242803
 20
-537.233726
 30
0.0
 11
983.228345
 21
-537.653272
 31
0.0
  0
LINE
  8
0
  6
BYLAYER
 62
     7
 10
993.852300
 20
-529.233726
 30
0.0
 11
981.225267
 21
-528.792777
 31
0.0
  0
LINE
  8
0
  6
BYLAYER
 62
     7
 10
993.275945
 20
-574.571037
 30
0.0
 11
982.058475
 21
-574.962744
 31
0.0
  0
LINE
  8
0
  6
BYLAYER
 62
     7
 10
982.608694
 20
-572.525738
 30
0.0
 11
993.275945
 21
-572.898246
 31
0.0
  0
ARC
  8
0
  6
BYLAYER
 62
     7
 10
993.246770
 20
-573.734550
 30
0.0
 40
0.836995
 50
272.000126
 51
447.999932
  0
LINE
  8
0
  6
BYLAYER
 62
     7
 10
792.749441
 20
-530.177238
 30
0.0
 11
803.703018
 21
-529.794751
 31
0.0
  0
ARC
  8
0
  6
BYLAYER
 62
     7
 10
792.784337
 20
-531.176628
 30
0.0
 40
0.999999
 50
91.999848
 51
180.000005
  0
LINE
  8
0
  6
BYLAYER
 62
     7
 10
791.784337
 20
-535.329399
 30
0.0
 11
791.784337
 21
-531.176628
 31
0.0
  0
LINE
  8
0
  6
BYLAYER
 62
     7
 10
792.749441
 20
-536.328788
 30
0.0
 11
802.152672
 21
-536.657193
 31
0.0
  0
ARC
  8
0
  6
BYLAYER
 62
     7
 10
792.784337
 20
-535.329399
 30
0.0
 40
1.0
 50
180.000000
 51
268.000144
  0
LINE
  8
0
  6
BYLAYER
 62
     7
 10
958.568456
 20
-632.174339
 30
0.0
 11
952.600683
 21
-624.397017
 31
0.0
  0
LINE
  8
0
  6
BYLAYER
 62
     7
 10
957.257451
 20
-633.255027
 30
0.0
 11
952.600683
 21
-627.991519
 31
0.0
  0
ARC
  8
0
  6
BYLAYER
 62
     7
 10
957.894079
 20
-632.691795
 30
0.0
 40
0.850015
 50
221.499606
 51
397.499361
  0
LINE
  8
0
  6
BYLAYER
 62
     7
 10
826.632909
 20
-632.174339
 30
0.0
 11
832.600683
 21
-624.397016
 31
0.0
  0
LINE
  8
0
  6
BYLAYER
 62
     7
 10
827.943914
 20
-633.255027
 30
0.0
 11
832.600683
 21
-627.991518
 31
0.0
  0
ARC
  8
0
  6
BYLAYER
 62
     7
 10
827.307287
 20
-632.691795
 30
0.0
 40
0.850015
 50
142.500641
 51
318.500409
  0
LINE
  8
0
  6
BYLAYER
 62
     7
 10
844.350683
 20
-466.452857
 30
0.0
 11
844.350683
 21
-475.152392
 31
0.0
  0
LINE
  8
0
  6
BYLAYER
 62
     7
 10
940.850652
 20
-466.452857
 30
0.0
 11
940.850652
 21
-475.152387
 31
0.0
  0
LINE
  8
0
  6
BYLAYER
 62
     7
 10
849.100683
 20
-422.984642
 30
0.0
 11
849.100683
 21
-401.484642
 31
0.0
  0
ARC
  8
0
  6
BYLAYER
 62
     7
 10
847.600683
 20
-422.984642
 30
0.0
 40
1.5
 50
270.0
 51
360.0
  0
ARC
  8
0
  6
BYLAYER
 62
     7
 10
850.600683
 20
-401.484642
 30
0.0
 40
1.5
 50
90.0
 51
180.0
  0
LINE
  8
0
  6
BYLAYER
 62
     7
 10
892.600683
 20
-399.984642
 30
0.0
 11
850.600683
 21
-399.984642
 31
0.0
  0
LINE
  8
0
  6
BYLAYER
 62
     7
 10
854.472924
 20
-422.984642
 30
0.0
 11
854.472924
 21
-401.484642
 31
0.0
  0
ARC
  8
0
  6
BYLAYER
 62
     7
 10
852.972924
 20
-422.984642
 30
0.0
 40
1.5
 50
270.0
 51
360.0
  0
ARC
  8
0
  6
BYLAYER
 62
     7
 10
855.972924
 20
-401.484642
 30
0.0
 40
1.5
 50
90.0
 51
180.0
  0
LINE
  8
0
  6
BYLAYER
 62
     7
 10
879.507030
 20
-399.984642
 30
0.0
 11
879.999577
 21
-414.089340
 31
0.0
  0
ARC
  8
0
  6
BYLAYER
 62
     7
 10
882.997749
 20
-413.984642
 30
0.0
 40
3.000000
 50
182.000000
 51
270.000000
  0
LINE
  8
0
  6
BYLAYER
 62
     7
 10
890.201789
 20
-414.089340
 30
0.0
 11
890.694336
 21
-399.984642
 31
0.0
  0
ARC
  8
0
  6
BYLAYER
 62
     7
 10
887.203617
 20
-413.984642
 30
0.0
 40
3.000000
 50
270.0
 51
358.0
  0
LINE
  8
0
  6
BYLAYER
 62
     7
 10
882.997749
 20
-416.984642
 30
0.0
 11
887.203617
 21
-416.984642
 31
0.0
  0
LINE
  8
0
  6
BYLAYER
 62
     7
 10
864.507030
 20
-399.984642
 30
0.0
 11
864.999577
 21
-414.089340
 31
0.0
  0
ARC
  8
0
  6
BYLAYER
 62
     7
 10
867.997749
 20
-413.984642
 30
0.0
 40
3.000000
 50
182.000000
 51
270.000000
  0
LINE
  8
0
  6
BYLAYER
 62
     7
 10
875.201789
 20
-414.089340
 30
0.0
 11
875.694336
 21
-399.984642
 31
0.0
  0
ARC
  8
0
  6
BYLAYER
 62
     7
 10
872.203617
 20
-413.984642
 30
0.0
 40
3.000000
 50
270.0
 51
358.0
  0
LINE
  8
0
  6
BYLAYER
 62
     7
 10
867.997749
 20
-416.984642
 30
0.0
 11
872.203617
 21
-416.984642
 31
0.0
  0
LINE
  8
0
  6
BYLAYER
 62
     7
 10
864.541951
 20
-400.984642
 30
0.0
 11
875.659415
 21
-400.984642
 31
0.0
  0
LINE
  8
0
  6
BYLAYER
 62
     7
 10
879.541951
 20
-400.984642
 30
0.0
 11
890.659415
 21
-400.984642
 31
0.0
  0
LINE
  8
0
  6
BYLAYER
 62
     7
 10
892.600683
 20
-424.484642
 30
0.0
 11
845.100683
 21
-424.484642
 31
0.0
  0
ARC
  8
0
  6
BYLAYER
 62
     7
 10
845.100683
 20
-425.984642
 30
0.0
 40
1.5
 50
90.0
 51
180.0
  0
LINE
  8
0
  6
BYLAYER
 62
     7
 10
843.600683
 20
-431.484642
 30
0.0
 11
843.600683
 21
-425.984642
 31
0.0
  0
LINE
  8
0
  6
BYLAYER
 62
     7
 10
843.600683
 20
-431.484642
 30
0.0
 11
892.600683
 21
-431.484642
 31
0.0
  0
LINE
  8
0
  6
BYLAYER
 62
     7
 10
936.100683
 20
-422.984642
 30
0.0
 11
936.100683
 21
-401.484642
 31
0.0
  0
ARC
  8
0
  6
BYLAYER
 62
     7
 10
937.600683
 20
-422.984642
 30
0.0
 40
1.5
 50
180.000000
 51
270.000000
  0
ARC
  8
0
  6
BYLAYER
 62
     7
 10
934.600683
 20
-401.484642
 30
0.0
 40
1.5
 50
0.0
 51
90.0
  0
LINE
  8
0
  6
BYLAYER
 62
     7
 10
892.600683
 20
-399.984642
 30
0.0
 11
934.600683
 21
-399.984642
 31
0.0
  0
LINE
  8
0
  6
BYLAYER
 62
     7
 10
930.728442
 20
-422.984642
 30
0.0
 11
930.728442
 21
-401.484642
 31
0.0
  0
ARC
  8
0
  6
BYLAYER
 62
     7
 10
932.228442
 20
-422.984642
 30
0.0
 40
1.5
 50
180.000000
 51
270.000000
  0
ARC
  8
0
  6
BYLAYER
 62
     7
 10
929.228442
 20
-401.484642
 30
0.0
 40
1.5
 50
0.0
 51
90.0
  0
LINE
  8
0
  6
BYLAYER
 62
     7
 10
905.694336
 20
-399.984642
 30
0.0
 11
905.201789
 21
-414.089340
 31
0.0
  0
ARC
  8
0
  6
BYLAYER
 62
     7
 10
902.203617
 20
-413.984642
 30
0.0
 40
3.000000
 50
270.0
 51
358.0
  0
LINE
  8
0
  6
BYLAYER
 62
     7
 10
894.999577
 20
-414.089340
 30
0.0
 11
894.507030
 21
-399.984642
 31
0.0
  0
ARC
  8
0
  6
BYLAYER
 62
     7
 10
897.997749
 20
-413.984642
 30
0.0
 40
3.000000
 50
182.000000
 51
270.000000
  0
LINE
  8
0
  6
BYLAYER
 62
     7
 10
902.203617
 20
-416.984642
 30
0.0
 11
897.997749
 21
-416.984642
 31
0.0
  0
LINE
  8
0
  6
BYLAYER
 62
     7
 10
920.694336
 20
-399.984642
 30
0.0
 11
920.201789
 21
-414.089340
 31
0.0
  0
ARC
  8
0
  6
BYLAYER
 62
     7
 10
917.203617
 20
-413.984642
 30
0.0
 40
3.000000
 50
270.0
 51
358.0
  0
LINE
  8
0
  6
BYLAYER
 62
     7
 10
909.999577
 20
-414.089340
 30
0.0
 11
909.507030
 21
-399.984642
 31
0.0
  0
ARC
  8
0
  6
BYLAYER
 62
     7
 10
912.997749
 20
-413.984642
 30
0.0
 40
3.000000
 50
182.000000
 51
270.000000
  0
LINE
  8
0
  6
BYLAYER
 62
     7
 10
917.203617
 20
-416.984642
 30
0.0
 11
912.997749
 21
-416.984642
 31
0.0
  0
LINE
  8
0
  6
BYLAYER
 62
     7
 10
920.659415
 20
-400.984642
 30
0.0
 11
909.541951
 21
-400.984642
 31
0.0
  0
LINE
  8
0
  6
BYLAYER
 62
     7
 10
905.659415
 20
-400.984642
 30
0.0
 11
894.541951
 21
-400.984642
 31
0.0
  0
LINE
  8
0
  6
BYLAYER
 62
     7
 10
892.600683
 20
-424.484642
 30
0.0
 11
940.100683
 21
-424.484642
 31
0.0
  0
ARC
  8
0
  6
BYLAYER
 62
     7
 10
940.100683
 20
-425.984642
 30
0.0
 40
1.5
 50
0.0
 51
90.0
  0
LINE
  8
0
  6
BYLAYER
 62
     7
 10
941.600683
 20
-433.484642
 30
0.0
 11
941.600683
 21
-425.984642
 31
0.0
  0
LINE
  8
0
  6
BYLAYER
 62
     7
 10
941.600683
 20
-431.484642
 30
0.0
 11
892.600683
 21
-431.484642
 31
0.0
  0
LINE
  8
0
  6
BYLAYER
 62
     7
 10
843.600683
 20
-433.484642
 30
0.0
 11
892.600667
 21
-433.484642
 31
0.0
  0
LINE
  8
0
  6
BYLAYER
 62
     7
 10
941.600667
 20
-433.484520
 30
0.0
 11
892.600667
 21
-433.484642
 31
0.0
  0
LINE
  8
0
  6
BYLAYER
 62
     7
 10
843.600683
 20
-431.484642
 30
0.0
 11
843.600683
 21
-433.484642
 31
0.0
  0
ARC
  8
0
  6
BYLAYER
 62
     7
 10
994.502600
 20
-561.914452
 30
0.0
 40
2.0
 50
285.000025
 51
355.271006
  0
ARC
  8
0
  6
BYLAYER
 62
     7
 10
892.600683
 20
-553.484642
 30
0.0
 40
104.250000
 50
355.271006
 51
364.729007
  0
ARC
  8
0
  6
BYLAYER
 62
     7
 10
994.502600
 20
-545.054832
 30
0.0
 40
2.0
 50
4.729010
 51
74.999971
  0
LINE
  8
0
  6
BYLAYER
 62
     7
 10
995.020239
 20
-543.122993
 30
0.0
 11
986.730932
 21
-540.901878
 31
0.0
  0
ARC
  8
0
  6
BYLAYER
 62
     7
 10
988.025060
 20
-536.072243
 30
0.0
 40
5.0
 50
190.341171
 51
254.999976
  0
LINE
  8
0
  6
BYLAYER
 62
     7
 10
995.020239
 20
-563.846306
 30
0.0
 11
986.730932
 21
-566.067406
 31
0.0
  0
ARC
  8
0
  6
BYLAYER
 62
     7
 10
988.025060
 20
-570.897034
 30
0.0
 40
5.0
 50
105.000034
 51
169.658825
  0
ARC
  8
0
  6
BYLAYER
 62
     7
 10
901.030493
 20
-451.582725
 30
0.0
 40
2.000000
 50
15.000034
 51
85.271015
  0
ARC
  8
0
  6
BYLAYER
 62
     7
 10
892.600683
 20
-553.484642
 30
0.0
 40
104.250000
 50
85.271015
 51
94.729007
  0
ARC
  8
0
  6
BYLAYER
 62
     7
 10
884.170873
 20
-451.582725
 30
0.0
 40
2.000000
 50
94.729014
 51
164.999967
  0
LINE
  8
0
  6
BYLAYER
 62
     7
 10
882.238989
 20
-451.065086
 30
0.0
 11
880.017919
 21
-459.354378
 31
0.0
  0
ARC
  8
0
  6
BYLAYER
 62
     7
 10
875.188329
 20
-458.060280
 30
0.0
 40
5.000000
 50
280.341180
 51
344.999986
  0
LINE
  8
0
  6
BYLAYER
 62
     7
 10
902.962377
 20
-451.065086
 30
0.0
 11
905.183447
 21
-459.354378
 31
0.0
  0
ARC
  8
0
  6
BYLAYER
 62
     7
 10
910.013037
 20
-458.060280
 30
0.0
 40
5.000000
 50
195.000043
 51
259.658821
  0
ARC
  8
0
  6
BYLAYER
 62
     7
 10
790.698766
 20
-545.054848
 30
0.0
 40
2.000000
 50
105.000044
 51
175.270997
  0
ARC
  8
0
  6
BYLAYER
 62
     7
 10
892.600683
 20
-553.484642
 30
0.0
 40
104.250000
 50
175.270997
 51
184.729009
  0
ARC
  8
0
  6
BYLAYER
 62
     7
 10
790.698766
 20
-561.914452
 30
0.0
 40
2.000000
 50
184.729009
 51
254.999976
  0
LINE
  8
0
  6
BYLAYER
 62
     7
 10
790.181127
 20
-563.846306
 30
0.0
 11
798.470434
 21
-566.067413
 31
0.0
  0
ARC
  8
0
  6
BYLAYER
 62
     7
 10
797.176306
 20
-570.897041
 30
0.0
 40
5.0
 50
10.341162
 51
74.999995
  0
LINE
  8
0
  6
BYLAYER
 62
     7
 10
790.181127
 20
-543.122993
 30
0.0
 11
798.470434
 21
-540.901878
 31
0.0
  0
ARC
  8
0
  6
BYLAYER
 62
     7
 10
797.176306
 20
-536.072258
 30
0.0
 40
5.0
 50
285.000025
 51
349.658830
  0
ARC
  8
0
  6
BYLAYER
 62
     7
 10
892.600714
 20
-553.484650
 30
0.0
 40
92.0
 50
10.341180
 51
79.658864
  0
ARC
  8
0
  6
BYLAYER
 62
     7
 10
892.600652
 20
-553.484636
 30
0.0
 40
92.0
 50
100.341182
 51
169.658825
  0
ARC
  8
0
  6
BYLAYER
 62
     7
 10
892.600622
 20
-553.484634
 30
0.0
 40
92.000000
 50
190.341185
 51
229.294343
  0
ARC
  8
0
  6
BYLAYER
 62
     7
 10
892.600714
 20
-553.484637
 30
0.0
 40
92.0
 50
310.705681
 51
349.65883
  0
ARC
  8
0
  6
BYLAYER
 62
     1
 10
892.600622
 20
-553.484634
 30
0.0
 40
79.999985
 50
318.590456
 51
581.409676
  0
ARC
  8
0
  6
BYLAYER
 62
     7
 10
892.600622
 20
-553.484634
 30
0.0
 40
85.999985
 50
314.240785
 51
585.759328
  0
LINE
  8
0
  6
BYLAYER
 62
     1
 10
315.121268
 20
-563.532738
 30
0.0
 11
308.842978
 21
-575.834434
 31
0.0
  0
LINE
  8
0
  6
BYLAYER
 62
     1
 10
315.121268
 20
-628.484642
 30
0.0
 11
315.121268
 21
-550.905540
 31
0.0
  0
LINE
  8
0
  6
BYLAYER
 62
     1
 10
325.100790
 20
-548.484656
 30
0.0
 11
325.100790
 21
-628.484642
 31
0.0
  0
LINE
  8
0
  6
BYLAYER
 62
     1
 10
317.016592
 20
-548.908348
 30
0.0
 11
325.100790
 21
-548.484656
 31
0.0
  0
ARC
  8
0
  6
BYLAYER
 62
     1
 10
314.121268
 20
-571.357048
 30
0.0
 40
0.999972
 50
302.000007
 51
360.000000
  0
LINE
  8
0
  6
BYLAYER
 62
     1
 10
300.600760
 20
-580.984764
 30
0.0
 11
314.651175
 21
-572.205070
 31
0.0
  0
LINE
  8
0
  6
BYLAYER
 62
     1
 10
300.600790
 20
-580.984764
 30
0.0
 11
300.600683
 21
-628.484642
 31
0.0
  0
ARC
  8
0
  6
BYLAYER
 62
     1
 10
317.121268
 20
-550.905540
 30
0.0
 40
1.999969
 50
93.000028
 51
180.000000
  0
LINE
  8
0
  6
BYLAYER
 62
     1
 10
315.121268
 20
-693.436546
 30
0.0
 11
308.842978
 21
-681.134850
 31
0.0
  0
LINE
  8
0
  6
BYLAYER
 62
     1
 10
315.121268
 20
-628.484642
 30
0.0
 11
315.121268
 21
-706.063744
 31
0.0
  0
LINE
  8
0
  6
BYLAYER
 62
     1
 10
325.100790
 20
-708.484628
 30
0.0
 11
325.100790
 21
-628.484642
 31
0.0
  0
LINE
  8
0
  6
BYLAYER
 62
     1
 10
317.016592
 20
-708.060936
 30
0.0
 11
325.100790
 21
-708.484628
 31
0.0
  0
ARC
  8
0
  6
BYLAYER
 62
     1
 10
314.121268
 20
-685.612236
 30
0.0
 40
0.999972
 50
0.0
 51
57.999993
  0
LINE
  8
0
  6
BYLAYER
 62
     1
 10
300.600760
 20
-675.984520
 30
0.0
 11
314.651175
 21
-684.764214
 31
0.0
  0
LINE
  8
0
  6
BYLAYER
 62
     1
 10
300.600790
 20
-675.984520
 30
0.0
 11
300.600683
 21
-628.484642
 31
0.0
  0
ARC
  8
0
  6
BYLAYER
 62
     1
 10
317.121268
 20
-706.063744
 30
0.0
 40
1.999969
 50
180.000000
 51
266.999972
  0
ENDSEC
  0
EOF
