  0
SECTION
  2
HEADER
  9
$EXTMIN
 10
144.300341
 20
755.0
 30
0.0
  9
$EXTMAX
 10
1041.023891
 20
0.0
 30
0.0
  0
ENDSEC
  0
SECTION
  2
TABLES
  0
ENDSEC
  0
SECTION
  2
BLOCKS
  0
ENDSEC
  0
SECTION
  2
ENTITIES
  0
LINE
  8
0
  6
BYLAYER
 62
     7
 10
389.699659
 20
-257.046079
 30
0.0
 11
360.199659
 21
-257.560997
 31
0.0
  0
LINE
  8
0
  6
BYLAYER
 62
     7
 10
389.699659
 20
-245.098447
 30
0.0
 11
389.699659
 21
-257.046079
 31
0.0
  0
LINE
  8
0
  6
BYLAYER
 62
     7
 10
392.199659
 20
-61.046079
 30
0.0
 11
361.182207
 21
-60.504667
 31
0.0
  0
ARC
  8
0
  6
BYLAYER
 62
     7
 10
361.199659
 20
-59.504819
 30
0.0
 40
1.0
 50
180.000000
 51
269.000015
  0
LINE
  8
0
  6
BYLAYER
 62
     7
 10
392.199659
 20
-245.046079
 30
0.0
 11
389.699659
 21
-245.089719
 31
0.0
  0
LINE
  8
0
  6
BYLAYER
 62
     7
 10
345.699659
 20
-153.046075
 30
0.0
 11
345.699659
 21
-29.046079
 31
0.0
  0
ARC
  8
0
  6
BYLAYER
 62
     7
 10
346.699659
 20
-29.046079
 30
0.0
 40
1.0
 50
90.0
 51
179.999996
  0
LINE
  8
0
  6
BYLAYER
 62
     7
 10
346.699659
 20
-28.046079
 30
0.0
 11
359.199659
 21
-28.046079
 31
0.0
  0
LINE
  8
0
  6
BYLAYER
 62
     7
 10
360.199659
 20
-29.046079
 30
0.0
 11
360.199659
 21
-153.046075
 31
0.0
  0
ARC
  8
0
  6
BYLAYER
 62
     7
 10
359.199659
 20
-29.046079
 30
0.0
 40
1.000000
 50
0.0
 51
89.999999
  0
LINE
  8
0
  6
BYLAYER
 62
     7
 10
345.699659
 20
-153.046075
 30
0.0
 11
345.699659
 21
-277.046079
 31
0.0
  0
ARC
  8
0
  6
BYLAYER
 62
     7
 10
346.699659
 20
-277.046079
 30
0.0
 40
1.0
 50
180.000000
 51
270.000003
  0
LINE
  8
0
  6
BYLAYER
 62
     7
 10
346.699659
 20
-278.046079
 30
0.0
 11
359.199659
 21
-278.046079
 31
0.0
  0
LINE
  8
0
  6
BYLAYER
 62
     7
 10
360.199659
 20
-277.046079
 30
0.0
 11
360.199659
 21
-153.046075
 31
0.0
  0
ARC
  8
0
  6
BYLAYER
 62
     7
 10
359.199659
 20
-277.046079
 30
0.0
 40
1.0
 50
270.0
 51
360.000003
  0
LINE
  8
0
  6
BYLAYER
 62
     7
 10
392.199659
 20
-245.046079
 30
0.0
 11
392.199659
 21
-61.046075
 31
0.0
  0
ARC
  8
0
  6
BYLAYER
 62
     7
 10
426.199659
 20
-51.046594
 30
0.0
 40
13.000000
 50
180.000019
 51
360.000018
  0
ARC
  8
0
  6
BYLAYER
 62
     7
 10
465.199659
 20
-51.046594
 30
0.0
 40
13.0
 50
180.000019
 51
360.000018
  0
LINE
  8
0
  6
BYLAYER
 62
     7
 10
396.699659
 20
-42.546594
 30
0.0
 11
411.199659
 21
-42.546594
 31
0.0
  0
LINE
  8
0
  6
BYLAYER
 62
     7
 10
413.199659
 20
-51.046594
 30
0.0
 11
413.199659
 21
-44.546594
 31
0.0
  0
ARC
  8
0
  6
BYLAYER
 62
     7
 10
411.199659
 20
-44.546594
 30
0.0
 40
2.0
 50
0.0
 51
90.000003
  0
LINE
  8
0
  6
BYLAYER
 62
     7
 10
439.199659
 20
-51.046594
 30
0.0
 11
439.199659
 21
-44.546594
 31
0.0
  0
ARC
  8
0
  6
BYLAYER
 62
     7
 10
441.199659
 20
-44.546594
 30
0.0
 40
2.0
 50
90.0
 51
180.000003
  0
LINE
  8
0
  6
BYLAYER
 62
     7
 10
441.199659
 20
-42.546594
 30
0.0
 11
450.199659
 21
-42.546594
 31
0.0
  0
LINE
  8
0
  6
BYLAYER
 62
     7
 10
452.199659
 20
-51.046594
 30
0.0
 11
452.199659
 21
-44.546594
 31
0.0
  0
ARC
  8
0
  6
BYLAYER
 62
     7
 10
450.199659
 20
-44.546594
 30
0.0
 40
2.000000
 50
0.0
 51
90.000003
  0
LINE
  8
0
  6
BYLAYER
 62
     7
 10
478.199659
 20
-51.046594
 30
0.0
 11
478.199659
 21
-44.546594
 31
0.0
  0
LINE
  8
0
  6
BYLAYER
 62
     7
 10
480.199689
 20
-42.546594
 30
0.0
 11
494.699689
 21
-42.546594
 31
0.0
  0
ARC
  8
0
  6
BYLAYER
 62
     7
 10
480.199689
 20
-44.546594
 30
0.0
 40
2.000031
 50
90.0
 51
180.000003
  0
ARC
  8
0
  6
BYLAYER
 62
     7
 10
397.699659
 20
-135.696069
 30
0.0
 40
1.0
 50
90.0
 51
180.000003
  0
ARC
  8
0
  6
BYLAYER
 62
     7
 10
397.699659
 20
-135.696069
 30
0.0
 40
1.0
 50
180.000000
 51
269.999996
  0
ARC
  8
0
  6
BYLAYER
 62
     7
 10
397.699659
 20
-122.996087
 30
0.0
 40
1.0
 50
90.0
 51
180.000003
  0
ARC
  8
0
  6
BYLAYER
 62
     7
 10
397.699659
 20
-122.996087
 30
0.0
 40
1.0
 50
180.000000
 51
269.999996
  0
ARC
  8
0
  6
BYLAYER
 62
     7
 10
397.699659
 20
-110.296075
 30
0.0
 40
1.0
 50
90.0
 51
180.000003
  0
ARC
  8
0
  6
BYLAYER
 62
     7
 10
397.699659
 20
-110.296075
 30
0.0
 40
1.0
 50
180.000000
 51
269.999996
  0
ARC
  8
0
  6
BYLAYER
 62
     7
 10
397.699659
 20
-97.596063
 30
0.0
 40
1.0
 50
90.0
 51
180.000003
  0
ARC
  8
0
  6
BYLAYER
 62
     7
 10
397.699659
 20
-97.596063
 30
0.0
 40
1.0
 50
180.000000
 51
269.999996
  0
ARC
  8
0
  6
BYLAYER
 62
     7
 10
397.699659
 20
-84.896081
 30
0.0
 40
1.0
 50
90.0
 51
180.000003
  0
ARC
  8
0
  6
BYLAYER
 62
     7
 10
397.699659
 20
-84.896081
 30
0.0
 40
1.0
 50
180.000000
 51
269.999996
  0
LINE
  8
0
  6
BYLAYER
 62
     7
 10
494.699689
 20
-83.896081
 30
0.0
 11
494.699689
 21
-37.046594
 31
0.0
  0
ARC
  8
0
  6
BYLAYER
 62
     7
 10
397.699659
 20
-170.396081
 30
0.0
 40
1.0
 50
180.000000
 51
270.000009
  0
ARC
  8
0
  6
BYLAYER
 62
     7
 10
397.699659
 20
-170.396081
 30
0.0
 40
1.0
 50
90.0
 51
179.999989
  0
ARC
  8
0
  6
BYLAYER
 62
     7
 10
397.699659
 20
-183.096063
 30
0.0
 40
1.0
 50
180.000000
 51
270.000009
  0
ARC
  8
0
  6
BYLAYER
 62
     7
 10
397.699659
 20
-183.096063
 30
0.0
 40
1.0
 50
90.0
 51
179.999989
  0
ARC
  8
0
  6
BYLAYER
 62
     7
 10
397.699659
 20
-195.796075
 30
0.0
 40
1.0
 50
180.000000
 51
270.000009
  0
ARC
  8
0
  6
BYLAYER
 62
     7
 10
397.699659
 20
-195.796075
 30
0.0
 40
1.0
 50
90.0
 51
179.999989
  0
ARC
  8
0
  6
BYLAYER
 62
     7
 10
397.699659
 20
-208.496057
 30
0.0
 40
1.0
 50
180.000000
 51
270.000009
  0
ARC
  8
0
  6
BYLAYER
 62
     7
 10
397.699659
 20
-208.496057
 30
0.0
 40
1.0
 50
90.0
 51
179.999989
  0
ARC
  8
0
  6
BYLAYER
 62
     7
 10
397.699659
 20
-221.196069
 30
0.0
 40
1.0
 50
180.000000
 51
270.000009
  0
ARC
  8
0
  6
BYLAYER
 62
     7
 10
397.699659
 20
-221.196069
 30
0.0
 40
1.0
 50
90.0
 51
179.999989
  0
LINE
  8
0
  6
BYLAYER
 62
     7
 10
397.699659
 20
-194.796075
 30
0.0
 11
565.178327
 21
-194.796075
 31
0.0
  0
LINE
  8
0
  6
BYLAYER
 62
     7
 10
397.699659
 20
-196.796075
 30
0.0
 11
565.178327
 21
-196.796075
 31
0.0
  0
LINE
  8
0
  6
BYLAYER
 62
     7
 10
397.699659
 20
-121.996087
 30
0.0
 11
450.137922
 21
-121.996087
 31
0.0
  0
LINE
  8
0
  6
BYLAYER
 62
     7
 10
397.699659
 20
-123.996087
 30
0.0
 11
450.137922
 21
-123.996087
 31
0.0
  0
LINE
  8
0
  6
BYLAYER
 62
     7
 10
455.261396
 20
-121.996087
 30
0.0
 11
505.137922
 21
-121.996087
 31
0.0
  0
LINE
  8
0
  6
BYLAYER
 62
     7
 10
455.261396
 20
-123.996087
 30
0.0
 11
505.137922
 21
-123.996087
 31
0.0
  0
ARC
  8
0
  6
BYLAYER
 62
     7
 10
452.699659
 20
-122.996087
 30
0.0
 40
2.750000
 50
21.323692
 51
158.676305
  0
ARC
  8
0
  6
BYLAYER
 62
     7
 10
507.699659
 20
-122.996087
 30
0.0
 40
2.750000
 50
21.323692
 51
158.676305
  0
ARC
  8
0
  6
BYLAYER
 62
     7
 10
452.699659
 20
-122.996087
 30
0.0
 40
2.750000
 50
201.323692
 51
338.676296
  0
ARC
  8
0
  6
BYLAYER
 62
     7
 10
507.699659
 20
-122.996087
 30
0.0
 40
2.750000
 50
201.323692
 51
338.676296
  0
LINE
  8
0
  6
BYLAYER
 62
     7
 10
396.699659
 20
-61.046106
 30
0.0
 11
392.199659
 21
-61.046106
 31
0.0
  0
LINE
  8
0
  6
BYLAYER
 62
     7
 10
402.699659
 20
-223.864953
 30
0.0
 11
396.699659
 21
-226.485345
 31
0.0
  0
LINE
  8
0
  6
BYLAYER
 62
     7
 10
396.699659
 20
-245.046075
 30
0.0
 11
396.699659
 21
-37.046594
 31
0.0
  0
LINE
  8
0
  6
BYLAYER
 62
     7
 10
392.199659
 20
-245.046075
 30
0.0
 11
396.699659
 21
-245.046075
 31
0.0
  0
LINE
  8
0
  6
BYLAYER
 62
     7
 10
396.699659
 20
-226.485345
 30
0.0
 11
400.059797
 21
-234.580987
 31
0.0
  0
ARC
  8
0
  6
BYLAYER
 62
     7
 10
402.368818
 20
-233.622613
 30
0.0
 40
2.500012
 50
202.541214
 51
270.000001
  0
LINE
  8
0
  6
BYLAYER
 62
     7
 10
396.699659
 20
-230.883783
 30
0.0
 11
400.182569
 21
-243.108819
 31
0.0
  0
ARC
  8
0
  6
BYLAYER
 62
     7
 10
402.586897
 20
-242.423822
 30
0.0
 40
2.500002
 50
195.902352
 51
270.000001
  0
LINE
  8
0
  6
BYLAYER
 62
     7
 10
396.699659
 20
-237.971399
 30
0.0
 11
400.150159
 21
-248.970819
 31
0.0
  0
ARC
  8
0
  6
BYLAYER
 62
     7
 10
402.535535
 20
-248.222528
 30
0.0
 40
2.499992
 50
197.416605
 51
270.000001
  0
ARC
  8
0
  6
BYLAYER
 62
     7
 10
402.640119
 20
-251.896875
 30
0.0
 40
2.499992
 50
197.416605
 51
270.000001
  0
LINE
  8
0
  6
BYLAYER
 62
     7
 10
396.699659
 20
-245.046075
 30
0.0
 11
399.968244
 21
-254.465661
 31
0.0
  0
ARC
  8
0
  6
BYLAYER
 62
     7
 10
402.330091
 20
-253.646112
 30
0.0
 40
2.499996
 50
199.136528
 51
270.000001
  0
LINE
  8
0
  6
BYLAYER
 62
     7
 10
400.254743
 20
-252.645166
 30
0.0
 11
396.699659
 21
-241.312372
 31
0.0
  0
ARC
  8
0
  6
BYLAYER
 62
     7
 10
401.699659
 20
-135.696069
 30
0.0
 40
1.0
 50
90.0
 51
180.000003
  0
ARC
  8
0
  6
BYLAYER
 62
     7
 10
401.699659
 20
-135.696069
 30
0.0
 40
1.0
 50
180.000000
 51
269.999996
  0
ARC
  8
0
  6
BYLAYER
 62
     7
 10
401.699659
 20
-170.396081
 30
0.0
 40
1.0
 50
180.000000
 51
270.000009
  0
ARC
  8
0
  6
BYLAYER
 62
     7
 10
401.699659
 20
-170.396081
 30
0.0
 40
1.0
 50
90.0
 51
179.999989
  0
ARC
  8
0
  6
BYLAYER
 62
     7
 10
401.699659
 20
-183.096063
 30
0.0
 40
1.0
 50
180.000000
 51
270.000009
  0
ARC
  8
0
  6
BYLAYER
 62
     7
 10
401.699659
 20
-183.096063
 30
0.0
 40
1.0
 50
90.0
 51
179.999989
  0
ARC
  8
0
  6
BYLAYER
 62
     7
 10
401.699659
 20
-195.796075
 30
0.0
 40
1.0
 50
180.000000
 51
270.000009
  0
ARC
  8
0
  6
BYLAYER
 62
     7
 10
401.699659
 20
-195.796075
 30
0.0
 40
1.0
 50
90.0
 51
179.999989
  0
ARC
  8
0
  6
BYLAYER
 62
     7
 10
401.699659
 20
-208.496057
 30
0.0
 40
1.0
 50
180.000000
 51
270.000009
  0
ARC
  8
0
  6
BYLAYER
 62
     7
 10
401.699659
 20
-208.496057
 30
0.0
 40
1.0
 50
90.0
 51
179.999989
  0
ARC
  8
0
  6
BYLAYER
 62
     7
 10
401.699659
 20
-221.196069
 30
0.0
 40
1.0
 50
180.000000
 51
270.000009
  0
ARC
  8
0
  6
BYLAYER
 62
     7
 10
401.699659
 20
-221.196069
 30
0.0
 40
1.0
 50
90.0
 51
179.999989
  0
ARC
  8
0
  6
BYLAYER
 62
     7
 10
401.699659
 20
-122.996087
 30
0.0
 40
1.0
 50
90.0
 51
180.000003
  0
ARC
  8
0
  6
BYLAYER
 62
     7
 10
401.699659
 20
-122.996087
 30
0.0
 40
1.0
 50
180.000000
 51
269.999996
  0
ARC
  8
0
  6
BYLAYER
 62
     7
 10
401.699659
 20
-110.296075
 30
0.0
 40
1.0
 50
90.0
 51
180.000003
  0
ARC
  8
0
  6
BYLAYER
 62
     7
 10
401.699659
 20
-110.296075
 30
0.0
 40
1.0
 50
180.000000
 51
269.999996
  0
ARC
  8
0
  6
BYLAYER
 62
     7
 10
401.699659
 20
-97.596063
 30
0.0
 40
1.0
 50
90.0
 51
180.000003
  0
ARC
  8
0
  6
BYLAYER
 62
     7
 10
401.699659
 20
-97.596063
 30
0.0
 40
1.0
 50
180.000000
 51
269.999996
  0
ARC
  8
0
  6
BYLAYER
 62
     7
 10
401.699659
 20
-84.896081
 30
0.0
 40
1.0
 50
90.0
 51
180.000003
  0
ARC
  8
0
  6
BYLAYER
 62
     7
 10
401.699659
 20
-84.896081
 30
0.0
 40
1.0
 50
180.000000
 51
269.999996
  0
LINE
  8
0
  6
BYLAYER
 62
     7
 10
403.199659
 20
-220.196069
 30
0.0
 11
403.199659
 21
-209.496057
 31
0.0
  0
LINE
  8
0
  6
BYLAYER
 62
     7
 10
403.199659
 20
-207.496057
 30
0.0
 11
403.199659
 21
-196.796075
 31
0.0
  0
LINE
  8
0
  6
BYLAYER
 62
     7
 10
403.199659
 20
-194.796075
 30
0.0
 11
403.199659
 21
-184.096063
 31
0.0
  0
LINE
  8
0
  6
BYLAYER
 62
     7
 10
403.199659
 20
-169.396081
 30
0.0
 11
403.199659
 21
-158.696099
 31
0.0
  0
LINE
  8
0
  6
BYLAYER
 62
     7
 10
403.199659
 20
-182.096063
 30
0.0
 11
403.199659
 21
-171.396081
 31
0.0
  0
LINE
  8
0
  6
BYLAYER
 62
     7
 10
403.199659
 20
-149.396051
 30
0.0
 11
403.199659
 21
-153.046075
 31
0.0
  0
LINE
  8
0
  6
BYLAYER
 62
     7
 10
403.199659
 20
-156.696099
 30
0.0
 11
403.199659
 21
-153.046075
 31
0.0
  0
LINE
  8
0
  6
BYLAYER
 62
     7
 10
403.199659
 20
-136.696069
 30
0.0
 11
403.199659
 21
-147.396051
 31
0.0
  0
LINE
  8
0
  6
BYLAYER
 62
     7
 10
403.199659
 20
-123.996087
 30
0.0
 11
403.199659
 21
-134.696069
 31
0.0
  0
LINE
  8
0
  6
BYLAYER
 62
     7
 10
403.199659
 20
-111.296075
 30
0.0
 11
403.199659
 21
-121.996087
 31
0.0
  0
LINE
  8
0
  6
BYLAYER
 62
     7
 10
403.199659
 20
-98.596063
 30
0.0
 11
403.199659
 21
-109.296075
 31
0.0
  0
LINE
  8
0
  6
BYLAYER
 62
     7
 10
403.199659
 20
-85.896081
 30
0.0
 11
403.199659
 21
-96.596063
 31
0.0
  0
LINE
  8
0
  6
BYLAYER
 62
     7
 10
392.199659
 20
-245.046075
 30
0.0
 11
392.199659
 21
-61.046106
 31
0.0
  0
LINE
  8
0
  6
BYLAYER
 62
     7
 10
494.699689
 20
-48.046594
 30
0.0
 11
565.178327
 21
-48.046455
 31
0.0
  0
LINE
  8
0
  6
BYLAYER
 62
     7
 10
494.699689
 20
-51.046594
 30
0.0
 11
565.178327
 21
-51.046454
 31
0.0
  0
LINE
  8
0
  6
BYLAYER
 62
     7
 10
494.699689
 20
-55.046594
 30
0.0
 11
565.178327
 21
-55.046455
 31
0.0
  0
LINE
  8
0
  6
BYLAYER
 62
     7
 10
494.699689
 20
-61.046533
 30
0.0
 11
565.178327
 21
-61.046533
 31
0.0
  0
LINE
  8
0
  6
BYLAYER
 62
     7
 10
397.699659
 20
-83.896081
 30
0.0
 11
565.178327
 21
-83.896081
 31
0.0
  0
LINE
  8
0
  6
BYLAYER
 62
     7
 10
397.699659
 20
-85.896081
 30
0.0
 11
565.178327
 21
-85.896081
 31
0.0
  0
LINE
  8
0
  6
BYLAYER
 62
     7
 10
397.699659
 20
-96.596063
 30
0.0
 11
565.178327
 21
-96.596063
 31
0.0
  0
LINE
  8
0
  6
BYLAYER
 62
     7
 10
397.699659
 20
-98.596063
 30
0.0
 11
565.178327
 21
-98.596063
 31
0.0
  0
LINE
  8
0
  6
BYLAYER
 62
     7
 10
397.699659
 20
-109.296075
 30
0.0
 11
565.178327
 21
-109.296075
 31
0.0
  0
LINE
  8
0
  6
BYLAYER
 62
     7
 10
397.699659
 20
-111.296075
 30
0.0
 11
565.178327
 21
-111.296075
 31
0.0
  0
LINE
  8
0
  6
BYLAYER
 62
     7
 10
510.261396
 20
-121.996087
 30
0.0
 11
565.178327
 21
-121.996087
 31
0.0
  0
LINE
  8
0
  6
BYLAYER
 62
     7
 10
510.261396
 20
-123.996087
 30
0.0
 11
565.178327
 21
-123.996087
 31
0.0
  0
LINE
  8
0
  6
BYLAYER
 62
     7
 10
397.699659
 20
-134.696069
 30
0.0
 11
565.178327
 21
-134.696069
 31
0.0
  0
LINE
  8
0
  6
BYLAYER
 62
     7
 10
397.699659
 20
-136.696069
 30
0.0
 11
565.178327
 21
-136.696069
 31
0.0
  0
LINE
  8
0
  6
BYLAYER
 62
     7
 10
397.699659
 20
-169.396081
 30
0.0
 11
565.178327
 21
-169.396081
 31
0.0
  0
LINE
  8
0
  6
BYLAYER
 62
     7
 10
397.699659
 20
-171.396081
 30
0.0
 11
565.178327
 21
-171.396081
 31
0.0
  0
LINE
  8
0
  6
BYLAYER
 62
     7
 10
397.699659
 20
-182.096063
 30
0.0
 11
565.178327
 21
-182.096063
 31
0.0
  0
LINE
  8
0
  6
BYLAYER
 62
     7
 10
397.699659
 20
-184.096063
 30
0.0
 11
565.178327
 21
-184.096063
 31
0.0
  0
LINE
  8
0
  6
BYLAYER
 62
     7
 10
397.699659
 20
-207.496057
 30
0.0
 11
565.178327
 21
-207.496057
 31
0.0
  0
LINE
  8
0
  6
BYLAYER
 62
     7
 10
397.699659
 20
-209.496057
 30
0.0
 11
565.178327
 21
-209.496057
 31
0.0
  0
LINE
  8
0
  6
BYLAYER
 62
     7
 10
397.699659
 20
-220.196069
 30
0.0
 11
565.178327
 21
-220.196069
 31
0.0
  0
LINE
  8
0
  6
BYLAYER
 62
     7
 10
397.699659
 20
-222.196069
 30
0.0
 11
565.178327
 21
-222.196069
 31
0.0
  0
LINE
  8
0
  6
BYLAYER
 62
     7
 10
402.699659
 20
-223.864953
 30
0.0
 11
565.178327
 21
-223.864953
 31
0.0
  0
LINE
  8
0
  6
BYLAYER
 62
     7
 10
402.368818
 20
-236.122613
 30
0.0
 11
565.178327
 21
-236.122613
 31
0.0
  0
LINE
  8
0
  6
BYLAYER
 62
     7
 10
402.586897
 20
-244.923822
 30
0.0
 11
565.178327
 21
-244.923822
 31
0.0
  0
LINE
  8
0
  6
BYLAYER
 62
     7
 10
402.535535
 20
-250.722528
 30
0.0
 11
565.178327
 21
-250.722528
 31
0.0
  0
LINE
  8
0
  6
BYLAYER
 62
     7
 10
402.640119
 20
-254.396875
 30
0.0
 11
565.178327
 21
-254.396875
 31
0.0
  0
LINE
  8
0
  6
BYLAYER
 62
     7
 10
402.330091
 20
-256.146112
 30
0.0
 11
565.178327
 21
-256.146112
 31
0.0
  0
ARC
  8
0
  6
BYLAYER
 62
     7
 10
397.699659
 20
-148.396051
 30
0.0
 40
1.0
 50
180.000000
 51
270.000003
  0
ARC
  8
0
  6
BYLAYER
 62
     7
 10
397.699659
 20
-148.396051
 30
0.0
 40
1.0
 50
90.0
 51
179.999996
  0
ARC
  8
0
  6
BYLAYER
 62
     7
 10
401.699659
 20
-148.396051
 30
0.0
 40
1.0
 50
180.000000
 51
270.000003
  0
ARC
  8
0
  6
BYLAYER
 62
     7
 10
401.699659
 20
-148.396051
 30
0.0
 40
1.0
 50
90.0
 51
179.999996
  0
LINE
  8
0
  6
BYLAYER
 62
     7
 10
510.261396
 20
-149.396051
 30
0.0
 11
565.178327
 21
-149.396051
 31
0.0
  0
LINE
  8
0
  6
BYLAYER
 62
     7
 10
510.261396
 20
-147.396051
 30
0.0
 11
565.178327
 21
-147.396051
 31
0.0
  0
LINE
  8
0
  6
BYLAYER
 62
     7
 10
397.699659
 20
-147.396051
 30
0.0
 11
510.261396
 21
-147.396051
 31
0.0
  0
LINE
  8
0
  6
BYLAYER
 62
     7
 10
397.699659
 20
-149.396051
 30
0.0
 11
510.261396
 21
-149.396051
 31
0.0
  0
ARC
  8
0
  6
BYLAYER
 62
     7
 10
397.699659
 20
-157.696099
 30
0.0
 40
1.0
 50
90.0
 51
180.000003
  0
ARC
  8
0
  6
BYLAYER
 62
     7
 10
397.699659
 20
-157.696099
 30
0.0
 40
1.0
 50
180.000000
 51
269.999996
  0
ARC
  8
0
  6
BYLAYER
 62
     7
 10
401.699659
 20
-157.696099
 30
0.0
 40
1.0
 50
90.0
 51
180.000003
  0
ARC
  8
0
  6
BYLAYER
 62
     7
 10
401.699659
 20
-157.696099
 30
0.0
 40
1.0
 50
180.000000
 51
269.999996
  0
LINE
  8
0
  6
BYLAYER
 62
     7
 10
510.261396
 20
-156.696099
 30
0.0
 11
565.178327
 21
-156.696099
 31
0.0
  0
LINE
  8
0
  6
BYLAYER
 62
     7
 10
510.261396
 20
-158.696099
 30
0.0
 11
565.178327
 21
-158.696099
 31
0.0
  0
LINE
  8
0
  6
BYLAYER
 62
     7
 10
397.699659
 20
-158.696099
 30
0.0
 11
510.261396
 21
-158.696099
 31
0.0
  0
LINE
  8
0
  6
BYLAYER
 62
     7
 10
397.699659
 20
-156.696099
 30
0.0
 11
510.261396
 21
-156.696099
 31
0.0
  0
LINE
  8
0
  6
BYLAYER
 62
     7
 10
565.178327
 20
-47.646624
 30
0.0
 11
565.178327
 21
-153.046075
 31
0.0
  0
LINE
  8
0
  6
BYLAYER
 62
     7
 10
565.178327
 20
-153.046075
 30
0.0
 11
565.178327
 21
-258.446624
 31
0.0
  0
LINE
  8
0
  6
BYLAYER
 62
     7
 10
648.778327
 20
-47.646624
 30
0.0
 11
565.178327
 21
-47.646624
 31
0.0
  0
LINE
  8
0
  6
BYLAYER
 62
     7
 10
565.178327
 20
-258.446624
 30
0.0
 11
648.778327
 21
-258.446624
 31
0.0
  0
LINE
  8
0
  6
BYLAYER
 62
     7
 10
670.178327
 20
-237.046624
 30
0.0
 11
670.178327
 21
-69.046624
 31
0.0
  0
LINE
  8
0
  6
BYLAYER
 62
     7
 10
648.778327
 20
-258.446624
 30
0.0
 11
670.178327
 21
-237.046624
 31
0.0
  0
LINE
  8
0
  6
BYLAYER
 62
     7
 10
670.178327
 20
-69.046624
 30
0.0
 11
648.778327
 21
-47.646624
 31
0.0
  0
LINE
  8
0
  6
BYLAYER
 62
     7
 10
489.199659
 20
-26.546594
 30
0.0
 11
489.199659
 21
-5.046594
 31
0.0
  0
ARC
  8
0
  6
BYLAYER
 62
     7
 10
490.699659
 20
-26.546594
 30
0.0
 40
1.5
 50
180.000000
 51
270.000000
  0
ARC
  8
0
  6
BYLAYER
 62
     7
 10
487.699659
 20
-5.046594
 30
0.0
 40
1.5
 50
0.0
 51
90.0
  0
LINE
  8
0
  6
BYLAYER
 62
     7
 10
402.199659
 20
-26.546594
 30
0.0
 11
402.199659
 21
-5.046594
 31
0.0
  0
ARC
  8
0
  6
BYLAYER
 62
     7
 10
400.699659
 20
-26.546594
 30
0.0
 40
1.5
 50
270.0
 51
360.0
  0
ARC
  8
0
  6
BYLAYER
 62
     7
 10
403.699659
 20
-5.046594
 30
0.0
 40
1.5
 50
90.0
 51
180.0
  0
LINE
  8
0
  6
BYLAYER
 62
     7
 10
403.699659
 20
-3.546594
 30
0.0
 11
487.699659
 21
-3.546594
 31
0.0
  0
LINE
  8
0
  6
BYLAYER
 62
     7
 10
407.571900
 20
-26.546594
 30
0.0
 11
407.571900
 21
-5.046594
 31
0.0
  0
ARC
  8
0
  6
BYLAYER
 62
     7
 10
406.071900
 20
-26.546594
 30
0.0
 40
1.500000
 50
270.0
 51
360.0
  0
ARC
  8
0
  6
BYLAYER
 62
     7
 10
409.071900
 20
-5.046594
 30
0.0
 40
1.500000
 50
90.0
 51
180.0
  0
LINE
  8
0
  6
BYLAYER
 62
     7
 10
483.827418
 20
-26.546594
 30
0.0
 11
483.827418
 21
-5.046594
 31
0.0
  0
ARC
  8
0
  6
BYLAYER
 62
     7
 10
485.327418
 20
-26.546594
 30
0.0
 40
1.500000
 50
180.000000
 51
270.000000
  0
ARC
  8
0
  6
BYLAYER
 62
     7
 10
482.327418
 20
-5.046594
 30
0.0
 40
1.500000
 50
0.0
 51
90.0
  0
LINE
  8
0
  6
BYLAYER
 62
     7
 10
445.699659
 20
-28.046594
 30
0.0
 11
493.199659
 21
-28.046594
 31
0.0
  0
ARC
  8
0
  6
BYLAYER
 62
     7
 10
493.199659
 20
-29.546594
 30
0.0
 40
1.5
 50
0.0
 51
90.0
  0
LINE
  8
0
  6
BYLAYER
 62
     7
 10
494.699659
 20
-37.046594
 30
0.0
 11
494.699659
 21
-29.546594
 31
0.0
  0
LINE
  8
0
  6
BYLAYER
 62
     7
 10
398.199659
 20
-28.046594
 30
0.0
 11
445.699659
 21
-28.046594
 31
0.0
  0
ARC
  8
0
  6
BYLAYER
 62
     7
 10
398.199659
 20
-29.546594
 30
0.0
 40
1.5
 50
90.0
 51
180.0
  0
LINE
  8
0
  6
BYLAYER
 62
     7
 10
396.699659
 20
-35.046594
 30
0.0
 11
396.699659
 21
-29.546594
 31
0.0
  0
LINE
  8
0
  6
BYLAYER
 62
     7
 10
494.699659
 20
-35.046594
 30
0.0
 11
396.699659
 21
-35.046594
 31
0.0
  0
LINE
  8
0
  6
BYLAYER
 62
     7
 10
396.699659
 20
-35.046594
 30
0.0
 11
396.699659
 21
-37.046594
 31
0.0
  0
LINE
  8
0
  6
BYLAYER
 62
     7
 10
396.699659
 20
-37.046594
 30
0.0
 11
494.699659
 21
-37.046594
 31
0.0
  0
LINE
  8
0
  6
BYLAYER
 62
     7
 10
648.778327
 20
-258.446624
 30
0.0
 11
648.778327
 21
-47.646624
 31
0.0
  0
LINE
  8
0
  6
BYLAYER
 62
     7
 10
392.199659
 20
-536.046079
 30
0.0
 11
361.182207
 21
-535.504667
 31
0.0
  0
ARC
  8
0
  6
BYLAYER
 62
     7
 10
361.199659
 20
-534.504819
 30
0.0
 40
1.000000
 50
180.000000
 51
269.000015
  0
LINE
  8
0
  6
BYLAYER
 62
     7
 10
345.699659
 20
-628.046075
 30
0.0
 11
345.699659
 21
-504.046079
 31
0.0
  0
ARC
  8
0
  6
BYLAYER
 62
     7
 10
346.699659
 20
-504.046079
 30
0.0
 40
1.000000
 50
90.0
 51
179.999996
  0
LINE
  8
0
  6
BYLAYER
 62
     7
 10
346.699659
 20
-503.046079
 30
0.0
 11
359.199659
 21
-503.046079
 31
0.0
  0
LINE
  8
0
  6
BYLAYER
 62
     7
 10
360.199659
 20
-504.046079
 30
0.0
 11
360.199659
 21
-628.046075
 31
0.0
  0
ARC
  8
0
  6
BYLAYER
 62
     7
 10
359.199659
 20
-504.046079
 30
0.0
 40
1.000000
 50
0.0
 51
89.999999
  0
LINE
  8
0
  6
BYLAYER
 62
     7
 10
392.199659
 20
-628.046075
 30
0.0
 11
392.199659
 21
-536.046075
 31
0.0
  0
LINE
  8
0
  6
BYLAYER
 62
     7
 10
392.199659
 20
-720.046071
 30
0.0
 11
361.182207
 21
-720.587483
 31
0.0
  0
ARC
  8
0
  6
BYLAYER
 62
     7
 10
361.199659
 20
-721.587331
 30
0.0
 40
1.0
 50
90.999990
 51
180.000005
  0
LINE
  8
0
  6
BYLAYER
 62
     7
 10
345.699659
 20
-628.046075
 30
0.0
 11
345.699659
 21
-752.046071
 31
0.0
  0
ARC
  8
0
  6
BYLAYER
 62
     7
 10
346.699659
 20
-752.046071
 30
0.0
 40
1.0
 50
180.000000
 51
269.999996
  0
LINE
  8
0
  6
BYLAYER
 62
     7
 10
346.699659
 20
-753.046071
 30
0.0
 11
359.199659
 21
-753.046071
 31
0.0
  0
LINE
  8
0
  6
BYLAYER
 62
     7
 10
360.199659
 20
-752.046071
 30
0.0
 11
360.199659
 21
-628.046075
 31
0.0
  0
ARC
  8
0
  6
BYLAYER
 62
     7
 10
359.199659
 20
-752.046071
 30
0.0
 40
1.0
 50
270.0
 51
359.999999
  0
LINE
  8
0
  6
BYLAYER
 62
     7
 10
392.199659
 20
-628.046075
 30
0.0
 11
392.199659
 21
-720.046075
 31
0.0
  0
ARC
  8
0
  6
BYLAYER
 62
     7
 10
397.699659
 20
-683.496057
 30
0.0
 40
1.0
 50
180.000000
 51
270.000009
  0
ARC
  8
0
  6
BYLAYER
 62
     7
 10
397.699659
 20
-683.496057
 30
0.0
 40
1.000000
 50
90.0
 51
179.999989
  0
ARC
  8
0
  6
BYLAYER
 62
     7
 10
397.699659
 20
-696.196069
 30
0.0
 40
1.0
 50
180.000000
 51
270.000009
  0
ARC
  8
0
  6
BYLAYER
 62
     7
 10
397.699659
 20
-696.196069
 30
0.0
 40
1.000000
 50
90.0
 51
179.999989
  0
LINE
  8
0
  6
BYLAYER
 62
     7
 10
494.699659
 20
-669.796075
 30
0.0
 11
565.178327
 21
-669.796075
 31
0.0
  0
LINE
  8
0
  6
BYLAYER
 62
     7
 10
494.699659
 20
-671.796075
 30
0.0
 11
565.178327
 21
-671.796075
 31
0.0
  0
LINE
  8
0
  6
BYLAYER
 62
     7
 10
402.699659
 20
-698.864953
 30
0.0
 11
396.699659
 21
-701.485345
 31
0.0
  0
LINE
  8
0
  6
BYLAYER
 62
     7
 10
396.699659
 20
-720.046075
 30
0.0
 11
396.699659
 21
-628.046075
 31
0.0
  0
LINE
  8
0
  6
BYLAYER
 62
     7
 10
392.199659
 20
-720.046075
 30
0.0
 11
396.699659
 21
-720.046075
 31
0.0
  0
LINE
  8
0
  6
BYLAYER
 62
     7
 10
396.699659
 20
-701.485345
 30
0.0
 11
400.059797
 21
-709.580987
 31
0.0
  0
ARC
  8
0
  6
BYLAYER
 62
     7
 10
402.368818
 20
-708.622613
 30
0.0
 40
2.500012
 50
202.541214
 51
270.000001
  0
LINE
  8
0
  6
BYLAYER
 62
     7
 10
396.699659
 20
-705.883783
 30
0.0
 11
400.182569
 21
-718.108819
 31
0.0
  0
ARC
  8
0
  6
BYLAYER
 62
     7
 10
402.586897
 20
-717.423822
 30
0.0
 40
2.500002
 50
195.902352
 51
270.000001
  0
LINE
  8
0
  6
BYLAYER
 62
     7
 10
396.699659
 20
-712.971399
 30
0.0
 11
400.150159
 21
-723.970819
 31
0.0
  0
ARC
  8
0
  6
BYLAYER
 62
     7
 10
402.535535
 20
-723.222528
 30
0.0
 40
2.499992
 50
197.416605
 51
270.000001
  0
ARC
  8
0
  6
BYLAYER
 62
     7
 10
402.640119
 20
-726.896875
 30
0.0
 40
2.499992
 50
197.416605
 51
270.000001
  0
LINE
  8
0
  6
BYLAYER
 62
     7
 10
396.699659
 20
-720.046075
 30
0.0
 11
399.968244
 21
-729.465661
 31
0.0
  0
ARC
  8
0
  6
BYLAYER
 62
     7
 10
402.330091
 20
-728.646112
 30
0.0
 40
2.499996
 50
199.136528
 51
270.000001
  0
LINE
  8
0
  6
BYLAYER
 62
     7
 10
400.254743
 20
-727.645166
 30
0.0
 11
396.699659
 21
-716.312372
 31
0.0
  0
ARC
  8
0
  6
BYLAYER
 62
     7
 10
401.699659
 20
-683.496057
 30
0.0
 40
1.0
 50
180.000000
 51
270.000009
  0
ARC
  8
0
  6
BYLAYER
 62
     7
 10
401.699659
 20
-683.496057
 30
0.0
 40
1.000000
 50
90.0
 51
179.999989
  0
ARC
  8
0
  6
BYLAYER
 62
     7
 10
401.699659
 20
-696.196069
 30
0.0
 40
1.0
 50
180.000000
 51
270.000009
  0
ARC
  8
0
  6
BYLAYER
 62
     7
 10
401.699659
 20
-696.196069
 30
0.0
 40
1.000000
 50
90.0
 51
179.999989
  0
LINE
  8
0
  6
BYLAYER
 62
     7
 10
403.199659
 20
-695.196069
 30
0.0
 11
403.199659
 21
-684.496057
 31
0.0
  0
LINE
  8
0
  6
BYLAYER
 62
     7
 10
403.199659
 20
-682.496057
 30
0.0
 11
403.199659
 21
-677.046075
 31
0.0
  0
LINE
  8
0
  6
BYLAYER
 62
     7
 10
392.199659
 20
-720.046075
 30
0.0
 11
392.199659
 21
-628.046075
 31
0.0
  0
LINE
  8
0
  6
BYLAYER
 62
     7
 10
494.699659
 20
-644.396081
 30
0.0
 11
565.178327
 21
-644.396081
 31
0.0
  0
LINE
  8
0
  6
BYLAYER
 62
     7
 10
494.699659
 20
-646.396081
 30
0.0
 11
565.178327
 21
-646.396081
 31
0.0
  0
LINE
  8
0
  6
BYLAYER
 62
     7
 10
494.699659
 20
-657.096063
 30
0.0
 11
565.178327
 21
-657.096063
 31
0.0
  0
LINE
  8
0
  6
BYLAYER
 62
     7
 10
494.699659
 20
-659.096063
 30
0.0
 11
565.178327
 21
-659.096063
 31
0.0
  0
LINE
  8
0
  6
BYLAYER
 62
     7
 10
397.699659
 20
-682.496057
 30
0.0
 11
565.178327
 21
-682.496057
 31
0.0
  0
LINE
  8
0
  6
BYLAYER
 62
     7
 10
397.699659
 20
-684.496057
 30
0.0
 11
565.178327
 21
-684.496057
 31
0.0
  0
LINE
  8
0
  6
BYLAYER
 62
     7
 10
397.699659
 20
-695.196069
 30
0.0
 11
565.178327
 21
-695.196069
 31
0.0
  0
LINE
  8
0
  6
BYLAYER
 62
     7
 10
397.699659
 20
-697.196069
 30
0.0
 11
565.178327
 21
-697.196069
 31
0.0
  0
LINE
  8
0
  6
BYLAYER
 62
     7
 10
402.699659
 20
-698.864953
 30
0.0
 11
565.178327
 21
-698.864953
 31
0.0
  0
LINE
  8
0
  6
BYLAYER
 62
     7
 10
402.368818
 20
-711.122613
 30
0.0
 11
565.178327
 21
-711.122613
 31
0.0
  0
LINE
  8
0
  6
BYLAYER
 62
     7
 10
402.586897
 20
-719.923822
 30
0.0
 11
565.178327
 21
-719.923822
 31
0.0
  0
LINE
  8
0
  6
BYLAYER
 62
     7
 10
402.535535
 20
-725.722528
 30
0.0
 11
565.178327
 21
-725.722528
 31
0.0
  0
LINE
  8
0
  6
BYLAYER
 62
     7
 10
402.640119
 20
-729.396875
 30
0.0
 11
565.178327
 21
-729.396875
 31
0.0
  0
LINE
  8
0
  6
BYLAYER
 62
     7
 10
402.330091
 20
-731.146112
 30
0.0
 11
565.178327
 21
-731.146112
 31
0.0
  0
LINE
  8
0
  6
BYLAYER
 62
     7
 10
510.261396
 20
-631.696099
 30
0.0
 11
565.178327
 21
-631.696099
 31
0.0
  0
LINE
  8
0
  6
BYLAYER
 62
     7
 10
510.261396
 20
-633.696099
 30
0.0
 11
565.178327
 21
-633.696099
 31
0.0
  0
LINE
  8
0
  6
BYLAYER
 62
     7
 10
494.699659
 20
-633.696099
 30
0.0
 11
510.261396
 21
-633.696099
 31
0.0
  0
LINE
  8
0
  6
BYLAYER
 62
     7
 10
494.699659
 20
-631.696099
 30
0.0
 11
510.261396
 21
-631.696099
 31
0.0
  0
LINE
  8
0
  6
BYLAYER
 62
     7
 10
565.178327
 20
-628.046075
 30
0.0
 11
565.178327
 21
-733.446624
 31
0.0
  0
LINE
  8
0
  6
BYLAYER
 62
     7
 10
565.178327
 20
-733.446624
 30
0.0
 11
648.778327
 21
-733.446624
 31
0.0
  0
LINE
  8
0
  6
BYLAYER
 62
     7
 10
670.178327
 20
-712.046624
 30
0.0
 11
670.178327
 21
-628.046075
 31
0.0
  0
LINE
  8
0
  6
BYLAYER
 62
     7
 10
648.778327
 20
-733.446624
 30
0.0
 11
670.178327
 21
-712.046624
 31
0.0
  0
LINE
  8
0
  6
BYLAYER
 62
     7
 10
409.548128
 20
-671.546075
 30
0.0
 11
445.699659
 21
-671.546075
 31
0.0
  0
ARC
  8
0
  6
BYLAYER
 62
     7
 10
409.548128
 20
-670.046075
 30
0.0
 40
1.500000
 50
191.536959
 51
270.000000
  0
LINE
  8
0
  6
BYLAYER
 62
     7
 10
402.199659
 20
-628.046075
 30
0.0
 11
402.199659
 21
-664.197606
 31
0.0
  0
LINE
  8
0
  6
BYLAYER
 62
     7
 10
445.699659
 20
-671.546075
 30
0.0
 11
481.851190
 21
-671.546075
 31
0.0
  0
LINE
  8
0
  6
BYLAYER
 62
     7
 10
489.199659
 20
-664.197606
 30
0.0
 11
489.199659
 21
-628.046075
 31
0.0
  0
LINE
  8
0
  6
BYLAYER
 62
     7
 10
416.304357
 20
-640.647181
 30
0.0
 11
402.199659
 21
-641.139728
 31
0.0
  0
ARC
  8
0
  6
BYLAYER
 62
     7
 10
416.199659
 20
-637.649009
 30
0.0
 40
3.000000
 50
272.0
 51
360.0
  0
LINE
  8
0
  6
BYLAYER
 62
     7
 10
416.304357
 20
-655.647181
 30
0.0
 11
402.199659
 21
-656.139728
 31
0.0
  0
ARC
  8
0
  6
BYLAYER
 62
     7
 10
416.199659
 20
-652.649009
 30
0.0
 40
3.000000
 50
272.0
 51
360.0
  0
LINE
  8
0
  6
BYLAYER
 62
     7
 10
402.199659
 20
-644.952422
 30
0.0
 11
416.304357
 21
-645.444969
 31
0.0
  0
ARC
  8
0
  6
BYLAYER
 62
     7
 10
416.199659
 20
-648.443141
 30
0.0
 40
3.0
 50
0.0
 51
88.0
  0
LINE
  8
0
  6
BYLAYER
 62
     7
 10
402.199659
 20
-629.952422
 30
0.0
 11
416.304357
 21
-630.444969
 31
0.0
  0
ARC
  8
0
  6
BYLAYER
 62
     7
 10
416.199659
 20
-633.443141
 30
0.0
 40
3.0
 50
0.0
 51
88.0
  0
LINE
  8
0
  6
BYLAYER
 62
     7
 10
419.199659
 20
-648.443141
 30
0.0
 11
419.199659
 21
-652.649009
 31
0.0
  0
LINE
  8
0
  6
BYLAYER
 62
     7
 10
419.199659
 20
-633.443141
 30
0.0
 11
419.199659
 21
-637.649009
 31
0.0
  0
LINE
  8
0
  6
BYLAYER
 62
     7
 10
403.199659
 20
-629.987343
 30
0.0
 11
403.199659
 21
-641.104807
 31
0.0
  0
LINE
  8
0
  6
BYLAYER
 62
     7
 10
403.199659
 20
-644.987343
 30
0.0
 11
403.199659
 21
-656.104807
 31
0.0
  0
LINE
  8
0
  6
BYLAYER
 62
     7
 10
475.094961
 20
-640.647181
 30
0.0
 11
489.199659
 21
-641.139728
 31
0.0
  0
ARC
  8
0
  6
BYLAYER
 62
     7
 10
475.199659
 20
-637.649009
 30
0.0
 40
3.0
 50
180.000000
 51
268.000000
  0
LINE
  8
0
  6
BYLAYER
 62
     7
 10
475.094961
 20
-655.647181
 30
0.0
 11
489.199659
 21
-656.139728
 31
0.0
  0
ARC
  8
0
  6
BYLAYER
 62
     7
 10
475.199659
 20
-652.649009
 30
0.0
 40
3.0
 50
180.000000
 51
268.000000
  0
LINE
  8
0
  6
BYLAYER
 62
     7
 10
489.199659
 20
-644.952422
 30
0.0
 11
475.094961
 21
-645.444969
 31
0.0
  0
ARC
  8
0
  6
BYLAYER
 62
     7
 10
475.199659
 20
-648.443141
 30
0.0
 40
3.0
 50
92.000000
 51
180.000000
  0
LINE
  8
0
  6
BYLAYER
 62
     7
 10
489.199659
 20
-629.952422
 30
0.0
 11
475.094961
 21
-630.444969
 31
0.0
  0
ARC
  8
0
  6
BYLAYER
 62
     7
 10
475.199659
 20
-633.443141
 30
0.0
 40
3.0
 50
92.000000
 51
180.000000
  0
LINE
  8
0
  6
BYLAYER
 62
     7
 10
472.199659
 20
-648.443141
 30
0.0
 11
472.199659
 21
-652.649009
 31
0.0
  0
LINE
  8
0
  6
BYLAYER
 62
     7
 10
472.199659
 20
-633.443141
 30
0.0
 11
472.199659
 21
-637.649009
 31
0.0
  0
LINE
  8
0
  6
BYLAYER
 62
     7
 10
488.199659
 20
-629.987343
 30
0.0
 11
488.199659
 21
-641.104807
 31
0.0
  0
LINE
  8
0
  6
BYLAYER
 62
     7
 10
488.199659
 20
-644.987343
 30
0.0
 11
488.199659
 21
-656.104807
 31
0.0
  0
LINE
  8
0
  6
BYLAYER
 62
     7
 10
432.699659
 20
-658.046075
 30
0.0
 11
458.699659
 21
-658.046075
 31
0.0
  0
ARC
  8
0
  6
BYLAYER
 62
     7
 10
458.699659
 20
-655.046075
 30
0.0
 40
3.0
 50
270.0
 51
360.0
  0
ARC
  8
0
  6
BYLAYER
 62
     7
 10
432.699659
 20
-655.046075
 30
0.0
 40
3.0
 50
180.000000
 51
270.000000
  0
LINE
  8
0
  6
BYLAYER
 62
     7
 10
429.699659
 20
-628.046075
 30
0.0
 11
429.699659
 21
-655.046075
 31
0.0
  0
LINE
  8
0
  6
BYLAYER
 62
     7
 10
461.699659
 20
-655.046075
 30
0.0
 11
461.699659
 21
-628.046075
 31
0.0
  0
ARC
  8
0
  6
BYLAYER
 62
     7
 10
402.199659
 20
-671.546075
 30
0.0
 40
6.0
 50
11.536959
 51
78.463041
  0
ARC
  8
0
  6
BYLAYER
 62
     7
 10
403.699659
 20
-664.197606
 30
0.0
 40
1.500000
 50
180.000000
 51
258.463041
  0
ARC
  8
0
  6
BYLAYER
 62
     7
 10
489.199659
 20
-671.546075
 30
0.0
 40
6.0
 50
101.536959
 51
168.463041
  0
ARC
  8
0
  6
BYLAYER
 62
     7
 10
487.699659
 20
-664.197606
 30
0.0
 40
1.500000
 50
281.536959
 51
360.000000
  0
ARC
  8
0
  6
BYLAYER
 62
     7
 10
481.851190
 20
-670.046075
 30
0.0
 40
1.500000
 50
270.0
 51
348.463041
  0
LINE
  8
0
  6
BYLAYER
 62
     7
 10
396.699659
 20
-628.046075
 30
0.0
 11
396.699659
 21
-675.546075
 31
0.0
  0
LINE
  8
0
  6
BYLAYER
 62
     7
 10
398.199659
 20
-677.046075
 30
0.0
 11
493.199659
 21
-677.046075
 31
0.0
  0
ARC
  8
0
  6
BYLAYER
 62
     7
 10
398.199659
 20
-675.546075
 30
0.0
 40
1.5
 50
180.000000
 51
270.000000
  0
LINE
  8
0
  6
BYLAYER
 62
     7
 10
494.699659
 20
-675.546075
 30
0.0
 11
494.699659
 21
-628.046075
 31
0.0
  0
ARC
  8
0
  6
BYLAYER
 62
     7
 10
493.199659
 20
-675.546075
 30
0.0
 40
1.5
 50
270.0
 51
360.0
  0
ARC
  8
0
  6
BYLAYER
 62
     7
 10
397.699659
 20
-572.596093
 30
0.0
 40
1.0
 50
90.0
 51
180.000009
  0
ARC
  8
0
  6
BYLAYER
 62
     7
 10
397.699659
 20
-572.596093
 30
0.0
 40
1.0
 50
180.000000
 51
269.999989
  0
ARC
  8
0
  6
BYLAYER
 62
     7
 10
397.699659
 20
-559.896081
 30
0.0
 40
1.0
 50
90.0
 51
180.000009
  0
ARC
  8
0
  6
BYLAYER
 62
     7
 10
397.699659
 20
-559.896081
 30
0.0
 40
1.0
 50
180.000000
 51
269.999989
  0
LINE
  8
0
  6
BYLAYER
 62
     7
 10
494.699659
 20
-586.296075
 30
0.0
 11
565.178327
 21
-586.296075
 31
0.0
  0
LINE
  8
0
  6
BYLAYER
 62
     7
 10
494.699659
 20
-584.296075
 30
0.0
 11
565.178327
 21
-584.296075
 31
0.0
  0
LINE
  8
0
  6
BYLAYER
 62
     7
 10
402.699659
 20
-557.227197
 30
0.0
 11
396.699659
 21
-554.606805
 31
0.0
  0
LINE
  8
0
  6
BYLAYER
 62
     7
 10
396.699659
 20
-536.046075
 30
0.0
 11
396.699659
 21
-628.046075
 31
0.0
  0
LINE
  8
0
  6
BYLAYER
 62
     7
 10
392.199659
 20
-536.046075
 30
0.0
 11
396.699659
 21
-536.046075
 31
0.0
  0
LINE
  8
0
  6
BYLAYER
 62
     7
 10
396.699659
 20
-554.606805
 30
0.0
 11
400.059797
 21
-546.511163
 31
0.0
  0
ARC
  8
0
  6
BYLAYER
 62
     7
 10
402.368818
 20
-547.469537
 30
0.0
 40
2.500012
 50
90.0
 51
157.458787
  0
LINE
  8
0
  6
BYLAYER
 62
     7
 10
396.699659
 20
-550.208367
 30
0.0
 11
400.182569
 21
-537.983331
 31
0.0
  0
ARC
  8
0
  6
BYLAYER
 62
     7
 10
402.586897
 20
-538.668328
 30
0.0
 40
2.500002
 50
90.0
 51
164.097649
  0
LINE
  8
0
  6
BYLAYER
 62
     7
 10
396.699659
 20
-543.120751
 30
0.0
 11
400.150159
 21
-532.121331
 31
0.0
  0
ARC
  8
0
  6
BYLAYER
 62
     7
 10
402.535535
 20
-532.869622
 30
0.0
 40
2.499992
 50
90.0
 51
162.583396
  0
ARC
  8
0
  6
BYLAYER
 62
     7
 10
402.640119
 20
-529.195275
 30
0.0
 40
2.499992
 50
90.0
 51
162.583396
  0
LINE
  8
0
  6
BYLAYER
 62
     7
 10
396.699659
 20
-536.046075
 30
0.0
 11
399.968244
 21
-526.626489
 31
0.0
  0
ARC
  8
0
  6
BYLAYER
 62
     7
 10
402.330091
 20
-527.446038
 30
0.0
 40
2.499996
 50
90.0
 51
160.863473
  0
LINE
  8
0
  6
BYLAYER
 62
     7
 10
400.254743
 20
-528.446984
 30
0.0
 11
396.699659
 21
-539.779778
 31
0.0
  0
ARC
  8
0
  6
BYLAYER
 62
     7
 10
401.699659
 20
-572.596093
 30
0.0
 40
1.0
 50
90.0
 51
180.000009
  0
ARC
  8
0
  6
BYLAYER
 62
     7
 10
401.699659
 20
-572.596093
 30
0.0
 40
1.0
 50
180.000000
 51
269.999989
  0
ARC
  8
0
  6
BYLAYER
 62
     7
 10
401.699659
 20
-559.896081
 30
0.0
 40
1.0
 50
90.0
 51
180.000009
  0
ARC
  8
0
  6
BYLAYER
 62
     7
 10
401.699659
 20
-559.896081
 30
0.0
 40
1.0
 50
180.000000
 51
269.999989
  0
LINE
  8
0
  6
BYLAYER
 62
     7
 10
403.199659
 20
-560.896081
 30
0.0
 11
403.199659
 21
-571.596093
 31
0.0
  0
LINE
  8
0
  6
BYLAYER
 62
     7
 10
403.199659
 20
-573.596093
 30
0.0
 11
403.199659
 21
-579.046075
 31
0.0
  0
LINE
  8
0
  6
BYLAYER
 62
     7
 10
392.199659
 20
-536.046075
 30
0.0
 11
392.199659
 21
-628.046075
 31
0.0
  0
LINE
  8
0
  6
BYLAYER
 62
     7
 10
494.699659
 20
-611.696069
 30
0.0
 11
565.178327
 21
-611.696069
 31
0.0
  0
LINE
  8
0
  6
BYLAYER
 62
     7
 10
494.699659
 20
-609.696069
 30
0.0
 11
565.178327
 21
-609.696069
 31
0.0
  0
LINE
  8
0
  6
BYLAYER
 62
     7
 10
494.699659
 20
-598.996087
 30
0.0
 11
565.178327
 21
-598.996087
 31
0.0
  0
LINE
  8
0
  6
BYLAYER
 62
     7
 10
494.699659
 20
-596.996087
 30
0.0
 11
565.178327
 21
-596.996087
 31
0.0
  0
LINE
  8
0
  6
BYLAYER
 62
     7
 10
397.699659
 20
-573.596093
 30
0.0
 11
565.178327
 21
-573.596093
 31
0.0
  0
LINE
  8
0
  6
BYLAYER
 62
     7
 10
397.699659
 20
-571.596093
 30
0.0
 11
565.178327
 21
-571.596093
 31
0.0
  0
LINE
  8
0
  6
BYLAYER
 62
     7
 10
397.699659
 20
-560.896081
 30
0.0
 11
565.178327
 21
-560.896081
 31
0.0
  0
LINE
  8
0
  6
BYLAYER
 62
     7
 10
397.699659
 20
-558.896081
 30
0.0
 11
565.178327
 21
-558.896081
 31
0.0
  0
LINE
  8
0
  6
BYLAYER
 62
     7
 10
402.699659
 20
-557.227197
 30
0.0
 11
565.178327
 21
-557.227197
 31
0.0
  0
LINE
  8
0
  6
BYLAYER
 62
     7
 10
402.368818
 20
-544.969537
 30
0.0
 11
565.178327
 21
-544.969537
 31
0.0
  0
LINE
  8
0
  6
BYLAYER
 62
     7
 10
402.586897
 20
-536.168328
 30
0.0
 11
565.178327
 21
-536.168328
 31
0.0
  0
LINE
  8
0
  6
BYLAYER
 62
     7
 10
402.535535
 20
-530.369622
 30
0.0
 11
565.178327
 21
-530.369622
 31
0.0
  0
LINE
  8
0
  6
BYLAYER
 62
     7
 10
402.640119
 20
-526.695275
 30
0.0
 11
565.178327
 21
-526.695275
 31
0.0
  0
LINE
  8
0
  6
BYLAYER
 62
     7
 10
402.330091
 20
-524.946038
 30
0.0
 11
565.178327
 21
-524.946038
 31
0.0
  0
LINE
  8
0
  6
BYLAYER
 62
     7
 10
510.261396
 20
-624.396051
 30
0.0
 11
565.178327
 21
-624.396051
 31
0.0
  0
LINE
  8
0
  6
BYLAYER
 62
     7
 10
510.261396
 20
-622.396051
 30
0.0
 11
565.178327
 21
-622.396051
 31
0.0
  0
LINE
  8
0
  6
BYLAYER
 62
     7
 10
494.699659
 20
-622.396051
 30
0.0
 11
510.261396
 21
-622.396051
 31
0.0
  0
LINE
  8
0
  6
BYLAYER
 62
     7
 10
494.699659
 20
-624.396051
 30
0.0
 11
510.261396
 21
-624.396051
 31
0.0
  0
LINE
  8
0
  6
BYLAYER
 62
     7
 10
565.178327
 20
-628.046075
 30
0.0
 11
565.178327
 21
-522.645526
 31
0.0
  0
LINE
  8
0
  6
BYLAYER
 62
     7
 10
565.178327
 20
-522.645526
 30
0.0
 11
648.778327
 21
-522.645526
 31
0.0
  0
LINE
  8
0
  6
BYLAYER
 62
     7
 10
670.178327
 20
-544.045526
 30
0.0
 11
670.178327
 21
-628.046075
 31
0.0
  0
LINE
  8
0
  6
BYLAYER
 62
     7
 10
648.778327
 20
-522.645526
 30
0.0
 11
670.178327
 21
-544.045526
 31
0.0
  0
LINE
  8
0
  6
BYLAYER
 62
     7
 10
409.548128
 20
-584.546075
 30
0.0
 11
445.699659
 21
-584.546075
 31
0.0
  0
ARC
  8
0
  6
BYLAYER
 62
     7
 10
409.548128
 20
-586.046075
 30
0.0
 40
1.5
 50
90.0
 51
168.463041
  0
LINE
  8
0
  6
BYLAYER
 62
     7
 10
402.199659
 20
-628.046075
 30
0.0
 11
402.199659
 21
-591.894544
 31
0.0
  0
LINE
  8
0
  6
BYLAYER
 62
     7
 10
445.699659
 20
-584.546075
 30
0.0
 11
481.851190
 21
-584.546075
 31
0.0
  0
LINE
  8
0
  6
BYLAYER
 62
     7
 10
489.199659
 20
-591.894544
 30
0.0
 11
489.199659
 21
-628.046075
 31
0.0
  0
LINE
  8
0
  6
BYLAYER
 62
     7
 10
416.304357
 20
-615.444969
 30
0.0
 11
402.199659
 21
-614.952422
 31
0.0
  0
ARC
  8
0
  6
BYLAYER
 62
     7
 10
416.199659
 20
-618.443141
 30
0.0
 40
3.0
 50
0.0
 51
88.0
  0
LINE
  8
0
  6
BYLAYER
 62
     7
 10
416.304357
 20
-600.444969
 30
0.0
 11
402.199659
 21
-599.952422
 31
0.0
  0
ARC
  8
0
  6
BYLAYER
 62
     7
 10
416.199659
 20
-603.443141
 30
0.0
 40
3.0
 50
0.0
 51
88.0
  0
LINE
  8
0
  6
BYLAYER
 62
     7
 10
402.199659
 20
-611.139728
 30
0.0
 11
416.304357
 21
-610.647181
 31
0.0
  0
ARC
  8
0
  6
BYLAYER
 62
     7
 10
416.199659
 20
-607.649009
 30
0.0
 40
3.000000
 50
272.0
 51
360.0
  0
LINE
  8
0
  6
BYLAYER
 62
     7
 10
402.199659
 20
-626.139728
 30
0.0
 11
416.304357
 21
-625.647181
 31
0.0
  0
ARC
  8
0
  6
BYLAYER
 62
     7
 10
416.199659
 20
-622.649009
 30
0.0
 40
3.000000
 50
272.0
 51
360.0
  0
LINE
  8
0
  6
BYLAYER
 62
     7
 10
419.199659
 20
-607.649009
 30
0.0
 11
419.199659
 21
-603.443141
 31
0.0
  0
LINE
  8
0
  6
BYLAYER
 62
     7
 10
419.199659
 20
-622.649009
 30
0.0
 11
419.199659
 21
-618.443141
 31
0.0
  0
LINE
  8
0
  6
BYLAYER
 62
     7
 10
403.199659
 20
-626.104807
 30
0.0
 11
403.199659
 21
-614.987343
 31
0.0
  0
LINE
  8
0
  6
BYLAYER
 62
     7
 10
403.199659
 20
-611.104807
 30
0.0
 11
403.199659
 21
-599.987343
 31
0.0
  0
LINE
  8
0
  6
BYLAYER
 62
     7
 10
475.094961
 20
-615.444969
 30
0.0
 11
489.199659
 21
-614.952422
 31
0.0
  0
ARC
  8
0
  6
BYLAYER
 62
     7
 10
475.199659
 20
-618.443141
 30
0.0
 40
3.0
 50
92.000000
 51
180.000000
  0
LINE
  8
0
  6
BYLAYER
 62
     7
 10
475.094961
 20
-600.444969
 30
0.0
 11
489.199659
 21
-599.952422
 31
0.0
  0
ARC
  8
0
  6
BYLAYER
 62
     7
 10
475.199659
 20
-603.443141
 30
0.0
 40
3.0
 50
92.000000
 51
180.000000
  0
LINE
  8
0
  6
BYLAYER
 62
     7
 10
489.199659
 20
-611.139728
 30
0.0
 11
475.094961
 21
-610.647181
 31
0.0
  0
ARC
  8
0
  6
BYLAYER
 62
     7
 10
475.199659
 20
-607.649009
 30
0.0
 40
3.0
 50
180.000000
 51
268.000000
  0
LINE
  8
0
  6
BYLAYER
 62
     7
 10
489.199659
 20
-626.139728
 30
0.0
 11
475.094961
 21
-625.647181
 31
0.0
  0
ARC
  8
0
  6
BYLAYER
 62
     7
 10
475.199659
 20
-622.649009
 30
0.0
 40
3.0
 50
180.000000
 51
268.000000
  0
LINE
  8
0
  6
BYLAYER
 62
     7
 10
472.199659
 20
-607.649009
 30
0.0
 11
472.199659
 21
-603.443141
 31
0.0
  0
LINE
  8
0
  6
BYLAYER
 62
     7
 10
472.199659
 20
-622.649009
 30
0.0
 11
472.199659
 21
-618.443141
 31
0.0
  0
LINE
  8
0
  6
BYLAYER
 62
     7
 10
488.199659
 20
-626.104807
 30
0.0
 11
488.199659
 21
-614.987343
 31
0.0
  0
LINE
  8
0
  6
BYLAYER
 62
     7
 10
488.199659
 20
-611.104807
 30
0.0
 11
488.199659
 21
-599.987343
 31
0.0
  0
LINE
  8
0
  6
BYLAYER
 62
     7
 10
432.699659
 20
-598.046075
 30
0.0
 11
458.699659
 21
-598.046075
 31
0.0
  0
ARC
  8
0
  6
BYLAYER
 62
     7
 10
458.699659
 20
-601.046075
 30
0.0
 40
3.0
 50
0.0
 51
90.0
  0
ARC
  8
0
  6
BYLAYER
 62
     7
 10
432.699659
 20
-601.046075
 30
0.0
 40
3.0
 50
90.0
 51
180.0
  0
LINE
  8
0
  6
BYLAYER
 62
     7
 10
429.699659
 20
-628.046075
 30
0.0
 11
429.699659
 21
-601.046075
 31
0.0
  0
LINE
  8
0
  6
BYLAYER
 62
     7
 10
461.699659
 20
-601.046075
 30
0.0
 11
461.699659
 21
-628.046075
 31
0.0
  0
ARC
  8
0
  6
BYLAYER
 62
     7
 10
402.199659
 20
-584.546075
 30
0.0
 40
6.0
 50
281.536959
 51
348.463041
  0
ARC
  8
0
  6
BYLAYER
 62
     7
 10
403.699659
 20
-591.894544
 30
0.0
 40
1.500000
 50
101.536959
 51
180.000000
  0
ARC
  8
0
  6
BYLAYER
 62
     7
 10
489.199659
 20
-584.546075
 30
0.0
 40
6.000000
 50
191.536959
 51
258.463041
  0
ARC
  8
0
  6
BYLAYER
 62
     7
 10
487.699659
 20
-591.894544
 30
0.0
 40
1.500000
 50
0.0
 51
78.463041
  0
ARC
  8
0
  6
BYLAYER
 62
     7
 10
481.851190
 20
-586.046075
 30
0.0
 40
1.5
 50
11.536959
 51
90.000000
  0
LINE
  8
0
  6
BYLAYER
 62
     7
 10
396.699659
 20
-628.046075
 30
0.0
 11
396.699659
 21
-580.546075
 31
0.0
  0
LINE
  8
0
  6
BYLAYER
 62
     7
 10
398.199659
 20
-579.046075
 30
0.0
 11
493.199659
 21
-579.046075
 31
0.0
  0
ARC
  8
0
  6
BYLAYER
 62
     7
 10
398.199659
 20
-580.546075
 30
0.0
 40
1.5
 50
90.0
 51
180.0
  0
LINE
  8
0
  6
BYLAYER
 62
     7
 10
494.699659
 20
-580.546075
 30
0.0
 11
494.699659
 21
-628.046075
 31
0.0
  0
ARC
  8
0
  6
BYLAYER
 62
     7
 10
493.199659
 20
-580.546075
 30
0.0
 40
1.5
 50
0.0
 51
90.0
  0
LINE
  8
0
  6
BYLAYER
 62
     7
 10
648.778327
 20
-733.446624
 30
0.0
 11
648.778327
 21
-522.645526
 31
0.0
  0
LINE
  8
0
  6
BYLAYER
 62
     1
 10
274.199659
 20
-314.046075
 30
0.0
 11
274.199659
 21
-304.046075
 31
0.0
  0
LINE
  8
0
  6
BYLAYER
 62
     1
 10
319.199659
 20
-269.046075
 30
0.0
 11
309.199659
 21
-269.046075
 31
0.0
  0
LINE
  8
0
  6
BYLAYER
 62
     1
 10
317.699659
 20
-267.546075
 30
0.0
 11
319.199659
 21
-269.046075
 31
0.0
  0
LINE
  8
0
  6
BYLAYER
 62
     1
 10
319.199659
 20
-269.046075
 30
0.0
 11
319.199659
 21
-312.046075
 31
0.0
  0
LINE
  8
0
  6
BYLAYER
 62
     1
 10
319.199659
 20
-312.046075
 30
0.0
 11
317.199659
 21
-314.046075
 31
0.0
  0
LINE
  8
0
  6
BYLAYER
 62
     1
 10
319.199659
 20
-312.046075
 30
0.0
 11
317.199659
 21
-314.046075
 31
0.0
  0
LINE
  8
0
  6
BYLAYER
 62
     1
 10
272.699659
 20
-312.546075
 30
0.0
 11
274.199659
 21
-314.046075
 31
0.0
  0
LINE
  8
0
  6
BYLAYER
 62
     1
 10
274.199659
 20
-314.046075
 30
0.0
 11
317.199659
 21
-314.046075
 31
0.0
  0
LINE
  8
0
  6
BYLAYER
 62
     1
 10
147.199659
 20
-269.046075
 30
0.0
 11
147.199659
 21
-312.046075
 31
0.0
  0
LINE
  8
0
  6
BYLAYER
 62
     1
 10
192.199659
 20
-314.046075
 30
0.0
 11
192.199659
 21
-304.046075
 31
0.0
  0
LINE
  8
0
  6
BYLAYER
 62
     1
 10
193.699659
 20
-312.546075
 30
0.0
 11
192.199659
 21
-314.046075
 31
0.0
  0
LINE
  8
0
  6
BYLAYER
 62
     1
 10
192.199659
 20
-314.046075
 30
0.0
 11
149.199659
 21
-314.046075
 31
0.0
  0
LINE
  8
0
  6
BYLAYER
 62
     1
 10
147.199659
 20
-312.046075
 30
0.0
 11
149.199659
 21
-314.046075
 31
0.0
  0
LINE
  8
0
  6
BYLAYER
 62
     1
 10
147.199659
 20
-269.046075
 30
0.0
 11
157.199659
 21
-269.046075
 31
0.0
  0
LINE
  8
0
  6
BYLAYER
 62
     1
 10
148.699659
 20
-267.546075
 30
0.0
 11
147.199659
 21
-269.046075
 31
0.0
  0
LINE
  8
0
  6
BYLAYER
 62
     1
 10
167.699659
 20
-304.046075
 30
0.0
 11
167.699659
 21
-314.046075
 31
0.0
  0
LINE
  8
0
  6
BYLAYER
 62
     1
 10
287.949659
 20
-304.046075
 30
0.0
 11
287.949659
 21
-314.046075
 31
0.0
  0
LINE
  8
0
  6
BYLAYER
 62
     1
 10
298.949659
 20
-304.046075
 30
0.0
 11
298.949659
 21
-314.046075
 31
0.0
  0
LINE
  8
0
  6
BYLAYER
 62
     1
 10
312.699659
 20
-314.046075
 30
0.0
 11
311.699659
 21
-314.046075
 31
0.0
  0
LINE
  8
0
  6
BYLAYER
 62
     1
 10
148.699659
 20
-214.046075
 30
0.0
 11
148.699659
 21
-267.546075
 31
0.0
  0
LINE
  8
0
  6
BYLAYER
 62
     1
 10
317.699659
 20
-214.046075
 30
0.0
 11
317.699659
 21
-267.546075
 31
0.0
  0
LINE
  8
0
  6
BYLAYER
 62
     1
 10
216.505140
 20
-149.296197
 30
0.0
 11
194.449659
 21
-149.296197
 31
0.0
  0
LINE
  8
0
  6
BYLAYER
 62
     1
 10
233.199659
 20
-146.796197
 30
0.0
 11
194.449659
 21
-146.796197
 31
0.0
  0
ARC
  8
0
  6
BYLAYER
 62
     1
 10
194.449659
 20
-148.046197
 30
0.0
 40
1.25
 50
90.0
 51
270.000005
  0
LINE
  8
0
  6
BYLAYER
 62
     1
 10
233.199659
 20
-146.796197
 30
0.0
 11
271.949659
 21
-146.796197
 31
0.0
  0
ARC
  8
0
  6
BYLAYER
 62
     1
 10
271.949659
 20
-148.046197
 30
0.0
 40
1.25
 50
270.0
 51
450.000005
  0
ARC
  8
0
  6
BYLAYER
 62
     1
 10
158.199659
 20
-155.796197
 30
0.0
 40
1.000000
 50
180.000000
 51
269.999996
  0
ARC
  8
0
  6
BYLAYER
 62
     1
 10
158.199659
 20
-160.296197
 30
0.0
 40
1.000000
 50
90.0
 51
180.000003
  0
ARC
  8
0
  6
BYLAYER
 62
     1
 10
186.949659
 20
-168.046197
 30
0.0
 40
1.25
 50
270.0
 51
450.000005
  0
ARC
  8
0
  6
BYLAYER
 62
     1
 10
158.199659
 20
-170.296197
 30
0.0
 40
1.000000
 50
90.0
 51
180.000003
  0
ARC
  8
0
  6
BYLAYER
 62
     1
 10
158.199659
 20
-175.796197
 30
0.0
 40
1.000000
 50
180.000000
 51
269.999996
  0
LINE
  8
0
  6
BYLAYER
 62
     1
 10
176.949598
 20
-176.796197
 30
0.0
 11
158.199659
 21
-176.796197
 31
0.0
  0
ARC
  8
0
  6
BYLAYER
 62
     1
 10
176.949598
 20
-178.046197
 30
0.0
 40
1.25
 50
270.0
 51
450.000005
  0
LINE
  8
0
  6
BYLAYER
 62
     1
 10
186.949659
 20
-166.796197
 30
0.0
 11
158.199659
 21
-166.796197
 31
0.0
  0
LINE
  8
0
  6
BYLAYER
 62
     1
 10
186.949659
 20
-169.296197
 30
0.0
 11
158.199659
 21
-169.296197
 31
0.0
  0
LINE
  8
0
  6
BYLAYER
 62
     1
 10
158.199659
 20
-159.296197
 30
0.0
 11
192.299513
 21
-159.296197
 31
0.0
  0
LINE
  8
0
  6
BYLAYER
 62
     1
 10
158.199659
 20
-156.796197
 30
0.0
 11
192.299513
 21
-156.796197
 31
0.0
  0
LINE
  8
0
  6
BYLAYER
 62
     1
 10
279.449415
 20
-166.796197
 30
0.0
 11
308.199659
 21
-166.796197
 31
0.0
  0
LINE
  8
0
  6
BYLAYER
 62
     1
 10
279.449415
 20
-169.296197
 30
0.0
 11
308.199659
 21
-169.296197
 31
0.0
  0
ARC
  8
0
  6
BYLAYER
 62
     1
 10
279.449415
 20
-168.046197
 30
0.0
 40
1.25
 50
90.0
 51
270.000005
  0
LINE
  8
0
  6
BYLAYER
 62
     1
 10
289.449476
 20
-179.296197
 30
0.0
 11
308.199659
 21
-179.296197
 31
0.0
  0
ARC
  8
0
  6
BYLAYER
 62
     1
 10
289.449476
 20
-178.046197
 30
0.0
 40
1.25
 50
90.0
 51
270.000005
  0
ARC
  8
0
  6
BYLAYER
 62
     1
 10
308.199659
 20
-170.296197
 30
0.0
 40
1.0
 50
0.0
 51
90.000016
  0
ARC
  8
0
  6
BYLAYER
 62
     1
 10
308.199659
 20
-170.296197
 30
0.0
 40
1.0
 50
0.0
 51
90.000016
  0
ARC
  8
0
  6
BYLAYER
 62
     1
 10
308.199659
 20
-180.296197
 30
0.0
 40
1.0
 50
0.0
 51
90.000016
  0
ARC
  8
0
  6
BYLAYER
 62
     1
 10
158.199659
 20
-165.796197
 30
0.0
 40
1.000000
 50
180.000000
 51
270.000009
  0
ARC
  8
0
  6
BYLAYER
 62
     1
 10
308.199659
 20
-165.796197
 30
0.0
 40
1.000000
 50
270.0
 51
360.000003
  0
ARC
  8
0
  6
BYLAYER
 62
     1
 10
308.199659
 20
-175.796197
 30
0.0
 40
1.0
 50
270.0
 51
359.999982
  0
LINE
  8
0
  6
BYLAYER
 62
     1
 10
319.199659
 20
-292.546075
 30
0.0
 11
309.199659
 21
-292.546075
 31
0.0
  0
LINE
  8
0
  6
BYLAYER
 62
     1
 10
319.199659
 20
-281.546075
 30
0.0
 11
309.199659
 21
-281.546075
 31
0.0
  0
LINE
  8
0
  6
BYLAYER
 62
     1
 10
178.699659
 20
-304.046075
 30
0.0
 11
178.699659
 21
-314.046075
 31
0.0
  0
LINE
  8
0
  6
BYLAYER
 62
     1
 10
249.894178
 20
-149.296197
 30
0.0
 11
271.949659
 21
-149.296197
 31
0.0
  0
LINE
  8
0
  6
BYLAYER
 62
     1
 10
274.199659
 20
-109.046075
 30
0.0
 11
317.199659
 21
-109.046075
 31
0.0
  0
LINE
  8
0
  6
BYLAYER
 62
     1
 10
192.199659
 20
-109.046075
 30
0.0
 11
192.199659
 21
-119.046075
 31
0.0
  0
LINE
  8
0
  6
BYLAYER
 62
     1
 10
193.699659
 20
-110.546075
 30
0.0
 11
233.199659
 21
-110.546075
 31
0.0
  0
LINE
  8
0
  6
BYLAYER
 62
     1
 10
272.699659
 20
-110.546075
 30
0.0
 11
233.199659
 21
-110.546075
 31
0.0
  0
LINE
  8
0
  6
BYLAYER
 62
     1
 10
272.699659
 20
-110.546075
 30
0.0
 11
272.699659
 21
-119.046075
 31
0.0
  0
LINE
  8
0
  6
BYLAYER
 62
     1
 10
274.199659
 20
-109.046075
 30
0.0
 11
274.199659
 21
-119.046075
 31
0.0
  0
LINE
  8
0
  6
BYLAYER
 62
     1
 10
192.199659
 20
-109.046075
 30
0.0
 11
149.199659
 21
-109.046075
 31
0.0
  0
LINE
  8
0
  6
BYLAYER
 62
     1
 10
274.199659
 20
-109.046075
 30
0.0
 11
274.199659
 21
-119.046075
 31
0.0
  0
LINE
  8
0
  6
BYLAYER
 62
     1
 10
147.199659
 20
-111.046197
 30
0.0
 11
149.199659
 21
-109.046197
 31
0.0
  0
LINE
  8
0
  6
BYLAYER
 62
     1
 10
272.699659
 20
-110.546075
 30
0.0
 11
274.199659
 21
-109.046075
 31
0.0
  0
LINE
  8
0
  6
BYLAYER
 62
     1
 10
193.699659
 20
-110.546075
 30
0.0
 11
192.199659
 21
-109.046075
 31
0.0
  0
LINE
  8
0
  6
BYLAYER
 62
     1
 10
319.199659
 20
-111.046197
 30
0.0
 11
317.199659
 21
-109.046075
 31
0.0
  0
ARC
  8
0
  6
BYLAYER
 62
     1
 10
307.199659
 20
-121.046197
 30
0.0
 40
2.000000
 50
0.0
 51
89.999996
  0
LINE
  8
0
  6
BYLAYER
 62
     1
 10
147.199659
 20
-140.546075
 30
0.0
 11
157.199659
 21
-140.546075
 31
0.0
  0
LINE
  8
0
  6
BYLAYER
 62
     1
 10
147.199659
 20
-129.546075
 30
0.0
 11
157.199659
 21
-129.546075
 31
0.0
  0
LINE
  8
0
  6
BYLAYER
 62
     1
 10
147.199659
 20
-282.546075
 30
0.0
 11
157.199659
 21
-282.546075
 31
0.0
  0
LINE
  8
0
  6
BYLAYER
 62
     1
 10
147.199659
 20
-293.546075
 30
0.0
 11
157.199659
 21
-293.546075
 31
0.0
  0
LINE
  8
0
  6
BYLAYER
 62
     1
 10
321.199659
 20
-158.796197
 30
0.0
 11
321.199659
 21
-138.296197
 31
0.0
  0
LINE
  8
0
  6
BYLAYER
 62
     1
 10
193.699659
 20
-119.046197
 30
0.0
 11
193.699659
 21
-110.546075
 31
0.0
  0
ARC
  8
0
  6
BYLAYER
 62
     1
 10
308.199659
 20
-303.046075
 30
0.0
 40
1.0
 50
270.0
 51
360.000003
  0
ARC
  8
0
  6
BYLAYER
 62
     1
 10
158.199659
 20
-303.046075
 30
0.0
 40
1.000000
 50
180.000000
 51
269.999996
  0
LINE
  8
0
  6
BYLAYER
 62
     1
 10
178.949659
 20
-119.046197
 30
0.0
 11
178.949659
 21
-109.046075
 31
0.0
  0
LINE
  8
0
  6
BYLAYER
 62
     1
 10
167.449659
 20
-119.046197
 30
0.0
 11
167.449659
 21
-109.046075
 31
0.0
  0
LINE
  8
0
  6
BYLAYER
 62
     1
 10
287.449659
 20
-119.046197
 30
0.0
 11
287.449659
 21
-109.046075
 31
0.0
  0
LINE
  8
0
  6
BYLAYER
 62
     1
 10
298.949659
 20
-119.046197
 30
0.0
 11
298.949659
 21
-109.046075
 31
0.0
  0
ARC
  8
0
  6
BYLAYER
 62
     1
 10
274.445509
 20
-158.046197
 30
0.0
 40
1.25
 50
90.0
 51
270.000005
  0
ARC
  8
0
  6
BYLAYER
 62
     1
 10
191.983656
 20
-158.046197
 30
0.0
 40
1.25
 50
270.0
 51
450.000005
  0
LINE
  8
0
  6
BYLAYER
 62
     1
 10
319.199659
 20
-154.046197
 30
0.0
 11
309.199659
 21
-154.046197
 31
0.0
  0
LINE
  8
0
  6
BYLAYER
 62
     1
 10
317.699659
 20
-155.546197
 30
0.0
 11
319.199659
 21
-154.046197
 31
0.0
  0
LINE
  8
0
  6
BYLAYER
 62
     1
 10
317.699659
 20
-155.546197
 30
0.0
 11
317.699659
 21
-214.046075
 31
0.0
  0
LINE
  8
0
  6
BYLAYER
 62
     1
 10
319.199659
 20
-111.046197
 30
0.0
 11
319.199659
 21
-154.046197
 31
0.0
  0
LINE
  8
0
  6
BYLAYER
 62
     1
 10
147.199659
 20
-154.046197
 30
0.0
 11
157.199659
 21
-154.046197
 31
0.0
  0
LINE
  8
0
  6
BYLAYER
 62
     1
 10
148.699659
 20
-155.546197
 30
0.0
 11
147.199659
 21
-154.046197
 31
0.0
  0
LINE
  8
0
  6
BYLAYER
 62
     1
 10
148.699659
 20
-155.546197
 30
0.0
 11
148.699659
 21
-214.046075
 31
0.0
  0
LINE
  8
0
  6
BYLAYER
 62
     1
 10
307.199659
 20
-119.046197
 30
0.0
 11
159.199659
 21
-119.046197
 31
0.0
  0
LINE
  8
0
  6
BYLAYER
 62
     1
 10
317.699659
 20
-155.546197
 30
0.0
 11
309.199659
 21
-155.546197
 31
0.0
  0
LINE
  8
0
  6
BYLAYER
 62
     1
 10
317.699659
 20
-267.546075
 30
0.0
 11
309.199659
 21
-267.546075
 31
0.0
  0
LINE
  8
0
  6
BYLAYER
 62
     1
 10
193.699659
 20
-312.546075
 30
0.0
 11
193.699659
 21
-304.046075
 31
0.0
  0
LINE
  8
0
  6
BYLAYER
 62
     1
 10
272.699659
 20
-304.046075
 30
0.0
 11
272.699659
 21
-312.546075
 31
0.0
  0
LINE
  8
0
  6
BYLAYER
 62
     1
 10
148.699659
 20
-267.546075
 30
0.0
 11
157.199659
 21
-267.546075
 31
0.0
  0
LINE
  8
0
  6
BYLAYER
 62
     1
 10
157.199659
 20
-155.546197
 30
0.0
 11
148.699659
 21
-155.546197
 31
0.0
  0
LINE
  8
0
  6
BYLAYER
 62
     1
 10
272.699659
 20
-312.546075
 30
0.0
 11
193.699659
 21
-312.546075
 31
0.0
  0
LINE
  8
0
  6
BYLAYER
 62
     1
 10
157.199659
 20
-198.242547
 30
0.0
 11
157.199659
 21
-121.046197
 31
0.0
  0
LINE
  8
0
  6
BYLAYER
 62
     1
 10
157.199659
 20
-121.046197
 30
0.0
 11
159.199659
 21
-119.046197
 31
0.0
  0
ARC
  8
0
  6
BYLAYER
 62
     1
 10
155.199659
 20
-198.242547
 30
0.0
 40
2.000004
 50
339.088047
 51
360.0
  0
ARC
  8
0
  6
BYLAYER
 62
     1
 10
233.199659
 20
-228.046075
 30
0.0
 40
81.5
 50
159.088329
 51
200.911681
  0
LINE
  8
0
  6
BYLAYER
 62
     1
 10
157.199659
 20
-257.849603
 30
0.0
 11
157.199659
 21
-303.046075
 31
0.0
  0
ARC
  8
0
  6
BYLAYER
 62
     1
 10
155.199659
 20
-257.849603
 30
0.0
 40
2.000004
 50
0.0
 51
20.911958
  0
LINE
  8
0
  6
BYLAYER
 62
     1
 10
158.199659
 20
-304.046075
 30
0.0
 11
203.396131
 21
-304.046075
 31
0.0
  0
ARC
  8
0
  6
BYLAYER
 62
     1
 10
203.396131
 20
-306.046075
 30
0.0
 40
2.0
 50
69.087962
 51
90.000000
  0
ARC
  8
0
  6
BYLAYER
 62
     1
 10
233.199659
 20
-228.046075
 30
0.0
 40
81.500008
 50
249.088338
 51
290.91169
  0
LINE
  8
0
  6
BYLAYER
 62
     1
 10
263.003187
 20
-304.046075
 30
0.0
 11
308.199659
 21
-304.046075
 31
0.0
  0
ARC
  8
0
  6
BYLAYER
 62
     1
 10
263.003187
 20
-306.046075
 30
0.0
 40
1.999991
 50
90.0
 51
110.911628
  0
LINE
  8
0
  6
BYLAYER
 62
     1
 10
309.199659
 20
-257.849603
 30
0.0
 11
309.199659
 21
-303.046075
 31
0.0
  0
ARC
  8
0
  6
BYLAYER
 62
     1
 10
311.199659
 20
-257.849603
 30
0.0
 40
2.0
 50
159.087955
 51
180.000000
  0
LINE
  8
0
  6
BYLAYER
 62
     1
 10
309.199659
 20
-198.242547
 30
0.0
 11
309.199659
 21
-120.546197
 31
0.0
  0
ARC
  8
0
  6
BYLAYER
 62
     1
 10
233.199659
 20
-228.046075
 30
0.0
 40
81.500008
 50
339.08832
 51
380.911693
  0
ARC
  8
0
  6
BYLAYER
 62
     1
 10
311.199659
 20
-198.242517
 30
0.0
 40
2.000000
 50
180.000000
 51
200.912031
  0
ARC
  8
0
  6
BYLAYER
 62
     1
 10
161.199659
 20
-300.046075
 30
0.0
 40
1.000000
 50
180.000000
 51
269.999996
  0
LINE
  8
0
  6
BYLAYER
 62
     1
 10
306.199659
 20
-269.046075
 30
0.0
 11
306.199659
 21
-300.046075
 31
0.0
  0
ARC
  8
0
  6
BYLAYER
 62
     1
 10
305.199659
 20
-300.046075
 30
0.0
 40
1.0
 50
270.0
 51
360.000003
  0
LINE
  8
0
  6
BYLAYER
 62
     1
 10
160.492567
 20
-300.753198
 30
0.0
 11
157.492567
 21
-303.753198
 31
0.0
  0
LINE
  8
0
  6
BYLAYER
 62
     1
 10
305.906751
 20
-300.753198
 30
0.0
 11
308.906751
 21
-303.753198
 31
0.0
  0
ARC
  8
0
  6
BYLAYER
 62
     1
 10
158.199659
 20
-180.296197
 30
0.0
 40
1.000000
 50
90.0
 51
179.999989
  0
LINE
  8
0
  6
BYLAYER
 62
     1
 10
176.949598
 20
-179.296197
 30
0.0
 11
158.199659
 21
-179.296197
 31
0.0
  0
ARC
  8
0
  6
BYLAYER
 62
     1
 10
303.199659
 20
-148.046075
 30
0.0
 40
2.0
 50
90.0
 51
180.000003
  0
LINE
  8
0
  6
BYLAYER
 62
     1
 10
301.199659
 20
-148.046075
 30
0.0
 11
301.199659
 21
-158.046075
 31
0.0
  0
ARC
  8
0
  6
BYLAYER
 62
     1
 10
303.199659
 20
-158.046075
 30
0.0
 40
2.000000
 50
180.000000
 51
269.999996
  0
LINE
  8
0
  6
BYLAYER
 62
     1
 10
303.199659
 20
-160.046075
 30
0.0
 11
307.199659
 21
-160.046075
 31
0.0
  0
ARC
  8
0
  6
BYLAYER
 62
     1
 10
307.199659
 20
-162.046075
 30
0.0
 40
2.000000
 50
0.0
 51
90.000003
  0
LINE
  8
0
  6
BYLAYER
 62
     1
 10
303.199659
 20
-146.046075
 30
0.0
 11
307.199659
 21
-146.046075
 31
0.0
  0
ARC
  8
0
  6
BYLAYER
 62
     1
 10
307.199659
 20
-144.046075
 30
0.0
 40
2.0
 50
270.0
 51
360.000003
  0
LINE
  8
0
  6
BYLAYER
 62
     1
 10
301.215467
 20
-159.296197
 30
0.0
 11
274.445509
 21
-159.296197
 31
0.0
  0
ARC
  8
0
  6
BYLAYER
 62
     1
 10
301.215467
 20
-160.296197
 30
0.0
 40
1.000026
 50
48.593996
 51
90.000003
  0
LINE
  8
0
  6
BYLAYER
 62
     1
 10
300.199659
 20
-156.796197
 30
0.0
 11
274.445509
 21
-156.796197
 31
0.0
  0
ARC
  8
0
  6
BYLAYER
 62
     1
 10
300.199659
 20
-155.796197
 30
0.0
 40
1.000000
 50
270.0
 51
360.000003
  0
LINE
  8
0
  6
BYLAYER
 62
     1
 10
267.610487
 20
-301.046075
 30
0.0
 11
305.199659
 21
-301.046075
 31
0.0
  0
LINE
  8
0
  6
BYLAYER
 62
     1
 10
306.199659
 20
-262.456933
 30
0.0
 11
306.199659
 21
-300.046075
 31
0.0
  0
LINE
  8
0
  6
BYLAYER
 62
     1
 10
160.199659
 20
-262.456933
 30
0.0
 11
160.199659
 21
-300.046075
 31
0.0
  0
LINE
  8
0
  6
BYLAYER
 62
     1
 10
161.199659
 20
-301.046075
 30
0.0
 11
198.788770
 21
-301.046075
 31
0.0
  0
LINE
  8
0
  6
BYLAYER
 62
     1
 10
321.199659
 20
-195.553064
 30
0.0
 11
321.199659
 21
-110.539086
 31
0.0
  0
LINE
  8
0
  6
BYLAYER
 62
     1
 10
321.199659
 20
-195.553064
 30
0.0
 11
317.699659
 21
-195.675286
 31
0.0
  0
LINE
  8
0
  6
BYLAYER
 62
     1
 10
321.199659
 20
-110.539086
 30
0.0
 11
318.601881
 21
-110.448358
 31
0.0
  0
LINE
  8
0
  6
BYLAYER
 62
     1
 10
147.199659
 20
-187.270074
 30
0.0
 11
147.199659
 21
-111.046197
 31
0.0
  0
LINE
  8
0
  6
BYLAYER
 62
     1
 10
147.199659
 20
-187.270074
 30
0.0
 11
148.699659
 21
-187.322442
 31
0.0
  0
LINE
  8
0
  6
BYLAYER
 62
     1
 10
308.199659
 20
-176.796197
 30
0.0
 11
289.449476
 21
-176.796197
 31
0.0
  0
ARC
  8
0
  6
BYLAYER
 62
     1
 10
194.884351
 20
-171.868341
 30
0.0
 40
2.000066
 50
61.945103
 51
124.296261
  0
ARC
  8
0
  6
BYLAYER
 62
     1
 10
220.568922
 20
-161.229425
 30
0.0
 40
1.999995
 50
100.705532
 51
163.055904
  0
ARC
  8
0
  6
BYLAYER
 62
     1
 10
233.199659
 20
-228.046075
 30
0.0
 40
69.999878
 50
79.295443
 51
100.704664
  0
ARC
  8
0
  6
BYLAYER
 62
     1
 10
245.830274
 20
-161.229425
 30
0.0
 40
1.999900
 50
16.944094
 51
79.294466
  0
ARC
  8
0
  6
BYLAYER
 62
     1
 10
271.514784
 20
-171.868341
 30
0.0
 40
1.999928
 50
55.705179
 51
118.056036
  0
ARC
  8
0
  6
BYLAYER
 62
     1
 10
300.016187
 20
-240.676934
 30
0.0
 40
2.000030
 50
286.944361
 51
349.295492
  0
ARC
  8
0
  6
BYLAYER
 62
     1
 10
289.377332
 20
-266.361505
 30
0.0
 40
2.000036
 50
325.704454
 51
388.055618
  0
ARC
  8
0
  6
BYLAYER
 62
     1
 10
233.199659
 20
-228.046075
 30
0.0
 40
69.999969
 50
304.295309
 51
325.704537
  0
ARC
  8
0
  6
BYLAYER
 62
     1
 10
271.514845
 20
-284.223931
 30
0.0
 40
2.000036
 50
241.943960
 51
304.294326
  0
ARC
  8
0
  6
BYLAYER
 62
     1
 10
245.830274
 20
-294.862725
 30
0.0
 40
2.000139
 50
280.705366
 51
343.055895
  0
ARC
  8
0
  6
BYLAYER
 62
     1
 10
233.199659
 20
-228.046075
 30
0.0
 40
70.000023
 50
259.295346
 51
280.704546
  0
ARC
  8
0
  6
BYLAYER
 62
     1
 10
220.568861
 20
-294.862725
 30
0.0
 40
2.000007
 50
196.944598
 51
259.296193
  0
ARC
  8
0
  6
BYLAYER
 62
     1
 10
194.884351
 20
-284.223931
 30
0.0
 40
2.000031
 50
235.705676
 51
298.056041
  0
ARC
  8
0
  6
BYLAYER
 62
     1
 10
233.199659
 20
-228.046075
 30
0.0
 40
70.000069
 50
214.295423
 51
235.704610
  0
ARC
  8
0
  6
BYLAYER
 62
     1
 10
177.021864
 20
-266.361505
 30
0.0
 40
2.000036
 50
151.944375
 51
214.295546
  0
ARC
  8
0
  6
BYLAYER
 62
     1
 10
166.382948
 20
-240.676934
 30
0.0
 40
2.000008
 50
190.70451
 51
253.05564
  0
ARC
  8
0
  6
BYLAYER
 62
     1
 10
233.199659
 20
-228.046075
 30
0.0
 40
70.000046
 50
169.295473
 51
190.704646
  0
ARC
  8
0
  6
BYLAYER
 62
     1
 10
166.382948
 20
-215.415460
 30
0.0
 40
2.000008
 50
106.944349
 51
169.295487
  0
ARC
  8
0
  6
BYLAYER
 62
     1
 10
177.021864
 20
-189.730889
 30
0.0
 40
2.000036
 50
145.704450
 51
208.055622
  0
ARC
  8
0
  6
BYLAYER
 62
     1
 10
233.199659
 20
-228.046075
 30
0.0
 40
70.0
 50
124.295441
 51
145.704587
  0
ARC
  8
0
  6
BYLAYER
 62
     1
 10
233.199659
 20
-228.046075
 30
0.0
 40
80.5
 50
154.482405
 51
205.517595
  0
ARC
  8
0
  6
BYLAYER
 62
     1
 10
162.357069
 20
-194.229211
 30
0.0
 40
2.000000
 50
105.000000
 51
154.482405
  0
ARC
  8
0
  6
BYLAYER
 62
     1
 10
233.199659
 20
-228.046075
 30
0.0
 40
80.500000
 50
244.482414
 51
295.517604
  0
ARC
  8
0
  6
BYLAYER
 62
     1
 10
233.199659
 20
-228.046075
 30
0.0
 40
80.5
 50
64.482402
 51
115.517593
  0
ARC
  8
0
  6
BYLAYER
 62
     1
 10
267.016554
 20
-157.203515
 30
0.0
 40
2.000000
 50
14.999997
 51
64.482402
  0
ARC
  8
0
  6
BYLAYER
 62
     1
 10
233.199659
 20
-228.046075
 30
0.0
 40
80.500000
 50
334.482396
 51
385.517587
  0
ARC
  8
0
  6
BYLAYER
 62
     1
 10
233.199659
 20
-228.046075
 30
0.0
 40
47.500000
 50
22.499997
 51
374.817192
  0
ARC
  8
0
  6
BYLAYER
 62
     1
 10
233.199659
 20
-228.046075
 30
0.0
 40
47.500004
 50
14.817201
 51
22.499997
  0
ARC
  8
0
  6
BYLAYER
 62
     1
 10
305.262159
 20
-257.895440
 30
0.0
 40
16.000019
 50
106.944527
 51
208.056127
  0
ARC
  8
0
  6
BYLAYER
 62
     1
 10
263.048902
 20
-300.108819
 30
0.0
 40
16.000034
 50
61.944358
 51
163.055330
  0
ARC
  8
0
  6
BYLAYER
 62
     1
 10
203.350294
 20
-300.108819
 30
0.0
 40
16.000015
 50
16.944695
 51
118.055640
  0
ARC
  8
0
  6
BYLAYER
 62
     1
 10
161.137037
 20
-257.895440
 30
0.0
 40
15.999969
 50
331.943912
 51
433.055724
  0
ARC
  8
0
  6
BYLAYER
 62
     1
 10
203.350294
 20
-155.983575
 30
0.0
 40
15.999943
 50
241.944206
 51
343.056032
  0
ARC
  8
0
  6
BYLAYER
 62
     1
 10
263.048902
 20
-155.983575
 30
0.0
 40
16.000040
 50
196.943969
 51
298.055604
  0
ARC
  8
0
  6
BYLAYER
 62
     1
 10
161.137037
 20
-198.196954
 30
0.0
 40
16.000046
 50
286.944222
 51
388.056081
  0
ARC
  8
0
  6
BYLAYER
 62
     1
 10
289.377332
 20
-189.730767
 30
0.0
 40
1.999947
 50
331.944107
 51
394.294465
  0
ARC
  8
0
  6
BYLAYER
 62
     1
 10
300.016187
 20
-215.415307
 30
0.0
 40
1.999925
 50
10.705174
 51
73.056031
  0
ARC
  8
0
  6
BYLAYER
 62
     1
 10
233.199659
 20
-228.046075
 30
0.0
 40
69.999832
 50
34.295490
 51
55.704670
  0
ARC
  8
0
  6
BYLAYER
 62
     1
 10
233.199659
 20
-228.046075
 30
0.0
 40
69.999840
 50
349.295164
 51
370.704686
  0
ARC
  8
0
  6
BYLAYER
 62
     1
 10
305.262159
 20
-198.196801
 30
0.0
 40
16.000053
 50
230.812200
 51
253.055476
  0
ARC
  8
0
  6
BYLAYER
 62
     1
 10
305.262159
 20
-198.196801
 30
0.0
 40
16.000072
 50
151.943965
 51
174.188129
  0
ARC
  8
0
  6
BYLAYER
 62
     1
 10
305.262159
 20
-198.196801
 30
0.0
 40
16.000027
 50
174.188211
 51
230.812255
  0
LINE
  8
0
  6
BYLAYER
 62
     1
 10
304.559888
 20
-263.794793
 30
0.0
 11
294.737684
 21
-266.426629
 31
0.0
  0
ARC
  8
0
  6
BYLAYER
 62
     1
 10
304.042249
 20
-261.862939
 30
0.0
 40
2.0
 50
284.999998
 51
334.482403
  0
LINE
  8
0
  6
BYLAYER
 62
     1
 10
271.580213
 20
-289.584130
 30
0.0
 11
268.948377
 21
-299.406274
 31
0.0
  0
ARC
  8
0
  6
BYLAYER
 62
     1
 10
267.016554
 20
-298.888635
 30
0.0
 40
2.000000
 50
295.517608
 51
345.000013
  0
ARC
  8
0
  6
BYLAYER
 62
     1
 10
233.199659
 20
-228.046075
 30
0.0
 40
72.0
 50
303.008420
 51
326.991564
  0
ARC
  8
0
  6
BYLAYER
 62
     1
 10
295.255323
 20
-268.358483
 30
0.0
 40
2.0
 50
105.000000
 51
146.991572
  0
ARC
  8
0
  6
BYLAYER
 62
     1
 10
273.512098
 20
-290.101770
 30
0.0
 40
2.0
 50
123.008428
 51
165.000001
  0
LINE
  8
0
  6
BYLAYER
 62
     1
 10
268.948377
 20
-156.685876
 30
0.0
 11
271.580213
 21
-166.508020
 31
0.0
  0
LINE
  8
0
  6
BYLAYER
 62
     1
 10
294.737684
 20
-189.665521
 30
0.0
 11
304.559888
 21
-192.297357
 31
0.0
  0
ARC
  8
0
  6
BYLAYER
 62
     1
 10
304.042249
 20
-194.229211
 30
0.0
 40
2.000000
 50
25.517594
 51
74.999999
  0
ARC
  8
0
  6
BYLAYER
 62
     1
 10
233.199659
 20
-228.046075
 30
0.0
 40
72.000000
 50
33.008429
 51
56.991573
  0
ARC
  8
0
  6
BYLAYER
 62
     1
 10
273.512098
 20
-165.990380
 30
0.0
 40
2.0
 50
195.000009
 51
236.991582
  0
ARC
  8
0
  6
BYLAYER
 62
     1
 10
295.255323
 20
-187.733667
 30
0.0
 40
2.0
 50
213.008424
 51
254.999997
  0
LINE
  8
0
  6
BYLAYER
 62
     1
 10
161.839430
 20
-192.297357
 30
0.0
 11
171.661573
 21
-189.665521
 31
0.0
  0
LINE
  8
0
  6
BYLAYER
 62
     1
 10
194.819105
 20
-166.508020
 30
0.0
 11
197.450941
 21
-156.685876
 31
0.0
  0
ARC
  8
0
  6
BYLAYER
 62
     1
 10
199.382764
 20
-157.203515
 30
0.0
 40
2.0
 50
115.517589
 51
164.999994
  0
ARC
  8
0
  6
BYLAYER
 62
     1
 10
233.199659
 20
-228.046075
 30
0.0
 40
72.000000
 50
123.008428
 51
146.991572
  0
ARC
  8
0
  6
BYLAYER
 62
     1
 10
171.143934
 20
-187.733667
 30
0.0
 40
2.0
 50
284.999991
 51
326.991564
  0
ARC
  8
0
  6
BYLAYER
 62
     1
 10
192.887220
 20
-165.990380
 30
0.0
 40
2.000000
 50
303.008420
 51
344.999993
  0
LINE
  8
0
  6
BYLAYER
 62
     1
 10
197.450941
 20
-299.406274
 30
0.0
 11
194.819105
 21
-289.584130
 31
0.0
  0
ARC
  8
0
  6
BYLAYER
 62
     1
 10
199.382764
 20
-298.888635
 30
0.0
 40
2.000000
 50
195.000002
 51
244.482407
  0
LINE
  8
0
  6
BYLAYER
 62
     1
 10
171.661573
 20
-266.426629
 30
0.0
 11
161.839430
 21
-263.794793
 31
0.0
  0
ARC
  8
0
  6
BYLAYER
 62
     1
 10
162.357069
 20
-261.862939
 30
0.0
 40
2.0
 50
205.517599
 51
255.000004
  0
ARC
  8
0
  6
BYLAYER
 62
     1
 10
233.199659
 20
-228.046075
 30
0.0
 40
72.0
 50
213.008424
 51
236.991568
  0
ARC
  8
0
  6
BYLAYER
 62
     1
 10
192.887220
 20
-290.101770
 30
0.0
 40
2.000000
 50
15.000000
 51
56.991573
  0
ARC
  8
0
  6
BYLAYER
 62
     1
 10
171.143934
 20
-268.358483
 30
0.0
 40
2.0
 50
33.008429
 51
75.000002
  0
ARC
  8
0
  6
BYLAYER
 62
     1
 10
192.540968
 20
-187.387384
 30
0.0
 40
4.0
 50
270.0
 51
540.0
  0
CIRCLE
  8
0
  6
BYLAYER
 62
     1
 10
192.540968
 20
-187.387384
 30
0.0
 40
3.5
  0
ARC
  8
0
  6
BYLAYER
 62
     1
 10
233.199659
 20
-170.546075
 30
0.0
 40
4.0
 50
270.0
 51
540.0
  0
CIRCLE
  8
0
  6
BYLAYER
 62
     1
 10
233.199659
 20
-170.546075
 30
0.0
 40
3.5
  0
ARC
  8
0
  6
BYLAYER
 62
     1
 10
273.858228
 20
-187.387628
 30
0.0
 40
4.0
 50
270.0
 51
540.0
  0
CIRCLE
  8
0
  6
BYLAYER
 62
     1
 10
273.858228
 20
-187.387628
 30
0.0
 40
3.5
  0
ARC
  8
0
  6
BYLAYER
 62
     1
 10
290.699659
 20
-228.046075
 30
0.0
 40
4.0
 50
270.0
 51
540.0
  0
CIRCLE
  8
0
  6
BYLAYER
 62
     1
 10
290.699659
 20
-228.046075
 30
0.0
 40
3.5
  0
ARC
  8
0
  6
BYLAYER
 62
     1
 10
273.858228
 20
-268.704766
 30
0.0
 40
4.0
 50
270.0
 51
540.0
  0
CIRCLE
  8
0
  6
BYLAYER
 62
     1
 10
273.858228
 20
-268.704766
 30
0.0
 40
3.5
  0
ARC
  8
0
  6
BYLAYER
 62
     1
 10
233.199537
 20
-285.546075
 30
0.0
 40
4.0
 50
270.0
 51
540.0
  0
CIRCLE
  8
0
  6
BYLAYER
 62
     1
 10
233.199537
 20
-285.546075
 30
0.0
 40
3.5
  0
ARC
  8
0
  6
BYLAYER
 62
     1
 10
192.540968
 20
-268.704766
 30
0.0
 40
4.0
 50
270.0
 51
540.0
  0
CIRCLE
  8
0
  6
BYLAYER
 62
     1
 10
192.540968
 20
-268.704766
 30
0.0
 40
3.5
  0
ARC
  8
0
  6
BYLAYER
 62
     1
 10
175.699659
 20
-228.046075
 30
0.0
 40
4.0
 50
270.0
 51
540.0
  0
CIRCLE
  8
0
  6
BYLAYER
 62
     1
 10
175.699659
 20
-228.046075
 30
0.0
 40
3.5
  0
ARC
  8
0
  6
BYLAYER
 62
     1
 10
220.668531
 20
-139.506104
 30
0.0
 40
2.873727
 50
270.0
 51
308.795511
  0
ARC
  8
0
  6
BYLAYER
 62
     1
 10
220.390429
 20
-139.209924
 30
0.0
 40
3.278957
 50
309.340351
 51
360.000000
  0
ARC
  8
0
  6
BYLAYER
 62
     1
 10
220.390429
 20
-139.209924
 30
0.0
 40
3.278957
 50
0.0
 51
50.659649
  0
ARC
  8
0
  6
BYLAYER
 62
     1
 10
220.668531
 20
-138.913744
 30
0.0
 40
2.873727
 50
51.204489
 51
90.0
  0
ARC
  8
0
  6
BYLAYER
 62
     1
 10
220.668531
 20
-138.913718
 30
0.0
 40
2.873701
 50
90.0
 51
128.795693
  0
ARC
  8
0
  6
BYLAYER
 62
     1
 10
220.946659
 20
-139.209924
 30
0.0
 40
3.278967
 50
129.340576
 51
180.0
  0
ARC
  8
0
  6
BYLAYER
 62
     1
 10
220.946659
 20
-139.209924
 30
0.0
 40
3.278967
 50
180.000000
 51
230.659424
  0
ARC
  8
0
  6
BYLAYER
 62
     1
 10
220.668531
 20
-139.506130
 30
0.0
 40
2.873701
 50
231.204307
 51
270.000000
  0
ARC
  8
0
  6
BYLAYER
 62
     1
 10
220.668531
 20
-138.366773
 30
0.0
 40
1.329747
 50
90.0
 51
140.793201
  0
ARC
  8
0
  6
BYLAYER
 62
     1
 10
221.702086
 20
-139.209924
 30
0.0
 40
2.663590
 50
140.793201
 51
180.0
  0
ARC
  8
0
  6
BYLAYER
 62
     1
 10
221.702070
 20
-139.209924
 30
0.0
 40
2.663574
 50
180.000000
 51
219.206869
  0
ARC
  8
0
  6
BYLAYER
 62
     1
 10
220.668531
 20
-140.053064
 30
0.0
 40
1.329750
 50
219.206869
 51
270.000000
  0
ARC
  8
0
  6
BYLAYER
 62
     1
 10
220.668531
 20
-140.053064
 30
0.0
 40
1.329750
 50
270.0
 51
320.793131
  0
ARC
  8
0
  6
BYLAYER
 62
     1
 10
219.634992
 20
-139.209924
 30
0.0
 40
2.663574
 50
320.793131
 51
360.000000
  0
ARC
  8
0
  6
BYLAYER
 62
     1
 10
219.634976
 20
-139.209924
 30
0.0
 40
2.663590
 50
0.0
 51
39.206799
  0
ARC
  8
0
  6
BYLAYER
 62
     1
 10
220.668531
 20
-138.366773
 30
0.0
 40
1.329747
 50
39.206799
 51
90.0
  0
LINE
  8
0
  6
BYLAYER
 62
     1
 10
210.820692
 20
-142.168496
 30
0.0
 11
210.820692
 21
-136.166803
 31
0.0
  0
LINE
  8
0
  6
BYLAYER
 62
     1
 10
210.820692
 20
-136.166803
 30
0.0
 11
213.260816
 21
-136.166803
 31
0.0
  0
LINE
  8
0
  6
BYLAYER
 62
     1
 10
213.260816
 20
-136.166803
 30
0.0
 11
214.075132
 21
-139.294458
 31
0.0
  0
LINE
  8
0
  6
BYLAYER
 62
     1
 10
210.820692
 20
-142.168496
 30
0.0
 11
212.285902
 21
-142.168496
 31
0.0
  0
LINE
  8
0
  6
BYLAYER
 62
     1
 10
212.285902
 20
-142.168496
 30
0.0
 11
212.285902
 21
-138.702737
 31
0.0
  0
LINE
  8
0
  6
BYLAYER
 62
     1
 10
213.441145
 20
-142.168496
 30
0.0
 11
212.285902
 21
-138.702737
 31
0.0
  0
LINE
  8
0
  6
BYLAYER
 62
     1
 10
217.329572
 20
-142.168496
 30
0.0
 11
217.329572
 21
-136.166803
 31
0.0
  0
LINE
  8
0
  6
BYLAYER
 62
     1
 10
217.329572
 20
-136.166803
 30
0.0
 11
214.889448
 21
-136.166803
 31
0.0
  0
LINE
  8
0
  6
BYLAYER
 62
     1
 10
214.889448
 20
-136.166803
 30
0.0
 11
214.075132
 21
-139.294458
 31
0.0
  0
LINE
  8
0
  6
BYLAYER
 62
     1
 10
217.329572
 20
-142.168496
 30
0.0
 11
215.864362
 21
-142.168496
 31
0.0
  0
LINE
  8
0
  6
BYLAYER
 62
     1
 10
215.864362
 20
-142.168496
 30
0.0
 11
215.864362
 21
-138.702737
 31
0.0
  0
LINE
  8
0
  6
BYLAYER
 62
     1
 10
214.709119
 20
-142.168496
 30
0.0
 11
215.864362
 21
-138.702737
 31
0.0
  0
LINE
  8
0
  6
BYLAYER
 62
     1
 10
214.709119
 20
-142.168496
 30
0.0
 11
213.441145
 21
-142.168496
 31
0.0
  0
LINE
  8
0
  6
BYLAYER
 62
     1
 10
238.800413
 20
-142.168496
 30
0.0
 11
241.082731
 21
-136.166803
 31
0.0
  0
LINE
  8
0
  6
BYLAYER
 62
     1
 10
238.800413
 20
-142.168496
 30
0.0
 11
240.744627
 21
-142.168496
 31
0.0
  0
LINE
  8
0
  6
BYLAYER
 62
     1
 10
241.082731
 20
-136.166803
 30
0.0
 11
242.942411
 21
-136.166803
 31
0.0
  0
LINE
  8
0
  6
BYLAYER
 62
     1
 10
240.744627
 20
-142.168496
 30
0.0
 11
241.032804
 21
-141.323190
 31
0.0
  0
LINE
  8
0
  6
BYLAYER
 62
     1
 10
241.493864
 20
-139.970697
 30
0.0
 11
242.012571
 21
-138.449136
 31
0.0
  0
LINE
  8
0
  6
BYLAYER
 62
     1
 10
245.224760
 20
-142.168496
 30
0.0
 11
242.942411
 21
-136.166803
 31
0.0
  0
LINE
  8
0
  6
BYLAYER
 62
     1
 10
245.224760
 20
-142.168496
 30
0.0
 11
243.280546
 21
-142.168496
 31
0.0
  0
LINE
  8
0
  6
BYLAYER
 62
     1
 10
242.992368
 20
-141.323190
 30
0.0
 11
241.032804
 21
-141.323190
 31
0.0
  0
LINE
  8
0
  6
BYLAYER
 62
     1
 10
242.531278
 20
-139.970697
 30
0.0
 11
241.493864
 21
-139.970697
 31
0.0
  0
LINE
  8
0
  6
BYLAYER
 62
     1
 10
243.280546
 20
-142.168496
 30
0.0
 11
242.992368
 21
-141.323190
 31
0.0
  0
LINE
  8
0
  6
BYLAYER
 62
     1
 10
242.531278
 20
-139.970697
 30
0.0
 11
242.012571
 21
-138.449136
 31
0.0
  0
LINE
  8
0
  6
BYLAYER
 62
     1
 10
223.669386
 20
-137.646096
 30
0.0
 11
225.359998
 21
-137.646096
 31
0.0
  0
LINE
  8
0
  6
BYLAYER
 62
     1
 10
225.359998
 20
-137.646096
 30
0.0
 11
225.359998
 21
-142.168496
 31
0.0
  0
LINE
  8
0
  6
BYLAYER
 62
     1
 10
225.359998
 20
-142.168496
 30
0.0
 11
227.219694
 21
-142.168496
 31
0.0
  0
LINE
  8
0
  6
BYLAYER
 62
     1
 10
227.219694
 20
-142.168496
 30
0.0
 11
227.219694
 21
-137.646096
 31
0.0
  0
LINE
  8
0
  6
BYLAYER
 62
     1
 10
227.219694
 20
-137.646096
 30
0.0
 11
228.910307
 21
-137.646096
 31
0.0
  0
LINE
  8
0
  6
BYLAYER
 62
     1
 10
228.910307
 20
-137.646096
 30
0.0
 11
228.910307
 21
-136.166803
 31
0.0
  0
LINE
  8
0
  6
BYLAYER
 62
     1
 10
228.910307
 20
-136.166803
 30
0.0
 11
223.669386
 21
-136.166803
 31
0.0
  0
LINE
  8
0
  6
BYLAYER
 62
     1
 10
223.669386
 20
-136.166803
 30
0.0
 11
223.669386
 21
-137.646096
 31
0.0
  0
ARC
  8
0
  6
BYLAYER
 62
     1
 10
231.911146
 20
-139.506130
 30
0.0
 40
2.873701
 50
270.0
 51
308.795693
  0
ARC
  8
0
  6
BYLAYER
 62
     1
 10
231.633018
 20
-139.209924
 30
0.0
 40
3.278967
 50
309.340576
 51
360.0
  0
ARC
  8
0
  6
BYLAYER
 62
     1
 10
231.633028
 20
-139.209924
 30
0.0
 40
3.278957
 50
0.0
 51
50.659649
  0
ARC
  8
0
  6
BYLAYER
 62
     1
 10
231.911131
 20
-138.913744
 30
0.0
 40
2.873727
 50
51.204489
 51
90.0
  0
ARC
  8
0
  6
BYLAYER
 62
     1
 10
231.911131
 20
-138.913718
 30
0.0
 40
2.873701
 50
90.0
 51
128.795693
  0
ARC
  8
0
  6
BYLAYER
 62
     1
 10
232.189259
 20
-139.209924
 30
0.0
 40
3.278967
 50
129.340576
 51
180.0
  0
ARC
  8
0
  6
BYLAYER
 62
     1
 10
232.189248
 20
-139.209924
 30
0.0
 40
3.278957
 50
180.000000
 51
230.659649
  0
ARC
  8
0
  6
BYLAYER
 62
     1
 10
231.911146
 20
-139.506104
 30
0.0
 40
2.873727
 50
231.204489
 51
270.000000
  0
ARC
  8
0
  6
BYLAYER
 62
     1
 10
231.911131
 20
-138.366773
 30
0.0
 40
1.329747
 50
90.0
 51
140.793201
  0
ARC
  8
0
  6
BYLAYER
 62
     1
 10
232.944685
 20
-139.209924
 30
0.0
 40
2.663590
 50
140.793201
 51
180.000000
  0
ARC
  8
0
  6
BYLAYER
 62
     1
 10
232.944651
 20
-139.209924
 30
0.0
 40
2.663556
 50
180.000000
 51
219.207055
  0
ARC
  8
0
  6
BYLAYER
 62
     1
 10
231.911146
 20
-140.053042
 30
0.0
 40
1.329771
 50
219.207055
 51
270.0
  0
ARC
  8
0
  6
BYLAYER
 62
     1
 10
231.911146
 20
-140.053064
 30
0.0
 40
1.329750
 50
270.0
 51
320.793131
  0
ARC
  8
0
  6
BYLAYER
 62
     1
 10
230.877607
 20
-139.209924
 30
0.0
 40
2.663574
 50
320.793131
 51
360.000000
  0
ARC
  8
0
  6
BYLAYER
 62
     1
 10
230.877609
 20
-139.209924
 30
0.0
 40
2.663572
 50
0.0
 51
39.206985
  0
ARC
  8
0
  6
BYLAYER
 62
     1
 10
231.911131
 20
-138.366794
 30
0.0
 40
1.329768
 50
39.206985
 51
90.000000
  0
LINE
  8
0
  6
BYLAYER
 62
     1
 10
245.386747
 20
-142.168496
 30
0.0
 11
245.386747
 21
-136.166803
 31
0.0
  0
LINE
  8
0
  6
BYLAYER
 62
     1
 10
245.386747
 20
-136.166803
 30
0.0
 11
249.106092
 21
-136.166803
 31
0.0
  0
ARC
  8
0
  6
BYLAYER
 62
     1
 10
249.106092
 20
-137.857431
 30
0.0
 40
1.690610
 50
287.134650
 51
450.000006
  0
ARC
  8
0
  6
BYLAYER
 62
     1
 10
249.444227
 20
-140.816003
 30
0.0
 40
1.352493
 50
0.0
 51
83.207557
  0
LINE
  8
0
  6
BYLAYER
 62
     1
 10
250.796720
 20
-140.816003
 30
0.0
 11
250.796720
 21
-141.661309
 31
0.0
  0
ARC
  8
0
  6
BYLAYER
 62
     1
 10
252.149213
 20
-141.661309
 30
0.0
 40
1.352493
 50
180.000000
 51
202.024314
  0
LINE
  8
0
  6
BYLAYER
 62
     1
 10
249.035734
 20
-142.168496
 30
0.0
 11
250.895414
 21
-142.168496
 31
0.0
  0
ARC
  8
0
  6
BYLAYER
 62
     1
 10
250.289533
 20
-141.661309
 30
0.0
 40
1.352493
 50
180.000000
 51
202.024314
  0
LINE
  8
0
  6
BYLAYER
 62
     1
 10
248.937040
 20
-141.661309
 30
0.0
 11
248.937040
 21
-140.985070
 31
0.0
  0
LINE
  8
0
  6
BYLAYER
 62
     1
 10
245.386747
 20
-142.168496
 30
0.0
 11
247.161893
 21
-142.168496
 31
0.0
  0
LINE
  8
0
  6
BYLAYER
 62
     1
 10
247.161893
 20
-142.168496
 30
0.0
 11
247.161893
 21
-140.139764
 31
0.0
  0
LINE
  8
0
  6
BYLAYER
 62
     1
 10
248.091734
 20
-140.139764
 30
0.0
 11
247.161893
 21
-140.139764
 31
0.0
  0
ARC
  8
0
  6
BYLAYER
 62
     1
 10
248.091734
 20
-140.985070
 30
0.0
 40
0.845306
 50
0.0
 51
90.000003
  0
LINE
  8
0
  6
BYLAYER
 62
     1
 10
247.161893
 20
-138.787271
 30
0.0
 11
247.161893
 21
-137.519296
 31
0.0
  0
LINE
  8
0
  6
BYLAYER
 62
     1
 10
247.161893
 20
-137.519296
 30
0.0
 11
248.345319
 21
-137.519296
 31
0.0
  0
LINE
  8
0
  6
BYLAYER
 62
     1
 10
247.161893
 20
-138.787271
 30
0.0
 11
248.345319
 21
-138.787271
 31
0.0
  0
ARC
  8
0
  6
BYLAYER
 62
     1
 10
248.345319
 20
-138.153283
 30
0.0
 40
0.633987
 50
270.0
 51
450.000005
  0
LINE
  8
0
  6
BYLAYER
 62
     1
 10
237.321134
 20
-140.270700
 30
0.0
 11
236.222227
 21
-136.166803
 31
0.0
  0
LINE
  8
0
  6
BYLAYER
 62
     1
 10
236.222227
 20
-136.166803
 30
0.0
 11
234.447080
 21
-136.166803
 31
0.0
  0
LINE
  8
0
  6
BYLAYER
 62
     1
 10
234.447080
 20
-136.166803
 30
0.0
 11
236.306760
 21
-142.168496
 31
0.0
  0
LINE
  8
0
  6
BYLAYER
 62
     1
 10
237.321134
 20
-140.270700
 30
0.0
 11
238.420011
 21
-136.166803
 31
0.0
  0
LINE
  8
0
  6
BYLAYER
 62
     1
 10
238.420011
 20
-136.166803
 30
0.0
 11
240.195158
 21
-136.166803
 31
0.0
  0
LINE
  8
0
  6
BYLAYER
 62
     1
 10
240.195158
 20
-136.166803
 30
0.0
 11
238.335477
 21
-142.168496
 31
0.0
  0
LINE
  8
0
  6
BYLAYER
 62
     1
 10
238.335477
 20
-142.168496
 30
0.0
 11
236.306760
 21
-142.168496
 31
0.0
  0
LINE
  8
0
  6
BYLAYER
 62
     1
 10
251.057401
 20
-142.168496
 30
0.0
 11
252.832548
 21
-142.168496
 31
0.0
  0
LINE
  8
0
  6
BYLAYER
 62
     1
 10
252.832548
 20
-142.168496
 30
0.0
 11
252.832548
 21
-136.166803
 31
0.0
  0
LINE
  8
0
  6
BYLAYER
 62
     1
 10
252.832548
 20
-136.166803
 30
0.0
 11
251.057401
 21
-136.166803
 31
0.0
  0
LINE
  8
0
  6
BYLAYER
 62
     1
 10
251.057401
 20
-136.166803
 30
0.0
 11
251.057401
 21
-142.168496
 31
0.0
  0
ARC
  8
0
  6
BYLAYER
 62
     1
 10
256.171522
 20
-139.506130
 30
0.0
 40
2.873701
 50
270.0
 51
308.795693
  0
ARC
  8
0
  6
BYLAYER
 62
     1
 10
255.893394
 20
-139.209924
 30
0.0
 40
3.278967
 50
309.340576
 51
360.0
  0
ARC
  8
0
  6
BYLAYER
 62
     1
 10
255.893394
 20
-139.209924
 30
0.0
 40
3.278967
 50
0.0
 51
50.659424
  0
ARC
  8
0
  6
BYLAYER
 62
     1
 10
256.171522
 20
-138.913718
 30
0.0
 40
2.873701
 50
51.204307
 51
90.0
  0
ARC
  8
0
  6
BYLAYER
 62
     1
 10
256.171522
 20
-138.913718
 30
0.0
 40
2.873701
 50
90.0
 51
128.795693
  0
ARC
  8
0
  6
BYLAYER
 62
     1
 10
256.449650
 20
-139.209924
 30
0.0
 40
3.278967
 50
129.340576
 51
180.0
  0
ARC
  8
0
  6
BYLAYER
 62
     1
 10
256.449650
 20
-139.209924
 30
0.0
 40
3.278967
 50
180.000000
 51
230.659424
  0
ARC
  8
0
  6
BYLAYER
 62
     1
 10
256.171522
 20
-139.506130
 30
0.0
 40
2.873701
 50
231.204307
 51
270.0
  0
ARC
  8
0
  6
BYLAYER
 62
     1
 10
256.171522
 20
-138.366773
 30
0.0
 40
1.329747
 50
39.206799
 51
90.0
  0
ARC
  8
0
  6
BYLAYER
 62
     1
 10
255.137967
 20
-139.209924
 30
0.0
 40
2.663590
 50
0.0
 51
39.206799
  0
ARC
  8
0
  6
BYLAYER
 62
     1
 10
255.137983
 20
-139.209924
 30
0.0
 40
2.663574
 50
320.793131
 51
360.000000
  0
ARC
  8
0
  6
BYLAYER
 62
     1
 10
256.171522
 20
-140.053064
 30
0.0
 40
1.329750
 50
270.0
 51
320.793131
  0
ARC
  8
0
  6
BYLAYER
 62
     1
 10
256.171522
 20
-140.053064
 30
0.0
 40
1.329750
 50
219.206869
 51
270.0
  0
ARC
  8
0
  6
BYLAYER
 62
     1
 10
257.205060
 20
-139.209924
 30
0.0
 40
2.663574
 50
180.000000
 51
219.206869
  0
ARC
  8
0
  6
BYLAYER
 62
     1
 10
257.205076
 20
-139.209924
 30
0.0
 40
2.663590
 50
140.793201
 51
180.0
  0
ARC
  8
0
  6
BYLAYER
 62
     1
 10
256.171522
 20
-138.366773
 30
0.0
 40
1.329747
 50
90.0
 51
140.793201
  0
ARC
  8
0
  6
BYLAYER
 62
     1
 10
226.199659
 20
-129.296075
 30
0.0
 40
7.429995
 50
174.535650
 51
180.0
  0
LINE
  8
0
  6
BYLAYER
 62
     1
 10
218.803426
 20
-128.588540
 30
0.0
 11
218.803426
 21
-128.588533
 31
0.0
  0
LINE
  8
0
  6
BYLAYER
 62
     1
 10
218.811511
 20
-128.508610
 30
0.0
 11
219.520614
 21
-128.210067
 31
0.0
  0
ARC
  8
0
  6
BYLAYER
 62
     1
 10
226.199690
 20
-129.296136
 30
0.0
 40
6.766781
 50
159.235383
 51
170.763998
  0
LINE
  8
0
  6
BYLAYER
 62
     1
 10
219.872415
 20
-126.897071
 30
0.0
 11
219.407616
 21
-126.283957
 31
0.0
  0
ARC
  8
0
  6
BYLAYER
 62
     1
 10
226.199659
 20
-129.296075
 30
0.0
 40
7.429986
 50
144.139514
 51
156.083795
  0
LINE
  8
0
  6
BYLAYER
 62
     1
 10
220.129194
 20
-125.011880
 30
0.0
 11
220.129636
 21
-125.011254
 31
0.0
  0
LINE
  8
0
  6
BYLAYER
 62
     1
 10
220.178057
 20
-124.943488
 30
0.0
 11
220.932982
 21
-125.047352
 31
0.0
  0
ARC
  8
0
  6
BYLAYER
 62
     1
 10
226.199659
 20
-129.296075
 30
0.0
 40
6.766741
 50
129.235643
 51
141.105976
  0
LINE
  8
0
  6
BYLAYER
 62
     1
 10
221.808973
 20
-124.147218
 30
0.0
 11
221.809705
 21
-124.146585
 31
0.0
  0
LINE
  8
0
  6
BYLAYER
 62
     1
 10
221.919619
 20
-124.054888
 30
0.0
 11
221.823626
 21
-123.291481
 31
0.0
  0
ARC
  8
0
  6
BYLAYER
 62
     1
 10
226.199659
 20
-129.296075
 30
0.0
 40
7.429994
 50
114.139607
 51
126.083853
  0
LINE
  8
0
  6
BYLAYER
 62
     1
 10
223.085111
 20
-122.550378
 30
0.0
 11
223.085615
 21
-122.550141
 31
0.0
  0
LINE
  8
0
  6
BYLAYER
 62
     1
 10
223.161078
 20
-122.515821
 30
0.0
 11
223.762908
 21
-122.983216
 31
0.0
  0
LINE
  8
0
  6
BYLAYER
 62
     1
 10
223.900510
 20
-122.931893
 30
0.0
 11
223.901273
 21
-122.931626
 31
0.0
  0
ARC
  8
0
  6
BYLAYER
 62
     1
 10
226.199659
 20
-129.296075
 30
0.0
 40
6.766738
 50
99.235601
 51
111.106038
  0
ARC
  8
0
  6
BYLAYER
 62
     1
 10
226.199659
 20
-129.296075
 30
0.0
 40
7.429995
 50
90.0
 51
96.083892
  0
LINE
  8
0
  6
BYLAYER
 62
     1
 10
225.412194
 20
-121.907927
 30
0.0
 11
225.113635
 21
-122.617056
 31
0.0
  0
LINE
  8
0
  6
BYLAYER
 62
     1
 10
233.595884
 20
-128.588540
 30
0.0
 11
233.595884
 21
-128.588533
 31
0.0
  0
LINE
  8
0
  6
BYLAYER
 62
     1
 10
233.587806
 20
-128.508609
 30
0.0
 11
232.878668
 21
-128.210060
 31
0.0
  0
ARC
  8
0
  6
BYLAYER
 62
     1
 10
226.199613
 20
-129.296136
 30
0.0
 40
6.766781
 50
9.235986
 51
20.764650
  0
LINE
  8
0
  6
BYLAYER
 62
     1
 10
232.526937
 20
-126.897000
 30
0.0
 11
232.991703
 21
-126.283959
 31
0.0
  0
ARC
  8
0
  6
BYLAYER
 62
     1
 10
226.199659
 20
-129.296075
 30
0.0
 40
7.429986
 50
23.916189
 51
35.860484
  0
LINE
  8
0
  6
BYLAYER
 62
     1
 10
232.270109
 20
-125.011880
 30
0.0
 11
232.269666
 21
-125.011254
 31
0.0
  0
LINE
  8
0
  6
BYLAYER
 62
     1
 10
232.221261
 20
-124.943488
 30
0.0
 11
231.466389
 21
-125.047342
 31
0.0
  0
ARC
  8
0
  6
BYLAYER
 62
     1
 10
226.199659
 20
-129.296075
 30
0.0
 40
6.766741
 50
38.894050
 51
50.764315
  0
LINE
  8
0
  6
BYLAYER
 62
     1
 10
230.590345
 20
-124.147218
 30
0.0
 11
230.589613
 21
-124.146585
 31
0.0
  0
LINE
  8
0
  6
BYLAYER
 62
     1
 10
230.479718
 20
-124.054766
 30
0.0
 11
230.575676
 21
-123.291470
 31
0.0
  0
ARC
  8
0
  6
BYLAYER
 62
     1
 10
226.199659
 20
-129.296075
 30
0.0
 40
7.429994
 50
53.916300
 51
65.860381
  0
LINE
  8
0
  6
BYLAYER
 62
     1
 10
229.314207
 20
-122.550378
 30
0.0
 11
229.313688
 21
-122.550141
 31
0.0
  0
LINE
  8
0
  6
BYLAYER
 62
     1
 10
229.238241
 20
-122.515822
 30
0.0
 11
228.636418
 21
-122.983195
 31
0.0
  0
LINE
  8
0
  6
BYLAYER
 62
     1
 10
228.498792
 20
-122.931893
 30
0.0
 11
228.498045
 21
-122.931626
 31
0.0
  0
ARC
  8
0
  6
BYLAYER
 62
     1
 10
226.199659
 20
-129.296075
 30
0.0
 40
6.766738
 50
68.894081
 51
80.764578
  0
ARC
  8
0
  6
BYLAYER
 62
     1
 10
226.199659
 20
-129.296075
 30
0.0
 40
7.429995
 50
84.535428
 51
90.000003
  0
LINE
  8
0
  6
BYLAYER
 62
     1
 10
226.987126
 20
-121.907928
 30
0.0
 11
227.285613
 21
-122.616935
 31
0.0
  0
ARC
  8
0
  6
BYLAYER
 62
     1
 10
226.199659
 20
-129.296075
 30
0.0
 40
7.429995
 50
180.000000
 51
186.083899
  0
LINE
  8
0
  6
BYLAYER
 62
     1
 10
218.803426
 20
-130.003602
 30
0.0
 11
218.803426
 21
-130.003617
 31
0.0
  0
LINE
  8
0
  6
BYLAYER
 62
     1
 10
218.811511
 20
-130.083540
 30
0.0
 11
219.520635
 21
-130.382092
 31
0.0
  0
ARC
  8
0
  6
BYLAYER
 62
     1
 10
226.199690
 20
-129.296014
 30
0.0
 40
6.766781
 50
189.236002
 51
200.764629
  0
LINE
  8
0
  6
BYLAYER
 62
     1
 10
219.872439
 20
-131.695049
 30
0.0
 11
219.407614
 21
-132.308187
 31
0.0
  0
ARC
  8
0
  6
BYLAYER
 62
     1
 10
226.199659
 20
-129.296075
 30
0.0
 40
7.429986
 50
203.916158
 51
215.860410
  0
LINE
  8
0
  6
BYLAYER
 62
     1
 10
220.129194
 20
-133.580262
 30
0.0
 11
220.129636
 21
-133.580888
 31
0.0
  0
LINE
  8
0
  6
BYLAYER
 62
     1
 10
220.178052
 20
-133.648654
 30
0.0
 11
220.933048
 21
-133.544791
 31
0.0
  0
ARC
  8
0
  6
BYLAYER
 62
     1
 10
226.199659
 20
-129.296075
 30
0.0
 40
6.766741
 50
218.894045
 51
230.764345
  0
LINE
  8
0
  6
BYLAYER
 62
     1
 10
221.808973
 20
-134.444924
 30
0.0
 11
221.809705
 21
-134.445558
 31
0.0
  0
LINE
  8
0
  6
BYLAYER
 62
     1
 10
221.919618
 20
-134.537261
 30
0.0
 11
221.823626
 21
-135.300669
 31
0.0
  0
ARC
  8
0
  6
BYLAYER
 62
     1
 10
226.199659
 20
-129.296075
 30
0.0
 40
7.429994
 50
233.916148
 51
245.860401
  0
LINE
  8
0
  6
BYLAYER
 62
     1
 10
223.085111
 20
-136.041764
 30
0.0
 11
223.085615
 21
-136.042009
 31
0.0
  0
LINE
  8
0
  6
BYLAYER
 62
     1
 10
223.161079
 20
-136.076329
 30
0.0
 11
223.762979
 21
-135.608869
 31
0.0
  0
LINE
  8
0
  6
BYLAYER
 62
     1
 10
223.900510
 20
-135.660249
 30
0.0
 11
223.901273
 21
-135.660524
 31
0.0
  0
LINE
  8
0
  6
BYLAYER
 62
     1
 10
233.595884
 20
-130.003602
 30
0.0
 11
233.595884
 21
-130.003617
 31
0.0
  0
LINE
  8
0
  6
BYLAYER
 62
     1
 10
233.587805
 20
-130.083542
 30
0.0
 11
232.878668
 21
-130.382090
 31
0.0
  0
LINE
  8
0
  6
BYLAYER
 62
     1
 10
232.526872
 20
-131.695066
 30
0.0
 11
232.991710
 21
-132.308192
 31
0.0
  0
LINE
  8
0
  6
BYLAYER
 62
     1
 10
232.270109
 20
-133.580262
 30
0.0
 11
232.269666
 21
-133.580888
 31
0.0
  0
LINE
  8
0
  6
BYLAYER
 62
     1
 10
232.221275
 20
-133.648655
 30
0.0
 11
231.466230
 21
-133.544788
 31
0.0
  0
LINE
  8
0
  6
BYLAYER
 62
     1
 10
230.590345
 20
-134.444924
 30
0.0
 11
230.589613
 21
-134.445558
 31
0.0
  0
LINE
  8
0
  6
BYLAYER
 62
     1
 10
230.479704
 20
-134.537258
 30
0.0
 11
230.575676
 21
-135.300680
 31
0.0
  0
LINE
  8
0
  6
BYLAYER
 62
     1
 10
229.238240
 20
-136.076328
 30
0.0
 11
228.636326
 21
-135.608874
 31
0.0
  0
ARC
  8
0
  6
BYLAYER
 62
     1
 10
226.199659
 20
-129.296075
 30
0.0
 40
6.766741
 50
309.235697
 51
321.105929
  0
ARC
  8
0
  6
BYLAYER
 62
     1
 10
226.199659
 20
-129.296075
 30
0.0
 40
6.766738
 50
248.893873
 51
270.000000
  0
ARC
  8
0
  6
BYLAYER
 62
     1
 10
226.199659
 20
-129.296075
 30
0.0
 40
7.429994
 50
294.783232
 51
306.083699
  0
LINE
  8
0
  6
BYLAYER
 62
     1
 10
229.313688
 20
-136.042009
 30
0.0
 11
229.238698
 21
-136.077298
 31
0.0
  0
ARC
  8
0
  6
BYLAYER
 62
     1
 10
226.199659
 20
-129.296075
 30
0.0
 40
7.429986
 50
324.139593
 51
336.083825
  0
ARC
  8
0
  6
BYLAYER
 62
     1
 10
226.199613
 20
-129.296014
 30
0.0
 40
6.766781
 50
339.235210
 51
350.764014
  0
ARC
  8
0
  6
BYLAYER
 62
     1
 10
226.199659
 20
-129.296075
 30
0.0
 40
7.429995
 50
353.916089
 51
360.0
  0
ARC
  8
0
  6
BYLAYER
 62
     1
 10
226.199659
 20
-129.296075
 30
0.0
 40
7.429995
 50
0.0
 51
6.083907
  0
ARC
  8
0
  6
BYLAYER
 62
     1
 10
226.199659
 20
-129.296075
 30
0.0
 40
6.766738
 50
270.0
 51
291.106008
  0
CIRCLE
  8
0
  6
BYLAYER
 62
     1
 10
226.199659
 20
-129.296075
 30
0.0
 40
3.630081
  0
CIRCLE
  8
0
  6
BYLAYER
 62
     1
 10
226.199659
 20
-129.296075
 30
0.0
 40
5.296032
  0
LINE
  8
0
  6
BYLAYER
 62
     1
 10
233.199659
 20
-228.046075
 30
0.0
 11
233.199659
 21
-223.046075
 31
0.0
  0
LINE
  8
0
  6
BYLAYER
 62
     1
 10
233.199659
 20
-228.046075
 30
0.0
 11
228.199659
 21
-228.046075
 31
0.0
  0
LINE
  8
0
  6
BYLAYER
 62
     1
 10
233.199659
 20
-228.046075
 30
0.0
 11
233.199659
 21
-233.046075
 31
0.0
  0
LINE
  8
0
  6
BYLAYER
 62
     1
 10
233.199659
 20
-228.046075
 30
0.0
 11
238.199659
 21
-228.046075
 31
0.0
  0
LINE
  8
0
  6
BYLAYER
 62
     1
 10
857.199659
 20
-509.046075
 30
0.0
 11
877.199659
 21
-509.046075
 31
0.0
  0
LINE
  8
0
  6
BYLAYER
 62
     1
 10
853.199659
 20
-628.046075
 30
0.0
 11
853.199659
 21
-581.046075
 31
0.0
  0
LINE
  8
0
  6
BYLAYER
 62
     1
 10
853.199659
 20
-581.046075
 30
0.0
 11
853.699659
 21
-580.546075
 31
0.0
  0
LINE
  8
0
  6
BYLAYER
 62
     1
 10
853.199659
 20
-628.046075
 30
0.0
 11
853.199659
 21
-675.046075
 31
0.0
  0
LINE
  8
0
  6
BYLAYER
 62
     1
 10
853.199659
 20
-675.046075
 30
0.0
 11
853.699659
 21
-675.546075
 31
0.0
  0
LINE
  8
0
  6
BYLAYER
 62
     1
 10
857.199659
 20
-714.046075
 30
0.0
 11
877.199659
 21
-714.046075
 31
0.0
  0
LINE
  8
0
  6
BYLAYER
 62
     1
 10
857.199659
 20
-669.046075
 30
0.0
 11
857.199659
 21
-714.046075
 31
0.0
  0
LINE
  8
0
  6
BYLAYER
 62
     1
 10
877.199659
 20
-669.046075
 30
0.0
 11
857.199659
 21
-669.046075
 31
0.0
  0
LINE
  8
0
  6
BYLAYER
 62
     1
 10
858.699659
 20
-667.546075
 30
0.0
 11
857.199659
 21
-669.046075
 31
0.0
  0
CIRCLE
  8
0
  6
BYLAYER
 62
     1
 10
913.199659
 20
-553.046075
 30
0.0
 40
31.0
  0
LINE
  8
0
  6
BYLAYER
 62
     1
 10
969.199720
 20
-509.046075
 30
0.0
 11
949.199720
 21
-509.046075
 31
0.0
  0
LINE
  8
0
  6
BYLAYER
 62
     1
 10
969.199720
 20
-714.046075
 30
0.0
 11
949.199720
 21
-714.046075
 31
0.0
  0
LINE
  8
0
  6
BYLAYER
 62
     1
 10
949.199720
 20
-669.046075
 30
0.0
 11
969.199720
 21
-669.046075
 31
0.0
  0
LINE
  8
0
  6
BYLAYER
 62
     1
 10
967.699720
 20
-667.546075
 30
0.0
 11
969.199720
 21
-669.046075
 31
0.0
  0
LINE
  8
0
  6
BYLAYER
 62
     1
 10
969.199720
 20
-669.046075
 30
0.0
 11
969.199720
 21
-714.046075
 31
0.0
  0
LINE
  8
0
  6
BYLAYER
 62
     1
 10
856.199659
 20
-580.546075
 30
0.0
 11
853.699659
 21
-580.546075
 31
0.0
  0
LINE
  8
0
  6
BYLAYER
 62
     1
 10
856.199659
 20
-675.546075
 30
0.0
 11
853.699659
 21
-675.546075
 31
0.0
  0
LINE
  8
0
  6
BYLAYER
 62
     1
 10
876.199659
 20
-509.046075
 30
0.0
 11
877.199659
 21
-509.046075
 31
0.0
  0
CIRCLE
  8
0
  6
BYLAYER
 62
     1
 10
958.149610
 20
-535.046319
 30
0.0
 40
5.750000
  0
CIRCLE
  8
0
  6
BYLAYER
 62
     1
 10
868.249708
 20
-535.046319
 30
0.0
 40
5.750000
  0
LINE
  8
0
  6
BYLAYER
 62
     1
 10
967.699720
 20
-555.546197
 30
0.0
 11
969.199720
 21
-554.046197
 31
0.0
  0
LINE
  8
0
  6
BYLAYER
 62
     1
 10
969.199720
 20
-554.046197
 30
0.0
 11
969.199720
 21
-509.046075
 31
0.0
  0
LINE
  8
0
  6
BYLAYER
 62
     1
 10
858.699659
 20
-555.546197
 30
0.0
 11
857.199659
 21
-554.046197
 31
0.0
  0
LINE
  8
0
  6
BYLAYER
 62
     1
 10
857.199659
 20
-554.046197
 30
0.0
 11
857.199659
 21
-509.046075
 31
0.0
  0
LINE
  8
0
  6
BYLAYER
 62
     1
 10
875.753004
 20
-554.046197
 30
0.0
 11
857.199659
 21
-554.046197
 31
0.0
  0
ARC
  8
0
  6
BYLAYER
 62
     1
 10
875.753004
 20
-555.046197
 30
0.0
 40
1.000000
 50
3.057907
 51
90.000000
  0
LINE
  8
0
  6
BYLAYER
 62
     1
 10
949.199720
 20
-509.046075
 30
0.0
 11
949.199720
 21
-539.583276
 31
0.0
  0
ARC
  8
0
  6
BYLAYER
 62
     1
 10
948.199720
 20
-539.583276
 30
0.0
 40
1.000014
 50
201.039023
 51
359.999996
  0
LINE
  8
0
  6
BYLAYER
 62
     1
 10
877.199659
 20
-539.583154
 30
0.0
 11
877.199659
 21
-509.046075
 31
0.0
  0
ARC
  8
0
  6
BYLAYER
 62
     1
 10
878.199659
 20
-539.583154
 30
0.0
 40
1.000014
 50
180.000000
 51
338.960973
  0
LINE
  8
0
  6
BYLAYER
 62
     1
 10
950.646314
 20
-554.046197
 30
0.0
 11
969.199720
 21
-554.046197
 31
0.0
  0
ARC
  8
0
  6
BYLAYER
 62
     1
 10
950.646314
 20
-555.046197
 30
0.0
 40
1.000020
 50
90.0
 51
176.942086
  0
LINE
  8
0
  6
BYLAYER
 62
     1
 10
949.199720
 20
-509.046075
 30
0.0
 11
949.199720
 21
-539.583276
 31
0.0
  0
LINE
  8
0
  6
BYLAYER
 62
     1
 10
877.199659
 20
-714.046075
 30
0.0
 11
877.199659
 21
-559.066888
 31
0.0
  0
CIRCLE
  8
0
  6
BYLAYER
 62
     1
 10
940.423292
 20
-525.822564
 30
0.0
 40
4.0
  0
CIRCLE
  8
0
  6
BYLAYER
 62
     1
 10
885.976148
 20
-525.822412
 30
0.0
 40
4.0
  0
CIRCLE
  8
0
  6
BYLAYER
 62
     1
 10
885.976026
 20
-580.269586
 30
0.0
 40
4.0
  0
CIRCLE
  8
0
  6
BYLAYER
 62
     1
 10
940.423170
 20
-580.269738
 30
0.0
 40
4.0
  0
ARC
  8
0
  6
BYLAYER
 62
     1
 10
913.199659
 20
-553.046075
 30
0.0
 40
36.500004
 50
148.424355
 51
158.960509
  0
ARC
  8
0
  6
BYLAYER
 62
     1
 10
880.399580
 20
-532.886560
 30
0.0
 40
2.000013
 50
328.424810
 51
411.711570
  0
ARC
  8
0
  6
BYLAYER
 62
     1
 10
885.976148
 20
-525.822412
 30
0.0
 40
6.999995
 50
38.287800
 51
231.711845
  0
ARC
  8
0
  6
BYLAYER
 62
     1
 10
893.040327
 20
-520.245904
 30
0.0
 40
2.000008
 50
218.287737
 51
301.575200
  0
ARC
  8
0
  6
BYLAYER
 62
     1
 10
913.199659
 20
-553.046075
 30
0.0
 40
36.499985
 50
58.424666
 51
121.575332
  0
ARC
  8
0
  6
BYLAYER
 62
     1
 10
933.358991
 20
-520.245904
 30
0.0
 40
2.000013
 50
238.424801
 51
321.712264
  0
ARC
  8
0
  6
BYLAYER
 62
     1
 10
940.423170
 20
-525.822412
 30
0.0
 40
6.999995
 50
308.288160
 51
501.712205
  0
ARC
  8
0
  6
BYLAYER
 62
     1
 10
913.199659
 20
-553.046075
 30
0.0
 40
36.500004
 50
21.039496
 51
31.575650
  0
ARC
  8
0
  6
BYLAYER
 62
     1
 10
945.999708
 20
-532.886560
 30
0.0
 40
2.000008
 50
128.287741
 51
211.575655
  0
ARC
  8
0
  6
BYLAYER
 62
     1
 10
893.040327
 20
-585.846246
 30
0.0
 40
2.000008
 50
58.424803
 51
141.712259
  0
ARC
  8
0
  6
BYLAYER
 62
     1
 10
885.976148
 20
-580.269738
 30
0.0
 40
6.999995
 50
128.288151
 51
321.712210
  0
ARC
  8
0
  6
BYLAYER
 62
     1
 10
913.199659
 20
-553.046075
 30
0.0
 40
36.500004
 50
183.057403
 51
211.575655
  0
ARC
  8
0
  6
BYLAYER
 62
     1
 10
880.399610
 20
-573.205590
 30
0.0
 40
2.000008
 50
308.287746
 51
391.575660
  0
ARC
  8
0
  6
BYLAYER
 62
     1
 10
913.199659
 20
-553.046075
 30
0.0
 40
36.500004
 50
328.424346
 51
356.942599
  0
ARC
  8
0
  6
BYLAYER
 62
     1
 10
945.999708
 20
-573.205590
 30
0.0
 40
2.000008
 50
148.424341
 51
231.712255
  0
ARC
  8
0
  6
BYLAYER
 62
     1
 10
913.199659
 20
-553.046075
 30
0.0
 40
36.499985
 50
238.424665
 51
301.575337
  0
ARC
  8
0
  6
BYLAYER
 62
     1
 10
940.423170
 20
-580.269738
 30
0.0
 40
6.999995
 50
218.287805
 51
411.711850
  0
ARC
  8
0
  6
BYLAYER
 62
     1
 10
933.358991
 20
-585.846246
 30
0.0
 40
2.000013
 50
38.287746
 51
121.575195
  0
LINE
  8
0
  6
BYLAYER
 62
     1
 10
877.199659
 20
-510.546075
 30
0.0
 11
949.199720
 21
-510.546075
 31
0.0
  0
CIRCLE
  8
0
  6
BYLAYER
 62
     1
 10
868.249708
 20
-688.045831
 30
0.0
 40
5.750000
  0
CIRCLE
  8
0
  6
BYLAYER
 62
     1
 10
958.149610
 20
-688.045831
 30
0.0
 40
5.750000
  0
LINE
  8
0
  6
BYLAYER
 62
     1
 10
858.699659
 20
-555.546197
 30
0.0
 11
858.699659
 21
-667.546075
 31
0.0
  0
LINE
  8
0
  6
BYLAYER
 62
     1
 10
967.699720
 20
-555.546197
 30
0.0
 11
967.699720
 21
-667.546075
 31
0.0
  0
LINE
  8
0
  6
BYLAYER
 62
     1
 10
949.199720
 20
-714.046075
 30
0.0
 11
949.199720
 21
-559.066583
 31
0.0
  0
LINE
  8
0
  6
BYLAYER
 62
     1
 10
877.199659
 20
-667.546075
 30
0.0
 11
858.699659
 21
-667.546075
 31
0.0
  0
LINE
  8
0
  6
BYLAYER
 62
     1
 10
876.785383
 20
-555.546197
 30
0.0
 11
858.699659
 21
-555.546197
 31
0.0
  0
LINE
  8
0
  6
BYLAYER
 62
     1
 10
949.613935
 20
-555.546197
 30
0.0
 11
967.699720
 21
-555.546197
 31
0.0
  0
LINE
  8
0
  6
BYLAYER
 62
     1
 10
949.199720
 20
-667.546075
 30
0.0
 11
967.699720
 21
-667.546075
 31
0.0
  0
LINE
  8
0
  6
BYLAYER
 62
     1
 10
856.199781
 20
-698.046014
 30
0.0
 11
857.199659
 21
-698.080926
 31
0.0
  0
LINE
  8
0
  6
BYLAYER
 62
     1
 10
856.199781
 20
-558.046075
 30
0.0
 11
858.699659
 21
-557.958764
 31
0.0
  0
LINE
  8
0
  6
BYLAYER
 62
     1
 10
856.199659
 20
-698.046075
 30
0.0
 11
856.199659
 21
-580.546075
 31
0.0
  0
LINE
  8
0
  6
BYLAYER
 62
     1
 10
856.199659
 20
-580.546075
 30
0.0
 11
856.199659
 21
-558.046075
 31
0.0
  0
LINE
  8
0
  6
BYLAYER
 62
     1
 10
973.199659
 20
-628.046075
 30
0.0
 11
973.199659
 21
-581.046075
 31
0.0
  0
LINE
  8
0
  6
BYLAYER
 62
     1
 10
973.199659
 20
-581.046075
 30
0.0
 11
972.699659
 21
-580.546075
 31
0.0
  0
LINE
  8
0
  6
BYLAYER
 62
     1
 10
973.199659
 20
-628.046075
 30
0.0
 11
973.199659
 21
-675.046075
 31
0.0
  0
LINE
  8
0
  6
BYLAYER
 62
     1
 10
973.199659
 20
-675.046075
 30
0.0
 11
972.699659
 21
-675.546075
 31
0.0
  0
LINE
  8
0
  6
BYLAYER
 62
     1
 10
970.199659
 20
-580.546075
 30
0.0
 11
972.699659
 21
-580.546075
 31
0.0
  0
LINE
  8
0
  6
BYLAYER
 62
     1
 10
970.199659
 20
-675.546075
 30
0.0
 11
972.699659
 21
-675.546075
 31
0.0
  0
LINE
  8
0
  6
BYLAYER
 62
     1
 10
970.199537
 20
-698.046014
 30
0.0
 11
969.199659
 21
-698.080926
 31
0.0
  0
LINE
  8
0
  6
BYLAYER
 62
     1
 10
970.199537
 20
-558.046075
 30
0.0
 11
967.699659
 21
-557.958764
 31
0.0
  0
LINE
  8
0
  6
BYLAYER
 62
     1
 10
970.199659
 20
-698.046075
 30
0.0
 11
970.199659
 21
-580.546075
 31
0.0
  0
LINE
  8
0
  6
BYLAYER
 62
     1
 10
970.199659
 20
-580.546075
 30
0.0
 11
970.199659
 21
-558.046075
 31
0.0
  0
LINE
  8
0
  6
BYLAYER
 62
     1
 10
949.199720
 20
-710.046014
 30
0.0
 11
877.199659
 21
-710.046014
 31
0.0
  0
LINE
  8
0
  6
BYLAYER
 62
     1
 10
272.699781
 20
-573.546077
 30
0.0
 11
274.199781
 21
-572.046077
 31
0.0
  0
LINE
  8
0
  6
BYLAYER
 62
     1
 10
274.199781
 20
-572.046077
 30
0.0
 11
319.199781
 21
-572.046077
 31
0.0
  0
LINE
  8
0
  6
BYLAYER
 62
     1
 10
274.199781
 20
-592.046077
 30
0.0
 11
274.199781
 21
-572.046077
 31
0.0
  0
LINE
  8
0
  6
BYLAYER
 62
     1
 10
274.199781
 20
-664.046077
 30
0.0
 11
274.199781
 21
-684.046077
 31
0.0
  0
LINE
  8
0
  6
BYLAYER
 62
     1
 10
272.699781
 20
-682.546077
 30
0.0
 11
274.199781
 21
-684.046077
 31
0.0
  0
LINE
  8
0
  6
BYLAYER
 62
     1
 10
272.699781
 20
-664.046077
 30
0.0
 11
272.699781
 21
-682.546077
 31
0.0
  0
LINE
  8
0
  6
BYLAYER
 62
     1
 10
192.199781
 20
-664.046077
 30
0.0
 11
192.199781
 21
-684.046077
 31
0.0
  0
LINE
  8
0
  6
BYLAYER
 62
     1
 10
193.699781
 20
-682.546077
 30
0.0
 11
192.199781
 21
-684.046077
 31
0.0
  0
LINE
  8
0
  6
BYLAYER
 62
     1
 10
192.199781
 20
-572.046077
 30
0.0
 11
147.199781
 21
-572.046077
 31
0.0
  0
LINE
  8
0
  6
BYLAYER
 62
     1
 10
192.199781
 20
-592.046077
 30
0.0
 11
192.199781
 21
-572.046077
 31
0.0
  0
LINE
  8
0
  6
BYLAYER
 62
     1
 10
193.699781
 20
-573.546077
 30
0.0
 11
192.199781
 21
-572.046077
 31
0.0
  0
LINE
  8
0
  6
BYLAYER
 62
     1
 10
193.699781
 20
-664.046077
 30
0.0
 11
193.699781
 21
-682.546077
 31
0.0
  0
LINE
  8
0
  6
BYLAYER
 62
     1
 10
274.199781
 20
-684.046077
 30
0.0
 11
319.199781
 21
-684.046077
 31
0.0
  0
LINE
  8
0
  6
BYLAYER
 62
     1
 10
192.199781
 20
-684.046077
 30
0.0
 11
147.199781
 21
-684.046077
 31
0.0
  0
LINE
  8
0
  6
BYLAYER
 62
     1
 10
147.199781
 20
-664.046077
 30
0.0
 11
319.199781
 21
-664.046077
 31
0.0
  0
LINE
  8
0
  6
BYLAYER
 62
     1
 10
147.199781
 20
-592.046077
 30
0.0
 11
319.199781
 21
-592.046077
 31
0.0
  0
LINE
  8
0
  6
BYLAYER
 62
     1
 10
319.199781
 20
-592.046077
 30
0.0
 11
319.199781
 21
-572.046077
 31
0.0
  0
LINE
  8
0
  6
BYLAYER
 62
     1
 10
319.199781
 20
-664.046077
 30
0.0
 11
319.199781
 21
-684.046077
 31
0.0
  0
CIRCLE
  8
0
  6
BYLAYER
 62
     1
 10
173.199781
 20
-583.046260
 30
0.0
 40
5.75
  0
LINE
  8
0
  6
BYLAYER
 62
     1
 10
233.199659
 20
-568.046077
 30
0.0
 11
186.699659
 21
-568.046077
 31
0.0
  0
ARC
  8
0
  6
BYLAYER
 62
     1
 10
186.699659
 20
-569.046077
 30
0.0
 40
1.000000
 50
90.0
 51
180.000003
  0
LINE
  8
0
  6
BYLAYER
 62
     1
 10
233.199659
 20
-568.046077
 30
0.0
 11
279.699659
 21
-568.046077
 31
0.0
  0
ARC
  8
0
  6
BYLAYER
 62
     1
 10
279.699659
 20
-569.046077
 30
0.0
 40
1.0
 50
0.0
 51
90.000003
  0
LINE
  8
0
  6
BYLAYER
 62
     1
 10
193.699781
 20
-573.546077
 30
0.0
 11
272.699781
 21
-573.546077
 31
0.0
  0
LINE
  8
0
  6
BYLAYER
 62
     1
 10
193.699781
 20
-592.046077
 30
0.0
 11
193.699781
 21
-573.546077
 31
0.0
  0
LINE
  8
0
  6
BYLAYER
 62
     1
 10
272.699781
 20
-592.046077
 30
0.0
 11
272.699781
 21
-573.546077
 31
0.0
  0
CIRCLE
  8
0
  6
BYLAYER
 62
     1
 10
293.199781
 20
-583.046260
 30
0.0
 40
5.75
  0
LINE
  8
0
  6
BYLAYER
 62
     1
 10
148.699781
 20
-664.046077
 30
0.0
 11
148.699781
 21
-592.046077
 31
0.0
  0
LINE
  8
0
  6
BYLAYER
 62
     1
 10
147.199781
 20
-572.046077
 30
0.0
 11
147.199781
 21
-684.046077
 31
0.0
  0
LINE
  8
0
  6
BYLAYER
 62
     1
 10
272.699781
 20
-682.546077
 30
0.0
 11
193.699781
 21
-682.546077
 31
0.0
  0
CIRCLE
  8
0
  6
BYLAYER
 62
     1
 10
173.199781
 20
-673.045894
 30
0.0
 40
5.75
  0
CIRCLE
  8
0
  6
BYLAYER
 62
     1
 10
293.199781
 20
-673.045894
 30
0.0
 40
5.75
  0
LINE
  8
0
  6
BYLAYER
 62
     1
 10
166.699781
 20
-592.046077
 30
0.0
 11
166.699781
 21
-664.046077
 31
0.0
  0
LINE
  8
0
  6
BYLAYER
 62
     1
 10
299.699781
 20
-592.046077
 30
0.0
 11
299.699781
 21
-664.046077
 31
0.0
  0
LINE
  8
0
  6
BYLAYER
 62
     1
 10
317.699781
 20
-592.046077
 30
0.0
 11
317.699781
 21
-664.046077
 31
0.0
  0
LINE
  8
0
  6
BYLAYER
 62
     1
 10
303.199659
 20
-571.046077
 30
0.0
 11
163.199659
 21
-571.046077
 31
0.0
  0
LINE
  8
0
  6
BYLAYER
 62
     1
 10
280.699659
 20
-571.046077
 30
0.0
 11
280.699659
 21
-569.046077
 31
0.0
  0
LINE
  8
0
  6
BYLAYER
 62
     1
 10
185.699659
 20
-571.046077
 30
0.0
 11
185.699659
 21
-569.046077
 31
0.0
  0
LINE
  8
0
  6
BYLAYER
 62
     1
 10
163.199720
 20
-571.046199
 30
0.0
 11
163.164800
 21
-572.046077
 31
0.0
  0
LINE
  8
0
  6
BYLAYER
 62
     1
 10
303.199720
 20
-571.046199
 30
0.0
 11
303.234632
 21
-572.046077
 31
0.0
  0
LINE
  8
0
  6
BYLAYER
 62
     1
 10
321.199659
 20
-677.045894
 30
0.0
 11
319.199659
 21
-677.115718
 31
0.0
  0
LINE
  8
0
  6
BYLAYER
 62
     1
 10
321.199659
 20
-579.046260
 30
0.0
 11
319.199659
 21
-578.976436
 31
0.0
  0
LINE
  8
0
  6
BYLAYER
 62
     1
 10
321.199781
 20
-579.046260
 30
0.0
 11
321.199781
 21
-677.045890
 31
0.0
  0
LINE
  8
0
  6
BYLAYER
 62
     1
 10
233.199659
 20
-688.046073
 30
0.0
 11
186.699659
 21
-688.046073
 31
0.0
  0
ARC
  8
0
  6
BYLAYER
 62
     1
 10
186.699659
 20
-687.046073
 30
0.0
 40
1.000000
 50
180.000000
 51
270.000003
  0
LINE
  8
0
  6
BYLAYER
 62
     1
 10
233.199659
 20
-688.046073
 30
0.0
 11
279.699659
 21
-688.046073
 31
0.0
  0
ARC
  8
0
  6
BYLAYER
 62
     1
 10
279.699659
 20
-687.046073
 30
0.0
 40
1.000000
 50
270.0
 51
360.000003
  0
LINE
  8
0
  6
BYLAYER
 62
     1
 10
303.199659
 20
-685.046073
 30
0.0
 11
163.199659
 21
-685.046073
 31
0.0
  0
LINE
  8
0
  6
BYLAYER
 62
     1
 10
280.699659
 20
-685.046073
 30
0.0
 11
280.699659
 21
-687.046073
 31
0.0
  0
LINE
  8
0
  6
BYLAYER
 62
     1
 10
185.699659
 20
-685.046073
 30
0.0
 11
185.699659
 21
-687.046073
 31
0.0
  0
LINE
  8
0
  6
BYLAYER
 62
     1
 10
163.199720
 20
-685.045951
 30
0.0
 11
163.164800
 21
-684.046073
 31
0.0
  0
LINE
  8
0
  6
BYLAYER
 62
     1
 10
303.199720
 20
-685.045951
 30
0.0
 11
303.234632
 21
-684.046073
 31
0.0
  0
ARC
  8
0
  6
BYLAYER
 62
     1
 10
195.925155
 20
-608.046077
 30
0.0
 40
1.25
 50
270.0
 51
450.000005
  0
ARC
  8
0
  6
BYLAYER
 62
     1
 10
195.925155
 20
-598.046077
 30
0.0
 40
1.25
 50
270.0
 51
450.000005
  0
ARC
  8
0
  6
BYLAYER
 62
     1
 10
195.925155
 20
-648.046077
 30
0.0
 40
1.25
 50
270.0
 51
450.000005
  0
ARC
  8
0
  6
BYLAYER
 62
     1
 10
195.925155
 20
-658.046077
 30
0.0
 40
1.25
 50
270.0
 51
450.000005
  0
LINE
  8
0
  6
BYLAYER
 62
     1
 10
195.925155
 20
-596.796077
 30
0.0
 11
166.699781
 21
-596.796077
 31
0.0
  0
LINE
  8
0
  6
BYLAYER
 62
     1
 10
195.925155
 20
-606.796077
 30
0.0
 11
166.699781
 21
-606.796077
 31
0.0
  0
LINE
  8
0
  6
BYLAYER
 62
     1
 10
195.925155
 20
-609.296077
 30
0.0
 11
166.699781
 21
-609.296077
 31
0.0
  0
LINE
  8
0
  6
BYLAYER
 62
     1
 10
195.925155
 20
-656.796077
 30
0.0
 11
166.699781
 21
-656.796077
 31
0.0
  0
LINE
  8
0
  6
BYLAYER
 62
     1
 10
195.925155
 20
-659.296077
 30
0.0
 11
166.699781
 21
-659.296077
 31
0.0
  0
LINE
  8
0
  6
BYLAYER
 62
     1
 10
166.699781
 20
-646.796077
 30
0.0
 11
195.925155
 21
-646.796077
 31
0.0
  0
LINE
  8
0
  6
BYLAYER
 62
     1
 10
166.699781
 20
-649.296077
 30
0.0
 11
195.925155
 21
-649.296077
 31
0.0
  0
LINE
  8
0
  6
BYLAYER
 62
     1
 10
166.699781
 20
-599.296077
 30
0.0
 11
195.925155
 21
-599.296077
 31
0.0
  0
ARC
  8
0
  6
BYLAYER
 62
     1
 10
208.675453
 20
-618.046077
 30
0.0
 40
1.25
 50
270.0
 51
450.000005
  0
ARC
  8
0
  6
BYLAYER
 62
     1
 10
208.675453
 20
-638.046077
 30
0.0
 40
1.25
 50
270.0
 51
450.000005
  0
ARC
  8
0
  6
BYLAYER
 62
     1
 10
208.675453
 20
-628.046077
 30
0.0
 40
1.25
 50
270.0
 51
360.000009
  0
ARC
  8
0
  6
BYLAYER
 62
     1
 10
208.675453
 20
-628.046077
 30
0.0
 40
1.250000
 50
0.0
 51
89.999996
  0
LINE
  8
0
  6
BYLAYER
 62
     1
 10
166.699781
 20
-629.296077
 30
0.0
 11
208.675453
 21
-629.296077
 31
0.0
  0
LINE
  8
0
  6
BYLAYER
 62
     1
 10
166.699781
 20
-616.796077
 30
0.0
 11
208.675453
 21
-616.796077
 31
0.0
  0
LINE
  8
0
  6
BYLAYER
 62
     1
 10
166.699781
 20
-626.796077
 30
0.0
 11
208.675453
 21
-626.796077
 31
0.0
  0
LINE
  8
0
  6
BYLAYER
 62
     1
 10
166.699781
 20
-636.795953
 30
0.0
 11
208.675453
 21
-636.796123
 31
0.0
  0
LINE
  8
0
  6
BYLAYER
 62
     1
 10
166.699781
 20
-639.295953
 30
0.0
 11
208.675453
 21
-639.296123
 31
0.0
  0
LINE
  8
0
  6
BYLAYER
 62
     1
 10
166.699781
 20
-619.296077
 30
0.0
 11
208.675453
 21
-619.296077
 31
0.0
  0
LINE
  8
0
  6
BYLAYER
 62
     1
 10
262.599510
 20
-596.796077
 30
0.0
 11
299.699781
 21
-596.796077
 31
0.0
  0
ARC
  8
0
  6
BYLAYER
 62
     1
 10
262.599510
 20
-598.046077
 30
0.0
 40
1.25
 50
90.0
 51
270.000005
  0
LINE
  8
0
  6
BYLAYER
 62
     1
 10
262.599510
 20
-646.796077
 30
0.0
 11
299.699781
 21
-646.796077
 31
0.0
  0
LINE
  8
0
  6
BYLAYER
 62
     1
 10
262.599510
 20
-649.296077
 30
0.0
 11
299.699781
 21
-649.296077
 31
0.0
  0
ARC
  8
0
  6
BYLAYER
 62
     1
 10
262.599510
 20
-648.046077
 30
0.0
 40
1.25
 50
90.0
 51
270.000005
  0
LINE
  8
0
  6
BYLAYER
 62
     1
 10
262.599510
 20
-659.296077
 30
0.0
 11
299.699781
 21
-659.296077
 31
0.0
  0
ARC
  8
0
  6
BYLAYER
 62
     1
 10
262.599510
 20
-658.046077
 30
0.0
 40
1.25
 50
90.0
 51
270.000005
  0
LINE
  8
0
  6
BYLAYER
 62
     1
 10
299.699781
 20
-609.296077
 30
0.0
 11
262.599510
 21
-609.296077
 31
0.0
  0
LINE
  8
0
  6
BYLAYER
 62
     1
 10
262.599510
 20
-656.796077
 30
0.0
 11
299.699781
 21
-656.796077
 31
0.0
  0
LINE
  8
0
  6
BYLAYER
 62
     1
 10
299.699781
 20
-606.796077
 30
0.0
 11
262.599510
 21
-606.796077
 31
0.0
  0
LINE
  8
0
  6
BYLAYER
 62
     1
 10
262.599510
 20
-599.296077
 30
0.0
 11
299.699781
 21
-599.296077
 31
0.0
  0
ARC
  8
0
  6
BYLAYER
 62
     1
 10
262.599510
 20
-608.046077
 30
0.0
 40
1.25
 50
90.0
 51
270.000005
  0
LINE
  8
0
  6
BYLAYER
 62
     1
 10
321.199659
 20
-153.046075
 30
0.0
 11
321.200089
 21
-200.546075
 31
0.0
  0
ARC
  8
0
  6
BYLAYER
 62
     1
 10
335.700150
 20
-275.519250
 30
0.0
 40
2.000000
 50
180.000000
 51
266.999903
  0
LINE
  8
0
  6
BYLAYER
 62
     1
 10
333.700150
 20
-275.519250
 30
0.0
 11
333.700150
 21
-153.046075
 31
0.0
  0
ARC
  8
0
  6
BYLAYER
 62
     1
 10
331.700089
 20
-238.820398
 30
0.0
 40
2.000061
 50
0.0
 51
15.000024
  0
LINE
  8
0
  6
BYLAYER
 62
     1
 10
321.200089
 20
-200.546075
 30
0.0
 11
321.980362
 21
-200.546685
 31
0.0
  0
LINE
  8
0
  6
BYLAYER
 62
     1
 10
323.912247
 20
-202.028375
 30
0.0
 11
333.632034
 21
-238.302758
 31
0.0
  0
ARC
  8
0
  6
BYLAYER
 62
     1
 10
321.980362
 20
-202.546014
 30
0.0
 40
1.999329
 50
15.000031
 51
90.000003
  0
LINE
  8
0
  6
BYLAYER
 62
     1
 10
323.623611
 20
-201.407098
 30
0.0
 11
333.700150
 21
-257.594995
 31
0.0
  0
LINE
  8
0
  6
BYLAYER
 62
     1
 10
335.595413
 20
-277.516503
 30
0.0
 11
345.700150
 21
-278.046091
 31
0.0
  0
LINE
  8
0
  6
BYLAYER
 62
     1
 10
345.700150
 20
-278.046091
 30
0.0
 11
345.700150
 21
-153.045983
 31
0.0
  0
LINE
  8
0
  6
BYLAYER
 62
     1
 10
323.912247
 20
-202.028375
 30
0.0
 11
323.912247
 21
-153.046075
 31
0.0
  0
LINE
  8
0
  6
BYLAYER
 62
     1
 10
321.199659
 20
-153.046075
 30
0.0
 11
321.200089
 21
-105.546075
 31
0.0
  0
ARC
  8
0
  6
BYLAYER
 62
     1
 10
335.700150
 20
-30.572900
 30
0.0
 40
2.000000
 50
93.000092
 51
179.999995
  0
LINE
  8
0
  6
BYLAYER
 62
     1
 10
333.700150
 20
-30.572900
 30
0.0
 11
333.700150
 21
-153.046075
 31
0.0
  0
ARC
  8
0
  6
BYLAYER
 62
     1
 10
331.700089
 20
-67.271752
 30
0.0
 40
2.000061
 50
344.999976
 51
360.000000
  0
LINE
  8
0
  6
BYLAYER
 62
     1
 10
321.200089
 20
-105.546075
 30
0.0
 11
321.980362
 21
-105.545465
 31
0.0
  0
LINE
  8
0
  6
BYLAYER
 62
     1
 10
323.912247
 20
-104.063775
 30
0.0
 11
333.632034
 21
-67.789392
 31
0.0
  0
ARC
  8
0
  6
BYLAYER
 62
     1
 10
321.980362
 20
-103.546136
 30
0.0
 40
1.999329
 50
270.0
 51
344.999971
  0
LINE
  8
0
  6
BYLAYER
 62
     1
 10
323.623611
 20
-104.685052
 30
0.0
 11
333.700150
 21
-48.497155
 31
0.0
  0
LINE
  8
0
  6
BYLAYER
 62
     1
 10
335.595413
 20
-28.575647
 30
0.0
 11
345.700150
 21
-28.046059
 31
0.0
  0
LINE
  8
0
  6
BYLAYER
 62
     1
 10
345.700150
 20
-28.046059
 30
0.0
 11
345.700150
 21
-153.046167
 31
0.0
  0
LINE
  8
0
  6
BYLAYER
 62
     1
 10
323.912247
 20
-104.063775
 30
0.0
 11
323.912247
 21
-153.046075
 31
0.0
  0
LINE
  8
0
  6
BYLAYER
 62
     1
 10
949.199659
 20
-310.046258
 30
0.0
 11
877.199659
 21
-310.046258
 31
0.0
  0
LINE
  8
0
  6
BYLAYER
 62
     1
 10
856.199659
 20
-275.546075
 30
0.0
 11
853.699659
 21
-275.546075
 31
0.0
  0
LINE
  8
0
  6
BYLAYER
 62
     1
 10
856.199659
 20
-298.046075
 30
0.0
 11
856.199659
 21
-264.293547
 31
0.0
  0
LINE
  8
0
  6
BYLAYER
 62
     1
 10
856.199781
 20
-298.046014
 30
0.0
 11
857.199659
 21
-298.080926
 31
0.0
  0
LINE
  8
0
  6
BYLAYER
 62
     1
 10
853.199659
 20
-262.704636
 30
0.0
 11
853.199659
 21
-275.046075
 31
0.0
  0
LINE
  8
0
  6
BYLAYER
 62
     1
 10
858.699659
 20
-267.546075
 30
0.0
 11
858.699659
 21
-265.539408
 31
0.0
  0
LINE
  8
0
  6
BYLAYER
 62
     1
 10
853.699659
 20
-275.546075
 30
0.0
 11
853.199659
 21
-275.046075
 31
0.0
  0
LINE
  8
0
  6
BYLAYER
 62
     1
 10
970.199659
 20
-275.546075
 30
0.0
 11
972.699659
 21
-275.546075
 31
0.0
  0
LINE
  8
0
  6
BYLAYER
 62
     1
 10
970.199659
 20
-298.046075
 30
0.0
 11
970.199659
 21
-264.293547
 31
0.0
  0
LINE
  8
0
  6
BYLAYER
 62
     1
 10
857.199659
 20
-314.046075
 30
0.0
 11
877.199659
 21
-314.046075
 31
0.0
  0
CIRCLE
  8
0
  6
BYLAYER
 62
     1
 10
868.249708
 20
-288.045831
 30
0.0
 40
5.750000
  0
LINE
  8
0
  6
BYLAYER
 62
     1
 10
970.199537
 20
-298.046014
 30
0.0
 11
969.199659
 21
-298.080926
 31
0.0
  0
LINE
  8
0
  6
BYLAYER
 62
     1
 10
969.199659
 20
-314.046075
 30
0.0
 11
949.199659
 21
-314.046075
 31
0.0
  0
CIRCLE
  8
0
  6
BYLAYER
 62
     1
 10
958.149610
 20
-288.045831
 30
0.0
 40
5.750000
  0
LINE
  8
0
  6
BYLAYER
 62
     1
 10
973.199659
 20
-262.704636
 30
0.0
 11
973.199659
 21
-275.046075
 31
0.0
  0
LINE
  8
0
  6
BYLAYER
 62
     1
 10
877.199659
 20
-314.046075
 30
0.0
 11
877.199659
 21
-272.749876
 31
0.0
  0
LINE
  8
0
  6
BYLAYER
 62
     1
 10
949.199659
 20
-314.046075
 30
0.0
 11
949.199659
 21
-272.749876
 31
0.0
  0
LINE
  8
0
  6
BYLAYER
 62
     1
 10
967.699659
 20
-267.546075
 30
0.0
 11
967.699659
 21
-265.539408
 31
0.0
  0
LINE
  8
0
  6
BYLAYER
 62
     1
 10
972.699659
 20
-275.546075
 30
0.0
 11
973.199659
 21
-275.046075
 31
0.0
  0
LINE
  8
0
  6
BYLAYER
 62
     1
 10
963.346942
 20
-267.546075
 30
0.0
 11
967.699659
 21
-267.546075
 31
0.0
  0
LINE
  8
0
  6
BYLAYER
 62
     1
 10
969.199659
 20
-269.046075
 30
0.0
 11
969.199659
 21
-314.046075
 31
0.0
  0
LINE
  8
0
  6
BYLAYER
 62
     1
 10
967.699659
 20
-267.546075
 30
0.0
 11
969.199659
 21
-269.046075
 31
0.0
  0
LINE
  8
0
  6
BYLAYER
 62
     1
 10
959.772183
 20
-269.046075
 30
0.0
 11
969.199659
 21
-269.046075
 31
0.0
  0
LINE
  8
0
  6
BYLAYER
 62
     1
 10
863.052376
 20
-267.546075
 30
0.0
 11
858.699659
 21
-267.546075
 31
0.0
  0
LINE
  8
0
  6
BYLAYER
 62
     1
 10
858.699659
 20
-267.546075
 30
0.0
 11
857.199659
 21
-269.046075
 31
0.0
  0
LINE
  8
0
  6
BYLAYER
 62
     1
 10
866.627135
 20
-269.046075
 30
0.0
 11
857.199659
 21
-269.046075
 31
0.0
  0
LINE
  8
0
  6
BYLAYER
 62
     1
 10
857.199659
 20
-269.046075
 30
0.0
 11
857.199659
 21
-314.046075
 31
0.0
  0
LINE
  8
0
  6
BYLAYER
 62
     7
 10
864.199659
 20
-39.046075
 30
0.0
 11
867.199659
 21
-44.242242
 31
0.0
  0
LINE
  8
0
  6
BYLAYER
 62
     7
 10
864.199659
 20
-59.727932
 30
0.0
 11
864.199659
 21
-33.046075
 31
0.0
  0
LINE
  8
0
  6
BYLAYER
 62
     7
 10
962.199628
 20
-59.727916
 30
0.0
 11
962.199628
 21
-33.046075
 31
0.0
  0
LINE
  8
0
  6
BYLAYER
 62
     7
 10
867.199659
 20
-48.046075
 30
0.0
 11
867.199659
 21
-44.242242
 31
0.0
  0
ARC
  8
0
  6
BYLAYER
 62
     7
 10
960.449628
 20
-49.046075
 30
0.0
 40
1.000000
 50
0.0
 51
90.000003
  0
LINE
  8
0
  6
BYLAYER
 62
     7
 10
955.915326
 20
-48.046075
 30
0.0
 11
960.449628
 21
-48.046075
 31
0.0
  0
ARC
  8
0
  6
BYLAYER
 62
     7
 10
955.915326
 20
-49.046075
 30
0.0
 40
1.000000
 50
90.0
 51
178.00015
  0
LINE
  8
0
  6
BYLAYER
 62
     7
 10
954.666797
 20
-56.145341
 30
0.0
 11
954.915937
 21
-49.011163
 31
0.0
  0
LINE
  8
0
  6
BYLAYER
 62
     7
 10
961.449628
 20
-59.337931
 30
0.0
 11
961.449628
 21
-49.046075
 31
0.0
  0
LINE
  8
0
  6
BYLAYER
 62
     7
 10
865.949659
 20
-48.046075
 30
0.0
 11
867.199659
 21
-48.046075
 31
0.0
  0
ARC
  8
0
  6
BYLAYER
 62
     7
 10
865.949659
 20
-49.046075
 30
0.0
 40
1.0
 50
90.0
 51
180.000003
  0
LINE
  8
0
  6
BYLAYER
 62
     7
 10
864.949659
 20
-49.046075
 30
0.0
 11
864.949659
 21
-59.337947
 31
0.0
  0
LINE
  8
0
  6
BYLAYER
 62
     7
 10
869.699659
 20
-22.546075
 30
0.0
 11
869.699659
 21
-1.046075
 31
0.0
  0
ARC
  8
0
  6
BYLAYER
 62
     7
 10
868.199659
 20
-22.546075
 30
0.0
 40
1.500000
 50
270.0
 51
360.0
  0
ARC
  8
0
  6
BYLAYER
 62
     7
 10
871.199659
 20
-1.046075
 30
0.0
 40
1.500000
 50
90.0
 51
180.0
  0
LINE
  8
0
  6
BYLAYER
 62
     7
 10
913.199659
 20
0.453925
 30
0.0
 11
871.199659
 21
0.453925
 31
0.0
  0
LINE
  8
0
  6
BYLAYER
 62
     7
 10
875.071900
 20
-22.546075
 30
0.0
 11
875.071900
 21
-1.046075
 31
0.0
  0
ARC
  8
0
  6
BYLAYER
 62
     7
 10
873.571900
 20
-22.546075
 30
0.0
 40
1.500000
 50
270.0
 51
360.0
  0
ARC
  8
0
  6
BYLAYER
 62
     7
 10
876.571900
 20
-1.046075
 30
0.0
 40
1.500000
 50
90.0
 51
180.0
  0
LINE
  8
0
  6
BYLAYER
 62
     7
 10
900.106006
 20
0.453925
 30
0.0
 11
900.598553
 21
-13.650773
 31
0.0
  0
ARC
  8
0
  6
BYLAYER
 62
     7
 10
903.596725
 20
-13.546075
 30
0.0
 40
3.000000
 50
182.0
 51
270.0
  0
LINE
  8
0
  6
BYLAYER
 62
     7
 10
910.800765
 20
-13.650773
 30
0.0
 11
911.293312
 21
0.453925
 31
0.0
  0
ARC
  8
0
  6
BYLAYER
 62
     7
 10
907.802593
 20
-13.546075
 30
0.0
 40
3.000000
 50
270.0
 51
358.0
  0
LINE
  8
0
  6
BYLAYER
 62
     7
 10
903.596725
 20
-16.546075
 30
0.0
 11
907.802593
 21
-16.546075
 31
0.0
  0
LINE
  8
0
  6
BYLAYER
 62
     7
 10
885.106006
 20
0.453925
 30
0.0
 11
885.598553
 21
-13.650773
 31
0.0
  0
ARC
  8
0
  6
BYLAYER
 62
     7
 10
888.596725
 20
-13.546075
 30
0.0
 40
3.000000
 50
182.0
 51
270.0
  0
LINE
  8
0
  6
BYLAYER
 62
     7
 10
895.800765
 20
-13.650773
 30
0.0
 11
896.293312
 21
0.453925
 31
0.0
  0
ARC
  8
0
  6
BYLAYER
 62
     7
 10
892.802593
 20
-13.546075
 30
0.0
 40
3.000000
 50
270.0
 51
358.0
  0
LINE
  8
0
  6
BYLAYER
 62
     7
 10
888.596725
 20
-16.546075
 30
0.0
 11
892.802593
 21
-16.546075
 31
0.0
  0
LINE
  8
0
  6
BYLAYER
 62
     7
 10
885.140927
 20
-0.546075
 30
0.0
 11
896.258391
 21
-0.546075
 31
0.0
  0
LINE
  8
0
  6
BYLAYER
 62
     7
 10
900.140927
 20
-0.546075
 30
0.0
 11
911.258391
 21
-0.546075
 31
0.0
  0
LINE
  8
0
  6
BYLAYER
 62
     7
 10
913.199659
 20
-24.046075
 30
0.0
 11
865.699659
 21
-24.046075
 31
0.0
  0
ARC
  8
0
  6
BYLAYER
 62
     7
 10
865.699659
 20
-25.546075
 30
0.0
 40
1.500000
 50
90.0
 51
180.0
  0
LINE
  8
0
  6
BYLAYER
 62
     7
 10
864.199659
 20
-31.046075
 30
0.0
 11
864.199659
 21
-25.546075
 31
0.0
  0
LINE
  8
0
  6
BYLAYER
 62
     7
 10
864.199659
 20
-31.046075
 30
0.0
 11
913.199659
 21
-31.046075
 31
0.0
  0
LINE
  8
0
  6
BYLAYER
 62
     7
 10
956.699659
 20
-22.546075
 30
0.0
 11
956.699659
 21
-1.046075
 31
0.0
  0
ARC
  8
0
  6
BYLAYER
 62
     7
 10
958.199659
 20
-22.546075
 30
0.0
 40
1.500000
 50
180.000000
 51
270.000000
  0
ARC
  8
0
  6
BYLAYER
 62
     7
 10
955.199659
 20
-1.046075
 30
0.0
 40
1.500000
 50
0.0
 51
90.0
  0
LINE
  8
0
  6
BYLAYER
 62
     7
 10
913.199659
 20
0.453925
 30
0.0
 11
955.199659
 21
0.453925
 31
0.0
  0
LINE
  8
0
  6
BYLAYER
 62
     7
 10
951.327418
 20
-22.546075
 30
0.0
 11
951.327418
 21
-1.046075
 31
0.0
  0
ARC
  8
0
  6
BYLAYER
 62
     7
 10
952.827418
 20
-22.546075
 30
0.0
 40
1.500000
 50
180.000000
 51
270.000000
  0
ARC
  8
0
  6
BYLAYER
 62
     7
 10
949.827418
 20
-1.046075
 30
0.0
 40
1.500000
 50
0.0
 51
90.0
  0
LINE
  8
0
  6
BYLAYER
 62
     7
 10
926.293312
 20
0.453925
 30
0.0
 11
925.800765
 21
-13.650773
 31
0.0
  0
ARC
  8
0
  6
BYLAYER
 62
     7
 10
922.802593
 20
-13.546075
 30
0.0
 40
3.000000
 50
270.0
 51
358.0
  0
LINE
  8
0
  6
BYLAYER
 62
     7
 10
915.598553
 20
-13.650773
 30
0.0
 11
915.106006
 21
0.453925
 31
0.0
  0
ARC
  8
0
  6
BYLAYER
 62
     7
 10
918.596725
 20
-13.546075
 30
0.0
 40
3.000000
 50
182.0
 51
270.0
  0
LINE
  8
0
  6
BYLAYER
 62
     7
 10
922.802593
 20
-16.546075
 30
0.0
 11
918.596725
 21
-16.546075
 31
0.0
  0
LINE
  8
0
  6
BYLAYER
 62
     7
 10
941.293312
 20
0.453925
 30
0.0
 11
940.800765
 21
-13.650773
 31
0.0
  0
ARC
  8
0
  6
BYLAYER
 62
     7
 10
937.802593
 20
-13.546075
 30
0.0
 40
3.000000
 50
270.0
 51
358.0
  0
LINE
  8
0
  6
BYLAYER
 62
     7
 10
930.598553
 20
-13.650773
 30
0.0
 11
930.106006
 21
0.453925
 31
0.0
  0
ARC
  8
0
  6
BYLAYER
 62
     7
 10
933.596725
 20
-13.546075
 30
0.0
 40
3.000000
 50
182.0
 51
270.0
  0
LINE
  8
0
  6
BYLAYER
 62
     7
 10
937.802593
 20
-16.546075
 30
0.0
 11
933.596725
 21
-16.546075
 31
0.0
  0
LINE
  8
0
  6
BYLAYER
 62
     7
 10
941.258391
 20
-0.546075
 30
0.0
 11
930.140927
 21
-0.546075
 31
0.0
  0
LINE
  8
0
  6
BYLAYER
 62
     7
 10
926.258391
 20
-0.546075
 30
0.0
 11
915.140927
 21
-0.546075
 31
0.0
  0
LINE
  8
0
  6
BYLAYER
 62
     7
 10
913.199659
 20
-24.046075
 30
0.0
 11
960.699659
 21
-24.046075
 31
0.0
  0
ARC
  8
0
  6
BYLAYER
 62
     7
 10
960.699659
 20
-25.546075
 30
0.0
 40
1.500000
 50
0.0
 51
90.0
  0
LINE
  8
0
  6
BYLAYER
 62
     7
 10
962.199659
 20
-33.046075
 30
0.0
 11
962.199659
 21
-25.546075
 31
0.0
  0
LINE
  8
0
  6
BYLAYER
 62
     7
 10
962.199659
 20
-31.046075
 30
0.0
 11
913.199659
 21
-31.046075
 31
0.0
  0
LINE
  8
0
  6
BYLAYER
 62
     7
 10
864.199659
 20
-33.046075
 30
0.0
 11
913.199643
 21
-33.046075
 31
0.0
  0
LINE
  8
0
  6
BYLAYER
 62
     7
 10
962.199643
 20
-33.045953
 30
0.0
 11
913.199643
 21
-33.046075
 31
0.0
  0
LINE
  8
0
  6
BYLAYER
 62
     7
 10
864.199659
 20
-31.046075
 30
0.0
 11
864.199659
 21
-33.046075
 31
0.0
  0
LINE
  8
0
  6
BYLAYER
 62
     7
 10
914.199659
 20
-124.046075
 30
0.0
 11
914.199659
 21
-132.046075
 31
0.0
  0
LINE
  8
0
  6
BYLAYER
 62
     7
 10
914.199659
 20
-114.046075
 30
0.0
 11
914.199659
 21
-122.046075
 31
0.0
  0
LINE
  8
0
  6
BYLAYER
 62
     7
 10
922.199659
 20
-122.046075
 30
0.0
 11
922.199659
 21
-114.046075
 31
0.0
  0
LINE
  8
0
  6
BYLAYER
 62
     7
 10
924.199659
 20
-122.046075
 30
0.0
 11
924.199659
 21
-114.046075
 31
0.0
  0
LINE
  8
0
  6
BYLAYER
 62
     7
 10
914.199659
 20
-132.046075
 30
0.0
 11
922.199659
 21
-132.046075
 31
0.0
  0
LINE
  8
0
  6
BYLAYER
 62
     7
 10
914.199659
 20
-124.046075
 30
0.0
 11
922.199659
 21
-124.046075
 31
0.0
  0
LINE
  8
0
  6
BYLAYER
 62
     7
 10
924.199659
 20
-122.046075
 30
0.0
 11
932.037658
 21
-122.046075
 31
0.0
  0
LINE
  8
0
  6
BYLAYER
 62
     7
 10
914.199659
 20
-122.046075
 30
0.0
 11
922.199659
 21
-122.046075
 31
0.0
  0
LINE
  8
0
  6
BYLAYER
 62
     7
 10
924.199659
 20
-114.046075
 30
0.0
 11
932.037658
 21
-114.046075
 31
0.0
  0
LINE
  8
0
  6
BYLAYER
 62
     7
 10
914.199659
 20
-114.046075
 30
0.0
 11
922.199659
 21
-114.046075
 31
0.0
  0
LINE
  8
0
  6
BYLAYER
 62
     7
 10
932.037658
 20
-122.046075
 30
0.0
 11
932.037658
 21
-114.046075
 31
0.0
  0
LINE
  8
0
  6
BYLAYER
 62
     7
 10
922.199659
 20
-132.046075
 30
0.0
 11
922.199659
 21
-124.046075
 31
0.0
  0
LINE
  8
0
  6
BYLAYER
 62
     7
 10
924.199659
 20
-124.046075
 30
0.0
 11
924.199659
 21
-132.046075
 31
0.0
  0
LINE
  8
0
  6
BYLAYER
 62
     7
 10
924.199659
 20
-132.046075
 30
0.0
 11
932.199659
 21
-132.046075
 31
0.0
  0
LINE
  8
0
  6
BYLAYER
 62
     7
 10
924.199659
 20
-124.046075
 30
0.0
 11
932.199659
 21
-124.046075
 31
0.0
  0
LINE
  8
0
  6
BYLAYER
 62
     7
 10
932.199659
 20
-132.046075
 30
0.0
 11
932.199659
 21
-124.046075
 31
0.0
  0
LINE
  8
0
  6
BYLAYER
 62
     7
 10
934.199659
 20
-142.046075
 30
0.0
 11
942.199659
 21
-142.046075
 31
0.0
  0
LINE
  8
0
  6
BYLAYER
 62
     7
 10
934.199659
 20
-124.046075
 30
0.0
 11
934.199659
 21
-132.046075
 31
0.0
  0
LINE
  8
0
  6
BYLAYER
 62
     7
 10
934.199659
 20
-134.046075
 30
0.0
 11
934.199659
 21
-142.046075
 31
0.0
  0
LINE
  8
0
  6
BYLAYER
 62
     7
 10
934.199659
 20
-134.046075
 30
0.0
 11
942.199659
 21
-134.046075
 31
0.0
  0
LINE
  8
0
  6
BYLAYER
 62
     7
 10
934.199659
 20
-132.046075
 30
0.0
 11
942.199659
 21
-132.046075
 31
0.0
  0
LINE
  8
0
  6
BYLAYER
 62
     7
 10
934.199659
 20
-124.046075
 30
0.0
 11
942.199659
 21
-124.046075
 31
0.0
  0
LINE
  8
0
  6
BYLAYER
 62
     7
 10
942.199659
 20
-142.046075
 30
0.0
 11
942.199659
 21
-134.046075
 31
0.0
  0
LINE
  8
0
  6
BYLAYER
 62
     7
 10
942.199659
 20
-132.046075
 30
0.0
 11
942.199659
 21
-124.046075
 31
0.0
  0
LINE
  8
0
  6
BYLAYER
 62
     7
 10
934.199659
 20
-152.046075
 30
0.0
 11
942.199659
 21
-152.046075
 31
0.0
  0
LINE
  8
0
  6
BYLAYER
 62
     7
 10
934.199659
 20
-144.046075
 30
0.0
 11
934.199659
 21
-152.046075
 31
0.0
  0
LINE
  8
0
  6
BYLAYER
 62
     7
 10
934.199659
 20
-144.046075
 30
0.0
 11
942.199659
 21
-144.046075
 31
0.0
  0
LINE
  8
0
  6
BYLAYER
 62
     7
 10
942.199659
 20
-152.046075
 30
0.0
 11
942.199659
 21
-144.046075
 31
0.0
  0
LINE
  8
0
  6
BYLAYER
 62
     7
 10
944.199659
 20
-142.046075
 30
0.0
 11
952.199659
 21
-142.046075
 31
0.0
  0
LINE
  8
0
  6
BYLAYER
 62
     7
 10
944.199659
 20
-134.046075
 30
0.0
 11
944.199659
 21
-142.046075
 31
0.0
  0
LINE
  8
0
  6
BYLAYER
 62
     7
 10
944.199659
 20
-134.046075
 30
0.0
 11
952.199659
 21
-134.046075
 31
0.0
  0
LINE
  8
0
  6
BYLAYER
 62
     7
 10
952.199659
 20
-142.046075
 30
0.0
 11
952.199659
 21
-134.046075
 31
0.0
  0
LINE
  8
0
  6
BYLAYER
 62
     7
 10
944.199659
 20
-152.046075
 30
0.0
 11
952.199659
 21
-152.046075
 31
0.0
  0
LINE
  8
0
  6
BYLAYER
 62
     7
 10
944.199659
 20
-144.046075
 30
0.0
 11
944.199659
 21
-152.046075
 31
0.0
  0
LINE
  8
0
  6
BYLAYER
 62
     7
 10
944.199659
 20
-144.046075
 30
0.0
 11
952.199659
 21
-144.046075
 31
0.0
  0
LINE
  8
0
  6
BYLAYER
 62
     7
 10
952.199659
 20
-152.046075
 30
0.0
 11
952.199659
 21
-144.046075
 31
0.0
  0
LINE
  8
0
  6
BYLAYER
 62
     7
 10
954.199659
 20
-142.046075
 30
0.0
 11
962.199659
 21
-142.046075
 31
0.0
  0
LINE
  8
0
  6
BYLAYER
 62
     7
 10
954.199659
 20
-134.046075
 30
0.0
 11
954.199659
 21
-142.046075
 31
0.0
  0
LINE
  8
0
  6
BYLAYER
 62
     7
 10
954.199659
 20
-134.046075
 30
0.0
 11
962.199659
 21
-134.046075
 31
0.0
  0
LINE
  8
0
  6
BYLAYER
 62
     7
 10
962.199659
 20
-142.046075
 30
0.0
 11
962.199659
 21
-134.046075
 31
0.0
  0
LINE
  8
0
  6
BYLAYER
 62
     7
 10
954.199659
 20
-152.046075
 30
0.0
 11
962.199659
 21
-152.046075
 31
0.0
  0
LINE
  8
0
  6
BYLAYER
 62
     7
 10
954.199659
 20
-144.046075
 30
0.0
 11
954.199659
 21
-152.046075
 31
0.0
  0
LINE
  8
0
  6
BYLAYER
 62
     7
 10
954.199659
 20
-144.046075
 30
0.0
 11
962.199659
 21
-144.046075
 31
0.0
  0
LINE
  8
0
  6
BYLAYER
 62
     7
 10
962.199659
 20
-152.046075
 30
0.0
 11
962.199659
 21
-144.046075
 31
0.0
  0
LINE
  8
0
  6
BYLAYER
 62
     7
 10
914.199659
 20
-104.046075
 30
0.0
 11
914.199659
 21
-112.046075
 31
0.0
  0
LINE
  8
0
  6
BYLAYER
 62
     7
 10
922.199659
 20
-112.046075
 30
0.0
 11
922.199659
 21
-104.046075
 31
0.0
  0
LINE
  8
0
  6
BYLAYER
 62
     7
 10
924.199659
 20
-112.046075
 30
0.0
 11
924.199659
 21
-104.046075
 31
0.0
  0
LINE
  8
0
  6
BYLAYER
 62
     7
 10
924.199659
 20
-112.046075
 30
0.0
 11
932.037658
 21
-112.046075
 31
0.0
  0
LINE
  8
0
  6
BYLAYER
 62
     7
 10
914.199659
 20
-112.046075
 30
0.0
 11
922.199659
 21
-112.046075
 31
0.0
  0
LINE
  8
0
  6
BYLAYER
 62
     7
 10
924.199659
 20
-104.046075
 30
0.0
 11
932.037658
 21
-104.046075
 31
0.0
  0
LINE
  8
0
  6
BYLAYER
 62
     7
 10
914.199659
 20
-104.046075
 30
0.0
 11
922.199659
 21
-104.046075
 31
0.0
  0
LINE
  8
0
  6
BYLAYER
 62
     7
 10
932.037658
 20
-112.046075
 30
0.0
 11
932.037658
 21
-104.046075
 31
0.0
  0
LINE
  8
0
  6
BYLAYER
 62
     7
 10
934.199659
 20
-114.046075
 30
0.0
 11
934.199659
 21
-122.046075
 31
0.0
  0
LINE
  8
0
  6
BYLAYER
 62
     7
 10
934.199659
 20
-122.046075
 30
0.0
 11
942.199659
 21
-122.046075
 31
0.0
  0
LINE
  8
0
  6
BYLAYER
 62
     7
 10
934.199659
 20
-114.046075
 30
0.0
 11
942.199659
 21
-114.046075
 31
0.0
  0
LINE
  8
0
  6
BYLAYER
 62
     7
 10
942.199659
 20
-122.046075
 30
0.0
 11
942.199659
 21
-114.046075
 31
0.0
  0
LINE
  8
0
  6
BYLAYER
 62
     7
 10
934.199659
 20
-104.046075
 30
0.0
 11
934.199659
 21
-112.046075
 31
0.0
  0
LINE
  8
0
  6
BYLAYER
 62
     7
 10
934.199659
 20
-112.046075
 30
0.0
 11
942.199659
 21
-112.046075
 31
0.0
  0
LINE
  8
0
  6
BYLAYER
 62
     7
 10
934.199659
 20
-104.046075
 30
0.0
 11
942.199659
 21
-104.046075
 31
0.0
  0
LINE
  8
0
  6
BYLAYER
 62
     7
 10
942.199659
 20
-112.046075
 30
0.0
 11
942.199659
 21
-104.046075
 31
0.0
  0
LINE
  8
0
  6
BYLAYER
 62
     7
 10
944.199659
 20
-124.046075
 30
0.0
 11
944.199659
 21
-132.046075
 31
0.0
  0
LINE
  8
0
  6
BYLAYER
 62
     7
 10
944.199659
 20
-132.046075
 30
0.0
 11
952.199659
 21
-132.046075
 31
0.0
  0
LINE
  8
0
  6
BYLAYER
 62
     7
 10
944.199659
 20
-124.046075
 30
0.0
 11
952.199659
 21
-124.046075
 31
0.0
  0
LINE
  8
0
  6
BYLAYER
 62
     7
 10
952.199659
 20
-132.046075
 30
0.0
 11
952.199659
 21
-124.046075
 31
0.0
  0
LINE
  8
0
  6
BYLAYER
 62
     7
 10
944.199659
 20
-114.046075
 30
0.0
 11
944.199659
 21
-122.046075
 31
0.0
  0
LINE
  8
0
  6
BYLAYER
 62
     7
 10
944.199659
 20
-122.046075
 30
0.0
 11
952.199659
 21
-122.046075
 31
0.0
  0
LINE
  8
0
  6
BYLAYER
 62
     7
 10
944.199659
 20
-114.046075
 30
0.0
 11
952.199659
 21
-114.046075
 31
0.0
  0
LINE
  8
0
  6
BYLAYER
 62
     7
 10
952.199659
 20
-122.046075
 30
0.0
 11
952.199659
 21
-114.046075
 31
0.0
  0
LINE
  8
0
  6
BYLAYER
 62
     7
 10
954.199659
 20
-124.046075
 30
0.0
 11
954.199659
 21
-132.046075
 31
0.0
  0
LINE
  8
0
  6
BYLAYER
 62
     7
 10
954.199659
 20
-132.046075
 30
0.0
 11
962.199659
 21
-132.046075
 31
0.0
  0
LINE
  8
0
  6
BYLAYER
 62
     7
 10
954.199659
 20
-124.046075
 30
0.0
 11
962.199659
 21
-124.046075
 31
0.0
  0
LINE
  8
0
  6
BYLAYER
 62
     7
 10
962.199659
 20
-132.046075
 30
0.0
 11
962.199659
 21
-124.046075
 31
0.0
  0
CIRCLE
  8
0
  6
BYLAYER
 62
     7
 10
913.199659
 20
-153.046075
 30
0.0
 40
4.0
  0
LINE
  8
0
  6
BYLAYER
 62
     7
 10
964.199659
 20
-142.046075
 30
0.0
 11
972.199659
 21
-142.046075
 31
0.0
  0
LINE
  8
0
  6
BYLAYER
 62
     7
 10
964.199659
 20
-134.046075
 30
0.0
 11
964.199659
 21
-142.046075
 31
0.0
  0
LINE
  8
0
  6
BYLAYER
 62
     7
 10
964.199659
 20
-134.046075
 30
0.0
 11
972.199659
 21
-134.046075
 31
0.0
  0
LINE
  8
0
  6
BYLAYER
 62
     7
 10
972.199659
 20
-142.046075
 30
0.0
 11
972.199659
 21
-134.046075
 31
0.0
  0
LINE
  8
0
  6
BYLAYER
 62
     7
 10
964.199659
 20
-152.046075
 30
0.0
 11
972.199659
 21
-152.046075
 31
0.0
  0
LINE
  8
0
  6
BYLAYER
 62
     7
 10
964.199659
 20
-144.046075
 30
0.0
 11
964.199659
 21
-152.046075
 31
0.0
  0
LINE
  8
0
  6
BYLAYER
 62
     7
 10
964.199659
 20
-144.046075
 30
0.0
 11
972.199659
 21
-144.046075
 31
0.0
  0
LINE
  8
0
  6
BYLAYER
 62
     7
 10
972.199659
 20
-152.046075
 30
0.0
 11
972.199659
 21
-144.046075
 31
0.0
  0
LINE
  8
0
  6
BYLAYER
 62
     7
 10
964.199659
 20
-124.046075
 30
0.0
 11
964.199659
 21
-132.046075
 31
0.0
  0
LINE
  8
0
  6
BYLAYER
 62
     7
 10
964.199659
 20
-132.046075
 30
0.0
 11
972.199659
 21
-132.046075
 31
0.0
  0
LINE
  8
0
  6
BYLAYER
 62
     7
 10
964.199659
 20
-124.046075
 30
0.0
 11
972.199659
 21
-124.046075
 31
0.0
  0
LINE
  8
0
  6
BYLAYER
 62
     7
 10
972.199659
 20
-132.046075
 30
0.0
 11
972.199659
 21
-124.046075
 31
0.0
  0
LINE
  8
0
  6
BYLAYER
 62
     7
 10
914.199659
 20
-94.046075
 30
0.0
 11
914.199659
 21
-102.046075
 31
0.0
  0
LINE
  8
0
  6
BYLAYER
 62
     7
 10
922.199659
 20
-102.046075
 30
0.0
 11
922.199659
 21
-94.046075
 31
0.0
  0
LINE
  8
0
  6
BYLAYER
 62
     7
 10
924.199659
 20
-102.046075
 30
0.0
 11
924.199659
 21
-94.046075
 31
0.0
  0
LINE
  8
0
  6
BYLAYER
 62
     7
 10
924.199659
 20
-102.046075
 30
0.0
 11
932.037658
 21
-102.046075
 31
0.0
  0
LINE
  8
0
  6
BYLAYER
 62
     7
 10
914.199659
 20
-102.046075
 30
0.0
 11
922.199659
 21
-102.046075
 31
0.0
  0
LINE
  8
0
  6
BYLAYER
 62
     7
 10
924.199659
 20
-94.046075
 30
0.0
 11
932.037658
 21
-94.046075
 31
0.0
  0
LINE
  8
0
  6
BYLAYER
 62
     7
 10
914.199659
 20
-94.046075
 30
0.0
 11
922.199659
 21
-94.046075
 31
0.0
  0
LINE
  8
0
  6
BYLAYER
 62
     7
 10
932.037658
 20
-102.046075
 30
0.0
 11
932.037658
 21
-94.046075
 31
0.0
  0
LINE
  8
0
  6
BYLAYER
 62
     7
 10
934.199659
 20
-94.046075
 30
0.0
 11
934.199659
 21
-102.046075
 31
0.0
  0
LINE
  8
0
  6
BYLAYER
 62
     7
 10
934.199659
 20
-102.046075
 30
0.0
 11
942.199659
 21
-102.046075
 31
0.0
  0
LINE
  8
0
  6
BYLAYER
 62
     7
 10
934.199659
 20
-94.046075
 30
0.0
 11
942.199659
 21
-94.046075
 31
0.0
  0
LINE
  8
0
  6
BYLAYER
 62
     7
 10
942.199659
 20
-102.046075
 30
0.0
 11
942.199659
 21
-94.046075
 31
0.0
  0
LINE
  8
0
  6
BYLAYER
 62
     7
 10
944.199659
 20
-104.046075
 30
0.0
 11
944.199659
 21
-112.046075
 31
0.0
  0
LINE
  8
0
  6
BYLAYER
 62
     7
 10
944.199659
 20
-112.046075
 30
0.0
 11
952.199659
 21
-112.046075
 31
0.0
  0
LINE
  8
0
  6
BYLAYER
 62
     7
 10
944.199659
 20
-104.046075
 30
0.0
 11
952.199659
 21
-104.046075
 31
0.0
  0
LINE
  8
0
  6
BYLAYER
 62
     7
 10
952.199659
 20
-112.046075
 30
0.0
 11
952.199659
 21
-104.046075
 31
0.0
  0
LINE
  8
0
  6
BYLAYER
 62
     7
 10
954.199659
 20
-114.046075
 30
0.0
 11
954.199659
 21
-122.046075
 31
0.0
  0
LINE
  8
0
  6
BYLAYER
 62
     7
 10
954.199659
 20
-122.046075
 30
0.0
 11
962.199659
 21
-122.046075
 31
0.0
  0
LINE
  8
0
  6
BYLAYER
 62
     7
 10
954.199659
 20
-114.046075
 30
0.0
 11
962.199659
 21
-114.046075
 31
0.0
  0
LINE
  8
0
  6
BYLAYER
 62
     7
 10
962.199659
 20
-122.046075
 30
0.0
 11
962.199659
 21
-114.046075
 31
0.0
  0
LINE
  8
0
  6
BYLAYER
 62
     7
 10
914.199659
 20
-84.046075
 30
0.0
 11
914.199659
 21
-92.046075
 31
0.0
  0
LINE
  8
0
  6
BYLAYER
 62
     7
 10
922.199659
 20
-92.046075
 30
0.0
 11
922.199659
 21
-84.046075
 31
0.0
  0
LINE
  8
0
  6
BYLAYER
 62
     7
 10
924.199659
 20
-92.046075
 30
0.0
 11
924.199659
 21
-84.046075
 31
0.0
  0
LINE
  8
0
  6
BYLAYER
 62
     7
 10
924.199659
 20
-92.046075
 30
0.0
 11
932.037658
 21
-92.046075
 31
0.0
  0
LINE
  8
0
  6
BYLAYER
 62
     7
 10
914.199659
 20
-92.046075
 30
0.0
 11
922.199659
 21
-92.046075
 31
0.0
  0
LINE
  8
0
  6
BYLAYER
 62
     7
 10
924.199659
 20
-84.046075
 30
0.0
 11
932.037658
 21
-84.046075
 31
0.0
  0
LINE
  8
0
  6
BYLAYER
 62
     7
 10
914.199659
 20
-84.046075
 30
0.0
 11
922.199659
 21
-84.046075
 31
0.0
  0
LINE
  8
0
  6
BYLAYER
 62
     7
 10
932.037658
 20
-92.046075
 30
0.0
 11
932.037658
 21
-84.046075
 31
0.0
  0
LINE
  8
0
  6
BYLAYER
 62
     7
 10
974.199659
 20
-142.046075
 30
0.0
 11
982.199659
 21
-142.046075
 31
0.0
  0
LINE
  8
0
  6
BYLAYER
 62
     7
 10
974.199659
 20
-134.046075
 30
0.0
 11
974.199659
 21
-142.046075
 31
0.0
  0
LINE
  8
0
  6
BYLAYER
 62
     7
 10
974.199659
 20
-134.046075
 30
0.0
 11
982.199659
 21
-134.046075
 31
0.0
  0
LINE
  8
0
  6
BYLAYER
 62
     7
 10
982.199659
 20
-142.046075
 30
0.0
 11
982.199659
 21
-134.046075
 31
0.0
  0
LINE
  8
0
  6
BYLAYER
 62
     7
 10
974.199659
 20
-152.046075
 30
0.0
 11
982.199659
 21
-152.046075
 31
0.0
  0
LINE
  8
0
  6
BYLAYER
 62
     7
 10
974.199659
 20
-144.046075
 30
0.0
 11
974.199659
 21
-152.046075
 31
0.0
  0
LINE
  8
0
  6
BYLAYER
 62
     7
 10
974.199659
 20
-144.046075
 30
0.0
 11
982.199659
 21
-144.046075
 31
0.0
  0
LINE
  8
0
  6
BYLAYER
 62
     7
 10
982.199659
 20
-152.046075
 30
0.0
 11
982.199659
 21
-144.046075
 31
0.0
  0
LINE
  8
0
  6
BYLAYER
 62
     7
 10
944.199659
 20
-94.046075
 30
0.0
 11
944.199659
 21
-102.046075
 31
0.0
  0
LINE
  8
0
  6
BYLAYER
 62
     7
 10
944.199659
 20
-102.046075
 30
0.0
 11
952.199659
 21
-102.046075
 31
0.0
  0
LINE
  8
0
  6
BYLAYER
 62
     7
 10
944.199659
 20
-94.046075
 30
0.0
 11
952.199659
 21
-94.046075
 31
0.0
  0
LINE
  8
0
  6
BYLAYER
 62
     7
 10
952.199659
 20
-102.046075
 30
0.0
 11
952.199659
 21
-94.046075
 31
0.0
  0
LINE
  8
0
  6
BYLAYER
 62
     7
 10
954.199659
 20
-104.046075
 30
0.0
 11
954.199659
 21
-112.046075
 31
0.0
  0
LINE
  8
0
  6
BYLAYER
 62
     7
 10
954.199659
 20
-112.046075
 30
0.0
 11
962.199659
 21
-112.046075
 31
0.0
  0
LINE
  8
0
  6
BYLAYER
 62
     7
 10
954.199659
 20
-104.046075
 30
0.0
 11
962.199659
 21
-104.046075
 31
0.0
  0
LINE
  8
0
  6
BYLAYER
 62
     7
 10
962.199659
 20
-112.046075
 30
0.0
 11
962.199659
 21
-104.046075
 31
0.0
  0
LINE
  8
0
  6
BYLAYER
 62
     7
 10
964.199659
 20
-114.046075
 30
0.0
 11
964.199659
 21
-122.046075
 31
0.0
  0
LINE
  8
0
  6
BYLAYER
 62
     7
 10
964.199659
 20
-122.046075
 30
0.0
 11
972.199659
 21
-122.046075
 31
0.0
  0
LINE
  8
0
  6
BYLAYER
 62
     7
 10
964.199659
 20
-114.046075
 30
0.0
 11
972.199659
 21
-114.046075
 31
0.0
  0
LINE
  8
0
  6
BYLAYER
 62
     7
 10
972.199659
 20
-122.046075
 30
0.0
 11
972.199659
 21
-114.046075
 31
0.0
  0
LINE
  8
0
  6
BYLAYER
 62
     7
 10
914.199659
 20
-74.046075
 30
0.0
 11
914.199659
 21
-82.046075
 31
0.0
  0
LINE
  8
0
  6
BYLAYER
 62
     7
 10
922.199659
 20
-82.046075
 30
0.0
 11
922.199659
 21
-74.046075
 31
0.0
  0
LINE
  8
0
  6
BYLAYER
 62
     7
 10
914.199659
 20
-82.046075
 30
0.0
 11
922.199659
 21
-82.046075
 31
0.0
  0
LINE
  8
0
  6
BYLAYER
 62
     7
 10
914.199659
 20
-74.046075
 30
0.0
 11
922.199659
 21
-74.046075
 31
0.0
  0
LINE
  8
0
  6
BYLAYER
 62
     7
 10
984.199659
 20
-152.046075
 30
0.0
 11
992.199659
 21
-152.046075
 31
0.0
  0
LINE
  8
0
  6
BYLAYER
 62
     7
 10
984.199659
 20
-144.046075
 30
0.0
 11
984.199659
 21
-152.046075
 31
0.0
  0
LINE
  8
0
  6
BYLAYER
 62
     7
 10
984.199659
 20
-144.046075
 30
0.0
 11
992.199659
 21
-144.046075
 31
0.0
  0
LINE
  8
0
  6
BYLAYER
 62
     7
 10
992.199659
 20
-152.046075
 30
0.0
 11
992.199659
 21
-144.046075
 31
0.0
  0
LINE
  8
0
  6
BYLAYER
 62
     7
 10
934.199659
 20
-84.046075
 30
0.0
 11
934.199659
 21
-92.046075
 31
0.0
  0
LINE
  8
0
  6
BYLAYER
 62
     7
 10
934.199659
 20
-92.046075
 30
0.0
 11
942.199659
 21
-92.046075
 31
0.0
  0
LINE
  8
0
  6
BYLAYER
 62
     7
 10
934.199659
 20
-84.046075
 30
0.0
 11
942.199659
 21
-84.046075
 31
0.0
  0
LINE
  8
0
  6
BYLAYER
 62
     7
 10
942.199659
 20
-92.046075
 30
0.0
 11
942.199659
 21
-84.046075
 31
0.0
  0
LINE
  8
0
  6
BYLAYER
 62
     7
 10
974.199659
 20
-124.046075
 30
0.0
 11
974.199659
 21
-132.046075
 31
0.0
  0
LINE
  8
0
  6
BYLAYER
 62
     7
 10
974.199659
 20
-132.046075
 30
0.0
 11
982.199659
 21
-132.046075
 31
0.0
  0
LINE
  8
0
  6
BYLAYER
 62
     7
 10
974.199659
 20
-124.046075
 30
0.0
 11
982.199659
 21
-124.046075
 31
0.0
  0
LINE
  8
0
  6
BYLAYER
 62
     7
 10
982.199659
 20
-132.046075
 30
0.0
 11
982.199659
 21
-124.046075
 31
0.0
  0
CIRCLE
  8
0
  6
BYLAYER
 62
     7
 10
913.199659
 20
-153.046075
 30
0.0
 40
84.000549
  0
CIRCLE
  8
0
  6
BYLAYER
 62
     7
 10
913.199659
 20
-153.046075
 30
0.0
 40
105.400549
  0
LINE
  8
0
  6
BYLAYER
 62
     7
 10
944.199659
 20
-84.046075
 30
0.0
 11
944.199659
 21
-92.046075
 31
0.0
  0
LINE
  8
0
  6
BYLAYER
 62
     7
 10
944.199659
 20
-92.046075
 30
0.0
 11
952.199659
 21
-92.046075
 31
0.0
  0
LINE
  8
0
  6
BYLAYER
 62
     7
 10
944.199659
 20
-84.046075
 30
0.0
 11
952.199659
 21
-84.046075
 31
0.0
  0
LINE
  8
0
  6
BYLAYER
 62
     7
 10
952.199659
 20
-92.046075
 30
0.0
 11
952.199659
 21
-84.046075
 31
0.0
  0
LINE
  8
0
  6
BYLAYER
 62
     7
 10
954.199659
 20
-94.046075
 30
0.0
 11
954.199659
 21
-102.046075
 31
0.0
  0
LINE
  8
0
  6
BYLAYER
 62
     7
 10
954.199659
 20
-102.046075
 30
0.0
 11
962.199659
 21
-102.046075
 31
0.0
  0
LINE
  8
0
  6
BYLAYER
 62
     7
 10
954.199659
 20
-94.046075
 30
0.0
 11
962.199659
 21
-94.046075
 31
0.0
  0
LINE
  8
0
  6
BYLAYER
 62
     7
 10
962.199659
 20
-102.046075
 30
0.0
 11
962.199659
 21
-94.046075
 31
0.0
  0
LINE
  8
0
  6
BYLAYER
 62
     7
 10
964.199659
 20
-104.046075
 30
0.0
 11
964.199659
 21
-112.046075
 31
0.0
  0
LINE
  8
0
  6
BYLAYER
 62
     7
 10
964.199659
 20
-112.046075
 30
0.0
 11
972.199659
 21
-112.046075
 31
0.0
  0
LINE
  8
0
  6
BYLAYER
 62
     7
 10
964.199659
 20
-104.046075
 30
0.0
 11
972.199659
 21
-104.046075
 31
0.0
  0
LINE
  8
0
  6
BYLAYER
 62
     7
 10
972.199659
 20
-112.046075
 30
0.0
 11
972.199659
 21
-104.046075
 31
0.0
  0
LINE
  8
0
  6
BYLAYER
 62
     7
 10
974.199659
 20
-114.046075
 30
0.0
 11
974.199659
 21
-122.046075
 31
0.0
  0
LINE
  8
0
  6
BYLAYER
 62
     7
 10
974.199659
 20
-122.046075
 30
0.0
 11
982.199659
 21
-122.046075
 31
0.0
  0
LINE
  8
0
  6
BYLAYER
 62
     7
 10
974.199659
 20
-114.046075
 30
0.0
 11
982.199659
 21
-114.046075
 31
0.0
  0
LINE
  8
0
  6
BYLAYER
 62
     7
 10
982.199659
 20
-122.046075
 30
0.0
 11
982.199659
 21
-114.046075
 31
0.0
  0
LINE
  8
0
  6
BYLAYER
 62
     7
 10
924.199659
 20
-82.046075
 30
0.0
 11
924.199659
 21
-74.046075
 31
0.0
  0
LINE
  8
0
  6
BYLAYER
 62
     7
 10
924.199659
 20
-82.046075
 30
0.0
 11
932.037658
 21
-82.046075
 31
0.0
  0
LINE
  8
0
  6
BYLAYER
 62
     7
 10
924.199659
 20
-74.046075
 30
0.0
 11
932.037658
 21
-74.046075
 31
0.0
  0
LINE
  8
0
  6
BYLAYER
 62
     7
 10
932.037658
 20
-82.046075
 30
0.0
 11
932.037658
 21
-74.046075
 31
0.0
  0
LINE
  8
0
  6
BYLAYER
 62
     7
 10
984.199659
 20
-142.046075
 30
0.0
 11
992.199659
 21
-142.046075
 31
0.0
  0
LINE
  8
0
  6
BYLAYER
 62
     7
 10
984.199659
 20
-134.046075
 30
0.0
 11
984.199659
 21
-142.046075
 31
0.0
  0
LINE
  8
0
  6
BYLAYER
 62
     7
 10
984.199659
 20
-134.046075
 30
0.0
 11
992.199659
 21
-134.046075
 31
0.0
  0
LINE
  8
0
  6
BYLAYER
 62
     7
 10
992.199659
 20
-142.046075
 30
0.0
 11
992.199659
 21
-134.046075
 31
0.0
  0
LINE
  8
0
  6
BYLAYER
 62
     7
 10
914.199659
 20
-182.046075
 30
0.0
 11
914.199659
 21
-174.046075
 31
0.0
  0
LINE
  8
0
  6
BYLAYER
 62
     7
 10
914.199659
 20
-192.046075
 30
0.0
 11
914.199659
 21
-184.046075
 31
0.0
  0
LINE
  8
0
  6
BYLAYER
 62
     7
 10
922.199659
 20
-184.046075
 30
0.0
 11
922.199659
 21
-192.046075
 31
0.0
  0
LINE
  8
0
  6
BYLAYER
 62
     7
 10
924.199659
 20
-184.046075
 30
0.0
 11
924.199659
 21
-192.046075
 31
0.0
  0
LINE
  8
0
  6
BYLAYER
 62
     7
 10
914.199659
 20
-174.046075
 30
0.0
 11
922.199659
 21
-174.046075
 31
0.0
  0
LINE
  8
0
  6
BYLAYER
 62
     7
 10
914.199659
 20
-182.046075
 30
0.0
 11
922.199659
 21
-182.046075
 31
0.0
  0
LINE
  8
0
  6
BYLAYER
 62
     7
 10
924.199659
 20
-184.046075
 30
0.0
 11
932.037658
 21
-184.046075
 31
0.0
  0
LINE
  8
0
  6
BYLAYER
 62
     7
 10
914.199659
 20
-184.046075
 30
0.0
 11
922.199659
 21
-184.046075
 31
0.0
  0
LINE
  8
0
  6
BYLAYER
 62
     7
 10
924.199659
 20
-192.046075
 30
0.0
 11
932.037658
 21
-192.046075
 31
0.0
  0
LINE
  8
0
  6
BYLAYER
 62
     7
 10
914.199659
 20
-192.046075
 30
0.0
 11
922.199659
 21
-192.046075
 31
0.0
  0
LINE
  8
0
  6
BYLAYER
 62
     7
 10
932.037658
 20
-184.046075
 30
0.0
 11
932.037658
 21
-192.046075
 31
0.0
  0
LINE
  8
0
  6
BYLAYER
 62
     7
 10
922.199659
 20
-174.046075
 30
0.0
 11
922.199659
 21
-182.046075
 31
0.0
  0
LINE
  8
0
  6
BYLAYER
 62
     7
 10
924.199659
 20
-182.046075
 30
0.0
 11
924.199659
 21
-174.046075
 31
0.0
  0
LINE
  8
0
  6
BYLAYER
 62
     7
 10
924.199659
 20
-174.046075
 30
0.0
 11
932.199659
 21
-174.046075
 31
0.0
  0
LINE
  8
0
  6
BYLAYER
 62
     7
 10
924.199659
 20
-182.046075
 30
0.0
 11
932.199659
 21
-182.046075
 31
0.0
  0
LINE
  8
0
  6
BYLAYER
 62
     7
 10
932.199659
 20
-174.046075
 30
0.0
 11
932.199659
 21
-182.046075
 31
0.0
  0
LINE
  8
0
  6
BYLAYER
 62
     7
 10
934.199659
 20
-164.046075
 30
0.0
 11
942.199659
 21
-164.046075
 31
0.0
  0
LINE
  8
0
  6
BYLAYER
 62
     7
 10
934.199659
 20
-182.046075
 30
0.0
 11
934.199659
 21
-174.046075
 31
0.0
  0
LINE
  8
0
  6
BYLAYER
 62
     7
 10
934.199659
 20
-172.046075
 30
0.0
 11
934.199659
 21
-164.046075
 31
0.0
  0
LINE
  8
0
  6
BYLAYER
 62
     7
 10
934.199659
 20
-172.046075
 30
0.0
 11
942.199659
 21
-172.046075
 31
0.0
  0
LINE
  8
0
  6
BYLAYER
 62
     7
 10
934.199659
 20
-174.046075
 30
0.0
 11
942.199659
 21
-174.046075
 31
0.0
  0
LINE
  8
0
  6
BYLAYER
 62
     7
 10
934.199659
 20
-182.046075
 30
0.0
 11
942.199659
 21
-182.046075
 31
0.0
  0
LINE
  8
0
  6
BYLAYER
 62
     7
 10
942.199659
 20
-164.046075
 30
0.0
 11
942.199659
 21
-172.046075
 31
0.0
  0
LINE
  8
0
  6
BYLAYER
 62
     7
 10
942.199659
 20
-174.046075
 30
0.0
 11
942.199659
 21
-182.046075
 31
0.0
  0
LINE
  8
0
  6
BYLAYER
 62
     7
 10
934.199659
 20
-154.046075
 30
0.0
 11
942.199659
 21
-154.046075
 31
0.0
  0
LINE
  8
0
  6
BYLAYER
 62
     7
 10
934.199659
 20
-162.046075
 30
0.0
 11
934.199659
 21
-154.046075
 31
0.0
  0
LINE
  8
0
  6
BYLAYER
 62
     7
 10
934.199659
 20
-162.046075
 30
0.0
 11
942.199659
 21
-162.046075
 31
0.0
  0
LINE
  8
0
  6
BYLAYER
 62
     7
 10
942.199659
 20
-154.046075
 30
0.0
 11
942.199659
 21
-162.046075
 31
0.0
  0
LINE
  8
0
  6
BYLAYER
 62
     7
 10
944.199659
 20
-164.046075
 30
0.0
 11
952.199659
 21
-164.046075
 31
0.0
  0
LINE
  8
0
  6
BYLAYER
 62
     7
 10
944.199659
 20
-172.046075
 30
0.0
 11
944.199659
 21
-164.046075
 31
0.0
  0
LINE
  8
0
  6
BYLAYER
 62
     7
 10
944.199659
 20
-172.046075
 30
0.0
 11
952.199659
 21
-172.046075
 31
0.0
  0
LINE
  8
0
  6
BYLAYER
 62
     7
 10
952.199659
 20
-164.046075
 30
0.0
 11
952.199659
 21
-172.046075
 31
0.0
  0
LINE
  8
0
  6
BYLAYER
 62
     7
 10
944.199659
 20
-154.046075
 30
0.0
 11
952.199659
 21
-154.046075
 31
0.0
  0
LINE
  8
0
  6
BYLAYER
 62
     7
 10
944.199659
 20
-162.046075
 30
0.0
 11
944.199659
 21
-154.046075
 31
0.0
  0
LINE
  8
0
  6
BYLAYER
 62
     7
 10
944.199659
 20
-162.046075
 30
0.0
 11
952.199659
 21
-162.046075
 31
0.0
  0
LINE
  8
0
  6
BYLAYER
 62
     7
 10
952.199659
 20
-154.046075
 30
0.0
 11
952.199659
 21
-162.046075
 31
0.0
  0
LINE
  8
0
  6
BYLAYER
 62
     7
 10
954.199659
 20
-164.046075
 30
0.0
 11
962.199659
 21
-164.046075
 31
0.0
  0
LINE
  8
0
  6
BYLAYER
 62
     7
 10
954.199659
 20
-172.046075
 30
0.0
 11
954.199659
 21
-164.046075
 31
0.0
  0
LINE
  8
0
  6
BYLAYER
 62
     7
 10
954.199659
 20
-172.046075
 30
0.0
 11
962.199659
 21
-172.046075
 31
0.0
  0
LINE
  8
0
  6
BYLAYER
 62
     7
 10
962.199659
 20
-164.046075
 30
0.0
 11
962.199659
 21
-172.046075
 31
0.0
  0
LINE
  8
0
  6
BYLAYER
 62
     7
 10
954.199659
 20
-154.046075
 30
0.0
 11
962.199659
 21
-154.046075
 31
0.0
  0
LINE
  8
0
  6
BYLAYER
 62
     7
 10
954.199659
 20
-162.046075
 30
0.0
 11
954.199659
 21
-154.046075
 31
0.0
  0
LINE
  8
0
  6
BYLAYER
 62
     7
 10
954.199659
 20
-162.046075
 30
0.0
 11
962.199659
 21
-162.046075
 31
0.0
  0
LINE
  8
0
  6
BYLAYER
 62
     7
 10
962.199659
 20
-154.046075
 30
0.0
 11
962.199659
 21
-162.046075
 31
0.0
  0
LINE
  8
0
  6
BYLAYER
 62
     7
 10
914.199659
 20
-202.046075
 30
0.0
 11
914.199659
 21
-194.046075
 31
0.0
  0
LINE
  8
0
  6
BYLAYER
 62
     7
 10
922.199659
 20
-194.046075
 30
0.0
 11
922.199659
 21
-202.046075
 31
0.0
  0
LINE
  8
0
  6
BYLAYER
 62
     7
 10
924.199659
 20
-194.046075
 30
0.0
 11
924.199659
 21
-202.046075
 31
0.0
  0
LINE
  8
0
  6
BYLAYER
 62
     7
 10
924.199659
 20
-194.046075
 30
0.0
 11
932.037658
 21
-194.046075
 31
0.0
  0
LINE
  8
0
  6
BYLAYER
 62
     7
 10
914.199659
 20
-194.046075
 30
0.0
 11
922.199659
 21
-194.046075
 31
0.0
  0
LINE
  8
0
  6
BYLAYER
 62
     7
 10
924.199659
 20
-202.046075
 30
0.0
 11
932.037658
 21
-202.046075
 31
0.0
  0
LINE
  8
0
  6
BYLAYER
 62
     7
 10
914.199659
 20
-202.046075
 30
0.0
 11
922.199659
 21
-202.046075
 31
0.0
  0
LINE
  8
0
  6
BYLAYER
 62
     7
 10
932.037658
 20
-194.046075
 30
0.0
 11
932.037658
 21
-202.046075
 31
0.0
  0
LINE
  8
0
  6
BYLAYER
 62
     7
 10
934.199659
 20
-192.046075
 30
0.0
 11
934.199659
 21
-184.046075
 31
0.0
  0
LINE
  8
0
  6
BYLAYER
 62
     7
 10
934.199659
 20
-184.046075
 30
0.0
 11
942.199659
 21
-184.046075
 31
0.0
  0
LINE
  8
0
  6
BYLAYER
 62
     7
 10
934.199659
 20
-192.046075
 30
0.0
 11
942.199659
 21
-192.046075
 31
0.0
  0
LINE
  8
0
  6
BYLAYER
 62
     7
 10
942.199659
 20
-184.046075
 30
0.0
 11
942.199659
 21
-192.046075
 31
0.0
  0
LINE
  8
0
  6
BYLAYER
 62
     7
 10
934.199659
 20
-202.046075
 30
0.0
 11
934.199659
 21
-194.046075
 31
0.0
  0
LINE
  8
0
  6
BYLAYER
 62
     7
 10
934.199659
 20
-194.046075
 30
0.0
 11
942.199659
 21
-194.046075
 31
0.0
  0
LINE
  8
0
  6
BYLAYER
 62
     7
 10
934.199659
 20
-202.046075
 30
0.0
 11
942.199659
 21
-202.046075
 31
0.0
  0
LINE
  8
0
  6
BYLAYER
 62
     7
 10
942.199659
 20
-194.046075
 30
0.0
 11
942.199659
 21
-202.046075
 31
0.0
  0
LINE
  8
0
  6
BYLAYER
 62
     7
 10
944.199659
 20
-182.046075
 30
0.0
 11
944.199659
 21
-174.046075
 31
0.0
  0
LINE
  8
0
  6
BYLAYER
 62
     7
 10
944.199659
 20
-174.046075
 30
0.0
 11
952.199659
 21
-174.046075
 31
0.0
  0
LINE
  8
0
  6
BYLAYER
 62
     7
 10
944.199659
 20
-182.046075
 30
0.0
 11
952.199659
 21
-182.046075
 31
0.0
  0
LINE
  8
0
  6
BYLAYER
 62
     7
 10
952.199659
 20
-174.046075
 30
0.0
 11
952.199659
 21
-182.046075
 31
0.0
  0
LINE
  8
0
  6
BYLAYER
 62
     7
 10
944.199659
 20
-192.046075
 30
0.0
 11
944.199659
 21
-184.046075
 31
0.0
  0
LINE
  8
0
  6
BYLAYER
 62
     7
 10
944.199659
 20
-184.046075
 30
0.0
 11
952.199659
 21
-184.046075
 31
0.0
  0
LINE
  8
0
  6
BYLAYER
 62
     7
 10
944.199659
 20
-192.046075
 30
0.0
 11
952.199659
 21
-192.046075
 31
0.0
  0
LINE
  8
0
  6
BYLAYER
 62
     7
 10
952.199659
 20
-184.046075
 30
0.0
 11
952.199659
 21
-192.046075
 31
0.0
  0
LINE
  8
0
  6
BYLAYER
 62
     7
 10
954.199659
 20
-182.046075
 30
0.0
 11
954.199659
 21
-174.046075
 31
0.0
  0
LINE
  8
0
  6
BYLAYER
 62
     7
 10
954.199659
 20
-174.046075
 30
0.0
 11
962.199659
 21
-174.046075
 31
0.0
  0
LINE
  8
0
  6
BYLAYER
 62
     7
 10
954.199659
 20
-182.046075
 30
0.0
 11
962.199659
 21
-182.046075
 31
0.0
  0
LINE
  8
0
  6
BYLAYER
 62
     7
 10
962.199659
 20
-174.046075
 30
0.0
 11
962.199659
 21
-182.046075
 31
0.0
  0
LINE
  8
0
  6
BYLAYER
 62
     7
 10
964.199659
 20
-164.046075
 30
0.0
 11
972.199659
 21
-164.046075
 31
0.0
  0
LINE
  8
0
  6
BYLAYER
 62
     7
 10
964.199659
 20
-172.046075
 30
0.0
 11
964.199659
 21
-164.046075
 31
0.0
  0
LINE
  8
0
  6
BYLAYER
 62
     7
 10
964.199659
 20
-172.046075
 30
0.0
 11
972.199659
 21
-172.046075
 31
0.0
  0
LINE
  8
0
  6
BYLAYER
 62
     7
 10
972.199659
 20
-164.046075
 30
0.0
 11
972.199659
 21
-172.046075
 31
0.0
  0
LINE
  8
0
  6
BYLAYER
 62
     7
 10
964.199659
 20
-154.046075
 30
0.0
 11
972.199659
 21
-154.046075
 31
0.0
  0
LINE
  8
0
  6
BYLAYER
 62
     7
 10
964.199659
 20
-162.046075
 30
0.0
 11
964.199659
 21
-154.046075
 31
0.0
  0
LINE
  8
0
  6
BYLAYER
 62
     7
 10
964.199659
 20
-162.046075
 30
0.0
 11
972.199659
 21
-162.046075
 31
0.0
  0
LINE
  8
0
  6
BYLAYER
 62
     7
 10
972.199659
 20
-154.046075
 30
0.0
 11
972.199659
 21
-162.046075
 31
0.0
  0
LINE
  8
0
  6
BYLAYER
 62
     7
 10
964.199659
 20
-182.046075
 30
0.0
 11
964.199659
 21
-174.046075
 31
0.0
  0
LINE
  8
0
  6
BYLAYER
 62
     7
 10
964.199659
 20
-174.046075
 30
0.0
 11
972.199659
 21
-174.046075
 31
0.0
  0
LINE
  8
0
  6
BYLAYER
 62
     7
 10
964.199659
 20
-182.046075
 30
0.0
 11
972.199659
 21
-182.046075
 31
0.0
  0
LINE
  8
0
  6
BYLAYER
 62
     7
 10
972.199659
 20
-174.046075
 30
0.0
 11
972.199659
 21
-182.046075
 31
0.0
  0
LINE
  8
0
  6
BYLAYER
 62
     7
 10
914.199659
 20
-212.046075
 30
0.0
 11
914.199659
 21
-204.046075
 31
0.0
  0
LINE
  8
0
  6
BYLAYER
 62
     7
 10
922.199659
 20
-204.046075
 30
0.0
 11
922.199659
 21
-212.046075
 31
0.0
  0
LINE
  8
0
  6
BYLAYER
 62
     7
 10
924.199659
 20
-204.046075
 30
0.0
 11
924.199659
 21
-212.046075
 31
0.0
  0
LINE
  8
0
  6
BYLAYER
 62
     7
 10
924.199659
 20
-204.046075
 30
0.0
 11
932.037658
 21
-204.046075
 31
0.0
  0
LINE
  8
0
  6
BYLAYER
 62
     7
 10
914.199659
 20
-204.046075
 30
0.0
 11
922.199659
 21
-204.046075
 31
0.0
  0
LINE
  8
0
  6
BYLAYER
 62
     7
 10
924.199659
 20
-212.046075
 30
0.0
 11
932.037658
 21
-212.046075
 31
0.0
  0
LINE
  8
0
  6
BYLAYER
 62
     7
 10
914.199659
 20
-212.046075
 30
0.0
 11
922.199659
 21
-212.046075
 31
0.0
  0
LINE
  8
0
  6
BYLAYER
 62
     7
 10
932.037658
 20
-204.046075
 30
0.0
 11
932.037658
 21
-212.046075
 31
0.0
  0
LINE
  8
0
  6
BYLAYER
 62
     7
 10
934.199659
 20
-212.046075
 30
0.0
 11
934.199659
 21
-204.046075
 31
0.0
  0
LINE
  8
0
  6
BYLAYER
 62
     7
 10
934.199659
 20
-204.046075
 30
0.0
 11
942.199659
 21
-204.046075
 31
0.0
  0
LINE
  8
0
  6
BYLAYER
 62
     7
 10
934.199659
 20
-212.046075
 30
0.0
 11
942.199659
 21
-212.046075
 31
0.0
  0
LINE
  8
0
  6
BYLAYER
 62
     7
 10
942.199659
 20
-204.046075
 30
0.0
 11
942.199659
 21
-212.046075
 31
0.0
  0
LINE
  8
0
  6
BYLAYER
 62
     7
 10
944.199659
 20
-202.046075
 30
0.0
 11
944.199659
 21
-194.046075
 31
0.0
  0
LINE
  8
0
  6
BYLAYER
 62
     7
 10
944.199659
 20
-194.046075
 30
0.0
 11
952.199659
 21
-194.046075
 31
0.0
  0
LINE
  8
0
  6
BYLAYER
 62
     7
 10
944.199659
 20
-202.046075
 30
0.0
 11
952.199659
 21
-202.046075
 31
0.0
  0
LINE
  8
0
  6
BYLAYER
 62
     7
 10
952.199659
 20
-194.046075
 30
0.0
 11
952.199659
 21
-202.046075
 31
0.0
  0
LINE
  8
0
  6
BYLAYER
 62
     7
 10
954.199659
 20
-192.046075
 30
0.0
 11
954.199659
 21
-184.046075
 31
0.0
  0
LINE
  8
0
  6
BYLAYER
 62
     7
 10
954.199659
 20
-184.046075
 30
0.0
 11
962.199659
 21
-184.046075
 31
0.0
  0
LINE
  8
0
  6
BYLAYER
 62
     7
 10
954.199659
 20
-192.046075
 30
0.0
 11
962.199659
 21
-192.046075
 31
0.0
  0
LINE
  8
0
  6
BYLAYER
 62
     7
 10
962.199659
 20
-184.046075
 30
0.0
 11
962.199659
 21
-192.046075
 31
0.0
  0
LINE
  8
0
  6
BYLAYER
 62
     7
 10
914.199659
 20
-222.046075
 30
0.0
 11
914.199659
 21
-214.046075
 31
0.0
  0
LINE
  8
0
  6
BYLAYER
 62
     7
 10
922.199659
 20
-214.046075
 30
0.0
 11
922.199659
 21
-222.046075
 31
0.0
  0
LINE
  8
0
  6
BYLAYER
 62
     7
 10
924.199659
 20
-214.046075
 30
0.0
 11
924.199659
 21
-222.046075
 31
0.0
  0
LINE
  8
0
  6
BYLAYER
 62
     7
 10
924.199659
 20
-214.046075
 30
0.0
 11
932.037658
 21
-214.046075
 31
0.0
  0
LINE
  8
0
  6
BYLAYER
 62
     7
 10
914.199659
 20
-214.046075
 30
0.0
 11
922.199659
 21
-214.046075
 31
0.0
  0
LINE
  8
0
  6
BYLAYER
 62
     7
 10
924.199659
 20
-222.046075
 30
0.0
 11
932.037658
 21
-222.046075
 31
0.0
  0
LINE
  8
0
  6
BYLAYER
 62
     7
 10
914.199659
 20
-222.046075
 30
0.0
 11
922.199659
 21
-222.046075
 31
0.0
  0
LINE
  8
0
  6
BYLAYER
 62
     7
 10
932.037658
 20
-214.046075
 30
0.0
 11
932.037658
 21
-222.046075
 31
0.0
  0
LINE
  8
0
  6
BYLAYER
 62
     7
 10
974.199659
 20
-164.046075
 30
0.0
 11
982.199659
 21
-164.046075
 31
0.0
  0
LINE
  8
0
  6
BYLAYER
 62
     7
 10
974.199659
 20
-172.046075
 30
0.0
 11
974.199659
 21
-164.046075
 31
0.0
  0
LINE
  8
0
  6
BYLAYER
 62
     7
 10
974.199659
 20
-172.046075
 30
0.0
 11
982.199659
 21
-172.046075
 31
0.0
  0
LINE
  8
0
  6
BYLAYER
 62
     7
 10
982.199659
 20
-164.046075
 30
0.0
 11
982.199659
 21
-172.046075
 31
0.0
  0
LINE
  8
0
  6
BYLAYER
 62
     7
 10
974.199659
 20
-154.046075
 30
0.0
 11
982.199659
 21
-154.046075
 31
0.0
  0
LINE
  8
0
  6
BYLAYER
 62
     7
 10
974.199659
 20
-162.046075
 30
0.0
 11
974.199659
 21
-154.046075
 31
0.0
  0
LINE
  8
0
  6
BYLAYER
 62
     7
 10
974.199659
 20
-162.046075
 30
0.0
 11
982.199659
 21
-162.046075
 31
0.0
  0
LINE
  8
0
  6
BYLAYER
 62
     7
 10
982.199659
 20
-154.046075
 30
0.0
 11
982.199659
 21
-162.046075
 31
0.0
  0
LINE
  8
0
  6
BYLAYER
 62
     7
 10
944.199659
 20
-212.046075
 30
0.0
 11
944.199659
 21
-204.046075
 31
0.0
  0
LINE
  8
0
  6
BYLAYER
 62
     7
 10
944.199659
 20
-204.046075
 30
0.0
 11
952.199659
 21
-204.046075
 31
0.0
  0
LINE
  8
0
  6
BYLAYER
 62
     7
 10
944.199659
 20
-212.046075
 30
0.0
 11
952.199659
 21
-212.046075
 31
0.0
  0
LINE
  8
0
  6
BYLAYER
 62
     7
 10
952.199659
 20
-204.046075
 30
0.0
 11
952.199659
 21
-212.046075
 31
0.0
  0
LINE
  8
0
  6
BYLAYER
 62
     7
 10
954.199659
 20
-202.046075
 30
0.0
 11
954.199659
 21
-194.046075
 31
0.0
  0
LINE
  8
0
  6
BYLAYER
 62
     7
 10
954.199659
 20
-194.046075
 30
0.0
 11
962.199659
 21
-194.046075
 31
0.0
  0
LINE
  8
0
  6
BYLAYER
 62
     7
 10
954.199659
 20
-202.046075
 30
0.0
 11
962.199659
 21
-202.046075
 31
0.0
  0
LINE
  8
0
  6
BYLAYER
 62
     7
 10
962.199659
 20
-194.046075
 30
0.0
 11
962.199659
 21
-202.046075
 31
0.0
  0
LINE
  8
0
  6
BYLAYER
 62
     7
 10
964.199659
 20
-192.046075
 30
0.0
 11
964.199659
 21
-184.046075
 31
0.0
  0
LINE
  8
0
  6
BYLAYER
 62
     7
 10
964.199659
 20
-184.046075
 30
0.0
 11
972.199659
 21
-184.046075
 31
0.0
  0
LINE
  8
0
  6
BYLAYER
 62
     7
 10
964.199659
 20
-192.046075
 30
0.0
 11
972.199659
 21
-192.046075
 31
0.0
  0
LINE
  8
0
  6
BYLAYER
 62
     7
 10
972.199659
 20
-184.046075
 30
0.0
 11
972.199659
 21
-192.046075
 31
0.0
  0
LINE
  8
0
  6
BYLAYER
 62
     7
 10
914.199659
 20
-232.046075
 30
0.0
 11
914.199659
 21
-224.046075
 31
0.0
  0
LINE
  8
0
  6
BYLAYER
 62
     7
 10
922.199659
 20
-224.046075
 30
0.0
 11
922.199659
 21
-232.046075
 31
0.0
  0
LINE
  8
0
  6
BYLAYER
 62
     7
 10
914.199659
 20
-224.046075
 30
0.0
 11
922.199659
 21
-224.046075
 31
0.0
  0
LINE
  8
0
  6
BYLAYER
 62
     7
 10
914.199659
 20
-232.046075
 30
0.0
 11
922.199659
 21
-232.046075
 31
0.0
  0
LINE
  8
0
  6
BYLAYER
 62
     7
 10
984.199659
 20
-154.046075
 30
0.0
 11
992.199659
 21
-154.046075
 31
0.0
  0
LINE
  8
0
  6
BYLAYER
 62
     7
 10
984.199659
 20
-162.046075
 30
0.0
 11
984.199659
 21
-154.046075
 31
0.0
  0
LINE
  8
0
  6
BYLAYER
 62
     7
 10
984.199659
 20
-162.046075
 30
0.0
 11
992.199659
 21
-162.046075
 31
0.0
  0
LINE
  8
0
  6
BYLAYER
 62
     7
 10
992.199659
 20
-154.046075
 30
0.0
 11
992.199659
 21
-162.046075
 31
0.0
  0
LINE
  8
0
  6
BYLAYER
 62
     7
 10
934.199659
 20
-222.046075
 30
0.0
 11
934.199659
 21
-214.046075
 31
0.0
  0
LINE
  8
0
  6
BYLAYER
 62
     7
 10
934.199659
 20
-214.046075
 30
0.0
 11
942.199659
 21
-214.046075
 31
0.0
  0
LINE
  8
0
  6
BYLAYER
 62
     7
 10
934.199659
 20
-222.046075
 30
0.0
 11
942.199659
 21
-222.046075
 31
0.0
  0
LINE
  8
0
  6
BYLAYER
 62
     7
 10
942.199659
 20
-214.046075
 30
0.0
 11
942.199659
 21
-222.046075
 31
0.0
  0
LINE
  8
0
  6
BYLAYER
 62
     7
 10
974.199659
 20
-182.046075
 30
0.0
 11
974.199659
 21
-174.046075
 31
0.0
  0
LINE
  8
0
  6
BYLAYER
 62
     7
 10
974.199659
 20
-174.046075
 30
0.0
 11
982.199659
 21
-174.046075
 31
0.0
  0
LINE
  8
0
  6
BYLAYER
 62
     7
 10
974.199659
 20
-182.046075
 30
0.0
 11
982.199659
 21
-182.046075
 31
0.0
  0
LINE
  8
0
  6
BYLAYER
 62
     7
 10
982.199659
 20
-174.046075
 30
0.0
 11
982.199659
 21
-182.046075
 31
0.0
  0
LINE
  8
0
  6
BYLAYER
 62
     7
 10
944.199659
 20
-222.046075
 30
0.0
 11
944.199659
 21
-214.046075
 31
0.0
  0
LINE
  8
0
  6
BYLAYER
 62
     7
 10
944.199659
 20
-214.046075
 30
0.0
 11
952.199659
 21
-214.046075
 31
0.0
  0
LINE
  8
0
  6
BYLAYER
 62
     7
 10
944.199659
 20
-222.046075
 30
0.0
 11
952.199659
 21
-222.046075
 31
0.0
  0
LINE
  8
0
  6
BYLAYER
 62
     7
 10
952.199659
 20
-214.046075
 30
0.0
 11
952.199659
 21
-222.046075
 31
0.0
  0
LINE
  8
0
  6
BYLAYER
 62
     7
 10
954.199659
 20
-212.046075
 30
0.0
 11
954.199659
 21
-204.046075
 31
0.0
  0
LINE
  8
0
  6
BYLAYER
 62
     7
 10
954.199659
 20
-204.046075
 30
0.0
 11
962.199659
 21
-204.046075
 31
0.0
  0
LINE
  8
0
  6
BYLAYER
 62
     7
 10
954.199659
 20
-212.046075
 30
0.0
 11
962.199659
 21
-212.046075
 31
0.0
  0
LINE
  8
0
  6
BYLAYER
 62
     7
 10
962.199659
 20
-204.046075
 30
0.0
 11
962.199659
 21
-212.046075
 31
0.0
  0
LINE
  8
0
  6
BYLAYER
 62
     7
 10
964.199659
 20
-202.046075
 30
0.0
 11
964.199659
 21
-194.046075
 31
0.0
  0
LINE
  8
0
  6
BYLAYER
 62
     7
 10
964.199659
 20
-194.046075
 30
0.0
 11
972.199659
 21
-194.046075
 31
0.0
  0
LINE
  8
0
  6
BYLAYER
 62
     7
 10
964.199659
 20
-202.046075
 30
0.0
 11
972.199659
 21
-202.046075
 31
0.0
  0
LINE
  8
0
  6
BYLAYER
 62
     7
 10
972.199659
 20
-194.046075
 30
0.0
 11
972.199659
 21
-202.046075
 31
0.0
  0
LINE
  8
0
  6
BYLAYER
 62
     7
 10
974.199659
 20
-192.046075
 30
0.0
 11
974.199659
 21
-184.046075
 31
0.0
  0
LINE
  8
0
  6
BYLAYER
 62
     7
 10
974.199659
 20
-184.046075
 30
0.0
 11
982.199659
 21
-184.046075
 31
0.0
  0
LINE
  8
0
  6
BYLAYER
 62
     7
 10
974.199659
 20
-192.046075
 30
0.0
 11
982.199659
 21
-192.046075
 31
0.0
  0
LINE
  8
0
  6
BYLAYER
 62
     7
 10
982.199659
 20
-184.046075
 30
0.0
 11
982.199659
 21
-192.046075
 31
0.0
  0
LINE
  8
0
  6
BYLAYER
 62
     7
 10
924.199659
 20
-224.046075
 30
0.0
 11
924.199659
 21
-232.046075
 31
0.0
  0
LINE
  8
0
  6
BYLAYER
 62
     7
 10
924.199659
 20
-224.046075
 30
0.0
 11
932.037658
 21
-224.046075
 31
0.0
  0
LINE
  8
0
  6
BYLAYER
 62
     7
 10
924.199659
 20
-232.046075
 30
0.0
 11
932.037658
 21
-232.046075
 31
0.0
  0
LINE
  8
0
  6
BYLAYER
 62
     7
 10
932.037658
 20
-224.046075
 30
0.0
 11
932.037658
 21
-232.046075
 31
0.0
  0
LINE
  8
0
  6
BYLAYER
 62
     7
 10
984.199659
 20
-164.046075
 30
0.0
 11
992.199659
 21
-164.046075
 31
0.0
  0
LINE
  8
0
  6
BYLAYER
 62
     7
 10
984.199659
 20
-172.046075
 30
0.0
 11
984.199659
 21
-164.046075
 31
0.0
  0
LINE
  8
0
  6
BYLAYER
 62
     7
 10
984.199659
 20
-172.046075
 30
0.0
 11
992.199659
 21
-172.046075
 31
0.0
  0
LINE
  8
0
  6
BYLAYER
 62
     7
 10
992.199659
 20
-164.046075
 30
0.0
 11
992.199659
 21
-172.046075
 31
0.0
  0
LINE
  8
0
  6
BYLAYER
 62
     7
 10
912.199659
 20
-124.046075
 30
0.0
 11
912.199659
 21
-132.046075
 31
0.0
  0
LINE
  8
0
  6
BYLAYER
 62
     7
 10
912.199659
 20
-114.046075
 30
0.0
 11
912.199659
 21
-122.046075
 31
0.0
  0
LINE
  8
0
  6
BYLAYER
 62
     7
 10
904.199659
 20
-122.046075
 30
0.0
 11
904.199659
 21
-114.046075
 31
0.0
  0
LINE
  8
0
  6
BYLAYER
 62
     7
 10
902.199659
 20
-122.046075
 30
0.0
 11
902.199659
 21
-114.046075
 31
0.0
  0
LINE
  8
0
  6
BYLAYER
 62
     7
 10
912.199659
 20
-132.046075
 30
0.0
 11
904.199659
 21
-132.046075
 31
0.0
  0
LINE
  8
0
  6
BYLAYER
 62
     7
 10
912.199659
 20
-124.046075
 30
0.0
 11
904.199659
 21
-124.046075
 31
0.0
  0
LINE
  8
0
  6
BYLAYER
 62
     7
 10
902.199659
 20
-122.046075
 30
0.0
 11
894.361660
 21
-122.046075
 31
0.0
  0
LINE
  8
0
  6
BYLAYER
 62
     7
 10
912.199659
 20
-122.046075
 30
0.0
 11
904.199659
 21
-122.046075
 31
0.0
  0
LINE
  8
0
  6
BYLAYER
 62
     7
 10
902.199659
 20
-114.046075
 30
0.0
 11
894.361660
 21
-114.046075
 31
0.0
  0
LINE
  8
0
  6
BYLAYER
 62
     7
 10
912.199659
 20
-114.046075
 30
0.0
 11
904.199659
 21
-114.046075
 31
0.0
  0
LINE
  8
0
  6
BYLAYER
 62
     7
 10
894.361660
 20
-122.046075
 30
0.0
 11
894.361660
 21
-114.046075
 31
0.0
  0
LINE
  8
0
  6
BYLAYER
 62
     7
 10
904.199659
 20
-132.046075
 30
0.0
 11
904.199659
 21
-124.046075
 31
0.0
  0
LINE
  8
0
  6
BYLAYER
 62
     7
 10
902.199659
 20
-124.046075
 30
0.0
 11
902.199659
 21
-132.046075
 31
0.0
  0
LINE
  8
0
  6
BYLAYER
 62
     7
 10
902.199659
 20
-132.046075
 30
0.0
 11
894.199659
 21
-132.046075
 31
0.0
  0
LINE
  8
0
  6
BYLAYER
 62
     7
 10
902.199659
 20
-124.046075
 30
0.0
 11
894.199659
 21
-124.046075
 31
0.0
  0
LINE
  8
0
  6
BYLAYER
 62
     7
 10
894.199659
 20
-132.046075
 30
0.0
 11
894.199659
 21
-124.046075
 31
0.0
  0
LINE
  8
0
  6
BYLAYER
 62
     7
 10
892.199659
 20
-142.046075
 30
0.0
 11
884.199659
 21
-142.046075
 31
0.0
  0
LINE
  8
0
  6
BYLAYER
 62
     7
 10
892.199659
 20
-124.046075
 30
0.0
 11
892.199659
 21
-132.046075
 31
0.0
  0
LINE
  8
0
  6
BYLAYER
 62
     7
 10
892.199659
 20
-134.046075
 30
0.0
 11
892.199659
 21
-142.046075
 31
0.0
  0
LINE
  8
0
  6
BYLAYER
 62
     7
 10
892.199659
 20
-134.046075
 30
0.0
 11
884.199659
 21
-134.046075
 31
0.0
  0
LINE
  8
0
  6
BYLAYER
 62
     7
 10
892.199659
 20
-132.046075
 30
0.0
 11
884.199659
 21
-132.046075
 31
0.0
  0
LINE
  8
0
  6
BYLAYER
 62
     7
 10
892.199659
 20
-124.046075
 30
0.0
 11
884.199659
 21
-124.046075
 31
0.0
  0
LINE
  8
0
  6
BYLAYER
 62
     7
 10
884.199659
 20
-142.046075
 30
0.0
 11
884.199659
 21
-134.046075
 31
0.0
  0
LINE
  8
0
  6
BYLAYER
 62
     7
 10
884.199659
 20
-132.046075
 30
0.0
 11
884.199659
 21
-124.046075
 31
0.0
  0
LINE
  8
0
  6
BYLAYER
 62
     7
 10
892.199659
 20
-152.046075
 30
0.0
 11
884.199659
 21
-152.046075
 31
0.0
  0
LINE
  8
0
  6
BYLAYER
 62
     7
 10
892.199659
 20
-144.046075
 30
0.0
 11
892.199659
 21
-152.046075
 31
0.0
  0
LINE
  8
0
  6
BYLAYER
 62
     7
 10
892.199659
 20
-144.046075
 30
0.0
 11
884.199659
 21
-144.046075
 31
0.0
  0
LINE
  8
0
  6
BYLAYER
 62
     7
 10
884.199659
 20
-152.046075
 30
0.0
 11
884.199659
 21
-144.046075
 31
0.0
  0
LINE
  8
0
  6
BYLAYER
 62
     7
 10
882.199659
 20
-142.046075
 30
0.0
 11
874.199659
 21
-142.046075
 31
0.0
  0
LINE
  8
0
  6
BYLAYER
 62
     7
 10
882.199659
 20
-134.046075
 30
0.0
 11
882.199659
 21
-142.046075
 31
0.0
  0
LINE
  8
0
  6
BYLAYER
 62
     7
 10
882.199659
 20
-134.046075
 30
0.0
 11
874.199659
 21
-134.046075
 31
0.0
  0
LINE
  8
0
  6
BYLAYER
 62
     7
 10
874.199659
 20
-142.046075
 30
0.0
 11
874.199659
 21
-134.046075
 31
0.0
  0
LINE
  8
0
  6
BYLAYER
 62
     7
 10
882.199659
 20
-152.046075
 30
0.0
 11
874.199659
 21
-152.046075
 31
0.0
  0
LINE
  8
0
  6
BYLAYER
 62
     7
 10
882.199659
 20
-144.046075
 30
0.0
 11
882.199659
 21
-152.046075
 31
0.0
  0
LINE
  8
0
  6
BYLAYER
 62
     7
 10
882.199659
 20
-144.046075
 30
0.0
 11
874.199659
 21
-144.046075
 31
0.0
  0
LINE
  8
0
  6
BYLAYER
 62
     7
 10
874.199659
 20
-152.046075
 30
0.0
 11
874.199659
 21
-144.046075
 31
0.0
  0
LINE
  8
0
  6
BYLAYER
 62
     7
 10
872.199659
 20
-142.046075
 30
0.0
 11
864.199659
 21
-142.046075
 31
0.0
  0
LINE
  8
0
  6
BYLAYER
 62
     7
 10
872.199659
 20
-134.046075
 30
0.0
 11
872.199659
 21
-142.046075
 31
0.0
  0
LINE
  8
0
  6
BYLAYER
 62
     7
 10
872.199659
 20
-134.046075
 30
0.0
 11
864.199659
 21
-134.046075
 31
0.0
  0
LINE
  8
0
  6
BYLAYER
 62
     7
 10
864.199659
 20
-142.046075
 30
0.0
 11
864.199659
 21
-134.046075
 31
0.0
  0
LINE
  8
0
  6
BYLAYER
 62
     7
 10
872.199659
 20
-152.046075
 30
0.0
 11
864.199659
 21
-152.046075
 31
0.0
  0
LINE
  8
0
  6
BYLAYER
 62
     7
 10
872.199659
 20
-144.046075
 30
0.0
 11
872.199659
 21
-152.046075
 31
0.0
  0
LINE
  8
0
  6
BYLAYER
 62
     7
 10
872.199659
 20
-144.046075
 30
0.0
 11
864.199659
 21
-144.046075
 31
0.0
  0
LINE
  8
0
  6
BYLAYER
 62
     7
 10
864.199659
 20
-152.046075
 30
0.0
 11
864.199659
 21
-144.046075
 31
0.0
  0
LINE
  8
0
  6
BYLAYER
 62
     7
 10
912.199659
 20
-104.046075
 30
0.0
 11
912.199659
 21
-112.046075
 31
0.0
  0
LINE
  8
0
  6
BYLAYER
 62
     7
 10
904.199659
 20
-112.046075
 30
0.0
 11
904.199659
 21
-104.046075
 31
0.0
  0
LINE
  8
0
  6
BYLAYER
 62
     7
 10
902.199659
 20
-112.046075
 30
0.0
 11
902.199659
 21
-104.046075
 31
0.0
  0
LINE
  8
0
  6
BYLAYER
 62
     7
 10
902.199659
 20
-112.046075
 30
0.0
 11
894.361660
 21
-112.046075
 31
0.0
  0
LINE
  8
0
  6
BYLAYER
 62
     7
 10
912.199659
 20
-112.046075
 30
0.0
 11
904.199659
 21
-112.046075
 31
0.0
  0
LINE
  8
0
  6
BYLAYER
 62
     7
 10
902.199659
 20
-104.046075
 30
0.0
 11
894.361660
 21
-104.046075
 31
0.0
  0
LINE
  8
0
  6
BYLAYER
 62
     7
 10
912.199659
 20
-104.046075
 30
0.0
 11
904.199659
 21
-104.046075
 31
0.0
  0
LINE
  8
0
  6
BYLAYER
 62
     7
 10
894.361660
 20
-112.046075
 30
0.0
 11
894.361660
 21
-104.046075
 31
0.0
  0
LINE
  8
0
  6
BYLAYER
 62
     7
 10
892.199659
 20
-114.046075
 30
0.0
 11
892.199659
 21
-122.046075
 31
0.0
  0
LINE
  8
0
  6
BYLAYER
 62
     7
 10
892.199659
 20
-122.046075
 30
0.0
 11
884.199659
 21
-122.046075
 31
0.0
  0
LINE
  8
0
  6
BYLAYER
 62
     7
 10
892.199659
 20
-114.046075
 30
0.0
 11
884.199659
 21
-114.046075
 31
0.0
  0
LINE
  8
0
  6
BYLAYER
 62
     7
 10
884.199659
 20
-122.046075
 30
0.0
 11
884.199659
 21
-114.046075
 31
0.0
  0
LINE
  8
0
  6
BYLAYER
 62
     7
 10
892.199659
 20
-104.046075
 30
0.0
 11
892.199659
 21
-112.046075
 31
0.0
  0
LINE
  8
0
  6
BYLAYER
 62
     7
 10
892.199659
 20
-112.046075
 30
0.0
 11
884.199659
 21
-112.046075
 31
0.0
  0
LINE
  8
0
  6
BYLAYER
 62
     7
 10
892.199659
 20
-104.046075
 30
0.0
 11
884.199659
 21
-104.046075
 31
0.0
  0
LINE
  8
0
  6
BYLAYER
 62
     7
 10
884.199659
 20
-112.046075
 30
0.0
 11
884.199659
 21
-104.046075
 31
0.0
  0
LINE
  8
0
  6
BYLAYER
 62
     7
 10
882.199659
 20
-124.046075
 30
0.0
 11
882.199659
 21
-132.046075
 31
0.0
  0
LINE
  8
0
  6
BYLAYER
 62
     7
 10
882.199659
 20
-132.046075
 30
0.0
 11
874.199659
 21
-132.046075
 31
0.0
  0
LINE
  8
0
  6
BYLAYER
 62
     7
 10
882.199659
 20
-124.046075
 30
0.0
 11
874.199659
 21
-124.046075
 31
0.0
  0
LINE
  8
0
  6
BYLAYER
 62
     7
 10
874.199659
 20
-132.046075
 30
0.0
 11
874.199659
 21
-124.046075
 31
0.0
  0
LINE
  8
0
  6
BYLAYER
 62
     7
 10
882.199659
 20
-114.046075
 30
0.0
 11
882.199659
 21
-122.046075
 31
0.0
  0
LINE
  8
0
  6
BYLAYER
 62
     7
 10
882.199659
 20
-122.046075
 30
0.0
 11
874.199659
 21
-122.046075
 31
0.0
  0
LINE
  8
0
  6
BYLAYER
 62
     7
 10
882.199659
 20
-114.046075
 30
0.0
 11
874.199659
 21
-114.046075
 31
0.0
  0
LINE
  8
0
  6
BYLAYER
 62
     7
 10
874.199659
 20
-122.046075
 30
0.0
 11
874.199659
 21
-114.046075
 31
0.0
  0
LINE
  8
0
  6
BYLAYER
 62
     7
 10
872.199659
 20
-124.046075
 30
0.0
 11
872.199659
 21
-132.046075
 31
0.0
  0
LINE
  8
0
  6
BYLAYER
 62
     7
 10
872.199659
 20
-132.046075
 30
0.0
 11
864.199659
 21
-132.046075
 31
0.0
  0
LINE
  8
0
  6
BYLAYER
 62
     7
 10
872.199659
 20
-124.046075
 30
0.0
 11
864.199659
 21
-124.046075
 31
0.0
  0
LINE
  8
0
  6
BYLAYER
 62
     7
 10
864.199659
 20
-132.046075
 30
0.0
 11
864.199659
 21
-124.046075
 31
0.0
  0
LINE
  8
0
  6
BYLAYER
 62
     7
 10
862.199659
 20
-142.046075
 30
0.0
 11
854.199659
 21
-142.046075
 31
0.0
  0
LINE
  8
0
  6
BYLAYER
 62
     7
 10
862.199659
 20
-134.046075
 30
0.0
 11
862.199659
 21
-142.046075
 31
0.0
  0
LINE
  8
0
  6
BYLAYER
 62
     7
 10
862.199659
 20
-134.046075
 30
0.0
 11
854.199659
 21
-134.046075
 31
0.0
  0
LINE
  8
0
  6
BYLAYER
 62
     7
 10
854.199659
 20
-142.046075
 30
0.0
 11
854.199659
 21
-134.046075
 31
0.0
  0
LINE
  8
0
  6
BYLAYER
 62
     7
 10
862.199659
 20
-152.046075
 30
0.0
 11
854.199659
 21
-152.046075
 31
0.0
  0
LINE
  8
0
  6
BYLAYER
 62
     7
 10
862.199659
 20
-144.046075
 30
0.0
 11
862.199659
 21
-152.046075
 31
0.0
  0
LINE
  8
0
  6
BYLAYER
 62
     7
 10
862.199659
 20
-144.046075
 30
0.0
 11
854.199659
 21
-144.046075
 31
0.0
  0
LINE
  8
0
  6
BYLAYER
 62
     7
 10
854.199659
 20
-152.046075
 30
0.0
 11
854.199659
 21
-144.046075
 31
0.0
  0
LINE
  8
0
  6
BYLAYER
 62
     7
 10
862.199659
 20
-124.046075
 30
0.0
 11
862.199659
 21
-132.046075
 31
0.0
  0
LINE
  8
0
  6
BYLAYER
 62
     7
 10
862.199659
 20
-132.046075
 30
0.0
 11
854.199659
 21
-132.046075
 31
0.0
  0
LINE
  8
0
  6
BYLAYER
 62
     7
 10
862.199659
 20
-124.046075
 30
0.0
 11
854.199659
 21
-124.046075
 31
0.0
  0
LINE
  8
0
  6
BYLAYER
 62
     7
 10
854.199659
 20
-132.046075
 30
0.0
 11
854.199659
 21
-124.046075
 31
0.0
  0
LINE
  8
0
  6
BYLAYER
 62
     7
 10
912.199659
 20
-94.046075
 30
0.0
 11
912.199659
 21
-102.046075
 31
0.0
  0
LINE
  8
0
  6
BYLAYER
 62
     7
 10
904.199659
 20
-102.046075
 30
0.0
 11
904.199659
 21
-94.046075
 31
0.0
  0
LINE
  8
0
  6
BYLAYER
 62
     7
 10
902.199659
 20
-102.046075
 30
0.0
 11
902.199659
 21
-94.046075
 31
0.0
  0
LINE
  8
0
  6
BYLAYER
 62
     7
 10
902.199659
 20
-102.046075
 30
0.0
 11
894.361660
 21
-102.046075
 31
0.0
  0
LINE
  8
0
  6
BYLAYER
 62
     7
 10
912.199659
 20
-102.046075
 30
0.0
 11
904.199659
 21
-102.046075
 31
0.0
  0
LINE
  8
0
  6
BYLAYER
 62
     7
 10
902.199659
 20
-94.046075
 30
0.0
 11
894.361660
 21
-94.046075
 31
0.0
  0
LINE
  8
0
  6
BYLAYER
 62
     7
 10
912.199659
 20
-94.046075
 30
0.0
 11
904.199659
 21
-94.046075
 31
0.0
  0
LINE
  8
0
  6
BYLAYER
 62
     7
 10
894.361660
 20
-102.046075
 30
0.0
 11
894.361660
 21
-94.046075
 31
0.0
  0
LINE
  8
0
  6
BYLAYER
 62
     7
 10
892.199659
 20
-94.046075
 30
0.0
 11
892.199659
 21
-102.046075
 31
0.0
  0
LINE
  8
0
  6
BYLAYER
 62
     7
 10
892.199659
 20
-102.046075
 30
0.0
 11
884.199659
 21
-102.046075
 31
0.0
  0
LINE
  8
0
  6
BYLAYER
 62
     7
 10
892.199659
 20
-94.046075
 30
0.0
 11
884.199659
 21
-94.046075
 31
0.0
  0
LINE
  8
0
  6
BYLAYER
 62
     7
 10
884.199659
 20
-102.046075
 30
0.0
 11
884.199659
 21
-94.046075
 31
0.0
  0
LINE
  8
0
  6
BYLAYER
 62
     7
 10
882.199659
 20
-104.046075
 30
0.0
 11
882.199659
 21
-112.046075
 31
0.0
  0
LINE
  8
0
  6
BYLAYER
 62
     7
 10
882.199659
 20
-112.046075
 30
0.0
 11
874.199659
 21
-112.046075
 31
0.0
  0
LINE
  8
0
  6
BYLAYER
 62
     7
 10
882.199659
 20
-104.046075
 30
0.0
 11
874.199659
 21
-104.046075
 31
0.0
  0
LINE
  8
0
  6
BYLAYER
 62
     7
 10
874.199659
 20
-112.046075
 30
0.0
 11
874.199659
 21
-104.046075
 31
0.0
  0
LINE
  8
0
  6
BYLAYER
 62
     7
 10
872.199659
 20
-114.046075
 30
0.0
 11
872.199659
 21
-122.046075
 31
0.0
  0
LINE
  8
0
  6
BYLAYER
 62
     7
 10
872.199659
 20
-122.046075
 30
0.0
 11
864.199659
 21
-122.046075
 31
0.0
  0
LINE
  8
0
  6
BYLAYER
 62
     7
 10
872.199659
 20
-114.046075
 30
0.0
 11
864.199659
 21
-114.046075
 31
0.0
  0
LINE
  8
0
  6
BYLAYER
 62
     7
 10
864.199659
 20
-122.046075
 30
0.0
 11
864.199659
 21
-114.046075
 31
0.0
  0
LINE
  8
0
  6
BYLAYER
 62
     7
 10
912.199659
 20
-84.046075
 30
0.0
 11
912.199659
 21
-92.046075
 31
0.0
  0
LINE
  8
0
  6
BYLAYER
 62
     7
 10
904.199659
 20
-92.046075
 30
0.0
 11
904.199659
 21
-84.046075
 31
0.0
  0
LINE
  8
0
  6
BYLAYER
 62
     7
 10
902.199659
 20
-92.046075
 30
0.0
 11
902.199659
 21
-84.046075
 31
0.0
  0
LINE
  8
0
  6
BYLAYER
 62
     7
 10
902.199659
 20
-92.046075
 30
0.0
 11
894.361660
 21
-92.046075
 31
0.0
  0
LINE
  8
0
  6
BYLAYER
 62
     7
 10
912.199659
 20
-92.046075
 30
0.0
 11
904.199659
 21
-92.046075
 31
0.0
  0
LINE
  8
0
  6
BYLAYER
 62
     7
 10
902.199659
 20
-84.046075
 30
0.0
 11
894.361660
 21
-84.046075
 31
0.0
  0
LINE
  8
0
  6
BYLAYER
 62
     7
 10
912.199659
 20
-84.046075
 30
0.0
 11
904.199659
 21
-84.046075
 31
0.0
  0
LINE
  8
0
  6
BYLAYER
 62
     7
 10
894.361660
 20
-92.046075
 30
0.0
 11
894.361660
 21
-84.046075
 31
0.0
  0
LINE
  8
0
  6
BYLAYER
 62
     7
 10
852.199659
 20
-142.046075
 30
0.0
 11
844.199659
 21
-142.046075
 31
0.0
  0
LINE
  8
0
  6
BYLAYER
 62
     7
 10
852.199659
 20
-134.046075
 30
0.0
 11
852.199659
 21
-142.046075
 31
0.0
  0
LINE
  8
0
  6
BYLAYER
 62
     7
 10
852.199659
 20
-134.046075
 30
0.0
 11
844.199659
 21
-134.046075
 31
0.0
  0
LINE
  8
0
  6
BYLAYER
 62
     7
 10
844.199659
 20
-142.046075
 30
0.0
 11
844.199659
 21
-134.046075
 31
0.0
  0
LINE
  8
0
  6
BYLAYER
 62
     7
 10
852.199659
 20
-152.046075
 30
0.0
 11
844.199659
 21
-152.046075
 31
0.0
  0
LINE
  8
0
  6
BYLAYER
 62
     7
 10
852.199659
 20
-144.046075
 30
0.0
 11
852.199659
 21
-152.046075
 31
0.0
  0
LINE
  8
0
  6
BYLAYER
 62
     7
 10
852.199659
 20
-144.046075
 30
0.0
 11
844.199659
 21
-144.046075
 31
0.0
  0
LINE
  8
0
  6
BYLAYER
 62
     7
 10
844.199659
 20
-152.046075
 30
0.0
 11
844.199659
 21
-144.046075
 31
0.0
  0
LINE
  8
0
  6
BYLAYER
 62
     7
 10
882.199659
 20
-94.046075
 30
0.0
 11
882.199659
 21
-102.046075
 31
0.0
  0
LINE
  8
0
  6
BYLAYER
 62
     7
 10
882.199659
 20
-102.046075
 30
0.0
 11
874.199659
 21
-102.046075
 31
0.0
  0
LINE
  8
0
  6
BYLAYER
 62
     7
 10
882.199659
 20
-94.046075
 30
0.0
 11
874.199659
 21
-94.046075
 31
0.0
  0
LINE
  8
0
  6
BYLAYER
 62
     7
 10
874.199659
 20
-102.046075
 30
0.0
 11
874.199659
 21
-94.046075
 31
0.0
  0
LINE
  8
0
  6
BYLAYER
 62
     7
 10
872.199659
 20
-104.046075
 30
0.0
 11
872.199659
 21
-112.046075
 31
0.0
  0
LINE
  8
0
  6
BYLAYER
 62
     7
 10
872.199659
 20
-112.046075
 30
0.0
 11
864.199659
 21
-112.046075
 31
0.0
  0
LINE
  8
0
  6
BYLAYER
 62
     7
 10
872.199659
 20
-104.046075
 30
0.0
 11
864.199659
 21
-104.046075
 31
0.0
  0
LINE
  8
0
  6
BYLAYER
 62
     7
 10
864.199659
 20
-112.046075
 30
0.0
 11
864.199659
 21
-104.046075
 31
0.0
  0
LINE
  8
0
  6
BYLAYER
 62
     7
 10
862.199659
 20
-114.046075
 30
0.0
 11
862.199659
 21
-122.046075
 31
0.0
  0
LINE
  8
0
  6
BYLAYER
 62
     7
 10
862.199659
 20
-122.046075
 30
0.0
 11
854.199659
 21
-122.046075
 31
0.0
  0
LINE
  8
0
  6
BYLAYER
 62
     7
 10
862.199659
 20
-114.046075
 30
0.0
 11
854.199659
 21
-114.046075
 31
0.0
  0
LINE
  8
0
  6
BYLAYER
 62
     7
 10
854.199659
 20
-122.046075
 30
0.0
 11
854.199659
 21
-114.046075
 31
0.0
  0
LINE
  8
0
  6
BYLAYER
 62
     7
 10
912.199659
 20
-74.046075
 30
0.0
 11
912.199659
 21
-82.046075
 31
0.0
  0
LINE
  8
0
  6
BYLAYER
 62
     7
 10
904.199659
 20
-82.046075
 30
0.0
 11
904.199659
 21
-74.046075
 31
0.0
  0
LINE
  8
0
  6
BYLAYER
 62
     7
 10
912.199659
 20
-82.046075
 30
0.0
 11
904.199659
 21
-82.046075
 31
0.0
  0
LINE
  8
0
  6
BYLAYER
 62
     7
 10
912.199659
 20
-74.046075
 30
0.0
 11
904.199659
 21
-74.046075
 31
0.0
  0
LINE
  8
0
  6
BYLAYER
 62
     7
 10
842.199659
 20
-152.046075
 30
0.0
 11
834.199659
 21
-152.046075
 31
0.0
  0
LINE
  8
0
  6
BYLAYER
 62
     7
 10
842.199659
 20
-144.046075
 30
0.0
 11
842.199659
 21
-152.046075
 31
0.0
  0
LINE
  8
0
  6
BYLAYER
 62
     7
 10
842.199659
 20
-144.046075
 30
0.0
 11
834.199659
 21
-144.046075
 31
0.0
  0
LINE
  8
0
  6
BYLAYER
 62
     7
 10
834.199659
 20
-152.046075
 30
0.0
 11
834.199659
 21
-144.046075
 31
0.0
  0
LINE
  8
0
  6
BYLAYER
 62
     7
 10
892.199659
 20
-84.046075
 30
0.0
 11
892.199659
 21
-92.046075
 31
0.0
  0
LINE
  8
0
  6
BYLAYER
 62
     7
 10
892.199659
 20
-92.046075
 30
0.0
 11
884.199659
 21
-92.046075
 31
0.0
  0
LINE
  8
0
  6
BYLAYER
 62
     7
 10
892.199659
 20
-84.046075
 30
0.0
 11
884.199659
 21
-84.046075
 31
0.0
  0
LINE
  8
0
  6
BYLAYER
 62
     7
 10
884.199659
 20
-92.046075
 30
0.0
 11
884.199659
 21
-84.046075
 31
0.0
  0
LINE
  8
0
  6
BYLAYER
 62
     7
 10
852.199659
 20
-124.046075
 30
0.0
 11
852.199659
 21
-132.046075
 31
0.0
  0
LINE
  8
0
  6
BYLAYER
 62
     7
 10
852.199659
 20
-132.046075
 30
0.0
 11
844.199659
 21
-132.046075
 31
0.0
  0
LINE
  8
0
  6
BYLAYER
 62
     7
 10
852.199659
 20
-124.046075
 30
0.0
 11
844.199659
 21
-124.046075
 31
0.0
  0
LINE
  8
0
  6
BYLAYER
 62
     7
 10
844.199659
 20
-132.046075
 30
0.0
 11
844.199659
 21
-124.046075
 31
0.0
  0
LINE
  8
0
  6
BYLAYER
 62
     7
 10
882.199659
 20
-84.046075
 30
0.0
 11
882.199659
 21
-92.046075
 31
0.0
  0
LINE
  8
0
  6
BYLAYER
 62
     7
 10
882.199659
 20
-92.046075
 30
0.0
 11
874.199659
 21
-92.046075
 31
0.0
  0
LINE
  8
0
  6
BYLAYER
 62
     7
 10
882.199659
 20
-84.046075
 30
0.0
 11
874.199659
 21
-84.046075
 31
0.0
  0
LINE
  8
0
  6
BYLAYER
 62
     7
 10
874.199659
 20
-92.046075
 30
0.0
 11
874.199659
 21
-84.046075
 31
0.0
  0
LINE
  8
0
  6
BYLAYER
 62
     7
 10
872.199659
 20
-94.046075
 30
0.0
 11
872.199659
 21
-102.046075
 31
0.0
  0
LINE
  8
0
  6
BYLAYER
 62
     7
 10
872.199659
 20
-102.046075
 30
0.0
 11
864.199659
 21
-102.046075
 31
0.0
  0
LINE
  8
0
  6
BYLAYER
 62
     7
 10
872.199659
 20
-94.046075
 30
0.0
 11
864.199659
 21
-94.046075
 31
0.0
  0
LINE
  8
0
  6
BYLAYER
 62
     7
 10
864.199659
 20
-102.046075
 30
0.0
 11
864.199659
 21
-94.046075
 31
0.0
  0
LINE
  8
0
  6
BYLAYER
 62
     7
 10
862.199659
 20
-104.046075
 30
0.0
 11
862.199659
 21
-112.046075
 31
0.0
  0
LINE
  8
0
  6
BYLAYER
 62
     7
 10
862.199659
 20
-112.046075
 30
0.0
 11
854.199659
 21
-112.046075
 31
0.0
  0
LINE
  8
0
  6
BYLAYER
 62
     7
 10
862.199659
 20
-104.046075
 30
0.0
 11
854.199659
 21
-104.046075
 31
0.0
  0
LINE
  8
0
  6
BYLAYER
 62
     7
 10
854.199659
 20
-112.046075
 30
0.0
 11
854.199659
 21
-104.046075
 31
0.0
  0
LINE
  8
0
  6
BYLAYER
 62
     7
 10
852.199659
 20
-114.046075
 30
0.0
 11
852.199659
 21
-122.046075
 31
0.0
  0
LINE
  8
0
  6
BYLAYER
 62
     7
 10
852.199659
 20
-122.046075
 30
0.0
 11
844.199659
 21
-122.046075
 31
0.0
  0
LINE
  8
0
  6
BYLAYER
 62
     7
 10
852.199659
 20
-114.046075
 30
0.0
 11
844.199659
 21
-114.046075
 31
0.0
  0
LINE
  8
0
  6
BYLAYER
 62
     7
 10
844.199659
 20
-122.046075
 30
0.0
 11
844.199659
 21
-114.046075
 31
0.0
  0
LINE
  8
0
  6
BYLAYER
 62
     7
 10
902.199659
 20
-82.046075
 30
0.0
 11
902.199659
 21
-74.046075
 31
0.0
  0
LINE
  8
0
  6
BYLAYER
 62
     7
 10
902.199659
 20
-82.046075
 30
0.0
 11
894.361660
 21
-82.046075
 31
0.0
  0
LINE
  8
0
  6
BYLAYER
 62
     7
 10
902.199659
 20
-74.046075
 30
0.0
 11
894.361660
 21
-74.046075
 31
0.0
  0
LINE
  8
0
  6
BYLAYER
 62
     7
 10
894.361660
 20
-82.046075
 30
0.0
 11
894.361660
 21
-74.046075
 31
0.0
  0
LINE
  8
0
  6
BYLAYER
 62
     7
 10
842.199659
 20
-142.046075
 30
0.0
 11
834.199659
 21
-142.046075
 31
0.0
  0
LINE
  8
0
  6
BYLAYER
 62
     7
 10
842.199659
 20
-134.046075
 30
0.0
 11
842.199659
 21
-142.046075
 31
0.0
  0
LINE
  8
0
  6
BYLAYER
 62
     7
 10
842.199659
 20
-134.046075
 30
0.0
 11
834.199659
 21
-134.046075
 31
0.0
  0
LINE
  8
0
  6
BYLAYER
 62
     7
 10
834.199659
 20
-142.046075
 30
0.0
 11
834.199659
 21
-134.046075
 31
0.0
  0
LINE
  8
0
  6
BYLAYER
 62
     7
 10
912.199659
 20
-182.046075
 30
0.0
 11
912.199659
 21
-174.046075
 31
0.0
  0
LINE
  8
0
  6
BYLAYER
 62
     7
 10
912.199659
 20
-192.046075
 30
0.0
 11
912.199659
 21
-184.046075
 31
0.0
  0
LINE
  8
0
  6
BYLAYER
 62
     7
 10
904.199659
 20
-184.046075
 30
0.0
 11
904.199659
 21
-192.046075
 31
0.0
  0
LINE
  8
0
  6
BYLAYER
 62
     7
 10
902.199659
 20
-184.046075
 30
0.0
 11
902.199659
 21
-192.046075
 31
0.0
  0
LINE
  8
0
  6
BYLAYER
 62
     7
 10
912.199659
 20
-174.046075
 30
0.0
 11
904.199659
 21
-174.046075
 31
0.0
  0
LINE
  8
0
  6
BYLAYER
 62
     7
 10
912.199659
 20
-182.046075
 30
0.0
 11
904.199659
 21
-182.046075
 31
0.0
  0
LINE
  8
0
  6
BYLAYER
 62
     7
 10
902.199659
 20
-184.046075
 30
0.0
 11
894.361660
 21
-184.046075
 31
0.0
  0
LINE
  8
0
  6
BYLAYER
 62
     7
 10
912.199659
 20
-184.046075
 30
0.0
 11
904.199659
 21
-184.046075
 31
0.0
  0
LINE
  8
0
  6
BYLAYER
 62
     7
 10
902.199659
 20
-192.046075
 30
0.0
 11
894.361660
 21
-192.046075
 31
0.0
  0
LINE
  8
0
  6
BYLAYER
 62
     7
 10
912.199659
 20
-192.046075
 30
0.0
 11
904.199659
 21
-192.046075
 31
0.0
  0
LINE
  8
0
  6
BYLAYER
 62
     7
 10
894.361660
 20
-184.046075
 30
0.0
 11
894.361660
 21
-192.046075
 31
0.0
  0
LINE
  8
0
  6
BYLAYER
 62
     7
 10
904.199659
 20
-174.046075
 30
0.0
 11
904.199659
 21
-182.046075
 31
0.0
  0
LINE
  8
0
  6
BYLAYER
 62
     7
 10
902.199659
 20
-182.046075
 30
0.0
 11
902.199659
 21
-174.046075
 31
0.0
  0
LINE
  8
0
  6
BYLAYER
 62
     7
 10
902.199659
 20
-174.046075
 30
0.0
 11
894.199659
 21
-174.046075
 31
0.0
  0
LINE
  8
0
  6
BYLAYER
 62
     7
 10
902.199659
 20
-182.046075
 30
0.0
 11
894.199659
 21
-182.046075
 31
0.0
  0
LINE
  8
0
  6
BYLAYER
 62
     7
 10
894.199659
 20
-174.046075
 30
0.0
 11
894.199659
 21
-182.046075
 31
0.0
  0
LINE
  8
0
  6
BYLAYER
 62
     7
 10
892.199659
 20
-164.046075
 30
0.0
 11
884.199659
 21
-164.046075
 31
0.0
  0
LINE
  8
0
  6
BYLAYER
 62
     7
 10
892.199659
 20
-182.046075
 30
0.0
 11
892.199659
 21
-174.046075
 31
0.0
  0
LINE
  8
0
  6
BYLAYER
 62
     7
 10
892.199659
 20
-172.046075
 30
0.0
 11
892.199659
 21
-164.046075
 31
0.0
  0
LINE
  8
0
  6
BYLAYER
 62
     7
 10
892.199659
 20
-172.046075
 30
0.0
 11
884.199659
 21
-172.046075
 31
0.0
  0
LINE
  8
0
  6
BYLAYER
 62
     7
 10
892.199659
 20
-174.046075
 30
0.0
 11
884.199659
 21
-174.046075
 31
0.0
  0
LINE
  8
0
  6
BYLAYER
 62
     7
 10
892.199659
 20
-182.046075
 30
0.0
 11
884.199659
 21
-182.046075
 31
0.0
  0
LINE
  8
0
  6
BYLAYER
 62
     7
 10
884.199659
 20
-164.046075
 30
0.0
 11
884.199659
 21
-172.046075
 31
0.0
  0
LINE
  8
0
  6
BYLAYER
 62
     7
 10
884.199659
 20
-174.046075
 30
0.0
 11
884.199659
 21
-182.046075
 31
0.0
  0
LINE
  8
0
  6
BYLAYER
 62
     7
 10
892.199659
 20
-154.046075
 30
0.0
 11
884.199659
 21
-154.046075
 31
0.0
  0
LINE
  8
0
  6
BYLAYER
 62
     7
 10
892.199659
 20
-162.046075
 30
0.0
 11
892.199659
 21
-154.046075
 31
0.0
  0
LINE
  8
0
  6
BYLAYER
 62
     7
 10
892.199659
 20
-162.046075
 30
0.0
 11
884.199659
 21
-162.046075
 31
0.0
  0
LINE
  8
0
  6
BYLAYER
 62
     7
 10
884.199659
 20
-154.046075
 30
0.0
 11
884.199659
 21
-162.046075
 31
0.0
  0
LINE
  8
0
  6
BYLAYER
 62
     7
 10
882.199659
 20
-164.046075
 30
0.0
 11
874.199659
 21
-164.046075
 31
0.0
  0
LINE
  8
0
  6
BYLAYER
 62
     7
 10
882.199659
 20
-172.046075
 30
0.0
 11
882.199659
 21
-164.046075
 31
0.0
  0
LINE
  8
0
  6
BYLAYER
 62
     7
 10
882.199659
 20
-172.046075
 30
0.0
 11
874.199659
 21
-172.046075
 31
0.0
  0
LINE
  8
0
  6
BYLAYER
 62
     7
 10
874.199659
 20
-164.046075
 30
0.0
 11
874.199659
 21
-172.046075
 31
0.0
  0
LINE
  8
0
  6
BYLAYER
 62
     7
 10
882.199659
 20
-154.046075
 30
0.0
 11
874.199659
 21
-154.046075
 31
0.0
  0
LINE
  8
0
  6
BYLAYER
 62
     7
 10
882.199659
 20
-162.046075
 30
0.0
 11
882.199659
 21
-154.046075
 31
0.0
  0
LINE
  8
0
  6
BYLAYER
 62
     7
 10
882.199659
 20
-162.046075
 30
0.0
 11
874.199659
 21
-162.046075
 31
0.0
  0
LINE
  8
0
  6
BYLAYER
 62
     7
 10
874.199659
 20
-154.046075
 30
0.0
 11
874.199659
 21
-162.046075
 31
0.0
  0
LINE
  8
0
  6
BYLAYER
 62
     7
 10
872.199659
 20
-164.046075
 30
0.0
 11
864.199659
 21
-164.046075
 31
0.0
  0
LINE
  8
0
  6
BYLAYER
 62
     7
 10
872.199659
 20
-172.046075
 30
0.0
 11
872.199659
 21
-164.046075
 31
0.0
  0
LINE
  8
0
  6
BYLAYER
 62
     7
 10
872.199659
 20
-172.046075
 30
0.0
 11
864.199659
 21
-172.046075
 31
0.0
  0
LINE
  8
0
  6
BYLAYER
 62
     7
 10
864.199659
 20
-164.046075
 30
0.0
 11
864.199659
 21
-172.046075
 31
0.0
  0
LINE
  8
0
  6
BYLAYER
 62
     7
 10
872.199659
 20
-154.046075
 30
0.0
 11
864.199659
 21
-154.046075
 31
0.0
  0
LINE
  8
0
  6
BYLAYER
 62
     7
 10
872.199659
 20
-162.046075
 30
0.0
 11
872.199659
 21
-154.046075
 31
0.0
  0
LINE
  8
0
  6
BYLAYER
 62
     7
 10
872.199659
 20
-162.046075
 30
0.0
 11
864.199659
 21
-162.046075
 31
0.0
  0
LINE
  8
0
  6
BYLAYER
 62
     7
 10
864.199659
 20
-154.046075
 30
0.0
 11
864.199659
 21
-162.046075
 31
0.0
  0
LINE
  8
0
  6
BYLAYER
 62
     7
 10
912.199659
 20
-202.046075
 30
0.0
 11
912.199659
 21
-194.046075
 31
0.0
  0
LINE
  8
0
  6
BYLAYER
 62
     7
 10
904.199659
 20
-194.046075
 30
0.0
 11
904.199659
 21
-202.046075
 31
0.0
  0
LINE
  8
0
  6
BYLAYER
 62
     7
 10
902.199659
 20
-194.046075
 30
0.0
 11
902.199659
 21
-202.046075
 31
0.0
  0
LINE
  8
0
  6
BYLAYER
 62
     7
 10
902.199659
 20
-194.046075
 30
0.0
 11
894.361660
 21
-194.046075
 31
0.0
  0
LINE
  8
0
  6
BYLAYER
 62
     7
 10
912.199659
 20
-194.046075
 30
0.0
 11
904.199659
 21
-194.046075
 31
0.0
  0
LINE
  8
0
  6
BYLAYER
 62
     7
 10
902.199659
 20
-202.046075
 30
0.0
 11
894.361660
 21
-202.046075
 31
0.0
  0
LINE
  8
0
  6
BYLAYER
 62
     7
 10
912.199659
 20
-202.046075
 30
0.0
 11
904.199659
 21
-202.046075
 31
0.0
  0
LINE
  8
0
  6
BYLAYER
 62
     7
 10
894.361660
 20
-194.046075
 30
0.0
 11
894.361660
 21
-202.046075
 31
0.0
  0
LINE
  8
0
  6
BYLAYER
 62
     7
 10
892.199659
 20
-192.046075
 30
0.0
 11
892.199659
 21
-184.046075
 31
0.0
  0
LINE
  8
0
  6
BYLAYER
 62
     7
 10
892.199659
 20
-184.046075
 30
0.0
 11
884.199659
 21
-184.046075
 31
0.0
  0
LINE
  8
0
  6
BYLAYER
 62
     7
 10
892.199659
 20
-192.046075
 30
0.0
 11
884.199659
 21
-192.046075
 31
0.0
  0
LINE
  8
0
  6
BYLAYER
 62
     7
 10
884.199659
 20
-184.046075
 30
0.0
 11
884.199659
 21
-192.046075
 31
0.0
  0
LINE
  8
0
  6
BYLAYER
 62
     7
 10
892.199659
 20
-202.046075
 30
0.0
 11
892.199659
 21
-194.046075
 31
0.0
  0
LINE
  8
0
  6
BYLAYER
 62
     7
 10
892.199659
 20
-194.046075
 30
0.0
 11
884.199659
 21
-194.046075
 31
0.0
  0
LINE
  8
0
  6
BYLAYER
 62
     7
 10
892.199659
 20
-202.046075
 30
0.0
 11
884.199659
 21
-202.046075
 31
0.0
  0
LINE
  8
0
  6
BYLAYER
 62
     7
 10
884.199659
 20
-194.046075
 30
0.0
 11
884.199659
 21
-202.046075
 31
0.0
  0
LINE
  8
0
  6
BYLAYER
 62
     7
 10
882.199659
 20
-182.046075
 30
0.0
 11
882.199659
 21
-174.046075
 31
0.0
  0
LINE
  8
0
  6
BYLAYER
 62
     7
 10
882.199659
 20
-174.046075
 30
0.0
 11
874.199659
 21
-174.046075
 31
0.0
  0
LINE
  8
0
  6
BYLAYER
 62
     7
 10
882.199659
 20
-182.046075
 30
0.0
 11
874.199659
 21
-182.046075
 31
0.0
  0
LINE
  8
0
  6
BYLAYER
 62
     7
 10
874.199659
 20
-174.046075
 30
0.0
 11
874.199659
 21
-182.046075
 31
0.0
  0
LINE
  8
0
  6
BYLAYER
 62
     7
 10
882.199659
 20
-192.046075
 30
0.0
 11
882.199659
 21
-184.046075
 31
0.0
  0
LINE
  8
0
  6
BYLAYER
 62
     7
 10
882.199659
 20
-184.046075
 30
0.0
 11
874.199659
 21
-184.046075
 31
0.0
  0
LINE
  8
0
  6
BYLAYER
 62
     7
 10
882.199659
 20
-192.046075
 30
0.0
 11
874.199659
 21
-192.046075
 31
0.0
  0
LINE
  8
0
  6
BYLAYER
 62
     7
 10
874.199659
 20
-184.046075
 30
0.0
 11
874.199659
 21
-192.046075
 31
0.0
  0
LINE
  8
0
  6
BYLAYER
 62
     7
 10
872.199659
 20
-182.046075
 30
0.0
 11
872.199659
 21
-174.046075
 31
0.0
  0
LINE
  8
0
  6
BYLAYER
 62
     7
 10
872.199659
 20
-174.046075
 30
0.0
 11
864.199659
 21
-174.046075
 31
0.0
  0
LINE
  8
0
  6
BYLAYER
 62
     7
 10
872.199659
 20
-182.046075
 30
0.0
 11
864.199659
 21
-182.046075
 31
0.0
  0
LINE
  8
0
  6
BYLAYER
 62
     7
 10
864.199659
 20
-174.046075
 30
0.0
 11
864.199659
 21
-182.046075
 31
0.0
  0
LINE
  8
0
  6
BYLAYER
 62
     7
 10
862.199659
 20
-164.046075
 30
0.0
 11
854.199659
 21
-164.046075
 31
0.0
  0
LINE
  8
0
  6
BYLAYER
 62
     7
 10
862.199659
 20
-172.046075
 30
0.0
 11
862.199659
 21
-164.046075
 31
0.0
  0
LINE
  8
0
  6
BYLAYER
 62
     7
 10
862.199659
 20
-172.046075
 30
0.0
 11
854.199659
 21
-172.046075
 31
0.0
  0
LINE
  8
0
  6
BYLAYER
 62
     7
 10
854.199659
 20
-164.046075
 30
0.0
 11
854.199659
 21
-172.046075
 31
0.0
  0
LINE
  8
0
  6
BYLAYER
 62
     7
 10
862.199659
 20
-154.046075
 30
0.0
 11
854.199659
 21
-154.046075
 31
0.0
  0
LINE
  8
0
  6
BYLAYER
 62
     7
 10
862.199659
 20
-162.046075
 30
0.0
 11
862.199659
 21
-154.046075
 31
0.0
  0
LINE
  8
0
  6
BYLAYER
 62
     7
 10
862.199659
 20
-162.046075
 30
0.0
 11
854.199659
 21
-162.046075
 31
0.0
  0
LINE
  8
0
  6
BYLAYER
 62
     7
 10
854.199659
 20
-154.046075
 30
0.0
 11
854.199659
 21
-162.046075
 31
0.0
  0
LINE
  8
0
  6
BYLAYER
 62
     7
 10
862.199659
 20
-182.046075
 30
0.0
 11
862.199659
 21
-174.046075
 31
0.0
  0
LINE
  8
0
  6
BYLAYER
 62
     7
 10
862.199659
 20
-174.046075
 30
0.0
 11
854.199659
 21
-174.046075
 31
0.0
  0
LINE
  8
0
  6
BYLAYER
 62
     7
 10
862.199659
 20
-182.046075
 30
0.0
 11
854.199659
 21
-182.046075
 31
0.0
  0
LINE
  8
0
  6
BYLAYER
 62
     7
 10
854.199659
 20
-174.046075
 30
0.0
 11
854.199659
 21
-182.046075
 31
0.0
  0
LINE
  8
0
  6
BYLAYER
 62
     7
 10
912.199659
 20
-212.046075
 30
0.0
 11
912.199659
 21
-204.046075
 31
0.0
  0
LINE
  8
0
  6
BYLAYER
 62
     7
 10
904.199659
 20
-204.046075
 30
0.0
 11
904.199659
 21
-212.046075
 31
0.0
  0
LINE
  8
0
  6
BYLAYER
 62
     7
 10
902.199659
 20
-204.046075
 30
0.0
 11
902.199659
 21
-212.046075
 31
0.0
  0
LINE
  8
0
  6
BYLAYER
 62
     7
 10
902.199659
 20
-204.046075
 30
0.0
 11
894.361660
 21
-204.046075
 31
0.0
  0
LINE
  8
0
  6
BYLAYER
 62
     7
 10
912.199659
 20
-204.046075
 30
0.0
 11
904.199659
 21
-204.046075
 31
0.0
  0
LINE
  8
0
  6
BYLAYER
 62
     7
 10
902.199659
 20
-212.046075
 30
0.0
 11
894.361660
 21
-212.046075
 31
0.0
  0
LINE
  8
0
  6
BYLAYER
 62
     7
 10
912.199659
 20
-212.046075
 30
0.0
 11
904.199659
 21
-212.046075
 31
0.0
  0
LINE
  8
0
  6
BYLAYER
 62
     7
 10
894.361660
 20
-204.046075
 30
0.0
 11
894.361660
 21
-212.046075
 31
0.0
  0
LINE
  8
0
  6
BYLAYER
 62
     7
 10
892.199659
 20
-212.046075
 30
0.0
 11
892.199659
 21
-204.046075
 31
0.0
  0
LINE
  8
0
  6
BYLAYER
 62
     7
 10
892.199659
 20
-204.046075
 30
0.0
 11
884.199659
 21
-204.046075
 31
0.0
  0
LINE
  8
0
  6
BYLAYER
 62
     7
 10
892.199659
 20
-212.046075
 30
0.0
 11
884.199659
 21
-212.046075
 31
0.0
  0
LINE
  8
0
  6
BYLAYER
 62
     7
 10
884.199659
 20
-204.046075
 30
0.0
 11
884.199659
 21
-212.046075
 31
0.0
  0
LINE
  8
0
  6
BYLAYER
 62
     7
 10
882.199659
 20
-202.046075
 30
0.0
 11
882.199659
 21
-194.046075
 31
0.0
  0
LINE
  8
0
  6
BYLAYER
 62
     7
 10
882.199659
 20
-194.046075
 30
0.0
 11
874.199659
 21
-194.046075
 31
0.0
  0
LINE
  8
0
  6
BYLAYER
 62
     7
 10
882.199659
 20
-202.046075
 30
0.0
 11
874.199659
 21
-202.046075
 31
0.0
  0
LINE
  8
0
  6
BYLAYER
 62
     7
 10
874.199659
 20
-194.046075
 30
0.0
 11
874.199659
 21
-202.046075
 31
0.0
  0
LINE
  8
0
  6
BYLAYER
 62
     7
 10
872.199659
 20
-192.046075
 30
0.0
 11
872.199659
 21
-184.046075
 31
0.0
  0
LINE
  8
0
  6
BYLAYER
 62
     7
 10
872.199659
 20
-184.046075
 30
0.0
 11
864.199659
 21
-184.046075
 31
0.0
  0
LINE
  8
0
  6
BYLAYER
 62
     7
 10
872.199659
 20
-192.046075
 30
0.0
 11
864.199659
 21
-192.046075
 31
0.0
  0
LINE
  8
0
  6
BYLAYER
 62
     7
 10
864.199659
 20
-184.046075
 30
0.0
 11
864.199659
 21
-192.046075
 31
0.0
  0
LINE
  8
0
  6
BYLAYER
 62
     7
 10
912.199659
 20
-222.046075
 30
0.0
 11
912.199659
 21
-214.046075
 31
0.0
  0
LINE
  8
0
  6
BYLAYER
 62
     7
 10
904.199659
 20
-214.046075
 30
0.0
 11
904.199659
 21
-222.046075
 31
0.0
  0
LINE
  8
0
  6
BYLAYER
 62
     7
 10
902.199659
 20
-214.046075
 30
0.0
 11
902.199659
 21
-222.046075
 31
0.0
  0
LINE
  8
0
  6
BYLAYER
 62
     7
 10
902.199659
 20
-214.046075
 30
0.0
 11
894.361660
 21
-214.046075
 31
0.0
  0
LINE
  8
0
  6
BYLAYER
 62
     7
 10
912.199659
 20
-214.046075
 30
0.0
 11
904.199659
 21
-214.046075
 31
0.0
  0
LINE
  8
0
  6
BYLAYER
 62
     7
 10
902.199659
 20
-222.046075
 30
0.0
 11
894.361660
 21
-222.046075
 31
0.0
  0
LINE
  8
0
  6
BYLAYER
 62
     7
 10
912.199659
 20
-222.046075
 30
0.0
 11
904.199659
 21
-222.046075
 31
0.0
  0
LINE
  8
0
  6
BYLAYER
 62
     7
 10
894.361660
 20
-214.046075
 30
0.0
 11
894.361660
 21
-222.046075
 31
0.0
  0
LINE
  8
0
  6
BYLAYER
 62
     7
 10
852.199659
 20
-164.046075
 30
0.0
 11
844.199659
 21
-164.046075
 31
0.0
  0
LINE
  8
0
  6
BYLAYER
 62
     7
 10
852.199659
 20
-172.046075
 30
0.0
 11
852.199659
 21
-164.046075
 31
0.0
  0
LINE
  8
0
  6
BYLAYER
 62
     7
 10
852.199659
 20
-172.046075
 30
0.0
 11
844.199659
 21
-172.046075
 31
0.0
  0
LINE
  8
0
  6
BYLAYER
 62
     7
 10
844.199659
 20
-164.046075
 30
0.0
 11
844.199659
 21
-172.046075
 31
0.0
  0
LINE
  8
0
  6
BYLAYER
 62
     7
 10
852.199659
 20
-154.046075
 30
0.0
 11
844.199659
 21
-154.046075
 31
0.0
  0
LINE
  8
0
  6
BYLAYER
 62
     7
 10
852.199659
 20
-162.046075
 30
0.0
 11
852.199659
 21
-154.046075
 31
0.0
  0
LINE
  8
0
  6
BYLAYER
 62
     7
 10
852.199659
 20
-162.046075
 30
0.0
 11
844.199659
 21
-162.046075
 31
0.0
  0
LINE
  8
0
  6
BYLAYER
 62
     7
 10
844.199659
 20
-154.046075
 30
0.0
 11
844.199659
 21
-162.046075
 31
0.0
  0
LINE
  8
0
  6
BYLAYER
 62
     7
 10
882.199659
 20
-212.046075
 30
0.0
 11
882.199659
 21
-204.046075
 31
0.0
  0
LINE
  8
0
  6
BYLAYER
 62
     7
 10
882.199659
 20
-204.046075
 30
0.0
 11
874.199659
 21
-204.046075
 31
0.0
  0
LINE
  8
0
  6
BYLAYER
 62
     7
 10
882.199659
 20
-212.046075
 30
0.0
 11
874.199659
 21
-212.046075
 31
0.0
  0
LINE
  8
0
  6
BYLAYER
 62
     7
 10
874.199659
 20
-204.046075
 30
0.0
 11
874.199659
 21
-212.046075
 31
0.0
  0
LINE
  8
0
  6
BYLAYER
 62
     7
 10
872.199659
 20
-202.046075
 30
0.0
 11
872.199659
 21
-194.046075
 31
0.0
  0
LINE
  8
0
  6
BYLAYER
 62
     7
 10
872.199659
 20
-194.046075
 30
0.0
 11
864.199659
 21
-194.046075
 31
0.0
  0
LINE
  8
0
  6
BYLAYER
 62
     7
 10
872.199659
 20
-202.046075
 30
0.0
 11
864.199659
 21
-202.046075
 31
0.0
  0
LINE
  8
0
  6
BYLAYER
 62
     7
 10
864.199659
 20
-194.046075
 30
0.0
 11
864.199659
 21
-202.046075
 31
0.0
  0
LINE
  8
0
  6
BYLAYER
 62
     7
 10
862.199659
 20
-192.046075
 30
0.0
 11
862.199659
 21
-184.046075
 31
0.0
  0
LINE
  8
0
  6
BYLAYER
 62
     7
 10
862.199659
 20
-184.046075
 30
0.0
 11
854.199659
 21
-184.046075
 31
0.0
  0
LINE
  8
0
  6
BYLAYER
 62
     7
 10
862.199659
 20
-192.046075
 30
0.0
 11
854.199659
 21
-192.046075
 31
0.0
  0
LINE
  8
0
  6
BYLAYER
 62
     7
 10
854.199659
 20
-184.046075
 30
0.0
 11
854.199659
 21
-192.046075
 31
0.0
  0
LINE
  8
0
  6
BYLAYER
 62
     7
 10
912.199659
 20
-232.046075
 30
0.0
 11
912.199659
 21
-224.046075
 31
0.0
  0
LINE
  8
0
  6
BYLAYER
 62
     7
 10
904.199659
 20
-224.046075
 30
0.0
 11
904.199659
 21
-232.046075
 31
0.0
  0
LINE
  8
0
  6
BYLAYER
 62
     7
 10
912.199659
 20
-224.046075
 30
0.0
 11
904.199659
 21
-224.046075
 31
0.0
  0
LINE
  8
0
  6
BYLAYER
 62
     7
 10
912.199659
 20
-232.046075
 30
0.0
 11
904.199659
 21
-232.046075
 31
0.0
  0
LINE
  8
0
  6
BYLAYER
 62
     7
 10
842.199659
 20
-154.046075
 30
0.0
 11
834.199659
 21
-154.046075
 31
0.0
  0
LINE
  8
0
  6
BYLAYER
 62
     7
 10
842.199659
 20
-162.046075
 30
0.0
 11
842.199659
 21
-154.046075
 31
0.0
  0
LINE
  8
0
  6
BYLAYER
 62
     7
 10
842.199659
 20
-162.046075
 30
0.0
 11
834.199659
 21
-162.046075
 31
0.0
  0
LINE
  8
0
  6
BYLAYER
 62
     7
 10
834.199659
 20
-154.046075
 30
0.0
 11
834.199659
 21
-162.046075
 31
0.0
  0
LINE
  8
0
  6
BYLAYER
 62
     7
 10
892.199659
 20
-222.046075
 30
0.0
 11
892.199659
 21
-214.046075
 31
0.0
  0
LINE
  8
0
  6
BYLAYER
 62
     7
 10
892.199659
 20
-214.046075
 30
0.0
 11
884.199659
 21
-214.046075
 31
0.0
  0
LINE
  8
0
  6
BYLAYER
 62
     7
 10
892.199659
 20
-222.046075
 30
0.0
 11
884.199659
 21
-222.046075
 31
0.0
  0
LINE
  8
0
  6
BYLAYER
 62
     7
 10
884.199659
 20
-214.046075
 30
0.0
 11
884.199659
 21
-222.046075
 31
0.0
  0
LINE
  8
0
  6
BYLAYER
 62
     7
 10
852.199659
 20
-182.046075
 30
0.0
 11
852.199659
 21
-174.046075
 31
0.0
  0
LINE
  8
0
  6
BYLAYER
 62
     7
 10
852.199659
 20
-174.046075
 30
0.0
 11
844.199659
 21
-174.046075
 31
0.0
  0
LINE
  8
0
  6
BYLAYER
 62
     7
 10
852.199659
 20
-182.046075
 30
0.0
 11
844.199659
 21
-182.046075
 31
0.0
  0
LINE
  8
0
  6
BYLAYER
 62
     7
 10
844.199659
 20
-174.046075
 30
0.0
 11
844.199659
 21
-182.046075
 31
0.0
  0
LINE
  8
0
  6
BYLAYER
 62
     7
 10
882.199659
 20
-222.046075
 30
0.0
 11
882.199659
 21
-214.046075
 31
0.0
  0
LINE
  8
0
  6
BYLAYER
 62
     7
 10
882.199659
 20
-214.046075
 30
0.0
 11
874.199659
 21
-214.046075
 31
0.0
  0
LINE
  8
0
  6
BYLAYER
 62
     7
 10
882.199659
 20
-222.046075
 30
0.0
 11
874.199659
 21
-222.046075
 31
0.0
  0
LINE
  8
0
  6
BYLAYER
 62
     7
 10
874.199659
 20
-214.046075
 30
0.0
 11
874.199659
 21
-222.046075
 31
0.0
  0
LINE
  8
0
  6
BYLAYER
 62
     7
 10
872.199659
 20
-212.046075
 30
0.0
 11
872.199659
 21
-204.046075
 31
0.0
  0
LINE
  8
0
  6
BYLAYER
 62
     7
 10
872.199659
 20
-204.046075
 30
0.0
 11
864.199659
 21
-204.046075
 31
0.0
  0
LINE
  8
0
  6
BYLAYER
 62
     7
 10
872.199659
 20
-212.046075
 30
0.0
 11
864.199659
 21
-212.046075
 31
0.0
  0
LINE
  8
0
  6
BYLAYER
 62
     7
 10
864.199659
 20
-204.046075
 30
0.0
 11
864.199659
 21
-212.046075
 31
0.0
  0
LINE
  8
0
  6
BYLAYER
 62
     7
 10
862.199659
 20
-202.046075
 30
0.0
 11
862.199659
 21
-194.046075
 31
0.0
  0
LINE
  8
0
  6
BYLAYER
 62
     7
 10
862.199659
 20
-194.046075
 30
0.0
 11
854.199659
 21
-194.046075
 31
0.0
  0
LINE
  8
0
  6
BYLAYER
 62
     7
 10
862.199659
 20
-202.046075
 30
0.0
 11
854.199659
 21
-202.046075
 31
0.0
  0
LINE
  8
0
  6
BYLAYER
 62
     7
 10
854.199659
 20
-194.046075
 30
0.0
 11
854.199659
 21
-202.046075
 31
0.0
  0
LINE
  8
0
  6
BYLAYER
 62
     7
 10
852.199659
 20
-192.046075
 30
0.0
 11
852.199659
 21
-184.046075
 31
0.0
  0
LINE
  8
0
  6
BYLAYER
 62
     7
 10
852.199659
 20
-184.046075
 30
0.0
 11
844.199659
 21
-184.046075
 31
0.0
  0
LINE
  8
0
  6
BYLAYER
 62
     7
 10
852.199659
 20
-192.046075
 30
0.0
 11
844.199659
 21
-192.046075
 31
0.0
  0
LINE
  8
0
  6
BYLAYER
 62
     7
 10
844.199659
 20
-184.046075
 30
0.0
 11
844.199659
 21
-192.046075
 31
0.0
  0
LINE
  8
0
  6
BYLAYER
 62
     7
 10
902.199659
 20
-224.046075
 30
0.0
 11
902.199659
 21
-232.046075
 31
0.0
  0
LINE
  8
0
  6
BYLAYER
 62
     7
 10
902.199659
 20
-224.046075
 30
0.0
 11
894.361660
 21
-224.046075
 31
0.0
  0
LINE
  8
0
  6
BYLAYER
 62
     7
 10
902.199659
 20
-232.046075
 30
0.0
 11
894.361660
 21
-232.046075
 31
0.0
  0
LINE
  8
0
  6
BYLAYER
 62
     7
 10
894.361660
 20
-224.046075
 30
0.0
 11
894.361660
 21
-232.046075
 31
0.0
  0
LINE
  8
0
  6
BYLAYER
 62
     7
 10
842.199659
 20
-164.046075
 30
0.0
 11
834.199659
 21
-164.046075
 31
0.0
  0
LINE
  8
0
  6
BYLAYER
 62
     7
 10
842.199659
 20
-172.046075
 30
0.0
 11
842.199659
 21
-164.046075
 31
0.0
  0
LINE
  8
0
  6
BYLAYER
 62
     7
 10
842.199659
 20
-172.046075
 30
0.0
 11
834.199659
 21
-172.046075
 31
0.0
  0
LINE
  8
0
  6
BYLAYER
 62
     7
 10
834.199659
 20
-164.046075
 30
0.0
 11
834.199659
 21
-172.046075
 31
0.0
  0
CIRCLE
  8
0
  6
BYLAYER
 62
     7
 10
913.199659
 20
-153.046075
 30
0.0
 40
82.542439
  0
ARC
  8
0
  6
BYLAYER
 62
     7
 10
913.199659
 20
-153.046075
 30
0.0
 40
125.000000
 50
113.079003
 51
426.921013
  0
LINE
  8
0
  6
BYLAYER
 62
     7
 10
910.199659
 20
-258.372308
 30
0.0
 11
910.199659
 21
-268.834664
 31
0.0
  0
LINE
  8
0
  6
BYLAYER
 62
     7
 10
916.199659
 20
-258.372308
 30
0.0
 11
916.199659
 21
-268.834664
 31
0.0
  0
ARC
  8
0
  6
BYLAYER
 62
     7
 10
920.199659
 20
-268.834664
 30
0.0
 40
4.000000
 50
180.000000
 51
273.459814
  0
ARC
  8
0
  6
BYLAYER
 62
     7
 10
913.199659
 20
-153.046075
 30
0.0
 40
120.0
 50
273.459601
 51
306.572850
  0
ARC
  8
0
  6
BYLAYER
 62
     7
 10
982.317609
 20
-246.205667
 30
0.0
 40
4.000000
 50
306.572822
 51
405.000076
  0
LINE
  8
0
  6
BYLAYER
 62
     7
 10
985.146040
 20
-243.377236
 30
0.0
 11
977.967645
 21
-236.198849
 31
0.0
  0
LINE
  8
0
  6
BYLAYER
 62
     7
 10
841.253309
 20
-243.377221
 30
0.0
 11
848.431682
 21
-236.198856
 31
0.0
  0
ARC
  8
0
  6
BYLAYER
 62
     7
 10
844.081739
 20
-246.205651
 30
0.0
 40
4.000000
 50
135.0
 51
233.427015
  0
ARC
  8
0
  6
BYLAYER
 62
     7
 10
913.199659
 20
-153.046075
 30
0.0
 40
120.000000
 50
233.427152
 51
266.540401
  0
ARC
  8
0
  6
BYLAYER
 62
     7
 10
906.199659
 20
-268.834664
 30
0.0
 40
4.000000
 50
266.540182
 51
360.000000
  0
LINE
  8
0
  6
BYLAYER
 62
     7
 10
1018.557505
 20
-156.046070
 30
0.0
 11
1028.988264
 21
-156.046070
 31
0.0
  0
LINE
  8
0
  6
BYLAYER
 62
     7
 10
1018.557505
 20
-150.046071
 30
0.0
 11
1028.988264
 21
-150.046070
 31
0.0
  0
ARC
  8
0
  6
BYLAYER
 62
     7
 10
1028.988264
 20
-146.046070
 30
0.0
 40
4.0
 50
270.0
 51
363.459828
  0
ARC
  8
0
  6
BYLAYER
 62
     7
 10
913.199659
 20
-153.046075
 30
0.0
 40
120.0
 50
3.459610
 51
36.572859
  0
ARC
  8
0
  6
BYLAYER
 62
     7
 10
1006.359266
 20
-83.928125
 30
0.0
 40
4.000000
 50
36.572832
 51
135.000082
  0
LINE
  8
0
  6
BYLAYER
 62
     7
 10
1003.530836
 20
-81.099710
 30
0.0
 11
996.352440
 21
-88.278098
 31
0.0
  0
LINE
  8
0
  6
BYLAYER
 62
     7
 10
1003.530805
 20
-224.992440
 30
0.0
 11
996.352435
 21
-217.814058
 31
0.0
  0
ARC
  8
0
  6
BYLAYER
 62
     7
 10
1006.359235
 20
-222.164010
 30
0.0
 40
4.0
 50
225.000010
 51
323.427024
  0
ARC
  8
0
  6
BYLAYER
 62
     7
 10
913.199659
 20
-153.046075
 30
0.0
 40
120.0
 50
323.427161
 51
356.54041
  0
ARC
  8
0
  6
BYLAYER
 62
     7
 10
1028.988264
 20
-160.046069
 30
0.0
 40
4.000000
 50
356.540191
 51
450.000003
  0
ARC
  8
0
  6
BYLAYER
 62
     7
 10
913.199659
 20
-153.046075
 30
0.0
 40
120.0
 50
114.100180
 51
126.572841
  0
ARC
  8
0
  6
BYLAYER
 62
     7
 10
844.081739
 20
-59.886499
 30
0.0
 40
4.000000
 50
126.572841
 51
225.000078
  0
LINE
  8
0
  6
BYLAYER
 62
     7
 10
841.253309
 20
-62.714914
 30
0.0
 11
848.431687
 21
-69.893291
 31
0.0
  0
LINE
  8
0
  6
BYLAYER
 62
     7
 10
985.146040
 20
-62.714914
 30
0.0
 11
977.967649
 21
-69.893305
 31
0.0
  0
ARC
  8
0
  6
BYLAYER
 62
     7
 10
982.317609
 20
-59.886483
 30
0.0
 40
4.000000
 50
315.000019
 51
413.427034
  0
ARC
  8
0
  6
BYLAYER
 62
     7
 10
913.199659
 20
-153.046075
 30
0.0
 40
120.000000
 50
53.427143
 51
65.899836
  0
LINE
  8
0
  6
BYLAYER
 62
     7
 10
807.841813
 20
-150.046076
 30
0.0
 11
797.411085
 21
-150.046076
 31
0.0
  0
LINE
  8
0
  6
BYLAYER
 62
     7
 10
807.841813
 20
-156.046076
 30
0.0
 11
797.411085
 21
-156.046076
 31
0.0
  0
ARC
  8
0
  6
BYLAYER
 62
     7
 10
797.411085
 20
-160.046076
 30
0.0
 40
4.000000
 50
90.0
 51
183.459774
  0
ARC
  8
0
  6
BYLAYER
 62
     7
 10
913.199659
 20
-153.046075
 30
0.0
 40
120.000000
 50
183.459574
 51
216.572878
  0
ARC
  8
0
  6
BYLAYER
 62
     7
 10
820.040052
 20
-222.164025
 30
0.0
 40
4.0
 50
216.572823
 51
315.000074
  0
LINE
  8
0
  6
BYLAYER
 62
     7
 10
822.868482
 20
-224.992440
 30
0.0
 11
830.046878
 21
-217.814052
 31
0.0
  0
LINE
  8
0
  6
BYLAYER
 62
     7
 10
822.868543
 20
-81.099694
 30
0.0
 11
830.046895
 21
-88.278077
 31
0.0
  0
ARC
  8
0
  6
BYLAYER
 62
     7
 10
820.040113
 20
-83.928125
 30
0.0
 40
4.0
 50
45.000001
 51
143.427016
  0
ARC
  8
0
  6
BYLAYER
 62
     7
 10
913.199659
 20
-153.046075
 30
0.0
 40
120.000000
 50
143.427125
 51
176.540429
  0
ARC
  8
0
  6
BYLAYER
 62
     7
 10
797.411085
 20
-146.046077
 30
0.0
 40
4.000000
 50
176.540210
 51
270.000001
  0
ARC
  8
0
  6
BYLAYER
 62
     7
 10
989.213636
 20
-229.060067
 30
0.0
 40
7.0
 50
205.758402
 51
424.241587
  0
ARC
  8
0
  6
BYLAYER
 62
     7
 10
989.213636
 20
-77.032098
 30
0.0
 40
7.0
 50
295.758498
 51
514.241502
  0
ARC
  8
0
  6
BYLAYER
 62
     7
 10
837.185682
 20
-77.032083
 30
0.0
 40
7.000000
 50
25.758402
 51
244.241587
  0
ARC
  8
0
  6
BYLAYER
 62
     7
 10
837.185682
 20
-229.060052
 30
0.0
 40
7.0
 50
115.758498
 51
334.241502
  0
LINE
  8
0
  6
BYLAYER
 62
     7
 10
864.199659
 20
-433.046075
 30
0.0
 11
878.199659
 21
-433.046075
 31
0.0
  0
LINE
  8
0
  6
BYLAYER
 62
     7
 10
948.199659
 20
-433.046075
 30
0.0
 11
962.199628
 21
-433.046075
 31
0.0
  0
LINE
  8
0
  6
BYLAYER
 62
     7
 10
864.199659
 20
-438.050423
 30
0.0
 11
864.199659
 21
-433.046075
 31
0.0
  0
LINE
  8
0
  6
BYLAYER
 62
     7
 10
962.199628
 20
-438.050410
 30
0.0
 11
962.199628
 21
-433.046075
 31
0.0
  0
LINE
  8
0
  6
BYLAYER
 62
     7
 10
869.699659
 20
-422.546075
 30
0.0
 11
869.699659
 21
-401.046075
 31
0.0
  0
ARC
  8
0
  6
BYLAYER
 62
     7
 10
868.199659
 20
-422.546075
 30
0.0
 40
1.5
 50
270.0
 51
360.0
  0
ARC
  8
0
  6
BYLAYER
 62
     7
 10
871.199659
 20
-401.046075
 30
0.0
 40
1.5
 50
90.0
 51
180.0
  0
LINE
  8
0
  6
BYLAYER
 62
     7
 10
913.199659
 20
-399.546075
 30
0.0
 11
871.199659
 21
-399.546075
 31
0.0
  0
LINE
  8
0
  6
BYLAYER
 62
     7
 10
875.071900
 20
-422.546075
 30
0.0
 11
875.071900
 21
-401.046075
 31
0.0
  0
ARC
  8
0
  6
BYLAYER
 62
     7
 10
873.571900
 20
-422.546075
 30
0.0
 40
1.5
 50
270.0
 51
360.0
  0
ARC
  8
0
  6
BYLAYER
 62
     7
 10
876.571900
 20
-401.046075
 30
0.0
 40
1.5
 50
90.0
 51
180.0
  0
LINE
  8
0
  6
BYLAYER
 62
     7
 10
900.106006
 20
-399.546075
 30
0.0
 11
900.598553
 21
-413.650773
 31
0.0
  0
ARC
  8
0
  6
BYLAYER
 62
     7
 10
903.596725
 20
-413.546075
 30
0.0
 40
3.000000
 50
182.000000
 51
270.000000
  0
LINE
  8
0
  6
BYLAYER
 62
     7
 10
910.800765
 20
-413.650773
 30
0.0
 11
911.293312
 21
-399.546075
 31
0.0
  0
ARC
  8
0
  6
BYLAYER
 62
     7
 10
907.802593
 20
-413.546075
 30
0.0
 40
3.000000
 50
270.0
 51
358.0
  0
LINE
  8
0
  6
BYLAYER
 62
     7
 10
903.596725
 20
-416.546075
 30
0.0
 11
907.802593
 21
-416.546075
 31
0.0
  0
LINE
  8
0
  6
BYLAYER
 62
     7
 10
885.106006
 20
-399.546075
 30
0.0
 11
885.598553
 21
-413.650773
 31
0.0
  0
ARC
  8
0
  6
BYLAYER
 62
     7
 10
888.596725
 20
-413.546075
 30
0.0
 40
3.000000
 50
182.000000
 51
270.000000
  0
LINE
  8
0
  6
BYLAYER
 62
     7
 10
895.800765
 20
-413.650773
 30
0.0
 11
896.293312
 21
-399.546075
 31
0.0
  0
ARC
  8
0
  6
BYLAYER
 62
     7
 10
892.802593
 20
-413.546075
 30
0.0
 40
3.000000
 50
270.0
 51
358.0
  0
LINE
  8
0
  6
BYLAYER
 62
     7
 10
888.596725
 20
-416.546075
 30
0.0
 11
892.802593
 21
-416.546075
 31
0.0
  0
LINE
  8
0
  6
BYLAYER
 62
     7
 10
885.140927
 20
-400.546075
 30
0.0
 11
896.258391
 21
-400.546075
 31
0.0
  0
LINE
  8
0
  6
BYLAYER
 62
     7
 10
900.140927
 20
-400.546075
 30
0.0
 11
911.258391
 21
-400.546075
 31
0.0
  0
LINE
  8
0
  6
BYLAYER
 62
     7
 10
913.199659
 20
-424.046075
 30
0.0
 11
865.699659
 21
-424.046075
 31
0.0
  0
ARC
  8
0
  6
BYLAYER
 62
     7
 10
865.699659
 20
-425.546075
 30
0.0
 40
1.500000
 50
90.0
 51
180.0
  0
LINE
  8
0
  6
BYLAYER
 62
     7
 10
864.199659
 20
-431.046075
 30
0.0
 11
864.199659
 21
-425.546075
 31
0.0
  0
LINE
  8
0
  6
BYLAYER
 62
     7
 10
864.199659
 20
-431.046075
 30
0.0
 11
885.978344
 21
-431.046075
 31
0.0
  0
LINE
  8
0
  6
BYLAYER
 62
     7
 10
956.699659
 20
-422.546075
 30
0.0
 11
956.699659
 21
-401.046075
 31
0.0
  0
ARC
  8
0
  6
BYLAYER
 62
     7
 10
958.199659
 20
-422.546075
 30
0.0
 40
1.5
 50
180.000000
 51
270.000000
  0
ARC
  8
0
  6
BYLAYER
 62
     7
 10
955.199659
 20
-401.046075
 30
0.0
 40
1.5
 50
0.0
 51
90.0
  0
LINE
  8
0
  6
BYLAYER
 62
     7
 10
913.199659
 20
-399.546075
 30
0.0
 11
955.199659
 21
-399.546075
 31
0.0
  0
LINE
  8
0
  6
BYLAYER
 62
     7
 10
951.327418
 20
-422.546075
 30
0.0
 11
951.327418
 21
-401.046075
 31
0.0
  0
ARC
  8
0
  6
BYLAYER
 62
     7
 10
952.827418
 20
-422.546075
 30
0.0
 40
1.5
 50
180.000000
 51
270.000000
  0
ARC
  8
0
  6
BYLAYER
 62
     7
 10
949.827418
 20
-401.046075
 30
0.0
 40
1.5
 50
0.0
 51
90.0
  0
LINE
  8
0
  6
BYLAYER
 62
     7
 10
926.293312
 20
-399.546075
 30
0.0
 11
925.800765
 21
-413.650773
 31
0.0
  0
ARC
  8
0
  6
BYLAYER
 62
     7
 10
922.802593
 20
-413.546075
 30
0.0
 40
3.000000
 50
270.0
 51
358.0
  0
LINE
  8
0
  6
BYLAYER
 62
     7
 10
915.598553
 20
-413.650773
 30
0.0
 11
915.106006
 21
-399.546075
 31
0.0
  0
ARC
  8
0
  6
BYLAYER
 62
     7
 10
918.596725
 20
-413.546075
 30
0.0
 40
3.000000
 50
182.000000
 51
270.000000
  0
LINE
  8
0
  6
BYLAYER
 62
     7
 10
922.802593
 20
-416.546075
 30
0.0
 11
918.596725
 21
-416.546075
 31
0.0
  0
LINE
  8
0
  6
BYLAYER
 62
     7
 10
941.293312
 20
-399.546075
 30
0.0
 11
940.800765
 21
-413.650773
 31
0.0
  0
ARC
  8
0
  6
BYLAYER
 62
     7
 10
937.802593
 20
-413.546075
 30
0.0
 40
3.000000
 50
270.0
 51
358.0
  0
LINE
  8
0
  6
BYLAYER
 62
     7
 10
930.598553
 20
-413.650773
 30
0.0
 11
930.106006
 21
-399.546075
 31
0.0
  0
ARC
  8
0
  6
BYLAYER
 62
     7
 10
933.596725
 20
-413.546075
 30
0.0
 40
3.000000
 50
182.000000
 51
270.000000
  0
LINE
  8
0
  6
BYLAYER
 62
     7
 10
937.802593
 20
-416.546075
 30
0.0
 11
933.596725
 21
-416.546075
 31
0.0
  0
LINE
  8
0
  6
BYLAYER
 62
     7
 10
941.258391
 20
-400.546075
 30
0.0
 11
930.140927
 21
-400.546075
 31
0.0
  0
LINE
  8
0
  6
BYLAYER
 62
     7
 10
926.258391
 20
-400.546075
 30
0.0
 11
915.140927
 21
-400.546075
 31
0.0
  0
LINE
  8
0
  6
BYLAYER
 62
     7
 10
913.199659
 20
-424.046075
 30
0.0
 11
960.699659
 21
-424.046075
 31
0.0
  0
ARC
  8
0
  6
BYLAYER
 62
     7
 10
960.699659
 20
-425.546075
 30
0.0
 40
1.500000
 50
0.0
 51
90.0
  0
LINE
  8
0
  6
BYLAYER
 62
     7
 10
962.199659
 20
-433.046075
 30
0.0
 11
962.199659
 21
-425.546075
 31
0.0
  0
LINE
  8
0
  6
BYLAYER
 62
     7
 10
962.199659
 20
-431.046075
 30
0.0
 11
940.420974
 21
-431.046075
 31
0.0
  0
LINE
  8
0
  6
BYLAYER
 62
     7
 10
864.199659
 20
-431.046075
 30
0.0
 11
864.199659
 21
-433.046075
 31
0.0
  0
ARC
  8
0
  6
BYLAYER
 62
     1
 10
913.199659
 20
-553.046075
 30
0.0
 40
125.0
 50
298.685402
 51
601.314598
  0
ARC
  8
0
  6
BYLAYER
 62
     1
 10
913.199659
 20
-553.046075
 30
0.0
 40
47.500000
 50
63.474648
 51
116.525352
  0
ARC
  8
0
  6
BYLAYER
 62
     1
 10
913.199781
 20
-553.045953
 30
0.0
 40
85.499985
 50
211.675800
 51
225.431946
  0
ARC
  8
0
  6
BYLAYER
 62
     1
 10
913.199781
 20
-553.045953
 30
0.0
 40
85.500008
 50
31.675685
 51
88.324448
  0
ARC
  8
0
  6
BYLAYER
 62
     1
 10
913.199781
 20
-553.045953
 30
0.0
 40
85.499939
 50
91.675598
 51
148.324511
  0
ARC
  8
0
  6
BYLAYER
 62
     1
 10
913.199781
 20
-553.045953
 30
0.0
 40
85.499969
 50
331.675735
 51
388.324302
  0
ARC
  8
0
  6
BYLAYER
 62
     1
 10
913.199781
 20
-553.045953
 30
0.0
 40
85.499969
 50
314.567834
 51
328.324325
  0
ARC
  8
0
  6
BYLAYER
 62
     1
 10
913.199781
 20
-553.045953
 30
0.0
 40
85.499947
 50
151.675306
 51
208.324595
  0
LINE
  8
0
  6
BYLAYER
 62
     1
 10
915.699903
 20
-450.046319
 30
0.0
 11
915.699903
 21
-450.046197
 31
0.0
  0
ARC
  8
0
  6
BYLAYER
 62
     1
 10
815.996069
 20
-450.046197
 30
0.0
 40
99.703834
 50
0.0
 51
6.806706
  0
ARC
  8
0
  6
BYLAYER
 62
     1
 10
893.150397
 20
-440.836941
 30
0.0
 40
22.001835
 50
6.806706
 51
14.994394
  0
ARC
  8
0
  6
BYLAYER
 62
     1
 10
903.683946
 20
-438.015590
 30
0.0
 40
11.096988
 50
14.994394
 51
20.442704
  0
ARC
  8
0
  6
BYLAYER
 62
     1
 10
910.986906
 20
-435.237548
 30
0.0
 40
3.284084
 50
19.528864
 51
31.929848
  0
ARC
  8
0
  6
BYLAYER
 62
     1
 10
912.449318
 20
-434.326220
 30
0.0
 40
1.560957
 50
31.929848
 51
48.967938
  0
ARC
  8
0
  6
BYLAYER
 62
     1
 10
913.199903
 20
-433.463999
 30
0.0
 40
0.417802
 50
48.990774
 51
90.000000
  0
ARC
  8
0
  6
BYLAYER
 62
     1
 10
913.199903
 20
-433.463999
 30
0.0
 40
0.417802
 50
90.0
 51
131.009226
  0
ARC
  8
0
  6
BYLAYER
 62
     1
 10
913.950489
 20
-434.326220
 30
0.0
 40
1.560957
 50
131.032062
 51
148.070152
  0
ARC
  8
0
  6
BYLAYER
 62
     1
 10
915.412900
 20
-435.237548
 30
0.0
 40
3.284084
 50
148.070152
 51
160.471136
  0
ARC
  8
0
  6
BYLAYER
 62
     1
 10
922.715860
 20
-438.015590
 30
0.0
 40
11.096988
 50
159.557296
 51
165.005606
  0
ARC
  8
0
  6
BYLAYER
 62
     1
 10
933.249410
 20
-440.836941
 30
0.0
 40
22.001835
 50
165.005606
 51
173.193294
  0
ARC
  8
0
  6
BYLAYER
 62
     1
 10
1010.403738
 20
-450.046197
 30
0.0
 40
99.703834
 50
173.193294
 51
180.000000
  0
LINE
  8
0
  6
BYLAYER
 62
     1
 10
910.699903
 20
-450.046197
 30
0.0
 11
910.699903
 21
-450.046258
 31
0.0
  0
LINE
  8
0
  6
BYLAYER
 62
     1
 10
915.699842
 20
-487.778863
 30
0.0
 11
915.699842
 21
-450.046197
 31
0.0
  0
LINE
  8
0
  6
BYLAYER
 62
     1
 10
910.699720
 20
-487.747979
 30
0.0
 11
910.699720
 21
-450.046197
 31
0.0
  0
LINE
  8
0
  6
BYLAYER
 62
     1
 10
825.249365
 20
-499.380963
 30
0.0
 11
825.249281
 21
-499.380914
 31
0.0
  0
ARC
  8
0
  6
BYLAYER
 62
     1
 10
775.397012
 20
-585.727460
 30
0.0
 40
99.704436
 50
59.999967
 51
66.806642
  0
ARC
  8
0
  6
BYLAYER
 62
     1
 10
805.999054
 20
-514.304681
 30
0.0
 40
22.001809
 50
66.806642
 51
74.994313
  0
ARC
  8
0
  6
BYLAYER
 62
     1
 10
808.822485
 20
-503.771674
 30
0.0
 40
11.096948
 50
74.994313
 51
80.442606
  0
ARC
  8
0
  6
BYLAYER
 62
     1
 10
810.068121
 20
-496.058123
 30
0.0
 40
3.284061
 50
79.528762
 51
91.929738
  0
ARC
  8
0
  6
BYLAYER
 62
     1
 10
810.010097
 20
-494.335984
 30
0.0
 40
1.560944
 50
91.929738
 51
108.967744
  0
ARC
  8
0
  6
BYLAYER
 62
     1
 10
809.638690
 20
-493.254853
 30
0.0
 40
0.417797
 50
108.990522
 51
149.999720
  0
ARC
  8
0
  6
BYLAYER
 62
     1
 10
809.638688
 20
-493.254852
 30
0.0
 40
0.417794
 50
149.999720
 51
191.009080
  0
ARC
  8
0
  6
BYLAYER
 62
     1
 10
810.760669
 20
-493.035942
 30
0.0
 40
1.560932
 50
191.031925
 51
208.070038
  0
ARC
  8
0
  6
BYLAYER
 62
     1
 10
812.281094
 20
-492.225133
 30
0.0
 40
3.284040
 50
208.070038
 51
220.471056
  0
ARC
  8
0
  6
BYLAYER
 62
     1
 10
818.338398
 20
-487.289645
 30
0.0
 40
11.096895
 50
219.557208
 51
225.005511
  0
ARC
  8
0
  6
BYLAYER
 62
     1
 10
826.048541
 20
-479.578019
 30
0.0
 40
22.001733
 50
225.005511
 51
233.193203
  0
ARC
  8
0
  6
BYLAYER
 62
     1
 10
872.601726
 20
-417.364480
 30
0.0
 40
99.704522
 50
233.193203
 51
239.999878
  0
LINE
  8
0
  6
BYLAYER
 62
     1
 10
822.749281
 20
-503.711023
 30
0.0
 11
822.749323
 21
-503.711047
 31
0.0
  0
LINE
  8
0
  6
BYLAYER
 62
     1
 10
857.199659
 20
-517.827518
 30
0.0
 11
825.249281
 21
-499.380914
 31
0.0
  0
LINE
  8
0
  6
BYLAYER
 62
     1
 10
857.199659
 20
-523.601118
 30
0.0
 11
822.749159
 21
-503.711114
 31
0.0
  0
LINE
  8
0
  6
BYLAYER
 62
     1
 10
1001.150218
 20
-606.710833
 30
0.0
 11
1001.150282
 21
-606.710870
 31
0.0
  0
ARC
  8
0
  6
BYLAYER
 62
     1
 10
1051.002052
 20
-520.365186
 30
0.0
 40
99.703442
 50
239.999967
 51
246.806686
  0
ARC
  8
0
  6
BYLAYER
 62
     1
 10
1020.400459
 20
-591.787069
 30
0.0
 40
22.001814
 50
246.806686
 51
254.994380
  0
ARC
  8
0
  6
BYLAYER
 62
     1
 10
1017.577049
 20
-602.320044
 30
0.0
 40
11.096989
 50
254.994380
 51
260.442698
  0
ARC
  8
0
  6
BYLAYER
 62
     1
 10
1016.331424
 20
-610.033609
 30
0.0
 40
3.284089
 50
259.528860
 51
271.929846
  0
ARC
  8
0
  6
BYLAYER
 62
     1
 10
1016.389452
 20
-611.755761
 30
0.0
 40
1.560960
 50
271.929846
 51
288.967972
  0
ARC
  8
0
  6
BYLAYER
 62
     1
 10
1016.760865
 20
-612.836899
 30
0.0
 40
0.417804
 50
288.990832
 51
330.000070
  0
ARC
  8
0
  6
BYLAYER
 62
     1
 10
1016.760864
 20
-612.836899
 30
0.0
 40
0.417804
 50
330.000070
 51
371.009228
  0
ARC
  8
0
  6
BYLAYER
 62
     1
 10
1015.638860
 20
-613.055815
 30
0.0
 40
1.560966
 50
11.032054
 51
28.070124
  0
ARC
  8
0
  6
BYLAYER
 62
     1
 10
1014.118415
 20
-613.866639
 30
0.0
 40
3.284099
 50
28.070124
 51
40.471090
  0
ARC
  8
0
  6
BYLAYER
 62
     1
 10
1008.061066
 20
-618.802171
 30
0.0
 40
11.097017
 50
39.557254
 51
45.005565
  0
ARC
  8
0
  6
BYLAYER
 62
     1
 10
1000.350927
 20
-626.513808
 30
0.0
 40
22.001860
 50
45.005565
 51
53.193249
  0
ARC
  8
0
  6
BYLAYER
 62
     1
 10
953.798490
 20
-688.726451
 30
0.0
 40
99.703484
 50
53.193249
 51
59.999967
  0
LINE
  8
0
  6
BYLAYER
 62
     1
 10
1003.650282
 20
-602.380731
 30
0.0
 11
1003.650187
 21
-602.380676
 31
0.0
  0
LINE
  8
0
  6
BYLAYER
 62
     1
 10
973.199659
 20
-584.800138
 30
0.0
 11
1003.650282
 21
-602.380761
 31
0.0
  0
LINE
  8
0
  6
BYLAYER
 62
     1
 10
973.199659
 20
-590.573751
 30
0.0
 11
1001.150221
 21
-606.710992
 31
0.0
  0
LINE
  8
0
  6
BYLAYER
 62
     1
 10
1003.649981
 20
-503.711055
 30
0.0
 11
1003.650037
 21
-503.711023
 31
0.0
  0
ARC
  8
0
  6
BYLAYER
 62
     1
 10
953.798899
 20
-417.366123
 30
0.0
 40
99.702446
 50
299.999944
 51
306.806705
  0
ARC
  8
0
  6
BYLAYER
 62
     1
 10
1000.350588
 20
-479.577871
 30
0.0
 40
22.001986
 50
306.806705
 51
314.994381
  0
ARC
  8
0
  6
BYLAYER
 62
     1
 10
1008.060723
 20
-487.289519
 30
0.0
 40
11.097139
 50
314.994381
 51
320.442699
  0
ARC
  8
0
  6
BYLAYER
 62
     1
 10
1014.118117
 20
-492.225096
 30
0.0
 40
3.284158
 50
319.528876
 51
331.929790
  0
ARC
  8
0
  6
BYLAYER
 62
     1
 10
1015.638583
 20
-493.035934
 30
0.0
 40
1.561000
 50
331.929790
 51
348.967817
  0
ARC
  8
0
  6
BYLAYER
 62
     1
 10
1016.760610
 20
-493.254858
 30
0.0
 40
0.417815
 50
348.990623
 51
389.999581
  0
ARC
  8
0
  6
BYLAYER
 62
     1
 10
1016.760628
 20
-493.254853
 30
0.0
 40
0.417797
 50
30.000280
 51
71.009478
  0
ARC
  8
0
  6
BYLAYER
 62
     1
 10
1016.389221
 20
-494.335984
 30
0.0
 40
1.560944
 50
71.032256
 51
88.070262
  0
ARC
  8
0
  6
BYLAYER
 62
     1
 10
1016.331197
 20
-496.058123
 30
0.0
 40
3.284061
 50
88.070262
 51
100.471238
  0
ARC
  8
0
  6
BYLAYER
 62
     1
 10
1017.576833
 20
-503.771674
 30
0.0
 40
11.096948
 50
99.557394
 51
105.005687
  0
ARC
  8
0
  6
BYLAYER
 62
     1
 10
1020.400264
 20
-514.304681
 30
0.0
 40
22.001809
 50
105.005687
 51
113.193358
  0
ARC
  8
0
  6
BYLAYER
 62
     1
 10
1051.002306
 20
-585.727460
 30
0.0
 40
99.704436
 50
113.193358
 51
120.000033
  0
LINE
  8
0
  6
BYLAYER
 62
     1
 10
1001.150037
 20
-499.380914
 30
0.0
 11
1001.149953
 21
-499.380963
 31
0.0
  0
LINE
  8
0
  6
BYLAYER
 62
     1
 10
969.199720
 20
-523.601083
 30
0.0
 11
1003.650159
 21
-503.711114
 31
0.0
  0
LINE
  8
0
  6
BYLAYER
 62
     1
 10
969.199720
 20
-517.827482
 30
0.0
 11
1001.150037
 21
-499.380853
 31
0.0
  0
LINE
  8
0
  6
BYLAYER
 62
     1
 10
853.199659
 20
-584.800140
 30
0.0
 11
822.749036
 21
-602.380792
 31
0.0
  0
LINE
  8
0
  6
BYLAYER
 62
     1
 10
853.199659
 20
-590.573751
 30
0.0
 11
825.249097
 21
-606.710992
 31
0.0
  0
LINE
  8
0
  6
BYLAYER
 62
     1
 10
822.749128
 20
-602.380678
 30
0.0
 11
822.749036
 21
-602.380731
 31
0.0
  0
ARC
  8
0
  6
BYLAYER
 62
     1
 10
872.600828
 20
-688.726451
 30
0.0
 40
99.703484
 50
120.000033
 51
126.806751
  0
ARC
  8
0
  6
BYLAYER
 62
     1
 10
826.048391
 20
-626.513808
 30
0.0
 40
22.001860
 50
126.806751
 51
134.994435
  0
ARC
  8
0
  6
BYLAYER
 62
     1
 10
818.338252
 20
-618.802171
 30
0.0
 40
11.097017
 50
134.994435
 51
140.442746
  0
ARC
  8
0
  6
BYLAYER
 62
     1
 10
812.280903
 20
-613.866639
 30
0.0
 40
3.284099
 50
139.528910
 51
151.929876
  0
ARC
  8
0
  6
BYLAYER
 62
     1
 10
810.760458
 20
-613.055815
 30
0.0
 40
1.560966
 50
151.929876
 51
168.967946
  0
ARC
  8
0
  6
BYLAYER
 62
     1
 10
809.638454
 20
-612.836899
 30
0.0
 40
0.417804
 50
168.990772
 51
209.999930
  0
ARC
  8
0
  6
BYLAYER
 62
     1
 10
809.638453
 20
-612.836899
 30
0.0
 40
0.417804
 50
209.999930
 51
251.009168
  0
ARC
  8
0
  6
BYLAYER
 62
     1
 10
810.009866
 20
-611.755761
 30
0.0
 40
1.560960
 50
251.032028
 51
268.070154
  0
ARC
  8
0
  6
BYLAYER
 62
     1
 10
810.067894
 20
-610.033609
 30
0.0
 40
3.284089
 50
268.070154
 51
280.471140
  0
ARC
  8
0
  6
BYLAYER
 62
     1
 10
808.822269
 20
-602.320044
 30
0.0
 40
11.096989
 50
279.557302
 51
285.005620
  0
ARC
  8
0
  6
BYLAYER
 62
     1
 10
805.998859
 20
-591.787069
 30
0.0
 40
22.001814
 50
285.005620
 51
293.193314
  0
ARC
  8
0
  6
BYLAYER
 62
     1
 10
775.397266
 20
-520.365186
 30
0.0
 40
99.703442
 50
293.193314
 51
300.000033
  0
LINE
  8
0
  6
BYLAYER
 62
     1
 10
825.249036
 20
-606.710870
 30
0.0
 11
825.249100
 21
-606.710833
 31
0.0
  0
LINE
  8
0
  6
BYLAYER
 62
     1
 10
910.699903
 20
-487.778928
 30
0.0
 11
910.699903
 21
-487.778985
 31
0.0
  0
ARC
  8
0
  6
BYLAYER
 62
     1
 10
1010.403738
 20
-487.778985
 30
0.0
 40
99.703834
 50
180.000000
 51
186.806706
  0
ARC
  8
0
  6
BYLAYER
 62
     1
 10
933.249410
 20
-496.988241
 30
0.0
 40
22.001835
 50
186.806706
 51
194.994394
  0
ARC
  8
0
  6
BYLAYER
 62
     1
 10
922.715860
 20
-499.809592
 30
0.0
 40
11.096988
 50
194.994394
 51
200.442704
  0
ARC
  8
0
  6
BYLAYER
 62
     1
 10
915.412900
 20
-502.587634
 30
0.0
 40
3.284084
 50
199.528864
 51
211.929848
  0
ARC
  8
0
  6
BYLAYER
 62
     1
 10
913.950489
 20
-503.498962
 30
0.0
 40
1.560957
 50
211.929848
 51
228.967938
  0
ARC
  8
0
  6
BYLAYER
 62
     1
 10
913.199903
 20
-504.361183
 30
0.0
 40
0.417802
 50
228.990774
 51
270.000000
  0
ARC
  8
0
  6
BYLAYER
 62
     1
 10
913.199903
 20
-504.361183
 30
0.0
 40
0.417802
 50
270.0
 51
311.009226
  0
ARC
  8
0
  6
BYLAYER
 62
     1
 10
912.449318
 20
-503.498962
 30
0.0
 40
1.560957
 50
311.032062
 51
328.070152
  0
ARC
  8
0
  6
BYLAYER
 62
     1
 10
910.986906
 20
-502.587634
 30
0.0
 40
3.284084
 50
328.070152
 51
340.471136
  0
ARC
  8
0
  6
BYLAYER
 62
     1
 10
903.683946
 20
-499.809592
 30
0.0
 40
11.096988
 50
339.557296
 51
345.005606
  0
ARC
  8
0
  6
BYLAYER
 62
     1
 10
893.150397
 20
-496.988241
 30
0.0
 40
22.001835
 50
345.005606
 51
353.193294
  0
ARC
  8
0
  6
BYLAYER
 62
     1
 10
815.996069
 20
-487.778985
 30
0.0
 40
99.703834
 50
353.193294
 51
360.0
  0
LINE
  8
0
  6
BYLAYER
 62
     1
 10
915.699903
 20
-487.778985
 30
0.0
 11
915.699903
 21
-487.778864
 31
0.0
  0
LINE
  8
0
  6
BYLAYER
 62
     2
 10
999.921034
 20
-626.191018
 30
0.0
 11
997.052015
 21
-636.898416
 31
0.0
  0
LINE
  8
0
  6
BYLAYER
 62
     2
 10
997.052015
 20
-636.898416
 30
0.0
 11
986.344617
 21
-639.767465
 31
0.0
  0
LINE
  8
0
  6
BYLAYER
 62
     2
 10
986.344617
 20
-639.767465
 30
0.0
 11
978.506239
 21
-631.929086
 31
0.0
  0
LINE
  8
0
  6
BYLAYER
 62
     2
 10
978.506239
 20
-631.929086
 30
0.0
 11
981.375257
 21
-621.221658
 31
0.0
  0
LINE
  8
0
  6
BYLAYER
 62
     2
 10
981.375257
 20
-621.221658
 30
0.0
 11
992.082655
 21
-618.352655
 31
0.0
  0
LINE
  8
0
  6
BYLAYER
 62
     2
 10
992.082655
 20
-618.352655
 30
0.0
 11
999.921034
 21
-626.191018
 31
0.0
  0
LINE
  8
0
  6
BYLAYER
 62
     2
 10
999.921034
 20
-479.901117
 30
0.0
 11
997.052015
 21
-469.193780
 31
0.0
  0
LINE
  8
0
  6
BYLAYER
 62
     2
 10
997.052015
 20
-469.193780
 30
0.0
 11
986.344617
 21
-466.324700
 31
0.0
  0
LINE
  8
0
  6
BYLAYER
 62
     2
 10
986.344617
 20
-466.324700
 30
0.0
 11
978.506300
 21
-474.163018
 31
0.0
  0
LINE
  8
0
  6
BYLAYER
 62
     2
 10
978.506300
 20
-474.163018
 30
0.0
 11
981.375257
 21
-484.870538
 31
0.0
  0
LINE
  8
0
  6
BYLAYER
 62
     2
 10
981.375257
 20
-484.870538
 30
0.0
 11
992.082655
 21
-487.739556
 31
0.0
  0
LINE
  8
0
  6
BYLAYER
 62
     2
 10
992.082655
 20
-487.739556
 30
0.0
 11
999.921034
 21
-479.901117
 31
0.0
  0
LINE
  8
0
  6
BYLAYER
 62
     2
 10
826.478284
 20
-626.191018
 30
0.0
 11
829.347303
 21
-636.898416
 31
0.0
  0
LINE
  8
0
  6
BYLAYER
 62
     2
 10
829.347303
 20
-636.898416
 30
0.0
 11
840.054639
 21
-639.767465
 31
0.0
  0
LINE
  8
0
  6
BYLAYER
 62
     2
 10
840.054639
 20
-639.767465
 30
0.0
 11
847.893018
 21
-631.929116
 31
0.0
  0
LINE
  8
0
  6
BYLAYER
 62
     2
 10
847.893018
 20
-631.929116
 30
0.0
 11
845.024122
 21
-621.221658
 31
0.0
  0
LINE
  8
0
  6
BYLAYER
 62
     2
 10
845.024122
 20
-621.221658
 30
0.0
 11
834.316663
 21
-618.352655
 31
0.0
  0
LINE
  8
0
  6
BYLAYER
 62
     2
 10
834.316663
 20
-618.352655
 30
0.0
 11
826.478284
 21
-626.191018
 31
0.0
  0
LINE
  8
0
  6
BYLAYER
 62
     2
 10
826.478407
 20
-479.901178
 30
0.0
 11
829.347425
 21
-469.193719
 31
0.0
  0
LINE
  8
0
  6
BYLAYER
 62
     2
 10
829.347425
 20
-469.193719
 30
0.0
 11
840.054762
 21
-466.324700
 31
0.0
  0
LINE
  8
0
  6
BYLAYER
 62
     2
 10
840.054762
 20
-466.324700
 30
0.0
 11
847.893018
 21
-474.163018
 31
0.0
  0
LINE
  8
0
  6
BYLAYER
 62
     2
 10
847.893018
 20
-474.163018
 30
0.0
 11
845.024000
 21
-484.870416
 31
0.0
  0
LINE
  8
0
  6
BYLAYER
 62
     2
 10
845.024000
 20
-484.870416
 30
0.0
 11
834.316663
 21
-487.739556
 31
0.0
  0
LINE
  8
0
  6
BYLAYER
 62
     2
 10
834.316663
 20
-487.739556
 30
0.0
 11
826.478407
 21
-479.901178
 31
0.0
  0
LINE
  8
0
  6
BYLAYER
 62
     1
 10
321.199659
 20
-628.046075
 30
0.0
 11
321.200089
 21
-675.546075
 31
0.0
  0
ARC
  8
0
  6
BYLAYER
 62
     1
 10
335.700150
 20
-750.519250
 30
0.0
 40
2.0
 50
180.000000
 51
266.999903
  0
LINE
  8
0
  6
BYLAYER
 62
     1
 10
333.700150
 20
-750.519250
 30
0.0
 11
333.700150
 21
-628.046075
 31
0.0
  0
ARC
  8
0
  6
BYLAYER
 62
     1
 10
331.700089
 20
-713.820398
 30
0.0
 40
2.000061
 50
0.0
 51
15.000024
  0
LINE
  8
0
  6
BYLAYER
 62
     1
 10
321.200089
 20
-675.546075
 30
0.0
 11
321.980362
 21
-675.546685
 31
0.0
  0
LINE
  8
0
  6
BYLAYER
 62
     1
 10
323.912247
 20
-677.028375
 30
0.0
 11
333.632034
 21
-713.302758
 31
0.0
  0
ARC
  8
0
  6
BYLAYER
 62
     1
 10
321.980362
 20
-677.546014
 30
0.0
 40
1.999329
 50
15.000031
 51
90.000003
  0
LINE
  8
0
  6
BYLAYER
 62
     1
 10
323.623611
 20
-676.407098
 30
0.0
 11
333.700150
 21
-732.594995
 31
0.0
  0
LINE
  8
0
  6
BYLAYER
 62
     1
 10
335.595413
 20
-752.516503
 30
0.0
 11
345.700150
 21
-753.046091
 31
0.0
  0
LINE
  8
0
  6
BYLAYER
 62
     1
 10
345.700150
 20
-753.046091
 30
0.0
 11
345.700150
 21
-628.045983
 31
0.0
  0
LINE
  8
0
  6
BYLAYER
 62
     1
 10
323.912247
 20
-677.028375
 30
0.0
 11
323.912247
 21
-628.046075
 31
0.0
  0
LINE
  8
0
  6
BYLAYER
 62
     1
 10
321.199659
 20
-628.046075
 30
0.0
 11
321.200089
 21
-580.546075
 31
0.0
  0
ARC
  8
0
  6
BYLAYER
 62
     1
 10
335.700150
 20
-505.572900
 30
0.0
 40
2.0
 50
93.000092
 51
179.999995
  0
LINE
  8
0
  6
BYLAYER
 62
     1
 10
333.700150
 20
-505.572900
 30
0.0
 11
333.700150
 21
-628.046075
 31
0.0
  0
ARC
  8
0
  6
BYLAYER
 62
     1
 10
331.700089
 20
-542.271752
 30
0.0
 40
2.000061
 50
344.999976
 51
360.000000
  0
LINE
  8
0
  6
BYLAYER
 62
     1
 10
321.200089
 20
-580.546075
 30
0.0
 11
321.980362
 21
-580.545465
 31
0.0
  0
LINE
  8
0
  6
BYLAYER
 62
     1
 10
323.912247
 20
-579.063775
 30
0.0
 11
333.632034
 21
-542.789392
 31
0.0
  0
ARC
  8
0
  6
BYLAYER
 62
     1
 10
321.980362
 20
-578.546136
 30
0.0
 40
1.999329
 50
270.0
 51
344.999971
  0
LINE
  8
0
  6
BYLAYER
 62
     1
 10
323.623611
 20
-579.685052
 30
0.0
 11
333.700150
 21
-523.497155
 31
0.0
  0
LINE
  8
0
  6
BYLAYER
 62
     1
 10
335.595413
 20
-503.575647
 30
0.0
 11
345.700150
 21
-503.046059
 31
0.0
  0
LINE
  8
0
  6
BYLAYER
 62
     1
 10
345.700150
 20
-503.046059
 30
0.0
 11
345.700150
 21
-628.046167
 31
0.0
  0
LINE
  8
0
  6
BYLAYER
 62
     1
 10
323.912247
 20
-579.063775
 30
0.0
 11
323.912247
 21
-628.046075
 31
0.0
  0
ENDSEC
  0
EOF
