  0
SECTION
  2
HEADER
  9
$EXTMIN
 10
108.020478
 20
633.0
 30
0.0
  9
$EXTMAX
 10
885.767918
 20
-2.160410
 30
0.0
  0
ENDSEC
  0
SECTION
  2
TABLES
  0
ENDSEC
  0
SECTION
  2
BLOCKS
  0
ENDSEC
  0
SECTION
  2
ENTITIES
  0
LINE
  8
0
  6
BYLAYER
 62
     7
 10
289.554608
 20
-224.196246
 30
0.0
 11
289.554608
 21
-128.196246
 31
0.0
  0
LINE
  8
0
  6
BYLAYER
 62
     7
 10
289.554608
 20
-228.196246
 30
0.0
 11
289.554608
 21
-224.196246
 31
0.0
  0
LINE
  8
0
  6
BYLAYER
 62
     7
 10
289.554608
 20
-128.196246
 30
0.0
 11
289.554608
 21
-28.196246
 31
0.0
  0
LINE
  8
0
  6
BYLAYER
 62
     7
 10
289.554608
 20
-59.820865
 30
0.0
 11
289.554608
 21
-51.696246
 31
0.0
  0
LINE
  8
0
  6
BYLAYER
 62
     7
 10
277.554608
 20
-28.196246
 30
0.0
 11
289.554608
 21
-28.196246
 31
0.0
  0
LINE
  8
0
  6
BYLAYER
 62
     7
 10
277.554608
 20
-228.196246
 30
0.0
 11
289.554608
 21
-228.196246
 31
0.0
  0
LINE
  8
0
  6
BYLAYER
 62
     7
 10
309.554608
 20
-202.248693
 30
0.0
 11
309.554608
 21
-202.519886
 31
0.0
  0
LINE
  8
0
  6
BYLAYER
 62
     7
 10
309.554608
 20
-195.731158
 30
0.0
 11
309.554608
 21
-204.696246
 31
0.0
  0
LINE
  8
0
  6
BYLAYER
 62
     7
 10
309.554608
 20
-204.696246
 30
0.0
 11
289.554608
 21
-205.103494
 31
0.0
  0
LINE
  8
0
  6
BYLAYER
 62
     7
 10
311.054608
 20
-195.704974
 30
0.0
 11
309.554608
 21
-195.731158
 31
0.0
  0
LINE
  8
0
  6
BYLAYER
 62
     7
 10
290.045881
 20
-60.320788
 30
0.0
 11
311.054608
 21
-60.687518
 31
0.0
  0
ARC
  8
0
  6
BYLAYER
 62
     7
 10
290.054608
 20
-59.820865
 30
0.0
 40
0.500000
 50
180.000000
 51
268.999943
  0
LINE
  8
0
  6
BYLAYER
 62
     7
 10
311.054608
 20
-60.687518
 30
0.0
 11
311.054608
 21
-195.704974
 31
0.0
  0
LINE
  8
0
  6
BYLAYER
 62
     7
 10
277.554608
 20
-128.196246
 30
0.0
 11
277.554608
 21
-228.196246
 31
0.0
  0
LINE
  8
0
  6
BYLAYER
 62
     7
 10
277.554608
 20
-128.196246
 30
0.0
 11
277.554608
 21
-28.196246
 31
0.0
  0
LINE
  8
0
  6
BYLAYER
 62
     7
 10
320.354535
 20
-44.696307
 30
0.0
 11
314.554486
 21
-44.696307
 31
0.0
  0
ARC
  8
0
  6
BYLAYER
 62
     7
 10
320.354535
 20
-46.196307
 30
0.0
 40
1.500000
 50
0.0
 51
90.000003
  0
ARC
  8
0
  6
BYLAYER
 62
     7
 10
349.754560
 20
-46.196307
 30
0.0
 40
1.5
 50
90.0
 51
180.000003
  0
LINE
  8
0
  6
BYLAYER
 62
     7
 10
359.354535
 20
-44.696307
 30
0.0
 11
349.754560
 21
-44.696307
 31
0.0
  0
ARC
  8
0
  6
BYLAYER
 62
     7
 10
359.354535
 20
-46.196307
 30
0.0
 40
1.5
 50
0.0
 51
90.000003
  0
LINE
  8
0
  6
BYLAYER
 62
     7
 10
394.554547
 20
-44.696246
 30
0.0
 11
388.754560
 21
-44.696246
 31
0.0
  0
ARC
  8
0
  6
BYLAYER
 62
     7
 10
388.754560
 20
-46.196246
 30
0.0
 40
1.500000
 50
90.0
 51
180.000003
  0
ARC
  8
0
  6
BYLAYER
 62
     7
 10
335.054547
 20
-53.696246
 30
0.0
 40
13.200012
 50
180.000000
 51
359.999995
  0
ARC
  8
0
  6
BYLAYER
 62
     7
 10
374.054547
 20
-53.696246
 30
0.0
 40
13.200012
 50
180.000000
 51
359.999995
  0
LINE
  8
0
  6
BYLAYER
 62
     7
 10
314.554486
 20
-50.196307
 30
0.0
 11
320.354535
 21
-50.196307
 31
0.0
  0
LINE
  8
0
  6
BYLAYER
 62
     7
 10
321.854535
 20
-46.196307
 30
0.0
 11
321.854535
 21
-51.696307
 31
0.0
  0
LINE
  8
0
  6
BYLAYER
 62
     7
 10
321.854535
 20
-51.696307
 30
0.0
 11
321.854535
 21
-53.696246
 31
0.0
  0
ARC
  8
0
  6
BYLAYER
 62
     7
 10
320.354535
 20
-51.696307
 30
0.0
 40
1.500000
 50
0.0
 51
90.000003
  0
ARC
  8
0
  6
BYLAYER
 62
     7
 10
349.754560
 20
-51.696246
 30
0.0
 40
1.5
 50
90.0
 51
180.000003
  0
LINE
  8
0
  6
BYLAYER
 62
     7
 10
349.754560
 20
-50.196246
 30
0.0
 11
359.354535
 21
-50.196246
 31
0.0
  0
LINE
  8
0
  6
BYLAYER
 62
     7
 10
360.854535
 20
-46.196307
 30
0.0
 11
360.854535
 21
-51.696246
 31
0.0
  0
LINE
  8
0
  6
BYLAYER
 62
     7
 10
360.854535
 20
-51.696246
 30
0.0
 11
360.854535
 21
-53.696246
 31
0.0
  0
ARC
  8
0
  6
BYLAYER
 62
     7
 10
359.354535
 20
-51.696246
 30
0.0
 40
1.5
 50
0.0
 51
90.000003
  0
LINE
  8
0
  6
BYLAYER
 62
     7
 10
387.254560
 20
-53.696246
 30
0.0
 11
387.254560
 21
-51.696246
 31
0.0
  0
LINE
  8
0
  6
BYLAYER
 62
     7
 10
387.254560
 20
-51.696246
 30
0.0
 11
387.254560
 21
-46.196246
 31
0.0
  0
LINE
  8
0
  6
BYLAYER
 62
     7
 10
388.754560
 20
-50.196246
 30
0.0
 11
394.554547
 21
-50.196246
 31
0.0
  0
ARC
  8
0
  6
BYLAYER
 62
     7
 10
388.754560
 20
-51.696246
 30
0.0
 40
1.500000
 50
90.0
 51
180.000003
  0
LINE
  8
0
  6
BYLAYER
 62
     7
 10
348.254560
 20
-46.196307
 30
0.0
 11
348.254560
 21
-53.696246
 31
0.0
  0
ARC
  8
0
  6
BYLAYER
 62
     7
 10
315.454572
 20
-122.221271
 30
0.0
 40
0.899994
 50
90.0
 51
269.999998
  0
LINE
  8
0
  6
BYLAYER
 62
     7
 10
315.454572
 20
-121.321277
 30
0.0
 11
429.554699
 21
-121.321277
 31
0.0
  0
LINE
  8
0
  6
BYLAYER
 62
     7
 10
315.454572
 20
-123.121265
 30
0.0
 11
429.554699
 21
-123.121265
 31
0.0
  0
ARC
  8
0
  6
BYLAYER
 62
     7
 10
315.454572
 20
-110.271289
 30
0.0
 40
0.900024
 50
90.0
 51
269.999998
  0
ARC
  8
0
  6
BYLAYER
 62
     7
 10
315.454572
 20
-98.321277
 30
0.0
 40
0.899994
 50
90.0
 51
269.999998
  0
LINE
  8
0
  6
BYLAYER
 62
     7
 10
315.454572
 20
-97.421283
 30
0.0
 11
429.554699
 21
-97.421283
 31
0.0
  0
LINE
  8
0
  6
BYLAYER
 62
     7
 10
315.454572
 20
-99.221271
 30
0.0
 11
429.554699
 21
-99.221271
 31
0.0
  0
ARC
  8
0
  6
BYLAYER
 62
     7
 10
315.454572
 20
-86.371295
 30
0.0
 40
0.900024
 50
90.0
 51
269.999998
  0
LINE
  8
0
  6
BYLAYER
 62
     7
 10
315.454572
 20
-85.471271
 30
0.0
 11
429.554699
 21
-85.471271
 31
0.0
  0
LINE
  8
0
  6
BYLAYER
 62
     7
 10
315.454572
 20
-87.271289
 30
0.0
 11
429.554699
 21
-87.271289
 31
0.0
  0
ARC
  8
0
  6
BYLAYER
 62
     7
 10
315.454572
 20
-74.421283
 30
0.0
 40
0.899994
 50
90.0
 51
269.999998
  0
LINE
  8
0
  6
BYLAYER
 62
     7
 10
315.454572
 20
-73.521289
 30
0.0
 11
429.554699
 21
-73.521289
 31
0.0
  0
LINE
  8
0
  6
BYLAYER
 62
     7
 10
315.454572
 20
-75.321277
 30
0.0
 11
429.554699
 21
-75.321277
 31
0.0
  0
ARC
  8
0
  6
BYLAYER
 62
     7
 10
315.454572
 20
-134.171283
 30
0.0
 40
0.899994
 50
90.0
 51
269.999998
  0
LINE
  8
0
  6
BYLAYER
 62
     7
 10
315.454572
 20
-133.271289
 30
0.0
 11
429.554699
 21
-133.271289
 31
0.0
  0
LINE
  8
0
  6
BYLAYER
 62
     7
 10
315.454572
 20
-135.071277
 30
0.0
 11
429.554699
 21
-135.071277
 31
0.0
  0
ARC
  8
0
  6
BYLAYER
 62
     7
 10
315.454572
 20
-146.121265
 30
0.0
 40
0.899994
 50
90.0
 51
269.999998
  0
ARC
  8
0
  6
BYLAYER
 62
     7
 10
315.454572
 20
-158.071277
 30
0.0
 40
0.899994
 50
90.0
 51
269.999998
  0
LINE
  8
0
  6
BYLAYER
 62
     7
 10
315.454572
 20
-157.171283
 30
0.0
 11
429.554699
 21
-157.171283
 31
0.0
  0
LINE
  8
0
  6
BYLAYER
 62
     7
 10
315.454572
 20
-158.971271
 30
0.0
 11
429.554699
 21
-158.971271
 31
0.0
  0
LINE
  8
0
  6
BYLAYER
 62
     7
 10
325.554608
 20
-75.321277
 30
0.0
 11
325.554608
 21
-85.471271
 31
0.0
  0
LINE
  8
0
  6
BYLAYER
 62
     7
 10
427.554608
 20
-75.321277
 30
0.0
 11
427.554608
 21
-85.471271
 31
0.0
  0
LINE
  8
0
  6
BYLAYER
 62
     7
 10
394.554547
 20
-73.521289
 30
0.0
 11
394.554547
 21
-40.196246
 31
0.0
  0
LINE
  8
0
  6
BYLAYER
 62
     7
 10
325.554608
 20
-87.271289
 30
0.0
 11
325.554608
 21
-97.421283
 31
0.0
  0
LINE
  8
0
  6
BYLAYER
 62
     7
 10
325.554608
 20
-99.221271
 30
0.0
 11
325.554608
 21
-109.371265
 31
0.0
  0
LINE
  8
0
  6
BYLAYER
 62
     7
 10
325.554608
 20
-111.171283
 30
0.0
 11
325.554608
 21
-121.321277
 31
0.0
  0
LINE
  8
0
  6
BYLAYER
 62
     7
 10
325.554608
 20
-123.121265
 30
0.0
 11
325.554608
 21
-133.271289
 31
0.0
  0
LINE
  8
0
  6
BYLAYER
 62
     7
 10
325.554608
 20
-135.071277
 30
0.0
 11
325.554608
 21
-145.221271
 31
0.0
  0
LINE
  8
0
  6
BYLAYER
 62
     7
 10
325.554608
 20
-147.021289
 30
0.0
 11
325.554608
 21
-157.171283
 31
0.0
  0
LINE
  8
0
  6
BYLAYER
 62
     7
 10
325.554608
 20
-170.921283
 30
0.0
 11
325.554608
 21
-173.285346
 31
0.0
  0
LINE
  8
0
  6
BYLAYER
 62
     7
 10
325.554608
 20
-158.971271
 30
0.0
 11
325.554608
 21
-169.121265
 31
0.0
  0
LINE
  8
0
  6
BYLAYER
 62
     7
 10
427.554608
 20
-87.271289
 30
0.0
 11
427.554608
 21
-97.421283
 31
0.0
  0
LINE
  8
0
  6
BYLAYER
 62
     7
 10
427.554608
 20
-99.221271
 30
0.0
 11
427.554608
 21
-109.371265
 31
0.0
  0
LINE
  8
0
  6
BYLAYER
 62
     7
 10
427.554608
 20
-111.171283
 30
0.0
 11
427.554608
 21
-121.321277
 31
0.0
  0
LINE
  8
0
  6
BYLAYER
 62
     7
 10
427.554608
 20
-123.121265
 30
0.0
 11
427.554608
 21
-133.271289
 31
0.0
  0
LINE
  8
0
  6
BYLAYER
 62
     7
 10
427.554608
 20
-135.071277
 30
0.0
 11
427.554608
 21
-145.221271
 31
0.0
  0
LINE
  8
0
  6
BYLAYER
 62
     7
 10
427.554608
 20
-147.021289
 30
0.0
 11
427.554608
 21
-157.171283
 31
0.0
  0
LINE
  8
0
  6
BYLAYER
 62
     7
 10
427.554608
 20
-170.921283
 30
0.0
 11
427.554608
 21
-173.285346
 31
0.0
  0
LINE
  8
0
  6
BYLAYER
 62
     7
 10
427.554608
 20
-158.971271
 30
0.0
 11
427.554608
 21
-169.121265
 31
0.0
  0
CIRCLE
  8
0
  6
BYLAYER
 62
     7
 10
349.084577
 20
-110.271289
 30
0.0
 40
3.0
  0
CIRCLE
  8
0
  6
BYLAYER
 62
     7
 10
404.084577
 20
-110.271289
 30
0.0
 40
3.000000
  0
LINE
  8
0
  6
BYLAYER
 62
     7
 10
406.946393
 20
-109.371265
 30
0.0
 11
429.554699
 21
-109.371265
 31
0.0
  0
LINE
  8
0
  6
BYLAYER
 62
     7
 10
406.946393
 20
-111.171283
 30
0.0
 11
429.554699
 21
-111.171283
 31
0.0
  0
LINE
  8
0
  6
BYLAYER
 62
     7
 10
351.946393
 20
-109.371265
 30
0.0
 11
401.222760
 21
-109.371265
 31
0.0
  0
LINE
  8
0
  6
BYLAYER
 62
     7
 10
351.946393
 20
-111.171283
 30
0.0
 11
401.222760
 21
-111.171283
 31
0.0
  0
LINE
  8
0
  6
BYLAYER
 62
     7
 10
315.454572
 20
-109.371265
 30
0.0
 11
346.222760
 21
-109.371265
 31
0.0
  0
LINE
  8
0
  6
BYLAYER
 62
     7
 10
315.454572
 20
-111.171283
 30
0.0
 11
346.222760
 21
-111.171283
 31
0.0
  0
LINE
  8
0
  6
BYLAYER
 62
     7
 10
315.454572
 20
-145.221271
 30
0.0
 11
429.554699
 21
-145.221271
 31
0.0
  0
LINE
  8
0
  6
BYLAYER
 62
     7
 10
315.454572
 20
-147.021289
 30
0.0
 11
429.554699
 21
-147.021289
 31
0.0
  0
ARC
  8
0
  6
BYLAYER
 62
     7
 10
315.454572
 20
-170.021258
 30
0.0
 40
0.899994
 50
90.0
 51
269.999998
  0
LINE
  8
0
  6
BYLAYER
 62
     7
 10
315.454572
 20
-169.121265
 30
0.0
 11
429.554699
 21
-169.121265
 31
0.0
  0
LINE
  8
0
  6
BYLAYER
 62
     7
 10
315.454572
 20
-170.921283
 30
0.0
 11
429.554699
 21
-170.921283
 31
0.0
  0
LINE
  8
0
  6
BYLAYER
 62
     7
 10
335.554608
 20
-135.071277
 30
0.0
 11
335.554608
 21
-133.271289
 31
0.0
  0
LINE
  8
0
  6
BYLAYER
 62
     7
 10
417.554608
 20
-133.271289
 30
0.0
 11
417.554608
 21
-135.071277
 31
0.0
  0
LINE
  8
0
  6
BYLAYER
 62
     7
 10
417.554608
 20
-123.121265
 30
0.0
 11
417.554608
 21
-121.321277
 31
0.0
  0
LINE
  8
0
  6
BYLAYER
 62
     7
 10
335.554608
 20
-121.321277
 30
0.0
 11
335.554608
 21
-123.121265
 31
0.0
  0
LINE
  8
0
  6
BYLAYER
 62
     7
 10
417.554608
 20
-111.171283
 30
0.0
 11
417.554608
 21
-109.371265
 31
0.0
  0
LINE
  8
0
  6
BYLAYER
 62
     7
 10
335.554608
 20
-109.371265
 30
0.0
 11
335.554608
 21
-111.171283
 31
0.0
  0
LINE
  8
0
  6
BYLAYER
 62
     7
 10
417.554608
 20
-99.221271
 30
0.0
 11
417.554608
 21
-97.421283
 31
0.0
  0
LINE
  8
0
  6
BYLAYER
 62
     7
 10
335.554608
 20
-97.421283
 30
0.0
 11
335.554608
 21
-99.221271
 31
0.0
  0
LINE
  8
0
  6
BYLAYER
 62
     7
 10
335.554608
 20
-85.471271
 30
0.0
 11
335.554608
 21
-87.271289
 31
0.0
  0
LINE
  8
0
  6
BYLAYER
 62
     7
 10
417.554608
 20
-87.271289
 30
0.0
 11
417.554608
 21
-85.471271
 31
0.0
  0
ARC
  8
0
  6
BYLAYER
 62
     7
 10
322.454602
 20
-170.021289
 30
0.0
 40
0.900024
 50
90.0
 51
269.999998
  0
ARC
  8
0
  6
BYLAYER
 62
     7
 10
322.454602
 20
-158.071277
 30
0.0
 40
0.899994
 50
90.0
 51
269.999998
  0
ARC
  8
0
  6
BYLAYER
 62
     7
 10
322.454602
 20
-146.121265
 30
0.0
 40
0.899994
 50
90.0
 51
269.999998
  0
ARC
  8
0
  6
BYLAYER
 62
     7
 10
322.454602
 20
-134.171283
 30
0.0
 40
0.899994
 50
90.0
 51
269.999998
  0
ARC
  8
0
  6
BYLAYER
 62
     7
 10
322.454602
 20
-122.221271
 30
0.0
 40
0.899994
 50
90.0
 51
269.999998
  0
ARC
  8
0
  6
BYLAYER
 62
     7
 10
322.454602
 20
-110.271289
 30
0.0
 40
0.900024
 50
90.0
 51
269.999998
  0
ARC
  8
0
  6
BYLAYER
 62
     7
 10
322.454602
 20
-98.321277
 30
0.0
 40
0.899994
 50
90.0
 51
269.999998
  0
LINE
  8
0
  6
BYLAYER
 62
     7
 10
314.554484
 20
-40.196246
 30
0.0
 11
314.554610
 21
-195.696246
 31
0.0
  0
ARC
  8
0
  6
BYLAYER
 62
     7
 10
322.454602
 20
-74.421283
 30
0.0
 40
0.899994
 50
90.0
 51
269.999998
  0
ARC
  8
0
  6
BYLAYER
 62
     7
 10
322.454602
 20
-86.371295
 30
0.0
 40
0.900024
 50
90.0
 51
269.999998
  0
LINE
  8
0
  6
BYLAYER
 62
     7
 10
394.554547
 20
-52.741204
 30
0.0
 11
429.664545
 21
-52.741204
 31
0.0
  0
LINE
  8
0
  6
BYLAYER
 62
     7
 10
394.554547
 20
-55.148236
 30
0.0
 11
429.650601
 21
-55.148236
 31
0.0
  0
LINE
  8
0
  6
BYLAYER
 62
     7
 10
394.554547
 20
-60.205644
 30
0.0
 11
429.559721
 21
-60.205644
 31
0.0
  0
LINE
  8
0
  6
BYLAYER
 62
     7
 10
314.554501
 20
-61.196246
 30
0.0
 11
311.054608
 21
-61.196246
 31
0.0
  0
LINE
  8
0
  6
BYLAYER
 62
     7
 10
314.554501
 20
-195.196246
 30
0.0
 11
311.054608
 21
-195.196246
 31
0.0
  0
LINE
  8
0
  6
BYLAYER
 62
     7
 10
318.962160
 20
-204.924893
 30
0.0
 11
429.554699
 21
-204.924893
 31
0.0
  0
LINE
  8
0
  6
BYLAYER
 62
     7
 10
319.001843
 20
-202.517861
 30
0.0
 11
429.554699
 21
-202.517861
 31
0.0
  0
LINE
  8
0
  6
BYLAYER
 62
     7
 10
319.029440
 20
-198.093456
 30
0.0
 11
429.554699
 21
-198.093456
 31
0.0
  0
LINE
  8
0
  6
BYLAYER
 62
     7
 10
319.121335
 20
-190.261126
 30
0.0
 11
429.554699
 21
-190.261126
 31
0.0
  0
LINE
  8
0
  6
BYLAYER
 62
     7
 10
429.554699
 20
-173.285346
 30
0.0
 11
323.049146
 21
-173.285346
 31
0.0
  0
LINE
  8
0
  6
BYLAYER
 62
     7
 10
317.552527
 20
-203.937664
 30
0.0
 11
314.554608
 21
-195.696246
 31
0.0
  0
ARC
  8
0
  6
BYLAYER
 62
     7
 10
318.962160
 20
-203.424893
 30
0.0
 40
1.5
 50
199.989488
 51
270.0
  0
LINE
  8
0
  6
BYLAYER
 62
     7
 10
317.575102
 20
-201.480907
 30
0.0
 11
314.554608
 21
-192.174132
 31
0.0
  0
ARC
  8
0
  6
BYLAYER
 62
     7
 10
319.001843
 20
-201.017861
 30
0.0
 40
1.5
 50
197.980729
 51
270.0
  0
LINE
  8
0
  6
BYLAYER
 62
     7
 10
317.592055
 20
-197.022320
 30
0.0
 11
314.554608
 21
-186.841988
 31
0.0
  0
ARC
  8
0
  6
BYLAYER
 62
     7
 10
319.029440
 20
-196.593456
 30
0.0
 40
1.500000
 50
196.613220
 51
270.0
  0
LINE
  8
0
  6
BYLAYER
 62
     7
 10
317.655379
 20
-189.078891
 30
0.0
 11
314.554608
 21
-174.773989
 31
0.0
  0
ARC
  8
0
  6
BYLAYER
 62
     7
 10
319.121335
 20
-188.761126
 30
0.0
 40
1.500000
 50
192.230383
 51
270.0
  0
LINE
  8
0
  6
BYLAYER
 62
     7
 10
314.554608
 20
-186.841988
 30
0.0
 11
316.914940
 21
-185.662995
 31
0.0
  0
LINE
  8
0
  6
BYLAYER
 62
     7
 10
314.554608
 20
-192.174132
 30
0.0
 11
315.950686
 21
-191.521093
 31
0.0
  0
LINE
  8
0
  6
BYLAYER
 62
     7
 10
314.554608
 20
-174.773989
 30
0.0
 11
323.049146
 21
-173.285346
 31
0.0
  0
LINE
  8
0
  6
BYLAYER
 62
     7
 10
314.554608
 20
-195.696246
 30
0.0
 11
315.555660
 21
-195.258583
 31
0.0
  0
LINE
  8
0
  6
BYLAYER
 62
     7
 10
311.054608
 20
-195.196246
 30
0.0
 11
311.054608
 21
-61.196246
 31
0.0
  0
LINE
  8
0
  6
BYLAYER
 62
     7
 10
489.938220
 20
-48.946246
 30
0.0
 11
429.554699
 21
-48.946246
 31
0.0
  0
LINE
  8
0
  6
BYLAYER
 62
     7
 10
510.554699
 20
-63.708514
 30
0.0
 11
493.016528
 21
-50.006192
 31
0.0
  0
ARC
  8
0
  6
BYLAYER
 62
     7
 10
489.938220
 20
-53.946246
 30
0.0
 40
5.0
 50
52.000000
 51
90.000000
  0
LINE
  8
0
  6
BYLAYER
 62
     7
 10
510.554699
 20
-128.196246
 30
0.0
 11
510.554699
 21
-63.708514
 31
0.0
  0
LINE
  8
0
  6
BYLAYER
 62
     7
 10
510.554699
 20
-192.683978
 30
0.0
 11
510.554699
 21
-128.196246
 31
0.0
  0
LINE
  8
0
  6
BYLAYER
 62
     7
 10
493.016528
 20
-206.386300
 30
0.0
 11
510.554699
 21
-192.683978
 31
0.0
  0
ARC
  8
0
  6
BYLAYER
 62
     7
 10
489.938220
 20
-202.446246
 30
0.0
 40
5.0
 50
270.0
 51
308.0
  0
LINE
  8
0
  6
BYLAYER
 62
     7
 10
429.554699
 20
-207.446246
 30
0.0
 11
489.938220
 21
-207.446246
 31
0.0
  0
LINE
  8
0
  6
BYLAYER
 62
     7
 10
429.554699
 20
-207.446246
 30
0.0
 11
429.554699
 21
-128.196246
 31
0.0
  0
LINE
  8
0
  6
BYLAYER
 62
     7
 10
429.554699
 20
-48.946246
 30
0.0
 11
429.554699
 21
-128.196246
 31
0.0
  0
ARC
  8
0
  6
BYLAYER
 62
     7
 10
385.308822
 20
-29.696246
 30
0.0
 40
1.5
 50
180.000000
 51
270.000000
  0
ARC
  8
0
  6
BYLAYER
 62
     7
 10
323.800146
 20
-29.696246
 30
0.0
 40
1.5
 50
270.0
 51
360.0
  0
ARC
  8
0
  6
BYLAYER
 62
     7
 10
316.054484
 20
-29.696246
 30
0.0
 40
1.500000
 50
270.0
 51
360.0
  0
ARC
  8
0
  6
BYLAYER
 62
     7
 10
316.054484
 20
-32.696246
 30
0.0
 40
1.5
 50
90.0
 51
180.0
  0
ARC
  8
0
  6
BYLAYER
 62
     7
 10
393.054484
 20
-29.696246
 30
0.0
 40
1.500000
 50
180.000000
 51
270.000000
  0
LINE
  8
0
  6
BYLAYER
 62
     7
 10
317.554484
 20
-29.696246
 30
0.0
 11
317.554484
 21
-8.196246
 31
0.0
  0
ARC
  8
0
  6
BYLAYER
 62
     7
 10
319.054484
 20
-8.196246
 30
0.0
 40
1.500000
 50
90.0
 51
180.0
  0
LINE
  8
0
  6
BYLAYER
 62
     7
 10
391.554484
 20
-29.696246
 30
0.0
 11
391.554484
 21
-8.196246
 31
0.0
  0
LINE
  8
0
  6
BYLAYER
 62
     7
 10
319.054484
 20
-6.696246
 30
0.0
 11
390.054484
 21
-6.696246
 31
0.0
  0
ARC
  8
0
  6
BYLAYER
 62
     7
 10
382.308822
 20
-8.196246
 30
0.0
 40
1.5
 50
0.0
 51
90.0
  0
ARC
  8
0
  6
BYLAYER
 62
     7
 10
390.054484
 20
-8.196246
 30
0.0
 40
1.500000
 50
0.0
 51
90.0
  0
LINE
  8
0
  6
BYLAYER
 62
     7
 10
325.300146
 20
-29.696246
 30
0.0
 11
325.300146
 21
-8.196246
 31
0.0
  0
ARC
  8
0
  6
BYLAYER
 62
     7
 10
326.800146
 20
-8.196246
 30
0.0
 40
1.5
 50
90.0
 51
180.0
  0
LINE
  8
0
  6
BYLAYER
 62
     7
 10
383.808822
 20
-29.696246
 30
0.0
 11
383.808822
 21
-8.196246
 31
0.0
  0
ARC
  8
0
  6
BYLAYER
 62
     7
 10
393.054484
 20
-32.696246
 30
0.0
 40
1.500000
 50
0.0
 51
90.0
  0
LINE
  8
0
  6
BYLAYER
 62
     7
 10
394.554484
 20
-40.196246
 30
0.0
 11
394.554484
 21
-32.696246
 31
0.0
  0
LINE
  8
0
  6
BYLAYER
 62
     7
 10
393.054484
 20
-31.196246
 30
0.0
 11
316.054484
 21
-31.196246
 31
0.0
  0
LINE
  8
0
  6
BYLAYER
 62
     7
 10
314.554484
 20
-32.696246
 30
0.0
 11
314.554484
 21
-40.196246
 31
0.0
  0
LINE
  8
0
  6
BYLAYER
 62
     7
 10
314.554484
 20
-40.196246
 30
0.0
 11
394.554484
 21
-40.196246
 31
0.0
  0
LINE
  8
0
  6
BYLAYER
 62
     7
 10
394.554484
 20
-38.196246
 30
0.0
 11
314.554484
 21
-38.196246
 31
0.0
  0
LINE
  8
0
  6
BYLAYER
 62
     7
 10
489.938220
 20
-207.446246
 30
0.0
 11
489.938220
 21
-48.946246
 31
0.0
  0
LINE
  8
0
  6
BYLAYER
 62
     7
 10
289.554608
 20
-531.196246
 30
0.0
 11
289.554608
 21
-431.196246
 31
0.0
  0
LINE
  8
0
  6
BYLAYER
 62
     7
 10
289.554608
 20
-462.820865
 30
0.0
 11
289.554608
 21
-454.696246
 31
0.0
  0
LINE
  8
0
  6
BYLAYER
 62
     7
 10
277.554608
 20
-431.196246
 30
0.0
 11
289.554608
 21
-431.196246
 31
0.0
  0
LINE
  8
0
  6
BYLAYER
 62
     7
 10
290.045881
 20
-463.320788
 30
0.0
 11
311.054608
 21
-463.687518
 31
0.0
  0
ARC
  8
0
  6
BYLAYER
 62
     7
 10
290.054608
 20
-462.820865
 30
0.0
 40
0.500000
 50
180.000000
 51
268.999943
  0
LINE
  8
0
  6
BYLAYER
 62
     7
 10
311.054608
 20
-463.687518
 30
0.0
 11
311.054608
 21
-531.196246
 31
0.0
  0
LINE
  8
0
  6
BYLAYER
 62
     7
 10
277.554608
 20
-531.196246
 30
0.0
 11
277.554608
 21
-431.196246
 31
0.0
  0
LINE
  8
0
  6
BYLAYER
 62
     7
 10
289.554608
 20
-531.196246
 30
0.0
 11
289.554608
 21
-631.196246
 31
0.0
  0
LINE
  8
0
  6
BYLAYER
 62
     7
 10
289.554608
 20
-599.571627
 30
0.0
 11
289.554608
 21
-607.696246
 31
0.0
  0
LINE
  8
0
  6
BYLAYER
 62
     7
 10
277.554608
 20
-631.196246
 30
0.0
 11
289.554608
 21
-631.196246
 31
0.0
  0
LINE
  8
0
  6
BYLAYER
 62
     7
 10
290.045881
 20
-599.071704
 30
0.0
 11
311.054608
 21
-598.704974
 31
0.0
  0
ARC
  8
0
  6
BYLAYER
 62
     7
 10
290.054608
 20
-599.571627
 30
0.0
 40
0.5
 50
91.000057
 51
180.000000
  0
LINE
  8
0
  6
BYLAYER
 62
     7
 10
311.054608
 20
-598.704974
 30
0.0
 11
311.054608
 21
-531.196246
 31
0.0
  0
LINE
  8
0
  6
BYLAYER
 62
     7
 10
277.554608
 20
-531.196246
 30
0.0
 11
277.554608
 21
-631.196246
 31
0.0
  0
LINE
  8
0
  6
BYLAYER
 62
     7
 10
317.554555
 20
-555.712931
 30
0.0
 11
317.554555
 21
-531.196246
 31
0.0
  0
LINE
  8
0
  6
BYLAYER
 62
     7
 10
391.554555
 20
-531.196246
 30
0.0
 11
391.554555
 21
-555.712931
 31
0.0
  0
LINE
  8
0
  6
BYLAYER
 62
     7
 10
382.092150
 20
-565.446246
 30
0.0
 11
327.016961
 21
-565.446246
 31
0.0
  0
LINE
  8
0
  6
BYLAYER
 62
     7
 10
331.659254
 20
-536.297352
 30
0.0
 11
317.554555
 21
-536.789899
 31
0.0
  0
ARC
  8
0
  6
BYLAYER
 62
     7
 10
331.554555
 20
-533.299180
 30
0.0
 40
3.0
 50
272.000000
 51
360.000000
  0
LINE
  8
0
  6
BYLAYER
 62
     7
 10
331.659254
 20
-551.297352
 30
0.0
 11
317.554555
 21
-551.789899
 31
0.0
  0
ARC
  8
0
  6
BYLAYER
 62
     7
 10
331.554555
 20
-548.299180
 30
0.0
 40
3.0
 50
272.000000
 51
360.000000
  0
LINE
  8
0
  6
BYLAYER
 62
     7
 10
317.554555
 20
-540.602593
 30
0.0
 11
331.659254
 21
-541.095140
 31
0.0
  0
ARC
  8
0
  6
BYLAYER
 62
     7
 10
331.554555
 20
-544.093312
 30
0.0
 40
3.000000
 50
0.0
 51
88.0
  0
LINE
  8
0
  6
BYLAYER
 62
     7
 10
334.554555
 20
-544.093312
 30
0.0
 11
334.554555
 21
-548.299180
 31
0.0
  0
LINE
  8
0
  6
BYLAYER
 62
     7
 10
334.554555
 20
-531.196246
 30
0.0
 11
334.554555
 21
-533.299180
 31
0.0
  0
LINE
  8
0
  6
BYLAYER
 62
     7
 10
318.554555
 20
-531.196246
 30
0.0
 11
318.554555
 21
-536.754978
 31
0.0
  0
LINE
  8
0
  6
BYLAYER
 62
     7
 10
318.554555
 20
-540.637514
 30
0.0
 11
318.554555
 21
-551.754978
 31
0.0
  0
LINE
  8
0
  6
BYLAYER
 62
     7
 10
377.449857
 20
-536.297352
 30
0.0
 11
391.554555
 21
-536.789899
 31
0.0
  0
ARC
  8
0
  6
BYLAYER
 62
     7
 10
377.554555
 20
-533.299180
 30
0.0
 40
3.000000
 50
180.000000
 51
268.000000
  0
LINE
  8
0
  6
BYLAYER
 62
     7
 10
377.449857
 20
-551.297352
 30
0.0
 11
391.554555
 21
-551.789899
 31
0.0
  0
ARC
  8
0
  6
BYLAYER
 62
     7
 10
377.554555
 20
-548.299180
 30
0.0
 40
3.000000
 50
180.000000
 51
268.000000
  0
LINE
  8
0
  6
BYLAYER
 62
     7
 10
391.554555
 20
-540.602593
 30
0.0
 11
377.449857
 21
-541.095140
 31
0.0
  0
ARC
  8
0
  6
BYLAYER
 62
     7
 10
377.554555
 20
-544.093312
 30
0.0
 40
3.0
 50
92.000000
 51
180.000000
  0
LINE
  8
0
  6
BYLAYER
 62
     7
 10
374.554555
 20
-544.093312
 30
0.0
 11
374.554555
 21
-548.299180
 31
0.0
  0
LINE
  8
0
  6
BYLAYER
 62
     7
 10
374.554555
 20
-531.196246
 30
0.0
 11
374.554555
 21
-533.299180
 31
0.0
  0
LINE
  8
0
  6
BYLAYER
 62
     7
 10
390.554555
 20
-531.196246
 30
0.0
 11
390.554555
 21
-536.754978
 31
0.0
  0
LINE
  8
0
  6
BYLAYER
 62
     7
 10
390.554555
 20
-540.637514
 30
0.0
 11
390.554555
 21
-551.754978
 31
0.0
  0
LINE
  8
0
  6
BYLAYER
 62
     7
 10
314.554555
 20
-531.196246
 30
0.0
 11
314.554555
 21
-566.696246
 31
0.0
  0
ARC
  8
0
  6
BYLAYER
 62
     7
 10
316.054555
 20
-566.696246
 30
0.0
 40
1.500000
 50
180.000000
 51
270.000000
  0
LINE
  8
0
  6
BYLAYER
 62
     7
 10
394.554555
 20
-566.696246
 30
0.0
 11
394.554555
 21
-531.196246
 31
0.0
  0
LINE
  8
0
  6
BYLAYER
 62
     7
 10
316.054555
 20
-568.196246
 30
0.0
 11
393.054555
 21
-568.196246
 31
0.0
  0
ARC
  8
0
  6
BYLAYER
 62
     7
 10
393.054555
 20
-566.696246
 30
0.0
 40
1.500000
 50
270.0
 51
360.0
  0
ARC
  8
0
  6
BYLAYER
 62
     7
 10
389.554555
 20
-563.196246
 30
0.0
 40
6.000000
 50
86.177446
 51
185.739170
  0
ARC
  8
0
  6
BYLAYER
 62
     7
 10
390.054555
 20
-555.712931
 30
0.0
 40
1.500000
 50
266.177446
 51
360.0
  0
ARC
  8
0
  6
BYLAYER
 62
     7
 10
382.092150
 20
-563.946246
 30
0.0
 40
1.5
 50
270.0
 51
365.739170
  0
ARC
  8
0
  6
BYLAYER
 62
     7
 10
319.554555
 20
-563.196246
 30
0.0
 40
6.000000
 50
354.260830
 51
453.822554
  0
ARC
  8
0
  6
BYLAYER
 62
     7
 10
327.016961
 20
-563.946246
 30
0.0
 40
1.5
 50
174.260830
 51
270.000000
  0
ARC
  8
0
  6
BYLAYER
 62
     7
 10
319.054555
 20
-555.712931
 30
0.0
 40
1.500000
 50
180.000000
 51
273.822554
  0
ARC
  8
0
  6
BYLAYER
 62
     7
 10
341.554555
 20
-558.196246
 30
0.0
 40
3.0
 50
180.000000
 51
270.000000
  0
ARC
  8
0
  6
BYLAYER
 62
     7
 10
367.554555
 20
-558.196246
 30
0.0
 40
3.0
 50
270.0
 51
360.0
  0
LINE
  8
0
  6
BYLAYER
 62
     7
 10
341.554555
 20
-561.196246
 30
0.0
 11
367.554555
 21
-561.196246
 31
0.0
  0
LINE
  8
0
  6
BYLAYER
 62
     7
 10
338.554555
 20
-558.196246
 30
0.0
 11
338.554555
 21
-531.196246
 31
0.0
  0
LINE
  8
0
  6
BYLAYER
 62
     7
 10
370.554555
 20
-531.196246
 30
0.0
 11
370.554555
 21
-558.196246
 31
0.0
  0
LINE
  8
0
  6
BYLAYER
 62
     7
 10
394.554555
 20
-536.271289
 30
0.0
 11
429.554699
 21
-536.271289
 31
0.0
  0
LINE
  8
0
  6
BYLAYER
 62
     7
 10
394.554555
 20
-538.071277
 30
0.0
 11
429.554699
 21
-538.071277
 31
0.0
  0
LINE
  8
0
  6
BYLAYER
 62
     7
 10
394.554555
 20
-560.171283
 30
0.0
 11
429.554699
 21
-560.171283
 31
0.0
  0
LINE
  8
0
  6
BYLAYER
 62
     7
 10
394.554555
 20
-561.971271
 30
0.0
 11
429.554699
 21
-561.971271
 31
0.0
  0
LINE
  8
0
  6
BYLAYER
 62
     7
 10
325.554608
 20
-573.921283
 30
0.0
 11
325.554608
 21
-576.285346
 31
0.0
  0
LINE
  8
0
  6
BYLAYER
 62
     7
 10
325.554608
 20
-568.196246
 30
0.0
 11
325.554608
 21
-572.121265
 31
0.0
  0
LINE
  8
0
  6
BYLAYER
 62
     7
 10
427.554608
 20
-531.196246
 30
0.0
 11
427.554608
 21
-536.271289
 31
0.0
  0
LINE
  8
0
  6
BYLAYER
 62
     7
 10
427.554608
 20
-538.071277
 30
0.0
 11
427.554608
 21
-548.221271
 31
0.0
  0
LINE
  8
0
  6
BYLAYER
 62
     7
 10
427.554608
 20
-550.021289
 30
0.0
 11
427.554608
 21
-560.171283
 31
0.0
  0
LINE
  8
0
  6
BYLAYER
 62
     7
 10
427.554608
 20
-573.921283
 30
0.0
 11
427.554608
 21
-576.285346
 31
0.0
  0
LINE
  8
0
  6
BYLAYER
 62
     7
 10
427.554608
 20
-561.971271
 30
0.0
 11
427.554608
 21
-572.121265
 31
0.0
  0
LINE
  8
0
  6
BYLAYER
 62
     7
 10
394.554555
 20
-548.221271
 30
0.0
 11
429.554699
 21
-548.221271
 31
0.0
  0
LINE
  8
0
  6
BYLAYER
 62
     7
 10
394.554555
 20
-550.021289
 30
0.0
 11
429.554699
 21
-550.021289
 31
0.0
  0
ARC
  8
0
  6
BYLAYER
 62
     7
 10
315.454572
 20
-573.021258
 30
0.0
 40
0.899994
 50
90.0
 51
269.999998
  0
LINE
  8
0
  6
BYLAYER
 62
     7
 10
315.454572
 20
-572.121265
 30
0.0
 11
429.554699
 21
-572.121265
 31
0.0
  0
LINE
  8
0
  6
BYLAYER
 62
     7
 10
315.454572
 20
-573.921283
 30
0.0
 11
429.554699
 21
-573.921283
 31
0.0
  0
LINE
  8
0
  6
BYLAYER
 62
     7
 10
417.554608
 20
-536.271289
 30
0.0
 11
417.554608
 21
-538.071277
 31
0.0
  0
ARC
  8
0
  6
BYLAYER
 62
     7
 10
322.454602
 20
-573.021289
 30
0.0
 40
0.900024
 50
90.0
 51
269.999998
  0
LINE
  8
0
  6
BYLAYER
 62
     7
 10
314.554555
 20
-531.196246
 30
0.0
 11
314.554610
 21
-598.696246
 31
0.0
  0
LINE
  8
0
  6
BYLAYER
 62
     7
 10
314.554501
 20
-598.196246
 30
0.0
 11
311.054608
 21
-598.196246
 31
0.0
  0
LINE
  8
0
  6
BYLAYER
 62
     7
 10
318.962160
 20
-607.924893
 30
0.0
 11
429.554699
 21
-607.924893
 31
0.0
  0
LINE
  8
0
  6
BYLAYER
 62
     7
 10
319.001843
 20
-605.517861
 30
0.0
 11
429.554699
 21
-605.517861
 31
0.0
  0
LINE
  8
0
  6
BYLAYER
 62
     7
 10
319.029440
 20
-601.093456
 30
0.0
 11
429.554699
 21
-601.093456
 31
0.0
  0
LINE
  8
0
  6
BYLAYER
 62
     7
 10
319.121335
 20
-593.261126
 30
0.0
 11
429.554699
 21
-593.261126
 31
0.0
  0
LINE
  8
0
  6
BYLAYER
 62
     7
 10
429.554699
 20
-576.285346
 30
0.0
 11
323.049146
 21
-576.285346
 31
0.0
  0
LINE
  8
0
  6
BYLAYER
 62
     7
 10
317.552527
 20
-606.937664
 30
0.0
 11
314.554608
 21
-598.696246
 31
0.0
  0
ARC
  8
0
  6
BYLAYER
 62
     7
 10
318.962160
 20
-606.424893
 30
0.0
 40
1.5
 50
199.989488
 51
270.000000
  0
LINE
  8
0
  6
BYLAYER
 62
     7
 10
317.575102
 20
-604.480907
 30
0.0
 11
314.554608
 21
-595.174132
 31
0.0
  0
ARC
  8
0
  6
BYLAYER
 62
     7
 10
319.001843
 20
-604.017861
 30
0.0
 40
1.5
 50
197.980729
 51
270.000000
  0
LINE
  8
0
  6
BYLAYER
 62
     7
 10
317.592055
 20
-600.022320
 30
0.0
 11
314.554608
 21
-589.841988
 31
0.0
  0
ARC
  8
0
  6
BYLAYER
 62
     7
 10
319.029440
 20
-599.593456
 30
0.0
 40
1.5
 50
196.613220
 51
270.000000
  0
LINE
  8
0
  6
BYLAYER
 62
     7
 10
317.655379
 20
-592.078891
 30
0.0
 11
314.554608
 21
-577.773989
 31
0.0
  0
ARC
  8
0
  6
BYLAYER
 62
     7
 10
319.121335
 20
-591.761126
 30
0.0
 40
1.5
 50
192.230383
 51
270.000000
  0
LINE
  8
0
  6
BYLAYER
 62
     7
 10
314.554608
 20
-589.841988
 30
0.0
 11
316.914940
 21
-588.662995
 31
0.0
  0
LINE
  8
0
  6
BYLAYER
 62
     7
 10
314.554608
 20
-595.174132
 30
0.0
 11
315.950686
 21
-594.521093
 31
0.0
  0
LINE
  8
0
  6
BYLAYER
 62
     7
 10
314.554608
 20
-577.773989
 30
0.0
 11
323.049146
 21
-576.285346
 31
0.0
  0
LINE
  8
0
  6
BYLAYER
 62
     7
 10
314.554608
 20
-598.696246
 30
0.0
 11
315.555660
 21
-598.258583
 31
0.0
  0
LINE
  8
0
  6
BYLAYER
 62
     7
 10
311.054608
 20
-598.196246
 30
0.0
 11
311.054608
 21
-531.196246
 31
0.0
  0
LINE
  8
0
  6
BYLAYER
 62
     7
 10
510.554699
 20
-595.683978
 30
0.0
 11
510.554699
 21
-531.196246
 31
0.0
  0
LINE
  8
0
  6
BYLAYER
 62
     7
 10
493.016528
 20
-609.386300
 30
0.0
 11
510.554699
 21
-595.683978
 31
0.0
  0
ARC
  8
0
  6
BYLAYER
 62
     7
 10
489.938220
 20
-605.446246
 30
0.0
 40
5.000000
 50
270.0
 51
308.0
  0
LINE
  8
0
  6
BYLAYER
 62
     7
 10
429.554699
 20
-610.446246
 30
0.0
 11
489.938220
 21
-610.446246
 31
0.0
  0
LINE
  8
0
  6
BYLAYER
 62
     7
 10
429.554699
 20
-610.446246
 30
0.0
 11
429.554699
 21
-531.196246
 31
0.0
  0
LINE
  8
0
  6
BYLAYER
 62
     7
 10
317.554555
 20
-506.679561
 30
0.0
 11
317.554555
 21
-531.196246
 31
0.0
  0
LINE
  8
0
  6
BYLAYER
 62
     7
 10
391.554555
 20
-531.196246
 30
0.0
 11
391.554555
 21
-506.679561
 31
0.0
  0
LINE
  8
0
  6
BYLAYER
 62
     7
 10
382.092150
 20
-496.946246
 30
0.0
 11
327.016961
 21
-496.946246
 31
0.0
  0
LINE
  8
0
  6
BYLAYER
 62
     7
 10
331.659254
 20
-526.095140
 30
0.0
 11
317.554555
 21
-525.602593
 31
0.0
  0
ARC
  8
0
  6
BYLAYER
 62
     7
 10
331.554555
 20
-529.093312
 30
0.0
 40
3.000000
 50
0.0
 51
88.0
  0
LINE
  8
0
  6
BYLAYER
 62
     7
 10
331.659254
 20
-511.095140
 30
0.0
 11
317.554555
 21
-510.602593
 31
0.0
  0
ARC
  8
0
  6
BYLAYER
 62
     7
 10
331.554555
 20
-514.093312
 30
0.0
 40
3.000000
 50
0.0
 51
88.0
  0
LINE
  8
0
  6
BYLAYER
 62
     7
 10
317.554555
 20
-521.789899
 30
0.0
 11
331.659254
 21
-521.297352
 31
0.0
  0
ARC
  8
0
  6
BYLAYER
 62
     7
 10
331.554555
 20
-518.299180
 30
0.0
 40
3.0
 50
272.000000
 51
360.000000
  0
LINE
  8
0
  6
BYLAYER
 62
     7
 10
334.554555
 20
-518.299180
 30
0.0
 11
334.554555
 21
-514.093312
 31
0.0
  0
LINE
  8
0
  6
BYLAYER
 62
     7
 10
334.554555
 20
-531.196246
 30
0.0
 11
334.554555
 21
-529.093312
 31
0.0
  0
LINE
  8
0
  6
BYLAYER
 62
     7
 10
318.554555
 20
-531.196246
 30
0.0
 11
318.554555
 21
-525.637514
 31
0.0
  0
LINE
  8
0
  6
BYLAYER
 62
     7
 10
318.554555
 20
-521.754978
 30
0.0
 11
318.554555
 21
-510.637514
 31
0.0
  0
LINE
  8
0
  6
BYLAYER
 62
     7
 10
377.449857
 20
-526.095140
 30
0.0
 11
391.554555
 21
-525.602593
 31
0.0
  0
ARC
  8
0
  6
BYLAYER
 62
     7
 10
377.554555
 20
-529.093312
 30
0.0
 40
3.0
 50
92.000000
 51
180.000000
  0
LINE
  8
0
  6
BYLAYER
 62
     7
 10
377.449857
 20
-511.095140
 30
0.0
 11
391.554555
 21
-510.602593
 31
0.0
  0
ARC
  8
0
  6
BYLAYER
 62
     7
 10
377.554555
 20
-514.093312
 30
0.0
 40
3.0
 50
92.000000
 51
180.000000
  0
LINE
  8
0
  6
BYLAYER
 62
     7
 10
391.554555
 20
-521.789899
 30
0.0
 11
377.449857
 21
-521.297352
 31
0.0
  0
ARC
  8
0
  6
BYLAYER
 62
     7
 10
377.554555
 20
-518.299180
 30
0.0
 40
3.000000
 50
180.000000
 51
268.000000
  0
LINE
  8
0
  6
BYLAYER
 62
     7
 10
374.554555
 20
-518.299180
 30
0.0
 11
374.554555
 21
-514.093312
 31
0.0
  0
LINE
  8
0
  6
BYLAYER
 62
     7
 10
374.554555
 20
-531.196246
 30
0.0
 11
374.554555
 21
-529.093312
 31
0.0
  0
LINE
  8
0
  6
BYLAYER
 62
     7
 10
390.554555
 20
-531.196246
 30
0.0
 11
390.554555
 21
-525.637514
 31
0.0
  0
LINE
  8
0
  6
BYLAYER
 62
     7
 10
390.554555
 20
-521.754978
 30
0.0
 11
390.554555
 21
-510.637514
 31
0.0
  0
LINE
  8
0
  6
BYLAYER
 62
     7
 10
314.554555
 20
-531.196246
 30
0.0
 11
314.554555
 21
-495.696246
 31
0.0
  0
ARC
  8
0
  6
BYLAYER
 62
     7
 10
316.054555
 20
-495.696246
 30
0.0
 40
1.5
 50
90.0
 51
180.0
  0
LINE
  8
0
  6
BYLAYER
 62
     7
 10
394.554555
 20
-495.696246
 30
0.0
 11
394.554555
 21
-531.196246
 31
0.0
  0
LINE
  8
0
  6
BYLAYER
 62
     7
 10
316.054555
 20
-494.196246
 30
0.0
 11
393.054555
 21
-494.196246
 31
0.0
  0
ARC
  8
0
  6
BYLAYER
 62
     7
 10
393.054555
 20
-495.696246
 30
0.0
 40
1.5
 50
0.0
 51
90.0
  0
ARC
  8
0
  6
BYLAYER
 62
     7
 10
389.554555
 20
-499.196246
 30
0.0
 40
6.000000
 50
174.260830
 51
273.822554
  0
ARC
  8
0
  6
BYLAYER
 62
     7
 10
390.054555
 20
-506.679561
 30
0.0
 40
1.500000
 50
0.0
 51
93.822554
  0
ARC
  8
0
  6
BYLAYER
 62
     7
 10
382.092150
 20
-498.446246
 30
0.0
 40
1.500000
 50
354.260830
 51
450.000000
  0
ARC
  8
0
  6
BYLAYER
 62
     7
 10
319.554555
 20
-499.196246
 30
0.0
 40
6.000000
 50
266.177446
 51
365.739170
  0
ARC
  8
0
  6
BYLAYER
 62
     7
 10
327.016961
 20
-498.446246
 30
0.0
 40
1.5
 50
90.0
 51
185.73917
  0
ARC
  8
0
  6
BYLAYER
 62
     7
 10
319.054555
 20
-506.679561
 30
0.0
 40
1.500000
 50
86.177446
 51
180.0
  0
ARC
  8
0
  6
BYLAYER
 62
     7
 10
341.554555
 20
-504.196246
 30
0.0
 40
3.0
 50
90.0
 51
180.0
  0
ARC
  8
0
  6
BYLAYER
 62
     7
 10
367.554555
 20
-504.196246
 30
0.0
 40
3.0
 50
0.0
 51
90.0
  0
LINE
  8
0
  6
BYLAYER
 62
     7
 10
341.554555
 20
-501.196246
 30
0.0
 11
367.554555
 21
-501.196246
 31
0.0
  0
LINE
  8
0
  6
BYLAYER
 62
     7
 10
338.554555
 20
-504.196246
 30
0.0
 11
338.554555
 21
-531.196246
 31
0.0
  0
LINE
  8
0
  6
BYLAYER
 62
     7
 10
370.554555
 20
-531.196246
 30
0.0
 11
370.554555
 21
-504.196246
 31
0.0
  0
LINE
  8
0
  6
BYLAYER
 62
     7
 10
394.554555
 20
-526.121203
 30
0.0
 11
429.554699
 21
-526.121203
 31
0.0
  0
LINE
  8
0
  6
BYLAYER
 62
     7
 10
394.554555
 20
-524.321215
 30
0.0
 11
429.554699
 21
-524.321215
 31
0.0
  0
LINE
  8
0
  6
BYLAYER
 62
     7
 10
394.554555
 20
-502.221209
 30
0.0
 11
429.554699
 21
-502.221209
 31
0.0
  0
LINE
  8
0
  6
BYLAYER
 62
     7
 10
394.554555
 20
-500.421221
 30
0.0
 11
429.554699
 21
-500.421221
 31
0.0
  0
LINE
  8
0
  6
BYLAYER
 62
     7
 10
325.554608
 20
-488.471209
 30
0.0
 11
325.554608
 21
-486.107146
 31
0.0
  0
LINE
  8
0
  6
BYLAYER
 62
     7
 10
325.554608
 20
-494.196246
 30
0.0
 11
325.554608
 21
-490.271227
 31
0.0
  0
LINE
  8
0
  6
BYLAYER
 62
     7
 10
427.554608
 20
-531.196246
 30
0.0
 11
427.554608
 21
-526.121203
 31
0.0
  0
LINE
  8
0
  6
BYLAYER
 62
     7
 10
427.554608
 20
-524.321215
 30
0.0
 11
427.554608
 21
-514.171221
 31
0.0
  0
LINE
  8
0
  6
BYLAYER
 62
     7
 10
427.554608
 20
-512.371203
 30
0.0
 11
427.554608
 21
-502.221209
 31
0.0
  0
LINE
  8
0
  6
BYLAYER
 62
     7
 10
427.554608
 20
-488.471209
 30
0.0
 11
427.554608
 21
-486.107146
 31
0.0
  0
LINE
  8
0
  6
BYLAYER
 62
     7
 10
427.554608
 20
-500.421221
 30
0.0
 11
427.554608
 21
-490.271227
 31
0.0
  0
LINE
  8
0
  6
BYLAYER
 62
     7
 10
394.554555
 20
-514.171221
 30
0.0
 11
429.554699
 21
-514.171221
 31
0.0
  0
LINE
  8
0
  6
BYLAYER
 62
     7
 10
394.554555
 20
-512.371203
 30
0.0
 11
429.554699
 21
-512.371203
 31
0.0
  0
ARC
  8
0
  6
BYLAYER
 62
     7
 10
315.454572
 20
-489.371234
 30
0.0
 40
0.899994
 50
90.0
 51
269.999998
  0
LINE
  8
0
  6
BYLAYER
 62
     7
 10
315.454572
 20
-490.271227
 30
0.0
 11
429.554699
 21
-490.271227
 31
0.0
  0
LINE
  8
0
  6
BYLAYER
 62
     7
 10
315.454572
 20
-488.471209
 30
0.0
 11
429.554699
 21
-488.471209
 31
0.0
  0
LINE
  8
0
  6
BYLAYER
 62
     7
 10
417.554608
 20
-526.121203
 30
0.0
 11
417.554608
 21
-524.321215
 31
0.0
  0
ARC
  8
0
  6
BYLAYER
 62
     7
 10
322.454602
 20
-489.371203
 30
0.0
 40
0.900024
 50
90.0
 51
269.999998
  0
LINE
  8
0
  6
BYLAYER
 62
     7
 10
314.554555
 20
-531.196246
 30
0.0
 11
314.554610
 21
-463.696246
 31
0.0
  0
LINE
  8
0
  6
BYLAYER
 62
     7
 10
314.554501
 20
-464.196246
 30
0.0
 11
311.054608
 21
-464.196246
 31
0.0
  0
LINE
  8
0
  6
BYLAYER
 62
     7
 10
318.962160
 20
-454.467599
 30
0.0
 11
429.554699
 21
-454.467599
 31
0.0
  0
LINE
  8
0
  6
BYLAYER
 62
     7
 10
319.001843
 20
-456.874631
 30
0.0
 11
429.554699
 21
-456.874631
 31
0.0
  0
LINE
  8
0
  6
BYLAYER
 62
     7
 10
319.029440
 20
-461.299036
 30
0.0
 11
429.554699
 21
-461.299036
 31
0.0
  0
LINE
  8
0
  6
BYLAYER
 62
     7
 10
319.121335
 20
-469.131366
 30
0.0
 11
429.554699
 21
-469.131366
 31
0.0
  0
LINE
  8
0
  6
BYLAYER
 62
     7
 10
429.554699
 20
-486.107146
 30
0.0
 11
323.049146
 21
-486.107146
 31
0.0
  0
LINE
  8
0
  6
BYLAYER
 62
     7
 10
317.552527
 20
-455.454828
 30
0.0
 11
314.554608
 21
-463.696246
 31
0.0
  0
ARC
  8
0
  6
BYLAYER
 62
     7
 10
318.962160
 20
-455.967599
 30
0.0
 40
1.5
 50
90.0
 51
160.010512
  0
LINE
  8
0
  6
BYLAYER
 62
     7
 10
317.575102
 20
-457.911585
 30
0.0
 11
314.554608
 21
-467.218360
 31
0.0
  0
ARC
  8
0
  6
BYLAYER
 62
     7
 10
319.001843
 20
-458.374631
 30
0.0
 40
1.5
 50
90.0
 51
162.019271
  0
LINE
  8
0
  6
BYLAYER
 62
     7
 10
317.592055
 20
-462.370172
 30
0.0
 11
314.554608
 21
-472.550504
 31
0.0
  0
ARC
  8
0
  6
BYLAYER
 62
     7
 10
319.029440
 20
-462.799036
 30
0.0
 40
1.500000
 50
90.0
 51
163.38678
  0
LINE
  8
0
  6
BYLAYER
 62
     7
 10
317.655379
 20
-470.313601
 30
0.0
 11
314.554608
 21
-484.618503
 31
0.0
  0
ARC
  8
0
  6
BYLAYER
 62
     7
 10
319.121335
 20
-470.631366
 30
0.0
 40
1.500000
 50
90.0
 51
167.769617
  0
LINE
  8
0
  6
BYLAYER
 62
     7
 10
314.554608
 20
-472.550504
 30
0.0
 11
316.914940
 21
-473.729497
 31
0.0
  0
LINE
  8
0
  6
BYLAYER
 62
     7
 10
314.554608
 20
-467.218360
 30
0.0
 11
315.950686
 21
-467.871399
 31
0.0
  0
LINE
  8
0
  6
BYLAYER
 62
     7
 10
314.554608
 20
-484.618503
 30
0.0
 11
323.049146
 21
-486.107146
 31
0.0
  0
LINE
  8
0
  6
BYLAYER
 62
     7
 10
314.554608
 20
-463.696246
 30
0.0
 11
315.555660
 21
-464.133909
 31
0.0
  0
LINE
  8
0
  6
BYLAYER
 62
     7
 10
311.054608
 20
-464.196246
 30
0.0
 11
311.054608
 21
-531.196246
 31
0.0
  0
LINE
  8
0
  6
BYLAYER
 62
     7
 10
510.554699
 20
-466.708514
 30
0.0
 11
510.554699
 21
-531.196246
 31
0.0
  0
LINE
  8
0
  6
BYLAYER
 62
     7
 10
493.016528
 20
-453.006192
 30
0.0
 11
510.554699
 21
-466.708514
 31
0.0
  0
ARC
  8
0
  6
BYLAYER
 62
     7
 10
489.938220
 20
-456.946246
 30
0.0
 40
5.0
 50
52.0
 51
90.0
  0
LINE
  8
0
  6
BYLAYER
 62
     7
 10
429.554699
 20
-451.946246
 30
0.0
 11
489.938220
 21
-451.946246
 31
0.0
  0
LINE
  8
0
  6
BYLAYER
 62
     7
 10
429.554699
 20
-451.946246
 30
0.0
 11
429.554699
 21
-531.196246
 31
0.0
  0
LINE
  8
0
  6
BYLAYER
 62
     7
 10
489.938220
 20
-610.446246
 30
0.0
 11
489.938220
 21
-451.946246
 31
0.0
  0
ARC
  8
0
  6
BYLAYER
 62
     1
 10
182.554608
 20
-191.196246
 30
0.0
 40
68.000000
 50
244.344062
 51
295.655933
  0
ARC
  8
0
  6
BYLAYER
 62
     1
 10
182.554608
 20
-191.196246
 30
0.0
 40
68.000000
 50
64.344063
 51
115.655935
  0
ARC
  8
0
  6
BYLAYER
 62
     1
 10
211.255910
 20
-121.905291
 30
0.0
 40
26.999977
 50
214.712939
 51
280.286921
  0
ARC
  8
0
  6
BYLAYER
 62
     1
 10
211.255849
 20
-260.487262
 30
0.0
 40
27.000053
 50
79.712932
 51
145.286921
  0
CIRCLE
  8
0
  6
BYLAYER
 62
     1
 10
182.554608
 20
-191.196246
 30
0.0
 40
32.5
  0
CIRCLE
  8
0
  6
BYLAYER
 62
     1
 10
182.554608
 20
-191.196246
 30
0.0
 40
40.0
  0
LINE
  8
0
  6
BYLAYER
 62
     1
 10
215.554616
 20
-90.196315
 30
0.0
 11
149.554608
 21
-90.196315
 31
0.0
  0
LINE
  8
0
  6
BYLAYER
 62
     1
 10
119.554608
 20
-97.196254
 30
0.0
 11
245.554616
 21
-97.196254
 31
0.0
  0
ARC
  8
0
  6
BYLAYER
 62
     1
 10
182.554608
 20
-191.196246
 30
0.0
 40
69.000053
 50
248.368928
 51
291.631073
  0
LINE
  8
0
  6
BYLAYER
 62
     1
 10
215.554616
 20
-262.196246
 30
0.0
 11
149.554608
 21
-262.196246
 31
0.0
  0
CIRCLE
  8
0
  6
BYLAYER
 62
     1
 10
135.054608
 20
-191.196246
 30
0.0
 40
3.5
  0
ARC
  8
0
  6
BYLAYER
 62
     1
 10
135.054608
 20
-191.196246
 30
0.0
 40
4.0
 50
270.0
 51
540.0
  0
ARC
  8
0
  6
BYLAYER
 62
     1
 10
182.554608
 20
-191.196246
 30
0.0
 40
68.0
 50
154.344066
 51
205.655937
  0
ARC
  8
0
  6
BYLAYER
 62
     1
 10
182.554608
 20
-191.196246
 30
0.0
 40
55.000004
 50
174.735596
 51
185.264401
  0
ARC
  8
0
  6
BYLAYER
 62
     1
 10
182.554608
 20
-191.196246
 30
0.0
 40
69.000053
 50
158.368960
 51
201.631037
  0
LINE
  8
0
  6
BYLAYER
 62
     1
 10
111.554608
 20
-224.196246
 30
0.0
 11
111.554608
 21
-160.196246
 31
0.0
  0
LINE
  8
0
  6
BYLAYER
 62
     1
 10
122.543896
 20
-221.703845
 30
0.0
 11
137.262890
 21
-225.647784
 31
0.0
  0
LINE
  8
0
  6
BYLAYER
 62
     1
 10
148.554608
 20
-263.196246
 30
0.0
 11
112.554608
 21
-263.196246
 31
0.0
  0
LINE
  8
0
  6
BYLAYER
 62
     1
 10
118.847500
 20
-254.903369
 30
0.0
 11
125.847500
 21
-247.903338
 31
0.0
  0
LINE
  8
0
  6
BYLAYER
 62
     1
 10
119.554608
 20
-255.196246
 30
0.0
 11
156.381955
 21
-255.196246
 31
0.0
  0
LINE
  8
0
  6
BYLAYER
 62
     1
 10
110.554608
 20
-261.196246
 30
0.0
 11
110.554608
 21
-225.196246
 31
0.0
  0
LINE
  8
0
  6
BYLAYER
 62
     1
 10
118.554608
 20
-254.196246
 30
0.0
 11
118.554608
 21
-225.196246
 31
0.0
  0
LINE
  8
0
  6
BYLAYER
 62
     1
 10
112.554608
 20
-263.196246
 30
0.0
 11
110.554608
 21
-261.196246
 31
0.0
  0
ARC
  8
0
  6
BYLAYER
 62
     1
 10
119.554608
 20
-254.196246
 30
0.0
 40
1.0
 50
180.000000
 51
269.999996
  0
LINE
  8
0
  6
BYLAYER
 62
     1
 10
118.554608
 20
-217.368884
 30
0.0
 11
118.554608
 21
-225.196246
 31
0.0
  0
LINE
  8
0
  6
BYLAYER
 62
     1
 10
118.554608
 20
-245.446246
 30
0.0
 11
110.554608
 21
-245.446246
 31
0.0
  0
LINE
  8
0
  6
BYLAYER
 62
     1
 10
118.554608
 20
-236.946246
 30
0.0
 11
110.554608
 21
-236.946246
 31
0.0
  0
LINE
  8
0
  6
BYLAYER
 62
     1
 10
118.554608
 20
-224.196246
 30
0.0
 11
111.554608
 21
-224.196246
 31
0.0
  0
LINE
  8
0
  6
BYLAYER
 62
     1
 10
118.554608
 20
-225.196246
 30
0.0
 11
110.554608
 21
-225.196246
 31
0.0
  0
LINE
  8
0
  6
BYLAYER
 62
     1
 10
111.554608
 20
-224.196246
 30
0.0
 11
110.554608
 21
-225.196246
 31
0.0
  0
ARC
  8
0
  6
BYLAYER
 62
     1
 10
116.554608
 20
-217.368884
 30
0.0
 40
2.000006
 50
0.0
 51
21.631513
  0
ARC
  8
0
  6
BYLAYER
 62
     1
 10
123.061535
 20
-219.771991
 30
0.0
 40
2.000000
 50
205.655930
 51
254.999993
  0
ARC
  8
0
  6
BYLAYER
 62
     1
 10
153.978863
 20
-250.689319
 30
0.0
 40
2.000000
 50
195.000002
 51
244.344065
  0
LINE
  8
0
  6
BYLAYER
 62
     1
 10
128.304608
 20
-263.196246
 30
0.0
 11
128.304608
 21
-255.196246
 31
0.0
  0
LINE
  8
0
  6
BYLAYER
 62
     1
 10
136.804608
 20
-263.196246
 30
0.0
 11
136.804608
 21
-255.196246
 31
0.0
  0
LINE
  8
0
  6
BYLAYER
 62
     1
 10
149.554608
 20
-255.196246
 30
0.0
 11
149.554608
 21
-262.196246
 31
0.0
  0
LINE
  8
0
  6
BYLAYER
 62
     1
 10
148.554608
 20
-263.196246
 30
0.0
 11
148.554608
 21
-255.196246
 31
0.0
  0
LINE
  8
0
  6
BYLAYER
 62
     1
 10
149.554608
 20
-262.196246
 30
0.0
 11
148.554608
 21
-263.196246
 31
0.0
  0
ARC
  8
0
  6
BYLAYER
 62
     1
 10
156.381955
 20
-257.196246
 30
0.0
 40
2.0
 50
68.368968
 51
90.000000
  0
ARC
  8
0
  6
BYLAYER
 62
     1
 10
153.853314
 20
-260.487201
 30
0.0
 40
26.999977
 50
34.712944
 51
100.286927
  0
CIRCLE
  8
0
  6
BYLAYER
 62
     1
 10
148.966962
 20
-224.783831
 30
0.0
 40
3.5
  0
ARC
  8
0
  6
BYLAYER
 62
     1
 10
148.966962
 20
-224.783831
 30
0.0
 40
4.000000
 50
270.0
 51
540.0
  0
ARC
  8
0
  6
BYLAYER
 62
     1
 10
113.263592
 20
-219.897479
 30
0.0
 40
26.999992
 50
349.712926
 51
415.286928
  0
LINE
  8
0
  6
BYLAYER
 62
     1
 10
125.554608
 20
-222.510562
 30
0.0
 11
125.554608
 21
-247.196246
 31
0.0
  0
ARC
  8
0
  6
BYLAYER
 62
     1
 10
182.554608
 20
-191.196246
 30
0.0
 40
56.500000
 50
218.457822
 51
231.542171
  0
ARC
  8
0
  6
BYLAYER
 62
     1
 10
182.554608
 20
-191.196246
 30
0.0
 40
59.5
 50
214.838327
 51
235.16167
  0
ARC
  8
0
  6
BYLAYER
 62
     1
 10
182.554608
 20
-191.196246
 30
0.0
 40
55.000015
 50
219.735573
 51
230.264392
  0
LINE
  8
0
  6
BYLAYER
 62
     1
 10
151.240292
 20
-248.196246
 30
0.0
 11
126.554608
 21
-248.196246
 31
0.0
  0
ARC
  8
0
  6
BYLAYER
 62
     1
 10
126.554608
 20
-247.196246
 30
0.0
 40
1.000000
 50
180.000000
 51
269.999996
  0
ARC
  8
0
  6
BYLAYER
 62
     1
 10
132.077435
 20
-226.328906
 30
0.0
 40
2.0
 50
34.838329
 51
75.000002
  0
ARC
  8
0
  6
BYLAYER
 62
     1
 10
136.745251
 20
-227.579638
 30
0.0
 40
2.0
 50
38.457824
 51
74.999999
  0
ARC
  8
0
  6
BYLAYER
 62
     1
 10
141.797467
 20
-225.076251
 30
0.0
 40
2.000036
 50
169.713849
 51
219.735682
  0
LINE
  8
0
  6
BYLAYER
 62
     1
 10
152.047009
 20
-251.206958
 30
0.0
 11
148.103070
 21
-236.487994
 31
0.0
  0
LINE
  8
0
  6
BYLAYER
 62
     1
 10
150.716443
 20
-248.196246
 30
0.0
 11
149.622647
 21
-248.196246
 31
0.0
  0
ARC
  8
0
  6
BYLAYER
 62
     1
 10
147.421948
 20
-241.673449
 30
0.0
 40
2.000000
 50
14.999997
 51
55.161670
  0
ARC
  8
0
  6
BYLAYER
 62
     1
 10
146.171216
 20
-237.005633
 30
0.0
 40
2.000000
 50
15.000000
 51
51.542175
  0
ARC
  8
0
  6
BYLAYER
 62
     1
 10
148.674603
 20
-231.953387
 30
0.0
 40
1.999976
 50
230.263381
 51
280.286785
  0
ARC
  8
0
  6
BYLAYER
 62
     1
 10
129.778180
 20
-196.059100
 30
0.0
 40
1.999986
 50
185.263390
 51
235.286794
  0
CIRCLE
  8
0
  6
BYLAYER
 62
     1
 10
182.554608
 20
-238.696246
 30
0.0
 40
3.5
  0
ARC
  8
0
  6
BYLAYER
 62
     1
 10
182.554608
 20
-238.696246
 30
0.0
 40
4.0
 50
270.0
 51
540.0
  0
ARC
  8
0
  6
BYLAYER
 62
     1
 10
182.554608
 20
-191.196246
 30
0.0
 40
55.000004
 50
264.735564
 51
275.264437
  0
ARC
  8
0
  6
BYLAYER
 62
     1
 10
177.691754
 20
-243.972674
 30
0.0
 40
2.000036
 50
214.713854
 51
264.735673
  0
ARC
  8
0
  6
BYLAYER
 62
     1
 10
187.417462
 20
-243.972735
 30
0.0
 40
1.999952
 50
275.263399
 51
325.286776
  0
LINE
  8
0
  6
BYLAYER
 62
     1
 10
122.543896
 20
-160.688647
 30
0.0
 11
137.262890
 21
-156.744708
 31
0.0
  0
LINE
  8
0
  6
BYLAYER
 62
     1
 10
148.554608
 20
-89.196254
 30
0.0
 11
112.554608
 21
-89.196254
 31
0.0
  0
LINE
  8
0
  6
BYLAYER
 62
     1
 10
119.554608
 20
-147.196185
 30
0.0
 11
134.054593
 21
-147.196185
 31
0.0
  0
LINE
  8
0
  6
BYLAYER
 62
     1
 10
134.054593
 20
-149.196185
 30
0.0
 11
119.554608
 21
-149.196185
 31
0.0
  0
LINE
  8
0
  6
BYLAYER
 62
     1
 10
119.554608
 20
-139.196185
 30
0.0
 11
146.554593
 21
-139.196185
 31
0.0
  0
LINE
  8
0
  6
BYLAYER
 62
     1
 10
146.554593
 20
-137.196185
 30
0.0
 11
119.554608
 21
-137.196185
 31
0.0
  0
LINE
  8
0
  6
BYLAYER
 62
     1
 10
149.054593
 20
-129.196185
 30
0.0
 11
119.554608
 21
-129.196185
 31
0.0
  0
LINE
  8
0
  6
BYLAYER
 62
     1
 10
119.554608
 20
-127.196185
 30
0.0
 11
149.054593
 21
-127.196185
 31
0.0
  0
LINE
  8
0
  6
BYLAYER
 62
     1
 10
110.554608
 20
-91.196254
 30
0.0
 11
110.554608
 21
-158.884234
 31
0.0
  0
LINE
  8
0
  6
BYLAYER
 62
     1
 10
118.554608
 20
-98.196254
 30
0.0
 11
118.554608
 21
-165.023608
 31
0.0
  0
ARC
  8
0
  6
BYLAYER
 62
     1
 10
119.554608
 20
-136.196185
 30
0.0
 40
1.0
 50
180.000000
 51
269.999996
  0
LINE
  8
0
  6
BYLAYER
 62
     1
 10
111.554608
 20
-128.196246
 30
0.0
 11
111.554608
 21
-160.196246
 31
0.0
  0
ARC
  8
0
  6
BYLAYER
 62
     1
 10
116.554608
 20
-165.023608
 30
0.0
 40
2.000006
 50
338.368473
 51
360.000000
  0
LINE
  8
0
  6
BYLAYER
 62
     1
 10
110.554608
 20
-158.884234
 30
0.0
 11
111.554608
 21
-158.919146
 31
0.0
  0
LINE
  8
0
  6
BYLAYER
 62
     1
 10
118.554608
 20
-158.678912
 30
0.0
 11
118.554608
 21
-160.922992
 31
0.0
  0
ARC
  8
0
  6
BYLAYER
 62
     1
 10
123.061535
 20
-162.620501
 30
0.0
 40
2.000000
 50
105.000003
 51
154.344066
  0
ARC
  8
0
  6
BYLAYER
 62
     1
 10
119.554608
 20
-146.196185
 30
0.0
 40
1.0
 50
180.000000
 51
269.999996
  0
ARC
  8
0
  6
BYLAYER
 62
     1
 10
119.554608
 20
-150.196185
 30
0.0
 40
1.000000
 50
90.0
 51
180.000003
  0
ARC
  8
0
  6
BYLAYER
 62
     1
 10
119.554608
 20
-140.196185
 30
0.0
 40
1.000000
 50
90.0
 51
180.000003
  0
LINE
  8
0
  6
BYLAYER
 62
     1
 10
118.554608
 20
-128.196246
 30
0.0
 11
111.554608
 21
-128.196246
 31
0.0
  0
LINE
  8
0
  6
BYLAYER
 62
     1
 10
118.554608
 20
-127.196246
 30
0.0
 11
110.554608
 21
-127.196246
 31
0.0
  0
LINE
  8
0
  6
BYLAYER
 62
     1
 10
111.554608
 20
-128.196246
 30
0.0
 11
110.554608
 21
-127.196246
 31
0.0
  0
ARC
  8
0
  6
BYLAYER
 62
     1
 10
119.554608
 20
-130.196185
 30
0.0
 40
1.000000
 50
90.0
 51
180.000003
  0
ARC
  8
0
  6
BYLAYER
 62
     1
 10
119.554608
 20
-126.196185
 30
0.0
 40
1.0
 50
180.000000
 51
269.999996
  0
LINE
  8
0
  6
BYLAYER
 62
     1
 10
118.554608
 20
-115.446246
 30
0.0
 11
110.554608
 21
-115.446246
 31
0.0
  0
LINE
  8
0
  6
BYLAYER
 62
     1
 10
118.554608
 20
-106.946246
 30
0.0
 11
110.554608
 21
-106.946246
 31
0.0
  0
ARC
  8
0
  6
BYLAYER
 62
     1
 10
119.554608
 20
-98.196254
 30
0.0
 40
1.0
 50
90.0
 51
180.000003
  0
LINE
  8
0
  6
BYLAYER
 62
     1
 10
112.554608
 20
-89.196254
 30
0.0
 11
110.554608
 21
-91.196254
 31
0.0
  0
LINE
  8
0
  6
BYLAYER
 62
     1
 10
148.103070
 20
-145.904528
 30
0.0
 11
152.047009
 21
-131.185534
 31
0.0
  0
ARC
  8
0
  6
BYLAYER
 62
     1
 10
182.554608
 20
-191.196246
 30
0.0
 40
55.000004
 50
84.735566
 51
95.264432
  0
ARC
  8
0
  6
BYLAYER
 62
     1
 10
187.417462
 20
-138.419818
 30
0.0
 40
2.000036
 50
34.713846
 51
84.735689
  0
ARC
  8
0
  6
BYLAYER
 62
     1
 10
177.691754
 20
-138.419757
 30
0.0
 40
1.999952
 50
95.263360
 51
145.286798
  0
ARC
  8
0
  6
BYLAYER
 62
     1
 10
153.853375
 20
-121.905230
 30
0.0
 40
26.999992
 50
259.712889
 51
325.286912
  0
ARC
  8
0
  6
BYLAYER
 62
     1
 10
113.263653
 20
-162.494952
 30
0.0
 40
26.999977
 50
304.712934
 51
370.286924
  0
ARC
  8
0
  6
BYLAYER
 62
     1
 10
129.778180
 20
-186.333392
 30
0.0
 40
2.000036
 50
124.713845
 51
174.735678
  0
ARC
  8
0
  6
BYLAYER
 62
     1
 10
182.554608
 20
-191.196246
 30
0.0
 40
56.500000
 50
128.457827
 51
141.542176
  0
ARC
  8
0
  6
BYLAYER
 62
     1
 10
182.554608
 20
-191.196246
 30
0.0
 40
59.5
 50
124.838332
 51
145.161674
  0
ARC
  8
0
  6
BYLAYER
 62
     1
 10
182.554608
 20
-191.196246
 30
0.0
 40
55.000015
 50
129.735577
 51
140.264355
  0
ARC
  8
0
  6
BYLAYER
 62
     1
 10
132.077435
 20
-156.063586
 30
0.0
 40
2.0
 50
285.000001
 51
325.161674
  0
ARC
  8
0
  6
BYLAYER
 62
     1
 10
136.745251
 20
-154.812854
 30
0.0
 40
2.0
 50
284.999991
 51
321.542165
  0
ARC
  8
0
  6
BYLAYER
 62
     1
 10
141.797467
 20
-157.316241
 30
0.0
 40
1.999976
 50
140.263385
 51
190.286789
  0
ARC
  8
0
  6
BYLAYER
 62
     1
 10
134.054593
 20
-148.196185
 30
0.0
 40
1.0
 50
270.0
 51
450.000005
  0
ARC
  8
0
  6
BYLAYER
 62
     1
 10
148.966962
 20
-157.608661
 30
0.0
 40
4.000000
 50
270.0
 51
540.0
  0
CIRCLE
  8
0
  6
BYLAYER
 62
     1
 10
148.966962
 20
-157.608661
 30
0.0
 40
3.5
  0
ARC
  8
0
  6
BYLAYER
 62
     1
 10
146.171216
 20
-145.386889
 30
0.0
 40
2.0
 50
308.457838
 51
345.000013
  0
ARC
  8
0
  6
BYLAYER
 62
     1
 10
148.674603
 20
-150.439105
 30
0.0
 40
2.000036
 50
79.713833
 51
129.735659
  0
ARC
  8
0
  6
BYLAYER
 62
     1
 10
146.554593
 20
-138.196185
 30
0.0
 40
1.0
 50
270.0
 51
450.000005
  0
ARC
  8
0
  6
BYLAYER
 62
     1
 10
147.421948
 20
-140.719073
 30
0.0
 40
2.0
 50
304.838337
 51
345.000010
  0
ARC
  8
0
  6
BYLAYER
 62
     1
 10
147.421948
 20
-140.719073
 30
0.0
 40
2.0
 50
304.838340
 51
345.000013
  0
CIRCLE
  8
0
  6
BYLAYER
 62
     1
 10
182.554608
 20
-143.696246
 30
0.0
 40
3.5
  0
ARC
  8
0
  6
BYLAYER
 62
     1
 10
182.554608
 20
-143.696246
 30
0.0
 40
4.000000
 50
270.0
 51
540.0
  0
ARC
  8
0
  6
BYLAYER
 62
     1
 10
153.978863
 20
-131.703173
 30
0.0
 40
2.000000
 50
115.655931
 51
164.999994
  0
ARC
  8
0
  6
BYLAYER
 62
     1
 10
149.054593
 20
-128.196185
 30
0.0
 40
1.0
 50
270.0
 51
450.000005
  0
LINE
  8
0
  6
BYLAYER
 62
     1
 10
136.804608
 20
-97.196254
 30
0.0
 11
136.804608
 21
-89.196254
 31
0.0
  0
LINE
  8
0
  6
BYLAYER
 62
     1
 10
128.304608
 20
-97.196254
 30
0.0
 11
128.304608
 21
-89.196254
 31
0.0
  0
LINE
  8
0
  6
BYLAYER
 62
     1
 10
148.554608
 20
-97.196254
 30
0.0
 11
148.554608
 21
-89.196254
 31
0.0
  0
LINE
  8
0
  6
BYLAYER
 62
     1
 10
149.554608
 20
-97.196254
 30
0.0
 11
149.554608
 21
-90.196254
 31
0.0
  0
LINE
  8
0
  6
BYLAYER
 62
     1
 10
148.554608
 20
-89.196254
 30
0.0
 11
149.554608
 21
-90.196254
 31
0.0
  0
CIRCLE
  8
0
  6
BYLAYER
 62
     1
 10
230.054616
 20
-191.196246
 30
0.0
 40
3.5
  0
ARC
  8
0
  6
BYLAYER
 62
     1
 10
230.054616
 20
-191.196246
 30
0.0
 40
4.0
 50
270.0
 51
540.0
  0
ARC
  8
0
  6
BYLAYER
 62
     1
 10
182.554608
 20
-191.196246
 30
0.0
 40
68.0
 50
334.344071
 51
385.655942
  0
ARC
  8
0
  6
BYLAYER
 62
     1
 10
182.554608
 20
-191.196246
 30
0.0
 40
55.000004
 50
354.735601
 51
365.264402
  0
ARC
  8
0
  6
BYLAYER
 62
     1
 10
182.554608
 20
-191.196246
 30
0.0
 40
69.000038
 50
338.368965
 51
381.631042
  0
LINE
  8
0
  6
BYLAYER
 62
     1
 10
253.554616
 20
-224.196246
 30
0.0
 11
253.554616
 21
-173.196246
 31
0.0
  0
ARC
  8
0
  6
BYLAYER
 62
     1
 10
211.130360
 20
-250.689319
 30
0.0
 40
2.0
 50
295.655950
 51
345.000013
  0
LINE
  8
0
  6
BYLAYER
 62
     1
 10
254.554616
 20
-261.196246
 30
0.0
 11
254.554616
 21
-225.196246
 31
0.0
  0
LINE
  8
0
  6
BYLAYER
 62
     1
 10
246.261708
 20
-254.903369
 30
0.0
 11
239.554616
 21
-248.196246
 31
0.0
  0
LINE
  8
0
  6
BYLAYER
 62
     1
 10
246.554616
 20
-254.196246
 30
0.0
 11
246.554616
 21
-217.368884
 31
0.0
  0
LINE
  8
0
  6
BYLAYER
 62
     1
 10
216.554616
 20
-263.196246
 30
0.0
 11
252.554616
 21
-263.196246
 31
0.0
  0
LINE
  8
0
  6
BYLAYER
 62
     1
 10
208.727254
 20
-255.196246
 30
0.0
 11
245.554616
 21
-255.196246
 31
0.0
  0
ARC
  8
0
  6
BYLAYER
 62
     1
 10
208.727254
 20
-257.196246
 30
0.0
 40
2.000002
 50
90.0
 51
111.631025
  0
LINE
  8
0
  6
BYLAYER
 62
     1
 10
215.554616
 20
-255.196246
 30
0.0
 11
215.554616
 21
-262.196246
 31
0.0
  0
LINE
  8
0
  6
BYLAYER
 62
     1
 10
216.554616
 20
-263.196246
 30
0.0
 11
216.554616
 21
-255.196246
 31
0.0
  0
LINE
  8
0
  6
BYLAYER
 62
     1
 10
215.554616
 20
-262.196246
 30
0.0
 11
216.554616
 21
-263.196246
 31
0.0
  0
LINE
  8
0
  6
BYLAYER
 62
     1
 10
228.304585
 20
-263.196246
 30
0.0
 11
228.304585
 21
-255.196246
 31
0.0
  0
LINE
  8
0
  6
BYLAYER
 62
     1
 10
236.804585
 20
-263.196246
 30
0.0
 11
236.804585
 21
-255.196246
 31
0.0
  0
ARC
  8
0
  6
BYLAYER
 62
     1
 10
245.554616
 20
-254.196246
 30
0.0
 40
1.000000
 50
270.0
 51
360.000003
  0
LINE
  8
0
  6
BYLAYER
 62
     1
 10
252.554616
 20
-263.196246
 30
0.0
 11
254.554616
 21
-261.196246
 31
0.0
  0
LINE
  8
0
  6
BYLAYER
 62
     1
 10
242.565327
 20
-221.703845
 30
0.0
 11
227.846333
 21
-225.647784
 31
0.0
  0
CIRCLE
  8
0
  6
BYLAYER
 62
     1
 10
216.142262
 20
-224.783831
 30
0.0
 40
3.5
  0
ARC
  8
0
  6
BYLAYER
 62
     1
 10
216.142262
 20
-224.783831
 30
0.0
 40
4.0
 50
270.0
 51
540.0
  0
ARC
  8
0
  6
BYLAYER
 62
     1
 10
251.845570
 20
-219.897540
 30
0.0
 40
26.999977
 50
124.712957
 51
190.286926
  0
LINE
  8
0
  6
BYLAYER
 62
     1
 10
239.554616
 20
-222.510562
 30
0.0
 11
239.554616
 21
-248.196246
 31
0.0
  0
ARC
  8
0
  6
BYLAYER
 62
     1
 10
182.554608
 20
-191.196246
 30
0.0
 40
56.5
 50
308.457818
 51
321.542167
  0
ARC
  8
0
  6
BYLAYER
 62
     1
 10
182.554608
 20
-191.196246
 30
0.0
 40
59.5
 50
304.838337
 51
325.161679
  0
ARC
  8
0
  6
BYLAYER
 62
     1
 10
182.554608
 20
-191.196246
 30
0.0
 40
55.000015
 50
309.735582
 51
320.264428
  0
LINE
  8
0
  6
BYLAYER
 62
     1
 10
239.554616
 20
-248.196246
 30
0.0
 11
213.868931
 21
-248.196246
 31
0.0
  0
LINE
  8
0
  6
BYLAYER
 62
     1
 10
217.006154
 20
-236.487994
 30
0.0
 11
213.062215
 21
-251.206958
 31
0.0
  0
ARC
  8
0
  6
BYLAYER
 62
     1
 10
217.687276
 20
-241.673449
 30
0.0
 40
2.0
 50
124.838332
 51
165.000005
  0
ARC
  8
0
  6
BYLAYER
 62
     1
 10
218.938008
 20
-237.005633
 30
0.0
 40
2.0
 50
128.457827
 51
165.000001
  0
ARC
  8
0
  6
BYLAYER
 62
     1
 10
216.434621
 20
-231.953387
 30
0.0
 40
1.999976
 50
259.713845
 51
309.735692
  0
ARC
  8
0
  6
BYLAYER
 62
     1
 10
223.311757
 20
-225.076251
 30
0.0
 40
1.999976
 50
320.263390
 51
370.286794
  0
ARC
  8
0
  6
BYLAYER
 62
     1
 10
228.363972
 20
-227.579638
 30
0.0
 40
2.0
 50
105.000000
 51
141.542174
  0
ARC
  8
0
  6
BYLAYER
 62
     1
 10
233.031788
 20
-226.328906
 30
0.0
 40
2.000000
 50
104.999996
 51
145.161669
  0
ARC
  8
0
  6
BYLAYER
 62
     1
 10
235.331044
 20
-196.059100
 30
0.0
 40
2.000036
 50
304.713863
 51
354.735683
  0
LINE
  8
0
  6
BYLAYER
 62
     1
 10
246.554616
 20
-245.446246
 30
0.0
 11
254.554616
 21
-245.446246
 31
0.0
  0
LINE
  8
0
  6
BYLAYER
 62
     1
 10
246.554616
 20
-236.946246
 30
0.0
 11
254.554616
 21
-236.946246
 31
0.0
  0
LINE
  8
0
  6
BYLAYER
 62
     1
 10
253.554616
 20
-224.196246
 30
0.0
 11
246.554616
 21
-224.196246
 31
0.0
  0
LINE
  8
0
  6
BYLAYER
 62
     1
 10
246.554616
 20
-225.196246
 30
0.0
 11
254.554616
 21
-225.196246
 31
0.0
  0
LINE
  8
0
  6
BYLAYER
 62
     1
 10
253.554616
 20
-224.196246
 30
0.0
 11
254.554616
 21
-225.196246
 31
0.0
  0
ARC
  8
0
  6
BYLAYER
 62
     1
 10
242.047688
 20
-219.771991
 30
0.0
 40
2.000000
 50
285.000008
 51
334.344071
  0
ARC
  8
0
  6
BYLAYER
 62
     1
 10
248.554616
 20
-217.368884
 30
0.0
 40
2.000014
 50
158.368564
 51
180.000005
  0
LINE
  8
0
  6
BYLAYER
 62
     1
 10
213.062215
 20
-131.185534
 30
0.0
 11
217.006154
 21
-145.904528
 31
0.0
  0
LINE
  8
0
  6
BYLAYER
 62
     1
 10
256.554616
 20
-167.672107
 30
0.0
 11
256.554616
 21
-89.696254
 31
0.0
  0
ARC
  8
0
  6
BYLAYER
 62
     1
 10
244.554616
 20
-137.476825
 30
0.0
 40
1.999999
 50
22.218640
 51
87.999276
  0
LINE
  8
0
  6
BYLAYER
 62
     1
 10
246.554616
 20
-98.196254
 30
0.0
 11
246.554616
 21
-165.023608
 31
0.0
  0
ARC
  8
0
  6
BYLAYER
 62
     1
 10
245.554616
 20
-136.196185
 30
0.0
 40
1.0
 50
270.0
 51
359.999982
  0
LINE
  8
0
  6
BYLAYER
 62
     1
 10
253.554616
 20
-128.196246
 30
0.0
 11
253.554616
 21
-173.196246
 31
0.0
  0
LINE
  8
0
  6
BYLAYER
 62
     1
 10
227.846333
 20
-156.744708
 30
0.0
 11
242.565327
 21
-160.688647
 31
0.0
  0
LINE
  8
0
  6
BYLAYER
 62
     1
 10
218.554616
 20
-139.196185
 30
0.0
 11
245.554616
 21
-139.196185
 31
0.0
  0
LINE
  8
0
  6
BYLAYER
 62
     1
 10
245.554616
 20
-137.196185
 30
0.0
 11
218.554616
 21
-137.196185
 31
0.0
  0
LINE
  8
0
  6
BYLAYER
 62
     1
 10
245.554616
 20
-149.196185
 30
0.0
 11
231.054616
 21
-149.196185
 31
0.0
  0
LINE
  8
0
  6
BYLAYER
 62
     1
 10
231.054616
 20
-147.196185
 30
0.0
 11
245.554616
 21
-147.196185
 31
0.0
  0
ARC
  8
0
  6
BYLAYER
 62
     1
 10
251.845570
 20
-162.495013
 30
0.0
 40
26.999933
 50
169.712920
 51
202.499864
  0
ARC
  8
0
  6
BYLAYER
 62
     1
 10
226.916188
 20
-164.371661
 30
0.0
 40
2.000020
 50
184.305374
 51
253.817425
  0
ARC
  8
0
  6
BYLAYER
 62
     1
 10
224.129170
 20
-173.975451
 30
0.0
 40
8.000001
 50
331.182513
 51
433.817252
  0
ARC
  8
0
  6
BYLAYER
 62
     1
 10
251.845570
 20
-162.495013
 30
0.0
 40
26.999926
 50
202.499864
 51
235.287067
  0
ARC
  8
0
  6
BYLAYER
 62
     1
 10
232.890767
 20
-178.795672
 30
0.0
 40
2.000012
 50
151.182317
 51
220.695174
  0
ARC
  8
0
  6
BYLAYER
 62
     1
 10
235.331044
 20
-186.333392
 30
0.0
 40
1.999986
 50
5.263381
 51
55.286813
  0
ARC
  8
0
  6
BYLAYER
 62
     1
 10
182.554608
 20
-191.196246
 30
0.0
 40
56.5
 50
38.457824
 51
51.542173
  0
ARC
  8
0
  6
BYLAYER
 62
     1
 10
182.554608
 20
-191.196246
 30
0.0
 40
59.500000
 50
34.838329
 51
55.161672
  0
ARC
  8
0
  6
BYLAYER
 62
     1
 10
182.554608
 20
-191.196246
 30
0.0
 40
55.000015
 50
39.735575
 51
50.264424
  0
CIRCLE
  8
0
  6
BYLAYER
 62
     1
 10
216.142262
 20
-157.608661
 30
0.0
 40
3.5
  0
ARC
  8
0
  6
BYLAYER
 62
     1
 10
216.142262
 20
-157.608661
 30
0.0
 40
4.0
 50
270.0
 51
540.0
  0
ARC
  8
0
  6
BYLAYER
 62
     1
 10
218.938008
 20
-145.386889
 30
0.0
 40
2.0
 50
195.000002
 51
231.542177
  0
ARC
  8
0
  6
BYLAYER
 62
     1
 10
216.434621
 20
-150.439105
 30
0.0
 40
1.999976
 50
50.263400
 51
100.286773
  0
ARC
  8
0
  6
BYLAYER
 62
     1
 10
217.687276
 20
-140.719073
 30
0.0
 40
2.000000
 50
194.999992
 51
235.161665
  0
ARC
  8
0
  6
BYLAYER
 62
     1
 10
218.554616
 20
-138.196185
 30
0.0
 40
1.0
 50
90.0
 51
270.000005
  0
ARC
  8
0
  6
BYLAYER
 62
     1
 10
223.311757
 20
-157.316241
 30
0.0
 40
2.000036
 50
349.713854
 51
399.735674
  0
ARC
  8
0
  6
BYLAYER
 62
     1
 10
228.363972
 20
-154.812854
 30
0.0
 40
2.000000
 50
218.457822
 51
254.999997
  0
ARC
  8
0
  6
BYLAYER
 62
     1
 10
233.031788
 20
-156.063586
 30
0.0
 40
2.000000
 50
214.838327
 51
255.0
  0
ARC
  8
0
  6
BYLAYER
 62
     1
 10
231.054616
 20
-148.196185
 30
0.0
 40
1.0
 50
90.0
 51
270.000005
  0
ARC
  8
0
  6
BYLAYER
 62
     1
 10
248.554616
 20
-165.023608
 30
0.0
 40
2.0
 50
180.000000
 51
201.631592
  0
LINE
  8
0
  6
BYLAYER
 62
     1
 10
256.554616
 20
-167.672107
 30
0.0
 11
253.554616
 21
-167.776873
 31
0.0
  0
ARC
  8
0
  6
BYLAYER
 62
     1
 10
242.047688
 20
-162.620501
 30
0.0
 40
2.0
 50
25.655936
 51
74.999999
  0
ARC
  8
0
  6
BYLAYER
 62
     1
 10
245.554616
 20
-150.196185
 30
0.0
 40
1.0
 50
0.0
 51
90.000016
  0
ARC
  8
0
  6
BYLAYER
 62
     1
 10
245.554616
 20
-146.196185
 30
0.0
 40
1.0
 50
270.0
 51
359.999982
  0
ARC
  8
0
  6
BYLAYER
 62
     1
 10
245.554616
 20
-140.196185
 30
0.0
 40
1.0
 50
0.0
 51
90.000016
  0
LINE
  8
0
  6
BYLAYER
 62
     1
 10
256.054616
 20
-89.196254
 30
0.0
 11
216.554616
 21
-89.196254
 31
0.0
  0
LINE
  8
0
  6
BYLAYER
 62
     1
 10
238.484791
 20
-135.263659
 30
0.0
 11
244.624440
 21
-135.478045
 31
0.0
  0
LINE
  8
0
  6
BYLAYER
 62
     1
 10
238.484791
 20
-121.128833
 30
0.0
 11
244.624440
 21
-120.914447
 31
0.0
  0
LINE
  8
0
  6
BYLAYER
 62
     1
 10
235.554616
 20
-129.196185
 30
0.0
 11
216.054616
 21
-129.196185
 31
0.0
  0
LINE
  8
0
  6
BYLAYER
 62
     1
 10
216.054616
 20
-127.196185
 30
0.0
 11
235.554616
 21
-127.196185
 31
0.0
  0
ARC
  8
0
  6
BYLAYER
 62
     1
 10
216.054616
 20
-128.196185
 30
0.0
 40
1.0
 50
90.0
 51
270.000005
  0
ARC
  8
0
  6
BYLAYER
 62
     1
 10
211.130360
 20
-131.703173
 30
0.0
 40
2.000000
 50
15.0
 51
64.344063
  0
ARC
  8
0
  6
BYLAYER
 62
     1
 10
238.554616
 20
-123.127612
 30
0.0
 40
1.999999
 50
92.000722
 51
180.000005
  0
ARC
  8
0
  6
BYLAYER
 62
     1
 10
235.554616
 20
-130.196185
 30
0.0
 40
1.000000
 50
0.0
 51
90.000016
  0
LINE
  8
0
  6
BYLAYER
 62
     1
 10
236.554616
 20
-123.127612
 30
0.0
 11
236.554616
 21
-133.264880
 31
0.0
  0
ARC
  8
0
  6
BYLAYER
 62
     1
 10
238.554616
 20
-133.264880
 30
0.0
 40
2.0
 50
180.000000
 51
267.999269
  0
ARC
  8
0
  6
BYLAYER
 62
     1
 10
235.554616
 20
-126.196185
 30
0.0
 40
1.0
 50
270.0
 51
359.999982
  0
LINE
  8
0
  6
BYLAYER
 62
     1
 10
216.554616
 20
-89.196254
 30
0.0
 11
216.554616
 21
-97.196254
 31
0.0
  0
LINE
  8
0
  6
BYLAYER
 62
     1
 10
215.554616
 20
-90.196254
 30
0.0
 11
215.554616
 21
-97.196254
 31
0.0
  0
LINE
  8
0
  6
BYLAYER
 62
     1
 10
215.554616
 20
-90.196254
 30
0.0
 11
216.554616
 21
-89.196254
 31
0.0
  0
LINE
  8
0
  6
BYLAYER
 62
     1
 10
236.804616
 20
-97.196254
 30
0.0
 11
236.804616
 21
-89.196254
 31
0.0
  0
LINE
  8
0
  6
BYLAYER
 62
     1
 10
228.304616
 20
-97.196254
 30
0.0
 11
228.304616
 21
-89.196254
 31
0.0
  0
LINE
  8
0
  6
BYLAYER
 62
     1
 10
254.554616
 20
-127.196246
 30
0.0
 11
254.554616
 21
-91.196254
 31
0.0
  0
LINE
  8
0
  6
BYLAYER
 62
     1
 10
253.554616
 20
-128.196246
 30
0.0
 11
246.554616
 21
-128.196246
 31
0.0
  0
LINE
  8
0
  6
BYLAYER
 62
     1
 10
246.554616
 20
-127.196246
 30
0.0
 11
254.554616
 21
-127.196246
 31
0.0
  0
LINE
  8
0
  6
BYLAYER
 62
     1
 10
253.554616
 20
-128.196246
 30
0.0
 11
254.554616
 21
-127.196246
 31
0.0
  0
ARC
  8
0
  6
BYLAYER
 62
     1
 10
244.554616
 20
-118.915667
 30
0.0
 40
2.0
 50
272.000744
 51
360.000000
  0
ARC
  8
0
  6
BYLAYER
 62
     1
 10
245.554616
 20
-98.196254
 30
0.0
 40
1.000000
 50
0.0
 51
90.000003
  0
LINE
  8
0
  6
BYLAYER
 62
     1
 10
254.554616
 20
-91.196254
 30
0.0
 11
252.554616
 21
-89.196254
 31
0.0
  0
LINE
  8
0
  6
BYLAYER
 62
     1
 10
256.554616
 20
-89.696254
 30
0.0
 11
256.054616
 21
-89.196254
 31
0.0
  0
ARC
  8
0
  6
BYLAYER
 62
     1
 10
254.054616
 20
-91.464015
 30
0.0
 40
0.499990
 50
315.001248
 51
360.000000
  0
ARC
  8
0
  6
BYLAYER
 62
     1
 10
170.454877
 20
-116.941309
 30
0.0
 40
2.873727
 50
270.0
 51
308.795511
  0
ARC
  8
0
  6
BYLAYER
 62
     1
 10
170.176774
 20
-116.645129
 30
0.0
 40
3.278957
 50
309.340351
 51
360.000000
  0
ARC
  8
0
  6
BYLAYER
 62
     1
 10
170.176774
 20
-116.645129
 30
0.0
 40
3.278957
 50
0.0
 51
50.659649
  0
ARC
  8
0
  6
BYLAYER
 62
     1
 10
170.454877
 20
-116.348949
 30
0.0
 40
2.873727
 50
51.204489
 51
90.0
  0
ARC
  8
0
  6
BYLAYER
 62
     1
 10
170.454877
 20
-116.348923
 30
0.0
 40
2.873701
 50
90.0
 51
128.795693
  0
ARC
  8
0
  6
BYLAYER
 62
     1
 10
170.733005
 20
-116.645129
 30
0.0
 40
3.278967
 50
129.340576
 51
180.000000
  0
ARC
  8
0
  6
BYLAYER
 62
     1
 10
170.733005
 20
-116.645129
 30
0.0
 40
3.278967
 50
180.000000
 51
230.659424
  0
ARC
  8
0
  6
BYLAYER
 62
     1
 10
170.454877
 20
-116.941335
 30
0.0
 40
2.873701
 50
231.204307
 51
270.000000
  0
ARC
  8
0
  6
BYLAYER
 62
     1
 10
170.454877
 20
-115.801978
 30
0.0
 40
1.329747
 50
90.0
 51
140.793201
  0
ARC
  8
0
  6
BYLAYER
 62
     1
 10
171.488431
 20
-116.645129
 30
0.0
 40
2.663590
 50
140.793201
 51
180.000000
  0
ARC
  8
0
  6
BYLAYER
 62
     1
 10
171.488415
 20
-116.645129
 30
0.0
 40
2.663574
 50
180.000000
 51
219.206869
  0
ARC
  8
0
  6
BYLAYER
 62
     1
 10
170.454877
 20
-117.488269
 30
0.0
 40
1.329750
 50
219.206869
 51
270.0
  0
ARC
  8
0
  6
BYLAYER
 62
     1
 10
170.454877
 20
-117.488269
 30
0.0
 40
1.329750
 50
270.0
 51
320.793131
  0
ARC
  8
0
  6
BYLAYER
 62
     1
 10
169.421338
 20
-116.645129
 30
0.0
 40
2.663574
 50
320.793131
 51
360.000000
  0
ARC
  8
0
  6
BYLAYER
 62
     1
 10
169.421322
 20
-116.645129
 30
0.0
 40
2.663590
 50
0.0
 51
39.206799
  0
ARC
  8
0
  6
BYLAYER
 62
     1
 10
170.454877
 20
-115.801978
 30
0.0
 40
1.329747
 50
39.206799
 51
90.000000
  0
LINE
  8
0
  6
BYLAYER
 62
     1
 10
160.607037
 20
-119.603701
 30
0.0
 11
160.607037
 21
-113.602008
 31
0.0
  0
LINE
  8
0
  6
BYLAYER
 62
     1
 10
160.607037
 20
-113.602008
 30
0.0
 11
163.047162
 21
-113.602008
 31
0.0
  0
LINE
  8
0
  6
BYLAYER
 62
     1
 10
163.047162
 20
-113.602008
 30
0.0
 11
163.861478
 21
-116.729663
 31
0.0
  0
LINE
  8
0
  6
BYLAYER
 62
     1
 10
160.607037
 20
-119.603701
 30
0.0
 11
162.072247
 21
-119.603701
 31
0.0
  0
LINE
  8
0
  6
BYLAYER
 62
     1
 10
162.072247
 20
-119.603701
 30
0.0
 11
162.072247
 21
-116.137942
 31
0.0
  0
LINE
  8
0
  6
BYLAYER
 62
     1
 10
163.227490
 20
-119.603701
 30
0.0
 11
162.072247
 21
-116.137942
 31
0.0
  0
LINE
  8
0
  6
BYLAYER
 62
     1
 10
167.115918
 20
-119.603701
 30
0.0
 11
167.115918
 21
-113.602008
 31
0.0
  0
LINE
  8
0
  6
BYLAYER
 62
     1
 10
167.115918
 20
-113.602008
 30
0.0
 11
164.675793
 21
-113.602008
 31
0.0
  0
LINE
  8
0
  6
BYLAYER
 62
     1
 10
164.675793
 20
-113.602008
 30
0.0
 11
163.861478
 21
-116.729663
 31
0.0
  0
LINE
  8
0
  6
BYLAYER
 62
     1
 10
167.115918
 20
-119.603701
 30
0.0
 11
165.650708
 21
-119.603701
 31
0.0
  0
LINE
  8
0
  6
BYLAYER
 62
     1
 10
165.650708
 20
-119.603701
 30
0.0
 11
165.650708
 21
-116.137942
 31
0.0
  0
LINE
  8
0
  6
BYLAYER
 62
     1
 10
164.495465
 20
-119.603701
 30
0.0
 11
165.650708
 21
-116.137942
 31
0.0
  0
LINE
  8
0
  6
BYLAYER
 62
     1
 10
164.495465
 20
-119.603701
 30
0.0
 11
163.227490
 21
-119.603701
 31
0.0
  0
LINE
  8
0
  6
BYLAYER
 62
     1
 10
188.586758
 20
-119.603701
 30
0.0
 11
190.869076
 21
-113.602008
 31
0.0
  0
LINE
  8
0
  6
BYLAYER
 62
     1
 10
188.586758
 20
-119.603701
 30
0.0
 11
190.530972
 21
-119.603701
 31
0.0
  0
LINE
  8
0
  6
BYLAYER
 62
     1
 10
190.869076
 20
-113.602008
 30
0.0
 11
192.728757
 21
-113.602008
 31
0.0
  0
LINE
  8
0
  6
BYLAYER
 62
     1
 10
190.530972
 20
-119.603701
 30
0.0
 11
190.819150
 21
-118.758395
 31
0.0
  0
LINE
  8
0
  6
BYLAYER
 62
     1
 10
191.280209
 20
-117.405902
 30
0.0
 11
191.798916
 21
-115.884341
 31
0.0
  0
LINE
  8
0
  6
BYLAYER
 62
     1
 10
195.011105
 20
-119.603701
 30
0.0
 11
192.728757
 21
-113.602008
 31
0.0
  0
LINE
  8
0
  6
BYLAYER
 62
     1
 10
195.011105
 20
-119.603701
 30
0.0
 11
193.066891
 21
-119.603701
 31
0.0
  0
LINE
  8
0
  6
BYLAYER
 62
     1
 10
192.778714
 20
-118.758395
 30
0.0
 11
190.819150
 21
-118.758395
 31
0.0
  0
LINE
  8
0
  6
BYLAYER
 62
     1
 10
192.317624
 20
-117.405902
 30
0.0
 11
191.280209
 21
-117.405902
 31
0.0
  0
LINE
  8
0
  6
BYLAYER
 62
     1
 10
193.066891
 20
-119.603701
 30
0.0
 11
192.778714
 21
-118.758395
 31
0.0
  0
LINE
  8
0
  6
BYLAYER
 62
     1
 10
192.317624
 20
-117.405902
 30
0.0
 11
191.798916
 21
-115.884341
 31
0.0
  0
LINE
  8
0
  6
BYLAYER
 62
     1
 10
173.455731
 20
-115.081302
 30
0.0
 11
175.146344
 21
-115.081302
 31
0.0
  0
LINE
  8
0
  6
BYLAYER
 62
     1
 10
175.146344
 20
-115.081302
 30
0.0
 11
175.146344
 21
-119.603701
 31
0.0
  0
LINE
  8
0
  6
BYLAYER
 62
     1
 10
175.146344
 20
-119.603701
 30
0.0
 11
177.006039
 21
-119.603701
 31
0.0
  0
LINE
  8
0
  6
BYLAYER
 62
     1
 10
177.006039
 20
-119.603701
 30
0.0
 11
177.006039
 21
-115.081302
 31
0.0
  0
LINE
  8
0
  6
BYLAYER
 62
     1
 10
177.006039
 20
-115.081302
 30
0.0
 11
178.696652
 21
-115.081302
 31
0.0
  0
LINE
  8
0
  6
BYLAYER
 62
     1
 10
178.696652
 20
-115.081302
 30
0.0
 11
178.696652
 21
-113.602008
 31
0.0
  0
LINE
  8
0
  6
BYLAYER
 62
     1
 10
178.696652
 20
-113.602008
 30
0.0
 11
173.455731
 21
-113.602008
 31
0.0
  0
LINE
  8
0
  6
BYLAYER
 62
     1
 10
173.455731
 20
-113.602008
 30
0.0
 11
173.455731
 21
-115.081302
 31
0.0
  0
ARC
  8
0
  6
BYLAYER
 62
     1
 10
181.697491
 20
-116.941335
 30
0.0
 40
2.873701
 50
270.0
 51
308.795693
  0
ARC
  8
0
  6
BYLAYER
 62
     1
 10
181.419363
 20
-116.645129
 30
0.0
 40
3.278967
 50
309.340576
 51
360.0
  0
ARC
  8
0
  6
BYLAYER
 62
     1
 10
181.419374
 20
-116.645129
 30
0.0
 40
3.278957
 50
0.0
 51
50.659649
  0
ARC
  8
0
  6
BYLAYER
 62
     1
 10
181.697476
 20
-116.348949
 30
0.0
 40
2.873727
 50
51.204489
 51
90.000000
  0
ARC
  8
0
  6
BYLAYER
 62
     1
 10
181.697476
 20
-116.348923
 30
0.0
 40
2.873701
 50
90.0
 51
128.795693
  0
ARC
  8
0
  6
BYLAYER
 62
     1
 10
181.975604
 20
-116.645129
 30
0.0
 40
3.278967
 50
129.340576
 51
180.000000
  0
ARC
  8
0
  6
BYLAYER
 62
     1
 10
181.975593
 20
-116.645129
 30
0.0
 40
3.278957
 50
180.000000
 51
230.659649
  0
ARC
  8
0
  6
BYLAYER
 62
     1
 10
181.697491
 20
-116.941309
 30
0.0
 40
2.873727
 50
231.204489
 51
270.000000
  0
ARC
  8
0
  6
BYLAYER
 62
     1
 10
181.697476
 20
-115.801978
 30
0.0
 40
1.329747
 50
90.0
 51
140.793201
  0
ARC
  8
0
  6
BYLAYER
 62
     1
 10
182.731031
 20
-116.645129
 30
0.0
 40
2.663590
 50
140.793201
 51
180.000000
  0
ARC
  8
0
  6
BYLAYER
 62
     1
 10
182.730997
 20
-116.645129
 30
0.0
 40
2.663556
 50
180.000000
 51
219.207055
  0
ARC
  8
0
  6
BYLAYER
 62
     1
 10
181.697491
 20
-117.488248
 30
0.0
 40
1.329771
 50
219.207055
 51
270.000000
  0
ARC
  8
0
  6
BYLAYER
 62
     1
 10
181.697491
 20
-117.488269
 30
0.0
 40
1.329750
 50
270.0
 51
320.793131
  0
ARC
  8
0
  6
BYLAYER
 62
     1
 10
180.663953
 20
-116.645129
 30
0.0
 40
2.663574
 50
320.793131
 51
360.0
  0
ARC
  8
0
  6
BYLAYER
 62
     1
 10
180.663954
 20
-116.645129
 30
0.0
 40
2.663572
 50
0.0
 51
39.206985
  0
ARC
  8
0
  6
BYLAYER
 62
     1
 10
181.697476
 20
-115.802000
 30
0.0
 40
1.329768
 50
39.206985
 51
90.000000
  0
LINE
  8
0
  6
BYLAYER
 62
     1
 10
195.173092
 20
-119.603701
 30
0.0
 11
195.173092
 21
-113.602008
 31
0.0
  0
LINE
  8
0
  6
BYLAYER
 62
     1
 10
195.173092
 20
-113.602008
 30
0.0
 11
198.892438
 21
-113.602008
 31
0.0
  0
ARC
  8
0
  6
BYLAYER
 62
     1
 10
198.892438
 20
-115.292636
 30
0.0
 40
1.690610
 50
287.134650
 51
450.000006
  0
ARC
  8
0
  6
BYLAYER
 62
     1
 10
199.230572
 20
-118.251208
 30
0.0
 40
1.352493
 50
0.0
 51
83.207557
  0
LINE
  8
0
  6
BYLAYER
 62
     1
 10
200.583066
 20
-118.251208
 30
0.0
 11
200.583066
 21
-119.096515
 31
0.0
  0
ARC
  8
0
  6
BYLAYER
 62
     1
 10
201.935559
 20
-119.096515
 30
0.0
 40
1.352493
 50
180.000000
 51
202.024314
  0
LINE
  8
0
  6
BYLAYER
 62
     1
 10
198.822079
 20
-119.603701
 30
0.0
 11
200.681759
 21
-119.603701
 31
0.0
  0
ARC
  8
0
  6
BYLAYER
 62
     1
 10
200.075879
 20
-119.096515
 30
0.0
 40
1.352493
 50
180.000000
 51
202.024314
  0
LINE
  8
0
  6
BYLAYER
 62
     1
 10
198.723385
 20
-119.096515
 30
0.0
 11
198.723385
 21
-118.420276
 31
0.0
  0
LINE
  8
0
  6
BYLAYER
 62
     1
 10
195.173092
 20
-119.603701
 30
0.0
 11
196.948239
 21
-119.603701
 31
0.0
  0
LINE
  8
0
  6
BYLAYER
 62
     1
 10
196.948239
 20
-119.603701
 30
0.0
 11
196.948239
 21
-117.574969
 31
0.0
  0
LINE
  8
0
  6
BYLAYER
 62
     1
 10
197.878079
 20
-117.574969
 30
0.0
 11
196.948239
 21
-117.574969
 31
0.0
  0
ARC
  8
0
  6
BYLAYER
 62
     1
 10
197.878079
 20
-118.420276
 30
0.0
 40
0.845306
 50
0.0
 51
90.000003
  0
LINE
  8
0
  6
BYLAYER
 62
     1
 10
196.948239
 20
-116.222476
 30
0.0
 11
196.948239
 21
-114.954501
 31
0.0
  0
LINE
  8
0
  6
BYLAYER
 62
     1
 10
196.948239
 20
-114.954501
 30
0.0
 11
198.131665
 21
-114.954501
 31
0.0
  0
LINE
  8
0
  6
BYLAYER
 62
     1
 10
196.948239
 20
-116.222476
 30
0.0
 11
198.131665
 21
-116.222476
 31
0.0
  0
ARC
  8
0
  6
BYLAYER
 62
     1
 10
198.131665
 20
-115.588488
 30
0.0
 40
0.633987
 50
270.0
 51
450.000005
  0
LINE
  8
0
  6
BYLAYER
 62
     1
 10
187.107480
 20
-117.705905
 30
0.0
 11
186.008572
 21
-113.602008
 31
0.0
  0
LINE
  8
0
  6
BYLAYER
 62
     1
 10
186.008572
 20
-113.602008
 30
0.0
 11
184.233426
 21
-113.602008
 31
0.0
  0
LINE
  8
0
  6
BYLAYER
 62
     1
 10
184.233426
 20
-113.602008
 30
0.0
 11
186.093106
 21
-119.603701
 31
0.0
  0
LINE
  8
0
  6
BYLAYER
 62
     1
 10
187.107480
 20
-117.705905
 30
0.0
 11
188.206357
 21
-113.602008
 31
0.0
  0
LINE
  8
0
  6
BYLAYER
 62
     1
 10
188.206357
 20
-113.602008
 30
0.0
 11
189.981503
 21
-113.602008
 31
0.0
  0
LINE
  8
0
  6
BYLAYER
 62
     1
 10
189.981503
 20
-113.602008
 30
0.0
 11
188.121823
 21
-119.603701
 31
0.0
  0
LINE
  8
0
  6
BYLAYER
 62
     1
 10
188.121823
 20
-119.603701
 30
0.0
 11
186.093106
 21
-119.603701
 31
0.0
  0
LINE
  8
0
  6
BYLAYER
 62
     1
 10
200.843747
 20
-119.603701
 30
0.0
 11
202.618893
 21
-119.603701
 31
0.0
  0
LINE
  8
0
  6
BYLAYER
 62
     1
 10
202.618893
 20
-119.603701
 30
0.0
 11
202.618893
 21
-113.602008
 31
0.0
  0
LINE
  8
0
  6
BYLAYER
 62
     1
 10
202.618893
 20
-113.602008
 30
0.0
 11
200.843747
 21
-113.602008
 31
0.0
  0
LINE
  8
0
  6
BYLAYER
 62
     1
 10
200.843747
 20
-113.602008
 30
0.0
 11
200.843747
 21
-119.603701
 31
0.0
  0
ARC
  8
0
  6
BYLAYER
 62
     1
 10
205.957867
 20
-116.941335
 30
0.0
 40
2.873701
 50
270.0
 51
308.795693
  0
ARC
  8
0
  6
BYLAYER
 62
     1
 10
205.679739
 20
-116.645129
 30
0.0
 40
3.278967
 50
309.340576
 51
360.0
  0
ARC
  8
0
  6
BYLAYER
 62
     1
 10
205.679739
 20
-116.645129
 30
0.0
 40
3.278967
 50
0.0
 51
50.659424
  0
ARC
  8
0
  6
BYLAYER
 62
     1
 10
205.957867
 20
-116.348923
 30
0.0
 40
2.873701
 50
51.204307
 51
90.000000
  0
ARC
  8
0
  6
BYLAYER
 62
     1
 10
205.957867
 20
-116.348923
 30
0.0
 40
2.873701
 50
90.0
 51
128.795693
  0
ARC
  8
0
  6
BYLAYER
 62
     1
 10
206.235995
 20
-116.645129
 30
0.0
 40
3.278967
 50
129.340576
 51
180.0
  0
ARC
  8
0
  6
BYLAYER
 62
     1
 10
206.235995
 20
-116.645129
 30
0.0
 40
3.278967
 50
180.000000
 51
230.659424
  0
ARC
  8
0
  6
BYLAYER
 62
     1
 10
205.957867
 20
-116.941335
 30
0.0
 40
2.873701
 50
231.204307
 51
270.000000
  0
ARC
  8
0
  6
BYLAYER
 62
     1
 10
205.957867
 20
-115.801978
 30
0.0
 40
1.329747
 50
39.206799
 51
90.0
  0
ARC
  8
0
  6
BYLAYER
 62
     1
 10
204.924313
 20
-116.645129
 30
0.0
 40
2.663590
 50
0.0
 51
39.206799
  0
ARC
  8
0
  6
BYLAYER
 62
     1
 10
204.924329
 20
-116.645129
 30
0.0
 40
2.663574
 50
320.793131
 51
360.0
  0
ARC
  8
0
  6
BYLAYER
 62
     1
 10
205.957867
 20
-117.488269
 30
0.0
 40
1.329750
 50
270.0
 51
320.793131
  0
ARC
  8
0
  6
BYLAYER
 62
     1
 10
205.957867
 20
-117.488269
 30
0.0
 40
1.329750
 50
219.206869
 51
270.000000
  0
ARC
  8
0
  6
BYLAYER
 62
     1
 10
206.991406
 20
-116.645129
 30
0.0
 40
2.663574
 50
180.000000
 51
219.206869
  0
ARC
  8
0
  6
BYLAYER
 62
     1
 10
206.991422
 20
-116.645129
 30
0.0
 40
2.663590
 50
140.793201
 51
180.0
  0
ARC
  8
0
  6
BYLAYER
 62
     1
 10
205.957867
 20
-115.801978
 30
0.0
 40
1.329747
 50
90.0
 51
140.793201
  0
ARC
  8
0
  6
BYLAYER
 62
     1
 10
175.986004
 20
-106.731280
 30
0.0
 40
7.429995
 50
174.535650
 51
180.0
  0
LINE
  8
0
  6
BYLAYER
 62
     1
 10
168.589772
 20
-106.023745
 30
0.0
 11
168.589772
 21
-106.023738
 31
0.0
  0
LINE
  8
0
  6
BYLAYER
 62
     1
 10
168.597857
 20
-105.943815
 30
0.0
 11
169.306960
 21
-105.645272
 31
0.0
  0
ARC
  8
0
  6
BYLAYER
 62
     1
 10
175.986035
 20
-106.731341
 30
0.0
 40
6.766781
 50
159.235383
 51
170.763998
  0
LINE
  8
0
  6
BYLAYER
 62
     1
 10
169.658760
 20
-104.332276
 30
0.0
 11
169.193962
 21
-103.719163
 31
0.0
  0
ARC
  8
0
  6
BYLAYER
 62
     1
 10
175.986004
 20
-106.731280
 30
0.0
 40
7.429986
 50
144.139514
 51
156.083795
  0
LINE
  8
0
  6
BYLAYER
 62
     1
 10
169.915539
 20
-102.447085
 30
0.0
 11
169.915982
 21
-102.446460
 31
0.0
  0
LINE
  8
0
  6
BYLAYER
 62
     1
 10
169.964403
 20
-102.378693
 30
0.0
 11
170.719328
 21
-102.482557
 31
0.0
  0
ARC
  8
0
  6
BYLAYER
 62
     1
 10
175.986004
 20
-106.731280
 30
0.0
 40
6.766741
 50
129.235643
 51
141.105976
  0
LINE
  8
0
  6
BYLAYER
 62
     1
 10
171.595318
 20
-101.582423
 30
0.0
 11
171.596051
 21
-101.581790
 31
0.0
  0
LINE
  8
0
  6
BYLAYER
 62
     1
 10
171.705965
 20
-101.490093
 30
0.0
 11
171.609971
 21
-100.726687
 31
0.0
  0
ARC
  8
0
  6
BYLAYER
 62
     1
 10
175.986004
 20
-106.731280
 30
0.0
 40
7.429994
 50
114.139607
 51
126.083853
  0
LINE
  8
0
  6
BYLAYER
 62
     1
 10
172.871457
 20
-99.985583
 30
0.0
 11
172.871960
 21
-99.985347
 31
0.0
  0
LINE
  8
0
  6
BYLAYER
 62
     1
 10
172.947424
 20
-99.951026
 30
0.0
 11
173.549253
 21
-100.418421
 31
0.0
  0
LINE
  8
0
  6
BYLAYER
 62
     1
 10
173.686856
 20
-100.367099
 30
0.0
 11
173.687619
 21
-100.366832
 31
0.0
  0
ARC
  8
0
  6
BYLAYER
 62
     1
 10
175.986004
 20
-106.731280
 30
0.0
 40
6.766738
 50
99.235601
 51
111.106038
  0
ARC
  8
0
  6
BYLAYER
 62
     1
 10
175.986004
 20
-106.731280
 30
0.0
 40
7.429995
 50
90.0
 51
96.083892
  0
LINE
  8
0
  6
BYLAYER
 62
     1
 10
175.198540
 20
-99.343133
 30
0.0
 11
174.899980
 21
-100.052261
 31
0.0
  0
LINE
  8
0
  6
BYLAYER
 62
     1
 10
183.382229
 20
-106.023745
 30
0.0
 11
183.382229
 21
-106.023738
 31
0.0
  0
LINE
  8
0
  6
BYLAYER
 62
     1
 10
183.374152
 20
-105.943814
 30
0.0
 11
182.665013
 21
-105.645265
 31
0.0
  0
ARC
  8
0
  6
BYLAYER
 62
     1
 10
175.985959
 20
-106.731341
 30
0.0
 40
6.766781
 50
9.235986
 51
20.764650
  0
LINE
  8
0
  6
BYLAYER
 62
     1
 10
182.313283
 20
-104.332206
 30
0.0
 11
182.778048
 21
-103.719164
 31
0.0
  0
ARC
  8
0
  6
BYLAYER
 62
     1
 10
175.986004
 20
-106.731280
 30
0.0
 40
7.429986
 50
23.916189
 51
35.860484
  0
LINE
  8
0
  6
BYLAYER
 62
     1
 10
182.056454
 20
-102.447085
 30
0.0
 11
182.056012
 21
-102.446460
 31
0.0
  0
LINE
  8
0
  6
BYLAYER
 62
     1
 10
182.007606
 20
-102.378694
 30
0.0
 11
181.252734
 21
-102.482548
 31
0.0
  0
ARC
  8
0
  6
BYLAYER
 62
     1
 10
175.986004
 20
-106.731280
 30
0.0
 40
6.766741
 50
38.894050
 51
50.764315
  0
LINE
  8
0
  6
BYLAYER
 62
     1
 10
180.376691
 20
-101.582423
 30
0.0
 11
180.375958
 21
-101.581790
 31
0.0
  0
LINE
  8
0
  6
BYLAYER
 62
     1
 10
180.266064
 20
-101.489971
 30
0.0
 11
180.362022
 21
-100.726675
 31
0.0
  0
ARC
  8
0
  6
BYLAYER
 62
     1
 10
175.986004
 20
-106.731280
 30
0.0
 40
7.429994
 50
53.916300
 51
65.860381
  0
LINE
  8
0
  6
BYLAYER
 62
     1
 10
179.100552
 20
-99.985583
 30
0.0
 11
179.100033
 21
-99.985347
 31
0.0
  0
LINE
  8
0
  6
BYLAYER
 62
     1
 10
179.024587
 20
-99.951027
 30
0.0
 11
178.422763
 21
-100.418400
 31
0.0
  0
LINE
  8
0
  6
BYLAYER
 62
     1
 10
178.285138
 20
-100.367099
 30
0.0
 11
178.284390
 21
-100.366832
 31
0.0
  0
ARC
  8
0
  6
BYLAYER
 62
     1
 10
175.986004
 20
-106.731280
 30
0.0
 40
6.766738
 50
68.894081
 51
80.764578
  0
ARC
  8
0
  6
BYLAYER
 62
     1
 10
175.986004
 20
-106.731280
 30
0.0
 40
7.429995
 50
84.535428
 51
90.000003
  0
LINE
  8
0
  6
BYLAYER
 62
     1
 10
176.773472
 20
-99.343133
 30
0.0
 11
177.071959
 21
-100.052140
 31
0.0
  0
ARC
  8
0
  6
BYLAYER
 62
     1
 10
175.986004
 20
-106.731280
 30
0.0
 40
7.429995
 50
180.000000
 51
186.083899
  0
LINE
  8
0
  6
BYLAYER
 62
     1
 10
168.589772
 20
-107.438807
 30
0.0
 11
168.589772
 21
-107.438823
 31
0.0
  0
LINE
  8
0
  6
BYLAYER
 62
     1
 10
168.597857
 20
-107.518746
 30
0.0
 11
169.306981
 21
-107.817297
 31
0.0
  0
ARC
  8
0
  6
BYLAYER
 62
     1
 10
175.986035
 20
-106.731219
 30
0.0
 40
6.766781
 50
189.236002
 51
200.764629
  0
LINE
  8
0
  6
BYLAYER
 62
     1
 10
169.658785
 20
-109.130254
 30
0.0
 11
169.193959
 21
-109.743392
 31
0.0
  0
ARC
  8
0
  6
BYLAYER
 62
     1
 10
175.986004
 20
-106.731280
 30
0.0
 40
7.429986
 50
203.916158
 51
215.860410
  0
LINE
  8
0
  6
BYLAYER
 62
     1
 10
169.915539
 20
-111.015467
 30
0.0
 11
169.915982
 21
-111.016093
 31
0.0
  0
LINE
  8
0
  6
BYLAYER
 62
     1
 10
169.964397
 20
-111.083859
 30
0.0
 11
170.719393
 21
-110.979996
 31
0.0
  0
ARC
  8
0
  6
BYLAYER
 62
     1
 10
175.986004
 20
-106.731280
 30
0.0
 40
6.766741
 50
218.894045
 51
230.764345
  0
LINE
  8
0
  6
BYLAYER
 62
     1
 10
171.595318
 20
-111.880130
 30
0.0
 11
171.596051
 21
-111.880763
 31
0.0
  0
LINE
  8
0
  6
BYLAYER
 62
     1
 10
171.705964
 20
-111.972466
 30
0.0
 11
171.609971
 21
-112.735874
 31
0.0
  0
ARC
  8
0
  6
BYLAYER
 62
     1
 10
175.986004
 20
-106.731280
 30
0.0
 40
7.429994
 50
233.916148
 51
245.860401
  0
LINE
  8
0
  6
BYLAYER
 62
     1
 10
172.871457
 20
-113.476970
 30
0.0
 11
172.871960
 21
-113.477214
 31
0.0
  0
LINE
  8
0
  6
BYLAYER
 62
     1
 10
172.947425
 20
-113.511534
 30
0.0
 11
173.549324
 21
-113.044074
 31
0.0
  0
LINE
  8
0
  6
BYLAYER
 62
     1
 10
173.686856
 20
-113.095454
 30
0.0
 11
173.687619
 21
-113.095729
 31
0.0
  0
LINE
  8
0
  6
BYLAYER
 62
     1
 10
183.382229
 20
-107.438807
 30
0.0
 11
183.382229
 21
-107.438823
 31
0.0
  0
LINE
  8
0
  6
BYLAYER
 62
     1
 10
183.374151
 20
-107.518747
 30
0.0
 11
182.665013
 21
-107.817295
 31
0.0
  0
LINE
  8
0
  6
BYLAYER
 62
     1
 10
182.313217
 20
-109.130271
 30
0.0
 11
182.778056
 21
-109.743397
 31
0.0
  0
LINE
  8
0
  6
BYLAYER
 62
     1
 10
182.056454
 20
-111.015467
 30
0.0
 11
182.056012
 21
-111.016093
 31
0.0
  0
LINE
  8
0
  6
BYLAYER
 62
     1
 10
182.007621
 20
-111.083860
 30
0.0
 11
181.252575
 21
-110.979993
 31
0.0
  0
LINE
  8
0
  6
BYLAYER
 62
     1
 10
180.376691
 20
-111.880130
 30
0.0
 11
180.375958
 21
-111.880763
 31
0.0
  0
LINE
  8
0
  6
BYLAYER
 62
     1
 10
180.266049
 20
-111.972463
 30
0.0
 11
180.362022
 21
-112.735885
 31
0.0
  0
LINE
  8
0
  6
BYLAYER
 62
     1
 10
179.024586
 20
-113.511534
 30
0.0
 11
178.422672
 21
-113.044079
 31
0.0
  0
ARC
  8
0
  6
BYLAYER
 62
     1
 10
175.986004
 20
-106.731280
 30
0.0
 40
6.766741
 50
309.235697
 51
321.105929
  0
ARC
  8
0
  6
BYLAYER
 62
     1
 10
175.986004
 20
-106.731280
 30
0.0
 40
6.766738
 50
248.893873
 51
270.0
  0
ARC
  8
0
  6
BYLAYER
 62
     1
 10
175.986004
 20
-106.731280
 30
0.0
 40
7.429994
 50
294.783232
 51
306.083699
  0
LINE
  8
0
  6
BYLAYER
 62
     1
 10
179.100033
 20
-113.477214
 30
0.0
 11
179.025043
 21
-113.512503
 31
0.0
  0
ARC
  8
0
  6
BYLAYER
 62
     1
 10
175.986004
 20
-106.731280
 30
0.0
 40
7.429986
 50
324.139593
 51
336.083825
  0
ARC
  8
0
  6
BYLAYER
 62
     1
 10
175.985959
 20
-106.731219
 30
0.0
 40
6.766781
 50
339.235210
 51
350.764014
  0
ARC
  8
0
  6
BYLAYER
 62
     1
 10
175.986004
 20
-106.731280
 30
0.0
 40
7.429995
 50
353.916089
 51
360.0
  0
ARC
  8
0
  6
BYLAYER
 62
     1
 10
175.986004
 20
-106.731280
 30
0.0
 40
7.429995
 50
0.0
 51
6.083907
  0
ARC
  8
0
  6
BYLAYER
 62
     1
 10
175.986004
 20
-106.731280
 30
0.0
 40
6.766738
 50
270.0
 51
291.106008
  0
CIRCLE
  8
0
  6
BYLAYER
 62
     1
 10
175.986004
 20
-106.731280
 30
0.0
 40
3.630081
  0
CIRCLE
  8
0
  6
BYLAYER
 62
     1
 10
175.986004
 20
-106.731280
 30
0.0
 40
5.296032
  0
LINE
  8
0
  6
BYLAYER
 62
     1
 10
182.554608
 20
-191.196246
 30
0.0
 11
179.554608
 21
-191.196246
 31
0.0
  0
LINE
  8
0
  6
BYLAYER
 62
     1
 10
182.554608
 20
-191.196246
 30
0.0
 11
182.554608
 21
-194.196246
 31
0.0
  0
LINE
  8
0
  6
BYLAYER
 62
     1
 10
182.554608
 20
-191.196246
 30
0.0
 11
185.554608
 21
-191.196246
 31
0.0
  0
LINE
  8
0
  6
BYLAYER
 62
     1
 10
182.554608
 20
-191.196246
 30
0.0
 11
182.554608
 21
-188.196246
 31
0.0
  0
ARC
  8
0
  6
BYLAYER
 62
     1
 10
814.054600
 20
-478.360156
 30
0.0
 40
2.000000
 50
197.341476
 51
360.000000
  0
LINE
  8
0
  6
BYLAYER
 62
     1
 10
815.539403
 20
-487.196215
 30
0.0
 11
834.054600
 21
-487.196215
 31
0.0
  0
LINE
  8
0
  6
BYLAYER
 62
     1
 10
782.554608
 20
-450.196223
 30
0.0
 11
816.054600
 21
-450.196223
 31
0.0
  0
LINE
  8
0
  6
BYLAYER
 62
     1
 10
729.554608
 20
-606.196277
 30
0.0
 11
729.554608
 21
-539.080584
 31
0.0
  0
LINE
  8
0
  6
BYLAYER
 62
     1
 10
726.554608
 20
-590.696277
 30
0.0
 11
726.554608
 21
-511.696215
 31
0.0
  0
LINE
  8
0
  6
BYLAYER
 62
     1
 10
749.054608
 20
-487.196215
 30
0.0
 11
749.054608
 21
-623.196277
 31
0.0
  0
LINE
  8
0
  6
BYLAYER
 62
     1
 10
732.054608
 20
-584.196215
 30
0.0
 11
732.054608
 21
-488.196215
 31
0.0
  0
CIRCLE
  8
0
  6
BYLAYER
 62
     1
 10
740.054608
 20
-601.196277
 30
0.0
 40
4.25
  0
LINE
  8
0
  6
BYLAYER
 62
     1
 10
732.054608
 20
-584.196215
 30
0.0
 11
749.054608
 21
-584.196215
 31
0.0
  0
LINE
  8
0
  6
BYLAYER
 62
     1
 10
749.054608
 20
-585.196277
 30
0.0
 11
731.054608
 21
-585.196277
 31
0.0
  0
LINE
  8
0
  6
BYLAYER
 62
     1
 10
731.054608
 20
-623.196277
 30
0.0
 11
749.054608
 21
-623.196277
 31
0.0
  0
LINE
  8
0
  6
BYLAYER
 62
     1
 10
731.054608
 20
-623.196277
 30
0.0
 11
731.054608
 21
-585.196277
 31
0.0
  0
LINE
  8
0
  6
BYLAYER
 62
     1
 10
729.554608
 20
-606.196277
 30
0.0
 11
731.054608
 21
-606.248675
 31
0.0
  0
LINE
  8
0
  6
BYLAYER
 62
     1
 10
729.154614
 20
-591.196277
 30
0.0
 11
727.054608
 21
-591.196277
 31
0.0
  0
LINE
  8
0
  6
BYLAYER
 62
     1
 10
727.054608
 20
-591.196277
 30
0.0
 11
726.554608
 21
-590.696277
 31
0.0
  0
ARC
  8
0
  6
BYLAYER
 62
     1
 10
729.154614
 20
-591.596270
 30
0.0
 40
0.399994
 50
0.0
 51
90.000003
  0
LINE
  8
0
  6
BYLAYER
 62
     1
 10
731.054608
 20
-585.196277
 30
0.0
 11
732.054608
 21
-584.196215
 31
0.0
  0
LINE
  8
0
  6
BYLAYER
 62
     1
 10
731.054608
 20
-487.196215
 30
0.0
 11
749.569806
 21
-487.196215
 31
0.0
  0
CIRCLE
  8
0
  6
BYLAYER
 62
     1
 10
740.054608
 20
-471.196215
 30
0.0
 40
4.25
  0
LINE
  8
0
  6
BYLAYER
 62
     1
 10
732.054608
 20
-488.196215
 30
0.0
 11
749.054608
 21
-488.196215
 31
0.0
  0
LINE
  8
0
  6
BYLAYER
 62
     1
 10
749.054608
 20
-449.196223
 30
0.0
 11
731.054608
 21
-449.196223
 31
0.0
  0
LINE
  8
0
  6
BYLAYER
 62
     1
 10
729.554608
 20
-532.732104
 30
0.0
 11
729.554608
 21
-496.196277
 31
0.0
  0
LINE
  8
0
  6
BYLAYER
 62
     1
 10
726.554608
 20
-539.132953
 30
0.0
 11
729.554608
 21
-539.080584
 31
0.0
  0
LINE
  8
0
  6
BYLAYER
 62
     1
 10
726.554608
 20
-532.784472
 30
0.0
 11
729.554608
 21
-532.732104
 31
0.0
  0
LINE
  8
0
  6
BYLAYER
 62
     1
 10
729.154614
 20
-511.196215
 30
0.0
 11
727.054608
 21
-511.196215
 31
0.0
  0
LINE
  8
0
  6
BYLAYER
 62
     1
 10
727.054608
 20
-511.196215
 30
0.0
 11
726.554608
 21
-511.696215
 31
0.0
  0
ARC
  8
0
  6
BYLAYER
 62
     1
 10
729.154614
 20
-510.796222
 30
0.0
 40
0.399994
 50
270.0
 51
360.000003
  0
LINE
  8
0
  6
BYLAYER
 62
     1
 10
731.054608
 20
-449.196223
 30
0.0
 11
731.054608
 21
-487.196215
 31
0.0
  0
LINE
  8
0
  6
BYLAYER
 62
     1
 10
729.554608
 20
-496.196277
 30
0.0
 11
732.054608
 21
-496.108966
 31
0.0
  0
LINE
  8
0
  6
BYLAYER
 62
     1
 10
732.054608
 20
-488.196215
 30
0.0
 11
731.054608
 21
-487.196215
 31
0.0
  0
CIRCLE
  8
0
  6
BYLAYER
 62
     1
 10
782.554608
 20
-488.196215
 30
0.0
 40
26.0
  0
ARC
  8
0
  6
BYLAYER
 62
     1
 10
782.554608
 20
-488.196215
 30
0.0
 40
30.999969
 50
330.532607
 51
358.263503
  0
ARC
  8
0
  6
BYLAYER
 62
     1
 10
782.554608
 20
-488.196215
 30
0.0
 40
30.999985
 50
181.736499
 51
209.467395
  0
ARC
  8
0
  6
BYLAYER
 62
     1
 10
782.554608
 20
-488.196215
 30
0.0
 40
30.999969
 50
240.532625
 51
299.467377
  0
ARC
  8
0
  6
BYLAYER
 62
     1
 10
758.866528
 20
-511.884295
 30
0.0
 40
6.999983
 50
124.078036
 51
325.921956
  0
CIRCLE
  8
0
  6
BYLAYER
 62
     1
 10
758.866528
 20
-511.884295
 30
0.0
 40
3.725006
  0
ARC
  8
0
  6
BYLAYER
 62
     1
 10
753.823651
 20
-504.429828
 30
0.0
 40
2.000000
 50
304.077782
 51
389.467386
  0
ARC
  8
0
  6
BYLAYER
 62
     1
 10
766.320996
 20
-516.927173
 30
0.0
 40
2.000000
 50
60.532613
 51
145.922224
  0
ARC
  8
0
  6
BYLAYER
 62
     1
 10
806.242688
 20
-511.884295
 30
0.0
 40
6.999983
 50
214.078032
 51
415.921965
  0
CIRCLE
  8
0
  6
BYLAYER
 62
     1
 10
806.242688
 20
-511.884295
 30
0.0
 40
3.725006
  0
ARC
  8
0
  6
BYLAYER
 62
     1
 10
798.788220
 20
-516.927173
 30
0.0
 40
2.000000
 50
34.077788
 51
119.467372
  0
ARC
  8
0
  6
BYLAYER
 62
     1
 10
811.285557
 20
-504.429828
 30
0.0
 40
2.000000
 50
150.532602
 51
235.922192
  0
ARC
  8
0
  6
BYLAYER
 62
     1
 10
782.554608
 20
-488.196215
 30
0.0
 40
30.999969
 50
60.532613
 51
119.467385
  0
LINE
  8
0
  6
BYLAYER
 62
     1
 10
749.054608
 20
-450.196223
 30
0.0
 11
782.554608
 21
-450.196223
 31
0.0
  0
LINE
  8
0
  6
BYLAYER
 62
     1
 10
749.054608
 20
-478.360156
 30
0.0
 11
749.054608
 21
-449.196223
 31
0.0
  0
ARC
  8
0
  6
BYLAYER
 62
     1
 10
758.866528
 20
-464.508136
 30
0.0
 40
6.999983
 50
34.078037
 51
235.921971
  0
CIRCLE
  8
0
  6
BYLAYER
 62
     1
 10
758.866528
 20
-464.508136
 30
0.0
 40
3.725006
  0
ARC
  8
0
  6
BYLAYER
 62
     1
 10
749.569806
 20
-489.196215
 30
0.0
 40
1.999972
 50
1.736578
 51
90.000005
  0
ARC
  8
0
  6
BYLAYER
 62
     1
 10
751.054608
 20
-478.360156
 30
0.0
 40
2.0
 50
180.000000
 51
342.658537
  0
ARC
  8
0
  6
BYLAYER
 62
     1
 10
782.554608
 20
-488.196215
 30
0.0
 40
30.999969
 50
150.532615
 51
162.658728
  0
ARC
  8
0
  6
BYLAYER
 62
     1
 10
753.823651
 20
-471.962603
 30
0.0
 40
2.000000
 50
330.532634
 51
415.922211
  0
ARC
  8
0
  6
BYLAYER
 62
     1
 10
763.804639
 20
-455.720271
 30
0.0
 40
6.999945
 50
111.250353
 51
127.893298
  0
ARC
  8
0
  6
BYLAYER
 62
     1
 10
766.320996
 20
-459.465266
 30
0.0
 40
2.000000
 50
214.077800
 51
299.467377
  0
LINE
  8
0
  6
BYLAYER
 62
     1
 10
766.341748
 20
-449.196223
 30
0.0
 11
761.267529
 21
-449.196223
 31
0.0
  0
ARC
  8
0
  6
BYLAYER
 62
     1
 10
763.804639
 20
-455.720271
 30
0.0
 40
7.000009
 50
52.105911
 51
68.749652
  0
ARC
  8
0
  6
BYLAYER
 62
     1
 10
806.242688
 20
-464.508136
 30
0.0
 40
6.999983
 50
304.078031
 51
505.921965
  0
CIRCLE
  8
0
  6
BYLAYER
 62
     1
 10
806.242688
 20
-464.508136
 30
0.0
 40
3.725006
  0
ARC
  8
0
  6
BYLAYER
 62
     1
 10
815.539403
 20
-489.196215
 30
0.0
 40
1.999972
 50
90.0
 51
178.26342
  0
ARC
  8
0
  6
BYLAYER
 62
     1
 10
782.554608
 20
-488.196215
 30
0.0
 40
30.999969
 50
17.341271
 51
29.467386
  0
ARC
  8
0
  6
BYLAYER
 62
     1
 10
811.285557
 20
-471.962603
 30
0.0
 40
2.0
 50
124.077790
 51
209.467367
  0
ARC
  8
0
  6
BYLAYER
 62
     1
 10
801.304639
 20
-455.720271
 30
0.0
 40
7.000009
 50
111.250353
 51
127.894090
  0
ARC
  8
0
  6
BYLAYER
 62
     1
 10
798.788220
 20
-459.465266
 30
0.0
 40
2.000000
 50
240.532625
 51
325.922202
  0
LINE
  8
0
  6
BYLAYER
 62
     1
 10
798.767529
 20
-449.196223
 30
0.0
 11
803.841748
 21
-449.196223
 31
0.0
  0
ARC
  8
0
  6
BYLAYER
 62
     1
 10
801.304639
 20
-455.720271
 30
0.0
 40
6.999945
 50
52.106700
 51
68.749652
  0
LINE
  8
0
  6
BYLAYER
 62
     1
 10
835.554600
 20
-606.196277
 30
0.0
 11
835.554600
 21
-539.080584
 31
0.0
  0
LINE
  8
0
  6
BYLAYER
 62
     1
 10
838.554600
 20
-590.696277
 30
0.0
 11
838.554600
 21
-511.696215
 31
0.0
  0
LINE
  8
0
  6
BYLAYER
 62
     1
 10
816.054600
 20
-487.196215
 30
0.0
 11
816.054600
 21
-623.196277
 31
0.0
  0
LINE
  8
0
  6
BYLAYER
 62
     1
 10
833.054600
 20
-584.196215
 30
0.0
 11
833.054600
 21
-488.196215
 31
0.0
  0
LINE
  8
0
  6
BYLAYER
 62
     1
 10
834.054600
 20
-585.196277
 30
0.0
 11
834.054600
 21
-623.196277
 31
0.0
  0
LINE
  8
0
  6
BYLAYER
 62
     1
 10
834.054600
 20
-623.196277
 30
0.0
 11
816.054600
 21
-623.196277
 31
0.0
  0
LINE
  8
0
  6
BYLAYER
 62
     1
 10
835.554600
 20
-606.196277
 30
0.0
 11
834.054600
 21
-606.248675
 31
0.0
  0
CIRCLE
  8
0
  6
BYLAYER
 62
     1
 10
825.054600
 20
-601.196277
 30
0.0
 40
4.25
  0
LINE
  8
0
  6
BYLAYER
 62
     1
 10
816.054600
 20
-585.196277
 30
0.0
 11
834.054600
 21
-585.196277
 31
0.0
  0
LINE
  8
0
  6
BYLAYER
 62
     1
 10
816.054600
 20
-584.196215
 30
0.0
 11
833.054600
 21
-584.196215
 31
0.0
  0
LINE
  8
0
  6
BYLAYER
 62
     1
 10
834.054600
 20
-585.196277
 30
0.0
 11
833.054600
 21
-584.196215
 31
0.0
  0
ARC
  8
0
  6
BYLAYER
 62
     1
 10
835.954594
 20
-591.596270
 30
0.0
 40
0.399994
 50
90.0
 51
180.000003
  0
LINE
  8
0
  6
BYLAYER
 62
     1
 10
835.954594
 20
-591.196277
 30
0.0
 11
838.054600
 21
-591.196277
 31
0.0
  0
LINE
  8
0
  6
BYLAYER
 62
     1
 10
838.054600
 20
-591.196277
 30
0.0
 11
838.554600
 21
-590.696277
 31
0.0
  0
LINE
  8
0
  6
BYLAYER
 62
     1
 10
835.554600
 20
-532.732104
 30
0.0
 11
835.554600
 21
-496.196277
 31
0.0
  0
LINE
  8
0
  6
BYLAYER
 62
     1
 10
838.554600
 20
-539.132953
 30
0.0
 11
835.554600
 21
-539.080584
 31
0.0
  0
LINE
  8
0
  6
BYLAYER
 62
     1
 10
838.554600
 20
-532.784472
 30
0.0
 11
835.554600
 21
-532.732104
 31
0.0
  0
LINE
  8
0
  6
BYLAYER
 62
     1
 10
835.954594
 20
-511.196215
 30
0.0
 11
838.054600
 21
-511.196215
 31
0.0
  0
ARC
  8
0
  6
BYLAYER
 62
     1
 10
835.954594
 20
-510.796222
 30
0.0
 40
0.399994
 50
180.000000
 51
270.000003
  0
LINE
  8
0
  6
BYLAYER
 62
     1
 10
838.054600
 20
-511.196215
 30
0.0
 11
838.554600
 21
-511.696215
 31
0.0
  0
LINE
  8
0
  6
BYLAYER
 62
     1
 10
816.054600
 20
-478.360156
 30
0.0
 11
816.054600
 21
-449.196223
 31
0.0
  0
CIRCLE
  8
0
  6
BYLAYER
 62
     1
 10
825.054600
 20
-471.196215
 30
0.0
 40
4.25
  0
LINE
  8
0
  6
BYLAYER
 62
     1
 10
834.054600
 20
-449.196223
 30
0.0
 11
834.054600
 21
-487.196215
 31
0.0
  0
LINE
  8
0
  6
BYLAYER
 62
     1
 10
835.554600
 20
-496.196277
 30
0.0
 11
833.054600
 21
-496.108966
 31
0.0
  0
LINE
  8
0
  6
BYLAYER
 62
     1
 10
833.054600
 20
-488.196215
 30
0.0
 11
816.054600
 21
-488.196215
 31
0.0
  0
LINE
  8
0
  6
BYLAYER
 62
     1
 10
833.054600
 20
-488.196215
 30
0.0
 11
834.054600
 21
-487.196215
 31
0.0
  0
LINE
  8
0
  6
BYLAYER
 62
     1
 10
816.054600
 20
-449.196223
 30
0.0
 11
834.054600
 21
-449.196223
 31
0.0
  0
LINE
  8
0
  6
BYLAYER
 62
     1
 10
816.054600
 20
-619.196277
 30
0.0
 11
749.054608
 21
-619.196277
 31
0.0
  0
LINE
  8
0
  6
BYLAYER
 62
     1
 10
143.054574
 20
-587.196246
 30
0.0
 11
222.054642
 21
-587.196246
 31
0.0
  0
LINE
  8
0
  6
BYLAYER
 62
     1
 10
237.554581
 20
-584.196246
 30
0.0
 11
127.554574
 21
-584.196246
 31
0.0
  0
LINE
  8
0
  6
BYLAYER
 62
     1
 10
149.554574
 20
-480.696246
 30
0.0
 11
215.554581
 21
-480.696246
 31
0.0
  0
LINE
  8
0
  6
BYLAYER
 62
     1
 10
143.054574
 20
-475.196246
 30
0.0
 11
222.054642
 21
-475.196246
 31
0.0
  0
LINE
  8
0
  6
BYLAYER
 62
     1
 10
237.554581
 20
-478.196246
 30
0.0
 11
127.554574
 21
-478.196246
 31
0.0
  0
LINE
  8
0
  6
BYLAYER
 62
     1
 10
110.554574
 20
-497.696246
 30
0.0
 11
254.554581
 21
-497.696246
 31
0.0
  0
LINE
  8
0
  6
BYLAYER
 62
     1
 10
110.554574
 20
-564.696246
 30
0.0
 11
254.554581
 21
-564.696246
 31
0.0
  0
LINE
  8
0
  6
BYLAYER
 62
     1
 10
149.554574
 20
-581.696246
 30
0.0
 11
215.554581
 21
-581.696246
 31
0.0
  0
LINE
  8
0
  6
BYLAYER
 62
     1
 10
128.554574
 20
-497.696246
 30
0.0
 11
128.554574
 21
-564.696246
 31
0.0
  0
LINE
  8
0
  6
BYLAYER
 62
     1
 10
111.554574
 20
-564.696246
 30
0.0
 11
111.554566
 21
-497.696246
 31
0.0
  0
LINE
  8
0
  6
BYLAYER
 62
     1
 10
110.554574
 20
-582.696246
 30
0.0
 11
110.554574
 21
-479.696246
 31
0.0
  0
LINE
  8
0
  6
BYLAYER
 62
     1
 10
148.554574
 20
-582.696246
 30
0.0
 11
110.554574
 21
-582.696246
 31
0.0
  0
CIRCLE
  8
0
  6
BYLAYER
 62
     1
 10
132.554574
 20
-573.696246
 30
0.0
 40
4.25
  0
CIRCLE
  8
0
  6
BYLAYER
 62
     1
 10
132.554574
 20
-573.696246
 30
0.0
 40
4.25
  0
LINE
  8
0
  6
BYLAYER
 62
     1
 10
148.554574
 20
-564.696246
 30
0.0
 11
148.554574
 21
-582.696246
 31
0.0
  0
LINE
  8
0
  6
BYLAYER
 62
     1
 10
149.554635
 20
-564.696246
 30
0.0
 11
149.554635
 21
-581.696246
 31
0.0
  0
LINE
  8
0
  6
BYLAYER
 62
     1
 10
127.554574
 20
-584.196246
 30
0.0
 11
127.502144
 21
-582.696246
 31
0.0
  0
LINE
  8
0
  6
BYLAYER
 62
     1
 10
142.554574
 20
-586.696246
 30
0.0
 11
143.054574
 21
-587.196246
 31
0.0
  0
LINE
  8
0
  6
BYLAYER
 62
     1
 10
142.554574
 20
-584.196246
 30
0.0
 11
142.554574
 21
-586.696246
 31
0.0
  0
LINE
  8
0
  6
BYLAYER
 62
     1
 10
148.554574
 20
-582.696246
 30
0.0
 11
149.554635
 21
-581.696246
 31
0.0
  0
LINE
  8
0
  6
BYLAYER
 62
     1
 10
148.554574
 20
-479.696246
 30
0.0
 11
110.554574
 21
-479.696246
 31
0.0
  0
LINE
  8
0
  6
BYLAYER
 62
     1
 10
148.554574
 20
-497.696246
 30
0.0
 11
148.554574
 21
-479.696246
 31
0.0
  0
LINE
  8
0
  6
BYLAYER
 62
     1
 10
149.554635
 20
-480.696246
 30
0.0
 11
149.554635
 21
-497.696246
 31
0.0
  0
LINE
  8
0
  6
BYLAYER
 62
     1
 10
127.554574
 20
-478.196246
 30
0.0
 11
127.502144
 21
-479.696246
 31
0.0
  0
CIRCLE
  8
0
  6
BYLAYER
 62
     1
 10
132.554574
 20
-488.696246
 30
0.0
 40
4.25
  0
LINE
  8
0
  6
BYLAYER
 62
     1
 10
142.554574
 20
-475.696246
 30
0.0
 11
143.054574
 21
-475.196246
 31
0.0
  0
LINE
  8
0
  6
BYLAYER
 62
     1
 10
142.554574
 20
-478.196246
 30
0.0
 11
142.554574
 21
-475.696246
 31
0.0
  0
LINE
  8
0
  6
BYLAYER
 62
     1
 10
148.554574
 20
-479.696246
 30
0.0
 11
149.554635
 21
-480.696246
 31
0.0
  0
LINE
  8
0
  6
BYLAYER
 62
     1
 10
256.554581
 20
-486.696246
 30
0.0
 11
256.554581
 21
-575.696246
 31
0.0
  0
LINE
  8
0
  6
BYLAYER
 62
     1
 10
236.554551
 20
-564.696246
 30
0.0
 11
236.554551
 21
-497.696246
 31
0.0
  0
ARC
  8
0
  6
BYLAYER
 62
     1
 10
255.554581
 20
-576.696246
 30
0.0
 40
1.0
 50
90.0
 51
179.999989
  0
LINE
  8
0
  6
BYLAYER
 62
     1
 10
254.554581
 20
-582.696246
 30
0.0
 11
254.554581
 21
-564.696246
 31
0.0
  0
LINE
  8
0
  6
BYLAYER
 62
     1
 10
215.554520
 20
-564.696246
 30
0.0
 11
215.554520
 21
-581.696246
 31
0.0
  0
LINE
  8
0
  6
BYLAYER
 62
     1
 10
216.554581
 20
-564.696246
 30
0.0
 11
216.554581
 21
-582.696246
 31
0.0
  0
CIRCLE
  8
0
  6
BYLAYER
 62
     1
 10
232.554581
 20
-573.696246
 30
0.0
 40
4.25
  0
LINE
  8
0
  6
BYLAYER
 62
     1
 10
254.554581
 20
-582.696246
 30
0.0
 11
216.554581
 21
-582.696246
 31
0.0
  0
LINE
  8
0
  6
BYLAYER
 62
     1
 10
216.554581
 20
-582.696246
 30
0.0
 11
215.554520
 21
-581.696246
 31
0.0
  0
LINE
  8
0
  6
BYLAYER
 62
     1
 10
222.554581
 20
-584.196246
 30
0.0
 11
222.554581
 21
-586.696246
 31
0.0
  0
LINE
  8
0
  6
BYLAYER
 62
     1
 10
222.554581
 20
-586.696246
 30
0.0
 11
222.054581
 21
-587.196246
 31
0.0
  0
LINE
  8
0
  6
BYLAYER
 62
     1
 10
237.554581
 20
-584.196246
 30
0.0
 11
237.607010
 21
-582.696246
 31
0.0
  0
LINE
  8
0
  6
BYLAYER
 62
     1
 10
256.554581
 20
-552.483233
 30
0.0
 11
236.554551
 21
-552.483233
 31
0.0
  0
LINE
  8
0
  6
BYLAYER
 62
     1
 10
256.554581
 20
-547.409259
 30
0.0
 11
236.554551
 21
-547.409259
 31
0.0
  0
LINE
  8
0
  6
BYLAYER
 62
     1
 10
228.554581
 20
-537.196246
 30
0.0
 11
236.554551
 21
-537.196246
 31
0.0
  0
LINE
  8
0
  6
BYLAYER
 62
     1
 10
228.554581
 20
-535.196246
 30
0.0
 11
236.554551
 21
-535.196246
 31
0.0
  0
ARC
  8
0
  6
BYLAYER
 62
     1
 10
228.554581
 20
-536.196246
 30
0.0
 40
1.0
 50
90.0
 51
270.000005
  0
LINE
  8
0
  6
BYLAYER
 62
     1
 10
228.554581
 20
-525.196246
 30
0.0
 11
236.554551
 21
-525.196246
 31
0.0
  0
LINE
  8
0
  6
BYLAYER
 62
     1
 10
228.554581
 20
-527.196246
 30
0.0
 11
236.554551
 21
-527.196246
 31
0.0
  0
ARC
  8
0
  6
BYLAYER
 62
     1
 10
228.554581
 20
-526.196246
 30
0.0
 40
1.0
 50
90.0
 51
269.999991
  0
LINE
  8
0
  6
BYLAYER
 62
     1
 10
256.554581
 20
-575.696246
 30
0.0
 11
255.554581
 21
-575.696246
 31
0.0
  0
LINE
  8
0
  6
BYLAYER
 62
     1
 10
256.554581
 20
-565.163226
 30
0.0
 11
255.519669
 21
-565.199359
 31
0.0
  0
ARC
  8
0
  6
BYLAYER
 62
     1
 10
255.554581
 20
-566.198809
 30
0.0
 40
1.0
 50
91.999836
 51
180.000000
  0
LINE
  8
0
  6
BYLAYER
 62
     1
 10
256.554581
 20
-514.983233
 30
0.0
 11
236.554551
 21
-514.983233
 31
0.0
  0
LINE
  8
0
  6
BYLAYER
 62
     1
 10
256.554581
 20
-509.909259
 30
0.0
 11
236.554551
 21
-509.909259
 31
0.0
  0
LINE
  8
0
  6
BYLAYER
 62
     1
 10
254.554581
 20
-479.696246
 30
0.0
 11
216.554581
 21
-479.696246
 31
0.0
  0
LINE
  8
0
  6
BYLAYER
 62
     1
 10
215.554520
 20
-480.696246
 30
0.0
 11
215.554520
 21
-497.696246
 31
0.0
  0
LINE
  8
0
  6
BYLAYER
 62
     1
 10
216.554581
 20
-497.696246
 30
0.0
 11
216.554581
 21
-479.696246
 31
0.0
  0
LINE
  8
0
  6
BYLAYER
 62
     1
 10
216.554581
 20
-479.696246
 30
0.0
 11
215.554520
 21
-480.696246
 31
0.0
  0
LINE
  8
0
  6
BYLAYER
 62
     1
 10
237.554581
 20
-478.196246
 30
0.0
 11
237.607010
 21
-479.696246
 31
0.0
  0
CIRCLE
  8
0
  6
BYLAYER
 62
     1
 10
232.554581
 20
-488.696246
 30
0.0
 40
4.25
  0
LINE
  8
0
  6
BYLAYER
 62
     1
 10
222.554581
 20
-478.196246
 30
0.0
 11
222.554581
 21
-475.696246
 31
0.0
  0
LINE
  8
0
  6
BYLAYER
 62
     1
 10
222.554581
 20
-475.696246
 30
0.0
 11
222.054581
 21
-475.196246
 31
0.0
  0
LINE
  8
0
  6
BYLAYER
 62
     1
 10
254.554581
 20
-479.696246
 30
0.0
 11
254.554581
 21
-497.696246
 31
0.0
  0
ARC
  8
0
  6
BYLAYER
 62
     1
 10
255.554581
 20
-496.193683
 30
0.0
 40
1.0
 50
180.000000
 51
268.000171
  0
LINE
  8
0
  6
BYLAYER
 62
     1
 10
256.554581
 20
-497.229266
 30
0.0
 11
255.519669
 21
-497.193133
 31
0.0
  0
ARC
  8
0
  6
BYLAYER
 62
     1
 10
255.554581
 20
-485.696246
 30
0.0
 40
1.000000
 50
180.000000
 51
269.999996
  0
LINE
  8
0
  6
BYLAYER
 62
     1
 10
256.554581
 20
-486.696246
 30
0.0
 11
255.554581
 21
-486.696246
 31
0.0
  0
LINE
  8
0
  6
BYLAYER
 62
     1
 10
205.804581
 20
-557.196246
 30
0.0
 11
236.554551
 21
-557.196246
 31
0.0
  0
LINE
  8
0
  6
BYLAYER
 62
     1
 10
236.554551
 20
-555.196246
 30
0.0
 11
205.804581
 21
-555.196246
 31
0.0
  0
LINE
  8
0
  6
BYLAYER
 62
     1
 10
205.804581
 20
-545.196246
 30
0.0
 11
236.554551
 21
-545.196246
 31
0.0
  0
LINE
  8
0
  6
BYLAYER
 62
     1
 10
236.554551
 20
-547.196246
 30
0.0
 11
205.804581
 21
-547.196246
 31
0.0
  0
LINE
  8
0
  6
BYLAYER
 62
     1
 10
205.804581
 20
-517.196246
 30
0.0
 11
236.554551
 21
-517.196246
 31
0.0
  0
LINE
  8
0
  6
BYLAYER
 62
     1
 10
236.554551
 20
-515.196246
 30
0.0
 11
205.804581
 21
-515.196246
 31
0.0
  0
LINE
  8
0
  6
BYLAYER
 62
     1
 10
236.554551
 20
-507.196246
 30
0.0
 11
205.804581
 21
-507.196246
 31
0.0
  0
LINE
  8
0
  6
BYLAYER
 62
     1
 10
205.804581
 20
-505.196246
 30
0.0
 11
236.554551
 21
-505.196246
 31
0.0
  0
ARC
  8
0
  6
BYLAYER
 62
     1
 10
205.804581
 20
-556.196246
 30
0.0
 40
1.0
 50
90.0
 51
270.000005
  0
LINE
  8
0
  6
BYLAYER
 62
     1
 10
155.554574
 20
-557.196246
 30
0.0
 11
128.554574
 21
-557.196246
 31
0.0
  0
LINE
  8
0
  6
BYLAYER
 62
     1
 10
128.554574
 20
-555.196246
 30
0.0
 11
155.554574
 21
-555.196246
 31
0.0
  0
LINE
  8
0
  6
BYLAYER
 62
     1
 10
128.554574
 20
-547.196246
 30
0.0
 11
155.554574
 21
-547.196246
 31
0.0
  0
LINE
  8
0
  6
BYLAYER
 62
     1
 10
155.554574
 20
-545.196246
 30
0.0
 11
128.554574
 21
-545.196246
 31
0.0
  0
ARC
  8
0
  6
BYLAYER
 62
     1
 10
155.554574
 20
-556.196246
 30
0.0
 40
1.000000
 50
270.0
 51
449.999991
  0
ARC
  8
0
  6
BYLAYER
 62
     1
 10
155.554574
 20
-546.196246
 30
0.0
 40
1.0
 50
270.0
 51
449.999991
  0
LINE
  8
0
  6
BYLAYER
 62
     1
 10
155.554574
 20
-517.196246
 30
0.0
 11
128.554574
 21
-517.196246
 31
0.0
  0
LINE
  8
0
  6
BYLAYER
 62
     1
 10
155.554574
 20
-515.196246
 30
0.0
 11
128.554574
 21
-515.196246
 31
0.0
  0
LINE
  8
0
  6
BYLAYER
 62
     1
 10
128.554574
 20
-507.196246
 30
0.0
 11
155.554574
 21
-507.196246
 31
0.0
  0
LINE
  8
0
  6
BYLAYER
 62
     1
 10
155.554574
 20
-505.196246
 30
0.0
 11
128.554574
 21
-505.196246
 31
0.0
  0
ARC
  8
0
  6
BYLAYER
 62
     1
 10
155.554574
 20
-516.196246
 30
0.0
 40
1.0
 50
270.0
 51
449.999991
  0
ARC
  8
0
  6
BYLAYER
 62
     1
 10
155.554574
 20
-506.196246
 30
0.0
 40
1.0
 50
270.0
 51
449.999991
  0
LINE
  8
0
  6
BYLAYER
 62
     1
 10
128.554574
 20
-525.196246
 30
0.0
 11
162.054581
 21
-525.196246
 31
0.0
  0
LINE
  8
0
  6
BYLAYER
 62
     1
 10
128.554574
 20
-527.196246
 30
0.0
 11
162.054581
 21
-527.196246
 31
0.0
  0
LINE
  8
0
  6
BYLAYER
 62
     1
 10
128.554574
 20
-535.196246
 30
0.0
 11
162.054581
 21
-535.196246
 31
0.0
  0
LINE
  8
0
  6
BYLAYER
 62
     1
 10
128.554574
 20
-537.196246
 30
0.0
 11
162.054581
 21
-537.196246
 31
0.0
  0
ARC
  8
0
  6
BYLAYER
 62
     1
 10
162.054581
 20
-526.196246
 30
0.0
 40
1.0
 50
270.0
 51
450.000005
  0
ARC
  8
0
  6
BYLAYER
 62
     1
 10
162.054581
 20
-536.196246
 30
0.0
 40
1.0
 50
270.0
 51
450.000005
  0
ARC
  8
0
  6
BYLAYER
 62
     1
 10
205.804581
 20
-546.196246
 30
0.0
 40
1.0
 50
90.0
 51
270.000005
  0
ARC
  8
0
  6
BYLAYER
 62
     1
 10
205.804581
 20
-516.196246
 30
0.0
 40
1.0
 50
90.0
 51
269.999991
  0
ARC
  8
0
  6
BYLAYER
 62
     1
 10
205.804581
 20
-506.196246
 30
0.0
 40
1.0
 50
90.0
 51
269.999991
  0
LINE
  8
0
  6
BYLAYER
 62
     1
 10
268.449872
 20
-28.673480
 30
0.0
 11
277.554608
 21
-28.196258
 31
0.0
  0
LINE
  8
0
  6
BYLAYER
 62
     1
 10
277.554608
 20
-128.196246
 30
0.0
 11
277.554608
 21
-45.696307
 31
0.0
  0
ARC
  8
0
  6
BYLAYER
 62
     1
 10
264.554608
 20
-64.752765
 30
0.0
 40
2.000000
 50
334.999966
 51
360.000000
  0
LINE
  8
0
  6
BYLAYER
 62
     1
 10
256.554608
 20
-83.696185
 30
0.0
 11
256.653760
 21
-83.696185
 31
0.0
  0
ARC
  8
0
  6
BYLAYER
 62
     1
 10
256.653760
 20
-81.696185
 30
0.0
 40
2.0
 50
270.0
 51
334.999850
  0
LINE
  8
0
  6
BYLAYER
 62
     1
 10
266.367108
 20
-65.598285
 30
0.0
 11
258.466382
 21
-82.541430
 31
0.0
  0
LINE
  8
0
  6
BYLAYER
 62
     1
 10
258.879376
 20
-81.655749
 30
0.0
 11
266.554608
 21
-45.800616
 31
0.0
  0
LINE
  8
0
  6
BYLAYER
 62
     1
 10
266.554608
 20
-128.196246
 30
0.0
 11
266.554608
 21
-30.670794
 31
0.0
  0
LINE
  8
0
  6
BYLAYER
 62
     1
 10
256.554608
 20
-83.696185
 30
0.0
 11
256.554608
 21
-128.196246
 31
0.0
  0
LINE
  8
0
  6
BYLAYER
 62
     1
 10
277.554608
 20
-228.196234
 30
0.0
 11
277.554608
 21
-210.696185
 31
0.0
  0
LINE
  8
0
  6
BYLAYER
 62
     1
 10
256.554608
 20
-172.696307
 30
0.0
 11
256.653760
 21
-172.696307
 31
0.0
  0
ARC
  8
0
  6
BYLAYER
 62
     1
 10
256.653760
 20
-174.696307
 30
0.0
 40
2.000000
 50
25.000150
 51
90.0
  0
ARC
  8
0
  6
BYLAYER
 62
     1
 10
264.554608
 20
-191.639727
 30
0.0
 40
2.0
 50
0.0
 51
25.000034
  0
LINE
  8
0
  6
BYLAYER
 62
     1
 10
258.879376
 20
-174.736743
 30
0.0
 11
266.554608
 21
-210.591876
 31
0.0
  0
LINE
  8
0
  6
BYLAYER
 62
     1
 10
266.367108
 20
-190.794207
 30
0.0
 11
258.466382
 21
-173.851062
 31
0.0
  0
ARC
  8
0
  6
BYLAYER
 62
     1
 10
268.554608
 20
-225.721698
 30
0.0
 40
2.000059
 50
180.000000
 51
266.999958
  0
LINE
  8
0
  6
BYLAYER
 62
     1
 10
268.449872
 20
-227.719012
 30
0.0
 11
277.554608
 21
-228.196234
 31
0.0
  0
LINE
  8
0
  6
BYLAYER
 62
     1
 10
277.554608
 20
-128.196246
 30
0.0
 11
277.554608
 21
-210.696185
 31
0.0
  0
LINE
  8
0
  6
BYLAYER
 62
     1
 10
266.554608
 20
-128.196246
 30
0.0
 11
266.554608
 21
-225.721698
 31
0.0
  0
LINE
  8
0
  6
BYLAYER
 62
     1
 10
256.554608
 20
-172.696307
 30
0.0
 11
256.554608
 21
-128.196246
 31
0.0
  0
ARC
  8
0
  6
BYLAYER
 62
     1
 10
268.554608
 20
-30.670794
 30
0.0
 40
2.000059
 50
93.000064
 51
180.000022
  0
LINE
  8
0
  6
BYLAYER
 62
     1
 10
277.554608
 20
-28.196258
 30
0.0
 11
277.554608
 21
-45.696307
 31
0.0
  0
LINE
  8
0
  6
BYLAYER
 62
     1
 10
729.554608
 20
-246.196308
 30
0.0
 11
731.054608
 21
-246.248706
 31
0.0
  0
LINE
  8
0
  6
BYLAYER
 62
     1
 10
726.554608
 20
-230.696308
 30
0.0
 11
726.554608
 21
-211.045507
 31
0.0
  0
LINE
  8
0
  6
BYLAYER
 62
     1
 10
729.554608
 20
-212.996011
 30
0.0
 11
729.554608
 21
-246.196308
 31
0.0
  0
LINE
  8
0
  6
BYLAYER
 62
     1
 10
727.054608
 20
-231.196308
 30
0.0
 11
726.554608
 21
-230.696308
 31
0.0
  0
LINE
  8
0
  6
BYLAYER
 62
     1
 10
729.554608
 20
-231.196308
 30
0.0
 11
727.054608
 21
-231.196308
 31
0.0
  0
LINE
  8
0
  6
BYLAYER
 62
     1
 10
731.054608
 20
-225.196308
 30
0.0
 11
731.054608
 21
-263.196308
 31
0.0
  0
LINE
  8
0
  6
BYLAYER
 62
     1
 10
834.054608
 20
-263.196308
 30
0.0
 11
834.054608
 21
-225.196308
 31
0.0
  0
LINE
  8
0
  6
BYLAYER
 62
     1
 10
838.554608
 20
-230.696308
 30
0.0
 11
838.554608
 21
-211.045507
 31
0.0
  0
LINE
  8
0
  6
BYLAYER
 62
     1
 10
835.554608
 20
-212.996011
 30
0.0
 11
835.554608
 21
-246.196308
 31
0.0
  0
LINE
  8
0
  6
BYLAYER
 62
     1
 10
749.054608
 20
-263.196308
 30
0.0
 11
749.054608
 21
-222.418059
 31
0.0
  0
LINE
  8
0
  6
BYLAYER
 62
     1
 10
816.054608
 20
-222.418059
 30
0.0
 11
816.054608
 21
-263.196308
 31
0.0
  0
LINE
  8
0
  6
BYLAYER
 62
     1
 10
731.054608
 20
-263.196308
 30
0.0
 11
749.054608
 21
-263.196308
 31
0.0
  0
CIRCLE
  8
0
  6
BYLAYER
 62
     1
 10
740.054608
 20
-241.196308
 30
0.0
 40
4.25
  0
LINE
  8
0
  6
BYLAYER
 62
     1
 10
834.054608
 20
-263.196308
 30
0.0
 11
816.054608
 21
-263.196308
 31
0.0
  0
CIRCLE
  8
0
  6
BYLAYER
 62
     1
 10
825.054608
 20
-241.196308
 30
0.0
 40
4.25
  0
LINE
  8
0
  6
BYLAYER
 62
     1
 10
835.554608
 20
-246.196308
 30
0.0
 11
834.054608
 21
-246.248706
 31
0.0
  0
LINE
  8
0
  6
BYLAYER
 62
     1
 10
835.554608
 20
-231.196308
 30
0.0
 11
838.054608
 21
-231.196308
 31
0.0
  0
LINE
  8
0
  6
BYLAYER
 62
     1
 10
838.054608
 20
-231.196308
 30
0.0
 11
838.554608
 21
-230.696308
 31
0.0
  0
LINE
  8
0
  6
BYLAYER
 62
     1
 10
749.054608
 20
-224.196246
 30
0.0
 11
732.054608
 21
-224.196246
 31
0.0
  0
LINE
  8
0
  6
BYLAYER
 62
     1
 10
749.054608
 20
-225.196308
 30
0.0
 11
731.054608
 21
-225.196308
 31
0.0
  0
LINE
  8
0
  6
BYLAYER
 62
     1
 10
732.054608
 20
-224.196246
 30
0.0
 11
732.054608
 21
-214.508181
 31
0.0
  0
LINE
  8
0
  6
BYLAYER
 62
     1
 10
731.054608
 20
-225.196308
 30
0.0
 11
732.054608
 21
-224.196246
 31
0.0
  0
LINE
  8
0
  6
BYLAYER
 62
     1
 10
816.054608
 20
-225.196308
 30
0.0
 11
834.054608
 21
-225.196308
 31
0.0
  0
LINE
  8
0
  6
BYLAYER
 62
     1
 10
833.054608
 20
-224.196246
 30
0.0
 11
816.054608
 21
-224.196246
 31
0.0
  0
LINE
  8
0
  6
BYLAYER
 62
     1
 10
833.054608
 20
-224.196246
 30
0.0
 11
833.054608
 21
-214.508181
 31
0.0
  0
LINE
  8
0
  6
BYLAYER
 62
     1
 10
834.054608
 20
-225.196308
 30
0.0
 11
833.054608
 21
-224.196246
 31
0.0
  0
LINE
  8
0
  6
BYLAYER
 62
     1
 10
816.054608
 20
-259.196308
 30
0.0
 11
749.054608
 21
-259.196308
 31
0.0
  0
LINE
  8
0
  6
BYLAYER
 62
     7
 10
739.054501
 20
-21.696277
 30
0.0
 11
739.054501
 21
-0.196277
 31
0.0
  0
ARC
  8
0
  6
BYLAYER
 62
     7
 10
737.554501
 20
-21.696277
 30
0.0
 40
1.500000
 50
270.0
 51
360.0
  0
ARC
  8
0
  6
BYLAYER
 62
     7
 10
740.554501
 20
-0.196277
 30
0.0
 40
1.500000
 50
90.0
 51
180.0
  0
LINE
  8
0
  6
BYLAYER
 62
     7
 10
782.554501
 20
1.303723
 30
0.0
 11
740.554501
 21
1.303723
 31
0.0
  0
LINE
  8
0
  6
BYLAYER
 62
     7
 10
744.426742
 20
-21.696277
 30
0.0
 11
744.426742
 21
-0.196277
 31
0.0
  0
ARC
  8
0
  6
BYLAYER
 62
     7
 10
742.926742
 20
-21.696277
 30
0.0
 40
1.500000
 50
270.0
 51
360.0
  0
ARC
  8
0
  6
BYLAYER
 62
     7
 10
745.926742
 20
-0.196277
 30
0.0
 40
1.500000
 50
90.0
 51
180.0
  0
LINE
  8
0
  6
BYLAYER
 62
     7
 10
769.460848
 20
1.303723
 30
0.0
 11
769.953395
 21
-12.800975
 31
0.0
  0
ARC
  8
0
  6
BYLAYER
 62
     7
 10
772.951567
 20
-12.696277
 30
0.0
 40
3.000000
 50
182.0
 51
270.0
  0
LINE
  8
0
  6
BYLAYER
 62
     7
 10
780.155607
 20
-12.800975
 30
0.0
 11
780.648154
 21
1.303723
 31
0.0
  0
ARC
  8
0
  6
BYLAYER
 62
     7
 10
777.157435
 20
-12.696277
 30
0.0
 40
3.000000
 50
270.0
 51
358.0
  0
LINE
  8
0
  6
BYLAYER
 62
     7
 10
772.951567
 20
-15.696277
 30
0.0
 11
777.157435
 21
-15.696277
 31
0.0
  0
LINE
  8
0
  6
BYLAYER
 62
     7
 10
754.460848
 20
1.303723
 30
0.0
 11
754.953395
 21
-12.800975
 31
0.0
  0
ARC
  8
0
  6
BYLAYER
 62
     7
 10
757.951567
 20
-12.696277
 30
0.0
 40
3.000000
 50
182.0
 51
270.0
  0
LINE
  8
0
  6
BYLAYER
 62
     7
 10
765.155607
 20
-12.800975
 30
0.0
 11
765.648154
 21
1.303723
 31
0.0
  0
ARC
  8
0
  6
BYLAYER
 62
     7
 10
762.157435
 20
-12.696277
 30
0.0
 40
3.000000
 50
270.0
 51
358.0
  0
LINE
  8
0
  6
BYLAYER
 62
     7
 10
757.951567
 20
-15.696277
 30
0.0
 11
762.157435
 21
-15.696277
 31
0.0
  0
LINE
  8
0
  6
BYLAYER
 62
     7
 10
754.495769
 20
0.303723
 30
0.0
 11
765.613233
 21
0.303723
 31
0.0
  0
LINE
  8
0
  6
BYLAYER
 62
     7
 10
769.495769
 20
0.303723
 30
0.0
 11
780.613233
 21
0.303723
 31
0.0
  0
LINE
  8
0
  6
BYLAYER
 62
     7
 10
782.554501
 20
-23.196277
 30
0.0
 11
735.054501
 21
-23.196277
 31
0.0
  0
ARC
  8
0
  6
BYLAYER
 62
     7
 10
735.054501
 20
-24.696277
 30
0.0
 40
1.500000
 50
90.0
 51
180.0
  0
LINE
  8
0
  6
BYLAYER
 62
     7
 10
733.554501
 20
-30.196277
 30
0.0
 11
733.554501
 21
-24.696277
 31
0.0
  0
LINE
  8
0
  6
BYLAYER
 62
     7
 10
733.554501
 20
-30.196277
 30
0.0
 11
782.554501
 21
-30.196277
 31
0.0
  0
LINE
  8
0
  6
BYLAYER
 62
     7
 10
826.054501
 20
-21.696277
 30
0.0
 11
826.054501
 21
-0.196277
 31
0.0
  0
ARC
  8
0
  6
BYLAYER
 62
     7
 10
827.554501
 20
-21.696277
 30
0.0
 40
1.500000
 50
180.000000
 51
270.000000
  0
ARC
  8
0
  6
BYLAYER
 62
     7
 10
824.554501
 20
-0.196277
 30
0.0
 40
1.500000
 50
0.0
 51
90.0
  0
LINE
  8
0
  6
BYLAYER
 62
     7
 10
782.554501
 20
1.303723
 30
0.0
 11
824.554501
 21
1.303723
 31
0.0
  0
LINE
  8
0
  6
BYLAYER
 62
     7
 10
820.682260
 20
-21.696277
 30
0.0
 11
820.682260
 21
-0.196277
 31
0.0
  0
ARC
  8
0
  6
BYLAYER
 62
     7
 10
822.182260
 20
-21.696277
 30
0.0
 40
1.500000
 50
180.000000
 51
270.000000
  0
ARC
  8
0
  6
BYLAYER
 62
     7
 10
819.182260
 20
-0.196277
 30
0.0
 40
1.500000
 50
0.0
 51
90.0
  0
LINE
  8
0
  6
BYLAYER
 62
     7
 10
795.648154
 20
1.303723
 30
0.0
 11
795.155607
 21
-12.800975
 31
0.0
  0
ARC
  8
0
  6
BYLAYER
 62
     7
 10
792.157435
 20
-12.696277
 30
0.0
 40
3.000000
 50
270.0
 51
358.0
  0
LINE
  8
0
  6
BYLAYER
 62
     7
 10
784.953395
 20
-12.800975
 30
0.0
 11
784.460848
 21
1.303723
 31
0.0
  0
ARC
  8
0
  6
BYLAYER
 62
     7
 10
787.951567
 20
-12.696277
 30
0.0
 40
3.000000
 50
182.0
 51
270.0
  0
LINE
  8
0
  6
BYLAYER
 62
     7
 10
792.157435
 20
-15.696277
 30
0.0
 11
787.951567
 21
-15.696277
 31
0.0
  0
LINE
  8
0
  6
BYLAYER
 62
     7
 10
810.648154
 20
1.303723
 30
0.0
 11
810.155607
 21
-12.800975
 31
0.0
  0
ARC
  8
0
  6
BYLAYER
 62
     7
 10
807.157435
 20
-12.696277
 30
0.0
 40
3.000000
 50
270.0
 51
358.0
  0
LINE
  8
0
  6
BYLAYER
 62
     7
 10
799.953395
 20
-12.800975
 30
0.0
 11
799.460848
 21
1.303723
 31
0.0
  0
ARC
  8
0
  6
BYLAYER
 62
     7
 10
802.951567
 20
-12.696277
 30
0.0
 40
3.000000
 50
182.0
 51
270.0
  0
LINE
  8
0
  6
BYLAYER
 62
     7
 10
807.157435
 20
-15.696277
 30
0.0
 11
802.951567
 21
-15.696277
 31
0.0
  0
LINE
  8
0
  6
BYLAYER
 62
     7
 10
810.613233
 20
0.303723
 30
0.0
 11
799.495769
 21
0.303723
 31
0.0
  0
LINE
  8
0
  6
BYLAYER
 62
     7
 10
795.613233
 20
0.303723
 30
0.0
 11
784.495769
 21
0.303723
 31
0.0
  0
LINE
  8
0
  6
BYLAYER
 62
     7
 10
782.554501
 20
-23.196277
 30
0.0
 11
830.054501
 21
-23.196277
 31
0.0
  0
ARC
  8
0
  6
BYLAYER
 62
     7
 10
830.054501
 20
-24.696277
 30
0.0
 40
1.500000
 50
0.0
 51
90.0
  0
LINE
  8
0
  6
BYLAYER
 62
     7
 10
831.554501
 20
-32.196277
 30
0.0
 11
831.554501
 21
-24.696277
 31
0.0
  0
LINE
  8
0
  6
BYLAYER
 62
     7
 10
831.554501
 20
-30.196277
 30
0.0
 11
782.554501
 21
-30.196277
 31
0.0
  0
LINE
  8
0
  6
BYLAYER
 62
     7
 10
733.554501
 20
-32.196277
 30
0.0
 11
782.554485
 21
-32.196277
 31
0.0
  0
LINE
  8
0
  6
BYLAYER
 62
     7
 10
733.554501
 20
-37.696277
 30
0.0
 11
736.554501
 21
-42.892444
 31
0.0
  0
LINE
  8
0
  6
BYLAYER
 62
     7
 10
831.554485
 20
-32.196155
 30
0.0
 11
782.554485
 21
-32.196277
 31
0.0
  0
LINE
  8
0
  6
BYLAYER
 62
     7
 10
831.554485
 20
-37.696155
 30
0.0
 11
828.554485
 21
-42.892322
 31
0.0
  0
LINE
  8
0
  6
BYLAYER
 62
     7
 10
736.554501
 20
-42.892444
 30
0.0
 11
736.554501
 21
-54.882680
 31
0.0
  0
LINE
  8
0
  6
BYLAYER
 62
     7
 10
733.554501
 20
-32.196277
 30
0.0
 11
733.554501
 21
-56.852863
 31
0.0
  0
LINE
  8
0
  6
BYLAYER
 62
     7
 10
831.554485
 20
-32.196155
 30
0.0
 11
831.554514
 21
-56.852725
 31
0.0
  0
LINE
  8
0
  6
BYLAYER
 62
     7
 10
828.554485
 20
-42.892322
 30
0.0
 11
828.554496
 21
-54.882543
 31
0.0
  0
LINE
  8
0
  6
BYLAYER
 62
     7
 10
733.554501
 20
-30.196277
 30
0.0
 11
733.554501
 21
-32.196277
 31
0.0
  0
LINE
  8
0
  6
BYLAYER
 62
     7
 10
733.554501
 20
-32.196277
 30
0.0
 11
831.554501
 21
-32.196277
 31
0.0
  0
LINE
  8
0
  6
BYLAYER
 62
     7
 10
783.554608
 20
-99.196246
 30
0.0
 11
783.554608
 21
-107.196246
 31
0.0
  0
LINE
  8
0
  6
BYLAYER
 62
     7
 10
783.554608
 20
-89.196246
 30
0.0
 11
783.554608
 21
-97.196246
 31
0.0
  0
LINE
  8
0
  6
BYLAYER
 62
     7
 10
791.554608
 20
-97.196246
 30
0.0
 11
791.554608
 21
-89.196246
 31
0.0
  0
LINE
  8
0
  6
BYLAYER
 62
     7
 10
793.554608
 20
-97.196246
 30
0.0
 11
793.554608
 21
-89.196246
 31
0.0
  0
LINE
  8
0
  6
BYLAYER
 62
     7
 10
783.554608
 20
-107.196246
 30
0.0
 11
791.554608
 21
-107.196246
 31
0.0
  0
LINE
  8
0
  6
BYLAYER
 62
     7
 10
783.554608
 20
-99.196246
 30
0.0
 11
791.554608
 21
-99.196246
 31
0.0
  0
LINE
  8
0
  6
BYLAYER
 62
     7
 10
793.554608
 20
-97.196246
 30
0.0
 11
801.392607
 21
-97.196246
 31
0.0
  0
LINE
  8
0
  6
BYLAYER
 62
     7
 10
783.554608
 20
-97.196246
 30
0.0
 11
791.554608
 21
-97.196246
 31
0.0
  0
LINE
  8
0
  6
BYLAYER
 62
     7
 10
793.554608
 20
-89.196246
 30
0.0
 11
801.392607
 21
-89.196246
 31
0.0
  0
LINE
  8
0
  6
BYLAYER
 62
     7
 10
783.554608
 20
-89.196246
 30
0.0
 11
791.554608
 21
-89.196246
 31
0.0
  0
LINE
  8
0
  6
BYLAYER
 62
     7
 10
801.392607
 20
-97.196246
 30
0.0
 11
801.392607
 21
-89.196246
 31
0.0
  0
LINE
  8
0
  6
BYLAYER
 62
     7
 10
791.554608
 20
-107.196246
 30
0.0
 11
791.554608
 21
-99.196246
 31
0.0
  0
LINE
  8
0
  6
BYLAYER
 62
     7
 10
793.554608
 20
-99.196246
 30
0.0
 11
793.554608
 21
-107.196246
 31
0.0
  0
LINE
  8
0
  6
BYLAYER
 62
     7
 10
793.554608
 20
-107.196246
 30
0.0
 11
801.554608
 21
-107.196246
 31
0.0
  0
LINE
  8
0
  6
BYLAYER
 62
     7
 10
793.554608
 20
-99.196246
 30
0.0
 11
801.554608
 21
-99.196246
 31
0.0
  0
LINE
  8
0
  6
BYLAYER
 62
     7
 10
801.554608
 20
-107.196246
 30
0.0
 11
801.554608
 21
-99.196246
 31
0.0
  0
LINE
  8
0
  6
BYLAYER
 62
     7
 10
803.554608
 20
-117.196246
 30
0.0
 11
811.554608
 21
-117.196246
 31
0.0
  0
LINE
  8
0
  6
BYLAYER
 62
     7
 10
803.554608
 20
-99.196246
 30
0.0
 11
803.554608
 21
-107.196246
 31
0.0
  0
LINE
  8
0
  6
BYLAYER
 62
     7
 10
803.554608
 20
-109.196246
 30
0.0
 11
803.554608
 21
-117.196246
 31
0.0
  0
LINE
  8
0
  6
BYLAYER
 62
     7
 10
803.554608
 20
-109.196246
 30
0.0
 11
811.554608
 21
-109.196246
 31
0.0
  0
LINE
  8
0
  6
BYLAYER
 62
     7
 10
803.554608
 20
-107.196246
 30
0.0
 11
811.554608
 21
-107.196246
 31
0.0
  0
LINE
  8
0
  6
BYLAYER
 62
     7
 10
803.554608
 20
-99.196246
 30
0.0
 11
811.554608
 21
-99.196246
 31
0.0
  0
LINE
  8
0
  6
BYLAYER
 62
     7
 10
811.554608
 20
-117.196246
 30
0.0
 11
811.554608
 21
-109.196246
 31
0.0
  0
LINE
  8
0
  6
BYLAYER
 62
     7
 10
811.554608
 20
-107.196246
 30
0.0
 11
811.554608
 21
-99.196246
 31
0.0
  0
LINE
  8
0
  6
BYLAYER
 62
     7
 10
803.554608
 20
-127.196246
 30
0.0
 11
811.554608
 21
-127.196246
 31
0.0
  0
LINE
  8
0
  6
BYLAYER
 62
     7
 10
803.554608
 20
-119.196246
 30
0.0
 11
803.554608
 21
-127.196246
 31
0.0
  0
LINE
  8
0
  6
BYLAYER
 62
     7
 10
803.554608
 20
-119.196246
 30
0.0
 11
811.554608
 21
-119.196246
 31
0.0
  0
LINE
  8
0
  6
BYLAYER
 62
     7
 10
811.554608
 20
-127.196246
 30
0.0
 11
811.554608
 21
-119.196246
 31
0.0
  0
LINE
  8
0
  6
BYLAYER
 62
     7
 10
813.554608
 20
-117.196246
 30
0.0
 11
821.554608
 21
-117.196246
 31
0.0
  0
LINE
  8
0
  6
BYLAYER
 62
     7
 10
813.554608
 20
-109.196246
 30
0.0
 11
813.554608
 21
-117.196246
 31
0.0
  0
LINE
  8
0
  6
BYLAYER
 62
     7
 10
813.554608
 20
-109.196246
 30
0.0
 11
821.554608
 21
-109.196246
 31
0.0
  0
LINE
  8
0
  6
BYLAYER
 62
     7
 10
821.554608
 20
-117.196246
 30
0.0
 11
821.554608
 21
-109.196246
 31
0.0
  0
LINE
  8
0
  6
BYLAYER
 62
     7
 10
813.554608
 20
-127.196246
 30
0.0
 11
821.554608
 21
-127.196246
 31
0.0
  0
LINE
  8
0
  6
BYLAYER
 62
     7
 10
813.554608
 20
-119.196246
 30
0.0
 11
813.554608
 21
-127.196246
 31
0.0
  0
LINE
  8
0
  6
BYLAYER
 62
     7
 10
813.554608
 20
-119.196246
 30
0.0
 11
821.554608
 21
-119.196246
 31
0.0
  0
LINE
  8
0
  6
BYLAYER
 62
     7
 10
821.554608
 20
-127.196246
 30
0.0
 11
821.554608
 21
-119.196246
 31
0.0
  0
LINE
  8
0
  6
BYLAYER
 62
     7
 10
823.554608
 20
-117.196246
 30
0.0
 11
831.554608
 21
-117.196246
 31
0.0
  0
LINE
  8
0
  6
BYLAYER
 62
     7
 10
823.554608
 20
-109.196246
 30
0.0
 11
823.554608
 21
-117.196246
 31
0.0
  0
LINE
  8
0
  6
BYLAYER
 62
     7
 10
823.554608
 20
-109.196246
 30
0.0
 11
831.554608
 21
-109.196246
 31
0.0
  0
LINE
  8
0
  6
BYLAYER
 62
     7
 10
831.554608
 20
-117.196246
 30
0.0
 11
831.554608
 21
-109.196246
 31
0.0
  0
LINE
  8
0
  6
BYLAYER
 62
     7
 10
823.554608
 20
-127.196246
 30
0.0
 11
831.554608
 21
-127.196246
 31
0.0
  0
LINE
  8
0
  6
BYLAYER
 62
     7
 10
823.554608
 20
-119.196246
 30
0.0
 11
823.554608
 21
-127.196246
 31
0.0
  0
LINE
  8
0
  6
BYLAYER
 62
     7
 10
823.554608
 20
-119.196246
 30
0.0
 11
831.554608
 21
-119.196246
 31
0.0
  0
LINE
  8
0
  6
BYLAYER
 62
     7
 10
831.554608
 20
-127.196246
 30
0.0
 11
831.554608
 21
-119.196246
 31
0.0
  0
LINE
  8
0
  6
BYLAYER
 62
     7
 10
783.554608
 20
-79.196246
 30
0.0
 11
783.554608
 21
-87.196246
 31
0.0
  0
LINE
  8
0
  6
BYLAYER
 62
     7
 10
791.554608
 20
-87.196246
 30
0.0
 11
791.554608
 21
-79.196246
 31
0.0
  0
LINE
  8
0
  6
BYLAYER
 62
     7
 10
793.554608
 20
-87.196246
 30
0.0
 11
793.554608
 21
-79.196246
 31
0.0
  0
LINE
  8
0
  6
BYLAYER
 62
     7
 10
793.554608
 20
-87.196246
 30
0.0
 11
801.392607
 21
-87.196246
 31
0.0
  0
LINE
  8
0
  6
BYLAYER
 62
     7
 10
783.554608
 20
-87.196246
 30
0.0
 11
791.554608
 21
-87.196246
 31
0.0
  0
LINE
  8
0
  6
BYLAYER
 62
     7
 10
793.554608
 20
-79.196246
 30
0.0
 11
801.392607
 21
-79.196246
 31
0.0
  0
LINE
  8
0
  6
BYLAYER
 62
     7
 10
783.554608
 20
-79.196246
 30
0.0
 11
791.554608
 21
-79.196246
 31
0.0
  0
LINE
  8
0
  6
BYLAYER
 62
     7
 10
801.392607
 20
-87.196246
 30
0.0
 11
801.392607
 21
-79.196246
 31
0.0
  0
LINE
  8
0
  6
BYLAYER
 62
     7
 10
803.554608
 20
-89.196246
 30
0.0
 11
803.554608
 21
-97.196246
 31
0.0
  0
LINE
  8
0
  6
BYLAYER
 62
     7
 10
803.554608
 20
-97.196246
 30
0.0
 11
811.554608
 21
-97.196246
 31
0.0
  0
LINE
  8
0
  6
BYLAYER
 62
     7
 10
803.554608
 20
-89.196246
 30
0.0
 11
811.554608
 21
-89.196246
 31
0.0
  0
LINE
  8
0
  6
BYLAYER
 62
     7
 10
811.554608
 20
-97.196246
 30
0.0
 11
811.554608
 21
-89.196246
 31
0.0
  0
LINE
  8
0
  6
BYLAYER
 62
     7
 10
803.554608
 20
-79.196246
 30
0.0
 11
803.554608
 21
-87.196246
 31
0.0
  0
LINE
  8
0
  6
BYLAYER
 62
     7
 10
803.554608
 20
-87.196246
 30
0.0
 11
811.554608
 21
-87.196246
 31
0.0
  0
LINE
  8
0
  6
BYLAYER
 62
     7
 10
803.554608
 20
-79.196246
 30
0.0
 11
811.554608
 21
-79.196246
 31
0.0
  0
LINE
  8
0
  6
BYLAYER
 62
     7
 10
811.554608
 20
-87.196246
 30
0.0
 11
811.554608
 21
-79.196246
 31
0.0
  0
LINE
  8
0
  6
BYLAYER
 62
     7
 10
813.554608
 20
-99.196246
 30
0.0
 11
813.554608
 21
-107.196246
 31
0.0
  0
LINE
  8
0
  6
BYLAYER
 62
     7
 10
813.554608
 20
-107.196246
 30
0.0
 11
821.554608
 21
-107.196246
 31
0.0
  0
LINE
  8
0
  6
BYLAYER
 62
     7
 10
813.554608
 20
-99.196246
 30
0.0
 11
821.554608
 21
-99.196246
 31
0.0
  0
LINE
  8
0
  6
BYLAYER
 62
     7
 10
821.554608
 20
-107.196246
 30
0.0
 11
821.554608
 21
-99.196246
 31
0.0
  0
LINE
  8
0
  6
BYLAYER
 62
     7
 10
813.554608
 20
-89.196246
 30
0.0
 11
813.554608
 21
-97.196246
 31
0.0
  0
LINE
  8
0
  6
BYLAYER
 62
     7
 10
813.554608
 20
-97.196246
 30
0.0
 11
821.554608
 21
-97.196246
 31
0.0
  0
LINE
  8
0
  6
BYLAYER
 62
     7
 10
813.554608
 20
-89.196246
 30
0.0
 11
821.554608
 21
-89.196246
 31
0.0
  0
LINE
  8
0
  6
BYLAYER
 62
     7
 10
821.554608
 20
-97.196246
 30
0.0
 11
821.554608
 21
-89.196246
 31
0.0
  0
LINE
  8
0
  6
BYLAYER
 62
     7
 10
823.554608
 20
-99.196246
 30
0.0
 11
823.554608
 21
-107.196246
 31
0.0
  0
LINE
  8
0
  6
BYLAYER
 62
     7
 10
823.554608
 20
-107.196246
 30
0.0
 11
831.554608
 21
-107.196246
 31
0.0
  0
LINE
  8
0
  6
BYLAYER
 62
     7
 10
823.554608
 20
-99.196246
 30
0.0
 11
831.554608
 21
-99.196246
 31
0.0
  0
LINE
  8
0
  6
BYLAYER
 62
     7
 10
831.554608
 20
-107.196246
 30
0.0
 11
831.554608
 21
-99.196246
 31
0.0
  0
CIRCLE
  8
0
  6
BYLAYER
 62
     7
 10
782.554608
 20
-128.196246
 30
0.0
 40
4.0
  0
LINE
  8
0
  6
BYLAYER
 62
     7
 10
833.554608
 20
-117.196246
 30
0.0
 11
841.554608
 21
-117.196246
 31
0.0
  0
LINE
  8
0
  6
BYLAYER
 62
     7
 10
833.554608
 20
-109.196246
 30
0.0
 11
833.554608
 21
-117.196246
 31
0.0
  0
LINE
  8
0
  6
BYLAYER
 62
     7
 10
833.554608
 20
-109.196246
 30
0.0
 11
841.554608
 21
-109.196246
 31
0.0
  0
LINE
  8
0
  6
BYLAYER
 62
     7
 10
841.554608
 20
-117.196246
 30
0.0
 11
841.554608
 21
-109.196246
 31
0.0
  0
LINE
  8
0
  6
BYLAYER
 62
     7
 10
833.554608
 20
-127.196246
 30
0.0
 11
841.554608
 21
-127.196246
 31
0.0
  0
LINE
  8
0
  6
BYLAYER
 62
     7
 10
833.554608
 20
-119.196246
 30
0.0
 11
833.554608
 21
-127.196246
 31
0.0
  0
LINE
  8
0
  6
BYLAYER
 62
     7
 10
833.554608
 20
-119.196246
 30
0.0
 11
841.554608
 21
-119.196246
 31
0.0
  0
LINE
  8
0
  6
BYLAYER
 62
     7
 10
841.554608
 20
-127.196246
 30
0.0
 11
841.554608
 21
-119.196246
 31
0.0
  0
LINE
  8
0
  6
BYLAYER
 62
     7
 10
833.554608
 20
-99.196246
 30
0.0
 11
833.554608
 21
-107.196246
 31
0.0
  0
LINE
  8
0
  6
BYLAYER
 62
     7
 10
833.554608
 20
-107.196246
 30
0.0
 11
841.554608
 21
-107.196246
 31
0.0
  0
LINE
  8
0
  6
BYLAYER
 62
     7
 10
833.554608
 20
-99.196246
 30
0.0
 11
841.554608
 21
-99.196246
 31
0.0
  0
LINE
  8
0
  6
BYLAYER
 62
     7
 10
841.554608
 20
-107.196246
 30
0.0
 11
841.554608
 21
-99.196246
 31
0.0
  0
LINE
  8
0
  6
BYLAYER
 62
     7
 10
783.554608
 20
-69.196246
 30
0.0
 11
783.554608
 21
-77.196246
 31
0.0
  0
LINE
  8
0
  6
BYLAYER
 62
     7
 10
791.554608
 20
-77.196246
 30
0.0
 11
791.554608
 21
-69.196246
 31
0.0
  0
LINE
  8
0
  6
BYLAYER
 62
     7
 10
793.554608
 20
-77.196246
 30
0.0
 11
793.554608
 21
-69.196246
 31
0.0
  0
LINE
  8
0
  6
BYLAYER
 62
     7
 10
793.554608
 20
-77.196246
 30
0.0
 11
801.392607
 21
-77.196246
 31
0.0
  0
LINE
  8
0
  6
BYLAYER
 62
     7
 10
783.554608
 20
-77.196246
 30
0.0
 11
791.554608
 21
-77.196246
 31
0.0
  0
LINE
  8
0
  6
BYLAYER
 62
     7
 10
793.554608
 20
-69.196246
 30
0.0
 11
801.392607
 21
-69.196246
 31
0.0
  0
LINE
  8
0
  6
BYLAYER
 62
     7
 10
783.554608
 20
-69.196246
 30
0.0
 11
791.554608
 21
-69.196246
 31
0.0
  0
LINE
  8
0
  6
BYLAYER
 62
     7
 10
801.392607
 20
-77.196246
 30
0.0
 11
801.392607
 21
-69.196246
 31
0.0
  0
LINE
  8
0
  6
BYLAYER
 62
     7
 10
803.554608
 20
-69.196246
 30
0.0
 11
803.554608
 21
-77.196246
 31
0.0
  0
LINE
  8
0
  6
BYLAYER
 62
     7
 10
803.554608
 20
-77.196246
 30
0.0
 11
811.554608
 21
-77.196246
 31
0.0
  0
LINE
  8
0
  6
BYLAYER
 62
     7
 10
803.554608
 20
-69.196246
 30
0.0
 11
811.554608
 21
-69.196246
 31
0.0
  0
LINE
  8
0
  6
BYLAYER
 62
     7
 10
811.554608
 20
-77.196246
 30
0.0
 11
811.554608
 21
-69.196246
 31
0.0
  0
LINE
  8
0
  6
BYLAYER
 62
     7
 10
813.554608
 20
-79.196246
 30
0.0
 11
813.554608
 21
-87.196246
 31
0.0
  0
LINE
  8
0
  6
BYLAYER
 62
     7
 10
813.554608
 20
-87.196246
 30
0.0
 11
821.554608
 21
-87.196246
 31
0.0
  0
LINE
  8
0
  6
BYLAYER
 62
     7
 10
813.554608
 20
-79.196246
 30
0.0
 11
821.554608
 21
-79.196246
 31
0.0
  0
LINE
  8
0
  6
BYLAYER
 62
     7
 10
821.554608
 20
-87.196246
 30
0.0
 11
821.554608
 21
-79.196246
 31
0.0
  0
LINE
  8
0
  6
BYLAYER
 62
     7
 10
823.554608
 20
-89.196246
 30
0.0
 11
823.554608
 21
-97.196246
 31
0.0
  0
LINE
  8
0
  6
BYLAYER
 62
     7
 10
823.554608
 20
-97.196246
 30
0.0
 11
831.554608
 21
-97.196246
 31
0.0
  0
LINE
  8
0
  6
BYLAYER
 62
     7
 10
823.554608
 20
-89.196246
 30
0.0
 11
831.554608
 21
-89.196246
 31
0.0
  0
LINE
  8
0
  6
BYLAYER
 62
     7
 10
831.554608
 20
-97.196246
 30
0.0
 11
831.554608
 21
-89.196246
 31
0.0
  0
LINE
  8
0
  6
BYLAYER
 62
     7
 10
783.554608
 20
-157.196246
 30
0.0
 11
783.554608
 21
-149.196246
 31
0.0
  0
LINE
  8
0
  6
BYLAYER
 62
     7
 10
783.554608
 20
-167.196246
 30
0.0
 11
783.554608
 21
-159.196246
 31
0.0
  0
LINE
  8
0
  6
BYLAYER
 62
     7
 10
791.554608
 20
-159.196246
 30
0.0
 11
791.554608
 21
-167.196246
 31
0.0
  0
LINE
  8
0
  6
BYLAYER
 62
     7
 10
793.554608
 20
-159.196246
 30
0.0
 11
793.554608
 21
-167.196246
 31
0.0
  0
LINE
  8
0
  6
BYLAYER
 62
     7
 10
783.554608
 20
-149.196246
 30
0.0
 11
791.554608
 21
-149.196246
 31
0.0
  0
LINE
  8
0
  6
BYLAYER
 62
     7
 10
783.554608
 20
-157.196246
 30
0.0
 11
791.554608
 21
-157.196246
 31
0.0
  0
LINE
  8
0
  6
BYLAYER
 62
     7
 10
793.554608
 20
-159.196246
 30
0.0
 11
801.392607
 21
-159.196246
 31
0.0
  0
LINE
  8
0
  6
BYLAYER
 62
     7
 10
783.554608
 20
-159.196246
 30
0.0
 11
791.554608
 21
-159.196246
 31
0.0
  0
LINE
  8
0
  6
BYLAYER
 62
     7
 10
793.554608
 20
-167.196246
 30
0.0
 11
801.392607
 21
-167.196246
 31
0.0
  0
LINE
  8
0
  6
BYLAYER
 62
     7
 10
783.554608
 20
-167.196246
 30
0.0
 11
791.554608
 21
-167.196246
 31
0.0
  0
LINE
  8
0
  6
BYLAYER
 62
     7
 10
801.392607
 20
-159.196246
 30
0.0
 11
801.392607
 21
-167.196246
 31
0.0
  0
LINE
  8
0
  6
BYLAYER
 62
     7
 10
791.554608
 20
-149.196246
 30
0.0
 11
791.554608
 21
-157.196246
 31
0.0
  0
LINE
  8
0
  6
BYLAYER
 62
     7
 10
793.554608
 20
-157.196246
 30
0.0
 11
793.554608
 21
-149.196246
 31
0.0
  0
LINE
  8
0
  6
BYLAYER
 62
     7
 10
793.554608
 20
-149.196246
 30
0.0
 11
801.554608
 21
-149.196246
 31
0.0
  0
LINE
  8
0
  6
BYLAYER
 62
     7
 10
793.554608
 20
-157.196246
 30
0.0
 11
801.554608
 21
-157.196246
 31
0.0
  0
LINE
  8
0
  6
BYLAYER
 62
     7
 10
801.554608
 20
-149.196246
 30
0.0
 11
801.554608
 21
-157.196246
 31
0.0
  0
LINE
  8
0
  6
BYLAYER
 62
     7
 10
803.554608
 20
-139.196246
 30
0.0
 11
811.554608
 21
-139.196246
 31
0.0
  0
LINE
  8
0
  6
BYLAYER
 62
     7
 10
803.554608
 20
-157.196246
 30
0.0
 11
803.554608
 21
-149.196246
 31
0.0
  0
LINE
  8
0
  6
BYLAYER
 62
     7
 10
803.554608
 20
-147.196246
 30
0.0
 11
803.554608
 21
-139.196246
 31
0.0
  0
LINE
  8
0
  6
BYLAYER
 62
     7
 10
803.554608
 20
-147.196246
 30
0.0
 11
811.554608
 21
-147.196246
 31
0.0
  0
LINE
  8
0
  6
BYLAYER
 62
     7
 10
803.554608
 20
-149.196246
 30
0.0
 11
811.554608
 21
-149.196246
 31
0.0
  0
LINE
  8
0
  6
BYLAYER
 62
     7
 10
803.554608
 20
-157.196246
 30
0.0
 11
811.554608
 21
-157.196246
 31
0.0
  0
LINE
  8
0
  6
BYLAYER
 62
     7
 10
811.554608
 20
-139.196246
 30
0.0
 11
811.554608
 21
-147.196246
 31
0.0
  0
LINE
  8
0
  6
BYLAYER
 62
     7
 10
811.554608
 20
-149.196246
 30
0.0
 11
811.554608
 21
-157.196246
 31
0.0
  0
LINE
  8
0
  6
BYLAYER
 62
     7
 10
803.554608
 20
-129.196246
 30
0.0
 11
811.554608
 21
-129.196246
 31
0.0
  0
LINE
  8
0
  6
BYLAYER
 62
     7
 10
803.554608
 20
-137.196246
 30
0.0
 11
803.554608
 21
-129.196246
 31
0.0
  0
LINE
  8
0
  6
BYLAYER
 62
     7
 10
803.554608
 20
-137.196246
 30
0.0
 11
811.554608
 21
-137.196246
 31
0.0
  0
LINE
  8
0
  6
BYLAYER
 62
     7
 10
811.554608
 20
-129.196246
 30
0.0
 11
811.554608
 21
-137.196246
 31
0.0
  0
LINE
  8
0
  6
BYLAYER
 62
     7
 10
813.554608
 20
-139.196246
 30
0.0
 11
821.554608
 21
-139.196246
 31
0.0
  0
LINE
  8
0
  6
BYLAYER
 62
     7
 10
813.554608
 20
-147.196246
 30
0.0
 11
813.554608
 21
-139.196246
 31
0.0
  0
LINE
  8
0
  6
BYLAYER
 62
     7
 10
813.554608
 20
-147.196246
 30
0.0
 11
821.554608
 21
-147.196246
 31
0.0
  0
LINE
  8
0
  6
BYLAYER
 62
     7
 10
821.554608
 20
-139.196246
 30
0.0
 11
821.554608
 21
-147.196246
 31
0.0
  0
LINE
  8
0
  6
BYLAYER
 62
     7
 10
813.554608
 20
-129.196246
 30
0.0
 11
821.554608
 21
-129.196246
 31
0.0
  0
LINE
  8
0
  6
BYLAYER
 62
     7
 10
813.554608
 20
-137.196246
 30
0.0
 11
813.554608
 21
-129.196246
 31
0.0
  0
LINE
  8
0
  6
BYLAYER
 62
     7
 10
813.554608
 20
-137.196246
 30
0.0
 11
821.554608
 21
-137.196246
 31
0.0
  0
LINE
  8
0
  6
BYLAYER
 62
     7
 10
821.554608
 20
-129.196246
 30
0.0
 11
821.554608
 21
-137.196246
 31
0.0
  0
LINE
  8
0
  6
BYLAYER
 62
     7
 10
823.554608
 20
-139.196246
 30
0.0
 11
831.554608
 21
-139.196246
 31
0.0
  0
LINE
  8
0
  6
BYLAYER
 62
     7
 10
823.554608
 20
-147.196246
 30
0.0
 11
823.554608
 21
-139.196246
 31
0.0
  0
LINE
  8
0
  6
BYLAYER
 62
     7
 10
823.554608
 20
-147.196246
 30
0.0
 11
831.554608
 21
-147.196246
 31
0.0
  0
LINE
  8
0
  6
BYLAYER
 62
     7
 10
831.554608
 20
-139.196246
 30
0.0
 11
831.554608
 21
-147.196246
 31
0.0
  0
LINE
  8
0
  6
BYLAYER
 62
     7
 10
823.554608
 20
-129.196246
 30
0.0
 11
831.554608
 21
-129.196246
 31
0.0
  0
LINE
  8
0
  6
BYLAYER
 62
     7
 10
823.554608
 20
-137.196246
 30
0.0
 11
823.554608
 21
-129.196246
 31
0.0
  0
LINE
  8
0
  6
BYLAYER
 62
     7
 10
823.554608
 20
-137.196246
 30
0.0
 11
831.554608
 21
-137.196246
 31
0.0
  0
LINE
  8
0
  6
BYLAYER
 62
     7
 10
831.554608
 20
-129.196246
 30
0.0
 11
831.554608
 21
-137.196246
 31
0.0
  0
LINE
  8
0
  6
BYLAYER
 62
     7
 10
783.554608
 20
-177.196246
 30
0.0
 11
783.554608
 21
-169.196246
 31
0.0
  0
LINE
  8
0
  6
BYLAYER
 62
     7
 10
791.554608
 20
-169.196246
 30
0.0
 11
791.554608
 21
-177.196246
 31
0.0
  0
LINE
  8
0
  6
BYLAYER
 62
     7
 10
793.554608
 20
-169.196246
 30
0.0
 11
793.554608
 21
-177.196246
 31
0.0
  0
LINE
  8
0
  6
BYLAYER
 62
     7
 10
793.554608
 20
-169.196246
 30
0.0
 11
801.392607
 21
-169.196246
 31
0.0
  0
LINE
  8
0
  6
BYLAYER
 62
     7
 10
783.554608
 20
-169.196246
 30
0.0
 11
791.554608
 21
-169.196246
 31
0.0
  0
LINE
  8
0
  6
BYLAYER
 62
     7
 10
793.554608
 20
-177.196246
 30
0.0
 11
801.392607
 21
-177.196246
 31
0.0
  0
LINE
  8
0
  6
BYLAYER
 62
     7
 10
783.554608
 20
-177.196246
 30
0.0
 11
791.554608
 21
-177.196246
 31
0.0
  0
LINE
  8
0
  6
BYLAYER
 62
     7
 10
801.392607
 20
-169.196246
 30
0.0
 11
801.392607
 21
-177.196246
 31
0.0
  0
LINE
  8
0
  6
BYLAYER
 62
     7
 10
803.554608
 20
-167.196246
 30
0.0
 11
803.554608
 21
-159.196246
 31
0.0
  0
LINE
  8
0
  6
BYLAYER
 62
     7
 10
803.554608
 20
-159.196246
 30
0.0
 11
811.554608
 21
-159.196246
 31
0.0
  0
LINE
  8
0
  6
BYLAYER
 62
     7
 10
803.554608
 20
-167.196246
 30
0.0
 11
811.554608
 21
-167.196246
 31
0.0
  0
LINE
  8
0
  6
BYLAYER
 62
     7
 10
811.554608
 20
-159.196246
 30
0.0
 11
811.554608
 21
-167.196246
 31
0.0
  0
LINE
  8
0
  6
BYLAYER
 62
     7
 10
803.554608
 20
-177.196246
 30
0.0
 11
803.554608
 21
-169.196246
 31
0.0
  0
LINE
  8
0
  6
BYLAYER
 62
     7
 10
803.554608
 20
-169.196246
 30
0.0
 11
811.554608
 21
-169.196246
 31
0.0
  0
LINE
  8
0
  6
BYLAYER
 62
     7
 10
803.554608
 20
-177.196246
 30
0.0
 11
811.554608
 21
-177.196246
 31
0.0
  0
LINE
  8
0
  6
BYLAYER
 62
     7
 10
811.554608
 20
-169.196246
 30
0.0
 11
811.554608
 21
-177.196246
 31
0.0
  0
LINE
  8
0
  6
BYLAYER
 62
     7
 10
813.554608
 20
-157.196246
 30
0.0
 11
813.554608
 21
-149.196246
 31
0.0
  0
LINE
  8
0
  6
BYLAYER
 62
     7
 10
813.554608
 20
-149.196246
 30
0.0
 11
821.554608
 21
-149.196246
 31
0.0
  0
LINE
  8
0
  6
BYLAYER
 62
     7
 10
813.554608
 20
-157.196246
 30
0.0
 11
821.554608
 21
-157.196246
 31
0.0
  0
LINE
  8
0
  6
BYLAYER
 62
     7
 10
821.554608
 20
-149.196246
 30
0.0
 11
821.554608
 21
-157.196246
 31
0.0
  0
LINE
  8
0
  6
BYLAYER
 62
     7
 10
813.554608
 20
-167.196246
 30
0.0
 11
813.554608
 21
-159.196246
 31
0.0
  0
LINE
  8
0
  6
BYLAYER
 62
     7
 10
813.554608
 20
-159.196246
 30
0.0
 11
821.554608
 21
-159.196246
 31
0.0
  0
LINE
  8
0
  6
BYLAYER
 62
     7
 10
813.554608
 20
-167.196246
 30
0.0
 11
821.554608
 21
-167.196246
 31
0.0
  0
LINE
  8
0
  6
BYLAYER
 62
     7
 10
821.554608
 20
-159.196246
 30
0.0
 11
821.554608
 21
-167.196246
 31
0.0
  0
LINE
  8
0
  6
BYLAYER
 62
     7
 10
823.554608
 20
-157.196246
 30
0.0
 11
823.554608
 21
-149.196246
 31
0.0
  0
LINE
  8
0
  6
BYLAYER
 62
     7
 10
823.554608
 20
-149.196246
 30
0.0
 11
831.554608
 21
-149.196246
 31
0.0
  0
LINE
  8
0
  6
BYLAYER
 62
     7
 10
823.554608
 20
-157.196246
 30
0.0
 11
831.554608
 21
-157.196246
 31
0.0
  0
LINE
  8
0
  6
BYLAYER
 62
     7
 10
831.554608
 20
-149.196246
 30
0.0
 11
831.554608
 21
-157.196246
 31
0.0
  0
LINE
  8
0
  6
BYLAYER
 62
     7
 10
833.554608
 20
-139.196246
 30
0.0
 11
841.554608
 21
-139.196246
 31
0.0
  0
LINE
  8
0
  6
BYLAYER
 62
     7
 10
833.554608
 20
-147.196246
 30
0.0
 11
833.554608
 21
-139.196246
 31
0.0
  0
LINE
  8
0
  6
BYLAYER
 62
     7
 10
833.554608
 20
-147.196246
 30
0.0
 11
841.554608
 21
-147.196246
 31
0.0
  0
LINE
  8
0
  6
BYLAYER
 62
     7
 10
841.554608
 20
-139.196246
 30
0.0
 11
841.554608
 21
-147.196246
 31
0.0
  0
LINE
  8
0
  6
BYLAYER
 62
     7
 10
833.554608
 20
-129.196246
 30
0.0
 11
841.554608
 21
-129.196246
 31
0.0
  0
LINE
  8
0
  6
BYLAYER
 62
     7
 10
833.554608
 20
-137.196246
 30
0.0
 11
833.554608
 21
-129.196246
 31
0.0
  0
LINE
  8
0
  6
BYLAYER
 62
     7
 10
833.554608
 20
-137.196246
 30
0.0
 11
841.554608
 21
-137.196246
 31
0.0
  0
LINE
  8
0
  6
BYLAYER
 62
     7
 10
841.554608
 20
-129.196246
 30
0.0
 11
841.554608
 21
-137.196246
 31
0.0
  0
LINE
  8
0
  6
BYLAYER
 62
     7
 10
833.554608
 20
-157.196246
 30
0.0
 11
833.554608
 21
-149.196246
 31
0.0
  0
LINE
  8
0
  6
BYLAYER
 62
     7
 10
833.554608
 20
-149.196246
 30
0.0
 11
841.554608
 21
-149.196246
 31
0.0
  0
LINE
  8
0
  6
BYLAYER
 62
     7
 10
833.554608
 20
-157.196246
 30
0.0
 11
841.554608
 21
-157.196246
 31
0.0
  0
LINE
  8
0
  6
BYLAYER
 62
     7
 10
841.554608
 20
-149.196246
 30
0.0
 11
841.554608
 21
-157.196246
 31
0.0
  0
LINE
  8
0
  6
BYLAYER
 62
     7
 10
783.554608
 20
-187.196246
 30
0.0
 11
783.554608
 21
-179.196246
 31
0.0
  0
LINE
  8
0
  6
BYLAYER
 62
     7
 10
791.554608
 20
-179.196246
 30
0.0
 11
791.554608
 21
-187.196246
 31
0.0
  0
LINE
  8
0
  6
BYLAYER
 62
     7
 10
793.554608
 20
-179.196246
 30
0.0
 11
793.554608
 21
-187.196246
 31
0.0
  0
LINE
  8
0
  6
BYLAYER
 62
     7
 10
793.554608
 20
-179.196246
 30
0.0
 11
801.392607
 21
-179.196246
 31
0.0
  0
LINE
  8
0
  6
BYLAYER
 62
     7
 10
783.554608
 20
-179.196246
 30
0.0
 11
791.554608
 21
-179.196246
 31
0.0
  0
LINE
  8
0
  6
BYLAYER
 62
     7
 10
793.554608
 20
-187.196246
 30
0.0
 11
801.392607
 21
-187.196246
 31
0.0
  0
LINE
  8
0
  6
BYLAYER
 62
     7
 10
783.554608
 20
-187.196246
 30
0.0
 11
791.554608
 21
-187.196246
 31
0.0
  0
LINE
  8
0
  6
BYLAYER
 62
     7
 10
801.392607
 20
-179.196246
 30
0.0
 11
801.392607
 21
-187.196246
 31
0.0
  0
LINE
  8
0
  6
BYLAYER
 62
     7
 10
803.554608
 20
-187.196246
 30
0.0
 11
803.554608
 21
-179.196246
 31
0.0
  0
LINE
  8
0
  6
BYLAYER
 62
     7
 10
803.554608
 20
-179.196246
 30
0.0
 11
811.554608
 21
-179.196246
 31
0.0
  0
LINE
  8
0
  6
BYLAYER
 62
     7
 10
803.554608
 20
-187.196246
 30
0.0
 11
811.554608
 21
-187.196246
 31
0.0
  0
LINE
  8
0
  6
BYLAYER
 62
     7
 10
811.554608
 20
-179.196246
 30
0.0
 11
811.554608
 21
-187.196246
 31
0.0
  0
LINE
  8
0
  6
BYLAYER
 62
     7
 10
813.554608
 20
-177.196246
 30
0.0
 11
813.554608
 21
-169.196246
 31
0.0
  0
LINE
  8
0
  6
BYLAYER
 62
     7
 10
813.554608
 20
-169.196246
 30
0.0
 11
821.554608
 21
-169.196246
 31
0.0
  0
LINE
  8
0
  6
BYLAYER
 62
     7
 10
813.554608
 20
-177.196246
 30
0.0
 11
821.554608
 21
-177.196246
 31
0.0
  0
LINE
  8
0
  6
BYLAYER
 62
     7
 10
821.554608
 20
-169.196246
 30
0.0
 11
821.554608
 21
-177.196246
 31
0.0
  0
LINE
  8
0
  6
BYLAYER
 62
     7
 10
823.554608
 20
-167.196246
 30
0.0
 11
823.554608
 21
-159.196246
 31
0.0
  0
LINE
  8
0
  6
BYLAYER
 62
     7
 10
823.554608
 20
-159.196246
 30
0.0
 11
831.554608
 21
-159.196246
 31
0.0
  0
LINE
  8
0
  6
BYLAYER
 62
     7
 10
823.554608
 20
-167.196246
 30
0.0
 11
831.554608
 21
-167.196246
 31
0.0
  0
LINE
  8
0
  6
BYLAYER
 62
     7
 10
831.554608
 20
-159.196246
 30
0.0
 11
831.554608
 21
-167.196246
 31
0.0
  0
LINE
  8
0
  6
BYLAYER
 62
     7
 10
781.554608
 20
-99.196246
 30
0.0
 11
781.554608
 21
-107.196246
 31
0.0
  0
LINE
  8
0
  6
BYLAYER
 62
     7
 10
781.554608
 20
-89.196246
 30
0.0
 11
781.554608
 21
-97.196246
 31
0.0
  0
LINE
  8
0
  6
BYLAYER
 62
     7
 10
773.554608
 20
-97.196246
 30
0.0
 11
773.554608
 21
-89.196246
 31
0.0
  0
LINE
  8
0
  6
BYLAYER
 62
     7
 10
771.554608
 20
-97.196246
 30
0.0
 11
771.554608
 21
-89.196246
 31
0.0
  0
LINE
  8
0
  6
BYLAYER
 62
     7
 10
781.554608
 20
-107.196246
 30
0.0
 11
773.554608
 21
-107.196246
 31
0.0
  0
LINE
  8
0
  6
BYLAYER
 62
     7
 10
781.554608
 20
-99.196246
 30
0.0
 11
773.554608
 21
-99.196246
 31
0.0
  0
LINE
  8
0
  6
BYLAYER
 62
     7
 10
771.554608
 20
-97.196246
 30
0.0
 11
763.716609
 21
-97.196246
 31
0.0
  0
LINE
  8
0
  6
BYLAYER
 62
     7
 10
781.554608
 20
-97.196246
 30
0.0
 11
773.554608
 21
-97.196246
 31
0.0
  0
LINE
  8
0
  6
BYLAYER
 62
     7
 10
771.554608
 20
-89.196246
 30
0.0
 11
763.716609
 21
-89.196246
 31
0.0
  0
LINE
  8
0
  6
BYLAYER
 62
     7
 10
781.554608
 20
-89.196246
 30
0.0
 11
773.554608
 21
-89.196246
 31
0.0
  0
LINE
  8
0
  6
BYLAYER
 62
     7
 10
763.716609
 20
-97.196246
 30
0.0
 11
763.716609
 21
-89.196246
 31
0.0
  0
LINE
  8
0
  6
BYLAYER
 62
     7
 10
773.554608
 20
-107.196246
 30
0.0
 11
773.554608
 21
-99.196246
 31
0.0
  0
LINE
  8
0
  6
BYLAYER
 62
     7
 10
771.554608
 20
-99.196246
 30
0.0
 11
771.554608
 21
-107.196246
 31
0.0
  0
LINE
  8
0
  6
BYLAYER
 62
     7
 10
771.554608
 20
-107.196246
 30
0.0
 11
763.554608
 21
-107.196246
 31
0.0
  0
LINE
  8
0
  6
BYLAYER
 62
     7
 10
771.554608
 20
-99.196246
 30
0.0
 11
763.554608
 21
-99.196246
 31
0.0
  0
LINE
  8
0
  6
BYLAYER
 62
     7
 10
763.554608
 20
-107.196246
 30
0.0
 11
763.554608
 21
-99.196246
 31
0.0
  0
LINE
  8
0
  6
BYLAYER
 62
     7
 10
761.554608
 20
-117.196246
 30
0.0
 11
753.554608
 21
-117.196246
 31
0.0
  0
LINE
  8
0
  6
BYLAYER
 62
     7
 10
761.554608
 20
-99.196246
 30
0.0
 11
761.554608
 21
-107.196246
 31
0.0
  0
LINE
  8
0
  6
BYLAYER
 62
     7
 10
761.554608
 20
-109.196246
 30
0.0
 11
761.554608
 21
-117.196246
 31
0.0
  0
LINE
  8
0
  6
BYLAYER
 62
     7
 10
761.554608
 20
-109.196246
 30
0.0
 11
753.554608
 21
-109.196246
 31
0.0
  0
LINE
  8
0
  6
BYLAYER
 62
     7
 10
761.554608
 20
-107.196246
 30
0.0
 11
753.554608
 21
-107.196246
 31
0.0
  0
LINE
  8
0
  6
BYLAYER
 62
     7
 10
761.554608
 20
-99.196246
 30
0.0
 11
753.554608
 21
-99.196246
 31
0.0
  0
LINE
  8
0
  6
BYLAYER
 62
     7
 10
753.554608
 20
-117.196246
 30
0.0
 11
753.554608
 21
-109.196246
 31
0.0
  0
LINE
  8
0
  6
BYLAYER
 62
     7
 10
753.554608
 20
-107.196246
 30
0.0
 11
753.554608
 21
-99.196246
 31
0.0
  0
LINE
  8
0
  6
BYLAYER
 62
     7
 10
761.554608
 20
-127.196246
 30
0.0
 11
753.554608
 21
-127.196246
 31
0.0
  0
LINE
  8
0
  6
BYLAYER
 62
     7
 10
761.554608
 20
-119.196246
 30
0.0
 11
761.554608
 21
-127.196246
 31
0.0
  0
LINE
  8
0
  6
BYLAYER
 62
     7
 10
761.554608
 20
-119.196246
 30
0.0
 11
753.554608
 21
-119.196246
 31
0.0
  0
LINE
  8
0
  6
BYLAYER
 62
     7
 10
753.554608
 20
-127.196246
 30
0.0
 11
753.554608
 21
-119.196246
 31
0.0
  0
LINE
  8
0
  6
BYLAYER
 62
     7
 10
751.554608
 20
-117.196246
 30
0.0
 11
743.554608
 21
-117.196246
 31
0.0
  0
LINE
  8
0
  6
BYLAYER
 62
     7
 10
751.554608
 20
-109.196246
 30
0.0
 11
751.554608
 21
-117.196246
 31
0.0
  0
LINE
  8
0
  6
BYLAYER
 62
     7
 10
751.554608
 20
-109.196246
 30
0.0
 11
743.554608
 21
-109.196246
 31
0.0
  0
LINE
  8
0
  6
BYLAYER
 62
     7
 10
743.554608
 20
-117.196246
 30
0.0
 11
743.554608
 21
-109.196246
 31
0.0
  0
LINE
  8
0
  6
BYLAYER
 62
     7
 10
751.554608
 20
-127.196246
 30
0.0
 11
743.554608
 21
-127.196246
 31
0.0
  0
LINE
  8
0
  6
BYLAYER
 62
     7
 10
751.554608
 20
-119.196246
 30
0.0
 11
751.554608
 21
-127.196246
 31
0.0
  0
LINE
  8
0
  6
BYLAYER
 62
     7
 10
751.554608
 20
-119.196246
 30
0.0
 11
743.554608
 21
-119.196246
 31
0.0
  0
LINE
  8
0
  6
BYLAYER
 62
     7
 10
743.554608
 20
-127.196246
 30
0.0
 11
743.554608
 21
-119.196246
 31
0.0
  0
LINE
  8
0
  6
BYLAYER
 62
     7
 10
741.554608
 20
-117.196246
 30
0.0
 11
733.554608
 21
-117.196246
 31
0.0
  0
LINE
  8
0
  6
BYLAYER
 62
     7
 10
741.554608
 20
-109.196246
 30
0.0
 11
741.554608
 21
-117.196246
 31
0.0
  0
LINE
  8
0
  6
BYLAYER
 62
     7
 10
741.554608
 20
-109.196246
 30
0.0
 11
733.554608
 21
-109.196246
 31
0.0
  0
LINE
  8
0
  6
BYLAYER
 62
     7
 10
733.554608
 20
-117.196246
 30
0.0
 11
733.554608
 21
-109.196246
 31
0.0
  0
LINE
  8
0
  6
BYLAYER
 62
     7
 10
741.554608
 20
-127.196246
 30
0.0
 11
733.554608
 21
-127.196246
 31
0.0
  0
LINE
  8
0
  6
BYLAYER
 62
     7
 10
741.554608
 20
-119.196246
 30
0.0
 11
741.554608
 21
-127.196246
 31
0.0
  0
LINE
  8
0
  6
BYLAYER
 62
     7
 10
741.554608
 20
-119.196246
 30
0.0
 11
733.554608
 21
-119.196246
 31
0.0
  0
LINE
  8
0
  6
BYLAYER
 62
     7
 10
733.554608
 20
-127.196246
 30
0.0
 11
733.554608
 21
-119.196246
 31
0.0
  0
LINE
  8
0
  6
BYLAYER
 62
     7
 10
781.554608
 20
-79.196246
 30
0.0
 11
781.554608
 21
-87.196246
 31
0.0
  0
LINE
  8
0
  6
BYLAYER
 62
     7
 10
773.554608
 20
-87.196246
 30
0.0
 11
773.554608
 21
-79.196246
 31
0.0
  0
LINE
  8
0
  6
BYLAYER
 62
     7
 10
771.554608
 20
-87.196246
 30
0.0
 11
771.554608
 21
-79.196246
 31
0.0
  0
LINE
  8
0
  6
BYLAYER
 62
     7
 10
771.554608
 20
-87.196246
 30
0.0
 11
763.716609
 21
-87.196246
 31
0.0
  0
LINE
  8
0
  6
BYLAYER
 62
     7
 10
781.554608
 20
-87.196246
 30
0.0
 11
773.554608
 21
-87.196246
 31
0.0
  0
LINE
  8
0
  6
BYLAYER
 62
     7
 10
771.554608
 20
-79.196246
 30
0.0
 11
763.716609
 21
-79.196246
 31
0.0
  0
LINE
  8
0
  6
BYLAYER
 62
     7
 10
781.554608
 20
-79.196246
 30
0.0
 11
773.554608
 21
-79.196246
 31
0.0
  0
LINE
  8
0
  6
BYLAYER
 62
     7
 10
763.716609
 20
-87.196246
 30
0.0
 11
763.716609
 21
-79.196246
 31
0.0
  0
LINE
  8
0
  6
BYLAYER
 62
     7
 10
761.554608
 20
-89.196246
 30
0.0
 11
761.554608
 21
-97.196246
 31
0.0
  0
LINE
  8
0
  6
BYLAYER
 62
     7
 10
761.554608
 20
-97.196246
 30
0.0
 11
753.554608
 21
-97.196246
 31
0.0
  0
LINE
  8
0
  6
BYLAYER
 62
     7
 10
761.554608
 20
-89.196246
 30
0.0
 11
753.554608
 21
-89.196246
 31
0.0
  0
LINE
  8
0
  6
BYLAYER
 62
     7
 10
753.554608
 20
-97.196246
 30
0.0
 11
753.554608
 21
-89.196246
 31
0.0
  0
LINE
  8
0
  6
BYLAYER
 62
     7
 10
761.554608
 20
-79.196246
 30
0.0
 11
761.554608
 21
-87.196246
 31
0.0
  0
LINE
  8
0
  6
BYLAYER
 62
     7
 10
761.554608
 20
-87.196246
 30
0.0
 11
753.554608
 21
-87.196246
 31
0.0
  0
LINE
  8
0
  6
BYLAYER
 62
     7
 10
761.554608
 20
-79.196246
 30
0.0
 11
753.554608
 21
-79.196246
 31
0.0
  0
LINE
  8
0
  6
BYLAYER
 62
     7
 10
753.554608
 20
-87.196246
 30
0.0
 11
753.554608
 21
-79.196246
 31
0.0
  0
LINE
  8
0
  6
BYLAYER
 62
     7
 10
751.554608
 20
-99.196246
 30
0.0
 11
751.554608
 21
-107.196246
 31
0.0
  0
LINE
  8
0
  6
BYLAYER
 62
     7
 10
751.554608
 20
-107.196246
 30
0.0
 11
743.554608
 21
-107.196246
 31
0.0
  0
LINE
  8
0
  6
BYLAYER
 62
     7
 10
751.554608
 20
-99.196246
 30
0.0
 11
743.554608
 21
-99.196246
 31
0.0
  0
LINE
  8
0
  6
BYLAYER
 62
     7
 10
743.554608
 20
-107.196246
 30
0.0
 11
743.554608
 21
-99.196246
 31
0.0
  0
LINE
  8
0
  6
BYLAYER
 62
     7
 10
751.554608
 20
-89.196246
 30
0.0
 11
751.554608
 21
-97.196246
 31
0.0
  0
LINE
  8
0
  6
BYLAYER
 62
     7
 10
751.554608
 20
-97.196246
 30
0.0
 11
743.554608
 21
-97.196246
 31
0.0
  0
LINE
  8
0
  6
BYLAYER
 62
     7
 10
751.554608
 20
-89.196246
 30
0.0
 11
743.554608
 21
-89.196246
 31
0.0
  0
LINE
  8
0
  6
BYLAYER
 62
     7
 10
743.554608
 20
-97.196246
 30
0.0
 11
743.554608
 21
-89.196246
 31
0.0
  0
LINE
  8
0
  6
BYLAYER
 62
     7
 10
741.554608
 20
-99.196246
 30
0.0
 11
741.554608
 21
-107.196246
 31
0.0
  0
LINE
  8
0
  6
BYLAYER
 62
     7
 10
741.554608
 20
-107.196246
 30
0.0
 11
733.554608
 21
-107.196246
 31
0.0
  0
LINE
  8
0
  6
BYLAYER
 62
     7
 10
741.554608
 20
-99.196246
 30
0.0
 11
733.554608
 21
-99.196246
 31
0.0
  0
LINE
  8
0
  6
BYLAYER
 62
     7
 10
733.554608
 20
-107.196246
 30
0.0
 11
733.554608
 21
-99.196246
 31
0.0
  0
LINE
  8
0
  6
BYLAYER
 62
     7
 10
731.554608
 20
-117.196246
 30
0.0
 11
723.554608
 21
-117.196246
 31
0.0
  0
LINE
  8
0
  6
BYLAYER
 62
     7
 10
731.554608
 20
-109.196246
 30
0.0
 11
731.554608
 21
-117.196246
 31
0.0
  0
LINE
  8
0
  6
BYLAYER
 62
     7
 10
731.554608
 20
-109.196246
 30
0.0
 11
723.554608
 21
-109.196246
 31
0.0
  0
LINE
  8
0
  6
BYLAYER
 62
     7
 10
723.554608
 20
-117.196246
 30
0.0
 11
723.554608
 21
-109.196246
 31
0.0
  0
LINE
  8
0
  6
BYLAYER
 62
     7
 10
731.554608
 20
-127.196246
 30
0.0
 11
723.554608
 21
-127.196246
 31
0.0
  0
LINE
  8
0
  6
BYLAYER
 62
     7
 10
731.554608
 20
-119.196246
 30
0.0
 11
731.554608
 21
-127.196246
 31
0.0
  0
LINE
  8
0
  6
BYLAYER
 62
     7
 10
731.554608
 20
-119.196246
 30
0.0
 11
723.554608
 21
-119.196246
 31
0.0
  0
LINE
  8
0
  6
BYLAYER
 62
     7
 10
723.554608
 20
-127.196246
 30
0.0
 11
723.554608
 21
-119.196246
 31
0.0
  0
LINE
  8
0
  6
BYLAYER
 62
     7
 10
731.554608
 20
-99.196246
 30
0.0
 11
731.554608
 21
-107.196246
 31
0.0
  0
LINE
  8
0
  6
BYLAYER
 62
     7
 10
731.554608
 20
-107.196246
 30
0.0
 11
723.554608
 21
-107.196246
 31
0.0
  0
LINE
  8
0
  6
BYLAYER
 62
     7
 10
731.554608
 20
-99.196246
 30
0.0
 11
723.554608
 21
-99.196246
 31
0.0
  0
LINE
  8
0
  6
BYLAYER
 62
     7
 10
723.554608
 20
-107.196246
 30
0.0
 11
723.554608
 21
-99.196246
 31
0.0
  0
LINE
  8
0
  6
BYLAYER
 62
     7
 10
781.554608
 20
-69.196246
 30
0.0
 11
781.554608
 21
-77.196246
 31
0.0
  0
LINE
  8
0
  6
BYLAYER
 62
     7
 10
773.554608
 20
-77.196246
 30
0.0
 11
773.554608
 21
-69.196246
 31
0.0
  0
LINE
  8
0
  6
BYLAYER
 62
     7
 10
771.554608
 20
-77.196246
 30
0.0
 11
771.554608
 21
-69.196246
 31
0.0
  0
LINE
  8
0
  6
BYLAYER
 62
     7
 10
771.554608
 20
-77.196246
 30
0.0
 11
763.716609
 21
-77.196246
 31
0.0
  0
LINE
  8
0
  6
BYLAYER
 62
     7
 10
781.554608
 20
-77.196246
 30
0.0
 11
773.554608
 21
-77.196246
 31
0.0
  0
LINE
  8
0
  6
BYLAYER
 62
     7
 10
771.554608
 20
-69.196246
 30
0.0
 11
763.716609
 21
-69.196246
 31
0.0
  0
LINE
  8
0
  6
BYLAYER
 62
     7
 10
781.554608
 20
-69.196246
 30
0.0
 11
773.554608
 21
-69.196246
 31
0.0
  0
LINE
  8
0
  6
BYLAYER
 62
     7
 10
763.716609
 20
-77.196246
 30
0.0
 11
763.716609
 21
-69.196246
 31
0.0
  0
LINE
  8
0
  6
BYLAYER
 62
     7
 10
761.554608
 20
-69.196246
 30
0.0
 11
761.554608
 21
-77.196246
 31
0.0
  0
LINE
  8
0
  6
BYLAYER
 62
     7
 10
761.554608
 20
-77.196246
 30
0.0
 11
753.554608
 21
-77.196246
 31
0.0
  0
LINE
  8
0
  6
BYLAYER
 62
     7
 10
761.554608
 20
-69.196246
 30
0.0
 11
753.554608
 21
-69.196246
 31
0.0
  0
LINE
  8
0
  6
BYLAYER
 62
     7
 10
753.554608
 20
-77.196246
 30
0.0
 11
753.554608
 21
-69.196246
 31
0.0
  0
LINE
  8
0
  6
BYLAYER
 62
     7
 10
751.554608
 20
-79.196246
 30
0.0
 11
751.554608
 21
-87.196246
 31
0.0
  0
LINE
  8
0
  6
BYLAYER
 62
     7
 10
751.554608
 20
-87.196246
 30
0.0
 11
743.554608
 21
-87.196246
 31
0.0
  0
LINE
  8
0
  6
BYLAYER
 62
     7
 10
751.554608
 20
-79.196246
 30
0.0
 11
743.554608
 21
-79.196246
 31
0.0
  0
LINE
  8
0
  6
BYLAYER
 62
     7
 10
743.554608
 20
-87.196246
 30
0.0
 11
743.554608
 21
-79.196246
 31
0.0
  0
LINE
  8
0
  6
BYLAYER
 62
     7
 10
741.554608
 20
-89.196246
 30
0.0
 11
741.554608
 21
-97.196246
 31
0.0
  0
LINE
  8
0
  6
BYLAYER
 62
     7
 10
741.554608
 20
-97.196246
 30
0.0
 11
733.554608
 21
-97.196246
 31
0.0
  0
LINE
  8
0
  6
BYLAYER
 62
     7
 10
741.554608
 20
-89.196246
 30
0.0
 11
733.554608
 21
-89.196246
 31
0.0
  0
LINE
  8
0
  6
BYLAYER
 62
     7
 10
733.554608
 20
-97.196246
 30
0.0
 11
733.554608
 21
-89.196246
 31
0.0
  0
LINE
  8
0
  6
BYLAYER
 62
     7
 10
781.554608
 20
-157.196246
 30
0.0
 11
781.554608
 21
-149.196246
 31
0.0
  0
LINE
  8
0
  6
BYLAYER
 62
     7
 10
781.554608
 20
-167.196246
 30
0.0
 11
781.554608
 21
-159.196246
 31
0.0
  0
LINE
  8
0
  6
BYLAYER
 62
     7
 10
773.554608
 20
-159.196246
 30
0.0
 11
773.554608
 21
-167.196246
 31
0.0
  0
LINE
  8
0
  6
BYLAYER
 62
     7
 10
771.554608
 20
-159.196246
 30
0.0
 11
771.554608
 21
-167.196246
 31
0.0
  0
LINE
  8
0
  6
BYLAYER
 62
     7
 10
781.554608
 20
-149.196246
 30
0.0
 11
773.554608
 21
-149.196246
 31
0.0
  0
LINE
  8
0
  6
BYLAYER
 62
     7
 10
781.554608
 20
-157.196246
 30
0.0
 11
773.554608
 21
-157.196246
 31
0.0
  0
LINE
  8
0
  6
BYLAYER
 62
     7
 10
771.554608
 20
-159.196246
 30
0.0
 11
763.716609
 21
-159.196246
 31
0.0
  0
LINE
  8
0
  6
BYLAYER
 62
     7
 10
781.554608
 20
-159.196246
 30
0.0
 11
773.554608
 21
-159.196246
 31
0.0
  0
LINE
  8
0
  6
BYLAYER
 62
     7
 10
771.554608
 20
-167.196246
 30
0.0
 11
763.716609
 21
-167.196246
 31
0.0
  0
LINE
  8
0
  6
BYLAYER
 62
     7
 10
781.554608
 20
-167.196246
 30
0.0
 11
773.554608
 21
-167.196246
 31
0.0
  0
LINE
  8
0
  6
BYLAYER
 62
     7
 10
763.716609
 20
-159.196246
 30
0.0
 11
763.716609
 21
-167.196246
 31
0.0
  0
LINE
  8
0
  6
BYLAYER
 62
     7
 10
773.554608
 20
-149.196246
 30
0.0
 11
773.554608
 21
-157.196246
 31
0.0
  0
LINE
  8
0
  6
BYLAYER
 62
     7
 10
771.554608
 20
-157.196246
 30
0.0
 11
771.554608
 21
-149.196246
 31
0.0
  0
LINE
  8
0
  6
BYLAYER
 62
     7
 10
771.554608
 20
-149.196246
 30
0.0
 11
763.554608
 21
-149.196246
 31
0.0
  0
LINE
  8
0
  6
BYLAYER
 62
     7
 10
771.554608
 20
-157.196246
 30
0.0
 11
763.554608
 21
-157.196246
 31
0.0
  0
LINE
  8
0
  6
BYLAYER
 62
     7
 10
763.554608
 20
-149.196246
 30
0.0
 11
763.554608
 21
-157.196246
 31
0.0
  0
LINE
  8
0
  6
BYLAYER
 62
     7
 10
761.554608
 20
-139.196246
 30
0.0
 11
753.554608
 21
-139.196246
 31
0.0
  0
LINE
  8
0
  6
BYLAYER
 62
     7
 10
761.554608
 20
-157.196246
 30
0.0
 11
761.554608
 21
-149.196246
 31
0.0
  0
LINE
  8
0
  6
BYLAYER
 62
     7
 10
761.554608
 20
-147.196246
 30
0.0
 11
761.554608
 21
-139.196246
 31
0.0
  0
LINE
  8
0
  6
BYLAYER
 62
     7
 10
761.554608
 20
-147.196246
 30
0.0
 11
753.554608
 21
-147.196246
 31
0.0
  0
LINE
  8
0
  6
BYLAYER
 62
     7
 10
761.554608
 20
-149.196246
 30
0.0
 11
753.554608
 21
-149.196246
 31
0.0
  0
LINE
  8
0
  6
BYLAYER
 62
     7
 10
761.554608
 20
-157.196246
 30
0.0
 11
753.554608
 21
-157.196246
 31
0.0
  0
LINE
  8
0
  6
BYLAYER
 62
     7
 10
753.554608
 20
-139.196246
 30
0.0
 11
753.554608
 21
-147.196246
 31
0.0
  0
LINE
  8
0
  6
BYLAYER
 62
     7
 10
753.554608
 20
-149.196246
 30
0.0
 11
753.554608
 21
-157.196246
 31
0.0
  0
LINE
  8
0
  6
BYLAYER
 62
     7
 10
761.554608
 20
-129.196246
 30
0.0
 11
753.554608
 21
-129.196246
 31
0.0
  0
LINE
  8
0
  6
BYLAYER
 62
     7
 10
761.554608
 20
-137.196246
 30
0.0
 11
761.554608
 21
-129.196246
 31
0.0
  0
LINE
  8
0
  6
BYLAYER
 62
     7
 10
761.554608
 20
-137.196246
 30
0.0
 11
753.554608
 21
-137.196246
 31
0.0
  0
LINE
  8
0
  6
BYLAYER
 62
     7
 10
753.554608
 20
-129.196246
 30
0.0
 11
753.554608
 21
-137.196246
 31
0.0
  0
LINE
  8
0
  6
BYLAYER
 62
     7
 10
751.554608
 20
-139.196246
 30
0.0
 11
743.554608
 21
-139.196246
 31
0.0
  0
LINE
  8
0
  6
BYLAYER
 62
     7
 10
751.554608
 20
-147.196246
 30
0.0
 11
751.554608
 21
-139.196246
 31
0.0
  0
LINE
  8
0
  6
BYLAYER
 62
     7
 10
751.554608
 20
-147.196246
 30
0.0
 11
743.554608
 21
-147.196246
 31
0.0
  0
LINE
  8
0
  6
BYLAYER
 62
     7
 10
743.554608
 20
-139.196246
 30
0.0
 11
743.554608
 21
-147.196246
 31
0.0
  0
LINE
  8
0
  6
BYLAYER
 62
     7
 10
751.554608
 20
-129.196246
 30
0.0
 11
743.554608
 21
-129.196246
 31
0.0
  0
LINE
  8
0
  6
BYLAYER
 62
     7
 10
751.554608
 20
-137.196246
 30
0.0
 11
751.554608
 21
-129.196246
 31
0.0
  0
LINE
  8
0
  6
BYLAYER
 62
     7
 10
751.554608
 20
-137.196246
 30
0.0
 11
743.554608
 21
-137.196246
 31
0.0
  0
LINE
  8
0
  6
BYLAYER
 62
     7
 10
743.554608
 20
-129.196246
 30
0.0
 11
743.554608
 21
-137.196246
 31
0.0
  0
LINE
  8
0
  6
BYLAYER
 62
     7
 10
741.554608
 20
-139.196246
 30
0.0
 11
733.554608
 21
-139.196246
 31
0.0
  0
LINE
  8
0
  6
BYLAYER
 62
     7
 10
741.554608
 20
-147.196246
 30
0.0
 11
741.554608
 21
-139.196246
 31
0.0
  0
LINE
  8
0
  6
BYLAYER
 62
     7
 10
741.554608
 20
-147.196246
 30
0.0
 11
733.554608
 21
-147.196246
 31
0.0
  0
LINE
  8
0
  6
BYLAYER
 62
     7
 10
733.554608
 20
-139.196246
 30
0.0
 11
733.554608
 21
-147.196246
 31
0.0
  0
LINE
  8
0
  6
BYLAYER
 62
     7
 10
741.554608
 20
-129.196246
 30
0.0
 11
733.554608
 21
-129.196246
 31
0.0
  0
LINE
  8
0
  6
BYLAYER
 62
     7
 10
741.554608
 20
-137.196246
 30
0.0
 11
741.554608
 21
-129.196246
 31
0.0
  0
LINE
  8
0
  6
BYLAYER
 62
     7
 10
741.554608
 20
-137.196246
 30
0.0
 11
733.554608
 21
-137.196246
 31
0.0
  0
LINE
  8
0
  6
BYLAYER
 62
     7
 10
733.554608
 20
-129.196246
 30
0.0
 11
733.554608
 21
-137.196246
 31
0.0
  0
LINE
  8
0
  6
BYLAYER
 62
     7
 10
781.554608
 20
-177.196246
 30
0.0
 11
781.554608
 21
-169.196246
 31
0.0
  0
LINE
  8
0
  6
BYLAYER
 62
     7
 10
773.554608
 20
-169.196246
 30
0.0
 11
773.554608
 21
-177.196246
 31
0.0
  0
LINE
  8
0
  6
BYLAYER
 62
     7
 10
771.554608
 20
-169.196246
 30
0.0
 11
771.554608
 21
-177.196246
 31
0.0
  0
LINE
  8
0
  6
BYLAYER
 62
     7
 10
771.554608
 20
-169.196246
 30
0.0
 11
763.716609
 21
-169.196246
 31
0.0
  0
LINE
  8
0
  6
BYLAYER
 62
     7
 10
781.554608
 20
-169.196246
 30
0.0
 11
773.554608
 21
-169.196246
 31
0.0
  0
LINE
  8
0
  6
BYLAYER
 62
     7
 10
771.554608
 20
-177.196246
 30
0.0
 11
763.716609
 21
-177.196246
 31
0.0
  0
LINE
  8
0
  6
BYLAYER
 62
     7
 10
781.554608
 20
-177.196246
 30
0.0
 11
773.554608
 21
-177.196246
 31
0.0
  0
LINE
  8
0
  6
BYLAYER
 62
     7
 10
763.716609
 20
-169.196246
 30
0.0
 11
763.716609
 21
-177.196246
 31
0.0
  0
LINE
  8
0
  6
BYLAYER
 62
     7
 10
761.554608
 20
-167.196246
 30
0.0
 11
761.554608
 21
-159.196246
 31
0.0
  0
LINE
  8
0
  6
BYLAYER
 62
     7
 10
761.554608
 20
-159.196246
 30
0.0
 11
753.554608
 21
-159.196246
 31
0.0
  0
LINE
  8
0
  6
BYLAYER
 62
     7
 10
761.554608
 20
-167.196246
 30
0.0
 11
753.554608
 21
-167.196246
 31
0.0
  0
LINE
  8
0
  6
BYLAYER
 62
     7
 10
753.554608
 20
-159.196246
 30
0.0
 11
753.554608
 21
-167.196246
 31
0.0
  0
LINE
  8
0
  6
BYLAYER
 62
     7
 10
761.554608
 20
-177.196246
 30
0.0
 11
761.554608
 21
-169.196246
 31
0.0
  0
LINE
  8
0
  6
BYLAYER
 62
     7
 10
761.554608
 20
-169.196246
 30
0.0
 11
753.554608
 21
-169.196246
 31
0.0
  0
LINE
  8
0
  6
BYLAYER
 62
     7
 10
761.554608
 20
-177.196246
 30
0.0
 11
753.554608
 21
-177.196246
 31
0.0
  0
LINE
  8
0
  6
BYLAYER
 62
     7
 10
753.554608
 20
-169.196246
 30
0.0
 11
753.554608
 21
-177.196246
 31
0.0
  0
LINE
  8
0
  6
BYLAYER
 62
     7
 10
751.554608
 20
-157.196246
 30
0.0
 11
751.554608
 21
-149.196246
 31
0.0
  0
LINE
  8
0
  6
BYLAYER
 62
     7
 10
751.554608
 20
-149.196246
 30
0.0
 11
743.554608
 21
-149.196246
 31
0.0
  0
LINE
  8
0
  6
BYLAYER
 62
     7
 10
751.554608
 20
-157.196246
 30
0.0
 11
743.554608
 21
-157.196246
 31
0.0
  0
LINE
  8
0
  6
BYLAYER
 62
     7
 10
743.554608
 20
-149.196246
 30
0.0
 11
743.554608
 21
-157.196246
 31
0.0
  0
LINE
  8
0
  6
BYLAYER
 62
     7
 10
751.554608
 20
-167.196246
 30
0.0
 11
751.554608
 21
-159.196246
 31
0.0
  0
LINE
  8
0
  6
BYLAYER
 62
     7
 10
751.554608
 20
-159.196246
 30
0.0
 11
743.554608
 21
-159.196246
 31
0.0
  0
LINE
  8
0
  6
BYLAYER
 62
     7
 10
751.554608
 20
-167.196246
 30
0.0
 11
743.554608
 21
-167.196246
 31
0.0
  0
LINE
  8
0
  6
BYLAYER
 62
     7
 10
743.554608
 20
-159.196246
 30
0.0
 11
743.554608
 21
-167.196246
 31
0.0
  0
LINE
  8
0
  6
BYLAYER
 62
     7
 10
741.554608
 20
-157.196246
 30
0.0
 11
741.554608
 21
-149.196246
 31
0.0
  0
LINE
  8
0
  6
BYLAYER
 62
     7
 10
741.554608
 20
-149.196246
 30
0.0
 11
733.554608
 21
-149.196246
 31
0.0
  0
LINE
  8
0
  6
BYLAYER
 62
     7
 10
741.554608
 20
-157.196246
 30
0.0
 11
733.554608
 21
-157.196246
 31
0.0
  0
LINE
  8
0
  6
BYLAYER
 62
     7
 10
733.554608
 20
-149.196246
 30
0.0
 11
733.554608
 21
-157.196246
 31
0.0
  0
LINE
  8
0
  6
BYLAYER
 62
     7
 10
731.554608
 20
-139.196246
 30
0.0
 11
723.554608
 21
-139.196246
 31
0.0
  0
LINE
  8
0
  6
BYLAYER
 62
     7
 10
731.554608
 20
-147.196246
 30
0.0
 11
731.554608
 21
-139.196246
 31
0.0
  0
LINE
  8
0
  6
BYLAYER
 62
     7
 10
731.554608
 20
-147.196246
 30
0.0
 11
723.554608
 21
-147.196246
 31
0.0
  0
LINE
  8
0
  6
BYLAYER
 62
     7
 10
723.554608
 20
-139.196246
 30
0.0
 11
723.554608
 21
-147.196246
 31
0.0
  0
LINE
  8
0
  6
BYLAYER
 62
     7
 10
731.554608
 20
-129.196246
 30
0.0
 11
723.554608
 21
-129.196246
 31
0.0
  0
LINE
  8
0
  6
BYLAYER
 62
     7
 10
731.554608
 20
-137.196246
 30
0.0
 11
731.554608
 21
-129.196246
 31
0.0
  0
LINE
  8
0
  6
BYLAYER
 62
     7
 10
731.554608
 20
-137.196246
 30
0.0
 11
723.554608
 21
-137.196246
 31
0.0
  0
LINE
  8
0
  6
BYLAYER
 62
     7
 10
723.554608
 20
-129.196246
 30
0.0
 11
723.554608
 21
-137.196246
 31
0.0
  0
LINE
  8
0
  6
BYLAYER
 62
     7
 10
731.554608
 20
-157.196246
 30
0.0
 11
731.554608
 21
-149.196246
 31
0.0
  0
LINE
  8
0
  6
BYLAYER
 62
     7
 10
731.554608
 20
-149.196246
 30
0.0
 11
723.554608
 21
-149.196246
 31
0.0
  0
LINE
  8
0
  6
BYLAYER
 62
     7
 10
731.554608
 20
-157.196246
 30
0.0
 11
723.554608
 21
-157.196246
 31
0.0
  0
LINE
  8
0
  6
BYLAYER
 62
     7
 10
723.554608
 20
-149.196246
 30
0.0
 11
723.554608
 21
-157.196246
 31
0.0
  0
LINE
  8
0
  6
BYLAYER
 62
     7
 10
781.554608
 20
-187.196246
 30
0.0
 11
781.554608
 21
-179.196246
 31
0.0
  0
LINE
  8
0
  6
BYLAYER
 62
     7
 10
773.554608
 20
-179.196246
 30
0.0
 11
773.554608
 21
-187.196246
 31
0.0
  0
LINE
  8
0
  6
BYLAYER
 62
     7
 10
771.554608
 20
-179.196246
 30
0.0
 11
771.554608
 21
-187.196246
 31
0.0
  0
LINE
  8
0
  6
BYLAYER
 62
     7
 10
771.554608
 20
-179.196246
 30
0.0
 11
763.716609
 21
-179.196246
 31
0.0
  0
LINE
  8
0
  6
BYLAYER
 62
     7
 10
781.554608
 20
-179.196246
 30
0.0
 11
773.554608
 21
-179.196246
 31
0.0
  0
LINE
  8
0
  6
BYLAYER
 62
     7
 10
771.554608
 20
-187.196246
 30
0.0
 11
763.716609
 21
-187.196246
 31
0.0
  0
LINE
  8
0
  6
BYLAYER
 62
     7
 10
781.554608
 20
-187.196246
 30
0.0
 11
773.554608
 21
-187.196246
 31
0.0
  0
LINE
  8
0
  6
BYLAYER
 62
     7
 10
763.716609
 20
-179.196246
 30
0.0
 11
763.716609
 21
-187.196246
 31
0.0
  0
LINE
  8
0
  6
BYLAYER
 62
     7
 10
761.554608
 20
-187.196246
 30
0.0
 11
761.554608
 21
-179.196246
 31
0.0
  0
LINE
  8
0
  6
BYLAYER
 62
     7
 10
761.554608
 20
-179.196246
 30
0.0
 11
753.554608
 21
-179.196246
 31
0.0
  0
LINE
  8
0
  6
BYLAYER
 62
     7
 10
761.554608
 20
-187.196246
 30
0.0
 11
753.554608
 21
-187.196246
 31
0.0
  0
LINE
  8
0
  6
BYLAYER
 62
     7
 10
753.554608
 20
-179.196246
 30
0.0
 11
753.554608
 21
-187.196246
 31
0.0
  0
LINE
  8
0
  6
BYLAYER
 62
     7
 10
751.554608
 20
-177.196246
 30
0.0
 11
751.554608
 21
-169.196246
 31
0.0
  0
LINE
  8
0
  6
BYLAYER
 62
     7
 10
751.554608
 20
-169.196246
 30
0.0
 11
743.554608
 21
-169.196246
 31
0.0
  0
LINE
  8
0
  6
BYLAYER
 62
     7
 10
751.554608
 20
-177.196246
 30
0.0
 11
743.554608
 21
-177.196246
 31
0.0
  0
LINE
  8
0
  6
BYLAYER
 62
     7
 10
743.554608
 20
-169.196246
 30
0.0
 11
743.554608
 21
-177.196246
 31
0.0
  0
LINE
  8
0
  6
BYLAYER
 62
     7
 10
741.554608
 20
-167.196246
 30
0.0
 11
741.554608
 21
-159.196246
 31
0.0
  0
LINE
  8
0
  6
BYLAYER
 62
     7
 10
741.554608
 20
-159.196246
 30
0.0
 11
733.554608
 21
-159.196246
 31
0.0
  0
LINE
  8
0
  6
BYLAYER
 62
     7
 10
741.554608
 20
-167.196246
 30
0.0
 11
733.554608
 21
-167.196246
 31
0.0
  0
LINE
  8
0
  6
BYLAYER
 62
     7
 10
733.554608
 20
-159.196246
 30
0.0
 11
733.554608
 21
-167.196246
 31
0.0
  0
CIRCLE
  8
0
  6
BYLAYER
 62
     7
 10
782.554608
 20
-128.196246
 30
0.0
 40
71.999936
  0
CIRCLE
  8
0
  6
BYLAYER
 62
     7
 10
782.554608
 20
-128.196246
 30
0.0
 40
86.549921
  0
ARC
  8
0
  6
BYLAYER
 62
     7
 10
782.554608
 20
-128.196246
 30
0.0
 40
100.0
 50
119.340652
 51
420.659492
  0
ARC
  8
0
  6
BYLAYER
 62
     7
 10
782.554608
 20
-128.196246
 30
0.0
 40
96.0
 50
323.301669
 51
356.934592
  0
ARC
  8
0
  6
BYLAYER
 62
     7
 10
782.554608
 20
-128.196246
 30
0.0
 40
96.0
 50
3.065408
 51
36.698331
  0
ARC
  8
0
  6
BYLAYER
 62
     7
 10
782.554608
 20
-128.196246
 30
0.0
 40
96.000000
 50
233.301669
 51
266.934592
  0
ARC
  8
0
  6
BYLAYER
 62
     7
 10
782.554608
 20
-128.196246
 30
0.0
 40
96.0
 50
273.065408
 51
306.698331
  0
ARC
  8
0
  6
BYLAYER
 62
     7
 10
782.554608
 20
-128.196246
 30
0.0
 40
96.0
 50
183.065408
 51
216.698331
  0
ARC
  8
0
  6
BYLAYER
 62
     7
 10
782.554608
 20
-128.196246
 30
0.0
 40
96.000000
 50
143.301669
 51
176.934592
  0
ARC
  8
0
  6
BYLAYER
 62
     7
 10
782.554608
 20
-128.196246
 30
0.0
 40
96.000000
 50
120.691662
 51
126.698331
  0
ARC
  8
0
  6
BYLAYER
 62
     7
 10
782.554608
 20
-128.196246
 30
0.0
 40
96.000000
 50
53.301669
 51
59.308487
  0
ARC
  8
0
  6
BYLAYER
 62
     7
 10
838.430375
 20
-53.228596
 30
0.0
 40
2.5
 50
315.000000
 51
413.301669
  0
ARC
  8
0
  6
BYLAYER
 62
     7
 10
857.522258
 20
-72.320479
 30
0.0
 40
2.500000
 50
36.698331
 51
135.000000
  0
CIRCLE
  8
0
  6
BYLAYER
 62
     7
 10
782.554608
 20
-128.196246
 30
0.0
 40
70.0
  0
ARC
  8
0
  6
BYLAYER
 62
     7
 10
840.890917
 20
-69.859937
 30
0.0
 40
5.5
 50
1.144516
 51
88.855484
  0
LINE
  8
0
  6
BYLAYER
 62
     7
 10
835.480176
 20
-59.714328
 30
0.0
 11
840.198142
 21
-54.996362
 31
0.0
  0
LINE
  8
0
  6
BYLAYER
 62
     7
 10
851.036526
 20
-75.270678
 30
0.0
 11
855.754492
 21
-70.552712
 31
0.0
  0
ARC
  8
0
  6
BYLAYER
 62
     7
 10
726.678841
 20
-53.228596
 30
0.0
 40
2.500000
 50
126.698331
 51
225.000000
  0
ARC
  8
0
  6
BYLAYER
 62
     7
 10
707.586958
 20
-72.320479
 30
0.0
 40
2.500000
 50
45.0
 51
143.301669
  0
ARC
  8
0
  6
BYLAYER
 62
     7
 10
724.218299
 20
-69.859937
 30
0.0
 40
5.500000
 50
91.144516
 51
178.855484
  0
LINE
  8
0
  6
BYLAYER
 62
     7
 10
729.629040
 20
-59.714328
 30
0.0
 11
724.911074
 21
-54.996362
 31
0.0
  0
LINE
  8
0
  6
BYLAYER
 62
     7
 10
714.072690
 20
-75.270678
 30
0.0
 11
709.354724
 21
-70.552712
 31
0.0
  0
ARC
  8
0
  6
BYLAYER
 62
     7
 10
838.430375
 20
-203.163896
 30
0.0
 40
2.500000
 50
306.698331
 51
405.000000
  0
ARC
  8
0
  6
BYLAYER
 62
     7
 10
857.522258
 20
-184.072013
 30
0.0
 40
2.500000
 50
225.000000
 51
323.301669
  0
ARC
  8
0
  6
BYLAYER
 62
     7
 10
840.890917
 20
-186.532555
 30
0.0
 40
5.500000
 50
271.144516
 51
358.855484
  0
LINE
  8
0
  6
BYLAYER
 62
     7
 10
835.480176
 20
-196.678164
 30
0.0
 11
840.198142
 21
-201.396130
 31
0.0
  0
LINE
  8
0
  6
BYLAYER
 62
     7
 10
851.036526
 20
-181.121814
 30
0.0
 11
855.754492
 21
-185.839780
 31
0.0
  0
ARC
  8
0
  6
BYLAYER
 62
     7
 10
726.678841
 20
-203.163896
 30
0.0
 40
2.500000
 50
135.000000
 51
233.301669
  0
ARC
  8
0
  6
BYLAYER
 62
     7
 10
707.586958
 20
-184.072013
 30
0.0
 40
2.500000
 50
216.698331
 51
315.000000
  0
ARC
  8
0
  6
BYLAYER
 62
     7
 10
724.218299
 20
-186.532555
 30
0.0
 40
5.5
 50
181.144516
 51
268.855484
  0
LINE
  8
0
  6
BYLAYER
 62
     7
 10
729.629040
 20
-196.678164
 30
0.0
 11
724.911074
 21
-201.396130
 31
0.0
  0
LINE
  8
0
  6
BYLAYER
 62
     7
 10
714.072690
 20
-181.121814
 30
0.0
 11
709.354724
 21
-185.839780
 31
0.0
  0
ARC
  8
0
  6
BYLAYER
 62
     7
 10
689.188394
 20
-133.196246
 30
0.0
 40
2.5
 50
90.0
 51
183.065408
  0
ARC
  8
0
  6
BYLAYER
 62
     7
 10
689.188394
 20
-123.196246
 30
0.0
 40
2.5
 50
176.934592
 51
270.000000
  0
LINE
  8
0
  6
BYLAYER
 62
     7
 10
689.188394
 20
-130.696246
 30
0.0
 11
696.040801
 21
-130.696246
 31
0.0
  0
LINE
  8
0
  6
BYLAYER
 62
     7
 10
689.188394
 20
-125.696246
 30
0.0
 11
696.040801
 21
-125.696246
 31
0.0
  0
ARC
  8
0
  6
BYLAYER
 62
     7
 10
787.554608
 20
-221.562460
 30
0.0
 40
2.5
 50
180.000000
 51
273.065408
  0
ARC
  8
0
  6
BYLAYER
 62
     7
 10
777.554608
 20
-221.562460
 30
0.0
 40
2.5
 50
266.934592
 51
360.000000
  0
LINE
  8
0
  6
BYLAYER
 62
     7
 10
785.054608
 20
-221.562460
 30
0.0
 11
785.054608
 21
-214.710053
 31
0.0
  0
LINE
  8
0
  6
BYLAYER
 62
     7
 10
780.054608
 20
-221.562460
 30
0.0
 11
780.054608
 21
-214.710053
 31
0.0
  0
ARC
  8
0
  6
BYLAYER
 62
     7
 10
875.920822
 20
-123.196246
 30
0.0
 40
2.500000
 50
270.0
 51
363.065408
  0
ARC
  8
0
  6
BYLAYER
 62
     7
 10
875.920822
 20
-133.196246
 30
0.0
 40
2.500000
 50
356.934592
 51
450.000000
  0
LINE
  8
0
  6
BYLAYER
 62
     7
 10
875.920822
 20
-125.696246
 30
0.0
 11
869.068415
 21
-125.696246
 31
0.0
  0
LINE
  8
0
  6
BYLAYER
 62
     7
 10
875.920822
 20
-130.696246
 30
0.0
 11
869.068415
 21
-130.696246
 31
0.0
  0
LINE
  8
0
  6
BYLAYER
 62
     7
 10
739.054501
 20
-381.696277
 30
0.0
 11
739.054501
 21
-360.196277
 31
0.0
  0
ARC
  8
0
  6
BYLAYER
 62
     7
 10
737.554501
 20
-381.696277
 30
0.0
 40
1.5
 50
270.0
 51
360.0
  0
ARC
  8
0
  6
BYLAYER
 62
     7
 10
740.554501
 20
-360.196277
 30
0.0
 40
1.5
 50
90.0
 51
180.0
  0
LINE
  8
0
  6
BYLAYER
 62
     7
 10
782.554501
 20
-358.696277
 30
0.0
 11
740.554501
 21
-358.696277
 31
0.0
  0
LINE
  8
0
  6
BYLAYER
 62
     7
 10
744.426742
 20
-381.696277
 30
0.0
 11
744.426742
 21
-360.196277
 31
0.0
  0
ARC
  8
0
  6
BYLAYER
 62
     7
 10
742.926742
 20
-381.696277
 30
0.0
 40
1.5
 50
270.0
 51
360.0
  0
ARC
  8
0
  6
BYLAYER
 62
     7
 10
745.926742
 20
-360.196277
 30
0.0
 40
1.5
 50
90.0
 51
180.0
  0
LINE
  8
0
  6
BYLAYER
 62
     7
 10
769.460848
 20
-358.696277
 30
0.0
 11
769.953395
 21
-372.800975
 31
0.0
  0
ARC
  8
0
  6
BYLAYER
 62
     7
 10
772.951567
 20
-372.696277
 30
0.0
 40
3.0
 50
182.000000
 51
270.000000
  0
LINE
  8
0
  6
BYLAYER
 62
     7
 10
780.155607
 20
-372.800975
 30
0.0
 11
780.648154
 21
-358.696277
 31
0.0
  0
ARC
  8
0
  6
BYLAYER
 62
     7
 10
777.157435
 20
-372.696277
 30
0.0
 40
3.000000
 50
270.0
 51
358.0
  0
LINE
  8
0
  6
BYLAYER
 62
     7
 10
772.951567
 20
-375.696277
 30
0.0
 11
777.157435
 21
-375.696277
 31
0.0
  0
LINE
  8
0
  6
BYLAYER
 62
     7
 10
754.460848
 20
-358.696277
 30
0.0
 11
754.953395
 21
-372.800975
 31
0.0
  0
ARC
  8
0
  6
BYLAYER
 62
     7
 10
757.951567
 20
-372.696277
 30
0.0
 40
3.0
 50
182.000000
 51
270.000000
  0
LINE
  8
0
  6
BYLAYER
 62
     7
 10
765.155607
 20
-372.800975
 30
0.0
 11
765.648154
 21
-358.696277
 31
0.0
  0
ARC
  8
0
  6
BYLAYER
 62
     7
 10
762.157435
 20
-372.696277
 30
0.0
 40
3.000000
 50
270.0
 51
358.0
  0
LINE
  8
0
  6
BYLAYER
 62
     7
 10
757.951567
 20
-375.696277
 30
0.0
 11
762.157435
 21
-375.696277
 31
0.0
  0
LINE
  8
0
  6
BYLAYER
 62
     7
 10
754.495769
 20
-359.696277
 30
0.0
 11
765.613233
 21
-359.696277
 31
0.0
  0
LINE
  8
0
  6
BYLAYER
 62
     7
 10
769.495769
 20
-359.696277
 30
0.0
 11
780.613233
 21
-359.696277
 31
0.0
  0
LINE
  8
0
  6
BYLAYER
 62
     7
 10
782.554501
 20
-383.196277
 30
0.0
 11
735.054501
 21
-383.196277
 31
0.0
  0
ARC
  8
0
  6
BYLAYER
 62
     7
 10
735.054501
 20
-384.696277
 30
0.0
 40
1.500000
 50
90.0
 51
180.0
  0
LINE
  8
0
  6
BYLAYER
 62
     7
 10
733.554501
 20
-390.196277
 30
0.0
 11
733.554501
 21
-384.696277
 31
0.0
  0
LINE
  8
0
  6
BYLAYER
 62
     7
 10
733.554501
 20
-390.196277
 30
0.0
 11
762.654707
 21
-390.196277
 31
0.0
  0
LINE
  8
0
  6
BYLAYER
 62
     7
 10
826.054501
 20
-381.696277
 30
0.0
 11
826.054501
 21
-360.196277
 31
0.0
  0
ARC
  8
0
  6
BYLAYER
 62
     7
 10
827.554501
 20
-381.696277
 30
0.0
 40
1.5
 50
180.000000
 51
270.000000
  0
ARC
  8
0
  6
BYLAYER
 62
     7
 10
824.554501
 20
-360.196277
 30
0.0
 40
1.5
 50
0.0
 51
90.0
  0
LINE
  8
0
  6
BYLAYER
 62
     7
 10
782.554501
 20
-358.696277
 30
0.0
 11
824.554501
 21
-358.696277
 31
0.0
  0
LINE
  8
0
  6
BYLAYER
 62
     7
 10
820.682260
 20
-381.696277
 30
0.0
 11
820.682260
 21
-360.196277
 31
0.0
  0
ARC
  8
0
  6
BYLAYER
 62
     7
 10
822.182260
 20
-381.696277
 30
0.0
 40
1.5
 50
180.000000
 51
270.000000
  0
ARC
  8
0
  6
BYLAYER
 62
     7
 10
819.182260
 20
-360.196277
 30
0.0
 40
1.5
 50
0.0
 51
90.0
  0
LINE
  8
0
  6
BYLAYER
 62
     7
 10
795.648154
 20
-358.696277
 30
0.0
 11
795.155607
 21
-372.800975
 31
0.0
  0
ARC
  8
0
  6
BYLAYER
 62
     7
 10
792.157435
 20
-372.696277
 30
0.0
 40
3.000000
 50
270.0
 51
358.0
  0
LINE
  8
0
  6
BYLAYER
 62
     7
 10
784.953395
 20
-372.800975
 30
0.0
 11
784.460848
 21
-358.696277
 31
0.0
  0
ARC
  8
0
  6
BYLAYER
 62
     7
 10
787.951567
 20
-372.696277
 30
0.0
 40
3.0
 50
182.000000
 51
270.000000
  0
LINE
  8
0
  6
BYLAYER
 62
     7
 10
792.157435
 20
-375.696277
 30
0.0
 11
787.951567
 21
-375.696277
 31
0.0
  0
LINE
  8
0
  6
BYLAYER
 62
     7
 10
810.648154
 20
-358.696277
 30
0.0
 11
810.155607
 21
-372.800975
 31
0.0
  0
ARC
  8
0
  6
BYLAYER
 62
     7
 10
807.157435
 20
-372.696277
 30
0.0
 40
3.000000
 50
270.0
 51
358.0
  0
LINE
  8
0
  6
BYLAYER
 62
     7
 10
799.953395
 20
-372.800975
 30
0.0
 11
799.460848
 21
-358.696277
 31
0.0
  0
ARC
  8
0
  6
BYLAYER
 62
     7
 10
802.951567
 20
-372.696277
 30
0.0
 40
3.0
 50
182.000000
 51
270.000000
  0
LINE
  8
0
  6
BYLAYER
 62
     7
 10
807.157435
 20
-375.696277
 30
0.0
 11
802.951567
 21
-375.696277
 31
0.0
  0
LINE
  8
0
  6
BYLAYER
 62
     7
 10
810.613233
 20
-359.696277
 30
0.0
 11
799.495769
 21
-359.696277
 31
0.0
  0
LINE
  8
0
  6
BYLAYER
 62
     7
 10
795.613233
 20
-359.696277
 30
0.0
 11
784.495769
 21
-359.696277
 31
0.0
  0
LINE
  8
0
  6
BYLAYER
 62
     7
 10
782.554501
 20
-383.196277
 30
0.0
 11
830.054501
 21
-383.196277
 31
0.0
  0
ARC
  8
0
  6
BYLAYER
 62
     7
 10
830.054501
 20
-384.696277
 30
0.0
 40
1.5
 50
0.0
 51
90.0
  0
LINE
  8
0
  6
BYLAYER
 62
     7
 10
831.554501
 20
-392.196277
 30
0.0
 11
831.554501
 21
-384.696277
 31
0.0
  0
LINE
  8
0
  6
BYLAYER
 62
     7
 10
831.554501
 20
-390.196277
 30
0.0
 11
802.454509
 21
-390.196277
 31
0.0
  0
LINE
  8
0
  6
BYLAYER
 62
     7
 10
733.554501
 20
-392.196277
 30
0.0
 11
754.554502
 21
-392.196277
 31
0.0
  0
LINE
  8
0
  6
BYLAYER
 62
     7
 10
733.554501
 20
-397.696277
 30
0.0
 11
735.011970
 21
-400.220695
 31
0.0
  0
LINE
  8
0
  6
BYLAYER
 62
     7
 10
831.554485
 20
-392.196155
 30
0.0
 11
810.554475
 21
-392.196207
 31
0.0
  0
LINE
  8
0
  6
BYLAYER
 62
     7
 10
831.554485
 20
-397.696155
 30
0.0
 11
830.097017
 21
-400.220571
 31
0.0
  0
LINE
  8
0
  6
BYLAYER
 62
     7
 10
733.554501
 20
-392.196277
 30
0.0
 11
733.554501
 21
-401.024063
 31
0.0
  0
LINE
  8
0
  6
BYLAYER
 62
     7
 10
831.554485
 20
-392.196155
 30
0.0
 11
831.554496
 21
-401.023939
 31
0.0
  0
LINE
  8
0
  6
BYLAYER
 62
     7
 10
733.554501
 20
-390.196277
 30
0.0
 11
733.554501
 21
-392.196277
 31
0.0
  0
ARC
  8
0
  6
BYLAYER
 62
     1
 10
782.554608
 20
-488.196246
 30
0.0
 40
100.0
 50
304.055792
 51
595.944202
  0
ARC
  8
0
  6
BYLAYER
 62
     1
 10
730.464947
 20
-475.866586
 30
0.0
 40
14.829690
 50
270.0
 51
273.11274
  0
ARC
  8
0
  6
BYLAYER
 62
     1
 10
730.516137
 20
-476.703028
 30
0.0
 40
13.991704
 50
273.089419
 51
276.312775
  0
ARC
  8
0
  6
BYLAYER
 62
     1
 10
730.467531
 20
-500.457261
 30
0.0
 40
14.760956
 50
87.720613
 51
88.863533
  0
ARC
  8
0
  6
BYLAYER
 62
     1
 10
730.464947
 20
-500.572895
 30
0.0
 40
14.876619
 50
88.862419
 51
90.000000
  0
ARC
  8
0
  6
BYLAYER
 62
     1
 10
782.554608
 20
-488.196246
 30
0.0
 40
64.314339
 50
122.227765
 51
142.670598
  0
ARC
  8
0
  6
BYLAYER
 62
     1
 10
782.554608
 20
-488.196246
 30
0.0
 40
64.314339
 50
143.202218
 51
177.772298
  0
ARC
  8
0
  6
BYLAYER
 62
     1
 10
782.554608
 20
-488.196246
 30
0.0
 40
64.314316
 50
182.227699
 51
209.457151
  0
ARC
  8
0
  6
BYLAYER
 62
     1
 10
782.554608
 20
-488.196246
 30
0.0
 40
64.314293
 50
330.542871
 51
357.772248
  0
ARC
  8
0
  6
BYLAYER
 62
     1
 10
782.554608
 20
-488.196246
 30
0.0
 40
64.314308
 50
2.227663
 51
36.797757
  0
ARC
  8
0
  6
BYLAYER
 62
     1
 10
782.554608
 20
-488.196246
 30
0.0
 40
64.314308
 50
37.329423
 51
57.772233
  0
ARC
  8
0
  6
BYLAYER
 62
     1
 10
782.554608
 20
-488.196246
 30
0.0
 40
64.314331
 50
62.227661
 51
117.772242
  0
LINE
  8
0
  6
BYLAYER
 62
     1
 10
693.654584
 20
-485.696277
 30
0.0
 11
730.464947
 21
-485.696277
 31
0.0
  0
LINE
  8
0
  6
BYLAYER
 62
     1
 10
693.654584
 20
-490.696277
 30
0.0
 11
730.464947
 21
-490.696277
 31
0.0
  0
LINE
  8
0
  6
BYLAYER
 62
     1
 10
871.454632
 20
-490.696215
 30
0.0
 11
834.644269
 21
-490.696215
 31
0.0
  0
ARC
  8
0
  6
BYLAYER
 62
     1
 10
834.644269
 20
-500.572834
 30
0.0
 40
14.876618
 50
90.0
 51
91.137597
  0
ARC
  8
0
  6
BYLAYER
 62
     1
 10
834.641685
 20
-500.457197
 30
0.0
 40
14.760953
 50
91.136482
 51
92.279418
  0
ARC
  8
0
  6
BYLAYER
 62
     1
 10
834.593078
 20
-476.702976
 30
0.0
 40
13.991695
 50
263.687191
 51
266.910565
  0
ARC
  8
0
  6
BYLAYER
 62
     1
 10
834.644269
 20
-475.866526
 30
0.0
 40
14.829690
 50
266.887244
 51
270.000000
  0
LINE
  8
0
  6
BYLAYER
 62
     1
 10
871.454632
 20
-485.696215
 30
0.0
 11
834.644269
 21
-485.696215
 31
0.0
  0
ARC
  8
0
  6
BYLAYER
 62
     1
 10
871.454632
 20
-477.442516
 30
0.0
 40
13.253699
 50
270.0
 51
288.132493
  0
ARC
  8
0
  6
BYLAYER
 62
     1
 10
874.271938
 20
-486.045550
 30
0.0
 40
4.201108
 50
288.132493
 51
307.879229
  0
ARC
  8
0
  6
BYLAYER
 62
     1
 10
875.411003
 20
-487.509838
 30
0.0
 40
2.345951
 50
307.879229
 51
328.377275
  0
ARC
  8
0
  6
BYLAYER
 62
     1
 10
876.469283
 20
-488.196215
 30
0.0
 40
1.085325
 50
329.939171
 51
360.000000
  0
ARC
  8
0
  6
BYLAYER
 62
     1
 10
876.469283
 20
-488.196215
 30
0.0
 40
1.085325
 50
0.0
 51
30.060829
  0
ARC
  8
0
  6
BYLAYER
 62
     1
 10
875.411003
 20
-488.882593
 30
0.0
 40
2.345951
 50
31.622725
 51
52.120771
  0
ARC
  8
0
  6
BYLAYER
 62
     1
 10
874.271938
 20
-490.346881
 30
0.0
 40
4.201108
 50
52.120771
 51
71.867507
  0
ARC
  8
0
  6
BYLAYER
 62
     1
 10
871.454632
 20
-498.949915
 30
0.0
 40
13.253699
 50
71.867507
 51
90.0
  0
LINE
  8
0
  6
BYLAYER
 62
     1
 10
806.434375
 20
-441.835243
 30
0.0
 11
806.434369
 21
-441.835254
 31
0.0
  0
ARC
  8
0
  6
BYLAYER
 62
     1
 10
817.912335
 20
-448.462179
 30
0.0
 40
13.253673
 50
149.999558
 51
168.132054
  0
ARC
  8
0
  6
BYLAYER
 62
     1
 10
809.053280
 20
-446.600459
 30
0.0
 40
4.201112
 50
168.132054
 51
187.878895
  0
ARC
  8
0
  6
BYLAYER
 62
     1
 10
807.215634
 20
-446.854763
 30
0.0
 40
2.345953
 50
187.878895
 51
208.377315
  0
ARC
  8
0
  6
BYLAYER
 62
     1
 10
806.092082
 20
-447.428065
 30
0.0
 40
1.085338
 50
209.939335
 51
240.000419
  0
ARC
  8
0
  6
BYLAYER
 62
     1
 10
806.092076
 20
-447.428101
 30
0.0
 40
1.085303
 50
239.999720
 51
270.060787
  0
ARC
  8
0
  6
BYLAYER
 62
     1
 10
806.026796
 20
-446.168432
 30
0.0
 40
2.345913
 50
271.622728
 51
292.120861
  0
ARC
  8
0
  6
BYLAYER
 62
     1
 10
805.328215
 20
-444.449831
 30
0.0
 40
4.201069
 50
292.120861
 51
311.867658
  0
ARC
  8
0
  6
BYLAYER
 62
     1
 10
799.286307
 20
-437.708362
 30
0.0
 40
13.253806
 50
311.867658
 51
330.000007
  0
LINE
  8
0
  6
BYLAYER
 62
     1
 10
829.169598
 20
-412.456561
 30
0.0
 11
810.764447
 21
-444.335254
 31
0.0
  0
LINE
  8
0
  6
BYLAYER
 62
     1
 10
824.839520
 20
-409.956561
 30
0.0
 11
806.434369
 21
-441.835254
 31
0.0
  0
LINE
  8
0
  6
BYLAYER
 62
     1
 10
829.169592
 20
-412.456572
 30
0.0
 11
829.169598
 21
-412.456561
 31
0.0
  0
ARC
  8
0
  6
BYLAYER
 62
     1
 10
817.691632
 20
-405.829636
 30
0.0
 40
13.253673
 50
329.999558
 51
348.132054
  0
ARC
  8
0
  6
BYLAYER
 62
     1
 10
826.550687
 20
-407.691356
 30
0.0
 40
4.201112
 50
348.132054
 51
367.878895
  0
ARC
  8
0
  6
BYLAYER
 62
     1
 10
828.388333
 20
-407.437051
 30
0.0
 40
2.345953
 50
7.878895
 51
28.377315
  0
ARC
  8
0
  6
BYLAYER
 62
     1
 10
829.511885
 20
-406.863750
 30
0.0
 40
1.085338
 50
29.939335
 51
60.000419
  0
ARC
  8
0
  6
BYLAYER
 62
     1
 10
829.511891
 20
-406.863713
 30
0.0
 40
1.085303
 50
59.999720
 51
90.060788
  0
ARC
  8
0
  6
BYLAYER
 62
     1
 10
829.577171
 20
-408.123383
 30
0.0
 40
2.345913
 50
91.622729
 51
112.120862
  0
ARC
  8
0
  6
BYLAYER
 62
     1
 10
830.275752
 20
-409.841984
 30
0.0
 40
4.201069
 50
112.120862
 51
131.867659
  0
ARC
  8
0
  6
BYLAYER
 62
     1
 10
836.317660
 20
-416.583452
 30
0.0
 40
13.253807
 50
131.867659
 51
150.000009
  0
LINE
  8
0
  6
BYLAYER
 62
     1
 10
740.269635
 20
-409.956622
 30
0.0
 11
758.674847
 21
-441.835284
 31
0.0
  0
LINE
  8
0
  6
BYLAYER
 62
     1
 10
740.269583
 20
-409.956637
 30
0.0
 11
740.269574
 21
-409.956622
 31
0.0
  0
ARC
  8
0
  6
BYLAYER
 62
     1
 10
728.791426
 20
-416.583519
 30
0.0
 40
13.253816
 50
29.999946
 51
48.132326
  0
ARC
  8
0
  6
BYLAYER
 62
     1
 10
734.833341
 20
-409.842047
 30
0.0
 40
4.201072
 50
48.132326
 51
67.879127
  0
ARC
  8
0
  6
BYLAYER
 62
     1
 10
735.531922
 20
-408.123445
 30
0.0
 40
2.345914
 50
67.879127
 51
88.377262
  0
ARC
  8
0
  6
BYLAYER
 62
     1
 10
735.597203
 20
-406.863774
 30
0.0
 40
1.085303
 50
89.939203
 51
120.000280
  0
ARC
  8
0
  6
BYLAYER
 62
     1
 10
735.597209
 20
-406.863811
 30
0.0
 40
1.085338
 50
119.999581
 51
150.060665
  0
ARC
  8
0
  6
BYLAYER
 62
     1
 10
736.720761
 20
-407.437112
 30
0.0
 40
2.345953
 50
151.622685
 51
172.121105
  0
ARC
  8
0
  6
BYLAYER
 62
     1
 10
738.558407
 20
-407.691417
 30
0.0
 40
4.201112
 50
172.121105
 51
191.867946
  0
ARC
  8
0
  6
BYLAYER
 62
     1
 10
747.417462
 20
-405.829697
 30
0.0
 40
13.253673
 50
191.867946
 51
210.000442
  0
LINE
  8
0
  6
BYLAYER
 62
     1
 10
735.939496
 20
-412.456622
 30
0.0
 11
735.939503
 21
-412.456635
 31
0.0
  0
LINE
  8
0
  6
BYLAYER
 62
     1
 10
735.939496
 20
-412.456622
 30
0.0
 11
754.344647
 21
-444.335284
 31
0.0
  0
LINE
  8
0
  6
BYLAYER
 62
     1
 10
754.344699
 20
-444.335269
 30
0.0
 11
754.344708
 21
-444.335284
 31
0.0
  0
ARC
  8
0
  6
BYLAYER
 62
     1
 10
765.822856
 20
-437.708387
 30
0.0
 40
13.253816
 50
209.999946
 51
228.132326
  0
ARC
  8
0
  6
BYLAYER
 62
     1
 10
759.780941
 20
-444.449859
 30
0.0
 40
4.201072
 50
228.132326
 51
247.879127
  0
ARC
  8
0
  6
BYLAYER
 62
     1
 10
759.082359
 20
-446.168461
 30
0.0
 40
2.345914
 50
247.879127
 51
268.377262
  0
ARC
  8
0
  6
BYLAYER
 62
     1
 10
759.017079
 20
-447.428132
 30
0.0
 40
1.085303
 50
269.939203
 51
300.000280
  0
ARC
  8
0
  6
BYLAYER
 62
     1
 10
759.017073
 20
-447.428095
 30
0.0
 40
1.085338
 50
299.999581
 51
330.060651
  0
ARC
  8
0
  6
BYLAYER
 62
     1
 10
757.893522
 20
-446.854794
 30
0.0
 40
2.345952
 50
331.622672
 51
352.121088
  0
ARC
  8
0
  6
BYLAYER
 62
     1
 10
756.055879
 20
-446.600489
 30
0.0
 40
4.201108
 50
352.121088
 51
371.867923
  0
ARC
  8
0
  6
BYLAYER
 62
     1
 10
747.196833
 20
-448.462204
 30
0.0
 40
13.253659
 50
11.867923
 51
30.000375
  0
ARC
  8
0
  6
BYLAYER
 62
     1
 10
688.639933
 20
-488.196277
 30
0.0
 40
1.085325
 50
180.000000
 51
210.060829
  0
ARC
  8
0
  6
BYLAYER
 62
     1
 10
689.698213
 20
-487.509899
 30
0.0
 40
2.345951
 50
211.622725
 51
232.120771
  0
ARC
  8
0
  6
BYLAYER
 62
     1
 10
690.837278
 20
-486.045611
 30
0.0
 40
4.201108
 50
232.120771
 51
251.867507
  0
ARC
  8
0
  6
BYLAYER
 62
     1
 10
693.654584
 20
-477.442577
 30
0.0
 40
13.253699
 50
251.867507
 51
270.000000
  0
ARC
  8
0
  6
BYLAYER
 62
     1
 10
693.654584
 20
-498.949976
 30
0.0
 40
13.253699
 50
90.0
 51
108.132493
  0
ARC
  8
0
  6
BYLAYER
 62
     1
 10
690.837278
 20
-490.346942
 30
0.0
 40
4.201108
 50
108.132493
 51
127.879229
  0
ARC
  8
0
  6
BYLAYER
 62
     1
 10
689.698213
 20
-488.882654
 30
0.0
 40
2.345951
 50
127.879229
 51
148.377275
  0
ARC
  8
0
  6
BYLAYER
 62
     1
 10
688.639933
 20
-488.196277
 30
0.0
 40
1.085325
 50
149.939171
 51
180.000000
  0
ARC
  8
0
  6
BYLAYER
 62
     1
 10
782.554608
 20
-488.196246
 30
0.0
 40
44.500000
 50
58.641991
 51
121.358009
  0
LINE
  8
0
  6
BYLAYER
 62
     2
 10
850.482953
 20
-432.430072
 30
0.0
 11
847.912762
 21
-422.838000
 31
0.0
  0
LINE
  8
0
  6
BYLAYER
 62
     2
 10
847.912762
 20
-422.838000
 30
0.0
 11
838.320721
 21
-420.267810
 31
0.0
  0
LINE
  8
0
  6
BYLAYER
 62
     2
 10
838.320721
 20
-420.267810
 30
0.0
 11
831.298749
 21
-427.289691
 31
0.0
  0
LINE
  8
0
  6
BYLAYER
 62
     2
 10
831.298749
 20
-427.289691
 30
0.0
 11
833.868939
 21
-436.881793
 31
0.0
  0
LINE
  8
0
  6
BYLAYER
 62
     2
 10
833.868939
 20
-436.881793
 30
0.0
 11
843.460980
 21
-439.451983
 31
0.0
  0
LINE
  8
0
  6
BYLAYER
 62
     2
 10
843.460980
 20
-439.451983
 30
0.0
 11
850.482953
 21
-432.430072
 31
0.0
  0
LINE
  8
0
  6
BYLAYER
 62
     2
 10
850.482953
 20
-543.962359
 30
0.0
 11
847.912762
 21
-553.554461
 31
0.0
  0
LINE
  8
0
  6
BYLAYER
 62
     2
 10
847.912762
 20
-553.554461
 30
0.0
 11
838.554600
 21
-556.061924
 31
0.0
  0
LINE
  8
0
  6
BYLAYER
 62
     2
 10
838.554600
 20
-538.255175
 30
0.0
 11
843.460980
 21
-536.940509
 31
0.0
  0
LINE
  8
0
  6
BYLAYER
 62
     2
 10
843.460980
 20
-536.940509
 30
0.0
 11
850.482953
 21
-543.962359
 31
0.0
  0
LINE
  8
0
  6
BYLAYER
 62
     2
 10
714.626385
 20
-543.962359
 30
0.0
 11
717.196576
 21
-553.554461
 31
0.0
  0
LINE
  8
0
  6
BYLAYER
 62
     2
 10
717.196576
 20
-553.554461
 30
0.0
 11
726.554608
 21
-556.061889
 31
0.0
  0
LINE
  8
0
  6
BYLAYER
 62
     2
 10
726.554608
 20
-538.255156
 30
0.0
 11
721.648236
 21
-536.940509
 31
0.0
  0
LINE
  8
0
  6
BYLAYER
 62
     2
 10
721.648236
 20
-536.940509
 30
0.0
 11
714.626385
 21
-543.962359
 31
0.0
  0
LINE
  8
0
  6
BYLAYER
 62
     2
 10
714.626385
 20
-432.430072
 30
0.0
 11
717.196576
 21
-422.838000
 31
0.0
  0
LINE
  8
0
  6
BYLAYER
 62
     2
 10
717.196576
 20
-422.838000
 30
0.0
 11
726.788617
 21
-420.267810
 31
0.0
  0
LINE
  8
0
  6
BYLAYER
 62
     2
 10
726.788617
 20
-420.267810
 30
0.0
 11
733.810589
 21
-427.289691
 31
0.0
  0
LINE
  8
0
  6
BYLAYER
 62
     2
 10
733.810589
 20
-427.289691
 30
0.0
 11
731.240399
 21
-436.881793
 31
0.0
  0
LINE
  8
0
  6
BYLAYER
 62
     2
 10
731.240399
 20
-436.881793
 30
0.0
 11
721.648236
 21
-439.451983
 31
0.0
  0
LINE
  8
0
  6
BYLAYER
 62
     2
 10
721.648236
 20
-439.451983
 30
0.0
 11
714.626385
 21
-432.430072
 31
0.0
  0
LINE
  8
0
  6
BYLAYER
 62
     1
 10
268.449872
 20
-431.673480
 30
0.0
 11
277.554608
 21
-431.196258
 31
0.0
  0
LINE
  8
0
  6
BYLAYER
 62
     1
 10
277.554608
 20
-531.196246
 30
0.0
 11
277.554608
 21
-448.696307
 31
0.0
  0
ARC
  8
0
  6
BYLAYER
 62
     1
 10
264.554608
 20
-467.752765
 30
0.0
 40
2.000000
 50
334.999966
 51
360.000000
  0
LINE
  8
0
  6
BYLAYER
 62
     1
 10
256.554608
 20
-486.696185
 30
0.0
 11
256.653760
 21
-486.696185
 31
0.0
  0
ARC
  8
0
  6
BYLAYER
 62
     1
 10
256.653760
 20
-484.696185
 30
0.0
 40
2.000000
 50
270.0
 51
334.999850
  0
LINE
  8
0
  6
BYLAYER
 62
     1
 10
266.367108
 20
-468.598285
 30
0.0
 11
258.466382
 21
-485.541430
 31
0.0
  0
LINE
  8
0
  6
BYLAYER
 62
     1
 10
258.879376
 20
-484.655749
 30
0.0
 11
266.554608
 21
-448.800616
 31
0.0
  0
LINE
  8
0
  6
BYLAYER
 62
     1
 10
266.554608
 20
-531.196246
 30
0.0
 11
266.554608
 21
-433.670794
 31
0.0
  0
LINE
  8
0
  6
BYLAYER
 62
     1
 10
256.554608
 20
-486.696185
 30
0.0
 11
256.554608
 21
-531.196246
 31
0.0
  0
LINE
  8
0
  6
BYLAYER
 62
     1
 10
277.554608
 20
-631.196234
 30
0.0
 11
277.554608
 21
-613.696185
 31
0.0
  0
LINE
  8
0
  6
BYLAYER
 62
     1
 10
256.554608
 20
-575.696307
 30
0.0
 11
256.653760
 21
-575.696307
 31
0.0
  0
ARC
  8
0
  6
BYLAYER
 62
     1
 10
256.653760
 20
-577.696307
 30
0.0
 40
2.0
 50
25.000150
 51
90.000000
  0
ARC
  8
0
  6
BYLAYER
 62
     1
 10
264.554608
 20
-594.639727
 30
0.0
 40
2.000000
 50
0.0
 51
25.000034
  0
LINE
  8
0
  6
BYLAYER
 62
     1
 10
258.879376
 20
-577.736743
 30
0.0
 11
266.554608
 21
-613.591876
 31
0.0
  0
LINE
  8
0
  6
BYLAYER
 62
     1
 10
266.367108
 20
-593.794207
 30
0.0
 11
258.466382
 21
-576.851062
 31
0.0
  0
ARC
  8
0
  6
BYLAYER
 62
     1
 10
268.554608
 20
-628.721698
 30
0.0
 40
2.000059
 50
180.000000
 51
266.999958
  0
LINE
  8
0
  6
BYLAYER
 62
     1
 10
268.449872
 20
-630.719012
 30
0.0
 11
277.554608
 21
-631.196234
 31
0.0
  0
LINE
  8
0
  6
BYLAYER
 62
     1
 10
277.554608
 20
-531.196246
 30
0.0
 11
277.554608
 21
-613.696185
 31
0.0
  0
LINE
  8
0
  6
BYLAYER
 62
     1
 10
266.554608
 20
-531.196246
 30
0.0
 11
266.554608
 21
-628.721698
 31
0.0
  0
LINE
  8
0
  6
BYLAYER
 62
     1
 10
256.554608
 20
-575.696307
 30
0.0
 11
256.554608
 21
-531.196246
 31
0.0
  0
ARC
  8
0
  6
BYLAYER
 62
     1
 10
268.554608
 20
-433.670794
 30
0.0
 40
2.000059
 50
93.000064
 51
180.000022
  0
LINE
  8
0
  6
BYLAYER
 62
     1
 10
277.554608
 20
-431.196258
 30
0.0
 11
277.554608
 21
-448.696307
 31
0.0
  0
ENDSEC
  0
EOF
