  0
SECTION
  2
HEADER
  9
$EXTMIN
 10
111.098976
 20
626.0
 30
0.0
  9
$EXTMAX
 10
873.836177
 20
0.0
 30
0.0
  0
ENDSEC
  0
SECTION
  2
TABLES
  0
ENDSEC
  0
SECTION
  2
BLOCKS
  0
ENDSEC
  0
SECTION
  2
ENTITIES
  0
LINE
  8
0
  6
BYLAYER
 62
     7
 10
396.308843
 20
-122.886650
 30
0.0
 11
321.108831
 21
-122.886650
 31
0.0
  0
LINE
  8
0
  6
BYLAYER
 62
     7
 10
396.308843
 20
-124.486656
 30
0.0
 11
321.108831
 21
-124.486656
 31
0.0
  0
ARC
  8
0
  6
BYLAYER
 62
     7
 10
325.108831
 20
-78.886650
 30
0.0
 40
0.799927
 50
90.0
 51
270.000012
  0
ARC
  8
0
  6
BYLAYER
 62
     7
 10
321.108831
 20
-123.686638
 30
0.0
 40
0.800018
 50
90.0
 51
270.000012
  0
ARC
  8
0
  6
BYLAYER
 62
     7
 10
325.108831
 20
-123.686638
 30
0.0
 40
0.800018
 50
90.0
 51
270.000012
  0
ARC
  8
0
  6
BYLAYER
 62
     7
 10
321.108831
 20
-112.486656
 30
0.0
 40
0.799988
 50
90.0
 51
270.000012
  0
ARC
  8
0
  6
BYLAYER
 62
     7
 10
325.108831
 20
-112.486656
 30
0.0
 40
0.799988
 50
90.0
 51
270.000012
  0
ARC
  8
0
  6
BYLAYER
 62
     7
 10
321.108831
 20
-101.286675
 30
0.0
 40
0.799927
 50
90.0
 51
270.000012
  0
ARC
  8
0
  6
BYLAYER
 62
     7
 10
325.108831
 20
-101.286675
 30
0.0
 40
0.799927
 50
90.0
 51
270.000012
  0
LINE
  8
0
  6
BYLAYER
 62
     7
 10
396.308843
 20
-100.486626
 30
0.0
 11
321.108831
 21
-100.486626
 31
0.0
  0
LINE
  8
0
  6
BYLAYER
 62
     7
 10
396.308843
 20
-102.086601
 30
0.0
 11
321.108831
 21
-102.086601
 31
0.0
  0
ARC
  8
0
  6
BYLAYER
 62
     7
 10
321.108831
 20
-90.086601
 30
0.0
 40
0.800049
 50
90.0
 51
270.000012
  0
ARC
  8
0
  6
BYLAYER
 62
     7
 10
325.108831
 20
-90.086601
 30
0.0
 40
0.800049
 50
90.0
 51
270.000012
  0
LINE
  8
0
  6
BYLAYER
 62
     7
 10
396.308843
 20
-89.286675
 30
0.0
 11
321.108831
 21
-89.286675
 31
0.0
  0
LINE
  8
0
  6
BYLAYER
 62
     7
 10
396.308843
 20
-90.886650
 30
0.0
 11
321.108831
 21
-90.886650
 31
0.0
  0
ARC
  8
0
  6
BYLAYER
 62
     7
 10
321.108831
 20
-78.886650
 30
0.0
 40
0.799927
 50
90.0
 51
270.000012
  0
LINE
  8
0
  6
BYLAYER
 62
     7
 10
396.308843
 20
-78.086601
 30
0.0
 11
321.108831
 21
-78.086601
 31
0.0
  0
LINE
  8
0
  6
BYLAYER
 62
     7
 10
396.308843
 20
-79.686577
 30
0.0
 11
321.108831
 21
-79.686577
 31
0.0
  0
LINE
  8
0
  6
BYLAYER
 62
     7
 10
418.308904
 20
-33.286644
 30
0.0
 11
418.308904
 21
-78.086601
 31
0.0
  0
LINE
  8
0
  6
BYLAYER
 62
     7
 10
320.308843
 20
-56.536675
 30
0.0
 11
316.808843
 21
-56.536675
 31
0.0
  0
ARC
  8
0
  6
BYLAYER
 62
     7
 10
349.808843
 20
-47.286644
 30
0.0
 40
13.000000
 50
180.000019
 51
360.000018
  0
ARC
  8
0
  6
BYLAYER
 62
     7
 10
388.808843
 20
-47.286644
 30
0.0
 40
12.999985
 50
180.000019
 51
360.000018
  0
LINE
  8
0
  6
BYLAYER
 62
     7
 10
325.808843
 20
-79.686577
 30
0.0
 11
325.808843
 21
-89.286675
 31
0.0
  0
LINE
  8
0
  6
BYLAYER
 62
     7
 10
325.808843
 20
-90.886650
 30
0.0
 11
325.808843
 21
-100.486626
 31
0.0
  0
LINE
  8
0
  6
BYLAYER
 62
     7
 10
325.808843
 20
-102.086601
 30
0.0
 11
325.808843
 21
-111.686638
 31
0.0
  0
LINE
  8
0
  6
BYLAYER
 62
     7
 10
325.808843
 20
-113.286644
 30
0.0
 11
325.808843
 21
-122.886650
 31
0.0
  0
LINE
  8
0
  6
BYLAYER
 62
     7
 10
325.808843
 20
-124.486656
 30
0.0
 11
325.808904
 21
-134.086632
 31
0.0
  0
LINE
  8
0
  6
BYLAYER
 62
     7
 10
320.308843
 20
-38.786644
 30
0.0
 11
334.808843
 21
-38.786644
 31
0.0
  0
LINE
  8
0
  6
BYLAYER
 62
     7
 10
336.808843
 20
-47.286644
 30
0.0
 11
336.808843
 21
-40.786644
 31
0.0
  0
ARC
  8
0
  6
BYLAYER
 62
     7
 10
334.808843
 20
-40.786644
 30
0.0
 40
2.0
 50
0.0
 51
90.000003
  0
LINE
  8
0
  6
BYLAYER
 62
     7
 10
362.808843
 20
-47.286644
 30
0.0
 11
362.808843
 21
-40.786644
 31
0.0
  0
ARC
  8
0
  6
BYLAYER
 62
     7
 10
364.808843
 20
-40.786644
 30
0.0
 40
2.0
 50
90.0
 51
180.000003
  0
LINE
  8
0
  6
BYLAYER
 62
     7
 10
364.808843
 20
-38.786644
 30
0.0
 11
373.808843
 21
-38.786644
 31
0.0
  0
LINE
  8
0
  6
BYLAYER
 62
     7
 10
375.808843
 20
-47.286644
 30
0.0
 11
375.808843
 21
-40.786644
 31
0.0
  0
ARC
  8
0
  6
BYLAYER
 62
     7
 10
373.808843
 20
-40.786644
 30
0.0
 40
2.0
 50
0.0
 51
90.000003
  0
LINE
  8
0
  6
BYLAYER
 62
     7
 10
401.808843
 20
-47.286644
 30
0.0
 11
401.808843
 21
-40.786644
 31
0.0
  0
LINE
  8
0
  6
BYLAYER
 62
     7
 10
403.808904
 20
-38.786644
 30
0.0
 11
418.308904
 21
-38.786644
 31
0.0
  0
ARC
  8
0
  6
BYLAYER
 62
     7
 10
403.808904
 20
-40.786644
 30
0.0
 40
2.000061
 50
90.0
 51
180.000003
  0
LINE
  8
0
  6
BYLAYER
 62
     7
 10
320.308843
 20
-44.786644
 30
0.0
 11
336.808843
 21
-44.786644
 31
0.0
  0
LINE
  8
0
  6
BYLAYER
 62
     7
 10
362.808843
 20
-44.786644
 30
0.0
 11
375.808843
 21
-44.786644
 31
0.0
  0
LINE
  8
0
  6
BYLAYER
 62
     7
 10
401.808843
 20
-44.786644
 30
0.0
 11
418.308904
 21
-44.786644
 31
0.0
  0
LINE
  8
0
  6
BYLAYER
 62
     7
 10
396.308843
 20
-134.086662
 30
0.0
 11
321.108831
 21
-134.086662
 31
0.0
  0
LINE
  8
0
  6
BYLAYER
 62
     7
 10
396.308843
 20
-135.686668
 30
0.0
 11
321.108831
 21
-135.686668
 31
0.0
  0
ARC
  8
0
  6
BYLAYER
 62
     7
 10
321.108831
 20
-134.886650
 30
0.0
 40
0.800018
 50
90.0
 51
270.000012
  0
ARC
  8
0
  6
BYLAYER
 62
     7
 10
325.108831
 20
-134.886650
 30
0.0
 40
0.800018
 50
90.0
 51
270.000012
  0
LINE
  8
0
  6
BYLAYER
 62
     7
 10
396.308843
 20
-145.286644
 30
0.0
 11
321.108831
 21
-145.286644
 31
0.0
  0
LINE
  8
0
  6
BYLAYER
 62
     7
 10
396.308843
 20
-146.886650
 30
0.0
 11
321.108831
 21
-146.886650
 31
0.0
  0
ARC
  8
0
  6
BYLAYER
 62
     7
 10
321.108831
 20
-146.086632
 30
0.0
 40
0.800018
 50
90.0
 51
270.000012
  0
ARC
  8
0
  6
BYLAYER
 62
     7
 10
325.108831
 20
-146.086632
 30
0.0
 40
0.800018
 50
90.0
 51
270.000012
  0
LINE
  8
0
  6
BYLAYER
 62
     7
 10
396.308843
 20
-156.486656
 30
0.0
 11
321.108831
 21
-156.486656
 31
0.0
  0
LINE
  8
0
  6
BYLAYER
 62
     7
 10
396.308843
 20
-158.086662
 30
0.0
 11
321.108831
 21
-158.086662
 31
0.0
  0
ARC
  8
0
  6
BYLAYER
 62
     7
 10
321.108831
 20
-157.286644
 30
0.0
 40
0.800018
 50
90.0
 51
270.000012
  0
ARC
  8
0
  6
BYLAYER
 62
     7
 10
325.108831
 20
-157.286644
 30
0.0
 40
0.800018
 50
90.0
 51
270.000012
  0
LINE
  8
0
  6
BYLAYER
 62
     7
 10
396.308843
 20
-167.686638
 30
0.0
 11
321.108831
 21
-167.686638
 31
0.0
  0
LINE
  8
0
  6
BYLAYER
 62
     7
 10
396.308843
 20
-169.286644
 30
0.0
 11
321.108831
 21
-169.286644
 31
0.0
  0
ARC
  8
0
  6
BYLAYER
 62
     7
 10
321.108831
 20
-168.486626
 30
0.0
 40
0.800018
 50
90.0
 51
270.000012
  0
ARC
  8
0
  6
BYLAYER
 62
     7
 10
325.108831
 20
-168.486626
 30
0.0
 40
0.800018
 50
90.0
 51
270.000012
  0
LINE
  8
0
  6
BYLAYER
 62
     7
 10
396.308843
 20
-178.886650
 30
0.0
 11
321.108831
 21
-178.886650
 31
0.0
  0
ARC
  8
0
  6
BYLAYER
 62
     7
 10
321.108831
 20
-179.686638
 30
0.0
 40
0.800018
 50
90.0
 51
270.000012
  0
ARC
  8
0
  6
BYLAYER
 62
     7
 10
325.108831
 20
-179.686638
 30
0.0
 40
0.800018
 50
90.0
 51
270.000012
  0
LINE
  8
0
  6
BYLAYER
 62
     7
 10
320.308843
 20
-33.286644
 30
0.0
 11
320.308904
 21
-202.036644
 31
0.0
  0
LINE
  8
0
  6
BYLAYER
 62
     7
 10
396.308843
 20
-156.486656
 30
0.0
 11
462.843876
 21
-156.486610
 31
0.0
  0
LINE
  8
0
  6
BYLAYER
 62
     7
 10
396.308843
 20
-158.086662
 30
0.0
 11
462.843876
 21
-158.086616
 31
0.0
  0
LINE
  8
0
  6
BYLAYER
 62
     7
 10
325.808843
 20
-135.686638
 30
0.0
 11
325.808904
 21
-145.286644
 31
0.0
  0
LINE
  8
0
  6
BYLAYER
 62
     7
 10
325.808843
 20
-146.886650
 30
0.0
 11
325.808904
 21
-156.486626
 31
0.0
  0
LINE
  8
0
  6
BYLAYER
 62
     7
 10
325.808843
 20
-158.086662
 30
0.0
 11
325.808904
 21
-167.686638
 31
0.0
  0
LINE
  8
0
  6
BYLAYER
 62
     7
 10
325.808843
 20
-169.286644
 30
0.0
 11
325.808904
 21
-178.886620
 31
0.0
  0
ARC
  8
0
  6
BYLAYER
 62
     7
 10
356.308843
 20
-112.486656
 30
0.0
 40
3.000015
 50
13.212986
 51
166.787045
  0
ARC
  8
0
  6
BYLAYER
 62
     7
 10
411.308904
 20
-112.486626
 30
0.0
 40
3.000015
 50
13.213048
 51
166.786990
  0
ARC
  8
0
  6
BYLAYER
 62
     7
 10
411.308904
 20
-112.486626
 30
0.0
 40
3.000008
 50
193.212979
 51
346.787064
  0
ARC
  8
0
  6
BYLAYER
 62
     7
 10
356.308843
 20
-112.486656
 30
0.0
 40
3.000008
 50
193.212979
 51
346.787064
  0
LINE
  8
0
  6
BYLAYER
 62
     7
 10
408.417547
 20
-111.686607
 30
0.0
 11
383.808843
 21
-111.686638
 31
0.0
  0
LINE
  8
0
  6
BYLAYER
 62
     7
 10
408.417547
 20
-113.286613
 30
0.0
 11
383.808843
 21
-113.286644
 31
0.0
  0
LINE
  8
0
  6
BYLAYER
 62
     7
 10
321.108831
 20
-111.686638
 30
0.0
 11
353.417486
 21
-111.686638
 31
0.0
  0
LINE
  8
0
  6
BYLAYER
 62
     7
 10
321.108831
 20
-113.286644
 30
0.0
 11
353.417486
 21
-113.286644
 31
0.0
  0
LINE
  8
0
  6
BYLAYER
 62
     7
 10
383.808843
 20
-111.686638
 30
0.0
 11
359.200231
 21
-111.686638
 31
0.0
  0
LINE
  8
0
  6
BYLAYER
 62
     7
 10
359.200231
 20
-113.286644
 30
0.0
 11
383.808843
 21
-113.286644
 31
0.0
  0
LINE
  8
0
  6
BYLAYER
 62
     7
 10
325.808904
 20
-182.227867
 30
0.0
 11
320.308904
 21
-185.067436
 31
0.0
  0
LINE
  8
0
  6
BYLAYER
 62
     7
 10
320.308904
 20
-185.067436
 30
0.0
 11
323.810918
 21
-194.000481
 31
0.0
  0
ARC
  8
0
  6
BYLAYER
 62
     7
 10
325.672948
 20
-193.270500
 30
0.0
 40
2.000007
 50
201.406501
 51
270.000001
  0
LINE
  8
0
  6
BYLAYER
 62
     7
 10
320.308904
 20
-202.036675
 30
0.0
 11
316.808904
 21
-202.036675
 31
0.0
  0
LINE
  8
0
  6
BYLAYER
 62
     7
 10
320.308904
 20
-189.736778
 30
0.0
 11
323.902074
 21
-202.678337
 31
0.0
  0
ARC
  8
0
  6
BYLAYER
 62
     7
 10
325.829168
 20
-202.143272
 30
0.0
 40
2.000010
 50
195.517184
 51
270.000001
  0
LINE
  8
0
  6
BYLAYER
 62
     7
 10
320.308904
 20
-195.905571
 30
0.0
 11
323.876592
 21
-207.595940
 31
0.0
  0
ARC
  8
0
  6
BYLAYER
 62
     7
 10
325.789495
 20
-207.012169
 30
0.0
 40
1.999996
 50
196.971318
 51
270.000001
  0
LINE
  8
0
  6
BYLAYER
 62
     7
 10
320.308904
 20
-199.773399
 30
0.0
 11
323.860112
 21
-210.716545
 31
0.0
  0
ARC
  8
0
  6
BYLAYER
 62
     7
 10
325.762456
 20
-210.099205
 30
0.0
 40
2.000005
 50
197.979057
 51
270.000001
  0
ARC
  8
0
  6
BYLAYER
 62
     7
 10
325.198247
 20
-211.600334
 30
0.0
 40
2.000005
 50
197.979057
 51
270.000001
  0
LINE
  8
0
  6
BYLAYER
 62
     7
 10
323.295904
 20
-212.217674
 30
0.0
 11
319.992009
 21
-202.036675
 31
0.0
  0
LINE
  8
0
  6
BYLAYER
 62
     7
 10
418.308904
 20
-57.731560
 30
0.0
 11
462.843876
 21
-57.731560
 31
0.0
  0
LINE
  8
0
  6
BYLAYER
 62
     7
 10
418.308904
 20
-48.274498
 30
0.0
 11
462.843876
 21
-48.274498
 31
0.0
  0
LINE
  8
0
  6
BYLAYER
 62
     7
 10
418.308904
 20
-49.775658
 30
0.0
 11
462.843876
 21
-49.775658
 31
0.0
  0
LINE
  8
0
  6
BYLAYER
 62
     7
 10
316.808904
 20
-202.036675
 30
0.0
 11
316.808843
 21
-56.536673
 31
0.0
  0
LINE
  8
0
  6
BYLAYER
 62
     7
 10
418.308904
 20
-52.862663
 30
0.0
 11
462.843876
 21
-52.862663
 31
0.0
  0
LINE
  8
0
  6
BYLAYER
 62
     7
 10
396.308843
 20
-78.086601
 30
0.0
 11
462.843876
 21
-78.086601
 31
0.0
  0
LINE
  8
0
  6
BYLAYER
 62
     7
 10
396.308843
 20
-79.686577
 30
0.0
 11
462.843876
 21
-79.686577
 31
0.0
  0
LINE
  8
0
  6
BYLAYER
 62
     7
 10
396.308843
 20
-89.286675
 30
0.0
 11
462.843876
 21
-89.286512
 31
0.0
  0
LINE
  8
0
  6
BYLAYER
 62
     7
 10
396.308843
 20
-90.886650
 30
0.0
 11
462.843876
 21
-90.886650
 31
0.0
  0
LINE
  8
0
  6
BYLAYER
 62
     7
 10
396.308843
 20
-100.486626
 30
0.0
 11
462.843876
 21
-100.486626
 31
0.0
  0
LINE
  8
0
  6
BYLAYER
 62
     7
 10
396.308843
 20
-102.086601
 30
0.0
 11
462.843876
 21
-102.086601
 31
0.0
  0
LINE
  8
0
  6
BYLAYER
 62
     7
 10
414.200261
 20
-111.686607
 30
0.0
 11
462.843876
 21
-111.686607
 31
0.0
  0
LINE
  8
0
  6
BYLAYER
 62
     7
 10
414.200261
 20
-113.286613
 30
0.0
 11
462.843876
 21
-113.286613
 31
0.0
  0
LINE
  8
0
  6
BYLAYER
 62
     7
 10
396.308843
 20
-122.886650
 30
0.0
 11
462.843876
 21
-122.886610
 31
0.0
  0
LINE
  8
0
  6
BYLAYER
 62
     7
 10
396.308843
 20
-124.486656
 30
0.0
 11
462.843876
 21
-124.486616
 31
0.0
  0
LINE
  8
0
  6
BYLAYER
 62
     7
 10
396.308843
 20
-134.086662
 30
0.0
 11
462.843876
 21
-134.086622
 31
0.0
  0
LINE
  8
0
  6
BYLAYER
 62
     7
 10
396.308843
 20
-135.686668
 30
0.0
 11
462.843876
 21
-135.686628
 31
0.0
  0
LINE
  8
0
  6
BYLAYER
 62
     7
 10
396.308843
 20
-145.286644
 30
0.0
 11
462.843876
 21
-145.286603
 31
0.0
  0
LINE
  8
0
  6
BYLAYER
 62
     7
 10
396.308843
 20
-146.886650
 30
0.0
 11
462.843876
 21
-146.886610
 31
0.0
  0
LINE
  8
0
  6
BYLAYER
 62
     7
 10
396.308843
 20
-167.686638
 30
0.0
 11
462.843876
 21
-167.686597
 31
0.0
  0
LINE
  8
0
  6
BYLAYER
 62
     7
 10
396.308843
 20
-169.286644
 30
0.0
 11
462.843876
 21
-169.286603
 31
0.0
  0
LINE
  8
0
  6
BYLAYER
 62
     7
 10
396.308843
 20
-178.886650
 30
0.0
 11
462.843876
 21
-178.886610
 31
0.0
  0
LINE
  8
0
  6
BYLAYER
 62
     7
 10
321.108831
 20
-180.486626
 30
0.0
 11
462.843876
 21
-180.486626
 31
0.0
  0
LINE
  8
0
  6
BYLAYER
 62
     7
 10
325.808904
 20
-182.227867
 30
0.0
 11
462.843876
 21
-182.227867
 31
0.0
  0
LINE
  8
0
  6
BYLAYER
 62
     7
 10
325.672948
 20
-195.270500
 30
0.0
 11
462.843876
 21
-195.270500
 31
0.0
  0
LINE
  8
0
  6
BYLAYER
 62
     7
 10
325.829168
 20
-204.143272
 30
0.0
 11
462.843876
 21
-204.143272
 31
0.0
  0
LINE
  8
0
  6
BYLAYER
 62
     7
 10
325.789495
 20
-209.012169
 30
0.0
 11
462.843876
 21
-209.012169
 31
0.0
  0
LINE
  8
0
  6
BYLAYER
 62
     7
 10
325.762456
 20
-212.099205
 30
0.0
 11
462.843876
 21
-212.099205
 31
0.0
  0
LINE
  8
0
  6
BYLAYER
 62
     7
 10
325.198247
 20
-213.600334
 30
0.0
 11
462.843876
 21
-213.600334
 31
0.0
  0
LINE
  8
0
  6
BYLAYER
 62
     7
 10
462.843876
 20
-215.836644
 30
0.0
 11
462.843876
 21
-129.286689
 31
0.0
  0
LINE
  8
0
  6
BYLAYER
 62
     7
 10
552.843876
 20
-129.286689
 30
0.0
 11
552.843876
 21
-201.286644
 31
0.0
  0
LINE
  8
0
  6
BYLAYER
 62
     7
 10
552.843876
 20
-201.286644
 30
0.0
 11
538.293876
 21
-215.836644
 31
0.0
  0
LINE
  8
0
  6
BYLAYER
 62
     7
 10
538.293876
 20
-215.836644
 30
0.0
 11
462.843876
 21
-215.836644
 31
0.0
  0
LINE
  8
0
  6
BYLAYER
 62
     7
 10
462.843876
 20
-42.736734
 30
0.0
 11
462.843876
 21
-129.286689
 31
0.0
  0
LINE
  8
0
  6
BYLAYER
 62
     7
 10
552.843876
 20
-129.286689
 30
0.0
 11
552.843876
 21
-57.286734
 31
0.0
  0
LINE
  8
0
  6
BYLAYER
 62
     7
 10
552.843876
 20
-57.286734
 30
0.0
 11
538.293876
 21
-42.736734
 31
0.0
  0
LINE
  8
0
  6
BYLAYER
 62
     7
 10
538.293876
 20
-42.736734
 30
0.0
 11
462.843876
 21
-42.736734
 31
0.0
  0
LINE
  8
0
  6
BYLAYER
 62
     7
 10
314.308874
 20
-214.786689
 30
0.0
 11
304.791418
 21
-214.620551
 31
0.0
  0
ARC
  8
0
  6
BYLAYER
 62
     7
 10
304.808874
 20
-213.620704
 30
0.0
 40
1.000007
 50
180.000000
 51
269.000022
  0
LINE
  8
0
  6
BYLAYER
 62
     7
 10
314.308874
 20
-214.786689
 30
0.0
 11
314.308874
 21
-129.286689
 31
0.0
  0
LINE
  8
0
  6
BYLAYER
 62
     7
 10
316.808874
 20
-202.519228
 30
0.0
 11
314.308874
 21
-202.431922
 31
0.0
  0
LINE
  8
0
  6
BYLAYER
 62
     7
 10
303.808874
 20
-213.620704
 30
0.0
 11
303.808874
 21
-129.286689
 31
0.0
  0
ARC
  8
0
  6
BYLAYER
 62
     7
 10
302.808874
 20
-201.107917
 30
0.0
 40
1.000000
 50
0.0
 51
88.000038
  0
LINE
  8
0
  6
BYLAYER
 62
     7
 10
279.808874
 20
-199.304145
 30
0.0
 11
302.843786
 21
-200.108527
 31
0.0
  0
LINE
  8
0
  6
BYLAYER
 62
     7
 10
279.808874
 20
-129.286689
 30
0.0
 11
279.808874
 21
-199.304145
 31
0.0
  0
LINE
  8
0
  6
BYLAYER
 62
     7
 10
316.808874
 20
-202.519228
 30
0.0
 11
316.808874
 21
-129.286689
 31
0.0
  0
LINE
  8
0
  6
BYLAYER
 62
     7
 10
314.308874
 20
-43.786689
 30
0.0
 11
304.791418
 21
-43.952827
 31
0.0
  0
ARC
  8
0
  6
BYLAYER
 62
     7
 10
304.808874
 20
-44.952674
 30
0.0
 40
1.000007
 50
90.999983
 51
180.000005
  0
LINE
  8
0
  6
BYLAYER
 62
     7
 10
314.308874
 20
-43.786689
 30
0.0
 11
314.308874
 21
-129.286689
 31
0.0
  0
LINE
  8
0
  6
BYLAYER
 62
     7
 10
316.808874
 20
-56.054150
 30
0.0
 11
314.308874
 21
-56.141456
 31
0.0
  0
LINE
  8
0
  6
BYLAYER
 62
     7
 10
303.808874
 20
-44.952674
 30
0.0
 11
303.808874
 21
-129.286689
 31
0.0
  0
ARC
  8
0
  6
BYLAYER
 62
     7
 10
302.808874
 20
-57.465461
 30
0.0
 40
1.0
 50
271.999962
 51
360.0
  0
LINE
  8
0
  6
BYLAYER
 62
     7
 10
279.808874
 20
-59.269233
 30
0.0
 11
302.843786
 21
-58.464851
 31
0.0
  0
LINE
  8
0
  6
BYLAYER
 62
     7
 10
279.808874
 20
-129.286689
 30
0.0
 11
279.808874
 21
-59.269233
 31
0.0
  0
LINE
  8
0
  6
BYLAYER
 62
     7
 10
316.808874
 20
-56.054150
 30
0.0
 11
316.808874
 21
-129.286689
 31
0.0
  0
LINE
  8
0
  6
BYLAYER
 62
     7
 10
412.808843
 20
-22.786644
 30
0.0
 11
412.808843
 21
-1.286644
 31
0.0
  0
ARC
  8
0
  6
BYLAYER
 62
     7
 10
414.308843
 20
-22.786644
 30
0.0
 40
1.500000
 50
180.000000
 51
270.000000
  0
ARC
  8
0
  6
BYLAYER
 62
     7
 10
411.308843
 20
-1.286644
 30
0.0
 40
1.500000
 50
0.0
 51
90.0
  0
LINE
  8
0
  6
BYLAYER
 62
     7
 10
325.808843
 20
-22.786644
 30
0.0
 11
325.808843
 21
-1.286644
 31
0.0
  0
ARC
  8
0
  6
BYLAYER
 62
     7
 10
324.308843
 20
-22.786644
 30
0.0
 40
1.500000
 50
270.0
 51
360.0
  0
ARC
  8
0
  6
BYLAYER
 62
     7
 10
327.308843
 20
-1.286644
 30
0.0
 40
1.5
 50
90.0
 51
180.0
  0
LINE
  8
0
  6
BYLAYER
 62
     7
 10
327.308843
 20
0.213356
 30
0.0
 11
411.308843
 21
0.213356
 31
0.0
  0
LINE
  8
0
  6
BYLAYER
 62
     7
 10
331.181084
 20
-22.786644
 30
0.0
 11
331.181084
 21
-1.286644
 31
0.0
  0
ARC
  8
0
  6
BYLAYER
 62
     7
 10
329.681084
 20
-22.786644
 30
0.0
 40
1.5
 50
270.0
 51
360.0
  0
ARC
  8
0
  6
BYLAYER
 62
     7
 10
332.681084
 20
-1.286644
 30
0.0
 40
1.500000
 50
90.0
 51
180.0
  0
LINE
  8
0
  6
BYLAYER
 62
     7
 10
407.436603
 20
-22.786644
 30
0.0
 11
407.436603
 21
-1.286644
 31
0.0
  0
ARC
  8
0
  6
BYLAYER
 62
     7
 10
408.936603
 20
-22.786644
 30
0.0
 40
1.500000
 50
180.000000
 51
270.000000
  0
ARC
  8
0
  6
BYLAYER
 62
     7
 10
405.936603
 20
-1.286644
 30
0.0
 40
1.500000
 50
0.0
 51
90.0
  0
LINE
  8
0
  6
BYLAYER
 62
     7
 10
369.308843
 20
-24.286644
 30
0.0
 11
416.808843
 21
-24.286644
 31
0.0
  0
ARC
  8
0
  6
BYLAYER
 62
     7
 10
416.808843
 20
-25.786644
 30
0.0
 40
1.5
 50
0.0
 51
90.0
  0
LINE
  8
0
  6
BYLAYER
 62
     7
 10
418.308843
 20
-33.286644
 30
0.0
 11
418.308843
 21
-25.786644
 31
0.0
  0
LINE
  8
0
  6
BYLAYER
 62
     7
 10
321.808843
 20
-24.286644
 30
0.0
 11
369.308843
 21
-24.286644
 31
0.0
  0
ARC
  8
0
  6
BYLAYER
 62
     7
 10
321.808843
 20
-25.786644
 30
0.0
 40
1.500000
 50
90.0
 51
180.0
  0
LINE
  8
0
  6
BYLAYER
 62
     7
 10
320.308843
 20
-31.286644
 30
0.0
 11
320.308843
 21
-25.786644
 31
0.0
  0
LINE
  8
0
  6
BYLAYER
 62
     7
 10
418.308843
 20
-31.286644
 30
0.0
 11
320.308843
 21
-31.286644
 31
0.0
  0
LINE
  8
0
  6
BYLAYER
 62
     7
 10
320.308843
 20
-31.286644
 30
0.0
 11
320.308843
 21
-33.286644
 31
0.0
  0
LINE
  8
0
  6
BYLAYER
 62
     7
 10
320.308843
 20
-33.286644
 30
0.0
 11
418.308843
 21
-33.286644
 31
0.0
  0
LINE
  8
0
  6
BYLAYER
 62
     7
 10
538.293876
 20
-215.836644
 30
0.0
 11
538.293876
 21
-42.736734
 31
0.0
  0
LINE
  8
0
  6
BYLAYER
 62
     7
 10
396.308843
 20
-581.886650
 30
0.0
 11
321.108831
 21
-581.886650
 31
0.0
  0
ARC
  8
0
  6
BYLAYER
 62
     7
 10
321.108831
 20
-582.686638
 30
0.0
 40
0.800018
 50
90.0
 51
270.000012
  0
ARC
  8
0
  6
BYLAYER
 62
     7
 10
325.108831
 20
-582.686638
 30
0.0
 40
0.800018
 50
90.0
 51
270.000012
  0
LINE
  8
0
  6
BYLAYER
 62
     7
 10
320.308878
 20
-532.286689
 30
0.0
 11
320.308904
 21
-605.036644
 31
0.0
  0
LINE
  8
0
  6
BYLAYER
 62
     7
 10
418.308878
 20
-559.486641
 30
0.0
 11
462.843876
 21
-559.486610
 31
0.0
  0
LINE
  8
0
  6
BYLAYER
 62
     7
 10
418.308878
 20
-561.086647
 30
0.0
 11
462.843876
 21
-561.086616
 31
0.0
  0
LINE
  8
0
  6
BYLAYER
 62
     7
 10
325.808904
 20
-585.227867
 30
0.0
 11
320.308904
 21
-588.067436
 31
0.0
  0
LINE
  8
0
  6
BYLAYER
 62
     7
 10
320.308904
 20
-588.067436
 30
0.0
 11
323.810918
 21
-597.000481
 31
0.0
  0
ARC
  8
0
  6
BYLAYER
 62
     7
 10
325.672948
 20
-596.270500
 30
0.0
 40
2.000007
 50
201.406501
 51
270.000001
  0
LINE
  8
0
  6
BYLAYER
 62
     7
 10
320.308904
 20
-605.036675
 30
0.0
 11
316.808904
 21
-605.036675
 31
0.0
  0
LINE
  8
0
  6
BYLAYER
 62
     7
 10
320.308904
 20
-592.736778
 30
0.0
 11
323.902074
 21
-605.678337
 31
0.0
  0
ARC
  8
0
  6
BYLAYER
 62
     7
 10
325.829168
 20
-605.143272
 30
0.0
 40
2.000010
 50
195.517184
 51
270.000001
  0
LINE
  8
0
  6
BYLAYER
 62
     7
 10
320.308904
 20
-598.905571
 30
0.0
 11
323.876592
 21
-610.595940
 31
0.0
  0
ARC
  8
0
  6
BYLAYER
 62
     7
 10
325.789495
 20
-610.012169
 30
0.0
 40
1.999996
 50
196.971318
 51
270.000001
  0
LINE
  8
0
  6
BYLAYER
 62
     7
 10
320.308904
 20
-602.773399
 30
0.0
 11
323.860112
 21
-613.716545
 31
0.0
  0
ARC
  8
0
  6
BYLAYER
 62
     7
 10
325.762456
 20
-613.099205
 30
0.0
 40
2.000005
 50
197.979057
 51
270.000001
  0
ARC
  8
0
  6
BYLAYER
 62
     7
 10
325.198247
 20
-614.600334
 30
0.0
 40
2.000005
 50
197.979057
 51
270.000001
  0
LINE
  8
0
  6
BYLAYER
 62
     7
 10
323.295904
 20
-615.217674
 30
0.0
 11
319.992009
 21
-605.036675
 31
0.0
  0
LINE
  8
0
  6
BYLAYER
 62
     7
 10
316.808904
 20
-605.036675
 30
0.0
 11
316.808874
 21
-532.286689
 31
0.0
  0
LINE
  8
0
  6
BYLAYER
 62
     7
 10
418.308878
 20
-537.086649
 30
0.0
 11
462.843876
 21
-537.086622
 31
0.0
  0
LINE
  8
0
  6
BYLAYER
 62
     7
 10
418.308878
 20
-538.686655
 30
0.0
 11
462.843876
 21
-538.686628
 31
0.0
  0
LINE
  8
0
  6
BYLAYER
 62
     7
 10
418.308878
 20
-548.286631
 30
0.0
 11
462.843876
 21
-548.286603
 31
0.0
  0
LINE
  8
0
  6
BYLAYER
 62
     7
 10
418.308878
 20
-549.886637
 30
0.0
 11
462.843876
 21
-549.886610
 31
0.0
  0
LINE
  8
0
  6
BYLAYER
 62
     7
 10
418.308878
 20
-570.686625
 30
0.0
 11
462.843876
 21
-570.686597
 31
0.0
  0
LINE
  8
0
  6
BYLAYER
 62
     7
 10
418.308878
 20
-572.286631
 30
0.0
 11
462.843876
 21
-572.286603
 31
0.0
  0
LINE
  8
0
  6
BYLAYER
 62
     7
 10
396.308843
 20
-581.886650
 30
0.0
 11
462.843876
 21
-581.886610
 31
0.0
  0
LINE
  8
0
  6
BYLAYER
 62
     7
 10
321.108831
 20
-583.486626
 30
0.0
 11
462.843876
 21
-583.486626
 31
0.0
  0
LINE
  8
0
  6
BYLAYER
 62
     7
 10
325.808904
 20
-585.227867
 30
0.0
 11
462.843876
 21
-585.227867
 31
0.0
  0
LINE
  8
0
  6
BYLAYER
 62
     7
 10
325.672948
 20
-598.270500
 30
0.0
 11
462.843876
 21
-598.270500
 31
0.0
  0
LINE
  8
0
  6
BYLAYER
 62
     7
 10
325.829168
 20
-607.143272
 30
0.0
 11
462.843876
 21
-607.143272
 31
0.0
  0
LINE
  8
0
  6
BYLAYER
 62
     7
 10
325.789495
 20
-612.012169
 30
0.0
 11
462.843876
 21
-612.012169
 31
0.0
  0
LINE
  8
0
  6
BYLAYER
 62
     7
 10
325.762456
 20
-615.099205
 30
0.0
 11
462.843876
 21
-615.099205
 31
0.0
  0
LINE
  8
0
  6
BYLAYER
 62
     7
 10
325.198247
 20
-616.600334
 30
0.0
 11
462.843876
 21
-616.600334
 31
0.0
  0
LINE
  8
0
  6
BYLAYER
 62
     7
 10
462.843876
 20
-618.836644
 30
0.0
 11
462.843876
 21
-532.286689
 31
0.0
  0
LINE
  8
0
  6
BYLAYER
 62
     7
 10
552.843876
 20
-532.286689
 30
0.0
 11
552.843876
 21
-604.286644
 31
0.0
  0
LINE
  8
0
  6
BYLAYER
 62
     7
 10
552.843876
 20
-604.286644
 30
0.0
 11
538.293876
 21
-618.836644
 31
0.0
  0
LINE
  8
0
  6
BYLAYER
 62
     7
 10
538.293876
 20
-618.836644
 30
0.0
 11
462.843876
 21
-618.836644
 31
0.0
  0
LINE
  8
0
  6
BYLAYER
 62
     7
 10
333.157347
 20
-575.786689
 30
0.0
 11
369.308878
 21
-575.786689
 31
0.0
  0
ARC
  8
0
  6
BYLAYER
 62
     7
 10
333.157347
 20
-574.286689
 30
0.0
 40
1.500000
 50
191.536959
 51
270.000000
  0
LINE
  8
0
  6
BYLAYER
 62
     7
 10
325.808878
 20
-532.286689
 30
0.0
 11
325.808878
 21
-568.438220
 31
0.0
  0
LINE
  8
0
  6
BYLAYER
 62
     7
 10
369.308878
 20
-575.786689
 30
0.0
 11
405.460409
 21
-575.786689
 31
0.0
  0
LINE
  8
0
  6
BYLAYER
 62
     7
 10
412.808878
 20
-568.438220
 30
0.0
 11
412.808878
 21
-532.286689
 31
0.0
  0
LINE
  8
0
  6
BYLAYER
 62
     7
 10
339.913577
 20
-544.887795
 30
0.0
 11
325.808878
 21
-545.380342
 31
0.0
  0
ARC
  8
0
  6
BYLAYER
 62
     7
 10
339.808878
 20
-541.889623
 30
0.0
 40
3.000000
 50
272.000000
 51
360.000000
  0
LINE
  8
0
  6
BYLAYER
 62
     7
 10
339.913577
 20
-559.887795
 30
0.0
 11
325.808878
 21
-560.380342
 31
0.0
  0
ARC
  8
0
  6
BYLAYER
 62
     7
 10
339.808878
 20
-556.889623
 30
0.0
 40
3.000000
 50
272.000000
 51
360.000000
  0
LINE
  8
0
  6
BYLAYER
 62
     7
 10
325.808878
 20
-549.193036
 30
0.0
 11
339.913577
 21
-549.685583
 31
0.0
  0
ARC
  8
0
  6
BYLAYER
 62
     7
 10
339.808878
 20
-552.683755
 30
0.0
 40
3.000000
 50
0.0
 51
88.0
  0
LINE
  8
0
  6
BYLAYER
 62
     7
 10
325.808878
 20
-534.193036
 30
0.0
 11
339.913577
 21
-534.685583
 31
0.0
  0
ARC
  8
0
  6
BYLAYER
 62
     7
 10
339.808878
 20
-537.683755
 30
0.0
 40
3.000000
 50
0.0
 51
88.0
  0
LINE
  8
0
  6
BYLAYER
 62
     7
 10
342.808878
 20
-552.683755
 30
0.0
 11
342.808878
 21
-556.889623
 31
0.0
  0
LINE
  8
0
  6
BYLAYER
 62
     7
 10
342.808878
 20
-537.683755
 30
0.0
 11
342.808878
 21
-541.889623
 31
0.0
  0
LINE
  8
0
  6
BYLAYER
 62
     7
 10
326.808878
 20
-534.227957
 30
0.0
 11
326.808878
 21
-545.345421
 31
0.0
  0
LINE
  8
0
  6
BYLAYER
 62
     7
 10
326.808878
 20
-549.227957
 30
0.0
 11
326.808878
 21
-560.345421
 31
0.0
  0
LINE
  8
0
  6
BYLAYER
 62
     7
 10
398.704180
 20
-544.887795
 30
0.0
 11
412.808878
 21
-545.380342
 31
0.0
  0
ARC
  8
0
  6
BYLAYER
 62
     7
 10
398.808878
 20
-541.889623
 30
0.0
 40
3.0
 50
180.000000
 51
268.000000
  0
LINE
  8
0
  6
BYLAYER
 62
     7
 10
398.704180
 20
-559.887795
 30
0.0
 11
412.808878
 21
-560.380342
 31
0.0
  0
ARC
  8
0
  6
BYLAYER
 62
     7
 10
398.808878
 20
-556.889623
 30
0.0
 40
3.0
 50
180.000000
 51
268.000000
  0
LINE
  8
0
  6
BYLAYER
 62
     7
 10
412.808878
 20
-549.193036
 30
0.0
 11
398.704180
 21
-549.685583
 31
0.0
  0
ARC
  8
0
  6
BYLAYER
 62
     7
 10
398.808878
 20
-552.683755
 30
0.0
 40
3.0
 50
92.000000
 51
180.000000
  0
LINE
  8
0
  6
BYLAYER
 62
     7
 10
412.808878
 20
-534.193036
 30
0.0
 11
398.704180
 21
-534.685583
 31
0.0
  0
ARC
  8
0
  6
BYLAYER
 62
     7
 10
398.808878
 20
-537.683755
 30
0.0
 40
3.0
 50
92.000000
 51
180.000000
  0
LINE
  8
0
  6
BYLAYER
 62
     7
 10
395.808878
 20
-552.683755
 30
0.0
 11
395.808878
 21
-556.889623
 31
0.0
  0
LINE
  8
0
  6
BYLAYER
 62
     7
 10
395.808878
 20
-537.683755
 30
0.0
 11
395.808878
 21
-541.889623
 31
0.0
  0
LINE
  8
0
  6
BYLAYER
 62
     7
 10
411.808878
 20
-534.227957
 30
0.0
 11
411.808878
 21
-545.345421
 31
0.0
  0
LINE
  8
0
  6
BYLAYER
 62
     7
 10
411.808878
 20
-549.227957
 30
0.0
 11
411.808878
 21
-560.345421
 31
0.0
  0
LINE
  8
0
  6
BYLAYER
 62
     7
 10
356.308878
 20
-562.286689
 30
0.0
 11
382.308878
 21
-562.286689
 31
0.0
  0
ARC
  8
0
  6
BYLAYER
 62
     7
 10
382.308878
 20
-559.286689
 30
0.0
 40
3.0
 50
270.0
 51
360.0
  0
ARC
  8
0
  6
BYLAYER
 62
     7
 10
356.308878
 20
-559.286689
 30
0.0
 40
3.0
 50
180.000000
 51
270.000000
  0
LINE
  8
0
  6
BYLAYER
 62
     7
 10
353.308878
 20
-532.286689
 30
0.0
 11
353.308878
 21
-559.286689
 31
0.0
  0
LINE
  8
0
  6
BYLAYER
 62
     7
 10
385.308878
 20
-559.286689
 30
0.0
 11
385.308878
 21
-532.286689
 31
0.0
  0
ARC
  8
0
  6
BYLAYER
 62
     7
 10
325.808878
 20
-575.786689
 30
0.0
 40
6.0
 50
11.536959
 51
78.463041
  0
ARC
  8
0
  6
BYLAYER
 62
     7
 10
327.308878
 20
-568.438220
 30
0.0
 40
1.5
 50
180.000000
 51
258.463041
  0
ARC
  8
0
  6
BYLAYER
 62
     7
 10
412.808878
 20
-575.786689
 30
0.0
 40
6.0
 50
101.536959
 51
168.463041
  0
ARC
  8
0
  6
BYLAYER
 62
     7
 10
411.308878
 20
-568.438220
 30
0.0
 40
1.5
 50
281.536959
 51
360.0
  0
ARC
  8
0
  6
BYLAYER
 62
     7
 10
405.460409
 20
-574.286689
 30
0.0
 40
1.5
 50
270.0
 51
348.463041
  0
LINE
  8
0
  6
BYLAYER
 62
     7
 10
320.308878
 20
-532.286689
 30
0.0
 11
320.308878
 21
-579.786689
 31
0.0
  0
LINE
  8
0
  6
BYLAYER
 62
     7
 10
321.808878
 20
-581.286689
 30
0.0
 11
416.808878
 21
-581.286689
 31
0.0
  0
ARC
  8
0
  6
BYLAYER
 62
     7
 10
321.808878
 20
-579.786689
 30
0.0
 40
1.5
 50
180.000000
 51
270.000000
  0
LINE
  8
0
  6
BYLAYER
 62
     7
 10
418.308878
 20
-579.786689
 30
0.0
 11
418.308878
 21
-532.286689
 31
0.0
  0
ARC
  8
0
  6
BYLAYER
 62
     7
 10
416.808878
 20
-579.786689
 30
0.0
 40
1.500000
 50
270.0
 51
360.0
  0
LINE
  8
0
  6
BYLAYER
 62
     7
 10
396.308843
 20
-482.686728
 30
0.0
 11
321.108831
 21
-482.686728
 31
0.0
  0
ARC
  8
0
  6
BYLAYER
 62
     7
 10
321.108831
 20
-481.886740
 30
0.0
 40
0.800018
 50
90.0
 51
270.000012
  0
ARC
  8
0
  6
BYLAYER
 62
     7
 10
325.108831
 20
-481.886740
 30
0.0
 40
0.800018
 50
90.0
 51
270.000012
  0
LINE
  8
0
  6
BYLAYER
 62
     7
 10
320.308878
 20
-532.286689
 30
0.0
 11
320.308904
 21
-459.536734
 31
0.0
  0
LINE
  8
0
  6
BYLAYER
 62
     7
 10
418.308878
 20
-505.086737
 30
0.0
 11
462.843876
 21
-505.086768
 31
0.0
  0
LINE
  8
0
  6
BYLAYER
 62
     7
 10
418.308878
 20
-503.486731
 30
0.0
 11
462.843876
 21
-503.486762
 31
0.0
  0
LINE
  8
0
  6
BYLAYER
 62
     7
 10
325.808904
 20
-479.345511
 30
0.0
 11
320.308904
 21
-476.505942
 31
0.0
  0
LINE
  8
0
  6
BYLAYER
 62
     7
 10
320.308904
 20
-476.505942
 30
0.0
 11
323.810918
 21
-467.572897
 31
0.0
  0
ARC
  8
0
  6
BYLAYER
 62
     7
 10
325.672948
 20
-468.302878
 30
0.0
 40
2.000007
 50
90.0
 51
158.593500
  0
LINE
  8
0
  6
BYLAYER
 62
     7
 10
320.308904
 20
-459.536703
 30
0.0
 11
316.808904
 21
-459.536703
 31
0.0
  0
LINE
  8
0
  6
BYLAYER
 62
     7
 10
320.308904
 20
-471.836600
 30
0.0
 11
323.902074
 21
-458.895041
 31
0.0
  0
ARC
  8
0
  6
BYLAYER
 62
     7
 10
325.829168
 20
-459.430106
 30
0.0
 40
2.000010
 50
90.0
 51
164.482817
  0
LINE
  8
0
  6
BYLAYER
 62
     7
 10
320.308904
 20
-465.667807
 30
0.0
 11
323.876592
 21
-453.977438
 31
0.0
  0
ARC
  8
0
  6
BYLAYER
 62
     7
 10
325.789495
 20
-454.561209
 30
0.0
 40
1.999996
 50
90.0
 51
163.028683
  0
LINE
  8
0
  6
BYLAYER
 62
     7
 10
320.308904
 20
-461.799979
 30
0.0
 11
323.860112
 21
-450.856833
 31
0.0
  0
ARC
  8
0
  6
BYLAYER
 62
     7
 10
325.762456
 20
-451.474173
 30
0.0
 40
2.000005
 50
90.0
 51
162.020944
  0
ARC
  8
0
  6
BYLAYER
 62
     7
 10
325.198247
 20
-449.973044
 30
0.0
 40
2.000005
 50
90.0
 51
162.020944
  0
LINE
  8
0
  6
BYLAYER
 62
     7
 10
323.295904
 20
-449.355704
 30
0.0
 11
319.992009
 21
-459.536703
 31
0.0
  0
LINE
  8
0
  6
BYLAYER
 62
     7
 10
316.808904
 20
-459.536703
 30
0.0
 11
316.808874
 21
-532.286689
 31
0.0
  0
LINE
  8
0
  6
BYLAYER
 62
     7
 10
418.308878
 20
-527.486729
 30
0.0
 11
462.843876
 21
-527.486756
 31
0.0
  0
LINE
  8
0
  6
BYLAYER
 62
     7
 10
418.308878
 20
-525.886723
 30
0.0
 11
462.843876
 21
-525.886750
 31
0.0
  0
LINE
  8
0
  6
BYLAYER
 62
     7
 10
418.308878
 20
-516.286747
 30
0.0
 11
462.843876
 21
-516.286775
 31
0.0
  0
LINE
  8
0
  6
BYLAYER
 62
     7
 10
418.308878
 20
-514.686741
 30
0.0
 11
462.843876
 21
-514.686768
 31
0.0
  0
LINE
  8
0
  6
BYLAYER
 62
     7
 10
418.308878
 20
-493.886753
 30
0.0
 11
462.843876
 21
-493.886781
 31
0.0
  0
LINE
  8
0
  6
BYLAYER
 62
     7
 10
418.308878
 20
-492.286747
 30
0.0
 11
462.843876
 21
-492.286775
 31
0.0
  0
LINE
  8
0
  6
BYLAYER
 62
     7
 10
396.308843
 20
-482.686728
 30
0.0
 11
462.843876
 21
-482.686768
 31
0.0
  0
LINE
  8
0
  6
BYLAYER
 62
     7
 10
321.108831
 20
-481.086752
 30
0.0
 11
462.843876
 21
-481.086752
 31
0.0
  0
LINE
  8
0
  6
BYLAYER
 62
     7
 10
325.808904
 20
-479.345511
 30
0.0
 11
462.843876
 21
-479.345511
 31
0.0
  0
LINE
  8
0
  6
BYLAYER
 62
     7
 10
325.672948
 20
-466.302878
 30
0.0
 11
462.843876
 21
-466.302878
 31
0.0
  0
LINE
  8
0
  6
BYLAYER
 62
     7
 10
325.829168
 20
-457.430106
 30
0.0
 11
462.843876
 21
-457.430106
 31
0.0
  0
LINE
  8
0
  6
BYLAYER
 62
     7
 10
325.789495
 20
-452.561209
 30
0.0
 11
462.843876
 21
-452.561209
 31
0.0
  0
LINE
  8
0
  6
BYLAYER
 62
     7
 10
325.762456
 20
-449.474173
 30
0.0
 11
462.843876
 21
-449.474173
 31
0.0
  0
LINE
  8
0
  6
BYLAYER
 62
     7
 10
325.198247
 20
-447.973044
 30
0.0
 11
462.843876
 21
-447.973044
 31
0.0
  0
LINE
  8
0
  6
BYLAYER
 62
     7
 10
462.843876
 20
-445.736734
 30
0.0
 11
462.843876
 21
-532.286689
 31
0.0
  0
LINE
  8
0
  6
BYLAYER
 62
     7
 10
552.843876
 20
-532.286689
 30
0.0
 11
552.843876
 21
-460.286734
 31
0.0
  0
LINE
  8
0
  6
BYLAYER
 62
     7
 10
552.843876
 20
-460.286734
 30
0.0
 11
538.293876
 21
-445.736734
 31
0.0
  0
LINE
  8
0
  6
BYLAYER
 62
     7
 10
538.293876
 20
-445.736734
 30
0.0
 11
462.843876
 21
-445.736734
 31
0.0
  0
LINE
  8
0
  6
BYLAYER
 62
     7
 10
333.157347
 20
-488.786689
 30
0.0
 11
369.308878
 21
-488.786689
 31
0.0
  0
ARC
  8
0
  6
BYLAYER
 62
     7
 10
333.157347
 20
-490.286689
 30
0.0
 40
1.500000
 50
90.0
 51
168.463041
  0
LINE
  8
0
  6
BYLAYER
 62
     7
 10
325.808878
 20
-532.286689
 30
0.0
 11
325.808878
 21
-496.135158
 31
0.0
  0
LINE
  8
0
  6
BYLAYER
 62
     7
 10
369.308878
 20
-488.786689
 30
0.0
 11
405.460409
 21
-488.786689
 31
0.0
  0
LINE
  8
0
  6
BYLAYER
 62
     7
 10
412.808878
 20
-496.135158
 30
0.0
 11
412.808878
 21
-532.286689
 31
0.0
  0
LINE
  8
0
  6
BYLAYER
 62
     7
 10
339.913577
 20
-519.685583
 30
0.0
 11
325.808878
 21
-519.193036
 31
0.0
  0
ARC
  8
0
  6
BYLAYER
 62
     7
 10
339.808878
 20
-522.683755
 30
0.0
 40
3.000000
 50
0.0
 51
88.0
  0
LINE
  8
0
  6
BYLAYER
 62
     7
 10
339.913577
 20
-504.685583
 30
0.0
 11
325.808878
 21
-504.193036
 31
0.0
  0
ARC
  8
0
  6
BYLAYER
 62
     7
 10
339.808878
 20
-507.683755
 30
0.0
 40
3.000000
 50
0.0
 51
88.0
  0
LINE
  8
0
  6
BYLAYER
 62
     7
 10
325.808878
 20
-515.380342
 30
0.0
 11
339.913577
 21
-514.887795
 31
0.0
  0
ARC
  8
0
  6
BYLAYER
 62
     7
 10
339.808878
 20
-511.889623
 30
0.0
 40
3.000000
 50
272.000000
 51
360.000000
  0
LINE
  8
0
  6
BYLAYER
 62
     7
 10
325.808878
 20
-530.380342
 30
0.0
 11
339.913577
 21
-529.887795
 31
0.0
  0
ARC
  8
0
  6
BYLAYER
 62
     7
 10
339.808878
 20
-526.889623
 30
0.0
 40
3.000000
 50
272.000000
 51
360.000000
  0
LINE
  8
0
  6
BYLAYER
 62
     7
 10
342.808878
 20
-511.889623
 30
0.0
 11
342.808878
 21
-507.683755
 31
0.0
  0
LINE
  8
0
  6
BYLAYER
 62
     7
 10
342.808878
 20
-526.889623
 30
0.0
 11
342.808878
 21
-522.683755
 31
0.0
  0
LINE
  8
0
  6
BYLAYER
 62
     7
 10
326.808878
 20
-530.345421
 30
0.0
 11
326.808878
 21
-519.227957
 31
0.0
  0
LINE
  8
0
  6
BYLAYER
 62
     7
 10
326.808878
 20
-515.345421
 30
0.0
 11
326.808878
 21
-504.227957
 31
0.0
  0
LINE
  8
0
  6
BYLAYER
 62
     7
 10
398.704180
 20
-519.685583
 30
0.0
 11
412.808878
 21
-519.193036
 31
0.0
  0
ARC
  8
0
  6
BYLAYER
 62
     7
 10
398.808878
 20
-522.683755
 30
0.0
 40
3.0
 50
92.000000
 51
180.000000
  0
LINE
  8
0
  6
BYLAYER
 62
     7
 10
398.704180
 20
-504.685583
 30
0.0
 11
412.808878
 21
-504.193036
 31
0.0
  0
ARC
  8
0
  6
BYLAYER
 62
     7
 10
398.808878
 20
-507.683755
 30
0.0
 40
3.000000
 50
92.000000
 51
180.000000
  0
LINE
  8
0
  6
BYLAYER
 62
     7
 10
412.808878
 20
-515.380342
 30
0.0
 11
398.704180
 21
-514.887795
 31
0.0
  0
ARC
  8
0
  6
BYLAYER
 62
     7
 10
398.808878
 20
-511.889623
 30
0.0
 40
3.0
 50
180.000000
 51
268.000000
  0
LINE
  8
0
  6
BYLAYER
 62
     7
 10
412.808878
 20
-530.380342
 30
0.0
 11
398.704180
 21
-529.887795
 31
0.0
  0
ARC
  8
0
  6
BYLAYER
 62
     7
 10
398.808878
 20
-526.889623
 30
0.0
 40
3.0
 50
180.000000
 51
268.000000
  0
LINE
  8
0
  6
BYLAYER
 62
     7
 10
395.808878
 20
-511.889623
 30
0.0
 11
395.808878
 21
-507.683755
 31
0.0
  0
LINE
  8
0
  6
BYLAYER
 62
     7
 10
395.808878
 20
-526.889623
 30
0.0
 11
395.808878
 21
-522.683755
 31
0.0
  0
LINE
  8
0
  6
BYLAYER
 62
     7
 10
411.808878
 20
-530.345421
 30
0.0
 11
411.808878
 21
-519.227957
 31
0.0
  0
LINE
  8
0
  6
BYLAYER
 62
     7
 10
411.808878
 20
-515.345421
 30
0.0
 11
411.808878
 21
-504.227957
 31
0.0
  0
LINE
  8
0
  6
BYLAYER
 62
     7
 10
356.308878
 20
-502.286689
 30
0.0
 11
382.308878
 21
-502.286689
 31
0.0
  0
ARC
  8
0
  6
BYLAYER
 62
     7
 10
382.308878
 20
-505.286689
 30
0.0
 40
3.0
 50
0.0
 51
90.0
  0
ARC
  8
0
  6
BYLAYER
 62
     7
 10
356.308878
 20
-505.286689
 30
0.0
 40
3.0
 50
90.0
 51
180.0
  0
LINE
  8
0
  6
BYLAYER
 62
     7
 10
353.308878
 20
-532.286689
 30
0.0
 11
353.308878
 21
-505.286689
 31
0.0
  0
LINE
  8
0
  6
BYLAYER
 62
     7
 10
385.308878
 20
-505.286689
 30
0.0
 11
385.308878
 21
-532.286689
 31
0.0
  0
ARC
  8
0
  6
BYLAYER
 62
     7
 10
325.808878
 20
-488.786689
 30
0.0
 40
6.0
 50
281.536959
 51
348.463041
  0
ARC
  8
0
  6
BYLAYER
 62
     7
 10
327.308878
 20
-496.135158
 30
0.0
 40
1.5
 50
101.536959
 51
180.000000
  0
ARC
  8
0
  6
BYLAYER
 62
     7
 10
412.808878
 20
-488.786689
 30
0.0
 40
6.0
 50
191.536959
 51
258.463041
  0
ARC
  8
0
  6
BYLAYER
 62
     7
 10
411.308878
 20
-496.135158
 30
0.0
 40
1.500000
 50
0.0
 51
78.463041
  0
ARC
  8
0
  6
BYLAYER
 62
     7
 10
405.460409
 20
-490.286689
 30
0.0
 40
1.5
 50
11.536959
 51
90.000000
  0
LINE
  8
0
  6
BYLAYER
 62
     7
 10
320.308878
 20
-532.286689
 30
0.0
 11
320.308878
 21
-484.786689
 31
0.0
  0
LINE
  8
0
  6
BYLAYER
 62
     7
 10
321.808878
 20
-483.286689
 30
0.0
 11
416.808878
 21
-483.286689
 31
0.0
  0
ARC
  8
0
  6
BYLAYER
 62
     7
 10
321.808878
 20
-484.786689
 30
0.0
 40
1.5
 50
90.0
 51
180.0
  0
LINE
  8
0
  6
BYLAYER
 62
     7
 10
418.308878
 20
-484.786689
 30
0.0
 11
418.308878
 21
-532.286689
 31
0.0
  0
ARC
  8
0
  6
BYLAYER
 62
     7
 10
416.808878
 20
-484.786689
 30
0.0
 40
1.5
 50
0.0
 51
90.0
  0
LINE
  8
0
  6
BYLAYER
 62
     7
 10
314.308874
 20
-617.786689
 30
0.0
 11
304.791418
 21
-617.620551
 31
0.0
  0
ARC
  8
0
  6
BYLAYER
 62
     7
 10
304.808874
 20
-616.620704
 30
0.0
 40
1.000007
 50
180.000000
 51
269.000022
  0
LINE
  8
0
  6
BYLAYER
 62
     7
 10
314.308874
 20
-617.786689
 30
0.0
 11
314.308874
 21
-532.286689
 31
0.0
  0
LINE
  8
0
  6
BYLAYER
 62
     7
 10
316.808874
 20
-605.519228
 30
0.0
 11
314.308874
 21
-605.431922
 31
0.0
  0
LINE
  8
0
  6
BYLAYER
 62
     7
 10
303.808874
 20
-616.620704
 30
0.0
 11
303.808874
 21
-532.286689
 31
0.0
  0
ARC
  8
0
  6
BYLAYER
 62
     7
 10
302.808874
 20
-604.107917
 30
0.0
 40
1.0
 50
0.0
 51
88.000038
  0
LINE
  8
0
  6
BYLAYER
 62
     7
 10
279.808874
 20
-602.304145
 30
0.0
 11
302.843786
 21
-603.108527
 31
0.0
  0
LINE
  8
0
  6
BYLAYER
 62
     7
 10
279.808874
 20
-532.286689
 30
0.0
 11
279.808874
 21
-602.304145
 31
0.0
  0
LINE
  8
0
  6
BYLAYER
 62
     7
 10
316.808874
 20
-605.519228
 30
0.0
 11
316.808874
 21
-532.286689
 31
0.0
  0
LINE
  8
0
  6
BYLAYER
 62
     7
 10
314.308874
 20
-446.786689
 30
0.0
 11
304.791418
 21
-446.952827
 31
0.0
  0
ARC
  8
0
  6
BYLAYER
 62
     7
 10
304.808874
 20
-447.952674
 30
0.0
 40
1.000007
 50
90.999983
 51
180.000005
  0
LINE
  8
0
  6
BYLAYER
 62
     7
 10
314.308874
 20
-446.786689
 30
0.0
 11
314.308874
 21
-532.286689
 31
0.0
  0
LINE
  8
0
  6
BYLAYER
 62
     7
 10
316.808874
 20
-459.054150
 30
0.0
 11
314.308874
 21
-459.141456
 31
0.0
  0
LINE
  8
0
  6
BYLAYER
 62
     7
 10
303.808874
 20
-447.952674
 30
0.0
 11
303.808874
 21
-532.286689
 31
0.0
  0
ARC
  8
0
  6
BYLAYER
 62
     7
 10
302.808874
 20
-460.465461
 30
0.0
 40
1.0
 50
271.999962
 51
360.0
  0
LINE
  8
0
  6
BYLAYER
 62
     7
 10
279.808874
 20
-462.269233
 30
0.0
 11
302.843786
 21
-461.464851
 31
0.0
  0
LINE
  8
0
  6
BYLAYER
 62
     7
 10
279.808874
 20
-532.286689
 30
0.0
 11
279.808874
 21
-462.269233
 31
0.0
  0
LINE
  8
0
  6
BYLAYER
 62
     7
 10
316.808874
 20
-459.054150
 30
0.0
 11
316.808874
 21
-532.286689
 31
0.0
  0
LINE
  8
0
  6
BYLAYER
 62
     7
 10
538.293876
 20
-445.736734
 30
0.0
 11
538.293876
 21
-618.836644
 31
0.0
  0
ARC
  8
0
  6
BYLAYER
 62
     1
 10
184.808874
 20
-192.286689
 30
0.0
 40
68.000000
 50
244.344062
 51
295.655933
  0
ARC
  8
0
  6
BYLAYER
 62
     1
 10
184.808874
 20
-192.286689
 30
0.0
 40
68.000000
 50
64.344063
 51
115.655935
  0
ARC
  8
0
  6
BYLAYER
 62
     1
 10
213.510176
 20
-122.995734
 30
0.0
 40
26.999977
 50
214.712939
 51
280.286921
  0
ARC
  8
0
  6
BYLAYER
 62
     1
 10
213.510115
 20
-261.577705
 30
0.0
 40
27.000053
 50
79.712932
 51
145.286921
  0
CIRCLE
  8
0
  6
BYLAYER
 62
     1
 10
184.808874
 20
-192.286689
 30
0.0
 40
32.5
  0
CIRCLE
  8
0
  6
BYLAYER
 62
     1
 10
184.808874
 20
-192.286689
 30
0.0
 40
40.0
  0
LINE
  8
0
  6
BYLAYER
 62
     1
 10
217.808882
 20
-91.286758
 30
0.0
 11
151.808874
 21
-91.286758
 31
0.0
  0
LINE
  8
0
  6
BYLAYER
 62
     1
 10
121.808874
 20
-98.286697
 30
0.0
 11
247.808882
 21
-98.286697
 31
0.0
  0
ARC
  8
0
  6
BYLAYER
 62
     1
 10
184.808874
 20
-192.286689
 30
0.0
 40
69.000053
 50
248.368928
 51
291.631073
  0
LINE
  8
0
  6
BYLAYER
 62
     1
 10
217.808882
 20
-263.286689
 30
0.0
 11
151.808874
 21
-263.286689
 31
0.0
  0
CIRCLE
  8
0
  6
BYLAYER
 62
     1
 10
137.308874
 20
-192.286689
 30
0.0
 40
3.5
  0
ARC
  8
0
  6
BYLAYER
 62
     1
 10
137.308874
 20
-192.286689
 30
0.0
 40
4.0
 50
270.0
 51
540.0
  0
ARC
  8
0
  6
BYLAYER
 62
     1
 10
184.808874
 20
-192.286689
 30
0.0
 40
68.0
 50
154.344066
 51
205.655937
  0
ARC
  8
0
  6
BYLAYER
 62
     1
 10
184.808874
 20
-192.286689
 30
0.0
 40
55.000004
 50
174.735596
 51
185.264401
  0
ARC
  8
0
  6
BYLAYER
 62
     1
 10
184.808874
 20
-192.286689
 30
0.0
 40
69.000053
 50
158.368960
 51
201.631037
  0
LINE
  8
0
  6
BYLAYER
 62
     1
 10
113.808874
 20
-225.286689
 30
0.0
 11
113.808874
 21
-161.286689
 31
0.0
  0
LINE
  8
0
  6
BYLAYER
 62
     1
 10
124.798162
 20
-222.794288
 30
0.0
 11
139.517156
 21
-226.738227
 31
0.0
  0
LINE
  8
0
  6
BYLAYER
 62
     1
 10
150.808874
 20
-264.286689
 30
0.0
 11
114.808874
 21
-264.286689
 31
0.0
  0
LINE
  8
0
  6
BYLAYER
 62
     1
 10
121.101766
 20
-255.993812
 30
0.0
 11
128.101766
 21
-248.993781
 31
0.0
  0
LINE
  8
0
  6
BYLAYER
 62
     1
 10
121.808874
 20
-256.286689
 30
0.0
 11
158.636221
 21
-256.286689
 31
0.0
  0
LINE
  8
0
  6
BYLAYER
 62
     1
 10
112.808874
 20
-262.286689
 30
0.0
 11
112.808874
 21
-226.286689
 31
0.0
  0
LINE
  8
0
  6
BYLAYER
 62
     1
 10
120.808874
 20
-255.286689
 30
0.0
 11
120.808874
 21
-226.286689
 31
0.0
  0
LINE
  8
0
  6
BYLAYER
 62
     1
 10
114.808874
 20
-264.286689
 30
0.0
 11
112.808874
 21
-262.286689
 31
0.0
  0
ARC
  8
0
  6
BYLAYER
 62
     1
 10
121.808874
 20
-255.286689
 30
0.0
 40
1.0
 50
180.000000
 51
269.999996
  0
LINE
  8
0
  6
BYLAYER
 62
     1
 10
120.808874
 20
-218.459327
 30
0.0
 11
120.808874
 21
-226.286689
 31
0.0
  0
LINE
  8
0
  6
BYLAYER
 62
     1
 10
120.808874
 20
-246.536689
 30
0.0
 11
112.808874
 21
-246.536689
 31
0.0
  0
LINE
  8
0
  6
BYLAYER
 62
     1
 10
120.808874
 20
-238.036689
 30
0.0
 11
112.808874
 21
-238.036689
 31
0.0
  0
LINE
  8
0
  6
BYLAYER
 62
     1
 10
120.808874
 20
-225.286689
 30
0.0
 11
113.808874
 21
-225.286689
 31
0.0
  0
LINE
  8
0
  6
BYLAYER
 62
     1
 10
120.808874
 20
-226.286689
 30
0.0
 11
112.808874
 21
-226.286689
 31
0.0
  0
LINE
  8
0
  6
BYLAYER
 62
     1
 10
113.808874
 20
-225.286689
 30
0.0
 11
112.808874
 21
-226.286689
 31
0.0
  0
ARC
  8
0
  6
BYLAYER
 62
     1
 10
118.808874
 20
-218.459327
 30
0.0
 40
2.000006
 50
0.0
 51
21.631513
  0
ARC
  8
0
  6
BYLAYER
 62
     1
 10
125.315801
 20
-220.862434
 30
0.0
 40
2.000000
 50
205.655930
 51
254.999993
  0
ARC
  8
0
  6
BYLAYER
 62
     1
 10
156.233129
 20
-251.779762
 30
0.0
 40
2.000000
 50
195.000002
 51
244.344065
  0
LINE
  8
0
  6
BYLAYER
 62
     1
 10
130.558874
 20
-264.286689
 30
0.0
 11
130.558874
 21
-256.286689
 31
0.0
  0
LINE
  8
0
  6
BYLAYER
 62
     1
 10
139.058874
 20
-264.286689
 30
0.0
 11
139.058874
 21
-256.286689
 31
0.0
  0
LINE
  8
0
  6
BYLAYER
 62
     1
 10
151.808874
 20
-256.286689
 30
0.0
 11
151.808874
 21
-263.286689
 31
0.0
  0
LINE
  8
0
  6
BYLAYER
 62
     1
 10
150.808874
 20
-264.286689
 30
0.0
 11
150.808874
 21
-256.286689
 31
0.0
  0
LINE
  8
0
  6
BYLAYER
 62
     1
 10
151.808874
 20
-263.286689
 30
0.0
 11
150.808874
 21
-264.286689
 31
0.0
  0
ARC
  8
0
  6
BYLAYER
 62
     1
 10
158.636221
 20
-258.286689
 30
0.0
 40
2.0
 50
68.368968
 51
90.000000
  0
ARC
  8
0
  6
BYLAYER
 62
     1
 10
156.107580
 20
-261.577644
 30
0.0
 40
26.999977
 50
34.712944
 51
100.286927
  0
CIRCLE
  8
0
  6
BYLAYER
 62
     1
 10
151.221228
 20
-225.874274
 30
0.0
 40
3.5
  0
ARC
  8
0
  6
BYLAYER
 62
     1
 10
151.221228
 20
-225.874274
 30
0.0
 40
4.0
 50
270.0
 51
540.0
  0
ARC
  8
0
  6
BYLAYER
 62
     1
 10
115.517858
 20
-220.987922
 30
0.0
 40
26.999992
 50
349.712926
 51
415.286928
  0
LINE
  8
0
  6
BYLAYER
 62
     1
 10
127.808874
 20
-223.601005
 30
0.0
 11
127.808874
 21
-248.286689
 31
0.0
  0
ARC
  8
0
  6
BYLAYER
 62
     1
 10
184.808874
 20
-192.286689
 30
0.0
 40
56.5
 50
218.457822
 51
231.542171
  0
ARC
  8
0
  6
BYLAYER
 62
     1
 10
184.808874
 20
-192.286689
 30
0.0
 40
59.5
 50
214.838327
 51
235.161670
  0
ARC
  8
0
  6
BYLAYER
 62
     1
 10
184.808874
 20
-192.286689
 30
0.0
 40
55.000015
 50
219.735573
 51
230.264392
  0
LINE
  8
0
  6
BYLAYER
 62
     1
 10
153.494558
 20
-249.286689
 30
0.0
 11
128.808874
 21
-249.286689
 31
0.0
  0
ARC
  8
0
  6
BYLAYER
 62
     1
 10
128.808874
 20
-248.286689
 30
0.0
 40
1.000000
 50
180.000000
 51
269.999996
  0
ARC
  8
0
  6
BYLAYER
 62
     1
 10
134.331701
 20
-227.419349
 30
0.0
 40
2.0
 50
34.838329
 51
75.000002
  0
ARC
  8
0
  6
BYLAYER
 62
     1
 10
138.999517
 20
-228.670081
 30
0.0
 40
2.0
 50
38.457824
 51
74.999999
  0
ARC
  8
0
  6
BYLAYER
 62
     1
 10
144.051733
 20
-226.166694
 30
0.0
 40
2.000036
 50
169.713849
 51
219.735682
  0
LINE
  8
0
  6
BYLAYER
 62
     1
 10
154.301275
 20
-252.297401
 30
0.0
 11
150.357336
 21
-237.578437
 31
0.0
  0
LINE
  8
0
  6
BYLAYER
 62
     1
 10
152.970709
 20
-249.286689
 30
0.0
 11
151.876913
 21
-249.286689
 31
0.0
  0
ARC
  8
0
  6
BYLAYER
 62
     1
 10
149.676214
 20
-242.763892
 30
0.0
 40
2.000000
 50
14.999997
 51
55.161670
  0
ARC
  8
0
  6
BYLAYER
 62
     1
 10
148.425482
 20
-238.096076
 30
0.0
 40
2.000000
 50
15.0
 51
51.542175
  0
ARC
  8
0
  6
BYLAYER
 62
     1
 10
150.928869
 20
-233.043830
 30
0.0
 40
1.999976
 50
230.263381
 51
280.286785
  0
ARC
  8
0
  6
BYLAYER
 62
     1
 10
132.032446
 20
-197.149543
 30
0.0
 40
1.999986
 50
185.263390
 51
235.286794
  0
CIRCLE
  8
0
  6
BYLAYER
 62
     1
 10
184.808874
 20
-239.786689
 30
0.0
 40
3.5
  0
ARC
  8
0
  6
BYLAYER
 62
     1
 10
184.808874
 20
-239.786689
 30
0.0
 40
4.0
 50
270.0
 51
540.0
  0
ARC
  8
0
  6
BYLAYER
 62
     1
 10
184.808874
 20
-192.286689
 30
0.0
 40
55.000004
 50
264.735564
 51
275.264437
  0
ARC
  8
0
  6
BYLAYER
 62
     1
 10
179.946020
 20
-245.063117
 30
0.0
 40
2.000036
 50
214.713854
 51
264.735673
  0
ARC
  8
0
  6
BYLAYER
 62
     1
 10
189.671728
 20
-245.063178
 30
0.0
 40
1.999952
 50
275.263399
 51
325.286776
  0
LINE
  8
0
  6
BYLAYER
 62
     1
 10
124.798162
 20
-161.779090
 30
0.0
 11
139.517156
 21
-157.835151
 31
0.0
  0
LINE
  8
0
  6
BYLAYER
 62
     1
 10
150.808874
 20
-90.286697
 30
0.0
 11
114.808874
 21
-90.286697
 31
0.0
  0
LINE
  8
0
  6
BYLAYER
 62
     1
 10
121.808874
 20
-148.286628
 30
0.0
 11
136.308859
 21
-148.286628
 31
0.0
  0
LINE
  8
0
  6
BYLAYER
 62
     1
 10
136.308859
 20
-150.286628
 30
0.0
 11
121.808874
 21
-150.286628
 31
0.0
  0
LINE
  8
0
  6
BYLAYER
 62
     1
 10
121.808874
 20
-140.286628
 30
0.0
 11
148.808859
 21
-140.286628
 31
0.0
  0
LINE
  8
0
  6
BYLAYER
 62
     1
 10
148.808859
 20
-138.286628
 30
0.0
 11
121.808874
 21
-138.286628
 31
0.0
  0
LINE
  8
0
  6
BYLAYER
 62
     1
 10
151.308859
 20
-130.286628
 30
0.0
 11
121.808874
 21
-130.286628
 31
0.0
  0
LINE
  8
0
  6
BYLAYER
 62
     1
 10
121.808874
 20
-128.286628
 30
0.0
 11
151.308859
 21
-128.286628
 31
0.0
  0
LINE
  8
0
  6
BYLAYER
 62
     1
 10
112.808874
 20
-92.286697
 30
0.0
 11
112.808874
 21
-159.974677
 31
0.0
  0
LINE
  8
0
  6
BYLAYER
 62
     1
 10
120.808874
 20
-99.286697
 30
0.0
 11
120.808874
 21
-166.114051
 31
0.0
  0
ARC
  8
0
  6
BYLAYER
 62
     1
 10
121.808874
 20
-137.286628
 30
0.0
 40
1.0
 50
180.000000
 51
269.999996
  0
LINE
  8
0
  6
BYLAYER
 62
     1
 10
113.808874
 20
-129.286689
 30
0.0
 11
113.808874
 21
-161.286689
 31
0.0
  0
ARC
  8
0
  6
BYLAYER
 62
     1
 10
118.808874
 20
-166.114051
 30
0.0
 40
2.000006
 50
338.368473
 51
360.000000
  0
LINE
  8
0
  6
BYLAYER
 62
     1
 10
112.808874
 20
-159.974677
 30
0.0
 11
113.808874
 21
-160.009589
 31
0.0
  0
LINE
  8
0
  6
BYLAYER
 62
     1
 10
120.808874
 20
-159.769355
 30
0.0
 11
120.808874
 21
-162.013435
 31
0.0
  0
ARC
  8
0
  6
BYLAYER
 62
     1
 10
125.315801
 20
-163.710944
 30
0.0
 40
2.0
 50
105.000003
 51
154.344066
  0
ARC
  8
0
  6
BYLAYER
 62
     1
 10
121.808874
 20
-147.286628
 30
0.0
 40
1.0
 50
180.000000
 51
269.999996
  0
ARC
  8
0
  6
BYLAYER
 62
     1
 10
121.808874
 20
-151.286628
 30
0.0
 40
1.0
 50
90.0
 51
180.000003
  0
ARC
  8
0
  6
BYLAYER
 62
     1
 10
121.808874
 20
-141.286628
 30
0.0
 40
1.000000
 50
90.0
 51
180.000003
  0
LINE
  8
0
  6
BYLAYER
 62
     1
 10
120.808874
 20
-129.286689
 30
0.0
 11
113.808874
 21
-129.286689
 31
0.0
  0
LINE
  8
0
  6
BYLAYER
 62
     1
 10
120.808874
 20
-128.286689
 30
0.0
 11
112.808874
 21
-128.286689
 31
0.0
  0
LINE
  8
0
  6
BYLAYER
 62
     1
 10
113.808874
 20
-129.286689
 30
0.0
 11
112.808874
 21
-128.286689
 31
0.0
  0
ARC
  8
0
  6
BYLAYER
 62
     1
 10
121.808874
 20
-131.286628
 30
0.0
 40
1.0
 50
90.0
 51
180.000003
  0
ARC
  8
0
  6
BYLAYER
 62
     1
 10
121.808874
 20
-127.286628
 30
0.0
 40
1.0
 50
180.000000
 51
269.999996
  0
LINE
  8
0
  6
BYLAYER
 62
     1
 10
120.808874
 20
-116.536689
 30
0.0
 11
112.808874
 21
-116.536689
 31
0.0
  0
LINE
  8
0
  6
BYLAYER
 62
     1
 10
120.808874
 20
-108.036689
 30
0.0
 11
112.808874
 21
-108.036689
 31
0.0
  0
ARC
  8
0
  6
BYLAYER
 62
     1
 10
121.808874
 20
-99.286697
 30
0.0
 40
1.0
 50
90.0
 51
180.000003
  0
LINE
  8
0
  6
BYLAYER
 62
     1
 10
114.808874
 20
-90.286697
 30
0.0
 11
112.808874
 21
-92.286697
 31
0.0
  0
LINE
  8
0
  6
BYLAYER
 62
     1
 10
150.357336
 20
-146.994971
 30
0.0
 11
154.301275
 21
-132.275977
 31
0.0
  0
ARC
  8
0
  6
BYLAYER
 62
     1
 10
184.808874
 20
-192.286689
 30
0.0
 40
55.000004
 50
84.735566
 51
95.264432
  0
ARC
  8
0
  6
BYLAYER
 62
     1
 10
189.671728
 20
-139.510261
 30
0.0
 40
2.000036
 50
34.713846
 51
84.735689
  0
ARC
  8
0
  6
BYLAYER
 62
     1
 10
179.946020
 20
-139.510200
 30
0.0
 40
1.999952
 50
95.263360
 51
145.286798
  0
ARC
  8
0
  6
BYLAYER
 62
     1
 10
156.107641
 20
-122.995673
 30
0.0
 40
26.999992
 50
259.712889
 51
325.286912
  0
ARC
  8
0
  6
BYLAYER
 62
     1
 10
115.517919
 20
-163.585395
 30
0.0
 40
26.999977
 50
304.712934
 51
370.286924
  0
ARC
  8
0
  6
BYLAYER
 62
     1
 10
132.032446
 20
-187.423835
 30
0.0
 40
2.000036
 50
124.713845
 51
174.735678
  0
ARC
  8
0
  6
BYLAYER
 62
     1
 10
184.808874
 20
-192.286689
 30
0.0
 40
56.500000
 50
128.457827
 51
141.542176
  0
ARC
  8
0
  6
BYLAYER
 62
     1
 10
184.808874
 20
-192.286689
 30
0.0
 40
59.5
 50
124.838332
 51
145.161674
  0
ARC
  8
0
  6
BYLAYER
 62
     1
 10
184.808874
 20
-192.286689
 30
0.0
 40
55.000015
 50
129.735577
 51
140.264355
  0
ARC
  8
0
  6
BYLAYER
 62
     1
 10
134.331701
 20
-157.154029
 30
0.0
 40
2.000000
 50
285.000001
 51
325.161674
  0
ARC
  8
0
  6
BYLAYER
 62
     1
 10
138.999517
 20
-155.903297
 30
0.0
 40
2.000000
 50
284.999991
 51
321.542165
  0
ARC
  8
0
  6
BYLAYER
 62
     1
 10
144.051733
 20
-158.406684
 30
0.0
 40
1.999976
 50
140.263385
 51
190.286789
  0
ARC
  8
0
  6
BYLAYER
 62
     1
 10
136.308859
 20
-149.286628
 30
0.0
 40
1.0
 50
270.0
 51
450.000005
  0
ARC
  8
0
  6
BYLAYER
 62
     1
 10
151.221228
 20
-158.699104
 30
0.0
 40
4.0
 50
270.0
 51
540.0
  0
CIRCLE
  8
0
  6
BYLAYER
 62
     1
 10
151.221228
 20
-158.699104
 30
0.0
 40
3.5
  0
ARC
  8
0
  6
BYLAYER
 62
     1
 10
148.425482
 20
-146.477332
 30
0.0
 40
2.0
 50
308.457838
 51
345.000013
  0
ARC
  8
0
  6
BYLAYER
 62
     1
 10
150.928869
 20
-151.529548
 30
0.0
 40
2.000036
 50
79.713833
 51
129.735659
  0
ARC
  8
0
  6
BYLAYER
 62
     1
 10
148.808859
 20
-139.286628
 30
0.0
 40
1.0
 50
270.0
 51
450.000005
  0
ARC
  8
0
  6
BYLAYER
 62
     1
 10
149.676214
 20
-141.809516
 30
0.0
 40
2.000000
 50
304.838337
 51
345.000010
  0
ARC
  8
0
  6
BYLAYER
 62
     1
 10
149.676214
 20
-141.809516
 30
0.0
 40
2.0
 50
304.838340
 51
345.000013
  0
CIRCLE
  8
0
  6
BYLAYER
 62
     1
 10
184.808874
 20
-144.786689
 30
0.0
 40
3.5
  0
ARC
  8
0
  6
BYLAYER
 62
     1
 10
184.808874
 20
-144.786689
 30
0.0
 40
4.0
 50
270.0
 51
540.0
  0
ARC
  8
0
  6
BYLAYER
 62
     1
 10
156.233129
 20
-132.793616
 30
0.0
 40
2.0
 50
115.655931
 51
164.999994
  0
ARC
  8
0
  6
BYLAYER
 62
     1
 10
151.308859
 20
-129.286628
 30
0.0
 40
1.0
 50
270.0
 51
450.000005
  0
LINE
  8
0
  6
BYLAYER
 62
     1
 10
139.058874
 20
-98.286697
 30
0.0
 11
139.058874
 21
-90.286697
 31
0.0
  0
LINE
  8
0
  6
BYLAYER
 62
     1
 10
130.558874
 20
-98.286697
 30
0.0
 11
130.558874
 21
-90.286697
 31
0.0
  0
LINE
  8
0
  6
BYLAYER
 62
     1
 10
150.808874
 20
-98.286697
 30
0.0
 11
150.808874
 21
-90.286697
 31
0.0
  0
LINE
  8
0
  6
BYLAYER
 62
     1
 10
151.808874
 20
-98.286697
 30
0.0
 11
151.808874
 21
-91.286697
 31
0.0
  0
LINE
  8
0
  6
BYLAYER
 62
     1
 10
150.808874
 20
-90.286697
 30
0.0
 11
151.808874
 21
-91.286697
 31
0.0
  0
CIRCLE
  8
0
  6
BYLAYER
 62
     1
 10
232.308882
 20
-192.286689
 30
0.0
 40
3.5
  0
ARC
  8
0
  6
BYLAYER
 62
     1
 10
232.308882
 20
-192.286689
 30
0.0
 40
4.0
 50
270.0
 51
540.0
  0
ARC
  8
0
  6
BYLAYER
 62
     1
 10
184.808874
 20
-192.286689
 30
0.0
 40
68.0
 50
334.344071
 51
385.655942
  0
ARC
  8
0
  6
BYLAYER
 62
     1
 10
184.808874
 20
-192.286689
 30
0.0
 40
55.000004
 50
354.735601
 51
365.264402
  0
ARC
  8
0
  6
BYLAYER
 62
     1
 10
184.808874
 20
-192.286689
 30
0.0
 40
69.000038
 50
338.368965
 51
381.631042
  0
LINE
  8
0
  6
BYLAYER
 62
     1
 10
255.808882
 20
-225.286689
 30
0.0
 11
255.808882
 21
-174.286689
 31
0.0
  0
ARC
  8
0
  6
BYLAYER
 62
     1
 10
213.384626
 20
-251.779762
 30
0.0
 40
2.0
 50
295.655950
 51
345.000013
  0
LINE
  8
0
  6
BYLAYER
 62
     1
 10
256.808882
 20
-262.286689
 30
0.0
 11
256.808882
 21
-226.286689
 31
0.0
  0
LINE
  8
0
  6
BYLAYER
 62
     1
 10
248.515974
 20
-255.993812
 30
0.0
 11
241.808882
 21
-249.286689
 31
0.0
  0
LINE
  8
0
  6
BYLAYER
 62
     1
 10
248.808882
 20
-255.286689
 30
0.0
 11
248.808882
 21
-218.459327
 31
0.0
  0
LINE
  8
0
  6
BYLAYER
 62
     1
 10
218.808882
 20
-264.286689
 30
0.0
 11
254.808882
 21
-264.286689
 31
0.0
  0
LINE
  8
0
  6
BYLAYER
 62
     1
 10
210.981520
 20
-256.286689
 30
0.0
 11
247.808882
 21
-256.286689
 31
0.0
  0
ARC
  8
0
  6
BYLAYER
 62
     1
 10
210.981520
 20
-258.286689
 30
0.0
 40
2.000002
 50
90.0
 51
111.631025
  0
LINE
  8
0
  6
BYLAYER
 62
     1
 10
217.808882
 20
-256.286689
 30
0.0
 11
217.808882
 21
-263.286689
 31
0.0
  0
LINE
  8
0
  6
BYLAYER
 62
     1
 10
218.808882
 20
-264.286689
 30
0.0
 11
218.808882
 21
-256.286689
 31
0.0
  0
LINE
  8
0
  6
BYLAYER
 62
     1
 10
217.808882
 20
-263.286689
 30
0.0
 11
218.808882
 21
-264.286689
 31
0.0
  0
LINE
  8
0
  6
BYLAYER
 62
     1
 10
230.558851
 20
-264.286689
 30
0.0
 11
230.558851
 21
-256.286689
 31
0.0
  0
LINE
  8
0
  6
BYLAYER
 62
     1
 10
239.058851
 20
-264.286689
 30
0.0
 11
239.058851
 21
-256.286689
 31
0.0
  0
ARC
  8
0
  6
BYLAYER
 62
     1
 10
247.808882
 20
-255.286689
 30
0.0
 40
1.0
 50
270.0
 51
360.000003
  0
LINE
  8
0
  6
BYLAYER
 62
     1
 10
254.808882
 20
-264.286689
 30
0.0
 11
256.808882
 21
-262.286689
 31
0.0
  0
LINE
  8
0
  6
BYLAYER
 62
     1
 10
244.819593
 20
-222.794288
 30
0.0
 11
230.100599
 21
-226.738227
 31
0.0
  0
CIRCLE
  8
0
  6
BYLAYER
 62
     1
 10
218.396528
 20
-225.874274
 30
0.0
 40
3.5
  0
ARC
  8
0
  6
BYLAYER
 62
     1
 10
218.396528
 20
-225.874274
 30
0.0
 40
4.0
 50
270.0
 51
540.0
  0
ARC
  8
0
  6
BYLAYER
 62
     1
 10
254.099836
 20
-220.987983
 30
0.0
 40
26.999977
 50
124.712957
 51
190.286926
  0
LINE
  8
0
  6
BYLAYER
 62
     1
 10
241.808882
 20
-223.601005
 30
0.0
 11
241.808882
 21
-249.286689
 31
0.0
  0
ARC
  8
0
  6
BYLAYER
 62
     1
 10
184.808874
 20
-192.286689
 30
0.0
 40
56.5
 50
308.457818
 51
321.542167
  0
ARC
  8
0
  6
BYLAYER
 62
     1
 10
184.808874
 20
-192.286689
 30
0.0
 40
59.5
 50
304.838337
 51
325.161679
  0
ARC
  8
0
  6
BYLAYER
 62
     1
 10
184.808874
 20
-192.286689
 30
0.0
 40
55.000015
 50
309.735582
 51
320.264428
  0
LINE
  8
0
  6
BYLAYER
 62
     1
 10
241.808882
 20
-249.286689
 30
0.0
 11
216.123197
 21
-249.286689
 31
0.0
  0
LINE
  8
0
  6
BYLAYER
 62
     1
 10
219.260420
 20
-237.578437
 30
0.0
 11
215.316481
 21
-252.297401
 31
0.0
  0
ARC
  8
0
  6
BYLAYER
 62
     1
 10
219.941542
 20
-242.763892
 30
0.0
 40
2.000000
 50
124.838332
 51
165.000005
  0
ARC
  8
0
  6
BYLAYER
 62
     1
 10
221.192274
 20
-238.096076
 30
0.0
 40
2.0
 50
128.457827
 51
165.000001
  0
ARC
  8
0
  6
BYLAYER
 62
     1
 10
218.688887
 20
-233.043830
 30
0.0
 40
1.999976
 50
259.713845
 51
309.735692
  0
ARC
  8
0
  6
BYLAYER
 62
     1
 10
225.566023
 20
-226.166694
 30
0.0
 40
1.999976
 50
320.263390
 51
370.286794
  0
ARC
  8
0
  6
BYLAYER
 62
     1
 10
230.618238
 20
-228.670081
 30
0.0
 40
2.000000
 50
105.0
 51
141.542174
  0
ARC
  8
0
  6
BYLAYER
 62
     1
 10
235.286054
 20
-227.419349
 30
0.0
 40
2.000000
 50
104.999996
 51
145.161669
  0
ARC
  8
0
  6
BYLAYER
 62
     1
 10
237.585310
 20
-197.149543
 30
0.0
 40
2.000036
 50
304.713863
 51
354.735683
  0
LINE
  8
0
  6
BYLAYER
 62
     1
 10
248.808882
 20
-246.536689
 30
0.0
 11
256.808882
 21
-246.536689
 31
0.0
  0
LINE
  8
0
  6
BYLAYER
 62
     1
 10
248.808882
 20
-238.036689
 30
0.0
 11
256.808882
 21
-238.036689
 31
0.0
  0
LINE
  8
0
  6
BYLAYER
 62
     1
 10
255.808882
 20
-225.286689
 30
0.0
 11
248.808882
 21
-225.286689
 31
0.0
  0
LINE
  8
0
  6
BYLAYER
 62
     1
 10
248.808882
 20
-226.286689
 30
0.0
 11
256.808882
 21
-226.286689
 31
0.0
  0
LINE
  8
0
  6
BYLAYER
 62
     1
 10
255.808882
 20
-225.286689
 30
0.0
 11
256.808882
 21
-226.286689
 31
0.0
  0
ARC
  8
0
  6
BYLAYER
 62
     1
 10
244.301954
 20
-220.862434
 30
0.0
 40
2.000000
 50
285.000008
 51
334.344071
  0
ARC
  8
0
  6
BYLAYER
 62
     1
 10
250.808882
 20
-218.459327
 30
0.0
 40
2.000014
 50
158.368564
 51
180.000005
  0
LINE
  8
0
  6
BYLAYER
 62
     1
 10
215.316481
 20
-132.275977
 30
0.0
 11
219.260420
 21
-146.994971
 31
0.0
  0
LINE
  8
0
  6
BYLAYER
 62
     1
 10
258.808882
 20
-168.762550
 30
0.0
 11
258.808882
 21
-90.786697
 31
0.0
  0
ARC
  8
0
  6
BYLAYER
 62
     1
 10
246.808882
 20
-138.567268
 30
0.0
 40
1.999999
 50
22.218640
 51
87.999276
  0
LINE
  8
0
  6
BYLAYER
 62
     1
 10
248.808882
 20
-99.286697
 30
0.0
 11
248.808882
 21
-166.114051
 31
0.0
  0
ARC
  8
0
  6
BYLAYER
 62
     1
 10
247.808882
 20
-137.286628
 30
0.0
 40
1.0
 50
270.0
 51
359.999982
  0
LINE
  8
0
  6
BYLAYER
 62
     1
 10
255.808882
 20
-129.286689
 30
0.0
 11
255.808882
 21
-174.286689
 31
0.0
  0
LINE
  8
0
  6
BYLAYER
 62
     1
 10
230.100599
 20
-157.835151
 30
0.0
 11
244.819593
 21
-161.779090
 31
0.0
  0
LINE
  8
0
  6
BYLAYER
 62
     1
 10
220.808882
 20
-140.286628
 30
0.0
 11
247.808882
 21
-140.286628
 31
0.0
  0
LINE
  8
0
  6
BYLAYER
 62
     1
 10
247.808882
 20
-138.286628
 30
0.0
 11
220.808882
 21
-138.286628
 31
0.0
  0
LINE
  8
0
  6
BYLAYER
 62
     1
 10
247.808882
 20
-150.286628
 30
0.0
 11
233.308882
 21
-150.286628
 31
0.0
  0
LINE
  8
0
  6
BYLAYER
 62
     1
 10
233.308882
 20
-148.286628
 30
0.0
 11
247.808882
 21
-148.286628
 31
0.0
  0
ARC
  8
0
  6
BYLAYER
 62
     1
 10
254.099836
 20
-163.585456
 30
0.0
 40
26.999933
 50
169.712920
 51
202.499864
  0
ARC
  8
0
  6
BYLAYER
 62
     1
 10
229.170454
 20
-165.462104
 30
0.0
 40
2.000020
 50
184.305374
 51
253.817425
  0
ARC
  8
0
  6
BYLAYER
 62
     1
 10
226.383436
 20
-175.065894
 30
0.0
 40
8.000001
 50
331.182513
 51
433.817252
  0
ARC
  8
0
  6
BYLAYER
 62
     1
 10
254.099836
 20
-163.585456
 30
0.0
 40
26.999926
 50
202.499864
 51
235.287067
  0
ARC
  8
0
  6
BYLAYER
 62
     1
 10
235.145033
 20
-179.886115
 30
0.0
 40
2.000012
 50
151.182317
 51
220.695174
  0
ARC
  8
0
  6
BYLAYER
 62
     1
 10
237.585310
 20
-187.423835
 30
0.0
 40
1.999986
 50
5.263381
 51
55.286813
  0
ARC
  8
0
  6
BYLAYER
 62
     1
 10
184.808874
 20
-192.286689
 30
0.0
 40
56.5
 50
38.457824
 51
51.542173
  0
ARC
  8
0
  6
BYLAYER
 62
     1
 10
184.808874
 20
-192.286689
 30
0.0
 40
59.5
 50
34.838329
 51
55.161672
  0
ARC
  8
0
  6
BYLAYER
 62
     1
 10
184.808874
 20
-192.286689
 30
0.0
 40
55.000015
 50
39.735575
 51
50.264424
  0
CIRCLE
  8
0
  6
BYLAYER
 62
     1
 10
218.396528
 20
-158.699104
 30
0.0
 40
3.5
  0
ARC
  8
0
  6
BYLAYER
 62
     1
 10
218.396528
 20
-158.699104
 30
0.0
 40
4.0
 50
270.0
 51
540.0
  0
ARC
  8
0
  6
BYLAYER
 62
     1
 10
221.192274
 20
-146.477332
 30
0.0
 40
2.000000
 50
195.000002
 51
231.542177
  0
ARC
  8
0
  6
BYLAYER
 62
     1
 10
218.688887
 20
-151.529548
 30
0.0
 40
1.999976
 50
50.263400
 51
100.286773
  0
ARC
  8
0
  6
BYLAYER
 62
     1
 10
219.941542
 20
-141.809516
 30
0.0
 40
2.0
 50
194.999992
 51
235.161665
  0
ARC
  8
0
  6
BYLAYER
 62
     1
 10
220.808882
 20
-139.286628
 30
0.0
 40
1.0
 50
90.0
 51
270.000005
  0
ARC
  8
0
  6
BYLAYER
 62
     1
 10
225.566023
 20
-158.406684
 30
0.0
 40
2.000036
 50
349.713854
 51
399.735674
  0
ARC
  8
0
  6
BYLAYER
 62
     1
 10
230.618238
 20
-155.903297
 30
0.0
 40
2.0
 50
218.457822
 51
254.999997
  0
ARC
  8
0
  6
BYLAYER
 62
     1
 10
235.286054
 20
-157.154029
 30
0.0
 40
2.0
 50
214.838327
 51
255.0
  0
ARC
  8
0
  6
BYLAYER
 62
     1
 10
233.308882
 20
-149.286628
 30
0.0
 40
1.0
 50
90.0
 51
270.000005
  0
ARC
  8
0
  6
BYLAYER
 62
     1
 10
250.808882
 20
-166.114051
 30
0.0
 40
2.000000
 50
180.000000
 51
201.631592
  0
LINE
  8
0
  6
BYLAYER
 62
     1
 10
258.808882
 20
-168.762550
 30
0.0
 11
255.808882
 21
-168.867316
 31
0.0
  0
ARC
  8
0
  6
BYLAYER
 62
     1
 10
244.301954
 20
-163.710944
 30
0.0
 40
2.0
 50
25.655936
 51
74.999999
  0
ARC
  8
0
  6
BYLAYER
 62
     1
 10
247.808882
 20
-151.286628
 30
0.0
 40
1.000000
 50
0.0
 51
90.000016
  0
ARC
  8
0
  6
BYLAYER
 62
     1
 10
247.808882
 20
-147.286628
 30
0.0
 40
1.0
 50
270.0
 51
359.999982
  0
ARC
  8
0
  6
BYLAYER
 62
     1
 10
247.808882
 20
-141.286628
 30
0.0
 40
1.0
 50
0.0
 51
90.000016
  0
LINE
  8
0
  6
BYLAYER
 62
     1
 10
258.308882
 20
-90.286697
 30
0.0
 11
218.808882
 21
-90.286697
 31
0.0
  0
LINE
  8
0
  6
BYLAYER
 62
     1
 10
240.739057
 20
-136.354102
 30
0.0
 11
246.878706
 21
-136.568488
 31
0.0
  0
LINE
  8
0
  6
BYLAYER
 62
     1
 10
240.739057
 20
-122.219276
 30
0.0
 11
246.878706
 21
-122.004890
 31
0.0
  0
LINE
  8
0
  6
BYLAYER
 62
     1
 10
237.808882
 20
-130.286628
 30
0.0
 11
218.308882
 21
-130.286628
 31
0.0
  0
LINE
  8
0
  6
BYLAYER
 62
     1
 10
218.308882
 20
-128.286628
 30
0.0
 11
237.808882
 21
-128.286628
 31
0.0
  0
ARC
  8
0
  6
BYLAYER
 62
     1
 10
218.308882
 20
-129.286628
 30
0.0
 40
1.0
 50
90.0
 51
270.000005
  0
ARC
  8
0
  6
BYLAYER
 62
     1
 10
213.384626
 20
-132.793616
 30
0.0
 40
2.0
 50
15.000000
 51
64.344063
  0
ARC
  8
0
  6
BYLAYER
 62
     1
 10
240.808882
 20
-124.218055
 30
0.0
 40
1.999999
 50
92.000722
 51
180.000005
  0
ARC
  8
0
  6
BYLAYER
 62
     1
 10
237.808882
 20
-131.286628
 30
0.0
 40
1.0
 50
0.0
 51
90.000016
  0
LINE
  8
0
  6
BYLAYER
 62
     1
 10
238.808882
 20
-124.218055
 30
0.0
 11
238.808882
 21
-134.355323
 31
0.0
  0
ARC
  8
0
  6
BYLAYER
 62
     1
 10
240.808882
 20
-134.355323
 30
0.0
 40
2.0
 50
180.000000
 51
267.999269
  0
ARC
  8
0
  6
BYLAYER
 62
     1
 10
237.808882
 20
-127.286628
 30
0.0
 40
1.000000
 50
270.0
 51
359.999982
  0
LINE
  8
0
  6
BYLAYER
 62
     1
 10
218.808882
 20
-90.286697
 30
0.0
 11
218.808882
 21
-98.286697
 31
0.0
  0
LINE
  8
0
  6
BYLAYER
 62
     1
 10
217.808882
 20
-91.286697
 30
0.0
 11
217.808882
 21
-98.286697
 31
0.0
  0
LINE
  8
0
  6
BYLAYER
 62
     1
 10
217.808882
 20
-91.286697
 30
0.0
 11
218.808882
 21
-90.286697
 31
0.0
  0
LINE
  8
0
  6
BYLAYER
 62
     1
 10
239.058882
 20
-98.286697
 30
0.0
 11
239.058882
 21
-90.286697
 31
0.0
  0
LINE
  8
0
  6
BYLAYER
 62
     1
 10
230.558882
 20
-98.286697
 30
0.0
 11
230.558882
 21
-90.286697
 31
0.0
  0
LINE
  8
0
  6
BYLAYER
 62
     1
 10
256.808882
 20
-128.286689
 30
0.0
 11
256.808882
 21
-92.286697
 31
0.0
  0
LINE
  8
0
  6
BYLAYER
 62
     1
 10
255.808882
 20
-129.286689
 30
0.0
 11
248.808882
 21
-129.286689
 31
0.0
  0
LINE
  8
0
  6
BYLAYER
 62
     1
 10
248.808882
 20
-128.286689
 30
0.0
 11
256.808882
 21
-128.286689
 31
0.0
  0
LINE
  8
0
  6
BYLAYER
 62
     1
 10
255.808882
 20
-129.286689
 30
0.0
 11
256.808882
 21
-128.286689
 31
0.0
  0
ARC
  8
0
  6
BYLAYER
 62
     1
 10
246.808882
 20
-120.006110
 30
0.0
 40
2.0
 50
272.000744
 51
360.0
  0
ARC
  8
0
  6
BYLAYER
 62
     1
 10
247.808882
 20
-99.286697
 30
0.0
 40
1.0
 50
0.0
 51
90.000003
  0
LINE
  8
0
  6
BYLAYER
 62
     1
 10
256.808882
 20
-92.286697
 30
0.0
 11
254.808882
 21
-90.286697
 31
0.0
  0
LINE
  8
0
  6
BYLAYER
 62
     1
 10
258.808882
 20
-90.786697
 30
0.0
 11
258.308882
 21
-90.286697
 31
0.0
  0
ARC
  8
0
  6
BYLAYER
 62
     1
 10
256.308882
 20
-92.554458
 30
0.0
 40
0.499990
 50
315.001248
 51
360.000000
  0
ARC
  8
0
  6
BYLAYER
 62
     1
 10
172.709143
 20
-118.031752
 30
0.0
 40
2.873727
 50
270.0
 51
308.795511
  0
ARC
  8
0
  6
BYLAYER
 62
     1
 10
172.431040
 20
-117.735572
 30
0.0
 40
3.278957
 50
309.340351
 51
360.0
  0
ARC
  8
0
  6
BYLAYER
 62
     1
 10
172.431040
 20
-117.735572
 30
0.0
 40
3.278957
 50
0.0
 51
50.659649
  0
ARC
  8
0
  6
BYLAYER
 62
     1
 10
172.709143
 20
-117.439392
 30
0.0
 40
2.873727
 50
51.204489
 51
90.000000
  0
ARC
  8
0
  6
BYLAYER
 62
     1
 10
172.709143
 20
-117.439366
 30
0.0
 40
2.873701
 50
90.0
 51
128.795693
  0
ARC
  8
0
  6
BYLAYER
 62
     1
 10
172.987271
 20
-117.735572
 30
0.0
 40
3.278967
 50
129.340576
 51
180.0
  0
ARC
  8
0
  6
BYLAYER
 62
     1
 10
172.987271
 20
-117.735572
 30
0.0
 40
3.278967
 50
180.000000
 51
230.659424
  0
ARC
  8
0
  6
BYLAYER
 62
     1
 10
172.709143
 20
-118.031778
 30
0.0
 40
2.873701
 50
231.204307
 51
270.000000
  0
ARC
  8
0
  6
BYLAYER
 62
     1
 10
172.709143
 20
-116.892421
 30
0.0
 40
1.329747
 50
90.0
 51
140.793201
  0
ARC
  8
0
  6
BYLAYER
 62
     1
 10
173.742697
 20
-117.735572
 30
0.0
 40
2.663590
 50
140.793201
 51
180.0
  0
ARC
  8
0
  6
BYLAYER
 62
     1
 10
173.742681
 20
-117.735572
 30
0.0
 40
2.663574
 50
180.000000
 51
219.206869
  0
ARC
  8
0
  6
BYLAYER
 62
     1
 10
172.709143
 20
-118.578712
 30
0.0
 40
1.329750
 50
219.206869
 51
270.0
  0
ARC
  8
0
  6
BYLAYER
 62
     1
 10
172.709143
 20
-118.578712
 30
0.0
 40
1.329750
 50
270.0
 51
320.793131
  0
ARC
  8
0
  6
BYLAYER
 62
     1
 10
171.675604
 20
-117.735572
 30
0.0
 40
2.663574
 50
320.793131
 51
360.0
  0
ARC
  8
0
  6
BYLAYER
 62
     1
 10
171.675588
 20
-117.735572
 30
0.0
 40
2.663590
 50
0.0
 51
39.206799
  0
ARC
  8
0
  6
BYLAYER
 62
     1
 10
172.709143
 20
-116.892421
 30
0.0
 40
1.329747
 50
39.206799
 51
90.0
  0
LINE
  8
0
  6
BYLAYER
 62
     1
 10
162.861303
 20
-120.694144
 30
0.0
 11
162.861303
 21
-114.692451
 31
0.0
  0
LINE
  8
0
  6
BYLAYER
 62
     1
 10
162.861303
 20
-114.692451
 30
0.0
 11
165.301428
 21
-114.692451
 31
0.0
  0
LINE
  8
0
  6
BYLAYER
 62
     1
 10
165.301428
 20
-114.692451
 30
0.0
 11
166.115744
 21
-117.820106
 31
0.0
  0
LINE
  8
0
  6
BYLAYER
 62
     1
 10
162.861303
 20
-120.694144
 30
0.0
 11
164.326513
 21
-120.694144
 31
0.0
  0
LINE
  8
0
  6
BYLAYER
 62
     1
 10
164.326513
 20
-120.694144
 30
0.0
 11
164.326513
 21
-117.228385
 31
0.0
  0
LINE
  8
0
  6
BYLAYER
 62
     1
 10
165.481756
 20
-120.694144
 30
0.0
 11
164.326513
 21
-117.228385
 31
0.0
  0
LINE
  8
0
  6
BYLAYER
 62
     1
 10
169.370184
 20
-120.694144
 30
0.0
 11
169.370184
 21
-114.692451
 31
0.0
  0
LINE
  8
0
  6
BYLAYER
 62
     1
 10
169.370184
 20
-114.692451
 30
0.0
 11
166.930059
 21
-114.692451
 31
0.0
  0
LINE
  8
0
  6
BYLAYER
 62
     1
 10
166.930059
 20
-114.692451
 30
0.0
 11
166.115744
 21
-117.820106
 31
0.0
  0
LINE
  8
0
  6
BYLAYER
 62
     1
 10
169.370184
 20
-120.694144
 30
0.0
 11
167.904974
 21
-120.694144
 31
0.0
  0
LINE
  8
0
  6
BYLAYER
 62
     1
 10
167.904974
 20
-120.694144
 30
0.0
 11
167.904974
 21
-117.228385
 31
0.0
  0
LINE
  8
0
  6
BYLAYER
 62
     1
 10
166.749731
 20
-120.694144
 30
0.0
 11
167.904974
 21
-117.228385
 31
0.0
  0
LINE
  8
0
  6
BYLAYER
 62
     1
 10
166.749731
 20
-120.694144
 30
0.0
 11
165.481756
 21
-120.694144
 31
0.0
  0
LINE
  8
0
  6
BYLAYER
 62
     1
 10
190.841024
 20
-120.694144
 30
0.0
 11
193.123342
 21
-114.692451
 31
0.0
  0
LINE
  8
0
  6
BYLAYER
 62
     1
 10
190.841024
 20
-120.694144
 30
0.0
 11
192.785238
 21
-120.694144
 31
0.0
  0
LINE
  8
0
  6
BYLAYER
 62
     1
 10
193.123342
 20
-114.692451
 30
0.0
 11
194.983023
 21
-114.692451
 31
0.0
  0
LINE
  8
0
  6
BYLAYER
 62
     1
 10
192.785238
 20
-120.694144
 30
0.0
 11
193.073416
 21
-119.848838
 31
0.0
  0
LINE
  8
0
  6
BYLAYER
 62
     1
 10
193.534475
 20
-118.496345
 30
0.0
 11
194.053182
 21
-116.974784
 31
0.0
  0
LINE
  8
0
  6
BYLAYER
 62
     1
 10
197.265371
 20
-120.694144
 30
0.0
 11
194.983023
 21
-114.692451
 31
0.0
  0
LINE
  8
0
  6
BYLAYER
 62
     1
 10
197.265371
 20
-120.694144
 30
0.0
 11
195.321157
 21
-120.694144
 31
0.0
  0
LINE
  8
0
  6
BYLAYER
 62
     1
 10
195.032980
 20
-119.848838
 30
0.0
 11
193.073416
 21
-119.848838
 31
0.0
  0
LINE
  8
0
  6
BYLAYER
 62
     1
 10
194.571890
 20
-118.496345
 30
0.0
 11
193.534475
 21
-118.496345
 31
0.0
  0
LINE
  8
0
  6
BYLAYER
 62
     1
 10
195.321157
 20
-120.694144
 30
0.0
 11
195.032980
 21
-119.848838
 31
0.0
  0
LINE
  8
0
  6
BYLAYER
 62
     1
 10
194.571890
 20
-118.496345
 30
0.0
 11
194.053182
 21
-116.974784
 31
0.0
  0
LINE
  8
0
  6
BYLAYER
 62
     1
 10
175.709997
 20
-116.171745
 30
0.0
 11
177.400610
 21
-116.171745
 31
0.0
  0
LINE
  8
0
  6
BYLAYER
 62
     1
 10
177.400610
 20
-116.171745
 30
0.0
 11
177.400610
 21
-120.694144
 31
0.0
  0
LINE
  8
0
  6
BYLAYER
 62
     1
 10
177.400610
 20
-120.694144
 30
0.0
 11
179.260305
 21
-120.694144
 31
0.0
  0
LINE
  8
0
  6
BYLAYER
 62
     1
 10
179.260305
 20
-120.694144
 30
0.0
 11
179.260305
 21
-116.171745
 31
0.0
  0
LINE
  8
0
  6
BYLAYER
 62
     1
 10
179.260305
 20
-116.171745
 30
0.0
 11
180.950918
 21
-116.171745
 31
0.0
  0
LINE
  8
0
  6
BYLAYER
 62
     1
 10
180.950918
 20
-116.171745
 30
0.0
 11
180.950918
 21
-114.692451
 31
0.0
  0
LINE
  8
0
  6
BYLAYER
 62
     1
 10
180.950918
 20
-114.692451
 30
0.0
 11
175.709997
 21
-114.692451
 31
0.0
  0
LINE
  8
0
  6
BYLAYER
 62
     1
 10
175.709997
 20
-114.692451
 30
0.0
 11
175.709997
 21
-116.171745
 31
0.0
  0
ARC
  8
0
  6
BYLAYER
 62
     1
 10
183.951757
 20
-118.031778
 30
0.0
 40
2.873701
 50
270.0
 51
308.795693
  0
ARC
  8
0
  6
BYLAYER
 62
     1
 10
183.673629
 20
-117.735572
 30
0.0
 40
3.278967
 50
309.340576
 51
360.0
  0
ARC
  8
0
  6
BYLAYER
 62
     1
 10
183.673640
 20
-117.735572
 30
0.0
 40
3.278957
 50
0.0
 51
50.659649
  0
ARC
  8
0
  6
BYLAYER
 62
     1
 10
183.951742
 20
-117.439392
 30
0.0
 40
2.873727
 50
51.204489
 51
90.0
  0
ARC
  8
0
  6
BYLAYER
 62
     1
 10
183.951742
 20
-117.439366
 30
0.0
 40
2.873701
 50
90.0
 51
128.795693
  0
ARC
  8
0
  6
BYLAYER
 62
     1
 10
184.229870
 20
-117.735572
 30
0.0
 40
3.278967
 50
129.340576
 51
180.000000
  0
ARC
  8
0
  6
BYLAYER
 62
     1
 10
184.229859
 20
-117.735572
 30
0.0
 40
3.278957
 50
180.000000
 51
230.659649
  0
ARC
  8
0
  6
BYLAYER
 62
     1
 10
183.951757
 20
-118.031752
 30
0.0
 40
2.873727
 50
231.204489
 51
270.0
  0
ARC
  8
0
  6
BYLAYER
 62
     1
 10
183.951742
 20
-116.892421
 30
0.0
 40
1.329747
 50
90.0
 51
140.793201
  0
ARC
  8
0
  6
BYLAYER
 62
     1
 10
184.985297
 20
-117.735572
 30
0.0
 40
2.663590
 50
140.793201
 51
180.0
  0
ARC
  8
0
  6
BYLAYER
 62
     1
 10
184.985263
 20
-117.735572
 30
0.0
 40
2.663556
 50
180.000000
 51
219.207055
  0
ARC
  8
0
  6
BYLAYER
 62
     1
 10
183.951757
 20
-118.578691
 30
0.0
 40
1.329771
 50
219.207055
 51
270.000000
  0
ARC
  8
0
  6
BYLAYER
 62
     1
 10
183.951757
 20
-118.578712
 30
0.0
 40
1.329750
 50
270.0
 51
320.793131
  0
ARC
  8
0
  6
BYLAYER
 62
     1
 10
182.918219
 20
-117.735572
 30
0.0
 40
2.663574
 50
320.793131
 51
360.0
  0
ARC
  8
0
  6
BYLAYER
 62
     1
 10
182.918220
 20
-117.735572
 30
0.0
 40
2.663572
 50
0.0
 51
39.206985
  0
ARC
  8
0
  6
BYLAYER
 62
     1
 10
183.951742
 20
-116.892443
 30
0.0
 40
1.329768
 50
39.206985
 51
90.0
  0
LINE
  8
0
  6
BYLAYER
 62
     1
 10
197.427358
 20
-120.694144
 30
0.0
 11
197.427358
 21
-114.692451
 31
0.0
  0
LINE
  8
0
  6
BYLAYER
 62
     1
 10
197.427358
 20
-114.692451
 30
0.0
 11
201.146704
 21
-114.692451
 31
0.0
  0
ARC
  8
0
  6
BYLAYER
 62
     1
 10
201.146704
 20
-116.383079
 30
0.0
 40
1.690610
 50
287.134650
 51
450.000006
  0
ARC
  8
0
  6
BYLAYER
 62
     1
 10
201.484838
 20
-119.341651
 30
0.0
 40
1.352493
 50
0.0
 51
83.207557
  0
LINE
  8
0
  6
BYLAYER
 62
     1
 10
202.837332
 20
-119.341651
 30
0.0
 11
202.837332
 21
-120.186958
 31
0.0
  0
ARC
  8
0
  6
BYLAYER
 62
     1
 10
204.189825
 20
-120.186958
 30
0.0
 40
1.352493
 50
180.000000
 51
202.024314
  0
LINE
  8
0
  6
BYLAYER
 62
     1
 10
201.076345
 20
-120.694144
 30
0.0
 11
202.936025
 21
-120.694144
 31
0.0
  0
ARC
  8
0
  6
BYLAYER
 62
     1
 10
202.330145
 20
-120.186958
 30
0.0
 40
1.352493
 50
180.000000
 51
202.024314
  0
LINE
  8
0
  6
BYLAYER
 62
     1
 10
200.977651
 20
-120.186958
 30
0.0
 11
200.977651
 21
-119.510719
 31
0.0
  0
LINE
  8
0
  6
BYLAYER
 62
     1
 10
197.427358
 20
-120.694144
 30
0.0
 11
199.202505
 21
-120.694144
 31
0.0
  0
LINE
  8
0
  6
BYLAYER
 62
     1
 10
199.202505
 20
-120.694144
 30
0.0
 11
199.202505
 21
-118.665412
 31
0.0
  0
LINE
  8
0
  6
BYLAYER
 62
     1
 10
200.132345
 20
-118.665412
 30
0.0
 11
199.202505
 21
-118.665412
 31
0.0
  0
ARC
  8
0
  6
BYLAYER
 62
     1
 10
200.132345
 20
-119.510719
 30
0.0
 40
0.845306
 50
0.0
 51
90.000003
  0
LINE
  8
0
  6
BYLAYER
 62
     1
 10
199.202505
 20
-117.312919
 30
0.0
 11
199.202505
 21
-116.044944
 31
0.0
  0
LINE
  8
0
  6
BYLAYER
 62
     1
 10
199.202505
 20
-116.044944
 30
0.0
 11
200.385931
 21
-116.044944
 31
0.0
  0
LINE
  8
0
  6
BYLAYER
 62
     1
 10
199.202505
 20
-117.312919
 30
0.0
 11
200.385931
 21
-117.312919
 31
0.0
  0
ARC
  8
0
  6
BYLAYER
 62
     1
 10
200.385931
 20
-116.678931
 30
0.0
 40
0.633987
 50
270.0
 51
450.000005
  0
LINE
  8
0
  6
BYLAYER
 62
     1
 10
189.361746
 20
-118.796348
 30
0.0
 11
188.262838
 21
-114.692451
 31
0.0
  0
LINE
  8
0
  6
BYLAYER
 62
     1
 10
188.262838
 20
-114.692451
 30
0.0
 11
186.487692
 21
-114.692451
 31
0.0
  0
LINE
  8
0
  6
BYLAYER
 62
     1
 10
186.487692
 20
-114.692451
 30
0.0
 11
188.347372
 21
-120.694144
 31
0.0
  0
LINE
  8
0
  6
BYLAYER
 62
     1
 10
189.361746
 20
-118.796348
 30
0.0
 11
190.460623
 21
-114.692451
 31
0.0
  0
LINE
  8
0
  6
BYLAYER
 62
     1
 10
190.460623
 20
-114.692451
 30
0.0
 11
192.235769
 21
-114.692451
 31
0.0
  0
LINE
  8
0
  6
BYLAYER
 62
     1
 10
192.235769
 20
-114.692451
 30
0.0
 11
190.376089
 21
-120.694144
 31
0.0
  0
LINE
  8
0
  6
BYLAYER
 62
     1
 10
190.376089
 20
-120.694144
 30
0.0
 11
188.347372
 21
-120.694144
 31
0.0
  0
LINE
  8
0
  6
BYLAYER
 62
     1
 10
203.098013
 20
-120.694144
 30
0.0
 11
204.873159
 21
-120.694144
 31
0.0
  0
LINE
  8
0
  6
BYLAYER
 62
     1
 10
204.873159
 20
-120.694144
 30
0.0
 11
204.873159
 21
-114.692451
 31
0.0
  0
LINE
  8
0
  6
BYLAYER
 62
     1
 10
204.873159
 20
-114.692451
 30
0.0
 11
203.098013
 21
-114.692451
 31
0.0
  0
LINE
  8
0
  6
BYLAYER
 62
     1
 10
203.098013
 20
-114.692451
 30
0.0
 11
203.098013
 21
-120.694144
 31
0.0
  0
ARC
  8
0
  6
BYLAYER
 62
     1
 10
208.212133
 20
-118.031778
 30
0.0
 40
2.873701
 50
270.0
 51
308.795693
  0
ARC
  8
0
  6
BYLAYER
 62
     1
 10
207.934005
 20
-117.735572
 30
0.0
 40
3.278967
 50
309.340576
 51
360.000000
  0
ARC
  8
0
  6
BYLAYER
 62
     1
 10
207.934005
 20
-117.735572
 30
0.0
 40
3.278967
 50
0.0
 51
50.659424
  0
ARC
  8
0
  6
BYLAYER
 62
     1
 10
208.212133
 20
-117.439366
 30
0.0
 40
2.873701
 50
51.204307
 51
90.000000
  0
ARC
  8
0
  6
BYLAYER
 62
     1
 10
208.212133
 20
-117.439366
 30
0.0
 40
2.873701
 50
90.0
 51
128.795693
  0
ARC
  8
0
  6
BYLAYER
 62
     1
 10
208.490261
 20
-117.735572
 30
0.0
 40
3.278967
 50
129.340576
 51
180.000000
  0
ARC
  8
0
  6
BYLAYER
 62
     1
 10
208.490261
 20
-117.735572
 30
0.0
 40
3.278967
 50
180.000000
 51
230.659424
  0
ARC
  8
0
  6
BYLAYER
 62
     1
 10
208.212133
 20
-118.031778
 30
0.0
 40
2.873701
 50
231.204307
 51
270.000000
  0
ARC
  8
0
  6
BYLAYER
 62
     1
 10
208.212133
 20
-116.892421
 30
0.0
 40
1.329747
 50
39.206799
 51
90.0
  0
ARC
  8
0
  6
BYLAYER
 62
     1
 10
207.178579
 20
-117.735572
 30
0.0
 40
2.663590
 50
0.0
 51
39.206799
  0
ARC
  8
0
  6
BYLAYER
 62
     1
 10
207.178595
 20
-117.735572
 30
0.0
 40
2.663574
 50
320.793131
 51
360.0
  0
ARC
  8
0
  6
BYLAYER
 62
     1
 10
208.212133
 20
-118.578712
 30
0.0
 40
1.329750
 50
270.0
 51
320.793131
  0
ARC
  8
0
  6
BYLAYER
 62
     1
 10
208.212133
 20
-118.578712
 30
0.0
 40
1.329750
 50
219.206869
 51
270.000000
  0
ARC
  8
0
  6
BYLAYER
 62
     1
 10
209.245672
 20
-117.735572
 30
0.0
 40
2.663574
 50
180.000000
 51
219.206869
  0
ARC
  8
0
  6
BYLAYER
 62
     1
 10
209.245688
 20
-117.735572
 30
0.0
 40
2.663590
 50
140.793201
 51
180.0
  0
ARC
  8
0
  6
BYLAYER
 62
     1
 10
208.212133
 20
-116.892421
 30
0.0
 40
1.329747
 50
90.0
 51
140.793201
  0
ARC
  8
0
  6
BYLAYER
 62
     1
 10
178.240270
 20
-107.821723
 30
0.0
 40
7.429995
 50
174.535650
 51
180.0
  0
LINE
  8
0
  6
BYLAYER
 62
     1
 10
170.844038
 20
-107.114188
 30
0.0
 11
170.844038
 21
-107.114181
 31
0.0
  0
LINE
  8
0
  6
BYLAYER
 62
     1
 10
170.852123
 20
-107.034258
 30
0.0
 11
171.561226
 21
-106.735715
 31
0.0
  0
ARC
  8
0
  6
BYLAYER
 62
     1
 10
178.240301
 20
-107.821784
 30
0.0
 40
6.766781
 50
159.235383
 51
170.763998
  0
LINE
  8
0
  6
BYLAYER
 62
     1
 10
171.913026
 20
-105.422719
 30
0.0
 11
171.448228
 21
-104.809606
 31
0.0
  0
ARC
  8
0
  6
BYLAYER
 62
     1
 10
178.240270
 20
-107.821723
 30
0.0
 40
7.429986
 50
144.139514
 51
156.083795
  0
LINE
  8
0
  6
BYLAYER
 62
     1
 10
172.169805
 20
-103.537528
 30
0.0
 11
172.170248
 21
-103.536903
 31
0.0
  0
LINE
  8
0
  6
BYLAYER
 62
     1
 10
172.218669
 20
-103.469136
 30
0.0
 11
172.973594
 21
-103.573000
 31
0.0
  0
ARC
  8
0
  6
BYLAYER
 62
     1
 10
178.240270
 20
-107.821723
 30
0.0
 40
6.766741
 50
129.235643
 51
141.105976
  0
LINE
  8
0
  6
BYLAYER
 62
     1
 10
173.849584
 20
-102.672866
 30
0.0
 11
173.850317
 21
-102.672233
 31
0.0
  0
LINE
  8
0
  6
BYLAYER
 62
     1
 10
173.960231
 20
-102.580536
 30
0.0
 11
173.864237
 21
-101.817130
 31
0.0
  0
ARC
  8
0
  6
BYLAYER
 62
     1
 10
178.240270
 20
-107.821723
 30
0.0
 40
7.429994
 50
114.139607
 51
126.083853
  0
LINE
  8
0
  6
BYLAYER
 62
     1
 10
175.125723
 20
-101.076026
 30
0.0
 11
175.126226
 21
-101.075790
 31
0.0
  0
LINE
  8
0
  6
BYLAYER
 62
     1
 10
175.201690
 20
-101.041469
 30
0.0
 11
175.803519
 21
-101.508864
 31
0.0
  0
LINE
  8
0
  6
BYLAYER
 62
     1
 10
175.941122
 20
-101.457542
 30
0.0
 11
175.941885
 21
-101.457275
 31
0.0
  0
ARC
  8
0
  6
BYLAYER
 62
     1
 10
178.240270
 20
-107.821723
 30
0.0
 40
6.766738
 50
99.235601
 51
111.106038
  0
ARC
  8
0
  6
BYLAYER
 62
     1
 10
178.240270
 20
-107.821723
 30
0.0
 40
7.429995
 50
90.0
 51
96.083892
  0
LINE
  8
0
  6
BYLAYER
 62
     1
 10
177.452806
 20
-100.433576
 30
0.0
 11
177.154246
 21
-101.142704
 31
0.0
  0
LINE
  8
0
  6
BYLAYER
 62
     1
 10
185.636495
 20
-107.114188
 30
0.0
 11
185.636495
 21
-107.114181
 31
0.0
  0
LINE
  8
0
  6
BYLAYER
 62
     1
 10
185.628418
 20
-107.034257
 30
0.0
 11
184.919279
 21
-106.735708
 31
0.0
  0
ARC
  8
0
  6
BYLAYER
 62
     1
 10
178.240225
 20
-107.821784
 30
0.0
 40
6.766781
 50
9.235986
 51
20.764650
  0
LINE
  8
0
  6
BYLAYER
 62
     1
 10
184.567549
 20
-105.422649
 30
0.0
 11
185.032314
 21
-104.809607
 31
0.0
  0
ARC
  8
0
  6
BYLAYER
 62
     1
 10
178.240270
 20
-107.821723
 30
0.0
 40
7.429986
 50
23.916189
 51
35.860484
  0
LINE
  8
0
  6
BYLAYER
 62
     1
 10
184.310720
 20
-103.537528
 30
0.0
 11
184.310278
 21
-103.536903
 31
0.0
  0
LINE
  8
0
  6
BYLAYER
 62
     1
 10
184.261872
 20
-103.469137
 30
0.0
 11
183.507000
 21
-103.572991
 31
0.0
  0
ARC
  8
0
  6
BYLAYER
 62
     1
 10
178.240270
 20
-107.821723
 30
0.0
 40
6.766741
 50
38.894050
 51
50.764315
  0
LINE
  8
0
  6
BYLAYER
 62
     1
 10
182.630957
 20
-102.672866
 30
0.0
 11
182.630224
 21
-102.672233
 31
0.0
  0
LINE
  8
0
  6
BYLAYER
 62
     1
 10
182.520330
 20
-102.580414
 30
0.0
 11
182.616288
 21
-101.817118
 31
0.0
  0
ARC
  8
0
  6
BYLAYER
 62
     1
 10
178.240270
 20
-107.821723
 30
0.0
 40
7.429994
 50
53.916300
 51
65.860381
  0
LINE
  8
0
  6
BYLAYER
 62
     1
 10
181.354818
 20
-101.076026
 30
0.0
 11
181.354299
 21
-101.075790
 31
0.0
  0
LINE
  8
0
  6
BYLAYER
 62
     1
 10
181.278853
 20
-101.041470
 30
0.0
 11
180.677029
 21
-101.508843
 31
0.0
  0
LINE
  8
0
  6
BYLAYER
 62
     1
 10
180.539404
 20
-101.457542
 30
0.0
 11
180.538656
 21
-101.457275
 31
0.0
  0
ARC
  8
0
  6
BYLAYER
 62
     1
 10
178.240270
 20
-107.821723
 30
0.0
 40
6.766738
 50
68.894081
 51
80.764578
  0
ARC
  8
0
  6
BYLAYER
 62
     1
 10
178.240270
 20
-107.821723
 30
0.0
 40
7.429995
 50
84.535428
 51
90.000003
  0
LINE
  8
0
  6
BYLAYER
 62
     1
 10
179.027738
 20
-100.433576
 30
0.0
 11
179.326225
 21
-101.142583
 31
0.0
  0
ARC
  8
0
  6
BYLAYER
 62
     1
 10
178.240270
 20
-107.821723
 30
0.0
 40
7.429995
 50
180.000000
 51
186.083899
  0
LINE
  8
0
  6
BYLAYER
 62
     1
 10
170.844038
 20
-108.529250
 30
0.0
 11
170.844038
 21
-108.529266
 31
0.0
  0
LINE
  8
0
  6
BYLAYER
 62
     1
 10
170.852123
 20
-108.609189
 30
0.0
 11
171.561247
 21
-108.907740
 31
0.0
  0
ARC
  8
0
  6
BYLAYER
 62
     1
 10
178.240301
 20
-107.821662
 30
0.0
 40
6.766781
 50
189.236002
 51
200.764629
  0
LINE
  8
0
  6
BYLAYER
 62
     1
 10
171.913051
 20
-110.220697
 30
0.0
 11
171.448225
 21
-110.833835
 31
0.0
  0
ARC
  8
0
  6
BYLAYER
 62
     1
 10
178.240270
 20
-107.821723
 30
0.0
 40
7.429986
 50
203.916158
 51
215.860410
  0
LINE
  8
0
  6
BYLAYER
 62
     1
 10
172.169805
 20
-112.105910
 30
0.0
 11
172.170248
 21
-112.106536
 31
0.0
  0
LINE
  8
0
  6
BYLAYER
 62
     1
 10
172.218663
 20
-112.174302
 30
0.0
 11
172.973659
 21
-112.070439
 31
0.0
  0
ARC
  8
0
  6
BYLAYER
 62
     1
 10
178.240270
 20
-107.821723
 30
0.0
 40
6.766741
 50
218.894045
 51
230.764345
  0
LINE
  8
0
  6
BYLAYER
 62
     1
 10
173.849584
 20
-112.970573
 30
0.0
 11
173.850317
 21
-112.971206
 31
0.0
  0
LINE
  8
0
  6
BYLAYER
 62
     1
 10
173.960230
 20
-113.062909
 30
0.0
 11
173.864237
 21
-113.826317
 31
0.0
  0
ARC
  8
0
  6
BYLAYER
 62
     1
 10
178.240270
 20
-107.821723
 30
0.0
 40
7.429994
 50
233.916148
 51
245.860401
  0
LINE
  8
0
  6
BYLAYER
 62
     1
 10
175.125723
 20
-114.567413
 30
0.0
 11
175.126226
 21
-114.567657
 31
0.0
  0
LINE
  8
0
  6
BYLAYER
 62
     1
 10
175.201691
 20
-114.601977
 30
0.0
 11
175.803590
 21
-114.134517
 31
0.0
  0
LINE
  8
0
  6
BYLAYER
 62
     1
 10
175.941122
 20
-114.185897
 30
0.0
 11
175.941885
 21
-114.186172
 31
0.0
  0
LINE
  8
0
  6
BYLAYER
 62
     1
 10
185.636495
 20
-108.529250
 30
0.0
 11
185.636495
 21
-108.529266
 31
0.0
  0
LINE
  8
0
  6
BYLAYER
 62
     1
 10
185.628417
 20
-108.609190
 30
0.0
 11
184.919279
 21
-108.907738
 31
0.0
  0
LINE
  8
0
  6
BYLAYER
 62
     1
 10
184.567483
 20
-110.220714
 30
0.0
 11
185.032322
 21
-110.833840
 31
0.0
  0
LINE
  8
0
  6
BYLAYER
 62
     1
 10
184.310720
 20
-112.105910
 30
0.0
 11
184.310278
 21
-112.106536
 31
0.0
  0
LINE
  8
0
  6
BYLAYER
 62
     1
 10
184.261887
 20
-112.174303
 30
0.0
 11
183.506841
 21
-112.070436
 31
0.0
  0
LINE
  8
0
  6
BYLAYER
 62
     1
 10
182.630957
 20
-112.970573
 30
0.0
 11
182.630224
 21
-112.971206
 31
0.0
  0
LINE
  8
0
  6
BYLAYER
 62
     1
 10
182.520315
 20
-113.062906
 30
0.0
 11
182.616288
 21
-113.826328
 31
0.0
  0
LINE
  8
0
  6
BYLAYER
 62
     1
 10
181.278852
 20
-114.601977
 30
0.0
 11
180.676938
 21
-114.134522
 31
0.0
  0
ARC
  8
0
  6
BYLAYER
 62
     1
 10
178.240270
 20
-107.821723
 30
0.0
 40
6.766741
 50
309.235697
 51
321.105929
  0
ARC
  8
0
  6
BYLAYER
 62
     1
 10
178.240270
 20
-107.821723
 30
0.0
 40
6.766738
 50
248.893873
 51
270.000000
  0
ARC
  8
0
  6
BYLAYER
 62
     1
 10
178.240270
 20
-107.821723
 30
0.0
 40
7.429994
 50
294.783232
 51
306.083699
  0
LINE
  8
0
  6
BYLAYER
 62
     1
 10
181.354299
 20
-114.567657
 30
0.0
 11
181.279309
 21
-114.602946
 31
0.0
  0
ARC
  8
0
  6
BYLAYER
 62
     1
 10
178.240270
 20
-107.821723
 30
0.0
 40
7.429986
 50
324.139593
 51
336.083825
  0
ARC
  8
0
  6
BYLAYER
 62
     1
 10
178.240225
 20
-107.821662
 30
0.0
 40
6.766781
 50
339.235210
 51
350.764014
  0
ARC
  8
0
  6
BYLAYER
 62
     1
 10
178.240270
 20
-107.821723
 30
0.0
 40
7.429995
 50
353.916089
 51
360.0
  0
ARC
  8
0
  6
BYLAYER
 62
     1
 10
178.240270
 20
-107.821723
 30
0.0
 40
7.429995
 50
0.0
 51
6.083907
  0
ARC
  8
0
  6
BYLAYER
 62
     1
 10
178.240270
 20
-107.821723
 30
0.0
 40
6.766738
 50
270.0
 51
291.106008
  0
CIRCLE
  8
0
  6
BYLAYER
 62
     1
 10
178.240270
 20
-107.821723
 30
0.0
 40
3.630081
  0
CIRCLE
  8
0
  6
BYLAYER
 62
     1
 10
178.240270
 20
-107.821723
 30
0.0
 40
5.296032
  0
LINE
  8
0
  6
BYLAYER
 62
     1
 10
184.808874
 20
-192.286689
 30
0.0
 11
181.808874
 21
-192.286689
 31
0.0
  0
LINE
  8
0
  6
BYLAYER
 62
     1
 10
184.808874
 20
-192.286689
 30
0.0
 11
184.808874
 21
-195.286689
 31
0.0
  0
LINE
  8
0
  6
BYLAYER
 62
     1
 10
184.808874
 20
-192.286689
 30
0.0
 11
187.808874
 21
-192.286689
 31
0.0
  0
LINE
  8
0
  6
BYLAYER
 62
     1
 10
184.808874
 20
-192.286689
 30
0.0
 11
184.808874
 21
-189.286689
 31
0.0
  0
ARC
  8
0
  6
BYLAYER
 62
     1
 10
816.308866
 20
-479.450599
 30
0.0
 40
2.000000
 50
197.341476
 51
360.000000
  0
LINE
  8
0
  6
BYLAYER
 62
     1
 10
817.793669
 20
-488.286658
 30
0.0
 11
836.308866
 21
-488.286658
 31
0.0
  0
LINE
  8
0
  6
BYLAYER
 62
     1
 10
784.808874
 20
-451.286666
 30
0.0
 11
818.308866
 21
-451.286666
 31
0.0
  0
LINE
  8
0
  6
BYLAYER
 62
     1
 10
731.808874
 20
-607.286720
 30
0.0
 11
731.808874
 21
-540.171027
 31
0.0
  0
LINE
  8
0
  6
BYLAYER
 62
     1
 10
728.808874
 20
-591.786720
 30
0.0
 11
728.808874
 21
-512.786658
 31
0.0
  0
LINE
  8
0
  6
BYLAYER
 62
     1
 10
751.308874
 20
-488.286658
 30
0.0
 11
751.308874
 21
-624.286720
 31
0.0
  0
LINE
  8
0
  6
BYLAYER
 62
     1
 10
734.308874
 20
-585.286658
 30
0.0
 11
734.308874
 21
-489.286658
 31
0.0
  0
CIRCLE
  8
0
  6
BYLAYER
 62
     1
 10
742.308874
 20
-602.286720
 30
0.0
 40
4.25
  0
LINE
  8
0
  6
BYLAYER
 62
     1
 10
734.308874
 20
-585.286658
 30
0.0
 11
751.308874
 21
-585.286658
 31
0.0
  0
LINE
  8
0
  6
BYLAYER
 62
     1
 10
751.308874
 20
-586.286720
 30
0.0
 11
733.308874
 21
-586.286720
 31
0.0
  0
LINE
  8
0
  6
BYLAYER
 62
     1
 10
733.308874
 20
-624.286720
 30
0.0
 11
751.308874
 21
-624.286720
 31
0.0
  0
LINE
  8
0
  6
BYLAYER
 62
     1
 10
733.308874
 20
-624.286720
 30
0.0
 11
733.308874
 21
-586.286720
 31
0.0
  0
LINE
  8
0
  6
BYLAYER
 62
     1
 10
731.808874
 20
-607.286720
 30
0.0
 11
733.308874
 21
-607.339118
 31
0.0
  0
LINE
  8
0
  6
BYLAYER
 62
     1
 10
731.408880
 20
-592.286720
 30
0.0
 11
729.308874
 21
-592.286720
 31
0.0
  0
LINE
  8
0
  6
BYLAYER
 62
     1
 10
729.308874
 20
-592.286720
 30
0.0
 11
728.808874
 21
-591.786720
 31
0.0
  0
ARC
  8
0
  6
BYLAYER
 62
     1
 10
731.408880
 20
-592.686713
 30
0.0
 40
0.399994
 50
0.0
 51
90.000003
  0
LINE
  8
0
  6
BYLAYER
 62
     1
 10
733.308874
 20
-586.286720
 30
0.0
 11
734.308874
 21
-585.286658
 31
0.0
  0
LINE
  8
0
  6
BYLAYER
 62
     1
 10
733.308874
 20
-488.286658
 30
0.0
 11
751.824072
 21
-488.286658
 31
0.0
  0
CIRCLE
  8
0
  6
BYLAYER
 62
     1
 10
742.308874
 20
-472.286658
 30
0.0
 40
4.25
  0
LINE
  8
0
  6
BYLAYER
 62
     1
 10
734.308874
 20
-489.286658
 30
0.0
 11
751.308874
 21
-489.286658
 31
0.0
  0
LINE
  8
0
  6
BYLAYER
 62
     1
 10
751.308874
 20
-450.286666
 30
0.0
 11
733.308874
 21
-450.286666
 31
0.0
  0
LINE
  8
0
  6
BYLAYER
 62
     1
 10
731.808874
 20
-533.822547
 30
0.0
 11
731.808874
 21
-497.286720
 31
0.0
  0
LINE
  8
0
  6
BYLAYER
 62
     1
 10
728.808874
 20
-540.223396
 30
0.0
 11
731.808874
 21
-540.171027
 31
0.0
  0
LINE
  8
0
  6
BYLAYER
 62
     1
 10
728.808874
 20
-533.874915
 30
0.0
 11
731.808874
 21
-533.822547
 31
0.0
  0
LINE
  8
0
  6
BYLAYER
 62
     1
 10
731.408880
 20
-512.286658
 30
0.0
 11
729.308874
 21
-512.286658
 31
0.0
  0
LINE
  8
0
  6
BYLAYER
 62
     1
 10
729.308874
 20
-512.286658
 30
0.0
 11
728.808874
 21
-512.786658
 31
0.0
  0
ARC
  8
0
  6
BYLAYER
 62
     1
 10
731.408880
 20
-511.886665
 30
0.0
 40
0.399994
 50
270.0
 51
360.000003
  0
LINE
  8
0
  6
BYLAYER
 62
     1
 10
733.308874
 20
-450.286666
 30
0.0
 11
733.308874
 21
-488.286658
 31
0.0
  0
LINE
  8
0
  6
BYLAYER
 62
     1
 10
731.808874
 20
-497.286720
 30
0.0
 11
734.308874
 21
-497.199409
 31
0.0
  0
LINE
  8
0
  6
BYLAYER
 62
     1
 10
734.308874
 20
-489.286658
 30
0.0
 11
733.308874
 21
-488.286658
 31
0.0
  0
CIRCLE
  8
0
  6
BYLAYER
 62
     1
 10
784.808874
 20
-489.286658
 30
0.0
 40
26.0
  0
ARC
  8
0
  6
BYLAYER
 62
     1
 10
784.808874
 20
-489.286658
 30
0.0
 40
30.999969
 50
330.532607
 51
358.263503
  0
ARC
  8
0
  6
BYLAYER
 62
     1
 10
784.808874
 20
-489.286658
 30
0.0
 40
30.999985
 50
181.736499
 51
209.467395
  0
ARC
  8
0
  6
BYLAYER
 62
     1
 10
784.808874
 20
-489.286658
 30
0.0
 40
30.999969
 50
240.532625
 51
299.467377
  0
ARC
  8
0
  6
BYLAYER
 62
     1
 10
761.120794
 20
-512.974738
 30
0.0
 40
6.999983
 50
124.078036
 51
325.921956
  0
CIRCLE
  8
0
  6
BYLAYER
 62
     1
 10
761.120794
 20
-512.974738
 30
0.0
 40
3.725006
  0
ARC
  8
0
  6
BYLAYER
 62
     1
 10
756.077917
 20
-505.520271
 30
0.0
 40
2.000000
 50
304.077782
 51
389.467386
  0
ARC
  8
0
  6
BYLAYER
 62
     1
 10
768.575262
 20
-518.017616
 30
0.0
 40
2.000000
 50
60.532613
 51
145.922224
  0
ARC
  8
0
  6
BYLAYER
 62
     1
 10
808.496954
 20
-512.974738
 30
0.0
 40
6.999983
 50
214.078032
 51
415.921965
  0
CIRCLE
  8
0
  6
BYLAYER
 62
     1
 10
808.496954
 20
-512.974738
 30
0.0
 40
3.725006
  0
ARC
  8
0
  6
BYLAYER
 62
     1
 10
801.042486
 20
-518.017616
 30
0.0
 40
2.000000
 50
34.077788
 51
119.467372
  0
ARC
  8
0
  6
BYLAYER
 62
     1
 10
813.539823
 20
-505.520271
 30
0.0
 40
2.000000
 50
150.532602
 51
235.922192
  0
ARC
  8
0
  6
BYLAYER
 62
     1
 10
784.808874
 20
-489.286658
 30
0.0
 40
30.999969
 50
60.532613
 51
119.467385
  0
LINE
  8
0
  6
BYLAYER
 62
     1
 10
751.308874
 20
-451.286666
 30
0.0
 11
784.808874
 21
-451.286666
 31
0.0
  0
LINE
  8
0
  6
BYLAYER
 62
     1
 10
751.308874
 20
-479.450599
 30
0.0
 11
751.308874
 21
-450.286666
 31
0.0
  0
ARC
  8
0
  6
BYLAYER
 62
     1
 10
761.120794
 20
-465.598579
 30
0.0
 40
6.999983
 50
34.078037
 51
235.921971
  0
CIRCLE
  8
0
  6
BYLAYER
 62
     1
 10
761.120794
 20
-465.598579
 30
0.0
 40
3.725006
  0
ARC
  8
0
  6
BYLAYER
 62
     1
 10
751.824072
 20
-490.286658
 30
0.0
 40
1.999972
 50
1.736578
 51
90.000005
  0
ARC
  8
0
  6
BYLAYER
 62
     1
 10
753.308874
 20
-479.450599
 30
0.0
 40
2.0
 50
180.000000
 51
342.658537
  0
ARC
  8
0
  6
BYLAYER
 62
     1
 10
784.808874
 20
-489.286658
 30
0.0
 40
30.999969
 50
150.532615
 51
162.658728
  0
ARC
  8
0
  6
BYLAYER
 62
     1
 10
756.077917
 20
-473.053046
 30
0.0
 40
2.0
 50
330.532634
 51
415.922211
  0
ARC
  8
0
  6
BYLAYER
 62
     1
 10
766.058905
 20
-456.810714
 30
0.0
 40
6.999945
 50
111.250353
 51
127.893298
  0
ARC
  8
0
  6
BYLAYER
 62
     1
 10
768.575262
 20
-460.555709
 30
0.0
 40
2.0
 50
214.077800
 51
299.467377
  0
LINE
  8
0
  6
BYLAYER
 62
     1
 10
768.596014
 20
-450.286666
 30
0.0
 11
763.521795
 21
-450.286666
 31
0.0
  0
ARC
  8
0
  6
BYLAYER
 62
     1
 10
766.058905
 20
-456.810714
 30
0.0
 40
7.000009
 50
52.105911
 51
68.749652
  0
ARC
  8
0
  6
BYLAYER
 62
     1
 10
808.496954
 20
-465.598579
 30
0.0
 40
6.999983
 50
304.078031
 51
505.921965
  0
CIRCLE
  8
0
  6
BYLAYER
 62
     1
 10
808.496954
 20
-465.598579
 30
0.0
 40
3.725006
  0
ARC
  8
0
  6
BYLAYER
 62
     1
 10
817.793669
 20
-490.286658
 30
0.0
 40
1.999972
 50
90.0
 51
178.26342
  0
ARC
  8
0
  6
BYLAYER
 62
     1
 10
784.808874
 20
-489.286658
 30
0.0
 40
30.999969
 50
17.341271
 51
29.467386
  0
ARC
  8
0
  6
BYLAYER
 62
     1
 10
813.539823
 20
-473.053046
 30
0.0
 40
2.0
 50
124.077790
 51
209.467367
  0
ARC
  8
0
  6
BYLAYER
 62
     1
 10
803.558905
 20
-456.810714
 30
0.0
 40
7.000009
 50
111.250353
 51
127.894090
  0
ARC
  8
0
  6
BYLAYER
 62
     1
 10
801.042486
 20
-460.555709
 30
0.0
 40
2.000000
 50
240.532625
 51
325.922202
  0
LINE
  8
0
  6
BYLAYER
 62
     1
 10
801.021795
 20
-450.286666
 30
0.0
 11
806.096014
 21
-450.286666
 31
0.0
  0
ARC
  8
0
  6
BYLAYER
 62
     1
 10
803.558905
 20
-456.810714
 30
0.0
 40
6.999945
 50
52.106700
 51
68.749652
  0
LINE
  8
0
  6
BYLAYER
 62
     1
 10
837.808866
 20
-607.286720
 30
0.0
 11
837.808866
 21
-540.171027
 31
0.0
  0
LINE
  8
0
  6
BYLAYER
 62
     1
 10
840.808866
 20
-591.786720
 30
0.0
 11
840.808866
 21
-512.786658
 31
0.0
  0
LINE
  8
0
  6
BYLAYER
 62
     1
 10
818.308866
 20
-488.286658
 30
0.0
 11
818.308866
 21
-624.286720
 31
0.0
  0
LINE
  8
0
  6
BYLAYER
 62
     1
 10
835.308866
 20
-585.286658
 30
0.0
 11
835.308866
 21
-489.286658
 31
0.0
  0
LINE
  8
0
  6
BYLAYER
 62
     1
 10
836.308866
 20
-586.286720
 30
0.0
 11
836.308866
 21
-624.286720
 31
0.0
  0
LINE
  8
0
  6
BYLAYER
 62
     1
 10
836.308866
 20
-624.286720
 30
0.0
 11
818.308866
 21
-624.286720
 31
0.0
  0
LINE
  8
0
  6
BYLAYER
 62
     1
 10
837.808866
 20
-607.286720
 30
0.0
 11
836.308866
 21
-607.339118
 31
0.0
  0
CIRCLE
  8
0
  6
BYLAYER
 62
     1
 10
827.308866
 20
-602.286720
 30
0.0
 40
4.25
  0
LINE
  8
0
  6
BYLAYER
 62
     1
 10
818.308866
 20
-586.286720
 30
0.0
 11
836.308866
 21
-586.286720
 31
0.0
  0
LINE
  8
0
  6
BYLAYER
 62
     1
 10
818.308866
 20
-585.286658
 30
0.0
 11
835.308866
 21
-585.286658
 31
0.0
  0
LINE
  8
0
  6
BYLAYER
 62
     1
 10
836.308866
 20
-586.286720
 30
0.0
 11
835.308866
 21
-585.286658
 31
0.0
  0
ARC
  8
0
  6
BYLAYER
 62
     1
 10
838.208860
 20
-592.686713
 30
0.0
 40
0.399994
 50
90.0
 51
180.000003
  0
LINE
  8
0
  6
BYLAYER
 62
     1
 10
838.208860
 20
-592.286720
 30
0.0
 11
840.308866
 21
-592.286720
 31
0.0
  0
LINE
  8
0
  6
BYLAYER
 62
     1
 10
840.308866
 20
-592.286720
 30
0.0
 11
840.808866
 21
-591.786720
 31
0.0
  0
LINE
  8
0
  6
BYLAYER
 62
     1
 10
837.808866
 20
-533.822547
 30
0.0
 11
837.808866
 21
-497.286720
 31
0.0
  0
LINE
  8
0
  6
BYLAYER
 62
     1
 10
840.808866
 20
-540.223396
 30
0.0
 11
837.808866
 21
-540.171027
 31
0.0
  0
LINE
  8
0
  6
BYLAYER
 62
     1
 10
840.808866
 20
-533.874915
 30
0.0
 11
837.808866
 21
-533.822547
 31
0.0
  0
LINE
  8
0
  6
BYLAYER
 62
     1
 10
838.208860
 20
-512.286658
 30
0.0
 11
840.308866
 21
-512.286658
 31
0.0
  0
ARC
  8
0
  6
BYLAYER
 62
     1
 10
838.208860
 20
-511.886665
 30
0.0
 40
0.399994
 50
180.000000
 51
270.000003
  0
LINE
  8
0
  6
BYLAYER
 62
     1
 10
840.308866
 20
-512.286658
 30
0.0
 11
840.808866
 21
-512.786658
 31
0.0
  0
LINE
  8
0
  6
BYLAYER
 62
     1
 10
818.308866
 20
-479.450599
 30
0.0
 11
818.308866
 21
-450.286666
 31
0.0
  0
CIRCLE
  8
0
  6
BYLAYER
 62
     1
 10
827.308866
 20
-472.286658
 30
0.0
 40
4.25
  0
LINE
  8
0
  6
BYLAYER
 62
     1
 10
836.308866
 20
-450.286666
 30
0.0
 11
836.308866
 21
-488.286658
 31
0.0
  0
LINE
  8
0
  6
BYLAYER
 62
     1
 10
837.808866
 20
-497.286720
 30
0.0
 11
835.308866
 21
-497.199409
 31
0.0
  0
LINE
  8
0
  6
BYLAYER
 62
     1
 10
835.308866
 20
-489.286658
 30
0.0
 11
818.308866
 21
-489.286658
 31
0.0
  0
LINE
  8
0
  6
BYLAYER
 62
     1
 10
835.308866
 20
-489.286658
 30
0.0
 11
836.308866
 21
-488.286658
 31
0.0
  0
LINE
  8
0
  6
BYLAYER
 62
     1
 10
818.308866
 20
-450.286666
 30
0.0
 11
836.308866
 21
-450.286666
 31
0.0
  0
LINE
  8
0
  6
BYLAYER
 62
     1
 10
818.308866
 20
-620.286720
 30
0.0
 11
751.308874
 21
-620.286720
 31
0.0
  0
LINE
  8
0
  6
BYLAYER
 62
     1
 10
145.308840
 20
-588.286689
 30
0.0
 11
224.308908
 21
-588.286689
 31
0.0
  0
LINE
  8
0
  6
BYLAYER
 62
     1
 10
239.808847
 20
-585.286689
 30
0.0
 11
129.808840
 21
-585.286689
 31
0.0
  0
LINE
  8
0
  6
BYLAYER
 62
     1
 10
151.808840
 20
-481.786689
 30
0.0
 11
217.808847
 21
-481.786689
 31
0.0
  0
LINE
  8
0
  6
BYLAYER
 62
     1
 10
145.308840
 20
-476.286689
 30
0.0
 11
224.308908
 21
-476.286689
 31
0.0
  0
LINE
  8
0
  6
BYLAYER
 62
     1
 10
239.808847
 20
-479.286689
 30
0.0
 11
129.808840
 21
-479.286689
 31
0.0
  0
LINE
  8
0
  6
BYLAYER
 62
     1
 10
112.808840
 20
-498.786689
 30
0.0
 11
256.808847
 21
-498.786689
 31
0.0
  0
LINE
  8
0
  6
BYLAYER
 62
     1
 10
112.808840
 20
-565.786689
 30
0.0
 11
256.808847
 21
-565.786689
 31
0.0
  0
LINE
  8
0
  6
BYLAYER
 62
     1
 10
151.808840
 20
-582.786689
 30
0.0
 11
217.808847
 21
-582.786689
 31
0.0
  0
LINE
  8
0
  6
BYLAYER
 62
     1
 10
130.808840
 20
-498.786689
 30
0.0
 11
130.808840
 21
-565.786689
 31
0.0
  0
LINE
  8
0
  6
BYLAYER
 62
     1
 10
113.808840
 20
-565.786689
 30
0.0
 11
113.808832
 21
-498.786689
 31
0.0
  0
LINE
  8
0
  6
BYLAYER
 62
     1
 10
112.808840
 20
-583.786689
 30
0.0
 11
112.808840
 21
-480.786689
 31
0.0
  0
LINE
  8
0
  6
BYLAYER
 62
     1
 10
150.808840
 20
-583.786689
 30
0.0
 11
112.808840
 21
-583.786689
 31
0.0
  0
CIRCLE
  8
0
  6
BYLAYER
 62
     1
 10
134.808840
 20
-574.786689
 30
0.0
 40
4.25
  0
CIRCLE
  8
0
  6
BYLAYER
 62
     1
 10
134.808840
 20
-574.786689
 30
0.0
 40
4.25
  0
LINE
  8
0
  6
BYLAYER
 62
     1
 10
150.808840
 20
-565.786689
 30
0.0
 11
150.808840
 21
-583.786689
 31
0.0
  0
LINE
  8
0
  6
BYLAYER
 62
     1
 10
151.808901
 20
-565.786689
 30
0.0
 11
151.808901
 21
-582.786689
 31
0.0
  0
LINE
  8
0
  6
BYLAYER
 62
     1
 10
129.808840
 20
-585.286689
 30
0.0
 11
129.756410
 21
-583.786689
 31
0.0
  0
LINE
  8
0
  6
BYLAYER
 62
     1
 10
144.808840
 20
-587.786689
 30
0.0
 11
145.308840
 21
-588.286689
 31
0.0
  0
LINE
  8
0
  6
BYLAYER
 62
     1
 10
144.808840
 20
-585.286689
 30
0.0
 11
144.808840
 21
-587.786689
 31
0.0
  0
LINE
  8
0
  6
BYLAYER
 62
     1
 10
150.808840
 20
-583.786689
 30
0.0
 11
151.808901
 21
-582.786689
 31
0.0
  0
LINE
  8
0
  6
BYLAYER
 62
     1
 10
150.808840
 20
-480.786689
 30
0.0
 11
112.808840
 21
-480.786689
 31
0.0
  0
LINE
  8
0
  6
BYLAYER
 62
     1
 10
150.808840
 20
-498.786689
 30
0.0
 11
150.808840
 21
-480.786689
 31
0.0
  0
LINE
  8
0
  6
BYLAYER
 62
     1
 10
151.808901
 20
-481.786689
 30
0.0
 11
151.808901
 21
-498.786689
 31
0.0
  0
LINE
  8
0
  6
BYLAYER
 62
     1
 10
129.808840
 20
-479.286689
 30
0.0
 11
129.756410
 21
-480.786689
 31
0.0
  0
CIRCLE
  8
0
  6
BYLAYER
 62
     1
 10
134.808840
 20
-489.786689
 30
0.0
 40
4.25
  0
LINE
  8
0
  6
BYLAYER
 62
     1
 10
144.808840
 20
-476.786689
 30
0.0
 11
145.308840
 21
-476.286689
 31
0.0
  0
LINE
  8
0
  6
BYLAYER
 62
     1
 10
144.808840
 20
-479.286689
 30
0.0
 11
144.808840
 21
-476.786689
 31
0.0
  0
LINE
  8
0
  6
BYLAYER
 62
     1
 10
150.808840
 20
-480.786689
 30
0.0
 11
151.808901
 21
-481.786689
 31
0.0
  0
LINE
  8
0
  6
BYLAYER
 62
     1
 10
258.808847
 20
-487.786689
 30
0.0
 11
258.808847
 21
-576.786689
 31
0.0
  0
LINE
  8
0
  6
BYLAYER
 62
     1
 10
238.808817
 20
-565.786689
 30
0.0
 11
238.808817
 21
-498.786689
 31
0.0
  0
ARC
  8
0
  6
BYLAYER
 62
     1
 10
257.808847
 20
-577.786689
 30
0.0
 40
1.000000
 50
90.0
 51
179.999989
  0
LINE
  8
0
  6
BYLAYER
 62
     1
 10
256.808847
 20
-583.786689
 30
0.0
 11
256.808847
 21
-565.786689
 31
0.0
  0
LINE
  8
0
  6
BYLAYER
 62
     1
 10
217.808786
 20
-565.786689
 30
0.0
 11
217.808786
 21
-582.786689
 31
0.0
  0
LINE
  8
0
  6
BYLAYER
 62
     1
 10
218.808847
 20
-565.786689
 30
0.0
 11
218.808847
 21
-583.786689
 31
0.0
  0
CIRCLE
  8
0
  6
BYLAYER
 62
     1
 10
234.808847
 20
-574.786689
 30
0.0
 40
4.25
  0
LINE
  8
0
  6
BYLAYER
 62
     1
 10
256.808847
 20
-583.786689
 30
0.0
 11
218.808847
 21
-583.786689
 31
0.0
  0
LINE
  8
0
  6
BYLAYER
 62
     1
 10
218.808847
 20
-583.786689
 30
0.0
 11
217.808786
 21
-582.786689
 31
0.0
  0
LINE
  8
0
  6
BYLAYER
 62
     1
 10
224.808847
 20
-585.286689
 30
0.0
 11
224.808847
 21
-587.786689
 31
0.0
  0
LINE
  8
0
  6
BYLAYER
 62
     1
 10
224.808847
 20
-587.786689
 30
0.0
 11
224.308847
 21
-588.286689
 31
0.0
  0
LINE
  8
0
  6
BYLAYER
 62
     1
 10
239.808847
 20
-585.286689
 30
0.0
 11
239.861276
 21
-583.786689
 31
0.0
  0
LINE
  8
0
  6
BYLAYER
 62
     1
 10
258.808847
 20
-553.573676
 30
0.0
 11
238.808817
 21
-553.573676
 31
0.0
  0
LINE
  8
0
  6
BYLAYER
 62
     1
 10
258.808847
 20
-548.499702
 30
0.0
 11
238.808817
 21
-548.499702
 31
0.0
  0
LINE
  8
0
  6
BYLAYER
 62
     1
 10
230.808847
 20
-538.286689
 30
0.0
 11
238.808817
 21
-538.286689
 31
0.0
  0
LINE
  8
0
  6
BYLAYER
 62
     1
 10
230.808847
 20
-536.286689
 30
0.0
 11
238.808817
 21
-536.286689
 31
0.0
  0
ARC
  8
0
  6
BYLAYER
 62
     1
 10
230.808847
 20
-537.286689
 30
0.0
 40
1.0
 50
90.0
 51
270.000005
  0
LINE
  8
0
  6
BYLAYER
 62
     1
 10
230.808847
 20
-526.286689
 30
0.0
 11
238.808817
 21
-526.286689
 31
0.0
  0
LINE
  8
0
  6
BYLAYER
 62
     1
 10
230.808847
 20
-528.286689
 30
0.0
 11
238.808817
 21
-528.286689
 31
0.0
  0
ARC
  8
0
  6
BYLAYER
 62
     1
 10
230.808847
 20
-527.286689
 30
0.0
 40
1.0
 50
90.0
 51
269.999991
  0
LINE
  8
0
  6
BYLAYER
 62
     1
 10
258.808847
 20
-576.786689
 30
0.0
 11
257.808847
 21
-576.786689
 31
0.0
  0
LINE
  8
0
  6
BYLAYER
 62
     1
 10
258.808847
 20
-566.253669
 30
0.0
 11
257.773935
 21
-566.289802
 31
0.0
  0
ARC
  8
0
  6
BYLAYER
 62
     1
 10
257.808847
 20
-567.289252
 30
0.0
 40
1.000000
 50
91.999836
 51
180.0
  0
LINE
  8
0
  6
BYLAYER
 62
     1
 10
258.808847
 20
-516.073676
 30
0.0
 11
238.808817
 21
-516.073676
 31
0.0
  0
LINE
  8
0
  6
BYLAYER
 62
     1
 10
258.808847
 20
-510.999702
 30
0.0
 11
238.808817
 21
-510.999702
 31
0.0
  0
LINE
  8
0
  6
BYLAYER
 62
     1
 10
256.808847
 20
-480.786689
 30
0.0
 11
218.808847
 21
-480.786689
 31
0.0
  0
LINE
  8
0
  6
BYLAYER
 62
     1
 10
217.808786
 20
-481.786689
 30
0.0
 11
217.808786
 21
-498.786689
 31
0.0
  0
LINE
  8
0
  6
BYLAYER
 62
     1
 10
218.808847
 20
-498.786689
 30
0.0
 11
218.808847
 21
-480.786689
 31
0.0
  0
LINE
  8
0
  6
BYLAYER
 62
     1
 10
218.808847
 20
-480.786689
 30
0.0
 11
217.808786
 21
-481.786689
 31
0.0
  0
LINE
  8
0
  6
BYLAYER
 62
     1
 10
239.808847
 20
-479.286689
 30
0.0
 11
239.861276
 21
-480.786689
 31
0.0
  0
CIRCLE
  8
0
  6
BYLAYER
 62
     1
 10
234.808847
 20
-489.786689
 30
0.0
 40
4.25
  0
LINE
  8
0
  6
BYLAYER
 62
     1
 10
224.808847
 20
-479.286689
 30
0.0
 11
224.808847
 21
-476.786689
 31
0.0
  0
LINE
  8
0
  6
BYLAYER
 62
     1
 10
224.808847
 20
-476.786689
 30
0.0
 11
224.308847
 21
-476.286689
 31
0.0
  0
LINE
  8
0
  6
BYLAYER
 62
     1
 10
256.808847
 20
-480.786689
 30
0.0
 11
256.808847
 21
-498.786689
 31
0.0
  0
ARC
  8
0
  6
BYLAYER
 62
     1
 10
257.808847
 20
-497.284126
 30
0.0
 40
1.000000
 50
180.000000
 51
268.000171
  0
LINE
  8
0
  6
BYLAYER
 62
     1
 10
258.808847
 20
-498.319709
 30
0.0
 11
257.773935
 21
-498.283576
 31
0.0
  0
ARC
  8
0
  6
BYLAYER
 62
     1
 10
257.808847
 20
-486.786689
 30
0.0
 40
1.0
 50
180.000000
 51
269.999996
  0
LINE
  8
0
  6
BYLAYER
 62
     1
 10
258.808847
 20
-487.786689
 30
0.0
 11
257.808847
 21
-487.786689
 31
0.0
  0
LINE
  8
0
  6
BYLAYER
 62
     1
 10
208.058847
 20
-558.286689
 30
0.0
 11
238.808817
 21
-558.286689
 31
0.0
  0
LINE
  8
0
  6
BYLAYER
 62
     1
 10
238.808817
 20
-556.286689
 30
0.0
 11
208.058847
 21
-556.286689
 31
0.0
  0
LINE
  8
0
  6
BYLAYER
 62
     1
 10
208.058847
 20
-546.286689
 30
0.0
 11
238.808817
 21
-546.286689
 31
0.0
  0
LINE
  8
0
  6
BYLAYER
 62
     1
 10
238.808817
 20
-548.286689
 30
0.0
 11
208.058847
 21
-548.286689
 31
0.0
  0
LINE
  8
0
  6
BYLAYER
 62
     1
 10
208.058847
 20
-518.286689
 30
0.0
 11
238.808817
 21
-518.286689
 31
0.0
  0
LINE
  8
0
  6
BYLAYER
 62
     1
 10
238.808817
 20
-516.286689
 30
0.0
 11
208.058847
 21
-516.286689
 31
0.0
  0
LINE
  8
0
  6
BYLAYER
 62
     1
 10
238.808817
 20
-508.286689
 30
0.0
 11
208.058847
 21
-508.286689
 31
0.0
  0
LINE
  8
0
  6
BYLAYER
 62
     1
 10
208.058847
 20
-506.286689
 30
0.0
 11
238.808817
 21
-506.286689
 31
0.0
  0
ARC
  8
0
  6
BYLAYER
 62
     1
 10
208.058847
 20
-557.286689
 30
0.0
 40
1.0
 50
90.0
 51
270.000005
  0
LINE
  8
0
  6
BYLAYER
 62
     1
 10
157.808840
 20
-558.286689
 30
0.0
 11
130.808840
 21
-558.286689
 31
0.0
  0
LINE
  8
0
  6
BYLAYER
 62
     1
 10
130.808840
 20
-556.286689
 30
0.0
 11
157.808840
 21
-556.286689
 31
0.0
  0
LINE
  8
0
  6
BYLAYER
 62
     1
 10
130.808840
 20
-548.286689
 30
0.0
 11
157.808840
 21
-548.286689
 31
0.0
  0
LINE
  8
0
  6
BYLAYER
 62
     1
 10
157.808840
 20
-546.286689
 30
0.0
 11
130.808840
 21
-546.286689
 31
0.0
  0
ARC
  8
0
  6
BYLAYER
 62
     1
 10
157.808840
 20
-557.286689
 30
0.0
 40
1.0
 50
270.0
 51
449.999991
  0
ARC
  8
0
  6
BYLAYER
 62
     1
 10
157.808840
 20
-547.286689
 30
0.0
 40
1.0
 50
270.0
 51
449.999991
  0
LINE
  8
0
  6
BYLAYER
 62
     1
 10
157.808840
 20
-518.286689
 30
0.0
 11
130.808840
 21
-518.286689
 31
0.0
  0
LINE
  8
0
  6
BYLAYER
 62
     1
 10
157.808840
 20
-516.286689
 30
0.0
 11
130.808840
 21
-516.286689
 31
0.0
  0
LINE
  8
0
  6
BYLAYER
 62
     1
 10
130.808840
 20
-508.286689
 30
0.0
 11
157.808840
 21
-508.286689
 31
0.0
  0
LINE
  8
0
  6
BYLAYER
 62
     1
 10
157.808840
 20
-506.286689
 30
0.0
 11
130.808840
 21
-506.286689
 31
0.0
  0
ARC
  8
0
  6
BYLAYER
 62
     1
 10
157.808840
 20
-517.286689
 30
0.0
 40
1.0
 50
270.0
 51
449.999991
  0
ARC
  8
0
  6
BYLAYER
 62
     1
 10
157.808840
 20
-507.286689
 30
0.0
 40
1.0
 50
270.0
 51
449.999991
  0
LINE
  8
0
  6
BYLAYER
 62
     1
 10
130.808840
 20
-526.286689
 30
0.0
 11
164.308847
 21
-526.286689
 31
0.0
  0
LINE
  8
0
  6
BYLAYER
 62
     1
 10
130.808840
 20
-528.286689
 30
0.0
 11
164.308847
 21
-528.286689
 31
0.0
  0
LINE
  8
0
  6
BYLAYER
 62
     1
 10
130.808840
 20
-536.286689
 30
0.0
 11
164.308847
 21
-536.286689
 31
0.0
  0
LINE
  8
0
  6
BYLAYER
 62
     1
 10
130.808840
 20
-538.286689
 30
0.0
 11
164.308847
 21
-538.286689
 31
0.0
  0
ARC
  8
0
  6
BYLAYER
 62
     1
 10
164.308847
 20
-527.286689
 30
0.0
 40
1.0
 50
270.0
 51
450.000005
  0
ARC
  8
0
  6
BYLAYER
 62
     1
 10
164.308847
 20
-537.286689
 30
0.0
 40
1.0
 50
270.0
 51
450.000005
  0
ARC
  8
0
  6
BYLAYER
 62
     1
 10
208.058847
 20
-547.286689
 30
0.0
 40
1.0
 50
90.0
 51
270.000005
  0
ARC
  8
0
  6
BYLAYER
 62
     1
 10
208.058847
 20
-517.286689
 30
0.0
 40
1.0
 50
90.0
 51
269.999991
  0
ARC
  8
0
  6
BYLAYER
 62
     1
 10
208.058847
 20
-507.286689
 30
0.0
 40
1.0
 50
90.0
 51
269.999991
  0
LINE
  8
0
  6
BYLAYER
 62
     1
 10
279.808978
 20
-129.286658
 30
0.0
 11
279.808978
 21
-59.286670
 31
0.0
  0
ARC
  8
0
  6
BYLAYER
 62
     1
 10
271.808978
 20
-61.708686
 30
0.0
 40
2.000018
 50
93.000037
 51
176.204664
  0
ARC
  8
0
  6
BYLAYER
 62
     1
 10
268.808978
 20
-80.878913
 30
0.0
 40
1.000010
 50
285.999675
 51
360.000000
  0
LINE
  8
0
  6
BYLAYER
 62
     1
 10
258.808978
 20
-84.786658
 30
0.0
 11
269.084612
 21
-81.840186
 31
0.0
  0
LINE
  8
0
  6
BYLAYER
 62
     1
 10
258.808978
 20
-84.786689
 30
0.0
 11
258.808874
 21
-129.286689
 31
0.0
  0
LINE
  8
0
  6
BYLAYER
 62
     1
 10
264.574206
 20
-83.133521
 30
0.0
 11
269.808978
 21
-72.995094
 31
0.0
  0
LINE
  8
0
  6
BYLAYER
 62
     1
 10
269.808978
 20
-129.286689
 30
0.0
 11
269.808978
 21
-61.708686
 31
0.0
  0
LINE
  8
0
  6
BYLAYER
 62
     1
 10
279.808978
 20
-59.286670
 30
0.0
 11
271.704302
 21
-59.711494
 31
0.0
  0
ARC
  8
0
  6
BYLAYER
 62
     1
 10
268.808978
 20
-177.694465
 30
0.0
 40
1.000010
 50
0.0
 51
74.000325
  0
LINE
  8
0
  6
BYLAYER
 62
     1
 10
264.574206
 20
-175.439857
 30
0.0
 11
269.808978
 21
-185.578284
 31
0.0
  0
LINE
  8
0
  6
BYLAYER
 62
     1
 10
258.808978
 20
-173.786720
 30
0.0
 11
269.084612
 21
-176.733192
 31
0.0
  0
ARC
  8
0
  6
BYLAYER
 62
     1
 10
271.808978
 20
-196.864692
 30
0.0
 40
2.000018
 50
183.795336
 51
266.999963
  0
LINE
  8
0
  6
BYLAYER
 62
     1
 10
279.808978
 20
-199.286708
 30
0.0
 11
271.704302
 21
-198.861884
 31
0.0
  0
LINE
  8
0
  6
BYLAYER
 62
     1
 10
279.808978
 20
-129.286720
 30
0.0
 11
279.808978
 21
-199.286708
 31
0.0
  0
LINE
  8
0
  6
BYLAYER
 62
     1
 10
258.808978
 20
-173.786689
 30
0.0
 11
258.808874
 21
-129.286689
 31
0.0
  0
LINE
  8
0
  6
BYLAYER
 62
     1
 10
269.808978
 20
-129.286689
 30
0.0
 11
269.808978
 21
-196.864692
 31
0.0
  0
LINE
  8
0
  6
BYLAYER
 62
     1
 10
731.808874
 20
-247.286751
 30
0.0
 11
733.308874
 21
-247.339149
 31
0.0
  0
LINE
  8
0
  6
BYLAYER
 62
     1
 10
728.808874
 20
-231.786751
 30
0.0
 11
728.808874
 21
-195.278271
 31
0.0
  0
LINE
  8
0
  6
BYLAYER
 62
     1
 10
731.808874
 20
-197.711018
 30
0.0
 11
731.808874
 21
-247.286751
 31
0.0
  0
LINE
  8
0
  6
BYLAYER
 62
     1
 10
729.308874
 20
-232.286751
 30
0.0
 11
728.808874
 21
-231.786751
 31
0.0
  0
LINE
  8
0
  6
BYLAYER
 62
     1
 10
731.808874
 20
-232.286751
 30
0.0
 11
729.308874
 21
-232.286751
 31
0.0
  0
LINE
  8
0
  6
BYLAYER
 62
     1
 10
733.308874
 20
-226.286751
 30
0.0
 11
733.308874
 21
-264.286751
 31
0.0
  0
LINE
  8
0
  6
BYLAYER
 62
     1
 10
836.308874
 20
-264.286751
 30
0.0
 11
836.308874
 21
-226.286751
 31
0.0
  0
LINE
  8
0
  6
BYLAYER
 62
     1
 10
840.808874
 20
-231.786751
 30
0.0
 11
840.808874
 21
-195.278271
 31
0.0
  0
LINE
  8
0
  6
BYLAYER
 62
     1
 10
837.808874
 20
-197.711018
 30
0.0
 11
837.808874
 21
-247.286751
 31
0.0
  0
LINE
  8
0
  6
BYLAYER
 62
     1
 10
751.308874
 20
-264.286751
 30
0.0
 11
751.308874
 21
-209.090441
 31
0.0
  0
LINE
  8
0
  6
BYLAYER
 62
     1
 10
818.308874
 20
-209.090441
 30
0.0
 11
818.308874
 21
-264.286751
 31
0.0
  0
LINE
  8
0
  6
BYLAYER
 62
     1
 10
733.308874
 20
-264.286751
 30
0.0
 11
751.308874
 21
-264.286751
 31
0.0
  0
CIRCLE
  8
0
  6
BYLAYER
 62
     1
 10
742.308874
 20
-242.286751
 30
0.0
 40
4.25
  0
LINE
  8
0
  6
BYLAYER
 62
     1
 10
836.308874
 20
-264.286751
 30
0.0
 11
818.308874
 21
-264.286751
 31
0.0
  0
CIRCLE
  8
0
  6
BYLAYER
 62
     1
 10
827.308874
 20
-242.286751
 30
0.0
 40
4.25
  0
LINE
  8
0
  6
BYLAYER
 62
     1
 10
837.808874
 20
-247.286751
 30
0.0
 11
836.308874
 21
-247.339149
 31
0.0
  0
LINE
  8
0
  6
BYLAYER
 62
     1
 10
837.808874
 20
-232.286751
 30
0.0
 11
840.308874
 21
-232.286751
 31
0.0
  0
LINE
  8
0
  6
BYLAYER
 62
     1
 10
840.308874
 20
-232.286751
 30
0.0
 11
840.808874
 21
-231.786751
 31
0.0
  0
LINE
  8
0
  6
BYLAYER
 62
     1
 10
734.308874
 20
-225.286689
 30
0.0
 11
734.308874
 21
-199.576367
 31
0.0
  0
LINE
  8
0
  6
BYLAYER
 62
     1
 10
751.308874
 20
-225.286689
 30
0.0
 11
734.308874
 21
-225.286689
 31
0.0
  0
LINE
  8
0
  6
BYLAYER
 62
     1
 10
751.308874
 20
-226.286751
 30
0.0
 11
733.308874
 21
-226.286751
 31
0.0
  0
LINE
  8
0
  6
BYLAYER
 62
     1
 10
733.308874
 20
-226.286751
 30
0.0
 11
734.308874
 21
-225.286689
 31
0.0
  0
LINE
  8
0
  6
BYLAYER
 62
     1
 10
835.308874
 20
-225.286689
 30
0.0
 11
835.308874
 21
-199.576367
 31
0.0
  0
LINE
  8
0
  6
BYLAYER
 62
     1
 10
818.308874
 20
-226.286751
 30
0.0
 11
836.308874
 21
-226.286751
 31
0.0
  0
LINE
  8
0
  6
BYLAYER
 62
     1
 10
835.308874
 20
-225.286689
 30
0.0
 11
818.308874
 21
-225.286689
 31
0.0
  0
LINE
  8
0
  6
BYLAYER
 62
     1
 10
836.308874
 20
-226.286751
 30
0.0
 11
835.308874
 21
-225.286689
 31
0.0
  0
LINE
  8
0
  6
BYLAYER
 62
     1
 10
751.308874
 20
-260.286751
 30
0.0
 11
818.308874
 21
-260.286751
 31
0.0
  0
LINE
  8
0
  6
BYLAYER
 62
     7
 10
741.308767
 20
-22.786720
 30
0.0
 11
741.308767
 21
-1.286720
 31
0.0
  0
ARC
  8
0
  6
BYLAYER
 62
     7
 10
739.808767
 20
-22.786720
 30
0.0
 40
1.5
 50
270.0
 51
360.0
  0
ARC
  8
0
  6
BYLAYER
 62
     7
 10
742.808767
 20
-1.286720
 30
0.0
 40
1.5
 50
90.0
 51
180.0
  0
LINE
  8
0
  6
BYLAYER
 62
     7
 10
784.808767
 20
0.213280
 30
0.0
 11
742.808767
 21
0.213280
 31
0.0
  0
LINE
  8
0
  6
BYLAYER
 62
     7
 10
746.681008
 20
-22.786720
 30
0.0
 11
746.681008
 21
-1.286720
 31
0.0
  0
ARC
  8
0
  6
BYLAYER
 62
     7
 10
745.181008
 20
-22.786720
 30
0.0
 40
1.5
 50
270.0
 51
360.0
  0
ARC
  8
0
  6
BYLAYER
 62
     7
 10
748.181008
 20
-1.286720
 30
0.0
 40
1.5
 50
90.0
 51
180.0
  0
LINE
  8
0
  6
BYLAYER
 62
     7
 10
771.715114
 20
0.213280
 30
0.0
 11
772.207661
 21
-13.891418
 31
0.0
  0
ARC
  8
0
  6
BYLAYER
 62
     7
 10
775.205833
 20
-13.786720
 30
0.0
 40
3.000000
 50
182.000000
 51
270.000000
  0
LINE
  8
0
  6
BYLAYER
 62
     7
 10
782.409873
 20
-13.891418
 30
0.0
 11
782.902420
 21
0.213280
 31
0.0
  0
ARC
  8
0
  6
BYLAYER
 62
     7
 10
779.411701
 20
-13.786720
 30
0.0
 40
3.0
 50
270.0
 51
358.0
  0
LINE
  8
0
  6
BYLAYER
 62
     7
 10
775.205833
 20
-16.786720
 30
0.0
 11
779.411701
 21
-16.786720
 31
0.0
  0
LINE
  8
0
  6
BYLAYER
 62
     7
 10
756.715114
 20
0.213280
 30
0.0
 11
757.207661
 21
-13.891418
 31
0.0
  0
ARC
  8
0
  6
BYLAYER
 62
     7
 10
760.205833
 20
-13.786720
 30
0.0
 40
3.000000
 50
182.000000
 51
270.000000
  0
LINE
  8
0
  6
BYLAYER
 62
     7
 10
767.409873
 20
-13.891418
 30
0.0
 11
767.902420
 21
0.213280
 31
0.0
  0
ARC
  8
0
  6
BYLAYER
 62
     7
 10
764.411701
 20
-13.786720
 30
0.0
 40
3.0
 50
270.0
 51
358.0
  0
LINE
  8
0
  6
BYLAYER
 62
     7
 10
760.205833
 20
-16.786720
 30
0.0
 11
764.411701
 21
-16.786720
 31
0.0
  0
LINE
  8
0
  6
BYLAYER
 62
     7
 10
756.750035
 20
-0.786720
 30
0.0
 11
767.867499
 21
-0.786720
 31
0.0
  0
LINE
  8
0
  6
BYLAYER
 62
     7
 10
771.750035
 20
-0.786720
 30
0.0
 11
782.867499
 21
-0.786720
 31
0.0
  0
LINE
  8
0
  6
BYLAYER
 62
     7
 10
784.808767
 20
-24.286720
 30
0.0
 11
737.308767
 21
-24.286720
 31
0.0
  0
ARC
  8
0
  6
BYLAYER
 62
     7
 10
737.308767
 20
-25.786720
 30
0.0
 40
1.5
 50
90.0
 51
180.0
  0
LINE
  8
0
  6
BYLAYER
 62
     7
 10
735.808767
 20
-31.286720
 30
0.0
 11
735.808767
 21
-25.786720
 31
0.0
  0
LINE
  8
0
  6
BYLAYER
 62
     7
 10
735.808767
 20
-31.286720
 30
0.0
 11
784.808767
 21
-31.286720
 31
0.0
  0
LINE
  8
0
  6
BYLAYER
 62
     7
 10
828.308767
 20
-22.786720
 30
0.0
 11
828.308767
 21
-1.286720
 31
0.0
  0
ARC
  8
0
  6
BYLAYER
 62
     7
 10
829.808767
 20
-22.786720
 30
0.0
 40
1.5
 50
180.000000
 51
270.000000
  0
ARC
  8
0
  6
BYLAYER
 62
     7
 10
826.808767
 20
-1.286720
 30
0.0
 40
1.5
 50
0.0
 51
90.0
  0
LINE
  8
0
  6
BYLAYER
 62
     7
 10
784.808767
 20
0.213280
 30
0.0
 11
826.808767
 21
0.213280
 31
0.0
  0
LINE
  8
0
  6
BYLAYER
 62
     7
 10
822.936526
 20
-22.786720
 30
0.0
 11
822.936526
 21
-1.286720
 31
0.0
  0
ARC
  8
0
  6
BYLAYER
 62
     7
 10
824.436526
 20
-22.786720
 30
0.0
 40
1.5
 50
180.000000
 51
270.000000
  0
ARC
  8
0
  6
BYLAYER
 62
     7
 10
821.436526
 20
-1.286720
 30
0.0
 40
1.5
 50
0.0
 51
90.0
  0
LINE
  8
0
  6
BYLAYER
 62
     7
 10
797.902420
 20
0.213280
 30
0.0
 11
797.409873
 21
-13.891418
 31
0.0
  0
ARC
  8
0
  6
BYLAYER
 62
     7
 10
794.411701
 20
-13.786720
 30
0.0
 40
3.0
 50
270.0
 51
358.0
  0
LINE
  8
0
  6
BYLAYER
 62
     7
 10
787.207661
 20
-13.891418
 30
0.0
 11
786.715114
 21
0.213280
 31
0.0
  0
ARC
  8
0
  6
BYLAYER
 62
     7
 10
790.205833
 20
-13.786720
 30
0.0
 40
3.000000
 50
182.000000
 51
270.000000
  0
LINE
  8
0
  6
BYLAYER
 62
     7
 10
794.411701
 20
-16.786720
 30
0.0
 11
790.205833
 21
-16.786720
 31
0.0
  0
LINE
  8
0
  6
BYLAYER
 62
     7
 10
812.902420
 20
0.213280
 30
0.0
 11
812.409873
 21
-13.891418
 31
0.0
  0
ARC
  8
0
  6
BYLAYER
 62
     7
 10
809.411701
 20
-13.786720
 30
0.0
 40
3.0
 50
270.0
 51
358.0
  0
LINE
  8
0
  6
BYLAYER
 62
     7
 10
802.207661
 20
-13.891418
 30
0.0
 11
801.715114
 21
0.213280
 31
0.0
  0
ARC
  8
0
  6
BYLAYER
 62
     7
 10
805.205833
 20
-13.786720
 30
0.0
 40
3.000000
 50
182.000000
 51
270.000000
  0
LINE
  8
0
  6
BYLAYER
 62
     7
 10
809.411701
 20
-16.786720
 30
0.0
 11
805.205833
 21
-16.786720
 31
0.0
  0
LINE
  8
0
  6
BYLAYER
 62
     7
 10
812.867499
 20
-0.786720
 30
0.0
 11
801.750035
 21
-0.786720
 31
0.0
  0
LINE
  8
0
  6
BYLAYER
 62
     7
 10
797.867499
 20
-0.786720
 30
0.0
 11
786.750035
 21
-0.786720
 31
0.0
  0
LINE
  8
0
  6
BYLAYER
 62
     7
 10
784.808767
 20
-24.286720
 30
0.0
 11
832.308767
 21
-24.286720
 31
0.0
  0
ARC
  8
0
  6
BYLAYER
 62
     7
 10
832.308767
 20
-25.786720
 30
0.0
 40
1.5
 50
0.0
 51
90.0
  0
LINE
  8
0
  6
BYLAYER
 62
     7
 10
833.808767
 20
-33.286720
 30
0.0
 11
833.808767
 21
-25.786720
 31
0.0
  0
LINE
  8
0
  6
BYLAYER
 62
     7
 10
833.808767
 20
-31.286720
 30
0.0
 11
784.808767
 21
-31.286720
 31
0.0
  0
LINE
  8
0
  6
BYLAYER
 62
     7
 10
735.808767
 20
-33.286720
 30
0.0
 11
784.808751
 21
-33.286720
 31
0.0
  0
LINE
  8
0
  6
BYLAYER
 62
     7
 10
735.808767
 20
-38.786720
 30
0.0
 11
738.808767
 21
-43.982887
 31
0.0
  0
LINE
  8
0
  6
BYLAYER
 62
     7
 10
833.808751
 20
-33.286598
 30
0.0
 11
784.808751
 21
-33.286720
 31
0.0
  0
LINE
  8
0
  6
BYLAYER
 62
     7
 10
833.808751
 20
-38.786598
 30
0.0
 11
830.808751
 21
-43.982765
 31
0.0
  0
LINE
  8
0
  6
BYLAYER
 62
     7
 10
738.808767
 20
-43.982887
 30
0.0
 11
738.808767
 21
-55.973123
 31
0.0
  0
LINE
  8
0
  6
BYLAYER
 62
     7
 10
735.808767
 20
-33.286720
 30
0.0
 11
735.808767
 21
-57.943306
 31
0.0
  0
LINE
  8
0
  6
BYLAYER
 62
     7
 10
833.808751
 20
-33.286598
 30
0.0
 11
833.808780
 21
-57.943168
 31
0.0
  0
LINE
  8
0
  6
BYLAYER
 62
     7
 10
830.808751
 20
-43.982765
 30
0.0
 11
830.808762
 21
-55.972986
 31
0.0
  0
LINE
  8
0
  6
BYLAYER
 62
     7
 10
735.808767
 20
-31.286720
 30
0.0
 11
735.808767
 21
-33.286720
 31
0.0
  0
LINE
  8
0
  6
BYLAYER
 62
     7
 10
735.808767
 20
-33.286720
 30
0.0
 11
833.808767
 21
-33.286720
 31
0.0
  0
LINE
  8
0
  6
BYLAYER
 62
     7
 10
785.808874
 20
-100.286689
 30
0.0
 11
785.808874
 21
-108.286689
 31
0.0
  0
LINE
  8
0
  6
BYLAYER
 62
     7
 10
785.808874
 20
-90.286689
 30
0.0
 11
785.808874
 21
-98.286689
 31
0.0
  0
LINE
  8
0
  6
BYLAYER
 62
     7
 10
793.808874
 20
-98.286689
 30
0.0
 11
793.808874
 21
-90.286689
 31
0.0
  0
LINE
  8
0
  6
BYLAYER
 62
     7
 10
795.808874
 20
-98.286689
 30
0.0
 11
795.808874
 21
-90.286689
 31
0.0
  0
LINE
  8
0
  6
BYLAYER
 62
     7
 10
785.808874
 20
-108.286689
 30
0.0
 11
793.808874
 21
-108.286689
 31
0.0
  0
LINE
  8
0
  6
BYLAYER
 62
     7
 10
785.808874
 20
-100.286689
 30
0.0
 11
793.808874
 21
-100.286689
 31
0.0
  0
LINE
  8
0
  6
BYLAYER
 62
     7
 10
795.808874
 20
-98.286689
 30
0.0
 11
803.646873
 21
-98.286689
 31
0.0
  0
LINE
  8
0
  6
BYLAYER
 62
     7
 10
785.808874
 20
-98.286689
 30
0.0
 11
793.808874
 21
-98.286689
 31
0.0
  0
LINE
  8
0
  6
BYLAYER
 62
     7
 10
795.808874
 20
-90.286689
 30
0.0
 11
803.646873
 21
-90.286689
 31
0.0
  0
LINE
  8
0
  6
BYLAYER
 62
     7
 10
785.808874
 20
-90.286689
 30
0.0
 11
793.808874
 21
-90.286689
 31
0.0
  0
LINE
  8
0
  6
BYLAYER
 62
     7
 10
803.646873
 20
-98.286689
 30
0.0
 11
803.646873
 21
-90.286689
 31
0.0
  0
LINE
  8
0
  6
BYLAYER
 62
     7
 10
793.808874
 20
-108.286689
 30
0.0
 11
793.808874
 21
-100.286689
 31
0.0
  0
LINE
  8
0
  6
BYLAYER
 62
     7
 10
795.808874
 20
-100.286689
 30
0.0
 11
795.808874
 21
-108.286689
 31
0.0
  0
LINE
  8
0
  6
BYLAYER
 62
     7
 10
795.808874
 20
-108.286689
 30
0.0
 11
803.808874
 21
-108.286689
 31
0.0
  0
LINE
  8
0
  6
BYLAYER
 62
     7
 10
795.808874
 20
-100.286689
 30
0.0
 11
803.808874
 21
-100.286689
 31
0.0
  0
LINE
  8
0
  6
BYLAYER
 62
     7
 10
803.808874
 20
-108.286689
 30
0.0
 11
803.808874
 21
-100.286689
 31
0.0
  0
LINE
  8
0
  6
BYLAYER
 62
     7
 10
805.808874
 20
-118.286689
 30
0.0
 11
813.808874
 21
-118.286689
 31
0.0
  0
LINE
  8
0
  6
BYLAYER
 62
     7
 10
805.808874
 20
-100.286689
 30
0.0
 11
805.808874
 21
-108.286689
 31
0.0
  0
LINE
  8
0
  6
BYLAYER
 62
     7
 10
805.808874
 20
-110.286689
 30
0.0
 11
805.808874
 21
-118.286689
 31
0.0
  0
LINE
  8
0
  6
BYLAYER
 62
     7
 10
805.808874
 20
-110.286689
 30
0.0
 11
813.808874
 21
-110.286689
 31
0.0
  0
LINE
  8
0
  6
BYLAYER
 62
     7
 10
805.808874
 20
-108.286689
 30
0.0
 11
813.808874
 21
-108.286689
 31
0.0
  0
LINE
  8
0
  6
BYLAYER
 62
     7
 10
805.808874
 20
-100.286689
 30
0.0
 11
813.808874
 21
-100.286689
 31
0.0
  0
LINE
  8
0
  6
BYLAYER
 62
     7
 10
813.808874
 20
-118.286689
 30
0.0
 11
813.808874
 21
-110.286689
 31
0.0
  0
LINE
  8
0
  6
BYLAYER
 62
     7
 10
813.808874
 20
-108.286689
 30
0.0
 11
813.808874
 21
-100.286689
 31
0.0
  0
LINE
  8
0
  6
BYLAYER
 62
     7
 10
805.808874
 20
-128.286689
 30
0.0
 11
813.808874
 21
-128.286689
 31
0.0
  0
LINE
  8
0
  6
BYLAYER
 62
     7
 10
805.808874
 20
-120.286689
 30
0.0
 11
805.808874
 21
-128.286689
 31
0.0
  0
LINE
  8
0
  6
BYLAYER
 62
     7
 10
805.808874
 20
-120.286689
 30
0.0
 11
813.808874
 21
-120.286689
 31
0.0
  0
LINE
  8
0
  6
BYLAYER
 62
     7
 10
813.808874
 20
-128.286689
 30
0.0
 11
813.808874
 21
-120.286689
 31
0.0
  0
LINE
  8
0
  6
BYLAYER
 62
     7
 10
815.808874
 20
-118.286689
 30
0.0
 11
823.808874
 21
-118.286689
 31
0.0
  0
LINE
  8
0
  6
BYLAYER
 62
     7
 10
815.808874
 20
-110.286689
 30
0.0
 11
815.808874
 21
-118.286689
 31
0.0
  0
LINE
  8
0
  6
BYLAYER
 62
     7
 10
815.808874
 20
-110.286689
 30
0.0
 11
823.808874
 21
-110.286689
 31
0.0
  0
LINE
  8
0
  6
BYLAYER
 62
     7
 10
823.808874
 20
-118.286689
 30
0.0
 11
823.808874
 21
-110.286689
 31
0.0
  0
LINE
  8
0
  6
BYLAYER
 62
     7
 10
815.808874
 20
-128.286689
 30
0.0
 11
823.808874
 21
-128.286689
 31
0.0
  0
LINE
  8
0
  6
BYLAYER
 62
     7
 10
815.808874
 20
-120.286689
 30
0.0
 11
815.808874
 21
-128.286689
 31
0.0
  0
LINE
  8
0
  6
BYLAYER
 62
     7
 10
815.808874
 20
-120.286689
 30
0.0
 11
823.808874
 21
-120.286689
 31
0.0
  0
LINE
  8
0
  6
BYLAYER
 62
     7
 10
823.808874
 20
-128.286689
 30
0.0
 11
823.808874
 21
-120.286689
 31
0.0
  0
LINE
  8
0
  6
BYLAYER
 62
     7
 10
825.808874
 20
-118.286689
 30
0.0
 11
833.808874
 21
-118.286689
 31
0.0
  0
LINE
  8
0
  6
BYLAYER
 62
     7
 10
825.808874
 20
-110.286689
 30
0.0
 11
825.808874
 21
-118.286689
 31
0.0
  0
LINE
  8
0
  6
BYLAYER
 62
     7
 10
825.808874
 20
-110.286689
 30
0.0
 11
833.808874
 21
-110.286689
 31
0.0
  0
LINE
  8
0
  6
BYLAYER
 62
     7
 10
833.808874
 20
-118.286689
 30
0.0
 11
833.808874
 21
-110.286689
 31
0.0
  0
LINE
  8
0
  6
BYLAYER
 62
     7
 10
825.808874
 20
-128.286689
 30
0.0
 11
833.808874
 21
-128.286689
 31
0.0
  0
LINE
  8
0
  6
BYLAYER
 62
     7
 10
825.808874
 20
-120.286689
 30
0.0
 11
825.808874
 21
-128.286689
 31
0.0
  0
LINE
  8
0
  6
BYLAYER
 62
     7
 10
825.808874
 20
-120.286689
 30
0.0
 11
833.808874
 21
-120.286689
 31
0.0
  0
LINE
  8
0
  6
BYLAYER
 62
     7
 10
833.808874
 20
-128.286689
 30
0.0
 11
833.808874
 21
-120.286689
 31
0.0
  0
LINE
  8
0
  6
BYLAYER
 62
     7
 10
785.808874
 20
-80.286689
 30
0.0
 11
785.808874
 21
-88.286689
 31
0.0
  0
LINE
  8
0
  6
BYLAYER
 62
     7
 10
793.808874
 20
-88.286689
 30
0.0
 11
793.808874
 21
-80.286689
 31
0.0
  0
LINE
  8
0
  6
BYLAYER
 62
     7
 10
795.808874
 20
-88.286689
 30
0.0
 11
795.808874
 21
-80.286689
 31
0.0
  0
LINE
  8
0
  6
BYLAYER
 62
     7
 10
795.808874
 20
-88.286689
 30
0.0
 11
803.646873
 21
-88.286689
 31
0.0
  0
LINE
  8
0
  6
BYLAYER
 62
     7
 10
785.808874
 20
-88.286689
 30
0.0
 11
793.808874
 21
-88.286689
 31
0.0
  0
LINE
  8
0
  6
BYLAYER
 62
     7
 10
795.808874
 20
-80.286689
 30
0.0
 11
803.646873
 21
-80.286689
 31
0.0
  0
LINE
  8
0
  6
BYLAYER
 62
     7
 10
785.808874
 20
-80.286689
 30
0.0
 11
793.808874
 21
-80.286689
 31
0.0
  0
LINE
  8
0
  6
BYLAYER
 62
     7
 10
803.646873
 20
-88.286689
 30
0.0
 11
803.646873
 21
-80.286689
 31
0.0
  0
LINE
  8
0
  6
BYLAYER
 62
     7
 10
805.808874
 20
-90.286689
 30
0.0
 11
805.808874
 21
-98.286689
 31
0.0
  0
LINE
  8
0
  6
BYLAYER
 62
     7
 10
805.808874
 20
-98.286689
 30
0.0
 11
813.808874
 21
-98.286689
 31
0.0
  0
LINE
  8
0
  6
BYLAYER
 62
     7
 10
805.808874
 20
-90.286689
 30
0.0
 11
813.808874
 21
-90.286689
 31
0.0
  0
LINE
  8
0
  6
BYLAYER
 62
     7
 10
813.808874
 20
-98.286689
 30
0.0
 11
813.808874
 21
-90.286689
 31
0.0
  0
LINE
  8
0
  6
BYLAYER
 62
     7
 10
805.808874
 20
-80.286689
 30
0.0
 11
805.808874
 21
-88.286689
 31
0.0
  0
LINE
  8
0
  6
BYLAYER
 62
     7
 10
805.808874
 20
-88.286689
 30
0.0
 11
813.808874
 21
-88.286689
 31
0.0
  0
LINE
  8
0
  6
BYLAYER
 62
     7
 10
805.808874
 20
-80.286689
 30
0.0
 11
813.808874
 21
-80.286689
 31
0.0
  0
LINE
  8
0
  6
BYLAYER
 62
     7
 10
813.808874
 20
-88.286689
 30
0.0
 11
813.808874
 21
-80.286689
 31
0.0
  0
LINE
  8
0
  6
BYLAYER
 62
     7
 10
815.808874
 20
-100.286689
 30
0.0
 11
815.808874
 21
-108.286689
 31
0.0
  0
LINE
  8
0
  6
BYLAYER
 62
     7
 10
815.808874
 20
-108.286689
 30
0.0
 11
823.808874
 21
-108.286689
 31
0.0
  0
LINE
  8
0
  6
BYLAYER
 62
     7
 10
815.808874
 20
-100.286689
 30
0.0
 11
823.808874
 21
-100.286689
 31
0.0
  0
LINE
  8
0
  6
BYLAYER
 62
     7
 10
823.808874
 20
-108.286689
 30
0.0
 11
823.808874
 21
-100.286689
 31
0.0
  0
LINE
  8
0
  6
BYLAYER
 62
     7
 10
815.808874
 20
-90.286689
 30
0.0
 11
815.808874
 21
-98.286689
 31
0.0
  0
LINE
  8
0
  6
BYLAYER
 62
     7
 10
815.808874
 20
-98.286689
 30
0.0
 11
823.808874
 21
-98.286689
 31
0.0
  0
LINE
  8
0
  6
BYLAYER
 62
     7
 10
815.808874
 20
-90.286689
 30
0.0
 11
823.808874
 21
-90.286689
 31
0.0
  0
LINE
  8
0
  6
BYLAYER
 62
     7
 10
823.808874
 20
-98.286689
 30
0.0
 11
823.808874
 21
-90.286689
 31
0.0
  0
LINE
  8
0
  6
BYLAYER
 62
     7
 10
825.808874
 20
-100.286689
 30
0.0
 11
825.808874
 21
-108.286689
 31
0.0
  0
LINE
  8
0
  6
BYLAYER
 62
     7
 10
825.808874
 20
-108.286689
 30
0.0
 11
833.808874
 21
-108.286689
 31
0.0
  0
LINE
  8
0
  6
BYLAYER
 62
     7
 10
825.808874
 20
-100.286689
 30
0.0
 11
833.808874
 21
-100.286689
 31
0.0
  0
LINE
  8
0
  6
BYLAYER
 62
     7
 10
833.808874
 20
-108.286689
 30
0.0
 11
833.808874
 21
-100.286689
 31
0.0
  0
CIRCLE
  8
0
  6
BYLAYER
 62
     7
 10
784.808874
 20
-129.286689
 30
0.0
 40
4.0
  0
LINE
  8
0
  6
BYLAYER
 62
     7
 10
835.808874
 20
-118.286689
 30
0.0
 11
843.808874
 21
-118.286689
 31
0.0
  0
LINE
  8
0
  6
BYLAYER
 62
     7
 10
835.808874
 20
-110.286689
 30
0.0
 11
835.808874
 21
-118.286689
 31
0.0
  0
LINE
  8
0
  6
BYLAYER
 62
     7
 10
835.808874
 20
-110.286689
 30
0.0
 11
843.808874
 21
-110.286689
 31
0.0
  0
LINE
  8
0
  6
BYLAYER
 62
     7
 10
843.808874
 20
-118.286689
 30
0.0
 11
843.808874
 21
-110.286689
 31
0.0
  0
LINE
  8
0
  6
BYLAYER
 62
     7
 10
835.808874
 20
-128.286689
 30
0.0
 11
843.808874
 21
-128.286689
 31
0.0
  0
LINE
  8
0
  6
BYLAYER
 62
     7
 10
835.808874
 20
-120.286689
 30
0.0
 11
835.808874
 21
-128.286689
 31
0.0
  0
LINE
  8
0
  6
BYLAYER
 62
     7
 10
835.808874
 20
-120.286689
 30
0.0
 11
843.808874
 21
-120.286689
 31
0.0
  0
LINE
  8
0
  6
BYLAYER
 62
     7
 10
843.808874
 20
-128.286689
 30
0.0
 11
843.808874
 21
-120.286689
 31
0.0
  0
LINE
  8
0
  6
BYLAYER
 62
     7
 10
835.808874
 20
-100.286689
 30
0.0
 11
835.808874
 21
-108.286689
 31
0.0
  0
LINE
  8
0
  6
BYLAYER
 62
     7
 10
835.808874
 20
-108.286689
 30
0.0
 11
843.808874
 21
-108.286689
 31
0.0
  0
LINE
  8
0
  6
BYLAYER
 62
     7
 10
835.808874
 20
-100.286689
 30
0.0
 11
843.808874
 21
-100.286689
 31
0.0
  0
LINE
  8
0
  6
BYLAYER
 62
     7
 10
843.808874
 20
-108.286689
 30
0.0
 11
843.808874
 21
-100.286689
 31
0.0
  0
LINE
  8
0
  6
BYLAYER
 62
     7
 10
785.808874
 20
-70.286689
 30
0.0
 11
785.808874
 21
-78.286689
 31
0.0
  0
LINE
  8
0
  6
BYLAYER
 62
     7
 10
793.808874
 20
-78.286689
 30
0.0
 11
793.808874
 21
-70.286689
 31
0.0
  0
LINE
  8
0
  6
BYLAYER
 62
     7
 10
795.808874
 20
-78.286689
 30
0.0
 11
795.808874
 21
-70.286689
 31
0.0
  0
LINE
  8
0
  6
BYLAYER
 62
     7
 10
795.808874
 20
-78.286689
 30
0.0
 11
803.646873
 21
-78.286689
 31
0.0
  0
LINE
  8
0
  6
BYLAYER
 62
     7
 10
785.808874
 20
-78.286689
 30
0.0
 11
793.808874
 21
-78.286689
 31
0.0
  0
LINE
  8
0
  6
BYLAYER
 62
     7
 10
795.808874
 20
-70.286689
 30
0.0
 11
803.646873
 21
-70.286689
 31
0.0
  0
LINE
  8
0
  6
BYLAYER
 62
     7
 10
785.808874
 20
-70.286689
 30
0.0
 11
793.808874
 21
-70.286689
 31
0.0
  0
LINE
  8
0
  6
BYLAYER
 62
     7
 10
803.646873
 20
-78.286689
 30
0.0
 11
803.646873
 21
-70.286689
 31
0.0
  0
LINE
  8
0
  6
BYLAYER
 62
     7
 10
805.808874
 20
-70.286689
 30
0.0
 11
805.808874
 21
-78.286689
 31
0.0
  0
LINE
  8
0
  6
BYLAYER
 62
     7
 10
805.808874
 20
-78.286689
 30
0.0
 11
813.808874
 21
-78.286689
 31
0.0
  0
LINE
  8
0
  6
BYLAYER
 62
     7
 10
805.808874
 20
-70.286689
 30
0.0
 11
813.808874
 21
-70.286689
 31
0.0
  0
LINE
  8
0
  6
BYLAYER
 62
     7
 10
813.808874
 20
-78.286689
 30
0.0
 11
813.808874
 21
-70.286689
 31
0.0
  0
LINE
  8
0
  6
BYLAYER
 62
     7
 10
815.808874
 20
-80.286689
 30
0.0
 11
815.808874
 21
-88.286689
 31
0.0
  0
LINE
  8
0
  6
BYLAYER
 62
     7
 10
815.808874
 20
-88.286689
 30
0.0
 11
823.808874
 21
-88.286689
 31
0.0
  0
LINE
  8
0
  6
BYLAYER
 62
     7
 10
815.808874
 20
-80.286689
 30
0.0
 11
823.808874
 21
-80.286689
 31
0.0
  0
LINE
  8
0
  6
BYLAYER
 62
     7
 10
823.808874
 20
-88.286689
 30
0.0
 11
823.808874
 21
-80.286689
 31
0.0
  0
LINE
  8
0
  6
BYLAYER
 62
     7
 10
825.808874
 20
-90.286689
 30
0.0
 11
825.808874
 21
-98.286689
 31
0.0
  0
LINE
  8
0
  6
BYLAYER
 62
     7
 10
825.808874
 20
-98.286689
 30
0.0
 11
833.808874
 21
-98.286689
 31
0.0
  0
LINE
  8
0
  6
BYLAYER
 62
     7
 10
825.808874
 20
-90.286689
 30
0.0
 11
833.808874
 21
-90.286689
 31
0.0
  0
LINE
  8
0
  6
BYLAYER
 62
     7
 10
833.808874
 20
-98.286689
 30
0.0
 11
833.808874
 21
-90.286689
 31
0.0
  0
LINE
  8
0
  6
BYLAYER
 62
     7
 10
785.808874
 20
-158.286689
 30
0.0
 11
785.808874
 21
-150.286689
 31
0.0
  0
LINE
  8
0
  6
BYLAYER
 62
     7
 10
785.808874
 20
-168.286689
 30
0.0
 11
785.808874
 21
-160.286689
 31
0.0
  0
LINE
  8
0
  6
BYLAYER
 62
     7
 10
793.808874
 20
-160.286689
 30
0.0
 11
793.808874
 21
-168.286689
 31
0.0
  0
LINE
  8
0
  6
BYLAYER
 62
     7
 10
795.808874
 20
-160.286689
 30
0.0
 11
795.808874
 21
-168.286689
 31
0.0
  0
LINE
  8
0
  6
BYLAYER
 62
     7
 10
785.808874
 20
-150.286689
 30
0.0
 11
793.808874
 21
-150.286689
 31
0.0
  0
LINE
  8
0
  6
BYLAYER
 62
     7
 10
785.808874
 20
-158.286689
 30
0.0
 11
793.808874
 21
-158.286689
 31
0.0
  0
LINE
  8
0
  6
BYLAYER
 62
     7
 10
795.808874
 20
-160.286689
 30
0.0
 11
803.646873
 21
-160.286689
 31
0.0
  0
LINE
  8
0
  6
BYLAYER
 62
     7
 10
785.808874
 20
-160.286689
 30
0.0
 11
793.808874
 21
-160.286689
 31
0.0
  0
LINE
  8
0
  6
BYLAYER
 62
     7
 10
795.808874
 20
-168.286689
 30
0.0
 11
803.646873
 21
-168.286689
 31
0.0
  0
LINE
  8
0
  6
BYLAYER
 62
     7
 10
785.808874
 20
-168.286689
 30
0.0
 11
793.808874
 21
-168.286689
 31
0.0
  0
LINE
  8
0
  6
BYLAYER
 62
     7
 10
803.646873
 20
-160.286689
 30
0.0
 11
803.646873
 21
-168.286689
 31
0.0
  0
LINE
  8
0
  6
BYLAYER
 62
     7
 10
793.808874
 20
-150.286689
 30
0.0
 11
793.808874
 21
-158.286689
 31
0.0
  0
LINE
  8
0
  6
BYLAYER
 62
     7
 10
795.808874
 20
-158.286689
 30
0.0
 11
795.808874
 21
-150.286689
 31
0.0
  0
LINE
  8
0
  6
BYLAYER
 62
     7
 10
795.808874
 20
-150.286689
 30
0.0
 11
803.808874
 21
-150.286689
 31
0.0
  0
LINE
  8
0
  6
BYLAYER
 62
     7
 10
795.808874
 20
-158.286689
 30
0.0
 11
803.808874
 21
-158.286689
 31
0.0
  0
LINE
  8
0
  6
BYLAYER
 62
     7
 10
803.808874
 20
-150.286689
 30
0.0
 11
803.808874
 21
-158.286689
 31
0.0
  0
LINE
  8
0
  6
BYLAYER
 62
     7
 10
805.808874
 20
-140.286689
 30
0.0
 11
813.808874
 21
-140.286689
 31
0.0
  0
LINE
  8
0
  6
BYLAYER
 62
     7
 10
805.808874
 20
-158.286689
 30
0.0
 11
805.808874
 21
-150.286689
 31
0.0
  0
LINE
  8
0
  6
BYLAYER
 62
     7
 10
805.808874
 20
-148.286689
 30
0.0
 11
805.808874
 21
-140.286689
 31
0.0
  0
LINE
  8
0
  6
BYLAYER
 62
     7
 10
805.808874
 20
-148.286689
 30
0.0
 11
813.808874
 21
-148.286689
 31
0.0
  0
LINE
  8
0
  6
BYLAYER
 62
     7
 10
805.808874
 20
-150.286689
 30
0.0
 11
813.808874
 21
-150.286689
 31
0.0
  0
LINE
  8
0
  6
BYLAYER
 62
     7
 10
805.808874
 20
-158.286689
 30
0.0
 11
813.808874
 21
-158.286689
 31
0.0
  0
LINE
  8
0
  6
BYLAYER
 62
     7
 10
813.808874
 20
-140.286689
 30
0.0
 11
813.808874
 21
-148.286689
 31
0.0
  0
LINE
  8
0
  6
BYLAYER
 62
     7
 10
813.808874
 20
-150.286689
 30
0.0
 11
813.808874
 21
-158.286689
 31
0.0
  0
LINE
  8
0
  6
BYLAYER
 62
     7
 10
805.808874
 20
-130.286689
 30
0.0
 11
813.808874
 21
-130.286689
 31
0.0
  0
LINE
  8
0
  6
BYLAYER
 62
     7
 10
805.808874
 20
-138.286689
 30
0.0
 11
805.808874
 21
-130.286689
 31
0.0
  0
LINE
  8
0
  6
BYLAYER
 62
     7
 10
805.808874
 20
-138.286689
 30
0.0
 11
813.808874
 21
-138.286689
 31
0.0
  0
LINE
  8
0
  6
BYLAYER
 62
     7
 10
813.808874
 20
-130.286689
 30
0.0
 11
813.808874
 21
-138.286689
 31
0.0
  0
LINE
  8
0
  6
BYLAYER
 62
     7
 10
815.808874
 20
-140.286689
 30
0.0
 11
823.808874
 21
-140.286689
 31
0.0
  0
LINE
  8
0
  6
BYLAYER
 62
     7
 10
815.808874
 20
-148.286689
 30
0.0
 11
815.808874
 21
-140.286689
 31
0.0
  0
LINE
  8
0
  6
BYLAYER
 62
     7
 10
815.808874
 20
-148.286689
 30
0.0
 11
823.808874
 21
-148.286689
 31
0.0
  0
LINE
  8
0
  6
BYLAYER
 62
     7
 10
823.808874
 20
-140.286689
 30
0.0
 11
823.808874
 21
-148.286689
 31
0.0
  0
LINE
  8
0
  6
BYLAYER
 62
     7
 10
815.808874
 20
-130.286689
 30
0.0
 11
823.808874
 21
-130.286689
 31
0.0
  0
LINE
  8
0
  6
BYLAYER
 62
     7
 10
815.808874
 20
-138.286689
 30
0.0
 11
815.808874
 21
-130.286689
 31
0.0
  0
LINE
  8
0
  6
BYLAYER
 62
     7
 10
815.808874
 20
-138.286689
 30
0.0
 11
823.808874
 21
-138.286689
 31
0.0
  0
LINE
  8
0
  6
BYLAYER
 62
     7
 10
823.808874
 20
-130.286689
 30
0.0
 11
823.808874
 21
-138.286689
 31
0.0
  0
LINE
  8
0
  6
BYLAYER
 62
     7
 10
825.808874
 20
-140.286689
 30
0.0
 11
833.808874
 21
-140.286689
 31
0.0
  0
LINE
  8
0
  6
BYLAYER
 62
     7
 10
825.808874
 20
-148.286689
 30
0.0
 11
825.808874
 21
-140.286689
 31
0.0
  0
LINE
  8
0
  6
BYLAYER
 62
     7
 10
825.808874
 20
-148.286689
 30
0.0
 11
833.808874
 21
-148.286689
 31
0.0
  0
LINE
  8
0
  6
BYLAYER
 62
     7
 10
833.808874
 20
-140.286689
 30
0.0
 11
833.808874
 21
-148.286689
 31
0.0
  0
LINE
  8
0
  6
BYLAYER
 62
     7
 10
825.808874
 20
-130.286689
 30
0.0
 11
833.808874
 21
-130.286689
 31
0.0
  0
LINE
  8
0
  6
BYLAYER
 62
     7
 10
825.808874
 20
-138.286689
 30
0.0
 11
825.808874
 21
-130.286689
 31
0.0
  0
LINE
  8
0
  6
BYLAYER
 62
     7
 10
825.808874
 20
-138.286689
 30
0.0
 11
833.808874
 21
-138.286689
 31
0.0
  0
LINE
  8
0
  6
BYLAYER
 62
     7
 10
833.808874
 20
-130.286689
 30
0.0
 11
833.808874
 21
-138.286689
 31
0.0
  0
LINE
  8
0
  6
BYLAYER
 62
     7
 10
785.808874
 20
-178.286689
 30
0.0
 11
785.808874
 21
-170.286689
 31
0.0
  0
LINE
  8
0
  6
BYLAYER
 62
     7
 10
793.808874
 20
-170.286689
 30
0.0
 11
793.808874
 21
-178.286689
 31
0.0
  0
LINE
  8
0
  6
BYLAYER
 62
     7
 10
795.808874
 20
-170.286689
 30
0.0
 11
795.808874
 21
-178.286689
 31
0.0
  0
LINE
  8
0
  6
BYLAYER
 62
     7
 10
795.808874
 20
-170.286689
 30
0.0
 11
803.646873
 21
-170.286689
 31
0.0
  0
LINE
  8
0
  6
BYLAYER
 62
     7
 10
785.808874
 20
-170.286689
 30
0.0
 11
793.808874
 21
-170.286689
 31
0.0
  0
LINE
  8
0
  6
BYLAYER
 62
     7
 10
795.808874
 20
-178.286689
 30
0.0
 11
803.646873
 21
-178.286689
 31
0.0
  0
LINE
  8
0
  6
BYLAYER
 62
     7
 10
785.808874
 20
-178.286689
 30
0.0
 11
793.808874
 21
-178.286689
 31
0.0
  0
LINE
  8
0
  6
BYLAYER
 62
     7
 10
803.646873
 20
-170.286689
 30
0.0
 11
803.646873
 21
-178.286689
 31
0.0
  0
LINE
  8
0
  6
BYLAYER
 62
     7
 10
805.808874
 20
-168.286689
 30
0.0
 11
805.808874
 21
-160.286689
 31
0.0
  0
LINE
  8
0
  6
BYLAYER
 62
     7
 10
805.808874
 20
-160.286689
 30
0.0
 11
813.808874
 21
-160.286689
 31
0.0
  0
LINE
  8
0
  6
BYLAYER
 62
     7
 10
805.808874
 20
-168.286689
 30
0.0
 11
813.808874
 21
-168.286689
 31
0.0
  0
LINE
  8
0
  6
BYLAYER
 62
     7
 10
813.808874
 20
-160.286689
 30
0.0
 11
813.808874
 21
-168.286689
 31
0.0
  0
LINE
  8
0
  6
BYLAYER
 62
     7
 10
805.808874
 20
-178.286689
 30
0.0
 11
805.808874
 21
-170.286689
 31
0.0
  0
LINE
  8
0
  6
BYLAYER
 62
     7
 10
805.808874
 20
-170.286689
 30
0.0
 11
813.808874
 21
-170.286689
 31
0.0
  0
LINE
  8
0
  6
BYLAYER
 62
     7
 10
805.808874
 20
-178.286689
 30
0.0
 11
813.808874
 21
-178.286689
 31
0.0
  0
LINE
  8
0
  6
BYLAYER
 62
     7
 10
813.808874
 20
-170.286689
 30
0.0
 11
813.808874
 21
-178.286689
 31
0.0
  0
LINE
  8
0
  6
BYLAYER
 62
     7
 10
815.808874
 20
-158.286689
 30
0.0
 11
815.808874
 21
-150.286689
 31
0.0
  0
LINE
  8
0
  6
BYLAYER
 62
     7
 10
815.808874
 20
-150.286689
 30
0.0
 11
823.808874
 21
-150.286689
 31
0.0
  0
LINE
  8
0
  6
BYLAYER
 62
     7
 10
815.808874
 20
-158.286689
 30
0.0
 11
823.808874
 21
-158.286689
 31
0.0
  0
LINE
  8
0
  6
BYLAYER
 62
     7
 10
823.808874
 20
-150.286689
 30
0.0
 11
823.808874
 21
-158.286689
 31
0.0
  0
LINE
  8
0
  6
BYLAYER
 62
     7
 10
815.808874
 20
-168.286689
 30
0.0
 11
815.808874
 21
-160.286689
 31
0.0
  0
LINE
  8
0
  6
BYLAYER
 62
     7
 10
815.808874
 20
-160.286689
 30
0.0
 11
823.808874
 21
-160.286689
 31
0.0
  0
LINE
  8
0
  6
BYLAYER
 62
     7
 10
815.808874
 20
-168.286689
 30
0.0
 11
823.808874
 21
-168.286689
 31
0.0
  0
LINE
  8
0
  6
BYLAYER
 62
     7
 10
823.808874
 20
-160.286689
 30
0.0
 11
823.808874
 21
-168.286689
 31
0.0
  0
LINE
  8
0
  6
BYLAYER
 62
     7
 10
825.808874
 20
-158.286689
 30
0.0
 11
825.808874
 21
-150.286689
 31
0.0
  0
LINE
  8
0
  6
BYLAYER
 62
     7
 10
825.808874
 20
-150.286689
 30
0.0
 11
833.808874
 21
-150.286689
 31
0.0
  0
LINE
  8
0
  6
BYLAYER
 62
     7
 10
825.808874
 20
-158.286689
 30
0.0
 11
833.808874
 21
-158.286689
 31
0.0
  0
LINE
  8
0
  6
BYLAYER
 62
     7
 10
833.808874
 20
-150.286689
 30
0.0
 11
833.808874
 21
-158.286689
 31
0.0
  0
LINE
  8
0
  6
BYLAYER
 62
     7
 10
835.808874
 20
-140.286689
 30
0.0
 11
843.808874
 21
-140.286689
 31
0.0
  0
LINE
  8
0
  6
BYLAYER
 62
     7
 10
835.808874
 20
-148.286689
 30
0.0
 11
835.808874
 21
-140.286689
 31
0.0
  0
LINE
  8
0
  6
BYLAYER
 62
     7
 10
835.808874
 20
-148.286689
 30
0.0
 11
843.808874
 21
-148.286689
 31
0.0
  0
LINE
  8
0
  6
BYLAYER
 62
     7
 10
843.808874
 20
-140.286689
 30
0.0
 11
843.808874
 21
-148.286689
 31
0.0
  0
LINE
  8
0
  6
BYLAYER
 62
     7
 10
835.808874
 20
-130.286689
 30
0.0
 11
843.808874
 21
-130.286689
 31
0.0
  0
LINE
  8
0
  6
BYLAYER
 62
     7
 10
835.808874
 20
-138.286689
 30
0.0
 11
835.808874
 21
-130.286689
 31
0.0
  0
LINE
  8
0
  6
BYLAYER
 62
     7
 10
835.808874
 20
-138.286689
 30
0.0
 11
843.808874
 21
-138.286689
 31
0.0
  0
LINE
  8
0
  6
BYLAYER
 62
     7
 10
843.808874
 20
-130.286689
 30
0.0
 11
843.808874
 21
-138.286689
 31
0.0
  0
LINE
  8
0
  6
BYLAYER
 62
     7
 10
835.808874
 20
-158.286689
 30
0.0
 11
835.808874
 21
-150.286689
 31
0.0
  0
LINE
  8
0
  6
BYLAYER
 62
     7
 10
835.808874
 20
-150.286689
 30
0.0
 11
843.808874
 21
-150.286689
 31
0.0
  0
LINE
  8
0
  6
BYLAYER
 62
     7
 10
835.808874
 20
-158.286689
 30
0.0
 11
843.808874
 21
-158.286689
 31
0.0
  0
LINE
  8
0
  6
BYLAYER
 62
     7
 10
843.808874
 20
-150.286689
 30
0.0
 11
843.808874
 21
-158.286689
 31
0.0
  0
LINE
  8
0
  6
BYLAYER
 62
     7
 10
785.808874
 20
-188.286689
 30
0.0
 11
785.808874
 21
-180.286689
 31
0.0
  0
LINE
  8
0
  6
BYLAYER
 62
     7
 10
793.808874
 20
-180.286689
 30
0.0
 11
793.808874
 21
-188.286689
 31
0.0
  0
LINE
  8
0
  6
BYLAYER
 62
     7
 10
795.808874
 20
-180.286689
 30
0.0
 11
795.808874
 21
-188.286689
 31
0.0
  0
LINE
  8
0
  6
BYLAYER
 62
     7
 10
795.808874
 20
-180.286689
 30
0.0
 11
803.646873
 21
-180.286689
 31
0.0
  0
LINE
  8
0
  6
BYLAYER
 62
     7
 10
785.808874
 20
-180.286689
 30
0.0
 11
793.808874
 21
-180.286689
 31
0.0
  0
LINE
  8
0
  6
BYLAYER
 62
     7
 10
795.808874
 20
-188.286689
 30
0.0
 11
803.646873
 21
-188.286689
 31
0.0
  0
LINE
  8
0
  6
BYLAYER
 62
     7
 10
785.808874
 20
-188.286689
 30
0.0
 11
793.808874
 21
-188.286689
 31
0.0
  0
LINE
  8
0
  6
BYLAYER
 62
     7
 10
803.646873
 20
-180.286689
 30
0.0
 11
803.646873
 21
-188.286689
 31
0.0
  0
LINE
  8
0
  6
BYLAYER
 62
     7
 10
805.808874
 20
-188.286689
 30
0.0
 11
805.808874
 21
-180.286689
 31
0.0
  0
LINE
  8
0
  6
BYLAYER
 62
     7
 10
805.808874
 20
-180.286689
 30
0.0
 11
813.808874
 21
-180.286689
 31
0.0
  0
LINE
  8
0
  6
BYLAYER
 62
     7
 10
805.808874
 20
-188.286689
 30
0.0
 11
813.808874
 21
-188.286689
 31
0.0
  0
LINE
  8
0
  6
BYLAYER
 62
     7
 10
813.808874
 20
-180.286689
 30
0.0
 11
813.808874
 21
-188.286689
 31
0.0
  0
LINE
  8
0
  6
BYLAYER
 62
     7
 10
815.808874
 20
-178.286689
 30
0.0
 11
815.808874
 21
-170.286689
 31
0.0
  0
LINE
  8
0
  6
BYLAYER
 62
     7
 10
815.808874
 20
-170.286689
 30
0.0
 11
823.808874
 21
-170.286689
 31
0.0
  0
LINE
  8
0
  6
BYLAYER
 62
     7
 10
815.808874
 20
-178.286689
 30
0.0
 11
823.808874
 21
-178.286689
 31
0.0
  0
LINE
  8
0
  6
BYLAYER
 62
     7
 10
823.808874
 20
-170.286689
 30
0.0
 11
823.808874
 21
-178.286689
 31
0.0
  0
LINE
  8
0
  6
BYLAYER
 62
     7
 10
825.808874
 20
-168.286689
 30
0.0
 11
825.808874
 21
-160.286689
 31
0.0
  0
LINE
  8
0
  6
BYLAYER
 62
     7
 10
825.808874
 20
-160.286689
 30
0.0
 11
833.808874
 21
-160.286689
 31
0.0
  0
LINE
  8
0
  6
BYLAYER
 62
     7
 10
825.808874
 20
-168.286689
 30
0.0
 11
833.808874
 21
-168.286689
 31
0.0
  0
LINE
  8
0
  6
BYLAYER
 62
     7
 10
833.808874
 20
-160.286689
 30
0.0
 11
833.808874
 21
-168.286689
 31
0.0
  0
LINE
  8
0
  6
BYLAYER
 62
     7
 10
783.808874
 20
-100.286689
 30
0.0
 11
783.808874
 21
-108.286689
 31
0.0
  0
LINE
  8
0
  6
BYLAYER
 62
     7
 10
783.808874
 20
-90.286689
 30
0.0
 11
783.808874
 21
-98.286689
 31
0.0
  0
LINE
  8
0
  6
BYLAYER
 62
     7
 10
775.808874
 20
-98.286689
 30
0.0
 11
775.808874
 21
-90.286689
 31
0.0
  0
LINE
  8
0
  6
BYLAYER
 62
     7
 10
773.808874
 20
-98.286689
 30
0.0
 11
773.808874
 21
-90.286689
 31
0.0
  0
LINE
  8
0
  6
BYLAYER
 62
     7
 10
783.808874
 20
-108.286689
 30
0.0
 11
775.808874
 21
-108.286689
 31
0.0
  0
LINE
  8
0
  6
BYLAYER
 62
     7
 10
783.808874
 20
-100.286689
 30
0.0
 11
775.808874
 21
-100.286689
 31
0.0
  0
LINE
  8
0
  6
BYLAYER
 62
     7
 10
773.808874
 20
-98.286689
 30
0.0
 11
765.970875
 21
-98.286689
 31
0.0
  0
LINE
  8
0
  6
BYLAYER
 62
     7
 10
783.808874
 20
-98.286689
 30
0.0
 11
775.808874
 21
-98.286689
 31
0.0
  0
LINE
  8
0
  6
BYLAYER
 62
     7
 10
773.808874
 20
-90.286689
 30
0.0
 11
765.970875
 21
-90.286689
 31
0.0
  0
LINE
  8
0
  6
BYLAYER
 62
     7
 10
783.808874
 20
-90.286689
 30
0.0
 11
775.808874
 21
-90.286689
 31
0.0
  0
LINE
  8
0
  6
BYLAYER
 62
     7
 10
765.970875
 20
-98.286689
 30
0.0
 11
765.970875
 21
-90.286689
 31
0.0
  0
LINE
  8
0
  6
BYLAYER
 62
     7
 10
775.808874
 20
-108.286689
 30
0.0
 11
775.808874
 21
-100.286689
 31
0.0
  0
LINE
  8
0
  6
BYLAYER
 62
     7
 10
773.808874
 20
-100.286689
 30
0.0
 11
773.808874
 21
-108.286689
 31
0.0
  0
LINE
  8
0
  6
BYLAYER
 62
     7
 10
773.808874
 20
-108.286689
 30
0.0
 11
765.808874
 21
-108.286689
 31
0.0
  0
LINE
  8
0
  6
BYLAYER
 62
     7
 10
773.808874
 20
-100.286689
 30
0.0
 11
765.808874
 21
-100.286689
 31
0.0
  0
LINE
  8
0
  6
BYLAYER
 62
     7
 10
765.808874
 20
-108.286689
 30
0.0
 11
765.808874
 21
-100.286689
 31
0.0
  0
LINE
  8
0
  6
BYLAYER
 62
     7
 10
763.808874
 20
-118.286689
 30
0.0
 11
755.808874
 21
-118.286689
 31
0.0
  0
LINE
  8
0
  6
BYLAYER
 62
     7
 10
763.808874
 20
-100.286689
 30
0.0
 11
763.808874
 21
-108.286689
 31
0.0
  0
LINE
  8
0
  6
BYLAYER
 62
     7
 10
763.808874
 20
-110.286689
 30
0.0
 11
763.808874
 21
-118.286689
 31
0.0
  0
LINE
  8
0
  6
BYLAYER
 62
     7
 10
763.808874
 20
-110.286689
 30
0.0
 11
755.808874
 21
-110.286689
 31
0.0
  0
LINE
  8
0
  6
BYLAYER
 62
     7
 10
763.808874
 20
-108.286689
 30
0.0
 11
755.808874
 21
-108.286689
 31
0.0
  0
LINE
  8
0
  6
BYLAYER
 62
     7
 10
763.808874
 20
-100.286689
 30
0.0
 11
755.808874
 21
-100.286689
 31
0.0
  0
LINE
  8
0
  6
BYLAYER
 62
     7
 10
755.808874
 20
-118.286689
 30
0.0
 11
755.808874
 21
-110.286689
 31
0.0
  0
LINE
  8
0
  6
BYLAYER
 62
     7
 10
755.808874
 20
-108.286689
 30
0.0
 11
755.808874
 21
-100.286689
 31
0.0
  0
LINE
  8
0
  6
BYLAYER
 62
     7
 10
763.808874
 20
-128.286689
 30
0.0
 11
755.808874
 21
-128.286689
 31
0.0
  0
LINE
  8
0
  6
BYLAYER
 62
     7
 10
763.808874
 20
-120.286689
 30
0.0
 11
763.808874
 21
-128.286689
 31
0.0
  0
LINE
  8
0
  6
BYLAYER
 62
     7
 10
763.808874
 20
-120.286689
 30
0.0
 11
755.808874
 21
-120.286689
 31
0.0
  0
LINE
  8
0
  6
BYLAYER
 62
     7
 10
755.808874
 20
-128.286689
 30
0.0
 11
755.808874
 21
-120.286689
 31
0.0
  0
LINE
  8
0
  6
BYLAYER
 62
     7
 10
753.808874
 20
-118.286689
 30
0.0
 11
745.808874
 21
-118.286689
 31
0.0
  0
LINE
  8
0
  6
BYLAYER
 62
     7
 10
753.808874
 20
-110.286689
 30
0.0
 11
753.808874
 21
-118.286689
 31
0.0
  0
LINE
  8
0
  6
BYLAYER
 62
     7
 10
753.808874
 20
-110.286689
 30
0.0
 11
745.808874
 21
-110.286689
 31
0.0
  0
LINE
  8
0
  6
BYLAYER
 62
     7
 10
745.808874
 20
-118.286689
 30
0.0
 11
745.808874
 21
-110.286689
 31
0.0
  0
LINE
  8
0
  6
BYLAYER
 62
     7
 10
753.808874
 20
-128.286689
 30
0.0
 11
745.808874
 21
-128.286689
 31
0.0
  0
LINE
  8
0
  6
BYLAYER
 62
     7
 10
753.808874
 20
-120.286689
 30
0.0
 11
753.808874
 21
-128.286689
 31
0.0
  0
LINE
  8
0
  6
BYLAYER
 62
     7
 10
753.808874
 20
-120.286689
 30
0.0
 11
745.808874
 21
-120.286689
 31
0.0
  0
LINE
  8
0
  6
BYLAYER
 62
     7
 10
745.808874
 20
-128.286689
 30
0.0
 11
745.808874
 21
-120.286689
 31
0.0
  0
LINE
  8
0
  6
BYLAYER
 62
     7
 10
743.808874
 20
-118.286689
 30
0.0
 11
735.808874
 21
-118.286689
 31
0.0
  0
LINE
  8
0
  6
BYLAYER
 62
     7
 10
743.808874
 20
-110.286689
 30
0.0
 11
743.808874
 21
-118.286689
 31
0.0
  0
LINE
  8
0
  6
BYLAYER
 62
     7
 10
743.808874
 20
-110.286689
 30
0.0
 11
735.808874
 21
-110.286689
 31
0.0
  0
LINE
  8
0
  6
BYLAYER
 62
     7
 10
735.808874
 20
-118.286689
 30
0.0
 11
735.808874
 21
-110.286689
 31
0.0
  0
LINE
  8
0
  6
BYLAYER
 62
     7
 10
743.808874
 20
-128.286689
 30
0.0
 11
735.808874
 21
-128.286689
 31
0.0
  0
LINE
  8
0
  6
BYLAYER
 62
     7
 10
743.808874
 20
-120.286689
 30
0.0
 11
743.808874
 21
-128.286689
 31
0.0
  0
LINE
  8
0
  6
BYLAYER
 62
     7
 10
743.808874
 20
-120.286689
 30
0.0
 11
735.808874
 21
-120.286689
 31
0.0
  0
LINE
  8
0
  6
BYLAYER
 62
     7
 10
735.808874
 20
-128.286689
 30
0.0
 11
735.808874
 21
-120.286689
 31
0.0
  0
LINE
  8
0
  6
BYLAYER
 62
     7
 10
783.808874
 20
-80.286689
 30
0.0
 11
783.808874
 21
-88.286689
 31
0.0
  0
LINE
  8
0
  6
BYLAYER
 62
     7
 10
775.808874
 20
-88.286689
 30
0.0
 11
775.808874
 21
-80.286689
 31
0.0
  0
LINE
  8
0
  6
BYLAYER
 62
     7
 10
773.808874
 20
-88.286689
 30
0.0
 11
773.808874
 21
-80.286689
 31
0.0
  0
LINE
  8
0
  6
BYLAYER
 62
     7
 10
773.808874
 20
-88.286689
 30
0.0
 11
765.970875
 21
-88.286689
 31
0.0
  0
LINE
  8
0
  6
BYLAYER
 62
     7
 10
783.808874
 20
-88.286689
 30
0.0
 11
775.808874
 21
-88.286689
 31
0.0
  0
LINE
  8
0
  6
BYLAYER
 62
     7
 10
773.808874
 20
-80.286689
 30
0.0
 11
765.970875
 21
-80.286689
 31
0.0
  0
LINE
  8
0
  6
BYLAYER
 62
     7
 10
783.808874
 20
-80.286689
 30
0.0
 11
775.808874
 21
-80.286689
 31
0.0
  0
LINE
  8
0
  6
BYLAYER
 62
     7
 10
765.970875
 20
-88.286689
 30
0.0
 11
765.970875
 21
-80.286689
 31
0.0
  0
LINE
  8
0
  6
BYLAYER
 62
     7
 10
763.808874
 20
-90.286689
 30
0.0
 11
763.808874
 21
-98.286689
 31
0.0
  0
LINE
  8
0
  6
BYLAYER
 62
     7
 10
763.808874
 20
-98.286689
 30
0.0
 11
755.808874
 21
-98.286689
 31
0.0
  0
LINE
  8
0
  6
BYLAYER
 62
     7
 10
763.808874
 20
-90.286689
 30
0.0
 11
755.808874
 21
-90.286689
 31
0.0
  0
LINE
  8
0
  6
BYLAYER
 62
     7
 10
755.808874
 20
-98.286689
 30
0.0
 11
755.808874
 21
-90.286689
 31
0.0
  0
LINE
  8
0
  6
BYLAYER
 62
     7
 10
763.808874
 20
-80.286689
 30
0.0
 11
763.808874
 21
-88.286689
 31
0.0
  0
LINE
  8
0
  6
BYLAYER
 62
     7
 10
763.808874
 20
-88.286689
 30
0.0
 11
755.808874
 21
-88.286689
 31
0.0
  0
LINE
  8
0
  6
BYLAYER
 62
     7
 10
763.808874
 20
-80.286689
 30
0.0
 11
755.808874
 21
-80.286689
 31
0.0
  0
LINE
  8
0
  6
BYLAYER
 62
     7
 10
755.808874
 20
-88.286689
 30
0.0
 11
755.808874
 21
-80.286689
 31
0.0
  0
LINE
  8
0
  6
BYLAYER
 62
     7
 10
753.808874
 20
-100.286689
 30
0.0
 11
753.808874
 21
-108.286689
 31
0.0
  0
LINE
  8
0
  6
BYLAYER
 62
     7
 10
753.808874
 20
-108.286689
 30
0.0
 11
745.808874
 21
-108.286689
 31
0.0
  0
LINE
  8
0
  6
BYLAYER
 62
     7
 10
753.808874
 20
-100.286689
 30
0.0
 11
745.808874
 21
-100.286689
 31
0.0
  0
LINE
  8
0
  6
BYLAYER
 62
     7
 10
745.808874
 20
-108.286689
 30
0.0
 11
745.808874
 21
-100.286689
 31
0.0
  0
LINE
  8
0
  6
BYLAYER
 62
     7
 10
753.808874
 20
-90.286689
 30
0.0
 11
753.808874
 21
-98.286689
 31
0.0
  0
LINE
  8
0
  6
BYLAYER
 62
     7
 10
753.808874
 20
-98.286689
 30
0.0
 11
745.808874
 21
-98.286689
 31
0.0
  0
LINE
  8
0
  6
BYLAYER
 62
     7
 10
753.808874
 20
-90.286689
 30
0.0
 11
745.808874
 21
-90.286689
 31
0.0
  0
LINE
  8
0
  6
BYLAYER
 62
     7
 10
745.808874
 20
-98.286689
 30
0.0
 11
745.808874
 21
-90.286689
 31
0.0
  0
LINE
  8
0
  6
BYLAYER
 62
     7
 10
743.808874
 20
-100.286689
 30
0.0
 11
743.808874
 21
-108.286689
 31
0.0
  0
LINE
  8
0
  6
BYLAYER
 62
     7
 10
743.808874
 20
-108.286689
 30
0.0
 11
735.808874
 21
-108.286689
 31
0.0
  0
LINE
  8
0
  6
BYLAYER
 62
     7
 10
743.808874
 20
-100.286689
 30
0.0
 11
735.808874
 21
-100.286689
 31
0.0
  0
LINE
  8
0
  6
BYLAYER
 62
     7
 10
735.808874
 20
-108.286689
 30
0.0
 11
735.808874
 21
-100.286689
 31
0.0
  0
LINE
  8
0
  6
BYLAYER
 62
     7
 10
733.808874
 20
-118.286689
 30
0.0
 11
725.808874
 21
-118.286689
 31
0.0
  0
LINE
  8
0
  6
BYLAYER
 62
     7
 10
733.808874
 20
-110.286689
 30
0.0
 11
733.808874
 21
-118.286689
 31
0.0
  0
LINE
  8
0
  6
BYLAYER
 62
     7
 10
733.808874
 20
-110.286689
 30
0.0
 11
725.808874
 21
-110.286689
 31
0.0
  0
LINE
  8
0
  6
BYLAYER
 62
     7
 10
725.808874
 20
-118.286689
 30
0.0
 11
725.808874
 21
-110.286689
 31
0.0
  0
LINE
  8
0
  6
BYLAYER
 62
     7
 10
733.808874
 20
-128.286689
 30
0.0
 11
725.808874
 21
-128.286689
 31
0.0
  0
LINE
  8
0
  6
BYLAYER
 62
     7
 10
733.808874
 20
-120.286689
 30
0.0
 11
733.808874
 21
-128.286689
 31
0.0
  0
LINE
  8
0
  6
BYLAYER
 62
     7
 10
733.808874
 20
-120.286689
 30
0.0
 11
725.808874
 21
-120.286689
 31
0.0
  0
LINE
  8
0
  6
BYLAYER
 62
     7
 10
725.808874
 20
-128.286689
 30
0.0
 11
725.808874
 21
-120.286689
 31
0.0
  0
LINE
  8
0
  6
BYLAYER
 62
     7
 10
733.808874
 20
-100.286689
 30
0.0
 11
733.808874
 21
-108.286689
 31
0.0
  0
LINE
  8
0
  6
BYLAYER
 62
     7
 10
733.808874
 20
-108.286689
 30
0.0
 11
725.808874
 21
-108.286689
 31
0.0
  0
LINE
  8
0
  6
BYLAYER
 62
     7
 10
733.808874
 20
-100.286689
 30
0.0
 11
725.808874
 21
-100.286689
 31
0.0
  0
LINE
  8
0
  6
BYLAYER
 62
     7
 10
725.808874
 20
-108.286689
 30
0.0
 11
725.808874
 21
-100.286689
 31
0.0
  0
LINE
  8
0
  6
BYLAYER
 62
     7
 10
783.808874
 20
-70.286689
 30
0.0
 11
783.808874
 21
-78.286689
 31
0.0
  0
LINE
  8
0
  6
BYLAYER
 62
     7
 10
775.808874
 20
-78.286689
 30
0.0
 11
775.808874
 21
-70.286689
 31
0.0
  0
LINE
  8
0
  6
BYLAYER
 62
     7
 10
773.808874
 20
-78.286689
 30
0.0
 11
773.808874
 21
-70.286689
 31
0.0
  0
LINE
  8
0
  6
BYLAYER
 62
     7
 10
773.808874
 20
-78.286689
 30
0.0
 11
765.970875
 21
-78.286689
 31
0.0
  0
LINE
  8
0
  6
BYLAYER
 62
     7
 10
783.808874
 20
-78.286689
 30
0.0
 11
775.808874
 21
-78.286689
 31
0.0
  0
LINE
  8
0
  6
BYLAYER
 62
     7
 10
773.808874
 20
-70.286689
 30
0.0
 11
765.970875
 21
-70.286689
 31
0.0
  0
LINE
  8
0
  6
BYLAYER
 62
     7
 10
783.808874
 20
-70.286689
 30
0.0
 11
775.808874
 21
-70.286689
 31
0.0
  0
LINE
  8
0
  6
BYLAYER
 62
     7
 10
765.970875
 20
-78.286689
 30
0.0
 11
765.970875
 21
-70.286689
 31
0.0
  0
LINE
  8
0
  6
BYLAYER
 62
     7
 10
763.808874
 20
-70.286689
 30
0.0
 11
763.808874
 21
-78.286689
 31
0.0
  0
LINE
  8
0
  6
BYLAYER
 62
     7
 10
763.808874
 20
-78.286689
 30
0.0
 11
755.808874
 21
-78.286689
 31
0.0
  0
LINE
  8
0
  6
BYLAYER
 62
     7
 10
763.808874
 20
-70.286689
 30
0.0
 11
755.808874
 21
-70.286689
 31
0.0
  0
LINE
  8
0
  6
BYLAYER
 62
     7
 10
755.808874
 20
-78.286689
 30
0.0
 11
755.808874
 21
-70.286689
 31
0.0
  0
LINE
  8
0
  6
BYLAYER
 62
     7
 10
753.808874
 20
-80.286689
 30
0.0
 11
753.808874
 21
-88.286689
 31
0.0
  0
LINE
  8
0
  6
BYLAYER
 62
     7
 10
753.808874
 20
-88.286689
 30
0.0
 11
745.808874
 21
-88.286689
 31
0.0
  0
LINE
  8
0
  6
BYLAYER
 62
     7
 10
753.808874
 20
-80.286689
 30
0.0
 11
745.808874
 21
-80.286689
 31
0.0
  0
LINE
  8
0
  6
BYLAYER
 62
     7
 10
745.808874
 20
-88.286689
 30
0.0
 11
745.808874
 21
-80.286689
 31
0.0
  0
LINE
  8
0
  6
BYLAYER
 62
     7
 10
743.808874
 20
-90.286689
 30
0.0
 11
743.808874
 21
-98.286689
 31
0.0
  0
LINE
  8
0
  6
BYLAYER
 62
     7
 10
743.808874
 20
-98.286689
 30
0.0
 11
735.808874
 21
-98.286689
 31
0.0
  0
LINE
  8
0
  6
BYLAYER
 62
     7
 10
743.808874
 20
-90.286689
 30
0.0
 11
735.808874
 21
-90.286689
 31
0.0
  0
LINE
  8
0
  6
BYLAYER
 62
     7
 10
735.808874
 20
-98.286689
 30
0.0
 11
735.808874
 21
-90.286689
 31
0.0
  0
LINE
  8
0
  6
BYLAYER
 62
     7
 10
783.808874
 20
-158.286689
 30
0.0
 11
783.808874
 21
-150.286689
 31
0.0
  0
LINE
  8
0
  6
BYLAYER
 62
     7
 10
783.808874
 20
-168.286689
 30
0.0
 11
783.808874
 21
-160.286689
 31
0.0
  0
LINE
  8
0
  6
BYLAYER
 62
     7
 10
775.808874
 20
-160.286689
 30
0.0
 11
775.808874
 21
-168.286689
 31
0.0
  0
LINE
  8
0
  6
BYLAYER
 62
     7
 10
773.808874
 20
-160.286689
 30
0.0
 11
773.808874
 21
-168.286689
 31
0.0
  0
LINE
  8
0
  6
BYLAYER
 62
     7
 10
783.808874
 20
-150.286689
 30
0.0
 11
775.808874
 21
-150.286689
 31
0.0
  0
LINE
  8
0
  6
BYLAYER
 62
     7
 10
783.808874
 20
-158.286689
 30
0.0
 11
775.808874
 21
-158.286689
 31
0.0
  0
LINE
  8
0
  6
BYLAYER
 62
     7
 10
773.808874
 20
-160.286689
 30
0.0
 11
765.970875
 21
-160.286689
 31
0.0
  0
LINE
  8
0
  6
BYLAYER
 62
     7
 10
783.808874
 20
-160.286689
 30
0.0
 11
775.808874
 21
-160.286689
 31
0.0
  0
LINE
  8
0
  6
BYLAYER
 62
     7
 10
773.808874
 20
-168.286689
 30
0.0
 11
765.970875
 21
-168.286689
 31
0.0
  0
LINE
  8
0
  6
BYLAYER
 62
     7
 10
783.808874
 20
-168.286689
 30
0.0
 11
775.808874
 21
-168.286689
 31
0.0
  0
LINE
  8
0
  6
BYLAYER
 62
     7
 10
765.970875
 20
-160.286689
 30
0.0
 11
765.970875
 21
-168.286689
 31
0.0
  0
LINE
  8
0
  6
BYLAYER
 62
     7
 10
775.808874
 20
-150.286689
 30
0.0
 11
775.808874
 21
-158.286689
 31
0.0
  0
LINE
  8
0
  6
BYLAYER
 62
     7
 10
773.808874
 20
-158.286689
 30
0.0
 11
773.808874
 21
-150.286689
 31
0.0
  0
LINE
  8
0
  6
BYLAYER
 62
     7
 10
773.808874
 20
-150.286689
 30
0.0
 11
765.808874
 21
-150.286689
 31
0.0
  0
LINE
  8
0
  6
BYLAYER
 62
     7
 10
773.808874
 20
-158.286689
 30
0.0
 11
765.808874
 21
-158.286689
 31
0.0
  0
LINE
  8
0
  6
BYLAYER
 62
     7
 10
765.808874
 20
-150.286689
 30
0.0
 11
765.808874
 21
-158.286689
 31
0.0
  0
LINE
  8
0
  6
BYLAYER
 62
     7
 10
763.808874
 20
-140.286689
 30
0.0
 11
755.808874
 21
-140.286689
 31
0.0
  0
LINE
  8
0
  6
BYLAYER
 62
     7
 10
763.808874
 20
-158.286689
 30
0.0
 11
763.808874
 21
-150.286689
 31
0.0
  0
LINE
  8
0
  6
BYLAYER
 62
     7
 10
763.808874
 20
-148.286689
 30
0.0
 11
763.808874
 21
-140.286689
 31
0.0
  0
LINE
  8
0
  6
BYLAYER
 62
     7
 10
763.808874
 20
-148.286689
 30
0.0
 11
755.808874
 21
-148.286689
 31
0.0
  0
LINE
  8
0
  6
BYLAYER
 62
     7
 10
763.808874
 20
-150.286689
 30
0.0
 11
755.808874
 21
-150.286689
 31
0.0
  0
LINE
  8
0
  6
BYLAYER
 62
     7
 10
763.808874
 20
-158.286689
 30
0.0
 11
755.808874
 21
-158.286689
 31
0.0
  0
LINE
  8
0
  6
BYLAYER
 62
     7
 10
755.808874
 20
-140.286689
 30
0.0
 11
755.808874
 21
-148.286689
 31
0.0
  0
LINE
  8
0
  6
BYLAYER
 62
     7
 10
755.808874
 20
-150.286689
 30
0.0
 11
755.808874
 21
-158.286689
 31
0.0
  0
LINE
  8
0
  6
BYLAYER
 62
     7
 10
763.808874
 20
-130.286689
 30
0.0
 11
755.808874
 21
-130.286689
 31
0.0
  0
LINE
  8
0
  6
BYLAYER
 62
     7
 10
763.808874
 20
-138.286689
 30
0.0
 11
763.808874
 21
-130.286689
 31
0.0
  0
LINE
  8
0
  6
BYLAYER
 62
     7
 10
763.808874
 20
-138.286689
 30
0.0
 11
755.808874
 21
-138.286689
 31
0.0
  0
LINE
  8
0
  6
BYLAYER
 62
     7
 10
755.808874
 20
-130.286689
 30
0.0
 11
755.808874
 21
-138.286689
 31
0.0
  0
LINE
  8
0
  6
BYLAYER
 62
     7
 10
753.808874
 20
-140.286689
 30
0.0
 11
745.808874
 21
-140.286689
 31
0.0
  0
LINE
  8
0
  6
BYLAYER
 62
     7
 10
753.808874
 20
-148.286689
 30
0.0
 11
753.808874
 21
-140.286689
 31
0.0
  0
LINE
  8
0
  6
BYLAYER
 62
     7
 10
753.808874
 20
-148.286689
 30
0.0
 11
745.808874
 21
-148.286689
 31
0.0
  0
LINE
  8
0
  6
BYLAYER
 62
     7
 10
745.808874
 20
-140.286689
 30
0.0
 11
745.808874
 21
-148.286689
 31
0.0
  0
LINE
  8
0
  6
BYLAYER
 62
     7
 10
753.808874
 20
-130.286689
 30
0.0
 11
745.808874
 21
-130.286689
 31
0.0
  0
LINE
  8
0
  6
BYLAYER
 62
     7
 10
753.808874
 20
-138.286689
 30
0.0
 11
753.808874
 21
-130.286689
 31
0.0
  0
LINE
  8
0
  6
BYLAYER
 62
     7
 10
753.808874
 20
-138.286689
 30
0.0
 11
745.808874
 21
-138.286689
 31
0.0
  0
LINE
  8
0
  6
BYLAYER
 62
     7
 10
745.808874
 20
-130.286689
 30
0.0
 11
745.808874
 21
-138.286689
 31
0.0
  0
LINE
  8
0
  6
BYLAYER
 62
     7
 10
743.808874
 20
-140.286689
 30
0.0
 11
735.808874
 21
-140.286689
 31
0.0
  0
LINE
  8
0
  6
BYLAYER
 62
     7
 10
743.808874
 20
-148.286689
 30
0.0
 11
743.808874
 21
-140.286689
 31
0.0
  0
LINE
  8
0
  6
BYLAYER
 62
     7
 10
743.808874
 20
-148.286689
 30
0.0
 11
735.808874
 21
-148.286689
 31
0.0
  0
LINE
  8
0
  6
BYLAYER
 62
     7
 10
735.808874
 20
-140.286689
 30
0.0
 11
735.808874
 21
-148.286689
 31
0.0
  0
LINE
  8
0
  6
BYLAYER
 62
     7
 10
743.808874
 20
-130.286689
 30
0.0
 11
735.808874
 21
-130.286689
 31
0.0
  0
LINE
  8
0
  6
BYLAYER
 62
     7
 10
743.808874
 20
-138.286689
 30
0.0
 11
743.808874
 21
-130.286689
 31
0.0
  0
LINE
  8
0
  6
BYLAYER
 62
     7
 10
743.808874
 20
-138.286689
 30
0.0
 11
735.808874
 21
-138.286689
 31
0.0
  0
LINE
  8
0
  6
BYLAYER
 62
     7
 10
735.808874
 20
-130.286689
 30
0.0
 11
735.808874
 21
-138.286689
 31
0.0
  0
LINE
  8
0
  6
BYLAYER
 62
     7
 10
783.808874
 20
-178.286689
 30
0.0
 11
783.808874
 21
-170.286689
 31
0.0
  0
LINE
  8
0
  6
BYLAYER
 62
     7
 10
775.808874
 20
-170.286689
 30
0.0
 11
775.808874
 21
-178.286689
 31
0.0
  0
LINE
  8
0
  6
BYLAYER
 62
     7
 10
773.808874
 20
-170.286689
 30
0.0
 11
773.808874
 21
-178.286689
 31
0.0
  0
LINE
  8
0
  6
BYLAYER
 62
     7
 10
773.808874
 20
-170.286689
 30
0.0
 11
765.970875
 21
-170.286689
 31
0.0
  0
LINE
  8
0
  6
BYLAYER
 62
     7
 10
783.808874
 20
-170.286689
 30
0.0
 11
775.808874
 21
-170.286689
 31
0.0
  0
LINE
  8
0
  6
BYLAYER
 62
     7
 10
773.808874
 20
-178.286689
 30
0.0
 11
765.970875
 21
-178.286689
 31
0.0
  0
LINE
  8
0
  6
BYLAYER
 62
     7
 10
783.808874
 20
-178.286689
 30
0.0
 11
775.808874
 21
-178.286689
 31
0.0
  0
LINE
  8
0
  6
BYLAYER
 62
     7
 10
765.970875
 20
-170.286689
 30
0.0
 11
765.970875
 21
-178.286689
 31
0.0
  0
LINE
  8
0
  6
BYLAYER
 62
     7
 10
763.808874
 20
-168.286689
 30
0.0
 11
763.808874
 21
-160.286689
 31
0.0
  0
LINE
  8
0
  6
BYLAYER
 62
     7
 10
763.808874
 20
-160.286689
 30
0.0
 11
755.808874
 21
-160.286689
 31
0.0
  0
LINE
  8
0
  6
BYLAYER
 62
     7
 10
763.808874
 20
-168.286689
 30
0.0
 11
755.808874
 21
-168.286689
 31
0.0
  0
LINE
  8
0
  6
BYLAYER
 62
     7
 10
755.808874
 20
-160.286689
 30
0.0
 11
755.808874
 21
-168.286689
 31
0.0
  0
LINE
  8
0
  6
BYLAYER
 62
     7
 10
763.808874
 20
-178.286689
 30
0.0
 11
763.808874
 21
-170.286689
 31
0.0
  0
LINE
  8
0
  6
BYLAYER
 62
     7
 10
763.808874
 20
-170.286689
 30
0.0
 11
755.808874
 21
-170.286689
 31
0.0
  0
LINE
  8
0
  6
BYLAYER
 62
     7
 10
763.808874
 20
-178.286689
 30
0.0
 11
755.808874
 21
-178.286689
 31
0.0
  0
LINE
  8
0
  6
BYLAYER
 62
     7
 10
755.808874
 20
-170.286689
 30
0.0
 11
755.808874
 21
-178.286689
 31
0.0
  0
LINE
  8
0
  6
BYLAYER
 62
     7
 10
753.808874
 20
-158.286689
 30
0.0
 11
753.808874
 21
-150.286689
 31
0.0
  0
LINE
  8
0
  6
BYLAYER
 62
     7
 10
753.808874
 20
-150.286689
 30
0.0
 11
745.808874
 21
-150.286689
 31
0.0
  0
LINE
  8
0
  6
BYLAYER
 62
     7
 10
753.808874
 20
-158.286689
 30
0.0
 11
745.808874
 21
-158.286689
 31
0.0
  0
LINE
  8
0
  6
BYLAYER
 62
     7
 10
745.808874
 20
-150.286689
 30
0.0
 11
745.808874
 21
-158.286689
 31
0.0
  0
LINE
  8
0
  6
BYLAYER
 62
     7
 10
753.808874
 20
-168.286689
 30
0.0
 11
753.808874
 21
-160.286689
 31
0.0
  0
LINE
  8
0
  6
BYLAYER
 62
     7
 10
753.808874
 20
-160.286689
 30
0.0
 11
745.808874
 21
-160.286689
 31
0.0
  0
LINE
  8
0
  6
BYLAYER
 62
     7
 10
753.808874
 20
-168.286689
 30
0.0
 11
745.808874
 21
-168.286689
 31
0.0
  0
LINE
  8
0
  6
BYLAYER
 62
     7
 10
745.808874
 20
-160.286689
 30
0.0
 11
745.808874
 21
-168.286689
 31
0.0
  0
LINE
  8
0
  6
BYLAYER
 62
     7
 10
743.808874
 20
-158.286689
 30
0.0
 11
743.808874
 21
-150.286689
 31
0.0
  0
LINE
  8
0
  6
BYLAYER
 62
     7
 10
743.808874
 20
-150.286689
 30
0.0
 11
735.808874
 21
-150.286689
 31
0.0
  0
LINE
  8
0
  6
BYLAYER
 62
     7
 10
743.808874
 20
-158.286689
 30
0.0
 11
735.808874
 21
-158.286689
 31
0.0
  0
LINE
  8
0
  6
BYLAYER
 62
     7
 10
735.808874
 20
-150.286689
 30
0.0
 11
735.808874
 21
-158.286689
 31
0.0
  0
LINE
  8
0
  6
BYLAYER
 62
     7
 10
733.808874
 20
-140.286689
 30
0.0
 11
725.808874
 21
-140.286689
 31
0.0
  0
LINE
  8
0
  6
BYLAYER
 62
     7
 10
733.808874
 20
-148.286689
 30
0.0
 11
733.808874
 21
-140.286689
 31
0.0
  0
LINE
  8
0
  6
BYLAYER
 62
     7
 10
733.808874
 20
-148.286689
 30
0.0
 11
725.808874
 21
-148.286689
 31
0.0
  0
LINE
  8
0
  6
BYLAYER
 62
     7
 10
725.808874
 20
-140.286689
 30
0.0
 11
725.808874
 21
-148.286689
 31
0.0
  0
LINE
  8
0
  6
BYLAYER
 62
     7
 10
733.808874
 20
-130.286689
 30
0.0
 11
725.808874
 21
-130.286689
 31
0.0
  0
LINE
  8
0
  6
BYLAYER
 62
     7
 10
733.808874
 20
-138.286689
 30
0.0
 11
733.808874
 21
-130.286689
 31
0.0
  0
LINE
  8
0
  6
BYLAYER
 62
     7
 10
733.808874
 20
-138.286689
 30
0.0
 11
725.808874
 21
-138.286689
 31
0.0
  0
LINE
  8
0
  6
BYLAYER
 62
     7
 10
725.808874
 20
-130.286689
 30
0.0
 11
725.808874
 21
-138.286689
 31
0.0
  0
LINE
  8
0
  6
BYLAYER
 62
     7
 10
733.808874
 20
-158.286689
 30
0.0
 11
733.808874
 21
-150.286689
 31
0.0
  0
LINE
  8
0
  6
BYLAYER
 62
     7
 10
733.808874
 20
-150.286689
 30
0.0
 11
725.808874
 21
-150.286689
 31
0.0
  0
LINE
  8
0
  6
BYLAYER
 62
     7
 10
733.808874
 20
-158.286689
 30
0.0
 11
725.808874
 21
-158.286689
 31
0.0
  0
LINE
  8
0
  6
BYLAYER
 62
     7
 10
725.808874
 20
-150.286689
 30
0.0
 11
725.808874
 21
-158.286689
 31
0.0
  0
LINE
  8
0
  6
BYLAYER
 62
     7
 10
783.808874
 20
-188.286689
 30
0.0
 11
783.808874
 21
-180.286689
 31
0.0
  0
LINE
  8
0
  6
BYLAYER
 62
     7
 10
775.808874
 20
-180.286689
 30
0.0
 11
775.808874
 21
-188.286689
 31
0.0
  0
LINE
  8
0
  6
BYLAYER
 62
     7
 10
773.808874
 20
-180.286689
 30
0.0
 11
773.808874
 21
-188.286689
 31
0.0
  0
LINE
  8
0
  6
BYLAYER
 62
     7
 10
773.808874
 20
-180.286689
 30
0.0
 11
765.970875
 21
-180.286689
 31
0.0
  0
LINE
  8
0
  6
BYLAYER
 62
     7
 10
783.808874
 20
-180.286689
 30
0.0
 11
775.808874
 21
-180.286689
 31
0.0
  0
LINE
  8
0
  6
BYLAYER
 62
     7
 10
773.808874
 20
-188.286689
 30
0.0
 11
765.970875
 21
-188.286689
 31
0.0
  0
LINE
  8
0
  6
BYLAYER
 62
     7
 10
783.808874
 20
-188.286689
 30
0.0
 11
775.808874
 21
-188.286689
 31
0.0
  0
LINE
  8
0
  6
BYLAYER
 62
     7
 10
765.970875
 20
-180.286689
 30
0.0
 11
765.970875
 21
-188.286689
 31
0.0
  0
LINE
  8
0
  6
BYLAYER
 62
     7
 10
763.808874
 20
-188.286689
 30
0.0
 11
763.808874
 21
-180.286689
 31
0.0
  0
LINE
  8
0
  6
BYLAYER
 62
     7
 10
763.808874
 20
-180.286689
 30
0.0
 11
755.808874
 21
-180.286689
 31
0.0
  0
LINE
  8
0
  6
BYLAYER
 62
     7
 10
763.808874
 20
-188.286689
 30
0.0
 11
755.808874
 21
-188.286689
 31
0.0
  0
LINE
  8
0
  6
BYLAYER
 62
     7
 10
755.808874
 20
-180.286689
 30
0.0
 11
755.808874
 21
-188.286689
 31
0.0
  0
LINE
  8
0
  6
BYLAYER
 62
     7
 10
753.808874
 20
-178.286689
 30
0.0
 11
753.808874
 21
-170.286689
 31
0.0
  0
LINE
  8
0
  6
BYLAYER
 62
     7
 10
753.808874
 20
-170.286689
 30
0.0
 11
745.808874
 21
-170.286689
 31
0.0
  0
LINE
  8
0
  6
BYLAYER
 62
     7
 10
753.808874
 20
-178.286689
 30
0.0
 11
745.808874
 21
-178.286689
 31
0.0
  0
LINE
  8
0
  6
BYLAYER
 62
     7
 10
745.808874
 20
-170.286689
 30
0.0
 11
745.808874
 21
-178.286689
 31
0.0
  0
LINE
  8
0
  6
BYLAYER
 62
     7
 10
743.808874
 20
-168.286689
 30
0.0
 11
743.808874
 21
-160.286689
 31
0.0
  0
LINE
  8
0
  6
BYLAYER
 62
     7
 10
743.808874
 20
-160.286689
 30
0.0
 11
735.808874
 21
-160.286689
 31
0.0
  0
LINE
  8
0
  6
BYLAYER
 62
     7
 10
743.808874
 20
-168.286689
 30
0.0
 11
735.808874
 21
-168.286689
 31
0.0
  0
LINE
  8
0
  6
BYLAYER
 62
     7
 10
735.808874
 20
-160.286689
 30
0.0
 11
735.808874
 21
-168.286689
 31
0.0
  0
CIRCLE
  8
0
  6
BYLAYER
 62
     7
 10
784.808874
 20
-129.286689
 30
0.0
 40
71.999936
  0
CIRCLE
  8
0
  6
BYLAYER
 62
     7
 10
784.808874
 20
-129.286689
 30
0.0
 40
86.549921
  0
CIRCLE
  8
0
  6
BYLAYER
 62
     7
 10
784.808874
 20
-129.286689
 30
0.0
 40
70.0
  0
LINE
  8
0
  6
BYLAYER
 62
     7
 10
741.308767
 20
-382.786720
 30
0.0
 11
741.308767
 21
-361.286720
 31
0.0
  0
ARC
  8
0
  6
BYLAYER
 62
     7
 10
739.808767
 20
-382.786720
 30
0.0
 40
1.5
 50
270.0
 51
360.0
  0
ARC
  8
0
  6
BYLAYER
 62
     7
 10
742.808767
 20
-361.286720
 30
0.0
 40
1.5
 50
90.0
 51
180.0
  0
LINE
  8
0
  6
BYLAYER
 62
     7
 10
784.808767
 20
-359.786720
 30
0.0
 11
742.808767
 21
-359.786720
 31
0.0
  0
LINE
  8
0
  6
BYLAYER
 62
     7
 10
746.681008
 20
-382.786720
 30
0.0
 11
746.681008
 21
-361.286720
 31
0.0
  0
ARC
  8
0
  6
BYLAYER
 62
     7
 10
745.181008
 20
-382.786720
 30
0.0
 40
1.5
 50
270.0
 51
360.0
  0
ARC
  8
0
  6
BYLAYER
 62
     7
 10
748.181008
 20
-361.286720
 30
0.0
 40
1.5
 50
90.0
 51
180.0
  0
LINE
  8
0
  6
BYLAYER
 62
     7
 10
771.715114
 20
-359.786720
 30
0.0
 11
772.207661
 21
-373.891418
 31
0.0
  0
ARC
  8
0
  6
BYLAYER
 62
     7
 10
775.205833
 20
-373.786720
 30
0.0
 40
3.000000
 50
182.000000
 51
270.000000
  0
LINE
  8
0
  6
BYLAYER
 62
     7
 10
782.409873
 20
-373.891418
 30
0.0
 11
782.902420
 21
-359.786720
 31
0.0
  0
ARC
  8
0
  6
BYLAYER
 62
     7
 10
779.411701
 20
-373.786720
 30
0.0
 40
3.000000
 50
270.0
 51
358.0
  0
LINE
  8
0
  6
BYLAYER
 62
     7
 10
775.205833
 20
-376.786720
 30
0.0
 11
779.411701
 21
-376.786720
 31
0.0
  0
LINE
  8
0
  6
BYLAYER
 62
     7
 10
756.715114
 20
-359.786720
 30
0.0
 11
757.207661
 21
-373.891418
 31
0.0
  0
ARC
  8
0
  6
BYLAYER
 62
     7
 10
760.205833
 20
-373.786720
 30
0.0
 40
3.000000
 50
182.000000
 51
270.000000
  0
LINE
  8
0
  6
BYLAYER
 62
     7
 10
767.409873
 20
-373.891418
 30
0.0
 11
767.902420
 21
-359.786720
 31
0.0
  0
ARC
  8
0
  6
BYLAYER
 62
     7
 10
764.411701
 20
-373.786720
 30
0.0
 40
3.000000
 50
270.0
 51
358.0
  0
LINE
  8
0
  6
BYLAYER
 62
     7
 10
760.205833
 20
-376.786720
 30
0.0
 11
764.411701
 21
-376.786720
 31
0.0
  0
LINE
  8
0
  6
BYLAYER
 62
     7
 10
756.750035
 20
-360.786720
 30
0.0
 11
767.867499
 21
-360.786720
 31
0.0
  0
LINE
  8
0
  6
BYLAYER
 62
     7
 10
771.750035
 20
-360.786720
 30
0.0
 11
782.867499
 21
-360.786720
 31
0.0
  0
LINE
  8
0
  6
BYLAYER
 62
     7
 10
784.808767
 20
-384.286720
 30
0.0
 11
737.308767
 21
-384.286720
 31
0.0
  0
ARC
  8
0
  6
BYLAYER
 62
     7
 10
737.308767
 20
-385.786720
 30
0.0
 40
1.5
 50
90.0
 51
180.0
  0
LINE
  8
0
  6
BYLAYER
 62
     7
 10
735.808767
 20
-391.286720
 30
0.0
 11
735.808767
 21
-385.786720
 31
0.0
  0
LINE
  8
0
  6
BYLAYER
 62
     7
 10
735.808767
 20
-391.286720
 30
0.0
 11
784.808767
 21
-391.286720
 31
0.0
  0
LINE
  8
0
  6
BYLAYER
 62
     7
 10
828.308767
 20
-382.786720
 30
0.0
 11
828.308767
 21
-361.286720
 31
0.0
  0
ARC
  8
0
  6
BYLAYER
 62
     7
 10
829.808767
 20
-382.786720
 30
0.0
 40
1.5
 50
180.000000
 51
270.000000
  0
ARC
  8
0
  6
BYLAYER
 62
     7
 10
826.808767
 20
-361.286720
 30
0.0
 40
1.5
 50
0.0
 51
90.0
  0
LINE
  8
0
  6
BYLAYER
 62
     7
 10
784.808767
 20
-359.786720
 30
0.0
 11
826.808767
 21
-359.786720
 31
0.0
  0
LINE
  8
0
  6
BYLAYER
 62
     7
 10
822.936526
 20
-382.786720
 30
0.0
 11
822.936526
 21
-361.286720
 31
0.0
  0
ARC
  8
0
  6
BYLAYER
 62
     7
 10
824.436526
 20
-382.786720
 30
0.0
 40
1.5
 50
180.000000
 51
270.000000
  0
ARC
  8
0
  6
BYLAYER
 62
     7
 10
821.436526
 20
-361.286720
 30
0.0
 40
1.5
 50
0.0
 51
90.0
  0
LINE
  8
0
  6
BYLAYER
 62
     7
 10
797.902420
 20
-359.786720
 30
0.0
 11
797.409873
 21
-373.891418
 31
0.0
  0
ARC
  8
0
  6
BYLAYER
 62
     7
 10
794.411701
 20
-373.786720
 30
0.0
 40
3.000000
 50
270.0
 51
358.0
  0
LINE
  8
0
  6
BYLAYER
 62
     7
 10
787.207661
 20
-373.891418
 30
0.0
 11
786.715114
 21
-359.786720
 31
0.0
  0
ARC
  8
0
  6
BYLAYER
 62
     7
 10
790.205833
 20
-373.786720
 30
0.0
 40
3.000000
 50
182.000000
 51
270.000000
  0
LINE
  8
0
  6
BYLAYER
 62
     7
 10
794.411701
 20
-376.786720
 30
0.0
 11
790.205833
 21
-376.786720
 31
0.0
  0
LINE
  8
0
  6
BYLAYER
 62
     7
 10
812.902420
 20
-359.786720
 30
0.0
 11
812.409873
 21
-373.891418
 31
0.0
  0
ARC
  8
0
  6
BYLAYER
 62
     7
 10
809.411701
 20
-373.786720
 30
0.0
 40
3.000000
 50
270.0
 51
358.0
  0
LINE
  8
0
  6
BYLAYER
 62
     7
 10
802.207661
 20
-373.891418
 30
0.0
 11
801.715114
 21
-359.786720
 31
0.0
  0
ARC
  8
0
  6
BYLAYER
 62
     7
 10
805.205833
 20
-373.786720
 30
0.0
 40
3.000000
 50
182.000000
 51
270.000000
  0
LINE
  8
0
  6
BYLAYER
 62
     7
 10
809.411701
 20
-376.786720
 30
0.0
 11
805.205833
 21
-376.786720
 31
0.0
  0
LINE
  8
0
  6
BYLAYER
 62
     7
 10
812.867499
 20
-360.786720
 30
0.0
 11
801.750035
 21
-360.786720
 31
0.0
  0
LINE
  8
0
  6
BYLAYER
 62
     7
 10
797.867499
 20
-360.786720
 30
0.0
 11
786.750035
 21
-360.786720
 31
0.0
  0
LINE
  8
0
  6
BYLAYER
 62
     7
 10
784.808767
 20
-384.286720
 30
0.0
 11
832.308767
 21
-384.286720
 31
0.0
  0
ARC
  8
0
  6
BYLAYER
 62
     7
 10
832.308767
 20
-385.786720
 30
0.0
 40
1.5
 50
0.0
 51
90.0
  0
LINE
  8
0
  6
BYLAYER
 62
     7
 10
833.808767
 20
-393.286720
 30
0.0
 11
833.808767
 21
-385.786720
 31
0.0
  0
LINE
  8
0
  6
BYLAYER
 62
     7
 10
833.808767
 20
-391.286720
 30
0.0
 11
784.808767
 21
-391.286720
 31
0.0
  0
LINE
  8
0
  6
BYLAYER
 62
     7
 10
735.808767
 20
-393.286720
 30
0.0
 11
784.808751
 21
-393.286720
 31
0.0
  0
LINE
  8
0
  6
BYLAYER
 62
     7
 10
735.808767
 20
-398.786720
 30
0.0
 11
738.808767
 21
-403.982887
 31
0.0
  0
LINE
  8
0
  6
BYLAYER
 62
     7
 10
833.808751
 20
-393.286598
 30
0.0
 11
784.808751
 21
-393.286720
 31
0.0
  0
LINE
  8
0
  6
BYLAYER
 62
     7
 10
833.808751
 20
-398.786598
 30
0.0
 11
830.808751
 21
-403.982765
 31
0.0
  0
LINE
  8
0
  6
BYLAYER
 62
     7
 10
738.808767
 20
-403.982887
 30
0.0
 11
738.808767
 21
-412.786750
 31
0.0
  0
ARC
  8
0
  6
BYLAYER
 62
     7
 10
736.808767
 20
-419.286750
 30
0.0
 40
1.000000
 50
180.000000
 51
269.999995
  0
LINE
  8
0
  6
BYLAYER
 62
     7
 10
737.808767
 20
-420.286750
 30
0.0
 11
736.808767
 21
-420.286750
 31
0.0
  0
ARC
  8
0
  6
BYLAYER
 62
     7
 10
737.808767
 20
-421.286750
 30
0.0
 40
1.000000
 50
0.0
 51
90.000008
  0
LINE
  8
0
  6
BYLAYER
 62
     7
 10
735.808767
 20
-393.286720
 30
0.0
 11
735.808767
 21
-419.286750
 31
0.0
  0
ARC
  8
0
  6
BYLAYER
 62
     7
 10
832.808782
 20
-419.286628
 30
0.0
 40
1.0
 50
270.0
 51
360.000009
  0
LINE
  8
0
  6
BYLAYER
 62
     7
 10
832.808782
 20
-420.286628
 30
0.0
 11
831.808782
 21
-420.286628
 31
0.0
  0
ARC
  8
0
  6
BYLAYER
 62
     7
 10
831.808782
 20
-421.286628
 30
0.0
 40
1.0
 50
90.0
 51
179.999996
  0
LINE
  8
0
  6
BYLAYER
 62
     7
 10
833.808751
 20
-393.286598
 30
0.0
 11
833.808782
 21
-419.286628
 31
0.0
  0
ARC
  8
0
  6
BYLAYER
 62
     7
 10
866.820180
 20
-472.486610
 30
0.0
 40
0.799986
 50
272.000044
 51
447.999761
  0
ARC
  8
0
  6
BYLAYER
 62
     7
 10
863.733205
 20
-461.286628
 30
0.0
 40
0.799925
 50
272.000044
 51
447.999761
  0
ARC
  8
0
  6
BYLAYER
 62
     7
 10
858.864309
 20
-450.086555
 30
0.0
 40
0.800049
 50
272.000044
 51
447.999761
  0
ARC
  8
0
  6
BYLAYER
 62
     7
 10
851.831045
 20
-438.886604
 30
0.0
 40
0.800047
 50
272.000044
 51
447.999761
  0
LINE
  8
0
  6
BYLAYER
 62
     7
 10
866.848073
 20
-473.286109
 30
0.0
 11
856.370863
 21
-473.651977
 31
0.0
  0
LINE
  8
0
  6
BYLAYER
 62
     7
 10
866.848073
 20
-471.687110
 30
0.0
 11
855.816691
 21
-471.301904
 31
0.0
  0
LINE
  8
0
  6
BYLAYER
 62
     7
 10
863.761098
 20
-462.086067
 30
0.0
 11
852.970804
 21
-462.462934
 31
0.0
  0
LINE
  8
0
  6
BYLAYER
 62
     7
 10
851.982408
 20
-460.075753
 30
0.0
 11
863.761037
 21
-460.487068
 31
0.0
  0
LINE
  8
0
  6
BYLAYER
 62
     7
 10
858.892202
 20
-450.886115
 30
0.0
 11
847.431067
 21
-451.286381
 31
0.0
  0
LINE
  8
0
  6
BYLAYER
 62
     7
 10
845.874599
 20
-448.832521
 30
0.0
 11
858.892202
 21
-449.287116
 31
0.0
  0
ARC
  8
0
  6
BYLAYER
 62
     7
 10
705.884572
 20
-461.286750
 30
0.0
 40
0.800049
 50
92.000360
 51
268.000039
  0
ARC
  8
0
  6
BYLAYER
 62
     7
 10
710.753347
 20
-450.086799
 30
0.0
 40
0.799927
 50
92.000360
 51
268.000039
  0
ARC
  8
0
  6
BYLAYER
 62
     7
 10
717.786672
 20
-438.886726
 30
0.0
 40
0.800049
 50
92.000360
 51
268.000039
  0
ARC
  8
0
  6
BYLAYER
 62
     7
 10
863.733266
 20
-517.286598
 30
0.0
 40
0.800016
 50
272.000044
 51
448.000355
  0
ARC
  8
0
  6
BYLAYER
 62
     7
 10
858.864431
 20
-528.486610
 30
0.0
 40
0.800019
 50
272.000044
 51
448.000355
  0
ARC
  8
0
  6
BYLAYER
 62
     7
 10
851.831167
 20
-539.686653
 30
0.0
 40
0.799986
 50
272.000044
 51
448.000355
  0
LINE
  8
0
  6
BYLAYER
 62
     7
 10
863.761159
 20
-516.487098
 30
0.0
 11
852.970847
 21
-516.110375
 31
0.0
  0
LINE
  8
0
  6
BYLAYER
 62
     7
 10
851.982478
 20
-518.497502
 30
0.0
 11
863.761159
 21
-518.086097
 31
0.0
  0
LINE
  8
0
  6
BYLAYER
 62
     7
 10
858.892324
 20
-527.687110
 30
0.0
 11
847.431159
 21
-527.286874
 31
0.0
  0
LINE
  8
0
  6
BYLAYER
 62
     7
 10
845.874679
 20
-529.740763
 30
0.0
 11
858.892324
 21
-529.286109
 31
0.0
  0
LINE
  8
0
  6
BYLAYER
 62
     7
 10
851.859060
 20
-538.887153
 30
0.0
 11
840.808866
 21
-538.501251
 31
0.0
  0
ARC
  8
0
  6
BYLAYER
 62
     7
 10
710.753469
 20
-528.486793
 30
0.0
 40
0.800019
 50
91.999766
 51
268.000039
  0
ARC
  8
0
  6
BYLAYER
 62
     7
 10
717.786733
 20
-539.686744
 30
0.0
 40
0.799986
 50
91.999766
 51
268.000039
  0
LINE
  8
0
  6
BYLAYER
 62
     7
 10
723.743149
 20
-529.740857
 30
0.0
 11
710.725576
 21
-529.286292
 31
0.0
  0
LINE
  8
0
  6
BYLAYER
 62
     7
 10
717.758840
 20
-538.887245
 30
0.0
 11
728.808874
 21
-538.501347
 31
0.0
  0
LINE
  8
0
  6
BYLAYER
 62
     7
 10
855.840505
 20
-504.906654
 30
0.0
 11
855.862050
 21
-504.907417
 31
0.0
  0
ARC
  8
0
  6
BYLAYER
 62
     7
 10
867.120168
 20
-470.469459
 30
0.0
 40
0.5
 50
0.0
 51
88.000157
  0
LINE
  8
0
  6
BYLAYER
 62
     7
 10
867.620168
 20
-470.469459
 30
0.0
 11
867.620168
 21
-474.503761
 31
0.0
  0
ARC
  8
0
  6
BYLAYER
 62
     7
 10
867.120168
 20
-474.503761
 30
0.0
 40
0.500000
 50
271.999853
 51
360.000000
  0
LINE
  8
0
  6
BYLAYER
 62
     7
 10
855.352121
 20
-469.558212
 30
0.0
 11
867.137563
 21
-469.969764
 31
0.0
  0
LINE
  8
0
  6
BYLAYER
 62
     7
 10
857.654448
 20
-475.334617
 30
0.0
 11
867.137563
 21
-475.003456
 31
0.0
  0
LINE
  8
0
  6
BYLAYER
 62
     7
 10
728.808874
 20
-540.872156
 30
0.0
 11
717.758840
 21
-540.486244
 31
0.0
  0
LINE
  8
0
  6
BYLAYER
 62
     7
 10
866.848073
 20
-506.886268
 30
0.0
 11
855.816706
 21
-507.271473
 31
0.0
  0
LINE
  8
0
  6
BYLAYER
 62
     7
 10
866.848073
 20
-505.287269
 30
0.0
 11
856.618533
 21
-504.930050
 31
0.0
  0
ARC
  8
0
  6
BYLAYER
 62
     7
 10
866.820180
 20
-506.086769
 30
0.0
 40
0.799986
 50
272.000235
 51
447.999959
  0
ARC
  8
0
  6
BYLAYER
 62
     7
 10
702.797597
 20
-506.086769
 30
0.0
 40
0.799986
 50
92.000039
 51
267.999766
  0
ARC
  8
0
  6
BYLAYER
 62
     7
 10
703.154897
 20
-513.785468
 30
0.0
 40
0.499984
 50
93.000095
 51
196.700842
  0
ARC
  8
0
  6
BYLAYER
 62
     7
 10
784.808874
 20
-489.286689
 30
0.0
 40
85.750053
 50
196.700910
 51
201.724692
  0
ARC
  8
0
  6
BYLAYER
 62
     7
 10
705.613943
 20
-520.841712
 30
0.0
 40
0.500015
 50
201.724788
 51
266.999908
  0
ARC
  8
0
  6
BYLAYER
 62
     7
 10
866.462819
 20
-513.785468
 30
0.0
 40
0.499983
 50
343.299378
 51
446.999903
  0
ARC
  8
0
  6
BYLAYER
 62
     7
 10
784.808874
 20
-489.286689
 30
0.0
 40
85.749992
 50
338.275309
 51
343.299077
  0
ARC
  8
0
  6
BYLAYER
 62
     7
 10
864.003835
 20
-520.841712
 30
0.0
 40
0.499997
 50
273.000093
 51
338.275555
  0
LINE
  8
0
  6
BYLAYER
 62
     7
 10
854.235107
 20
-512.643978
 30
0.0
 11
866.489004
 21
-513.286170
 31
0.0
  0
LINE
  8
0
  6
BYLAYER
 62
     7
 10
850.318408
 20
-522.059631
 30
0.0
 11
864.030019
 21
-521.341041
 31
0.0
  0
ARC
  8
0
  6
BYLAYER
 62
     7
 10
702.481374
 20
-470.219642
 30
0.0
 40
0.5
 50
92.000715
 51
180.000005
  0
LINE
  8
0
  6
BYLAYER
 62
     7
 10
701.981374
 20
-474.753944
 30
0.0
 11
701.981374
 21
-470.219642
 31
0.0
  0
ARC
  8
0
  6
BYLAYER
 62
     7
 10
702.481374
 20
-474.753944
 30
0.0
 40
0.500000
 50
180.000000
 51
267.999269
  0
LINE
  8
0
  6
BYLAYER
 62
     7
 10
732.947740
 20
-437.556763
 30
0.0
 11
717.758718
 21
-438.087287
 31
0.0
  0
LINE
  8
0
  6
BYLAYER
 62
     7
 10
730.501404
 20
-440.131209
 30
0.0
 11
717.758718
 21
-439.686286
 31
0.0
  0
LINE
  8
0
  6
BYLAYER
 62
     7
 10
738.808767
 20
-412.786750
 30
0.0
 11
738.808767
 21
-432.281841
 31
0.0
  0
LINE
  8
0
  6
BYLAYER
 62
     7
 10
723.743068
 20
-448.832643
 30
0.0
 11
710.725515
 21
-449.287239
 31
0.0
  0
LINE
  8
0
  6
BYLAYER
 62
     7
 10
710.725515
 20
-450.886238
 30
0.0
 11
722.186572
 21
-451.286561
 31
0.0
  0
LINE
  8
0
  6
BYLAYER
 62
     7
 10
717.635259
 20
-460.075938
 30
0.0
 11
705.856618
 21
-460.487312
 31
0.0
  0
LINE
  8
0
  6
BYLAYER
 62
     7
 10
705.856618
 20
-462.086311
 30
0.0
 11
716.646906
 21
-462.463031
 31
0.0
  0
LINE
  8
0
  6
BYLAYER
 62
     7
 10
702.463918
 20
-469.719947
 30
0.0
 11
714.336838
 21
-469.305331
 31
0.0
  0
LINE
  8
0
  6
BYLAYER
 62
     7
 10
702.463918
 20
-475.253639
 30
0.0
 11
711.772136
 21
-475.578703
 31
0.0
  0
LINE
  8
0
  6
BYLAYER
 62
     7
 10
702.769704
 20
-505.287269
 30
0.0
 11
713.246885
 21
-504.921402
 31
0.0
  0
LINE
  8
0
  6
BYLAYER
 62
     7
 10
702.769704
 20
-506.886268
 30
0.0
 11
713.801057
 21
-507.271473
 31
0.0
  0
LINE
  8
0
  6
BYLAYER
 62
     7
 10
719.299360
 20
-522.059636
 30
0.0
 11
705.587758
 21
-521.341041
 31
0.0
  0
LINE
  8
0
  6
BYLAYER
 62
     7
 10
715.382655
 20
-512.643972
 30
0.0
 11
703.128713
 21
-513.286170
 31
0.0
  0
LINE
  8
0
  6
BYLAYER
 62
     7
 10
722.186664
 20
-527.286970
 30
0.0
 11
710.725576
 21
-527.687293
 31
0.0
  0
LINE
  8
0
  6
BYLAYER
 62
     7
 10
851.858938
 20
-439.686164
 30
0.0
 11
839.116338
 21
-440.131202
 31
0.0
  0
ARC
  8
0
  6
BYLAYER
 62
     7
 10
705.884511
 20
-517.286598
 30
0.0
 40
0.800016
 50
91.999643
 51
267.999957
  0
LINE
  8
0
  6
BYLAYER
 62
     7
 10
705.856618
 20
-516.487098
 30
0.0
 11
716.646917
 21
-516.110376
 31
0.0
  0
LINE
  8
0
  6
BYLAYER
 62
     7
 10
717.635286
 20
-518.497502
 30
0.0
 11
705.856618
 21
-518.086097
 31
0.0
  0
ARC
  8
0
  6
BYLAYER
 62
     7
 10
702.797597
 20
-472.486610
 30
0.0
 40
0.799986
 50
92.000237
 51
267.999957
  0
LINE
  8
0
  6
BYLAYER
 62
     7
 10
702.769704
 20
-473.286109
 30
0.0
 11
712.999219
 21
-473.643327
 31
0.0
  0
LINE
  8
0
  6
BYLAYER
 62
     7
 10
702.769704
 20
-471.687110
 30
0.0
 11
713.791539
 21
-471.302238
 31
0.0
  0
LINE
  8
0
  6
BYLAYER
 62
     7
 10
840.808866
 20
-540.872072
 30
0.0
 11
851.859060
 21
-540.486152
 31
0.0
  0
LINE
  8
0
  6
BYLAYER
 62
     7
 10
851.858938
 20
-438.087165
 30
0.0
 11
836.669977
 21
-437.556732
 31
0.0
  0
LINE
  8
0
  6
BYLAYER
 62
     7
 10
830.808751
 20
-403.982765
 30
0.0
 11
830.808778
 21
-432.281678
 31
0.0
  0
ARC
  8
0
  6
BYLAYER
 62
     7
 10
831.808782
 20
-436.386360
 30
0.0
 40
1.000003
 50
180.000000
 51
267.999925
  0
LINE
  8
0
  6
BYLAYER
 62
     7
 10
735.808767
 20
-391.286720
 30
0.0
 11
735.808767
 21
-393.286720
 31
0.0
  0
LINE
  8
0
  6
BYLAYER
 62
     7
 10
735.808767
 20
-393.286720
 30
0.0
 11
833.808767
 21
-393.286720
 31
0.0
  0
ARC
  8
0
  6
BYLAYER
 62
     7
 10
791.737890
 20
-406.074683
 30
0.0
 40
2.000001
 50
14.999814
 51
85.239989
  0
ARC
  8
0
  6
BYLAYER
 62
     7
 10
784.808874
 20
-489.286689
 30
0.0
 40
85.500008
 50
85.239989
 51
94.760009
  0
ARC
  8
0
  6
BYLAYER
 62
     7
 10
777.879858
 20
-406.074683
 30
0.0
 40
2.000001
 50
94.760002
 51
165.000186
  0
ARC
  8
0
  6
BYLAYER
 62
     7
 10
868.020910
 20
-496.215705
 30
0.0
 40
2.000001
 50
284.999806
 51
355.239997
  0
ARC
  8
0
  6
BYLAYER
 62
     7
 10
868.020910
 20
-482.357673
 30
0.0
 40
2.000001
 50
4.759995
 51
75.000176
  0
ARC
  8
0
  6
BYLAYER
 62
     7
 10
701.596868
 20
-482.357673
 30
0.0
 40
2.000001
 50
104.999815
 51
175.239978
  0
ARC
  8
0
  6
BYLAYER
 62
     7
 10
701.596868
 20
-496.215705
 30
0.0
 40
2.000001
 50
184.760005
 51
255.000168
  0
LINE
  8
0
  6
BYLAYER
 62
     7
 10
793.669744
 20
-405.557044
 30
0.0
 11
795.144750
 21
-411.061774
 31
0.0
  0
ARC
  8
0
  6
BYLAYER
 62
     7
 10
804.803991
 20
-408.473579
 30
0.0
 40
9.999995
 50
194.999961
 51
256.102697
  0
LINE
  8
0
  6
BYLAYER
 62
     7
 10
775.948004
 20
-405.557044
 30
0.0
 11
774.472998
 21
-411.061774
 31
0.0
  0
ARC
  8
0
  6
BYLAYER
 62
     7
 10
764.813757
 20
-408.473579
 30
0.0
 40
9.999999
 50
283.897223
 51
344.999958
  0
LINE
  8
0
  6
BYLAYER
 62
     7
 10
868.538488
 20
-480.425819
 30
0.0
 11
863.033789
 21
-478.950843
 31
0.0
  0
ARC
  8
0
  6
BYLAYER
 62
     7
 10
784.808874
 20
-489.286689
 30
0.0
 40
73.25
 50
13.897258
 51
76.102746
  0
ARC
  8
0
  6
BYLAYER
 62
     7
 10
865.621984
 20
-469.291572
 30
0.0
 40
10.000001
 50
193.897241
 51
254.999976
  0
LINE
  8
0
  6
BYLAYER
 62
     7
 10
868.538488
 20
-498.147559
 30
0.0
 11
863.033789
 21
-499.622550
 31
0.0
  0
ARC
  8
0
  6
BYLAYER
 62
     7
 10
865.621984
 20
-509.281821
 30
0.0
 40
10.000002
 50
105.000027
 51
166.102728
  0
ARC
  8
0
  6
BYLAYER
 62
     7
 10
784.808874
 20
-489.286689
 30
0.0
 40
73.250015
 50
319.862962
 51
346.102733
  0
LINE
  8
0
  6
BYLAYER
 62
     7
 10
701.079229
 20
-498.147559
 30
0.0
 11
706.583959
 21
-499.622550
 31
0.0
  0
ARC
  8
0
  6
BYLAYER
 62
     7
 10
784.808874
 20
-489.286689
 30
0.0
 40
73.250000
 50
193.897268
 51
220.137015
  0
ARC
  8
0
  6
BYLAYER
 62
     7
 10
703.995764
 20
-509.281806
 30
0.0
 40
10.0
 50
13.897258
 51
75.000012
  0
LINE
  8
0
  6
BYLAYER
 62
     7
 10
701.079229
 20
-480.425819
 30
0.0
 11
706.583959
 21
-478.950843
 31
0.0
  0
ARC
  8
0
  6
BYLAYER
 62
     7
 10
784.808874
 20
-489.286689
 30
0.0
 40
73.250000
 50
103.897259
 51
166.102742
  0
ARC
  8
0
  6
BYLAYER
 62
     7
 10
703.995764
 20
-469.291572
 30
0.0
 40
9.999999
 50
284.999998
 51
346.102733
  0
ARC
  8
0
  6
BYLAYER
 62
     7
 10
784.808874
 20
-489.286689
 30
0.0
 40
70.000000
 50
323.130091
 51
576.869898
  0
ARC
  8
0
  6
BYLAYER
 62
     7
 10
784.808874
 20
-489.286689
 30
0.0
 40
70.875000
 50
322.19704
 51
577.802950
  0
ARC
  8
0
  6
BYLAYER
 62
     7
 10
784.808874
 20
-489.286689
 30
0.0
 40
85.499992
 50
355.239997
 51
364.752080
  0
ARC
  8
0
  6
BYLAYER
 62
     7
 10
784.808874
 20
-489.286689
 30
0.0
 40
85.499992
 50
175.247920
 51
184.760003
  0
ARC
  8
0
  6
BYLAYER
 62
     7
 10
784.808874
 20
-489.286689
 30
0.0
 40
86.549921
 50
310.317699
 51
415.518079
  0
ARC
  8
0
  6
BYLAYER
 62
     7
 10
784.808874
 20
-489.286689
 30
0.0
 40
86.549921
 50
124.482082
 51
229.682294
  0
LINE
  8
0
  6
BYLAYER
 62
     1
 10
279.808978
 20
-532.286658
 30
0.0
 11
279.808978
 21
-462.286670
 31
0.0
  0
ARC
  8
0
  6
BYLAYER
 62
     1
 10
271.808978
 20
-464.708686
 30
0.0
 40
2.000018
 50
93.000037
 51
176.204664
  0
ARC
  8
0
  6
BYLAYER
 62
     1
 10
268.808978
 20
-483.878913
 30
0.0
 40
1.000010
 50
285.999675
 51
360.000000
  0
LINE
  8
0
  6
BYLAYER
 62
     1
 10
258.808978
 20
-487.786658
 30
0.0
 11
269.084612
 21
-484.840186
 31
0.0
  0
LINE
  8
0
  6
BYLAYER
 62
     1
 10
258.808978
 20
-487.786689
 30
0.0
 11
258.808874
 21
-532.286689
 31
0.0
  0
LINE
  8
0
  6
BYLAYER
 62
     1
 10
264.574206
 20
-486.133521
 30
0.0
 11
269.808978
 21
-475.995094
 31
0.0
  0
LINE
  8
0
  6
BYLAYER
 62
     1
 10
269.808978
 20
-532.286689
 30
0.0
 11
269.808978
 21
-464.708686
 31
0.0
  0
LINE
  8
0
  6
BYLAYER
 62
     1
 10
279.808978
 20
-462.286670
 30
0.0
 11
271.704302
 21
-462.711494
 31
0.0
  0
ARC
  8
0
  6
BYLAYER
 62
     1
 10
268.808978
 20
-580.694465
 30
0.0
 40
1.000010
 50
0.0
 51
74.000325
  0
LINE
  8
0
  6
BYLAYER
 62
     1
 10
264.574206
 20
-578.439857
 30
0.0
 11
269.808978
 21
-588.578284
 31
0.0
  0
LINE
  8
0
  6
BYLAYER
 62
     1
 10
258.808978
 20
-576.786720
 30
0.0
 11
269.084612
 21
-579.733192
 31
0.0
  0
ARC
  8
0
  6
BYLAYER
 62
     1
 10
271.808978
 20
-599.864692
 30
0.0
 40
2.000018
 50
183.795336
 51
266.999963
  0
LINE
  8
0
  6
BYLAYER
 62
     1
 10
279.808978
 20
-602.286708
 30
0.0
 11
271.704302
 21
-601.861884
 31
0.0
  0
LINE
  8
0
  6
BYLAYER
 62
     1
 10
279.808978
 20
-532.286720
 30
0.0
 11
279.808978
 21
-602.286708
 31
0.0
  0
LINE
  8
0
  6
BYLAYER
 62
     1
 10
258.808978
 20
-576.786689
 30
0.0
 11
258.808874
 21
-532.286689
 31
0.0
  0
LINE
  8
0
  6
BYLAYER
 62
     1
 10
269.808978
 20
-532.286689
 30
0.0
 11
269.808978
 21
-599.864692
 31
0.0
  0
ENDSEC
  0
EOF
