  0
SECTION
  2
HEADER
  9
$EXTMIN
 10
99.440273
 20
607.0
 30
0.0
  9
$EXTMAX
 10
855.600683
 20
0.0
 30
0.0
  0
ENDSEC
  0
SECTION
  2
TABLES
  0
ENDSEC
  0
SECTION
  2
BLOCKS
  0
ENDSEC
  0
SECTION
  2
ENTITIES
  0
LINE
  8
0
  6
BYLAYER
 62
     7
 10
306.784630
 20
-37.484581
 30
0.0
 11
300.984581
 21
-37.484581
 31
0.0
  0
ARC
  8
0
  6
BYLAYER
 62
     7
 10
306.784630
 20
-38.984581
 30
0.0
 40
1.500000
 50
0.0
 51
90.000003
  0
ARC
  8
0
  6
BYLAYER
 62
     7
 10
336.184639
 20
-38.984581
 30
0.0
 40
1.500000
 50
90.0
 51
180.000003
  0
LINE
  8
0
  6
BYLAYER
 62
     7
 10
345.784630
 20
-37.484581
 30
0.0
 11
336.184639
 21
-37.484581
 31
0.0
  0
ARC
  8
0
  6
BYLAYER
 62
     7
 10
345.784630
 20
-38.984581
 30
0.0
 40
1.5
 50
0.0
 51
90.000003
  0
LINE
  8
0
  6
BYLAYER
 62
     7
 10
380.984642
 20
-37.484520
 30
0.0
 11
375.184654
 21
-37.484520
 31
0.0
  0
ARC
  8
0
  6
BYLAYER
 62
     7
 10
375.184654
 20
-38.984520
 30
0.0
 40
1.500000
 50
90.0
 51
180.000003
  0
ARC
  8
0
  6
BYLAYER
 62
     7
 10
321.484642
 20
-46.484520
 30
0.0
 40
13.200012
 50
180.000000
 51
359.999995
  0
ARC
  8
0
  6
BYLAYER
 62
     7
 10
360.484642
 20
-46.484520
 30
0.0
 40
13.200012
 50
180.000000
 51
359.999995
  0
LINE
  8
0
  6
BYLAYER
 62
     7
 10
300.984581
 20
-42.984581
 30
0.0
 11
306.784630
 21
-42.984581
 31
0.0
  0
LINE
  8
0
  6
BYLAYER
 62
     7
 10
308.284630
 20
-38.984581
 30
0.0
 11
308.284630
 21
-44.484581
 31
0.0
  0
LINE
  8
0
  6
BYLAYER
 62
     7
 10
308.284630
 20
-44.484581
 30
0.0
 11
308.284630
 21
-46.484520
 31
0.0
  0
ARC
  8
0
  6
BYLAYER
 62
     7
 10
306.784630
 20
-44.484581
 30
0.0
 40
1.500000
 50
0.0
 51
90.000003
  0
ARC
  8
0
  6
BYLAYER
 62
     7
 10
336.184639
 20
-44.484520
 30
0.0
 40
1.5
 50
90.0
 51
180.000003
  0
LINE
  8
0
  6
BYLAYER
 62
     7
 10
336.184639
 20
-42.984520
 30
0.0
 11
345.784630
 21
-42.984520
 31
0.0
  0
LINE
  8
0
  6
BYLAYER
 62
     7
 10
347.284630
 20
-38.984581
 30
0.0
 11
347.284630
 21
-44.484520
 31
0.0
  0
LINE
  8
0
  6
BYLAYER
 62
     7
 10
347.284630
 20
-44.484520
 30
0.0
 11
347.284630
 21
-46.484520
 31
0.0
  0
ARC
  8
0
  6
BYLAYER
 62
     7
 10
345.784630
 20
-44.484520
 30
0.0
 40
1.5
 50
0.0
 51
90.000003
  0
LINE
  8
0
  6
BYLAYER
 62
     7
 10
373.684654
 20
-46.484520
 30
0.0
 11
373.684654
 21
-44.484520
 31
0.0
  0
LINE
  8
0
  6
BYLAYER
 62
     7
 10
373.684654
 20
-44.484520
 30
0.0
 11
373.684654
 21
-38.984520
 31
0.0
  0
LINE
  8
0
  6
BYLAYER
 62
     7
 10
375.184654
 20
-42.984520
 30
0.0
 11
380.984642
 21
-42.984520
 31
0.0
  0
ARC
  8
0
  6
BYLAYER
 62
     7
 10
375.184654
 20
-44.484520
 30
0.0
 40
1.5
 50
90.0
 51
180.000003
  0
LINE
  8
0
  6
BYLAYER
 62
     7
 10
334.684639
 20
-38.984581
 30
0.0
 11
334.684639
 21
-46.484520
 31
0.0
  0
LINE
  8
0
  6
BYLAYER
 62
     7
 10
298.984581
 20
-52.734642
 30
0.0
 11
300.984611
 21
-52.734642
 31
0.0
  0
LINE
  8
0
  6
BYLAYER
 62
     7
 10
401.484703
 20
-50.732353
 30
0.0
 11
380.984642
 21
-50.732353
 31
0.0
  0
LINE
  8
0
  6
BYLAYER
 62
     7
 10
380.984642
 20
-32.984520
 30
0.0
 11
380.984642
 21
-66.752555
 31
0.0
  0
LINE
  8
0
  6
BYLAYER
 62
     7
 10
401.484703
 20
-46.274253
 30
0.0
 11
380.984642
 21
-46.274253
 31
0.0
  0
LINE
  8
0
  6
BYLAYER
 62
     7
 10
380.984642
 20
-42.150810
 30
0.0
 11
401.484703
 21
-42.150810
 31
0.0
  0
LINE
  8
0
  6
BYLAYER
 62
     7
 10
380.984642
 20
-43.496513
 30
0.0
 11
401.484703
 21
-43.496513
 31
0.0
  0
ARC
  8
0
  6
BYLAYER
 62
     7
 10
301.834633
 20
-104.634666
 30
0.0
 40
0.850006
 50
90.0
 51
269.999998
  0
ARC
  8
0
  6
BYLAYER
 62
     7
 10
305.834557
 20
-104.634666
 30
0.0
 40
0.850006
 50
90.0
 51
269.999998
  0
LINE
  8
0
  6
BYLAYER
 62
     7
 10
301.834618
 20
-103.784660
 30
0.0
 11
401.484703
 21
-103.784742
 31
0.0
  0
LINE
  8
0
  6
BYLAYER
 62
     7
 10
301.834618
 20
-105.484642
 30
0.0
 11
401.484703
 21
-105.484724
 31
0.0
  0
ARC
  8
0
  6
BYLAYER
 62
     7
 10
301.834633
 20
-93.934654
 30
0.0
 40
0.850006
 50
90.0
 51
269.999998
  0
ARC
  8
0
  6
BYLAYER
 62
     7
 10
305.834557
 20
-93.934654
 30
0.0
 40
0.850006
 50
90.0
 51
269.999998
  0
ARC
  8
0
  6
BYLAYER
 62
     7
 10
301.834633
 20
-83.234672
 30
0.0
 40
0.850006
 50
90.0
 51
269.999998
  0
ARC
  8
0
  6
BYLAYER
 62
     7
 10
305.834557
 20
-83.234672
 30
0.0
 40
0.850006
 50
90.0
 51
269.999998
  0
LINE
  8
0
  6
BYLAYER
 62
     7
 10
301.834618
 20
-82.384666
 30
0.0
 11
401.484703
 21
-82.384749
 31
0.0
  0
LINE
  8
0
  6
BYLAYER
 62
     7
 10
301.834618
 20
-84.084648
 30
0.0
 11
401.484703
 21
-84.084730
 31
0.0
  0
ARC
  8
0
  6
BYLAYER
 62
     7
 10
301.834633
 20
-72.534660
 30
0.0
 40
0.850006
 50
90.0
 51
269.999998
  0
ARC
  8
0
  6
BYLAYER
 62
     7
 10
305.834557
 20
-72.534660
 30
0.0
 40
0.850006
 50
90.0
 51
269.999998
  0
LINE
  8
0
  6
BYLAYER
 62
     7
 10
301.834618
 20
-71.684654
 30
0.0
 11
401.484703
 21
-71.684736
 31
0.0
  0
LINE
  8
0
  6
BYLAYER
 62
     7
 10
301.834618
 20
-73.384635
 30
0.0
 11
401.484703
 21
-73.384718
 31
0.0
  0
LINE
  8
0
  6
BYLAYER
 62
     7
 10
308.984581
 20
-94.784629
 30
0.0
 11
308.984581
 21
-103.784660
 31
0.0
  0
LINE
  8
0
  6
BYLAYER
 62
     7
 10
308.984581
 20
-84.084617
 30
0.0
 11
308.984581
 21
-93.084648
 31
0.0
  0
LINE
  8
0
  6
BYLAYER
 62
     7
 10
308.984581
 20
-73.384635
 30
0.0
 11
308.984581
 21
-82.384666
 31
0.0
  0
LINE
  8
0
  6
BYLAYER
 62
     7
 10
308.984581
 20
-66.752555
 30
0.0
 11
308.984581
 21
-71.684654
 31
0.0
  0
LINE
  8
0
  6
BYLAYER
 62
     7
 10
300.984611
 20
-62.442619
 30
0.0
 11
308.984581
 21
-66.752555
 31
0.0
  0
LINE
  8
0
  6
BYLAYER
 62
     7
 10
401.484703
 20
-66.752555
 30
0.0
 11
308.984581
 21
-66.752555
 31
0.0
  0
ARC
  8
0
  6
BYLAYER
 62
     7
 10
301.834633
 20
-115.334617
 30
0.0
 40
0.850006
 50
90.0
 51
269.999998
  0
ARC
  8
0
  6
BYLAYER
 62
     7
 10
305.834557
 20
-115.334617
 30
0.0
 40
0.850006
 50
90.0
 51
269.999998
  0
LINE
  8
0
  6
BYLAYER
 62
     7
 10
301.834618
 20
-116.184623
 30
0.0
 11
401.484703
 21
-116.184541
 31
0.0
  0
LINE
  8
0
  6
BYLAYER
 62
     7
 10
301.834618
 20
-114.484642
 30
0.0
 11
401.484703
 21
-114.484559
 31
0.0
  0
ARC
  8
0
  6
BYLAYER
 62
     7
 10
301.834633
 20
-126.034629
 30
0.0
 40
0.850006
 50
90.0
 51
269.999998
  0
ARC
  8
0
  6
BYLAYER
 62
     7
 10
305.834557
 20
-126.034629
 30
0.0
 40
0.850006
 50
90.0
 51
269.999998
  0
ARC
  8
0
  6
BYLAYER
 62
     7
 10
301.834633
 20
-136.734611
 30
0.0
 40
0.850006
 50
90.0
 51
269.999998
  0
ARC
  8
0
  6
BYLAYER
 62
     7
 10
305.834557
 20
-136.734611
 30
0.0
 40
0.850006
 50
90.0
 51
269.999998
  0
LINE
  8
0
  6
BYLAYER
 62
     7
 10
301.834618
 20
-137.584617
 30
0.0
 11
401.484703
 21
-137.584535
 31
0.0
  0
LINE
  8
0
  6
BYLAYER
 62
     7
 10
301.834618
 20
-135.884635
 30
0.0
 11
401.484703
 21
-135.884553
 31
0.0
  0
ARC
  8
0
  6
BYLAYER
 62
     7
 10
301.834633
 20
-147.434623
 30
0.0
 40
0.850006
 50
90.0
 51
269.999998
  0
ARC
  8
0
  6
BYLAYER
 62
     7
 10
305.834557
 20
-147.434623
 30
0.0
 40
0.850006
 50
90.0
 51
269.999998
  0
LINE
  8
0
  6
BYLAYER
 62
     7
 10
301.834618
 20
-148.284629
 30
0.0
 11
401.484703
 21
-148.284547
 31
0.0
  0
LINE
  8
0
  6
BYLAYER
 62
     7
 10
301.834618
 20
-146.584648
 30
0.0
 11
401.484703
 21
-146.584565
 31
0.0
  0
LINE
  8
0
  6
BYLAYER
 62
     7
 10
308.984581
 20
-125.184654
 30
0.0
 11
308.984581
 21
-116.184623
 31
0.0
  0
LINE
  8
0
  6
BYLAYER
 62
     7
 10
308.984581
 20
-135.884666
 30
0.0
 11
308.984581
 21
-126.884635
 31
0.0
  0
LINE
  8
0
  6
BYLAYER
 62
     7
 10
308.984581
 20
-146.584648
 30
0.0
 11
308.984581
 21
-137.584617
 31
0.0
  0
LINE
  8
0
  6
BYLAYER
 62
     7
 10
300.984703
 20
-167.234642
 30
0.0
 11
300.984581
 21
-32.984520
 31
0.0
  0
LINE
  8
0
  6
BYLAYER
 62
     7
 10
300.984703
 20
-167.234642
 30
0.0
 11
298.984703
 21
-167.234642
 31
0.0
  0
LINE
  8
0
  6
BYLAYER
 62
     7
 10
308.984581
 20
-105.484642
 30
0.0
 11
308.984581
 21
-114.484642
 31
0.0
  0
LINE
  8
0
  6
BYLAYER
 62
     7
 10
300.984688
 20
-148.711052
 30
0.0
 11
303.157433
 21
-156.819877
 31
0.0
  0
ARC
  8
0
  6
BYLAYER
 62
     7
 10
305.089287
 20
-156.302238
 30
0.0
 40
2.000003
 50
195.000016
 51
270.000001
  0
LINE
  8
0
  6
BYLAYER
 62
     7
 10
300.984688
 20
-152.148643
 30
0.0
 11
304.454857
 21
-165.099449
 31
0.0
  0
ARC
  8
0
  6
BYLAYER
 62
     7
 10
306.386696
 20
-164.581810
 30
0.0
 40
1.999988
 50
195.000043
 51
270.000001
  0
LINE
  8
0
  6
BYLAYER
 62
     7
 10
300.984703
 20
-159.943244
 30
0.0
 11
303.933556
 21
-170.948524
 31
0.0
  0
ARC
  8
0
  6
BYLAYER
 62
     7
 10
305.865410
 20
-170.430885
 30
0.0
 40
2.000003
 50
195.000043
 51
270.000001
  0
LINE
  8
0
  6
BYLAYER
 62
     7
 10
300.984703
 20
-164.582496
 30
0.0
 11
303.657433
 21
-174.557289
 31
0.0
  0
ARC
  8
0
  6
BYLAYER
 62
     7
 10
305.589287
 20
-174.039650
 30
0.0
 40
2.000003
 50
195.000043
 51
270.000001
  0
LINE
  8
0
  6
BYLAYER
 62
     7
 10
300.984703
 20
-167.234642
 30
0.0
 11
303.410759
 21
-176.288826
 31
0.0
  0
ARC
  8
0
  6
BYLAYER
 62
     7
 10
305.342613
 20
-175.771186
 30
0.0
 40
2.000003
 50
195.000016
 51
270.000001
  0
LINE
  8
0
  6
BYLAYER
 62
     7
 10
305.089287
 20
-158.302238
 30
0.0
 11
401.484703
 21
-158.302224
 31
0.0
  0
LINE
  8
0
  6
BYLAYER
 62
     7
 10
306.386696
 20
-166.581810
 30
0.0
 11
401.484703
 21
-166.581795
 31
0.0
  0
LINE
  8
0
  6
BYLAYER
 62
     7
 10
305.865410
 20
-172.430885
 30
0.0
 11
401.484703
 21
-172.430871
 31
0.0
  0
LINE
  8
0
  6
BYLAYER
 62
     7
 10
305.589287
 20
-176.039650
 30
0.0
 11
401.484703
 21
-176.039635
 31
0.0
  0
LINE
  8
0
  6
BYLAYER
 62
     7
 10
305.342613
 20
-177.771186
 30
0.0
 11
401.484703
 21
-177.771172
 31
0.0
  0
CIRCLE
  8
0
  6
BYLAYER
 62
     7
 10
329.484673
 20
-93.934654
 30
0.0
 40
3.0
  0
CIRCLE
  8
0
  6
BYLAYER
 62
     7
 10
384.484673
 20
-93.934654
 30
0.0
 40
3.0
  0
LINE
  8
0
  6
BYLAYER
 62
     7
 10
301.834618
 20
-93.084648
 30
0.0
 11
326.607597
 21
-93.084678
 31
0.0
  0
LINE
  8
0
  6
BYLAYER
 62
     7
 10
326.607597
 20
-94.784660
 30
0.0
 11
301.834618
 21
-94.784629
 31
0.0
  0
LINE
  8
0
  6
BYLAYER
 62
     7
 10
332.361748
 20
-93.084678
 30
0.0
 11
381.607597
 21
-93.084709
 31
0.0
  0
LINE
  8
0
  6
BYLAYER
 62
     7
 10
381.607628
 20
-94.784690
 30
0.0
 11
332.361732
 21
-94.784660
 31
0.0
  0
LINE
  8
0
  6
BYLAYER
 62
     7
 10
387.361748
 20
-93.084709
 30
0.0
 11
401.484703
 21
-93.084726
 31
0.0
  0
LINE
  8
0
  6
BYLAYER
 62
     7
 10
401.484703
 20
-94.784708
 30
0.0
 11
387.361717
 21
-94.784690
 31
0.0
  0
LINE
  8
0
  6
BYLAYER
 62
     7
 10
301.834618
 20
-125.184654
 30
0.0
 11
401.484703
 21
-125.184566
 31
0.0
  0
LINE
  8
0
  6
BYLAYER
 62
     7
 10
301.834618
 20
-126.884635
 30
0.0
 11
401.484703
 21
-126.884548
 31
0.0
  0
LINE
  8
0
  6
BYLAYER
 62
     7
 10
298.984581
 20
-52.734638
 30
0.0
 11
298.984703
 21
-167.234638
 31
0.0
  0
LINE
  8
0
  6
BYLAYER
 62
     7
 10
474.984703
 20
-54.984642
 30
0.0
 11
474.984703
 21
-164.984642
 31
0.0
  0
LINE
  8
0
  6
BYLAYER
 62
     7
 10
401.484703
 20
-40.534642
 30
0.0
 11
460.534703
 21
-40.534642
 31
0.0
  0
LINE
  8
0
  6
BYLAYER
 62
     7
 10
401.484703
 20
-179.434642
 30
0.0
 11
460.534703
 21
-179.434642
 31
0.0
  0
LINE
  8
0
  6
BYLAYER
 62
     7
 10
474.984703
 20
-54.984642
 30
0.0
 11
460.534703
 21
-40.534642
 31
0.0
  0
LINE
  8
0
  6
BYLAYER
 62
     7
 10
474.984703
 20
-164.984642
 30
0.0
 11
460.534703
 21
-179.434642
 31
0.0
  0
LINE
  8
0
  6
BYLAYER
 62
     7
 10
401.484703
 20
-109.984642
 30
0.0
 11
401.484703
 21
-179.434642
 31
0.0
  0
LINE
  8
0
  6
BYLAYER
 62
     7
 10
401.484703
 20
-109.984642
 30
0.0
 11
401.484703
 21
-40.534642
 31
0.0
  0
LINE
  8
0
  6
BYLAYER
 62
     7
 10
298.984642
 20
-51.975915
 30
0.0
 11
298.984642
 21
-167.993369
 31
0.0
  0
LINE
  8
0
  6
BYLAYER
 62
     7
 10
267.984642
 20
-29.984642
 30
0.0
 11
277.984642
 21
-29.984642
 31
0.0
  0
LINE
  8
0
  6
BYLAYER
 62
     7
 10
298.984642
 20
-51.975915
 30
0.0
 11
278.967186
 21
-51.626511
 31
0.0
  0
LINE
  8
0
  6
BYLAYER
 62
     7
 10
277.984642
 20
-29.984642
 30
0.0
 11
277.984642
 21
-109.984642
 31
0.0
  0
ARC
  8
0
  6
BYLAYER
 62
     7
 10
278.984642
 20
-50.626663
 30
0.0
 40
1.0
 50
180.000000
 51
269.000015
  0
LINE
  8
0
  6
BYLAYER
 62
     7
 10
267.984642
 20
-189.984642
 30
0.0
 11
277.984642
 21
-189.984642
 31
0.0
  0
LINE
  8
0
  6
BYLAYER
 62
     7
 10
297.484642
 20
-176.984642
 30
0.0
 11
277.984642
 21
-177.325018
 31
0.0
  0
LINE
  8
0
  6
BYLAYER
 62
     7
 10
297.484642
 20
-176.984642
 30
0.0
 11
297.484642
 21
-167.984642
 31
0.0
  0
LINE
  8
0
  6
BYLAYER
 62
     7
 10
298.984642
 20
-167.993369
 30
0.0
 11
297.484642
 21
-168.019550
 31
0.0
  0
LINE
  8
0
  6
BYLAYER
 62
     7
 10
277.984642
 20
-189.984642
 30
0.0
 11
277.984642
 21
-109.984642
 31
0.0
  0
LINE
  8
0
  6
BYLAYER
 62
     7
 10
267.984642
 20
-189.984642
 30
0.0
 11
267.984642
 21
-109.984642
 31
0.0
  0
LINE
  8
0
  6
BYLAYER
 62
     7
 10
267.984642
 20
-29.984642
 30
0.0
 11
267.984642
 21
-109.984642
 31
0.0
  0
ARC
  8
0
  6
BYLAYER
 62
     7
 10
371.738919
 20
-22.484520
 30
0.0
 40
1.5
 50
180.000000
 51
270.000000
  0
ARC
  8
0
  6
BYLAYER
 62
     7
 10
310.230243
 20
-22.484520
 30
0.0
 40
1.5
 50
270.0
 51
360.0
  0
ARC
  8
0
  6
BYLAYER
 62
     7
 10
302.484581
 20
-22.484520
 30
0.0
 40
1.5
 50
270.0
 51
360.0
  0
ARC
  8
0
  6
BYLAYER
 62
     7
 10
302.484581
 20
-25.484520
 30
0.0
 40
1.5
 50
90.0
 51
180.0
  0
ARC
  8
0
  6
BYLAYER
 62
     7
 10
379.484581
 20
-22.484520
 30
0.0
 40
1.5
 50
180.000000
 51
270.000000
  0
LINE
  8
0
  6
BYLAYER
 62
     7
 10
303.984581
 20
-22.484520
 30
0.0
 11
303.984581
 21
-0.984520
 31
0.0
  0
ARC
  8
0
  6
BYLAYER
 62
     7
 10
305.484581
 20
-0.984520
 30
0.0
 40
1.5
 50
90.0
 51
180.0
  0
LINE
  8
0
  6
BYLAYER
 62
     7
 10
377.984581
 20
-22.484520
 30
0.0
 11
377.984581
 21
-0.984520
 31
0.0
  0
LINE
  8
0
  6
BYLAYER
 62
     7
 10
305.484581
 20
0.515480
 30
0.0
 11
376.484581
 21
0.515480
 31
0.0
  0
ARC
  8
0
  6
BYLAYER
 62
     7
 10
368.738919
 20
-0.984520
 30
0.0
 40
1.5
 50
0.0
 51
90.0
  0
ARC
  8
0
  6
BYLAYER
 62
     7
 10
376.484581
 20
-0.984520
 30
0.0
 40
1.5
 50
0.0
 51
90.0
  0
LINE
  8
0
  6
BYLAYER
 62
     7
 10
311.730243
 20
-22.484520
 30
0.0
 11
311.730243
 21
-0.984520
 31
0.0
  0
ARC
  8
0
  6
BYLAYER
 62
     7
 10
313.230243
 20
-0.984520
 30
0.0
 40
1.5
 50
90.0
 51
180.0
  0
LINE
  8
0
  6
BYLAYER
 62
     7
 10
370.238919
 20
-22.484520
 30
0.0
 11
370.238919
 21
-0.984520
 31
0.0
  0
ARC
  8
0
  6
BYLAYER
 62
     7
 10
379.484581
 20
-25.484520
 30
0.0
 40
1.5
 50
0.0
 51
90.0
  0
LINE
  8
0
  6
BYLAYER
 62
     7
 10
380.984581
 20
-32.984520
 30
0.0
 11
380.984581
 21
-25.484520
 31
0.0
  0
LINE
  8
0
  6
BYLAYER
 62
     7
 10
379.484581
 20
-23.984520
 30
0.0
 11
302.484581
 21
-23.984520
 31
0.0
  0
LINE
  8
0
  6
BYLAYER
 62
     7
 10
300.984581
 20
-25.484520
 30
0.0
 11
300.984581
 21
-32.984520
 31
0.0
  0
LINE
  8
0
  6
BYLAYER
 62
     7
 10
300.984581
 20
-32.984520
 30
0.0
 11
380.984581
 21
-32.984520
 31
0.0
  0
LINE
  8
0
  6
BYLAYER
 62
     7
 10
380.984581
 20
-30.984520
 30
0.0
 11
300.984581
 21
-30.984520
 31
0.0
  0
LINE
  8
0
  6
BYLAYER
 62
     7
 10
460.534703
 20
-179.434642
 30
0.0
 11
460.534703
 21
-40.534642
 31
0.0
  0
ARC
  8
0
  6
BYLAYER
 62
     7
 10
301.834633
 20
-550.434623
 30
0.0
 40
0.850006
 50
111.034603
 51
269.999998
  0
ARC
  8
0
  6
BYLAYER
 62
     7
 10
305.834557
 20
-550.434623
 30
0.0
 40
0.850006
 50
148.036043
 51
269.999998
  0
LINE
  8
0
  6
BYLAYER
 62
     7
 10
301.834618
 20
-551.284629
 30
0.0
 11
401.484703
 21
-551.284547
 31
0.0
  0
LINE
  8
0
  6
BYLAYER
 62
     7
 10
300.984703
 20
-570.234642
 30
0.0
 11
300.984651
 21
-512.984642
 31
0.0
  0
LINE
  8
0
  6
BYLAYER
 62
     7
 10
300.984703
 20
-570.234642
 30
0.0
 11
298.984703
 21
-570.234642
 31
0.0
  0
LINE
  8
0
  6
BYLAYER
 62
     7
 10
300.984688
 20
-551.711052
 30
0.0
 11
303.157433
 21
-559.819877
 31
0.0
  0
ARC
  8
0
  6
BYLAYER
 62
     7
 10
305.089287
 20
-559.302238
 30
0.0
 40
2.000003
 50
195.000016
 51
270.000001
  0
LINE
  8
0
  6
BYLAYER
 62
     7
 10
300.984688
 20
-555.148643
 30
0.0
 11
304.454857
 21
-568.099449
 31
0.0
  0
ARC
  8
0
  6
BYLAYER
 62
     7
 10
306.386696
 20
-567.581810
 30
0.0
 40
1.999988
 50
195.000043
 51
270.000001
  0
LINE
  8
0
  6
BYLAYER
 62
     7
 10
300.984703
 20
-562.943244
 30
0.0
 11
303.933556
 21
-573.948524
 31
0.0
  0
ARC
  8
0
  6
BYLAYER
 62
     7
 10
305.865410
 20
-573.430885
 30
0.0
 40
2.000003
 50
195.000043
 51
270.000001
  0
LINE
  8
0
  6
BYLAYER
 62
     7
 10
300.984703
 20
-567.582496
 30
0.0
 11
303.657433
 21
-577.557289
 31
0.0
  0
ARC
  8
0
  6
BYLAYER
 62
     7
 10
305.589287
 20
-577.039650
 30
0.0
 40
2.000003
 50
195.000043
 51
270.000001
  0
LINE
  8
0
  6
BYLAYER
 62
     7
 10
300.984703
 20
-570.234642
 30
0.0
 11
303.410759
 21
-579.288826
 31
0.0
  0
ARC
  8
0
  6
BYLAYER
 62
     7
 10
305.342613
 20
-578.771186
 30
0.0
 40
2.000003
 50
195.000016
 51
270.000001
  0
LINE
  8
0
  6
BYLAYER
 62
     7
 10
305.089287
 20
-561.302238
 30
0.0
 11
401.484703
 21
-561.302224
 31
0.0
  0
LINE
  8
0
  6
BYLAYER
 62
     7
 10
306.386696
 20
-569.581810
 30
0.0
 11
401.484703
 21
-569.581795
 31
0.0
  0
LINE
  8
0
  6
BYLAYER
 62
     7
 10
305.865410
 20
-575.430885
 30
0.0
 11
401.484703
 21
-575.430871
 31
0.0
  0
LINE
  8
0
  6
BYLAYER
 62
     7
 10
305.589287
 20
-579.039650
 30
0.0
 11
401.484703
 21
-579.039635
 31
0.0
  0
LINE
  8
0
  6
BYLAYER
 62
     7
 10
305.342613
 20
-580.771186
 30
0.0
 11
401.484703
 21
-580.771172
 31
0.0
  0
LINE
  8
0
  6
BYLAYER
 62
     7
 10
298.984642
 20
-512.984642
 30
0.0
 11
298.984703
 21
-570.234638
 31
0.0
  0
LINE
  8
0
  6
BYLAYER
 62
     7
 10
474.984703
 20
-512.984642
 30
0.0
 11
474.984703
 21
-567.984642
 31
0.0
  0
LINE
  8
0
  6
BYLAYER
 62
     7
 10
401.484703
 20
-582.434642
 30
0.0
 11
460.534703
 21
-582.434642
 31
0.0
  0
LINE
  8
0
  6
BYLAYER
 62
     7
 10
474.984703
 20
-567.984642
 30
0.0
 11
460.534703
 21
-582.434642
 31
0.0
  0
LINE
  8
0
  6
BYLAYER
 62
     7
 10
401.484703
 20
-512.984642
 30
0.0
 11
401.484703
 21
-582.434642
 31
0.0
  0
LINE
  8
0
  6
BYLAYER
 62
     7
 10
303.984651
 20
-537.501327
 30
0.0
 11
303.984651
 21
-512.984642
 31
0.0
  0
LINE
  8
0
  6
BYLAYER
 62
     7
 10
377.984651
 20
-512.984642
 30
0.0
 11
377.984651
 21
-537.501327
 31
0.0
  0
LINE
  8
0
  6
BYLAYER
 62
     7
 10
368.522245
 20
-547.234642
 30
0.0
 11
313.447057
 21
-547.234642
 31
0.0
  0
LINE
  8
0
  6
BYLAYER
 62
     7
 10
318.089349
 20
-518.085748
 30
0.0
 11
303.984651
 21
-518.578295
 31
0.0
  0
ARC
  8
0
  6
BYLAYER
 62
     7
 10
317.984651
 20
-515.087576
 30
0.0
 40
3.0
 50
272.000000
 51
360.000000
  0
LINE
  8
0
  6
BYLAYER
 62
     7
 10
318.089349
 20
-533.085748
 30
0.0
 11
303.984651
 21
-533.578295
 31
0.0
  0
ARC
  8
0
  6
BYLAYER
 62
     7
 10
317.984651
 20
-530.087576
 30
0.0
 40
3.0
 50
272.000000
 51
360.000000
  0
LINE
  8
0
  6
BYLAYER
 62
     7
 10
303.984651
 20
-522.390989
 30
0.0
 11
318.089349
 21
-522.883536
 31
0.0
  0
ARC
  8
0
  6
BYLAYER
 62
     7
 10
317.984651
 20
-525.881708
 30
0.0
 40
3.000000
 50
0.0
 51
88.0
  0
LINE
  8
0
  6
BYLAYER
 62
     7
 10
320.984651
 20
-525.881708
 30
0.0
 11
320.984651
 21
-530.087576
 31
0.0
  0
LINE
  8
0
  6
BYLAYER
 62
     7
 10
320.984651
 20
-512.984642
 30
0.0
 11
320.984651
 21
-515.087576
 31
0.0
  0
LINE
  8
0
  6
BYLAYER
 62
     7
 10
304.984651
 20
-512.984642
 30
0.0
 11
304.984651
 21
-518.543374
 31
0.0
  0
LINE
  8
0
  6
BYLAYER
 62
     7
 10
304.984651
 20
-522.425910
 30
0.0
 11
304.984651
 21
-533.543374
 31
0.0
  0
LINE
  8
0
  6
BYLAYER
 62
     7
 10
363.879952
 20
-518.085748
 30
0.0
 11
377.984651
 21
-518.578295
 31
0.0
  0
ARC
  8
0
  6
BYLAYER
 62
     7
 10
363.984651
 20
-515.087576
 30
0.0
 40
3.000000
 50
180.000000
 51
268.000000
  0
LINE
  8
0
  6
BYLAYER
 62
     7
 10
363.879952
 20
-533.085748
 30
0.0
 11
377.984651
 21
-533.578295
 31
0.0
  0
ARC
  8
0
  6
BYLAYER
 62
     7
 10
363.984651
 20
-530.087576
 30
0.0
 40
3.000000
 50
180.000000
 51
268.000000
  0
LINE
  8
0
  6
BYLAYER
 62
     7
 10
377.984651
 20
-522.390989
 30
0.0
 11
363.879952
 21
-522.883536
 31
0.0
  0
ARC
  8
0
  6
BYLAYER
 62
     7
 10
363.984651
 20
-525.881708
 30
0.0
 40
3.000000
 50
92.0
 51
180.0
  0
LINE
  8
0
  6
BYLAYER
 62
     7
 10
360.984651
 20
-525.881708
 30
0.0
 11
360.984651
 21
-530.087576
 31
0.0
  0
LINE
  8
0
  6
BYLAYER
 62
     7
 10
360.984651
 20
-512.984642
 30
0.0
 11
360.984651
 21
-515.087576
 31
0.0
  0
LINE
  8
0
  6
BYLAYER
 62
     7
 10
376.984651
 20
-512.984642
 30
0.0
 11
376.984651
 21
-518.543374
 31
0.0
  0
LINE
  8
0
  6
BYLAYER
 62
     7
 10
376.984651
 20
-522.425910
 30
0.0
 11
376.984651
 21
-533.543374
 31
0.0
  0
LINE
  8
0
  6
BYLAYER
 62
     7
 10
300.984651
 20
-512.984642
 30
0.0
 11
300.984651
 21
-548.484642
 31
0.0
  0
ARC
  8
0
  6
BYLAYER
 62
     7
 10
302.484651
 20
-548.484642
 30
0.0
 40
1.5
 50
180.000000
 51
270.000000
  0
LINE
  8
0
  6
BYLAYER
 62
     7
 10
380.984651
 20
-548.484642
 30
0.0
 11
380.984651
 21
-512.984642
 31
0.0
  0
LINE
  8
0
  6
BYLAYER
 62
     7
 10
302.484651
 20
-549.984642
 30
0.0
 11
379.484651
 21
-549.984642
 31
0.0
  0
ARC
  8
0
  6
BYLAYER
 62
     7
 10
379.484651
 20
-548.484642
 30
0.0
 40
1.5
 50
270.0
 51
360.0
  0
ARC
  8
0
  6
BYLAYER
 62
     7
 10
375.984651
 20
-544.984642
 30
0.0
 40
6.000000
 50
86.177446
 51
185.739170
  0
ARC
  8
0
  6
BYLAYER
 62
     7
 10
376.484651
 20
-537.501327
 30
0.0
 40
1.5
 50
266.177446
 51
360.0
  0
ARC
  8
0
  6
BYLAYER
 62
     7
 10
368.522245
 20
-545.734642
 30
0.0
 40
1.5
 50
270.0
 51
365.739170
  0
ARC
  8
0
  6
BYLAYER
 62
     7
 10
305.984651
 20
-544.984642
 30
0.0
 40
6.0
 50
354.260830
 51
453.822554
  0
ARC
  8
0
  6
BYLAYER
 62
     7
 10
313.447057
 20
-545.734642
 30
0.0
 40
1.5
 50
174.260830
 51
270.000000
  0
ARC
  8
0
  6
BYLAYER
 62
     7
 10
305.484651
 20
-537.501327
 30
0.0
 40
1.500000
 50
180.000000
 51
273.822554
  0
ARC
  8
0
  6
BYLAYER
 62
     7
 10
327.984651
 20
-539.984642
 30
0.0
 40
3.0
 50
180.000000
 51
270.000000
  0
ARC
  8
0
  6
BYLAYER
 62
     7
 10
353.984651
 20
-539.984642
 30
0.0
 40
3.0
 50
270.0
 51
360.0
  0
LINE
  8
0
  6
BYLAYER
 62
     7
 10
327.984651
 20
-542.984642
 30
0.0
 11
353.984651
 21
-542.984642
 31
0.0
  0
LINE
  8
0
  6
BYLAYER
 62
     7
 10
324.984651
 20
-539.984642
 30
0.0
 11
324.984651
 21
-512.984642
 31
0.0
  0
LINE
  8
0
  6
BYLAYER
 62
     7
 10
356.984651
 20
-512.984642
 30
0.0
 11
356.984651
 21
-539.984642
 31
0.0
  0
LINE
  8
0
  6
BYLAYER
 62
     7
 10
401.484703
 20
-538.884553
 30
0.0
 11
380.984651
 21
-538.884570
 31
0.0
  0
LINE
  8
0
  6
BYLAYER
 62
     7
 10
401.484703
 20
-540.584535
 30
0.0
 11
380.984651
 21
-540.584552
 31
0.0
  0
LINE
  8
0
  6
BYLAYER
 62
     7
 10
401.484703
 20
-549.584556
 30
0.0
 11
380.504548
 21
-549.584556
 31
0.0
  0
ARC
  8
0
  6
BYLAYER
 62
     7
 10
301.834633
 20
-475.534661
 30
0.0
 40
0.850006
 50
90.0
 51
248.965395
  0
ARC
  8
0
  6
BYLAYER
 62
     7
 10
305.834557
 20
-475.534661
 30
0.0
 40
0.850006
 50
90.0
 51
211.963955
  0
LINE
  8
0
  6
BYLAYER
 62
     7
 10
301.834618
 20
-474.684655
 30
0.0
 11
401.484703
 21
-474.684737
 31
0.0
  0
LINE
  8
0
  6
BYLAYER
 62
     7
 10
300.984703
 20
-455.734642
 30
0.0
 11
300.984651
 21
-512.984642
 31
0.0
  0
LINE
  8
0
  6
BYLAYER
 62
     7
 10
300.984703
 20
-455.734642
 30
0.0
 11
298.984703
 21
-455.734642
 31
0.0
  0
LINE
  8
0
  6
BYLAYER
 62
     7
 10
300.984688
 20
-474.258232
 30
0.0
 11
303.157433
 21
-466.149407
 31
0.0
  0
ARC
  8
0
  6
BYLAYER
 62
     7
 10
305.089287
 20
-466.667046
 30
0.0
 40
2.000003
 50
90.0
 51
164.999985
  0
LINE
  8
0
  6
BYLAYER
 62
     7
 10
300.984688
 20
-470.820641
 30
0.0
 11
304.454857
 21
-457.869835
 31
0.0
  0
ARC
  8
0
  6
BYLAYER
 62
     7
 10
306.386696
 20
-458.387474
 30
0.0
 40
1.999988
 50
90.0
 51
164.999958
  0
LINE
  8
0
  6
BYLAYER
 62
     7
 10
300.984703
 20
-463.026040
 30
0.0
 11
303.933556
 21
-452.020760
 31
0.0
  0
ARC
  8
0
  6
BYLAYER
 62
     7
 10
305.865410
 20
-452.538399
 30
0.0
 40
2.000003
 50
90.0
 51
164.999958
  0
LINE
  8
0
  6
BYLAYER
 62
     7
 10
300.984703
 20
-458.386788
 30
0.0
 11
303.657433
 21
-448.411995
 31
0.0
  0
ARC
  8
0
  6
BYLAYER
 62
     7
 10
305.589287
 20
-448.929634
 30
0.0
 40
2.000003
 50
90.0
 51
164.999958
  0
LINE
  8
0
  6
BYLAYER
 62
     7
 10
300.984703
 20
-455.734642
 30
0.0
 11
303.410759
 21
-446.680458
 31
0.0
  0
ARC
  8
0
  6
BYLAYER
 62
     7
 10
305.342613
 20
-447.198098
 30
0.0
 40
2.000003
 50
90.0
 51
164.999985
  0
LINE
  8
0
  6
BYLAYER
 62
     7
 10
305.089287
 20
-464.667046
 30
0.0
 11
401.484703
 21
-464.667060
 31
0.0
  0
LINE
  8
0
  6
BYLAYER
 62
     7
 10
306.386696
 20
-456.387474
 30
0.0
 11
401.484703
 21
-456.387489
 31
0.0
  0
LINE
  8
0
  6
BYLAYER
 62
     7
 10
305.865410
 20
-450.538399
 30
0.0
 11
401.484703
 21
-450.538413
 31
0.0
  0
LINE
  8
0
  6
BYLAYER
 62
     7
 10
305.589287
 20
-446.929634
 30
0.0
 11
401.484703
 21
-446.929649
 31
0.0
  0
LINE
  8
0
  6
BYLAYER
 62
     7
 10
305.342613
 20
-445.198098
 30
0.0
 11
401.484703
 21
-445.198112
 31
0.0
  0
LINE
  8
0
  6
BYLAYER
 62
     7
 10
298.984642
 20
-512.984642
 30
0.0
 11
298.984703
 21
-455.734646
 31
0.0
  0
LINE
  8
0
  6
BYLAYER
 62
     7
 10
474.984703
 20
-512.984642
 30
0.0
 11
474.984703
 21
-457.984642
 31
0.0
  0
LINE
  8
0
  6
BYLAYER
 62
     7
 10
401.484703
 20
-443.534642
 30
0.0
 11
460.534703
 21
-443.534642
 31
0.0
  0
LINE
  8
0
  6
BYLAYER
 62
     7
 10
474.984703
 20
-457.984642
 30
0.0
 11
460.534703
 21
-443.534642
 31
0.0
  0
LINE
  8
0
  6
BYLAYER
 62
     7
 10
401.484703
 20
-512.984642
 30
0.0
 11
401.484703
 21
-443.534642
 31
0.0
  0
LINE
  8
0
  6
BYLAYER
 62
     7
 10
303.984651
 20
-488.467957
 30
0.0
 11
303.984651
 21
-512.984642
 31
0.0
  0
LINE
  8
0
  6
BYLAYER
 62
     7
 10
377.984651
 20
-512.984642
 30
0.0
 11
377.984651
 21
-488.467957
 31
0.0
  0
LINE
  8
0
  6
BYLAYER
 62
     7
 10
368.522245
 20
-478.734642
 30
0.0
 11
313.447057
 21
-478.734642
 31
0.0
  0
LINE
  8
0
  6
BYLAYER
 62
     7
 10
318.089349
 20
-507.883536
 30
0.0
 11
303.984651
 21
-507.390989
 31
0.0
  0
ARC
  8
0
  6
BYLAYER
 62
     7
 10
317.984651
 20
-510.881708
 30
0.0
 40
3.000000
 50
0.0
 51
88.0
  0
LINE
  8
0
  6
BYLAYER
 62
     7
 10
318.089349
 20
-492.883536
 30
0.0
 11
303.984651
 21
-492.390989
 31
0.0
  0
ARC
  8
0
  6
BYLAYER
 62
     7
 10
317.984651
 20
-495.881708
 30
0.0
 40
3.000000
 50
0.0
 51
88.0
  0
LINE
  8
0
  6
BYLAYER
 62
     7
 10
303.984651
 20
-503.578295
 30
0.0
 11
318.089349
 21
-503.085748
 31
0.0
  0
ARC
  8
0
  6
BYLAYER
 62
     7
 10
317.984651
 20
-500.087576
 30
0.0
 40
3.0
 50
272.000000
 51
360.000000
  0
LINE
  8
0
  6
BYLAYER
 62
     7
 10
320.984651
 20
-500.087576
 30
0.0
 11
320.984651
 21
-495.881708
 31
0.0
  0
LINE
  8
0
  6
BYLAYER
 62
     7
 10
320.984651
 20
-512.984642
 30
0.0
 11
320.984651
 21
-510.881708
 31
0.0
  0
LINE
  8
0
  6
BYLAYER
 62
     7
 10
304.984651
 20
-512.984642
 30
0.0
 11
304.984651
 21
-507.425910
 31
0.0
  0
LINE
  8
0
  6
BYLAYER
 62
     7
 10
304.984651
 20
-503.543374
 30
0.0
 11
304.984651
 21
-492.425910
 31
0.0
  0
LINE
  8
0
  6
BYLAYER
 62
     7
 10
363.879952
 20
-507.883536
 30
0.0
 11
377.984651
 21
-507.390989
 31
0.0
  0
ARC
  8
0
  6
BYLAYER
 62
     7
 10
363.984651
 20
-510.881708
 30
0.0
 40
3.0
 50
92.000000
 51
180.000000
  0
LINE
  8
0
  6
BYLAYER
 62
     7
 10
363.879952
 20
-492.883536
 30
0.0
 11
377.984651
 21
-492.390989
 31
0.0
  0
ARC
  8
0
  6
BYLAYER
 62
     7
 10
363.984651
 20
-495.881708
 30
0.0
 40
3.0
 50
92.000000
 51
180.000000
  0
LINE
  8
0
  6
BYLAYER
 62
     7
 10
377.984651
 20
-503.578295
 30
0.0
 11
363.879952
 21
-503.085748
 31
0.0
  0
ARC
  8
0
  6
BYLAYER
 62
     7
 10
363.984651
 20
-500.087576
 30
0.0
 40
3.000000
 50
180.000000
 51
268.000000
  0
LINE
  8
0
  6
BYLAYER
 62
     7
 10
360.984651
 20
-500.087576
 30
0.0
 11
360.984651
 21
-495.881708
 31
0.0
  0
LINE
  8
0
  6
BYLAYER
 62
     7
 10
360.984651
 20
-512.984642
 30
0.0
 11
360.984651
 21
-510.881708
 31
0.0
  0
LINE
  8
0
  6
BYLAYER
 62
     7
 10
376.984651
 20
-512.984642
 30
0.0
 11
376.984651
 21
-507.425910
 31
0.0
  0
LINE
  8
0
  6
BYLAYER
 62
     7
 10
376.984651
 20
-503.543374
 30
0.0
 11
376.984651
 21
-492.425910
 31
0.0
  0
LINE
  8
0
  6
BYLAYER
 62
     7
 10
300.984651
 20
-512.984642
 30
0.0
 11
300.984651
 21
-477.484642
 31
0.0
  0
ARC
  8
0
  6
BYLAYER
 62
     7
 10
302.484651
 20
-477.484642
 30
0.0
 40
1.5
 50
90.0
 51
180.0
  0
LINE
  8
0
  6
BYLAYER
 62
     7
 10
380.984651
 20
-477.484642
 30
0.0
 11
380.984651
 21
-512.984642
 31
0.0
  0
LINE
  8
0
  6
BYLAYER
 62
     7
 10
302.484651
 20
-475.984642
 30
0.0
 11
379.484651
 21
-475.984642
 31
0.0
  0
ARC
  8
0
  6
BYLAYER
 62
     7
 10
379.484651
 20
-477.484642
 30
0.0
 40
1.5
 50
0.0
 51
90.0
  0
ARC
  8
0
  6
BYLAYER
 62
     7
 10
375.984651
 20
-480.984642
 30
0.0
 40
6.000000
 50
174.260830
 51
273.822554
  0
ARC
  8
0
  6
BYLAYER
 62
     7
 10
376.484651
 20
-488.467957
 30
0.0
 40
1.5
 50
0.0
 51
93.822554
  0
ARC
  8
0
  6
BYLAYER
 62
     7
 10
368.522245
 20
-480.234642
 30
0.0
 40
1.5
 50
354.260830
 51
450.000000
  0
ARC
  8
0
  6
BYLAYER
 62
     7
 10
305.984651
 20
-480.984642
 30
0.0
 40
6.000000
 50
266.177446
 51
365.73917
  0
ARC
  8
0
  6
BYLAYER
 62
     7
 10
313.447057
 20
-480.234642
 30
0.0
 40
1.5
 50
90.0
 51
185.73917
  0
ARC
  8
0
  6
BYLAYER
 62
     7
 10
305.484651
 20
-488.467957
 30
0.0
 40
1.500000
 50
86.177446
 51
180.0
  0
ARC
  8
0
  6
BYLAYER
 62
     7
 10
327.984651
 20
-485.984642
 30
0.0
 40
3.0
 50
90.0
 51
180.0
  0
ARC
  8
0
  6
BYLAYER
 62
     7
 10
353.984651
 20
-485.984642
 30
0.0
 40
3.0
 50
0.0
 51
90.0
  0
LINE
  8
0
  6
BYLAYER
 62
     7
 10
327.984651
 20
-482.984642
 30
0.0
 11
353.984651
 21
-482.984642
 31
0.0
  0
LINE
  8
0
  6
BYLAYER
 62
     7
 10
324.984651
 20
-485.984642
 30
0.0
 11
324.984651
 21
-512.984642
 31
0.0
  0
LINE
  8
0
  6
BYLAYER
 62
     7
 10
356.984651
 20
-512.984642
 30
0.0
 11
356.984651
 21
-485.984642
 31
0.0
  0
LINE
  8
0
  6
BYLAYER
 62
     7
 10
401.484703
 20
-487.084731
 30
0.0
 11
380.984651
 21
-487.084714
 31
0.0
  0
LINE
  8
0
  6
BYLAYER
 62
     7
 10
401.484703
 20
-485.384749
 30
0.0
 11
380.984651
 21
-485.384732
 31
0.0
  0
LINE
  8
0
  6
BYLAYER
 62
     7
 10
401.484703
 20
-476.384728
 30
0.0
 11
380.504548
 21
-476.384728
 31
0.0
  0
LINE
  8
0
  6
BYLAYER
 62
     7
 10
298.984642
 20
-454.975915
 30
0.0
 11
298.984642
 21
-512.984642
 31
0.0
  0
LINE
  8
0
  6
BYLAYER
 62
     7
 10
267.984642
 20
-432.984642
 30
0.0
 11
277.984642
 21
-432.984642
 31
0.0
  0
LINE
  8
0
  6
BYLAYER
 62
     7
 10
298.984642
 20
-454.975915
 30
0.0
 11
278.967186
 21
-454.626511
 31
0.0
  0
LINE
  8
0
  6
BYLAYER
 62
     7
 10
277.984642
 20
-432.984642
 30
0.0
 11
277.984642
 21
-512.984642
 31
0.0
  0
ARC
  8
0
  6
BYLAYER
 62
     7
 10
278.984642
 20
-453.626663
 30
0.0
 40
1.0
 50
180.000000
 51
269.000015
  0
LINE
  8
0
  6
BYLAYER
 62
     7
 10
267.984642
 20
-432.984642
 30
0.0
 11
267.984642
 21
-512.984642
 31
0.0
  0
LINE
  8
0
  6
BYLAYER
 62
     7
 10
298.984642
 20
-570.993369
 30
0.0
 11
298.984642
 21
-512.984642
 31
0.0
  0
LINE
  8
0
  6
BYLAYER
 62
     7
 10
267.984642
 20
-592.984642
 30
0.0
 11
277.984642
 21
-592.984642
 31
0.0
  0
LINE
  8
0
  6
BYLAYER
 62
     7
 10
298.984642
 20
-570.993369
 30
0.0
 11
278.967186
 21
-571.342773
 31
0.0
  0
LINE
  8
0
  6
BYLAYER
 62
     7
 10
277.984642
 20
-592.984642
 30
0.0
 11
277.984642
 21
-512.984642
 31
0.0
  0
ARC
  8
0
  6
BYLAYER
 62
     7
 10
278.984642
 20
-572.342621
 30
0.0
 40
1.000000
 50
90.999990
 51
180.000005
  0
LINE
  8
0
  6
BYLAYER
 62
     7
 10
267.984642
 20
-592.984642
 30
0.0
 11
267.984642
 21
-512.984642
 31
0.0
  0
LINE
  8
0
  6
BYLAYER
 62
     7
 10
460.534703
 20
-443.534642
 30
0.0
 11
460.534703
 21
-582.434642
 31
0.0
  0
ARC
  8
0
  6
BYLAYER
 62
     1
 10
172.984642
 20
-172.984642
 30
0.0
 40
68.000000
 50
244.344062
 51
295.655933
  0
ARC
  8
0
  6
BYLAYER
 62
     1
 10
172.984642
 20
-172.984642
 30
0.0
 40
68.000000
 50
64.344063
 51
115.655935
  0
ARC
  8
0
  6
BYLAYER
 62
     1
 10
201.685944
 20
-103.693687
 30
0.0
 40
26.999977
 50
214.712939
 51
280.286921
  0
ARC
  8
0
  6
BYLAYER
 62
     1
 10
201.685883
 20
-242.275658
 30
0.0
 40
27.000053
 50
79.712932
 51
145.286921
  0
CIRCLE
  8
0
  6
BYLAYER
 62
     1
 10
172.984642
 20
-172.984642
 30
0.0
 40
32.5
  0
CIRCLE
  8
0
  6
BYLAYER
 62
     1
 10
172.984642
 20
-172.984642
 30
0.0
 40
40.0
  0
LINE
  8
0
  6
BYLAYER
 62
     1
 10
205.984650
 20
-71.984711
 30
0.0
 11
139.984642
 21
-71.984711
 31
0.0
  0
LINE
  8
0
  6
BYLAYER
 62
     1
 10
109.984642
 20
-78.984650
 30
0.0
 11
235.984650
 21
-78.984650
 31
0.0
  0
ARC
  8
0
  6
BYLAYER
 62
     1
 10
172.984642
 20
-172.984642
 30
0.0
 40
69.000053
 50
248.368928
 51
291.631073
  0
LINE
  8
0
  6
BYLAYER
 62
     1
 10
205.984650
 20
-243.984642
 30
0.0
 11
139.984642
 21
-243.984642
 31
0.0
  0
CIRCLE
  8
0
  6
BYLAYER
 62
     1
 10
125.484642
 20
-172.984642
 30
0.0
 40
3.5
  0
ARC
  8
0
  6
BYLAYER
 62
     1
 10
125.484642
 20
-172.984642
 30
0.0
 40
4.0
 50
270.0
 51
540.0
  0
ARC
  8
0
  6
BYLAYER
 62
     1
 10
172.984642
 20
-172.984642
 30
0.0
 40
68.0
 50
154.344066
 51
205.655937
  0
ARC
  8
0
  6
BYLAYER
 62
     1
 10
172.984642
 20
-172.984642
 30
0.0
 40
55.000004
 50
174.735596
 51
185.264401
  0
ARC
  8
0
  6
BYLAYER
 62
     1
 10
172.984642
 20
-172.984642
 30
0.0
 40
69.000053
 50
158.368960
 51
201.631037
  0
LINE
  8
0
  6
BYLAYER
 62
     1
 10
101.984642
 20
-205.984642
 30
0.0
 11
101.984642
 21
-141.984642
 31
0.0
  0
LINE
  8
0
  6
BYLAYER
 62
     1
 10
112.973930
 20
-203.492241
 30
0.0
 11
127.692924
 21
-207.436180
 31
0.0
  0
LINE
  8
0
  6
BYLAYER
 62
     1
 10
138.984642
 20
-244.984642
 30
0.0
 11
102.984642
 21
-244.984642
 31
0.0
  0
LINE
  8
0
  6
BYLAYER
 62
     1
 10
109.277534
 20
-236.691765
 30
0.0
 11
116.277534
 21
-229.691734
 31
0.0
  0
LINE
  8
0
  6
BYLAYER
 62
     1
 10
109.984642
 20
-236.984642
 30
0.0
 11
146.811989
 21
-236.984642
 31
0.0
  0
LINE
  8
0
  6
BYLAYER
 62
     1
 10
100.984642
 20
-242.984642
 30
0.0
 11
100.984642
 21
-206.984642
 31
0.0
  0
LINE
  8
0
  6
BYLAYER
 62
     1
 10
108.984642
 20
-235.984642
 30
0.0
 11
108.984642
 21
-206.984642
 31
0.0
  0
LINE
  8
0
  6
BYLAYER
 62
     1
 10
102.984642
 20
-244.984642
 30
0.0
 11
100.984642
 21
-242.984642
 31
0.0
  0
ARC
  8
0
  6
BYLAYER
 62
     1
 10
109.984642
 20
-235.984642
 30
0.0
 40
1.0
 50
180.000000
 51
269.999996
  0
LINE
  8
0
  6
BYLAYER
 62
     1
 10
108.984642
 20
-199.157280
 30
0.0
 11
108.984642
 21
-206.984642
 31
0.0
  0
LINE
  8
0
  6
BYLAYER
 62
     1
 10
108.984642
 20
-227.234642
 30
0.0
 11
100.984642
 21
-227.234642
 31
0.0
  0
LINE
  8
0
  6
BYLAYER
 62
     1
 10
108.984642
 20
-218.734642
 30
0.0
 11
100.984642
 21
-218.734642
 31
0.0
  0
LINE
  8
0
  6
BYLAYER
 62
     1
 10
108.984642
 20
-205.984642
 30
0.0
 11
101.984642
 21
-205.984642
 31
0.0
  0
LINE
  8
0
  6
BYLAYER
 62
     1
 10
108.984642
 20
-206.984642
 30
0.0
 11
100.984642
 21
-206.984642
 31
0.0
  0
LINE
  8
0
  6
BYLAYER
 62
     1
 10
101.984642
 20
-205.984642
 30
0.0
 11
100.984642
 21
-206.984642
 31
0.0
  0
ARC
  8
0
  6
BYLAYER
 62
     1
 10
106.984642
 20
-199.157280
 30
0.0
 40
2.000006
 50
0.0
 51
21.631513
  0
ARC
  8
0
  6
BYLAYER
 62
     1
 10
113.491569
 20
-201.560387
 30
0.0
 40
2.000000
 50
205.655930
 51
254.999993
  0
ARC
  8
0
  6
BYLAYER
 62
     1
 10
144.408897
 20
-232.477715
 30
0.0
 40
2.0
 50
195.000002
 51
244.344065
  0
LINE
  8
0
  6
BYLAYER
 62
     1
 10
118.734642
 20
-244.984642
 30
0.0
 11
118.734642
 21
-236.984642
 31
0.0
  0
LINE
  8
0
  6
BYLAYER
 62
     1
 10
127.234642
 20
-244.984642
 30
0.0
 11
127.234642
 21
-236.984642
 31
0.0
  0
LINE
  8
0
  6
BYLAYER
 62
     1
 10
139.984642
 20
-236.984642
 30
0.0
 11
139.984642
 21
-243.984642
 31
0.0
  0
LINE
  8
0
  6
BYLAYER
 62
     1
 10
138.984642
 20
-244.984642
 30
0.0
 11
138.984642
 21
-236.984642
 31
0.0
  0
LINE
  8
0
  6
BYLAYER
 62
     1
 10
139.984642
 20
-243.984642
 30
0.0
 11
138.984642
 21
-244.984642
 31
0.0
  0
ARC
  8
0
  6
BYLAYER
 62
     1
 10
146.811989
 20
-238.984642
 30
0.0
 40
2.000000
 50
68.368968
 51
90.000000
  0
ARC
  8
0
  6
BYLAYER
 62
     1
 10
144.283348
 20
-242.275597
 30
0.0
 40
26.999977
 50
34.712944
 51
100.286927
  0
CIRCLE
  8
0
  6
BYLAYER
 62
     1
 10
139.396996
 20
-206.572227
 30
0.0
 40
3.5
  0
ARC
  8
0
  6
BYLAYER
 62
     1
 10
139.396996
 20
-206.572227
 30
0.0
 40
4.0
 50
270.0
 51
540.0
  0
ARC
  8
0
  6
BYLAYER
 62
     1
 10
103.693626
 20
-201.685875
 30
0.0
 40
26.999992
 50
349.712926
 51
415.286928
  0
LINE
  8
0
  6
BYLAYER
 62
     1
 10
115.984642
 20
-204.298958
 30
0.0
 11
115.984642
 21
-228.984642
 31
0.0
  0
ARC
  8
0
  6
BYLAYER
 62
     1
 10
172.984642
 20
-172.984642
 30
0.0
 40
56.500000
 50
218.457822
 51
231.542171
  0
ARC
  8
0
  6
BYLAYER
 62
     1
 10
172.984642
 20
-172.984642
 30
0.0
 40
59.5
 50
214.838327
 51
235.161670
  0
ARC
  8
0
  6
BYLAYER
 62
     1
 10
172.984642
 20
-172.984642
 30
0.0
 40
55.000015
 50
219.735573
 51
230.264392
  0
LINE
  8
0
  6
BYLAYER
 62
     1
 10
141.670326
 20
-229.984642
 30
0.0
 11
116.984642
 21
-229.984642
 31
0.0
  0
ARC
  8
0
  6
BYLAYER
 62
     1
 10
116.984642
 20
-228.984642
 30
0.0
 40
1.000000
 50
180.000000
 51
269.999996
  0
ARC
  8
0
  6
BYLAYER
 62
     1
 10
122.507469
 20
-208.117302
 30
0.0
 40
2.0
 50
34.838329
 51
75.000002
  0
ARC
  8
0
  6
BYLAYER
 62
     1
 10
127.175285
 20
-209.368034
 30
0.0
 40
2.0
 50
38.457824
 51
74.999999
  0
ARC
  8
0
  6
BYLAYER
 62
     1
 10
132.227501
 20
-206.864647
 30
0.0
 40
2.000036
 50
169.713849
 51
219.735682
  0
LINE
  8
0
  6
BYLAYER
 62
     1
 10
142.477043
 20
-232.995354
 30
0.0
 11
138.533104
 21
-218.276390
 31
0.0
  0
LINE
  8
0
  6
BYLAYER
 62
     1
 10
141.146477
 20
-229.984642
 30
0.0
 11
140.052681
 21
-229.984642
 31
0.0
  0
ARC
  8
0
  6
BYLAYER
 62
     1
 10
137.851982
 20
-223.461845
 30
0.0
 40
2.0
 50
14.999997
 51
55.161670
  0
ARC
  8
0
  6
BYLAYER
 62
     1
 10
136.601250
 20
-218.794029
 30
0.0
 40
2.000000
 50
15.0
 51
51.542175
  0
ARC
  8
0
  6
BYLAYER
 62
     1
 10
139.104637
 20
-213.741783
 30
0.0
 40
1.999976
 50
230.263381
 51
280.286785
  0
ARC
  8
0
  6
BYLAYER
 62
     1
 10
120.208214
 20
-177.847496
 30
0.0
 40
1.999986
 50
185.263390
 51
235.286794
  0
CIRCLE
  8
0
  6
BYLAYER
 62
     1
 10
172.984642
 20
-220.484642
 30
0.0
 40
3.5
  0
ARC
  8
0
  6
BYLAYER
 62
     1
 10
172.984642
 20
-220.484642
 30
0.0
 40
4.0
 50
270.0
 51
540.0
  0
ARC
  8
0
  6
BYLAYER
 62
     1
 10
172.984642
 20
-172.984642
 30
0.0
 40
55.000004
 50
264.735564
 51
275.264437
  0
ARC
  8
0
  6
BYLAYER
 62
     1
 10
168.121788
 20
-225.761070
 30
0.0
 40
2.000036
 50
214.713854
 51
264.735673
  0
ARC
  8
0
  6
BYLAYER
 62
     1
 10
177.847496
 20
-225.761131
 30
0.0
 40
1.999952
 50
275.263399
 51
325.286776
  0
LINE
  8
0
  6
BYLAYER
 62
     1
 10
112.973930
 20
-142.477043
 30
0.0
 11
127.692924
 21
-138.533104
 31
0.0
  0
LINE
  8
0
  6
BYLAYER
 62
     1
 10
138.984642
 20
-70.984650
 30
0.0
 11
102.984642
 21
-70.984650
 31
0.0
  0
LINE
  8
0
  6
BYLAYER
 62
     1
 10
109.984642
 20
-128.984581
 30
0.0
 11
124.484627
 21
-128.984581
 31
0.0
  0
LINE
  8
0
  6
BYLAYER
 62
     1
 10
124.484627
 20
-130.984581
 30
0.0
 11
109.984642
 21
-130.984581
 31
0.0
  0
LINE
  8
0
  6
BYLAYER
 62
     1
 10
109.984642
 20
-120.984581
 30
0.0
 11
136.984627
 21
-120.984581
 31
0.0
  0
LINE
  8
0
  6
BYLAYER
 62
     1
 10
136.984627
 20
-118.984581
 30
0.0
 11
109.984642
 21
-118.984581
 31
0.0
  0
LINE
  8
0
  6
BYLAYER
 62
     1
 10
139.484627
 20
-110.984581
 30
0.0
 11
109.984642
 21
-110.984581
 31
0.0
  0
LINE
  8
0
  6
BYLAYER
 62
     1
 10
109.984642
 20
-108.984581
 30
0.0
 11
139.484627
 21
-108.984581
 31
0.0
  0
LINE
  8
0
  6
BYLAYER
 62
     1
 10
100.984642
 20
-72.984650
 30
0.0
 11
100.984642
 21
-140.672630
 31
0.0
  0
LINE
  8
0
  6
BYLAYER
 62
     1
 10
108.984642
 20
-79.984650
 30
0.0
 11
108.984642
 21
-146.812004
 31
0.0
  0
ARC
  8
0
  6
BYLAYER
 62
     1
 10
109.984642
 20
-117.984581
 30
0.0
 40
1.0
 50
180.000000
 51
269.999996
  0
LINE
  8
0
  6
BYLAYER
 62
     1
 10
101.984642
 20
-109.984642
 30
0.0
 11
101.984642
 21
-141.984642
 31
0.0
  0
ARC
  8
0
  6
BYLAYER
 62
     1
 10
106.984642
 20
-146.812004
 30
0.0
 40
2.000006
 50
338.368473
 51
360.000000
  0
LINE
  8
0
  6
BYLAYER
 62
     1
 10
100.984642
 20
-140.672630
 30
0.0
 11
101.984642
 21
-140.707542
 31
0.0
  0
LINE
  8
0
  6
BYLAYER
 62
     1
 10
108.984642
 20
-140.467308
 30
0.0
 11
108.984642
 21
-142.711388
 31
0.0
  0
ARC
  8
0
  6
BYLAYER
 62
     1
 10
113.491569
 20
-144.408897
 30
0.0
 40
2.0
 50
105.000003
 51
154.344066
  0
ARC
  8
0
  6
BYLAYER
 62
     1
 10
109.984642
 20
-127.984581
 30
0.0
 40
1.0
 50
180.000000
 51
269.999996
  0
ARC
  8
0
  6
BYLAYER
 62
     1
 10
109.984642
 20
-131.984581
 30
0.0
 40
1.000000
 50
90.0
 51
180.000003
  0
ARC
  8
0
  6
BYLAYER
 62
     1
 10
109.984642
 20
-121.984581
 30
0.0
 40
1.000000
 50
90.0
 51
180.000003
  0
LINE
  8
0
  6
BYLAYER
 62
     1
 10
108.984642
 20
-109.984642
 30
0.0
 11
101.984642
 21
-109.984642
 31
0.0
  0
LINE
  8
0
  6
BYLAYER
 62
     1
 10
108.984642
 20
-108.984642
 30
0.0
 11
100.984642
 21
-108.984642
 31
0.0
  0
LINE
  8
0
  6
BYLAYER
 62
     1
 10
101.984642
 20
-109.984642
 30
0.0
 11
100.984642
 21
-108.984642
 31
0.0
  0
ARC
  8
0
  6
BYLAYER
 62
     1
 10
109.984642
 20
-111.984581
 30
0.0
 40
1.000000
 50
90.0
 51
180.000003
  0
ARC
  8
0
  6
BYLAYER
 62
     1
 10
109.984642
 20
-107.984581
 30
0.0
 40
1.0
 50
180.000000
 51
269.999996
  0
LINE
  8
0
  6
BYLAYER
 62
     1
 10
108.984642
 20
-97.234642
 30
0.0
 11
100.984642
 21
-97.234642
 31
0.0
  0
LINE
  8
0
  6
BYLAYER
 62
     1
 10
108.984642
 20
-88.734642
 30
0.0
 11
100.984642
 21
-88.734642
 31
0.0
  0
ARC
  8
0
  6
BYLAYER
 62
     1
 10
109.984642
 20
-79.984650
 30
0.0
 40
1.000000
 50
90.0
 51
180.000003
  0
LINE
  8
0
  6
BYLAYER
 62
     1
 10
102.984642
 20
-70.984650
 30
0.0
 11
100.984642
 21
-72.984650
 31
0.0
  0
LINE
  8
0
  6
BYLAYER
 62
     1
 10
138.533104
 20
-127.692924
 30
0.0
 11
142.477043
 21
-112.973930
 31
0.0
  0
ARC
  8
0
  6
BYLAYER
 62
     1
 10
172.984642
 20
-172.984642
 30
0.0
 40
55.000004
 50
84.735566
 51
95.264432
  0
ARC
  8
0
  6
BYLAYER
 62
     1
 10
177.847496
 20
-120.208214
 30
0.0
 40
2.000036
 50
34.713846
 51
84.735689
  0
ARC
  8
0
  6
BYLAYER
 62
     1
 10
168.121788
 20
-120.208153
 30
0.0
 40
1.999952
 50
95.263360
 51
145.286798
  0
ARC
  8
0
  6
BYLAYER
 62
     1
 10
144.283409
 20
-103.693626
 30
0.0
 40
26.999992
 50
259.712889
 51
325.286912
  0
ARC
  8
0
  6
BYLAYER
 62
     1
 10
103.693687
 20
-144.283348
 30
0.0
 40
26.999977
 50
304.712934
 51
370.286924
  0
ARC
  8
0
  6
BYLAYER
 62
     1
 10
120.208214
 20
-168.121788
 30
0.0
 40
2.000036
 50
124.713845
 51
174.735678
  0
ARC
  8
0
  6
BYLAYER
 62
     1
 10
172.984642
 20
-172.984642
 30
0.0
 40
56.500000
 50
128.457827
 51
141.542176
  0
ARC
  8
0
  6
BYLAYER
 62
     1
 10
172.984642
 20
-172.984642
 30
0.0
 40
59.5
 50
124.838332
 51
145.161674
  0
ARC
  8
0
  6
BYLAYER
 62
     1
 10
172.984642
 20
-172.984642
 30
0.0
 40
55.000015
 50
129.735577
 51
140.264355
  0
ARC
  8
0
  6
BYLAYER
 62
     1
 10
122.507469
 20
-137.851982
 30
0.0
 40
2.000000
 50
285.000001
 51
325.161674
  0
ARC
  8
0
  6
BYLAYER
 62
     1
 10
127.175285
 20
-136.601250
 30
0.0
 40
2.000000
 50
284.999991
 51
321.542165
  0
ARC
  8
0
  6
BYLAYER
 62
     1
 10
132.227501
 20
-139.104637
 30
0.0
 40
1.999976
 50
140.263385
 51
190.286789
  0
ARC
  8
0
  6
BYLAYER
 62
     1
 10
124.484627
 20
-129.984581
 30
0.0
 40
1.0
 50
270.0
 51
450.000005
  0
ARC
  8
0
  6
BYLAYER
 62
     1
 10
139.396996
 20
-139.397057
 30
0.0
 40
4.0
 50
270.0
 51
540.0
  0
CIRCLE
  8
0
  6
BYLAYER
 62
     1
 10
139.396996
 20
-139.397057
 30
0.0
 40
3.5
  0
ARC
  8
0
  6
BYLAYER
 62
     1
 10
136.601250
 20
-127.175285
 30
0.0
 40
2.0
 50
308.457838
 51
345.000013
  0
ARC
  8
0
  6
BYLAYER
 62
     1
 10
139.104637
 20
-132.227501
 30
0.0
 40
2.000036
 50
79.713833
 51
129.735659
  0
ARC
  8
0
  6
BYLAYER
 62
     1
 10
136.984627
 20
-119.984581
 30
0.0
 40
1.0
 50
270.0
 51
450.000005
  0
ARC
  8
0
  6
BYLAYER
 62
     1
 10
137.851982
 20
-122.507469
 30
0.0
 40
2.000000
 50
304.838337
 51
345.000010
  0
ARC
  8
0
  6
BYLAYER
 62
     1
 10
137.851982
 20
-122.507469
 30
0.0
 40
2.0
 50
304.838340
 51
345.000013
  0
CIRCLE
  8
0
  6
BYLAYER
 62
     1
 10
172.984642
 20
-125.484642
 30
0.0
 40
3.5
  0
ARC
  8
0
  6
BYLAYER
 62
     1
 10
172.984642
 20
-125.484642
 30
0.0
 40
4.0
 50
270.0
 51
540.0
  0
ARC
  8
0
  6
BYLAYER
 62
     1
 10
144.408897
 20
-113.491569
 30
0.0
 40
2.000000
 50
115.655931
 51
164.999994
  0
ARC
  8
0
  6
BYLAYER
 62
     1
 10
139.484627
 20
-109.984581
 30
0.0
 40
1.0
 50
270.0
 51
450.000005
  0
LINE
  8
0
  6
BYLAYER
 62
     1
 10
127.234642
 20
-78.984650
 30
0.0
 11
127.234642
 21
-70.984650
 31
0.0
  0
LINE
  8
0
  6
BYLAYER
 62
     1
 10
118.734642
 20
-78.984650
 30
0.0
 11
118.734642
 21
-70.984650
 31
0.0
  0
LINE
  8
0
  6
BYLAYER
 62
     1
 10
138.984642
 20
-78.984650
 30
0.0
 11
138.984642
 21
-70.984650
 31
0.0
  0
LINE
  8
0
  6
BYLAYER
 62
     1
 10
139.984642
 20
-78.984650
 30
0.0
 11
139.984642
 21
-71.984650
 31
0.0
  0
LINE
  8
0
  6
BYLAYER
 62
     1
 10
138.984642
 20
-70.984650
 30
0.0
 11
139.984642
 21
-71.984650
 31
0.0
  0
CIRCLE
  8
0
  6
BYLAYER
 62
     1
 10
220.484650
 20
-172.984642
 30
0.0
 40
3.5
  0
ARC
  8
0
  6
BYLAYER
 62
     1
 10
220.484650
 20
-172.984642
 30
0.0
 40
4.0
 50
270.0
 51
540.0
  0
ARC
  8
0
  6
BYLAYER
 62
     1
 10
172.984642
 20
-172.984642
 30
0.0
 40
68.0
 50
334.344071
 51
385.655942
  0
ARC
  8
0
  6
BYLAYER
 62
     1
 10
172.984642
 20
-172.984642
 30
0.0
 40
55.000004
 50
354.735601
 51
365.264402
  0
ARC
  8
0
  6
BYLAYER
 62
     1
 10
172.984642
 20
-172.984642
 30
0.0
 40
69.000038
 50
338.368965
 51
381.631042
  0
LINE
  8
0
  6
BYLAYER
 62
     1
 10
243.984650
 20
-205.984642
 30
0.0
 11
243.984650
 21
-154.984642
 31
0.0
  0
ARC
  8
0
  6
BYLAYER
 62
     1
 10
201.560394
 20
-232.477715
 30
0.0
 40
2.000000
 50
295.655950
 51
345.000013
  0
LINE
  8
0
  6
BYLAYER
 62
     1
 10
244.984650
 20
-242.984642
 30
0.0
 11
244.984650
 21
-206.984642
 31
0.0
  0
LINE
  8
0
  6
BYLAYER
 62
     1
 10
236.691742
 20
-236.691765
 30
0.0
 11
229.984650
 21
-229.984642
 31
0.0
  0
LINE
  8
0
  6
BYLAYER
 62
     1
 10
236.984650
 20
-235.984642
 30
0.0
 11
236.984650
 21
-199.157280
 31
0.0
  0
LINE
  8
0
  6
BYLAYER
 62
     1
 10
206.984650
 20
-244.984642
 30
0.0
 11
242.984650
 21
-244.984642
 31
0.0
  0
LINE
  8
0
  6
BYLAYER
 62
     1
 10
199.157288
 20
-236.984642
 30
0.0
 11
235.984650
 21
-236.984642
 31
0.0
  0
ARC
  8
0
  6
BYLAYER
 62
     1
 10
199.157288
 20
-238.984642
 30
0.0
 40
2.000002
 50
90.0
 51
111.631025
  0
LINE
  8
0
  6
BYLAYER
 62
     1
 10
205.984650
 20
-236.984642
 30
0.0
 11
205.984650
 21
-243.984642
 31
0.0
  0
LINE
  8
0
  6
BYLAYER
 62
     1
 10
206.984650
 20
-244.984642
 30
0.0
 11
206.984650
 21
-236.984642
 31
0.0
  0
LINE
  8
0
  6
BYLAYER
 62
     1
 10
205.984650
 20
-243.984642
 30
0.0
 11
206.984650
 21
-244.984642
 31
0.0
  0
LINE
  8
0
  6
BYLAYER
 62
     1
 10
218.734619
 20
-244.984642
 30
0.0
 11
218.734619
 21
-236.984642
 31
0.0
  0
LINE
  8
0
  6
BYLAYER
 62
     1
 10
227.234619
 20
-244.984642
 30
0.0
 11
227.234619
 21
-236.984642
 31
0.0
  0
ARC
  8
0
  6
BYLAYER
 62
     1
 10
235.984650
 20
-235.984642
 30
0.0
 40
1.000000
 50
270.0
 51
360.000003
  0
LINE
  8
0
  6
BYLAYER
 62
     1
 10
242.984650
 20
-244.984642
 30
0.0
 11
244.984650
 21
-242.984642
 31
0.0
  0
LINE
  8
0
  6
BYLAYER
 62
     1
 10
232.995361
 20
-203.492241
 30
0.0
 11
218.276367
 21
-207.436180
 31
0.0
  0
CIRCLE
  8
0
  6
BYLAYER
 62
     1
 10
206.572296
 20
-206.572227
 30
0.0
 40
3.5
  0
ARC
  8
0
  6
BYLAYER
 62
     1
 10
206.572296
 20
-206.572227
 30
0.0
 40
4.0
 50
270.0
 51
540.0
  0
ARC
  8
0
  6
BYLAYER
 62
     1
 10
242.275604
 20
-201.685936
 30
0.0
 40
26.999977
 50
124.712957
 51
190.286926
  0
LINE
  8
0
  6
BYLAYER
 62
     1
 10
229.984650
 20
-204.298958
 30
0.0
 11
229.984650
 21
-229.984642
 31
0.0
  0
ARC
  8
0
  6
BYLAYER
 62
     1
 10
172.984642
 20
-172.984642
 30
0.0
 40
56.500000
 50
308.457818
 51
321.542167
  0
ARC
  8
0
  6
BYLAYER
 62
     1
 10
172.984642
 20
-172.984642
 30
0.0
 40
59.5
 50
304.838337
 51
325.161679
  0
ARC
  8
0
  6
BYLAYER
 62
     1
 10
172.984642
 20
-172.984642
 30
0.0
 40
55.000015
 50
309.735582
 51
320.264428
  0
LINE
  8
0
  6
BYLAYER
 62
     1
 10
229.984650
 20
-229.984642
 30
0.0
 11
204.298965
 21
-229.984642
 31
0.0
  0
LINE
  8
0
  6
BYLAYER
 62
     1
 10
207.436188
 20
-218.276390
 30
0.0
 11
203.492249
 21
-232.995354
 31
0.0
  0
ARC
  8
0
  6
BYLAYER
 62
     1
 10
208.117310
 20
-223.461845
 30
0.0
 40
2.0
 50
124.838332
 51
165.000005
  0
ARC
  8
0
  6
BYLAYER
 62
     1
 10
209.368042
 20
-218.794029
 30
0.0
 40
2.0
 50
128.457827
 51
165.000001
  0
ARC
  8
0
  6
BYLAYER
 62
     1
 10
206.864655
 20
-213.741783
 30
0.0
 40
1.999976
 50
259.713845
 51
309.735692
  0
ARC
  8
0
  6
BYLAYER
 62
     1
 10
213.741791
 20
-206.864647
 30
0.0
 40
1.999976
 50
320.263390
 51
370.286794
  0
ARC
  8
0
  6
BYLAYER
 62
     1
 10
218.794006
 20
-209.368034
 30
0.0
 40
2.0
 50
105.0
 51
141.542174
  0
ARC
  8
0
  6
BYLAYER
 62
     1
 10
223.461822
 20
-208.117302
 30
0.0
 40
2.000000
 50
104.999996
 51
145.161669
  0
ARC
  8
0
  6
BYLAYER
 62
     1
 10
225.761078
 20
-177.847496
 30
0.0
 40
2.000036
 50
304.713863
 51
354.735683
  0
LINE
  8
0
  6
BYLAYER
 62
     1
 10
236.984650
 20
-227.234642
 30
0.0
 11
244.984650
 21
-227.234642
 31
0.0
  0
LINE
  8
0
  6
BYLAYER
 62
     1
 10
236.984650
 20
-218.734642
 30
0.0
 11
244.984650
 21
-218.734642
 31
0.0
  0
LINE
  8
0
  6
BYLAYER
 62
     1
 10
243.984650
 20
-205.984642
 30
0.0
 11
236.984650
 21
-205.984642
 31
0.0
  0
LINE
  8
0
  6
BYLAYER
 62
     1
 10
236.984650
 20
-206.984642
 30
0.0
 11
244.984650
 21
-206.984642
 31
0.0
  0
LINE
  8
0
  6
BYLAYER
 62
     1
 10
243.984650
 20
-205.984642
 30
0.0
 11
244.984650
 21
-206.984642
 31
0.0
  0
ARC
  8
0
  6
BYLAYER
 62
     1
 10
232.477722
 20
-201.560387
 30
0.0
 40
2.0
 50
285.000008
 51
334.344071
  0
ARC
  8
0
  6
BYLAYER
 62
     1
 10
238.984650
 20
-199.157280
 30
0.0
 40
2.000014
 50
158.368564
 51
180.000005
  0
LINE
  8
0
  6
BYLAYER
 62
     1
 10
203.492249
 20
-112.973930
 30
0.0
 11
207.436188
 21
-127.692924
 31
0.0
  0
LINE
  8
0
  6
BYLAYER
 62
     1
 10
246.984650
 20
-149.460503
 30
0.0
 11
246.984650
 21
-71.484650
 31
0.0
  0
ARC
  8
0
  6
BYLAYER
 62
     1
 10
234.984650
 20
-119.265221
 30
0.0
 40
1.999999
 50
22.218640
 51
87.999276
  0
LINE
  8
0
  6
BYLAYER
 62
     1
 10
236.984650
 20
-79.984650
 30
0.0
 11
236.984650
 21
-146.812004
 31
0.0
  0
ARC
  8
0
  6
BYLAYER
 62
     1
 10
235.984650
 20
-117.984581
 30
0.0
 40
1.0
 50
270.0
 51
359.999982
  0
LINE
  8
0
  6
BYLAYER
 62
     1
 10
243.984650
 20
-109.984642
 30
0.0
 11
243.984650
 21
-154.984642
 31
0.0
  0
LINE
  8
0
  6
BYLAYER
 62
     1
 10
218.276367
 20
-138.533104
 30
0.0
 11
232.995361
 21
-142.477043
 31
0.0
  0
LINE
  8
0
  6
BYLAYER
 62
     1
 10
208.984650
 20
-120.984581
 30
0.0
 11
235.984650
 21
-120.984581
 31
0.0
  0
LINE
  8
0
  6
BYLAYER
 62
     1
 10
235.984650
 20
-118.984581
 30
0.0
 11
208.984650
 21
-118.984581
 31
0.0
  0
LINE
  8
0
  6
BYLAYER
 62
     1
 10
235.984650
 20
-130.984581
 30
0.0
 11
221.484650
 21
-130.984581
 31
0.0
  0
LINE
  8
0
  6
BYLAYER
 62
     1
 10
221.484650
 20
-128.984581
 30
0.0
 11
235.984650
 21
-128.984581
 31
0.0
  0
ARC
  8
0
  6
BYLAYER
 62
     1
 10
242.275604
 20
-144.283409
 30
0.0
 40
26.999933
 50
169.712920
 51
202.499864
  0
ARC
  8
0
  6
BYLAYER
 62
     1
 10
217.346222
 20
-146.160057
 30
0.0
 40
2.000020
 50
184.305374
 51
253.817425
  0
ARC
  8
0
  6
BYLAYER
 62
     1
 10
214.559204
 20
-155.763847
 30
0.0
 40
8.000001
 50
331.182513
 51
433.817252
  0
ARC
  8
0
  6
BYLAYER
 62
     1
 10
242.275604
 20
-144.283409
 30
0.0
 40
26.999926
 50
202.499864
 51
235.287067
  0
ARC
  8
0
  6
BYLAYER
 62
     1
 10
223.320801
 20
-160.584068
 30
0.0
 40
2.000012
 50
151.182317
 51
220.695174
  0
ARC
  8
0
  6
BYLAYER
 62
     1
 10
225.761078
 20
-168.121788
 30
0.0
 40
1.999986
 50
5.263381
 51
55.286813
  0
ARC
  8
0
  6
BYLAYER
 62
     1
 10
172.984642
 20
-172.984642
 30
0.0
 40
56.5
 50
38.457824
 51
51.542173
  0
ARC
  8
0
  6
BYLAYER
 62
     1
 10
172.984642
 20
-172.984642
 30
0.0
 40
59.5
 50
34.838329
 51
55.161672
  0
ARC
  8
0
  6
BYLAYER
 62
     1
 10
172.984642
 20
-172.984642
 30
0.0
 40
55.000015
 50
39.735575
 51
50.264424
  0
CIRCLE
  8
0
  6
BYLAYER
 62
     1
 10
206.572296
 20
-139.397057
 30
0.0
 40
3.5
  0
ARC
  8
0
  6
BYLAYER
 62
     1
 10
206.572296
 20
-139.397057
 30
0.0
 40
4.0
 50
270.0
 51
540.0
  0
ARC
  8
0
  6
BYLAYER
 62
     1
 10
209.368042
 20
-127.175285
 30
0.0
 40
2.000000
 50
195.000002
 51
231.542177
  0
ARC
  8
0
  6
BYLAYER
 62
     1
 10
206.864655
 20
-132.227501
 30
0.0
 40
1.999976
 50
50.263400
 51
100.286773
  0
ARC
  8
0
  6
BYLAYER
 62
     1
 10
208.117310
 20
-122.507469
 30
0.0
 40
2.0
 50
194.999992
 51
235.161665
  0
ARC
  8
0
  6
BYLAYER
 62
     1
 10
208.984650
 20
-119.984581
 30
0.0
 40
1.0
 50
90.0
 51
270.000005
  0
ARC
  8
0
  6
BYLAYER
 62
     1
 10
213.741791
 20
-139.104637
 30
0.0
 40
2.000036
 50
349.713854
 51
399.735674
  0
ARC
  8
0
  6
BYLAYER
 62
     1
 10
218.794006
 20
-136.601250
 30
0.0
 40
2.000000
 50
218.457822
 51
254.999997
  0
ARC
  8
0
  6
BYLAYER
 62
     1
 10
223.461822
 20
-137.851982
 30
0.0
 40
2.000000
 50
214.838327
 51
255.000000
  0
ARC
  8
0
  6
BYLAYER
 62
     1
 10
221.484650
 20
-129.984581
 30
0.0
 40
1.0
 50
90.0
 51
270.000005
  0
ARC
  8
0
  6
BYLAYER
 62
     1
 10
238.984650
 20
-146.812004
 30
0.0
 40
2.0
 50
180.000000
 51
201.631592
  0
LINE
  8
0
  6
BYLAYER
 62
     1
 10
246.984650
 20
-149.460503
 30
0.0
 11
243.984650
 21
-149.565269
 31
0.0
  0
ARC
  8
0
  6
BYLAYER
 62
     1
 10
232.477722
 20
-144.408897
 30
0.0
 40
2.000000
 50
25.655936
 51
74.999999
  0
ARC
  8
0
  6
BYLAYER
 62
     1
 10
235.984650
 20
-131.984581
 30
0.0
 40
1.0
 50
0.0
 51
90.000016
  0
ARC
  8
0
  6
BYLAYER
 62
     1
 10
235.984650
 20
-127.984581
 30
0.0
 40
1.0
 50
270.0
 51
359.999982
  0
ARC
  8
0
  6
BYLAYER
 62
     1
 10
235.984650
 20
-121.984581
 30
0.0
 40
1.000000
 50
0.0
 51
90.000016
  0
LINE
  8
0
  6
BYLAYER
 62
     1
 10
246.484650
 20
-70.984650
 30
0.0
 11
206.984650
 21
-70.984650
 31
0.0
  0
LINE
  8
0
  6
BYLAYER
 62
     1
 10
228.914825
 20
-117.052055
 30
0.0
 11
235.054474
 21
-117.266441
 31
0.0
  0
LINE
  8
0
  6
BYLAYER
 62
     1
 10
228.914825
 20
-102.917229
 30
0.0
 11
235.054474
 21
-102.702843
 31
0.0
  0
LINE
  8
0
  6
BYLAYER
 62
     1
 10
225.984650
 20
-110.984581
 30
0.0
 11
206.484650
 21
-110.984581
 31
0.0
  0
LINE
  8
0
  6
BYLAYER
 62
     1
 10
206.484650
 20
-108.984581
 30
0.0
 11
225.984650
 21
-108.984581
 31
0.0
  0
ARC
  8
0
  6
BYLAYER
 62
     1
 10
206.484650
 20
-109.984581
 30
0.0
 40
1.0
 50
90.0
 51
270.000005
  0
ARC
  8
0
  6
BYLAYER
 62
     1
 10
201.560394
 20
-113.491569
 30
0.0
 40
2.000000
 50
15.000000
 51
64.344063
  0
ARC
  8
0
  6
BYLAYER
 62
     1
 10
228.984650
 20
-104.916008
 30
0.0
 40
1.999999
 50
92.000722
 51
180.000005
  0
ARC
  8
0
  6
BYLAYER
 62
     1
 10
225.984650
 20
-111.984581
 30
0.0
 40
1.000000
 50
0.0
 51
90.000016
  0
LINE
  8
0
  6
BYLAYER
 62
     1
 10
226.984650
 20
-104.916008
 30
0.0
 11
226.984650
 21
-115.053276
 31
0.0
  0
ARC
  8
0
  6
BYLAYER
 62
     1
 10
228.984650
 20
-115.053276
 30
0.0
 40
2.0
 50
180.000000
 51
267.999269
  0
ARC
  8
0
  6
BYLAYER
 62
     1
 10
225.984650
 20
-107.984581
 30
0.0
 40
1.000000
 50
270.0
 51
359.999982
  0
LINE
  8
0
  6
BYLAYER
 62
     1
 10
206.984650
 20
-70.984650
 30
0.0
 11
206.984650
 21
-78.984650
 31
0.0
  0
LINE
  8
0
  6
BYLAYER
 62
     1
 10
205.984650
 20
-71.984650
 30
0.0
 11
205.984650
 21
-78.984650
 31
0.0
  0
LINE
  8
0
  6
BYLAYER
 62
     1
 10
205.984650
 20
-71.984650
 30
0.0
 11
206.984650
 21
-70.984650
 31
0.0
  0
LINE
  8
0
  6
BYLAYER
 62
     1
 10
227.234650
 20
-78.984650
 30
0.0
 11
227.234650
 21
-70.984650
 31
0.0
  0
LINE
  8
0
  6
BYLAYER
 62
     1
 10
218.734650
 20
-78.984650
 30
0.0
 11
218.734650
 21
-70.984650
 31
0.0
  0
LINE
  8
0
  6
BYLAYER
 62
     1
 10
244.984650
 20
-108.984642
 30
0.0
 11
244.984650
 21
-72.984650
 31
0.0
  0
LINE
  8
0
  6
BYLAYER
 62
     1
 10
243.984650
 20
-109.984642
 30
0.0
 11
236.984650
 21
-109.984642
 31
0.0
  0
LINE
  8
0
  6
BYLAYER
 62
     1
 10
236.984650
 20
-108.984642
 30
0.0
 11
244.984650
 21
-108.984642
 31
0.0
  0
LINE
  8
0
  6
BYLAYER
 62
     1
 10
243.984650
 20
-109.984642
 30
0.0
 11
244.984650
 21
-108.984642
 31
0.0
  0
ARC
  8
0
  6
BYLAYER
 62
     1
 10
234.984650
 20
-100.704063
 30
0.0
 40
2.0
 50
272.000744
 51
360.0
  0
ARC
  8
0
  6
BYLAYER
 62
     1
 10
235.984650
 20
-79.984650
 30
0.0
 40
1.000000
 50
0.0
 51
90.000003
  0
LINE
  8
0
  6
BYLAYER
 62
     1
 10
244.984650
 20
-72.984650
 30
0.0
 11
242.984650
 21
-70.984650
 31
0.0
  0
LINE
  8
0
  6
BYLAYER
 62
     1
 10
246.984650
 20
-71.484650
 30
0.0
 11
246.484650
 21
-70.984650
 31
0.0
  0
ARC
  8
0
  6
BYLAYER
 62
     1
 10
244.484650
 20
-73.252411
 30
0.0
 40
0.499990
 50
315.001248
 51
360.000000
  0
ARC
  8
0
  6
BYLAYER
 62
     1
 10
160.884911
 20
-98.729705
 30
0.0
 40
2.873727
 50
270.0
 51
308.795511
  0
ARC
  8
0
  6
BYLAYER
 62
     1
 10
160.606808
 20
-98.433525
 30
0.0
 40
3.278957
 50
309.340351
 51
360.0
  0
ARC
  8
0
  6
BYLAYER
 62
     1
 10
160.606808
 20
-98.433525
 30
0.0
 40
3.278957
 50
0.0
 51
50.659649
  0
ARC
  8
0
  6
BYLAYER
 62
     1
 10
160.884911
 20
-98.137345
 30
0.0
 40
2.873727
 50
51.204489
 51
90.0
  0
ARC
  8
0
  6
BYLAYER
 62
     1
 10
160.884911
 20
-98.137319
 30
0.0
 40
2.873701
 50
90.0
 51
128.795693
  0
ARC
  8
0
  6
BYLAYER
 62
     1
 10
161.163039
 20
-98.433525
 30
0.0
 40
3.278967
 50
129.340576
 51
180.0
  0
ARC
  8
0
  6
BYLAYER
 62
     1
 10
161.163039
 20
-98.433525
 30
0.0
 40
3.278967
 50
180.000000
 51
230.659424
  0
ARC
  8
0
  6
BYLAYER
 62
     1
 10
160.884911
 20
-98.729731
 30
0.0
 40
2.873701
 50
231.204307
 51
270.000000
  0
ARC
  8
0
  6
BYLAYER
 62
     1
 10
160.884911
 20
-97.590374
 30
0.0
 40
1.329747
 50
90.0
 51
140.793201
  0
ARC
  8
0
  6
BYLAYER
 62
     1
 10
161.918465
 20
-98.433525
 30
0.0
 40
2.663590
 50
140.793201
 51
180.0
  0
ARC
  8
0
  6
BYLAYER
 62
     1
 10
161.918449
 20
-98.433525
 30
0.0
 40
2.663574
 50
180.000000
 51
219.206869
  0
ARC
  8
0
  6
BYLAYER
 62
     1
 10
160.884911
 20
-99.276665
 30
0.0
 40
1.329750
 50
219.206869
 51
270.000000
  0
ARC
  8
0
  6
BYLAYER
 62
     1
 10
160.884911
 20
-99.276665
 30
0.0
 40
1.329750
 50
270.0
 51
320.793131
  0
ARC
  8
0
  6
BYLAYER
 62
     1
 10
159.851372
 20
-98.433525
 30
0.0
 40
2.663574
 50
320.793131
 51
360.000000
  0
ARC
  8
0
  6
BYLAYER
 62
     1
 10
159.851356
 20
-98.433525
 30
0.0
 40
2.663590
 50
0.0
 51
39.206799
  0
ARC
  8
0
  6
BYLAYER
 62
     1
 10
160.884911
 20
-97.590374
 30
0.0
 40
1.329747
 50
39.206799
 51
90.000000
  0
LINE
  8
0
  6
BYLAYER
 62
     1
 10
151.037071
 20
-101.392097
 30
0.0
 11
151.037071
 21
-95.390404
 31
0.0
  0
LINE
  8
0
  6
BYLAYER
 62
     1
 10
151.037071
 20
-95.390404
 30
0.0
 11
153.477196
 21
-95.390404
 31
0.0
  0
LINE
  8
0
  6
BYLAYER
 62
     1
 10
153.477196
 20
-95.390404
 30
0.0
 11
154.291512
 21
-98.518059
 31
0.0
  0
LINE
  8
0
  6
BYLAYER
 62
     1
 10
151.037071
 20
-101.392097
 30
0.0
 11
152.502281
 21
-101.392097
 31
0.0
  0
LINE
  8
0
  6
BYLAYER
 62
     1
 10
152.502281
 20
-101.392097
 30
0.0
 11
152.502281
 21
-97.926338
 31
0.0
  0
LINE
  8
0
  6
BYLAYER
 62
     1
 10
153.657524
 20
-101.392097
 30
0.0
 11
152.502281
 21
-97.926338
 31
0.0
  0
LINE
  8
0
  6
BYLAYER
 62
     1
 10
157.545952
 20
-101.392097
 30
0.0
 11
157.545952
 21
-95.390404
 31
0.0
  0
LINE
  8
0
  6
BYLAYER
 62
     1
 10
157.545952
 20
-95.390404
 30
0.0
 11
155.105827
 21
-95.390404
 31
0.0
  0
LINE
  8
0
  6
BYLAYER
 62
     1
 10
155.105827
 20
-95.390404
 30
0.0
 11
154.291512
 21
-98.518059
 31
0.0
  0
LINE
  8
0
  6
BYLAYER
 62
     1
 10
157.545952
 20
-101.392097
 30
0.0
 11
156.080742
 21
-101.392097
 31
0.0
  0
LINE
  8
0
  6
BYLAYER
 62
     1
 10
156.080742
 20
-101.392097
 30
0.0
 11
156.080742
 21
-97.926338
 31
0.0
  0
LINE
  8
0
  6
BYLAYER
 62
     1
 10
154.925499
 20
-101.392097
 30
0.0
 11
156.080742
 21
-97.926338
 31
0.0
  0
LINE
  8
0
  6
BYLAYER
 62
     1
 10
154.925499
 20
-101.392097
 30
0.0
 11
153.657524
 21
-101.392097
 31
0.0
  0
LINE
  8
0
  6
BYLAYER
 62
     1
 10
179.016792
 20
-101.392097
 30
0.0
 11
181.299110
 21
-95.390404
 31
0.0
  0
LINE
  8
0
  6
BYLAYER
 62
     1
 10
179.016792
 20
-101.392097
 30
0.0
 11
180.961006
 21
-101.392097
 31
0.0
  0
LINE
  8
0
  6
BYLAYER
 62
     1
 10
181.299110
 20
-95.390404
 30
0.0
 11
183.158791
 21
-95.390404
 31
0.0
  0
LINE
  8
0
  6
BYLAYER
 62
     1
 10
180.961006
 20
-101.392097
 30
0.0
 11
181.249184
 21
-100.546791
 31
0.0
  0
LINE
  8
0
  6
BYLAYER
 62
     1
 10
181.710243
 20
-99.194298
 30
0.0
 11
182.228950
 21
-97.672737
 31
0.0
  0
LINE
  8
0
  6
BYLAYER
 62
     1
 10
185.441139
 20
-101.392097
 30
0.0
 11
183.158791
 21
-95.390404
 31
0.0
  0
LINE
  8
0
  6
BYLAYER
 62
     1
 10
185.441139
 20
-101.392097
 30
0.0
 11
183.496925
 21
-101.392097
 31
0.0
  0
LINE
  8
0
  6
BYLAYER
 62
     1
 10
183.208748
 20
-100.546791
 30
0.0
 11
181.249184
 21
-100.546791
 31
0.0
  0
LINE
  8
0
  6
BYLAYER
 62
     1
 10
182.747658
 20
-99.194298
 30
0.0
 11
181.710243
 21
-99.194298
 31
0.0
  0
LINE
  8
0
  6
BYLAYER
 62
     1
 10
183.496925
 20
-101.392097
 30
0.0
 11
183.208748
 21
-100.546791
 31
0.0
  0
LINE
  8
0
  6
BYLAYER
 62
     1
 10
182.747658
 20
-99.194298
 30
0.0
 11
182.228950
 21
-97.672737
 31
0.0
  0
LINE
  8
0
  6
BYLAYER
 62
     1
 10
163.885765
 20
-96.869698
 30
0.0
 11
165.576378
 21
-96.869698
 31
0.0
  0
LINE
  8
0
  6
BYLAYER
 62
     1
 10
165.576378
 20
-96.869698
 30
0.0
 11
165.576378
 21
-101.392097
 31
0.0
  0
LINE
  8
0
  6
BYLAYER
 62
     1
 10
165.576378
 20
-101.392097
 30
0.0
 11
167.436073
 21
-101.392097
 31
0.0
  0
LINE
  8
0
  6
BYLAYER
 62
     1
 10
167.436073
 20
-101.392097
 30
0.0
 11
167.436073
 21
-96.869698
 31
0.0
  0
LINE
  8
0
  6
BYLAYER
 62
     1
 10
167.436073
 20
-96.869698
 30
0.0
 11
169.126686
 21
-96.869698
 31
0.0
  0
LINE
  8
0
  6
BYLAYER
 62
     1
 10
169.126686
 20
-96.869698
 30
0.0
 11
169.126686
 21
-95.390404
 31
0.0
  0
LINE
  8
0
  6
BYLAYER
 62
     1
 10
169.126686
 20
-95.390404
 30
0.0
 11
163.885765
 21
-95.390404
 31
0.0
  0
LINE
  8
0
  6
BYLAYER
 62
     1
 10
163.885765
 20
-95.390404
 30
0.0
 11
163.885765
 21
-96.869698
 31
0.0
  0
ARC
  8
0
  6
BYLAYER
 62
     1
 10
172.127525
 20
-98.729731
 30
0.0
 40
2.873701
 50
270.0
 51
308.795693
  0
ARC
  8
0
  6
BYLAYER
 62
     1
 10
171.849397
 20
-98.433525
 30
0.0
 40
3.278967
 50
309.340576
 51
360.0
  0
ARC
  8
0
  6
BYLAYER
 62
     1
 10
171.849408
 20
-98.433525
 30
0.0
 40
3.278957
 50
0.0
 51
50.659649
  0
ARC
  8
0
  6
BYLAYER
 62
     1
 10
172.127510
 20
-98.137345
 30
0.0
 40
2.873727
 50
51.204489
 51
90.0
  0
ARC
  8
0
  6
BYLAYER
 62
     1
 10
172.127510
 20
-98.137319
 30
0.0
 40
2.873701
 50
90.0
 51
128.795693
  0
ARC
  8
0
  6
BYLAYER
 62
     1
 10
172.405638
 20
-98.433525
 30
0.0
 40
3.278967
 50
129.340576
 51
180.0
  0
ARC
  8
0
  6
BYLAYER
 62
     1
 10
172.405627
 20
-98.433525
 30
0.0
 40
3.278957
 50
180.000000
 51
230.659649
  0
ARC
  8
0
  6
BYLAYER
 62
     1
 10
172.127525
 20
-98.729705
 30
0.0
 40
2.873727
 50
231.204489
 51
270.000000
  0
ARC
  8
0
  6
BYLAYER
 62
     1
 10
172.127510
 20
-97.590374
 30
0.0
 40
1.329747
 50
90.0
 51
140.793201
  0
ARC
  8
0
  6
BYLAYER
 62
     1
 10
173.161065
 20
-98.433525
 30
0.0
 40
2.663590
 50
140.793201
 51
180.0
  0
ARC
  8
0
  6
BYLAYER
 62
     1
 10
173.161031
 20
-98.433525
 30
0.0
 40
2.663556
 50
180.000000
 51
219.207055
  0
ARC
  8
0
  6
BYLAYER
 62
     1
 10
172.127525
 20
-99.276644
 30
0.0
 40
1.329771
 50
219.207055
 51
270.000000
  0
ARC
  8
0
  6
BYLAYER
 62
     1
 10
172.127525
 20
-99.276665
 30
0.0
 40
1.329750
 50
270.0
 51
320.793131
  0
ARC
  8
0
  6
BYLAYER
 62
     1
 10
171.093987
 20
-98.433525
 30
0.0
 40
2.663574
 50
320.793131
 51
360.000000
  0
ARC
  8
0
  6
BYLAYER
 62
     1
 10
171.093988
 20
-98.433525
 30
0.0
 40
2.663572
 50
0.0
 51
39.206985
  0
ARC
  8
0
  6
BYLAYER
 62
     1
 10
172.127510
 20
-97.590396
 30
0.0
 40
1.329768
 50
39.206985
 51
90.000000
  0
LINE
  8
0
  6
BYLAYER
 62
     1
 10
185.603126
 20
-101.392097
 30
0.0
 11
185.603126
 21
-95.390404
 31
0.0
  0
LINE
  8
0
  6
BYLAYER
 62
     1
 10
185.603126
 20
-95.390404
 30
0.0
 11
189.322472
 21
-95.390404
 31
0.0
  0
ARC
  8
0
  6
BYLAYER
 62
     1
 10
189.322472
 20
-97.081032
 30
0.0
 40
1.690610
 50
287.134650
 51
450.000006
  0
ARC
  8
0
  6
BYLAYER
 62
     1
 10
189.660606
 20
-100.039604
 30
0.0
 40
1.352493
 50
0.0
 51
83.207557
  0
LINE
  8
0
  6
BYLAYER
 62
     1
 10
191.013100
 20
-100.039604
 30
0.0
 11
191.013100
 21
-100.884911
 31
0.0
  0
ARC
  8
0
  6
BYLAYER
 62
     1
 10
192.365593
 20
-100.884911
 30
0.0
 40
1.352493
 50
180.000000
 51
202.024314
  0
LINE
  8
0
  6
BYLAYER
 62
     1
 10
189.252113
 20
-101.392097
 30
0.0
 11
191.111793
 21
-101.392097
 31
0.0
  0
ARC
  8
0
  6
BYLAYER
 62
     1
 10
190.505913
 20
-100.884911
 30
0.0
 40
1.352493
 50
180.000000
 51
202.024314
  0
LINE
  8
0
  6
BYLAYER
 62
     1
 10
189.153419
 20
-100.884911
 30
0.0
 11
189.153419
 21
-100.208672
 31
0.0
  0
LINE
  8
0
  6
BYLAYER
 62
     1
 10
185.603126
 20
-101.392097
 30
0.0
 11
187.378273
 21
-101.392097
 31
0.0
  0
LINE
  8
0
  6
BYLAYER
 62
     1
 10
187.378273
 20
-101.392097
 30
0.0
 11
187.378273
 21
-99.363365
 31
0.0
  0
LINE
  8
0
  6
BYLAYER
 62
     1
 10
188.308113
 20
-99.363365
 30
0.0
 11
187.378273
 21
-99.363365
 31
0.0
  0
ARC
  8
0
  6
BYLAYER
 62
     1
 10
188.308113
 20
-100.208672
 30
0.0
 40
0.845306
 50
0.0
 51
90.000003
  0
LINE
  8
0
  6
BYLAYER
 62
     1
 10
187.378273
 20
-98.010872
 30
0.0
 11
187.378273
 21
-96.742897
 31
0.0
  0
LINE
  8
0
  6
BYLAYER
 62
     1
 10
187.378273
 20
-96.742897
 30
0.0
 11
188.561699
 21
-96.742897
 31
0.0
  0
LINE
  8
0
  6
BYLAYER
 62
     1
 10
187.378273
 20
-98.010872
 30
0.0
 11
188.561699
 21
-98.010872
 31
0.0
  0
ARC
  8
0
  6
BYLAYER
 62
     1
 10
188.561699
 20
-97.376884
 30
0.0
 40
0.633987
 50
270.0
 51
450.000005
  0
LINE
  8
0
  6
BYLAYER
 62
     1
 10
177.537514
 20
-99.494301
 30
0.0
 11
176.438606
 21
-95.390404
 31
0.0
  0
LINE
  8
0
  6
BYLAYER
 62
     1
 10
176.438606
 20
-95.390404
 30
0.0
 11
174.663460
 21
-95.390404
 31
0.0
  0
LINE
  8
0
  6
BYLAYER
 62
     1
 10
174.663460
 20
-95.390404
 30
0.0
 11
176.523140
 21
-101.392097
 31
0.0
  0
LINE
  8
0
  6
BYLAYER
 62
     1
 10
177.537514
 20
-99.494301
 30
0.0
 11
178.636391
 21
-95.390404
 31
0.0
  0
LINE
  8
0
  6
BYLAYER
 62
     1
 10
178.636391
 20
-95.390404
 30
0.0
 11
180.411537
 21
-95.390404
 31
0.0
  0
LINE
  8
0
  6
BYLAYER
 62
     1
 10
180.411537
 20
-95.390404
 30
0.0
 11
178.551857
 21
-101.392097
 31
0.0
  0
LINE
  8
0
  6
BYLAYER
 62
     1
 10
178.551857
 20
-101.392097
 30
0.0
 11
176.523140
 21
-101.392097
 31
0.0
  0
LINE
  8
0
  6
BYLAYER
 62
     1
 10
191.273781
 20
-101.392097
 30
0.0
 11
193.048927
 21
-101.392097
 31
0.0
  0
LINE
  8
0
  6
BYLAYER
 62
     1
 10
193.048927
 20
-101.392097
 30
0.0
 11
193.048927
 21
-95.390404
 31
0.0
  0
LINE
  8
0
  6
BYLAYER
 62
     1
 10
193.048927
 20
-95.390404
 30
0.0
 11
191.273781
 21
-95.390404
 31
0.0
  0
LINE
  8
0
  6
BYLAYER
 62
     1
 10
191.273781
 20
-95.390404
 30
0.0
 11
191.273781
 21
-101.392097
 31
0.0
  0
ARC
  8
0
  6
BYLAYER
 62
     1
 10
196.387901
 20
-98.729731
 30
0.0
 40
2.873701
 50
270.0
 51
308.795693
  0
ARC
  8
0
  6
BYLAYER
 62
     1
 10
196.109773
 20
-98.433525
 30
0.0
 40
3.278967
 50
309.340576
 51
360.000000
  0
ARC
  8
0
  6
BYLAYER
 62
     1
 10
196.109773
 20
-98.433525
 30
0.0
 40
3.278967
 50
0.0
 51
50.659424
  0
ARC
  8
0
  6
BYLAYER
 62
     1
 10
196.387901
 20
-98.137319
 30
0.0
 40
2.873701
 50
51.204307
 51
90.000000
  0
ARC
  8
0
  6
BYLAYER
 62
     1
 10
196.387901
 20
-98.137319
 30
0.0
 40
2.873701
 50
90.0
 51
128.795693
  0
ARC
  8
0
  6
BYLAYER
 62
     1
 10
196.666029
 20
-98.433525
 30
0.0
 40
3.278967
 50
129.340576
 51
180.0
  0
ARC
  8
0
  6
BYLAYER
 62
     1
 10
196.666029
 20
-98.433525
 30
0.0
 40
3.278967
 50
180.000000
 51
230.659424
  0
ARC
  8
0
  6
BYLAYER
 62
     1
 10
196.387901
 20
-98.729731
 30
0.0
 40
2.873701
 50
231.204307
 51
270.0
  0
ARC
  8
0
  6
BYLAYER
 62
     1
 10
196.387901
 20
-97.590374
 30
0.0
 40
1.329747
 50
39.206799
 51
90.000000
  0
ARC
  8
0
  6
BYLAYER
 62
     1
 10
195.354347
 20
-98.433525
 30
0.0
 40
2.663590
 50
0.0
 51
39.206799
  0
ARC
  8
0
  6
BYLAYER
 62
     1
 10
195.354363
 20
-98.433525
 30
0.0
 40
2.663574
 50
320.793131
 51
360.000000
  0
ARC
  8
0
  6
BYLAYER
 62
     1
 10
196.387901
 20
-99.276665
 30
0.0
 40
1.329750
 50
270.0
 51
320.793131
  0
ARC
  8
0
  6
BYLAYER
 62
     1
 10
196.387901
 20
-99.276665
 30
0.0
 40
1.329750
 50
219.206869
 51
270.000000
  0
ARC
  8
0
  6
BYLAYER
 62
     1
 10
197.421440
 20
-98.433525
 30
0.0
 40
2.663574
 50
180.000000
 51
219.206869
  0
ARC
  8
0
  6
BYLAYER
 62
     1
 10
197.421456
 20
-98.433525
 30
0.0
 40
2.663590
 50
140.793201
 51
180.0
  0
ARC
  8
0
  6
BYLAYER
 62
     1
 10
196.387901
 20
-97.590374
 30
0.0
 40
1.329747
 50
90.0
 51
140.793201
  0
ARC
  8
0
  6
BYLAYER
 62
     1
 10
166.416038
 20
-88.519676
 30
0.0
 40
7.429995
 50
174.535650
 51
180.0
  0
LINE
  8
0
  6
BYLAYER
 62
     1
 10
159.019806
 20
-87.812141
 30
0.0
 11
159.019806
 21
-87.812134
 31
0.0
  0
LINE
  8
0
  6
BYLAYER
 62
     1
 10
159.027891
 20
-87.732211
 30
0.0
 11
159.736994
 21
-87.433668
 31
0.0
  0
ARC
  8
0
  6
BYLAYER
 62
     1
 10
166.416069
 20
-88.519737
 30
0.0
 40
6.766781
 50
159.235383
 51
170.763998
  0
LINE
  8
0
  6
BYLAYER
 62
     1
 10
160.088794
 20
-86.120672
 30
0.0
 11
159.623996
 21
-85.507559
 31
0.0
  0
ARC
  8
0
  6
BYLAYER
 62
     1
 10
166.416038
 20
-88.519676
 30
0.0
 40
7.429986
 50
144.139514
 51
156.083795
  0
LINE
  8
0
  6
BYLAYER
 62
     1
 10
160.345573
 20
-84.235481
 30
0.0
 11
160.346016
 21
-84.234856
 31
0.0
  0
LINE
  8
0
  6
BYLAYER
 62
     1
 10
160.394437
 20
-84.167089
 30
0.0
 11
161.149362
 21
-84.270953
 31
0.0
  0
ARC
  8
0
  6
BYLAYER
 62
     1
 10
166.416038
 20
-88.519676
 30
0.0
 40
6.766741
 50
129.235643
 51
141.105976
  0
LINE
  8
0
  6
BYLAYER
 62
     1
 10
162.025352
 20
-83.370819
 30
0.0
 11
162.026085
 21
-83.370186
 31
0.0
  0
LINE
  8
0
  6
BYLAYER
 62
     1
 10
162.135999
 20
-83.278489
 30
0.0
 11
162.040005
 21
-82.515083
 31
0.0
  0
ARC
  8
0
  6
BYLAYER
 62
     1
 10
166.416038
 20
-88.519676
 30
0.0
 40
7.429994
 50
114.139607
 51
126.083853
  0
LINE
  8
0
  6
BYLAYER
 62
     1
 10
163.301491
 20
-81.773979
 30
0.0
 11
163.301994
 21
-81.773743
 31
0.0
  0
LINE
  8
0
  6
BYLAYER
 62
     1
 10
163.377458
 20
-81.739422
 30
0.0
 11
163.979287
 21
-82.206817
 31
0.0
  0
LINE
  8
0
  6
BYLAYER
 62
     1
 10
164.116890
 20
-82.155495
 30
0.0
 11
164.117653
 21
-82.155228
 31
0.0
  0
ARC
  8
0
  6
BYLAYER
 62
     1
 10
166.416038
 20
-88.519676
 30
0.0
 40
6.766738
 50
99.235601
 51
111.106038
  0
ARC
  8
0
  6
BYLAYER
 62
     1
 10
166.416038
 20
-88.519676
 30
0.0
 40
7.429995
 50
90.0
 51
96.083892
  0
LINE
  8
0
  6
BYLAYER
 62
     1
 10
165.628574
 20
-81.131529
 30
0.0
 11
165.330014
 21
-81.840657
 31
0.0
  0
LINE
  8
0
  6
BYLAYER
 62
     1
 10
173.812263
 20
-87.812141
 30
0.0
 11
173.812263
 21
-87.812134
 31
0.0
  0
LINE
  8
0
  6
BYLAYER
 62
     1
 10
173.804186
 20
-87.732210
 30
0.0
 11
173.095047
 21
-87.433661
 31
0.0
  0
ARC
  8
0
  6
BYLAYER
 62
     1
 10
166.415993
 20
-88.519737
 30
0.0
 40
6.766781
 50
9.235986
 51
20.764650
  0
LINE
  8
0
  6
BYLAYER
 62
     1
 10
172.743317
 20
-86.120602
 30
0.0
 11
173.208082
 21
-85.507560
 31
0.0
  0
ARC
  8
0
  6
BYLAYER
 62
     1
 10
166.416038
 20
-88.519676
 30
0.0
 40
7.429986
 50
23.916189
 51
35.860484
  0
LINE
  8
0
  6
BYLAYER
 62
     1
 10
172.486488
 20
-84.235481
 30
0.0
 11
172.486046
 21
-84.234856
 31
0.0
  0
LINE
  8
0
  6
BYLAYER
 62
     1
 10
172.437640
 20
-84.167090
 30
0.0
 11
171.682768
 21
-84.270944
 31
0.0
  0
ARC
  8
0
  6
BYLAYER
 62
     1
 10
166.416038
 20
-88.519676
 30
0.0
 40
6.766741
 50
38.894050
 51
50.764315
  0
LINE
  8
0
  6
BYLAYER
 62
     1
 10
170.806725
 20
-83.370819
 30
0.0
 11
170.805992
 21
-83.370186
 31
0.0
  0
LINE
  8
0
  6
BYLAYER
 62
     1
 10
170.696098
 20
-83.278367
 30
0.0
 11
170.792056
 21
-82.515071
 31
0.0
  0
ARC
  8
0
  6
BYLAYER
 62
     1
 10
166.416038
 20
-88.519676
 30
0.0
 40
7.429994
 50
53.916300
 51
65.860381
  0
LINE
  8
0
  6
BYLAYER
 62
     1
 10
169.530586
 20
-81.773979
 30
0.0
 11
169.530067
 21
-81.773743
 31
0.0
  0
LINE
  8
0
  6
BYLAYER
 62
     1
 10
169.454621
 20
-81.739423
 30
0.0
 11
168.852797
 21
-82.206796
 31
0.0
  0
LINE
  8
0
  6
BYLAYER
 62
     1
 10
168.715172
 20
-82.155495
 30
0.0
 11
168.714424
 21
-82.155228
 31
0.0
  0
ARC
  8
0
  6
BYLAYER
 62
     1
 10
166.416038
 20
-88.519676
 30
0.0
 40
6.766738
 50
68.894081
 51
80.764578
  0
ARC
  8
0
  6
BYLAYER
 62
     1
 10
166.416038
 20
-88.519676
 30
0.0
 40
7.429995
 50
84.535428
 51
90.000003
  0
LINE
  8
0
  6
BYLAYER
 62
     1
 10
167.203506
 20
-81.131529
 30
0.0
 11
167.501993
 21
-81.840536
 31
0.0
  0
ARC
  8
0
  6
BYLAYER
 62
     1
 10
166.416038
 20
-88.519676
 30
0.0
 40
7.429995
 50
180.000000
 51
186.083899
  0
LINE
  8
0
  6
BYLAYER
 62
     1
 10
159.019806
 20
-89.227203
 30
0.0
 11
159.019806
 21
-89.227219
 31
0.0
  0
LINE
  8
0
  6
BYLAYER
 62
     1
 10
159.027891
 20
-89.307142
 30
0.0
 11
159.737015
 21
-89.605693
 31
0.0
  0
ARC
  8
0
  6
BYLAYER
 62
     1
 10
166.416069
 20
-88.519615
 30
0.0
 40
6.766781
 50
189.236002
 51
200.764629
  0
LINE
  8
0
  6
BYLAYER
 62
     1
 10
160.088819
 20
-90.918650
 30
0.0
 11
159.623993
 21
-91.531788
 31
0.0
  0
ARC
  8
0
  6
BYLAYER
 62
     1
 10
166.416038
 20
-88.519676
 30
0.0
 40
7.429986
 50
203.916158
 51
215.860410
  0
LINE
  8
0
  6
BYLAYER
 62
     1
 10
160.345573
 20
-92.803863
 30
0.0
 11
160.346016
 21
-92.804489
 31
0.0
  0
LINE
  8
0
  6
BYLAYER
 62
     1
 10
160.394431
 20
-92.872255
 30
0.0
 11
161.149427
 21
-92.768392
 31
0.0
  0
ARC
  8
0
  6
BYLAYER
 62
     1
 10
166.416038
 20
-88.519676
 30
0.0
 40
6.766741
 50
218.894045
 51
230.764345
  0
LINE
  8
0
  6
BYLAYER
 62
     1
 10
162.025352
 20
-93.668526
 30
0.0
 11
162.026085
 21
-93.669159
 31
0.0
  0
LINE
  8
0
  6
BYLAYER
 62
     1
 10
162.135998
 20
-93.760862
 30
0.0
 11
162.040005
 21
-94.524270
 31
0.0
  0
ARC
  8
0
  6
BYLAYER
 62
     1
 10
166.416038
 20
-88.519676
 30
0.0
 40
7.429994
 50
233.916148
 51
245.860401
  0
LINE
  8
0
  6
BYLAYER
 62
     1
 10
163.301491
 20
-95.265366
 30
0.0
 11
163.301994
 21
-95.265610
 31
0.0
  0
LINE
  8
0
  6
BYLAYER
 62
     1
 10
163.377459
 20
-95.299930
 30
0.0
 11
163.979358
 21
-94.832470
 31
0.0
  0
LINE
  8
0
  6
BYLAYER
 62
     1
 10
164.116890
 20
-94.883850
 30
0.0
 11
164.117653
 21
-94.884125
 31
0.0
  0
LINE
  8
0
  6
BYLAYER
 62
     1
 10
173.812263
 20
-89.227203
 30
0.0
 11
173.812263
 21
-89.227219
 31
0.0
  0
LINE
  8
0
  6
BYLAYER
 62
     1
 10
173.804185
 20
-89.307143
 30
0.0
 11
173.095047
 21
-89.605691
 31
0.0
  0
LINE
  8
0
  6
BYLAYER
 62
     1
 10
172.743251
 20
-90.918667
 30
0.0
 11
173.208090
 21
-91.531793
 31
0.0
  0
LINE
  8
0
  6
BYLAYER
 62
     1
 10
172.486488
 20
-92.803863
 30
0.0
 11
172.486046
 21
-92.804489
 31
0.0
  0
LINE
  8
0
  6
BYLAYER
 62
     1
 10
172.437655
 20
-92.872256
 30
0.0
 11
171.682609
 21
-92.768389
 31
0.0
  0
LINE
  8
0
  6
BYLAYER
 62
     1
 10
170.806725
 20
-93.668526
 30
0.0
 11
170.805992
 21
-93.669159
 31
0.0
  0
LINE
  8
0
  6
BYLAYER
 62
     1
 10
170.696083
 20
-93.760859
 30
0.0
 11
170.792056
 21
-94.524281
 31
0.0
  0
LINE
  8
0
  6
BYLAYER
 62
     1
 10
169.454620
 20
-95.299930
 30
0.0
 11
168.852706
 21
-94.832475
 31
0.0
  0
ARC
  8
0
  6
BYLAYER
 62
     1
 10
166.416038
 20
-88.519676
 30
0.0
 40
6.766741
 50
309.235697
 51
321.105929
  0
ARC
  8
0
  6
BYLAYER
 62
     1
 10
166.416038
 20
-88.519676
 30
0.0
 40
6.766738
 50
248.893873
 51
270.0
  0
ARC
  8
0
  6
BYLAYER
 62
     1
 10
166.416038
 20
-88.519676
 30
0.0
 40
7.429994
 50
294.783232
 51
306.083699
  0
LINE
  8
0
  6
BYLAYER
 62
     1
 10
169.530067
 20
-95.265610
 30
0.0
 11
169.455077
 21
-95.300899
 31
0.0
  0
ARC
  8
0
  6
BYLAYER
 62
     1
 10
166.416038
 20
-88.519676
 30
0.0
 40
7.429986
 50
324.139593
 51
336.083825
  0
ARC
  8
0
  6
BYLAYER
 62
     1
 10
166.415993
 20
-88.519615
 30
0.0
 40
6.766781
 50
339.235210
 51
350.764014
  0
ARC
  8
0
  6
BYLAYER
 62
     1
 10
166.416038
 20
-88.519676
 30
0.0
 40
7.429995
 50
353.916089
 51
360.0
  0
ARC
  8
0
  6
BYLAYER
 62
     1
 10
166.416038
 20
-88.519676
 30
0.0
 40
7.429995
 50
0.0
 51
6.083907
  0
ARC
  8
0
  6
BYLAYER
 62
     1
 10
166.416038
 20
-88.519676
 30
0.0
 40
6.766738
 50
270.0
 51
291.106008
  0
CIRCLE
  8
0
  6
BYLAYER
 62
     1
 10
166.416038
 20
-88.519676
 30
0.0
 40
3.630081
  0
CIRCLE
  8
0
  6
BYLAYER
 62
     1
 10
166.416038
 20
-88.519676
 30
0.0
 40
5.296032
  0
LINE
  8
0
  6
BYLAYER
 62
     1
 10
172.984642
 20
-172.984642
 30
0.0
 11
169.984642
 21
-172.984642
 31
0.0
  0
LINE
  8
0
  6
BYLAYER
 62
     1
 10
172.984642
 20
-172.984642
 30
0.0
 11
172.984642
 21
-175.984642
 31
0.0
  0
LINE
  8
0
  6
BYLAYER
 62
     1
 10
172.984642
 20
-172.984642
 30
0.0
 11
175.984642
 21
-172.984642
 31
0.0
  0
LINE
  8
0
  6
BYLAYER
 62
     1
 10
172.984642
 20
-172.984642
 30
0.0
 11
172.984642
 21
-169.984642
 31
0.0
  0
ARC
  8
0
  6
BYLAYER
 62
     1
 10
804.484634
 20
-460.148552
 30
0.0
 40
2.000000
 50
197.341476
 51
360.000000
  0
LINE
  8
0
  6
BYLAYER
 62
     1
 10
805.969437
 20
-468.984611
 30
0.0
 11
824.484634
 21
-468.984611
 31
0.0
  0
LINE
  8
0
  6
BYLAYER
 62
     1
 10
772.984642
 20
-431.984619
 30
0.0
 11
806.484634
 21
-431.984619
 31
0.0
  0
LINE
  8
0
  6
BYLAYER
 62
     1
 10
719.984642
 20
-587.984673
 30
0.0
 11
719.984642
 21
-520.868980
 31
0.0
  0
LINE
  8
0
  6
BYLAYER
 62
     1
 10
716.984642
 20
-572.484673
 30
0.0
 11
716.984642
 21
-493.484611
 31
0.0
  0
LINE
  8
0
  6
BYLAYER
 62
     1
 10
739.484642
 20
-468.984611
 30
0.0
 11
739.484642
 21
-604.984673
 31
0.0
  0
LINE
  8
0
  6
BYLAYER
 62
     1
 10
722.484642
 20
-565.984611
 30
0.0
 11
722.484642
 21
-469.984611
 31
0.0
  0
CIRCLE
  8
0
  6
BYLAYER
 62
     1
 10
730.484642
 20
-582.984673
 30
0.0
 40
4.25
  0
LINE
  8
0
  6
BYLAYER
 62
     1
 10
722.484642
 20
-565.984611
 30
0.0
 11
739.484642
 21
-565.984611
 31
0.0
  0
LINE
  8
0
  6
BYLAYER
 62
     1
 10
739.484642
 20
-566.984673
 30
0.0
 11
721.484642
 21
-566.984673
 31
0.0
  0
LINE
  8
0
  6
BYLAYER
 62
     1
 10
721.484642
 20
-604.984673
 30
0.0
 11
739.484642
 21
-604.984673
 31
0.0
  0
LINE
  8
0
  6
BYLAYER
 62
     1
 10
721.484642
 20
-604.984673
 30
0.0
 11
721.484642
 21
-566.984673
 31
0.0
  0
LINE
  8
0
  6
BYLAYER
 62
     1
 10
719.984642
 20
-587.984673
 30
0.0
 11
721.484642
 21
-588.037071
 31
0.0
  0
LINE
  8
0
  6
BYLAYER
 62
     1
 10
719.584648
 20
-572.984673
 30
0.0
 11
717.484642
 21
-572.984673
 31
0.0
  0
LINE
  8
0
  6
BYLAYER
 62
     1
 10
717.484642
 20
-572.984673
 30
0.0
 11
716.984642
 21
-572.484673
 31
0.0
  0
ARC
  8
0
  6
BYLAYER
 62
     1
 10
719.584648
 20
-573.384666
 30
0.0
 40
0.399994
 50
0.0
 51
90.000003
  0
LINE
  8
0
  6
BYLAYER
 62
     1
 10
721.484642
 20
-566.984673
 30
0.0
 11
722.484642
 21
-565.984611
 31
0.0
  0
LINE
  8
0
  6
BYLAYER
 62
     1
 10
721.484642
 20
-468.984611
 30
0.0
 11
739.999840
 21
-468.984611
 31
0.0
  0
CIRCLE
  8
0
  6
BYLAYER
 62
     1
 10
730.484642
 20
-452.984611
 30
0.0
 40
4.25
  0
LINE
  8
0
  6
BYLAYER
 62
     1
 10
722.484642
 20
-469.984611
 30
0.0
 11
739.484642
 21
-469.984611
 31
0.0
  0
LINE
  8
0
  6
BYLAYER
 62
     1
 10
739.484642
 20
-430.984619
 30
0.0
 11
721.484642
 21
-430.984619
 31
0.0
  0
LINE
  8
0
  6
BYLAYER
 62
     1
 10
719.984642
 20
-514.520500
 30
0.0
 11
719.984642
 21
-477.984673
 31
0.0
  0
LINE
  8
0
  6
BYLAYER
 62
     1
 10
716.984642
 20
-520.921349
 30
0.0
 11
719.984642
 21
-520.868980
 31
0.0
  0
LINE
  8
0
  6
BYLAYER
 62
     1
 10
716.984642
 20
-514.572868
 30
0.0
 11
719.984642
 21
-514.520500
 31
0.0
  0
LINE
  8
0
  6
BYLAYER
 62
     1
 10
719.584648
 20
-492.984611
 30
0.0
 11
717.484642
 21
-492.984611
 31
0.0
  0
LINE
  8
0
  6
BYLAYER
 62
     1
 10
717.484642
 20
-492.984611
 30
0.0
 11
716.984642
 21
-493.484611
 31
0.0
  0
ARC
  8
0
  6
BYLAYER
 62
     1
 10
719.584648
 20
-492.584618
 30
0.0
 40
0.399994
 50
270.0
 51
360.000003
  0
LINE
  8
0
  6
BYLAYER
 62
     1
 10
721.484642
 20
-430.984619
 30
0.0
 11
721.484642
 21
-468.984611
 31
0.0
  0
LINE
  8
0
  6
BYLAYER
 62
     1
 10
719.984642
 20
-477.984673
 30
0.0
 11
722.484642
 21
-477.897362
 31
0.0
  0
LINE
  8
0
  6
BYLAYER
 62
     1
 10
722.484642
 20
-469.984611
 30
0.0
 11
721.484642
 21
-468.984611
 31
0.0
  0
CIRCLE
  8
0
  6
BYLAYER
 62
     1
 10
772.984642
 20
-469.984611
 30
0.0
 40
26.0
  0
ARC
  8
0
  6
BYLAYER
 62
     1
 10
772.984642
 20
-469.984611
 30
0.0
 40
30.999969
 50
330.532607
 51
358.263503
  0
ARC
  8
0
  6
BYLAYER
 62
     1
 10
772.984642
 20
-469.984611
 30
0.0
 40
30.999985
 50
181.736499
 51
209.467395
  0
ARC
  8
0
  6
BYLAYER
 62
     1
 10
772.984642
 20
-469.984611
 30
0.0
 40
30.999969
 50
240.532625
 51
299.467377
  0
ARC
  8
0
  6
BYLAYER
 62
     1
 10
749.296562
 20
-493.672691
 30
0.0
 40
6.999983
 50
124.078036
 51
325.921956
  0
CIRCLE
  8
0
  6
BYLAYER
 62
     1
 10
749.296562
 20
-493.672691
 30
0.0
 40
3.725006
  0
ARC
  8
0
  6
BYLAYER
 62
     1
 10
744.253685
 20
-486.218224
 30
0.0
 40
2.000000
 50
304.077782
 51
389.467386
  0
ARC
  8
0
  6
BYLAYER
 62
     1
 10
756.751030
 20
-498.715569
 30
0.0
 40
2.000000
 50
60.532613
 51
145.922224
  0
ARC
  8
0
  6
BYLAYER
 62
     1
 10
796.672722
 20
-493.672691
 30
0.0
 40
6.999983
 50
214.078032
 51
415.921965
  0
CIRCLE
  8
0
  6
BYLAYER
 62
     1
 10
796.672722
 20
-493.672691
 30
0.0
 40
3.725006
  0
ARC
  8
0
  6
BYLAYER
 62
     1
 10
789.218254
 20
-498.715569
 30
0.0
 40
2.0
 50
34.077788
 51
119.467372
  0
ARC
  8
0
  6
BYLAYER
 62
     1
 10
801.715591
 20
-486.218224
 30
0.0
 40
2.0
 50
150.532602
 51
235.922192
  0
ARC
  8
0
  6
BYLAYER
 62
     1
 10
772.984642
 20
-469.984611
 30
0.0
 40
30.999969
 50
60.532613
 51
119.467385
  0
LINE
  8
0
  6
BYLAYER
 62
     1
 10
739.484642
 20
-431.984619
 30
0.0
 11
772.984642
 21
-431.984619
 31
0.0
  0
LINE
  8
0
  6
BYLAYER
 62
     1
 10
739.484642
 20
-460.148552
 30
0.0
 11
739.484642
 21
-430.984619
 31
0.0
  0
ARC
  8
0
  6
BYLAYER
 62
     1
 10
749.296562
 20
-446.296532
 30
0.0
 40
6.999983
 50
34.078037
 51
235.921971
  0
CIRCLE
  8
0
  6
BYLAYER
 62
     1
 10
749.296562
 20
-446.296532
 30
0.0
 40
3.725006
  0
ARC
  8
0
  6
BYLAYER
 62
     1
 10
739.999840
 20
-470.984611
 30
0.0
 40
1.999972
 50
1.736578
 51
90.000005
  0
ARC
  8
0
  6
BYLAYER
 62
     1
 10
741.484642
 20
-460.148552
 30
0.0
 40
2.0
 50
180.000000
 51
342.658537
  0
ARC
  8
0
  6
BYLAYER
 62
     1
 10
772.984642
 20
-469.984611
 30
0.0
 40
30.999969
 50
150.532615
 51
162.658728
  0
ARC
  8
0
  6
BYLAYER
 62
     1
 10
744.253685
 20
-453.750999
 30
0.0
 40
2.000000
 50
330.532634
 51
415.922211
  0
ARC
  8
0
  6
BYLAYER
 62
     1
 10
754.234673
 20
-437.508667
 30
0.0
 40
6.999945
 50
111.250353
 51
127.893298
  0
ARC
  8
0
  6
BYLAYER
 62
     1
 10
756.751030
 20
-441.253662
 30
0.0
 40
2.000000
 50
214.077800
 51
299.467377
  0
LINE
  8
0
  6
BYLAYER
 62
     1
 10
756.771782
 20
-430.984619
 30
0.0
 11
751.697563
 21
-430.984619
 31
0.0
  0
ARC
  8
0
  6
BYLAYER
 62
     1
 10
754.234673
 20
-437.508667
 30
0.0
 40
7.000009
 50
52.105911
 51
68.749652
  0
ARC
  8
0
  6
BYLAYER
 62
     1
 10
796.672722
 20
-446.296532
 30
0.0
 40
6.999983
 50
304.078031
 51
505.921965
  0
CIRCLE
  8
0
  6
BYLAYER
 62
     1
 10
796.672722
 20
-446.296532
 30
0.0
 40
3.725006
  0
ARC
  8
0
  6
BYLAYER
 62
     1
 10
805.969437
 20
-470.984611
 30
0.0
 40
1.999972
 50
90.0
 51
178.26342
  0
ARC
  8
0
  6
BYLAYER
 62
     1
 10
772.984642
 20
-469.984611
 30
0.0
 40
30.999969
 50
17.341271
 51
29.467386
  0
ARC
  8
0
  6
BYLAYER
 62
     1
 10
801.715591
 20
-453.750999
 30
0.0
 40
2.0
 50
124.077790
 51
209.467367
  0
ARC
  8
0
  6
BYLAYER
 62
     1
 10
791.734673
 20
-437.508667
 30
0.0
 40
7.000009
 50
111.250353
 51
127.894090
  0
ARC
  8
0
  6
BYLAYER
 62
     1
 10
789.218254
 20
-441.253662
 30
0.0
 40
2.0
 50
240.532625
 51
325.922202
  0
LINE
  8
0
  6
BYLAYER
 62
     1
 10
789.197563
 20
-430.984619
 30
0.0
 11
794.271782
 21
-430.984619
 31
0.0
  0
ARC
  8
0
  6
BYLAYER
 62
     1
 10
791.734673
 20
-437.508667
 30
0.0
 40
6.999945
 50
52.106700
 51
68.749652
  0
LINE
  8
0
  6
BYLAYER
 62
     1
 10
825.984634
 20
-587.984673
 30
0.0
 11
825.984634
 21
-520.868980
 31
0.0
  0
LINE
  8
0
  6
BYLAYER
 62
     1
 10
828.984634
 20
-572.484673
 30
0.0
 11
828.984634
 21
-493.484611
 31
0.0
  0
LINE
  8
0
  6
BYLAYER
 62
     1
 10
806.484634
 20
-468.984611
 30
0.0
 11
806.484634
 21
-604.984673
 31
0.0
  0
LINE
  8
0
  6
BYLAYER
 62
     1
 10
823.484634
 20
-565.984611
 30
0.0
 11
823.484634
 21
-469.984611
 31
0.0
  0
LINE
  8
0
  6
BYLAYER
 62
     1
 10
824.484634
 20
-566.984673
 30
0.0
 11
824.484634
 21
-604.984673
 31
0.0
  0
LINE
  8
0
  6
BYLAYER
 62
     1
 10
824.484634
 20
-604.984673
 30
0.0
 11
806.484634
 21
-604.984673
 31
0.0
  0
LINE
  8
0
  6
BYLAYER
 62
     1
 10
825.984634
 20
-587.984673
 30
0.0
 11
824.484634
 21
-588.037071
 31
0.0
  0
CIRCLE
  8
0
  6
BYLAYER
 62
     1
 10
815.484634
 20
-582.984673
 30
0.0
 40
4.25
  0
LINE
  8
0
  6
BYLAYER
 62
     1
 10
806.484634
 20
-566.984673
 30
0.0
 11
824.484634
 21
-566.984673
 31
0.0
  0
LINE
  8
0
  6
BYLAYER
 62
     1
 10
806.484634
 20
-565.984611
 30
0.0
 11
823.484634
 21
-565.984611
 31
0.0
  0
LINE
  8
0
  6
BYLAYER
 62
     1
 10
824.484634
 20
-566.984673
 30
0.0
 11
823.484634
 21
-565.984611
 31
0.0
  0
ARC
  8
0
  6
BYLAYER
 62
     1
 10
826.384628
 20
-573.384666
 30
0.0
 40
0.399994
 50
90.0
 51
180.000003
  0
LINE
  8
0
  6
BYLAYER
 62
     1
 10
826.384628
 20
-572.984673
 30
0.0
 11
828.484634
 21
-572.984673
 31
0.0
  0
LINE
  8
0
  6
BYLAYER
 62
     1
 10
828.484634
 20
-572.984673
 30
0.0
 11
828.984634
 21
-572.484673
 31
0.0
  0
LINE
  8
0
  6
BYLAYER
 62
     1
 10
825.984634
 20
-514.520500
 30
0.0
 11
825.984634
 21
-477.984673
 31
0.0
  0
LINE
  8
0
  6
BYLAYER
 62
     1
 10
828.984634
 20
-520.921349
 30
0.0
 11
825.984634
 21
-520.868980
 31
0.0
  0
LINE
  8
0
  6
BYLAYER
 62
     1
 10
828.984634
 20
-514.572868
 30
0.0
 11
825.984634
 21
-514.520500
 31
0.0
  0
LINE
  8
0
  6
BYLAYER
 62
     1
 10
826.384628
 20
-492.984611
 30
0.0
 11
828.484634
 21
-492.984611
 31
0.0
  0
ARC
  8
0
  6
BYLAYER
 62
     1
 10
826.384628
 20
-492.584618
 30
0.0
 40
0.399994
 50
180.000000
 51
270.000003
  0
LINE
  8
0
  6
BYLAYER
 62
     1
 10
828.484634
 20
-492.984611
 30
0.0
 11
828.984634
 21
-493.484611
 31
0.0
  0
LINE
  8
0
  6
BYLAYER
 62
     1
 10
806.484634
 20
-460.148552
 30
0.0
 11
806.484634
 21
-430.984619
 31
0.0
  0
CIRCLE
  8
0
  6
BYLAYER
 62
     1
 10
815.484634
 20
-452.984611
 30
0.0
 40
4.25
  0
LINE
  8
0
  6
BYLAYER
 62
     1
 10
824.484634
 20
-430.984619
 30
0.0
 11
824.484634
 21
-468.984611
 31
0.0
  0
LINE
  8
0
  6
BYLAYER
 62
     1
 10
825.984634
 20
-477.984673
 30
0.0
 11
823.484634
 21
-477.897362
 31
0.0
  0
LINE
  8
0
  6
BYLAYER
 62
     1
 10
823.484634
 20
-469.984611
 30
0.0
 11
806.484634
 21
-469.984611
 31
0.0
  0
LINE
  8
0
  6
BYLAYER
 62
     1
 10
823.484634
 20
-469.984611
 30
0.0
 11
824.484634
 21
-468.984611
 31
0.0
  0
LINE
  8
0
  6
BYLAYER
 62
     1
 10
806.484634
 20
-430.984619
 30
0.0
 11
824.484634
 21
-430.984619
 31
0.0
  0
LINE
  8
0
  6
BYLAYER
 62
     1
 10
806.484634
 20
-600.984673
 30
0.0
 11
739.484642
 21
-600.984673
 31
0.0
  0
LINE
  8
0
  6
BYLAYER
 62
     1
 10
133.484608
 20
-568.984642
 30
0.0
 11
212.484676
 21
-568.984642
 31
0.0
  0
LINE
  8
0
  6
BYLAYER
 62
     1
 10
227.984615
 20
-565.984642
 30
0.0
 11
117.984608
 21
-565.984642
 31
0.0
  0
LINE
  8
0
  6
BYLAYER
 62
     1
 10
139.984608
 20
-462.484642
 30
0.0
 11
205.984615
 21
-462.484642
 31
0.0
  0
LINE
  8
0
  6
BYLAYER
 62
     1
 10
133.484608
 20
-456.984642
 30
0.0
 11
212.484676
 21
-456.984642
 31
0.0
  0
LINE
  8
0
  6
BYLAYER
 62
     1
 10
227.984615
 20
-459.984642
 30
0.0
 11
117.984608
 21
-459.984642
 31
0.0
  0
LINE
  8
0
  6
BYLAYER
 62
     1
 10
100.984608
 20
-479.484642
 30
0.0
 11
244.984615
 21
-479.484642
 31
0.0
  0
LINE
  8
0
  6
BYLAYER
 62
     1
 10
100.984608
 20
-546.484642
 30
0.0
 11
244.984615
 21
-546.484642
 31
0.0
  0
LINE
  8
0
  6
BYLAYER
 62
     1
 10
139.984608
 20
-563.484642
 30
0.0
 11
205.984615
 21
-563.484642
 31
0.0
  0
LINE
  8
0
  6
BYLAYER
 62
     1
 10
118.984608
 20
-479.484642
 30
0.0
 11
118.984608
 21
-546.484642
 31
0.0
  0
LINE
  8
0
  6
BYLAYER
 62
     1
 10
101.984608
 20
-546.484642
 30
0.0
 11
101.984600
 21
-479.484642
 31
0.0
  0
LINE
  8
0
  6
BYLAYER
 62
     1
 10
100.984608
 20
-564.484642
 30
0.0
 11
100.984608
 21
-461.484642
 31
0.0
  0
LINE
  8
0
  6
BYLAYER
 62
     1
 10
138.984608
 20
-564.484642
 30
0.0
 11
100.984608
 21
-564.484642
 31
0.0
  0
CIRCLE
  8
0
  6
BYLAYER
 62
     1
 10
122.984608
 20
-555.484642
 30
0.0
 40
4.25
  0
CIRCLE
  8
0
  6
BYLAYER
 62
     1
 10
122.984608
 20
-555.484642
 30
0.0
 40
4.25
  0
LINE
  8
0
  6
BYLAYER
 62
     1
 10
138.984608
 20
-546.484642
 30
0.0
 11
138.984608
 21
-564.484642
 31
0.0
  0
LINE
  8
0
  6
BYLAYER
 62
     1
 10
139.984669
 20
-546.484642
 30
0.0
 11
139.984669
 21
-563.484642
 31
0.0
  0
LINE
  8
0
  6
BYLAYER
 62
     1
 10
117.984608
 20
-565.984642
 30
0.0
 11
117.932178
 21
-564.484642
 31
0.0
  0
LINE
  8
0
  6
BYLAYER
 62
     1
 10
132.984608
 20
-568.484642
 30
0.0
 11
133.484608
 21
-568.984642
 31
0.0
  0
LINE
  8
0
  6
BYLAYER
 62
     1
 10
132.984608
 20
-565.984642
 30
0.0
 11
132.984608
 21
-568.484642
 31
0.0
  0
LINE
  8
0
  6
BYLAYER
 62
     1
 10
138.984608
 20
-564.484642
 30
0.0
 11
139.984669
 21
-563.484642
 31
0.0
  0
LINE
  8
0
  6
BYLAYER
 62
     1
 10
138.984608
 20
-461.484642
 30
0.0
 11
100.984608
 21
-461.484642
 31
0.0
  0
LINE
  8
0
  6
BYLAYER
 62
     1
 10
138.984608
 20
-479.484642
 30
0.0
 11
138.984608
 21
-461.484642
 31
0.0
  0
LINE
  8
0
  6
BYLAYER
 62
     1
 10
139.984669
 20
-462.484642
 30
0.0
 11
139.984669
 21
-479.484642
 31
0.0
  0
LINE
  8
0
  6
BYLAYER
 62
     1
 10
117.984608
 20
-459.984642
 30
0.0
 11
117.932178
 21
-461.484642
 31
0.0
  0
CIRCLE
  8
0
  6
BYLAYER
 62
     1
 10
122.984608
 20
-470.484642
 30
0.0
 40
4.25
  0
LINE
  8
0
  6
BYLAYER
 62
     1
 10
132.984608
 20
-457.484642
 30
0.0
 11
133.484608
 21
-456.984642
 31
0.0
  0
LINE
  8
0
  6
BYLAYER
 62
     1
 10
132.984608
 20
-459.984642
 30
0.0
 11
132.984608
 21
-457.484642
 31
0.0
  0
LINE
  8
0
  6
BYLAYER
 62
     1
 10
138.984608
 20
-461.484642
 30
0.0
 11
139.984669
 21
-462.484642
 31
0.0
  0
LINE
  8
0
  6
BYLAYER
 62
     1
 10
246.984615
 20
-468.484642
 30
0.0
 11
246.984615
 21
-557.484642
 31
0.0
  0
LINE
  8
0
  6
BYLAYER
 62
     1
 10
226.984585
 20
-546.484642
 30
0.0
 11
226.984585
 21
-479.484642
 31
0.0
  0
ARC
  8
0
  6
BYLAYER
 62
     1
 10
245.984615
 20
-558.484642
 30
0.0
 40
1.000000
 50
90.0
 51
179.999989
  0
LINE
  8
0
  6
BYLAYER
 62
     1
 10
244.984615
 20
-564.484642
 30
0.0
 11
244.984615
 21
-546.484642
 31
0.0
  0
LINE
  8
0
  6
BYLAYER
 62
     1
 10
205.984554
 20
-546.484642
 30
0.0
 11
205.984554
 21
-563.484642
 31
0.0
  0
LINE
  8
0
  6
BYLAYER
 62
     1
 10
206.984615
 20
-546.484642
 30
0.0
 11
206.984615
 21
-564.484642
 31
0.0
  0
CIRCLE
  8
0
  6
BYLAYER
 62
     1
 10
222.984615
 20
-555.484642
 30
0.0
 40
4.25
  0
LINE
  8
0
  6
BYLAYER
 62
     1
 10
244.984615
 20
-564.484642
 30
0.0
 11
206.984615
 21
-564.484642
 31
0.0
  0
LINE
  8
0
  6
BYLAYER
 62
     1
 10
206.984615
 20
-564.484642
 30
0.0
 11
205.984554
 21
-563.484642
 31
0.0
  0
LINE
  8
0
  6
BYLAYER
 62
     1
 10
212.984615
 20
-565.984642
 30
0.0
 11
212.984615
 21
-568.484642
 31
0.0
  0
LINE
  8
0
  6
BYLAYER
 62
     1
 10
212.984615
 20
-568.484642
 30
0.0
 11
212.484615
 21
-568.984642
 31
0.0
  0
LINE
  8
0
  6
BYLAYER
 62
     1
 10
227.984615
 20
-565.984642
 30
0.0
 11
228.037044
 21
-564.484642
 31
0.0
  0
LINE
  8
0
  6
BYLAYER
 62
     1
 10
246.984615
 20
-534.271629
 30
0.0
 11
226.984585
 21
-534.271629
 31
0.0
  0
LINE
  8
0
  6
BYLAYER
 62
     1
 10
246.984615
 20
-529.197655
 30
0.0
 11
226.984585
 21
-529.197655
 31
0.0
  0
LINE
  8
0
  6
BYLAYER
 62
     1
 10
218.984615
 20
-518.984642
 30
0.0
 11
226.984585
 21
-518.984642
 31
0.0
  0
LINE
  8
0
  6
BYLAYER
 62
     1
 10
218.984615
 20
-516.984642
 30
0.0
 11
226.984585
 21
-516.984642
 31
0.0
  0
ARC
  8
0
  6
BYLAYER
 62
     1
 10
218.984615
 20
-517.984642
 30
0.0
 40
1.0
 50
90.0
 51
270.000005
  0
LINE
  8
0
  6
BYLAYER
 62
     1
 10
218.984615
 20
-506.984642
 30
0.0
 11
226.984585
 21
-506.984642
 31
0.0
  0
LINE
  8
0
  6
BYLAYER
 62
     1
 10
218.984615
 20
-508.984642
 30
0.0
 11
226.984585
 21
-508.984642
 31
0.0
  0
ARC
  8
0
  6
BYLAYER
 62
     1
 10
218.984615
 20
-507.984642
 30
0.0
 40
1.0
 50
90.0
 51
269.999991
  0
LINE
  8
0
  6
BYLAYER
 62
     1
 10
246.984615
 20
-557.484642
 30
0.0
 11
245.984615
 21
-557.484642
 31
0.0
  0
LINE
  8
0
  6
BYLAYER
 62
     1
 10
246.984615
 20
-546.951622
 30
0.0
 11
245.949703
 21
-546.987755
 31
0.0
  0
ARC
  8
0
  6
BYLAYER
 62
     1
 10
245.984615
 20
-547.987205
 30
0.0
 40
1.000000
 50
91.999836
 51
180.000000
  0
LINE
  8
0
  6
BYLAYER
 62
     1
 10
246.984615
 20
-496.771629
 30
0.0
 11
226.984585
 21
-496.771629
 31
0.0
  0
LINE
  8
0
  6
BYLAYER
 62
     1
 10
246.984615
 20
-491.697655
 30
0.0
 11
226.984585
 21
-491.697655
 31
0.0
  0
LINE
  8
0
  6
BYLAYER
 62
     1
 10
244.984615
 20
-461.484642
 30
0.0
 11
206.984615
 21
-461.484642
 31
0.0
  0
LINE
  8
0
  6
BYLAYER
 62
     1
 10
205.984554
 20
-462.484642
 30
0.0
 11
205.984554
 21
-479.484642
 31
0.0
  0
LINE
  8
0
  6
BYLAYER
 62
     1
 10
206.984615
 20
-479.484642
 30
0.0
 11
206.984615
 21
-461.484642
 31
0.0
  0
LINE
  8
0
  6
BYLAYER
 62
     1
 10
206.984615
 20
-461.484642
 30
0.0
 11
205.984554
 21
-462.484642
 31
0.0
  0
LINE
  8
0
  6
BYLAYER
 62
     1
 10
227.984615
 20
-459.984642
 30
0.0
 11
228.037044
 21
-461.484642
 31
0.0
  0
CIRCLE
  8
0
  6
BYLAYER
 62
     1
 10
222.984615
 20
-470.484642
 30
0.0
 40
4.25
  0
LINE
  8
0
  6
BYLAYER
 62
     1
 10
212.984615
 20
-459.984642
 30
0.0
 11
212.984615
 21
-457.484642
 31
0.0
  0
LINE
  8
0
  6
BYLAYER
 62
     1
 10
212.984615
 20
-457.484642
 30
0.0
 11
212.484615
 21
-456.984642
 31
0.0
  0
LINE
  8
0
  6
BYLAYER
 62
     1
 10
244.984615
 20
-461.484642
 30
0.0
 11
244.984615
 21
-479.484642
 31
0.0
  0
ARC
  8
0
  6
BYLAYER
 62
     1
 10
245.984615
 20
-477.982079
 30
0.0
 40
1.0
 50
180.000000
 51
268.000171
  0
LINE
  8
0
  6
BYLAYER
 62
     1
 10
246.984615
 20
-479.017662
 30
0.0
 11
245.949703
 21
-478.981529
 31
0.0
  0
ARC
  8
0
  6
BYLAYER
 62
     1
 10
245.984615
 20
-467.484642
 30
0.0
 40
1.000000
 50
180.000000
 51
269.999996
  0
LINE
  8
0
  6
BYLAYER
 62
     1
 10
246.984615
 20
-468.484642
 30
0.0
 11
245.984615
 21
-468.484642
 31
0.0
  0
LINE
  8
0
  6
BYLAYER
 62
     1
 10
196.234615
 20
-538.984642
 30
0.0
 11
226.984585
 21
-538.984642
 31
0.0
  0
LINE
  8
0
  6
BYLAYER
 62
     1
 10
226.984585
 20
-536.984642
 30
0.0
 11
196.234615
 21
-536.984642
 31
0.0
  0
LINE
  8
0
  6
BYLAYER
 62
     1
 10
196.234615
 20
-526.984642
 30
0.0
 11
226.984585
 21
-526.984642
 31
0.0
  0
LINE
  8
0
  6
BYLAYER
 62
     1
 10
226.984585
 20
-528.984642
 30
0.0
 11
196.234615
 21
-528.984642
 31
0.0
  0
LINE
  8
0
  6
BYLAYER
 62
     1
 10
196.234615
 20
-498.984642
 30
0.0
 11
226.984585
 21
-498.984642
 31
0.0
  0
LINE
  8
0
  6
BYLAYER
 62
     1
 10
226.984585
 20
-496.984642
 30
0.0
 11
196.234615
 21
-496.984642
 31
0.0
  0
LINE
  8
0
  6
BYLAYER
 62
     1
 10
226.984585
 20
-488.984642
 30
0.0
 11
196.234615
 21
-488.984642
 31
0.0
  0
LINE
  8
0
  6
BYLAYER
 62
     1
 10
196.234615
 20
-486.984642
 30
0.0
 11
226.984585
 21
-486.984642
 31
0.0
  0
ARC
  8
0
  6
BYLAYER
 62
     1
 10
196.234615
 20
-537.984642
 30
0.0
 40
1.0
 50
90.0
 51
270.000005
  0
LINE
  8
0
  6
BYLAYER
 62
     1
 10
145.984608
 20
-538.984642
 30
0.0
 11
118.984608
 21
-538.984642
 31
0.0
  0
LINE
  8
0
  6
BYLAYER
 62
     1
 10
118.984608
 20
-536.984642
 30
0.0
 11
145.984608
 21
-536.984642
 31
0.0
  0
LINE
  8
0
  6
BYLAYER
 62
     1
 10
118.984608
 20
-528.984642
 30
0.0
 11
145.984608
 21
-528.984642
 31
0.0
  0
LINE
  8
0
  6
BYLAYER
 62
     1
 10
145.984608
 20
-526.984642
 30
0.0
 11
118.984608
 21
-526.984642
 31
0.0
  0
ARC
  8
0
  6
BYLAYER
 62
     1
 10
145.984608
 20
-537.984642
 30
0.0
 40
1.0
 50
270.0
 51
449.999991
  0
ARC
  8
0
  6
BYLAYER
 62
     1
 10
145.984608
 20
-527.984642
 30
0.0
 40
1.0
 50
270.0
 51
449.999991
  0
LINE
  8
0
  6
BYLAYER
 62
     1
 10
145.984608
 20
-498.984642
 30
0.0
 11
118.984608
 21
-498.984642
 31
0.0
  0
LINE
  8
0
  6
BYLAYER
 62
     1
 10
145.984608
 20
-496.984642
 30
0.0
 11
118.984608
 21
-496.984642
 31
0.0
  0
LINE
  8
0
  6
BYLAYER
 62
     1
 10
118.984608
 20
-488.984642
 30
0.0
 11
145.984608
 21
-488.984642
 31
0.0
  0
LINE
  8
0
  6
BYLAYER
 62
     1
 10
145.984608
 20
-486.984642
 30
0.0
 11
118.984608
 21
-486.984642
 31
0.0
  0
ARC
  8
0
  6
BYLAYER
 62
     1
 10
145.984608
 20
-497.984642
 30
0.0
 40
1.0
 50
270.0
 51
449.999991
  0
ARC
  8
0
  6
BYLAYER
 62
     1
 10
145.984608
 20
-487.984642
 30
0.0
 40
1.0
 50
270.0
 51
449.999991
  0
LINE
  8
0
  6
BYLAYER
 62
     1
 10
118.984608
 20
-506.984642
 30
0.0
 11
152.484615
 21
-506.984642
 31
0.0
  0
LINE
  8
0
  6
BYLAYER
 62
     1
 10
118.984608
 20
-508.984642
 30
0.0
 11
152.484615
 21
-508.984642
 31
0.0
  0
LINE
  8
0
  6
BYLAYER
 62
     1
 10
118.984608
 20
-516.984642
 30
0.0
 11
152.484615
 21
-516.984642
 31
0.0
  0
LINE
  8
0
  6
BYLAYER
 62
     1
 10
118.984608
 20
-518.984642
 30
0.0
 11
152.484615
 21
-518.984642
 31
0.0
  0
ARC
  8
0
  6
BYLAYER
 62
     1
 10
152.484615
 20
-507.984642
 30
0.0
 40
1.0
 50
270.0
 51
450.000005
  0
ARC
  8
0
  6
BYLAYER
 62
     1
 10
152.484615
 20
-517.984642
 30
0.0
 40
1.0
 50
270.0
 51
450.000005
  0
ARC
  8
0
  6
BYLAYER
 62
     1
 10
196.234615
 20
-527.984642
 30
0.0
 40
1.0
 50
90.0
 51
270.000005
  0
ARC
  8
0
  6
BYLAYER
 62
     1
 10
196.234615
 20
-497.984642
 30
0.0
 40
1.0
 50
90.0
 51
269.999991
  0
ARC
  8
0
  6
BYLAYER
 62
     1
 10
196.234615
 20
-487.984642
 30
0.0
 40
1.0
 50
90.0
 51
269.999991
  0
LINE
  8
0
  6
BYLAYER
 62
     1
 10
267.984746
 20
-29.984656
 30
0.0
 11
267.984746
 21
-109.984642
 31
0.0
  0
ARC
  8
0
  6
BYLAYER
 62
     1
 10
256.005253
 20
-54.185997
 30
0.0
 40
2.000000
 50
315.000057
 51
360.000000
  0
ARC
  8
0
  6
BYLAYER
 62
     1
 10
260.005223
 20
-32.405540
 30
0.0
 40
1.999969
 50
93.000028
 51
180.000000
  0
LINE
  8
0
  6
BYLAYER
 62
     1
 10
247.120793
 20
-65.484673
 30
0.0
 11
246.984746
 21
-65.484673
 31
0.0
  0
ARC
  8
0
  6
BYLAYER
 62
     1
 10
247.120793
 20
-64.484673
 30
0.0
 40
1.000000
 50
270.0
 51
315.000001
  0
LINE
  8
0
  6
BYLAYER
 62
     1
 10
246.984746
 20
-65.484673
 30
0.0
 11
246.984642
 21
-109.984642
 31
0.0
  0
LINE
  8
0
  6
BYLAYER
 62
     1
 10
258.005253
 20
-32.405601
 30
0.0
 11
258.005253
 21
-109.984642
 31
0.0
  0
LINE
  8
0
  6
BYLAYER
 62
     1
 10
258.005253
 20
-44.984673
 30
0.0
 11
252.058842
 21
-60.960838
 31
0.0
  0
LINE
  8
0
  6
BYLAYER
 62
     1
 10
247.827885
 20
-65.191765
 30
0.0
 11
257.419438
 21
-55.600182
 31
0.0
  0
LINE
  8
0
  6
BYLAYER
 62
     1
 10
259.900548
 20
-30.408348
 30
0.0
 11
267.984746
 21
-29.984656
 31
0.0
  0
LINE
  8
0
  6
BYLAYER
 62
     1
 10
247.120793
 20
-154.484611
 30
0.0
 11
246.984746
 21
-154.484611
 31
0.0
  0
ARC
  8
0
  6
BYLAYER
 62
     1
 10
247.120793
 20
-155.484611
 30
0.0
 40
1.000000
 50
44.999999
 51
90.000000
  0
ARC
  8
0
  6
BYLAYER
 62
     1
 10
256.005253
 20
-165.783287
 30
0.0
 40
2.000000
 50
0.0
 51
44.999943
  0
LINE
  8
0
  6
BYLAYER
 62
     1
 10
258.005253
 20
-174.984611
 30
0.0
 11
252.058842
 21
-159.008446
 31
0.0
  0
LINE
  8
0
  6
BYLAYER
 62
     1
 10
247.827885
 20
-154.777519
 30
0.0
 11
257.419438
 21
-164.369102
 31
0.0
  0
ARC
  8
0
  6
BYLAYER
 62
     1
 10
260.005223
 20
-187.563744
 30
0.0
 40
1.999969
 50
180.000000
 51
266.999972
  0
LINE
  8
0
  6
BYLAYER
 62
     1
 10
259.900548
 20
-189.560936
 30
0.0
 11
267.984746
 21
-189.984628
 31
0.0
  0
LINE
  8
0
  6
BYLAYER
 62
     1
 10
258.005253
 20
-187.563683
 30
0.0
 11
258.005253
 21
-109.984642
 31
0.0
  0
LINE
  8
0
  6
BYLAYER
 62
     1
 10
267.984746
 20
-189.984628
 30
0.0
 11
267.984746
 21
-109.984642
 31
0.0
  0
LINE
  8
0
  6
BYLAYER
 62
     1
 10
246.984746
 20
-154.484611
 30
0.0
 11
246.984642
 21
-109.984642
 31
0.0
  0
LINE
  8
0
  6
BYLAYER
 62
     1
 10
719.984642
 20
-227.984704
 30
0.0
 11
721.484642
 21
-228.037102
 31
0.0
  0
LINE
  8
0
  6
BYLAYER
 62
     1
 10
716.984642
 20
-212.484704
 30
0.0
 11
716.984642
 21
-167.116069
 31
0.0
  0
LINE
  8
0
  6
BYLAYER
 62
     1
 10
719.984642
 20
-169.909595
 30
0.0
 11
719.984642
 21
-227.984704
 31
0.0
  0
LINE
  8
0
  6
BYLAYER
 62
     1
 10
717.484642
 20
-212.984704
 30
0.0
 11
716.984642
 21
-212.484704
 31
0.0
  0
LINE
  8
0
  6
BYLAYER
 62
     1
 10
719.984642
 20
-212.984704
 30
0.0
 11
717.484642
 21
-212.984704
 31
0.0
  0
LINE
  8
0
  6
BYLAYER
 62
     1
 10
721.484642
 20
-206.984704
 30
0.0
 11
721.484642
 21
-244.984704
 31
0.0
  0
LINE
  8
0
  6
BYLAYER
 62
     1
 10
824.484642
 20
-244.984704
 30
0.0
 11
824.484642
 21
-206.984704
 31
0.0
  0
LINE
  8
0
  6
BYLAYER
 62
     1
 10
828.984642
 20
-212.484704
 30
0.0
 11
828.984642
 21
-167.116069
 31
0.0
  0
LINE
  8
0
  6
BYLAYER
 62
     1
 10
825.984642
 20
-169.909595
 30
0.0
 11
825.984642
 21
-227.984704
 31
0.0
  0
LINE
  8
0
  6
BYLAYER
 62
     1
 10
739.484642
 20
-244.984704
 30
0.0
 11
739.484642
 21
-182.632767
 31
0.0
  0
LINE
  8
0
  6
BYLAYER
 62
     1
 10
806.484642
 20
-182.632767
 30
0.0
 11
806.484642
 21
-244.984704
 31
0.0
  0
LINE
  8
0
  6
BYLAYER
 62
     1
 10
721.484642
 20
-244.984704
 30
0.0
 11
739.484642
 21
-244.984704
 31
0.0
  0
CIRCLE
  8
0
  6
BYLAYER
 62
     1
 10
730.484642
 20
-222.984704
 30
0.0
 40
4.25
  0
LINE
  8
0
  6
BYLAYER
 62
     1
 10
824.484642
 20
-244.984704
 30
0.0
 11
806.484642
 21
-244.984704
 31
0.0
  0
CIRCLE
  8
0
  6
BYLAYER
 62
     1
 10
815.484642
 20
-222.984704
 30
0.0
 40
4.25
  0
LINE
  8
0
  6
BYLAYER
 62
     1
 10
825.984642
 20
-227.984704
 30
0.0
 11
824.484642
 21
-228.037102
 31
0.0
  0
LINE
  8
0
  6
BYLAYER
 62
     1
 10
825.984642
 20
-212.984704
 30
0.0
 11
828.484642
 21
-212.984704
 31
0.0
  0
LINE
  8
0
  6
BYLAYER
 62
     1
 10
828.484642
 20
-212.984704
 30
0.0
 11
828.984642
 21
-212.484704
 31
0.0
  0
LINE
  8
0
  6
BYLAYER
 62
     1
 10
722.484642
 20
-205.984642
 30
0.0
 11
722.484642
 21
-172.030996
 31
0.0
  0
LINE
  8
0
  6
BYLAYER
 62
     1
 10
739.484642
 20
-205.984642
 30
0.0
 11
722.484642
 21
-205.984642
 31
0.0
  0
LINE
  8
0
  6
BYLAYER
 62
     1
 10
739.484642
 20
-206.984704
 30
0.0
 11
721.484642
 21
-206.984704
 31
0.0
  0
LINE
  8
0
  6
BYLAYER
 62
     1
 10
721.484642
 20
-206.984704
 30
0.0
 11
722.484642
 21
-205.984642
 31
0.0
  0
LINE
  8
0
  6
BYLAYER
 62
     1
 10
823.484642
 20
-205.984642
 30
0.0
 11
823.484642
 21
-172.030996
 31
0.0
  0
LINE
  8
0
  6
BYLAYER
 62
     1
 10
806.484642
 20
-206.984704
 30
0.0
 11
824.484642
 21
-206.984704
 31
0.0
  0
LINE
  8
0
  6
BYLAYER
 62
     1
 10
823.484642
 20
-205.984642
 30
0.0
 11
806.484642
 21
-205.984642
 31
0.0
  0
LINE
  8
0
  6
BYLAYER
 62
     1
 10
824.484642
 20
-206.984704
 30
0.0
 11
823.484642
 21
-205.984642
 31
0.0
  0
LINE
  8
0
  6
BYLAYER
 62
     1
 10
739.484642
 20
-240.984704
 30
0.0
 11
806.484642
 21
-240.984704
 31
0.0
  0
ARC
  8
0
  6
BYLAYER
 62
     7
 10
772.984642
 20
-109.984642
 30
0.0
 40
80.000000
 50
117.548546
 51
422.451454
  0
LINE
  8
0
  6
BYLAYER
 62
     7
 10
815.315152
 20
-165.043069
 30
0.0
 11
818.310875
 21
-168.038792
 31
0.0
  0
ARC
  8
0
  6
BYLAYER
 62
     7
 10
816.543083
 20
-169.806557
 30
0.0
 40
2.499997
 50
306.059684
 51
405.000001
  0
ARC
  8
0
  6
BYLAYER
 62
     7
 10
772.984642
 20
-109.984642
 30
0.0
 40
76.500000
 50
273.680298
 51
306.059684
  0
ARC
  8
0
  6
BYLAYER
 62
     7
 10
777.734642
 20
-183.832039
 30
0.0
 40
2.500000
 50
180.000000
 51
273.680293
  0
LINE
  8
0
  6
BYLAYER
 62
     7
 10
775.234642
 20
-179.398185
 30
0.0
 11
775.234642
 21
-183.832039
 31
0.0
  0
LINE
  8
0
  6
BYLAYER
 62
     7
 10
730.654132
 20
-165.043069
 30
0.0
 11
727.658409
 21
-168.038792
 31
0.0
  0
ARC
  8
0
  6
BYLAYER
 62
     7
 10
729.426201
 20
-169.806557
 30
0.0
 40
2.499997
 50
135.000000
 51
233.940317
  0
ARC
  8
0
  6
BYLAYER
 62
     7
 10
772.984642
 20
-109.984642
 30
0.0
 40
76.5
 50
233.940317
 51
266.319704
  0
ARC
  8
0
  6
BYLAYER
 62
     7
 10
768.234642
 20
-183.832039
 30
0.0
 40
2.5
 50
266.319704
 51
359.999983
  0
LINE
  8
0
  6
BYLAYER
 62
     7
 10
770.734642
 20
-179.398185
 30
0.0
 11
770.734642
 21
-183.832039
 31
0.0
  0
LINE
  8
0
  6
BYLAYER
 62
     7
 10
828.043070
 20
-67.654133
 30
0.0
 11
831.038780
 21
-64.658424
 31
0.0
  0
ARC
  8
0
  6
BYLAYER
 62
     7
 10
832.806541
 20
-66.426189
 30
0.0
 40
2.500000
 50
36.059693
 51
135.000000
  0
ARC
  8
0
  6
BYLAYER
 62
     7
 10
772.984642
 20
-109.984642
 30
0.0
 40
76.500000
 50
3.680307
 51
36.059693
  0
ARC
  8
0
  6
BYLAYER
 62
     7
 10
846.832054
 20
-105.234637
 30
0.0
 40
2.500000
 50
270.0
 51
363.680306
  0
LINE
  8
0
  6
BYLAYER
 62
     7
 10
842.398185
 20
-107.734637
 30
0.0
 11
846.832054
 21
-107.734637
 31
0.0
  0
LINE
  8
0
  6
BYLAYER
 62
     7
 10
828.043074
 20
-152.315147
 30
0.0
 11
831.038780
 21
-155.310852
 31
0.0
  0
ARC
  8
0
  6
BYLAYER
 62
     7
 10
832.806541
 20
-153.543087
 30
0.0
 40
2.499995
 50
225.000010
 51
323.940327
  0
ARC
  8
0
  6
BYLAYER
 62
     7
 10
772.984642
 20
-109.984642
 30
0.0
 40
76.5
 50
323.940327
 51
356.319713
  0
ARC
  8
0
  6
BYLAYER
 62
     7
 10
846.832054
 20
-114.734641
 30
0.0
 40
2.5
 50
356.319713
 51
449.999989
  0
LINE
  8
0
  6
BYLAYER
 62
     7
 10
842.398185
 20
-112.234641
 30
0.0
 11
846.832054
 21
-112.234641
 31
0.0
  0
LINE
  8
0
  6
BYLAYER
 62
     7
 10
730.654130
 20
-54.926217
 30
0.0
 11
727.658409
 21
-51.930496
 31
0.0
  0
ARC
  8
0
  6
BYLAYER
 62
     7
 10
729.426170
 20
-50.162731
 30
0.0
 40
2.499997
 50
126.059706
 51
225.000010
  0
ARC
  8
0
  6
BYLAYER
 62
     7
 10
772.984642
 20
-109.984642
 30
0.0
 40
76.500000
 50
118.924725
 51
126.059706
  0
LINE
  8
0
  6
BYLAYER
 62
     7
 10
815.315138
 20
-54.926204
 30
0.0
 11
818.310844
 21
-51.930489
 31
0.0
  0
ARC
  8
0
  6
BYLAYER
 62
     7
 10
816.543083
 20
-50.162724
 30
0.0
 40
2.499997
 50
315.000019
 51
413.940336
  0
ARC
  8
0
  6
BYLAYER
 62
     7
 10
772.984642
 20
-109.984642
 30
0.0
 40
76.500000
 50
53.940336
 51
61.075275
  0
LINE
  8
0
  6
BYLAYER
 62
     7
 10
717.926212
 20
-152.315149
 30
0.0
 11
714.930504
 21
-155.310856
 31
0.0
  0
ARC
  8
0
  6
BYLAYER
 62
     7
 10
713.162743
 20
-153.543091
 30
0.0
 40
2.499997
 50
216.059688
 51
314.999992
  0
ARC
  8
0
  6
BYLAYER
 62
     7
 10
772.984642
 20
-109.984642
 30
0.0
 40
76.500000
 50
183.680329
 51
216.059688
  0
ARC
  8
0
  6
BYLAYER
 62
     7
 10
699.137230
 20
-114.734645
 30
0.0
 40
2.500000
 50
90.0
 51
183.680313
  0
LINE
  8
0
  6
BYLAYER
 62
     7
 10
703.571099
 20
-112.234645
 30
0.0
 11
699.137230
 21
-112.234645
 31
0.0
  0
LINE
  8
0
  6
BYLAYER
 62
     7
 10
717.926212
 20
-67.654135
 30
0.0
 11
714.930504
 21
-64.658428
 31
0.0
  0
ARC
  8
0
  6
BYLAYER
 62
     7
 10
713.162743
 20
-66.426193
 30
0.0
 40
2.499997
 50
45.000001
 51
143.940322
  0
ARC
  8
0
  6
BYLAYER
 62
     7
 10
772.984642
 20
-109.984642
 30
0.0
 40
76.5
 50
143.940322
 51
176.319681
  0
ARC
  8
0
  6
BYLAYER
 62
     7
 10
699.137230
 20
-105.234641
 30
0.0
 40
2.5
 50
176.319681
 51
269.999973
  0
LINE
  8
0
  6
BYLAYER
 62
     7
 10
703.571099
 20
-107.734641
 30
0.0
 11
699.137230
 21
-107.734641
 31
0.0
  0
LINE
  8
0
  6
BYLAYER
 62
     7
 10
735.984642
 20
-32.984642
 30
0.0
 11
735.984642
 21
-51.211327
 31
0.0
  0
LINE
  8
0
  6
BYLAYER
 62
     7
 10
809.984642
 20
-32.984642
 30
0.0
 11
809.984642
 21
-51.211327
 31
0.0
  0
LINE
  8
0
  6
BYLAYER
 62
     7
 10
735.984642
 20
-37.484642
 30
0.0
 11
738.984642
 21
-42.680778
 31
0.0
  0
LINE
  8
0
  6
BYLAYER
 62
     7
 10
738.984642
 20
-42.680778
 30
0.0
 11
738.984642
 21
-49.426385
 31
0.0
  0
LINE
  8
0
  6
BYLAYER
 62
     7
 10
809.984642
 20
-37.484642
 30
0.0
 11
806.984642
 21
-42.680778
 31
0.0
  0
LINE
  8
0
  6
BYLAYER
 62
     7
 10
806.984642
 20
-42.680778
 30
0.0
 11
806.984642
 21
-49.426385
 31
0.0
  0
LINE
  8
0
  6
BYLAYER
 62
     7
 10
773.984642
 20
-98.984642
 30
0.0
 11
781.984642
 21
-98.984642
 31
0.0
  0
LINE
  8
0
  6
BYLAYER
 62
     7
 10
773.984642
 20
-80.984642
 30
0.0
 11
773.984642
 21
-88.984642
 31
0.0
  0
LINE
  8
0
  6
BYLAYER
 62
     7
 10
773.984642
 20
-70.984642
 30
0.0
 11
773.984642
 21
-78.984642
 31
0.0
  0
LINE
  8
0
  6
BYLAYER
 62
     7
 10
773.984642
 20
-90.984642
 30
0.0
 11
773.984642
 21
-98.984642
 31
0.0
  0
LINE
  8
0
  6
BYLAYER
 62
     7
 10
781.984642
 20
-78.984642
 30
0.0
 11
781.984642
 21
-70.984642
 31
0.0
  0
LINE
  8
0
  6
BYLAYER
 62
     7
 10
783.984642
 20
-78.984642
 30
0.0
 11
783.984642
 21
-70.984642
 31
0.0
  0
LINE
  8
0
  6
BYLAYER
 62
     7
 10
773.984642
 20
-90.984642
 30
0.0
 11
781.984642
 21
-90.984642
 31
0.0
  0
LINE
  8
0
  6
BYLAYER
 62
     7
 10
773.984642
 20
-88.984642
 30
0.0
 11
781.984642
 21
-88.984642
 31
0.0
  0
LINE
  8
0
  6
BYLAYER
 62
     7
 10
773.984642
 20
-80.984642
 30
0.0
 11
781.984642
 21
-80.984642
 31
0.0
  0
LINE
  8
0
  6
BYLAYER
 62
     7
 10
783.984642
 20
-78.984642
 30
0.0
 11
791.822641
 21
-78.984642
 31
0.0
  0
LINE
  8
0
  6
BYLAYER
 62
     7
 10
773.984642
 20
-78.984642
 30
0.0
 11
781.984642
 21
-78.984642
 31
0.0
  0
LINE
  8
0
  6
BYLAYER
 62
     7
 10
783.984642
 20
-70.984642
 30
0.0
 11
791.822641
 21
-70.984642
 31
0.0
  0
LINE
  8
0
  6
BYLAYER
 62
     7
 10
773.984642
 20
-70.984642
 30
0.0
 11
781.984642
 21
-70.984642
 31
0.0
  0
LINE
  8
0
  6
BYLAYER
 62
     7
 10
791.822641
 20
-78.984642
 30
0.0
 11
791.822641
 21
-70.984642
 31
0.0
  0
LINE
  8
0
  6
BYLAYER
 62
     7
 10
781.984642
 20
-98.984642
 30
0.0
 11
781.984642
 21
-90.984642
 31
0.0
  0
LINE
  8
0
  6
BYLAYER
 62
     7
 10
781.984642
 20
-88.984642
 30
0.0
 11
781.984642
 21
-80.984642
 31
0.0
  0
LINE
  8
0
  6
BYLAYER
 62
     7
 10
783.984642
 20
-98.984642
 30
0.0
 11
791.984642
 21
-98.984642
 31
0.0
  0
LINE
  8
0
  6
BYLAYER
 62
     7
 10
783.984642
 20
-80.984642
 30
0.0
 11
783.984642
 21
-88.984642
 31
0.0
  0
LINE
  8
0
  6
BYLAYER
 62
     7
 10
783.984642
 20
-90.984642
 30
0.0
 11
783.984642
 21
-98.984642
 31
0.0
  0
LINE
  8
0
  6
BYLAYER
 62
     7
 10
783.984642
 20
-90.984642
 30
0.0
 11
791.984642
 21
-90.984642
 31
0.0
  0
LINE
  8
0
  6
BYLAYER
 62
     7
 10
783.984642
 20
-88.984642
 30
0.0
 11
791.984642
 21
-88.984642
 31
0.0
  0
LINE
  8
0
  6
BYLAYER
 62
     7
 10
783.984642
 20
-80.984642
 30
0.0
 11
791.984642
 21
-80.984642
 31
0.0
  0
LINE
  8
0
  6
BYLAYER
 62
     7
 10
791.984642
 20
-98.984642
 30
0.0
 11
791.984642
 21
-90.984642
 31
0.0
  0
LINE
  8
0
  6
BYLAYER
 62
     7
 10
791.984642
 20
-88.984642
 30
0.0
 11
791.984642
 21
-80.984642
 31
0.0
  0
LINE
  8
0
  6
BYLAYER
 62
     7
 10
793.984642
 20
-98.984642
 30
0.0
 11
801.984642
 21
-98.984642
 31
0.0
  0
LINE
  8
0
  6
BYLAYER
 62
     7
 10
793.984642
 20
-80.984642
 30
0.0
 11
793.984642
 21
-88.984642
 31
0.0
  0
LINE
  8
0
  6
BYLAYER
 62
     7
 10
793.984642
 20
-90.984642
 30
0.0
 11
793.984642
 21
-98.984642
 31
0.0
  0
LINE
  8
0
  6
BYLAYER
 62
     7
 10
793.984642
 20
-90.984642
 30
0.0
 11
801.984642
 21
-90.984642
 31
0.0
  0
LINE
  8
0
  6
BYLAYER
 62
     7
 10
793.984642
 20
-88.984642
 30
0.0
 11
801.984642
 21
-88.984642
 31
0.0
  0
LINE
  8
0
  6
BYLAYER
 62
     7
 10
793.984642
 20
-80.984642
 30
0.0
 11
801.984642
 21
-80.984642
 31
0.0
  0
LINE
  8
0
  6
BYLAYER
 62
     7
 10
801.984642
 20
-98.984642
 30
0.0
 11
801.984642
 21
-90.984642
 31
0.0
  0
LINE
  8
0
  6
BYLAYER
 62
     7
 10
801.984642
 20
-88.984642
 30
0.0
 11
801.984642
 21
-80.984642
 31
0.0
  0
LINE
  8
0
  6
BYLAYER
 62
     7
 10
783.984642
 20
-108.984642
 30
0.0
 11
791.984642
 21
-108.984642
 31
0.0
  0
LINE
  8
0
  6
BYLAYER
 62
     7
 10
783.984642
 20
-100.984642
 30
0.0
 11
783.984642
 21
-108.984642
 31
0.0
  0
LINE
  8
0
  6
BYLAYER
 62
     7
 10
783.984642
 20
-100.984642
 30
0.0
 11
791.984642
 21
-100.984642
 31
0.0
  0
LINE
  8
0
  6
BYLAYER
 62
     7
 10
791.984642
 20
-108.984642
 30
0.0
 11
791.984642
 21
-100.984642
 31
0.0
  0
LINE
  8
0
  6
BYLAYER
 62
     7
 10
793.984642
 20
-108.984642
 30
0.0
 11
801.984642
 21
-108.984642
 31
0.0
  0
LINE
  8
0
  6
BYLAYER
 62
     7
 10
793.984642
 20
-100.984642
 30
0.0
 11
793.984642
 21
-108.984642
 31
0.0
  0
LINE
  8
0
  6
BYLAYER
 62
     7
 10
793.984642
 20
-100.984642
 30
0.0
 11
801.984642
 21
-100.984642
 31
0.0
  0
LINE
  8
0
  6
BYLAYER
 62
     7
 10
801.984642
 20
-108.984642
 30
0.0
 11
801.984642
 21
-100.984642
 31
0.0
  0
LINE
  8
0
  6
BYLAYER
 62
     7
 10
803.984642
 20
-98.984642
 30
0.0
 11
811.984642
 21
-98.984642
 31
0.0
  0
LINE
  8
0
  6
BYLAYER
 62
     7
 10
803.984642
 20
-90.984642
 30
0.0
 11
803.984642
 21
-98.984642
 31
0.0
  0
LINE
  8
0
  6
BYLAYER
 62
     7
 10
803.984642
 20
-90.984642
 30
0.0
 11
811.984642
 21
-90.984642
 31
0.0
  0
LINE
  8
0
  6
BYLAYER
 62
     7
 10
811.984642
 20
-98.984642
 30
0.0
 11
811.984642
 21
-90.984642
 31
0.0
  0
LINE
  8
0
  6
BYLAYER
 62
     7
 10
803.984642
 20
-108.984642
 30
0.0
 11
811.984642
 21
-108.984642
 31
0.0
  0
LINE
  8
0
  6
BYLAYER
 62
     7
 10
803.984642
 20
-100.984642
 30
0.0
 11
803.984642
 21
-108.984642
 31
0.0
  0
LINE
  8
0
  6
BYLAYER
 62
     7
 10
803.984642
 20
-100.984642
 30
0.0
 11
811.984642
 21
-100.984642
 31
0.0
  0
LINE
  8
0
  6
BYLAYER
 62
     7
 10
811.984642
 20
-108.984642
 30
0.0
 11
811.984642
 21
-100.984642
 31
0.0
  0
CIRCLE
  8
0
  6
BYLAYER
 62
     7
 10
772.984642
 20
-109.984642
 30
0.0
 40
4.0
  0
LINE
  8
0
  6
BYLAYER
 62
     7
 10
773.984642
 20
-60.984642
 30
0.0
 11
773.984642
 21
-68.984642
 31
0.0
  0
LINE
  8
0
  6
BYLAYER
 62
     7
 10
781.984642
 20
-68.984642
 30
0.0
 11
781.984642
 21
-60.984642
 31
0.0
  0
LINE
  8
0
  6
BYLAYER
 62
     7
 10
773.984642
 20
-68.984642
 30
0.0
 11
781.984642
 21
-68.984642
 31
0.0
  0
LINE
  8
0
  6
BYLAYER
 62
     7
 10
773.984642
 20
-60.984642
 30
0.0
 11
781.984642
 21
-60.984642
 31
0.0
  0
LINE
  8
0
  6
BYLAYER
 62
     7
 10
793.984642
 20
-70.984642
 30
0.0
 11
793.984642
 21
-78.984642
 31
0.0
  0
LINE
  8
0
  6
BYLAYER
 62
     7
 10
793.984642
 20
-78.984642
 30
0.0
 11
801.984642
 21
-78.984642
 31
0.0
  0
LINE
  8
0
  6
BYLAYER
 62
     7
 10
793.984642
 20
-70.984642
 30
0.0
 11
801.984642
 21
-70.984642
 31
0.0
  0
LINE
  8
0
  6
BYLAYER
 62
     7
 10
801.984642
 20
-78.984642
 30
0.0
 11
801.984642
 21
-70.984642
 31
0.0
  0
LINE
  8
0
  6
BYLAYER
 62
     7
 10
813.984642
 20
-108.984642
 30
0.0
 11
821.984642
 21
-108.984642
 31
0.0
  0
LINE
  8
0
  6
BYLAYER
 62
     7
 10
813.984642
 20
-100.984642
 30
0.0
 11
813.984642
 21
-108.984642
 31
0.0
  0
LINE
  8
0
  6
BYLAYER
 62
     7
 10
813.984642
 20
-100.984642
 30
0.0
 11
821.984642
 21
-100.984642
 31
0.0
  0
LINE
  8
0
  6
BYLAYER
 62
     7
 10
821.984642
 20
-108.984642
 30
0.0
 11
821.984642
 21
-100.984642
 31
0.0
  0
LINE
  8
0
  6
BYLAYER
 62
     7
 10
803.984642
 20
-88.984642
 30
0.0
 11
811.984642
 21
-88.984642
 31
0.0
  0
LINE
  8
0
  6
BYLAYER
 62
     7
 10
803.984642
 20
-80.984642
 30
0.0
 11
803.984642
 21
-88.984642
 31
0.0
  0
LINE
  8
0
  6
BYLAYER
 62
     7
 10
803.984642
 20
-80.984642
 30
0.0
 11
811.984642
 21
-80.984642
 31
0.0
  0
LINE
  8
0
  6
BYLAYER
 62
     7
 10
811.984642
 20
-88.984642
 30
0.0
 11
811.984642
 21
-80.984642
 31
0.0
  0
CIRCLE
  8
0
  6
BYLAYER
 62
     7
 10
772.984642
 20
-109.984642
 30
0.0
 40
55.0
  0
CIRCLE
  8
0
  6
BYLAYER
 62
     7
 10
772.984642
 20
-109.984642
 30
0.0
 40
69.45
  0
CIRCLE
  8
0
  6
BYLAYER
 62
     7
 10
772.984642
 20
-109.984642
 30
0.0
 40
51.0
  0
LINE
  8
0
  6
BYLAYER
 62
     7
 10
773.984642
 20
-120.984642
 30
0.0
 11
781.984642
 21
-120.984642
 31
0.0
  0
LINE
  8
0
  6
BYLAYER
 62
     7
 10
773.984642
 20
-138.984642
 30
0.0
 11
773.984642
 21
-130.984642
 31
0.0
  0
LINE
  8
0
  6
BYLAYER
 62
     7
 10
773.984642
 20
-148.984642
 30
0.0
 11
773.984642
 21
-140.984642
 31
0.0
  0
LINE
  8
0
  6
BYLAYER
 62
     7
 10
773.984642
 20
-128.984642
 30
0.0
 11
773.984642
 21
-120.984642
 31
0.0
  0
LINE
  8
0
  6
BYLAYER
 62
     7
 10
781.984642
 20
-140.984642
 30
0.0
 11
781.984642
 21
-148.984642
 31
0.0
  0
LINE
  8
0
  6
BYLAYER
 62
     7
 10
783.984642
 20
-140.984642
 30
0.0
 11
783.984642
 21
-148.984642
 31
0.0
  0
LINE
  8
0
  6
BYLAYER
 62
     7
 10
773.984642
 20
-128.984642
 30
0.0
 11
781.984642
 21
-128.984642
 31
0.0
  0
LINE
  8
0
  6
BYLAYER
 62
     7
 10
773.984642
 20
-130.984642
 30
0.0
 11
781.984642
 21
-130.984642
 31
0.0
  0
LINE
  8
0
  6
BYLAYER
 62
     7
 10
773.984642
 20
-138.984642
 30
0.0
 11
781.984642
 21
-138.984642
 31
0.0
  0
LINE
  8
0
  6
BYLAYER
 62
     7
 10
783.984642
 20
-140.984642
 30
0.0
 11
791.822641
 21
-140.984642
 31
0.0
  0
LINE
  8
0
  6
BYLAYER
 62
     7
 10
773.984642
 20
-140.984642
 30
0.0
 11
781.984642
 21
-140.984642
 31
0.0
  0
LINE
  8
0
  6
BYLAYER
 62
     7
 10
783.984642
 20
-148.984642
 30
0.0
 11
791.822641
 21
-148.984642
 31
0.0
  0
LINE
  8
0
  6
BYLAYER
 62
     7
 10
773.984642
 20
-148.984642
 30
0.0
 11
781.984642
 21
-148.984642
 31
0.0
  0
LINE
  8
0
  6
BYLAYER
 62
     7
 10
791.822641
 20
-140.984642
 30
0.0
 11
791.822641
 21
-148.984642
 31
0.0
  0
LINE
  8
0
  6
BYLAYER
 62
     7
 10
781.984642
 20
-120.984642
 30
0.0
 11
781.984642
 21
-128.984642
 31
0.0
  0
LINE
  8
0
  6
BYLAYER
 62
     7
 10
781.984642
 20
-130.984642
 30
0.0
 11
781.984642
 21
-138.984642
 31
0.0
  0
LINE
  8
0
  6
BYLAYER
 62
     7
 10
783.984642
 20
-120.984642
 30
0.0
 11
791.984642
 21
-120.984642
 31
0.0
  0
LINE
  8
0
  6
BYLAYER
 62
     7
 10
783.984642
 20
-138.984642
 30
0.0
 11
783.984642
 21
-130.984642
 31
0.0
  0
LINE
  8
0
  6
BYLAYER
 62
     7
 10
783.984642
 20
-128.984642
 30
0.0
 11
783.984642
 21
-120.984642
 31
0.0
  0
LINE
  8
0
  6
BYLAYER
 62
     7
 10
783.984642
 20
-128.984642
 30
0.0
 11
791.984642
 21
-128.984642
 31
0.0
  0
LINE
  8
0
  6
BYLAYER
 62
     7
 10
783.984642
 20
-130.984642
 30
0.0
 11
791.984642
 21
-130.984642
 31
0.0
  0
LINE
  8
0
  6
BYLAYER
 62
     7
 10
783.984642
 20
-138.984642
 30
0.0
 11
791.984642
 21
-138.984642
 31
0.0
  0
LINE
  8
0
  6
BYLAYER
 62
     7
 10
791.984642
 20
-120.984642
 30
0.0
 11
791.984642
 21
-128.984642
 31
0.0
  0
LINE
  8
0
  6
BYLAYER
 62
     7
 10
791.984642
 20
-130.984642
 30
0.0
 11
791.984642
 21
-138.984642
 31
0.0
  0
LINE
  8
0
  6
BYLAYER
 62
     7
 10
793.984642
 20
-120.984642
 30
0.0
 11
801.984642
 21
-120.984642
 31
0.0
  0
LINE
  8
0
  6
BYLAYER
 62
     7
 10
793.984642
 20
-138.984642
 30
0.0
 11
793.984642
 21
-130.984642
 31
0.0
  0
LINE
  8
0
  6
BYLAYER
 62
     7
 10
793.984642
 20
-128.984642
 30
0.0
 11
793.984642
 21
-120.984642
 31
0.0
  0
LINE
  8
0
  6
BYLAYER
 62
     7
 10
793.984642
 20
-128.984642
 30
0.0
 11
801.984642
 21
-128.984642
 31
0.0
  0
LINE
  8
0
  6
BYLAYER
 62
     7
 10
793.984642
 20
-130.984642
 30
0.0
 11
801.984642
 21
-130.984642
 31
0.0
  0
LINE
  8
0
  6
BYLAYER
 62
     7
 10
793.984642
 20
-138.984642
 30
0.0
 11
801.984642
 21
-138.984642
 31
0.0
  0
LINE
  8
0
  6
BYLAYER
 62
     7
 10
801.984642
 20
-120.984642
 30
0.0
 11
801.984642
 21
-128.984642
 31
0.0
  0
LINE
  8
0
  6
BYLAYER
 62
     7
 10
801.984642
 20
-130.984642
 30
0.0
 11
801.984642
 21
-138.984642
 31
0.0
  0
LINE
  8
0
  6
BYLAYER
 62
     7
 10
783.984642
 20
-110.984642
 30
0.0
 11
791.984642
 21
-110.984642
 31
0.0
  0
LINE
  8
0
  6
BYLAYER
 62
     7
 10
783.984642
 20
-118.984642
 30
0.0
 11
783.984642
 21
-110.984642
 31
0.0
  0
LINE
  8
0
  6
BYLAYER
 62
     7
 10
783.984642
 20
-118.984642
 30
0.0
 11
791.984642
 21
-118.984642
 31
0.0
  0
LINE
  8
0
  6
BYLAYER
 62
     7
 10
791.984642
 20
-110.984642
 30
0.0
 11
791.984642
 21
-118.984642
 31
0.0
  0
LINE
  8
0
  6
BYLAYER
 62
     7
 10
793.984642
 20
-110.984642
 30
0.0
 11
801.984642
 21
-110.984642
 31
0.0
  0
LINE
  8
0
  6
BYLAYER
 62
     7
 10
793.984642
 20
-118.984642
 30
0.0
 11
793.984642
 21
-110.984642
 31
0.0
  0
LINE
  8
0
  6
BYLAYER
 62
     7
 10
793.984642
 20
-118.984642
 30
0.0
 11
801.984642
 21
-118.984642
 31
0.0
  0
LINE
  8
0
  6
BYLAYER
 62
     7
 10
801.984642
 20
-110.984642
 30
0.0
 11
801.984642
 21
-118.984642
 31
0.0
  0
LINE
  8
0
  6
BYLAYER
 62
     7
 10
803.984642
 20
-120.984642
 30
0.0
 11
811.984642
 21
-120.984642
 31
0.0
  0
LINE
  8
0
  6
BYLAYER
 62
     7
 10
803.984642
 20
-128.984642
 30
0.0
 11
803.984642
 21
-120.984642
 31
0.0
  0
LINE
  8
0
  6
BYLAYER
 62
     7
 10
803.984642
 20
-128.984642
 30
0.0
 11
811.984642
 21
-128.984642
 31
0.0
  0
LINE
  8
0
  6
BYLAYER
 62
     7
 10
811.984642
 20
-120.984642
 30
0.0
 11
811.984642
 21
-128.984642
 31
0.0
  0
LINE
  8
0
  6
BYLAYER
 62
     7
 10
803.984642
 20
-110.984642
 30
0.0
 11
811.984642
 21
-110.984642
 31
0.0
  0
LINE
  8
0
  6
BYLAYER
 62
     7
 10
803.984642
 20
-118.984642
 30
0.0
 11
803.984642
 21
-110.984642
 31
0.0
  0
LINE
  8
0
  6
BYLAYER
 62
     7
 10
803.984642
 20
-118.984642
 30
0.0
 11
811.984642
 21
-118.984642
 31
0.0
  0
LINE
  8
0
  6
BYLAYER
 62
     7
 10
811.984642
 20
-110.984642
 30
0.0
 11
811.984642
 21
-118.984642
 31
0.0
  0
LINE
  8
0
  6
BYLAYER
 62
     7
 10
773.984642
 20
-158.984642
 30
0.0
 11
773.984642
 21
-150.984642
 31
0.0
  0
LINE
  8
0
  6
BYLAYER
 62
     7
 10
781.984642
 20
-150.984642
 30
0.0
 11
781.984642
 21
-158.984642
 31
0.0
  0
LINE
  8
0
  6
BYLAYER
 62
     7
 10
773.984642
 20
-150.984642
 30
0.0
 11
781.984642
 21
-150.984642
 31
0.0
  0
LINE
  8
0
  6
BYLAYER
 62
     7
 10
773.984642
 20
-158.984642
 30
0.0
 11
781.984642
 21
-158.984642
 31
0.0
  0
LINE
  8
0
  6
BYLAYER
 62
     7
 10
793.984642
 20
-148.984642
 30
0.0
 11
793.984642
 21
-140.984642
 31
0.0
  0
LINE
  8
0
  6
BYLAYER
 62
     7
 10
793.984642
 20
-140.984642
 30
0.0
 11
801.984642
 21
-140.984642
 31
0.0
  0
LINE
  8
0
  6
BYLAYER
 62
     7
 10
793.984642
 20
-148.984642
 30
0.0
 11
801.984642
 21
-148.984642
 31
0.0
  0
LINE
  8
0
  6
BYLAYER
 62
     7
 10
801.984642
 20
-140.984642
 30
0.0
 11
801.984642
 21
-148.984642
 31
0.0
  0
LINE
  8
0
  6
BYLAYER
 62
     7
 10
813.984642
 20
-110.984642
 30
0.0
 11
821.984642
 21
-110.984642
 31
0.0
  0
LINE
  8
0
  6
BYLAYER
 62
     7
 10
813.984642
 20
-118.984642
 30
0.0
 11
813.984642
 21
-110.984642
 31
0.0
  0
LINE
  8
0
  6
BYLAYER
 62
     7
 10
813.984642
 20
-118.984642
 30
0.0
 11
821.984642
 21
-118.984642
 31
0.0
  0
LINE
  8
0
  6
BYLAYER
 62
     7
 10
821.984642
 20
-110.984642
 30
0.0
 11
821.984642
 21
-118.984642
 31
0.0
  0
LINE
  8
0
  6
BYLAYER
 62
     7
 10
803.984642
 20
-130.984642
 30
0.0
 11
811.984642
 21
-130.984642
 31
0.0
  0
LINE
  8
0
  6
BYLAYER
 62
     7
 10
803.984642
 20
-138.984642
 30
0.0
 11
803.984642
 21
-130.984642
 31
0.0
  0
LINE
  8
0
  6
BYLAYER
 62
     7
 10
803.984642
 20
-138.984642
 30
0.0
 11
811.984642
 21
-138.984642
 31
0.0
  0
LINE
  8
0
  6
BYLAYER
 62
     7
 10
811.984642
 20
-130.984642
 30
0.0
 11
811.984642
 21
-138.984642
 31
0.0
  0
LINE
  8
0
  6
BYLAYER
 62
     7
 10
771.984642
 20
-98.984642
 30
0.0
 11
763.984642
 21
-98.984642
 31
0.0
  0
LINE
  8
0
  6
BYLAYER
 62
     7
 10
771.984642
 20
-80.984642
 30
0.0
 11
771.984642
 21
-88.984642
 31
0.0
  0
LINE
  8
0
  6
BYLAYER
 62
     7
 10
771.984642
 20
-70.984642
 30
0.0
 11
771.984642
 21
-78.984642
 31
0.0
  0
LINE
  8
0
  6
BYLAYER
 62
     7
 10
771.984642
 20
-90.984642
 30
0.0
 11
771.984642
 21
-98.984642
 31
0.0
  0
LINE
  8
0
  6
BYLAYER
 62
     7
 10
763.984642
 20
-78.984642
 30
0.0
 11
763.984642
 21
-70.984642
 31
0.0
  0
LINE
  8
0
  6
BYLAYER
 62
     7
 10
761.984642
 20
-78.984642
 30
0.0
 11
761.984642
 21
-70.984642
 31
0.0
  0
LINE
  8
0
  6
BYLAYER
 62
     7
 10
771.984642
 20
-90.984642
 30
0.0
 11
763.984642
 21
-90.984642
 31
0.0
  0
LINE
  8
0
  6
BYLAYER
 62
     7
 10
771.984642
 20
-88.984642
 30
0.0
 11
763.984642
 21
-88.984642
 31
0.0
  0
LINE
  8
0
  6
BYLAYER
 62
     7
 10
771.984642
 20
-80.984642
 30
0.0
 11
763.984642
 21
-80.984642
 31
0.0
  0
LINE
  8
0
  6
BYLAYER
 62
     7
 10
761.984642
 20
-78.984642
 30
0.0
 11
754.146643
 21
-78.984642
 31
0.0
  0
LINE
  8
0
  6
BYLAYER
 62
     7
 10
771.984642
 20
-78.984642
 30
0.0
 11
763.984642
 21
-78.984642
 31
0.0
  0
LINE
  8
0
  6
BYLAYER
 62
     7
 10
761.984642
 20
-70.984642
 30
0.0
 11
754.146643
 21
-70.984642
 31
0.0
  0
LINE
  8
0
  6
BYLAYER
 62
     7
 10
771.984642
 20
-70.984642
 30
0.0
 11
763.984642
 21
-70.984642
 31
0.0
  0
LINE
  8
0
  6
BYLAYER
 62
     7
 10
754.146643
 20
-78.984642
 30
0.0
 11
754.146643
 21
-70.984642
 31
0.0
  0
LINE
  8
0
  6
BYLAYER
 62
     7
 10
763.984642
 20
-98.984642
 30
0.0
 11
763.984642
 21
-90.984642
 31
0.0
  0
LINE
  8
0
  6
BYLAYER
 62
     7
 10
763.984642
 20
-88.984642
 30
0.0
 11
763.984642
 21
-80.984642
 31
0.0
  0
LINE
  8
0
  6
BYLAYER
 62
     7
 10
761.984642
 20
-98.984642
 30
0.0
 11
753.984642
 21
-98.984642
 31
0.0
  0
LINE
  8
0
  6
BYLAYER
 62
     7
 10
761.984642
 20
-80.984642
 30
0.0
 11
761.984642
 21
-88.984642
 31
0.0
  0
LINE
  8
0
  6
BYLAYER
 62
     7
 10
761.984642
 20
-90.984642
 30
0.0
 11
761.984642
 21
-98.984642
 31
0.0
  0
LINE
  8
0
  6
BYLAYER
 62
     7
 10
761.984642
 20
-90.984642
 30
0.0
 11
753.984642
 21
-90.984642
 31
0.0
  0
LINE
  8
0
  6
BYLAYER
 62
     7
 10
761.984642
 20
-88.984642
 30
0.0
 11
753.984642
 21
-88.984642
 31
0.0
  0
LINE
  8
0
  6
BYLAYER
 62
     7
 10
761.984642
 20
-80.984642
 30
0.0
 11
753.984642
 21
-80.984642
 31
0.0
  0
LINE
  8
0
  6
BYLAYER
 62
     7
 10
753.984642
 20
-98.984642
 30
0.0
 11
753.984642
 21
-90.984642
 31
0.0
  0
LINE
  8
0
  6
BYLAYER
 62
     7
 10
753.984642
 20
-88.984642
 30
0.0
 11
753.984642
 21
-80.984642
 31
0.0
  0
LINE
  8
0
  6
BYLAYER
 62
     7
 10
751.984642
 20
-98.984642
 30
0.0
 11
743.984642
 21
-98.984642
 31
0.0
  0
LINE
  8
0
  6
BYLAYER
 62
     7
 10
751.984642
 20
-80.984642
 30
0.0
 11
751.984642
 21
-88.984642
 31
0.0
  0
LINE
  8
0
  6
BYLAYER
 62
     7
 10
751.984642
 20
-90.984642
 30
0.0
 11
751.984642
 21
-98.984642
 31
0.0
  0
LINE
  8
0
  6
BYLAYER
 62
     7
 10
751.984642
 20
-90.984642
 30
0.0
 11
743.984642
 21
-90.984642
 31
0.0
  0
LINE
  8
0
  6
BYLAYER
 62
     7
 10
751.984642
 20
-88.984642
 30
0.0
 11
743.984642
 21
-88.984642
 31
0.0
  0
LINE
  8
0
  6
BYLAYER
 62
     7
 10
751.984642
 20
-80.984642
 30
0.0
 11
743.984642
 21
-80.984642
 31
0.0
  0
LINE
  8
0
  6
BYLAYER
 62
     7
 10
743.984642
 20
-98.984642
 30
0.0
 11
743.984642
 21
-90.984642
 31
0.0
  0
LINE
  8
0
  6
BYLAYER
 62
     7
 10
743.984642
 20
-88.984642
 30
0.0
 11
743.984642
 21
-80.984642
 31
0.0
  0
LINE
  8
0
  6
BYLAYER
 62
     7
 10
761.984642
 20
-108.984642
 30
0.0
 11
753.984642
 21
-108.984642
 31
0.0
  0
LINE
  8
0
  6
BYLAYER
 62
     7
 10
761.984642
 20
-100.984642
 30
0.0
 11
761.984642
 21
-108.984642
 31
0.0
  0
LINE
  8
0
  6
BYLAYER
 62
     7
 10
761.984642
 20
-100.984642
 30
0.0
 11
753.984642
 21
-100.984642
 31
0.0
  0
LINE
  8
0
  6
BYLAYER
 62
     7
 10
753.984642
 20
-108.984642
 30
0.0
 11
753.984642
 21
-100.984642
 31
0.0
  0
LINE
  8
0
  6
BYLAYER
 62
     7
 10
751.984642
 20
-108.984642
 30
0.0
 11
743.984642
 21
-108.984642
 31
0.0
  0
LINE
  8
0
  6
BYLAYER
 62
     7
 10
751.984642
 20
-100.984642
 30
0.0
 11
751.984642
 21
-108.984642
 31
0.0
  0
LINE
  8
0
  6
BYLAYER
 62
     7
 10
751.984642
 20
-100.984642
 30
0.0
 11
743.984642
 21
-100.984642
 31
0.0
  0
LINE
  8
0
  6
BYLAYER
 62
     7
 10
743.984642
 20
-108.984642
 30
0.0
 11
743.984642
 21
-100.984642
 31
0.0
  0
LINE
  8
0
  6
BYLAYER
 62
     7
 10
741.984642
 20
-98.984642
 30
0.0
 11
733.984642
 21
-98.984642
 31
0.0
  0
LINE
  8
0
  6
BYLAYER
 62
     7
 10
741.984642
 20
-90.984642
 30
0.0
 11
741.984642
 21
-98.984642
 31
0.0
  0
LINE
  8
0
  6
BYLAYER
 62
     7
 10
741.984642
 20
-90.984642
 30
0.0
 11
733.984642
 21
-90.984642
 31
0.0
  0
LINE
  8
0
  6
BYLAYER
 62
     7
 10
733.984642
 20
-98.984642
 30
0.0
 11
733.984642
 21
-90.984642
 31
0.0
  0
LINE
  8
0
  6
BYLAYER
 62
     7
 10
741.984642
 20
-108.984642
 30
0.0
 11
733.984642
 21
-108.984642
 31
0.0
  0
LINE
  8
0
  6
BYLAYER
 62
     7
 10
741.984642
 20
-100.984642
 30
0.0
 11
741.984642
 21
-108.984642
 31
0.0
  0
LINE
  8
0
  6
BYLAYER
 62
     7
 10
741.984642
 20
-100.984642
 30
0.0
 11
733.984642
 21
-100.984642
 31
0.0
  0
LINE
  8
0
  6
BYLAYER
 62
     7
 10
733.984642
 20
-108.984642
 30
0.0
 11
733.984642
 21
-100.984642
 31
0.0
  0
LINE
  8
0
  6
BYLAYER
 62
     7
 10
771.984642
 20
-60.984642
 30
0.0
 11
771.984642
 21
-68.984642
 31
0.0
  0
LINE
  8
0
  6
BYLAYER
 62
     7
 10
763.984642
 20
-68.984642
 30
0.0
 11
763.984642
 21
-60.984642
 31
0.0
  0
LINE
  8
0
  6
BYLAYER
 62
     7
 10
771.984642
 20
-68.984642
 30
0.0
 11
763.984642
 21
-68.984642
 31
0.0
  0
LINE
  8
0
  6
BYLAYER
 62
     7
 10
771.984642
 20
-60.984642
 30
0.0
 11
763.984642
 21
-60.984642
 31
0.0
  0
LINE
  8
0
  6
BYLAYER
 62
     7
 10
751.984642
 20
-70.984642
 30
0.0
 11
751.984642
 21
-78.984642
 31
0.0
  0
LINE
  8
0
  6
BYLAYER
 62
     7
 10
751.984642
 20
-78.984642
 30
0.0
 11
743.984642
 21
-78.984642
 31
0.0
  0
LINE
  8
0
  6
BYLAYER
 62
     7
 10
751.984642
 20
-70.984642
 30
0.0
 11
743.984642
 21
-70.984642
 31
0.0
  0
LINE
  8
0
  6
BYLAYER
 62
     7
 10
743.984642
 20
-78.984642
 30
0.0
 11
743.984642
 21
-70.984642
 31
0.0
  0
LINE
  8
0
  6
BYLAYER
 62
     7
 10
731.984642
 20
-108.984642
 30
0.0
 11
723.984642
 21
-108.984642
 31
0.0
  0
LINE
  8
0
  6
BYLAYER
 62
     7
 10
731.984642
 20
-100.984642
 30
0.0
 11
731.984642
 21
-108.984642
 31
0.0
  0
LINE
  8
0
  6
BYLAYER
 62
     7
 10
731.984642
 20
-100.984642
 30
0.0
 11
723.984642
 21
-100.984642
 31
0.0
  0
LINE
  8
0
  6
BYLAYER
 62
     7
 10
723.984642
 20
-108.984642
 30
0.0
 11
723.984642
 21
-100.984642
 31
0.0
  0
LINE
  8
0
  6
BYLAYER
 62
     7
 10
741.984642
 20
-88.984642
 30
0.0
 11
733.984642
 21
-88.984642
 31
0.0
  0
LINE
  8
0
  6
BYLAYER
 62
     7
 10
741.984642
 20
-80.984642
 30
0.0
 11
741.984642
 21
-88.984642
 31
0.0
  0
LINE
  8
0
  6
BYLAYER
 62
     7
 10
741.984642
 20
-80.984642
 30
0.0
 11
733.984642
 21
-80.984642
 31
0.0
  0
LINE
  8
0
  6
BYLAYER
 62
     7
 10
733.984642
 20
-88.984642
 30
0.0
 11
733.984642
 21
-80.984642
 31
0.0
  0
LINE
  8
0
  6
BYLAYER
 62
     7
 10
771.984642
 20
-120.984642
 30
0.0
 11
763.984642
 21
-120.984642
 31
0.0
  0
LINE
  8
0
  6
BYLAYER
 62
     7
 10
771.984642
 20
-138.984642
 30
0.0
 11
771.984642
 21
-130.984642
 31
0.0
  0
LINE
  8
0
  6
BYLAYER
 62
     7
 10
771.984642
 20
-148.984642
 30
0.0
 11
771.984642
 21
-140.984642
 31
0.0
  0
LINE
  8
0
  6
BYLAYER
 62
     7
 10
771.984642
 20
-128.984642
 30
0.0
 11
771.984642
 21
-120.984642
 31
0.0
  0
LINE
  8
0
  6
BYLAYER
 62
     7
 10
763.984642
 20
-140.984642
 30
0.0
 11
763.984642
 21
-148.984642
 31
0.0
  0
LINE
  8
0
  6
BYLAYER
 62
     7
 10
761.984642
 20
-140.984642
 30
0.0
 11
761.984642
 21
-148.984642
 31
0.0
  0
LINE
  8
0
  6
BYLAYER
 62
     7
 10
771.984642
 20
-128.984642
 30
0.0
 11
763.984642
 21
-128.984642
 31
0.0
  0
LINE
  8
0
  6
BYLAYER
 62
     7
 10
771.984642
 20
-130.984642
 30
0.0
 11
763.984642
 21
-130.984642
 31
0.0
  0
LINE
  8
0
  6
BYLAYER
 62
     7
 10
771.984642
 20
-138.984642
 30
0.0
 11
763.984642
 21
-138.984642
 31
0.0
  0
LINE
  8
0
  6
BYLAYER
 62
     7
 10
761.984642
 20
-140.984642
 30
0.0
 11
754.146643
 21
-140.984642
 31
0.0
  0
LINE
  8
0
  6
BYLAYER
 62
     7
 10
771.984642
 20
-140.984642
 30
0.0
 11
763.984642
 21
-140.984642
 31
0.0
  0
LINE
  8
0
  6
BYLAYER
 62
     7
 10
761.984642
 20
-148.984642
 30
0.0
 11
754.146643
 21
-148.984642
 31
0.0
  0
LINE
  8
0
  6
BYLAYER
 62
     7
 10
771.984642
 20
-148.984642
 30
0.0
 11
763.984642
 21
-148.984642
 31
0.0
  0
LINE
  8
0
  6
BYLAYER
 62
     7
 10
754.146643
 20
-140.984642
 30
0.0
 11
754.146643
 21
-148.984642
 31
0.0
  0
LINE
  8
0
  6
BYLAYER
 62
     7
 10
763.984642
 20
-120.984642
 30
0.0
 11
763.984642
 21
-128.984642
 31
0.0
  0
LINE
  8
0
  6
BYLAYER
 62
     7
 10
763.984642
 20
-130.984642
 30
0.0
 11
763.984642
 21
-138.984642
 31
0.0
  0
LINE
  8
0
  6
BYLAYER
 62
     7
 10
761.984642
 20
-120.984642
 30
0.0
 11
753.984642
 21
-120.984642
 31
0.0
  0
LINE
  8
0
  6
BYLAYER
 62
     7
 10
761.984642
 20
-138.984642
 30
0.0
 11
761.984642
 21
-130.984642
 31
0.0
  0
LINE
  8
0
  6
BYLAYER
 62
     7
 10
761.984642
 20
-128.984642
 30
0.0
 11
761.984642
 21
-120.984642
 31
0.0
  0
LINE
  8
0
  6
BYLAYER
 62
     7
 10
761.984642
 20
-128.984642
 30
0.0
 11
753.984642
 21
-128.984642
 31
0.0
  0
LINE
  8
0
  6
BYLAYER
 62
     7
 10
761.984642
 20
-130.984642
 30
0.0
 11
753.984642
 21
-130.984642
 31
0.0
  0
LINE
  8
0
  6
BYLAYER
 62
     7
 10
761.984642
 20
-138.984642
 30
0.0
 11
753.984642
 21
-138.984642
 31
0.0
  0
LINE
  8
0
  6
BYLAYER
 62
     7
 10
753.984642
 20
-120.984642
 30
0.0
 11
753.984642
 21
-128.984642
 31
0.0
  0
LINE
  8
0
  6
BYLAYER
 62
     7
 10
753.984642
 20
-130.984642
 30
0.0
 11
753.984642
 21
-138.984642
 31
0.0
  0
LINE
  8
0
  6
BYLAYER
 62
     7
 10
751.984642
 20
-120.984642
 30
0.0
 11
743.984642
 21
-120.984642
 31
0.0
  0
LINE
  8
0
  6
BYLAYER
 62
     7
 10
751.984642
 20
-138.984642
 30
0.0
 11
751.984642
 21
-130.984642
 31
0.0
  0
LINE
  8
0
  6
BYLAYER
 62
     7
 10
751.984642
 20
-128.984642
 30
0.0
 11
751.984642
 21
-120.984642
 31
0.0
  0
LINE
  8
0
  6
BYLAYER
 62
     7
 10
751.984642
 20
-128.984642
 30
0.0
 11
743.984642
 21
-128.984642
 31
0.0
  0
LINE
  8
0
  6
BYLAYER
 62
     7
 10
751.984642
 20
-130.984642
 30
0.0
 11
743.984642
 21
-130.984642
 31
0.0
  0
LINE
  8
0
  6
BYLAYER
 62
     7
 10
751.984642
 20
-138.984642
 30
0.0
 11
743.984642
 21
-138.984642
 31
0.0
  0
LINE
  8
0
  6
BYLAYER
 62
     7
 10
743.984642
 20
-120.984642
 30
0.0
 11
743.984642
 21
-128.984642
 31
0.0
  0
LINE
  8
0
  6
BYLAYER
 62
     7
 10
743.984642
 20
-130.984642
 30
0.0
 11
743.984642
 21
-138.984642
 31
0.0
  0
LINE
  8
0
  6
BYLAYER
 62
     7
 10
761.984642
 20
-110.984642
 30
0.0
 11
753.984642
 21
-110.984642
 31
0.0
  0
LINE
  8
0
  6
BYLAYER
 62
     7
 10
761.984642
 20
-118.984642
 30
0.0
 11
761.984642
 21
-110.984642
 31
0.0
  0
LINE
  8
0
  6
BYLAYER
 62
     7
 10
761.984642
 20
-118.984642
 30
0.0
 11
753.984642
 21
-118.984642
 31
0.0
  0
LINE
  8
0
  6
BYLAYER
 62
     7
 10
753.984642
 20
-110.984642
 30
0.0
 11
753.984642
 21
-118.984642
 31
0.0
  0
LINE
  8
0
  6
BYLAYER
 62
     7
 10
751.984642
 20
-110.984642
 30
0.0
 11
743.984642
 21
-110.984642
 31
0.0
  0
LINE
  8
0
  6
BYLAYER
 62
     7
 10
751.984642
 20
-118.984642
 30
0.0
 11
751.984642
 21
-110.984642
 31
0.0
  0
LINE
  8
0
  6
BYLAYER
 62
     7
 10
751.984642
 20
-118.984642
 30
0.0
 11
743.984642
 21
-118.984642
 31
0.0
  0
LINE
  8
0
  6
BYLAYER
 62
     7
 10
743.984642
 20
-110.984642
 30
0.0
 11
743.984642
 21
-118.984642
 31
0.0
  0
LINE
  8
0
  6
BYLAYER
 62
     7
 10
741.984642
 20
-120.984642
 30
0.0
 11
733.984642
 21
-120.984642
 31
0.0
  0
LINE
  8
0
  6
BYLAYER
 62
     7
 10
741.984642
 20
-128.984642
 30
0.0
 11
741.984642
 21
-120.984642
 31
0.0
  0
LINE
  8
0
  6
BYLAYER
 62
     7
 10
741.984642
 20
-128.984642
 30
0.0
 11
733.984642
 21
-128.984642
 31
0.0
  0
LINE
  8
0
  6
BYLAYER
 62
     7
 10
733.984642
 20
-120.984642
 30
0.0
 11
733.984642
 21
-128.984642
 31
0.0
  0
LINE
  8
0
  6
BYLAYER
 62
     7
 10
741.984642
 20
-110.984642
 30
0.0
 11
733.984642
 21
-110.984642
 31
0.0
  0
LINE
  8
0
  6
BYLAYER
 62
     7
 10
741.984642
 20
-118.984642
 30
0.0
 11
741.984642
 21
-110.984642
 31
0.0
  0
LINE
  8
0
  6
BYLAYER
 62
     7
 10
741.984642
 20
-118.984642
 30
0.0
 11
733.984642
 21
-118.984642
 31
0.0
  0
LINE
  8
0
  6
BYLAYER
 62
     7
 10
733.984642
 20
-110.984642
 30
0.0
 11
733.984642
 21
-118.984642
 31
0.0
  0
LINE
  8
0
  6
BYLAYER
 62
     7
 10
771.984642
 20
-158.984642
 30
0.0
 11
771.984642
 21
-150.984642
 31
0.0
  0
LINE
  8
0
  6
BYLAYER
 62
     7
 10
763.984642
 20
-150.984642
 30
0.0
 11
763.984642
 21
-158.984642
 31
0.0
  0
LINE
  8
0
  6
BYLAYER
 62
     7
 10
771.984642
 20
-150.984642
 30
0.0
 11
763.984642
 21
-150.984642
 31
0.0
  0
LINE
  8
0
  6
BYLAYER
 62
     7
 10
771.984642
 20
-158.984642
 30
0.0
 11
763.984642
 21
-158.984642
 31
0.0
  0
LINE
  8
0
  6
BYLAYER
 62
     7
 10
751.984642
 20
-148.984642
 30
0.0
 11
751.984642
 21
-140.984642
 31
0.0
  0
LINE
  8
0
  6
BYLAYER
 62
     7
 10
751.984642
 20
-140.984642
 30
0.0
 11
743.984642
 21
-140.984642
 31
0.0
  0
LINE
  8
0
  6
BYLAYER
 62
     7
 10
751.984642
 20
-148.984642
 30
0.0
 11
743.984642
 21
-148.984642
 31
0.0
  0
LINE
  8
0
  6
BYLAYER
 62
     7
 10
743.984642
 20
-140.984642
 30
0.0
 11
743.984642
 21
-148.984642
 31
0.0
  0
LINE
  8
0
  6
BYLAYER
 62
     7
 10
731.984642
 20
-110.984642
 30
0.0
 11
723.984642
 21
-110.984642
 31
0.0
  0
LINE
  8
0
  6
BYLAYER
 62
     7
 10
731.984642
 20
-118.984642
 30
0.0
 11
731.984642
 21
-110.984642
 31
0.0
  0
LINE
  8
0
  6
BYLAYER
 62
     7
 10
731.984642
 20
-118.984642
 30
0.0
 11
723.984642
 21
-118.984642
 31
0.0
  0
LINE
  8
0
  6
BYLAYER
 62
     7
 10
723.984642
 20
-110.984642
 30
0.0
 11
723.984642
 21
-118.984642
 31
0.0
  0
LINE
  8
0
  6
BYLAYER
 62
     7
 10
741.984642
 20
-130.984642
 30
0.0
 11
733.984642
 21
-130.984642
 31
0.0
  0
LINE
  8
0
  6
BYLAYER
 62
     7
 10
741.984642
 20
-138.984642
 30
0.0
 11
741.984642
 21
-130.984642
 31
0.0
  0
LINE
  8
0
  6
BYLAYER
 62
     7
 10
741.984642
 20
-138.984642
 30
0.0
 11
733.984642
 21
-138.984642
 31
0.0
  0
LINE
  8
0
  6
BYLAYER
 62
     7
 10
733.984642
 20
-130.984642
 30
0.0
 11
733.984642
 21
-138.984642
 31
0.0
  0
ARC
  8
0
  6
BYLAYER
 62
     7
 10
808.734642
 20
-22.484642
 30
0.0
 40
1.500000
 50
180.000000
 51
265.219808
  0
ARC
  8
0
  6
BYLAYER
 62
     7
 10
737.234642
 20
-22.484642
 30
0.0
 40
1.500000
 50
274.780192
 51
360.000000
  0
ARC
  8
0
  6
BYLAYER
 62
     7
 10
745.230304
 20
-22.484642
 30
0.0
 40
1.5
 50
270.0
 51
360.0
  0
LINE
  8
0
  6
BYLAYER
 62
     7
 10
807.234642
 20
-22.484642
 30
0.0
 11
807.234642
 21
-0.984642
 31
0.0
  0
LINE
  8
0
  6
BYLAYER
 62
     7
 10
805.734642
 20
0.515358
 30
0.0
 11
740.234642
 21
0.515358
 31
0.0
  0
ARC
  8
0
  6
BYLAYER
 62
     7
 10
805.734642
 20
-0.984642
 30
0.0
 40
1.5
 50
0.0
 51
90.0
  0
ARC
  8
0
  6
BYLAYER
 62
     7
 10
740.234642
 20
-0.984642
 30
0.0
 40
1.5
 50
90.0
 51
180.0
  0
LINE
  8
0
  6
BYLAYER
 62
     7
 10
738.734642
 20
-22.484642
 30
0.0
 11
738.734642
 21
-0.984642
 31
0.0
  0
LINE
  8
0
  6
BYLAYER
 62
     7
 10
746.730304
 20
-22.484642
 30
0.0
 11
746.730304
 21
-0.984642
 31
0.0
  0
ARC
  8
0
  6
BYLAYER
 62
     7
 10
748.230304
 20
-0.984642
 30
0.0
 40
1.5
 50
90.0
 51
180.0
  0
ARC
  8
0
  6
BYLAYER
 62
     7
 10
797.738980
 20
-0.984642
 30
0.0
 40
1.5
 50
0.0
 51
90.0
  0
LINE
  8
0
  6
BYLAYER
 62
     7
 10
752.390989
 20
0.515358
 30
0.0
 11
752.883536
 21
-13.589340
 31
0.0
  0
ARC
  8
0
  6
BYLAYER
 62
     7
 10
755.881708
 20
-13.484642
 30
0.0
 40
3.000000
 50
182.0
 51
270.0
  0
LINE
  8
0
  6
BYLAYER
 62
     7
 10
763.085748
 20
-13.589340
 30
0.0
 11
763.578295
 21
0.515358
 31
0.0
  0
ARC
  8
0
  6
BYLAYER
 62
     7
 10
760.087576
 20
-13.484642
 30
0.0
 40
3.000000
 50
270.0
 51
358.0
  0
LINE
  8
0
  6
BYLAYER
 62
     7
 10
778.085748
 20
-13.589340
 30
0.0
 11
778.578295
 21
0.515358
 31
0.0
  0
ARC
  8
0
  6
BYLAYER
 62
     7
 10
775.087576
 20
-13.484642
 30
0.0
 40
3.000000
 50
270.0
 51
358.0
  0
LINE
  8
0
  6
BYLAYER
 62
     7
 10
793.085748
 20
-13.589340
 30
0.0
 11
793.578295
 21
0.515358
 31
0.0
  0
ARC
  8
0
  6
BYLAYER
 62
     7
 10
790.087576
 20
-13.484642
 30
0.0
 40
3.000000
 50
270.0
 51
358.0
  0
LINE
  8
0
  6
BYLAYER
 62
     7
 10
782.390989
 20
0.515358
 30
0.0
 11
782.883536
 21
-13.589340
 31
0.0
  0
ARC
  8
0
  6
BYLAYER
 62
     7
 10
785.881708
 20
-13.484642
 30
0.0
 40
3.000000
 50
182.0
 51
270.0
  0
LINE
  8
0
  6
BYLAYER
 62
     7
 10
767.390989
 20
0.515358
 30
0.0
 11
767.883536
 21
-13.589340
 31
0.0
  0
ARC
  8
0
  6
BYLAYER
 62
     7
 10
770.881708
 20
-13.484642
 30
0.0
 40
3.000000
 50
182.0
 51
270.0
  0
LINE
  8
0
  6
BYLAYER
 62
     7
 10
785.881708
 20
-16.484642
 30
0.0
 11
790.087576
 21
-16.484642
 31
0.0
  0
LINE
  8
0
  6
BYLAYER
 62
     7
 10
770.881708
 20
-16.484642
 30
0.0
 11
775.087576
 21
-16.484642
 31
0.0
  0
LINE
  8
0
  6
BYLAYER
 62
     7
 10
755.881708
 20
-16.484642
 30
0.0
 11
760.087576
 21
-16.484642
 31
0.0
  0
LINE
  8
0
  6
BYLAYER
 62
     7
 10
767.425910
 20
-0.484642
 30
0.0
 11
778.543374
 21
-0.484642
 31
0.0
  0
LINE
  8
0
  6
BYLAYER
 62
     7
 10
782.425910
 20
-0.484642
 30
0.0
 11
793.543374
 21
-0.484642
 31
0.0
  0
LINE
  8
0
  6
BYLAYER
 62
     7
 10
752.425910
 20
-0.484642
 30
0.0
 11
763.543374
 21
-0.484642
 31
0.0
  0
LINE
  8
0
  6
BYLAYER
 62
     7
 10
799.238980
 20
-0.984642
 30
0.0
 11
799.238980
 21
-22.484642
 31
0.0
  0
ARC
  8
0
  6
BYLAYER
 62
     7
 10
737.484642
 20
-25.474207
 30
0.0
 40
1.500000
 50
94.780192
 51
180.000000
  0
LINE
  8
0
  6
BYLAYER
 62
     7
 10
737.484642
 20
-23.984642
 30
0.0
 11
808.734642
 21
-23.984642
 31
0.0
  0
ARC
  8
0
  6
BYLAYER
 62
     7
 10
808.484642
 20
-25.474207
 30
0.0
 40
1.500000
 50
0.0
 51
85.219808
  0
LINE
  8
0
  6
BYLAYER
 62
     7
 10
809.984642
 20
-32.984642
 30
0.0
 11
809.984642
 21
-25.474207
 31
0.0
  0
ARC
  8
0
  6
BYLAYER
 62
     7
 10
800.738980
 20
-22.484642
 30
0.0
 40
1.5
 50
180.000000
 51
270.000000
  0
LINE
  8
0
  6
BYLAYER
 62
     7
 10
809.984642
 20
-30.984581
 30
0.0
 11
735.984642
 21
-30.984581
 31
0.0
  0
LINE
  8
0
  6
BYLAYER
 62
     7
 10
735.984642
 20
-25.474207
 30
0.0
 11
735.984642
 21
-32.984642
 31
0.0
  0
LINE
  8
0
  6
BYLAYER
 62
     7
 10
735.984642
 20
-32.984642
 30
0.0
 11
809.984642
 21
-32.984642
 31
0.0
  0
LINE
  8
0
  6
BYLAYER
 62
     7
 10
735.984642
 20
-392.984642
 30
0.0
 11
735.984642
 21
-399.055099
 31
0.0
  0
LINE
  8
0
  6
BYLAYER
 62
     7
 10
809.984642
 20
-392.984642
 30
0.0
 11
809.984642
 21
-399.055099
 31
0.0
  0
LINE
  8
0
  6
BYLAYER
 62
     7
 10
735.984642
 20
-397.484642
 30
0.0
 11
736.683413
 21
-398.694946
 31
0.0
  0
LINE
  8
0
  6
BYLAYER
 62
     7
 10
809.984642
 20
-397.484642
 30
0.0
 11
809.285871
 21
-398.694946
 31
0.0
  0
ARC
  8
0
  6
BYLAYER
 62
     7
 10
808.734642
 20
-382.484642
 30
0.0
 40
1.500000
 50
180.000000
 51
265.219808
  0
ARC
  8
0
  6
BYLAYER
 62
     7
 10
737.234642
 20
-382.484642
 30
0.0
 40
1.500000
 50
274.780192
 51
360.000000
  0
ARC
  8
0
  6
BYLAYER
 62
     7
 10
745.230304
 20
-382.484642
 30
0.0
 40
1.5
 50
270.0
 51
360.0
  0
LINE
  8
0
  6
BYLAYER
 62
     7
 10
807.234642
 20
-382.484642
 30
0.0
 11
807.234642
 21
-360.984642
 31
0.0
  0
LINE
  8
0
  6
BYLAYER
 62
     7
 10
805.734642
 20
-359.484642
 30
0.0
 11
740.234642
 21
-359.484642
 31
0.0
  0
ARC
  8
0
  6
BYLAYER
 62
     7
 10
805.734642
 20
-360.984642
 30
0.0
 40
1.5
 50
0.0
 51
90.0
  0
ARC
  8
0
  6
BYLAYER
 62
     7
 10
740.234642
 20
-360.984642
 30
0.0
 40
1.5
 50
90.0
 51
180.0
  0
LINE
  8
0
  6
BYLAYER
 62
     7
 10
738.734642
 20
-382.484642
 30
0.0
 11
738.734642
 21
-360.984642
 31
0.0
  0
LINE
  8
0
  6
BYLAYER
 62
     7
 10
746.730304
 20
-382.484642
 30
0.0
 11
746.730304
 21
-360.984642
 31
0.0
  0
ARC
  8
0
  6
BYLAYER
 62
     7
 10
748.230304
 20
-360.984642
 30
0.0
 40
1.5
 50
90.0
 51
180.0
  0
ARC
  8
0
  6
BYLAYER
 62
     7
 10
797.738980
 20
-360.984642
 30
0.0
 40
1.5
 50
0.0
 51
90.0
  0
LINE
  8
0
  6
BYLAYER
 62
     7
 10
752.390989
 20
-359.484642
 30
0.0
 11
752.883536
 21
-373.589340
 31
0.0
  0
ARC
  8
0
  6
BYLAYER
 62
     7
 10
755.881708
 20
-373.484642
 30
0.0
 40
3.000000
 50
182.0
 51
270.0
  0
LINE
  8
0
  6
BYLAYER
 62
     7
 10
763.085748
 20
-373.589340
 30
0.0
 11
763.578295
 21
-359.484642
 31
0.0
  0
ARC
  8
0
  6
BYLAYER
 62
     7
 10
760.087576
 20
-373.484642
 30
0.0
 40
3.000000
 50
270.0
 51
358.0
  0
LINE
  8
0
  6
BYLAYER
 62
     7
 10
778.085748
 20
-373.589340
 30
0.0
 11
778.578295
 21
-359.484642
 31
0.0
  0
ARC
  8
0
  6
BYLAYER
 62
     7
 10
775.087576
 20
-373.484642
 30
0.0
 40
3.000000
 50
270.0
 51
358.0
  0
LINE
  8
0
  6
BYLAYER
 62
     7
 10
793.085748
 20
-373.589340
 30
0.0
 11
793.578295
 21
-359.484642
 31
0.0
  0
ARC
  8
0
  6
BYLAYER
 62
     7
 10
790.087576
 20
-373.484642
 30
0.0
 40
3.000000
 50
270.0
 51
358.0
  0
LINE
  8
0
  6
BYLAYER
 62
     7
 10
782.390989
 20
-359.484642
 30
0.0
 11
782.883536
 21
-373.589340
 31
0.0
  0
ARC
  8
0
  6
BYLAYER
 62
     7
 10
785.881708
 20
-373.484642
 30
0.0
 40
3.000000
 50
182.0
 51
270.0
  0
LINE
  8
0
  6
BYLAYER
 62
     7
 10
767.390989
 20
-359.484642
 30
0.0
 11
767.883536
 21
-373.589340
 31
0.0
  0
ARC
  8
0
  6
BYLAYER
 62
     7
 10
770.881708
 20
-373.484642
 30
0.0
 40
3.000000
 50
182.0
 51
270.0
  0
LINE
  8
0
  6
BYLAYER
 62
     7
 10
785.881708
 20
-376.484642
 30
0.0
 11
790.087576
 21
-376.484642
 31
0.0
  0
LINE
  8
0
  6
BYLAYER
 62
     7
 10
770.881708
 20
-376.484642
 30
0.0
 11
775.087576
 21
-376.484642
 31
0.0
  0
LINE
  8
0
  6
BYLAYER
 62
     7
 10
755.881708
 20
-376.484642
 30
0.0
 11
760.087576
 21
-376.484642
 31
0.0
  0
LINE
  8
0
  6
BYLAYER
 62
     7
 10
767.425910
 20
-360.484642
 30
0.0
 11
778.543374
 21
-360.484642
 31
0.0
  0
LINE
  8
0
  6
BYLAYER
 62
     7
 10
782.425910
 20
-360.484642
 30
0.0
 11
793.543374
 21
-360.484642
 31
0.0
  0
LINE
  8
0
  6
BYLAYER
 62
     7
 10
752.425910
 20
-360.484642
 30
0.0
 11
763.543374
 21
-360.484642
 31
0.0
  0
LINE
  8
0
  6
BYLAYER
 62
     7
 10
799.238980
 20
-360.984642
 30
0.0
 11
799.238980
 21
-382.484642
 31
0.0
  0
ARC
  8
0
  6
BYLAYER
 62
     7
 10
737.484642
 20
-385.474207
 30
0.0
 40
1.500000
 50
94.780192
 51
180.000000
  0
LINE
  8
0
  6
BYLAYER
 62
     7
 10
737.484642
 20
-383.984642
 30
0.0
 11
808.734642
 21
-383.984642
 31
0.0
  0
ARC
  8
0
  6
BYLAYER
 62
     7
 10
808.484642
 20
-385.474207
 30
0.0
 40
1.500000
 50
0.0
 51
85.219808
  0
LINE
  8
0
  6
BYLAYER
 62
     7
 10
809.984642
 20
-392.984642
 30
0.0
 11
809.984642
 21
-385.474207
 31
0.0
  0
ARC
  8
0
  6
BYLAYER
 62
     7
 10
800.738980
 20
-382.484642
 30
0.0
 40
1.5
 50
180.000000
 51
270.000000
  0
LINE
  8
0
  6
BYLAYER
 62
     7
 10
809.984642
 20
-390.984581
 30
0.0
 11
785.593780
 21
-390.984581
 31
0.0
  0
LINE
  8
0
  6
BYLAYER
 62
     7
 10
760.375504
 20
-390.984581
 30
0.0
 11
735.984642
 21
-390.984581
 31
0.0
  0
LINE
  8
0
  6
BYLAYER
 62
     7
 10
735.984642
 20
-385.474207
 30
0.0
 11
735.984642
 21
-392.984642
 31
0.0
  0
LINE
  8
0
  6
BYLAYER
 62
     7
 10
794.687176
 20
-392.984642
 30
0.0
 11
809.984642
 21
-392.984642
 31
0.0
  0
LINE
  8
0
  6
BYLAYER
 62
     7
 10
735.984642
 20
-392.984642
 30
0.0
 11
751.282108
 21
-392.984642
 31
0.0
  0
ARC
  8
0
  6
BYLAYER
 62
     1
 10
772.984642
 20
-469.984642
 30
0.0
 40
80.000000
 50
314.426996
 51
585.572996
  0
ARC
  8
0
  6
BYLAYER
 62
     1
 10
772.984642
 20
-469.984642
 30
0.0
 40
44.500000
 50
58.641991
 51
121.358009
  0
ARC
  8
0
  6
BYLAYER
 62
     1
 10
750.854260
 20
-425.958148
 30
0.0
 40
5.347772
 50
209.999468
 51
246.101469
  0
ARC
  8
0
  6
BYLAYER
 62
     1
 10
749.426390
 20
-429.180545
 30
0.0
 40
1.823193
 50
246.101469
 51
299.999581
  0
ARC
  8
0
  6
BYLAYER
 62
     1
 10
749.426405
 20
-429.180616
 30
0.0
 40
1.823124
 50
300.000280
 51
353.898517
  0
ARC
  8
0
  6
BYLAYER
 62
     1
 10
745.921552
 20
-428.805964
 30
0.0
 40
5.347945
 50
353.898517
 51
390.000131
  0
LINE
  8
0
  6
BYLAYER
 62
     1
 10
750.553001
 20
-426.131981
 30
0.0
 11
750.552996
 21
-426.131971
 31
0.0
  0
LINE
  8
0
  6
BYLAYER
 62
     1
 10
737.333153
 20
-413.234398
 30
0.0
 11
746.222923
 21
-428.631981
 31
0.0
  0
ARC
  8
0
  6
BYLAYER
 62
     1
 10
722.757614
 20
-421.649577
 30
0.0
 40
21.830334
 50
30.000065
 51
45.714638
  0
ARC
  8
0
  6
BYLAYER
 62
     1
 10
734.836697
 20
-409.265351
 30
0.0
 40
4.530817
 50
45.714638
 51
66.017201
  0
ARC
  8
0
  6
BYLAYER
 62
     1
 10
735.792069
 20
-407.117817
 30
0.0
 40
2.180362
 50
66.017201
 51
85.377599
  0
ARC
  8
0
  6
BYLAYER
 62
     1
 10
735.919966
 20
-405.786732
 30
0.0
 40
0.843542
 50
86.750528
 51
120.000280
  0
ARC
  8
0
  6
BYLAYER
 62
     1
 10
735.919968
 20
-405.786735
 30
0.0
 40
0.843545
 50
120.000280
 51
153.249860
  0
ARC
  8
0
  6
BYLAYER
 62
     1
 10
737.136685
 20
-406.341515
 30
0.0
 40
2.180380
 50
154.622714
 51
173.982948
  0
ARC
  8
0
  6
BYLAYER
 62
     1
 10
739.474201
 20
-406.587902
 30
0.0
 40
4.530845
 50
173.982948
 51
194.285443
  0
ARC
  8
0
  6
BYLAYER
 62
     1
 10
756.238815
 20
-402.319191
 30
0.0
 40
21.830388
 50
194.285443
 51
210.000040
  0
LINE
  8
0
  6
BYLAYER
 62
     1
 10
737.333153
 20
-413.234398
 30
0.0
 11
737.333158
 21
-413.234408
 31
0.0
  0
LINE
  8
0
  6
BYLAYER
 62
     1
 10
741.663231
 20
-410.734398
 30
0.0
 11
750.553001
 21
-426.131981
 31
0.0
  0
LINE
  8
0
  6
BYLAYER
 62
     1
 10
804.306053
 20
-410.734398
 30
0.0
 11
795.416283
 21
-426.131981
 31
0.0
  0
LINE
  8
0
  6
BYLAYER
 62
     1
 10
808.636131
 20
-413.234398
 30
0.0
 11
799.746361
 21
-428.631981
 31
0.0
  0
LINE
  8
0
  6
BYLAYER
 62
     1
 10
795.416288
 20
-426.131971
 30
0.0
 11
795.416283
 21
-426.131981
 31
0.0
  0
ARC
  8
0
  6
BYLAYER
 62
     1
 10
800.047732
 20
-428.805964
 30
0.0
 40
5.347945
 50
149.999869
 51
186.101483
  0
ARC
  8
0
  6
BYLAYER
 62
     1
 10
796.542879
 20
-429.180616
 30
0.0
 40
1.823124
 50
186.101483
 51
239.999720
  0
ARC
  8
0
  6
BYLAYER
 62
     1
 10
796.542894
 20
-429.180545
 30
0.0
 40
1.823193
 50
240.000419
 51
293.898530
  0
ARC
  8
0
  6
BYLAYER
 62
     1
 10
795.115024
 20
-425.958149
 30
0.0
 40
5.347772
 50
293.898530
 51
330.000528
  0
LINE
  8
0
  6
BYLAYER
 62
     1
 10
808.636125
 20
-413.234409
 30
0.0
 11
808.636131
 21
-413.234398
 31
0.0
  0
ARC
  8
0
  6
BYLAYER
 62
     1
 10
789.730469
 20
-402.319191
 30
0.0
 40
21.830388
 50
329.999960
 51
345.714557
  0
ARC
  8
0
  6
BYLAYER
 62
     1
 10
806.495083
 20
-406.587902
 30
0.0
 40
4.530845
 50
345.714557
 51
366.017052
  0
ARC
  8
0
  6
BYLAYER
 62
     1
 10
808.832599
 20
-406.341515
 30
0.0
 40
2.180380
 50
6.017052
 51
25.377286
  0
ARC
  8
0
  6
BYLAYER
 62
     1
 10
810.049316
 20
-405.786735
 30
0.0
 40
0.843545
 50
26.750140
 51
59.999720
  0
ARC
  8
0
  6
BYLAYER
 62
     1
 10
810.049318
 20
-405.786732
 30
0.0
 40
0.843542
 50
59.999720
 51
93.249472
  0
ARC
  8
0
  6
BYLAYER
 62
     1
 10
810.177215
 20
-407.117817
 30
0.0
 40
2.180362
 50
94.622401
 51
113.982799
  0
ARC
  8
0
  6
BYLAYER
 62
     1
 10
811.132587
 20
-409.265351
 30
0.0
 40
4.530817
 50
113.982799
 51
134.285362
  0
ARC
  8
0
  6
BYLAYER
 62
     1
 10
823.211670
 20
-421.649577
 30
0.0
 40
21.830334
 50
134.285362
 51
149.999935
  0
ARC
  8
0
  6
BYLAYER
 62
     1
 10
772.984642
 20
-469.984642
 30
0.0
 40
54.999992
 50
62.605248
 51
117.394751
  0
LINE
  8
0
  6
BYLAYER
 62
     1
 10
706.011742
 20
-472.484642
 30
0.0
 11
722.484642
 21
-472.484642
 31
0.0
  0
LINE
  8
0
  6
BYLAYER
 62
     1
 10
706.011742
 20
-467.484642
 30
0.0
 11
721.484642
 21
-467.484642
 31
0.0
  0
ARC
  8
0
  6
BYLAYER
 62
     1
 10
772.984642
 20
-469.984642
 30
0.0
 40
54.999966
 50
159.449674
 51
177.394752
  0
ARC
  8
0
  6
BYLAYER
 62
     1
 10
772.984642
 20
-469.984642
 30
0.0
 40
54.999966
 50
122.605256
 51
134.838979
  0
ARC
  8
0
  6
BYLAYER
 62
     1
 10
772.984642
 20
-469.984642
 30
0.0
 40
54.999962
 50
182.605258
 51
195.498589
  0
ARC
  8
0
  6
BYLAYER
 62
     1
 10
772.984642
 20
-469.984642
 30
0.0
 40
55.0
 50
344.501236
 51
357.394730
  0
LINE
  8
0
  6
BYLAYER
 62
     1
 10
839.957542
 20
-472.484642
 30
0.0
 11
823.484634
 21
-472.484642
 31
0.0
  0
ARC
  8
0
  6
BYLAYER
 62
     1
 10
839.957542
 20
-450.654380
 30
0.0
 40
21.830262
 50
270.0
 51
285.714656
  0
ARC
  8
0
  6
BYLAYER
 62
     1
 10
844.643027
 20
-467.307170
 30
0.0
 40
4.530863
 50
285.714656
 51
306.017171
  0
ARC
  8
0
  6
BYLAYER
 62
     1
 10
846.025168
 20
-469.208325
 30
0.0
 40
2.180395
 50
306.017171
 51
325.377515
  0
ARC
  8
0
  6
BYLAYER
 62
     1
 10
847.113986
 20
-469.984642
 30
0.0
 40
0.843556
 50
326.750415
 51
360.000000
  0
ARC
  8
0
  6
BYLAYER
 62
     1
 10
847.113986
 20
-469.984642
 30
0.0
 40
0.843556
 50
0.0
 51
33.249585
  0
ARC
  8
0
  6
BYLAYER
 62
     1
 10
846.025168
 20
-470.760959
 30
0.0
 40
2.180395
 50
34.622485
 51
53.982829
  0
ARC
  8
0
  6
BYLAYER
 62
     1
 10
844.643027
 20
-472.662114
 30
0.0
 40
4.530863
 50
53.982829
 51
74.285344
  0
ARC
  8
0
  6
BYLAYER
 62
     1
 10
839.957542
 20
-489.314904
 30
0.0
 40
21.830262
 50
74.285344
 51
90.0
  0
LINE
  8
0
  6
BYLAYER
 62
     1
 10
839.957542
 20
-467.484642
 30
0.0
 11
824.484634
 21
-467.484642
 31
0.0
  0
ARC
  8
0
  6
BYLAYER
 62
     1
 10
772.984642
 20
-469.984642
 30
0.0
 40
55.000023
 50
2.605235
 51
20.550509
  0
ARC
  8
0
  6
BYLAYER
 62
     1
 10
772.984642
 20
-469.984642
 30
0.0
 40
55.000023
 50
45.160961
 51
57.394715
  0
ARC
  8
0
  6
BYLAYER
 62
     1
 10
706.011742
 20
-489.314904
 30
0.0
 40
21.830262
 50
90.0
 51
105.714656
  0
ARC
  8
0
  6
BYLAYER
 62
     1
 10
701.326257
 20
-472.662114
 30
0.0
 40
4.530863
 50
105.714656
 51
126.017171
  0
ARC
  8
0
  6
BYLAYER
 62
     1
 10
699.944116
 20
-470.760959
 30
0.0
 40
2.180395
 50
126.017171
 51
145.377515
  0
ARC
  8
0
  6
BYLAYER
 62
     1
 10
698.855298
 20
-469.984642
 30
0.0
 40
0.843556
 50
146.750415
 51
180.000000
  0
LINE
  8
0
  6
BYLAYER
 62
     1
 10
698.011742
 20
-469.984628
 30
0.0
 11
698.011742
 21
-469.984642
 31
0.0
  0
ARC
  8
0
  6
BYLAYER
 62
     1
 10
698.855298
 20
-469.984642
 30
0.0
 40
0.843556
 50
180.000000
 51
213.249585
  0
ARC
  8
0
  6
BYLAYER
 62
     1
 10
699.944116
 20
-469.208325
 30
0.0
 40
2.180395
 50
214.622485
 51
233.982829
  0
ARC
  8
0
  6
BYLAYER
 62
     1
 10
701.326257
 20
-467.307170
 30
0.0
 40
4.530863
 50
233.982829
 51
254.285344
  0
ARC
  8
0
  6
BYLAYER
 62
     1
 10
706.011742
 20
-450.654380
 30
0.0
 40
21.830262
 50
254.285344
 51
270.000000
  0
LINE
  8
0
  6
BYLAYER
 62
     2
 10
719.661400
 20
-425.995140
 30
0.0
 11
721.633812
 21
-418.633812
 31
0.0
  0
LINE
  8
0
  6
BYLAYER
 62
     2
 10
721.633812
 20
-418.633812
 30
0.0
 11
728.995201
 21
-416.661339
 31
0.0
  0
LINE
  8
0
  6
BYLAYER
 62
     2
 10
728.995201
 20
-416.661339
 30
0.0
 11
734.384056
 21
-422.050255
 31
0.0
  0
LINE
  8
0
  6
BYLAYER
 62
     2
 10
734.384056
 20
-422.050255
 30
0.0
 11
732.411644
 21
-429.411583
 31
0.0
  0
LINE
  8
0
  6
BYLAYER
 62
     2
 10
732.411644
 20
-429.411583
 30
0.0
 11
726.540862
 21
-430.984650
 31
0.0
  0
LINE
  8
0
  6
BYLAYER
 62
     2
 10
724.650853
 20
-430.984650
 30
0.0
 11
719.661400
 21
-425.995140
 31
0.0
  0
LINE
  8
0
  6
BYLAYER
 62
     2
 10
826.307884
 20
-425.995140
 30
0.0
 11
824.335472
 21
-418.633812
 31
0.0
  0
LINE
  8
0
  6
BYLAYER
 62
     2
 10
824.335472
 20
-418.633812
 30
0.0
 11
816.974083
 21
-416.661339
 31
0.0
  0
LINE
  8
0
  6
BYLAYER
 62
     2
 10
816.974083
 20
-416.661339
 30
0.0
 11
811.585228
 21
-422.050255
 31
0.0
  0
LINE
  8
0
  6
BYLAYER
 62
     2
 10
811.585228
 20
-422.050255
 30
0.0
 11
813.557640
 21
-429.411583
 31
0.0
  0
LINE
  8
0
  6
BYLAYER
 62
     2
 10
813.557640
 20
-429.411583
 30
0.0
 11
819.428422
 21
-430.984650
 31
0.0
  0
LINE
  8
0
  6
BYLAYER
 62
     2
 10
821.318431
 20
-430.984650
 30
0.0
 11
826.307884
 21
-425.995140
 31
0.0
  0
LINE
  8
0
  6
BYLAYER
 62
     1
 10
267.984746
 20
-432.984656
 30
0.0
 11
267.984746
 21
-512.984642
 31
0.0
  0
ARC
  8
0
  6
BYLAYER
 62
     1
 10
256.005253
 20
-457.185997
 30
0.0
 40
2.0
 50
315.000057
 51
360.000000
  0
ARC
  8
0
  6
BYLAYER
 62
     1
 10
260.005223
 20
-435.405540
 30
0.0
 40
1.999969
 50
93.000028
 51
180.000000
  0
LINE
  8
0
  6
BYLAYER
 62
     1
 10
247.120793
 20
-468.484673
 30
0.0
 11
246.984746
 21
-468.484673
 31
0.0
  0
ARC
  8
0
  6
BYLAYER
 62
     1
 10
247.120793
 20
-467.484673
 30
0.0
 40
1.000000
 50
270.0
 51
315.000001
  0
LINE
  8
0
  6
BYLAYER
 62
     1
 10
246.984746
 20
-468.484673
 30
0.0
 11
246.984642
 21
-512.984642
 31
0.0
  0
LINE
  8
0
  6
BYLAYER
 62
     1
 10
258.005253
 20
-435.405601
 30
0.0
 11
258.005253
 21
-512.984642
 31
0.0
  0
LINE
  8
0
  6
BYLAYER
 62
     1
 10
258.005253
 20
-447.984673
 30
0.0
 11
252.058842
 21
-463.960838
 31
0.0
  0
LINE
  8
0
  6
BYLAYER
 62
     1
 10
247.827885
 20
-468.191765
 30
0.0
 11
257.419438
 21
-458.600182
 31
0.0
  0
LINE
  8
0
  6
BYLAYER
 62
     1
 10
259.900548
 20
-433.408348
 30
0.0
 11
267.984746
 21
-432.984656
 31
0.0
  0
LINE
  8
0
  6
BYLAYER
 62
     1
 10
247.120793
 20
-557.484611
 30
0.0
 11
246.984746
 21
-557.484611
 31
0.0
  0
ARC
  8
0
  6
BYLAYER
 62
     1
 10
247.120793
 20
-558.484611
 30
0.0
 40
1.000000
 50
44.999999
 51
90.000000
  0
ARC
  8
0
  6
BYLAYER
 62
     1
 10
256.005253
 20
-568.783287
 30
0.0
 40
2.0
 50
0.0
 51
44.999943
  0
LINE
  8
0
  6
BYLAYER
 62
     1
 10
258.005253
 20
-577.984611
 30
0.0
 11
252.058842
 21
-562.008446
 31
0.0
  0
LINE
  8
0
  6
BYLAYER
 62
     1
 10
247.827885
 20
-557.777519
 30
0.0
 11
257.419438
 21
-567.369102
 31
0.0
  0
ARC
  8
0
  6
BYLAYER
 62
     1
 10
260.005223
 20
-590.563744
 30
0.0
 40
1.999969
 50
180.000000
 51
266.999972
  0
LINE
  8
0
  6
BYLAYER
 62
     1
 10
259.900548
 20
-592.560936
 30
0.0
 11
267.984746
 21
-592.984628
 31
0.0
  0
LINE
  8
0
  6
BYLAYER
 62
     1
 10
258.005253
 20
-590.563683
 30
0.0
 11
258.005253
 21
-512.984642
 31
0.0
  0
LINE
  8
0
  6
BYLAYER
 62
     1
 10
267.984746
 20
-592.984628
 30
0.0
 11
267.984746
 21
-512.984642
 31
0.0
  0
LINE
  8
0
  6
BYLAYER
 62
     1
 10
246.984746
 20
-557.484611
 30
0.0
 11
246.984642
 21
-512.984642
 31
0.0
  0
ENDSEC
  0
EOF
