  0
SECTION
  2
HEADER
  9
$EXTMIN
 10
103.583618
 20
607.0
 30
0.0
  9
$EXTMAX
 10
849.385666
 20
0.0
 30
0.0
  0
ENDSEC
  0
SECTION
  2
TABLES
  0
ENDSEC
  0
SECTION
  2
BLOCKS
  0
ENDSEC
  0
SECTION
  2
ENTITIES
  0
LINE
  8
0
  6
BYLAYER
 62
     7
 10
311.963811
 20
-37.484581
 30
0.0
 11
306.163762
 21
-37.484581
 31
0.0
  0
ARC
  8
0
  6
BYLAYER
 62
     7
 10
311.963811
 20
-38.984581
 30
0.0
 40
1.500000
 50
0.0
 51
90.000003
  0
ARC
  8
0
  6
BYLAYER
 62
     7
 10
341.363820
 20
-38.984581
 30
0.0
 40
1.500000
 50
90.0
 51
180.000003
  0
LINE
  8
0
  6
BYLAYER
 62
     7
 10
350.963811
 20
-37.484581
 30
0.0
 11
341.363820
 21
-37.484581
 31
0.0
  0
ARC
  8
0
  6
BYLAYER
 62
     7
 10
350.963811
 20
-38.984581
 30
0.0
 40
1.5
 50
0.0
 51
90.000003
  0
LINE
  8
0
  6
BYLAYER
 62
     7
 10
386.163823
 20
-37.484520
 30
0.0
 11
380.363835
 21
-37.484520
 31
0.0
  0
ARC
  8
0
  6
BYLAYER
 62
     7
 10
380.363835
 20
-38.984520
 30
0.0
 40
1.500000
 50
90.0
 51
180.000003
  0
ARC
  8
0
  6
BYLAYER
 62
     7
 10
326.663823
 20
-46.484520
 30
0.0
 40
13.200012
 50
180.000000
 51
359.999995
  0
ARC
  8
0
  6
BYLAYER
 62
     7
 10
365.663823
 20
-46.484520
 30
0.0
 40
13.200012
 50
180.000000
 51
359.999995
  0
LINE
  8
0
  6
BYLAYER
 62
     7
 10
306.163762
 20
-42.984581
 30
0.0
 11
311.963811
 21
-42.984581
 31
0.0
  0
LINE
  8
0
  6
BYLAYER
 62
     7
 10
313.463811
 20
-38.984581
 30
0.0
 11
313.463811
 21
-44.484581
 31
0.0
  0
LINE
  8
0
  6
BYLAYER
 62
     7
 10
313.463811
 20
-44.484581
 30
0.0
 11
313.463811
 21
-46.484520
 31
0.0
  0
ARC
  8
0
  6
BYLAYER
 62
     7
 10
311.963811
 20
-44.484581
 30
0.0
 40
1.500000
 50
0.0
 51
90.000003
  0
ARC
  8
0
  6
BYLAYER
 62
     7
 10
341.363820
 20
-44.484520
 30
0.0
 40
1.5
 50
90.0
 51
180.000003
  0
LINE
  8
0
  6
BYLAYER
 62
     7
 10
341.363820
 20
-42.984520
 30
0.0
 11
350.963811
 21
-42.984520
 31
0.0
  0
LINE
  8
0
  6
BYLAYER
 62
     7
 10
352.463811
 20
-38.984581
 30
0.0
 11
352.463811
 21
-44.484520
 31
0.0
  0
LINE
  8
0
  6
BYLAYER
 62
     7
 10
352.463811
 20
-44.484520
 30
0.0
 11
352.463811
 21
-46.484520
 31
0.0
  0
ARC
  8
0
  6
BYLAYER
 62
     7
 10
350.963811
 20
-44.484520
 30
0.0
 40
1.5
 50
0.0
 51
90.000003
  0
LINE
  8
0
  6
BYLAYER
 62
     7
 10
378.863835
 20
-46.484520
 30
0.0
 11
378.863835
 21
-44.484520
 31
0.0
  0
LINE
  8
0
  6
BYLAYER
 62
     7
 10
378.863835
 20
-44.484520
 30
0.0
 11
378.863835
 21
-38.984520
 31
0.0
  0
LINE
  8
0
  6
BYLAYER
 62
     7
 10
380.363835
 20
-42.984520
 30
0.0
 11
386.163823
 21
-42.984520
 31
0.0
  0
ARC
  8
0
  6
BYLAYER
 62
     7
 10
380.363835
 20
-44.484520
 30
0.0
 40
1.5
 50
90.0
 51
180.000003
  0
LINE
  8
0
  6
BYLAYER
 62
     7
 10
339.863820
 20
-38.984581
 30
0.0
 11
339.863820
 21
-46.484520
 31
0.0
  0
LINE
  8
0
  6
BYLAYER
 62
     7
 10
304.163762
 20
-52.734642
 30
0.0
 11
306.163792
 21
-52.734642
 31
0.0
  0
LINE
  8
0
  6
BYLAYER
 62
     7
 10
406.663884
 20
-50.732353
 30
0.0
 11
386.163823
 21
-50.732353
 31
0.0
  0
LINE
  8
0
  6
BYLAYER
 62
     7
 10
386.163823
 20
-32.984520
 30
0.0
 11
386.163823
 21
-66.752555
 31
0.0
  0
LINE
  8
0
  6
BYLAYER
 62
     7
 10
406.663884
 20
-46.274253
 30
0.0
 11
386.163823
 21
-46.274253
 31
0.0
  0
LINE
  8
0
  6
BYLAYER
 62
     7
 10
386.163823
 20
-42.150810
 30
0.0
 11
406.663884
 21
-42.150810
 31
0.0
  0
LINE
  8
0
  6
BYLAYER
 62
     7
 10
386.163823
 20
-43.496513
 30
0.0
 11
406.663884
 21
-43.496513
 31
0.0
  0
ARC
  8
0
  6
BYLAYER
 62
     7
 10
307.013814
 20
-104.634666
 30
0.0
 40
0.850006
 50
90.0
 51
269.999998
  0
ARC
  8
0
  6
BYLAYER
 62
     7
 10
311.013738
 20
-104.634666
 30
0.0
 40
0.850006
 50
90.0
 51
269.999998
  0
LINE
  8
0
  6
BYLAYER
 62
     7
 10
307.013799
 20
-103.784660
 30
0.0
 11
406.663884
 21
-103.784742
 31
0.0
  0
LINE
  8
0
  6
BYLAYER
 62
     7
 10
307.013799
 20
-105.484642
 30
0.0
 11
406.663884
 21
-105.484724
 31
0.0
  0
ARC
  8
0
  6
BYLAYER
 62
     7
 10
307.013814
 20
-93.934654
 30
0.0
 40
0.850006
 50
90.0
 51
269.999998
  0
ARC
  8
0
  6
BYLAYER
 62
     7
 10
311.013738
 20
-93.934654
 30
0.0
 40
0.850006
 50
90.0
 51
269.999998
  0
ARC
  8
0
  6
BYLAYER
 62
     7
 10
307.013814
 20
-83.234672
 30
0.0
 40
0.850006
 50
90.0
 51
269.999998
  0
ARC
  8
0
  6
BYLAYER
 62
     7
 10
311.013738
 20
-83.234672
 30
0.0
 40
0.850006
 50
90.0
 51
269.999998
  0
LINE
  8
0
  6
BYLAYER
 62
     7
 10
307.013799
 20
-82.384666
 30
0.0
 11
406.663884
 21
-82.384749
 31
0.0
  0
LINE
  8
0
  6
BYLAYER
 62
     7
 10
307.013799
 20
-84.084648
 30
0.0
 11
406.663884
 21
-84.084730
 31
0.0
  0
ARC
  8
0
  6
BYLAYER
 62
     7
 10
307.013814
 20
-72.534660
 30
0.0
 40
0.850006
 50
90.0
 51
269.999998
  0
ARC
  8
0
  6
BYLAYER
 62
     7
 10
311.013738
 20
-72.534660
 30
0.0
 40
0.850006
 50
90.0
 51
269.999998
  0
LINE
  8
0
  6
BYLAYER
 62
     7
 10
307.013799
 20
-71.684654
 30
0.0
 11
406.663884
 21
-71.684736
 31
0.0
  0
LINE
  8
0
  6
BYLAYER
 62
     7
 10
307.013799
 20
-73.384635
 30
0.0
 11
406.663884
 21
-73.384718
 31
0.0
  0
LINE
  8
0
  6
BYLAYER
 62
     7
 10
314.163762
 20
-94.784629
 30
0.0
 11
314.163762
 21
-103.784660
 31
0.0
  0
LINE
  8
0
  6
BYLAYER
 62
     7
 10
314.163762
 20
-84.084617
 30
0.0
 11
314.163762
 21
-93.084648
 31
0.0
  0
LINE
  8
0
  6
BYLAYER
 62
     7
 10
314.163762
 20
-73.384635
 30
0.0
 11
314.163762
 21
-82.384666
 31
0.0
  0
LINE
  8
0
  6
BYLAYER
 62
     7
 10
314.163762
 20
-66.752555
 30
0.0
 11
314.163762
 21
-71.684654
 31
0.0
  0
LINE
  8
0
  6
BYLAYER
 62
     7
 10
306.163792
 20
-62.442619
 30
0.0
 11
314.163762
 21
-66.752555
 31
0.0
  0
LINE
  8
0
  6
BYLAYER
 62
     7
 10
406.663884
 20
-66.752555
 30
0.0
 11
314.163762
 21
-66.752555
 31
0.0
  0
ARC
  8
0
  6
BYLAYER
 62
     7
 10
307.013814
 20
-115.334617
 30
0.0
 40
0.850006
 50
90.0
 51
269.999998
  0
ARC
  8
0
  6
BYLAYER
 62
     7
 10
311.013738
 20
-115.334617
 30
0.0
 40
0.850006
 50
90.0
 51
269.999998
  0
LINE
  8
0
  6
BYLAYER
 62
     7
 10
307.013799
 20
-116.184623
 30
0.0
 11
406.663884
 21
-116.184541
 31
0.0
  0
LINE
  8
0
  6
BYLAYER
 62
     7
 10
307.013799
 20
-114.484642
 30
0.0
 11
406.663884
 21
-114.484559
 31
0.0
  0
ARC
  8
0
  6
BYLAYER
 62
     7
 10
307.013814
 20
-126.034629
 30
0.0
 40
0.850006
 50
90.0
 51
269.999998
  0
ARC
  8
0
  6
BYLAYER
 62
     7
 10
311.013738
 20
-126.034629
 30
0.0
 40
0.850006
 50
90.0
 51
269.999998
  0
ARC
  8
0
  6
BYLAYER
 62
     7
 10
307.013814
 20
-136.734611
 30
0.0
 40
0.850006
 50
90.0
 51
269.999998
  0
ARC
  8
0
  6
BYLAYER
 62
     7
 10
311.013738
 20
-136.734611
 30
0.0
 40
0.850006
 50
90.0
 51
269.999998
  0
LINE
  8
0
  6
BYLAYER
 62
     7
 10
307.013799
 20
-137.584617
 30
0.0
 11
406.663884
 21
-137.584535
 31
0.0
  0
LINE
  8
0
  6
BYLAYER
 62
     7
 10
307.013799
 20
-135.884635
 30
0.0
 11
406.663884
 21
-135.884553
 31
0.0
  0
ARC
  8
0
  6
BYLAYER
 62
     7
 10
307.013814
 20
-147.434623
 30
0.0
 40
0.850006
 50
90.0
 51
269.999998
  0
ARC
  8
0
  6
BYLAYER
 62
     7
 10
311.013738
 20
-147.434623
 30
0.0
 40
0.850006
 50
90.0
 51
269.999998
  0
LINE
  8
0
  6
BYLAYER
 62
     7
 10
307.013799
 20
-148.284629
 30
0.0
 11
406.663884
 21
-148.284547
 31
0.0
  0
LINE
  8
0
  6
BYLAYER
 62
     7
 10
307.013799
 20
-146.584648
 30
0.0
 11
406.663884
 21
-146.584565
 31
0.0
  0
LINE
  8
0
  6
BYLAYER
 62
     7
 10
314.163762
 20
-125.184654
 30
0.0
 11
314.163762
 21
-116.184623
 31
0.0
  0
LINE
  8
0
  6
BYLAYER
 62
     7
 10
314.163762
 20
-135.884666
 30
0.0
 11
314.163762
 21
-126.884635
 31
0.0
  0
LINE
  8
0
  6
BYLAYER
 62
     7
 10
314.163762
 20
-146.584648
 30
0.0
 11
314.163762
 21
-137.584617
 31
0.0
  0
LINE
  8
0
  6
BYLAYER
 62
     7
 10
306.163884
 20
-167.234642
 30
0.0
 11
306.163762
 21
-32.984520
 31
0.0
  0
LINE
  8
0
  6
BYLAYER
 62
     7
 10
306.163884
 20
-167.234642
 30
0.0
 11
304.163884
 21
-167.234642
 31
0.0
  0
LINE
  8
0
  6
BYLAYER
 62
     7
 10
314.163762
 20
-105.484642
 30
0.0
 11
314.163762
 21
-114.484642
 31
0.0
  0
LINE
  8
0
  6
BYLAYER
 62
     7
 10
306.163869
 20
-148.711052
 30
0.0
 11
308.336614
 21
-156.819877
 31
0.0
  0
ARC
  8
0
  6
BYLAYER
 62
     7
 10
310.268468
 20
-156.302238
 30
0.0
 40
2.000003
 50
195.000016
 51
270.000001
  0
LINE
  8
0
  6
BYLAYER
 62
     7
 10
306.163869
 20
-152.148643
 30
0.0
 11
309.634038
 21
-165.099449
 31
0.0
  0
ARC
  8
0
  6
BYLAYER
 62
     7
 10
311.565877
 20
-164.581810
 30
0.0
 40
1.999988
 50
195.000043
 51
270.000001
  0
LINE
  8
0
  6
BYLAYER
 62
     7
 10
306.163884
 20
-159.943244
 30
0.0
 11
309.112737
 21
-170.948524
 31
0.0
  0
ARC
  8
0
  6
BYLAYER
 62
     7
 10
311.044591
 20
-170.430885
 30
0.0
 40
2.000003
 50
195.000043
 51
270.000001
  0
LINE
  8
0
  6
BYLAYER
 62
     7
 10
306.163884
 20
-164.582496
 30
0.0
 11
308.836614
 21
-174.557289
 31
0.0
  0
ARC
  8
0
  6
BYLAYER
 62
     7
 10
310.768468
 20
-174.039650
 30
0.0
 40
2.000003
 50
195.000043
 51
270.000001
  0
LINE
  8
0
  6
BYLAYER
 62
     7
 10
306.163884
 20
-167.234642
 30
0.0
 11
308.589940
 21
-176.288826
 31
0.0
  0
ARC
  8
0
  6
BYLAYER
 62
     7
 10
310.521794
 20
-175.771186
 30
0.0
 40
2.000003
 50
195.000016
 51
270.000001
  0
LINE
  8
0
  6
BYLAYER
 62
     7
 10
310.268468
 20
-158.302238
 30
0.0
 11
406.663884
 21
-158.302224
 31
0.0
  0
LINE
  8
0
  6
BYLAYER
 62
     7
 10
311.565877
 20
-166.581810
 30
0.0
 11
406.663884
 21
-166.581795
 31
0.0
  0
LINE
  8
0
  6
BYLAYER
 62
     7
 10
311.044591
 20
-172.430885
 30
0.0
 11
406.663884
 21
-172.430871
 31
0.0
  0
LINE
  8
0
  6
BYLAYER
 62
     7
 10
310.768468
 20
-176.039650
 30
0.0
 11
406.663884
 21
-176.039635
 31
0.0
  0
LINE
  8
0
  6
BYLAYER
 62
     7
 10
310.521794
 20
-177.771186
 30
0.0
 11
406.663884
 21
-177.771172
 31
0.0
  0
CIRCLE
  8
0
  6
BYLAYER
 62
     7
 10
334.663854
 20
-93.934654
 30
0.0
 40
3.0
  0
CIRCLE
  8
0
  6
BYLAYER
 62
     7
 10
389.663854
 20
-93.934654
 30
0.0
 40
3.0
  0
LINE
  8
0
  6
BYLAYER
 62
     7
 10
307.013799
 20
-93.084648
 30
0.0
 11
331.786778
 21
-93.084678
 31
0.0
  0
LINE
  8
0
  6
BYLAYER
 62
     7
 10
331.786778
 20
-94.784660
 30
0.0
 11
307.013799
 21
-94.784629
 31
0.0
  0
LINE
  8
0
  6
BYLAYER
 62
     7
 10
337.540929
 20
-93.084678
 30
0.0
 11
386.786778
 21
-93.084709
 31
0.0
  0
LINE
  8
0
  6
BYLAYER
 62
     7
 10
386.786809
 20
-94.784690
 30
0.0
 11
337.540913
 21
-94.784660
 31
0.0
  0
LINE
  8
0
  6
BYLAYER
 62
     7
 10
392.540929
 20
-93.084709
 30
0.0
 11
406.663884
 21
-93.084726
 31
0.0
  0
LINE
  8
0
  6
BYLAYER
 62
     7
 10
406.663884
 20
-94.784708
 30
0.0
 11
392.540898
 21
-94.784690
 31
0.0
  0
LINE
  8
0
  6
BYLAYER
 62
     7
 10
307.013799
 20
-125.184654
 30
0.0
 11
406.663884
 21
-125.184566
 31
0.0
  0
LINE
  8
0
  6
BYLAYER
 62
     7
 10
307.013799
 20
-126.884635
 30
0.0
 11
406.663884
 21
-126.884548
 31
0.0
  0
LINE
  8
0
  6
BYLAYER
 62
     7
 10
304.163762
 20
-52.734638
 30
0.0
 11
304.163884
 21
-167.234638
 31
0.0
  0
LINE
  8
0
  6
BYLAYER
 62
     7
 10
480.163884
 20
-54.984642
 30
0.0
 11
480.163884
 21
-164.984642
 31
0.0
  0
LINE
  8
0
  6
BYLAYER
 62
     7
 10
406.663884
 20
-40.534642
 30
0.0
 11
465.713884
 21
-40.534642
 31
0.0
  0
LINE
  8
0
  6
BYLAYER
 62
     7
 10
406.663884
 20
-179.434642
 30
0.0
 11
465.713884
 21
-179.434642
 31
0.0
  0
LINE
  8
0
  6
BYLAYER
 62
     7
 10
480.163884
 20
-54.984642
 30
0.0
 11
465.713884
 21
-40.534642
 31
0.0
  0
LINE
  8
0
  6
BYLAYER
 62
     7
 10
480.163884
 20
-164.984642
 30
0.0
 11
465.713884
 21
-179.434642
 31
0.0
  0
LINE
  8
0
  6
BYLAYER
 62
     7
 10
406.663884
 20
-109.984642
 30
0.0
 11
406.663884
 21
-179.434642
 31
0.0
  0
LINE
  8
0
  6
BYLAYER
 62
     7
 10
406.663884
 20
-109.984642
 30
0.0
 11
406.663884
 21
-40.534642
 31
0.0
  0
LINE
  8
0
  6
BYLAYER
 62
     7
 10
302.663823
 20
-167.984642
 30
0.0
 11
304.163823
 21
-167.984642
 31
0.0
  0
LINE
  8
0
  6
BYLAYER
 62
     7
 10
302.663823
 20
-109.984642
 30
0.0
 11
302.663823
 21
-177.984642
 31
0.0
  0
LINE
  8
0
  6
BYLAYER
 62
     7
 10
294.163823
 20
-177.984642
 30
0.0
 11
302.663823
 21
-177.984642
 31
0.0
  0
LINE
  8
0
  6
BYLAYER
 62
     7
 10
294.163823
 20
-109.984642
 30
0.0
 11
294.163823
 21
-177.984642
 31
0.0
  0
LINE
  8
0
  6
BYLAYER
 62
     7
 10
304.163823
 20
-109.984642
 30
0.0
 11
304.163823
 21
-167.984642
 31
0.0
  0
LINE
  8
0
  6
BYLAYER
 62
     7
 10
273.163823
 20
-109.984642
 30
0.0
 11
273.163823
 21
-162.542782
 31
0.0
  0
LINE
  8
0
  6
BYLAYER
 62
     7
 10
273.163823
 20
-162.554912
 30
0.0
 11
293.302996
 21
-165.385289
 31
0.0
  0
ARC
  8
0
  6
BYLAYER
 62
     7
 10
293.163823
 20
-166.375557
 30
0.0
 40
1.000000
 50
0.0
 51
82.0
  0
LINE
  8
0
  6
BYLAYER
 62
     7
 10
302.663823
 20
-51.984642
 30
0.0
 11
304.163823
 21
-51.984642
 31
0.0
  0
LINE
  8
0
  6
BYLAYER
 62
     7
 10
302.663823
 20
-109.984642
 30
0.0
 11
302.663823
 21
-41.984642
 31
0.0
  0
LINE
  8
0
  6
BYLAYER
 62
     7
 10
294.163823
 20
-41.984642
 30
0.0
 11
302.663823
 21
-41.984642
 31
0.0
  0
LINE
  8
0
  6
BYLAYER
 62
     7
 10
294.163823
 20
-109.984642
 30
0.0
 11
294.163823
 21
-41.984642
 31
0.0
  0
LINE
  8
0
  6
BYLAYER
 62
     7
 10
304.163823
 20
-109.984642
 30
0.0
 11
304.163823
 21
-51.984642
 31
0.0
  0
LINE
  8
0
  6
BYLAYER
 62
     7
 10
273.163823
 20
-109.984642
 30
0.0
 11
273.163823
 21
-57.426502
 31
0.0
  0
LINE
  8
0
  6
BYLAYER
 62
     7
 10
273.163823
 20
-57.414372
 30
0.0
 11
293.302996
 21
-54.583995
 31
0.0
  0
ARC
  8
0
  6
BYLAYER
 62
     7
 10
293.163823
 20
-53.593727
 30
0.0
 40
1.0
 50
278.000000
 51
360.000000
  0
ARC
  8
0
  6
BYLAYER
 62
     7
 10
376.918100
 20
-22.484520
 30
0.0
 40
1.5
 50
180.000000
 51
270.000000
  0
ARC
  8
0
  6
BYLAYER
 62
     7
 10
315.409424
 20
-22.484520
 30
0.0
 40
1.5
 50
270.0
 51
360.0
  0
ARC
  8
0
  6
BYLAYER
 62
     7
 10
307.663762
 20
-22.484520
 30
0.0
 40
1.5
 50
270.0
 51
360.0
  0
ARC
  8
0
  6
BYLAYER
 62
     7
 10
307.663762
 20
-25.484520
 30
0.0
 40
1.5
 50
90.0
 51
180.0
  0
ARC
  8
0
  6
BYLAYER
 62
     7
 10
384.663762
 20
-22.484520
 30
0.0
 40
1.5
 50
180.000000
 51
270.000000
  0
LINE
  8
0
  6
BYLAYER
 62
     7
 10
309.163762
 20
-22.484520
 30
0.0
 11
309.163762
 21
-0.984520
 31
0.0
  0
ARC
  8
0
  6
BYLAYER
 62
     7
 10
310.663762
 20
-0.984520
 30
0.0
 40
1.5
 50
90.0
 51
180.0
  0
LINE
  8
0
  6
BYLAYER
 62
     7
 10
383.163762
 20
-22.484520
 30
0.0
 11
383.163762
 21
-0.984520
 31
0.0
  0
LINE
  8
0
  6
BYLAYER
 62
     7
 10
310.663762
 20
0.515480
 30
0.0
 11
381.663762
 21
0.515480
 31
0.0
  0
ARC
  8
0
  6
BYLAYER
 62
     7
 10
373.918100
 20
-0.984520
 30
0.0
 40
1.5
 50
0.0
 51
90.0
  0
ARC
  8
0
  6
BYLAYER
 62
     7
 10
381.663762
 20
-0.984520
 30
0.0
 40
1.5
 50
0.0
 51
90.0
  0
LINE
  8
0
  6
BYLAYER
 62
     7
 10
316.909424
 20
-22.484520
 30
0.0
 11
316.909424
 21
-0.984520
 31
0.0
  0
ARC
  8
0
  6
BYLAYER
 62
     7
 10
318.409424
 20
-0.984520
 30
0.0
 40
1.5
 50
90.0
 51
180.0
  0
LINE
  8
0
  6
BYLAYER
 62
     7
 10
375.418100
 20
-22.484520
 30
0.0
 11
375.418100
 21
-0.984520
 31
0.0
  0
ARC
  8
0
  6
BYLAYER
 62
     7
 10
384.663762
 20
-25.484520
 30
0.0
 40
1.5
 50
0.0
 51
90.0
  0
LINE
  8
0
  6
BYLAYER
 62
     7
 10
386.163762
 20
-32.984520
 30
0.0
 11
386.163762
 21
-25.484520
 31
0.0
  0
LINE
  8
0
  6
BYLAYER
 62
     7
 10
384.663762
 20
-23.984520
 30
0.0
 11
307.663762
 21
-23.984520
 31
0.0
  0
LINE
  8
0
  6
BYLAYER
 62
     7
 10
306.163762
 20
-25.484520
 30
0.0
 11
306.163762
 21
-32.984520
 31
0.0
  0
LINE
  8
0
  6
BYLAYER
 62
     7
 10
306.163762
 20
-32.984520
 30
0.0
 11
386.163762
 21
-32.984520
 31
0.0
  0
LINE
  8
0
  6
BYLAYER
 62
     7
 10
386.163762
 20
-30.984520
 30
0.0
 11
306.163762
 21
-30.984520
 31
0.0
  0
LINE
  8
0
  6
BYLAYER
 62
     7
 10
465.713884
 20
-179.434642
 30
0.0
 11
465.713884
 21
-40.534642
 31
0.0
  0
ARC
  8
0
  6
BYLAYER
 62
     7
 10
307.013814
 20
-550.434623
 30
0.0
 40
0.850006
 50
111.034603
 51
269.999998
  0
ARC
  8
0
  6
BYLAYER
 62
     7
 10
311.013738
 20
-550.434623
 30
0.0
 40
0.850006
 50
148.036043
 51
269.999998
  0
LINE
  8
0
  6
BYLAYER
 62
     7
 10
307.013799
 20
-551.284629
 30
0.0
 11
406.663884
 21
-551.284547
 31
0.0
  0
LINE
  8
0
  6
BYLAYER
 62
     7
 10
306.163884
 20
-570.234642
 30
0.0
 11
306.163832
 21
-512.984642
 31
0.0
  0
LINE
  8
0
  6
BYLAYER
 62
     7
 10
306.163884
 20
-570.234642
 30
0.0
 11
304.163884
 21
-570.234642
 31
0.0
  0
LINE
  8
0
  6
BYLAYER
 62
     7
 10
306.163869
 20
-551.711052
 30
0.0
 11
308.336614
 21
-559.819877
 31
0.0
  0
ARC
  8
0
  6
BYLAYER
 62
     7
 10
310.268468
 20
-559.302238
 30
0.0
 40
2.000003
 50
195.000016
 51
270.000001
  0
LINE
  8
0
  6
BYLAYER
 62
     7
 10
306.163869
 20
-555.148643
 30
0.0
 11
309.634038
 21
-568.099449
 31
0.0
  0
ARC
  8
0
  6
BYLAYER
 62
     7
 10
311.565877
 20
-567.581810
 30
0.0
 40
1.999988
 50
195.000043
 51
270.000001
  0
LINE
  8
0
  6
BYLAYER
 62
     7
 10
306.163884
 20
-562.943244
 30
0.0
 11
309.112737
 21
-573.948524
 31
0.0
  0
ARC
  8
0
  6
BYLAYER
 62
     7
 10
311.044591
 20
-573.430885
 30
0.0
 40
2.000003
 50
195.000043
 51
270.000001
  0
LINE
  8
0
  6
BYLAYER
 62
     7
 10
306.163884
 20
-567.582496
 30
0.0
 11
308.836614
 21
-577.557289
 31
0.0
  0
ARC
  8
0
  6
BYLAYER
 62
     7
 10
310.768468
 20
-577.039650
 30
0.0
 40
2.000003
 50
195.000043
 51
270.000001
  0
LINE
  8
0
  6
BYLAYER
 62
     7
 10
306.163884
 20
-570.234642
 30
0.0
 11
308.589940
 21
-579.288826
 31
0.0
  0
ARC
  8
0
  6
BYLAYER
 62
     7
 10
310.521794
 20
-578.771186
 30
0.0
 40
2.000003
 50
195.000016
 51
270.000001
  0
LINE
  8
0
  6
BYLAYER
 62
     7
 10
310.268468
 20
-561.302238
 30
0.0
 11
406.663884
 21
-561.302224
 31
0.0
  0
LINE
  8
0
  6
BYLAYER
 62
     7
 10
311.565877
 20
-569.581810
 30
0.0
 11
406.663884
 21
-569.581795
 31
0.0
  0
LINE
  8
0
  6
BYLAYER
 62
     7
 10
311.044591
 20
-575.430885
 30
0.0
 11
406.663884
 21
-575.430871
 31
0.0
  0
LINE
  8
0
  6
BYLAYER
 62
     7
 10
310.768468
 20
-579.039650
 30
0.0
 11
406.663884
 21
-579.039635
 31
0.0
  0
LINE
  8
0
  6
BYLAYER
 62
     7
 10
310.521794
 20
-580.771186
 30
0.0
 11
406.663884
 21
-580.771172
 31
0.0
  0
LINE
  8
0
  6
BYLAYER
 62
     7
 10
304.163823
 20
-512.984642
 30
0.0
 11
304.163884
 21
-570.234638
 31
0.0
  0
ARC
  8
0
  6
BYLAYER
 62
     7
 10
303.763883
 20
-568.884642
 30
0.0
 40
0.400000
 50
0.0
 51
89.999939
  0
LINE
  8
0
  6
BYLAYER
 62
     7
 10
480.163884
 20
-512.984642
 30
0.0
 11
480.163884
 21
-567.984642
 31
0.0
  0
LINE
  8
0
  6
BYLAYER
 62
     7
 10
406.663884
 20
-582.434642
 30
0.0
 11
465.713884
 21
-582.434642
 31
0.0
  0
LINE
  8
0
  6
BYLAYER
 62
     7
 10
480.163884
 20
-567.984642
 30
0.0
 11
465.713884
 21
-582.434642
 31
0.0
  0
LINE
  8
0
  6
BYLAYER
 62
     7
 10
406.663884
 20
-512.984642
 30
0.0
 11
406.663884
 21
-582.434642
 31
0.0
  0
LINE
  8
0
  6
BYLAYER
 62
     7
 10
309.163832
 20
-537.501327
 30
0.0
 11
309.163832
 21
-512.984642
 31
0.0
  0
LINE
  8
0
  6
BYLAYER
 62
     7
 10
383.163832
 20
-512.984642
 30
0.0
 11
383.163832
 21
-537.501327
 31
0.0
  0
LINE
  8
0
  6
BYLAYER
 62
     7
 10
373.701426
 20
-547.234642
 30
0.0
 11
318.626238
 21
-547.234642
 31
0.0
  0
LINE
  8
0
  6
BYLAYER
 62
     7
 10
323.268530
 20
-518.085748
 30
0.0
 11
309.163832
 21
-518.578295
 31
0.0
  0
ARC
  8
0
  6
BYLAYER
 62
     7
 10
323.163832
 20
-515.087576
 30
0.0
 40
3.0
 50
272.000000
 51
360.000000
  0
LINE
  8
0
  6
BYLAYER
 62
     7
 10
323.268530
 20
-533.085748
 30
0.0
 11
309.163832
 21
-533.578295
 31
0.0
  0
ARC
  8
0
  6
BYLAYER
 62
     7
 10
323.163832
 20
-530.087576
 30
0.0
 40
3.0
 50
272.000000
 51
360.000000
  0
LINE
  8
0
  6
BYLAYER
 62
     7
 10
309.163832
 20
-522.390989
 30
0.0
 11
323.268530
 21
-522.883536
 31
0.0
  0
ARC
  8
0
  6
BYLAYER
 62
     7
 10
323.163832
 20
-525.881708
 30
0.0
 40
3.000000
 50
0.0
 51
88.0
  0
LINE
  8
0
  6
BYLAYER
 62
     7
 10
326.163832
 20
-525.881708
 30
0.0
 11
326.163832
 21
-530.087576
 31
0.0
  0
LINE
  8
0
  6
BYLAYER
 62
     7
 10
326.163832
 20
-512.984642
 30
0.0
 11
326.163832
 21
-515.087576
 31
0.0
  0
LINE
  8
0
  6
BYLAYER
 62
     7
 10
310.163832
 20
-512.984642
 30
0.0
 11
310.163832
 21
-518.543374
 31
0.0
  0
LINE
  8
0
  6
BYLAYER
 62
     7
 10
310.163832
 20
-522.425910
 30
0.0
 11
310.163832
 21
-533.543374
 31
0.0
  0
LINE
  8
0
  6
BYLAYER
 62
     7
 10
369.059133
 20
-518.085748
 30
0.0
 11
383.163832
 21
-518.578295
 31
0.0
  0
ARC
  8
0
  6
BYLAYER
 62
     7
 10
369.163832
 20
-515.087576
 30
0.0
 40
3.000000
 50
180.000000
 51
268.000000
  0
LINE
  8
0
  6
BYLAYER
 62
     7
 10
369.059133
 20
-533.085748
 30
0.0
 11
383.163832
 21
-533.578295
 31
0.0
  0
ARC
  8
0
  6
BYLAYER
 62
     7
 10
369.163832
 20
-530.087576
 30
0.0
 40
3.000000
 50
180.000000
 51
268.000000
  0
LINE
  8
0
  6
BYLAYER
 62
     7
 10
383.163832
 20
-522.390989
 30
0.0
 11
369.059133
 21
-522.883536
 31
0.0
  0
ARC
  8
0
  6
BYLAYER
 62
     7
 10
369.163832
 20
-525.881708
 30
0.0
 40
3.000000
 50
92.0
 51
180.0
  0
LINE
  8
0
  6
BYLAYER
 62
     7
 10
366.163832
 20
-525.881708
 30
0.0
 11
366.163832
 21
-530.087576
 31
0.0
  0
LINE
  8
0
  6
BYLAYER
 62
     7
 10
366.163832
 20
-512.984642
 30
0.0
 11
366.163832
 21
-515.087576
 31
0.0
  0
LINE
  8
0
  6
BYLAYER
 62
     7
 10
382.163832
 20
-512.984642
 30
0.0
 11
382.163832
 21
-518.543374
 31
0.0
  0
LINE
  8
0
  6
BYLAYER
 62
     7
 10
382.163832
 20
-522.425910
 30
0.0
 11
382.163832
 21
-533.543374
 31
0.0
  0
LINE
  8
0
  6
BYLAYER
 62
     7
 10
306.163832
 20
-512.984642
 30
0.0
 11
306.163832
 21
-548.484642
 31
0.0
  0
ARC
  8
0
  6
BYLAYER
 62
     7
 10
307.663832
 20
-548.484642
 30
0.0
 40
1.5
 50
180.000000
 51
270.000000
  0
LINE
  8
0
  6
BYLAYER
 62
     7
 10
386.163832
 20
-548.484642
 30
0.0
 11
386.163832
 21
-512.984642
 31
0.0
  0
LINE
  8
0
  6
BYLAYER
 62
     7
 10
307.663832
 20
-549.984642
 30
0.0
 11
384.663832
 21
-549.984642
 31
0.0
  0
ARC
  8
0
  6
BYLAYER
 62
     7
 10
384.663832
 20
-548.484642
 30
0.0
 40
1.5
 50
270.0
 51
360.0
  0
ARC
  8
0
  6
BYLAYER
 62
     7
 10
381.163832
 20
-544.984642
 30
0.0
 40
6.000000
 50
86.177446
 51
185.739170
  0
ARC
  8
0
  6
BYLAYER
 62
     7
 10
381.663832
 20
-537.501327
 30
0.0
 40
1.5
 50
266.177446
 51
360.0
  0
ARC
  8
0
  6
BYLAYER
 62
     7
 10
373.701426
 20
-545.734642
 30
0.0
 40
1.5
 50
270.0
 51
365.739170
  0
ARC
  8
0
  6
BYLAYER
 62
     7
 10
311.163832
 20
-544.984642
 30
0.0
 40
6.0
 50
354.260830
 51
453.822554
  0
ARC
  8
0
  6
BYLAYER
 62
     7
 10
318.626238
 20
-545.734642
 30
0.0
 40
1.5
 50
174.260830
 51
270.000000
  0
ARC
  8
0
  6
BYLAYER
 62
     7
 10
310.663832
 20
-537.501327
 30
0.0
 40
1.500000
 50
180.000000
 51
273.822554
  0
ARC
  8
0
  6
BYLAYER
 62
     7
 10
333.163832
 20
-539.984642
 30
0.0
 40
3.0
 50
180.000000
 51
270.000000
  0
ARC
  8
0
  6
BYLAYER
 62
     7
 10
359.163832
 20
-539.984642
 30
0.0
 40
3.0
 50
270.0
 51
360.0
  0
LINE
  8
0
  6
BYLAYER
 62
     7
 10
333.163832
 20
-542.984642
 30
0.0
 11
359.163832
 21
-542.984642
 31
0.0
  0
LINE
  8
0
  6
BYLAYER
 62
     7
 10
330.163832
 20
-539.984642
 30
0.0
 11
330.163832
 21
-512.984642
 31
0.0
  0
LINE
  8
0
  6
BYLAYER
 62
     7
 10
362.163832
 20
-512.984642
 30
0.0
 11
362.163832
 21
-539.984642
 31
0.0
  0
LINE
  8
0
  6
BYLAYER
 62
     7
 10
406.663884
 20
-538.884553
 30
0.0
 11
386.163832
 21
-538.884570
 31
0.0
  0
LINE
  8
0
  6
BYLAYER
 62
     7
 10
406.663884
 20
-540.584535
 30
0.0
 11
386.163832
 21
-540.584552
 31
0.0
  0
LINE
  8
0
  6
BYLAYER
 62
     7
 10
406.663884
 20
-549.584556
 30
0.0
 11
385.683729
 21
-549.584556
 31
0.0
  0
ARC
  8
0
  6
BYLAYER
 62
     7
 10
307.013814
 20
-475.534661
 30
0.0
 40
0.850006
 50
90.0
 51
248.965395
  0
ARC
  8
0
  6
BYLAYER
 62
     7
 10
311.013738
 20
-475.534661
 30
0.0
 40
0.850006
 50
90.0
 51
211.963955
  0
LINE
  8
0
  6
BYLAYER
 62
     7
 10
307.013799
 20
-474.684655
 30
0.0
 11
406.663884
 21
-474.684737
 31
0.0
  0
LINE
  8
0
  6
BYLAYER
 62
     7
 10
306.163884
 20
-455.734642
 30
0.0
 11
306.163832
 21
-512.984642
 31
0.0
  0
LINE
  8
0
  6
BYLAYER
 62
     7
 10
306.163884
 20
-455.734642
 30
0.0
 11
304.163884
 21
-455.734642
 31
0.0
  0
LINE
  8
0
  6
BYLAYER
 62
     7
 10
306.163869
 20
-474.258232
 30
0.0
 11
308.336614
 21
-466.149407
 31
0.0
  0
ARC
  8
0
  6
BYLAYER
 62
     7
 10
310.268468
 20
-466.667046
 30
0.0
 40
2.000003
 50
90.0
 51
164.999985
  0
LINE
  8
0
  6
BYLAYER
 62
     7
 10
306.163869
 20
-470.820641
 30
0.0
 11
309.634038
 21
-457.869835
 31
0.0
  0
ARC
  8
0
  6
BYLAYER
 62
     7
 10
311.565877
 20
-458.387474
 30
0.0
 40
1.999988
 50
90.0
 51
164.999958
  0
LINE
  8
0
  6
BYLAYER
 62
     7
 10
306.163884
 20
-463.026040
 30
0.0
 11
309.112737
 21
-452.020760
 31
0.0
  0
ARC
  8
0
  6
BYLAYER
 62
     7
 10
311.044591
 20
-452.538399
 30
0.0
 40
2.000003
 50
90.0
 51
164.999958
  0
LINE
  8
0
  6
BYLAYER
 62
     7
 10
306.163884
 20
-458.386788
 30
0.0
 11
308.836614
 21
-448.411995
 31
0.0
  0
ARC
  8
0
  6
BYLAYER
 62
     7
 10
310.768468
 20
-448.929634
 30
0.0
 40
2.000003
 50
90.0
 51
164.999958
  0
LINE
  8
0
  6
BYLAYER
 62
     7
 10
306.163884
 20
-455.734642
 30
0.0
 11
308.589940
 21
-446.680458
 31
0.0
  0
ARC
  8
0
  6
BYLAYER
 62
     7
 10
310.521794
 20
-447.198098
 30
0.0
 40
2.000003
 50
90.0
 51
164.999985
  0
LINE
  8
0
  6
BYLAYER
 62
     7
 10
310.268468
 20
-464.667046
 30
0.0
 11
406.663884
 21
-464.667060
 31
0.0
  0
LINE
  8
0
  6
BYLAYER
 62
     7
 10
311.565877
 20
-456.387474
 30
0.0
 11
406.663884
 21
-456.387489
 31
0.0
  0
LINE
  8
0
  6
BYLAYER
 62
     7
 10
311.044591
 20
-450.538399
 30
0.0
 11
406.663884
 21
-450.538413
 31
0.0
  0
LINE
  8
0
  6
BYLAYER
 62
     7
 10
310.768468
 20
-446.929634
 30
0.0
 11
406.663884
 21
-446.929649
 31
0.0
  0
LINE
  8
0
  6
BYLAYER
 62
     7
 10
310.521794
 20
-445.198098
 30
0.0
 11
406.663884
 21
-445.198112
 31
0.0
  0
LINE
  8
0
  6
BYLAYER
 62
     7
 10
304.163823
 20
-512.984642
 30
0.0
 11
304.163884
 21
-455.734646
 31
0.0
  0
LINE
  8
0
  6
BYLAYER
 62
     7
 10
480.163884
 20
-512.984642
 30
0.0
 11
480.163884
 21
-457.984642
 31
0.0
  0
LINE
  8
0
  6
BYLAYER
 62
     7
 10
406.663884
 20
-443.534642
 30
0.0
 11
465.713884
 21
-443.534642
 31
0.0
  0
LINE
  8
0
  6
BYLAYER
 62
     7
 10
480.163884
 20
-457.984642
 30
0.0
 11
465.713884
 21
-443.534642
 31
0.0
  0
LINE
  8
0
  6
BYLAYER
 62
     7
 10
406.663884
 20
-512.984642
 30
0.0
 11
406.663884
 21
-443.534642
 31
0.0
  0
LINE
  8
0
  6
BYLAYER
 62
     7
 10
309.163832
 20
-488.467957
 30
0.0
 11
309.163832
 21
-512.984642
 31
0.0
  0
LINE
  8
0
  6
BYLAYER
 62
     7
 10
383.163832
 20
-512.984642
 30
0.0
 11
383.163832
 21
-488.467957
 31
0.0
  0
LINE
  8
0
  6
BYLAYER
 62
     7
 10
373.701426
 20
-478.734642
 30
0.0
 11
318.626238
 21
-478.734642
 31
0.0
  0
LINE
  8
0
  6
BYLAYER
 62
     7
 10
323.268530
 20
-507.883536
 30
0.0
 11
309.163832
 21
-507.390989
 31
0.0
  0
ARC
  8
0
  6
BYLAYER
 62
     7
 10
323.163832
 20
-510.881708
 30
0.0
 40
3.000000
 50
0.0
 51
88.0
  0
LINE
  8
0
  6
BYLAYER
 62
     7
 10
323.268530
 20
-492.883536
 30
0.0
 11
309.163832
 21
-492.390989
 31
0.0
  0
ARC
  8
0
  6
BYLAYER
 62
     7
 10
323.163832
 20
-495.881708
 30
0.0
 40
3.000000
 50
0.0
 51
88.0
  0
LINE
  8
0
  6
BYLAYER
 62
     7
 10
309.163832
 20
-503.578295
 30
0.0
 11
323.268530
 21
-503.085748
 31
0.0
  0
ARC
  8
0
  6
BYLAYER
 62
     7
 10
323.163832
 20
-500.087576
 30
0.0
 40
3.0
 50
272.000000
 51
360.000000
  0
LINE
  8
0
  6
BYLAYER
 62
     7
 10
326.163832
 20
-500.087576
 30
0.0
 11
326.163832
 21
-495.881708
 31
0.0
  0
LINE
  8
0
  6
BYLAYER
 62
     7
 10
326.163832
 20
-512.984642
 30
0.0
 11
326.163832
 21
-510.881708
 31
0.0
  0
LINE
  8
0
  6
BYLAYER
 62
     7
 10
310.163832
 20
-512.984642
 30
0.0
 11
310.163832
 21
-507.425910
 31
0.0
  0
LINE
  8
0
  6
BYLAYER
 62
     7
 10
310.163832
 20
-503.543374
 30
0.0
 11
310.163832
 21
-492.425910
 31
0.0
  0
LINE
  8
0
  6
BYLAYER
 62
     7
 10
369.059133
 20
-507.883536
 30
0.0
 11
383.163832
 21
-507.390989
 31
0.0
  0
ARC
  8
0
  6
BYLAYER
 62
     7
 10
369.163832
 20
-510.881708
 30
0.0
 40
3.0
 50
92.000000
 51
180.000000
  0
LINE
  8
0
  6
BYLAYER
 62
     7
 10
369.059133
 20
-492.883536
 30
0.0
 11
383.163832
 21
-492.390989
 31
0.0
  0
ARC
  8
0
  6
BYLAYER
 62
     7
 10
369.163832
 20
-495.881708
 30
0.0
 40
3.0
 50
92.000000
 51
180.000000
  0
LINE
  8
0
  6
BYLAYER
 62
     7
 10
383.163832
 20
-503.578295
 30
0.0
 11
369.059133
 21
-503.085748
 31
0.0
  0
ARC
  8
0
  6
BYLAYER
 62
     7
 10
369.163832
 20
-500.087576
 30
0.0
 40
3.000000
 50
180.000000
 51
268.000000
  0
LINE
  8
0
  6
BYLAYER
 62
     7
 10
366.163832
 20
-500.087576
 30
0.0
 11
366.163832
 21
-495.881708
 31
0.0
  0
LINE
  8
0
  6
BYLAYER
 62
     7
 10
366.163832
 20
-512.984642
 30
0.0
 11
366.163832
 21
-510.881708
 31
0.0
  0
LINE
  8
0
  6
BYLAYER
 62
     7
 10
382.163832
 20
-512.984642
 30
0.0
 11
382.163832
 21
-507.425910
 31
0.0
  0
LINE
  8
0
  6
BYLAYER
 62
     7
 10
382.163832
 20
-503.543374
 30
0.0
 11
382.163832
 21
-492.425910
 31
0.0
  0
LINE
  8
0
  6
BYLAYER
 62
     7
 10
306.163832
 20
-512.984642
 30
0.0
 11
306.163832
 21
-477.484642
 31
0.0
  0
ARC
  8
0
  6
BYLAYER
 62
     7
 10
307.663832
 20
-477.484642
 30
0.0
 40
1.5
 50
90.0
 51
180.0
  0
LINE
  8
0
  6
BYLAYER
 62
     7
 10
386.163832
 20
-477.484642
 30
0.0
 11
386.163832
 21
-512.984642
 31
0.0
  0
LINE
  8
0
  6
BYLAYER
 62
     7
 10
307.663832
 20
-475.984642
 30
0.0
 11
384.663832
 21
-475.984642
 31
0.0
  0
ARC
  8
0
  6
BYLAYER
 62
     7
 10
384.663832
 20
-477.484642
 30
0.0
 40
1.5
 50
0.0
 51
90.0
  0
ARC
  8
0
  6
BYLAYER
 62
     7
 10
381.163832
 20
-480.984642
 30
0.0
 40
6.000000
 50
174.260830
 51
273.822554
  0
ARC
  8
0
  6
BYLAYER
 62
     7
 10
381.663832
 20
-488.467957
 30
0.0
 40
1.5
 50
0.0
 51
93.822554
  0
ARC
  8
0
  6
BYLAYER
 62
     7
 10
373.701426
 20
-480.234642
 30
0.0
 40
1.5
 50
354.260830
 51
450.000000
  0
ARC
  8
0
  6
BYLAYER
 62
     7
 10
311.163832
 20
-480.984642
 30
0.0
 40
6.000000
 50
266.177446
 51
365.73917
  0
ARC
  8
0
  6
BYLAYER
 62
     7
 10
318.626238
 20
-480.234642
 30
0.0
 40
1.5
 50
90.0
 51
185.73917
  0
ARC
  8
0
  6
BYLAYER
 62
     7
 10
310.663832
 20
-488.467957
 30
0.0
 40
1.500000
 50
86.177446
 51
180.0
  0
ARC
  8
0
  6
BYLAYER
 62
     7
 10
333.163832
 20
-485.984642
 30
0.0
 40
3.0
 50
90.0
 51
180.0
  0
ARC
  8
0
  6
BYLAYER
 62
     7
 10
359.163832
 20
-485.984642
 30
0.0
 40
3.0
 50
0.0
 51
90.0
  0
LINE
  8
0
  6
BYLAYER
 62
     7
 10
333.163832
 20
-482.984642
 30
0.0
 11
359.163832
 21
-482.984642
 31
0.0
  0
LINE
  8
0
  6
BYLAYER
 62
     7
 10
330.163832
 20
-485.984642
 30
0.0
 11
330.163832
 21
-512.984642
 31
0.0
  0
LINE
  8
0
  6
BYLAYER
 62
     7
 10
362.163832
 20
-512.984642
 30
0.0
 11
362.163832
 21
-485.984642
 31
0.0
  0
LINE
  8
0
  6
BYLAYER
 62
     7
 10
406.663884
 20
-487.084731
 30
0.0
 11
386.163832
 21
-487.084714
 31
0.0
  0
LINE
  8
0
  6
BYLAYER
 62
     7
 10
406.663884
 20
-485.384749
 30
0.0
 11
386.163832
 21
-485.384732
 31
0.0
  0
LINE
  8
0
  6
BYLAYER
 62
     7
 10
406.663884
 20
-476.384728
 30
0.0
 11
385.683729
 21
-476.384728
 31
0.0
  0
LINE
  8
0
  6
BYLAYER
 62
     7
 10
302.663823
 20
-570.984642
 30
0.0
 11
304.163823
 21
-570.984642
 31
0.0
  0
LINE
  8
0
  6
BYLAYER
 62
     7
 10
302.663823
 20
-512.984642
 30
0.0
 11
302.663823
 21
-580.984642
 31
0.0
  0
LINE
  8
0
  6
BYLAYER
 62
     7
 10
294.163823
 20
-580.984642
 30
0.0
 11
302.663823
 21
-580.984642
 31
0.0
  0
LINE
  8
0
  6
BYLAYER
 62
     7
 10
294.163823
 20
-512.984642
 30
0.0
 11
294.163823
 21
-580.984642
 31
0.0
  0
LINE
  8
0
  6
BYLAYER
 62
     7
 10
304.163823
 20
-512.984642
 30
0.0
 11
304.163823
 21
-570.984642
 31
0.0
  0
LINE
  8
0
  6
BYLAYER
 62
     7
 10
273.163823
 20
-512.984642
 30
0.0
 11
273.163823
 21
-565.542782
 31
0.0
  0
LINE
  8
0
  6
BYLAYER
 62
     7
 10
273.163823
 20
-565.554912
 30
0.0
 11
293.302996
 21
-568.385289
 31
0.0
  0
ARC
  8
0
  6
BYLAYER
 62
     7
 10
293.163823
 20
-569.375557
 30
0.0
 40
1.000000
 50
0.0
 51
82.0
  0
LINE
  8
0
  6
BYLAYER
 62
     7
 10
302.663823
 20
-454.984642
 30
0.0
 11
304.163823
 21
-454.984642
 31
0.0
  0
LINE
  8
0
  6
BYLAYER
 62
     7
 10
302.663823
 20
-512.984642
 30
0.0
 11
302.663823
 21
-444.984642
 31
0.0
  0
LINE
  8
0
  6
BYLAYER
 62
     7
 10
294.163823
 20
-444.984642
 30
0.0
 11
302.663823
 21
-444.984642
 31
0.0
  0
LINE
  8
0
  6
BYLAYER
 62
     7
 10
294.163823
 20
-512.984642
 30
0.0
 11
294.163823
 21
-444.984642
 31
0.0
  0
LINE
  8
0
  6
BYLAYER
 62
     7
 10
304.163823
 20
-512.984642
 30
0.0
 11
304.163823
 21
-454.984642
 31
0.0
  0
LINE
  8
0
  6
BYLAYER
 62
     7
 10
273.163823
 20
-512.984642
 30
0.0
 11
273.163823
 21
-460.426502
 31
0.0
  0
LINE
  8
0
  6
BYLAYER
 62
     7
 10
273.163823
 20
-460.414372
 30
0.0
 11
293.302996
 21
-457.583995
 31
0.0
  0
ARC
  8
0
  6
BYLAYER
 62
     7
 10
293.163823
 20
-456.593727
 30
0.0
 40
1.0
 50
278.000000
 51
360.000000
  0
LINE
  8
0
  6
BYLAYER
 62
     7
 10
465.713884
 20
-582.434642
 30
0.0
 11
465.713884
 21
-443.534642
 31
0.0
  0
ARC
  8
0
  6
BYLAYER
 62
     1
 10
178.163823
 20
-172.984642
 30
0.0
 40
68.000000
 50
244.344062
 51
295.655933
  0
ARC
  8
0
  6
BYLAYER
 62
     1
 10
178.163823
 20
-172.984642
 30
0.0
 40
68.000000
 50
64.344063
 51
115.655935
  0
ARC
  8
0
  6
BYLAYER
 62
     1
 10
206.865125
 20
-103.693687
 30
0.0
 40
26.999977
 50
214.712939
 51
280.286921
  0
ARC
  8
0
  6
BYLAYER
 62
     1
 10
206.865064
 20
-242.275658
 30
0.0
 40
27.000053
 50
79.712932
 51
145.286921
  0
CIRCLE
  8
0
  6
BYLAYER
 62
     1
 10
178.163823
 20
-172.984642
 30
0.0
 40
32.5
  0
CIRCLE
  8
0
  6
BYLAYER
 62
     1
 10
178.163823
 20
-172.984642
 30
0.0
 40
40.0
  0
LINE
  8
0
  6
BYLAYER
 62
     1
 10
211.163831
 20
-71.984711
 30
0.0
 11
145.163823
 21
-71.984711
 31
0.0
  0
LINE
  8
0
  6
BYLAYER
 62
     1
 10
115.163823
 20
-78.984650
 30
0.0
 11
241.163831
 21
-78.984650
 31
0.0
  0
ARC
  8
0
  6
BYLAYER
 62
     1
 10
178.163823
 20
-172.984642
 30
0.0
 40
69.000053
 50
248.368928
 51
291.631073
  0
LINE
  8
0
  6
BYLAYER
 62
     1
 10
211.163831
 20
-243.984642
 30
0.0
 11
145.163823
 21
-243.984642
 31
0.0
  0
CIRCLE
  8
0
  6
BYLAYER
 62
     1
 10
130.663823
 20
-172.984642
 30
0.0
 40
3.5
  0
ARC
  8
0
  6
BYLAYER
 62
     1
 10
130.663823
 20
-172.984642
 30
0.0
 40
4.0
 50
270.0
 51
540.0
  0
ARC
  8
0
  6
BYLAYER
 62
     1
 10
178.163823
 20
-172.984642
 30
0.0
 40
68.0
 50
154.344066
 51
205.655937
  0
ARC
  8
0
  6
BYLAYER
 62
     1
 10
178.163823
 20
-172.984642
 30
0.0
 40
55.000004
 50
174.735596
 51
185.264401
  0
ARC
  8
0
  6
BYLAYER
 62
     1
 10
178.163823
 20
-172.984642
 30
0.0
 40
69.000053
 50
158.368960
 51
201.631037
  0
LINE
  8
0
  6
BYLAYER
 62
     1
 10
107.163823
 20
-205.984642
 30
0.0
 11
107.163823
 21
-141.984642
 31
0.0
  0
LINE
  8
0
  6
BYLAYER
 62
     1
 10
118.153111
 20
-203.492241
 30
0.0
 11
132.872105
 21
-207.436180
 31
0.0
  0
LINE
  8
0
  6
BYLAYER
 62
     1
 10
144.163823
 20
-244.984642
 30
0.0
 11
108.163823
 21
-244.984642
 31
0.0
  0
LINE
  8
0
  6
BYLAYER
 62
     1
 10
114.456715
 20
-236.691765
 30
0.0
 11
121.456715
 21
-229.691734
 31
0.0
  0
LINE
  8
0
  6
BYLAYER
 62
     1
 10
115.163823
 20
-236.984642
 30
0.0
 11
151.991170
 21
-236.984642
 31
0.0
  0
LINE
  8
0
  6
BYLAYER
 62
     1
 10
106.163823
 20
-242.984642
 30
0.0
 11
106.163823
 21
-206.984642
 31
0.0
  0
LINE
  8
0
  6
BYLAYER
 62
     1
 10
114.163823
 20
-235.984642
 30
0.0
 11
114.163823
 21
-206.984642
 31
0.0
  0
LINE
  8
0
  6
BYLAYER
 62
     1
 10
108.163823
 20
-244.984642
 30
0.0
 11
106.163823
 21
-242.984642
 31
0.0
  0
ARC
  8
0
  6
BYLAYER
 62
     1
 10
115.163823
 20
-235.984642
 30
0.0
 40
1.0
 50
180.000000
 51
269.999996
  0
LINE
  8
0
  6
BYLAYER
 62
     1
 10
114.163823
 20
-199.157280
 30
0.0
 11
114.163823
 21
-206.984642
 31
0.0
  0
LINE
  8
0
  6
BYLAYER
 62
     1
 10
114.163823
 20
-227.234642
 30
0.0
 11
106.163823
 21
-227.234642
 31
0.0
  0
LINE
  8
0
  6
BYLAYER
 62
     1
 10
114.163823
 20
-218.734642
 30
0.0
 11
106.163823
 21
-218.734642
 31
0.0
  0
LINE
  8
0
  6
BYLAYER
 62
     1
 10
114.163823
 20
-205.984642
 30
0.0
 11
107.163823
 21
-205.984642
 31
0.0
  0
LINE
  8
0
  6
BYLAYER
 62
     1
 10
114.163823
 20
-206.984642
 30
0.0
 11
106.163823
 21
-206.984642
 31
0.0
  0
LINE
  8
0
  6
BYLAYER
 62
     1
 10
107.163823
 20
-205.984642
 30
0.0
 11
106.163823
 21
-206.984642
 31
0.0
  0
ARC
  8
0
  6
BYLAYER
 62
     1
 10
112.163823
 20
-199.157280
 30
0.0
 40
2.000006
 50
0.0
 51
21.631513
  0
ARC
  8
0
  6
BYLAYER
 62
     1
 10
118.670750
 20
-201.560387
 30
0.0
 40
2.000000
 50
205.655930
 51
254.999993
  0
ARC
  8
0
  6
BYLAYER
 62
     1
 10
149.588078
 20
-232.477715
 30
0.0
 40
2.0
 50
195.000002
 51
244.344065
  0
LINE
  8
0
  6
BYLAYER
 62
     1
 10
123.913823
 20
-244.984642
 30
0.0
 11
123.913823
 21
-236.984642
 31
0.0
  0
LINE
  8
0
  6
BYLAYER
 62
     1
 10
132.413823
 20
-244.984642
 30
0.0
 11
132.413823
 21
-236.984642
 31
0.0
  0
LINE
  8
0
  6
BYLAYER
 62
     1
 10
145.163823
 20
-236.984642
 30
0.0
 11
145.163823
 21
-243.984642
 31
0.0
  0
LINE
  8
0
  6
BYLAYER
 62
     1
 10
144.163823
 20
-244.984642
 30
0.0
 11
144.163823
 21
-236.984642
 31
0.0
  0
LINE
  8
0
  6
BYLAYER
 62
     1
 10
145.163823
 20
-243.984642
 30
0.0
 11
144.163823
 21
-244.984642
 31
0.0
  0
ARC
  8
0
  6
BYLAYER
 62
     1
 10
151.991170
 20
-238.984642
 30
0.0
 40
2.000000
 50
68.368968
 51
90.000000
  0
ARC
  8
0
  6
BYLAYER
 62
     1
 10
149.462529
 20
-242.275597
 30
0.0
 40
26.999977
 50
34.712944
 51
100.286927
  0
CIRCLE
  8
0
  6
BYLAYER
 62
     1
 10
144.576177
 20
-206.572227
 30
0.0
 40
3.5
  0
ARC
  8
0
  6
BYLAYER
 62
     1
 10
144.576177
 20
-206.572227
 30
0.0
 40
4.0
 50
270.0
 51
540.0
  0
ARC
  8
0
  6
BYLAYER
 62
     1
 10
108.872807
 20
-201.685875
 30
0.0
 40
26.999992
 50
349.712926
 51
415.286928
  0
LINE
  8
0
  6
BYLAYER
 62
     1
 10
121.163823
 20
-204.298958
 30
0.0
 11
121.163823
 21
-228.984642
 31
0.0
  0
ARC
  8
0
  6
BYLAYER
 62
     1
 10
178.163823
 20
-172.984642
 30
0.0
 40
56.500000
 50
218.457822
 51
231.542171
  0
ARC
  8
0
  6
BYLAYER
 62
     1
 10
178.163823
 20
-172.984642
 30
0.0
 40
59.5
 50
214.838327
 51
235.161670
  0
ARC
  8
0
  6
BYLAYER
 62
     1
 10
178.163823
 20
-172.984642
 30
0.0
 40
55.000015
 50
219.735573
 51
230.264392
  0
LINE
  8
0
  6
BYLAYER
 62
     1
 10
146.849507
 20
-229.984642
 30
0.0
 11
122.163823
 21
-229.984642
 31
0.0
  0
ARC
  8
0
  6
BYLAYER
 62
     1
 10
122.163823
 20
-228.984642
 30
0.0
 40
1.000000
 50
180.000000
 51
269.999996
  0
ARC
  8
0
  6
BYLAYER
 62
     1
 10
127.686650
 20
-208.117302
 30
0.0
 40
2.0
 50
34.838329
 51
75.000002
  0
ARC
  8
0
  6
BYLAYER
 62
     1
 10
132.354466
 20
-209.368034
 30
0.0
 40
2.000000
 50
38.457824
 51
74.999999
  0
ARC
  8
0
  6
BYLAYER
 62
     1
 10
137.406682
 20
-206.864647
 30
0.0
 40
2.000036
 50
169.713849
 51
219.735682
  0
LINE
  8
0
  6
BYLAYER
 62
     1
 10
147.656224
 20
-232.995354
 30
0.0
 11
143.712285
 21
-218.276390
 31
0.0
  0
LINE
  8
0
  6
BYLAYER
 62
     1
 10
146.325658
 20
-229.984642
 30
0.0
 11
145.231862
 21
-229.984642
 31
0.0
  0
ARC
  8
0
  6
BYLAYER
 62
     1
 10
143.031163
 20
-223.461845
 30
0.0
 40
2.0
 50
14.999997
 51
55.161670
  0
ARC
  8
0
  6
BYLAYER
 62
     1
 10
141.780431
 20
-218.794029
 30
0.0
 40
2.000000
 50
15.0
 51
51.542175
  0
ARC
  8
0
  6
BYLAYER
 62
     1
 10
144.283818
 20
-213.741783
 30
0.0
 40
1.999976
 50
230.263381
 51
280.286785
  0
ARC
  8
0
  6
BYLAYER
 62
     1
 10
125.387395
 20
-177.847496
 30
0.0
 40
1.999986
 50
185.263390
 51
235.286794
  0
CIRCLE
  8
0
  6
BYLAYER
 62
     1
 10
178.163823
 20
-220.484642
 30
0.0
 40
3.5
  0
ARC
  8
0
  6
BYLAYER
 62
     1
 10
178.163823
 20
-220.484642
 30
0.0
 40
4.0
 50
270.0
 51
540.0
  0
ARC
  8
0
  6
BYLAYER
 62
     1
 10
178.163823
 20
-172.984642
 30
0.0
 40
55.000004
 50
264.735564
 51
275.264437
  0
ARC
  8
0
  6
BYLAYER
 62
     1
 10
173.300969
 20
-225.761070
 30
0.0
 40
2.000036
 50
214.713854
 51
264.735673
  0
ARC
  8
0
  6
BYLAYER
 62
     1
 10
183.026677
 20
-225.761131
 30
0.0
 40
1.999952
 50
275.263399
 51
325.286776
  0
LINE
  8
0
  6
BYLAYER
 62
     1
 10
118.153111
 20
-142.477043
 30
0.0
 11
132.872105
 21
-138.533104
 31
0.0
  0
LINE
  8
0
  6
BYLAYER
 62
     1
 10
144.163823
 20
-70.984650
 30
0.0
 11
108.163823
 21
-70.984650
 31
0.0
  0
LINE
  8
0
  6
BYLAYER
 62
     1
 10
115.163823
 20
-128.984581
 30
0.0
 11
129.663808
 21
-128.984581
 31
0.0
  0
LINE
  8
0
  6
BYLAYER
 62
     1
 10
129.663808
 20
-130.984581
 30
0.0
 11
115.163823
 21
-130.984581
 31
0.0
  0
LINE
  8
0
  6
BYLAYER
 62
     1
 10
115.163823
 20
-120.984581
 30
0.0
 11
142.163808
 21
-120.984581
 31
0.0
  0
LINE
  8
0
  6
BYLAYER
 62
     1
 10
142.163808
 20
-118.984581
 30
0.0
 11
115.163823
 21
-118.984581
 31
0.0
  0
LINE
  8
0
  6
BYLAYER
 62
     1
 10
144.663808
 20
-110.984581
 30
0.0
 11
115.163823
 21
-110.984581
 31
0.0
  0
LINE
  8
0
  6
BYLAYER
 62
     1
 10
115.163823
 20
-108.984581
 30
0.0
 11
144.663808
 21
-108.984581
 31
0.0
  0
LINE
  8
0
  6
BYLAYER
 62
     1
 10
106.163823
 20
-72.984650
 30
0.0
 11
106.163823
 21
-140.672630
 31
0.0
  0
LINE
  8
0
  6
BYLAYER
 62
     1
 10
114.163823
 20
-79.984650
 30
0.0
 11
114.163823
 21
-146.812004
 31
0.0
  0
ARC
  8
0
  6
BYLAYER
 62
     1
 10
115.163823
 20
-117.984581
 30
0.0
 40
1.0
 50
180.000000
 51
269.999996
  0
LINE
  8
0
  6
BYLAYER
 62
     1
 10
107.163823
 20
-109.984642
 30
0.0
 11
107.163823
 21
-141.984642
 31
0.0
  0
ARC
  8
0
  6
BYLAYER
 62
     1
 10
112.163823
 20
-146.812004
 30
0.0
 40
2.000006
 50
338.368473
 51
360.000000
  0
LINE
  8
0
  6
BYLAYER
 62
     1
 10
106.163823
 20
-140.672630
 30
0.0
 11
107.163823
 21
-140.707542
 31
0.0
  0
LINE
  8
0
  6
BYLAYER
 62
     1
 10
114.163823
 20
-140.467308
 30
0.0
 11
114.163823
 21
-142.711388
 31
0.0
  0
ARC
  8
0
  6
BYLAYER
 62
     1
 10
118.670750
 20
-144.408897
 30
0.0
 40
2.0
 50
105.000003
 51
154.344066
  0
ARC
  8
0
  6
BYLAYER
 62
     1
 10
115.163823
 20
-127.984581
 30
0.0
 40
1.0
 50
180.000000
 51
269.999996
  0
ARC
  8
0
  6
BYLAYER
 62
     1
 10
115.163823
 20
-131.984581
 30
0.0
 40
1.000000
 50
90.0
 51
180.000003
  0
ARC
  8
0
  6
BYLAYER
 62
     1
 10
115.163823
 20
-121.984581
 30
0.0
 40
1.000000
 50
90.0
 51
180.000003
  0
LINE
  8
0
  6
BYLAYER
 62
     1
 10
114.163823
 20
-109.984642
 30
0.0
 11
107.163823
 21
-109.984642
 31
0.0
  0
LINE
  8
0
  6
BYLAYER
 62
     1
 10
114.163823
 20
-108.984642
 30
0.0
 11
106.163823
 21
-108.984642
 31
0.0
  0
LINE
  8
0
  6
BYLAYER
 62
     1
 10
107.163823
 20
-109.984642
 30
0.0
 11
106.163823
 21
-108.984642
 31
0.0
  0
ARC
  8
0
  6
BYLAYER
 62
     1
 10
115.163823
 20
-111.984581
 30
0.0
 40
1.000000
 50
90.0
 51
180.000003
  0
ARC
  8
0
  6
BYLAYER
 62
     1
 10
115.163823
 20
-107.984581
 30
0.0
 40
1.0
 50
180.000000
 51
269.999996
  0
LINE
  8
0
  6
BYLAYER
 62
     1
 10
114.163823
 20
-97.234642
 30
0.0
 11
106.163823
 21
-97.234642
 31
0.0
  0
LINE
  8
0
  6
BYLAYER
 62
     1
 10
114.163823
 20
-88.734642
 30
0.0
 11
106.163823
 21
-88.734642
 31
0.0
  0
ARC
  8
0
  6
BYLAYER
 62
     1
 10
115.163823
 20
-79.984650
 30
0.0
 40
1.000000
 50
90.0
 51
180.000003
  0
LINE
  8
0
  6
BYLAYER
 62
     1
 10
108.163823
 20
-70.984650
 30
0.0
 11
106.163823
 21
-72.984650
 31
0.0
  0
LINE
  8
0
  6
BYLAYER
 62
     1
 10
143.712285
 20
-127.692924
 30
0.0
 11
147.656224
 21
-112.973930
 31
0.0
  0
ARC
  8
0
  6
BYLAYER
 62
     1
 10
178.163823
 20
-172.984642
 30
0.0
 40
55.000004
 50
84.735566
 51
95.264432
  0
ARC
  8
0
  6
BYLAYER
 62
     1
 10
183.026677
 20
-120.208214
 30
0.0
 40
2.000036
 50
34.713846
 51
84.735689
  0
ARC
  8
0
  6
BYLAYER
 62
     1
 10
173.300969
 20
-120.208153
 30
0.0
 40
1.999952
 50
95.263360
 51
145.286798
  0
ARC
  8
0
  6
BYLAYER
 62
     1
 10
149.462590
 20
-103.693626
 30
0.0
 40
26.999992
 50
259.712889
 51
325.286912
  0
ARC
  8
0
  6
BYLAYER
 62
     1
 10
108.872868
 20
-144.283348
 30
0.0
 40
26.999977
 50
304.712934
 51
370.286924
  0
ARC
  8
0
  6
BYLAYER
 62
     1
 10
125.387395
 20
-168.121788
 30
0.0
 40
2.000036
 50
124.713845
 51
174.735678
  0
ARC
  8
0
  6
BYLAYER
 62
     1
 10
178.163823
 20
-172.984642
 30
0.0
 40
56.500000
 50
128.457827
 51
141.542176
  0
ARC
  8
0
  6
BYLAYER
 62
     1
 10
178.163823
 20
-172.984642
 30
0.0
 40
59.5
 50
124.838332
 51
145.161674
  0
ARC
  8
0
  6
BYLAYER
 62
     1
 10
178.163823
 20
-172.984642
 30
0.0
 40
55.000015
 50
129.735577
 51
140.264355
  0
ARC
  8
0
  6
BYLAYER
 62
     1
 10
127.686650
 20
-137.851982
 30
0.0
 40
2.000000
 50
285.000001
 51
325.161674
  0
ARC
  8
0
  6
BYLAYER
 62
     1
 10
132.354466
 20
-136.601250
 30
0.0
 40
2.0
 50
284.999991
 51
321.542165
  0
ARC
  8
0
  6
BYLAYER
 62
     1
 10
137.406682
 20
-139.104637
 30
0.0
 40
1.999976
 50
140.263385
 51
190.286789
  0
ARC
  8
0
  6
BYLAYER
 62
     1
 10
129.663808
 20
-129.984581
 30
0.0
 40
1.0
 50
270.0
 51
450.000005
  0
ARC
  8
0
  6
BYLAYER
 62
     1
 10
144.576177
 20
-139.397057
 30
0.0
 40
4.0
 50
270.0
 51
540.0
  0
CIRCLE
  8
0
  6
BYLAYER
 62
     1
 10
144.576177
 20
-139.397057
 30
0.0
 40
3.5
  0
ARC
  8
0
  6
BYLAYER
 62
     1
 10
141.780431
 20
-127.175285
 30
0.0
 40
2.0
 50
308.457838
 51
345.000013
  0
ARC
  8
0
  6
BYLAYER
 62
     1
 10
144.283818
 20
-132.227501
 30
0.0
 40
2.000036
 50
79.713833
 51
129.735659
  0
ARC
  8
0
  6
BYLAYER
 62
     1
 10
142.163808
 20
-119.984581
 30
0.0
 40
1.0
 50
270.0
 51
450.000005
  0
ARC
  8
0
  6
BYLAYER
 62
     1
 10
143.031163
 20
-122.507469
 30
0.0
 40
2.000000
 50
304.838337
 51
345.000010
  0
ARC
  8
0
  6
BYLAYER
 62
     1
 10
143.031163
 20
-122.507469
 30
0.0
 40
2.0
 50
304.838340
 51
345.000013
  0
CIRCLE
  8
0
  6
BYLAYER
 62
     1
 10
178.163823
 20
-125.484642
 30
0.0
 40
3.5
  0
ARC
  8
0
  6
BYLAYER
 62
     1
 10
178.163823
 20
-125.484642
 30
0.0
 40
4.0
 50
270.0
 51
540.0
  0
ARC
  8
0
  6
BYLAYER
 62
     1
 10
149.588078
 20
-113.491569
 30
0.0
 40
2.000000
 50
115.655931
 51
164.999994
  0
ARC
  8
0
  6
BYLAYER
 62
     1
 10
144.663808
 20
-109.984581
 30
0.0
 40
1.0
 50
270.0
 51
450.000005
  0
LINE
  8
0
  6
BYLAYER
 62
     1
 10
132.413823
 20
-78.984650
 30
0.0
 11
132.413823
 21
-70.984650
 31
0.0
  0
LINE
  8
0
  6
BYLAYER
 62
     1
 10
123.913823
 20
-78.984650
 30
0.0
 11
123.913823
 21
-70.984650
 31
0.0
  0
LINE
  8
0
  6
BYLAYER
 62
     1
 10
144.163823
 20
-78.984650
 30
0.0
 11
144.163823
 21
-70.984650
 31
0.0
  0
LINE
  8
0
  6
BYLAYER
 62
     1
 10
145.163823
 20
-78.984650
 30
0.0
 11
145.163823
 21
-71.984650
 31
0.0
  0
LINE
  8
0
  6
BYLAYER
 62
     1
 10
144.163823
 20
-70.984650
 30
0.0
 11
145.163823
 21
-71.984650
 31
0.0
  0
CIRCLE
  8
0
  6
BYLAYER
 62
     1
 10
225.663831
 20
-172.984642
 30
0.0
 40
3.5
  0
ARC
  8
0
  6
BYLAYER
 62
     1
 10
225.663831
 20
-172.984642
 30
0.0
 40
4.0
 50
270.0
 51
540.0
  0
ARC
  8
0
  6
BYLAYER
 62
     1
 10
178.163823
 20
-172.984642
 30
0.0
 40
68.0
 50
334.344071
 51
385.655942
  0
ARC
  8
0
  6
BYLAYER
 62
     1
 10
178.163823
 20
-172.984642
 30
0.0
 40
55.000004
 50
354.735601
 51
365.264402
  0
ARC
  8
0
  6
BYLAYER
 62
     1
 10
178.163823
 20
-172.984642
 30
0.0
 40
69.000038
 50
338.368965
 51
381.631042
  0
LINE
  8
0
  6
BYLAYER
 62
     1
 10
249.163831
 20
-205.984642
 30
0.0
 11
249.163831
 21
-154.984642
 31
0.0
  0
ARC
  8
0
  6
BYLAYER
 62
     1
 10
206.739575
 20
-232.477715
 30
0.0
 40
2.000000
 50
295.655950
 51
345.000013
  0
LINE
  8
0
  6
BYLAYER
 62
     1
 10
250.163831
 20
-242.984642
 30
0.0
 11
250.163831
 21
-206.984642
 31
0.0
  0
LINE
  8
0
  6
BYLAYER
 62
     1
 10
241.870923
 20
-236.691765
 30
0.0
 11
235.163831
 21
-229.984642
 31
0.0
  0
LINE
  8
0
  6
BYLAYER
 62
     1
 10
242.163831
 20
-235.984642
 30
0.0
 11
242.163831
 21
-199.157280
 31
0.0
  0
LINE
  8
0
  6
BYLAYER
 62
     1
 10
212.163831
 20
-244.984642
 30
0.0
 11
248.163831
 21
-244.984642
 31
0.0
  0
LINE
  8
0
  6
BYLAYER
 62
     1
 10
204.336469
 20
-236.984642
 30
0.0
 11
241.163831
 21
-236.984642
 31
0.0
  0
ARC
  8
0
  6
BYLAYER
 62
     1
 10
204.336469
 20
-238.984642
 30
0.0
 40
2.000002
 50
90.0
 51
111.631025
  0
LINE
  8
0
  6
BYLAYER
 62
     1
 10
211.163831
 20
-236.984642
 30
0.0
 11
211.163831
 21
-243.984642
 31
0.0
  0
LINE
  8
0
  6
BYLAYER
 62
     1
 10
212.163831
 20
-244.984642
 30
0.0
 11
212.163831
 21
-236.984642
 31
0.0
  0
LINE
  8
0
  6
BYLAYER
 62
     1
 10
211.163831
 20
-243.984642
 30
0.0
 11
212.163831
 21
-244.984642
 31
0.0
  0
LINE
  8
0
  6
BYLAYER
 62
     1
 10
223.913800
 20
-244.984642
 30
0.0
 11
223.913800
 21
-236.984642
 31
0.0
  0
LINE
  8
0
  6
BYLAYER
 62
     1
 10
232.413800
 20
-244.984642
 30
0.0
 11
232.413800
 21
-236.984642
 31
0.0
  0
ARC
  8
0
  6
BYLAYER
 62
     1
 10
241.163831
 20
-235.984642
 30
0.0
 40
1.000000
 50
270.0
 51
360.000003
  0
LINE
  8
0
  6
BYLAYER
 62
     1
 10
248.163831
 20
-244.984642
 30
0.0
 11
250.163831
 21
-242.984642
 31
0.0
  0
LINE
  8
0
  6
BYLAYER
 62
     1
 10
238.174542
 20
-203.492241
 30
0.0
 11
223.455548
 21
-207.436180
 31
0.0
  0
CIRCLE
  8
0
  6
BYLAYER
 62
     1
 10
211.751477
 20
-206.572227
 30
0.0
 40
3.5
  0
ARC
  8
0
  6
BYLAYER
 62
     1
 10
211.751477
 20
-206.572227
 30
0.0
 40
4.0
 50
270.0
 51
540.0
  0
ARC
  8
0
  6
BYLAYER
 62
     1
 10
247.454785
 20
-201.685936
 30
0.0
 40
26.999977
 50
124.712957
 51
190.286926
  0
LINE
  8
0
  6
BYLAYER
 62
     1
 10
235.163831
 20
-204.298958
 30
0.0
 11
235.163831
 21
-229.984642
 31
0.0
  0
ARC
  8
0
  6
BYLAYER
 62
     1
 10
178.163823
 20
-172.984642
 30
0.0
 40
56.500000
 50
308.457818
 51
321.542167
  0
ARC
  8
0
  6
BYLAYER
 62
     1
 10
178.163823
 20
-172.984642
 30
0.0
 40
59.5
 50
304.838337
 51
325.161679
  0
ARC
  8
0
  6
BYLAYER
 62
     1
 10
178.163823
 20
-172.984642
 30
0.0
 40
55.000015
 50
309.735582
 51
320.264428
  0
LINE
  8
0
  6
BYLAYER
 62
     1
 10
235.163831
 20
-229.984642
 30
0.0
 11
209.478146
 21
-229.984642
 31
0.0
  0
LINE
  8
0
  6
BYLAYER
 62
     1
 10
212.615369
 20
-218.276390
 30
0.0
 11
208.671430
 21
-232.995354
 31
0.0
  0
ARC
  8
0
  6
BYLAYER
 62
     1
 10
213.296491
 20
-223.461845
 30
0.0
 40
2.0
 50
124.838332
 51
165.000005
  0
ARC
  8
0
  6
BYLAYER
 62
     1
 10
214.547223
 20
-218.794029
 30
0.0
 40
2.0
 50
128.457827
 51
165.000001
  0
ARC
  8
0
  6
BYLAYER
 62
     1
 10
212.043836
 20
-213.741783
 30
0.0
 40
1.999976
 50
259.713845
 51
309.735692
  0
ARC
  8
0
  6
BYLAYER
 62
     1
 10
218.920972
 20
-206.864647
 30
0.0
 40
1.999976
 50
320.263390
 51
370.286794
  0
ARC
  8
0
  6
BYLAYER
 62
     1
 10
223.973187
 20
-209.368034
 30
0.0
 40
2.0
 50
105.0
 51
141.542174
  0
ARC
  8
0
  6
BYLAYER
 62
     1
 10
228.641003
 20
-208.117302
 30
0.0
 40
2.000000
 50
104.999996
 51
145.161669
  0
ARC
  8
0
  6
BYLAYER
 62
     1
 10
230.940259
 20
-177.847496
 30
0.0
 40
2.000036
 50
304.713863
 51
354.735683
  0
LINE
  8
0
  6
BYLAYER
 62
     1
 10
242.163831
 20
-227.234642
 30
0.0
 11
250.163831
 21
-227.234642
 31
0.0
  0
LINE
  8
0
  6
BYLAYER
 62
     1
 10
242.163831
 20
-218.734642
 30
0.0
 11
250.163831
 21
-218.734642
 31
0.0
  0
LINE
  8
0
  6
BYLAYER
 62
     1
 10
249.163831
 20
-205.984642
 30
0.0
 11
242.163831
 21
-205.984642
 31
0.0
  0
LINE
  8
0
  6
BYLAYER
 62
     1
 10
242.163831
 20
-206.984642
 30
0.0
 11
250.163831
 21
-206.984642
 31
0.0
  0
LINE
  8
0
  6
BYLAYER
 62
     1
 10
249.163831
 20
-205.984642
 30
0.0
 11
250.163831
 21
-206.984642
 31
0.0
  0
ARC
  8
0
  6
BYLAYER
 62
     1
 10
237.656903
 20
-201.560387
 30
0.0
 40
2.0
 50
285.000008
 51
334.344071
  0
ARC
  8
0
  6
BYLAYER
 62
     1
 10
244.163831
 20
-199.157280
 30
0.0
 40
2.000014
 50
158.368564
 51
180.000005
  0
LINE
  8
0
  6
BYLAYER
 62
     1
 10
208.671430
 20
-112.973930
 30
0.0
 11
212.615369
 21
-127.692924
 31
0.0
  0
LINE
  8
0
  6
BYLAYER
 62
     1
 10
252.163831
 20
-149.460503
 30
0.0
 11
252.163831
 21
-71.484650
 31
0.0
  0
ARC
  8
0
  6
BYLAYER
 62
     1
 10
240.163831
 20
-119.265221
 30
0.0
 40
1.999999
 50
22.218640
 51
87.999276
  0
LINE
  8
0
  6
BYLAYER
 62
     1
 10
242.163831
 20
-79.984650
 30
0.0
 11
242.163831
 21
-146.812004
 31
0.0
  0
ARC
  8
0
  6
BYLAYER
 62
     1
 10
241.163831
 20
-117.984581
 30
0.0
 40
1.0
 50
270.0
 51
359.999982
  0
LINE
  8
0
  6
BYLAYER
 62
     1
 10
249.163831
 20
-109.984642
 30
0.0
 11
249.163831
 21
-154.984642
 31
0.0
  0
LINE
  8
0
  6
BYLAYER
 62
     1
 10
223.455548
 20
-138.533104
 30
0.0
 11
238.174542
 21
-142.477043
 31
0.0
  0
LINE
  8
0
  6
BYLAYER
 62
     1
 10
214.163831
 20
-120.984581
 30
0.0
 11
241.163831
 21
-120.984581
 31
0.0
  0
LINE
  8
0
  6
BYLAYER
 62
     1
 10
241.163831
 20
-118.984581
 30
0.0
 11
214.163831
 21
-118.984581
 31
0.0
  0
LINE
  8
0
  6
BYLAYER
 62
     1
 10
241.163831
 20
-130.984581
 30
0.0
 11
226.663831
 21
-130.984581
 31
0.0
  0
LINE
  8
0
  6
BYLAYER
 62
     1
 10
226.663831
 20
-128.984581
 30
0.0
 11
241.163831
 21
-128.984581
 31
0.0
  0
ARC
  8
0
  6
BYLAYER
 62
     1
 10
247.454785
 20
-144.283409
 30
0.0
 40
26.999933
 50
169.712920
 51
202.499864
  0
ARC
  8
0
  6
BYLAYER
 62
     1
 10
222.525403
 20
-146.160057
 30
0.0
 40
2.000020
 50
184.305374
 51
253.817425
  0
ARC
  8
0
  6
BYLAYER
 62
     1
 10
219.738385
 20
-155.763847
 30
0.0
 40
8.000001
 50
331.182513
 51
433.817252
  0
ARC
  8
0
  6
BYLAYER
 62
     1
 10
247.454785
 20
-144.283409
 30
0.0
 40
26.999926
 50
202.499864
 51
235.287067
  0
ARC
  8
0
  6
BYLAYER
 62
     1
 10
228.499982
 20
-160.584068
 30
0.0
 40
2.000012
 50
151.182317
 51
220.695174
  0
ARC
  8
0
  6
BYLAYER
 62
     1
 10
230.940259
 20
-168.121788
 30
0.0
 40
1.999986
 50
5.263381
 51
55.286813
  0
ARC
  8
0
  6
BYLAYER
 62
     1
 10
178.163823
 20
-172.984642
 30
0.0
 40
56.5
 50
38.457824
 51
51.542173
  0
ARC
  8
0
  6
BYLAYER
 62
     1
 10
178.163823
 20
-172.984642
 30
0.0
 40
59.5
 50
34.838329
 51
55.161672
  0
ARC
  8
0
  6
BYLAYER
 62
     1
 10
178.163823
 20
-172.984642
 30
0.0
 40
55.000015
 50
39.735575
 51
50.264424
  0
CIRCLE
  8
0
  6
BYLAYER
 62
     1
 10
211.751477
 20
-139.397057
 30
0.0
 40
3.5
  0
ARC
  8
0
  6
BYLAYER
 62
     1
 10
211.751477
 20
-139.397057
 30
0.0
 40
4.0
 50
270.0
 51
540.0
  0
ARC
  8
0
  6
BYLAYER
 62
     1
 10
214.547223
 20
-127.175285
 30
0.0
 40
2.000000
 50
195.000002
 51
231.542177
  0
ARC
  8
0
  6
BYLAYER
 62
     1
 10
212.043836
 20
-132.227501
 30
0.0
 40
1.999976
 50
50.263400
 51
100.286773
  0
ARC
  8
0
  6
BYLAYER
 62
     1
 10
213.296491
 20
-122.507469
 30
0.0
 40
2.0
 50
194.999992
 51
235.161665
  0
ARC
  8
0
  6
BYLAYER
 62
     1
 10
214.163831
 20
-119.984581
 30
0.0
 40
1.0
 50
90.0
 51
270.000005
  0
ARC
  8
0
  6
BYLAYER
 62
     1
 10
218.920972
 20
-139.104637
 30
0.0
 40
2.000036
 50
349.713854
 51
399.735674
  0
ARC
  8
0
  6
BYLAYER
 62
     1
 10
223.973187
 20
-136.601250
 30
0.0
 40
2.000000
 50
218.457822
 51
254.999997
  0
ARC
  8
0
  6
BYLAYER
 62
     1
 10
228.641003
 20
-137.851982
 30
0.0
 40
2.000000
 50
214.838327
 51
255.000000
  0
ARC
  8
0
  6
BYLAYER
 62
     1
 10
226.663831
 20
-129.984581
 30
0.0
 40
1.0
 50
90.0
 51
270.000005
  0
ARC
  8
0
  6
BYLAYER
 62
     1
 10
244.163831
 20
-146.812004
 30
0.0
 40
2.0
 50
180.000000
 51
201.631592
  0
LINE
  8
0
  6
BYLAYER
 62
     1
 10
252.163831
 20
-149.460503
 30
0.0
 11
249.163831
 21
-149.565269
 31
0.0
  0
ARC
  8
0
  6
BYLAYER
 62
     1
 10
237.656903
 20
-144.408897
 30
0.0
 40
2.000000
 50
25.655936
 51
74.999999
  0
ARC
  8
0
  6
BYLAYER
 62
     1
 10
241.163831
 20
-131.984581
 30
0.0
 40
1.0
 50
0.0
 51
90.000016
  0
ARC
  8
0
  6
BYLAYER
 62
     1
 10
241.163831
 20
-127.984581
 30
0.0
 40
1.0
 50
270.0
 51
359.999982
  0
ARC
  8
0
  6
BYLAYER
 62
     1
 10
241.163831
 20
-121.984581
 30
0.0
 40
1.000000
 50
0.0
 51
90.000016
  0
LINE
  8
0
  6
BYLAYER
 62
     1
 10
251.663831
 20
-70.984650
 30
0.0
 11
212.163831
 21
-70.984650
 31
0.0
  0
LINE
  8
0
  6
BYLAYER
 62
     1
 10
234.094006
 20
-117.052055
 30
0.0
 11
240.233655
 21
-117.266441
 31
0.0
  0
LINE
  8
0
  6
BYLAYER
 62
     1
 10
234.094006
 20
-102.917229
 30
0.0
 11
240.233655
 21
-102.702843
 31
0.0
  0
LINE
  8
0
  6
BYLAYER
 62
     1
 10
231.163831
 20
-110.984581
 30
0.0
 11
211.663831
 21
-110.984581
 31
0.0
  0
LINE
  8
0
  6
BYLAYER
 62
     1
 10
211.663831
 20
-108.984581
 30
0.0
 11
231.163831
 21
-108.984581
 31
0.0
  0
ARC
  8
0
  6
BYLAYER
 62
     1
 10
211.663831
 20
-109.984581
 30
0.0
 40
1.0
 50
90.0
 51
270.000005
  0
ARC
  8
0
  6
BYLAYER
 62
     1
 10
206.739575
 20
-113.491569
 30
0.0
 40
2.000000
 50
15.000000
 51
64.344063
  0
ARC
  8
0
  6
BYLAYER
 62
     1
 10
234.163831
 20
-104.916008
 30
0.0
 40
1.999999
 50
92.000722
 51
180.000005
  0
ARC
  8
0
  6
BYLAYER
 62
     1
 10
231.163831
 20
-111.984581
 30
0.0
 40
1.000000
 50
0.0
 51
90.000016
  0
LINE
  8
0
  6
BYLAYER
 62
     1
 10
232.163831
 20
-104.916008
 30
0.0
 11
232.163831
 21
-115.053276
 31
0.0
  0
ARC
  8
0
  6
BYLAYER
 62
     1
 10
234.163831
 20
-115.053276
 30
0.0
 40
2.0
 50
180.000000
 51
267.999269
  0
ARC
  8
0
  6
BYLAYER
 62
     1
 10
231.163831
 20
-107.984581
 30
0.0
 40
1.000000
 50
270.0
 51
359.999982
  0
LINE
  8
0
  6
BYLAYER
 62
     1
 10
212.163831
 20
-70.984650
 30
0.0
 11
212.163831
 21
-78.984650
 31
0.0
  0
LINE
  8
0
  6
BYLAYER
 62
     1
 10
211.163831
 20
-71.984650
 30
0.0
 11
211.163831
 21
-78.984650
 31
0.0
  0
LINE
  8
0
  6
BYLAYER
 62
     1
 10
211.163831
 20
-71.984650
 30
0.0
 11
212.163831
 21
-70.984650
 31
0.0
  0
LINE
  8
0
  6
BYLAYER
 62
     1
 10
232.413831
 20
-78.984650
 30
0.0
 11
232.413831
 21
-70.984650
 31
0.0
  0
LINE
  8
0
  6
BYLAYER
 62
     1
 10
223.913831
 20
-78.984650
 30
0.0
 11
223.913831
 21
-70.984650
 31
0.0
  0
LINE
  8
0
  6
BYLAYER
 62
     1
 10
250.163831
 20
-108.984642
 30
0.0
 11
250.163831
 21
-72.984650
 31
0.0
  0
LINE
  8
0
  6
BYLAYER
 62
     1
 10
249.163831
 20
-109.984642
 30
0.0
 11
242.163831
 21
-109.984642
 31
0.0
  0
LINE
  8
0
  6
BYLAYER
 62
     1
 10
242.163831
 20
-108.984642
 30
0.0
 11
250.163831
 21
-108.984642
 31
0.0
  0
LINE
  8
0
  6
BYLAYER
 62
     1
 10
249.163831
 20
-109.984642
 30
0.0
 11
250.163831
 21
-108.984642
 31
0.0
  0
ARC
  8
0
  6
BYLAYER
 62
     1
 10
240.163831
 20
-100.704063
 30
0.0
 40
2.0
 50
272.000744
 51
360.0
  0
ARC
  8
0
  6
BYLAYER
 62
     1
 10
241.163831
 20
-79.984650
 30
0.0
 40
1.000000
 50
0.0
 51
90.000003
  0
LINE
  8
0
  6
BYLAYER
 62
     1
 10
250.163831
 20
-72.984650
 30
0.0
 11
248.163831
 21
-70.984650
 31
0.0
  0
LINE
  8
0
  6
BYLAYER
 62
     1
 10
252.163831
 20
-71.484650
 30
0.0
 11
251.663831
 21
-70.984650
 31
0.0
  0
ARC
  8
0
  6
BYLAYER
 62
     1
 10
249.663831
 20
-73.252411
 30
0.0
 40
0.499990
 50
315.001248
 51
360.000000
  0
ARC
  8
0
  6
BYLAYER
 62
     1
 10
166.064092
 20
-98.729705
 30
0.0
 40
2.873727
 50
270.0
 51
308.795511
  0
ARC
  8
0
  6
BYLAYER
 62
     1
 10
165.785989
 20
-98.433525
 30
0.0
 40
3.278957
 50
309.340351
 51
360.0
  0
ARC
  8
0
  6
BYLAYER
 62
     1
 10
165.785989
 20
-98.433525
 30
0.0
 40
3.278957
 50
0.0
 51
50.659649
  0
ARC
  8
0
  6
BYLAYER
 62
     1
 10
166.064092
 20
-98.137345
 30
0.0
 40
2.873727
 50
51.204489
 51
90.0
  0
ARC
  8
0
  6
BYLAYER
 62
     1
 10
166.064092
 20
-98.137319
 30
0.0
 40
2.873701
 50
90.0
 51
128.795693
  0
ARC
  8
0
  6
BYLAYER
 62
     1
 10
166.342220
 20
-98.433525
 30
0.0
 40
3.278967
 50
129.340576
 51
180.0
  0
ARC
  8
0
  6
BYLAYER
 62
     1
 10
166.342220
 20
-98.433525
 30
0.0
 40
3.278967
 50
180.000000
 51
230.659424
  0
ARC
  8
0
  6
BYLAYER
 62
     1
 10
166.064092
 20
-98.729731
 30
0.0
 40
2.873701
 50
231.204307
 51
270.000000
  0
ARC
  8
0
  6
BYLAYER
 62
     1
 10
166.064092
 20
-97.590374
 30
0.0
 40
1.329747
 50
90.0
 51
140.793201
  0
ARC
  8
0
  6
BYLAYER
 62
     1
 10
167.097646
 20
-98.433525
 30
0.0
 40
2.663590
 50
140.793201
 51
180.0
  0
ARC
  8
0
  6
BYLAYER
 62
     1
 10
167.097630
 20
-98.433525
 30
0.0
 40
2.663574
 50
180.000000
 51
219.206869
  0
ARC
  8
0
  6
BYLAYER
 62
     1
 10
166.064092
 20
-99.276665
 30
0.0
 40
1.329750
 50
219.206869
 51
270.000000
  0
ARC
  8
0
  6
BYLAYER
 62
     1
 10
166.064092
 20
-99.276665
 30
0.0
 40
1.329750
 50
270.0
 51
320.793131
  0
ARC
  8
0
  6
BYLAYER
 62
     1
 10
165.030553
 20
-98.433525
 30
0.0
 40
2.663574
 50
320.793131
 51
360.000000
  0
ARC
  8
0
  6
BYLAYER
 62
     1
 10
165.030537
 20
-98.433525
 30
0.0
 40
2.663590
 50
0.0
 51
39.206799
  0
ARC
  8
0
  6
BYLAYER
 62
     1
 10
166.064092
 20
-97.590374
 30
0.0
 40
1.329747
 50
39.206799
 51
90.000000
  0
LINE
  8
0
  6
BYLAYER
 62
     1
 10
156.216252
 20
-101.392097
 30
0.0
 11
156.216252
 21
-95.390404
 31
0.0
  0
LINE
  8
0
  6
BYLAYER
 62
     1
 10
156.216252
 20
-95.390404
 30
0.0
 11
158.656377
 21
-95.390404
 31
0.0
  0
LINE
  8
0
  6
BYLAYER
 62
     1
 10
158.656377
 20
-95.390404
 30
0.0
 11
159.470693
 21
-98.518059
 31
0.0
  0
LINE
  8
0
  6
BYLAYER
 62
     1
 10
156.216252
 20
-101.392097
 30
0.0
 11
157.681462
 21
-101.392097
 31
0.0
  0
LINE
  8
0
  6
BYLAYER
 62
     1
 10
157.681462
 20
-101.392097
 30
0.0
 11
157.681462
 21
-97.926338
 31
0.0
  0
LINE
  8
0
  6
BYLAYER
 62
     1
 10
158.836705
 20
-101.392097
 30
0.0
 11
157.681462
 21
-97.926338
 31
0.0
  0
LINE
  8
0
  6
BYLAYER
 62
     1
 10
162.725133
 20
-101.392097
 30
0.0
 11
162.725133
 21
-95.390404
 31
0.0
  0
LINE
  8
0
  6
BYLAYER
 62
     1
 10
162.725133
 20
-95.390404
 30
0.0
 11
160.285008
 21
-95.390404
 31
0.0
  0
LINE
  8
0
  6
BYLAYER
 62
     1
 10
160.285008
 20
-95.390404
 30
0.0
 11
159.470693
 21
-98.518059
 31
0.0
  0
LINE
  8
0
  6
BYLAYER
 62
     1
 10
162.725133
 20
-101.392097
 30
0.0
 11
161.259923
 21
-101.392097
 31
0.0
  0
LINE
  8
0
  6
BYLAYER
 62
     1
 10
161.259923
 20
-101.392097
 30
0.0
 11
161.259923
 21
-97.926338
 31
0.0
  0
LINE
  8
0
  6
BYLAYER
 62
     1
 10
160.104680
 20
-101.392097
 30
0.0
 11
161.259923
 21
-97.926338
 31
0.0
  0
LINE
  8
0
  6
BYLAYER
 62
     1
 10
160.104680
 20
-101.392097
 30
0.0
 11
158.836705
 21
-101.392097
 31
0.0
  0
LINE
  8
0
  6
BYLAYER
 62
     1
 10
184.195973
 20
-101.392097
 30
0.0
 11
186.478291
 21
-95.390404
 31
0.0
  0
LINE
  8
0
  6
BYLAYER
 62
     1
 10
184.195973
 20
-101.392097
 30
0.0
 11
186.140187
 21
-101.392097
 31
0.0
  0
LINE
  8
0
  6
BYLAYER
 62
     1
 10
186.478291
 20
-95.390404
 30
0.0
 11
188.337972
 21
-95.390404
 31
0.0
  0
LINE
  8
0
  6
BYLAYER
 62
     1
 10
186.140187
 20
-101.392097
 30
0.0
 11
186.428365
 21
-100.546791
 31
0.0
  0
LINE
  8
0
  6
BYLAYER
 62
     1
 10
186.889424
 20
-99.194298
 30
0.0
 11
187.408131
 21
-97.672737
 31
0.0
  0
LINE
  8
0
  6
BYLAYER
 62
     1
 10
190.620320
 20
-101.392097
 30
0.0
 11
188.337972
 21
-95.390404
 31
0.0
  0
LINE
  8
0
  6
BYLAYER
 62
     1
 10
190.620320
 20
-101.392097
 30
0.0
 11
188.676106
 21
-101.392097
 31
0.0
  0
LINE
  8
0
  6
BYLAYER
 62
     1
 10
188.387929
 20
-100.546791
 30
0.0
 11
186.428365
 21
-100.546791
 31
0.0
  0
LINE
  8
0
  6
BYLAYER
 62
     1
 10
187.926839
 20
-99.194298
 30
0.0
 11
186.889424
 21
-99.194298
 31
0.0
  0
LINE
  8
0
  6
BYLAYER
 62
     1
 10
188.676106
 20
-101.392097
 30
0.0
 11
188.387929
 21
-100.546791
 31
0.0
  0
LINE
  8
0
  6
BYLAYER
 62
     1
 10
187.926839
 20
-99.194298
 30
0.0
 11
187.408131
 21
-97.672737
 31
0.0
  0
LINE
  8
0
  6
BYLAYER
 62
     1
 10
169.064946
 20
-96.869698
 30
0.0
 11
170.755559
 21
-96.869698
 31
0.0
  0
LINE
  8
0
  6
BYLAYER
 62
     1
 10
170.755559
 20
-96.869698
 30
0.0
 11
170.755559
 21
-101.392097
 31
0.0
  0
LINE
  8
0
  6
BYLAYER
 62
     1
 10
170.755559
 20
-101.392097
 30
0.0
 11
172.615254
 21
-101.392097
 31
0.0
  0
LINE
  8
0
  6
BYLAYER
 62
     1
 10
172.615254
 20
-101.392097
 30
0.0
 11
172.615254
 21
-96.869698
 31
0.0
  0
LINE
  8
0
  6
BYLAYER
 62
     1
 10
172.615254
 20
-96.869698
 30
0.0
 11
174.305867
 21
-96.869698
 31
0.0
  0
LINE
  8
0
  6
BYLAYER
 62
     1
 10
174.305867
 20
-96.869698
 30
0.0
 11
174.305867
 21
-95.390404
 31
0.0
  0
LINE
  8
0
  6
BYLAYER
 62
     1
 10
174.305867
 20
-95.390404
 30
0.0
 11
169.064946
 21
-95.390404
 31
0.0
  0
LINE
  8
0
  6
BYLAYER
 62
     1
 10
169.064946
 20
-95.390404
 30
0.0
 11
169.064946
 21
-96.869698
 31
0.0
  0
ARC
  8
0
  6
BYLAYER
 62
     1
 10
177.306706
 20
-98.729731
 30
0.0
 40
2.873701
 50
270.0
 51
308.795693
  0
ARC
  8
0
  6
BYLAYER
 62
     1
 10
177.028578
 20
-98.433525
 30
0.0
 40
3.278967
 50
309.340576
 51
360.0
  0
ARC
  8
0
  6
BYLAYER
 62
     1
 10
177.028589
 20
-98.433525
 30
0.0
 40
3.278957
 50
0.0
 51
50.659649
  0
ARC
  8
0
  6
BYLAYER
 62
     1
 10
177.306691
 20
-98.137345
 30
0.0
 40
2.873727
 50
51.204489
 51
90.0
  0
ARC
  8
0
  6
BYLAYER
 62
     1
 10
177.306691
 20
-98.137319
 30
0.0
 40
2.873701
 50
90.0
 51
128.795693
  0
ARC
  8
0
  6
BYLAYER
 62
     1
 10
177.584819
 20
-98.433525
 30
0.0
 40
3.278967
 50
129.340576
 51
180.0
  0
ARC
  8
0
  6
BYLAYER
 62
     1
 10
177.584808
 20
-98.433525
 30
0.0
 40
3.278957
 50
180.000000
 51
230.659649
  0
ARC
  8
0
  6
BYLAYER
 62
     1
 10
177.306706
 20
-98.729705
 30
0.0
 40
2.873727
 50
231.204489
 51
270.000000
  0
ARC
  8
0
  6
BYLAYER
 62
     1
 10
177.306691
 20
-97.590374
 30
0.0
 40
1.329747
 50
90.0
 51
140.793201
  0
ARC
  8
0
  6
BYLAYER
 62
     1
 10
178.340246
 20
-98.433525
 30
0.0
 40
2.663590
 50
140.793201
 51
180.0
  0
ARC
  8
0
  6
BYLAYER
 62
     1
 10
178.340212
 20
-98.433525
 30
0.0
 40
2.663556
 50
180.000000
 51
219.207055
  0
ARC
  8
0
  6
BYLAYER
 62
     1
 10
177.306706
 20
-99.276644
 30
0.0
 40
1.329771
 50
219.207055
 51
270.000000
  0
ARC
  8
0
  6
BYLAYER
 62
     1
 10
177.306706
 20
-99.276665
 30
0.0
 40
1.329750
 50
270.0
 51
320.793131
  0
ARC
  8
0
  6
BYLAYER
 62
     1
 10
176.273168
 20
-98.433525
 30
0.0
 40
2.663574
 50
320.793131
 51
360.000000
  0
ARC
  8
0
  6
BYLAYER
 62
     1
 10
176.273169
 20
-98.433525
 30
0.0
 40
2.663572
 50
0.0
 51
39.206985
  0
ARC
  8
0
  6
BYLAYER
 62
     1
 10
177.306691
 20
-97.590396
 30
0.0
 40
1.329768
 50
39.206985
 51
90.000000
  0
LINE
  8
0
  6
BYLAYER
 62
     1
 10
190.782307
 20
-101.392097
 30
0.0
 11
190.782307
 21
-95.390404
 31
0.0
  0
LINE
  8
0
  6
BYLAYER
 62
     1
 10
190.782307
 20
-95.390404
 30
0.0
 11
194.501653
 21
-95.390404
 31
0.0
  0
ARC
  8
0
  6
BYLAYER
 62
     1
 10
194.501653
 20
-97.081032
 30
0.0
 40
1.690610
 50
287.134650
 51
450.000006
  0
ARC
  8
0
  6
BYLAYER
 62
     1
 10
194.839787
 20
-100.039604
 30
0.0
 40
1.352493
 50
0.0
 51
83.207557
  0
LINE
  8
0
  6
BYLAYER
 62
     1
 10
196.192281
 20
-100.039604
 30
0.0
 11
196.192281
 21
-100.884911
 31
0.0
  0
ARC
  8
0
  6
BYLAYER
 62
     1
 10
197.544774
 20
-100.884911
 30
0.0
 40
1.352493
 50
180.000000
 51
202.024314
  0
LINE
  8
0
  6
BYLAYER
 62
     1
 10
194.431294
 20
-101.392097
 30
0.0
 11
196.290974
 21
-101.392097
 31
0.0
  0
ARC
  8
0
  6
BYLAYER
 62
     1
 10
195.685094
 20
-100.884911
 30
0.0
 40
1.352493
 50
180.000000
 51
202.024314
  0
LINE
  8
0
  6
BYLAYER
 62
     1
 10
194.332600
 20
-100.884911
 30
0.0
 11
194.332600
 21
-100.208672
 31
0.0
  0
LINE
  8
0
  6
BYLAYER
 62
     1
 10
190.782307
 20
-101.392097
 30
0.0
 11
192.557454
 21
-101.392097
 31
0.0
  0
LINE
  8
0
  6
BYLAYER
 62
     1
 10
192.557454
 20
-101.392097
 30
0.0
 11
192.557454
 21
-99.363365
 31
0.0
  0
LINE
  8
0
  6
BYLAYER
 62
     1
 10
193.487294
 20
-99.363365
 30
0.0
 11
192.557454
 21
-99.363365
 31
0.0
  0
ARC
  8
0
  6
BYLAYER
 62
     1
 10
193.487294
 20
-100.208672
 30
0.0
 40
0.845306
 50
0.0
 51
90.000003
  0
LINE
  8
0
  6
BYLAYER
 62
     1
 10
192.557454
 20
-98.010872
 30
0.0
 11
192.557454
 21
-96.742897
 31
0.0
  0
LINE
  8
0
  6
BYLAYER
 62
     1
 10
192.557454
 20
-96.742897
 30
0.0
 11
193.740880
 21
-96.742897
 31
0.0
  0
LINE
  8
0
  6
BYLAYER
 62
     1
 10
192.557454
 20
-98.010872
 30
0.0
 11
193.740880
 21
-98.010872
 31
0.0
  0
ARC
  8
0
  6
BYLAYER
 62
     1
 10
193.740880
 20
-97.376884
 30
0.0
 40
0.633987
 50
270.0
 51
450.000005
  0
LINE
  8
0
  6
BYLAYER
 62
     1
 10
182.716695
 20
-99.494301
 30
0.0
 11
181.617787
 21
-95.390404
 31
0.0
  0
LINE
  8
0
  6
BYLAYER
 62
     1
 10
181.617787
 20
-95.390404
 30
0.0
 11
179.842641
 21
-95.390404
 31
0.0
  0
LINE
  8
0
  6
BYLAYER
 62
     1
 10
179.842641
 20
-95.390404
 30
0.0
 11
181.702321
 21
-101.392097
 31
0.0
  0
LINE
  8
0
  6
BYLAYER
 62
     1
 10
182.716695
 20
-99.494301
 30
0.0
 11
183.815572
 21
-95.390404
 31
0.0
  0
LINE
  8
0
  6
BYLAYER
 62
     1
 10
183.815572
 20
-95.390404
 30
0.0
 11
185.590718
 21
-95.390404
 31
0.0
  0
LINE
  8
0
  6
BYLAYER
 62
     1
 10
185.590718
 20
-95.390404
 30
0.0
 11
183.731038
 21
-101.392097
 31
0.0
  0
LINE
  8
0
  6
BYLAYER
 62
     1
 10
183.731038
 20
-101.392097
 30
0.0
 11
181.702321
 21
-101.392097
 31
0.0
  0
LINE
  8
0
  6
BYLAYER
 62
     1
 10
196.452962
 20
-101.392097
 30
0.0
 11
198.228108
 21
-101.392097
 31
0.0
  0
LINE
  8
0
  6
BYLAYER
 62
     1
 10
198.228108
 20
-101.392097
 30
0.0
 11
198.228108
 21
-95.390404
 31
0.0
  0
LINE
  8
0
  6
BYLAYER
 62
     1
 10
198.228108
 20
-95.390404
 30
0.0
 11
196.452962
 21
-95.390404
 31
0.0
  0
LINE
  8
0
  6
BYLAYER
 62
     1
 10
196.452962
 20
-95.390404
 30
0.0
 11
196.452962
 21
-101.392097
 31
0.0
  0
ARC
  8
0
  6
BYLAYER
 62
     1
 10
201.567082
 20
-98.729731
 30
0.0
 40
2.873701
 50
270.0
 51
308.795693
  0
ARC
  8
0
  6
BYLAYER
 62
     1
 10
201.288954
 20
-98.433525
 30
0.0
 40
3.278967
 50
309.340576
 51
360.000000
  0
ARC
  8
0
  6
BYLAYER
 62
     1
 10
201.288954
 20
-98.433525
 30
0.0
 40
3.278967
 50
0.0
 51
50.659424
  0
ARC
  8
0
  6
BYLAYER
 62
     1
 10
201.567082
 20
-98.137319
 30
0.0
 40
2.873701
 50
51.204307
 51
90.000000
  0
ARC
  8
0
  6
BYLAYER
 62
     1
 10
201.567082
 20
-98.137319
 30
0.0
 40
2.873701
 50
90.0
 51
128.795693
  0
ARC
  8
0
  6
BYLAYER
 62
     1
 10
201.845210
 20
-98.433525
 30
0.0
 40
3.278967
 50
129.340576
 51
180.0
  0
ARC
  8
0
  6
BYLAYER
 62
     1
 10
201.845210
 20
-98.433525
 30
0.0
 40
3.278967
 50
180.000000
 51
230.659424
  0
ARC
  8
0
  6
BYLAYER
 62
     1
 10
201.567082
 20
-98.729731
 30
0.0
 40
2.873701
 50
231.204307
 51
270.0
  0
ARC
  8
0
  6
BYLAYER
 62
     1
 10
201.567082
 20
-97.590374
 30
0.0
 40
1.329747
 50
39.206799
 51
90.000000
  0
ARC
  8
0
  6
BYLAYER
 62
     1
 10
200.533528
 20
-98.433525
 30
0.0
 40
2.663590
 50
0.0
 51
39.206799
  0
ARC
  8
0
  6
BYLAYER
 62
     1
 10
200.533544
 20
-98.433525
 30
0.0
 40
2.663574
 50
320.793131
 51
360.000000
  0
ARC
  8
0
  6
BYLAYER
 62
     1
 10
201.567082
 20
-99.276665
 30
0.0
 40
1.329750
 50
270.0
 51
320.793131
  0
ARC
  8
0
  6
BYLAYER
 62
     1
 10
201.567082
 20
-99.276665
 30
0.0
 40
1.329750
 50
219.206869
 51
270.000000
  0
ARC
  8
0
  6
BYLAYER
 62
     1
 10
202.600621
 20
-98.433525
 30
0.0
 40
2.663574
 50
180.000000
 51
219.206869
  0
ARC
  8
0
  6
BYLAYER
 62
     1
 10
202.600637
 20
-98.433525
 30
0.0
 40
2.663590
 50
140.793201
 51
180.0
  0
ARC
  8
0
  6
BYLAYER
 62
     1
 10
201.567082
 20
-97.590374
 30
0.0
 40
1.329747
 50
90.0
 51
140.793201
  0
ARC
  8
0
  6
BYLAYER
 62
     1
 10
171.595219
 20
-88.519676
 30
0.0
 40
7.429995
 50
174.535650
 51
180.0
  0
LINE
  8
0
  6
BYLAYER
 62
     1
 10
164.198987
 20
-87.812141
 30
0.0
 11
164.198987
 21
-87.812134
 31
0.0
  0
LINE
  8
0
  6
BYLAYER
 62
     1
 10
164.207072
 20
-87.732211
 30
0.0
 11
164.916175
 21
-87.433668
 31
0.0
  0
ARC
  8
0
  6
BYLAYER
 62
     1
 10
171.595250
 20
-88.519737
 30
0.0
 40
6.766781
 50
159.235383
 51
170.763998
  0
LINE
  8
0
  6
BYLAYER
 62
     1
 10
165.267975
 20
-86.120672
 30
0.0
 11
164.803177
 21
-85.507559
 31
0.0
  0
ARC
  8
0
  6
BYLAYER
 62
     1
 10
171.595219
 20
-88.519676
 30
0.0
 40
7.429986
 50
144.139514
 51
156.083795
  0
LINE
  8
0
  6
BYLAYER
 62
     1
 10
165.524754
 20
-84.235481
 30
0.0
 11
165.525197
 21
-84.234856
 31
0.0
  0
LINE
  8
0
  6
BYLAYER
 62
     1
 10
165.573618
 20
-84.167089
 30
0.0
 11
166.328543
 21
-84.270953
 31
0.0
  0
ARC
  8
0
  6
BYLAYER
 62
     1
 10
171.595219
 20
-88.519676
 30
0.0
 40
6.766741
 50
129.235643
 51
141.105976
  0
LINE
  8
0
  6
BYLAYER
 62
     1
 10
167.204533
 20
-83.370819
 30
0.0
 11
167.205266
 21
-83.370186
 31
0.0
  0
LINE
  8
0
  6
BYLAYER
 62
     1
 10
167.315180
 20
-83.278489
 30
0.0
 11
167.219186
 21
-82.515083
 31
0.0
  0
ARC
  8
0
  6
BYLAYER
 62
     1
 10
171.595219
 20
-88.519676
 30
0.0
 40
7.429994
 50
114.139607
 51
126.083853
  0
LINE
  8
0
  6
BYLAYER
 62
     1
 10
168.480672
 20
-81.773979
 30
0.0
 11
168.481175
 21
-81.773743
 31
0.0
  0
LINE
  8
0
  6
BYLAYER
 62
     1
 10
168.556639
 20
-81.739422
 30
0.0
 11
169.158468
 21
-82.206817
 31
0.0
  0
LINE
  8
0
  6
BYLAYER
 62
     1
 10
169.296071
 20
-82.155495
 30
0.0
 11
169.296834
 21
-82.155228
 31
0.0
  0
ARC
  8
0
  6
BYLAYER
 62
     1
 10
171.595219
 20
-88.519676
 30
0.0
 40
6.766738
 50
99.235601
 51
111.106038
  0
ARC
  8
0
  6
BYLAYER
 62
     1
 10
171.595219
 20
-88.519676
 30
0.0
 40
7.429995
 50
90.0
 51
96.083892
  0
LINE
  8
0
  6
BYLAYER
 62
     1
 10
170.807755
 20
-81.131529
 30
0.0
 11
170.509195
 21
-81.840657
 31
0.0
  0
LINE
  8
0
  6
BYLAYER
 62
     1
 10
178.991444
 20
-87.812141
 30
0.0
 11
178.991444
 21
-87.812134
 31
0.0
  0
LINE
  8
0
  6
BYLAYER
 62
     1
 10
178.983367
 20
-87.732210
 30
0.0
 11
178.274228
 21
-87.433661
 31
0.0
  0
ARC
  8
0
  6
BYLAYER
 62
     1
 10
171.595174
 20
-88.519737
 30
0.0
 40
6.766781
 50
9.235986
 51
20.764650
  0
LINE
  8
0
  6
BYLAYER
 62
     1
 10
177.922498
 20
-86.120602
 30
0.0
 11
178.387263
 21
-85.507560
 31
0.0
  0
ARC
  8
0
  6
BYLAYER
 62
     1
 10
171.595219
 20
-88.519676
 30
0.0
 40
7.429986
 50
23.916189
 51
35.860484
  0
LINE
  8
0
  6
BYLAYER
 62
     1
 10
177.665669
 20
-84.235481
 30
0.0
 11
177.665227
 21
-84.234856
 31
0.0
  0
LINE
  8
0
  6
BYLAYER
 62
     1
 10
177.616821
 20
-84.167090
 30
0.0
 11
176.861949
 21
-84.270944
 31
0.0
  0
ARC
  8
0
  6
BYLAYER
 62
     1
 10
171.595219
 20
-88.519676
 30
0.0
 40
6.766741
 50
38.894050
 51
50.764315
  0
LINE
  8
0
  6
BYLAYER
 62
     1
 10
175.985906
 20
-83.370819
 30
0.0
 11
175.985173
 21
-83.370186
 31
0.0
  0
LINE
  8
0
  6
BYLAYER
 62
     1
 10
175.875279
 20
-83.278367
 30
0.0
 11
175.971237
 21
-82.515071
 31
0.0
  0
ARC
  8
0
  6
BYLAYER
 62
     1
 10
171.595219
 20
-88.519676
 30
0.0
 40
7.429994
 50
53.916300
 51
65.860381
  0
LINE
  8
0
  6
BYLAYER
 62
     1
 10
174.709767
 20
-81.773979
 30
0.0
 11
174.709248
 21
-81.773743
 31
0.0
  0
LINE
  8
0
  6
BYLAYER
 62
     1
 10
174.633802
 20
-81.739423
 30
0.0
 11
174.031978
 21
-82.206796
 31
0.0
  0
LINE
  8
0
  6
BYLAYER
 62
     1
 10
173.894353
 20
-82.155495
 30
0.0
 11
173.893605
 21
-82.155228
 31
0.0
  0
ARC
  8
0
  6
BYLAYER
 62
     1
 10
171.595219
 20
-88.519676
 30
0.0
 40
6.766738
 50
68.894081
 51
80.764578
  0
ARC
  8
0
  6
BYLAYER
 62
     1
 10
171.595219
 20
-88.519676
 30
0.0
 40
7.429995
 50
84.535428
 51
90.000003
  0
LINE
  8
0
  6
BYLAYER
 62
     1
 10
172.382687
 20
-81.131529
 30
0.0
 11
172.681174
 21
-81.840536
 31
0.0
  0
ARC
  8
0
  6
BYLAYER
 62
     1
 10
171.595219
 20
-88.519676
 30
0.0
 40
7.429995
 50
180.000000
 51
186.083899
  0
LINE
  8
0
  6
BYLAYER
 62
     1
 10
164.198987
 20
-89.227203
 30
0.0
 11
164.198987
 21
-89.227219
 31
0.0
  0
LINE
  8
0
  6
BYLAYER
 62
     1
 10
164.207072
 20
-89.307142
 30
0.0
 11
164.916196
 21
-89.605693
 31
0.0
  0
ARC
  8
0
  6
BYLAYER
 62
     1
 10
171.595250
 20
-88.519615
 30
0.0
 40
6.766781
 50
189.236002
 51
200.764629
  0
LINE
  8
0
  6
BYLAYER
 62
     1
 10
165.268000
 20
-90.918650
 30
0.0
 11
164.803174
 21
-91.531788
 31
0.0
  0
ARC
  8
0
  6
BYLAYER
 62
     1
 10
171.595219
 20
-88.519676
 30
0.0
 40
7.429986
 50
203.916158
 51
215.860410
  0
LINE
  8
0
  6
BYLAYER
 62
     1
 10
165.524754
 20
-92.803863
 30
0.0
 11
165.525197
 21
-92.804489
 31
0.0
  0
LINE
  8
0
  6
BYLAYER
 62
     1
 10
165.573612
 20
-92.872255
 30
0.0
 11
166.328608
 21
-92.768392
 31
0.0
  0
ARC
  8
0
  6
BYLAYER
 62
     1
 10
171.595219
 20
-88.519676
 30
0.0
 40
6.766741
 50
218.894045
 51
230.764345
  0
LINE
  8
0
  6
BYLAYER
 62
     1
 10
167.204533
 20
-93.668526
 30
0.0
 11
167.205266
 21
-93.669159
 31
0.0
  0
LINE
  8
0
  6
BYLAYER
 62
     1
 10
167.315179
 20
-93.760862
 30
0.0
 11
167.219186
 21
-94.524270
 31
0.0
  0
ARC
  8
0
  6
BYLAYER
 62
     1
 10
171.595219
 20
-88.519676
 30
0.0
 40
7.429994
 50
233.916148
 51
245.860401
  0
LINE
  8
0
  6
BYLAYER
 62
     1
 10
168.480672
 20
-95.265366
 30
0.0
 11
168.481175
 21
-95.265610
 31
0.0
  0
LINE
  8
0
  6
BYLAYER
 62
     1
 10
168.556640
 20
-95.299930
 30
0.0
 11
169.158539
 21
-94.832470
 31
0.0
  0
LINE
  8
0
  6
BYLAYER
 62
     1
 10
169.296071
 20
-94.883850
 30
0.0
 11
169.296834
 21
-94.884125
 31
0.0
  0
LINE
  8
0
  6
BYLAYER
 62
     1
 10
178.991444
 20
-89.227203
 30
0.0
 11
178.991444
 21
-89.227219
 31
0.0
  0
LINE
  8
0
  6
BYLAYER
 62
     1
 10
178.983366
 20
-89.307143
 30
0.0
 11
178.274228
 21
-89.605691
 31
0.0
  0
LINE
  8
0
  6
BYLAYER
 62
     1
 10
177.922432
 20
-90.918667
 30
0.0
 11
178.387271
 21
-91.531793
 31
0.0
  0
LINE
  8
0
  6
BYLAYER
 62
     1
 10
177.665669
 20
-92.803863
 30
0.0
 11
177.665227
 21
-92.804489
 31
0.0
  0
LINE
  8
0
  6
BYLAYER
 62
     1
 10
177.616836
 20
-92.872256
 30
0.0
 11
176.861790
 21
-92.768389
 31
0.0
  0
LINE
  8
0
  6
BYLAYER
 62
     1
 10
175.985906
 20
-93.668526
 30
0.0
 11
175.985173
 21
-93.669159
 31
0.0
  0
LINE
  8
0
  6
BYLAYER
 62
     1
 10
175.875264
 20
-93.760859
 30
0.0
 11
175.971237
 21
-94.524281
 31
0.0
  0
LINE
  8
0
  6
BYLAYER
 62
     1
 10
174.633801
 20
-95.299930
 30
0.0
 11
174.031887
 21
-94.832475
 31
0.0
  0
ARC
  8
0
  6
BYLAYER
 62
     1
 10
171.595219
 20
-88.519676
 30
0.0
 40
6.766741
 50
309.235697
 51
321.105929
  0
ARC
  8
0
  6
BYLAYER
 62
     1
 10
171.595219
 20
-88.519676
 30
0.0
 40
6.766738
 50
248.893873
 51
270.0
  0
ARC
  8
0
  6
BYLAYER
 62
     1
 10
171.595219
 20
-88.519676
 30
0.0
 40
7.429994
 50
294.783232
 51
306.083699
  0
LINE
  8
0
  6
BYLAYER
 62
     1
 10
174.709248
 20
-95.265610
 30
0.0
 11
174.634258
 21
-95.300899
 31
0.0
  0
ARC
  8
0
  6
BYLAYER
 62
     1
 10
171.595219
 20
-88.519676
 30
0.0
 40
7.429986
 50
324.139593
 51
336.083825
  0
ARC
  8
0
  6
BYLAYER
 62
     1
 10
171.595174
 20
-88.519615
 30
0.0
 40
6.766781
 50
339.235210
 51
350.764014
  0
ARC
  8
0
  6
BYLAYER
 62
     1
 10
171.595219
 20
-88.519676
 30
0.0
 40
7.429995
 50
353.916089
 51
360.0
  0
ARC
  8
0
  6
BYLAYER
 62
     1
 10
171.595219
 20
-88.519676
 30
0.0
 40
7.429995
 50
0.0
 51
6.083907
  0
ARC
  8
0
  6
BYLAYER
 62
     1
 10
171.595219
 20
-88.519676
 30
0.0
 40
6.766738
 50
270.0
 51
291.106008
  0
CIRCLE
  8
0
  6
BYLAYER
 62
     1
 10
171.595219
 20
-88.519676
 30
0.0
 40
3.630081
  0
CIRCLE
  8
0
  6
BYLAYER
 62
     1
 10
171.595219
 20
-88.519676
 30
0.0
 40
5.296032
  0
LINE
  8
0
  6
BYLAYER
 62
     1
 10
178.163823
 20
-172.984642
 30
0.0
 11
175.163823
 21
-172.984642
 31
0.0
  0
LINE
  8
0
  6
BYLAYER
 62
     1
 10
178.163823
 20
-172.984642
 30
0.0
 11
178.163823
 21
-175.984642
 31
0.0
  0
LINE
  8
0
  6
BYLAYER
 62
     1
 10
178.163823
 20
-172.984642
 30
0.0
 11
181.163823
 21
-172.984642
 31
0.0
  0
LINE
  8
0
  6
BYLAYER
 62
     1
 10
178.163823
 20
-172.984642
 30
0.0
 11
178.163823
 21
-169.984642
 31
0.0
  0
ARC
  8
0
  6
BYLAYER
 62
     1
 10
809.663815
 20
-460.148552
 30
0.0
 40
2.000000
 50
197.341476
 51
360.000000
  0
LINE
  8
0
  6
BYLAYER
 62
     1
 10
811.148618
 20
-468.984611
 30
0.0
 11
829.663815
 21
-468.984611
 31
0.0
  0
LINE
  8
0
  6
BYLAYER
 62
     1
 10
778.163823
 20
-431.984619
 30
0.0
 11
811.663815
 21
-431.984619
 31
0.0
  0
LINE
  8
0
  6
BYLAYER
 62
     1
 10
725.163823
 20
-587.984673
 30
0.0
 11
725.163823
 21
-520.868980
 31
0.0
  0
LINE
  8
0
  6
BYLAYER
 62
     1
 10
722.163823
 20
-572.484673
 30
0.0
 11
722.163823
 21
-493.484611
 31
0.0
  0
LINE
  8
0
  6
BYLAYER
 62
     1
 10
744.663823
 20
-468.984611
 30
0.0
 11
744.663823
 21
-604.984673
 31
0.0
  0
LINE
  8
0
  6
BYLAYER
 62
     1
 10
727.663823
 20
-565.984611
 30
0.0
 11
727.663823
 21
-469.984611
 31
0.0
  0
CIRCLE
  8
0
  6
BYLAYER
 62
     1
 10
735.663823
 20
-582.984673
 30
0.0
 40
4.25
  0
LINE
  8
0
  6
BYLAYER
 62
     1
 10
727.663823
 20
-565.984611
 30
0.0
 11
744.663823
 21
-565.984611
 31
0.0
  0
LINE
  8
0
  6
BYLAYER
 62
     1
 10
744.663823
 20
-566.984673
 30
0.0
 11
726.663823
 21
-566.984673
 31
0.0
  0
LINE
  8
0
  6
BYLAYER
 62
     1
 10
726.663823
 20
-604.984673
 30
0.0
 11
744.663823
 21
-604.984673
 31
0.0
  0
LINE
  8
0
  6
BYLAYER
 62
     1
 10
726.663823
 20
-604.984673
 30
0.0
 11
726.663823
 21
-566.984673
 31
0.0
  0
LINE
  8
0
  6
BYLAYER
 62
     1
 10
725.163823
 20
-587.984673
 30
0.0
 11
726.663823
 21
-588.037071
 31
0.0
  0
LINE
  8
0
  6
BYLAYER
 62
     1
 10
724.763829
 20
-572.984673
 30
0.0
 11
722.663823
 21
-572.984673
 31
0.0
  0
LINE
  8
0
  6
BYLAYER
 62
     1
 10
722.663823
 20
-572.984673
 30
0.0
 11
722.163823
 21
-572.484673
 31
0.0
  0
ARC
  8
0
  6
BYLAYER
 62
     1
 10
724.763829
 20
-573.384666
 30
0.0
 40
0.399994
 50
0.0
 51
90.000003
  0
LINE
  8
0
  6
BYLAYER
 62
     1
 10
726.663823
 20
-566.984673
 30
0.0
 11
727.663823
 21
-565.984611
 31
0.0
  0
LINE
  8
0
  6
BYLAYER
 62
     1
 10
726.663823
 20
-468.984611
 30
0.0
 11
745.179021
 21
-468.984611
 31
0.0
  0
CIRCLE
  8
0
  6
BYLAYER
 62
     1
 10
735.663823
 20
-452.984611
 30
0.0
 40
4.25
  0
LINE
  8
0
  6
BYLAYER
 62
     1
 10
727.663823
 20
-469.984611
 30
0.0
 11
744.663823
 21
-469.984611
 31
0.0
  0
LINE
  8
0
  6
BYLAYER
 62
     1
 10
744.663823
 20
-430.984619
 30
0.0
 11
726.663823
 21
-430.984619
 31
0.0
  0
LINE
  8
0
  6
BYLAYER
 62
     1
 10
725.163823
 20
-514.520500
 30
0.0
 11
725.163823
 21
-477.984673
 31
0.0
  0
LINE
  8
0
  6
BYLAYER
 62
     1
 10
722.163823
 20
-520.921349
 30
0.0
 11
725.163823
 21
-520.868980
 31
0.0
  0
LINE
  8
0
  6
BYLAYER
 62
     1
 10
722.163823
 20
-514.572868
 30
0.0
 11
725.163823
 21
-514.520500
 31
0.0
  0
LINE
  8
0
  6
BYLAYER
 62
     1
 10
724.763829
 20
-492.984611
 30
0.0
 11
722.663823
 21
-492.984611
 31
0.0
  0
LINE
  8
0
  6
BYLAYER
 62
     1
 10
722.663823
 20
-492.984611
 30
0.0
 11
722.163823
 21
-493.484611
 31
0.0
  0
ARC
  8
0
  6
BYLAYER
 62
     1
 10
724.763829
 20
-492.584618
 30
0.0
 40
0.399994
 50
270.0
 51
360.000003
  0
LINE
  8
0
  6
BYLAYER
 62
     1
 10
726.663823
 20
-430.984619
 30
0.0
 11
726.663823
 21
-468.984611
 31
0.0
  0
LINE
  8
0
  6
BYLAYER
 62
     1
 10
725.163823
 20
-477.984673
 30
0.0
 11
727.663823
 21
-477.897362
 31
0.0
  0
LINE
  8
0
  6
BYLAYER
 62
     1
 10
727.663823
 20
-469.984611
 30
0.0
 11
726.663823
 21
-468.984611
 31
0.0
  0
CIRCLE
  8
0
  6
BYLAYER
 62
     1
 10
778.163823
 20
-469.984611
 30
0.0
 40
26.0
  0
ARC
  8
0
  6
BYLAYER
 62
     1
 10
778.163823
 20
-469.984611
 30
0.0
 40
30.999969
 50
330.532607
 51
358.263503
  0
ARC
  8
0
  6
BYLAYER
 62
     1
 10
778.163823
 20
-469.984611
 30
0.0
 40
30.999985
 50
181.736499
 51
209.467395
  0
ARC
  8
0
  6
BYLAYER
 62
     1
 10
778.163823
 20
-469.984611
 30
0.0
 40
30.999969
 50
240.532625
 51
299.467377
  0
ARC
  8
0
  6
BYLAYER
 62
     1
 10
754.475743
 20
-493.672691
 30
0.0
 40
6.999983
 50
124.078036
 51
325.921956
  0
CIRCLE
  8
0
  6
BYLAYER
 62
     1
 10
754.475743
 20
-493.672691
 30
0.0
 40
3.725006
  0
ARC
  8
0
  6
BYLAYER
 62
     1
 10
749.432866
 20
-486.218224
 30
0.0
 40
2.000000
 50
304.077782
 51
389.467386
  0
ARC
  8
0
  6
BYLAYER
 62
     1
 10
761.930211
 20
-498.715569
 30
0.0
 40
2.000000
 50
60.532613
 51
145.922224
  0
ARC
  8
0
  6
BYLAYER
 62
     1
 10
801.851903
 20
-493.672691
 30
0.0
 40
6.999983
 50
214.078032
 51
415.921965
  0
CIRCLE
  8
0
  6
BYLAYER
 62
     1
 10
801.851903
 20
-493.672691
 30
0.0
 40
3.725006
  0
ARC
  8
0
  6
BYLAYER
 62
     1
 10
794.397435
 20
-498.715569
 30
0.0
 40
2.0
 50
34.077788
 51
119.467372
  0
ARC
  8
0
  6
BYLAYER
 62
     1
 10
806.894772
 20
-486.218224
 30
0.0
 40
2.0
 50
150.532602
 51
235.922192
  0
ARC
  8
0
  6
BYLAYER
 62
     1
 10
778.163823
 20
-469.984611
 30
0.0
 40
30.999969
 50
60.532613
 51
119.467385
  0
LINE
  8
0
  6
BYLAYER
 62
     1
 10
744.663823
 20
-431.984619
 30
0.0
 11
778.163823
 21
-431.984619
 31
0.0
  0
LINE
  8
0
  6
BYLAYER
 62
     1
 10
744.663823
 20
-460.148552
 30
0.0
 11
744.663823
 21
-430.984619
 31
0.0
  0
ARC
  8
0
  6
BYLAYER
 62
     1
 10
754.475743
 20
-446.296532
 30
0.0
 40
6.999983
 50
34.078037
 51
235.921971
  0
CIRCLE
  8
0
  6
BYLAYER
 62
     1
 10
754.475743
 20
-446.296532
 30
0.0
 40
3.725006
  0
ARC
  8
0
  6
BYLAYER
 62
     1
 10
745.179021
 20
-470.984611
 30
0.0
 40
1.999972
 50
1.736578
 51
90.000005
  0
ARC
  8
0
  6
BYLAYER
 62
     1
 10
746.663823
 20
-460.148552
 30
0.0
 40
2.0
 50
180.000000
 51
342.658537
  0
ARC
  8
0
  6
BYLAYER
 62
     1
 10
778.163823
 20
-469.984611
 30
0.0
 40
30.999969
 50
150.532615
 51
162.658728
  0
ARC
  8
0
  6
BYLAYER
 62
     1
 10
749.432866
 20
-453.750999
 30
0.0
 40
2.000000
 50
330.532634
 51
415.922211
  0
ARC
  8
0
  6
BYLAYER
 62
     1
 10
759.413854
 20
-437.508667
 30
0.0
 40
6.999945
 50
111.250353
 51
127.893298
  0
ARC
  8
0
  6
BYLAYER
 62
     1
 10
761.930211
 20
-441.253662
 30
0.0
 40
2.000000
 50
214.077800
 51
299.467377
  0
LINE
  8
0
  6
BYLAYER
 62
     1
 10
761.950963
 20
-430.984619
 30
0.0
 11
756.876744
 21
-430.984619
 31
0.0
  0
ARC
  8
0
  6
BYLAYER
 62
     1
 10
759.413854
 20
-437.508667
 30
0.0
 40
7.000009
 50
52.105911
 51
68.749652
  0
ARC
  8
0
  6
BYLAYER
 62
     1
 10
801.851903
 20
-446.296532
 30
0.0
 40
6.999983
 50
304.078031
 51
505.921965
  0
CIRCLE
  8
0
  6
BYLAYER
 62
     1
 10
801.851903
 20
-446.296532
 30
0.0
 40
3.725006
  0
ARC
  8
0
  6
BYLAYER
 62
     1
 10
811.148618
 20
-470.984611
 30
0.0
 40
1.999972
 50
90.0
 51
178.26342
  0
ARC
  8
0
  6
BYLAYER
 62
     1
 10
778.163823
 20
-469.984611
 30
0.0
 40
30.999969
 50
17.341271
 51
29.467386
  0
ARC
  8
0
  6
BYLAYER
 62
     1
 10
806.894772
 20
-453.750999
 30
0.0
 40
2.0
 50
124.077790
 51
209.467367
  0
ARC
  8
0
  6
BYLAYER
 62
     1
 10
796.913854
 20
-437.508667
 30
0.0
 40
7.000009
 50
111.250353
 51
127.894090
  0
ARC
  8
0
  6
BYLAYER
 62
     1
 10
794.397435
 20
-441.253662
 30
0.0
 40
2.0
 50
240.532625
 51
325.922202
  0
LINE
  8
0
  6
BYLAYER
 62
     1
 10
794.376744
 20
-430.984619
 30
0.0
 11
799.450963
 21
-430.984619
 31
0.0
  0
ARC
  8
0
  6
BYLAYER
 62
     1
 10
796.913854
 20
-437.508667
 30
0.0
 40
6.999945
 50
52.106700
 51
68.749652
  0
LINE
  8
0
  6
BYLAYER
 62
     1
 10
831.163815
 20
-587.984673
 30
0.0
 11
831.163815
 21
-520.868980
 31
0.0
  0
LINE
  8
0
  6
BYLAYER
 62
     1
 10
834.163815
 20
-572.484673
 30
0.0
 11
834.163815
 21
-493.484611
 31
0.0
  0
LINE
  8
0
  6
BYLAYER
 62
     1
 10
811.663815
 20
-468.984611
 30
0.0
 11
811.663815
 21
-604.984673
 31
0.0
  0
LINE
  8
0
  6
BYLAYER
 62
     1
 10
828.663815
 20
-565.984611
 30
0.0
 11
828.663815
 21
-469.984611
 31
0.0
  0
LINE
  8
0
  6
BYLAYER
 62
     1
 10
829.663815
 20
-566.984673
 30
0.0
 11
829.663815
 21
-604.984673
 31
0.0
  0
LINE
  8
0
  6
BYLAYER
 62
     1
 10
829.663815
 20
-604.984673
 30
0.0
 11
811.663815
 21
-604.984673
 31
0.0
  0
LINE
  8
0
  6
BYLAYER
 62
     1
 10
831.163815
 20
-587.984673
 30
0.0
 11
829.663815
 21
-588.037071
 31
0.0
  0
CIRCLE
  8
0
  6
BYLAYER
 62
     1
 10
820.663815
 20
-582.984673
 30
0.0
 40
4.25
  0
LINE
  8
0
  6
BYLAYER
 62
     1
 10
811.663815
 20
-566.984673
 30
0.0
 11
829.663815
 21
-566.984673
 31
0.0
  0
LINE
  8
0
  6
BYLAYER
 62
     1
 10
811.663815
 20
-565.984611
 30
0.0
 11
828.663815
 21
-565.984611
 31
0.0
  0
LINE
  8
0
  6
BYLAYER
 62
     1
 10
829.663815
 20
-566.984673
 30
0.0
 11
828.663815
 21
-565.984611
 31
0.0
  0
ARC
  8
0
  6
BYLAYER
 62
     1
 10
831.563809
 20
-573.384666
 30
0.0
 40
0.399994
 50
90.0
 51
180.000003
  0
LINE
  8
0
  6
BYLAYER
 62
     1
 10
831.563809
 20
-572.984673
 30
0.0
 11
833.663815
 21
-572.984673
 31
0.0
  0
LINE
  8
0
  6
BYLAYER
 62
     1
 10
833.663815
 20
-572.984673
 30
0.0
 11
834.163815
 21
-572.484673
 31
0.0
  0
LINE
  8
0
  6
BYLAYER
 62
     1
 10
831.163815
 20
-514.520500
 30
0.0
 11
831.163815
 21
-477.984673
 31
0.0
  0
LINE
  8
0
  6
BYLAYER
 62
     1
 10
834.163815
 20
-520.921349
 30
0.0
 11
831.163815
 21
-520.868980
 31
0.0
  0
LINE
  8
0
  6
BYLAYER
 62
     1
 10
834.163815
 20
-514.572868
 30
0.0
 11
831.163815
 21
-514.520500
 31
0.0
  0
LINE
  8
0
  6
BYLAYER
 62
     1
 10
831.563809
 20
-492.984611
 30
0.0
 11
833.663815
 21
-492.984611
 31
0.0
  0
ARC
  8
0
  6
BYLAYER
 62
     1
 10
831.563809
 20
-492.584618
 30
0.0
 40
0.399994
 50
180.000000
 51
270.000003
  0
LINE
  8
0
  6
BYLAYER
 62
     1
 10
833.663815
 20
-492.984611
 30
0.0
 11
834.163815
 21
-493.484611
 31
0.0
  0
LINE
  8
0
  6
BYLAYER
 62
     1
 10
811.663815
 20
-460.148552
 30
0.0
 11
811.663815
 21
-430.984619
 31
0.0
  0
CIRCLE
  8
0
  6
BYLAYER
 62
     1
 10
820.663815
 20
-452.984611
 30
0.0
 40
4.25
  0
LINE
  8
0
  6
BYLAYER
 62
     1
 10
829.663815
 20
-430.984619
 30
0.0
 11
829.663815
 21
-468.984611
 31
0.0
  0
LINE
  8
0
  6
BYLAYER
 62
     1
 10
831.163815
 20
-477.984673
 30
0.0
 11
828.663815
 21
-477.897362
 31
0.0
  0
LINE
  8
0
  6
BYLAYER
 62
     1
 10
828.663815
 20
-469.984611
 30
0.0
 11
811.663815
 21
-469.984611
 31
0.0
  0
LINE
  8
0
  6
BYLAYER
 62
     1
 10
828.663815
 20
-469.984611
 30
0.0
 11
829.663815
 21
-468.984611
 31
0.0
  0
LINE
  8
0
  6
BYLAYER
 62
     1
 10
811.663815
 20
-430.984619
 30
0.0
 11
829.663815
 21
-430.984619
 31
0.0
  0
LINE
  8
0
  6
BYLAYER
 62
     1
 10
811.663815
 20
-600.984673
 30
0.0
 11
744.663823
 21
-600.984673
 31
0.0
  0
LINE
  8
0
  6
BYLAYER
 62
     1
 10
138.663789
 20
-568.984642
 30
0.0
 11
217.663857
 21
-568.984642
 31
0.0
  0
LINE
  8
0
  6
BYLAYER
 62
     1
 10
233.163796
 20
-565.984642
 30
0.0
 11
123.163789
 21
-565.984642
 31
0.0
  0
LINE
  8
0
  6
BYLAYER
 62
     1
 10
145.163789
 20
-462.484642
 30
0.0
 11
211.163796
 21
-462.484642
 31
0.0
  0
LINE
  8
0
  6
BYLAYER
 62
     1
 10
138.663789
 20
-456.984642
 30
0.0
 11
217.663857
 21
-456.984642
 31
0.0
  0
LINE
  8
0
  6
BYLAYER
 62
     1
 10
233.163796
 20
-459.984642
 30
0.0
 11
123.163789
 21
-459.984642
 31
0.0
  0
LINE
  8
0
  6
BYLAYER
 62
     1
 10
106.163789
 20
-479.484642
 30
0.0
 11
250.163796
 21
-479.484642
 31
0.0
  0
LINE
  8
0
  6
BYLAYER
 62
     1
 10
106.163789
 20
-546.484642
 30
0.0
 11
250.163796
 21
-546.484642
 31
0.0
  0
LINE
  8
0
  6
BYLAYER
 62
     1
 10
145.163789
 20
-563.484642
 30
0.0
 11
211.163796
 21
-563.484642
 31
0.0
  0
LINE
  8
0
  6
BYLAYER
 62
     1
 10
124.163789
 20
-479.484642
 30
0.0
 11
124.163789
 21
-546.484642
 31
0.0
  0
LINE
  8
0
  6
BYLAYER
 62
     1
 10
107.163789
 20
-546.484642
 30
0.0
 11
107.163781
 21
-479.484642
 31
0.0
  0
LINE
  8
0
  6
BYLAYER
 62
     1
 10
106.163789
 20
-564.484642
 30
0.0
 11
106.163789
 21
-461.484642
 31
0.0
  0
LINE
  8
0
  6
BYLAYER
 62
     1
 10
144.163789
 20
-564.484642
 30
0.0
 11
106.163789
 21
-564.484642
 31
0.0
  0
CIRCLE
  8
0
  6
BYLAYER
 62
     1
 10
128.163789
 20
-555.484642
 30
0.0
 40
4.25
  0
CIRCLE
  8
0
  6
BYLAYER
 62
     1
 10
128.163789
 20
-555.484642
 30
0.0
 40
4.25
  0
LINE
  8
0
  6
BYLAYER
 62
     1
 10
144.163789
 20
-546.484642
 30
0.0
 11
144.163789
 21
-564.484642
 31
0.0
  0
LINE
  8
0
  6
BYLAYER
 62
     1
 10
145.163850
 20
-546.484642
 30
0.0
 11
145.163850
 21
-563.484642
 31
0.0
  0
LINE
  8
0
  6
BYLAYER
 62
     1
 10
123.163789
 20
-565.984642
 30
0.0
 11
123.111359
 21
-564.484642
 31
0.0
  0
LINE
  8
0
  6
BYLAYER
 62
     1
 10
138.163789
 20
-568.484642
 30
0.0
 11
138.663789
 21
-568.984642
 31
0.0
  0
LINE
  8
0
  6
BYLAYER
 62
     1
 10
138.163789
 20
-565.984642
 30
0.0
 11
138.163789
 21
-568.484642
 31
0.0
  0
LINE
  8
0
  6
BYLAYER
 62
     1
 10
144.163789
 20
-564.484642
 30
0.0
 11
145.163850
 21
-563.484642
 31
0.0
  0
LINE
  8
0
  6
BYLAYER
 62
     1
 10
144.163789
 20
-461.484642
 30
0.0
 11
106.163789
 21
-461.484642
 31
0.0
  0
LINE
  8
0
  6
BYLAYER
 62
     1
 10
144.163789
 20
-479.484642
 30
0.0
 11
144.163789
 21
-461.484642
 31
0.0
  0
LINE
  8
0
  6
BYLAYER
 62
     1
 10
145.163850
 20
-462.484642
 30
0.0
 11
145.163850
 21
-479.484642
 31
0.0
  0
LINE
  8
0
  6
BYLAYER
 62
     1
 10
123.163789
 20
-459.984642
 30
0.0
 11
123.111359
 21
-461.484642
 31
0.0
  0
CIRCLE
  8
0
  6
BYLAYER
 62
     1
 10
128.163789
 20
-470.484642
 30
0.0
 40
4.25
  0
LINE
  8
0
  6
BYLAYER
 62
     1
 10
138.163789
 20
-457.484642
 30
0.0
 11
138.663789
 21
-456.984642
 31
0.0
  0
LINE
  8
0
  6
BYLAYER
 62
     1
 10
138.163789
 20
-459.984642
 30
0.0
 11
138.163789
 21
-457.484642
 31
0.0
  0
LINE
  8
0
  6
BYLAYER
 62
     1
 10
144.163789
 20
-461.484642
 30
0.0
 11
145.163850
 21
-462.484642
 31
0.0
  0
LINE
  8
0
  6
BYLAYER
 62
     1
 10
252.163796
 20
-468.484642
 30
0.0
 11
252.163796
 21
-557.484642
 31
0.0
  0
LINE
  8
0
  6
BYLAYER
 62
     1
 10
232.163766
 20
-546.484642
 30
0.0
 11
232.163766
 21
-479.484642
 31
0.0
  0
ARC
  8
0
  6
BYLAYER
 62
     1
 10
251.163796
 20
-558.484642
 30
0.0
 40
1.000000
 50
90.0
 51
179.999989
  0
LINE
  8
0
  6
BYLAYER
 62
     1
 10
250.163796
 20
-564.484642
 30
0.0
 11
250.163796
 21
-546.484642
 31
0.0
  0
LINE
  8
0
  6
BYLAYER
 62
     1
 10
211.163735
 20
-546.484642
 30
0.0
 11
211.163735
 21
-563.484642
 31
0.0
  0
LINE
  8
0
  6
BYLAYER
 62
     1
 10
212.163796
 20
-546.484642
 30
0.0
 11
212.163796
 21
-564.484642
 31
0.0
  0
CIRCLE
  8
0
  6
BYLAYER
 62
     1
 10
228.163796
 20
-555.484642
 30
0.0
 40
4.25
  0
LINE
  8
0
  6
BYLAYER
 62
     1
 10
250.163796
 20
-564.484642
 30
0.0
 11
212.163796
 21
-564.484642
 31
0.0
  0
LINE
  8
0
  6
BYLAYER
 62
     1
 10
212.163796
 20
-564.484642
 30
0.0
 11
211.163735
 21
-563.484642
 31
0.0
  0
LINE
  8
0
  6
BYLAYER
 62
     1
 10
218.163796
 20
-565.984642
 30
0.0
 11
218.163796
 21
-568.484642
 31
0.0
  0
LINE
  8
0
  6
BYLAYER
 62
     1
 10
218.163796
 20
-568.484642
 30
0.0
 11
217.663796
 21
-568.984642
 31
0.0
  0
LINE
  8
0
  6
BYLAYER
 62
     1
 10
233.163796
 20
-565.984642
 30
0.0
 11
233.216225
 21
-564.484642
 31
0.0
  0
LINE
  8
0
  6
BYLAYER
 62
     1
 10
252.163796
 20
-534.271629
 30
0.0
 11
232.163766
 21
-534.271629
 31
0.0
  0
LINE
  8
0
  6
BYLAYER
 62
     1
 10
252.163796
 20
-529.197655
 30
0.0
 11
232.163766
 21
-529.197655
 31
0.0
  0
LINE
  8
0
  6
BYLAYER
 62
     1
 10
224.163796
 20
-518.984642
 30
0.0
 11
232.163766
 21
-518.984642
 31
0.0
  0
LINE
  8
0
  6
BYLAYER
 62
     1
 10
224.163796
 20
-516.984642
 30
0.0
 11
232.163766
 21
-516.984642
 31
0.0
  0
ARC
  8
0
  6
BYLAYER
 62
     1
 10
224.163796
 20
-517.984642
 30
0.0
 40
1.0
 50
90.0
 51
270.000005
  0
LINE
  8
0
  6
BYLAYER
 62
     1
 10
224.163796
 20
-506.984642
 30
0.0
 11
232.163766
 21
-506.984642
 31
0.0
  0
LINE
  8
0
  6
BYLAYER
 62
     1
 10
224.163796
 20
-508.984642
 30
0.0
 11
232.163766
 21
-508.984642
 31
0.0
  0
ARC
  8
0
  6
BYLAYER
 62
     1
 10
224.163796
 20
-507.984642
 30
0.0
 40
1.0
 50
90.0
 51
269.999991
  0
LINE
  8
0
  6
BYLAYER
 62
     1
 10
252.163796
 20
-557.484642
 30
0.0
 11
251.163796
 21
-557.484642
 31
0.0
  0
LINE
  8
0
  6
BYLAYER
 62
     1
 10
252.163796
 20
-546.951622
 30
0.0
 11
251.128884
 21
-546.987755
 31
0.0
  0
ARC
  8
0
  6
BYLAYER
 62
     1
 10
251.163796
 20
-547.987205
 30
0.0
 40
1.000000
 50
91.999836
 51
180.000000
  0
LINE
  8
0
  6
BYLAYER
 62
     1
 10
252.163796
 20
-496.771629
 30
0.0
 11
232.163766
 21
-496.771629
 31
0.0
  0
LINE
  8
0
  6
BYLAYER
 62
     1
 10
252.163796
 20
-491.697655
 30
0.0
 11
232.163766
 21
-491.697655
 31
0.0
  0
LINE
  8
0
  6
BYLAYER
 62
     1
 10
250.163796
 20
-461.484642
 30
0.0
 11
212.163796
 21
-461.484642
 31
0.0
  0
LINE
  8
0
  6
BYLAYER
 62
     1
 10
211.163735
 20
-462.484642
 30
0.0
 11
211.163735
 21
-479.484642
 31
0.0
  0
LINE
  8
0
  6
BYLAYER
 62
     1
 10
212.163796
 20
-479.484642
 30
0.0
 11
212.163796
 21
-461.484642
 31
0.0
  0
LINE
  8
0
  6
BYLAYER
 62
     1
 10
212.163796
 20
-461.484642
 30
0.0
 11
211.163735
 21
-462.484642
 31
0.0
  0
LINE
  8
0
  6
BYLAYER
 62
     1
 10
233.163796
 20
-459.984642
 30
0.0
 11
233.216225
 21
-461.484642
 31
0.0
  0
CIRCLE
  8
0
  6
BYLAYER
 62
     1
 10
228.163796
 20
-470.484642
 30
0.0
 40
4.25
  0
LINE
  8
0
  6
BYLAYER
 62
     1
 10
218.163796
 20
-459.984642
 30
0.0
 11
218.163796
 21
-457.484642
 31
0.0
  0
LINE
  8
0
  6
BYLAYER
 62
     1
 10
218.163796
 20
-457.484642
 30
0.0
 11
217.663796
 21
-456.984642
 31
0.0
  0
LINE
  8
0
  6
BYLAYER
 62
     1
 10
250.163796
 20
-461.484642
 30
0.0
 11
250.163796
 21
-479.484642
 31
0.0
  0
ARC
  8
0
  6
BYLAYER
 62
     1
 10
251.163796
 20
-477.982079
 30
0.0
 40
1.0
 50
180.000000
 51
268.000171
  0
LINE
  8
0
  6
BYLAYER
 62
     1
 10
252.163796
 20
-479.017662
 30
0.0
 11
251.128884
 21
-478.981529
 31
0.0
  0
ARC
  8
0
  6
BYLAYER
 62
     1
 10
251.163796
 20
-467.484642
 30
0.0
 40
1.000000
 50
180.000000
 51
269.999996
  0
LINE
  8
0
  6
BYLAYER
 62
     1
 10
252.163796
 20
-468.484642
 30
0.0
 11
251.163796
 21
-468.484642
 31
0.0
  0
LINE
  8
0
  6
BYLAYER
 62
     1
 10
201.413796
 20
-538.984642
 30
0.0
 11
232.163766
 21
-538.984642
 31
0.0
  0
LINE
  8
0
  6
BYLAYER
 62
     1
 10
232.163766
 20
-536.984642
 30
0.0
 11
201.413796
 21
-536.984642
 31
0.0
  0
LINE
  8
0
  6
BYLAYER
 62
     1
 10
201.413796
 20
-526.984642
 30
0.0
 11
232.163766
 21
-526.984642
 31
0.0
  0
LINE
  8
0
  6
BYLAYER
 62
     1
 10
232.163766
 20
-528.984642
 30
0.0
 11
201.413796
 21
-528.984642
 31
0.0
  0
LINE
  8
0
  6
BYLAYER
 62
     1
 10
201.413796
 20
-498.984642
 30
0.0
 11
232.163766
 21
-498.984642
 31
0.0
  0
LINE
  8
0
  6
BYLAYER
 62
     1
 10
232.163766
 20
-496.984642
 30
0.0
 11
201.413796
 21
-496.984642
 31
0.0
  0
LINE
  8
0
  6
BYLAYER
 62
     1
 10
232.163766
 20
-488.984642
 30
0.0
 11
201.413796
 21
-488.984642
 31
0.0
  0
LINE
  8
0
  6
BYLAYER
 62
     1
 10
201.413796
 20
-486.984642
 30
0.0
 11
232.163766
 21
-486.984642
 31
0.0
  0
ARC
  8
0
  6
BYLAYER
 62
     1
 10
201.413796
 20
-537.984642
 30
0.0
 40
1.0
 50
90.0
 51
270.000005
  0
LINE
  8
0
  6
BYLAYER
 62
     1
 10
151.163789
 20
-538.984642
 30
0.0
 11
124.163789
 21
-538.984642
 31
0.0
  0
LINE
  8
0
  6
BYLAYER
 62
     1
 10
124.163789
 20
-536.984642
 30
0.0
 11
151.163789
 21
-536.984642
 31
0.0
  0
LINE
  8
0
  6
BYLAYER
 62
     1
 10
124.163789
 20
-528.984642
 30
0.0
 11
151.163789
 21
-528.984642
 31
0.0
  0
LINE
  8
0
  6
BYLAYER
 62
     1
 10
151.163789
 20
-526.984642
 30
0.0
 11
124.163789
 21
-526.984642
 31
0.0
  0
ARC
  8
0
  6
BYLAYER
 62
     1
 10
151.163789
 20
-537.984642
 30
0.0
 40
1.0
 50
270.0
 51
449.999991
  0
ARC
  8
0
  6
BYLAYER
 62
     1
 10
151.163789
 20
-527.984642
 30
0.0
 40
1.0
 50
270.0
 51
449.999991
  0
LINE
  8
0
  6
BYLAYER
 62
     1
 10
151.163789
 20
-498.984642
 30
0.0
 11
124.163789
 21
-498.984642
 31
0.0
  0
LINE
  8
0
  6
BYLAYER
 62
     1
 10
151.163789
 20
-496.984642
 30
0.0
 11
124.163789
 21
-496.984642
 31
0.0
  0
LINE
  8
0
  6
BYLAYER
 62
     1
 10
124.163789
 20
-488.984642
 30
0.0
 11
151.163789
 21
-488.984642
 31
0.0
  0
LINE
  8
0
  6
BYLAYER
 62
     1
 10
151.163789
 20
-486.984642
 30
0.0
 11
124.163789
 21
-486.984642
 31
0.0
  0
ARC
  8
0
  6
BYLAYER
 62
     1
 10
151.163789
 20
-497.984642
 30
0.0
 40
1.0
 50
270.0
 51
449.999991
  0
ARC
  8
0
  6
BYLAYER
 62
     1
 10
151.163789
 20
-487.984642
 30
0.0
 40
1.0
 50
270.0
 51
449.999991
  0
LINE
  8
0
  6
BYLAYER
 62
     1
 10
124.163789
 20
-506.984642
 30
0.0
 11
157.663796
 21
-506.984642
 31
0.0
  0
LINE
  8
0
  6
BYLAYER
 62
     1
 10
124.163789
 20
-508.984642
 30
0.0
 11
157.663796
 21
-508.984642
 31
0.0
  0
LINE
  8
0
  6
BYLAYER
 62
     1
 10
124.163789
 20
-516.984642
 30
0.0
 11
157.663796
 21
-516.984642
 31
0.0
  0
LINE
  8
0
  6
BYLAYER
 62
     1
 10
124.163789
 20
-518.984642
 30
0.0
 11
157.663796
 21
-518.984642
 31
0.0
  0
ARC
  8
0
  6
BYLAYER
 62
     1
 10
157.663796
 20
-507.984642
 30
0.0
 40
1.0
 50
270.0
 51
450.000005
  0
ARC
  8
0
  6
BYLAYER
 62
     1
 10
157.663796
 20
-517.984642
 30
0.0
 40
1.0
 50
270.0
 51
450.000005
  0
ARC
  8
0
  6
BYLAYER
 62
     1
 10
201.413796
 20
-527.984642
 30
0.0
 40
1.0
 50
90.0
 51
270.000005
  0
ARC
  8
0
  6
BYLAYER
 62
     1
 10
201.413796
 20
-497.984642
 30
0.0
 40
1.0
 50
90.0
 51
269.999991
  0
ARC
  8
0
  6
BYLAYER
 62
     1
 10
201.413796
 20
-487.984642
 30
0.0
 40
1.0
 50
90.0
 51
269.999991
  0
LINE
  8
0
  6
BYLAYER
 62
     1
 10
267.058354
 20
-57.804954
 30
0.0
 11
273.163823
 21
-57.485854
 31
0.0
  0
LINE
  8
0
  6
BYLAYER
 62
     1
 10
252.163823
 20
-75.484642
 30
0.0
 11
263.442174
 21
-73.899574
 31
0.0
  0
LINE
  8
0
  6
BYLAYER
 62
     1
 10
253.162236
 20
-75.344322
 30
0.0
 11
265.163823
 21
-59.984642
 31
0.0
  0
ARC
  8
0
  6
BYLAYER
 62
     1
 10
267.163823
 20
-59.801048
 30
0.0
 40
1.998878
 50
93.000095
 51
179.999998
  0
ARC
  8
0
  6
BYLAYER
 62
     1
 10
263.163823
 20
-71.919029
 30
0.0
 40
2.000010
 50
278.000092
 51
359.999996
  0
LINE
  8
0
  6
BYLAYER
 62
     1
 10
267.058354
 20
-162.164329
 30
0.0
 11
273.163823
 21
-162.483430
 31
0.0
  0
LINE
  8
0
  6
BYLAYER
 62
     1
 10
273.163823
 20
-162.483430
 30
0.0
 11
273.163823
 21
-109.984642
 31
0.0
  0
LINE
  8
0
  6
BYLAYER
 62
     1
 10
252.163823
 20
-144.484642
 30
0.0
 11
263.442174
 21
-146.069710
 31
0.0
  0
LINE
  8
0
  6
BYLAYER
 62
     1
 10
252.163823
 20
-144.484642
 30
0.0
 11
252.163823
 21
-109.984642
 31
0.0
  0
LINE
  8
0
  6
BYLAYER
 62
     1
 10
265.163823
 20
-109.984642
 30
0.0
 11
265.163823
 21
-160.168236
 31
0.0
  0
LINE
  8
0
  6
BYLAYER
 62
     1
 10
253.162236
 20
-144.624962
 30
0.0
 11
265.163823
 21
-159.984642
 31
0.0
  0
ARC
  8
0
  6
BYLAYER
 62
     1
 10
267.163823
 20
-160.168236
 30
0.0
 40
1.998878
 50
180.000000
 51
266.999903
  0
ARC
  8
0
  6
BYLAYER
 62
     1
 10
263.163823
 20
-148.050255
 30
0.0
 40
2.000010
 50
0.0
 51
81.999904
  0
LINE
  8
0
  6
BYLAYER
 62
     1
 10
273.163823
 20
-57.485854
 30
0.0
 11
273.163823
 21
-109.984642
 31
0.0
  0
LINE
  8
0
  6
BYLAYER
 62
     1
 10
252.163823
 20
-75.484642
 30
0.0
 11
252.163823
 21
-109.984642
 31
0.0
  0
LINE
  8
0
  6
BYLAYER
 62
     1
 10
265.163823
 20
-109.984642
 30
0.0
 11
265.163823
 21
-59.801048
 31
0.0
  0
LINE
  8
0
  6
BYLAYER
 62
     1
 10
725.163823
 20
-227.984704
 30
0.0
 11
726.663823
 21
-228.037102
 31
0.0
  0
LINE
  8
0
  6
BYLAYER
 62
     1
 10
722.163823
 20
-212.484704
 30
0.0
 11
722.163823
 21
-151.061430
 31
0.0
  0
LINE
  8
0
  6
BYLAYER
 62
     1
 10
725.163823
 20
-154.865623
 30
0.0
 11
725.163823
 21
-227.984704
 31
0.0
  0
LINE
  8
0
  6
BYLAYER
 62
     1
 10
722.663823
 20
-212.984704
 30
0.0
 11
722.163823
 21
-212.484704
 31
0.0
  0
LINE
  8
0
  6
BYLAYER
 62
     1
 10
725.163823
 20
-212.984704
 30
0.0
 11
722.663823
 21
-212.984704
 31
0.0
  0
LINE
  8
0
  6
BYLAYER
 62
     1
 10
726.663823
 20
-206.984704
 30
0.0
 11
726.663823
 21
-244.984704
 31
0.0
  0
LINE
  8
0
  6
BYLAYER
 62
     1
 10
829.663823
 20
-244.984704
 30
0.0
 11
829.663823
 21
-206.984704
 31
0.0
  0
LINE
  8
0
  6
BYLAYER
 62
     1
 10
834.163823
 20
-212.484704
 30
0.0
 11
834.163823
 21
-151.061430
 31
0.0
  0
LINE
  8
0
  6
BYLAYER
 62
     1
 10
831.163823
 20
-154.865624
 30
0.0
 11
831.163823
 21
-227.984704
 31
0.0
  0
LINE
  8
0
  6
BYLAYER
 62
     1
 10
744.663823
 20
-244.984704
 30
0.0
 11
744.663823
 21
-170.820918
 31
0.0
  0
LINE
  8
0
  6
BYLAYER
 62
     1
 10
811.663823
 20
-170.820918
 30
0.0
 11
811.663823
 21
-244.984704
 31
0.0
  0
LINE
  8
0
  6
BYLAYER
 62
     1
 10
726.663823
 20
-244.984704
 30
0.0
 11
744.663823
 21
-244.984704
 31
0.0
  0
CIRCLE
  8
0
  6
BYLAYER
 62
     1
 10
735.663823
 20
-222.984704
 30
0.0
 40
4.25
  0
LINE
  8
0
  6
BYLAYER
 62
     1
 10
829.663823
 20
-244.984704
 30
0.0
 11
811.663823
 21
-244.984704
 31
0.0
  0
CIRCLE
  8
0
  6
BYLAYER
 62
     1
 10
820.663823
 20
-222.984704
 30
0.0
 40
4.25
  0
LINE
  8
0
  6
BYLAYER
 62
     1
 10
831.163823
 20
-227.984704
 30
0.0
 11
829.663823
 21
-228.037102
 31
0.0
  0
LINE
  8
0
  6
BYLAYER
 62
     1
 10
831.163823
 20
-212.984704
 30
0.0
 11
833.663823
 21
-212.984704
 31
0.0
  0
LINE
  8
0
  6
BYLAYER
 62
     1
 10
833.663823
 20
-212.984704
 30
0.0
 11
834.163823
 21
-212.484704
 31
0.0
  0
LINE
  8
0
  6
BYLAYER
 62
     1
 10
727.663823
 20
-205.984642
 30
0.0
 11
727.663823
 21
-157.661182
 31
0.0
  0
LINE
  8
0
  6
BYLAYER
 62
     1
 10
744.663823
 20
-205.984642
 30
0.0
 11
727.663823
 21
-205.984642
 31
0.0
  0
LINE
  8
0
  6
BYLAYER
 62
     1
 10
744.663823
 20
-206.984704
 30
0.0
 11
726.663823
 21
-206.984704
 31
0.0
  0
LINE
  8
0
  6
BYLAYER
 62
     1
 10
726.663823
 20
-206.984704
 30
0.0
 11
727.663823
 21
-205.984642
 31
0.0
  0
LINE
  8
0
  6
BYLAYER
 62
     1
 10
828.663823
 20
-205.984642
 30
0.0
 11
828.663823
 21
-157.661182
 31
0.0
  0
LINE
  8
0
  6
BYLAYER
 62
     1
 10
811.663823
 20
-206.984704
 30
0.0
 11
829.663823
 21
-206.984704
 31
0.0
  0
LINE
  8
0
  6
BYLAYER
 62
     1
 10
828.663823
 20
-205.984642
 30
0.0
 11
811.663823
 21
-205.984642
 31
0.0
  0
LINE
  8
0
  6
BYLAYER
 62
     1
 10
829.663823
 20
-206.984704
 30
0.0
 11
828.663823
 21
-205.984642
 31
0.0
  0
LINE
  8
0
  6
BYLAYER
 62
     1
 10
811.663823
 20
-240.984704
 30
0.0
 11
744.663823
 21
-240.984704
 31
0.0
  0
LINE
  8
0
  6
BYLAYER
 62
     7
 10
741.163823
 20
-32.984642
 30
0.0
 11
741.163823
 21
-51.211327
 31
0.0
  0
LINE
  8
0
  6
BYLAYER
 62
     7
 10
815.163823
 20
-32.984642
 30
0.0
 11
815.163823
 21
-51.211327
 31
0.0
  0
LINE
  8
0
  6
BYLAYER
 62
     7
 10
741.163823
 20
-37.484642
 30
0.0
 11
744.163823
 21
-42.680778
 31
0.0
  0
LINE
  8
0
  6
BYLAYER
 62
     7
 10
744.163823
 20
-42.680778
 30
0.0
 11
744.163823
 21
-49.426385
 31
0.0
  0
LINE
  8
0
  6
BYLAYER
 62
     7
 10
815.163823
 20
-37.484642
 30
0.0
 11
812.163823
 21
-42.680778
 31
0.0
  0
LINE
  8
0
  6
BYLAYER
 62
     7
 10
812.163823
 20
-42.680778
 30
0.0
 11
812.163823
 21
-49.426385
 31
0.0
  0
LINE
  8
0
  6
BYLAYER
 62
     7
 10
779.163823
 20
-98.984642
 30
0.0
 11
787.163823
 21
-98.984642
 31
0.0
  0
LINE
  8
0
  6
BYLAYER
 62
     7
 10
779.163823
 20
-80.984642
 30
0.0
 11
779.163823
 21
-88.984642
 31
0.0
  0
LINE
  8
0
  6
BYLAYER
 62
     7
 10
779.163823
 20
-70.984642
 30
0.0
 11
779.163823
 21
-78.984642
 31
0.0
  0
LINE
  8
0
  6
BYLAYER
 62
     7
 10
779.163823
 20
-90.984642
 30
0.0
 11
779.163823
 21
-98.984642
 31
0.0
  0
LINE
  8
0
  6
BYLAYER
 62
     7
 10
787.163823
 20
-78.984642
 30
0.0
 11
787.163823
 21
-70.984642
 31
0.0
  0
LINE
  8
0
  6
BYLAYER
 62
     7
 10
789.163823
 20
-78.984642
 30
0.0
 11
789.163823
 21
-70.984642
 31
0.0
  0
LINE
  8
0
  6
BYLAYER
 62
     7
 10
779.163823
 20
-90.984642
 30
0.0
 11
787.163823
 21
-90.984642
 31
0.0
  0
LINE
  8
0
  6
BYLAYER
 62
     7
 10
779.163823
 20
-88.984642
 30
0.0
 11
787.163823
 21
-88.984642
 31
0.0
  0
LINE
  8
0
  6
BYLAYER
 62
     7
 10
779.163823
 20
-80.984642
 30
0.0
 11
787.163823
 21
-80.984642
 31
0.0
  0
LINE
  8
0
  6
BYLAYER
 62
     7
 10
789.163823
 20
-78.984642
 30
0.0
 11
797.001822
 21
-78.984642
 31
0.0
  0
LINE
  8
0
  6
BYLAYER
 62
     7
 10
779.163823
 20
-78.984642
 30
0.0
 11
787.163823
 21
-78.984642
 31
0.0
  0
LINE
  8
0
  6
BYLAYER
 62
     7
 10
789.163823
 20
-70.984642
 30
0.0
 11
797.001822
 21
-70.984642
 31
0.0
  0
LINE
  8
0
  6
BYLAYER
 62
     7
 10
779.163823
 20
-70.984642
 30
0.0
 11
787.163823
 21
-70.984642
 31
0.0
  0
LINE
  8
0
  6
BYLAYER
 62
     7
 10
797.001822
 20
-78.984642
 30
0.0
 11
797.001822
 21
-70.984642
 31
0.0
  0
LINE
  8
0
  6
BYLAYER
 62
     7
 10
787.163823
 20
-98.984642
 30
0.0
 11
787.163823
 21
-90.984642
 31
0.0
  0
LINE
  8
0
  6
BYLAYER
 62
     7
 10
787.163823
 20
-88.984642
 30
0.0
 11
787.163823
 21
-80.984642
 31
0.0
  0
LINE
  8
0
  6
BYLAYER
 62
     7
 10
789.163823
 20
-98.984642
 30
0.0
 11
797.163823
 21
-98.984642
 31
0.0
  0
LINE
  8
0
  6
BYLAYER
 62
     7
 10
789.163823
 20
-80.984642
 30
0.0
 11
789.163823
 21
-88.984642
 31
0.0
  0
LINE
  8
0
  6
BYLAYER
 62
     7
 10
789.163823
 20
-90.984642
 30
0.0
 11
789.163823
 21
-98.984642
 31
0.0
  0
LINE
  8
0
  6
BYLAYER
 62
     7
 10
789.163823
 20
-90.984642
 30
0.0
 11
797.163823
 21
-90.984642
 31
0.0
  0
LINE
  8
0
  6
BYLAYER
 62
     7
 10
789.163823
 20
-88.984642
 30
0.0
 11
797.163823
 21
-88.984642
 31
0.0
  0
LINE
  8
0
  6
BYLAYER
 62
     7
 10
789.163823
 20
-80.984642
 30
0.0
 11
797.163823
 21
-80.984642
 31
0.0
  0
LINE
  8
0
  6
BYLAYER
 62
     7
 10
797.163823
 20
-98.984642
 30
0.0
 11
797.163823
 21
-90.984642
 31
0.0
  0
LINE
  8
0
  6
BYLAYER
 62
     7
 10
797.163823
 20
-88.984642
 30
0.0
 11
797.163823
 21
-80.984642
 31
0.0
  0
LINE
  8
0
  6
BYLAYER
 62
     7
 10
799.163823
 20
-98.984642
 30
0.0
 11
807.163823
 21
-98.984642
 31
0.0
  0
LINE
  8
0
  6
BYLAYER
 62
     7
 10
799.163823
 20
-80.984642
 30
0.0
 11
799.163823
 21
-88.984642
 31
0.0
  0
LINE
  8
0
  6
BYLAYER
 62
     7
 10
799.163823
 20
-90.984642
 30
0.0
 11
799.163823
 21
-98.984642
 31
0.0
  0
LINE
  8
0
  6
BYLAYER
 62
     7
 10
799.163823
 20
-90.984642
 30
0.0
 11
807.163823
 21
-90.984642
 31
0.0
  0
LINE
  8
0
  6
BYLAYER
 62
     7
 10
799.163823
 20
-88.984642
 30
0.0
 11
807.163823
 21
-88.984642
 31
0.0
  0
LINE
  8
0
  6
BYLAYER
 62
     7
 10
799.163823
 20
-80.984642
 30
0.0
 11
807.163823
 21
-80.984642
 31
0.0
  0
LINE
  8
0
  6
BYLAYER
 62
     7
 10
807.163823
 20
-98.984642
 30
0.0
 11
807.163823
 21
-90.984642
 31
0.0
  0
LINE
  8
0
  6
BYLAYER
 62
     7
 10
807.163823
 20
-88.984642
 30
0.0
 11
807.163823
 21
-80.984642
 31
0.0
  0
LINE
  8
0
  6
BYLAYER
 62
     7
 10
789.163823
 20
-108.984642
 30
0.0
 11
797.163823
 21
-108.984642
 31
0.0
  0
LINE
  8
0
  6
BYLAYER
 62
     7
 10
789.163823
 20
-100.984642
 30
0.0
 11
789.163823
 21
-108.984642
 31
0.0
  0
LINE
  8
0
  6
BYLAYER
 62
     7
 10
789.163823
 20
-100.984642
 30
0.0
 11
797.163823
 21
-100.984642
 31
0.0
  0
LINE
  8
0
  6
BYLAYER
 62
     7
 10
797.163823
 20
-108.984642
 30
0.0
 11
797.163823
 21
-100.984642
 31
0.0
  0
LINE
  8
0
  6
BYLAYER
 62
     7
 10
799.163823
 20
-108.984642
 30
0.0
 11
807.163823
 21
-108.984642
 31
0.0
  0
LINE
  8
0
  6
BYLAYER
 62
     7
 10
799.163823
 20
-100.984642
 30
0.0
 11
799.163823
 21
-108.984642
 31
0.0
  0
LINE
  8
0
  6
BYLAYER
 62
     7
 10
799.163823
 20
-100.984642
 30
0.0
 11
807.163823
 21
-100.984642
 31
0.0
  0
LINE
  8
0
  6
BYLAYER
 62
     7
 10
807.163823
 20
-108.984642
 30
0.0
 11
807.163823
 21
-100.984642
 31
0.0
  0
LINE
  8
0
  6
BYLAYER
 62
     7
 10
809.163823
 20
-98.984642
 30
0.0
 11
817.163823
 21
-98.984642
 31
0.0
  0
LINE
  8
0
  6
BYLAYER
 62
     7
 10
809.163823
 20
-90.984642
 30
0.0
 11
809.163823
 21
-98.984642
 31
0.0
  0
LINE
  8
0
  6
BYLAYER
 62
     7
 10
809.163823
 20
-90.984642
 30
0.0
 11
817.163823
 21
-90.984642
 31
0.0
  0
LINE
  8
0
  6
BYLAYER
 62
     7
 10
817.163823
 20
-98.984642
 30
0.0
 11
817.163823
 21
-90.984642
 31
0.0
  0
LINE
  8
0
  6
BYLAYER
 62
     7
 10
809.163823
 20
-108.984642
 30
0.0
 11
817.163823
 21
-108.984642
 31
0.0
  0
LINE
  8
0
  6
BYLAYER
 62
     7
 10
809.163823
 20
-100.984642
 30
0.0
 11
809.163823
 21
-108.984642
 31
0.0
  0
LINE
  8
0
  6
BYLAYER
 62
     7
 10
809.163823
 20
-100.984642
 30
0.0
 11
817.163823
 21
-100.984642
 31
0.0
  0
LINE
  8
0
  6
BYLAYER
 62
     7
 10
817.163823
 20
-108.984642
 30
0.0
 11
817.163823
 21
-100.984642
 31
0.0
  0
CIRCLE
  8
0
  6
BYLAYER
 62
     7
 10
778.163823
 20
-109.984642
 30
0.0
 40
4.0
  0
LINE
  8
0
  6
BYLAYER
 62
     7
 10
779.163823
 20
-60.984642
 30
0.0
 11
779.163823
 21
-68.984642
 31
0.0
  0
LINE
  8
0
  6
BYLAYER
 62
     7
 10
787.163823
 20
-68.984642
 30
0.0
 11
787.163823
 21
-60.984642
 31
0.0
  0
LINE
  8
0
  6
BYLAYER
 62
     7
 10
779.163823
 20
-68.984642
 30
0.0
 11
787.163823
 21
-68.984642
 31
0.0
  0
LINE
  8
0
  6
BYLAYER
 62
     7
 10
779.163823
 20
-60.984642
 30
0.0
 11
787.163823
 21
-60.984642
 31
0.0
  0
LINE
  8
0
  6
BYLAYER
 62
     7
 10
799.163823
 20
-70.984642
 30
0.0
 11
799.163823
 21
-78.984642
 31
0.0
  0
LINE
  8
0
  6
BYLAYER
 62
     7
 10
799.163823
 20
-78.984642
 30
0.0
 11
807.163823
 21
-78.984642
 31
0.0
  0
LINE
  8
0
  6
BYLAYER
 62
     7
 10
799.163823
 20
-70.984642
 30
0.0
 11
807.163823
 21
-70.984642
 31
0.0
  0
LINE
  8
0
  6
BYLAYER
 62
     7
 10
807.163823
 20
-78.984642
 30
0.0
 11
807.163823
 21
-70.984642
 31
0.0
  0
LINE
  8
0
  6
BYLAYER
 62
     7
 10
819.163823
 20
-108.984642
 30
0.0
 11
827.163823
 21
-108.984642
 31
0.0
  0
LINE
  8
0
  6
BYLAYER
 62
     7
 10
819.163823
 20
-100.984642
 30
0.0
 11
819.163823
 21
-108.984642
 31
0.0
  0
LINE
  8
0
  6
BYLAYER
 62
     7
 10
819.163823
 20
-100.984642
 30
0.0
 11
827.163823
 21
-100.984642
 31
0.0
  0
LINE
  8
0
  6
BYLAYER
 62
     7
 10
827.163823
 20
-108.984642
 30
0.0
 11
827.163823
 21
-100.984642
 31
0.0
  0
LINE
  8
0
  6
BYLAYER
 62
     7
 10
809.163823
 20
-88.984642
 30
0.0
 11
817.163823
 21
-88.984642
 31
0.0
  0
LINE
  8
0
  6
BYLAYER
 62
     7
 10
809.163823
 20
-80.984642
 30
0.0
 11
809.163823
 21
-88.984642
 31
0.0
  0
LINE
  8
0
  6
BYLAYER
 62
     7
 10
809.163823
 20
-80.984642
 30
0.0
 11
817.163823
 21
-80.984642
 31
0.0
  0
LINE
  8
0
  6
BYLAYER
 62
     7
 10
817.163823
 20
-88.984642
 30
0.0
 11
817.163823
 21
-80.984642
 31
0.0
  0
CIRCLE
  8
0
  6
BYLAYER
 62
     7
 10
778.163823
 20
-109.984642
 30
0.0
 40
55.0
  0
CIRCLE
  8
0
  6
BYLAYER
 62
     7
 10
778.163823
 20
-109.984642
 30
0.0
 40
69.45
  0
CIRCLE
  8
0
  6
BYLAYER
 62
     7
 10
778.163823
 20
-109.984642
 30
0.0
 40
51.0
  0
LINE
  8
0
  6
BYLAYER
 62
     7
 10
779.163823
 20
-120.984642
 30
0.0
 11
787.163823
 21
-120.984642
 31
0.0
  0
LINE
  8
0
  6
BYLAYER
 62
     7
 10
779.163823
 20
-138.984642
 30
0.0
 11
779.163823
 21
-130.984642
 31
0.0
  0
LINE
  8
0
  6
BYLAYER
 62
     7
 10
779.163823
 20
-148.984642
 30
0.0
 11
779.163823
 21
-140.984642
 31
0.0
  0
LINE
  8
0
  6
BYLAYER
 62
     7
 10
779.163823
 20
-128.984642
 30
0.0
 11
779.163823
 21
-120.984642
 31
0.0
  0
LINE
  8
0
  6
BYLAYER
 62
     7
 10
787.163823
 20
-140.984642
 30
0.0
 11
787.163823
 21
-148.984642
 31
0.0
  0
LINE
  8
0
  6
BYLAYER
 62
     7
 10
789.163823
 20
-140.984642
 30
0.0
 11
789.163823
 21
-148.984642
 31
0.0
  0
LINE
  8
0
  6
BYLAYER
 62
     7
 10
779.163823
 20
-128.984642
 30
0.0
 11
787.163823
 21
-128.984642
 31
0.0
  0
LINE
  8
0
  6
BYLAYER
 62
     7
 10
779.163823
 20
-130.984642
 30
0.0
 11
787.163823
 21
-130.984642
 31
0.0
  0
LINE
  8
0
  6
BYLAYER
 62
     7
 10
779.163823
 20
-138.984642
 30
0.0
 11
787.163823
 21
-138.984642
 31
0.0
  0
LINE
  8
0
  6
BYLAYER
 62
     7
 10
789.163823
 20
-140.984642
 30
0.0
 11
797.001822
 21
-140.984642
 31
0.0
  0
LINE
  8
0
  6
BYLAYER
 62
     7
 10
779.163823
 20
-140.984642
 30
0.0
 11
787.163823
 21
-140.984642
 31
0.0
  0
LINE
  8
0
  6
BYLAYER
 62
     7
 10
789.163823
 20
-148.984642
 30
0.0
 11
797.001822
 21
-148.984642
 31
0.0
  0
LINE
  8
0
  6
BYLAYER
 62
     7
 10
779.163823
 20
-148.984642
 30
0.0
 11
787.163823
 21
-148.984642
 31
0.0
  0
LINE
  8
0
  6
BYLAYER
 62
     7
 10
797.001822
 20
-140.984642
 30
0.0
 11
797.001822
 21
-148.984642
 31
0.0
  0
LINE
  8
0
  6
BYLAYER
 62
     7
 10
787.163823
 20
-120.984642
 30
0.0
 11
787.163823
 21
-128.984642
 31
0.0
  0
LINE
  8
0
  6
BYLAYER
 62
     7
 10
787.163823
 20
-130.984642
 30
0.0
 11
787.163823
 21
-138.984642
 31
0.0
  0
LINE
  8
0
  6
BYLAYER
 62
     7
 10
789.163823
 20
-120.984642
 30
0.0
 11
797.163823
 21
-120.984642
 31
0.0
  0
LINE
  8
0
  6
BYLAYER
 62
     7
 10
789.163823
 20
-138.984642
 30
0.0
 11
789.163823
 21
-130.984642
 31
0.0
  0
LINE
  8
0
  6
BYLAYER
 62
     7
 10
789.163823
 20
-128.984642
 30
0.0
 11
789.163823
 21
-120.984642
 31
0.0
  0
LINE
  8
0
  6
BYLAYER
 62
     7
 10
789.163823
 20
-128.984642
 30
0.0
 11
797.163823
 21
-128.984642
 31
0.0
  0
LINE
  8
0
  6
BYLAYER
 62
     7
 10
789.163823
 20
-130.984642
 30
0.0
 11
797.163823
 21
-130.984642
 31
0.0
  0
LINE
  8
0
  6
BYLAYER
 62
     7
 10
789.163823
 20
-138.984642
 30
0.0
 11
797.163823
 21
-138.984642
 31
0.0
  0
LINE
  8
0
  6
BYLAYER
 62
     7
 10
797.163823
 20
-120.984642
 30
0.0
 11
797.163823
 21
-128.984642
 31
0.0
  0
LINE
  8
0
  6
BYLAYER
 62
     7
 10
797.163823
 20
-130.984642
 30
0.0
 11
797.163823
 21
-138.984642
 31
0.0
  0
LINE
  8
0
  6
BYLAYER
 62
     7
 10
799.163823
 20
-120.984642
 30
0.0
 11
807.163823
 21
-120.984642
 31
0.0
  0
LINE
  8
0
  6
BYLAYER
 62
     7
 10
799.163823
 20
-138.984642
 30
0.0
 11
799.163823
 21
-130.984642
 31
0.0
  0
LINE
  8
0
  6
BYLAYER
 62
     7
 10
799.163823
 20
-128.984642
 30
0.0
 11
799.163823
 21
-120.984642
 31
0.0
  0
LINE
  8
0
  6
BYLAYER
 62
     7
 10
799.163823
 20
-128.984642
 30
0.0
 11
807.163823
 21
-128.984642
 31
0.0
  0
LINE
  8
0
  6
BYLAYER
 62
     7
 10
799.163823
 20
-130.984642
 30
0.0
 11
807.163823
 21
-130.984642
 31
0.0
  0
LINE
  8
0
  6
BYLAYER
 62
     7
 10
799.163823
 20
-138.984642
 30
0.0
 11
807.163823
 21
-138.984642
 31
0.0
  0
LINE
  8
0
  6
BYLAYER
 62
     7
 10
807.163823
 20
-120.984642
 30
0.0
 11
807.163823
 21
-128.984642
 31
0.0
  0
LINE
  8
0
  6
BYLAYER
 62
     7
 10
807.163823
 20
-130.984642
 30
0.0
 11
807.163823
 21
-138.984642
 31
0.0
  0
LINE
  8
0
  6
BYLAYER
 62
     7
 10
789.163823
 20
-110.984642
 30
0.0
 11
797.163823
 21
-110.984642
 31
0.0
  0
LINE
  8
0
  6
BYLAYER
 62
     7
 10
789.163823
 20
-118.984642
 30
0.0
 11
789.163823
 21
-110.984642
 31
0.0
  0
LINE
  8
0
  6
BYLAYER
 62
     7
 10
789.163823
 20
-118.984642
 30
0.0
 11
797.163823
 21
-118.984642
 31
0.0
  0
LINE
  8
0
  6
BYLAYER
 62
     7
 10
797.163823
 20
-110.984642
 30
0.0
 11
797.163823
 21
-118.984642
 31
0.0
  0
LINE
  8
0
  6
BYLAYER
 62
     7
 10
799.163823
 20
-110.984642
 30
0.0
 11
807.163823
 21
-110.984642
 31
0.0
  0
LINE
  8
0
  6
BYLAYER
 62
     7
 10
799.163823
 20
-118.984642
 30
0.0
 11
799.163823
 21
-110.984642
 31
0.0
  0
LINE
  8
0
  6
BYLAYER
 62
     7
 10
799.163823
 20
-118.984642
 30
0.0
 11
807.163823
 21
-118.984642
 31
0.0
  0
LINE
  8
0
  6
BYLAYER
 62
     7
 10
807.163823
 20
-110.984642
 30
0.0
 11
807.163823
 21
-118.984642
 31
0.0
  0
LINE
  8
0
  6
BYLAYER
 62
     7
 10
809.163823
 20
-120.984642
 30
0.0
 11
817.163823
 21
-120.984642
 31
0.0
  0
LINE
  8
0
  6
BYLAYER
 62
     7
 10
809.163823
 20
-128.984642
 30
0.0
 11
809.163823
 21
-120.984642
 31
0.0
  0
LINE
  8
0
  6
BYLAYER
 62
     7
 10
809.163823
 20
-128.984642
 30
0.0
 11
817.163823
 21
-128.984642
 31
0.0
  0
LINE
  8
0
  6
BYLAYER
 62
     7
 10
817.163823
 20
-120.984642
 30
0.0
 11
817.163823
 21
-128.984642
 31
0.0
  0
LINE
  8
0
  6
BYLAYER
 62
     7
 10
809.163823
 20
-110.984642
 30
0.0
 11
817.163823
 21
-110.984642
 31
0.0
  0
LINE
  8
0
  6
BYLAYER
 62
     7
 10
809.163823
 20
-118.984642
 30
0.0
 11
809.163823
 21
-110.984642
 31
0.0
  0
LINE
  8
0
  6
BYLAYER
 62
     7
 10
809.163823
 20
-118.984642
 30
0.0
 11
817.163823
 21
-118.984642
 31
0.0
  0
LINE
  8
0
  6
BYLAYER
 62
     7
 10
817.163823
 20
-110.984642
 30
0.0
 11
817.163823
 21
-118.984642
 31
0.0
  0
LINE
  8
0
  6
BYLAYER
 62
     7
 10
779.163823
 20
-158.984642
 30
0.0
 11
779.163823
 21
-150.984642
 31
0.0
  0
LINE
  8
0
  6
BYLAYER
 62
     7
 10
787.163823
 20
-150.984642
 30
0.0
 11
787.163823
 21
-158.984642
 31
0.0
  0
LINE
  8
0
  6
BYLAYER
 62
     7
 10
779.163823
 20
-150.984642
 30
0.0
 11
787.163823
 21
-150.984642
 31
0.0
  0
LINE
  8
0
  6
BYLAYER
 62
     7
 10
779.163823
 20
-158.984642
 30
0.0
 11
787.163823
 21
-158.984642
 31
0.0
  0
LINE
  8
0
  6
BYLAYER
 62
     7
 10
799.163823
 20
-148.984642
 30
0.0
 11
799.163823
 21
-140.984642
 31
0.0
  0
LINE
  8
0
  6
BYLAYER
 62
     7
 10
799.163823
 20
-140.984642
 30
0.0
 11
807.163823
 21
-140.984642
 31
0.0
  0
LINE
  8
0
  6
BYLAYER
 62
     7
 10
799.163823
 20
-148.984642
 30
0.0
 11
807.163823
 21
-148.984642
 31
0.0
  0
LINE
  8
0
  6
BYLAYER
 62
     7
 10
807.163823
 20
-140.984642
 30
0.0
 11
807.163823
 21
-148.984642
 31
0.0
  0
LINE
  8
0
  6
BYLAYER
 62
     7
 10
819.163823
 20
-110.984642
 30
0.0
 11
827.163823
 21
-110.984642
 31
0.0
  0
LINE
  8
0
  6
BYLAYER
 62
     7
 10
819.163823
 20
-118.984642
 30
0.0
 11
819.163823
 21
-110.984642
 31
0.0
  0
LINE
  8
0
  6
BYLAYER
 62
     7
 10
819.163823
 20
-118.984642
 30
0.0
 11
827.163823
 21
-118.984642
 31
0.0
  0
LINE
  8
0
  6
BYLAYER
 62
     7
 10
827.163823
 20
-110.984642
 30
0.0
 11
827.163823
 21
-118.984642
 31
0.0
  0
LINE
  8
0
  6
BYLAYER
 62
     7
 10
809.163823
 20
-130.984642
 30
0.0
 11
817.163823
 21
-130.984642
 31
0.0
  0
LINE
  8
0
  6
BYLAYER
 62
     7
 10
809.163823
 20
-138.984642
 30
0.0
 11
809.163823
 21
-130.984642
 31
0.0
  0
LINE
  8
0
  6
BYLAYER
 62
     7
 10
809.163823
 20
-138.984642
 30
0.0
 11
817.163823
 21
-138.984642
 31
0.0
  0
LINE
  8
0
  6
BYLAYER
 62
     7
 10
817.163823
 20
-130.984642
 30
0.0
 11
817.163823
 21
-138.984642
 31
0.0
  0
LINE
  8
0
  6
BYLAYER
 62
     7
 10
777.163823
 20
-98.984642
 30
0.0
 11
769.163823
 21
-98.984642
 31
0.0
  0
LINE
  8
0
  6
BYLAYER
 62
     7
 10
777.163823
 20
-80.984642
 30
0.0
 11
777.163823
 21
-88.984642
 31
0.0
  0
LINE
  8
0
  6
BYLAYER
 62
     7
 10
777.163823
 20
-70.984642
 30
0.0
 11
777.163823
 21
-78.984642
 31
0.0
  0
LINE
  8
0
  6
BYLAYER
 62
     7
 10
777.163823
 20
-90.984642
 30
0.0
 11
777.163823
 21
-98.984642
 31
0.0
  0
LINE
  8
0
  6
BYLAYER
 62
     7
 10
769.163823
 20
-78.984642
 30
0.0
 11
769.163823
 21
-70.984642
 31
0.0
  0
LINE
  8
0
  6
BYLAYER
 62
     7
 10
767.163823
 20
-78.984642
 30
0.0
 11
767.163823
 21
-70.984642
 31
0.0
  0
LINE
  8
0
  6
BYLAYER
 62
     7
 10
777.163823
 20
-90.984642
 30
0.0
 11
769.163823
 21
-90.984642
 31
0.0
  0
LINE
  8
0
  6
BYLAYER
 62
     7
 10
777.163823
 20
-88.984642
 30
0.0
 11
769.163823
 21
-88.984642
 31
0.0
  0
LINE
  8
0
  6
BYLAYER
 62
     7
 10
777.163823
 20
-80.984642
 30
0.0
 11
769.163823
 21
-80.984642
 31
0.0
  0
LINE
  8
0
  6
BYLAYER
 62
     7
 10
767.163823
 20
-78.984642
 30
0.0
 11
759.325824
 21
-78.984642
 31
0.0
  0
LINE
  8
0
  6
BYLAYER
 62
     7
 10
777.163823
 20
-78.984642
 30
0.0
 11
769.163823
 21
-78.984642
 31
0.0
  0
LINE
  8
0
  6
BYLAYER
 62
     7
 10
767.163823
 20
-70.984642
 30
0.0
 11
759.325824
 21
-70.984642
 31
0.0
  0
LINE
  8
0
  6
BYLAYER
 62
     7
 10
777.163823
 20
-70.984642
 30
0.0
 11
769.163823
 21
-70.984642
 31
0.0
  0
LINE
  8
0
  6
BYLAYER
 62
     7
 10
759.325824
 20
-78.984642
 30
0.0
 11
759.325824
 21
-70.984642
 31
0.0
  0
LINE
  8
0
  6
BYLAYER
 62
     7
 10
769.163823
 20
-98.984642
 30
0.0
 11
769.163823
 21
-90.984642
 31
0.0
  0
LINE
  8
0
  6
BYLAYER
 62
     7
 10
769.163823
 20
-88.984642
 30
0.0
 11
769.163823
 21
-80.984642
 31
0.0
  0
LINE
  8
0
  6
BYLAYER
 62
     7
 10
767.163823
 20
-98.984642
 30
0.0
 11
759.163823
 21
-98.984642
 31
0.0
  0
LINE
  8
0
  6
BYLAYER
 62
     7
 10
767.163823
 20
-80.984642
 30
0.0
 11
767.163823
 21
-88.984642
 31
0.0
  0
LINE
  8
0
  6
BYLAYER
 62
     7
 10
767.163823
 20
-90.984642
 30
0.0
 11
767.163823
 21
-98.984642
 31
0.0
  0
LINE
  8
0
  6
BYLAYER
 62
     7
 10
767.163823
 20
-90.984642
 30
0.0
 11
759.163823
 21
-90.984642
 31
0.0
  0
LINE
  8
0
  6
BYLAYER
 62
     7
 10
767.163823
 20
-88.984642
 30
0.0
 11
759.163823
 21
-88.984642
 31
0.0
  0
LINE
  8
0
  6
BYLAYER
 62
     7
 10
767.163823
 20
-80.984642
 30
0.0
 11
759.163823
 21
-80.984642
 31
0.0
  0
LINE
  8
0
  6
BYLAYER
 62
     7
 10
759.163823
 20
-98.984642
 30
0.0
 11
759.163823
 21
-90.984642
 31
0.0
  0
LINE
  8
0
  6
BYLAYER
 62
     7
 10
759.163823
 20
-88.984642
 30
0.0
 11
759.163823
 21
-80.984642
 31
0.0
  0
LINE
  8
0
  6
BYLAYER
 62
     7
 10
757.163823
 20
-98.984642
 30
0.0
 11
749.163823
 21
-98.984642
 31
0.0
  0
LINE
  8
0
  6
BYLAYER
 62
     7
 10
757.163823
 20
-80.984642
 30
0.0
 11
757.163823
 21
-88.984642
 31
0.0
  0
LINE
  8
0
  6
BYLAYER
 62
     7
 10
757.163823
 20
-90.984642
 30
0.0
 11
757.163823
 21
-98.984642
 31
0.0
  0
LINE
  8
0
  6
BYLAYER
 62
     7
 10
757.163823
 20
-90.984642
 30
0.0
 11
749.163823
 21
-90.984642
 31
0.0
  0
LINE
  8
0
  6
BYLAYER
 62
     7
 10
757.163823
 20
-88.984642
 30
0.0
 11
749.163823
 21
-88.984642
 31
0.0
  0
LINE
  8
0
  6
BYLAYER
 62
     7
 10
757.163823
 20
-80.984642
 30
0.0
 11
749.163823
 21
-80.984642
 31
0.0
  0
LINE
  8
0
  6
BYLAYER
 62
     7
 10
749.163823
 20
-98.984642
 30
0.0
 11
749.163823
 21
-90.984642
 31
0.0
  0
LINE
  8
0
  6
BYLAYER
 62
     7
 10
749.163823
 20
-88.984642
 30
0.0
 11
749.163823
 21
-80.984642
 31
0.0
  0
LINE
  8
0
  6
BYLAYER
 62
     7
 10
767.163823
 20
-108.984642
 30
0.0
 11
759.163823
 21
-108.984642
 31
0.0
  0
LINE
  8
0
  6
BYLAYER
 62
     7
 10
767.163823
 20
-100.984642
 30
0.0
 11
767.163823
 21
-108.984642
 31
0.0
  0
LINE
  8
0
  6
BYLAYER
 62
     7
 10
767.163823
 20
-100.984642
 30
0.0
 11
759.163823
 21
-100.984642
 31
0.0
  0
LINE
  8
0
  6
BYLAYER
 62
     7
 10
759.163823
 20
-108.984642
 30
0.0
 11
759.163823
 21
-100.984642
 31
0.0
  0
LINE
  8
0
  6
BYLAYER
 62
     7
 10
757.163823
 20
-108.984642
 30
0.0
 11
749.163823
 21
-108.984642
 31
0.0
  0
LINE
  8
0
  6
BYLAYER
 62
     7
 10
757.163823
 20
-100.984642
 30
0.0
 11
757.163823
 21
-108.984642
 31
0.0
  0
LINE
  8
0
  6
BYLAYER
 62
     7
 10
757.163823
 20
-100.984642
 30
0.0
 11
749.163823
 21
-100.984642
 31
0.0
  0
LINE
  8
0
  6
BYLAYER
 62
     7
 10
749.163823
 20
-108.984642
 30
0.0
 11
749.163823
 21
-100.984642
 31
0.0
  0
LINE
  8
0
  6
BYLAYER
 62
     7
 10
747.163823
 20
-98.984642
 30
0.0
 11
739.163823
 21
-98.984642
 31
0.0
  0
LINE
  8
0
  6
BYLAYER
 62
     7
 10
747.163823
 20
-90.984642
 30
0.0
 11
747.163823
 21
-98.984642
 31
0.0
  0
LINE
  8
0
  6
BYLAYER
 62
     7
 10
747.163823
 20
-90.984642
 30
0.0
 11
739.163823
 21
-90.984642
 31
0.0
  0
LINE
  8
0
  6
BYLAYER
 62
     7
 10
739.163823
 20
-98.984642
 30
0.0
 11
739.163823
 21
-90.984642
 31
0.0
  0
LINE
  8
0
  6
BYLAYER
 62
     7
 10
747.163823
 20
-108.984642
 30
0.0
 11
739.163823
 21
-108.984642
 31
0.0
  0
LINE
  8
0
  6
BYLAYER
 62
     7
 10
747.163823
 20
-100.984642
 30
0.0
 11
747.163823
 21
-108.984642
 31
0.0
  0
LINE
  8
0
  6
BYLAYER
 62
     7
 10
747.163823
 20
-100.984642
 30
0.0
 11
739.163823
 21
-100.984642
 31
0.0
  0
LINE
  8
0
  6
BYLAYER
 62
     7
 10
739.163823
 20
-108.984642
 30
0.0
 11
739.163823
 21
-100.984642
 31
0.0
  0
LINE
  8
0
  6
BYLAYER
 62
     7
 10
777.163823
 20
-60.984642
 30
0.0
 11
777.163823
 21
-68.984642
 31
0.0
  0
LINE
  8
0
  6
BYLAYER
 62
     7
 10
769.163823
 20
-68.984642
 30
0.0
 11
769.163823
 21
-60.984642
 31
0.0
  0
LINE
  8
0
  6
BYLAYER
 62
     7
 10
777.163823
 20
-68.984642
 30
0.0
 11
769.163823
 21
-68.984642
 31
0.0
  0
LINE
  8
0
  6
BYLAYER
 62
     7
 10
777.163823
 20
-60.984642
 30
0.0
 11
769.163823
 21
-60.984642
 31
0.0
  0
LINE
  8
0
  6
BYLAYER
 62
     7
 10
757.163823
 20
-70.984642
 30
0.0
 11
757.163823
 21
-78.984642
 31
0.0
  0
LINE
  8
0
  6
BYLAYER
 62
     7
 10
757.163823
 20
-78.984642
 30
0.0
 11
749.163823
 21
-78.984642
 31
0.0
  0
LINE
  8
0
  6
BYLAYER
 62
     7
 10
757.163823
 20
-70.984642
 30
0.0
 11
749.163823
 21
-70.984642
 31
0.0
  0
LINE
  8
0
  6
BYLAYER
 62
     7
 10
749.163823
 20
-78.984642
 30
0.0
 11
749.163823
 21
-70.984642
 31
0.0
  0
LINE
  8
0
  6
BYLAYER
 62
     7
 10
737.163823
 20
-108.984642
 30
0.0
 11
729.163823
 21
-108.984642
 31
0.0
  0
LINE
  8
0
  6
BYLAYER
 62
     7
 10
737.163823
 20
-100.984642
 30
0.0
 11
737.163823
 21
-108.984642
 31
0.0
  0
LINE
  8
0
  6
BYLAYER
 62
     7
 10
737.163823
 20
-100.984642
 30
0.0
 11
729.163823
 21
-100.984642
 31
0.0
  0
LINE
  8
0
  6
BYLAYER
 62
     7
 10
729.163823
 20
-108.984642
 30
0.0
 11
729.163823
 21
-100.984642
 31
0.0
  0
LINE
  8
0
  6
BYLAYER
 62
     7
 10
747.163823
 20
-88.984642
 30
0.0
 11
739.163823
 21
-88.984642
 31
0.0
  0
LINE
  8
0
  6
BYLAYER
 62
     7
 10
747.163823
 20
-80.984642
 30
0.0
 11
747.163823
 21
-88.984642
 31
0.0
  0
LINE
  8
0
  6
BYLAYER
 62
     7
 10
747.163823
 20
-80.984642
 30
0.0
 11
739.163823
 21
-80.984642
 31
0.0
  0
LINE
  8
0
  6
BYLAYER
 62
     7
 10
739.163823
 20
-88.984642
 30
0.0
 11
739.163823
 21
-80.984642
 31
0.0
  0
LINE
  8
0
  6
BYLAYER
 62
     7
 10
777.163823
 20
-120.984642
 30
0.0
 11
769.163823
 21
-120.984642
 31
0.0
  0
LINE
  8
0
  6
BYLAYER
 62
     7
 10
777.163823
 20
-138.984642
 30
0.0
 11
777.163823
 21
-130.984642
 31
0.0
  0
LINE
  8
0
  6
BYLAYER
 62
     7
 10
777.163823
 20
-148.984642
 30
0.0
 11
777.163823
 21
-140.984642
 31
0.0
  0
LINE
  8
0
  6
BYLAYER
 62
     7
 10
777.163823
 20
-128.984642
 30
0.0
 11
777.163823
 21
-120.984642
 31
0.0
  0
LINE
  8
0
  6
BYLAYER
 62
     7
 10
769.163823
 20
-140.984642
 30
0.0
 11
769.163823
 21
-148.984642
 31
0.0
  0
LINE
  8
0
  6
BYLAYER
 62
     7
 10
767.163823
 20
-140.984642
 30
0.0
 11
767.163823
 21
-148.984642
 31
0.0
  0
LINE
  8
0
  6
BYLAYER
 62
     7
 10
777.163823
 20
-128.984642
 30
0.0
 11
769.163823
 21
-128.984642
 31
0.0
  0
LINE
  8
0
  6
BYLAYER
 62
     7
 10
777.163823
 20
-130.984642
 30
0.0
 11
769.163823
 21
-130.984642
 31
0.0
  0
LINE
  8
0
  6
BYLAYER
 62
     7
 10
777.163823
 20
-138.984642
 30
0.0
 11
769.163823
 21
-138.984642
 31
0.0
  0
LINE
  8
0
  6
BYLAYER
 62
     7
 10
767.163823
 20
-140.984642
 30
0.0
 11
759.325824
 21
-140.984642
 31
0.0
  0
LINE
  8
0
  6
BYLAYER
 62
     7
 10
777.163823
 20
-140.984642
 30
0.0
 11
769.163823
 21
-140.984642
 31
0.0
  0
LINE
  8
0
  6
BYLAYER
 62
     7
 10
767.163823
 20
-148.984642
 30
0.0
 11
759.325824
 21
-148.984642
 31
0.0
  0
LINE
  8
0
  6
BYLAYER
 62
     7
 10
777.163823
 20
-148.984642
 30
0.0
 11
769.163823
 21
-148.984642
 31
0.0
  0
LINE
  8
0
  6
BYLAYER
 62
     7
 10
759.325824
 20
-140.984642
 30
0.0
 11
759.325824
 21
-148.984642
 31
0.0
  0
LINE
  8
0
  6
BYLAYER
 62
     7
 10
769.163823
 20
-120.984642
 30
0.0
 11
769.163823
 21
-128.984642
 31
0.0
  0
LINE
  8
0
  6
BYLAYER
 62
     7
 10
769.163823
 20
-130.984642
 30
0.0
 11
769.163823
 21
-138.984642
 31
0.0
  0
LINE
  8
0
  6
BYLAYER
 62
     7
 10
767.163823
 20
-120.984642
 30
0.0
 11
759.163823
 21
-120.984642
 31
0.0
  0
LINE
  8
0
  6
BYLAYER
 62
     7
 10
767.163823
 20
-138.984642
 30
0.0
 11
767.163823
 21
-130.984642
 31
0.0
  0
LINE
  8
0
  6
BYLAYER
 62
     7
 10
767.163823
 20
-128.984642
 30
0.0
 11
767.163823
 21
-120.984642
 31
0.0
  0
LINE
  8
0
  6
BYLAYER
 62
     7
 10
767.163823
 20
-128.984642
 30
0.0
 11
759.163823
 21
-128.984642
 31
0.0
  0
LINE
  8
0
  6
BYLAYER
 62
     7
 10
767.163823
 20
-130.984642
 30
0.0
 11
759.163823
 21
-130.984642
 31
0.0
  0
LINE
  8
0
  6
BYLAYER
 62
     7
 10
767.163823
 20
-138.984642
 30
0.0
 11
759.163823
 21
-138.984642
 31
0.0
  0
LINE
  8
0
  6
BYLAYER
 62
     7
 10
759.163823
 20
-120.984642
 30
0.0
 11
759.163823
 21
-128.984642
 31
0.0
  0
LINE
  8
0
  6
BYLAYER
 62
     7
 10
759.163823
 20
-130.984642
 30
0.0
 11
759.163823
 21
-138.984642
 31
0.0
  0
LINE
  8
0
  6
BYLAYER
 62
     7
 10
757.163823
 20
-120.984642
 30
0.0
 11
749.163823
 21
-120.984642
 31
0.0
  0
LINE
  8
0
  6
BYLAYER
 62
     7
 10
757.163823
 20
-138.984642
 30
0.0
 11
757.163823
 21
-130.984642
 31
0.0
  0
LINE
  8
0
  6
BYLAYER
 62
     7
 10
757.163823
 20
-128.984642
 30
0.0
 11
757.163823
 21
-120.984642
 31
0.0
  0
LINE
  8
0
  6
BYLAYER
 62
     7
 10
757.163823
 20
-128.984642
 30
0.0
 11
749.163823
 21
-128.984642
 31
0.0
  0
LINE
  8
0
  6
BYLAYER
 62
     7
 10
757.163823
 20
-130.984642
 30
0.0
 11
749.163823
 21
-130.984642
 31
0.0
  0
LINE
  8
0
  6
BYLAYER
 62
     7
 10
757.163823
 20
-138.984642
 30
0.0
 11
749.163823
 21
-138.984642
 31
0.0
  0
LINE
  8
0
  6
BYLAYER
 62
     7
 10
749.163823
 20
-120.984642
 30
0.0
 11
749.163823
 21
-128.984642
 31
0.0
  0
LINE
  8
0
  6
BYLAYER
 62
     7
 10
749.163823
 20
-130.984642
 30
0.0
 11
749.163823
 21
-138.984642
 31
0.0
  0
LINE
  8
0
  6
BYLAYER
 62
     7
 10
767.163823
 20
-110.984642
 30
0.0
 11
759.163823
 21
-110.984642
 31
0.0
  0
LINE
  8
0
  6
BYLAYER
 62
     7
 10
767.163823
 20
-118.984642
 30
0.0
 11
767.163823
 21
-110.984642
 31
0.0
  0
LINE
  8
0
  6
BYLAYER
 62
     7
 10
767.163823
 20
-118.984642
 30
0.0
 11
759.163823
 21
-118.984642
 31
0.0
  0
LINE
  8
0
  6
BYLAYER
 62
     7
 10
759.163823
 20
-110.984642
 30
0.0
 11
759.163823
 21
-118.984642
 31
0.0
  0
LINE
  8
0
  6
BYLAYER
 62
     7
 10
757.163823
 20
-110.984642
 30
0.0
 11
749.163823
 21
-110.984642
 31
0.0
  0
LINE
  8
0
  6
BYLAYER
 62
     7
 10
757.163823
 20
-118.984642
 30
0.0
 11
757.163823
 21
-110.984642
 31
0.0
  0
LINE
  8
0
  6
BYLAYER
 62
     7
 10
757.163823
 20
-118.984642
 30
0.0
 11
749.163823
 21
-118.984642
 31
0.0
  0
LINE
  8
0
  6
BYLAYER
 62
     7
 10
749.163823
 20
-110.984642
 30
0.0
 11
749.163823
 21
-118.984642
 31
0.0
  0
LINE
  8
0
  6
BYLAYER
 62
     7
 10
747.163823
 20
-120.984642
 30
0.0
 11
739.163823
 21
-120.984642
 31
0.0
  0
LINE
  8
0
  6
BYLAYER
 62
     7
 10
747.163823
 20
-128.984642
 30
0.0
 11
747.163823
 21
-120.984642
 31
0.0
  0
LINE
  8
0
  6
BYLAYER
 62
     7
 10
747.163823
 20
-128.984642
 30
0.0
 11
739.163823
 21
-128.984642
 31
0.0
  0
LINE
  8
0
  6
BYLAYER
 62
     7
 10
739.163823
 20
-120.984642
 30
0.0
 11
739.163823
 21
-128.984642
 31
0.0
  0
LINE
  8
0
  6
BYLAYER
 62
     7
 10
747.163823
 20
-110.984642
 30
0.0
 11
739.163823
 21
-110.984642
 31
0.0
  0
LINE
  8
0
  6
BYLAYER
 62
     7
 10
747.163823
 20
-118.984642
 30
0.0
 11
747.163823
 21
-110.984642
 31
0.0
  0
LINE
  8
0
  6
BYLAYER
 62
     7
 10
747.163823
 20
-118.984642
 30
0.0
 11
739.163823
 21
-118.984642
 31
0.0
  0
LINE
  8
0
  6
BYLAYER
 62
     7
 10
739.163823
 20
-110.984642
 30
0.0
 11
739.163823
 21
-118.984642
 31
0.0
  0
LINE
  8
0
  6
BYLAYER
 62
     7
 10
777.163823
 20
-158.984642
 30
0.0
 11
777.163823
 21
-150.984642
 31
0.0
  0
LINE
  8
0
  6
BYLAYER
 62
     7
 10
769.163823
 20
-150.984642
 30
0.0
 11
769.163823
 21
-158.984642
 31
0.0
  0
LINE
  8
0
  6
BYLAYER
 62
     7
 10
777.163823
 20
-150.984642
 30
0.0
 11
769.163823
 21
-150.984642
 31
0.0
  0
LINE
  8
0
  6
BYLAYER
 62
     7
 10
777.163823
 20
-158.984642
 30
0.0
 11
769.163823
 21
-158.984642
 31
0.0
  0
LINE
  8
0
  6
BYLAYER
 62
     7
 10
757.163823
 20
-148.984642
 30
0.0
 11
757.163823
 21
-140.984642
 31
0.0
  0
LINE
  8
0
  6
BYLAYER
 62
     7
 10
757.163823
 20
-140.984642
 30
0.0
 11
749.163823
 21
-140.984642
 31
0.0
  0
LINE
  8
0
  6
BYLAYER
 62
     7
 10
757.163823
 20
-148.984642
 30
0.0
 11
749.163823
 21
-148.984642
 31
0.0
  0
LINE
  8
0
  6
BYLAYER
 62
     7
 10
749.163823
 20
-140.984642
 30
0.0
 11
749.163823
 21
-148.984642
 31
0.0
  0
LINE
  8
0
  6
BYLAYER
 62
     7
 10
737.163823
 20
-110.984642
 30
0.0
 11
729.163823
 21
-110.984642
 31
0.0
  0
LINE
  8
0
  6
BYLAYER
 62
     7
 10
737.163823
 20
-118.984642
 30
0.0
 11
737.163823
 21
-110.984642
 31
0.0
  0
LINE
  8
0
  6
BYLAYER
 62
     7
 10
737.163823
 20
-118.984642
 30
0.0
 11
729.163823
 21
-118.984642
 31
0.0
  0
LINE
  8
0
  6
BYLAYER
 62
     7
 10
729.163823
 20
-110.984642
 30
0.0
 11
729.163823
 21
-118.984642
 31
0.0
  0
LINE
  8
0
  6
BYLAYER
 62
     7
 10
747.163823
 20
-130.984642
 30
0.0
 11
739.163823
 21
-130.984642
 31
0.0
  0
LINE
  8
0
  6
BYLAYER
 62
     7
 10
747.163823
 20
-138.984642
 30
0.0
 11
747.163823
 21
-130.984642
 31
0.0
  0
LINE
  8
0
  6
BYLAYER
 62
     7
 10
747.163823
 20
-138.984642
 30
0.0
 11
739.163823
 21
-138.984642
 31
0.0
  0
LINE
  8
0
  6
BYLAYER
 62
     7
 10
739.163823
 20
-130.984642
 30
0.0
 11
739.163823
 21
-138.984642
 31
0.0
  0
ARC
  8
0
  6
BYLAYER
 62
     7
 10
813.913823
 20
-22.484642
 30
0.0
 40
1.500000
 50
180.000000
 51
265.219808
  0
ARC
  8
0
  6
BYLAYER
 62
     7
 10
742.413823
 20
-22.484642
 30
0.0
 40
1.500000
 50
274.780192
 51
360.000000
  0
ARC
  8
0
  6
BYLAYER
 62
     7
 10
750.409485
 20
-22.484642
 30
0.0
 40
1.5
 50
270.0
 51
360.0
  0
LINE
  8
0
  6
BYLAYER
 62
     7
 10
812.413823
 20
-22.484642
 30
0.0
 11
812.413823
 21
-0.984642
 31
0.0
  0
LINE
  8
0
  6
BYLAYER
 62
     7
 10
810.913823
 20
0.515358
 30
0.0
 11
745.413823
 21
0.515358
 31
0.0
  0
ARC
  8
0
  6
BYLAYER
 62
     7
 10
810.913823
 20
-0.984642
 30
0.0
 40
1.5
 50
0.0
 51
90.0
  0
ARC
  8
0
  6
BYLAYER
 62
     7
 10
745.413823
 20
-0.984642
 30
0.0
 40
1.5
 50
90.0
 51
180.0
  0
LINE
  8
0
  6
BYLAYER
 62
     7
 10
743.913823
 20
-22.484642
 30
0.0
 11
743.913823
 21
-0.984642
 31
0.0
  0
LINE
  8
0
  6
BYLAYER
 62
     7
 10
751.909485
 20
-22.484642
 30
0.0
 11
751.909485
 21
-0.984642
 31
0.0
  0
ARC
  8
0
  6
BYLAYER
 62
     7
 10
753.409485
 20
-0.984642
 30
0.0
 40
1.5
 50
90.0
 51
180.0
  0
ARC
  8
0
  6
BYLAYER
 62
     7
 10
802.918161
 20
-0.984642
 30
0.0
 40
1.5
 50
0.0
 51
90.0
  0
LINE
  8
0
  6
BYLAYER
 62
     7
 10
757.570170
 20
0.515358
 30
0.0
 11
758.062717
 21
-13.589340
 31
0.0
  0
ARC
  8
0
  6
BYLAYER
 62
     7
 10
761.060889
 20
-13.484642
 30
0.0
 40
3.000000
 50
182.0
 51
270.0
  0
LINE
  8
0
  6
BYLAYER
 62
     7
 10
768.264929
 20
-13.589340
 30
0.0
 11
768.757476
 21
0.515358
 31
0.0
  0
ARC
  8
0
  6
BYLAYER
 62
     7
 10
765.266757
 20
-13.484642
 30
0.0
 40
3.000000
 50
270.0
 51
358.0
  0
LINE
  8
0
  6
BYLAYER
 62
     7
 10
783.264929
 20
-13.589340
 30
0.0
 11
783.757476
 21
0.515358
 31
0.0
  0
ARC
  8
0
  6
BYLAYER
 62
     7
 10
780.266757
 20
-13.484642
 30
0.0
 40
3.000000
 50
270.0
 51
358.0
  0
LINE
  8
0
  6
BYLAYER
 62
     7
 10
798.264929
 20
-13.589340
 30
0.0
 11
798.757476
 21
0.515358
 31
0.0
  0
ARC
  8
0
  6
BYLAYER
 62
     7
 10
795.266757
 20
-13.484642
 30
0.0
 40
3.000000
 50
270.0
 51
358.0
  0
LINE
  8
0
  6
BYLAYER
 62
     7
 10
787.570170
 20
0.515358
 30
0.0
 11
788.062717
 21
-13.589340
 31
0.0
  0
ARC
  8
0
  6
BYLAYER
 62
     7
 10
791.060889
 20
-13.484642
 30
0.0
 40
3.000000
 50
182.0
 51
270.0
  0
LINE
  8
0
  6
BYLAYER
 62
     7
 10
772.570170
 20
0.515358
 30
0.0
 11
773.062717
 21
-13.589340
 31
0.0
  0
ARC
  8
0
  6
BYLAYER
 62
     7
 10
776.060889
 20
-13.484642
 30
0.0
 40
3.000000
 50
182.0
 51
270.0
  0
LINE
  8
0
  6
BYLAYER
 62
     7
 10
791.060889
 20
-16.484642
 30
0.0
 11
795.266757
 21
-16.484642
 31
0.0
  0
LINE
  8
0
  6
BYLAYER
 62
     7
 10
776.060889
 20
-16.484642
 30
0.0
 11
780.266757
 21
-16.484642
 31
0.0
  0
LINE
  8
0
  6
BYLAYER
 62
     7
 10
761.060889
 20
-16.484642
 30
0.0
 11
765.266757
 21
-16.484642
 31
0.0
  0
LINE
  8
0
  6
BYLAYER
 62
     7
 10
772.605091
 20
-0.484642
 30
0.0
 11
783.722555
 21
-0.484642
 31
0.0
  0
LINE
  8
0
  6
BYLAYER
 62
     7
 10
787.605091
 20
-0.484642
 30
0.0
 11
798.722555
 21
-0.484642
 31
0.0
  0
LINE
  8
0
  6
BYLAYER
 62
     7
 10
757.605091
 20
-0.484642
 30
0.0
 11
768.722555
 21
-0.484642
 31
0.0
  0
LINE
  8
0
  6
BYLAYER
 62
     7
 10
804.418161
 20
-0.984642
 30
0.0
 11
804.418161
 21
-22.484642
 31
0.0
  0
ARC
  8
0
  6
BYLAYER
 62
     7
 10
742.663823
 20
-25.474207
 30
0.0
 40
1.500000
 50
94.780192
 51
180.000000
  0
LINE
  8
0
  6
BYLAYER
 62
     7
 10
742.663823
 20
-23.984642
 30
0.0
 11
813.913823
 21
-23.984642
 31
0.0
  0
ARC
  8
0
  6
BYLAYER
 62
     7
 10
813.663823
 20
-25.474207
 30
0.0
 40
1.500000
 50
0.0
 51
85.219808
  0
LINE
  8
0
  6
BYLAYER
 62
     7
 10
815.163823
 20
-32.984642
 30
0.0
 11
815.163823
 21
-25.474207
 31
0.0
  0
ARC
  8
0
  6
BYLAYER
 62
     7
 10
805.918161
 20
-22.484642
 30
0.0
 40
1.5
 50
180.000000
 51
270.000000
  0
LINE
  8
0
  6
BYLAYER
 62
     7
 10
815.163823
 20
-30.984581
 30
0.0
 11
741.163823
 21
-30.984581
 31
0.0
  0
LINE
  8
0
  6
BYLAYER
 62
     7
 10
741.163823
 20
-25.474207
 30
0.0
 11
741.163823
 21
-32.984642
 31
0.0
  0
LINE
  8
0
  6
BYLAYER
 62
     7
 10
741.163823
 20
-32.984642
 30
0.0
 11
815.163823
 21
-32.984642
 31
0.0
  0
ARC
  8
0
  6
BYLAYER
 62
     7
 10
778.163823
 20
-469.984642
 30
0.0
 40
68.000000
 50
86.147657
 51
93.852343
  0
LINE
  8
0
  6
BYLAYER
 62
     7
 10
771.797733
 20
-403.616130
 30
0.0
 11
769.709913
 21
-411.407983
 31
0.0
  0
ARC
  8
0
  6
BYLAYER
 62
     7
 10
767.778061
 20
-410.890345
 30
0.0
 40
2.0
 50
279.967878
 51
345.000000
  0
ARC
  8
0
  6
BYLAYER
 62
     7
 10
773.729585
 20
-404.133769
 30
0.0
 40
2.0
 50
93.852343
 51
165.000000
  0
LINE
  8
0
  6
BYLAYER
 62
     7
 10
784.529913
 20
-403.616130
 30
0.0
 11
786.617733
 21
-411.407983
 31
0.0
  0
ARC
  8
0
  6
BYLAYER
 62
     7
 10
788.549585
 20
-410.890345
 30
0.0
 40
2.0
 50
195.000000
 51
260.032122
  0
ARC
  8
0
  6
BYLAYER
 62
     7
 10
782.598061
 20
-404.133769
 30
0.0
 40
2.0
 50
15.000000
 51
86.147657
  0
ARC
  8
0
  6
BYLAYER
 62
     7
 10
778.163823
 20
-469.984642
 30
0.0
 40
58.0
 50
189.967878
 51
203.362786
  0
ARC
  8
0
  6
BYLAYER
 62
     7
 10
778.163823
 20
-469.984642
 30
0.0
 40
58.0
 50
336.637214
 51
350.032122
  0
ARC
  8
0
  6
BYLAYER
 62
     7
 10
778.163823
 20
-469.984642
 30
0.0
 40
58.000000
 50
152.614402
 51
170.032122
  0
ARC
  8
0
  6
BYLAYER
 62
     7
 10
778.163823
 20
-469.984642
 30
0.0
 40
58.000000
 50
99.967878
 51
137.746374
  0
ARC
  8
0
  6
BYLAYER
 62
     7
 10
778.163823
 20
-469.984642
 30
0.0
 40
58.0
 50
9.967878
 51
27.385615
  0
ARC
  8
0
  6
BYLAYER
 62
     7
 10
778.163823
 20
-469.984642
 30
0.0
 40
58.000000
 50
42.253626
 51
80.032122
  0
ARC
  8
0
  6
BYLAYER
 62
     7
 10
778.163823
 20
-469.984642
 30
0.0
 40
68.0
 50
176.147657
 51
183.852343
  0
LINE
  8
0
  6
BYLAYER
 62
     7
 10
711.795311
 20
-476.350732
 30
0.0
 11
719.587164
 21
-478.438552
 31
0.0
  0
ARC
  8
0
  6
BYLAYER
 62
     7
 10
719.069526
 20
-480.370404
 30
0.0
 40
2.000000
 50
9.967878
 51
75.000000
  0
ARC
  8
0
  6
BYLAYER
 62
     7
 10
712.312950
 20
-474.418880
 30
0.0
 40
2.0
 50
183.852343
 51
255.000000
  0
LINE
  8
0
  6
BYLAYER
 62
     7
 10
711.795311
 20
-463.618552
 30
0.0
 11
719.587164
 21
-461.530732
 31
0.0
  0
ARC
  8
0
  6
BYLAYER
 62
     7
 10
719.069526
 20
-459.598880
 30
0.0
 40
2.0
 50
285.000000
 51
350.032122
  0
ARC
  8
0
  6
BYLAYER
 62
     7
 10
712.312950
 20
-465.550404
 30
0.0
 40
2.0
 50
105.000000
 51
176.147657
  0
ARC
  8
0
  6
BYLAYER
 62
     7
 10
778.163823
 20
-469.984642
 30
0.0
 40
68.000000
 50
356.147657
 51
363.852343
  0
LINE
  8
0
  6
BYLAYER
 62
     7
 10
844.532335
 20
-463.618552
 30
0.0
 11
836.740482
 21
-461.530732
 31
0.0
  0
ARC
  8
0
  6
BYLAYER
 62
     7
 10
837.258120
 20
-459.598880
 30
0.0
 40
2.000000
 50
189.967878
 51
255.0
  0
ARC
  8
0
  6
BYLAYER
 62
     7
 10
844.014696
 20
-465.550404
 30
0.0
 40
2.0
 50
3.852343
 51
75.000000
  0
LINE
  8
0
  6
BYLAYER
 62
     7
 10
844.532335
 20
-476.350732
 30
0.0
 11
836.740482
 21
-478.438552
 31
0.0
  0
ARC
  8
0
  6
BYLAYER
 62
     7
 10
837.258120
 20
-480.370404
 30
0.0
 40
2.0
 50
105.000000
 51
170.032122
  0
ARC
  8
0
  6
BYLAYER
 62
     7
 10
844.014696
 20
-474.418880
 30
0.0
 40
2.0
 50
285.000000
 51
356.147657
  0
ARC
  8
0
  6
BYLAYER
 62
     7
 10
778.163823
 20
-469.984642
 30
0.0
 40
52.5
 50
168.799182
 51
188.722305
  0
ARC
  8
0
  6
BYLAYER
 62
     7
 10
778.163823
 20
-469.984642
 30
0.0
 40
52.500000
 50
351.277695
 51
371.200863
  0
ARC
  8
0
  6
BYLAYER
 62
     7
 10
778.163823
 20
-469.984642
 30
0.0
 40
52.500000
 50
47.975359
 51
132.024641
  0
ARC
  8
0
  6
BYLAYER
 62
     7
 10
778.163823
 20
-469.984642
 30
0.0
 40
55.522000
 50
158.057641
 51
197.335462
  0
ARC
  8
0
  6
BYLAYER
 62
     7
 10
778.163823
 20
-469.984642
 30
0.0
 40
55.522000
 50
342.664511
 51
381.942381
  0
ARC
  8
0
  6
BYLAYER
 62
     7
 10
778.163823
 20
-469.984642
 30
0.0
 40
55.522000
 50
44.621817
 51
135.378183
  0
ARC
  8
0
  6
BYLAYER
 62
     7
 10
742.163823
 20
-418.684654
 30
0.0
 40
1.0
 50
180.000000
 51
269.999996
  0
ARC
  8
0
  6
BYLAYER
 62
     7
 10
814.163823
 20
-418.684654
 30
0.0
 40
1.0
 50
270.0
 51
359.999999
  0
LINE
  8
0
  6
BYLAYER
 62
     7
 10
741.163823
 20
-392.984642
 30
0.0
 11
741.163823
 21
-418.684654
 31
0.0
  0
LINE
  8
0
  6
BYLAYER
 62
     7
 10
815.163823
 20
-392.984642
 30
0.0
 11
815.163823
 21
-418.684654
 31
0.0
  0
LINE
  8
0
  6
BYLAYER
 62
     7
 10
741.163823
 20
-397.484642
 30
0.0
 11
744.163823
 21
-402.680778
 31
0.0
  0
LINE
  8
0
  6
BYLAYER
 62
     7
 10
744.163823
 20
-402.680778
 30
0.0
 11
744.163823
 21
-422.995282
 31
0.0
  0
LINE
  8
0
  6
BYLAYER
 62
     7
 10
744.163823
 20
-419.684654
 30
0.0
 11
742.163823
 21
-419.684654
 31
0.0
  0
LINE
  8
0
  6
BYLAYER
 62
     7
 10
815.163823
 20
-397.484642
 30
0.0
 11
812.163823
 21
-402.680778
 31
0.0
  0
LINE
  8
0
  6
BYLAYER
 62
     7
 10
839.838139
 20
-442.435142
 30
0.0
 11
829.663815
 21
-442.079845
 31
0.0
  0
LINE
  8
0
  6
BYLAYER
 62
     7
 10
843.446904
 20
-453.135124
 30
0.0
 11
833.556377
 21
-452.789732
 31
0.0
  0
LINE
  8
0
  6
BYLAYER
 62
     7
 10
843.446904
 20
-454.734154
 30
0.0
 11
834.209849
 21
-455.056717
 31
0.0
  0
LINE
  8
0
  6
BYLAYER
 62
     7
 10
839.838139
 20
-444.034142
 30
0.0
 11
830.201544
 21
-444.370670
 31
0.0
  0
LINE
  8
0
  6
BYLAYER
 62
     7
 10
833.989018
 20
-433.334160
 30
0.0
 11
829.663815
 21
-433.485192
 31
0.0
  0
ARC
  8
0
  6
BYLAYER
 62
     7
 10
833.961125
 20
-432.534630
 30
0.0
 40
0.800016
 50
272.000017
 51
447.999987
  0
ARC
  8
0
  6
BYLAYER
 62
     7
 10
839.810216
 20
-443.234642
 30
0.0
 40
0.799987
 50
272.000017
 51
447.999987
  0
ARC
  8
0
  6
BYLAYER
 62
     7
 10
843.419011
 20
-453.934654
 30
0.0
 40
0.799986
 50
271.999743
 51
448.000267
  0
LINE
  8
0
  6
BYLAYER
 62
     7
 10
839.838139
 20
-497.534142
 30
0.0
 11
834.163815
 21
-497.732295
 31
0.0
  0
LINE
  8
0
  6
BYLAYER
 62
     7
 10
843.446904
 20
-486.834160
 30
0.0
 11
833.556382
 21
-487.179538
 31
0.0
  0
LINE
  8
0
  6
BYLAYER
 62
     7
 10
843.446904
 20
-485.235130
 30
0.0
 11
834.209849
 21
-484.912567
 31
0.0
  0
LINE
  8
0
  6
BYLAYER
 62
     7
 10
839.838139
 20
-495.935127
 30
0.0
 11
834.163815
 21
-495.736977
 31
0.0
  0
ARC
  8
0
  6
BYLAYER
 62
     7
 10
833.961125
 20
-507.434639
 30
0.0
 40
0.800001
 50
284.676558
 51
435.323442
  0
ARC
  8
0
  6
BYLAYER
 62
     7
 10
839.810216
 20
-496.734642
 30
0.0
 40
0.800002
 50
272.000017
 51
447.999987
  0
ARC
  8
0
  6
BYLAYER
 62
     7
 10
843.419011
 20
-486.034630
 30
0.0
 40
0.799986
 50
271.999743
 51
448.000260
  0
ARC
  8
0
  6
BYLAYER
 62
     7
 10
843.292912
 20
-489.534630
 30
0.0
 40
0.500000
 50
270.0
 51
343.291700
  0
ARC
  8
0
  6
BYLAYER
 62
     7
 10
778.163823
 20
-469.984642
 30
0.0
 40
68.499992
 50
343.291646
 51
349.364586
  0
ARC
  8
0
  6
BYLAYER
 62
     7
 10
844.995671
 20
-482.534630
 30
0.0
 40
0.500015
 50
349.364559
 51
450.000003
  0
LINE
  8
0
  6
BYLAYER
 62
     7
 10
834.971490
 20
-481.684596
 30
0.0
 11
844.995671
 21
-482.034630
 31
0.0
  0
LINE
  8
0
  6
BYLAYER
 62
     7
 10
832.447032
 20
-490.413377
 30
0.0
 11
843.292912
 21
-490.034630
 31
0.0
  0
ARC
  8
0
  6
BYLAYER
 62
     7
 10
843.205724
 20
-451.934654
 30
0.0
 40
0.499996
 50
15.510094
 51
90.000003
  0
ARC
  8
0
  6
BYLAYER
 62
     7
 10
778.163823
 20
-469.984642
 30
0.0
 40
68.000008
 50
12.013850
 51
15.510050
  0
ARC
  8
0
  6
BYLAYER
 62
     7
 10
844.185399
 20
-455.934654
 30
0.0
 40
0.5
 50
270.0
 51
372.013821
  0
LINE
  8
0
  6
BYLAYER
 62
     7
 10
832.995776
 20
-451.078110
 30
0.0
 11
843.205724
 21
-451.434654
 31
0.0
  0
LINE
  8
0
  6
BYLAYER
 62
     7
 10
834.637902
 20
-456.768045
 30
0.0
 11
844.185399
 21
-456.434654
 31
0.0
  0
LINE
  8
0
  6
BYLAYER
 62
     7
 10
722.338628
 20
-431.735130
 30
0.0
 11
726.663823
 21
-431.584091
 31
0.0
  0
LINE
  8
0
  6
BYLAYER
 62
     7
 10
716.489507
 20
-442.435142
 30
0.0
 11
726.663823
 21
-442.079846
 31
0.0
  0
LINE
  8
0
  6
BYLAYER
 62
     7
 10
712.880742
 20
-453.135124
 30
0.0
 11
722.771269
 21
-452.789732
 31
0.0
  0
LINE
  8
0
  6
BYLAYER
 62
     7
 10
712.880742
 20
-454.734154
 30
0.0
 11
722.117797
 21
-455.056716
 31
0.0
  0
LINE
  8
0
  6
BYLAYER
 62
     7
 10
716.489507
 20
-444.034142
 30
0.0
 11
726.126102
 21
-444.370670
 31
0.0
  0
LINE
  8
0
  6
BYLAYER
 62
     7
 10
722.338628
 20
-433.334160
 30
0.0
 11
726.663823
 21
-433.485192
 31
0.0
  0
ARC
  8
0
  6
BYLAYER
 62
     7
 10
722.366582
 20
-432.534630
 30
0.0
 40
0.800019
 50
92.000012
 51
267.999985
  0
ARC
  8
0
  6
BYLAYER
 62
     7
 10
716.517461
 20
-443.234642
 30
0.0
 40
0.799988
 50
92.000012
 51
267.999985
  0
ARC
  8
0
  6
BYLAYER
 62
     7
 10
712.908696
 20
-453.934654
 30
0.0
 40
0.799988
 50
91.999732
 51
268.000258
  0
LINE
  8
0
  6
BYLAYER
 62
     7
 10
716.489507
 20
-497.534142
 30
0.0
 11
722.163823
 21
-497.732294
 31
0.0
  0
LINE
  8
0
  6
BYLAYER
 62
     7
 10
712.880742
 20
-486.834160
 30
0.0
 11
722.771264
 21
-487.179538
 31
0.0
  0
LINE
  8
0
  6
BYLAYER
 62
     7
 10
712.880742
 20
-485.235130
 30
0.0
 11
722.117797
 21
-484.912568
 31
0.0
  0
LINE
  8
0
  6
BYLAYER
 62
     7
 10
716.489507
 20
-495.935127
 30
0.0
 11
722.163823
 21
-495.736978
 31
0.0
  0
ARC
  8
0
  6
BYLAYER
 62
     7
 10
722.366582
 20
-507.434639
 30
0.0
 40
0.800003
 50
104.681629
 51
255.318371
  0
ARC
  8
0
  6
BYLAYER
 62
     7
 10
716.517461
 20
-496.734642
 30
0.0
 40
0.800003
 50
92.000012
 51
267.999985
  0
ARC
  8
0
  6
BYLAYER
 62
     7
 10
712.908696
 20
-486.034630
 30
0.0
 40
0.799988
 50
91.999738
 51
268.000258
  0
ARC
  8
0
  6
BYLAYER
 62
     7
 10
713.034734
 20
-489.534630
 30
0.0
 40
0.5
 50
196.708301
 51
270.000001
  0
ARC
  8
0
  6
BYLAYER
 62
     7
 10
778.163823
 20
-469.984642
 30
0.0
 40
68.499992
 50
190.635416
 51
196.708355
  0
ARC
  8
0
  6
BYLAYER
 62
     7
 10
711.331914
 20
-482.534630
 30
0.0
 40
0.499925
 50
90.0
 51
190.635447
  0
LINE
  8
0
  6
BYLAYER
 62
     7
 10
721.356156
 20
-481.684596
 30
0.0
 11
711.331914
 21
-482.034630
 31
0.0
  0
LINE
  8
0
  6
BYLAYER
 62
     7
 10
723.880613
 20
-490.413375
 30
0.0
 11
713.034734
 21
-490.034630
 31
0.0
  0
ARC
  8
0
  6
BYLAYER
 62
     7
 10
713.121953
 20
-451.934654
 30
0.0
 40
0.500026
 50
90.0
 51
164.489906
  0
ARC
  8
0
  6
BYLAYER
 62
     7
 10
778.163823
 20
-469.984642
 30
0.0
 40
68.000008
 50
164.489957
 51
167.986153
  0
ARC
  8
0
  6
BYLAYER
 62
     7
 10
712.142217
 20
-455.934654
 30
0.0
 40
0.499970
 50
167.986180
 51
270.000001
  0
LINE
  8
0
  6
BYLAYER
 62
     7
 10
723.331870
 20
-451.078109
 30
0.0
 11
713.121953
 21
-451.434654
 31
0.0
  0
LINE
  8
0
  6
BYLAYER
 62
     7
 10
721.689744
 20
-456.768044
 30
0.0
 11
712.142217
 21
-456.434654
 31
0.0
  0
LINE
  8
0
  6
BYLAYER
 62
     7
 10
829.663815
 20
-431.584094
 30
0.0
 11
833.989018
 21
-431.735130
 31
0.0
  0
LINE
  8
0
  6
BYLAYER
 62
     7
 10
812.163823
 20
-402.680778
 30
0.0
 11
812.163823
 21
-422.995282
 31
0.0
  0
LINE
  8
0
  6
BYLAYER
 62
     7
 10
812.163823
 20
-419.684654
 30
0.0
 11
814.163823
 21
-419.684654
 31
0.0
  0
ARC
  8
0
  6
BYLAYER
 62
     7
 10
778.163823
 20
-469.984642
 30
0.0
 40
69.450000
 50
323.739418
 51
417.80805
  0
ARC
  8
0
  6
BYLAYER
 62
     7
 10
778.163823
 20
-469.984642
 30
0.0
 40
69.45
 50
122.191950
 51
216.260571
  0
ARC
  8
0
  6
BYLAYER
 62
     7
 10
813.913823
 20
-382.484642
 30
0.0
 40
1.500000
 50
180.000000
 51
265.219808
  0
ARC
  8
0
  6
BYLAYER
 62
     7
 10
742.413823
 20
-382.484642
 30
0.0
 40
1.500000
 50
274.780192
 51
360.000000
  0
ARC
  8
0
  6
BYLAYER
 62
     7
 10
750.409485
 20
-382.484642
 30
0.0
 40
1.5
 50
270.0
 51
360.0
  0
LINE
  8
0
  6
BYLAYER
 62
     7
 10
812.413823
 20
-382.484642
 30
0.0
 11
812.413823
 21
-360.984642
 31
0.0
  0
LINE
  8
0
  6
BYLAYER
 62
     7
 10
810.913823
 20
-359.484642
 30
0.0
 11
745.413823
 21
-359.484642
 31
0.0
  0
ARC
  8
0
  6
BYLAYER
 62
     7
 10
810.913823
 20
-360.984642
 30
0.0
 40
1.5
 50
0.0
 51
90.0
  0
ARC
  8
0
  6
BYLAYER
 62
     7
 10
745.413823
 20
-360.984642
 30
0.0
 40
1.5
 50
90.0
 51
180.0
  0
LINE
  8
0
  6
BYLAYER
 62
     7
 10
743.913823
 20
-382.484642
 30
0.0
 11
743.913823
 21
-360.984642
 31
0.0
  0
LINE
  8
0
  6
BYLAYER
 62
     7
 10
751.909485
 20
-382.484642
 30
0.0
 11
751.909485
 21
-360.984642
 31
0.0
  0
ARC
  8
0
  6
BYLAYER
 62
     7
 10
753.409485
 20
-360.984642
 30
0.0
 40
1.5
 50
90.0
 51
180.0
  0
ARC
  8
0
  6
BYLAYER
 62
     7
 10
802.918161
 20
-360.984642
 30
0.0
 40
1.5
 50
0.0
 51
90.0
  0
LINE
  8
0
  6
BYLAYER
 62
     7
 10
757.570170
 20
-359.484642
 30
0.0
 11
758.062717
 21
-373.589340
 31
0.0
  0
ARC
  8
0
  6
BYLAYER
 62
     7
 10
761.060889
 20
-373.484642
 30
0.0
 40
3.000000
 50
182.0
 51
270.0
  0
LINE
  8
0
  6
BYLAYER
 62
     7
 10
768.264929
 20
-373.589340
 30
0.0
 11
768.757476
 21
-359.484642
 31
0.0
  0
ARC
  8
0
  6
BYLAYER
 62
     7
 10
765.266757
 20
-373.484642
 30
0.0
 40
3.000000
 50
270.0
 51
358.0
  0
LINE
  8
0
  6
BYLAYER
 62
     7
 10
783.264929
 20
-373.589340
 30
0.0
 11
783.757476
 21
-359.484642
 31
0.0
  0
ARC
  8
0
  6
BYLAYER
 62
     7
 10
780.266757
 20
-373.484642
 30
0.0
 40
3.000000
 50
270.0
 51
358.0
  0
LINE
  8
0
  6
BYLAYER
 62
     7
 10
798.264929
 20
-373.589340
 30
0.0
 11
798.757476
 21
-359.484642
 31
0.0
  0
ARC
  8
0
  6
BYLAYER
 62
     7
 10
795.266757
 20
-373.484642
 30
0.0
 40
3.000000
 50
270.0
 51
358.0
  0
LINE
  8
0
  6
BYLAYER
 62
     7
 10
787.570170
 20
-359.484642
 30
0.0
 11
788.062717
 21
-373.589340
 31
0.0
  0
ARC
  8
0
  6
BYLAYER
 62
     7
 10
791.060889
 20
-373.484642
 30
0.0
 40
3.000000
 50
182.0
 51
270.0
  0
LINE
  8
0
  6
BYLAYER
 62
     7
 10
772.570170
 20
-359.484642
 30
0.0
 11
773.062717
 21
-373.589340
 31
0.0
  0
ARC
  8
0
  6
BYLAYER
 62
     7
 10
776.060889
 20
-373.484642
 30
0.0
 40
3.000000
 50
182.0
 51
270.0
  0
LINE
  8
0
  6
BYLAYER
 62
     7
 10
791.060889
 20
-376.484642
 30
0.0
 11
795.266757
 21
-376.484642
 31
0.0
  0
LINE
  8
0
  6
BYLAYER
 62
     7
 10
776.060889
 20
-376.484642
 30
0.0
 11
780.266757
 21
-376.484642
 31
0.0
  0
LINE
  8
0
  6
BYLAYER
 62
     7
 10
761.060889
 20
-376.484642
 30
0.0
 11
765.266757
 21
-376.484642
 31
0.0
  0
LINE
  8
0
  6
BYLAYER
 62
     7
 10
772.605091
 20
-360.484642
 30
0.0
 11
783.722555
 21
-360.484642
 31
0.0
  0
LINE
  8
0
  6
BYLAYER
 62
     7
 10
787.605091
 20
-360.484642
 30
0.0
 11
798.722555
 21
-360.484642
 31
0.0
  0
LINE
  8
0
  6
BYLAYER
 62
     7
 10
757.605091
 20
-360.484642
 30
0.0
 11
768.722555
 21
-360.484642
 31
0.0
  0
LINE
  8
0
  6
BYLAYER
 62
     7
 10
804.418161
 20
-360.984642
 30
0.0
 11
804.418161
 21
-382.484642
 31
0.0
  0
ARC
  8
0
  6
BYLAYER
 62
     7
 10
742.663823
 20
-385.474207
 30
0.0
 40
1.500000
 50
94.780192
 51
180.000000
  0
LINE
  8
0
  6
BYLAYER
 62
     7
 10
742.663823
 20
-383.984642
 30
0.0
 11
813.913823
 21
-383.984642
 31
0.0
  0
ARC
  8
0
  6
BYLAYER
 62
     7
 10
813.663823
 20
-385.474207
 30
0.0
 40
1.500000
 50
0.0
 51
85.219808
  0
LINE
  8
0
  6
BYLAYER
 62
     7
 10
815.163823
 20
-392.984642
 30
0.0
 11
815.163823
 21
-385.474207
 31
0.0
  0
ARC
  8
0
  6
BYLAYER
 62
     7
 10
805.918161
 20
-382.484642
 30
0.0
 40
1.5
 50
180.000000
 51
270.000000
  0
LINE
  8
0
  6
BYLAYER
 62
     7
 10
815.163823
 20
-390.984581
 30
0.0
 11
741.163823
 21
-390.984581
 31
0.0
  0
LINE
  8
0
  6
BYLAYER
 62
     7
 10
741.163823
 20
-385.474207
 30
0.0
 11
741.163823
 21
-392.984642
 31
0.0
  0
LINE
  8
0
  6
BYLAYER
 62
     7
 10
741.163823
 20
-392.984642
 30
0.0
 11
815.163823
 21
-392.984642
 31
0.0
  0
LINE
  8
0
  6
BYLAYER
 62
     1
 10
267.058354
 20
-460.804954
 30
0.0
 11
273.163823
 21
-460.485854
 31
0.0
  0
LINE
  8
0
  6
BYLAYER
 62
     1
 10
252.163823
 20
-478.484642
 30
0.0
 11
263.442174
 21
-476.899574
 31
0.0
  0
LINE
  8
0
  6
BYLAYER
 62
     1
 10
253.162236
 20
-478.344322
 30
0.0
 11
265.163823
 21
-462.984642
 31
0.0
  0
ARC
  8
0
  6
BYLAYER
 62
     1
 10
267.163823
 20
-462.801048
 30
0.0
 40
1.998878
 50
93.000095
 51
179.999998
  0
ARC
  8
0
  6
BYLAYER
 62
     1
 10
263.163823
 20
-474.919029
 30
0.0
 40
2.000010
 50
278.000092
 51
359.999996
  0
LINE
  8
0
  6
BYLAYER
 62
     1
 10
267.058354
 20
-565.164329
 30
0.0
 11
273.163823
 21
-565.483430
 31
0.0
  0
LINE
  8
0
  6
BYLAYER
 62
     1
 10
273.163823
 20
-565.483430
 30
0.0
 11
273.163823
 21
-512.984642
 31
0.0
  0
LINE
  8
0
  6
BYLAYER
 62
     1
 10
252.163823
 20
-547.484642
 30
0.0
 11
263.442174
 21
-549.069710
 31
0.0
  0
LINE
  8
0
  6
BYLAYER
 62
     1
 10
252.163823
 20
-547.484642
 30
0.0
 11
252.163823
 21
-512.984642
 31
0.0
  0
LINE
  8
0
  6
BYLAYER
 62
     1
 10
265.163823
 20
-512.984642
 30
0.0
 11
265.163823
 21
-563.168236
 31
0.0
  0
LINE
  8
0
  6
BYLAYER
 62
     1
 10
253.162236
 20
-547.624962
 30
0.0
 11
265.163823
 21
-562.984642
 31
0.0
  0
ARC
  8
0
  6
BYLAYER
 62
     1
 10
267.163823
 20
-563.168236
 30
0.0
 40
1.998878
 50
180.000000
 51
266.999903
  0
ARC
  8
0
  6
BYLAYER
 62
     1
 10
263.163823
 20
-551.050255
 30
0.0
 40
2.000010
 50
0.0
 51
81.999904
  0
LINE
  8
0
  6
BYLAYER
 62
     1
 10
273.163823
 20
-460.485854
 30
0.0
 11
273.163823
 21
-512.984642
 31
0.0
  0
LINE
  8
0
  6
BYLAYER
 62
     1
 10
252.163823
 20
-478.484642
 30
0.0
 11
252.163823
 21
-512.984642
 31
0.0
  0
LINE
  8
0
  6
BYLAYER
 62
     1
 10
265.163823
 20
-512.984642
 30
0.0
 11
265.163823
 21
-462.801048
 31
0.0
  0
ENDSEC
  0
EOF
