  0
SECTION
  2
HEADER
  9
$EXTMIN
 10
99.737201
 20
573.0
 30
0.0
  9
$EXTMAX
 10
799.853242
 20
0.0
 30
0.0
  0
ENDSEC
  0
SECTION
  2
TABLES
  0
ENDSEC
  0
SECTION
  2
BLOCKS
  0
ENDSEC
  0
SECTION
  2
ENTITIES
  0
LINE
  8
0
  6
BYLAYER
 62
     7
 10
254.317406
 20
-217.117747
 30
0.0
 11
254.317406
 21
-121.117747
 31
0.0
  0
LINE
  8
0
  6
BYLAYER
 62
     7
 10
254.317406
 20
-221.117747
 30
0.0
 11
254.317406
 21
-217.117747
 31
0.0
  0
LINE
  8
0
  6
BYLAYER
 62
     7
 10
254.317406
 20
-121.117747
 30
0.0
 11
254.317406
 21
-21.117747
 31
0.0
  0
LINE
  8
0
  6
BYLAYER
 62
     7
 10
254.317406
 20
-52.742366
 30
0.0
 11
254.317406
 21
-44.617747
 31
0.0
  0
LINE
  8
0
  6
BYLAYER
 62
     7
 10
242.317406
 20
-21.117747
 30
0.0
 11
254.317406
 21
-21.117747
 31
0.0
  0
LINE
  8
0
  6
BYLAYER
 62
     7
 10
242.317406
 20
-221.117747
 30
0.0
 11
254.317406
 21
-221.117747
 31
0.0
  0
LINE
  8
0
  6
BYLAYER
 62
     7
 10
274.317406
 20
-195.170194
 30
0.0
 11
274.317406
 21
-195.441387
 31
0.0
  0
LINE
  8
0
  6
BYLAYER
 62
     7
 10
274.317406
 20
-188.652659
 30
0.0
 11
274.317406
 21
-197.617747
 31
0.0
  0
LINE
  8
0
  6
BYLAYER
 62
     7
 10
274.317406
 20
-197.617747
 30
0.0
 11
254.317406
 21
-198.024995
 31
0.0
  0
LINE
  8
0
  6
BYLAYER
 62
     7
 10
275.817406
 20
-188.626475
 30
0.0
 11
274.317406
 21
-188.652659
 31
0.0
  0
LINE
  8
0
  6
BYLAYER
 62
     7
 10
254.808679
 20
-53.242289
 30
0.0
 11
275.817406
 21
-53.609019
 31
0.0
  0
ARC
  8
0
  6
BYLAYER
 62
     7
 10
254.817406
 20
-52.742366
 30
0.0
 40
0.5
 50
180.000000
 51
268.999943
  0
LINE
  8
0
  6
BYLAYER
 62
     7
 10
275.817406
 20
-53.609019
 30
0.0
 11
275.817406
 21
-188.626475
 31
0.0
  0
LINE
  8
0
  6
BYLAYER
 62
     7
 10
242.317406
 20
-121.117747
 30
0.0
 11
242.317406
 21
-221.117747
 31
0.0
  0
LINE
  8
0
  6
BYLAYER
 62
     7
 10
242.317406
 20
-121.117747
 30
0.0
 11
242.317406
 21
-21.117747
 31
0.0
  0
LINE
  8
0
  6
BYLAYER
 62
     7
 10
285.117333
 20
-37.617808
 30
0.0
 11
279.317284
 21
-37.617808
 31
0.0
  0
ARC
  8
0
  6
BYLAYER
 62
     7
 10
285.117333
 20
-39.117808
 30
0.0
 40
1.500000
 50
0.0
 51
90.000003
  0
ARC
  8
0
  6
BYLAYER
 62
     7
 10
314.517358
 20
-39.117808
 30
0.0
 40
1.500000
 50
90.0
 51
180.000003
  0
LINE
  8
0
  6
BYLAYER
 62
     7
 10
324.117333
 20
-37.617808
 30
0.0
 11
314.517358
 21
-37.617808
 31
0.0
  0
ARC
  8
0
  6
BYLAYER
 62
     7
 10
324.117333
 20
-39.117808
 30
0.0
 40
1.500000
 50
0.0
 51
90.000003
  0
LINE
  8
0
  6
BYLAYER
 62
     7
 10
359.317345
 20
-37.617747
 30
0.0
 11
353.517358
 21
-37.617747
 31
0.0
  0
ARC
  8
0
  6
BYLAYER
 62
     7
 10
353.517358
 20
-39.117747
 30
0.0
 40
1.500000
 50
90.0
 51
180.000003
  0
ARC
  8
0
  6
BYLAYER
 62
     7
 10
299.817345
 20
-46.617747
 30
0.0
 40
13.200012
 50
180.000000
 51
359.999995
  0
ARC
  8
0
  6
BYLAYER
 62
     7
 10
338.817345
 20
-46.617747
 30
0.0
 40
13.200012
 50
180.000000
 51
359.999995
  0
LINE
  8
0
  6
BYLAYER
 62
     7
 10
279.317284
 20
-43.117808
 30
0.0
 11
285.117333
 21
-43.117808
 31
0.0
  0
LINE
  8
0
  6
BYLAYER
 62
     7
 10
286.617333
 20
-39.117808
 30
0.0
 11
286.617333
 21
-44.617808
 31
0.0
  0
LINE
  8
0
  6
BYLAYER
 62
     7
 10
286.617333
 20
-44.617808
 30
0.0
 11
286.617333
 21
-46.617747
 31
0.0
  0
ARC
  8
0
  6
BYLAYER
 62
     7
 10
285.117333
 20
-44.617808
 30
0.0
 40
1.500000
 50
0.0
 51
90.000003
  0
ARC
  8
0
  6
BYLAYER
 62
     7
 10
314.517358
 20
-44.617747
 30
0.0
 40
1.500000
 50
90.0
 51
180.000003
  0
LINE
  8
0
  6
BYLAYER
 62
     7
 10
314.517358
 20
-43.117747
 30
0.0
 11
324.117333
 21
-43.117747
 31
0.0
  0
LINE
  8
0
  6
BYLAYER
 62
     7
 10
325.617333
 20
-39.117808
 30
0.0
 11
325.617333
 21
-44.617747
 31
0.0
  0
LINE
  8
0
  6
BYLAYER
 62
     7
 10
325.617333
 20
-44.617747
 30
0.0
 11
325.617333
 21
-46.617747
 31
0.0
  0
ARC
  8
0
  6
BYLAYER
 62
     7
 10
324.117333
 20
-44.617747
 30
0.0
 40
1.500000
 50
0.0
 51
90.000003
  0
LINE
  8
0
  6
BYLAYER
 62
     7
 10
352.017358
 20
-46.617747
 30
0.0
 11
352.017358
 21
-44.617747
 31
0.0
  0
LINE
  8
0
  6
BYLAYER
 62
     7
 10
352.017358
 20
-44.617747
 30
0.0
 11
352.017358
 21
-39.117747
 31
0.0
  0
LINE
  8
0
  6
BYLAYER
 62
     7
 10
353.517358
 20
-43.117747
 30
0.0
 11
359.317345
 21
-43.117747
 31
0.0
  0
ARC
  8
0
  6
BYLAYER
 62
     7
 10
353.517358
 20
-44.617747
 30
0.0
 40
1.500000
 50
90.0
 51
180.000003
  0
LINE
  8
0
  6
BYLAYER
 62
     7
 10
313.017358
 20
-39.117808
 30
0.0
 11
313.017358
 21
-46.617747
 31
0.0
  0
ARC
  8
0
  6
BYLAYER
 62
     7
 10
280.217370
 20
-115.142772
 30
0.0
 40
0.899994
 50
90.0
 51
269.999998
  0
LINE
  8
0
  6
BYLAYER
 62
     7
 10
280.217370
 20
-114.242778
 30
0.0
 11
394.317497
 21
-114.242778
 31
0.0
  0
LINE
  8
0
  6
BYLAYER
 62
     7
 10
280.217370
 20
-116.042766
 30
0.0
 11
394.317497
 21
-116.042766
 31
0.0
  0
ARC
  8
0
  6
BYLAYER
 62
     7
 10
280.217370
 20
-103.192790
 30
0.0
 40
0.900024
 50
90.0
 51
269.999998
  0
ARC
  8
0
  6
BYLAYER
 62
     7
 10
280.217370
 20
-91.242778
 30
0.0
 40
0.899994
 50
90.0
 51
269.999998
  0
LINE
  8
0
  6
BYLAYER
 62
     7
 10
280.217370
 20
-90.342784
 30
0.0
 11
394.317497
 21
-90.342784
 31
0.0
  0
LINE
  8
0
  6
BYLAYER
 62
     7
 10
280.217370
 20
-92.142772
 30
0.0
 11
394.317497
 21
-92.142772
 31
0.0
  0
ARC
  8
0
  6
BYLAYER
 62
     7
 10
280.217370
 20
-79.292796
 30
0.0
 40
0.900024
 50
90.0
 51
269.999998
  0
LINE
  8
0
  6
BYLAYER
 62
     7
 10
280.217370
 20
-78.392772
 30
0.0
 11
394.317497
 21
-78.392772
 31
0.0
  0
LINE
  8
0
  6
BYLAYER
 62
     7
 10
280.217370
 20
-80.192790
 30
0.0
 11
394.317497
 21
-80.192790
 31
0.0
  0
ARC
  8
0
  6
BYLAYER
 62
     7
 10
280.217370
 20
-67.342784
 30
0.0
 40
0.899994
 50
90.0
 51
269.999998
  0
LINE
  8
0
  6
BYLAYER
 62
     7
 10
280.217370
 20
-66.442790
 30
0.0
 11
394.317497
 21
-66.442790
 31
0.0
  0
LINE
  8
0
  6
BYLAYER
 62
     7
 10
280.217370
 20
-68.242778
 30
0.0
 11
394.317497
 21
-68.242778
 31
0.0
  0
ARC
  8
0
  6
BYLAYER
 62
     7
 10
280.217370
 20
-127.092784
 30
0.0
 40
0.899994
 50
90.0
 51
269.999998
  0
LINE
  8
0
  6
BYLAYER
 62
     7
 10
280.217370
 20
-126.192790
 30
0.0
 11
394.317497
 21
-126.192790
 31
0.0
  0
LINE
  8
0
  6
BYLAYER
 62
     7
 10
280.217370
 20
-127.992778
 30
0.0
 11
394.317497
 21
-127.992778
 31
0.0
  0
ARC
  8
0
  6
BYLAYER
 62
     7
 10
280.217370
 20
-139.042766
 30
0.0
 40
0.899994
 50
90.0
 51
269.999998
  0
ARC
  8
0
  6
BYLAYER
 62
     7
 10
280.217370
 20
-150.992778
 30
0.0
 40
0.899994
 50
90.0
 51
269.999998
  0
LINE
  8
0
  6
BYLAYER
 62
     7
 10
280.217370
 20
-150.092784
 30
0.0
 11
394.317497
 21
-150.092784
 31
0.0
  0
LINE
  8
0
  6
BYLAYER
 62
     7
 10
280.217370
 20
-151.892772
 30
0.0
 11
394.317497
 21
-151.892772
 31
0.0
  0
LINE
  8
0
  6
BYLAYER
 62
     7
 10
290.317406
 20
-68.242778
 30
0.0
 11
290.317406
 21
-78.392772
 31
0.0
  0
LINE
  8
0
  6
BYLAYER
 62
     7
 10
392.317406
 20
-68.242778
 30
0.0
 11
392.317406
 21
-78.392772
 31
0.0
  0
LINE
  8
0
  6
BYLAYER
 62
     7
 10
359.317345
 20
-66.442790
 30
0.0
 11
359.317345
 21
-33.117747
 31
0.0
  0
LINE
  8
0
  6
BYLAYER
 62
     7
 10
290.317406
 20
-80.192790
 30
0.0
 11
290.317406
 21
-90.342784
 31
0.0
  0
LINE
  8
0
  6
BYLAYER
 62
     7
 10
290.317406
 20
-92.142772
 30
0.0
 11
290.317406
 21
-102.292766
 31
0.0
  0
LINE
  8
0
  6
BYLAYER
 62
     7
 10
290.317406
 20
-104.092784
 30
0.0
 11
290.317406
 21
-114.242778
 31
0.0
  0
LINE
  8
0
  6
BYLAYER
 62
     7
 10
290.317406
 20
-116.042766
 30
0.0
 11
290.317406
 21
-126.192790
 31
0.0
  0
LINE
  8
0
  6
BYLAYER
 62
     7
 10
290.317406
 20
-127.992778
 30
0.0
 11
290.317406
 21
-138.142772
 31
0.0
  0
LINE
  8
0
  6
BYLAYER
 62
     7
 10
290.317406
 20
-139.942790
 30
0.0
 11
290.317406
 21
-150.092784
 31
0.0
  0
LINE
  8
0
  6
BYLAYER
 62
     7
 10
290.317406
 20
-163.842784
 30
0.0
 11
290.317406
 21
-166.206847
 31
0.0
  0
LINE
  8
0
  6
BYLAYER
 62
     7
 10
290.317406
 20
-151.892772
 30
0.0
 11
290.317406
 21
-162.042766
 31
0.0
  0
LINE
  8
0
  6
BYLAYER
 62
     7
 10
392.317406
 20
-80.192790
 30
0.0
 11
392.317406
 21
-90.342784
 31
0.0
  0
LINE
  8
0
  6
BYLAYER
 62
     7
 10
392.317406
 20
-92.142772
 30
0.0
 11
392.317406
 21
-102.292766
 31
0.0
  0
LINE
  8
0
  6
BYLAYER
 62
     7
 10
392.317406
 20
-104.092784
 30
0.0
 11
392.317406
 21
-114.242778
 31
0.0
  0
LINE
  8
0
  6
BYLAYER
 62
     7
 10
392.317406
 20
-116.042766
 30
0.0
 11
392.317406
 21
-126.192790
 31
0.0
  0
LINE
  8
0
  6
BYLAYER
 62
     7
 10
392.317406
 20
-127.992778
 30
0.0
 11
392.317406
 21
-138.142772
 31
0.0
  0
LINE
  8
0
  6
BYLAYER
 62
     7
 10
392.317406
 20
-139.942790
 30
0.0
 11
392.317406
 21
-150.092784
 31
0.0
  0
LINE
  8
0
  6
BYLAYER
 62
     7
 10
392.317406
 20
-163.842784
 30
0.0
 11
392.317406
 21
-166.206847
 31
0.0
  0
LINE
  8
0
  6
BYLAYER
 62
     7
 10
392.317406
 20
-151.892772
 30
0.0
 11
392.317406
 21
-162.042766
 31
0.0
  0
CIRCLE
  8
0
  6
BYLAYER
 62
     7
 10
313.847375
 20
-103.192790
 30
0.0
 40
3.0
  0
CIRCLE
  8
0
  6
BYLAYER
 62
     7
 10
368.847375
 20
-103.192790
 30
0.0
 40
3.0
  0
LINE
  8
0
  6
BYLAYER
 62
     7
 10
371.709191
 20
-102.292766
 30
0.0
 11
394.317497
 21
-102.292766
 31
0.0
  0
LINE
  8
0
  6
BYLAYER
 62
     7
 10
371.709191
 20
-104.092784
 30
0.0
 11
394.317497
 21
-104.092784
 31
0.0
  0
LINE
  8
0
  6
BYLAYER
 62
     7
 10
316.709191
 20
-102.292766
 30
0.0
 11
365.985558
 21
-102.292766
 31
0.0
  0
LINE
  8
0
  6
BYLAYER
 62
     7
 10
316.709191
 20
-104.092784
 30
0.0
 11
365.985558
 21
-104.092784
 31
0.0
  0
LINE
  8
0
  6
BYLAYER
 62
     7
 10
280.217370
 20
-102.292766
 30
0.0
 11
310.985558
 21
-102.292766
 31
0.0
  0
LINE
  8
0
  6
BYLAYER
 62
     7
 10
280.217370
 20
-104.092784
 30
0.0
 11
310.985558
 21
-104.092784
 31
0.0
  0
LINE
  8
0
  6
BYLAYER
 62
     7
 10
280.217370
 20
-138.142772
 30
0.0
 11
394.317497
 21
-138.142772
 31
0.0
  0
LINE
  8
0
  6
BYLAYER
 62
     7
 10
280.217370
 20
-139.942790
 30
0.0
 11
394.317497
 21
-139.942790
 31
0.0
  0
ARC
  8
0
  6
BYLAYER
 62
     7
 10
280.217370
 20
-162.942759
 30
0.0
 40
0.899994
 50
90.0
 51
269.999998
  0
LINE
  8
0
  6
BYLAYER
 62
     7
 10
280.217370
 20
-162.042766
 30
0.0
 11
394.317497
 21
-162.042766
 31
0.0
  0
LINE
  8
0
  6
BYLAYER
 62
     7
 10
280.217370
 20
-163.842784
 30
0.0
 11
394.317497
 21
-163.842784
 31
0.0
  0
LINE
  8
0
  6
BYLAYER
 62
     7
 10
300.317406
 20
-127.992778
 30
0.0
 11
300.317406
 21
-126.192790
 31
0.0
  0
LINE
  8
0
  6
BYLAYER
 62
     7
 10
382.317406
 20
-126.192790
 30
0.0
 11
382.317406
 21
-127.992778
 31
0.0
  0
LINE
  8
0
  6
BYLAYER
 62
     7
 10
382.317406
 20
-116.042766
 30
0.0
 11
382.317406
 21
-114.242778
 31
0.0
  0
LINE
  8
0
  6
BYLAYER
 62
     7
 10
300.317406
 20
-114.242778
 30
0.0
 11
300.317406
 21
-116.042766
 31
0.0
  0
LINE
  8
0
  6
BYLAYER
 62
     7
 10
382.317406
 20
-104.092784
 30
0.0
 11
382.317406
 21
-102.292766
 31
0.0
  0
LINE
  8
0
  6
BYLAYER
 62
     7
 10
300.317406
 20
-102.292766
 30
0.0
 11
300.317406
 21
-104.092784
 31
0.0
  0
LINE
  8
0
  6
BYLAYER
 62
     7
 10
382.317406
 20
-92.142772
 30
0.0
 11
382.317406
 21
-90.342784
 31
0.0
  0
LINE
  8
0
  6
BYLAYER
 62
     7
 10
300.317406
 20
-90.342784
 30
0.0
 11
300.317406
 21
-92.142772
 31
0.0
  0
LINE
  8
0
  6
BYLAYER
 62
     7
 10
300.317406
 20
-78.392772
 30
0.0
 11
300.317406
 21
-80.192790
 31
0.0
  0
LINE
  8
0
  6
BYLAYER
 62
     7
 10
382.317406
 20
-80.192790
 30
0.0
 11
382.317406
 21
-78.392772
 31
0.0
  0
ARC
  8
0
  6
BYLAYER
 62
     7
 10
287.217400
 20
-162.942790
 30
0.0
 40
0.900024
 50
90.0
 51
269.999998
  0
ARC
  8
0
  6
BYLAYER
 62
     7
 10
287.217400
 20
-150.992778
 30
0.0
 40
0.899994
 50
90.0
 51
269.999998
  0
ARC
  8
0
  6
BYLAYER
 62
     7
 10
287.217400
 20
-139.042766
 30
0.0
 40
0.899994
 50
90.0
 51
269.999998
  0
ARC
  8
0
  6
BYLAYER
 62
     7
 10
287.217400
 20
-127.092784
 30
0.0
 40
0.899994
 50
90.0
 51
269.999998
  0
ARC
  8
0
  6
BYLAYER
 62
     7
 10
287.217400
 20
-115.142772
 30
0.0
 40
0.899994
 50
90.0
 51
269.999998
  0
ARC
  8
0
  6
BYLAYER
 62
     7
 10
287.217400
 20
-103.192790
 30
0.0
 40
0.900024
 50
90.0
 51
269.999998
  0
ARC
  8
0
  6
BYLAYER
 62
     7
 10
287.217400
 20
-91.242778
 30
0.0
 40
0.899994
 50
90.0
 51
269.999998
  0
LINE
  8
0
  6
BYLAYER
 62
     7
 10
279.317282
 20
-33.117747
 30
0.0
 11
279.317408
 21
-188.617747
 31
0.0
  0
ARC
  8
0
  6
BYLAYER
 62
     7
 10
287.217400
 20
-67.342784
 30
0.0
 40
0.899994
 50
90.0
 51
269.999998
  0
ARC
  8
0
  6
BYLAYER
 62
     7
 10
287.217400
 20
-79.292796
 30
0.0
 40
0.900024
 50
90.0
 51
269.999998
  0
LINE
  8
0
  6
BYLAYER
 62
     7
 10
359.317345
 20
-45.662705
 30
0.0
 11
394.427343
 21
-45.662705
 31
0.0
  0
LINE
  8
0
  6
BYLAYER
 62
     7
 10
359.317345
 20
-48.069737
 30
0.0
 11
394.413399
 21
-48.069737
 31
0.0
  0
LINE
  8
0
  6
BYLAYER
 62
     7
 10
359.317345
 20
-53.127145
 30
0.0
 11
394.322519
 21
-53.127145
 31
0.0
  0
LINE
  8
0
  6
BYLAYER
 62
     7
 10
279.317299
 20
-54.117747
 30
0.0
 11
275.817406
 21
-54.117747
 31
0.0
  0
LINE
  8
0
  6
BYLAYER
 62
     7
 10
279.317299
 20
-188.117747
 30
0.0
 11
275.817406
 21
-188.117747
 31
0.0
  0
LINE
  8
0
  6
BYLAYER
 62
     7
 10
283.724958
 20
-197.846394
 30
0.0
 11
394.317497
 21
-197.846394
 31
0.0
  0
LINE
  8
0
  6
BYLAYER
 62
     7
 10
283.764641
 20
-195.439362
 30
0.0
 11
394.317497
 21
-195.439362
 31
0.0
  0
LINE
  8
0
  6
BYLAYER
 62
     7
 10
283.792238
 20
-191.014957
 30
0.0
 11
394.317497
 21
-191.014957
 31
0.0
  0
LINE
  8
0
  6
BYLAYER
 62
     7
 10
283.884133
 20
-183.182627
 30
0.0
 11
394.317497
 21
-183.182627
 31
0.0
  0
LINE
  8
0
  6
BYLAYER
 62
     7
 10
394.317497
 20
-166.206847
 30
0.0
 11
287.811944
 21
-166.206847
 31
0.0
  0
LINE
  8
0
  6
BYLAYER
 62
     7
 10
282.315325
 20
-196.859165
 30
0.0
 11
279.317406
 21
-188.617747
 31
0.0
  0
ARC
  8
0
  6
BYLAYER
 62
     7
 10
283.724958
 20
-196.346394
 30
0.0
 40
1.500000
 50
199.989488
 51
270.000000
  0
LINE
  8
0
  6
BYLAYER
 62
     7
 10
282.337900
 20
-194.402408
 30
0.0
 11
279.317406
 21
-185.095633
 31
0.0
  0
ARC
  8
0
  6
BYLAYER
 62
     7
 10
283.764641
 20
-193.939362
 30
0.0
 40
1.500000
 50
197.980729
 51
270.000000
  0
LINE
  8
0
  6
BYLAYER
 62
     7
 10
282.354853
 20
-189.943821
 30
0.0
 11
279.317406
 21
-179.763489
 31
0.0
  0
ARC
  8
0
  6
BYLAYER
 62
     7
 10
283.792238
 20
-189.514957
 30
0.0
 40
1.5
 50
196.613220
 51
270.000000
  0
LINE
  8
0
  6
BYLAYER
 62
     7
 10
282.418177
 20
-182.000392
 30
0.0
 11
279.317406
 21
-167.695490
 31
0.0
  0
ARC
  8
0
  6
BYLAYER
 62
     7
 10
283.884133
 20
-181.682627
 30
0.0
 40
1.5
 50
192.230383
 51
270.0
  0
LINE
  8
0
  6
BYLAYER
 62
     7
 10
279.317406
 20
-179.763489
 30
0.0
 11
281.677738
 21
-178.584496
 31
0.0
  0
LINE
  8
0
  6
BYLAYER
 62
     7
 10
279.317406
 20
-185.095633
 30
0.0
 11
280.713484
 21
-184.442594
 31
0.0
  0
LINE
  8
0
  6
BYLAYER
 62
     7
 10
279.317406
 20
-167.695490
 30
0.0
 11
287.811944
 21
-166.206847
 31
0.0
  0
LINE
  8
0
  6
BYLAYER
 62
     7
 10
279.317406
 20
-188.617747
 30
0.0
 11
280.318458
 21
-188.180084
 31
0.0
  0
LINE
  8
0
  6
BYLAYER
 62
     7
 10
275.817406
 20
-188.117747
 30
0.0
 11
275.817406
 21
-54.117747
 31
0.0
  0
LINE
  8
0
  6
BYLAYER
 62
     7
 10
454.701018
 20
-41.867747
 30
0.0
 11
394.317497
 21
-41.867747
 31
0.0
  0
LINE
  8
0
  6
BYLAYER
 62
     7
 10
475.317497
 20
-56.630015
 30
0.0
 11
457.779326
 21
-42.927693
 31
0.0
  0
ARC
  8
0
  6
BYLAYER
 62
     7
 10
454.701018
 20
-46.867747
 30
0.0
 40
5.0
 50
52.0
 51
90.0
  0
LINE
  8
0
  6
BYLAYER
 62
     7
 10
475.317497
 20
-121.117747
 30
0.0
 11
475.317497
 21
-56.630015
 31
0.0
  0
LINE
  8
0
  6
BYLAYER
 62
     7
 10
475.317497
 20
-185.605479
 30
0.0
 11
475.317497
 21
-121.117747
 31
0.0
  0
LINE
  8
0
  6
BYLAYER
 62
     7
 10
457.779326
 20
-199.307801
 30
0.0
 11
475.317497
 21
-185.605479
 31
0.0
  0
ARC
  8
0
  6
BYLAYER
 62
     7
 10
454.701018
 20
-195.367747
 30
0.0
 40
5.0
 50
270.0
 51
308.0
  0
LINE
  8
0
  6
BYLAYER
 62
     7
 10
394.317497
 20
-200.367747
 30
0.0
 11
454.701018
 21
-200.367747
 31
0.0
  0
LINE
  8
0
  6
BYLAYER
 62
     7
 10
394.317497
 20
-200.367747
 30
0.0
 11
394.317497
 21
-121.117747
 31
0.0
  0
LINE
  8
0
  6
BYLAYER
 62
     7
 10
394.317497
 20
-41.867747
 30
0.0
 11
394.317497
 21
-121.117747
 31
0.0
  0
ARC
  8
0
  6
BYLAYER
 62
     7
 10
350.071620
 20
-22.617747
 30
0.0
 40
1.5
 50
180.000000
 51
270.000000
  0
ARC
  8
0
  6
BYLAYER
 62
     7
 10
288.562944
 20
-22.617747
 30
0.0
 40
1.500000
 50
270.0
 51
360.0
  0
ARC
  8
0
  6
BYLAYER
 62
     7
 10
280.817282
 20
-22.617747
 30
0.0
 40
1.5
 50
270.0
 51
360.0
  0
ARC
  8
0
  6
BYLAYER
 62
     7
 10
280.817282
 20
-25.617747
 30
0.0
 40
1.500000
 50
90.0
 51
180.0
  0
ARC
  8
0
  6
BYLAYER
 62
     7
 10
357.817282
 20
-22.617747
 30
0.0
 40
1.500000
 50
180.000000
 51
270.000000
  0
LINE
  8
0
  6
BYLAYER
 62
     7
 10
282.317282
 20
-22.617747
 30
0.0
 11
282.317282
 21
-1.117747
 31
0.0
  0
ARC
  8
0
  6
BYLAYER
 62
     7
 10
283.817282
 20
-1.117747
 30
0.0
 40
1.500000
 50
90.0
 51
180.0
  0
LINE
  8
0
  6
BYLAYER
 62
     7
 10
356.317282
 20
-22.617747
 30
0.0
 11
356.317282
 21
-1.117747
 31
0.0
  0
LINE
  8
0
  6
BYLAYER
 62
     7
 10
283.817282
 20
0.382253
 30
0.0
 11
354.817282
 21
0.382253
 31
0.0
  0
ARC
  8
0
  6
BYLAYER
 62
     7
 10
347.071620
 20
-1.117747
 30
0.0
 40
1.500000
 50
0.0
 51
90.0
  0
ARC
  8
0
  6
BYLAYER
 62
     7
 10
354.817282
 20
-1.117747
 30
0.0
 40
1.5
 50
0.0
 51
90.0
  0
LINE
  8
0
  6
BYLAYER
 62
     7
 10
290.062944
 20
-22.617747
 30
0.0
 11
290.062944
 21
-1.117747
 31
0.0
  0
ARC
  8
0
  6
BYLAYER
 62
     7
 10
291.562944
 20
-1.117747
 30
0.0
 40
1.500000
 50
90.0
 51
180.0
  0
LINE
  8
0
  6
BYLAYER
 62
     7
 10
348.571620
 20
-22.617747
 30
0.0
 11
348.571620
 21
-1.117747
 31
0.0
  0
ARC
  8
0
  6
BYLAYER
 62
     7
 10
357.817282
 20
-25.617747
 30
0.0
 40
1.5
 50
0.0
 51
90.0
  0
LINE
  8
0
  6
BYLAYER
 62
     7
 10
359.317282
 20
-33.117747
 30
0.0
 11
359.317282
 21
-25.617747
 31
0.0
  0
LINE
  8
0
  6
BYLAYER
 62
     7
 10
357.817282
 20
-24.117747
 30
0.0
 11
280.817282
 21
-24.117747
 31
0.0
  0
LINE
  8
0
  6
BYLAYER
 62
     7
 10
279.317282
 20
-25.617747
 30
0.0
 11
279.317282
 21
-33.117747
 31
0.0
  0
LINE
  8
0
  6
BYLAYER
 62
     7
 10
279.317282
 20
-33.117747
 30
0.0
 11
359.317282
 21
-33.117747
 31
0.0
  0
LINE
  8
0
  6
BYLAYER
 62
     7
 10
359.317282
 20
-31.117747
 30
0.0
 11
279.317282
 21
-31.117747
 31
0.0
  0
LINE
  8
0
  6
BYLAYER
 62
     7
 10
454.701018
 20
-200.367747
 30
0.0
 11
454.701018
 21
-41.867747
 31
0.0
  0
LINE
  8
0
  6
BYLAYER
 62
     7
 10
254.317406
 20
-471.117747
 30
0.0
 11
254.317406
 21
-371.117747
 31
0.0
  0
LINE
  8
0
  6
BYLAYER
 62
     7
 10
254.317406
 20
-402.742366
 30
0.0
 11
254.317406
 21
-394.617747
 31
0.0
  0
LINE
  8
0
  6
BYLAYER
 62
     7
 10
242.317406
 20
-371.117747
 30
0.0
 11
254.317406
 21
-371.117747
 31
0.0
  0
LINE
  8
0
  6
BYLAYER
 62
     7
 10
254.808679
 20
-403.242289
 30
0.0
 11
275.817406
 21
-403.609019
 31
0.0
  0
ARC
  8
0
  6
BYLAYER
 62
     7
 10
254.817406
 20
-402.742366
 30
0.0
 40
0.5
 50
180.000000
 51
268.999943
  0
LINE
  8
0
  6
BYLAYER
 62
     7
 10
275.817406
 20
-403.609019
 30
0.0
 11
275.817406
 21
-471.117747
 31
0.0
  0
LINE
  8
0
  6
BYLAYER
 62
     7
 10
242.317406
 20
-471.117747
 30
0.0
 11
242.317406
 21
-371.117747
 31
0.0
  0
LINE
  8
0
  6
BYLAYER
 62
     7
 10
254.317406
 20
-471.117747
 30
0.0
 11
254.317406
 21
-571.117747
 31
0.0
  0
LINE
  8
0
  6
BYLAYER
 62
     7
 10
254.317406
 20
-539.493128
 30
0.0
 11
254.317406
 21
-547.617747
 31
0.0
  0
LINE
  8
0
  6
BYLAYER
 62
     7
 10
242.317406
 20
-571.117747
 30
0.0
 11
254.317406
 21
-571.117747
 31
0.0
  0
LINE
  8
0
  6
BYLAYER
 62
     7
 10
254.808679
 20
-538.993205
 30
0.0
 11
275.817406
 21
-538.626475
 31
0.0
  0
ARC
  8
0
  6
BYLAYER
 62
     7
 10
254.817406
 20
-539.493128
 30
0.0
 40
0.500000
 50
91.000057
 51
180.000000
  0
LINE
  8
0
  6
BYLAYER
 62
     7
 10
275.817406
 20
-538.626475
 30
0.0
 11
275.817406
 21
-471.117747
 31
0.0
  0
LINE
  8
0
  6
BYLAYER
 62
     7
 10
242.317406
 20
-471.117747
 30
0.0
 11
242.317406
 21
-571.117747
 31
0.0
  0
LINE
  8
0
  6
BYLAYER
 62
     7
 10
282.317353
 20
-495.634432
 30
0.0
 11
282.317353
 21
-471.117747
 31
0.0
  0
LINE
  8
0
  6
BYLAYER
 62
     7
 10
356.317353
 20
-471.117747
 30
0.0
 11
356.317353
 21
-495.634432
 31
0.0
  0
LINE
  8
0
  6
BYLAYER
 62
     7
 10
346.854948
 20
-505.367747
 30
0.0
 11
291.779759
 21
-505.367747
 31
0.0
  0
LINE
  8
0
  6
BYLAYER
 62
     7
 10
296.422052
 20
-476.218853
 30
0.0
 11
282.317353
 21
-476.711400
 31
0.0
  0
ARC
  8
0
  6
BYLAYER
 62
     7
 10
296.317353
 20
-473.220681
 30
0.0
 40
3.000000
 50
272.0
 51
360.0
  0
LINE
  8
0
  6
BYLAYER
 62
     7
 10
296.422052
 20
-491.218853
 30
0.0
 11
282.317353
 21
-491.711400
 31
0.0
  0
ARC
  8
0
  6
BYLAYER
 62
     7
 10
296.317353
 20
-488.220681
 30
0.0
 40
3.000000
 50
272.0
 51
360.0
  0
LINE
  8
0
  6
BYLAYER
 62
     7
 10
282.317353
 20
-480.524094
 30
0.0
 11
296.422052
 21
-481.016641
 31
0.0
  0
ARC
  8
0
  6
BYLAYER
 62
     7
 10
296.317353
 20
-484.014813
 30
0.0
 40
3.000000
 50
0.0
 51
88.0
  0
LINE
  8
0
  6
BYLAYER
 62
     7
 10
299.317353
 20
-484.014813
 30
0.0
 11
299.317353
 21
-488.220681
 31
0.0
  0
LINE
  8
0
  6
BYLAYER
 62
     7
 10
299.317353
 20
-471.117747
 30
0.0
 11
299.317353
 21
-473.220681
 31
0.0
  0
LINE
  8
0
  6
BYLAYER
 62
     7
 10
283.317353
 20
-471.117747
 30
0.0
 11
283.317353
 21
-476.676479
 31
0.0
  0
LINE
  8
0
  6
BYLAYER
 62
     7
 10
283.317353
 20
-480.559015
 30
0.0
 11
283.317353
 21
-491.676479
 31
0.0
  0
LINE
  8
0
  6
BYLAYER
 62
     7
 10
342.212655
 20
-476.218853
 30
0.0
 11
356.317353
 21
-476.711400
 31
0.0
  0
ARC
  8
0
  6
BYLAYER
 62
     7
 10
342.317353
 20
-473.220681
 30
0.0
 40
3.000000
 50
180.000000
 51
268.000000
  0
LINE
  8
0
  6
BYLAYER
 62
     7
 10
342.212655
 20
-491.218853
 30
0.0
 11
356.317353
 21
-491.711400
 31
0.0
  0
ARC
  8
0
  6
BYLAYER
 62
     7
 10
342.317353
 20
-488.220681
 30
0.0
 40
3.000000
 50
180.000000
 51
268.000000
  0
LINE
  8
0
  6
BYLAYER
 62
     7
 10
356.317353
 20
-480.524094
 30
0.0
 11
342.212655
 21
-481.016641
 31
0.0
  0
ARC
  8
0
  6
BYLAYER
 62
     7
 10
342.317353
 20
-484.014813
 30
0.0
 40
3.0
 50
92.000000
 51
180.000000
  0
LINE
  8
0
  6
BYLAYER
 62
     7
 10
339.317353
 20
-484.014813
 30
0.0
 11
339.317353
 21
-488.220681
 31
0.0
  0
LINE
  8
0
  6
BYLAYER
 62
     7
 10
339.317353
 20
-471.117747
 30
0.0
 11
339.317353
 21
-473.220681
 31
0.0
  0
LINE
  8
0
  6
BYLAYER
 62
     7
 10
355.317353
 20
-471.117747
 30
0.0
 11
355.317353
 21
-476.676479
 31
0.0
  0
LINE
  8
0
  6
BYLAYER
 62
     7
 10
355.317353
 20
-480.559015
 30
0.0
 11
355.317353
 21
-491.676479
 31
0.0
  0
LINE
  8
0
  6
BYLAYER
 62
     7
 10
279.317353
 20
-471.117747
 30
0.0
 11
279.317353
 21
-506.617747
 31
0.0
  0
ARC
  8
0
  6
BYLAYER
 62
     7
 10
280.817353
 20
-506.617747
 30
0.0
 40
1.5
 50
180.000000
 51
270.000000
  0
LINE
  8
0
  6
BYLAYER
 62
     7
 10
359.317353
 20
-506.617747
 30
0.0
 11
359.317353
 21
-471.117747
 31
0.0
  0
LINE
  8
0
  6
BYLAYER
 62
     7
 10
280.817353
 20
-508.117747
 30
0.0
 11
357.817353
 21
-508.117747
 31
0.0
  0
ARC
  8
0
  6
BYLAYER
 62
     7
 10
357.817353
 20
-506.617747
 30
0.0
 40
1.500000
 50
270.0
 51
360.0
  0
ARC
  8
0
  6
BYLAYER
 62
     7
 10
354.317353
 20
-503.117747
 30
0.0
 40
6.0
 50
86.177446
 51
185.739170
  0
ARC
  8
0
  6
BYLAYER
 62
     7
 10
354.817353
 20
-495.634432
 30
0.0
 40
1.500000
 50
266.177446
 51
360.0
  0
ARC
  8
0
  6
BYLAYER
 62
     7
 10
346.854948
 20
-503.867747
 30
0.0
 40
1.5
 50
270.0
 51
365.739170
  0
ARC
  8
0
  6
BYLAYER
 62
     7
 10
284.317353
 20
-503.117747
 30
0.0
 40
6.000000
 50
354.260830
 51
453.822554
  0
ARC
  8
0
  6
BYLAYER
 62
     7
 10
291.779759
 20
-503.867747
 30
0.0
 40
1.5
 50
174.260830
 51
270.000000
  0
ARC
  8
0
  6
BYLAYER
 62
     7
 10
283.817353
 20
-495.634432
 30
0.0
 40
1.500000
 50
180.000000
 51
273.822554
  0
ARC
  8
0
  6
BYLAYER
 62
     7
 10
306.317353
 20
-498.117747
 30
0.0
 40
3.0
 50
180.000000
 51
270.000000
  0
ARC
  8
0
  6
BYLAYER
 62
     7
 10
332.317353
 20
-498.117747
 30
0.0
 40
3.0
 50
270.0
 51
360.0
  0
LINE
  8
0
  6
BYLAYER
 62
     7
 10
306.317353
 20
-501.117747
 30
0.0
 11
332.317353
 21
-501.117747
 31
0.0
  0
LINE
  8
0
  6
BYLAYER
 62
     7
 10
303.317353
 20
-498.117747
 30
0.0
 11
303.317353
 21
-471.117747
 31
0.0
  0
LINE
  8
0
  6
BYLAYER
 62
     7
 10
335.317353
 20
-471.117747
 30
0.0
 11
335.317353
 21
-498.117747
 31
0.0
  0
LINE
  8
0
  6
BYLAYER
 62
     7
 10
359.317353
 20
-476.192790
 30
0.0
 11
394.317497
 21
-476.192790
 31
0.0
  0
LINE
  8
0
  6
BYLAYER
 62
     7
 10
359.317353
 20
-477.992778
 30
0.0
 11
394.317497
 21
-477.992778
 31
0.0
  0
LINE
  8
0
  6
BYLAYER
 62
     7
 10
359.317353
 20
-500.092784
 30
0.0
 11
394.317497
 21
-500.092784
 31
0.0
  0
LINE
  8
0
  6
BYLAYER
 62
     7
 10
359.317353
 20
-501.892772
 30
0.0
 11
394.317497
 21
-501.892772
 31
0.0
  0
LINE
  8
0
  6
BYLAYER
 62
     7
 10
290.317406
 20
-513.842784
 30
0.0
 11
290.317406
 21
-516.206847
 31
0.0
  0
LINE
  8
0
  6
BYLAYER
 62
     7
 10
290.317406
 20
-508.117747
 30
0.0
 11
290.317406
 21
-512.042766
 31
0.0
  0
LINE
  8
0
  6
BYLAYER
 62
     7
 10
392.317406
 20
-471.117747
 30
0.0
 11
392.317406
 21
-476.192790
 31
0.0
  0
LINE
  8
0
  6
BYLAYER
 62
     7
 10
392.317406
 20
-477.992778
 30
0.0
 11
392.317406
 21
-488.142772
 31
0.0
  0
LINE
  8
0
  6
BYLAYER
 62
     7
 10
392.317406
 20
-489.942790
 30
0.0
 11
392.317406
 21
-500.092784
 31
0.0
  0
LINE
  8
0
  6
BYLAYER
 62
     7
 10
392.317406
 20
-513.842784
 30
0.0
 11
392.317406
 21
-516.206847
 31
0.0
  0
LINE
  8
0
  6
BYLAYER
 62
     7
 10
392.317406
 20
-501.892772
 30
0.0
 11
392.317406
 21
-512.042766
 31
0.0
  0
LINE
  8
0
  6
BYLAYER
 62
     7
 10
359.317353
 20
-488.142772
 30
0.0
 11
394.317497
 21
-488.142772
 31
0.0
  0
LINE
  8
0
  6
BYLAYER
 62
     7
 10
359.317353
 20
-489.942790
 30
0.0
 11
394.317497
 21
-489.942790
 31
0.0
  0
ARC
  8
0
  6
BYLAYER
 62
     7
 10
280.217370
 20
-512.942759
 30
0.0
 40
0.899994
 50
90.0
 51
269.999998
  0
LINE
  8
0
  6
BYLAYER
 62
     7
 10
280.217370
 20
-512.042766
 30
0.0
 11
394.317497
 21
-512.042766
 31
0.0
  0
LINE
  8
0
  6
BYLAYER
 62
     7
 10
280.217370
 20
-513.842784
 30
0.0
 11
394.317497
 21
-513.842784
 31
0.0
  0
LINE
  8
0
  6
BYLAYER
 62
     7
 10
382.317406
 20
-476.192790
 30
0.0
 11
382.317406
 21
-477.992778
 31
0.0
  0
ARC
  8
0
  6
BYLAYER
 62
     7
 10
287.217400
 20
-512.942790
 30
0.0
 40
0.900024
 50
90.0
 51
269.999998
  0
LINE
  8
0
  6
BYLAYER
 62
     7
 10
279.317353
 20
-471.117747
 30
0.0
 11
279.317408
 21
-538.617747
 31
0.0
  0
LINE
  8
0
  6
BYLAYER
 62
     7
 10
279.317299
 20
-538.117747
 30
0.0
 11
275.817406
 21
-538.117747
 31
0.0
  0
LINE
  8
0
  6
BYLAYER
 62
     7
 10
283.724958
 20
-547.846394
 30
0.0
 11
394.317497
 21
-547.846394
 31
0.0
  0
LINE
  8
0
  6
BYLAYER
 62
     7
 10
283.764641
 20
-545.439362
 30
0.0
 11
394.317497
 21
-545.439362
 31
0.0
  0
LINE
  8
0
  6
BYLAYER
 62
     7
 10
283.792238
 20
-541.014957
 30
0.0
 11
394.317497
 21
-541.014957
 31
0.0
  0
LINE
  8
0
  6
BYLAYER
 62
     7
 10
283.884133
 20
-533.182627
 30
0.0
 11
394.317497
 21
-533.182627
 31
0.0
  0
LINE
  8
0
  6
BYLAYER
 62
     7
 10
394.317497
 20
-516.206847
 30
0.0
 11
287.811944
 21
-516.206847
 31
0.0
  0
LINE
  8
0
  6
BYLAYER
 62
     7
 10
282.315325
 20
-546.859165
 30
0.0
 11
279.317406
 21
-538.617747
 31
0.0
  0
ARC
  8
0
  6
BYLAYER
 62
     7
 10
283.724958
 20
-546.346394
 30
0.0
 40
1.5
 50
199.989488
 51
270.000000
  0
LINE
  8
0
  6
BYLAYER
 62
     7
 10
282.337900
 20
-544.402408
 30
0.0
 11
279.317406
 21
-535.095633
 31
0.0
  0
ARC
  8
0
  6
BYLAYER
 62
     7
 10
283.764641
 20
-543.939362
 30
0.0
 40
1.5
 50
197.980729
 51
270.000000
  0
LINE
  8
0
  6
BYLAYER
 62
     7
 10
282.354853
 20
-539.943821
 30
0.0
 11
279.317406
 21
-529.763489
 31
0.0
  0
ARC
  8
0
  6
BYLAYER
 62
     7
 10
283.792238
 20
-539.514957
 30
0.0
 40
1.5
 50
196.613220
 51
270.000000
  0
LINE
  8
0
  6
BYLAYER
 62
     7
 10
282.418177
 20
-532.000392
 30
0.0
 11
279.317406
 21
-517.695490
 31
0.0
  0
ARC
  8
0
  6
BYLAYER
 62
     7
 10
283.884133
 20
-531.682627
 30
0.0
 40
1.500000
 50
192.230383
 51
270.000000
  0
LINE
  8
0
  6
BYLAYER
 62
     7
 10
279.317406
 20
-529.763489
 30
0.0
 11
281.677738
 21
-528.584496
 31
0.0
  0
LINE
  8
0
  6
BYLAYER
 62
     7
 10
279.317406
 20
-535.095633
 30
0.0
 11
280.713484
 21
-534.442594
 31
0.0
  0
LINE
  8
0
  6
BYLAYER
 62
     7
 10
279.317406
 20
-517.695490
 30
0.0
 11
287.811944
 21
-516.206847
 31
0.0
  0
LINE
  8
0
  6
BYLAYER
 62
     7
 10
279.317406
 20
-538.617747
 30
0.0
 11
280.318458
 21
-538.180084
 31
0.0
  0
LINE
  8
0
  6
BYLAYER
 62
     7
 10
275.817406
 20
-538.117747
 30
0.0
 11
275.817406
 21
-471.117747
 31
0.0
  0
LINE
  8
0
  6
BYLAYER
 62
     7
 10
475.317497
 20
-535.605479
 30
0.0
 11
475.317497
 21
-471.117747
 31
0.0
  0
LINE
  8
0
  6
BYLAYER
 62
     7
 10
457.779326
 20
-549.307801
 30
0.0
 11
475.317497
 21
-535.605479
 31
0.0
  0
ARC
  8
0
  6
BYLAYER
 62
     7
 10
454.701018
 20
-545.367747
 30
0.0
 40
5.0
 50
270.0
 51
308.0
  0
LINE
  8
0
  6
BYLAYER
 62
     7
 10
394.317497
 20
-550.367747
 30
0.0
 11
454.701018
 21
-550.367747
 31
0.0
  0
LINE
  8
0
  6
BYLAYER
 62
     7
 10
394.317497
 20
-550.367747
 30
0.0
 11
394.317497
 21
-471.117747
 31
0.0
  0
LINE
  8
0
  6
BYLAYER
 62
     7
 10
282.317353
 20
-446.601062
 30
0.0
 11
282.317353
 21
-471.117747
 31
0.0
  0
LINE
  8
0
  6
BYLAYER
 62
     7
 10
356.317353
 20
-471.117747
 30
0.0
 11
356.317353
 21
-446.601062
 31
0.0
  0
LINE
  8
0
  6
BYLAYER
 62
     7
 10
346.854948
 20
-436.867747
 30
0.0
 11
291.779759
 21
-436.867747
 31
0.0
  0
LINE
  8
0
  6
BYLAYER
 62
     7
 10
296.422052
 20
-466.016641
 30
0.0
 11
282.317353
 21
-465.524094
 31
0.0
  0
ARC
  8
0
  6
BYLAYER
 62
     7
 10
296.317353
 20
-469.014813
 30
0.0
 40
3.000000
 50
0.0
 51
88.0
  0
LINE
  8
0
  6
BYLAYER
 62
     7
 10
296.422052
 20
-451.016641
 30
0.0
 11
282.317353
 21
-450.524094
 31
0.0
  0
ARC
  8
0
  6
BYLAYER
 62
     7
 10
296.317353
 20
-454.014813
 30
0.0
 40
3.000000
 50
0.0
 51
88.0
  0
LINE
  8
0
  6
BYLAYER
 62
     7
 10
282.317353
 20
-461.711400
 30
0.0
 11
296.422052
 21
-461.218853
 31
0.0
  0
ARC
  8
0
  6
BYLAYER
 62
     7
 10
296.317353
 20
-458.220681
 30
0.0
 40
3.000000
 50
272.0
 51
360.0
  0
LINE
  8
0
  6
BYLAYER
 62
     7
 10
299.317353
 20
-458.220681
 30
0.0
 11
299.317353
 21
-454.014813
 31
0.0
  0
LINE
  8
0
  6
BYLAYER
 62
     7
 10
299.317353
 20
-471.117747
 30
0.0
 11
299.317353
 21
-469.014813
 31
0.0
  0
LINE
  8
0
  6
BYLAYER
 62
     7
 10
283.317353
 20
-471.117747
 30
0.0
 11
283.317353
 21
-465.559015
 31
0.0
  0
LINE
  8
0
  6
BYLAYER
 62
     7
 10
283.317353
 20
-461.676479
 30
0.0
 11
283.317353
 21
-450.559015
 31
0.0
  0
LINE
  8
0
  6
BYLAYER
 62
     7
 10
342.212655
 20
-466.016641
 30
0.0
 11
356.317353
 21
-465.524094
 31
0.0
  0
ARC
  8
0
  6
BYLAYER
 62
     7
 10
342.317353
 20
-469.014813
 30
0.0
 40
3.0
 50
92.000000
 51
180.000000
  0
LINE
  8
0
  6
BYLAYER
 62
     7
 10
342.212655
 20
-451.016641
 30
0.0
 11
356.317353
 21
-450.524094
 31
0.0
  0
ARC
  8
0
  6
BYLAYER
 62
     7
 10
342.317353
 20
-454.014813
 30
0.0
 40
3.0
 50
92.000000
 51
180.000000
  0
LINE
  8
0
  6
BYLAYER
 62
     7
 10
356.317353
 20
-461.711400
 30
0.0
 11
342.212655
 21
-461.218853
 31
0.0
  0
ARC
  8
0
  6
BYLAYER
 62
     7
 10
342.317353
 20
-458.220681
 30
0.0
 40
3.000000
 50
180.000000
 51
268.000000
  0
LINE
  8
0
  6
BYLAYER
 62
     7
 10
339.317353
 20
-458.220681
 30
0.0
 11
339.317353
 21
-454.014813
 31
0.0
  0
LINE
  8
0
  6
BYLAYER
 62
     7
 10
339.317353
 20
-471.117747
 30
0.0
 11
339.317353
 21
-469.014813
 31
0.0
  0
LINE
  8
0
  6
BYLAYER
 62
     7
 10
355.317353
 20
-471.117747
 30
0.0
 11
355.317353
 21
-465.559015
 31
0.0
  0
LINE
  8
0
  6
BYLAYER
 62
     7
 10
355.317353
 20
-461.676479
 30
0.0
 11
355.317353
 21
-450.559015
 31
0.0
  0
LINE
  8
0
  6
BYLAYER
 62
     7
 10
279.317353
 20
-471.117747
 30
0.0
 11
279.317353
 21
-435.617747
 31
0.0
  0
ARC
  8
0
  6
BYLAYER
 62
     7
 10
280.817353
 20
-435.617747
 30
0.0
 40
1.5
 50
90.0
 51
180.0
  0
LINE
  8
0
  6
BYLAYER
 62
     7
 10
359.317353
 20
-435.617747
 30
0.0
 11
359.317353
 21
-471.117747
 31
0.0
  0
LINE
  8
0
  6
BYLAYER
 62
     7
 10
280.817353
 20
-434.117747
 30
0.0
 11
357.817353
 21
-434.117747
 31
0.0
  0
ARC
  8
0
  6
BYLAYER
 62
     7
 10
357.817353
 20
-435.617747
 30
0.0
 40
1.5
 50
0.0
 51
90.0
  0
ARC
  8
0
  6
BYLAYER
 62
     7
 10
354.317353
 20
-439.117747
 30
0.0
 40
6.000000
 50
174.260830
 51
273.822554
  0
ARC
  8
0
  6
BYLAYER
 62
     7
 10
354.817353
 20
-446.601062
 30
0.0
 40
1.500000
 50
0.0
 51
93.822554
  0
ARC
  8
0
  6
BYLAYER
 62
     7
 10
346.854948
 20
-438.367747
 30
0.0
 40
1.5
 50
354.260830
 51
450.000000
  0
ARC
  8
0
  6
BYLAYER
 62
     7
 10
284.317353
 20
-439.117747
 30
0.0
 40
6.000000
 50
266.177446
 51
365.739170
  0
ARC
  8
0
  6
BYLAYER
 62
     7
 10
291.779759
 20
-438.367747
 30
0.0
 40
1.5
 50
90.0
 51
185.73917
  0
ARC
  8
0
  6
BYLAYER
 62
     7
 10
283.817353
 20
-446.601062
 30
0.0
 40
1.500000
 50
86.177446
 51
180.000000
  0
ARC
  8
0
  6
BYLAYER
 62
     7
 10
306.317353
 20
-444.117747
 30
0.0
 40
3.0
 50
90.0
 51
180.0
  0
ARC
  8
0
  6
BYLAYER
 62
     7
 10
332.317353
 20
-444.117747
 30
0.0
 40
3.0
 50
0.0
 51
90.0
  0
LINE
  8
0
  6
BYLAYER
 62
     7
 10
306.317353
 20
-441.117747
 30
0.0
 11
332.317353
 21
-441.117747
 31
0.0
  0
LINE
  8
0
  6
BYLAYER
 62
     7
 10
303.317353
 20
-444.117747
 30
0.0
 11
303.317353
 21
-471.117747
 31
0.0
  0
LINE
  8
0
  6
BYLAYER
 62
     7
 10
335.317353
 20
-471.117747
 30
0.0
 11
335.317353
 21
-444.117747
 31
0.0
  0
LINE
  8
0
  6
BYLAYER
 62
     7
 10
359.317353
 20
-466.042704
 30
0.0
 11
394.317497
 21
-466.042704
 31
0.0
  0
LINE
  8
0
  6
BYLAYER
 62
     7
 10
359.317353
 20
-464.242716
 30
0.0
 11
394.317497
 21
-464.242716
 31
0.0
  0
LINE
  8
0
  6
BYLAYER
 62
     7
 10
359.317353
 20
-442.142710
 30
0.0
 11
394.317497
 21
-442.142710
 31
0.0
  0
LINE
  8
0
  6
BYLAYER
 62
     7
 10
359.317353
 20
-440.342722
 30
0.0
 11
394.317497
 21
-440.342722
 31
0.0
  0
LINE
  8
0
  6
BYLAYER
 62
     7
 10
290.317406
 20
-428.392710
 30
0.0
 11
290.317406
 21
-426.028647
 31
0.0
  0
LINE
  8
0
  6
BYLAYER
 62
     7
 10
290.317406
 20
-434.117747
 30
0.0
 11
290.317406
 21
-430.192728
 31
0.0
  0
LINE
  8
0
  6
BYLAYER
 62
     7
 10
392.317406
 20
-471.117747
 30
0.0
 11
392.317406
 21
-466.042704
 31
0.0
  0
LINE
  8
0
  6
BYLAYER
 62
     7
 10
392.317406
 20
-464.242716
 30
0.0
 11
392.317406
 21
-454.092722
 31
0.0
  0
LINE
  8
0
  6
BYLAYER
 62
     7
 10
392.317406
 20
-452.292704
 30
0.0
 11
392.317406
 21
-442.142710
 31
0.0
  0
LINE
  8
0
  6
BYLAYER
 62
     7
 10
392.317406
 20
-428.392710
 30
0.0
 11
392.317406
 21
-426.028647
 31
0.0
  0
LINE
  8
0
  6
BYLAYER
 62
     7
 10
392.317406
 20
-440.342722
 30
0.0
 11
392.317406
 21
-430.192728
 31
0.0
  0
LINE
  8
0
  6
BYLAYER
 62
     7
 10
359.317353
 20
-454.092722
 30
0.0
 11
394.317497
 21
-454.092722
 31
0.0
  0
LINE
  8
0
  6
BYLAYER
 62
     7
 10
359.317353
 20
-452.292704
 30
0.0
 11
394.317497
 21
-452.292704
 31
0.0
  0
ARC
  8
0
  6
BYLAYER
 62
     7
 10
280.217370
 20
-429.292735
 30
0.0
 40
0.899994
 50
90.0
 51
269.999998
  0
LINE
  8
0
  6
BYLAYER
 62
     7
 10
280.217370
 20
-430.192728
 30
0.0
 11
394.317497
 21
-430.192728
 31
0.0
  0
LINE
  8
0
  6
BYLAYER
 62
     7
 10
280.217370
 20
-428.392710
 30
0.0
 11
394.317497
 21
-428.392710
 31
0.0
  0
LINE
  8
0
  6
BYLAYER
 62
     7
 10
382.317406
 20
-466.042704
 30
0.0
 11
382.317406
 21
-464.242716
 31
0.0
  0
ARC
  8
0
  6
BYLAYER
 62
     7
 10
287.217400
 20
-429.292704
 30
0.0
 40
0.900024
 50
90.0
 51
269.999998
  0
LINE
  8
0
  6
BYLAYER
 62
     7
 10
279.317353
 20
-471.117747
 30
0.0
 11
279.317408
 21
-403.617747
 31
0.0
  0
LINE
  8
0
  6
BYLAYER
 62
     7
 10
279.317299
 20
-404.117747
 30
0.0
 11
275.817406
 21
-404.117747
 31
0.0
  0
LINE
  8
0
  6
BYLAYER
 62
     7
 10
283.724958
 20
-394.389100
 30
0.0
 11
394.317497
 21
-394.389100
 31
0.0
  0
LINE
  8
0
  6
BYLAYER
 62
     7
 10
283.764641
 20
-396.796132
 30
0.0
 11
394.317497
 21
-396.796132
 31
0.0
  0
LINE
  8
0
  6
BYLAYER
 62
     7
 10
283.792238
 20
-401.220537
 30
0.0
 11
394.317497
 21
-401.220537
 31
0.0
  0
LINE
  8
0
  6
BYLAYER
 62
     7
 10
283.884133
 20
-409.052867
 30
0.0
 11
394.317497
 21
-409.052867
 31
0.0
  0
LINE
  8
0
  6
BYLAYER
 62
     7
 10
394.317497
 20
-426.028647
 30
0.0
 11
287.811944
 21
-426.028647
 31
0.0
  0
LINE
  8
0
  6
BYLAYER
 62
     7
 10
282.315325
 20
-395.376329
 30
0.0
 11
279.317406
 21
-403.617747
 31
0.0
  0
ARC
  8
0
  6
BYLAYER
 62
     7
 10
283.724958
 20
-395.889100
 30
0.0
 40
1.5
 50
90.0
 51
160.010512
  0
LINE
  8
0
  6
BYLAYER
 62
     7
 10
282.337900
 20
-397.833086
 30
0.0
 11
279.317406
 21
-407.139861
 31
0.0
  0
ARC
  8
0
  6
BYLAYER
 62
     7
 10
283.764641
 20
-398.296132
 30
0.0
 40
1.5
 50
90.0
 51
162.019271
  0
LINE
  8
0
  6
BYLAYER
 62
     7
 10
282.354853
 20
-402.291673
 30
0.0
 11
279.317406
 21
-412.472005
 31
0.0
  0
ARC
  8
0
  6
BYLAYER
 62
     7
 10
283.792238
 20
-402.720537
 30
0.0
 40
1.500000
 50
90.0
 51
163.38678
  0
LINE
  8
0
  6
BYLAYER
 62
     7
 10
282.418177
 20
-410.235102
 30
0.0
 11
279.317406
 21
-424.540004
 31
0.0
  0
ARC
  8
0
  6
BYLAYER
 62
     7
 10
283.884133
 20
-410.552867
 30
0.0
 40
1.500000
 50
90.0
 51
167.769617
  0
LINE
  8
0
  6
BYLAYER
 62
     7
 10
279.317406
 20
-412.472005
 30
0.0
 11
281.677738
 21
-413.650998
 31
0.0
  0
LINE
  8
0
  6
BYLAYER
 62
     7
 10
279.317406
 20
-407.139861
 30
0.0
 11
280.713484
 21
-407.792900
 31
0.0
  0
LINE
  8
0
  6
BYLAYER
 62
     7
 10
279.317406
 20
-424.540004
 30
0.0
 11
287.811944
 21
-426.028647
 31
0.0
  0
LINE
  8
0
  6
BYLAYER
 62
     7
 10
279.317406
 20
-403.617747
 30
0.0
 11
280.318458
 21
-404.055410
 31
0.0
  0
LINE
  8
0
  6
BYLAYER
 62
     7
 10
275.817406
 20
-404.117747
 30
0.0
 11
275.817406
 21
-471.117747
 31
0.0
  0
LINE
  8
0
  6
BYLAYER
 62
     7
 10
475.317497
 20
-406.630015
 30
0.0
 11
475.317497
 21
-471.117747
 31
0.0
  0
LINE
  8
0
  6
BYLAYER
 62
     7
 10
457.779326
 20
-392.927693
 30
0.0
 11
475.317497
 21
-406.630015
 31
0.0
  0
ARC
  8
0
  6
BYLAYER
 62
     7
 10
454.701018
 20
-396.867747
 30
0.0
 40
5.0
 50
52.0
 51
90.0
  0
LINE
  8
0
  6
BYLAYER
 62
     7
 10
394.317497
 20
-391.867747
 30
0.0
 11
454.701018
 21
-391.867747
 31
0.0
  0
LINE
  8
0
  6
BYLAYER
 62
     7
 10
394.317497
 20
-391.867747
 30
0.0
 11
394.317497
 21
-471.117747
 31
0.0
  0
LINE
  8
0
  6
BYLAYER
 62
     7
 10
454.701018
 20
-550.367747
 30
0.0
 11
454.701018
 21
-391.867747
 31
0.0
  0
LINE
  8
0
  6
BYLAYER
 62
     1
 10
132.317406
 20
-87.117747
 30
0.0
 11
133.817406
 21
-88.617747
 31
0.0
  0
LINE
  8
0
  6
BYLAYER
 62
     1
 10
132.317406
 20
-231.117747
 30
0.0
 11
133.817406
 21
-229.617747
 31
0.0
  0
LINE
  8
0
  6
BYLAYER
 62
     1
 10
102.317406
 20
-201.117747
 30
0.0
 11
103.817406
 21
-199.617747
 31
0.0
  0
LINE
  8
0
  6
BYLAYER
 62
     1
 10
132.317406
 20
-87.117747
 30
0.0
 11
103.817406
 21
-87.117747
 31
0.0
  0
LINE
  8
0
  6
BYLAYER
 62
     1
 10
103.817406
 20
-87.117747
 30
0.0
 11
102.317406
 21
-88.617747
 31
0.0
  0
LINE
  8
0
  6
BYLAYER
 62
     1
 10
132.317406
 20
-231.117747
 30
0.0
 11
103.817406
 21
-231.117747
 31
0.0
  0
LINE
  8
0
  6
BYLAYER
 62
     1
 10
103.817406
 20
-231.117747
 30
0.0
 11
102.317406
 21
-229.617747
 31
0.0
  0
LINE
  8
0
  6
BYLAYER
 62
     1
 10
222.317406
 20
-201.117747
 30
0.0
 11
220.817406
 21
-199.617747
 31
0.0
  0
LINE
  8
0
  6
BYLAYER
 62
     1
 10
192.317406
 20
-231.117747
 30
0.0
 11
220.817406
 21
-231.117747
 31
0.0
  0
LINE
  8
0
  6
BYLAYER
 62
     1
 10
220.817406
 20
-231.117747
 30
0.0
 11
222.317406
 21
-229.617747
 31
0.0
  0
LINE
  8
0
  6
BYLAYER
 62
     1
 10
222.317406
 20
-229.617747
 30
0.0
 11
222.317406
 21
-201.117747
 31
0.0
  0
LINE
  8
0
  6
BYLAYER
 62
     1
 10
192.317406
 20
-231.117747
 30
0.0
 11
190.817406
 21
-229.617747
 31
0.0
  0
LINE
  8
0
  6
BYLAYER
 62
     1
 10
192.317406
 20
-87.117747
 30
0.0
 11
220.817406
 21
-87.117747
 31
0.0
  0
LINE
  8
0
  6
BYLAYER
 62
     1
 10
220.817406
 20
-87.117747
 30
0.0
 11
222.317406
 21
-88.617747
 31
0.0
  0
LINE
  8
0
  6
BYLAYER
 62
     1
 10
192.317406
 20
-87.117747
 30
0.0
 11
190.817406
 21
-88.617747
 31
0.0
  0
LINE
  8
0
  6
BYLAYER
 62
     1
 10
133.817406
 20
-88.617747
 30
0.0
 11
190.817406
 21
-88.617747
 31
0.0
  0
LINE
  8
0
  6
BYLAYER
 62
     1
 10
133.817406
 20
-229.617747
 30
0.0
 11
190.817406
 21
-229.617747
 31
0.0
  0
LINE
  8
0
  6
BYLAYER
 62
     1
 10
102.317406
 20
-88.617747
 30
0.0
 11
102.317406
 21
-149.117747
 31
0.0
  0
LINE
  8
0
  6
BYLAYER
 62
     1
 10
102.317406
 20
-149.117747
 30
0.0
 11
103.817406
 21
-149.170115
 31
0.0
  0
LINE
  8
0
  6
BYLAYER
 62
     1
 10
222.317406
 20
-117.117747
 30
0.0
 11
220.817406
 21
-118.617747
 31
0.0
  0
LINE
  8
0
  6
BYLAYER
 62
     1
 10
220.817406
 20
-118.617747
 30
0.0
 11
220.817406
 21
-199.617747
 31
0.0
  0
ARC
  8
0
  6
BYLAYER
 62
     1
 10
213.317406
 20
-96.117747
 30
0.0
 40
2.000000
 50
0.0
 51
90.000016
  0
ARC
  8
0
  6
BYLAYER
 62
     1
 10
213.317406
 20
-222.117747
 30
0.0
 40
2.0
 50
270.0
 51
359.999982
  0
ARC
  8
0
  6
BYLAYER
 62
     1
 10
111.317406
 20
-222.117747
 30
0.0
 40
2.0
 50
180.000000
 51
269.999996
  0
ARC
  8
0
  6
BYLAYER
 62
     1
 10
111.317406
 20
-96.117747
 30
0.0
 40
2.0
 50
90.0
 51
180.000009
  0
LINE
  8
0
  6
BYLAYER
 62
     1
 10
222.317406
 20
-117.117747
 30
0.0
 11
215.317406
 21
-117.117747
 31
0.0
  0
LINE
  8
0
  6
BYLAYER
 62
     1
 10
222.317406
 20
-201.117747
 30
0.0
 11
215.317406
 21
-201.117747
 31
0.0
  0
LINE
  8
0
  6
BYLAYER
 62
     1
 10
102.317406
 20
-117.117747
 30
0.0
 11
109.317406
 21
-117.117747
 31
0.0
  0
LINE
  8
0
  6
BYLAYER
 62
     1
 10
102.317406
 20
-201.117747
 30
0.0
 11
109.317406
 21
-201.117747
 31
0.0
  0
ARC
  8
0
  6
BYLAYER
 62
     1
 10
138.317406
 20
-111.117747
 30
0.0
 40
1.000000
 50
90.0
 51
269.999991
  0
ARC
  8
0
  6
BYLAYER
 62
     1
 10
131.317406
 20
-121.117747
 30
0.0
 40
1.0
 50
270.0
 51
450.000005
  0
ARC
  8
0
  6
BYLAYER
 62
     1
 10
122.317406
 20
-131.117747
 30
0.0
 40
1.0
 50
270.0
 51
450.000005
  0
ARC
  8
0
  6
BYLAYER
 62
     1
 10
114.317406
 20
-141.117747
 30
0.0
 40
1.0
 50
270.0
 51
450.000005
  0
ARC
  8
0
  6
BYLAYER
 62
     1
 10
193.317406
 20
-121.117747
 30
0.0
 40
1.000000
 50
90.0
 51
270.000005
  0
ARC
  8
0
  6
BYLAYER
 62
     1
 10
202.317406
 20
-131.117747
 30
0.0
 40
1.0
 50
90.0
 51
270.000005
  0
ARC
  8
0
  6
BYLAYER
 62
     1
 10
210.317406
 20
-141.117747
 30
0.0
 40
1.0
 50
90.0
 51
270.000005
  0
LINE
  8
0
  6
BYLAYER
 62
     1
 10
132.317406
 20
-87.117747
 30
0.0
 11
132.317406
 21
-94.117747
 31
0.0
  0
LINE
  8
0
  6
BYLAYER
 62
     1
 10
133.817406
 20
-88.617747
 30
0.0
 11
133.817406
 21
-94.117747
 31
0.0
  0
LINE
  8
0
  6
BYLAYER
 62
     1
 10
190.817406
 20
-88.617747
 30
0.0
 11
190.817406
 21
-94.117747
 31
0.0
  0
LINE
  8
0
  6
BYLAYER
 62
     1
 10
192.317406
 20
-87.117747
 30
0.0
 11
192.317406
 21
-94.117747
 31
0.0
  0
LINE
  8
0
  6
BYLAYER
 62
     1
 10
132.317406
 20
-231.117747
 30
0.0
 11
132.317406
 21
-224.117747
 31
0.0
  0
LINE
  8
0
  6
BYLAYER
 62
     1
 10
192.317406
 20
-231.117747
 30
0.0
 11
192.317406
 21
-224.117747
 31
0.0
  0
LINE
  8
0
  6
BYLAYER
 62
     1
 10
214.731591
 20
-223.531993
 30
0.0
 11
210.317406
 21
-219.117747
 31
0.0
  0
LINE
  8
0
  6
BYLAYER
 62
     1
 10
109.903221
 20
-223.531993
 30
0.0
 11
114.317406
 21
-219.117747
 31
0.0
  0
ARC
  8
0
  6
BYLAYER
 62
     1
 10
143.905419
 20
-226.117747
 30
0.0
 40
2.000000
 50
71.491301
 51
90.0
  0
LINE
  8
0
  6
BYLAYER
 62
     1
 10
215.317406
 20
-189.529673
 30
0.0
 11
215.317406
 21
-222.117747
 31
0.0
  0
ARC
  8
0
  6
BYLAYER
 62
     1
 10
217.317406
 20
-189.529673
 30
0.0
 40
2.0
 50
161.491512
 51
180.000000
  0
ARC
  8
0
  6
BYLAYER
 62
     1
 10
162.317406
 20
-171.117747
 30
0.0
 40
55.999943
 50
341.491399
 51
378.508607
  0
ARC
  8
0
  6
BYLAYER
 62
     1
 10
217.317406
 20
-152.705821
 30
0.0
 40
2.0
 50
180.000000
 51
198.508488
  0
ARC
  8
0
  6
BYLAYER
 62
     1
 10
107.317406
 20
-152.705760
 30
0.0
 40
2.000000
 50
341.491591
 51
360.000000
  0
LINE
  8
0
  6
BYLAYER
 62
     1
 10
111.317406
 20
-224.117747
 30
0.0
 11
143.905419
 21
-224.117747
 31
0.0
  0
ARC
  8
0
  6
BYLAYER
 62
     1
 10
162.317406
 20
-171.117747
 30
0.0
 40
56.000019
 50
251.491363
 51
288.508666
  0
LINE
  8
0
  6
BYLAYER
 62
     1
 10
180.729393
 20
-224.117747
 30
0.0
 11
213.317406
 21
-224.117747
 31
0.0
  0
ARC
  8
0
  6
BYLAYER
 62
     1
 10
180.729393
 20
-226.117747
 30
0.0
 40
1.999992
 50
90.0
 51
108.508488
  0
LINE
  8
0
  6
BYLAYER
 62
     1
 10
103.817406
 20
-136.995738
 30
0.0
 11
102.317406
 21
-136.995738
 31
0.0
  0
LINE
  8
0
  6
BYLAYER
 62
     1
 10
103.817406
 20
-148.037730
 30
0.0
 11
102.317406
 21
-148.037730
 31
0.0
  0
ARC
  8
0
  6
BYLAYER
 62
     1
 10
162.317406
 20
-171.117747
 30
0.0
 40
56.000076
 50
161.491326
 51
198.508657
  0
LINE
  8
0
  6
BYLAYER
 62
     1
 10
109.317406
 20
-189.529704
 30
0.0
 11
109.317406
 21
-222.117747
 31
0.0
  0
ARC
  8
0
  6
BYLAYER
 62
     1
 10
107.317406
 20
-189.529704
 30
0.0
 40
1.999934
 50
0.0
 51
18.508419
  0
LINE
  8
0
  6
BYLAYER
 62
     1
 10
210.317406
 20
-194.745053
 30
0.0
 11
210.317406
 21
-219.117747
 31
0.0
  0
LINE
  8
0
  6
BYLAYER
 62
     1
 10
131.317406
 20
-120.117747
 30
0.0
 11
110.317406
 21
-120.117747
 31
0.0
  0
ARC
  8
0
  6
BYLAYER
 62
     1
 10
110.317406
 20
-119.117747
 30
0.0
 40
1.0
 50
180.000000
 51
269.999996
  0
LINE
  8
0
  6
BYLAYER
 62
     1
 10
131.317406
 20
-122.117747
 30
0.0
 11
110.317406
 21
-122.117747
 31
0.0
  0
ARC
  8
0
  6
BYLAYER
 62
     1
 10
110.317406
 20
-123.117747
 30
0.0
 40
1.0
 50
90.0
 51
180.000003
  0
LINE
  8
0
  6
BYLAYER
 62
     1
 10
122.317406
 20
-130.117747
 30
0.0
 11
110.317406
 21
-130.117747
 31
0.0
  0
ARC
  8
0
  6
BYLAYER
 62
     1
 10
110.317406
 20
-129.117747
 30
0.0
 40
1.0
 50
180.000000
 51
269.999996
  0
LINE
  8
0
  6
BYLAYER
 62
     1
 10
122.317406
 20
-132.117747
 30
0.0
 11
110.317406
 21
-132.117747
 31
0.0
  0
ARC
  8
0
  6
BYLAYER
 62
     1
 10
110.317406
 20
-133.117747
 30
0.0
 40
1.000000
 50
90.0
 51
180.000003
  0
LINE
  8
0
  6
BYLAYER
 62
     1
 10
114.317406
 20
-140.117747
 30
0.0
 11
110.317406
 21
-140.117747
 31
0.0
  0
ARC
  8
0
  6
BYLAYER
 62
     1
 10
110.317406
 20
-139.117747
 30
0.0
 40
1.0
 50
180.000000
 51
269.999996
  0
LINE
  8
0
  6
BYLAYER
 62
     1
 10
114.317406
 20
-142.117747
 30
0.0
 11
110.317406
 21
-142.117747
 31
0.0
  0
ARC
  8
0
  6
BYLAYER
 62
     1
 10
110.317406
 20
-143.117747
 30
0.0
 40
1.000000
 50
90.0
 51
180.000003
  0
LINE
  8
0
  6
BYLAYER
 62
     1
 10
202.317406
 20
-130.117747
 30
0.0
 11
214.317406
 21
-130.117747
 31
0.0
  0
ARC
  8
0
  6
BYLAYER
 62
     1
 10
214.317406
 20
-129.117747
 30
0.0
 40
1.000000
 50
270.0
 51
360.000003
  0
LINE
  8
0
  6
BYLAYER
 62
     1
 10
202.317406
 20
-132.117747
 30
0.0
 11
214.317406
 21
-132.117747
 31
0.0
  0
ARC
  8
0
  6
BYLAYER
 62
     1
 10
214.317406
 20
-133.117747
 30
0.0
 40
1.000000
 50
0.0
 51
90.000003
  0
LINE
  8
0
  6
BYLAYER
 62
     1
 10
210.317406
 20
-140.117747
 30
0.0
 11
214.317406
 21
-140.117747
 31
0.0
  0
ARC
  8
0
  6
BYLAYER
 62
     1
 10
214.317406
 20
-139.117747
 30
0.0
 40
1.000000
 50
270.0
 51
360.000003
  0
LINE
  8
0
  6
BYLAYER
 62
     1
 10
210.317406
 20
-142.117747
 30
0.0
 11
214.317406
 21
-142.117747
 31
0.0
  0
ARC
  8
0
  6
BYLAYER
 62
     1
 10
214.317406
 20
-143.117747
 30
0.0
 40
1.000000
 50
0.0
 51
90.000003
  0
LINE
  8
0
  6
BYLAYER
 62
     1
 10
109.317406
 20
-152.705760
 30
0.0
 11
109.317406
 21
-96.117747
 31
0.0
  0
LINE
  8
0
  6
BYLAYER
 62
     1
 10
215.317406
 20
-152.705821
 30
0.0
 11
215.317406
 21
-96.117747
 31
0.0
  0
LINE
  8
0
  6
BYLAYER
 62
     1
 10
138.690100
 20
-219.117747
 30
0.0
 11
114.317406
 21
-219.117747
 31
0.0
  0
LINE
  8
0
  6
BYLAYER
 62
     1
 10
223.317406
 20
-95.277903
 30
0.0
 11
222.317406
 21
-95.277903
 31
0.0
  0
LINE
  8
0
  6
BYLAYER
 62
     1
 10
223.317406
 20
-116.132518
 30
0.0
 11
222.317406
 21
-116.132518
 31
0.0
  0
LINE
  8
0
  6
BYLAYER
 62
     1
 10
223.317406
 20
-126.102976
 30
0.0
 11
220.817406
 21
-126.102976
 31
0.0
  0
LINE
  8
0
  6
BYLAYER
 62
     1
 10
223.317406
 20
-146.437876
 30
0.0
 11
220.817406
 21
-146.437876
 31
0.0
  0
LINE
  8
0
  6
BYLAYER
 62
     1
 10
221.671410
 20
-87.971751
 30
0.0
 11
223.317406
 21
-87.971751
 31
0.0
  0
LINE
  8
0
  6
BYLAYER
 62
     1
 10
223.317406
 20
-154.263743
 30
0.0
 11
220.817406
 21
-154.263743
 31
0.0
  0
LINE
  8
0
  6
BYLAYER
 62
     1
 10
223.317406
 20
-154.263743
 30
0.0
 11
223.317406
 21
-87.971751
 31
0.0
  0
LINE
  8
0
  6
BYLAYER
 62
     1
 10
190.567406
 20
-219.117747
 30
0.0
 11
188.067406
 21
-219.117747
 31
0.0
  0
LINE
  8
0
  6
BYLAYER
 62
     1
 10
215.317406
 20
-118.617747
 30
0.0
 11
220.817406
 21
-118.617747
 31
0.0
  0
LINE
  8
0
  6
BYLAYER
 62
     1
 10
215.317406
 20
-199.617747
 30
0.0
 11
220.817406
 21
-199.617747
 31
0.0
  0
LINE
  8
0
  6
BYLAYER
 62
     1
 10
190.817406
 20
-224.117747
 30
0.0
 11
190.817406
 21
-229.617747
 31
0.0
  0
LINE
  8
0
  6
BYLAYER
 62
     1
 10
133.817406
 20
-224.117747
 30
0.0
 11
133.817406
 21
-229.617747
 31
0.0
  0
LINE
  8
0
  6
BYLAYER
 62
     1
 10
109.317406
 20
-199.617747
 30
0.0
 11
103.817406
 21
-199.617747
 31
0.0
  0
LINE
  8
0
  6
BYLAYER
 62
     1
 10
109.317406
 20
-118.617747
 30
0.0
 11
103.817406
 21
-118.617747
 31
0.0
  0
LINE
  8
0
  6
BYLAYER
 62
     1
 10
103.817406
 20
-118.617747
 30
0.0
 11
102.317406
 21
-117.117747
 31
0.0
  0
LINE
  8
0
  6
BYLAYER
 62
     1
 10
213.317406
 20
-94.117747
 30
0.0
 11
111.317406
 21
-94.117747
 31
0.0
  0
LINE
  8
0
  6
BYLAYER
 62
     1
 10
215.317406
 20
-207.367747
 30
0.0
 11
222.317406
 21
-207.367747
 31
0.0
  0
LINE
  8
0
  6
BYLAYER
 62
     1
 10
215.317406
 20
-215.867747
 30
0.0
 11
222.317406
 21
-215.867747
 31
0.0
  0
LINE
  8
0
  6
BYLAYER
 62
     1
 10
206.567406
 20
-231.117747
 30
0.0
 11
206.567406
 21
-224.117747
 31
0.0
  0
LINE
  8
0
  6
BYLAYER
 62
     1
 10
198.067406
 20
-231.117747
 30
0.0
 11
198.067406
 21
-224.117747
 31
0.0
  0
LINE
  8
0
  6
BYLAYER
 62
     1
 10
222.317406
 20
-88.617747
 30
0.0
 11
222.317406
 21
-117.117747
 31
0.0
  0
LINE
  8
0
  6
BYLAYER
 62
     1
 10
206.567406
 20
-87.117747
 30
0.0
 11
206.567406
 21
-94.117747
 31
0.0
  0
LINE
  8
0
  6
BYLAYER
 62
     1
 10
198.067406
 20
-87.117747
 30
0.0
 11
198.067406
 21
-94.117747
 31
0.0
  0
LINE
  8
0
  6
BYLAYER
 62
     1
 10
126.567406
 20
-87.117747
 30
0.0
 11
126.567406
 21
-94.117747
 31
0.0
  0
LINE
  8
0
  6
BYLAYER
 62
     1
 10
118.067406
 20
-87.117747
 30
0.0
 11
118.067406
 21
-94.117747
 31
0.0
  0
LINE
  8
0
  6
BYLAYER
 62
     1
 10
109.317406
 20
-102.367747
 30
0.0
 11
102.317406
 21
-102.367747
 31
0.0
  0
LINE
  8
0
  6
BYLAYER
 62
     1
 10
109.317406
 20
-110.867747
 30
0.0
 11
102.317406
 21
-110.867747
 31
0.0
  0
LINE
  8
0
  6
BYLAYER
 62
     1
 10
109.317406
 20
-207.367747
 30
0.0
 11
102.317406
 21
-207.367747
 31
0.0
  0
LINE
  8
0
  6
BYLAYER
 62
     1
 10
109.317406
 20
-215.867747
 30
0.0
 11
102.317406
 21
-215.867747
 31
0.0
  0
LINE
  8
0
  6
BYLAYER
 62
     1
 10
102.317406
 20
-229.617747
 30
0.0
 11
102.317406
 21
-201.117747
 31
0.0
  0
LINE
  8
0
  6
BYLAYER
 62
     1
 10
118.067406
 20
-231.117747
 30
0.0
 11
118.067406
 21
-224.117747
 31
0.0
  0
LINE
  8
0
  6
BYLAYER
 62
     1
 10
126.567406
 20
-231.117747
 30
0.0
 11
126.567406
 21
-224.117747
 31
0.0
  0
LINE
  8
0
  6
BYLAYER
 62
     1
 10
114.317406
 20
-194.745053
 30
0.0
 11
114.317406
 21
-219.117747
 31
0.0
  0
LINE
  8
0
  6
BYLAYER
 62
     1
 10
210.317406
 20
-219.117747
 30
0.0
 11
197.589073
 21
-219.117747
 31
0.0
  0
LINE
  8
0
  6
BYLAYER
 62
     1
 10
197.589073
 20
-219.117747
 30
0.0
 11
185.944712
 21
-219.117747
 31
0.0
  0
ARC
  8
0
  6
BYLAYER
 62
     1
 10
194.317406
 20
-111.117747
 30
0.0
 40
1.0
 50
270.0
 51
450.000005
  0
LINE
  8
0
  6
BYLAYER
 62
     1
 10
138.317406
 20
-110.117747
 30
0.0
 11
194.317406
 21
-110.117747
 31
0.0
  0
LINE
  8
0
  6
BYLAYER
 62
     1
 10
138.317406
 20
-112.117747
 30
0.0
 11
194.317406
 21
-112.117747
 31
0.0
  0
LINE
  8
0
  6
BYLAYER
 62
     1
 10
193.317406
 20
-120.117747
 30
0.0
 11
206.309120
 21
-120.117747
 31
0.0
  0
ARC
  8
0
  6
BYLAYER
 62
     1
 10
206.309120
 20
-119.117747
 30
0.0
 40
1.0
 50
270.0
 51
360.000003
  0
LINE
  8
0
  6
BYLAYER
 62
     1
 10
193.317406
 20
-122.117747
 30
0.0
 11
206.309120
 21
-122.117747
 31
0.0
  0
ARC
  8
0
  6
BYLAYER
 62
     1
 10
206.309120
 20
-123.117747
 30
0.0
 40
1.000000
 50
0.0
 51
90.000003
  0
LINE
  8
0
  6
BYLAYER
 62
     1
 10
103.817406
 20
-118.617747
 30
0.0
 11
103.817406
 21
-199.617747
 31
0.0
  0
LINE
  8
0
  6
BYLAYER
 62
     1
 10
215.317406
 20
-115.822734
 30
0.0
 11
209.264641
 21
-115.957377
 31
0.0
  0
LINE
  8
0
  6
BYLAYER
 62
     1
 10
207.309120
 20
-117.956889
 30
0.0
 11
207.309120
 21
-121.117747
 31
0.0
  0
ARC
  8
0
  6
BYLAYER
 62
     1
 10
209.309120
 20
-117.956889
 30
0.0
 40
2.000006
 50
91.274338
 51
180.000005
  0
LINE
  8
0
  6
BYLAYER
 62
     1
 10
207.309120
 20
-124.278605
 30
0.0
 11
207.309120
 21
-121.117747
 31
0.0
  0
LINE
  8
0
  6
BYLAYER
 62
     1
 10
215.317406
 20
-126.412760
 30
0.0
 11
209.264641
 21
-126.278117
 31
0.0
  0
ARC
  8
0
  6
BYLAYER
 62
     1
 10
209.309120
 20
-124.278605
 30
0.0
 40
2.000000
 50
180.000000
 51
268.725646
  0
ARC
  8
0
  6
BYLAYER
 62
     1
 10
192.369484
 20
-141.065776
 30
0.0
 40
3.999988
 50
353.659945
 51
636.339946
  0
CIRCLE
  8
0
  6
BYLAYER
 62
     1
 10
192.369484
 20
-141.065776
 30
0.0
 40
3.600000
  0
ARC
  8
0
  6
BYLAYER
 62
     1
 10
132.265435
 20
-141.065715
 30
0.0
 40
3.999988
 50
83.659964
 51
366.339965
  0
CIRCLE
  8
0
  6
BYLAYER
 62
     1
 10
132.265435
 20
-141.065715
 30
0.0
 40
3.600000
  0
ARC
  8
0
  6
BYLAYER
 62
     1
 10
192.369438
 20
-201.169764
 30
0.0
 40
3.999988
 50
83.659955
 51
366.339956
  0
CIRCLE
  8
0
  6
BYLAYER
 62
     1
 10
192.369438
 20
-201.169764
 30
0.0
 40
3.6
  0
ARC
  8
0
  6
BYLAYER
 62
     1
 10
132.265389
 20
-201.169718
 30
0.0
 40
3.999988
 50
353.659928
 51
636.339929
  0
CIRCLE
  8
0
  6
BYLAYER
 62
     1
 10
132.265389
 20
-201.169718
 30
0.0
 40
3.600000
  0
ARC
  8
0
  6
BYLAYER
 62
     1
 10
162.317406
 20
-171.117747
 30
0.0
 40
50.000042
 50
44.999950
 51
51.003205
  0
ARC
  8
0
  6
BYLAYER
 62
     1
 10
192.522759
 20
-133.813029
 30
0.0
 40
1.999986
 50
51.003273
 51
118.656638
  0
ARC
  8
0
  6
BYLAYER
 62
     1
 10
184.130425
 20
-118.456614
 30
0.0
 40
15.500010
 50
196.343145
 51
298.65677
  0
ARC
  8
0
  6
BYLAYER
 62
     1
 10
167.337517
 20
-123.380961
 30
0.0
 40
2.000017
 50
16.343389
 51
83.996802
  0
ARC
  8
0
  6
BYLAYER
 62
     1
 10
199.622170
 20
-140.912486
 30
0.0
 40
2.000035
 50
331.343378
 51
398.996811
  0
ARC
  8
0
  6
BYLAYER
 62
     1
 10
162.317406
 20
-171.117747
 30
0.0
 40
50.000042
 50
38.996695
 51
44.999950
  0
ARC
  8
0
  6
BYLAYER
 62
     1
 10
162.317406
 20
-171.117747
 30
0.0
 40
50.000031
 50
359.999928
 51
366.003203
  0
ARC
  8
0
  6
BYLAYER
 62
     1
 10
162.317406
 20
-171.117747
 30
0.0
 40
50.000057
 50
89.999948
 51
96.003199
  0
ARC
  8
0
  6
BYLAYER
 62
     1
 10
157.297356
 20
-123.380961
 30
0.0
 40
2.000002
 50
96.003097
 51
163.656523
  0
ARC
  8
0
  6
BYLAYER
 62
     1
 10
140.504494
 20
-118.456584
 30
0.0
 40
15.499990
 50
241.343122
 51
343.656761
  0
ARC
  8
0
  6
BYLAYER
 62
     1
 10
132.112145
 20
-133.812968
 30
0.0
 40
1.999991
 50
61.343268
 51
128.996647
  0
ARC
  8
0
  6
BYLAYER
 62
     1
 10
162.317406
 20
-171.117747
 30
0.0
 40
50.000038
 50
128.996715
 51
134.999959
  0
ARC
  8
0
  6
BYLAYER
 62
     1
 10
162.317406
 20
-171.117747
 30
0.0
 40
50.000034
 50
134.999959
 51
141.003218
  0
ARC
  8
0
  6
BYLAYER
 62
     1
 10
125.012703
 20
-140.912425
 30
0.0
 40
2.000009
 50
141.003108
 51
208.656528
  0
ARC
  8
0
  6
BYLAYER
 62
     1
 10
109.656281
 20
-149.304728
 30
0.0
 40
15.500005
 50
286.343110
 51
388.656776
  0
ARC
  8
0
  6
BYLAYER
 62
     1
 10
114.580612
 20
-166.097666
 30
0.0
 40
2.000018
 50
106.343272
 51
173.996638
  0
ARC
  8
0
  6
BYLAYER
 62
     1
 10
162.317406
 20
-171.117747
 30
0.0
 40
50.000046
 50
173.996706
 51
179.999978
  0
ARC
  8
0
  6
BYLAYER
 62
     1
 10
162.317406
 20
-171.117747
 30
0.0
 40
50.000042
 50
269.999946
 51
276.003191
  0
ARC
  8
0
  6
BYLAYER
 62
     1
 10
162.317406
 20
-171.117747
 30
0.0
 40
50.000034
 50
263.996702
 51
269.999946
  0
ARC
  8
0
  6
BYLAYER
 62
     1
 10
157.297287
 20
-218.854533
 30
0.0
 40
2.000005
 50
196.343391
 51
263.996811
  0
ARC
  8
0
  6
BYLAYER
 62
     1
 10
167.337448
 20
-218.854548
 30
0.0
 40
2.000005
 50
276.003081
 51
343.656515
  0
ARC
  8
0
  6
BYLAYER
 62
     1
 10
162.317406
 20
-171.117747
 30
0.0
 40
50.000050
 50
308.996693
 51
314.999964
  0
ARC
  8
0
  6
BYLAYER
 62
     1
 10
162.317406
 20
-171.117747
 30
0.0
 40
50.000046
 50
314.999964
 51
321.003209
  0
ARC
  8
0
  6
BYLAYER
 62
     1
 10
199.622124
 20
-201.323039
 30
0.0
 40
2.000028
 50
321.003096
 51
388.656523
  0
ARC
  8
0
  6
BYLAYER
 62
     1
 10
214.978524
 20
-192.930735
 30
0.0
 40
15.499966
 50
106.343122
 51
208.656774
  0
ARC
  8
0
  6
BYLAYER
 62
     1
 10
210.054222
 20
-176.137843
 30
0.0
 40
1.999983
 50
286.343277
 51
353.996629
  0
ARC
  8
0
  6
BYLAYER
 62
     1
 10
162.317406
 20
-171.117747
 30
0.0
 40
50.000034
 50
353.996711
 51
359.999983
  0
ARC
  8
0
  6
BYLAYER
 62
     1
 10
162.317406
 20
-171.117747
 30
0.0
 40
50.000042
 50
179.999937
 51
186.003209
  0
ARC
  8
0
  6
BYLAYER
 62
     1
 10
114.580605
 20
-176.137767
 30
0.0
 40
2.000014
 50
186.003277
 51
253.656615
  0
ARC
  8
0
  6
BYLAYER
 62
     1
 10
109.656246
 20
-192.930659
 30
0.0
 40
15.500010
 50
331.343132
 51
433.656791
  0
ARC
  8
0
  6
BYLAYER
 62
     1
 10
125.012657
 20
-201.322993
 30
0.0
 40
2.000009
 50
151.343386
 51
218.996806
  0
ARC
  8
0
  6
BYLAYER
 62
     1
 10
162.317406
 20
-171.117747
 30
0.0
 40
50.000038
 50
218.996697
 51
224.999955
  0
ARC
  8
0
  6
BYLAYER
 62
     1
 10
132.112091
 20
-208.422465
 30
0.0
 40
2.000008
 50
231.003254
 51
298.656633
  0
ARC
  8
0
  6
BYLAYER
 62
     1
 10
162.317406
 20
-171.117747
 30
0.0
 40
50.000065
 50
83.996703
 51
89.999955
  0
ARC
  8
0
  6
BYLAYER
 62
     1
 10
184.130349
 20
-223.778895
 30
0.0
 40
15.500014
 50
112.499971
 51
163.656783
  0
ARC
  8
0
  6
BYLAYER
 62
     1
 10
140.504410
 20
-223.778849
 30
0.0
 40
15.499984
 50
16.343138
 51
67.499992
  0
ARC
  8
0
  6
BYLAYER
 62
     1
 10
140.504410
 20
-223.778849
 30
0.0
 40
15.499984
 50
67.499993
 51
118.656778
  0
ARC
  8
0
  6
BYLAYER
 62
     1
 10
162.317406
 20
-171.117747
 30
0.0
 40
50.000038
 50
224.999955
 51
231.003200
  0
ARC
  8
0
  6
BYLAYER
 62
     1
 10
210.054222
 20
-166.097727
 30
0.0
 40
1.999985
 50
6.004065
 51
65.195017
  0
LINE
  8
0
  6
BYLAYER
 62
     1
 10
109.456543
 20
-162.812358
 30
0.0
 11
109.423600
 21
-162.999186
 31
0.0
  0
LINE
  8
0
  6
BYLAYER
 62
     1
 10
214.830971
 20
-181.392741
 30
0.0
 11
214.798027
 21
-181.579585
 31
0.0
  0
ARC
  8
0
  6
BYLAYER
 62
     1
 10
192.522698
 20
-208.422511
 30
0.0
 40
1.999998
 50
245.352689
 51
308.996501
  0
ARC
  8
0
  6
BYLAYER
 62
     1
 10
184.130349
 20
-223.778895
 30
0.0
 40
15.500011
 50
60.826391
 51
112.499991
  0
CIRCLE
  8
0
  6
BYLAYER
 62
     1
 10
162.317406
 20
-171.117747
 30
0.0
 40
53.499996
  0
CIRCLE
  8
0
  6
BYLAYER
 62
     1
 10
162.317406
 20
-171.117747
 30
0.0
 40
31.0
  0
CIRCLE
  8
0
  6
BYLAYER
 62
     1
 10
162.317406
 20
-171.117747
 30
0.0
 40
34.999985
  0
ARC
  8
0
  6
BYLAYER
 62
     1
 10
214.978554
 20
-149.304820
 30
0.0
 40
15.499958
 50
151.343127
 51
254.743031
  0
ARC
  8
0
  6
BYLAYER
 62
     1
 10
154.591910
 20
-106.831924
 30
0.0
 40
1.724236
 50
270.0
 51
308.795511
  0
ARC
  8
0
  6
BYLAYER
 62
     1
 10
154.425049
 20
-106.654216
 30
0.0
 40
1.967374
 50
309.340351
 51
360.0
  0
ARC
  8
0
  6
BYLAYER
 62
     1
 10
154.425049
 20
-106.654216
 30
0.0
 40
1.967374
 50
0.0
 51
50.659649
  0
ARC
  8
0
  6
BYLAYER
 62
     1
 10
154.591910
 20
-106.476508
 30
0.0
 40
1.724236
 50
51.204489
 51
90.000000
  0
ARC
  8
0
  6
BYLAYER
 62
     1
 10
154.591910
 20
-106.476492
 30
0.0
 40
1.724220
 50
90.0
 51
128.795693
  0
ARC
  8
0
  6
BYLAYER
 62
     1
 10
154.758787
 20
-106.654216
 30
0.0
 40
1.967380
 50
129.340576
 51
180.0
  0
ARC
  8
0
  6
BYLAYER
 62
     1
 10
154.758787
 20
-106.654216
 30
0.0
 40
1.967380
 50
180.000000
 51
230.659424
  0
ARC
  8
0
  6
BYLAYER
 62
     1
 10
154.591910
 20
-106.831939
 30
0.0
 40
1.724220
 50
231.204307
 51
270.0
  0
ARC
  8
0
  6
BYLAYER
 62
     1
 10
154.591910
 20
-106.148325
 30
0.0
 40
0.797848
 50
90.0
 51
140.793201
  0
ARC
  8
0
  6
BYLAYER
 62
     1
 10
155.212043
 20
-106.654216
 30
0.0
 40
1.598154
 50
140.793201
 51
180.0
  0
ARC
  8
0
  6
BYLAYER
 62
     1
 10
155.212033
 20
-106.654216
 30
0.0
 40
1.598144
 50
180.000000
 51
219.206869
  0
ARC
  8
0
  6
BYLAYER
 62
     1
 10
154.591910
 20
-107.160100
 30
0.0
 40
0.797850
 50
219.206869
 51
270.000000
  0
ARC
  8
0
  6
BYLAYER
 62
     1
 10
154.591910
 20
-107.160100
 30
0.0
 40
0.797850
 50
270.0
 51
320.793131
  0
ARC
  8
0
  6
BYLAYER
 62
     1
 10
153.971787
 20
-106.654216
 30
0.0
 40
1.598144
 50
320.793131
 51
360.000000
  0
ARC
  8
0
  6
BYLAYER
 62
     1
 10
153.971777
 20
-106.654216
 30
0.0
 40
1.598154
 50
0.0
 51
39.206799
  0
ARC
  8
0
  6
BYLAYER
 62
     1
 10
154.591910
 20
-106.148325
 30
0.0
 40
0.797848
 50
39.206799
 51
90.0
  0
LINE
  8
0
  6
BYLAYER
 62
     1
 10
148.683206
 20
-108.429359
 30
0.0
 11
148.683206
 21
-104.828343
 31
0.0
  0
LINE
  8
0
  6
BYLAYER
 62
     1
 10
148.683206
 20
-104.828343
 30
0.0
 11
150.147281
 21
-104.828343
 31
0.0
  0
LINE
  8
0
  6
BYLAYER
 62
     1
 10
150.147281
 20
-104.828343
 30
0.0
 11
150.635871
 21
-106.704936
 31
0.0
  0
LINE
  8
0
  6
BYLAYER
 62
     1
 10
148.683206
 20
-108.429359
 30
0.0
 11
149.562332
 21
-108.429359
 31
0.0
  0
LINE
  8
0
  6
BYLAYER
 62
     1
 10
149.562332
 20
-108.429359
 30
0.0
 11
149.562332
 21
-106.349904
 31
0.0
  0
LINE
  8
0
  6
BYLAYER
 62
     1
 10
150.255478
 20
-108.429359
 30
0.0
 11
149.562332
 21
-106.349904
 31
0.0
  0
LINE
  8
0
  6
BYLAYER
 62
     1
 10
152.588535
 20
-108.429359
 30
0.0
 11
152.588535
 21
-104.828343
 31
0.0
  0
LINE
  8
0
  6
BYLAYER
 62
     1
 10
152.588535
 20
-104.828343
 30
0.0
 11
151.124460
 21
-104.828343
 31
0.0
  0
LINE
  8
0
  6
BYLAYER
 62
     1
 10
151.124460
 20
-104.828343
 30
0.0
 11
150.635871
 21
-106.704936
 31
0.0
  0
LINE
  8
0
  6
BYLAYER
 62
     1
 10
152.588535
 20
-108.429359
 30
0.0
 11
151.709409
 21
-108.429359
 31
0.0
  0
LINE
  8
0
  6
BYLAYER
 62
     1
 10
151.709409
 20
-108.429359
 30
0.0
 11
151.709409
 21
-106.349904
 31
0.0
  0
LINE
  8
0
  6
BYLAYER
 62
     1
 10
151.016263
 20
-108.429359
 30
0.0
 11
151.709409
 21
-106.349904
 31
0.0
  0
LINE
  8
0
  6
BYLAYER
 62
     1
 10
151.016263
 20
-108.429359
 30
0.0
 11
150.255478
 21
-108.429359
 31
0.0
  0
LINE
  8
0
  6
BYLAYER
 62
     1
 10
165.471039
 20
-108.429359
 30
0.0
 11
166.840430
 21
-104.828343
 31
0.0
  0
LINE
  8
0
  6
BYLAYER
 62
     1
 10
165.471039
 20
-108.429359
 30
0.0
 11
166.637567
 21
-108.429359
 31
0.0
  0
LINE
  8
0
  6
BYLAYER
 62
     1
 10
166.840430
 20
-104.828343
 30
0.0
 11
167.956238
 21
-104.828343
 31
0.0
  0
LINE
  8
0
  6
BYLAYER
 62
     1
 10
166.637567
 20
-108.429359
 30
0.0
 11
166.810474
 21
-107.922175
 31
0.0
  0
LINE
  8
0
  6
BYLAYER
 62
     1
 10
167.087109
 20
-107.110680
 30
0.0
 11
167.398334
 21
-106.197743
 31
0.0
  0
LINE
  8
0
  6
BYLAYER
 62
     1
 10
169.325647
 20
-108.429359
 30
0.0
 11
167.956238
 21
-104.828343
 31
0.0
  0
LINE
  8
0
  6
BYLAYER
 62
     1
 10
169.325647
 20
-108.429359
 30
0.0
 11
168.159119
 21
-108.429359
 31
0.0
  0
LINE
  8
0
  6
BYLAYER
 62
     1
 10
167.986212
 20
-107.922175
 30
0.0
 11
166.810474
 21
-107.922175
 31
0.0
  0
LINE
  8
0
  6
BYLAYER
 62
     1
 10
167.709558
 20
-107.110680
 30
0.0
 11
167.087109
 21
-107.110680
 31
0.0
  0
LINE
  8
0
  6
BYLAYER
 62
     1
 10
168.159119
 20
-108.429359
 30
0.0
 11
167.986212
 21
-107.922175
 31
0.0
  0
LINE
  8
0
  6
BYLAYER
 62
     1
 10
167.709558
 20
-107.110680
 30
0.0
 11
167.398334
 21
-106.197743
 31
0.0
  0
LINE
  8
0
  6
BYLAYER
 62
     1
 10
156.392423
 20
-105.715919
 30
0.0
 11
157.406790
 21
-105.715919
 31
0.0
  0
LINE
  8
0
  6
BYLAYER
 62
     1
 10
157.406790
 20
-105.715919
 30
0.0
 11
157.406790
 21
-108.429359
 31
0.0
  0
LINE
  8
0
  6
BYLAYER
 62
     1
 10
157.406790
 20
-108.429359
 30
0.0
 11
158.522608
 21
-108.429359
 31
0.0
  0
LINE
  8
0
  6
BYLAYER
 62
     1
 10
158.522608
 20
-108.429359
 30
0.0
 11
158.522608
 21
-105.715919
 31
0.0
  0
LINE
  8
0
  6
BYLAYER
 62
     1
 10
158.522608
 20
-105.715919
 30
0.0
 11
159.536975
 21
-105.715919
 31
0.0
  0
LINE
  8
0
  6
BYLAYER
 62
     1
 10
159.536975
 20
-105.715919
 30
0.0
 11
159.536975
 21
-104.828343
 31
0.0
  0
LINE
  8
0
  6
BYLAYER
 62
     1
 10
159.536975
 20
-104.828343
 30
0.0
 11
156.392423
 21
-104.828343
 31
0.0
  0
LINE
  8
0
  6
BYLAYER
 62
     1
 10
156.392423
 20
-104.828343
 30
0.0
 11
156.392423
 21
-105.715919
 31
0.0
  0
ARC
  8
0
  6
BYLAYER
 62
     1
 10
161.337479
 20
-106.831939
 30
0.0
 40
1.724220
 50
270.0
 51
308.795693
  0
ARC
  8
0
  6
BYLAYER
 62
     1
 10
161.170602
 20
-106.654216
 30
0.0
 40
1.967380
 50
309.340576
 51
360.0
  0
ARC
  8
0
  6
BYLAYER
 62
     1
 10
161.170608
 20
-106.654216
 30
0.0
 40
1.967374
 50
0.0
 51
50.659649
  0
ARC
  8
0
  6
BYLAYER
 62
     1
 10
161.337470
 20
-106.476508
 30
0.0
 40
1.724236
 50
51.204489
 51
90.0
  0
ARC
  8
0
  6
BYLAYER
 62
     1
 10
161.337470
 20
-106.476492
 30
0.0
 40
1.724220
 50
90.0
 51
128.795693
  0
ARC
  8
0
  6
BYLAYER
 62
     1
 10
161.504346
 20
-106.654216
 30
0.0
 40
1.967380
 50
129.340576
 51
180.0
  0
ARC
  8
0
  6
BYLAYER
 62
     1
 10
161.504340
 20
-106.654216
 30
0.0
 40
1.967374
 50
180.000000
 51
230.659649
  0
ARC
  8
0
  6
BYLAYER
 62
     1
 10
161.337479
 20
-106.831924
 30
0.0
 40
1.724236
 50
231.204489
 51
270.0
  0
ARC
  8
0
  6
BYLAYER
 62
     1
 10
161.337470
 20
-106.148325
 30
0.0
 40
0.797848
 50
90.0
 51
140.793201
  0
ARC
  8
0
  6
BYLAYER
 62
     1
 10
161.957602
 20
-106.654216
 30
0.0
 40
1.598154
 50
140.793201
 51
180.0
  0
ARC
  8
0
  6
BYLAYER
 62
     1
 10
161.957582
 20
-106.654216
 30
0.0
 40
1.598134
 50
180.000000
 51
219.207055
  0
ARC
  8
0
  6
BYLAYER
 62
     1
 10
161.337479
 20
-107.160087
 30
0.0
 40
0.797863
 50
219.207055
 51
270.000000
  0
ARC
  8
0
  6
BYLAYER
 62
     1
 10
161.337479
 20
-107.160100
 30
0.0
 40
0.797850
 50
270.0
 51
320.793131
  0
ARC
  8
0
  6
BYLAYER
 62
     1
 10
160.717356
 20
-106.654216
 30
0.0
 40
1.598144
 50
320.793131
 51
360.0
  0
ARC
  8
0
  6
BYLAYER
 62
     1
 10
160.717357
 20
-106.654216
 30
0.0
 40
1.598143
 50
0.0
 51
39.206985
  0
ARC
  8
0
  6
BYLAYER
 62
     1
 10
161.337470
 20
-106.148338
 30
0.0
 40
0.797861
 50
39.206985
 51
90.000000
  0
LINE
  8
0
  6
BYLAYER
 62
     1
 10
169.422839
 20
-108.429359
 30
0.0
 11
169.422839
 21
-104.828343
 31
0.0
  0
LINE
  8
0
  6
BYLAYER
 62
     1
 10
169.422839
 20
-104.828343
 30
0.0
 11
171.654446
 21
-104.828343
 31
0.0
  0
ARC
  8
0
  6
BYLAYER
 62
     1
 10
171.654446
 20
-105.842720
 30
0.0
 40
1.014366
 50
287.134650
 51
450.000006
  0
ARC
  8
0
  6
BYLAYER
 62
     1
 10
171.857327
 20
-107.617863
 30
0.0
 40
0.811496
 50
0.0
 51
83.207557
  0
LINE
  8
0
  6
BYLAYER
 62
     1
 10
172.668823
 20
-107.617863
 30
0.0
 11
172.668823
 21
-108.125047
 31
0.0
  0
ARC
  8
0
  6
BYLAYER
 62
     1
 10
173.480319
 20
-108.125047
 30
0.0
 40
0.811496
 50
180.000000
 51
202.024314
  0
LINE
  8
0
  6
BYLAYER
 62
     1
 10
171.612231
 20
-108.429359
 30
0.0
 11
172.728039
 21
-108.429359
 31
0.0
  0
ARC
  8
0
  6
BYLAYER
 62
     1
 10
172.364511
 20
-108.125047
 30
0.0
 40
0.811496
 50
180.000000
 51
202.024314
  0
LINE
  8
0
  6
BYLAYER
 62
     1
 10
171.553015
 20
-108.125047
 30
0.0
 11
171.553015
 21
-107.719304
 31
0.0
  0
LINE
  8
0
  6
BYLAYER
 62
     1
 10
169.422839
 20
-108.429359
 30
0.0
 11
170.487927
 21
-108.429359
 31
0.0
  0
LINE
  8
0
  6
BYLAYER
 62
     1
 10
170.487927
 20
-108.429359
 30
0.0
 11
170.487927
 21
-107.212120
 31
0.0
  0
LINE
  8
0
  6
BYLAYER
 62
     1
 10
171.045831
 20
-107.212120
 30
0.0
 11
170.487927
 21
-107.212120
 31
0.0
  0
ARC
  8
0
  6
BYLAYER
 62
     1
 10
171.045831
 20
-107.719304
 30
0.0
 40
0.507184
 50
0.0
 51
90.000003
  0
LINE
  8
0
  6
BYLAYER
 62
     1
 10
170.487927
 20
-106.400624
 30
0.0
 11
170.487927
 21
-105.639839
 31
0.0
  0
LINE
  8
0
  6
BYLAYER
 62
     1
 10
170.487927
 20
-105.639839
 30
0.0
 11
171.197983
 21
-105.639839
 31
0.0
  0
LINE
  8
0
  6
BYLAYER
 62
     1
 10
170.487927
 20
-106.400624
 30
0.0
 11
171.197983
 21
-106.400624
 31
0.0
  0
ARC
  8
0
  6
BYLAYER
 62
     1
 10
171.197983
 20
-106.020232
 30
0.0
 40
0.380392
 50
270.0
 51
450.000005
  0
LINE
  8
0
  6
BYLAYER
 62
     1
 10
164.583472
 20
-107.290681
 30
0.0
 11
163.924127
 21
-104.828343
 31
0.0
  0
LINE
  8
0
  6
BYLAYER
 62
     1
 10
163.924127
 20
-104.828343
 30
0.0
 11
162.859039
 21
-104.828343
 31
0.0
  0
LINE
  8
0
  6
BYLAYER
 62
     1
 10
162.859039
 20
-104.828343
 30
0.0
 11
163.974847
 21
-108.429359
 31
0.0
  0
LINE
  8
0
  6
BYLAYER
 62
     1
 10
164.583472
 20
-107.290681
 30
0.0
 11
165.242798
 21
-104.828343
 31
0.0
  0
LINE
  8
0
  6
BYLAYER
 62
     1
 10
165.242798
 20
-104.828343
 30
0.0
 11
166.307886
 21
-104.828343
 31
0.0
  0
LINE
  8
0
  6
BYLAYER
 62
     1
 10
166.307886
 20
-104.828343
 30
0.0
 11
165.192078
 21
-108.429359
 31
0.0
  0
LINE
  8
0
  6
BYLAYER
 62
     1
 10
165.192078
 20
-108.429359
 30
0.0
 11
163.974847
 21
-108.429359
 31
0.0
  0
LINE
  8
0
  6
BYLAYER
 62
     1
 10
172.825232
 20
-108.429359
 30
0.0
 11
173.890320
 21
-108.429359
 31
0.0
  0
LINE
  8
0
  6
BYLAYER
 62
     1
 10
173.890320
 20
-108.429359
 30
0.0
 11
173.890320
 21
-104.828343
 31
0.0
  0
LINE
  8
0
  6
BYLAYER
 62
     1
 10
173.890320
 20
-104.828343
 30
0.0
 11
172.825232
 21
-104.828343
 31
0.0
  0
LINE
  8
0
  6
BYLAYER
 62
     1
 10
172.825232
 20
-104.828343
 30
0.0
 11
172.825232
 21
-108.429359
 31
0.0
  0
ARC
  8
0
  6
BYLAYER
 62
     1
 10
175.893704
 20
-106.831939
 30
0.0
 40
1.724220
 50
270.0
 51
308.795693
  0
ARC
  8
0
  6
BYLAYER
 62
     1
 10
175.726827
 20
-106.654216
 30
0.0
 40
1.967380
 50
309.340576
 51
360.0
  0
ARC
  8
0
  6
BYLAYER
 62
     1
 10
175.726827
 20
-106.654216
 30
0.0
 40
1.967380
 50
0.0
 51
50.659424
  0
ARC
  8
0
  6
BYLAYER
 62
     1
 10
175.893704
 20
-106.476492
 30
0.0
 40
1.724220
 50
51.204307
 51
90.0
  0
ARC
  8
0
  6
BYLAYER
 62
     1
 10
175.893704
 20
-106.476492
 30
0.0
 40
1.724220
 50
90.0
 51
128.795693
  0
ARC
  8
0
  6
BYLAYER
 62
     1
 10
176.060581
 20
-106.654216
 30
0.0
 40
1.967380
 50
129.340576
 51
180.0
  0
ARC
  8
0
  6
BYLAYER
 62
     1
 10
176.060581
 20
-106.654216
 30
0.0
 40
1.967380
 50
180.000000
 51
230.659424
  0
ARC
  8
0
  6
BYLAYER
 62
     1
 10
175.893704
 20
-106.831939
 30
0.0
 40
1.724220
 50
231.204307
 51
270.0
  0
ARC
  8
0
  6
BYLAYER
 62
     1
 10
175.893704
 20
-106.148325
 30
0.0
 40
0.797848
 50
39.206799
 51
90.000000
  0
ARC
  8
0
  6
BYLAYER
 62
     1
 10
175.273571
 20
-106.654216
 30
0.0
 40
1.598154
 50
0.0
 51
39.206799
  0
ARC
  8
0
  6
BYLAYER
 62
     1
 10
175.273581
 20
-106.654216
 30
0.0
 40
1.598144
 50
320.793131
 51
360.000000
  0
ARC
  8
0
  6
BYLAYER
 62
     1
 10
175.893704
 20
-107.160100
 30
0.0
 40
0.797850
 50
270.0
 51
320.793131
  0
ARC
  8
0
  6
BYLAYER
 62
     1
 10
175.893704
 20
-107.160100
 30
0.0
 40
0.797850
 50
219.206869
 51
270.000000
  0
ARC
  8
0
  6
BYLAYER
 62
     1
 10
176.513827
 20
-106.654216
 30
0.0
 40
1.598144
 50
180.000000
 51
219.206869
  0
ARC
  8
0
  6
BYLAYER
 62
     1
 10
176.513837
 20
-106.654216
 30
0.0
 40
1.598154
 50
140.793201
 51
180.000000
  0
ARC
  8
0
  6
BYLAYER
 62
     1
 10
175.893704
 20
-106.148325
 30
0.0
 40
0.797848
 50
90.0
 51
140.793201
  0
LINE
  8
0
  6
BYLAYER
 62
     1
 10
172.840320
 20
-104.828343
 30
0.0
 11
172.840320
 21
-108.429359
 31
0.0
  0
ARC
  8
0
  6
BYLAYER
 62
     1
 10
157.910587
 20
-100.705907
 30
0.0
 40
4.457997
 50
174.535650
 51
180.000000
  0
LINE
  8
0
  6
BYLAYER
 62
     1
 10
153.472847
 20
-100.281386
 30
0.0
 11
153.472847
 21
-100.281381
 31
0.0
  0
LINE
  8
0
  6
BYLAYER
 62
     1
 10
153.477698
 20
-100.233427
 30
0.0
 11
153.903160
 21
-100.054302
 31
0.0
  0
ARC
  8
0
  6
BYLAYER
 62
     1
 10
157.910605
 20
-100.705943
 30
0.0
 40
4.060069
 50
159.235383
 51
170.763998
  0
LINE
  8
0
  6
BYLAYER
 62
     1
 10
154.114240
 20
-99.266504
 30
0.0
 11
153.835361
 21
-98.898636
 31
0.0
  0
ARC
  8
0
  6
BYLAYER
 62
     1
 10
157.910587
 20
-100.705907
 30
0.0
 40
4.457992
 50
144.139514
 51
156.083795
  0
LINE
  8
0
  6
BYLAYER
 62
     1
 10
154.268308
 20
-98.135390
 30
0.0
 11
154.268573
 21
-98.135014
 31
0.0
  0
LINE
  8
0
  6
BYLAYER
 62
     1
 10
154.297626
 20
-98.094354
 30
0.0
 11
154.750581
 21
-98.156673
 31
0.0
  0
ARC
  8
0
  6
BYLAYER
 62
     1
 10
157.910587
 20
-100.705907
 30
0.0
 40
4.060044
 50
129.235643
 51
141.105976
  0
LINE
  8
0
  6
BYLAYER
 62
     1
 10
155.276175
 20
-97.616592
 30
0.0
 11
155.276615
 21
-97.616212
 31
0.0
  0
LINE
  8
0
  6
BYLAYER
 62
     1
 10
155.342563
 20
-97.561194
 30
0.0
 11
155.284967
 21
-97.103151
 31
0.0
  0
ARC
  8
0
  6
BYLAYER
 62
     1
 10
157.910587
 20
-100.705907
 30
0.0
 40
4.457996
 50
114.139607
 51
126.083853
  0
LINE
  8
0
  6
BYLAYER
 62
     1
 10
156.041858
 20
-96.658488
 30
0.0
 11
156.042160
 21
-96.658347
 31
0.0
  0
LINE
  8
0
  6
BYLAYER
 62
     1
 10
156.087438
 20
-96.637754
 30
0.0
 11
156.448536
 21
-96.918191
 31
0.0
  0
LINE
  8
0
  6
BYLAYER
 62
     1
 10
156.531098
 20
-96.887398
 30
0.0
 11
156.531555
 21
-96.887238
 31
0.0
  0
ARC
  8
0
  6
BYLAYER
 62
     1
 10
157.910587
 20
-100.705907
 30
0.0
 40
4.060043
 50
99.235601
 51
111.106038
  0
ARC
  8
0
  6
BYLAYER
 62
     1
 10
157.910587
 20
-100.705907
 30
0.0
 40
4.457997
 50
90.0
 51
96.083892
  0
LINE
  8
0
  6
BYLAYER
 62
     1
 10
157.438108
 20
-96.273018
 30
0.0
 11
157.258972
 21
-96.698495
 31
0.0
  0
LINE
  8
0
  6
BYLAYER
 62
     1
 10
162.348322
 20
-100.281386
 30
0.0
 11
162.348322
 21
-100.281381
 31
0.0
  0
LINE
  8
0
  6
BYLAYER
 62
     1
 10
162.343475
 20
-100.233427
 30
0.0
 11
161.917992
 21
-100.054298
 31
0.0
  0
ARC
  8
0
  6
BYLAYER
 62
     1
 10
157.910559
 20
-100.705943
 30
0.0
 40
4.060069
 50
9.235986
 51
20.764650
  0
LINE
  8
0
  6
BYLAYER
 62
     1
 10
161.706954
 20
-99.266462
 30
0.0
 11
161.985813
 21
-98.898637
 31
0.0
  0
ARC
  8
0
  6
BYLAYER
 62
     1
 10
157.910587
 20
-100.705907
 30
0.0
 40
4.457992
 50
23.916189
 51
35.860484
  0
LINE
  8
0
  6
BYLAYER
 62
     1
 10
161.552857
 20
-98.135390
 30
0.0
 11
161.552591
 21
-98.135014
 31
0.0
  0
LINE
  8
0
  6
BYLAYER
 62
     1
 10
161.523548
 20
-98.094355
 30
0.0
 11
161.070624
 21
-98.156667
 31
0.0
  0
ARC
  8
0
  6
BYLAYER
 62
     1
 10
157.910587
 20
-100.705907
 30
0.0
 40
4.060044
 50
38.894050
 51
50.764315
  0
LINE
  8
0
  6
BYLAYER
 62
     1
 10
160.544998
 20
-97.616592
 30
0.0
 11
160.544559
 21
-97.616212
 31
0.0
  0
LINE
  8
0
  6
BYLAYER
 62
     1
 10
160.478622
 20
-97.561121
 30
0.0
 11
160.536197
 21
-97.103144
 31
0.0
  0
ARC
  8
0
  6
BYLAYER
 62
     1
 10
157.910587
 20
-100.705907
 30
0.0
 40
4.457996
 50
53.916300
 51
65.860381
  0
LINE
  8
0
  6
BYLAYER
 62
     1
 10
159.779315
 20
-96.658488
 30
0.0
 11
159.779004
 21
-96.658347
 31
0.0
  0
LINE
  8
0
  6
BYLAYER
 62
     1
 10
159.733736
 20
-96.637755
 30
0.0
 11
159.372642
 21
-96.918179
 31
0.0
  0
LINE
  8
0
  6
BYLAYER
 62
     1
 10
159.290067
 20
-96.887398
 30
0.0
 11
159.289618
 21
-96.887238
 31
0.0
  0
ARC
  8
0
  6
BYLAYER
 62
     1
 10
157.910587
 20
-100.705907
 30
0.0
 40
4.060043
 50
68.894081
 51
80.764578
  0
ARC
  8
0
  6
BYLAYER
 62
     1
 10
157.910587
 20
-100.705907
 30
0.0
 40
4.457997
 50
84.535428
 51
90.000003
  0
LINE
  8
0
  6
BYLAYER
 62
     1
 10
158.383067
 20
-96.273018
 30
0.0
 11
158.562159
 21
-96.698422
 31
0.0
  0
ARC
  8
0
  6
BYLAYER
 62
     1
 10
157.910587
 20
-100.705907
 30
0.0
 40
4.457997
 50
180.000000
 51
186.083899
  0
LINE
  8
0
  6
BYLAYER
 62
     1
 10
153.472847
 20
-101.130423
 30
0.0
 11
153.472847
 21
-101.130432
 31
0.0
  0
LINE
  8
0
  6
BYLAYER
 62
     1
 10
153.477698
 20
-101.178386
 30
0.0
 11
153.903173
 21
-101.357517
 31
0.0
  0
ARC
  8
0
  6
BYLAYER
 62
     1
 10
157.910605
 20
-100.705870
 30
0.0
 40
4.060069
 50
189.236002
 51
200.764629
  0
LINE
  8
0
  6
BYLAYER
 62
     1
 10
154.114255
 20
-102.145291
 30
0.0
 11
153.835359
 21
-102.513174
 31
0.0
  0
ARC
  8
0
  6
BYLAYER
 62
     1
 10
157.910587
 20
-100.705907
 30
0.0
 40
4.457992
 50
203.916158
 51
215.860410
  0
LINE
  8
0
  6
BYLAYER
 62
     1
 10
154.268308
 20
-103.276419
 30
0.0
 11
154.268573
 21
-103.276794
 31
0.0
  0
LINE
  8
0
  6
BYLAYER
 62
     1
 10
154.297622
 20
-103.317454
 30
0.0
 11
154.750620
 21
-103.255136
 31
0.0
  0
ARC
  8
0
  6
BYLAYER
 62
     1
 10
157.910587
 20
-100.705907
 30
0.0
 40
4.060044
 50
218.894045
 51
230.764345
  0
LINE
  8
0
  6
BYLAYER
 62
     1
 10
155.276175
 20
-103.795216
 30
0.0
 11
155.276615
 21
-103.795596
 31
0.0
  0
LINE
  8
0
  6
BYLAYER
 62
     1
 10
155.342562
 20
-103.850618
 30
0.0
 11
155.284967
 21
-104.308663
 31
0.0
  0
ARC
  8
0
  6
BYLAYER
 62
     1
 10
157.910587
 20
-100.705907
 30
0.0
 40
4.457996
 50
233.916148
 51
245.860401
  0
LINE
  8
0
  6
BYLAYER
 62
     1
 10
156.041858
 20
-104.753320
 30
0.0
 11
156.042160
 21
-104.753467
 31
0.0
  0
LINE
  8
0
  6
BYLAYER
 62
     1
 10
156.087439
 20
-104.774059
 30
0.0
 11
156.448579
 21
-104.493583
 31
0.0
  0
LINE
  8
0
  6
BYLAYER
 62
     1
 10
156.531098
 20
-104.524411
 30
0.0
 11
156.531555
 21
-104.524576
 31
0.0
  0
LINE
  8
0
  6
BYLAYER
 62
     1
 10
162.348322
 20
-101.130423
 30
0.0
 11
162.348322
 21
-101.130432
 31
0.0
  0
LINE
  8
0
  6
BYLAYER
 62
     1
 10
162.343474
 20
-101.178387
 30
0.0
 11
161.917992
 21
-101.357516
 31
0.0
  0
LINE
  8
0
  6
BYLAYER
 62
     1
 10
161.706914
 20
-102.145301
 30
0.0
 11
161.985817
 21
-102.513177
 31
0.0
  0
LINE
  8
0
  6
BYLAYER
 62
     1
 10
161.552857
 20
-103.276419
 30
0.0
 11
161.552591
 21
-103.276794
 31
0.0
  0
LINE
  8
0
  6
BYLAYER
 62
     1
 10
161.523556
 20
-103.317454
 30
0.0
 11
161.070529
 21
-103.255134
 31
0.0
  0
LINE
  8
0
  6
BYLAYER
 62
     1
 10
160.544998
 20
-103.795216
 30
0.0
 11
160.544559
 21
-103.795596
 31
0.0
  0
LINE
  8
0
  6
BYLAYER
 62
     1
 10
160.478613
 20
-103.850616
 30
0.0
 11
160.536197
 21
-104.308670
 31
0.0
  0
LINE
  8
0
  6
BYLAYER
 62
     1
 10
159.733735
 20
-104.774059
 30
0.0
 11
159.372587
 21
-104.493586
 31
0.0
  0
ARC
  8
0
  6
BYLAYER
 62
     1
 10
157.910587
 20
-100.705907
 30
0.0
 40
4.060044
 50
309.235697
 51
321.105929
  0
ARC
  8
0
  6
BYLAYER
 62
     1
 10
157.910587
 20
-100.705907
 30
0.0
 40
4.060043
 50
248.893873
 51
259.502886
  0
ARC
  8
0
  6
BYLAYER
 62
     1
 10
157.910587
 20
-100.705907
 30
0.0
 40
4.457996
 50
294.783232
 51
306.083699
  0
LINE
  8
0
  6
BYLAYER
 62
     1
 10
159.779004
 20
-104.753467
 30
0.0
 11
159.734010
 21
-104.774640
 31
0.0
  0
ARC
  8
0
  6
BYLAYER
 62
     1
 10
157.910587
 20
-100.705907
 30
0.0
 40
4.457992
 50
324.139593
 51
336.083825
  0
ARC
  8
0
  6
BYLAYER
 62
     1
 10
157.910559
 20
-100.705870
 30
0.0
 40
4.060069
 50
339.235210
 51
350.764014
  0
ARC
  8
0
  6
BYLAYER
 62
     1
 10
157.910587
 20
-100.705907
 30
0.0
 40
4.457997
 50
353.916089
 51
360.000000
  0
ARC
  8
0
  6
BYLAYER
 62
     1
 10
157.910587
 20
-100.705907
 30
0.0
 40
4.457997
 50
0.0
 51
6.083907
  0
CIRCLE
  8
0
  6
BYLAYER
 62
     1
 10
157.910587
 20
-100.705907
 30
0.0
 40
3.446307
  0
CIRCLE
  8
0
  6
BYLAYER
 62
     1
 10
157.910587
 20
-100.705907
 30
0.0
 40
2.649296
  0
ARC
  8
0
  6
BYLAYER
 62
     1
 10
157.910587
 20
-100.705907
 30
0.0
 40
4.060043
 50
259.503601
 51
291.106008
  0
LINE
  8
0
  6
BYLAYER
 62
     1
 10
162.317406
 20
-171.117747
 30
0.0
 11
159.317406
 21
-171.117747
 31
0.0
  0
LINE
  8
0
  6
BYLAYER
 62
     1
 10
162.317406
 20
-171.117747
 30
0.0
 11
162.317406
 21
-174.117747
 31
0.0
  0
LINE
  8
0
  6
BYLAYER
 62
     1
 10
162.317406
 20
-171.117747
 30
0.0
 11
165.317406
 21
-171.117747
 31
0.0
  0
LINE
  8
0
  6
BYLAYER
 62
     1
 10
162.317406
 20
-171.117747
 30
0.0
 11
162.317406
 21
-168.117747
 31
0.0
  0
LINE
  8
0
  6
BYLAYER
 62
     1
 10
655.817406
 20
-427.117747
 30
0.0
 11
655.817406
 21
-457.117747
 31
0.0
  0
LINE
  8
0
  6
BYLAYER
 62
     1
 10
655.817406
 20
-457.117747
 30
0.0
 11
657.317406
 21
-458.617747
 31
0.0
  0
LINE
  8
0
  6
BYLAYER
 62
     1
 10
655.817406
 20
-427.117747
 30
0.0
 11
673.817406
 21
-427.117747
 31
0.0
  0
LINE
  8
0
  6
BYLAYER
 62
     1
 10
655.817406
 20
-571.117808
 30
0.0
 11
673.817406
 21
-571.117808
 31
0.0
  0
CIRCLE
  8
0
  6
BYLAYER
 62
     1
 10
733.317406
 20
-447.117747
 30
0.0
 40
4.25
  0
CIRCLE
  8
0
  6
BYLAYER
 62
     1
 10
733.317406
 20
-551.117808
 30
0.0
 40
4.25
  0
LINE
  8
0
  6
BYLAYER
 62
     1
 10
652.317406
 20
-477.117747
 30
0.0
 11
653.317406
 21
-476.117747
 31
0.0
  0
LINE
  8
0
  6
BYLAYER
 62
     1
 10
653.317406
 20
-476.117747
 30
0.0
 11
654.817406
 21
-476.117747
 31
0.0
  0
LINE
  8
0
  6
BYLAYER
 62
     1
 10
654.817406
 20
-546.117808
 30
0.0
 11
653.317406
 21
-546.117808
 31
0.0
  0
LINE
  8
0
  6
BYLAYER
 62
     1
 10
653.317406
 20
-546.117808
 30
0.0
 11
652.317406
 21
-545.117808
 31
0.0
  0
LINE
  8
0
  6
BYLAYER
 62
     1
 10
652.317406
 20
-545.117808
 30
0.0
 11
652.317406
 21
-477.117747
 31
0.0
  0
LINE
  8
0
  6
BYLAYER
 62
     1
 10
657.317406
 20
-461.030467
 30
0.0
 11
654.817406
 21
-461.117747
 31
0.0
  0
LINE
  8
0
  6
BYLAYER
 62
     1
 10
655.817406
 20
-561.152842
 30
0.0
 11
654.817406
 21
-561.117808
 31
0.0
  0
LINE
  8
0
  6
BYLAYER
 62
     1
 10
655.817406
 20
-561.152720
 30
0.0
 11
654.817406
 21
-561.117808
 31
0.0
  0
CIRCLE
  8
0
  6
BYLAYER
 62
     1
 10
663.317406
 20
-551.117808
 30
0.0
 40
4.25
  0
LINE
  8
0
  6
BYLAYER
 62
     1
 10
655.817406
 20
-541.117808
 30
0.0
 11
657.317406
 21
-539.617808
 31
0.0
  0
LINE
  8
0
  6
BYLAYER
 62
     1
 10
655.817406
 20
-541.117808
 30
0.0
 11
655.817406
 21
-571.117808
 31
0.0
  0
LINE
  8
0
  6
BYLAYER
 62
     1
 10
657.317406
 20
-539.617808
 30
0.0
 11
657.317406
 21
-458.617747
 31
0.0
  0
LINE
  8
0
  6
BYLAYER
 62
     1
 10
655.817406
 20
-541.117808
 30
0.0
 11
673.817406
 21
-541.117808
 31
0.0
  0
LINE
  8
0
  6
BYLAYER
 62
     1
 10
657.317406
 20
-539.617808
 30
0.0
 11
673.817406
 21
-539.617808
 31
0.0
  0
LINE
  8
0
  6
BYLAYER
 62
     1
 10
654.817406
 20
-461.117747
 30
0.0
 11
654.817406
 21
-561.117808
 31
0.0
  0
LINE
  8
0
  6
BYLAYER
 62
     1
 10
722.817406
 20
-428.617747
 30
0.0
 11
673.817406
 21
-428.617747
 31
0.0
  0
CIRCLE
  8
0
  6
BYLAYER
 62
     1
 10
698.317406
 20
-461.117747
 30
0.0
 40
23.5
  0
CIRCLE
  8
0
  6
BYLAYER
 62
     1
 10
719.530541
 20
-439.904551
 30
0.0
 40
2.5
  0
CIRCLE
  8
0
  6
BYLAYER
 62
     1
 10
677.104149
 20
-439.904582
 30
0.0
 40
2.5
  0
CIRCLE
  8
0
  6
BYLAYER
 62
     1
 10
677.104149
 20
-482.330943
 30
0.0
 40
2.5
  0
CIRCLE
  8
0
  6
BYLAYER
 62
     1
 10
719.530541
 20
-482.330973
 30
0.0
 40
2.5
  0
LINE
  8
0
  6
BYLAYER
 62
     1
 10
673.817406
 20
-433.023875
 30
0.0
 11
673.817406
 21
-427.117747
 31
0.0
  0
ARC
  8
0
  6
BYLAYER
 62
     1
 10
675.817406
 20
-433.023875
 30
0.0
 40
2.0
 50
180.000000
 51
280.592963
  0
LINE
  8
0
  6
BYLAYER
 62
     1
 10
722.817406
 20
-433.023844
 30
0.0
 11
722.817406
 21
-427.117747
 31
0.0
  0
ARC
  8
0
  6
BYLAYER
 62
     1
 10
720.817406
 20
-433.023844
 30
0.0
 40
1.999999
 50
259.407470
 51
360.000003
  0
LINE
  8
0
  6
BYLAYER
 62
     1
 10
673.817406
 20
-486.098826
 30
0.0
 11
673.817406
 21
-571.117808
 31
0.0
  0
LINE
  8
0
  6
BYLAYER
 62
     1
 10
722.817406
 20
-571.117808
 30
0.0
 11
722.817406
 21
-486.098826
 31
0.0
  0
LINE
  8
0
  6
BYLAYER
 62
     1
 10
669.386498
 20
-457.117747
 30
0.0
 11
655.817406
 21
-457.117747
 31
0.0
  0
ARC
  8
0
  6
BYLAYER
 62
     1
 10
669.386498
 20
-459.117747
 30
0.0
 40
2.000000
 50
356.045188
 51
450.000000
  0
ARC
  8
0
  6
BYLAYER
 62
     1
 10
677.104149
 20
-439.904582
 30
0.0
 40
5.000019
 50
30.099438
 51
100.592680
  0
ARC
  8
0
  6
BYLAYER
 62
     1
 10
683.160302
 20
-436.394053
 30
0.0
 40
2.000038
 50
210.099802
 51
301.510887
  0
ARC
  8
0
  6
BYLAYER
 62
     1
 10
698.317406
 20
-461.117747
 30
0.0
 40
27.000027
 50
58.489253
 51
121.510841
  0
ARC
  8
0
  6
BYLAYER
 62
     1
 10
719.530541
 20
-439.904551
 30
0.0
 40
5.000012
 50
79.406980
 51
149.900563
  0
ARC
  8
0
  6
BYLAYER
 62
     1
 10
713.474510
 20
-436.394023
 30
0.0
 40
1.999980
 50
238.489114
 51
329.900186
  0
ARC
  8
0
  6
BYLAYER
 62
     1
 10
727.248314
 20
-459.117747
 30
0.0
 40
2.000002
 50
90.0
 51
183.954805
  0
ARC
  8
0
  6
BYLAYER
 62
     1
 10
713.474510
 20
-485.841502
 30
0.0
 40
2.000006
 50
30.099804
 51
121.510418
  0
ARC
  8
0
  6
BYLAYER
 62
     1
 10
719.530541
 20
-482.330973
 30
0.0
 40
4.999913
 50
210.099433
 51
419.900564
  0
ARC
  8
0
  6
BYLAYER
 62
     1
 10
698.317406
 20
-461.117747
 30
0.0
 40
26.999949
 50
328.489151
 51
363.954556
  0
ARC
  8
0
  6
BYLAYER
 62
     1
 10
723.041039
 20
-476.274882
 30
0.0
 40
1.999966
 50
148.489119
 51
239.900204
  0
ARC
  8
0
  6
BYLAYER
 62
     1
 10
683.160302
 20
-485.841441
 30
0.0
 40
2.000022
 50
58.489123
 51
149.900960
  0
ARC
  8
0
  6
BYLAYER
 62
     1
 10
677.104149
 20
-482.330943
 30
0.0
 40
4.999962
 50
120.099437
 51
329.90065
  0
ARC
  8
0
  6
BYLAYER
 62
     1
 10
698.317406
 20
-461.117747
 30
0.0
 40
26.999954
 50
176.045448
 51
211.510769
  0
ARC
  8
0
  6
BYLAYER
 62
     1
 10
673.593651
 20
-476.274851
 30
0.0
 40
2.000027
 50
300.099415
 51
391.510651
  0
LINE
  8
0
  6
BYLAYER
 62
     1
 10
657.317406
 20
-458.617747
 30
0.0
 11
671.322989
 21
-458.617747
 31
0.0
  0
CIRCLE
  8
0
  6
BYLAYER
 62
     1
 10
663.317406
 20
-447.117747
 30
0.0
 40
4.25
  0
LINE
  8
0
  6
BYLAYER
 62
     1
 10
722.817406
 20
-569.031993
 30
0.0
 11
673.817406
 21
-569.031993
 31
0.0
  0
ARC
  8
0
  6
BYLAYER
 62
     1
 10
698.317406
 20
-461.117747
 30
0.0
 40
27.0
 50
238.489223
 51
301.510696
  0
LINE
  8
0
  6
BYLAYER
 62
     1
 10
740.817406
 20
-427.117747
 30
0.0
 11
740.817406
 21
-457.117747
 31
0.0
  0
LINE
  8
0
  6
BYLAYER
 62
     1
 10
740.817406
 20
-457.117747
 30
0.0
 11
739.317406
 21
-458.617747
 31
0.0
  0
LINE
  8
0
  6
BYLAYER
 62
     1
 10
740.817406
 20
-571.117808
 30
0.0
 11
740.817406
 21
-541.117808
 31
0.0
  0
LINE
  8
0
  6
BYLAYER
 62
     1
 10
740.817406
 20
-541.117808
 30
0.0
 11
739.317406
 21
-539.617808
 31
0.0
  0
LINE
  8
0
  6
BYLAYER
 62
     1
 10
739.317406
 20
-458.617747
 30
0.0
 11
739.317406
 21
-539.617808
 31
0.0
  0
LINE
  8
0
  6
BYLAYER
 62
     1
 10
722.817406
 20
-427.117747
 30
0.0
 11
740.817406
 21
-427.117747
 31
0.0
  0
LINE
  8
0
  6
BYLAYER
 62
     1
 10
722.817406
 20
-571.117808
 30
0.0
 11
740.817406
 21
-571.117808
 31
0.0
  0
LINE
  8
0
  6
BYLAYER
 62
     1
 10
740.817406
 20
-541.117808
 30
0.0
 11
722.817406
 21
-541.117808
 31
0.0
  0
LINE
  8
0
  6
BYLAYER
 62
     1
 10
739.317406
 20
-539.617808
 30
0.0
 11
722.817406
 21
-539.617808
 31
0.0
  0
LINE
  8
0
  6
BYLAYER
 62
     1
 10
727.248314
 20
-457.117747
 30
0.0
 11
740.817406
 21
-457.117747
 31
0.0
  0
LINE
  8
0
  6
BYLAYER
 62
     1
 10
725.311821
 20
-458.617747
 30
0.0
 11
739.317406
 21
-458.617747
 31
0.0
  0
LINE
  8
0
  6
BYLAYER
 62
     1
 10
744.317406
 20
-477.117747
 30
0.0
 11
743.317406
 21
-476.117747
 31
0.0
  0
LINE
  8
0
  6
BYLAYER
 62
     1
 10
743.317406
 20
-476.117747
 30
0.0
 11
741.817406
 21
-476.117747
 31
0.0
  0
LINE
  8
0
  6
BYLAYER
 62
     1
 10
741.817406
 20
-546.117808
 30
0.0
 11
743.317406
 21
-546.117808
 31
0.0
  0
LINE
  8
0
  6
BYLAYER
 62
     1
 10
743.317406
 20
-546.117808
 30
0.0
 11
744.317406
 21
-545.117808
 31
0.0
  0
LINE
  8
0
  6
BYLAYER
 62
     1
 10
744.317406
 20
-545.117808
 30
0.0
 11
744.317406
 21
-477.117747
 31
0.0
  0
LINE
  8
0
  6
BYLAYER
 62
     1
 10
739.317406
 20
-461.030467
 30
0.0
 11
741.817406
 21
-461.117747
 31
0.0
  0
LINE
  8
0
  6
BYLAYER
 62
     1
 10
740.817406
 20
-561.152842
 30
0.0
 11
741.817406
 21
-561.117808
 31
0.0
  0
LINE
  8
0
  6
BYLAYER
 62
     1
 10
740.817406
 20
-561.152720
 30
0.0
 11
741.817406
 21
-561.117808
 31
0.0
  0
LINE
  8
0
  6
BYLAYER
 62
     1
 10
741.817406
 20
-461.117747
 30
0.0
 11
741.817406
 21
-561.117808
 31
0.0
  0
LINE
  8
0
  6
BYLAYER
 62
     1
 10
102.317345
 20
-513.617762
 30
0.0
 11
132.317345
 21
-513.617762
 31
0.0
  0
LINE
  8
0
  6
BYLAYER
 62
     1
 10
132.317345
 20
-513.617762
 30
0.0
 11
133.817345
 21
-512.117762
 31
0.0
  0
CIRCLE
  8
0
  6
BYLAYER
 62
     1
 10
122.317345
 20
-506.117762
 30
0.0
 40
4.25
  0
LINE
  8
0
  6
BYLAYER
 62
     1
 10
127.317345
 20
-427.617762
 30
0.0
 11
127.317345
 21
-426.117762
 31
0.0
  0
LINE
  8
0
  6
BYLAYER
 62
     1
 10
127.317345
 20
-426.117762
 30
0.0
 11
128.317345
 21
-425.117762
 31
0.0
  0
LINE
  8
0
  6
BYLAYER
 62
     1
 10
128.317345
 20
-425.117762
 30
0.0
 11
196.317467
 21
-425.117762
 31
0.0
  0
LINE
  8
0
  6
BYLAYER
 62
     1
 10
112.282311
 20
-428.617762
 30
0.0
 11
112.317345
 21
-427.617762
 31
0.0
  0
LINE
  8
0
  6
BYLAYER
 62
     1
 10
112.282433
 20
-428.617762
 30
0.0
 11
112.317345
 21
-427.617762
 31
0.0
  0
CIRCLE
  8
0
  6
BYLAYER
 62
     1
 10
122.317345
 20
-436.117762
 30
0.0
 40
4.25
  0
LINE
  8
0
  6
BYLAYER
 62
     1
 10
132.317345
 20
-428.617762
 30
0.0
 11
133.817345
 21
-430.117762
 31
0.0
  0
LINE
  8
0
  6
BYLAYER
 62
     1
 10
132.317345
 20
-428.617762
 30
0.0
 11
102.317345
 21
-428.617762
 31
0.0
  0
LINE
  8
0
  6
BYLAYER
 62
     1
 10
132.317345
 20
-513.617762
 30
0.0
 11
132.317345
 21
-495.617762
 31
0.0
  0
LINE
  8
0
  6
BYLAYER
 62
     1
 10
132.317345
 20
-428.617762
 30
0.0
 11
132.317345
 21
-446.617762
 31
0.0
  0
LINE
  8
0
  6
BYLAYER
 62
     1
 10
133.817345
 20
-512.117762
 30
0.0
 11
133.817345
 21
-495.617762
 31
0.0
  0
LINE
  8
0
  6
BYLAYER
 62
     1
 10
133.817345
 20
-430.117762
 30
0.0
 11
133.817345
 21
-446.617762
 31
0.0
  0
LINE
  8
0
  6
BYLAYER
 62
     1
 10
212.317467
 20
-427.617762
 30
0.0
 11
112.317345
 21
-427.617762
 31
0.0
  0
LINE
  8
0
  6
BYLAYER
 62
     1
 10
197.317345
 20
-427.617762
 30
0.0
 11
197.317345
 21
-426.117762
 31
0.0
  0
LINE
  8
0
  6
BYLAYER
 62
     1
 10
197.317345
 20
-426.117762
 30
0.0
 11
196.317345
 21
-425.117762
 31
0.0
  0
LINE
  8
0
  6
BYLAYER
 62
     1
 10
212.352379
 20
-428.617762
 30
0.0
 11
212.317345
 21
-427.617762
 31
0.0
  0
LINE
  8
0
  6
BYLAYER
 62
     1
 10
212.352257
 20
-428.617762
 30
0.0
 11
212.317345
 21
-427.617762
 31
0.0
  0
LINE
  8
0
  6
BYLAYER
 62
     1
 10
190.817345
 20
-430.117762
 30
0.0
 11
190.817345
 21
-446.617762
 31
0.0
  0
LINE
  8
0
  6
BYLAYER
 62
     1
 10
192.317345
 20
-428.617762
 30
0.0
 11
192.317345
 21
-446.617762
 31
0.0
  0
LINE
  8
0
  6
BYLAYER
 62
     1
 10
192.317345
 20
-428.617762
 30
0.0
 11
190.817345
 21
-430.117762
 31
0.0
  0
LINE
  8
0
  6
BYLAYER
 62
     1
 10
192.317345
 20
-428.617762
 30
0.0
 11
222.317345
 21
-428.617762
 31
0.0
  0
LINE
  8
0
  6
BYLAYER
 62
     1
 10
222.317345
 20
-428.617762
 30
0.0
 11
222.317345
 21
-446.617762
 31
0.0
  0
LINE
  8
0
  6
BYLAYER
 62
     1
 10
222.317345
 20
-495.617762
 30
0.0
 11
222.317345
 21
-513.617762
 31
0.0
  0
CIRCLE
  8
0
  6
BYLAYER
 62
     1
 10
202.317345
 20
-436.117762
 30
0.0
 40
4.25
  0
LINE
  8
0
  6
BYLAYER
 62
     1
 10
192.317345
 20
-513.617762
 30
0.0
 11
192.317345
 21
-495.617762
 31
0.0
  0
LINE
  8
0
  6
BYLAYER
 62
     1
 10
190.817345
 20
-512.117762
 30
0.0
 11
190.817345
 21
-495.617762
 31
0.0
  0
LINE
  8
0
  6
BYLAYER
 62
     1
 10
222.317345
 20
-513.617762
 30
0.0
 11
192.317345
 21
-513.617762
 31
0.0
  0
LINE
  8
0
  6
BYLAYER
 62
     1
 10
192.317345
 20
-513.617762
 30
0.0
 11
190.817345
 21
-512.117762
 31
0.0
  0
LINE
  8
0
  6
BYLAYER
 62
     1
 10
133.817345
 20
-430.117762
 30
0.0
 11
190.817345
 21
-430.117762
 31
0.0
  0
LINE
  8
0
  6
BYLAYER
 62
     1
 10
190.817345
 20
-512.117762
 30
0.0
 11
133.817345
 21
-512.117762
 31
0.0
  0
CIRCLE
  8
0
  6
BYLAYER
 62
     1
 10
202.317345
 20
-506.117762
 30
0.0
 40
4.25
  0
LINE
  8
0
  6
BYLAYER
 62
     1
 10
102.317345
 20
-513.617762
 30
0.0
 11
102.317345
 21
-428.617762
 31
0.0
  0
LINE
  8
0
  6
BYLAYER
 62
     1
 10
102.317345
 20
-495.617762
 30
0.0
 11
222.317345
 21
-495.617762
 31
0.0
  0
ARC
  8
0
  6
BYLAYER
 62
     1
 10
121.317345
 20
-447.617762
 30
0.0
 40
1.0
 50
90.0
 51
180.000003
  0
LINE
  8
0
  6
BYLAYER
 62
     1
 10
102.317345
 20
-446.617762
 30
0.0
 11
222.317345
 21
-446.617762
 31
0.0
  0
ARC
  8
0
  6
BYLAYER
 62
     1
 10
121.317345
 20
-494.617762
 30
0.0
 40
1.000000
 50
180.000000
 51
270.000009
  0
ARC
  8
0
  6
BYLAYER
 62
     1
 10
203.317345
 20
-447.617762
 30
0.0
 40
1.0
 50
0.0
 51
90.000016
  0
ARC
  8
0
  6
BYLAYER
 62
     1
 10
203.317345
 20
-494.617762
 30
0.0
 40
1.000000
 50
270.0
 51
360.000009
  0
ARC
  8
0
  6
BYLAYER
 62
     1
 10
156.317345
 20
-491.117762
 30
0.0
 40
1.0
 50
270.0
 51
450.000005
  0
ARC
  8
0
  6
BYLAYER
 62
     1
 10
168.317345
 20
-491.117762
 30
0.0
 40
1.0
 50
90.0
 51
269.999991
  0
LINE
  8
0
  6
BYLAYER
 62
     1
 10
223.317345
 20
-508.617762
 30
0.0
 11
222.317345
 21
-508.652674
 31
0.0
  0
LINE
  8
0
  6
BYLAYER
 62
     1
 10
223.317345
 20
-433.617762
 30
0.0
 11
222.317345
 21
-433.582850
 31
0.0
  0
LINE
  8
0
  6
BYLAYER
 62
     1
 10
223.317345
 20
-433.617762
 30
0.0
 11
223.317345
 21
-508.617762
 31
0.0
  0
LINE
  8
0
  6
BYLAYER
 62
     1
 10
204.317345
 20
-449.117762
 30
0.0
 11
204.317345
 21
-447.617762
 31
0.0
  0
LINE
  8
0
  6
BYLAYER
 62
     1
 10
168.317345
 20
-450.117762
 30
0.0
 11
203.317345
 21
-450.117732
 31
0.0
  0
ARC
  8
0
  6
BYLAYER
 62
     1
 10
203.317345
 20
-449.117762
 30
0.0
 40
1.0
 50
270.0
 51
360.000003
  0
LINE
  8
0
  6
BYLAYER
 62
     1
 10
168.317345
 20
-452.117762
 30
0.0
 11
203.317345
 21
-452.117732
 31
0.0
  0
ARC
  8
0
  6
BYLAYER
 62
     1
 10
203.317345
 20
-453.117762
 30
0.0
 40
1.000031
 50
0.0
 51
90.000003
  0
LINE
  8
0
  6
BYLAYER
 62
     1
 10
204.317345
 20
-459.117747
 30
0.0
 11
204.317345
 21
-453.117762
 31
0.0
  0
LINE
  8
0
  6
BYLAYER
 62
     1
 10
194.317345
 20
-460.117747
 30
0.0
 11
203.317345
 21
-460.117747
 31
0.0
  0
ARC
  8
0
  6
BYLAYER
 62
     1
 10
203.317345
 20
-459.117747
 30
0.0
 40
1.0
 50
270.0
 51
360.000003
  0
LINE
  8
0
  6
BYLAYER
 62
     1
 10
194.317345
 20
-462.117747
 30
0.0
 11
203.317345
 21
-462.117747
 31
0.0
  0
ARC
  8
0
  6
BYLAYER
 62
     1
 10
203.317345
 20
-463.117747
 30
0.0
 40
1.000000
 50
0.0
 51
90.000003
  0
LINE
  8
0
  6
BYLAYER
 62
     1
 10
203.317345
 20
-470.117747
 30
0.0
 11
193.092369
 21
-470.117747
 31
0.0
  0
LINE
  8
0
  6
BYLAYER
 62
     1
 10
204.317345
 20
-469.117747
 30
0.0
 11
204.317345
 21
-463.117747
 31
0.0
  0
ARC
  8
0
  6
BYLAYER
 62
     1
 10
203.317345
 20
-469.117747
 30
0.0
 40
1.0
 50
270.0
 51
360.000003
  0
LINE
  8
0
  6
BYLAYER
 62
     1
 10
203.317345
 20
-472.117747
 30
0.0
 11
193.092369
 21
-472.117747
 31
0.0
  0
ARC
  8
0
  6
BYLAYER
 62
     1
 10
203.317345
 20
-473.117732
 30
0.0
 40
0.999985
 50
0.0
 51
90.000003
  0
LINE
  8
0
  6
BYLAYER
 62
     1
 10
194.317345
 20
-480.117732
 30
0.0
 11
203.317345
 21
-480.117732
 31
0.0
  0
LINE
  8
0
  6
BYLAYER
 62
     1
 10
204.317345
 20
-479.117732
 30
0.0
 11
204.317345
 21
-473.117732
 31
0.0
  0
ARC
  8
0
  6
BYLAYER
 62
     1
 10
203.317345
 20
-479.117732
 30
0.0
 40
1.000000
 50
270.0
 51
360.000003
  0
LINE
  8
0
  6
BYLAYER
 62
     1
 10
194.317345
 20
-482.117732
 30
0.0
 11
203.317345
 21
-482.117732
 31
0.0
  0
ARC
  8
0
  6
BYLAYER
 62
     1
 10
203.317345
 20
-483.117732
 30
0.0
 40
1.000000
 50
0.0
 51
90.000003
  0
LINE
  8
0
  6
BYLAYER
 62
     1
 10
168.317345
 20
-490.117762
 30
0.0
 11
203.317345
 21
-490.117762
 31
0.0
  0
LINE
  8
0
  6
BYLAYER
 62
     1
 10
204.317345
 20
-489.117732
 30
0.0
 11
204.317345
 21
-483.117732
 31
0.0
  0
ARC
  8
0
  6
BYLAYER
 62
     1
 10
203.317345
 20
-489.117732
 30
0.0
 40
1.000031
 50
270.0
 51
360.000003
  0
LINE
  8
0
  6
BYLAYER
 62
     1
 10
168.317345
 20
-492.117762
 30
0.0
 11
203.317345
 21
-492.117762
 31
0.0
  0
LINE
  8
0
  6
BYLAYER
 62
     1
 10
204.317345
 20
-494.617762
 30
0.0
 11
204.317345
 21
-493.117732
 31
0.0
  0
ARC
  8
0
  6
BYLAYER
 62
     1
 10
203.317345
 20
-493.117732
 30
0.0
 40
0.999969
 50
0.0
 51
90.000003
  0
LINE
  8
0
  6
BYLAYER
 62
     1
 10
120.317345
 20
-449.117732
 30
0.0
 11
120.317345
 21
-447.617762
 31
0.0
  0
LINE
  8
0
  6
BYLAYER
 62
     1
 10
121.317345
 20
-450.117732
 30
0.0
 11
156.317345
 21
-450.117762
 31
0.0
  0
ARC
  8
0
  6
BYLAYER
 62
     1
 10
121.317345
 20
-449.117732
 30
0.0
 40
1.0
 50
180.000000
 51
269.999996
  0
LINE
  8
0
  6
BYLAYER
 62
     1
 10
121.317345
 20
-452.117732
 30
0.0
 11
156.317345
 21
-452.117762
 31
0.0
  0
ARC
  8
0
  6
BYLAYER
 62
     1
 10
121.317345
 20
-453.117732
 30
0.0
 40
1.0
 50
90.0
 51
180.000003
  0
LINE
  8
0
  6
BYLAYER
 62
     1
 10
120.317345
 20
-459.117732
 30
0.0
 11
120.317345
 21
-453.117732
 31
0.0
  0
LINE
  8
0
  6
BYLAYER
 62
     1
 10
121.317345
 20
-460.117716
 30
0.0
 11
174.317345
 21
-460.117747
 31
0.0
  0
ARC
  8
0
  6
BYLAYER
 62
     1
 10
121.317345
 20
-459.117732
 30
0.0
 40
1.0
 50
180.000000
 51
269.999996
  0
LINE
  8
0
  6
BYLAYER
 62
     1
 10
121.317345
 20
-462.117716
 30
0.0
 11
174.317345
 21
-462.117747
 31
0.0
  0
ARC
  8
0
  6
BYLAYER
 62
     1
 10
121.317345
 20
-463.117732
 30
0.0
 40
1.000015
 50
90.0
 51
180.000003
  0
LINE
  8
0
  6
BYLAYER
 62
     1
 10
120.317345
 20
-469.117732
 30
0.0
 11
120.317345
 21
-463.117732
 31
0.0
  0
LINE
  8
0
  6
BYLAYER
 62
     1
 10
169.317345
 20
-470.117747
 30
0.0
 11
121.317345
 21
-470.117716
 31
0.0
  0
ARC
  8
0
  6
BYLAYER
 62
     1
 10
121.317345
 20
-469.117732
 30
0.0
 40
1.0
 50
180.000000
 51
269.999996
  0
LINE
  8
0
  6
BYLAYER
 62
     1
 10
169.317345
 20
-472.117747
 30
0.0
 11
121.317345
 21
-472.117716
 31
0.0
  0
ARC
  8
0
  6
BYLAYER
 62
     1
 10
121.317345
 20
-473.117732
 30
0.0
 40
1.0
 50
90.0
 51
180.000003
  0
LINE
  8
0
  6
BYLAYER
 62
     1
 10
120.317345
 20
-479.117732
 30
0.0
 11
120.317345
 21
-473.117732
 31
0.0
  0
LINE
  8
0
  6
BYLAYER
 62
     1
 10
174.317345
 20
-480.117732
 30
0.0
 11
121.317345
 21
-480.117732
 31
0.0
  0
ARC
  8
0
  6
BYLAYER
 62
     1
 10
121.317345
 20
-479.117732
 30
0.0
 40
1.0
 50
180.000000
 51
269.999996
  0
LINE
  8
0
  6
BYLAYER
 62
     1
 10
174.317345
 20
-482.117732
 30
0.0
 11
121.317345
 21
-482.117732
 31
0.0
  0
ARC
  8
0
  6
BYLAYER
 62
     1
 10
121.317345
 20
-483.117732
 30
0.0
 40
1.0
 50
90.0
 51
180.000003
  0
LINE
  8
0
  6
BYLAYER
 62
     1
 10
120.317345
 20
-489.117762
 30
0.0
 11
120.317345
 21
-483.117732
 31
0.0
  0
LINE
  8
0
  6
BYLAYER
 62
     1
 10
121.317345
 20
-490.117762
 30
0.0
 11
156.317345
 21
-490.117762
 31
0.0
  0
ARC
  8
0
  6
BYLAYER
 62
     1
 10
121.317345
 20
-489.117762
 30
0.0
 40
1.0
 50
180.000000
 51
269.999996
  0
LINE
  8
0
  6
BYLAYER
 62
     1
 10
121.317345
 20
-492.117762
 30
0.0
 11
156.317345
 21
-492.117762
 31
0.0
  0
LINE
  8
0
  6
BYLAYER
 62
     1
 10
120.317345
 20
-494.617762
 30
0.0
 11
120.317345
 21
-493.117762
 31
0.0
  0
ARC
  8
0
  6
BYLAYER
 62
     1
 10
121.317345
 20
-493.117762
 30
0.0
 40
1.0
 50
90.0
 51
180.000003
  0
LINE
  8
0
  6
BYLAYER
 62
     1
 10
217.317345
 20
-494.617762
 30
0.0
 11
217.317345
 21
-447.617762
 31
0.0
  0
ARC
  8
0
  6
BYLAYER
 62
     1
 10
216.317345
 20
-447.617762
 30
0.0
 40
1.0
 50
0.0
 51
90.000016
  0
ARC
  8
0
  6
BYLAYER
 62
     1
 10
216.317345
 20
-494.617762
 30
0.0
 40
1.000000
 50
270.0
 51
360.000009
  0
LINE
  8
0
  6
BYLAYER
 62
     1
 10
127.317345
 20
-514.617732
 30
0.0
 11
127.317345
 21
-516.117732
 31
0.0
  0
LINE
  8
0
  6
BYLAYER
 62
     1
 10
127.317345
 20
-516.117732
 30
0.0
 11
128.317345
 21
-517.117732
 31
0.0
  0
LINE
  8
0
  6
BYLAYER
 62
     1
 10
128.317345
 20
-517.117732
 30
0.0
 11
196.317467
 21
-517.117732
 31
0.0
  0
LINE
  8
0
  6
BYLAYER
 62
     1
 10
112.282311
 20
-513.617732
 30
0.0
 11
112.317345
 21
-514.617732
 31
0.0
  0
LINE
  8
0
  6
BYLAYER
 62
     1
 10
112.282433
 20
-513.617732
 30
0.0
 11
112.317345
 21
-514.617732
 31
0.0
  0
LINE
  8
0
  6
BYLAYER
 62
     1
 10
212.317467
 20
-514.617732
 30
0.0
 11
112.317345
 21
-514.617732
 31
0.0
  0
LINE
  8
0
  6
BYLAYER
 62
     1
 10
197.317345
 20
-514.617732
 30
0.0
 11
197.317345
 21
-516.117732
 31
0.0
  0
LINE
  8
0
  6
BYLAYER
 62
     1
 10
197.317345
 20
-516.117732
 30
0.0
 11
196.317345
 21
-517.117732
 31
0.0
  0
LINE
  8
0
  6
BYLAYER
 62
     1
 10
212.352379
 20
-513.617732
 30
0.0
 11
212.317345
 21
-514.617732
 31
0.0
  0
LINE
  8
0
  6
BYLAYER
 62
     1
 10
212.352257
 20
-513.617732
 30
0.0
 11
212.317345
 21
-514.617732
 31
0.0
  0
ARC
  8
0
  6
BYLAYER
 62
     1
 10
169.317345
 20
-471.117747
 30
0.0
 40
1.0
 50
270.0
 51
450.000005
  0
ARC
  8
0
  6
BYLAYER
 62
     1
 10
168.317345
 20
-451.117762
 30
0.0
 40
1.0
 50
90.0
 51
270.000005
  0
ARC
  8
0
  6
BYLAYER
 62
     1
 10
156.317345
 20
-451.117762
 30
0.0
 40
1.0
 50
270.0
 51
450.000005
  0
ARC
  8
0
  6
BYLAYER
 62
     1
 10
184.317345
 20
-471.117747
 30
0.0
 40
8.000080
 50
12.839588
 51
347.160409
  0
CIRCLE
  8
0
  6
BYLAYER
 62
     1
 10
184.317345
 20
-471.117747
 30
0.0
 40
4.25
  0
ARC
  8
0
  6
BYLAYER
 62
     1
 10
174.317345
 20
-481.117732
 30
0.0
 40
1.0
 50
270.0
 51
450.000005
  0
ARC
  8
0
  6
BYLAYER
 62
     1
 10
194.317345
 20
-481.117732
 30
0.0
 40
1.0
 50
90.0
 51
269.999991
  0
ARC
  8
0
  6
BYLAYER
 62
     1
 10
193.092369
 20
-473.117732
 30
0.0
 40
0.999982
 50
90.0
 51
167.160394
  0
ARC
  8
0
  6
BYLAYER
 62
     1
 10
193.092369
 20
-469.117747
 30
0.0
 40
0.999978
 50
192.839613
 51
270.000001
  0
ARC
  8
0
  6
BYLAYER
 62
     1
 10
174.317345
 20
-461.117747
 30
0.0
 40
1.0
 50
270.0
 51
450.000005
  0
ARC
  8
0
  6
BYLAYER
 62
     1
 10
194.317345
 20
-461.117747
 30
0.0
 40
1.0
 50
90.0
 51
269.999991
  0
ARC
  8
0
  6
BYLAYER
 62
     1
 10
233.317406
 20
-218.643138
 30
0.0
 40
2.000059
 50
180.000000
 51
266.999958
  0
LINE
  8
0
  6
BYLAYER
 62
     1
 10
242.317406
 20
-121.117747
 30
0.0
 11
242.317406
 21
-203.617625
 31
0.0
  0
LINE
  8
0
  6
BYLAYER
 62
     1
 10
223.317406
 20
-159.117747
 30
0.0
 11
223.317406
 21
-121.117747
 31
0.0
  0
LINE
  8
0
  6
BYLAYER
 62
     1
 10
223.317406
 20
-159.117747
 30
0.0
 11
223.730919
 21
-159.139353
 31
0.0
  0
ARC
  8
0
  6
BYLAYER
 62
     1
 10
223.704735
 20
-159.638743
 30
0.0
 40
0.500015
 50
15.000011
 51
86.999459
  0
LINE
  8
0
  6
BYLAYER
 62
     1
 10
231.249260
 20
-185.863352
 30
0.0
 11
224.187706
 21
-159.509226
 31
0.0
  0
LINE
  8
0
  6
BYLAYER
 62
     1
 10
231.317406
 20
-218.643138
 30
0.0
 11
231.317406
 21
-121.117747
 31
0.0
  0
ARC
  8
0
  6
BYLAYER
 62
     1
 10
229.317406
 20
-186.381053
 30
0.0
 40
2.000003
 50
0.0
 51
15.000011
  0
LINE
  8
0
  6
BYLAYER
 62
     1
 10
231.317406
 20
-203.486888
 30
0.0
 11
224.490258
 21
-160.638377
 31
0.0
  0
LINE
  8
0
  6
BYLAYER
 62
     1
 10
233.212670
 20
-220.640452
 30
0.0
 11
242.317406
 21
-221.117674
 31
0.0
  0
LINE
  8
0
  6
BYLAYER
 62
     1
 10
242.317406
 20
-221.117674
 30
0.0
 11
242.317406
 21
-203.617625
 31
0.0
  0
ARC
  8
0
  6
BYLAYER
 62
     1
 10
233.317406
 20
-23.592234
 30
0.0
 40
2.000059
 50
93.000067
 51
180.000025
  0
LINE
  8
0
  6
BYLAYER
 62
     1
 10
242.317406
 20
-121.117747
 30
0.0
 11
242.317406
 21
-38.617747
 31
0.0
  0
LINE
  8
0
  6
BYLAYER
 62
     1
 10
223.317406
 20
-83.117747
 30
0.0
 11
223.317406
 21
-121.117747
 31
0.0
  0
LINE
  8
0
  6
BYLAYER
 62
     1
 10
223.317406
 20
-83.117747
 30
0.0
 11
223.730919
 21
-83.096018
 31
0.0
  0
ARC
  8
0
  6
BYLAYER
 62
     1
 10
223.704735
 20
-82.596751
 30
0.0
 40
0.500015
 50
273.000530
 51
344.999979
  0
LINE
  8
0
  6
BYLAYER
 62
     1
 10
231.249260
 20
-56.372019
 30
0.0
 11
224.187706
 21
-82.726145
 31
0.0
  0
LINE
  8
0
  6
BYLAYER
 62
     1
 10
231.317406
 20
-23.592234
 30
0.0
 11
231.317406
 21
-121.117747
 31
0.0
  0
ARC
  8
0
  6
BYLAYER
 62
     1
 10
229.317406
 20
-55.854441
 30
0.0
 40
2.000003
 50
344.999986
 51
359.999996
  0
LINE
  8
0
  6
BYLAYER
 62
     1
 10
231.317406
 20
-38.748484
 30
0.0
 11
224.490258
 21
-81.596995
 31
0.0
  0
LINE
  8
0
  6
BYLAYER
 62
     1
 10
233.212670
 20
-21.594920
 30
0.0
 11
242.317406
 21
-21.117698
 31
0.0
  0
LINE
  8
0
  6
BYLAYER
 62
     1
 10
242.317406
 20
-21.117698
 30
0.0
 11
242.317406
 21
-38.617747
 31
0.0
  0
LINE
  8
0
  6
BYLAYER
 62
     1
 10
722.817406
 20
-229.031932
 30
0.0
 11
673.817406
 21
-229.031932
 31
0.0
  0
LINE
  8
0
  6
BYLAYER
 62
     1
 10
654.817406
 20
-211.160792
 30
0.0
 11
654.817406
 21
-221.117747
 31
0.0
  0
LINE
  8
0
  6
BYLAYER
 62
     1
 10
655.817406
 20
-221.152720
 30
0.0
 11
654.817406
 21
-221.117747
 31
0.0
  0
LINE
  8
0
  6
BYLAYER
 62
     1
 10
655.817406
 20
-221.152842
 30
0.0
 11
654.817406
 21
-221.117747
 31
0.0
  0
LINE
  8
0
  6
BYLAYER
 62
     1
 10
722.817406
 20
-218.070055
 30
0.0
 11
722.817406
 21
-231.117747
 31
0.0
  0
LINE
  8
0
  6
BYLAYER
 62
     1
 10
673.817406
 20
-218.070055
 30
0.0
 11
673.817406
 21
-231.117747
 31
0.0
  0
LINE
  8
0
  6
BYLAYER
 62
     1
 10
741.817406
 20
-211.160792
 30
0.0
 11
741.817406
 21
-221.117747
 31
0.0
  0
LINE
  8
0
  6
BYLAYER
 62
     1
 10
740.817406
 20
-211.637082
 30
0.0
 11
740.817406
 21
-231.117747
 31
0.0
  0
ARC
  8
0
  6
BYLAYER
 62
     1
 10
733.317406
 20
-211.117747
 30
0.0
 40
4.250000
 50
254.414177
 51
328.086834
  0
LINE
  8
0
  6
BYLAYER
 62
     1
 10
740.817406
 20
-221.152720
 30
0.0
 11
741.817406
 21
-221.117747
 31
0.0
  0
LINE
  8
0
  6
BYLAYER
 62
     1
 10
740.817406
 20
-221.152842
 30
0.0
 11
741.817406
 21
-221.117747
 31
0.0
  0
ARC
  8
0
  6
BYLAYER
 62
     1
 10
663.317406
 20
-211.117747
 30
0.0
 40
4.250000
 50
211.913166
 51
285.585823
  0
LINE
  8
0
  6
BYLAYER
 62
     1
 10
740.817406
 20
-231.117747
 30
0.0
 11
722.817406
 21
-231.117747
 31
0.0
  0
LINE
  8
0
  6
BYLAYER
 62
     1
 10
673.817406
 20
-231.117747
 30
0.0
 11
655.817406
 21
-231.117747
 31
0.0
  0
LINE
  8
0
  6
BYLAYER
 62
     1
 10
655.817406
 20
-231.117747
 30
0.0
 11
655.817406
 21
-211.637082
 31
0.0
  0
ARC
  8
0
  6
BYLAYER
 62
     7
 10
698.317406
 20
-121.117747
 30
0.0
 40
100.000000
 50
111.715617
 51
428.284383
  0
ARC
  8
0
  6
BYLAYER
 62
     7
 10
639.981102
 20
-179.454051
 30
0.0
 40
5.500000
 50
97.222120
 51
352.777880
  0
ARC
  8
0
  6
BYLAYER
 62
     7
 10
756.653710
 20
-179.454051
 30
0.0
 40
5.5
 50
187.222120
 51
442.777880
  0
ARC
  8
0
  6
BYLAYER
 62
     7
 10
756.653710
 20
-62.781443
 30
0.0
 40
5.500000
 50
277.222120
 51
532.777880
  0
ARC
  8
0
  6
BYLAYER
 62
     7
 10
639.981102
 20
-62.781443
 30
0.0
 40
5.500000
 50
7.222120
 51
262.777880
  0
LINE
  8
0
  6
BYLAYER
 62
     7
 10
746.836628
 20
-183.779119
 30
0.0
 11
756.767327
 21
-193.709819
 31
0.0
  0
ARC
  8
0
  6
BYLAYER
 62
     7
 10
754.999550
 20
-195.477580
 30
0.0
 40
2.500003
 50
307.317094
 51
404.999875
  0
ARC
  8
0
  6
BYLAYER
 62
     7
 10
698.317406
 20
-121.117747
 30
0.0
 40
96.000000
 50
273.065417
 51
307.317122
  0
ARC
  8
0
  6
BYLAYER
 62
     7
 10
703.317406
 20
-214.483958
 30
0.0
 40
2.500000
 50
180.000000
 51
273.065385
  0
LINE
  8
0
  6
BYLAYER
 62
     7
 10
700.817406
 20
-200.328305
 30
0.0
 11
700.817406
 21
-214.483958
 31
0.0
  0
LINE
  8
0
  6
BYLAYER
 62
     7
 10
649.798184
 20
-183.779119
 30
0.0
 11
639.867485
 21
-193.709819
 31
0.0
  0
ARC
  8
0
  6
BYLAYER
 62
     7
 10
641.635262
 20
-195.477580
 30
0.0
 40
2.500003
 50
135.000123
 51
232.682907
  0
ARC
  8
0
  6
BYLAYER
 62
     7
 10
698.317406
 20
-121.117747
 30
0.0
 40
96.0
 50
232.682880
 51
266.934584
  0
ARC
  8
0
  6
BYLAYER
 62
     7
 10
693.317406
 20
-214.483958
 30
0.0
 40
2.500000
 50
266.934629
 51
360.0
  0
LINE
  8
0
  6
BYLAYER
 62
     7
 10
695.817406
 20
-200.328305
 30
0.0
 11
695.817406
 21
-214.483958
 31
0.0
  0
LINE
  8
0
  6
BYLAYER
 62
     7
 10
760.978778
 20
-72.598525
 30
0.0
 11
770.909478
 21
-62.667826
 31
0.0
  0
ARC
  8
0
  6
BYLAYER
 62
     7
 10
772.677239
 20
-64.435588
 30
0.0
 40
2.499997
 50
37.317104
 51
134.999877
  0
ARC
  8
0
  6
BYLAYER
 62
     7
 10
698.317406
 20
-121.117747
 30
0.0
 40
96.0
 50
3.065426
 51
37.317131
  0
ARC
  8
0
  6
BYLAYER
 62
     7
 10
791.683617
 20
-116.117747
 30
0.0
 40
2.5
 50
270.0
 51
363.065398
  0
LINE
  8
0
  6
BYLAYER
 62
     7
 10
777.527964
 20
-118.617747
 30
0.0
 11
791.683617
 21
-118.617747
 31
0.0
  0
LINE
  8
0
  6
BYLAYER
 62
     7
 10
760.978778
 20
-169.636969
 30
0.0
 11
770.909478
 21
-179.567668
 31
0.0
  0
ARC
  8
0
  6
BYLAYER
 62
     7
 10
772.677239
 20
-177.799891
 30
0.0
 40
2.499997
 50
225.000119
 51
322.682916
  0
ARC
  8
0
  6
BYLAYER
 62
     7
 10
698.317406
 20
-121.117747
 30
0.0
 40
96.0
 50
322.682889
 51
356.934594
  0
ARC
  8
0
  6
BYLAYER
 62
     7
 10
791.683617
 20
-126.117747
 30
0.0
 40
2.5
 50
356.934632
 51
450.0
  0
LINE
  8
0
  6
BYLAYER
 62
     7
 10
777.527964
 20
-123.617747
 30
0.0
 11
791.683617
 21
-123.617747
 31
0.0
  0
LINE
  8
0
  6
BYLAYER
 62
     7
 10
649.798172
 20
-58.456384
 30
0.0
 11
639.867485
 21
-48.525706
 31
0.0
  0
ARC
  8
0
  6
BYLAYER
 62
     7
 10
641.635247
 20
-46.757945
 30
0.0
 40
2.499992
 50
127.317117
 51
224.999873
  0
ARC
  8
0
  6
BYLAYER
 62
     7
 10
698.317406
 20
-121.117747
 30
0.0
 40
96.000000
 50
112.669610
 51
127.317117
  0
LINE
  8
0
  6
BYLAYER
 62
     7
 10
746.836624
 20
-58.456371
 30
0.0
 11
756.767311
 21
-48.525675
 31
0.0
  0
ARC
  8
0
  6
BYLAYER
 62
     7
 10
754.999550
 20
-46.757914
 30
0.0
 40
2.499992
 50
315.000128
 51
412.682926
  0
ARC
  8
0
  6
BYLAYER
 62
     7
 10
698.317406
 20
-121.117747
 30
0.0
 40
96.000000
 50
52.682871
 51
67.330390
  0
LINE
  8
0
  6
BYLAYER
 62
     7
 10
635.656034
 20
-169.636969
 30
0.0
 11
625.725334
 21
-179.567668
 31
0.0
  0
ARC
  8
0
  6
BYLAYER
 62
     7
 10
623.957573
 20
-177.799891
 30
0.0
 40
2.499997
 50
217.317099
 51
314.999882
  0
ARC
  8
0
  6
BYLAYER
 62
     7
 10
698.317406
 20
-121.117747
 30
0.0
 40
96.0
 50
183.065394
 51
217.317099
  0
ARC
  8
0
  6
BYLAYER
 62
     7
 10
604.951195
 20
-126.117747
 30
0.0
 40
2.5
 50
90.0
 51
183.065378
  0
LINE
  8
0
  6
BYLAYER
 62
     7
 10
619.106848
 20
-123.617747
 30
0.0
 11
604.951195
 21
-123.617747
 31
0.0
  0
LINE
  8
0
  6
BYLAYER
 62
     7
 10
635.656034
 20
-72.598525
 30
0.0
 11
625.725334
 21
-62.667826
 31
0.0
  0
ARC
  8
0
  6
BYLAYER
 62
     7
 10
623.957573
 20
-64.435588
 30
0.0
 40
2.499997
 50
45.000111
 51
142.682911
  0
ARC
  8
0
  6
BYLAYER
 62
     7
 10
698.317406
 20
-121.117747
 30
0.0
 40
96.0
 50
142.682911
 51
176.934616
  0
ARC
  8
0
  6
BYLAYER
 62
     7
 10
604.951195
 20
-116.117747
 30
0.0
 40
2.5
 50
176.934616
 51
269.999973
  0
LINE
  8
0
  6
BYLAYER
 62
     7
 10
619.106848
 20
-118.617747
 30
0.0
 11
604.951195
 21
-118.617747
 31
0.0
  0
LINE
  8
0
  6
BYLAYER
 62
     7
 10
661.317406
 20
-33.117716
 30
0.0
 11
661.317406
 21
-51.035206
 31
0.0
  0
LINE
  8
0
  6
BYLAYER
 62
     7
 10
735.317406
 20
-33.117716
 30
0.0
 11
735.317406
 21
-51.035206
 31
0.0
  0
LINE
  8
0
  6
BYLAYER
 62
     7
 10
661.317406
 20
-37.617716
 30
0.0
 11
664.317406
 21
-42.813853
 31
0.0
  0
LINE
  8
0
  6
BYLAYER
 62
     7
 10
735.317406
 20
-37.617716
 30
0.0
 11
732.317406
 21
-42.813853
 31
0.0
  0
LINE
  8
0
  6
BYLAYER
 62
     7
 10
664.317406
 20
-42.813853
 30
0.0
 11
664.317406
 21
-49.531697
 31
0.0
  0
LINE
  8
0
  6
BYLAYER
 62
     7
 10
732.317406
 20
-42.813853
 30
0.0
 11
732.317406
 21
-49.531697
 31
0.0
  0
LINE
  8
0
  6
BYLAYER
 62
     7
 10
735.317406
 20
-33.117655
 30
0.0
 11
661.317406
 21
-33.117655
 31
0.0
  0
CIRCLE
  8
0
  6
BYLAYER
 62
     7
 10
698.317406
 20
-121.117747
 30
0.0
 40
59.0
  0
CIRCLE
  8
0
  6
BYLAYER
 62
     7
 10
698.317406
 20
-121.117747
 30
0.0
 40
64.487732
  0
CIRCLE
  8
0
  6
BYLAYER
 62
     7
 10
698.317406
 20
-121.117747
 30
0.0
 40
79.25
  0
LINE
  8
0
  6
BYLAYER
 62
     7
 10
699.317406
 20
-92.117747
 30
0.0
 11
699.317406
 21
-100.117747
 31
0.0
  0
LINE
  8
0
  6
BYLAYER
 62
     7
 10
699.317406
 20
-82.117747
 30
0.0
 11
699.317406
 21
-90.117747
 31
0.0
  0
LINE
  8
0
  6
BYLAYER
 62
     7
 10
707.317406
 20
-90.117747
 30
0.0
 11
707.317406
 21
-82.117747
 31
0.0
  0
LINE
  8
0
  6
BYLAYER
 62
     7
 10
709.317406
 20
-90.117747
 30
0.0
 11
709.317406
 21
-82.117747
 31
0.0
  0
LINE
  8
0
  6
BYLAYER
 62
     7
 10
699.317406
 20
-100.117747
 30
0.0
 11
707.317406
 21
-100.117747
 31
0.0
  0
LINE
  8
0
  6
BYLAYER
 62
     7
 10
699.317406
 20
-92.117747
 30
0.0
 11
707.317406
 21
-92.117747
 31
0.0
  0
LINE
  8
0
  6
BYLAYER
 62
     7
 10
709.317406
 20
-90.117747
 30
0.0
 11
717.155405
 21
-90.117747
 31
0.0
  0
LINE
  8
0
  6
BYLAYER
 62
     7
 10
699.317406
 20
-90.117747
 30
0.0
 11
707.317406
 21
-90.117747
 31
0.0
  0
LINE
  8
0
  6
BYLAYER
 62
     7
 10
709.317406
 20
-82.117747
 30
0.0
 11
717.155405
 21
-82.117747
 31
0.0
  0
LINE
  8
0
  6
BYLAYER
 62
     7
 10
699.317406
 20
-82.117747
 30
0.0
 11
707.317406
 21
-82.117747
 31
0.0
  0
LINE
  8
0
  6
BYLAYER
 62
     7
 10
717.155405
 20
-90.117747
 30
0.0
 11
717.155405
 21
-82.117747
 31
0.0
  0
LINE
  8
0
  6
BYLAYER
 62
     7
 10
707.317406
 20
-100.117747
 30
0.0
 11
707.317406
 21
-92.117747
 31
0.0
  0
LINE
  8
0
  6
BYLAYER
 62
     7
 10
709.317406
 20
-92.117747
 30
0.0
 11
709.317406
 21
-100.117747
 31
0.0
  0
LINE
  8
0
  6
BYLAYER
 62
     7
 10
709.317406
 20
-100.117747
 30
0.0
 11
717.317406
 21
-100.117747
 31
0.0
  0
LINE
  8
0
  6
BYLAYER
 62
     7
 10
709.317406
 20
-92.117747
 30
0.0
 11
717.317406
 21
-92.117747
 31
0.0
  0
LINE
  8
0
  6
BYLAYER
 62
     7
 10
717.317406
 20
-100.117747
 30
0.0
 11
717.317406
 21
-92.117747
 31
0.0
  0
LINE
  8
0
  6
BYLAYER
 62
     7
 10
719.317406
 20
-110.117747
 30
0.0
 11
727.317406
 21
-110.117747
 31
0.0
  0
LINE
  8
0
  6
BYLAYER
 62
     7
 10
719.317406
 20
-92.117747
 30
0.0
 11
719.317406
 21
-100.117747
 31
0.0
  0
LINE
  8
0
  6
BYLAYER
 62
     7
 10
719.317406
 20
-102.117747
 30
0.0
 11
719.317406
 21
-110.117747
 31
0.0
  0
LINE
  8
0
  6
BYLAYER
 62
     7
 10
719.317406
 20
-102.117747
 30
0.0
 11
727.317406
 21
-102.117747
 31
0.0
  0
LINE
  8
0
  6
BYLAYER
 62
     7
 10
719.317406
 20
-100.117747
 30
0.0
 11
727.317406
 21
-100.117747
 31
0.0
  0
LINE
  8
0
  6
BYLAYER
 62
     7
 10
719.317406
 20
-92.117747
 30
0.0
 11
727.317406
 21
-92.117747
 31
0.0
  0
LINE
  8
0
  6
BYLAYER
 62
     7
 10
727.317406
 20
-110.117747
 30
0.0
 11
727.317406
 21
-102.117747
 31
0.0
  0
LINE
  8
0
  6
BYLAYER
 62
     7
 10
727.317406
 20
-100.117747
 30
0.0
 11
727.317406
 21
-92.117747
 31
0.0
  0
LINE
  8
0
  6
BYLAYER
 62
     7
 10
719.317406
 20
-120.117747
 30
0.0
 11
727.317406
 21
-120.117747
 31
0.0
  0
LINE
  8
0
  6
BYLAYER
 62
     7
 10
719.317406
 20
-112.117747
 30
0.0
 11
719.317406
 21
-120.117747
 31
0.0
  0
LINE
  8
0
  6
BYLAYER
 62
     7
 10
719.317406
 20
-112.117747
 30
0.0
 11
727.317406
 21
-112.117747
 31
0.0
  0
LINE
  8
0
  6
BYLAYER
 62
     7
 10
727.317406
 20
-120.117747
 30
0.0
 11
727.317406
 21
-112.117747
 31
0.0
  0
LINE
  8
0
  6
BYLAYER
 62
     7
 10
729.317406
 20
-110.117747
 30
0.0
 11
737.317406
 21
-110.117747
 31
0.0
  0
LINE
  8
0
  6
BYLAYER
 62
     7
 10
729.317406
 20
-102.117747
 30
0.0
 11
729.317406
 21
-110.117747
 31
0.0
  0
LINE
  8
0
  6
BYLAYER
 62
     7
 10
729.317406
 20
-102.117747
 30
0.0
 11
737.317406
 21
-102.117747
 31
0.0
  0
LINE
  8
0
  6
BYLAYER
 62
     7
 10
737.317406
 20
-110.117747
 30
0.0
 11
737.317406
 21
-102.117747
 31
0.0
  0
LINE
  8
0
  6
BYLAYER
 62
     7
 10
729.317406
 20
-120.117747
 30
0.0
 11
737.317406
 21
-120.117747
 31
0.0
  0
LINE
  8
0
  6
BYLAYER
 62
     7
 10
729.317406
 20
-112.117747
 30
0.0
 11
729.317406
 21
-120.117747
 31
0.0
  0
LINE
  8
0
  6
BYLAYER
 62
     7
 10
729.317406
 20
-112.117747
 30
0.0
 11
737.317406
 21
-112.117747
 31
0.0
  0
LINE
  8
0
  6
BYLAYER
 62
     7
 10
737.317406
 20
-120.117747
 30
0.0
 11
737.317406
 21
-112.117747
 31
0.0
  0
LINE
  8
0
  6
BYLAYER
 62
     7
 10
739.317406
 20
-110.117747
 30
0.0
 11
747.317406
 21
-110.117747
 31
0.0
  0
LINE
  8
0
  6
BYLAYER
 62
     7
 10
739.317406
 20
-102.117747
 30
0.0
 11
739.317406
 21
-110.117747
 31
0.0
  0
LINE
  8
0
  6
BYLAYER
 62
     7
 10
739.317406
 20
-102.117747
 30
0.0
 11
747.317406
 21
-102.117747
 31
0.0
  0
LINE
  8
0
  6
BYLAYER
 62
     7
 10
747.317406
 20
-110.117747
 30
0.0
 11
747.317406
 21
-102.117747
 31
0.0
  0
LINE
  8
0
  6
BYLAYER
 62
     7
 10
739.317406
 20
-120.117747
 30
0.0
 11
747.317406
 21
-120.117747
 31
0.0
  0
LINE
  8
0
  6
BYLAYER
 62
     7
 10
739.317406
 20
-112.117747
 30
0.0
 11
739.317406
 21
-120.117747
 31
0.0
  0
LINE
  8
0
  6
BYLAYER
 62
     7
 10
739.317406
 20
-112.117747
 30
0.0
 11
747.317406
 21
-112.117747
 31
0.0
  0
LINE
  8
0
  6
BYLAYER
 62
     7
 10
747.317406
 20
-120.117747
 30
0.0
 11
747.317406
 21
-112.117747
 31
0.0
  0
LINE
  8
0
  6
BYLAYER
 62
     7
 10
699.317406
 20
-72.117747
 30
0.0
 11
699.317406
 21
-80.117747
 31
0.0
  0
LINE
  8
0
  6
BYLAYER
 62
     7
 10
707.317406
 20
-80.117747
 30
0.0
 11
707.317406
 21
-72.117747
 31
0.0
  0
LINE
  8
0
  6
BYLAYER
 62
     7
 10
709.317406
 20
-80.117747
 30
0.0
 11
709.317406
 21
-72.117747
 31
0.0
  0
LINE
  8
0
  6
BYLAYER
 62
     7
 10
709.317406
 20
-80.117747
 30
0.0
 11
717.155405
 21
-80.117747
 31
0.0
  0
LINE
  8
0
  6
BYLAYER
 62
     7
 10
699.317406
 20
-80.117747
 30
0.0
 11
707.317406
 21
-80.117747
 31
0.0
  0
LINE
  8
0
  6
BYLAYER
 62
     7
 10
709.317406
 20
-72.117747
 30
0.0
 11
717.155405
 21
-72.117747
 31
0.0
  0
LINE
  8
0
  6
BYLAYER
 62
     7
 10
699.317406
 20
-72.117747
 30
0.0
 11
707.317406
 21
-72.117747
 31
0.0
  0
LINE
  8
0
  6
BYLAYER
 62
     7
 10
717.155405
 20
-80.117747
 30
0.0
 11
717.155405
 21
-72.117747
 31
0.0
  0
LINE
  8
0
  6
BYLAYER
 62
     7
 10
719.317406
 20
-82.117747
 30
0.0
 11
719.317406
 21
-90.117747
 31
0.0
  0
LINE
  8
0
  6
BYLAYER
 62
     7
 10
719.317406
 20
-90.117747
 30
0.0
 11
727.317406
 21
-90.117747
 31
0.0
  0
LINE
  8
0
  6
BYLAYER
 62
     7
 10
719.317406
 20
-82.117747
 30
0.0
 11
727.317406
 21
-82.117747
 31
0.0
  0
LINE
  8
0
  6
BYLAYER
 62
     7
 10
727.317406
 20
-90.117747
 30
0.0
 11
727.317406
 21
-82.117747
 31
0.0
  0
LINE
  8
0
  6
BYLAYER
 62
     7
 10
719.317406
 20
-72.117747
 30
0.0
 11
719.317406
 21
-80.117747
 31
0.0
  0
LINE
  8
0
  6
BYLAYER
 62
     7
 10
719.317406
 20
-80.117747
 30
0.0
 11
727.317406
 21
-80.117747
 31
0.0
  0
LINE
  8
0
  6
BYLAYER
 62
     7
 10
719.317406
 20
-72.117747
 30
0.0
 11
727.317406
 21
-72.117747
 31
0.0
  0
LINE
  8
0
  6
BYLAYER
 62
     7
 10
727.317406
 20
-80.117747
 30
0.0
 11
727.317406
 21
-72.117747
 31
0.0
  0
LINE
  8
0
  6
BYLAYER
 62
     7
 10
729.317406
 20
-92.117747
 30
0.0
 11
729.317406
 21
-100.117747
 31
0.0
  0
LINE
  8
0
  6
BYLAYER
 62
     7
 10
729.317406
 20
-100.117747
 30
0.0
 11
737.317406
 21
-100.117747
 31
0.0
  0
LINE
  8
0
  6
BYLAYER
 62
     7
 10
729.317406
 20
-92.117747
 30
0.0
 11
737.317406
 21
-92.117747
 31
0.0
  0
LINE
  8
0
  6
BYLAYER
 62
     7
 10
737.317406
 20
-100.117747
 30
0.0
 11
737.317406
 21
-92.117747
 31
0.0
  0
LINE
  8
0
  6
BYLAYER
 62
     7
 10
729.317406
 20
-82.117747
 30
0.0
 11
729.317406
 21
-90.117747
 31
0.0
  0
LINE
  8
0
  6
BYLAYER
 62
     7
 10
729.317406
 20
-90.117747
 30
0.0
 11
737.317406
 21
-90.117747
 31
0.0
  0
LINE
  8
0
  6
BYLAYER
 62
     7
 10
729.317406
 20
-82.117747
 30
0.0
 11
737.317406
 21
-82.117747
 31
0.0
  0
LINE
  8
0
  6
BYLAYER
 62
     7
 10
737.317406
 20
-90.117747
 30
0.0
 11
737.317406
 21
-82.117747
 31
0.0
  0
LINE
  8
0
  6
BYLAYER
 62
     7
 10
739.317406
 20
-92.117747
 30
0.0
 11
739.317406
 21
-100.117747
 31
0.0
  0
LINE
  8
0
  6
BYLAYER
 62
     7
 10
739.317406
 20
-100.117747
 30
0.0
 11
747.317406
 21
-100.117747
 31
0.0
  0
LINE
  8
0
  6
BYLAYER
 62
     7
 10
739.317406
 20
-92.117747
 30
0.0
 11
747.317406
 21
-92.117747
 31
0.0
  0
LINE
  8
0
  6
BYLAYER
 62
     7
 10
747.317406
 20
-100.117747
 30
0.0
 11
747.317406
 21
-92.117747
 31
0.0
  0
LINE
  8
0
  6
BYLAYER
 62
     7
 10
699.317406
 20
-150.117747
 30
0.0
 11
699.317406
 21
-142.117747
 31
0.0
  0
LINE
  8
0
  6
BYLAYER
 62
     7
 10
699.317406
 20
-160.117747
 30
0.0
 11
699.317406
 21
-152.117747
 31
0.0
  0
LINE
  8
0
  6
BYLAYER
 62
     7
 10
707.317406
 20
-152.117747
 30
0.0
 11
707.317406
 21
-160.117747
 31
0.0
  0
LINE
  8
0
  6
BYLAYER
 62
     7
 10
709.317406
 20
-152.117747
 30
0.0
 11
709.317406
 21
-160.117747
 31
0.0
  0
LINE
  8
0
  6
BYLAYER
 62
     7
 10
699.317406
 20
-142.117747
 30
0.0
 11
707.317406
 21
-142.117747
 31
0.0
  0
LINE
  8
0
  6
BYLAYER
 62
     7
 10
699.317406
 20
-150.117747
 30
0.0
 11
707.317406
 21
-150.117747
 31
0.0
  0
LINE
  8
0
  6
BYLAYER
 62
     7
 10
709.317406
 20
-152.117747
 30
0.0
 11
717.155405
 21
-152.117747
 31
0.0
  0
LINE
  8
0
  6
BYLAYER
 62
     7
 10
699.317406
 20
-152.117747
 30
0.0
 11
707.317406
 21
-152.117747
 31
0.0
  0
LINE
  8
0
  6
BYLAYER
 62
     7
 10
709.317406
 20
-160.117747
 30
0.0
 11
717.155405
 21
-160.117747
 31
0.0
  0
LINE
  8
0
  6
BYLAYER
 62
     7
 10
699.317406
 20
-160.117747
 30
0.0
 11
707.317406
 21
-160.117747
 31
0.0
  0
LINE
  8
0
  6
BYLAYER
 62
     7
 10
717.155405
 20
-152.117747
 30
0.0
 11
717.155405
 21
-160.117747
 31
0.0
  0
LINE
  8
0
  6
BYLAYER
 62
     7
 10
707.317406
 20
-142.117747
 30
0.0
 11
707.317406
 21
-150.117747
 31
0.0
  0
LINE
  8
0
  6
BYLAYER
 62
     7
 10
709.317406
 20
-150.117747
 30
0.0
 11
709.317406
 21
-142.117747
 31
0.0
  0
LINE
  8
0
  6
BYLAYER
 62
     7
 10
709.317406
 20
-142.117747
 30
0.0
 11
717.317406
 21
-142.117747
 31
0.0
  0
LINE
  8
0
  6
BYLAYER
 62
     7
 10
709.317406
 20
-150.117747
 30
0.0
 11
717.317406
 21
-150.117747
 31
0.0
  0
LINE
  8
0
  6
BYLAYER
 62
     7
 10
717.317406
 20
-142.117747
 30
0.0
 11
717.317406
 21
-150.117747
 31
0.0
  0
LINE
  8
0
  6
BYLAYER
 62
     7
 10
719.317406
 20
-132.117747
 30
0.0
 11
727.317406
 21
-132.117747
 31
0.0
  0
LINE
  8
0
  6
BYLAYER
 62
     7
 10
719.317406
 20
-150.117747
 30
0.0
 11
719.317406
 21
-142.117747
 31
0.0
  0
LINE
  8
0
  6
BYLAYER
 62
     7
 10
719.317406
 20
-140.117747
 30
0.0
 11
719.317406
 21
-132.117747
 31
0.0
  0
LINE
  8
0
  6
BYLAYER
 62
     7
 10
719.317406
 20
-140.117747
 30
0.0
 11
727.317406
 21
-140.117747
 31
0.0
  0
LINE
  8
0
  6
BYLAYER
 62
     7
 10
719.317406
 20
-142.117747
 30
0.0
 11
727.317406
 21
-142.117747
 31
0.0
  0
LINE
  8
0
  6
BYLAYER
 62
     7
 10
719.317406
 20
-150.117747
 30
0.0
 11
727.317406
 21
-150.117747
 31
0.0
  0
LINE
  8
0
  6
BYLAYER
 62
     7
 10
727.317406
 20
-132.117747
 30
0.0
 11
727.317406
 21
-140.117747
 31
0.0
  0
LINE
  8
0
  6
BYLAYER
 62
     7
 10
727.317406
 20
-142.117747
 30
0.0
 11
727.317406
 21
-150.117747
 31
0.0
  0
LINE
  8
0
  6
BYLAYER
 62
     7
 10
719.317406
 20
-122.117747
 30
0.0
 11
727.317406
 21
-122.117747
 31
0.0
  0
LINE
  8
0
  6
BYLAYER
 62
     7
 10
719.317406
 20
-130.117747
 30
0.0
 11
719.317406
 21
-122.117747
 31
0.0
  0
LINE
  8
0
  6
BYLAYER
 62
     7
 10
719.317406
 20
-130.117747
 30
0.0
 11
727.317406
 21
-130.117747
 31
0.0
  0
LINE
  8
0
  6
BYLAYER
 62
     7
 10
727.317406
 20
-122.117747
 30
0.0
 11
727.317406
 21
-130.117747
 31
0.0
  0
LINE
  8
0
  6
BYLAYER
 62
     7
 10
729.317406
 20
-132.117747
 30
0.0
 11
737.317406
 21
-132.117747
 31
0.0
  0
LINE
  8
0
  6
BYLAYER
 62
     7
 10
729.317406
 20
-140.117747
 30
0.0
 11
729.317406
 21
-132.117747
 31
0.0
  0
LINE
  8
0
  6
BYLAYER
 62
     7
 10
729.317406
 20
-140.117747
 30
0.0
 11
737.317406
 21
-140.117747
 31
0.0
  0
LINE
  8
0
  6
BYLAYER
 62
     7
 10
737.317406
 20
-132.117747
 30
0.0
 11
737.317406
 21
-140.117747
 31
0.0
  0
LINE
  8
0
  6
BYLAYER
 62
     7
 10
729.317406
 20
-122.117747
 30
0.0
 11
737.317406
 21
-122.117747
 31
0.0
  0
LINE
  8
0
  6
BYLAYER
 62
     7
 10
729.317406
 20
-130.117747
 30
0.0
 11
729.317406
 21
-122.117747
 31
0.0
  0
LINE
  8
0
  6
BYLAYER
 62
     7
 10
729.317406
 20
-130.117747
 30
0.0
 11
737.317406
 21
-130.117747
 31
0.0
  0
LINE
  8
0
  6
BYLAYER
 62
     7
 10
737.317406
 20
-122.117747
 30
0.0
 11
737.317406
 21
-130.117747
 31
0.0
  0
LINE
  8
0
  6
BYLAYER
 62
     7
 10
739.317406
 20
-132.117747
 30
0.0
 11
747.317406
 21
-132.117747
 31
0.0
  0
LINE
  8
0
  6
BYLAYER
 62
     7
 10
739.317406
 20
-140.117747
 30
0.0
 11
739.317406
 21
-132.117747
 31
0.0
  0
LINE
  8
0
  6
BYLAYER
 62
     7
 10
739.317406
 20
-140.117747
 30
0.0
 11
747.317406
 21
-140.117747
 31
0.0
  0
LINE
  8
0
  6
BYLAYER
 62
     7
 10
747.317406
 20
-132.117747
 30
0.0
 11
747.317406
 21
-140.117747
 31
0.0
  0
LINE
  8
0
  6
BYLAYER
 62
     7
 10
739.317406
 20
-122.117747
 30
0.0
 11
747.317406
 21
-122.117747
 31
0.0
  0
LINE
  8
0
  6
BYLAYER
 62
     7
 10
739.317406
 20
-130.117747
 30
0.0
 11
739.317406
 21
-122.117747
 31
0.0
  0
LINE
  8
0
  6
BYLAYER
 62
     7
 10
739.317406
 20
-130.117747
 30
0.0
 11
747.317406
 21
-130.117747
 31
0.0
  0
LINE
  8
0
  6
BYLAYER
 62
     7
 10
747.317406
 20
-122.117747
 30
0.0
 11
747.317406
 21
-130.117747
 31
0.0
  0
LINE
  8
0
  6
BYLAYER
 62
     7
 10
699.317406
 20
-170.117747
 30
0.0
 11
699.317406
 21
-162.117747
 31
0.0
  0
LINE
  8
0
  6
BYLAYER
 62
     7
 10
707.317406
 20
-162.117747
 30
0.0
 11
707.317406
 21
-170.117747
 31
0.0
  0
LINE
  8
0
  6
BYLAYER
 62
     7
 10
709.317406
 20
-162.117747
 30
0.0
 11
709.317406
 21
-170.117747
 31
0.0
  0
LINE
  8
0
  6
BYLAYER
 62
     7
 10
709.317406
 20
-162.117747
 30
0.0
 11
717.155405
 21
-162.117747
 31
0.0
  0
LINE
  8
0
  6
BYLAYER
 62
     7
 10
699.317406
 20
-162.117747
 30
0.0
 11
707.317406
 21
-162.117747
 31
0.0
  0
LINE
  8
0
  6
BYLAYER
 62
     7
 10
709.317406
 20
-170.117747
 30
0.0
 11
717.155405
 21
-170.117747
 31
0.0
  0
LINE
  8
0
  6
BYLAYER
 62
     7
 10
699.317406
 20
-170.117747
 30
0.0
 11
707.317406
 21
-170.117747
 31
0.0
  0
LINE
  8
0
  6
BYLAYER
 62
     7
 10
717.155405
 20
-162.117747
 30
0.0
 11
717.155405
 21
-170.117747
 31
0.0
  0
LINE
  8
0
  6
BYLAYER
 62
     7
 10
719.317406
 20
-160.117747
 30
0.0
 11
719.317406
 21
-152.117747
 31
0.0
  0
LINE
  8
0
  6
BYLAYER
 62
     7
 10
719.317406
 20
-152.117747
 30
0.0
 11
727.317406
 21
-152.117747
 31
0.0
  0
LINE
  8
0
  6
BYLAYER
 62
     7
 10
719.317406
 20
-160.117747
 30
0.0
 11
727.317406
 21
-160.117747
 31
0.0
  0
LINE
  8
0
  6
BYLAYER
 62
     7
 10
727.317406
 20
-152.117747
 30
0.0
 11
727.317406
 21
-160.117747
 31
0.0
  0
LINE
  8
0
  6
BYLAYER
 62
     7
 10
719.317406
 20
-170.117747
 30
0.0
 11
719.317406
 21
-162.117747
 31
0.0
  0
LINE
  8
0
  6
BYLAYER
 62
     7
 10
719.317406
 20
-162.117747
 30
0.0
 11
727.317406
 21
-162.117747
 31
0.0
  0
LINE
  8
0
  6
BYLAYER
 62
     7
 10
719.317406
 20
-170.117747
 30
0.0
 11
727.317406
 21
-170.117747
 31
0.0
  0
LINE
  8
0
  6
BYLAYER
 62
     7
 10
727.317406
 20
-162.117747
 30
0.0
 11
727.317406
 21
-170.117747
 31
0.0
  0
LINE
  8
0
  6
BYLAYER
 62
     7
 10
729.317406
 20
-150.117747
 30
0.0
 11
729.317406
 21
-142.117747
 31
0.0
  0
LINE
  8
0
  6
BYLAYER
 62
     7
 10
729.317406
 20
-142.117747
 30
0.0
 11
737.317406
 21
-142.117747
 31
0.0
  0
LINE
  8
0
  6
BYLAYER
 62
     7
 10
729.317406
 20
-150.117747
 30
0.0
 11
737.317406
 21
-150.117747
 31
0.0
  0
LINE
  8
0
  6
BYLAYER
 62
     7
 10
737.317406
 20
-142.117747
 30
0.0
 11
737.317406
 21
-150.117747
 31
0.0
  0
LINE
  8
0
  6
BYLAYER
 62
     7
 10
729.317406
 20
-160.117747
 30
0.0
 11
729.317406
 21
-152.117747
 31
0.0
  0
LINE
  8
0
  6
BYLAYER
 62
     7
 10
729.317406
 20
-152.117747
 30
0.0
 11
737.317406
 21
-152.117747
 31
0.0
  0
LINE
  8
0
  6
BYLAYER
 62
     7
 10
729.317406
 20
-160.117747
 30
0.0
 11
737.317406
 21
-160.117747
 31
0.0
  0
LINE
  8
0
  6
BYLAYER
 62
     7
 10
737.317406
 20
-152.117747
 30
0.0
 11
737.317406
 21
-160.117747
 31
0.0
  0
LINE
  8
0
  6
BYLAYER
 62
     7
 10
739.317406
 20
-150.117747
 30
0.0
 11
739.317406
 21
-142.117747
 31
0.0
  0
LINE
  8
0
  6
BYLAYER
 62
     7
 10
739.317406
 20
-142.117747
 30
0.0
 11
747.317406
 21
-142.117747
 31
0.0
  0
LINE
  8
0
  6
BYLAYER
 62
     7
 10
739.317406
 20
-150.117747
 30
0.0
 11
747.317406
 21
-150.117747
 31
0.0
  0
LINE
  8
0
  6
BYLAYER
 62
     7
 10
747.317406
 20
-142.117747
 30
0.0
 11
747.317406
 21
-150.117747
 31
0.0
  0
LINE
  8
0
  6
BYLAYER
 62
     7
 10
697.317406
 20
-92.117747
 30
0.0
 11
697.317406
 21
-100.117747
 31
0.0
  0
LINE
  8
0
  6
BYLAYER
 62
     7
 10
697.317406
 20
-82.117747
 30
0.0
 11
697.317406
 21
-90.117747
 31
0.0
  0
LINE
  8
0
  6
BYLAYER
 62
     7
 10
689.317406
 20
-90.117747
 30
0.0
 11
689.317406
 21
-82.117747
 31
0.0
  0
LINE
  8
0
  6
BYLAYER
 62
     7
 10
687.317406
 20
-90.117747
 30
0.0
 11
687.317406
 21
-82.117747
 31
0.0
  0
LINE
  8
0
  6
BYLAYER
 62
     7
 10
697.317406
 20
-100.117747
 30
0.0
 11
689.317406
 21
-100.117747
 31
0.0
  0
LINE
  8
0
  6
BYLAYER
 62
     7
 10
697.317406
 20
-92.117747
 30
0.0
 11
689.317406
 21
-92.117747
 31
0.0
  0
LINE
  8
0
  6
BYLAYER
 62
     7
 10
687.317406
 20
-90.117747
 30
0.0
 11
679.479407
 21
-90.117747
 31
0.0
  0
LINE
  8
0
  6
BYLAYER
 62
     7
 10
697.317406
 20
-90.117747
 30
0.0
 11
689.317406
 21
-90.117747
 31
0.0
  0
LINE
  8
0
  6
BYLAYER
 62
     7
 10
687.317406
 20
-82.117747
 30
0.0
 11
679.479407
 21
-82.117747
 31
0.0
  0
LINE
  8
0
  6
BYLAYER
 62
     7
 10
697.317406
 20
-82.117747
 30
0.0
 11
689.317406
 21
-82.117747
 31
0.0
  0
LINE
  8
0
  6
BYLAYER
 62
     7
 10
679.479407
 20
-90.117747
 30
0.0
 11
679.479407
 21
-82.117747
 31
0.0
  0
LINE
  8
0
  6
BYLAYER
 62
     7
 10
689.317406
 20
-100.117747
 30
0.0
 11
689.317406
 21
-92.117747
 31
0.0
  0
LINE
  8
0
  6
BYLAYER
 62
     7
 10
687.317406
 20
-92.117747
 30
0.0
 11
687.317406
 21
-100.117747
 31
0.0
  0
LINE
  8
0
  6
BYLAYER
 62
     7
 10
687.317406
 20
-100.117747
 30
0.0
 11
679.317406
 21
-100.117747
 31
0.0
  0
LINE
  8
0
  6
BYLAYER
 62
     7
 10
687.317406
 20
-92.117747
 30
0.0
 11
679.317406
 21
-92.117747
 31
0.0
  0
LINE
  8
0
  6
BYLAYER
 62
     7
 10
679.317406
 20
-100.117747
 30
0.0
 11
679.317406
 21
-92.117747
 31
0.0
  0
LINE
  8
0
  6
BYLAYER
 62
     7
 10
677.317406
 20
-110.117747
 30
0.0
 11
669.317406
 21
-110.117747
 31
0.0
  0
LINE
  8
0
  6
BYLAYER
 62
     7
 10
677.317406
 20
-92.117747
 30
0.0
 11
677.317406
 21
-100.117747
 31
0.0
  0
LINE
  8
0
  6
BYLAYER
 62
     7
 10
677.317406
 20
-102.117747
 30
0.0
 11
677.317406
 21
-110.117747
 31
0.0
  0
LINE
  8
0
  6
BYLAYER
 62
     7
 10
677.317406
 20
-102.117747
 30
0.0
 11
669.317406
 21
-102.117747
 31
0.0
  0
LINE
  8
0
  6
BYLAYER
 62
     7
 10
677.317406
 20
-100.117747
 30
0.0
 11
669.317406
 21
-100.117747
 31
0.0
  0
LINE
  8
0
  6
BYLAYER
 62
     7
 10
677.317406
 20
-92.117747
 30
0.0
 11
669.317406
 21
-92.117747
 31
0.0
  0
LINE
  8
0
  6
BYLAYER
 62
     7
 10
669.317406
 20
-110.117747
 30
0.0
 11
669.317406
 21
-102.117747
 31
0.0
  0
LINE
  8
0
  6
BYLAYER
 62
     7
 10
669.317406
 20
-100.117747
 30
0.0
 11
669.317406
 21
-92.117747
 31
0.0
  0
LINE
  8
0
  6
BYLAYER
 62
     7
 10
677.317406
 20
-120.117747
 30
0.0
 11
669.317406
 21
-120.117747
 31
0.0
  0
LINE
  8
0
  6
BYLAYER
 62
     7
 10
677.317406
 20
-112.117747
 30
0.0
 11
677.317406
 21
-120.117747
 31
0.0
  0
LINE
  8
0
  6
BYLAYER
 62
     7
 10
677.317406
 20
-112.117747
 30
0.0
 11
669.317406
 21
-112.117747
 31
0.0
  0
LINE
  8
0
  6
BYLAYER
 62
     7
 10
669.317406
 20
-120.117747
 30
0.0
 11
669.317406
 21
-112.117747
 31
0.0
  0
LINE
  8
0
  6
BYLAYER
 62
     7
 10
667.317406
 20
-110.117747
 30
0.0
 11
659.317406
 21
-110.117747
 31
0.0
  0
LINE
  8
0
  6
BYLAYER
 62
     7
 10
667.317406
 20
-102.117747
 30
0.0
 11
667.317406
 21
-110.117747
 31
0.0
  0
LINE
  8
0
  6
BYLAYER
 62
     7
 10
667.317406
 20
-102.117747
 30
0.0
 11
659.317406
 21
-102.117747
 31
0.0
  0
LINE
  8
0
  6
BYLAYER
 62
     7
 10
659.317406
 20
-110.117747
 30
0.0
 11
659.317406
 21
-102.117747
 31
0.0
  0
LINE
  8
0
  6
BYLAYER
 62
     7
 10
667.317406
 20
-120.117747
 30
0.0
 11
659.317406
 21
-120.117747
 31
0.0
  0
LINE
  8
0
  6
BYLAYER
 62
     7
 10
667.317406
 20
-112.117747
 30
0.0
 11
667.317406
 21
-120.117747
 31
0.0
  0
LINE
  8
0
  6
BYLAYER
 62
     7
 10
667.317406
 20
-112.117747
 30
0.0
 11
659.317406
 21
-112.117747
 31
0.0
  0
LINE
  8
0
  6
BYLAYER
 62
     7
 10
659.317406
 20
-120.117747
 30
0.0
 11
659.317406
 21
-112.117747
 31
0.0
  0
LINE
  8
0
  6
BYLAYER
 62
     7
 10
657.317406
 20
-110.117747
 30
0.0
 11
649.317406
 21
-110.117747
 31
0.0
  0
LINE
  8
0
  6
BYLAYER
 62
     7
 10
657.317406
 20
-102.117747
 30
0.0
 11
657.317406
 21
-110.117747
 31
0.0
  0
LINE
  8
0
  6
BYLAYER
 62
     7
 10
657.317406
 20
-102.117747
 30
0.0
 11
649.317406
 21
-102.117747
 31
0.0
  0
LINE
  8
0
  6
BYLAYER
 62
     7
 10
649.317406
 20
-110.117747
 30
0.0
 11
649.317406
 21
-102.117747
 31
0.0
  0
LINE
  8
0
  6
BYLAYER
 62
     7
 10
657.317406
 20
-120.117747
 30
0.0
 11
649.317406
 21
-120.117747
 31
0.0
  0
LINE
  8
0
  6
BYLAYER
 62
     7
 10
657.317406
 20
-112.117747
 30
0.0
 11
657.317406
 21
-120.117747
 31
0.0
  0
LINE
  8
0
  6
BYLAYER
 62
     7
 10
657.317406
 20
-112.117747
 30
0.0
 11
649.317406
 21
-112.117747
 31
0.0
  0
LINE
  8
0
  6
BYLAYER
 62
     7
 10
649.317406
 20
-120.117747
 30
0.0
 11
649.317406
 21
-112.117747
 31
0.0
  0
LINE
  8
0
  6
BYLAYER
 62
     7
 10
697.317406
 20
-72.117747
 30
0.0
 11
697.317406
 21
-80.117747
 31
0.0
  0
LINE
  8
0
  6
BYLAYER
 62
     7
 10
689.317406
 20
-80.117747
 30
0.0
 11
689.317406
 21
-72.117747
 31
0.0
  0
LINE
  8
0
  6
BYLAYER
 62
     7
 10
687.317406
 20
-80.117747
 30
0.0
 11
687.317406
 21
-72.117747
 31
0.0
  0
LINE
  8
0
  6
BYLAYER
 62
     7
 10
687.317406
 20
-80.117747
 30
0.0
 11
679.479407
 21
-80.117747
 31
0.0
  0
LINE
  8
0
  6
BYLAYER
 62
     7
 10
697.317406
 20
-80.117747
 30
0.0
 11
689.317406
 21
-80.117747
 31
0.0
  0
LINE
  8
0
  6
BYLAYER
 62
     7
 10
687.317406
 20
-72.117747
 30
0.0
 11
679.479407
 21
-72.117747
 31
0.0
  0
LINE
  8
0
  6
BYLAYER
 62
     7
 10
697.317406
 20
-72.117747
 30
0.0
 11
689.317406
 21
-72.117747
 31
0.0
  0
LINE
  8
0
  6
BYLAYER
 62
     7
 10
679.479407
 20
-80.117747
 30
0.0
 11
679.479407
 21
-72.117747
 31
0.0
  0
LINE
  8
0
  6
BYLAYER
 62
     7
 10
677.317406
 20
-82.117747
 30
0.0
 11
677.317406
 21
-90.117747
 31
0.0
  0
LINE
  8
0
  6
BYLAYER
 62
     7
 10
677.317406
 20
-90.117747
 30
0.0
 11
669.317406
 21
-90.117747
 31
0.0
  0
LINE
  8
0
  6
BYLAYER
 62
     7
 10
677.317406
 20
-82.117747
 30
0.0
 11
669.317406
 21
-82.117747
 31
0.0
  0
LINE
  8
0
  6
BYLAYER
 62
     7
 10
669.317406
 20
-90.117747
 30
0.0
 11
669.317406
 21
-82.117747
 31
0.0
  0
LINE
  8
0
  6
BYLAYER
 62
     7
 10
677.317406
 20
-72.117747
 30
0.0
 11
677.317406
 21
-80.117747
 31
0.0
  0
LINE
  8
0
  6
BYLAYER
 62
     7
 10
677.317406
 20
-80.117747
 30
0.0
 11
669.317406
 21
-80.117747
 31
0.0
  0
LINE
  8
0
  6
BYLAYER
 62
     7
 10
677.317406
 20
-72.117747
 30
0.0
 11
669.317406
 21
-72.117747
 31
0.0
  0
LINE
  8
0
  6
BYLAYER
 62
     7
 10
669.317406
 20
-80.117747
 30
0.0
 11
669.317406
 21
-72.117747
 31
0.0
  0
LINE
  8
0
  6
BYLAYER
 62
     7
 10
667.317406
 20
-92.117747
 30
0.0
 11
667.317406
 21
-100.117747
 31
0.0
  0
LINE
  8
0
  6
BYLAYER
 62
     7
 10
667.317406
 20
-100.117747
 30
0.0
 11
659.317406
 21
-100.117747
 31
0.0
  0
LINE
  8
0
  6
BYLAYER
 62
     7
 10
667.317406
 20
-92.117747
 30
0.0
 11
659.317406
 21
-92.117747
 31
0.0
  0
LINE
  8
0
  6
BYLAYER
 62
     7
 10
659.317406
 20
-100.117747
 30
0.0
 11
659.317406
 21
-92.117747
 31
0.0
  0
LINE
  8
0
  6
BYLAYER
 62
     7
 10
667.317406
 20
-82.117747
 30
0.0
 11
667.317406
 21
-90.117747
 31
0.0
  0
LINE
  8
0
  6
BYLAYER
 62
     7
 10
667.317406
 20
-90.117747
 30
0.0
 11
659.317406
 21
-90.117747
 31
0.0
  0
LINE
  8
0
  6
BYLAYER
 62
     7
 10
667.317406
 20
-82.117747
 30
0.0
 11
659.317406
 21
-82.117747
 31
0.0
  0
LINE
  8
0
  6
BYLAYER
 62
     7
 10
659.317406
 20
-90.117747
 30
0.0
 11
659.317406
 21
-82.117747
 31
0.0
  0
LINE
  8
0
  6
BYLAYER
 62
     7
 10
657.317406
 20
-92.117747
 30
0.0
 11
657.317406
 21
-100.117747
 31
0.0
  0
LINE
  8
0
  6
BYLAYER
 62
     7
 10
657.317406
 20
-100.117747
 30
0.0
 11
649.317406
 21
-100.117747
 31
0.0
  0
LINE
  8
0
  6
BYLAYER
 62
     7
 10
657.317406
 20
-92.117747
 30
0.0
 11
649.317406
 21
-92.117747
 31
0.0
  0
LINE
  8
0
  6
BYLAYER
 62
     7
 10
649.317406
 20
-100.117747
 30
0.0
 11
649.317406
 21
-92.117747
 31
0.0
  0
LINE
  8
0
  6
BYLAYER
 62
     7
 10
697.317406
 20
-150.117747
 30
0.0
 11
697.317406
 21
-142.117747
 31
0.0
  0
LINE
  8
0
  6
BYLAYER
 62
     7
 10
697.317406
 20
-160.117747
 30
0.0
 11
697.317406
 21
-152.117747
 31
0.0
  0
LINE
  8
0
  6
BYLAYER
 62
     7
 10
689.317406
 20
-152.117747
 30
0.0
 11
689.317406
 21
-160.117747
 31
0.0
  0
LINE
  8
0
  6
BYLAYER
 62
     7
 10
687.317406
 20
-152.117747
 30
0.0
 11
687.317406
 21
-160.117747
 31
0.0
  0
LINE
  8
0
  6
BYLAYER
 62
     7
 10
697.317406
 20
-142.117747
 30
0.0
 11
689.317406
 21
-142.117747
 31
0.0
  0
LINE
  8
0
  6
BYLAYER
 62
     7
 10
697.317406
 20
-150.117747
 30
0.0
 11
689.317406
 21
-150.117747
 31
0.0
  0
LINE
  8
0
  6
BYLAYER
 62
     7
 10
687.317406
 20
-152.117747
 30
0.0
 11
679.479407
 21
-152.117747
 31
0.0
  0
LINE
  8
0
  6
BYLAYER
 62
     7
 10
697.317406
 20
-152.117747
 30
0.0
 11
689.317406
 21
-152.117747
 31
0.0
  0
LINE
  8
0
  6
BYLAYER
 62
     7
 10
687.317406
 20
-160.117747
 30
0.0
 11
679.479407
 21
-160.117747
 31
0.0
  0
LINE
  8
0
  6
BYLAYER
 62
     7
 10
697.317406
 20
-160.117747
 30
0.0
 11
689.317406
 21
-160.117747
 31
0.0
  0
LINE
  8
0
  6
BYLAYER
 62
     7
 10
679.479407
 20
-152.117747
 30
0.0
 11
679.479407
 21
-160.117747
 31
0.0
  0
LINE
  8
0
  6
BYLAYER
 62
     7
 10
689.317406
 20
-142.117747
 30
0.0
 11
689.317406
 21
-150.117747
 31
0.0
  0
LINE
  8
0
  6
BYLAYER
 62
     7
 10
687.317406
 20
-150.117747
 30
0.0
 11
687.317406
 21
-142.117747
 31
0.0
  0
LINE
  8
0
  6
BYLAYER
 62
     7
 10
687.317406
 20
-142.117747
 30
0.0
 11
679.317406
 21
-142.117747
 31
0.0
  0
LINE
  8
0
  6
BYLAYER
 62
     7
 10
687.317406
 20
-150.117747
 30
0.0
 11
679.317406
 21
-150.117747
 31
0.0
  0
LINE
  8
0
  6
BYLAYER
 62
     7
 10
679.317406
 20
-142.117747
 30
0.0
 11
679.317406
 21
-150.117747
 31
0.0
  0
LINE
  8
0
  6
BYLAYER
 62
     7
 10
677.317406
 20
-132.117747
 30
0.0
 11
669.317406
 21
-132.117747
 31
0.0
  0
LINE
  8
0
  6
BYLAYER
 62
     7
 10
677.317406
 20
-150.117747
 30
0.0
 11
677.317406
 21
-142.117747
 31
0.0
  0
LINE
  8
0
  6
BYLAYER
 62
     7
 10
677.317406
 20
-140.117747
 30
0.0
 11
677.317406
 21
-132.117747
 31
0.0
  0
LINE
  8
0
  6
BYLAYER
 62
     7
 10
677.317406
 20
-140.117747
 30
0.0
 11
669.317406
 21
-140.117747
 31
0.0
  0
LINE
  8
0
  6
BYLAYER
 62
     7
 10
677.317406
 20
-142.117747
 30
0.0
 11
669.317406
 21
-142.117747
 31
0.0
  0
LINE
  8
0
  6
BYLAYER
 62
     7
 10
677.317406
 20
-150.117747
 30
0.0
 11
669.317406
 21
-150.117747
 31
0.0
  0
LINE
  8
0
  6
BYLAYER
 62
     7
 10
669.317406
 20
-132.117747
 30
0.0
 11
669.317406
 21
-140.117747
 31
0.0
  0
LINE
  8
0
  6
BYLAYER
 62
     7
 10
669.317406
 20
-142.117747
 30
0.0
 11
669.317406
 21
-150.117747
 31
0.0
  0
LINE
  8
0
  6
BYLAYER
 62
     7
 10
677.317406
 20
-122.117747
 30
0.0
 11
669.317406
 21
-122.117747
 31
0.0
  0
LINE
  8
0
  6
BYLAYER
 62
     7
 10
677.317406
 20
-130.117747
 30
0.0
 11
677.317406
 21
-122.117747
 31
0.0
  0
LINE
  8
0
  6
BYLAYER
 62
     7
 10
677.317406
 20
-130.117747
 30
0.0
 11
669.317406
 21
-130.117747
 31
0.0
  0
LINE
  8
0
  6
BYLAYER
 62
     7
 10
669.317406
 20
-122.117747
 30
0.0
 11
669.317406
 21
-130.117747
 31
0.0
  0
LINE
  8
0
  6
BYLAYER
 62
     7
 10
667.317406
 20
-132.117747
 30
0.0
 11
659.317406
 21
-132.117747
 31
0.0
  0
LINE
  8
0
  6
BYLAYER
 62
     7
 10
667.317406
 20
-140.117747
 30
0.0
 11
667.317406
 21
-132.117747
 31
0.0
  0
LINE
  8
0
  6
BYLAYER
 62
     7
 10
667.317406
 20
-140.117747
 30
0.0
 11
659.317406
 21
-140.117747
 31
0.0
  0
LINE
  8
0
  6
BYLAYER
 62
     7
 10
659.317406
 20
-132.117747
 30
0.0
 11
659.317406
 21
-140.117747
 31
0.0
  0
LINE
  8
0
  6
BYLAYER
 62
     7
 10
667.317406
 20
-122.117747
 30
0.0
 11
659.317406
 21
-122.117747
 31
0.0
  0
LINE
  8
0
  6
BYLAYER
 62
     7
 10
667.317406
 20
-130.117747
 30
0.0
 11
667.317406
 21
-122.117747
 31
0.0
  0
LINE
  8
0
  6
BYLAYER
 62
     7
 10
667.317406
 20
-130.117747
 30
0.0
 11
659.317406
 21
-130.117747
 31
0.0
  0
LINE
  8
0
  6
BYLAYER
 62
     7
 10
659.317406
 20
-122.117747
 30
0.0
 11
659.317406
 21
-130.117747
 31
0.0
  0
LINE
  8
0
  6
BYLAYER
 62
     7
 10
657.317406
 20
-132.117747
 30
0.0
 11
649.317406
 21
-132.117747
 31
0.0
  0
LINE
  8
0
  6
BYLAYER
 62
     7
 10
657.317406
 20
-140.117747
 30
0.0
 11
657.317406
 21
-132.117747
 31
0.0
  0
LINE
  8
0
  6
BYLAYER
 62
     7
 10
657.317406
 20
-140.117747
 30
0.0
 11
649.317406
 21
-140.117747
 31
0.0
  0
LINE
  8
0
  6
BYLAYER
 62
     7
 10
649.317406
 20
-132.117747
 30
0.0
 11
649.317406
 21
-140.117747
 31
0.0
  0
LINE
  8
0
  6
BYLAYER
 62
     7
 10
657.317406
 20
-122.117747
 30
0.0
 11
649.317406
 21
-122.117747
 31
0.0
  0
LINE
  8
0
  6
BYLAYER
 62
     7
 10
657.317406
 20
-130.117747
 30
0.0
 11
657.317406
 21
-122.117747
 31
0.0
  0
LINE
  8
0
  6
BYLAYER
 62
     7
 10
657.317406
 20
-130.117747
 30
0.0
 11
649.317406
 21
-130.117747
 31
0.0
  0
LINE
  8
0
  6
BYLAYER
 62
     7
 10
649.317406
 20
-122.117747
 30
0.0
 11
649.317406
 21
-130.117747
 31
0.0
  0
LINE
  8
0
  6
BYLAYER
 62
     7
 10
697.317406
 20
-170.117747
 30
0.0
 11
697.317406
 21
-162.117747
 31
0.0
  0
LINE
  8
0
  6
BYLAYER
 62
     7
 10
689.317406
 20
-162.117747
 30
0.0
 11
689.317406
 21
-170.117747
 31
0.0
  0
LINE
  8
0
  6
BYLAYER
 62
     7
 10
687.317406
 20
-162.117747
 30
0.0
 11
687.317406
 21
-170.117747
 31
0.0
  0
LINE
  8
0
  6
BYLAYER
 62
     7
 10
687.317406
 20
-162.117747
 30
0.0
 11
679.479407
 21
-162.117747
 31
0.0
  0
LINE
  8
0
  6
BYLAYER
 62
     7
 10
697.317406
 20
-162.117747
 30
0.0
 11
689.317406
 21
-162.117747
 31
0.0
  0
LINE
  8
0
  6
BYLAYER
 62
     7
 10
687.317406
 20
-170.117747
 30
0.0
 11
679.479407
 21
-170.117747
 31
0.0
  0
LINE
  8
0
  6
BYLAYER
 62
     7
 10
697.317406
 20
-170.117747
 30
0.0
 11
689.317406
 21
-170.117747
 31
0.0
  0
LINE
  8
0
  6
BYLAYER
 62
     7
 10
679.479407
 20
-162.117747
 30
0.0
 11
679.479407
 21
-170.117747
 31
0.0
  0
LINE
  8
0
  6
BYLAYER
 62
     7
 10
677.317406
 20
-160.117747
 30
0.0
 11
677.317406
 21
-152.117747
 31
0.0
  0
LINE
  8
0
  6
BYLAYER
 62
     7
 10
677.317406
 20
-152.117747
 30
0.0
 11
669.317406
 21
-152.117747
 31
0.0
  0
LINE
  8
0
  6
BYLAYER
 62
     7
 10
677.317406
 20
-160.117747
 30
0.0
 11
669.317406
 21
-160.117747
 31
0.0
  0
LINE
  8
0
  6
BYLAYER
 62
     7
 10
669.317406
 20
-152.117747
 30
0.0
 11
669.317406
 21
-160.117747
 31
0.0
  0
LINE
  8
0
  6
BYLAYER
 62
     7
 10
677.317406
 20
-170.117747
 30
0.0
 11
677.317406
 21
-162.117747
 31
0.0
  0
LINE
  8
0
  6
BYLAYER
 62
     7
 10
677.317406
 20
-162.117747
 30
0.0
 11
669.317406
 21
-162.117747
 31
0.0
  0
LINE
  8
0
  6
BYLAYER
 62
     7
 10
677.317406
 20
-170.117747
 30
0.0
 11
669.317406
 21
-170.117747
 31
0.0
  0
LINE
  8
0
  6
BYLAYER
 62
     7
 10
669.317406
 20
-162.117747
 30
0.0
 11
669.317406
 21
-170.117747
 31
0.0
  0
LINE
  8
0
  6
BYLAYER
 62
     7
 10
667.317406
 20
-150.117747
 30
0.0
 11
667.317406
 21
-142.117747
 31
0.0
  0
LINE
  8
0
  6
BYLAYER
 62
     7
 10
667.317406
 20
-142.117747
 30
0.0
 11
659.317406
 21
-142.117747
 31
0.0
  0
LINE
  8
0
  6
BYLAYER
 62
     7
 10
667.317406
 20
-150.117747
 30
0.0
 11
659.317406
 21
-150.117747
 31
0.0
  0
LINE
  8
0
  6
BYLAYER
 62
     7
 10
659.317406
 20
-142.117747
 30
0.0
 11
659.317406
 21
-150.117747
 31
0.0
  0
LINE
  8
0
  6
BYLAYER
 62
     7
 10
667.317406
 20
-160.117747
 30
0.0
 11
667.317406
 21
-152.117747
 31
0.0
  0
LINE
  8
0
  6
BYLAYER
 62
     7
 10
667.317406
 20
-152.117747
 30
0.0
 11
659.317406
 21
-152.117747
 31
0.0
  0
LINE
  8
0
  6
BYLAYER
 62
     7
 10
667.317406
 20
-160.117747
 30
0.0
 11
659.317406
 21
-160.117747
 31
0.0
  0
LINE
  8
0
  6
BYLAYER
 62
     7
 10
659.317406
 20
-152.117747
 30
0.0
 11
659.317406
 21
-160.117747
 31
0.0
  0
LINE
  8
0
  6
BYLAYER
 62
     7
 10
657.317406
 20
-150.117747
 30
0.0
 11
657.317406
 21
-142.117747
 31
0.0
  0
LINE
  8
0
  6
BYLAYER
 62
     7
 10
657.317406
 20
-142.117747
 30
0.0
 11
649.317406
 21
-142.117747
 31
0.0
  0
LINE
  8
0
  6
BYLAYER
 62
     7
 10
657.317406
 20
-150.117747
 30
0.0
 11
649.317406
 21
-150.117747
 31
0.0
  0
LINE
  8
0
  6
BYLAYER
 62
     7
 10
649.317406
 20
-142.117747
 30
0.0
 11
649.317406
 21
-150.117747
 31
0.0
  0
CIRCLE
  8
0
  6
BYLAYER
 62
     7
 10
698.317406
 20
-121.117747
 30
0.0
 40
4.0
  0
ARC
  8
0
  6
BYLAYER
 62
     7
 10
734.067406
 20
-22.617716
 30
0.0
 40
1.500000
 50
180.000000
 51
265.219808
  0
ARC
  8
0
  6
BYLAYER
 62
     7
 10
662.567406
 20
-22.617716
 30
0.0
 40
1.500000
 50
274.780192
 51
360.000000
  0
ARC
  8
0
  6
BYLAYER
 62
     7
 10
670.563068
 20
-22.617716
 30
0.0
 40
1.500000
 50
270.0
 51
360.0
  0
LINE
  8
0
  6
BYLAYER
 62
     7
 10
732.567406
 20
-22.617716
 30
0.0
 11
732.567406
 21
-1.117716
 31
0.0
  0
LINE
  8
0
  6
BYLAYER
 62
     7
 10
731.067406
 20
0.382284
 30
0.0
 11
665.567406
 21
0.382284
 31
0.0
  0
ARC
  8
0
  6
BYLAYER
 62
     7
 10
731.067406
 20
-1.117716
 30
0.0
 40
1.500000
 50
0.0
 51
90.0
  0
ARC
  8
0
  6
BYLAYER
 62
     7
 10
665.567406
 20
-1.117716
 30
0.0
 40
1.500000
 50
90.0
 51
180.0
  0
LINE
  8
0
  6
BYLAYER
 62
     7
 10
664.067406
 20
-22.617716
 30
0.0
 11
664.067406
 21
-1.117716
 31
0.0
  0
LINE
  8
0
  6
BYLAYER
 62
     7
 10
672.063068
 20
-22.617716
 30
0.0
 11
672.063068
 21
-1.117716
 31
0.0
  0
ARC
  8
0
  6
BYLAYER
 62
     7
 10
673.563068
 20
-1.117716
 30
0.0
 40
1.500000
 50
90.0
 51
180.0
  0
ARC
  8
0
  6
BYLAYER
 62
     7
 10
723.071744
 20
-1.117716
 30
0.0
 40
1.500000
 50
0.0
 51
90.0
  0
LINE
  8
0
  6
BYLAYER
 62
     7
 10
677.723753
 20
0.382284
 30
0.0
 11
678.216300
 21
-13.722414
 31
0.0
  0
ARC
  8
0
  6
BYLAYER
 62
     7
 10
681.214472
 20
-13.617716
 30
0.0
 40
3.0
 50
182.000000
 51
270.000000
  0
LINE
  8
0
  6
BYLAYER
 62
     7
 10
688.418512
 20
-13.722414
 30
0.0
 11
688.911059
 21
0.382284
 31
0.0
  0
ARC
  8
0
  6
BYLAYER
 62
     7
 10
685.420340
 20
-13.617716
 30
0.0
 40
3.000000
 50
270.0
 51
358.0
  0
LINE
  8
0
  6
BYLAYER
 62
     7
 10
703.418512
 20
-13.722414
 30
0.0
 11
703.911059
 21
0.382284
 31
0.0
  0
ARC
  8
0
  6
BYLAYER
 62
     7
 10
700.420340
 20
-13.617716
 30
0.0
 40
3.000000
 50
270.0
 51
358.0
  0
LINE
  8
0
  6
BYLAYER
 62
     7
 10
718.418512
 20
-13.722414
 30
0.0
 11
718.911059
 21
0.382284
 31
0.0
  0
ARC
  8
0
  6
BYLAYER
 62
     7
 10
715.420340
 20
-13.617716
 30
0.0
 40
3.000000
 50
270.0
 51
358.0
  0
LINE
  8
0
  6
BYLAYER
 62
     7
 10
707.723753
 20
0.382284
 30
0.0
 11
708.216300
 21
-13.722414
 31
0.0
  0
ARC
  8
0
  6
BYLAYER
 62
     7
 10
711.214472
 20
-13.617716
 30
0.0
 40
3.0
 50
182.000000
 51
270.000000
  0
LINE
  8
0
  6
BYLAYER
 62
     7
 10
692.723753
 20
0.382284
 30
0.0
 11
693.216300
 21
-13.722414
 31
0.0
  0
ARC
  8
0
  6
BYLAYER
 62
     7
 10
696.214472
 20
-13.617716
 30
0.0
 40
3.0
 50
182.000000
 51
270.000000
  0
LINE
  8
0
  6
BYLAYER
 62
     7
 10
711.214472
 20
-16.617716
 30
0.0
 11
715.420340
 21
-16.617716
 31
0.0
  0
LINE
  8
0
  6
BYLAYER
 62
     7
 10
696.214472
 20
-16.617716
 30
0.0
 11
700.420340
 21
-16.617716
 31
0.0
  0
LINE
  8
0
  6
BYLAYER
 62
     7
 10
681.214472
 20
-16.617716
 30
0.0
 11
685.420340
 21
-16.617716
 31
0.0
  0
LINE
  8
0
  6
BYLAYER
 62
     7
 10
692.758674
 20
-0.617716
 30
0.0
 11
703.876138
 21
-0.617716
 31
0.0
  0
LINE
  8
0
  6
BYLAYER
 62
     7
 10
707.758674
 20
-0.617716
 30
0.0
 11
718.876138
 21
-0.617716
 31
0.0
  0
LINE
  8
0
  6
BYLAYER
 62
     7
 10
677.758674
 20
-0.617716
 30
0.0
 11
688.876138
 21
-0.617716
 31
0.0
  0
LINE
  8
0
  6
BYLAYER
 62
     7
 10
724.571744
 20
-1.117716
 30
0.0
 11
724.571744
 21
-22.617716
 31
0.0
  0
ARC
  8
0
  6
BYLAYER
 62
     7
 10
662.817406
 20
-25.607281
 30
0.0
 40
1.500000
 50
94.780192
 51
180.000000
  0
LINE
  8
0
  6
BYLAYER
 62
     7
 10
662.817406
 20
-24.117716
 30
0.0
 11
734.067406
 21
-24.117716
 31
0.0
  0
ARC
  8
0
  6
BYLAYER
 62
     7
 10
733.817406
 20
-25.607281
 30
0.0
 40
1.500000
 50
0.0
 51
85.219808
  0
LINE
  8
0
  6
BYLAYER
 62
     7
 10
735.317406
 20
-33.117716
 30
0.0
 11
735.317406
 21
-25.607281
 31
0.0
  0
ARC
  8
0
  6
BYLAYER
 62
     7
 10
726.071744
 20
-22.617716
 30
0.0
 40
1.500000
 50
180.000000
 51
270.000000
  0
LINE
  8
0
  6
BYLAYER
 62
     7
 10
735.317406
 20
-31.117655
 30
0.0
 11
661.317406
 21
-31.117655
 31
0.0
  0
LINE
  8
0
  6
BYLAYER
 62
     7
 10
661.317406
 20
-25.607281
 30
0.0
 11
661.317406
 21
-33.117716
 31
0.0
  0
LINE
  8
0
  6
BYLAYER
 62
     7
 10
661.317406
 20
-33.117716
 30
0.0
 11
735.317406
 21
-33.117716
 31
0.0
  0
ARC
  8
0
  6
BYLAYER
 62
     7
 10
734.067406
 20
-362.617716
 30
0.0
 40
1.500000
 50
180.000000
 51
265.219808
  0
ARC
  8
0
  6
BYLAYER
 62
     7
 10
662.567406
 20
-362.617716
 30
0.0
 40
1.500000
 50
274.780192
 51
360.0
  0
ARC
  8
0
  6
BYLAYER
 62
     7
 10
670.563068
 20
-362.617716
 30
0.0
 40
1.500000
 50
270.0
 51
360.0
  0
LINE
  8
0
  6
BYLAYER
 62
     7
 10
732.567406
 20
-362.617716
 30
0.0
 11
732.567406
 21
-341.117716
 31
0.0
  0
LINE
  8
0
  6
BYLAYER
 62
     7
 10
731.067406
 20
-339.617716
 30
0.0
 11
665.567406
 21
-339.617716
 31
0.0
  0
ARC
  8
0
  6
BYLAYER
 62
     7
 10
731.067406
 20
-341.117716
 30
0.0
 40
1.500000
 50
0.0
 51
90.0
  0
ARC
  8
0
  6
BYLAYER
 62
     7
 10
665.567406
 20
-341.117716
 30
0.0
 40
1.500000
 50
90.0
 51
180.0
  0
LINE
  8
0
  6
BYLAYER
 62
     7
 10
664.067406
 20
-362.617716
 30
0.0
 11
664.067406
 21
-341.117716
 31
0.0
  0
LINE
  8
0
  6
BYLAYER
 62
     7
 10
672.063068
 20
-362.617716
 30
0.0
 11
672.063068
 21
-341.117716
 31
0.0
  0
ARC
  8
0
  6
BYLAYER
 62
     7
 10
673.563068
 20
-341.117716
 30
0.0
 40
1.500000
 50
90.0
 51
180.0
  0
ARC
  8
0
  6
BYLAYER
 62
     7
 10
723.071744
 20
-341.117716
 30
0.0
 40
1.500000
 50
0.0
 51
90.0
  0
LINE
  8
0
  6
BYLAYER
 62
     7
 10
677.723753
 20
-339.617716
 30
0.0
 11
678.216300
 21
-353.722414
 31
0.0
  0
ARC
  8
0
  6
BYLAYER
 62
     7
 10
681.214472
 20
-353.617716
 30
0.0
 40
3.000000
 50
182.000000
 51
270.000000
  0
LINE
  8
0
  6
BYLAYER
 62
     7
 10
688.418512
 20
-353.722414
 30
0.0
 11
688.911059
 21
-339.617716
 31
0.0
  0
ARC
  8
0
  6
BYLAYER
 62
     7
 10
685.420340
 20
-353.617716
 30
0.0
 40
3.000000
 50
270.0
 51
358.0
  0
LINE
  8
0
  6
BYLAYER
 62
     7
 10
703.418512
 20
-353.722414
 30
0.0
 11
703.911059
 21
-339.617716
 31
0.0
  0
ARC
  8
0
  6
BYLAYER
 62
     7
 10
700.420340
 20
-353.617716
 30
0.0
 40
3.000000
 50
270.0
 51
358.0
  0
LINE
  8
0
  6
BYLAYER
 62
     7
 10
718.418512
 20
-353.722414
 30
0.0
 11
718.911059
 21
-339.617716
 31
0.0
  0
ARC
  8
0
  6
BYLAYER
 62
     7
 10
715.420340
 20
-353.617716
 30
0.0
 40
3.000000
 50
270.0
 51
358.0
  0
LINE
  8
0
  6
BYLAYER
 62
     7
 10
707.723753
 20
-339.617716
 30
0.0
 11
708.216300
 21
-353.722414
 31
0.0
  0
ARC
  8
0
  6
BYLAYER
 62
     7
 10
711.214472
 20
-353.617716
 30
0.0
 40
3.000000
 50
182.000000
 51
270.000000
  0
LINE
  8
0
  6
BYLAYER
 62
     7
 10
692.723753
 20
-339.617716
 30
0.0
 11
693.216300
 21
-353.722414
 31
0.0
  0
ARC
  8
0
  6
BYLAYER
 62
     7
 10
696.214472
 20
-353.617716
 30
0.0
 40
3.000000
 50
182.000000
 51
270.000000
  0
LINE
  8
0
  6
BYLAYER
 62
     7
 10
711.214472
 20
-356.617716
 30
0.0
 11
715.420340
 21
-356.617716
 31
0.0
  0
LINE
  8
0
  6
BYLAYER
 62
     7
 10
696.214472
 20
-356.617716
 30
0.0
 11
700.420340
 21
-356.617716
 31
0.0
  0
LINE
  8
0
  6
BYLAYER
 62
     7
 10
681.214472
 20
-356.617716
 30
0.0
 11
685.420340
 21
-356.617716
 31
0.0
  0
LINE
  8
0
  6
BYLAYER
 62
     7
 10
692.758674
 20
-340.617716
 30
0.0
 11
703.876138
 21
-340.617716
 31
0.0
  0
LINE
  8
0
  6
BYLAYER
 62
     7
 10
707.758674
 20
-340.617716
 30
0.0
 11
718.876138
 21
-340.617716
 31
0.0
  0
LINE
  8
0
  6
BYLAYER
 62
     7
 10
677.758674
 20
-340.617716
 30
0.0
 11
688.876138
 21
-340.617716
 31
0.0
  0
LINE
  8
0
  6
BYLAYER
 62
     7
 10
724.571744
 20
-341.117716
 30
0.0
 11
724.571744
 21
-362.617716
 31
0.0
  0
ARC
  8
0
  6
BYLAYER
 62
     7
 10
662.817406
 20
-365.607281
 30
0.0
 40
1.5
 50
94.780192
 51
180.000000
  0
LINE
  8
0
  6
BYLAYER
 62
     7
 10
662.817406
 20
-364.117716
 30
0.0
 11
674.007038
 21
-364.117716
 31
0.0
  0
LINE
  8
0
  6
BYLAYER
 62
     7
 10
722.627774
 20
-364.117716
 30
0.0
 11
734.067406
 21
-364.117716
 31
0.0
  0
ARC
  8
0
  6
BYLAYER
 62
     7
 10
733.817406
 20
-365.607281
 30
0.0
 40
1.500000
 50
0.0
 51
85.219808
  0
LINE
  8
0
  6
BYLAYER
 62
     7
 10
735.317406
 20
-368.214572
 30
0.0
 11
735.317406
 21
-365.607281
 31
0.0
  0
ARC
  8
0
  6
BYLAYER
 62
     7
 10
726.071744
 20
-362.617716
 30
0.0
 40
1.500000
 50
180.000000
 51
270.000000
  0
LINE
  8
0
  6
BYLAYER
 62
     7
 10
661.317406
 20
-365.607281
 30
0.0
 11
661.317406
 21
-368.214572
 31
0.0
  0
ARC
  8
0
  6
BYLAYER
 62
     1
 10
698.317406
 20
-461.117747
 30
0.0
 40
38.0
 50
58.788820
 51
121.211180
  0
ARC
  8
0
  6
BYLAYER
 62
     1
 10
698.317406
 20
-461.117747
 30
0.0
 40
100.0
 50
295.785294
 51
604.214706
  0
ARC
  8
0
  6
BYLAYER
 62
     1
 10
698.317406
 20
-461.117747
 30
0.0
 40
64.999985
 50
62.204309
 51
117.795860
  0
ARC
  8
0
  6
BYLAYER
 62
     1
 10
653.824246
 20
-467.644964
 30
0.0
 40
8.710933
 50
66.358748
 51
78.030921
  0
ARC
  8
0
  6
BYLAYER
 62
     1
 10
650.806298
 20
-481.881070
 30
0.0
 40
23.263414
 50
78.030921
 51
90.0
  0
ARC
  8
0
  6
BYLAYER
 62
     1
 10
650.806298
 20
-438.427543
 30
0.0
 40
25.190113
 50
270.0
 51
274.810180
  0
ARC
  8
0
  6
BYLAYER
 62
     1
 10
651.345351
 20
-444.107722
 30
0.0
 40
19.484832
 50
274.631265
 51
280.264508
  0
ARC
  8
0
  6
BYLAYER
 62
     1
 10
698.317406
 20
-461.117747
 30
0.0
 40
65.000000
 50
182.204134
 51
224.952536
  0
ARC
  8
0
  6
BYLAYER
 62
     1
 10
698.317406
 20
-461.117747
 30
0.0
 40
65.000000
 50
122.204310
 51
177.795862
  0
ARC
  8
0
  6
BYLAYER
 62
     1
 10
698.317406
 20
-461.117747
 30
0.0
 40
64.999939
 50
315.047518
 51
357.795689
  0
ARC
  8
0
  6
BYLAYER
 62
     1
 10
698.317406
 20
-461.117747
 30
0.0
 40
64.999969
 50
2.204112
 51
57.795674
  0
ARC
  8
0
  6
BYLAYER
 62
     1
 10
611.317406
 20
-480.447948
 30
0.0
 40
21.830262
 50
90.0
 51
105.714656
  0
ARC
  8
0
  6
BYLAYER
 62
     1
 10
606.631921
 20
-463.795158
 30
0.0
 40
4.530863
 50
105.714656
 51
126.017171
  0
ARC
  8
0
  6
BYLAYER
 62
     1
 10
605.249781
 20
-461.894003
 30
0.0
 40
2.180395
 50
126.017171
 51
145.377515
  0
ARC
  8
0
  6
BYLAYER
 62
     1
 10
604.160962
 20
-461.117686
 30
0.0
 40
0.843556
 50
146.750415
 51
180.000000
  0
ARC
  8
0
  6
BYLAYER
 62
     1
 10
604.160962
 20
-461.117686
 30
0.0
 40
0.843556
 50
180.000000
 51
213.249585
  0
ARC
  8
0
  6
BYLAYER
 62
     1
 10
605.249781
 20
-460.341369
 30
0.0
 40
2.180395
 50
214.622485
 51
233.982829
  0
ARC
  8
0
  6
BYLAYER
 62
     1
 10
606.631921
 20
-458.440214
 30
0.0
 40
4.530863
 50
233.982829
 51
254.285344
  0
ARC
  8
0
  6
BYLAYER
 62
     1
 10
611.317406
 20
-441.787424
 30
0.0
 40
21.830262
 50
254.285344
 51
270.000000
  0
LINE
  8
0
  6
BYLAYER
 62
     1
 10
611.349633
 20
-463.617655
 30
0.0
 11
650.806298
 21
-463.617655
 31
0.0
  0
LINE
  8
0
  6
BYLAYER
 62
     1
 10
611.317406
 20
-458.617655
 30
0.0
 11
650.806298
 21
-458.617655
 31
0.0
  0
ARC
  8
0
  6
BYLAYER
 62
     1
 10
670.652404
 20
-545.748911
 30
0.0
 40
20.855368
 50
151.540006
 51
166.351731
  0
ARC
  8
0
  6
BYLAYER
 62
     1
 10
654.647508
 20
-541.862644
 30
0.0
 40
4.385402
 50
166.351731
 51
186.457777
  0
ARC
  8
0
  6
BYLAYER
 62
     1
 10
652.413609
 20
-542.115497
 30
0.0
 40
2.137239
 50
186.457777
 51
205.793118
  0
ARC
  8
0
  6
BYLAYER
 62
     1
 10
651.238300
 20
-542.661009
 30
0.0
 40
0.841903
 50
207.170760
 51
239.999720
  0
ARC
  8
0
  6
BYLAYER
 62
     1
 10
651.257950
 20
-542.626974
 30
0.0
 40
0.881203
 50
239.999720
 51
281.534287
  0
ARC
  8
0
  6
BYLAYER
 62
     1
 10
650.839553
 20
-540.576768
 30
0.0
 40
2.973666
 50
281.534287
 51
299.800402
  0
ARC
  8
0
  6
BYLAYER
 62
     1
 10
745.795024
 20
-540.577108
 30
0.0
 40
2.973368
 50
240.201518
 51
258.467356
  0
ARC
  8
0
  6
BYLAYER
 62
     1
 10
745.376744
 20
-542.627043
 30
0.0
 40
0.881195
 50
258.467356
 51
300.000280
  0
ARC
  8
0
  6
BYLAYER
 62
     1
 10
745.396390
 20
-542.661070
 30
0.0
 40
0.841903
 50
300.000280
 51
332.829068
  0
ARC
  8
0
  6
BYLAYER
 62
     1
 10
744.221098
 20
-542.115562
 30
0.0
 40
2.137222
 50
334.206712
 51
353.542042
  0
ARC
  8
0
  6
BYLAYER
 62
     1
 10
741.987241
 20
-541.862707
 30
0.0
 40
4.385343
 50
353.542042
 51
373.648002
  0
ARC
  8
0
  6
BYLAYER
 62
     1
 10
725.982667
 20
-545.748817
 30
0.0
 40
20.854959
 50
13.648002
 51
28.459415
  0
ARC
  8
0
  6
BYLAYER
 62
     1
 10
785.317406
 20
-441.787546
 30
0.0
 40
21.830262
 50
270.0
 51
285.714656
  0
ARC
  8
0
  6
BYLAYER
 62
     1
 10
790.002891
 20
-458.440336
 30
0.0
 40
4.530863
 50
285.714656
 51
306.017171
  0
ARC
  8
0
  6
BYLAYER
 62
     1
 10
791.385031
 20
-460.341491
 30
0.0
 40
2.180395
 50
306.017171
 51
325.377515
  0
ARC
  8
0
  6
BYLAYER
 62
     1
 10
792.473850
 20
-461.117808
 30
0.0
 40
0.843556
 50
326.750415
 51
360.000000
  0
ARC
  8
0
  6
BYLAYER
 62
     1
 10
792.473850
 20
-461.117808
 30
0.0
 40
0.843556
 50
0.0
 51
33.249585
  0
ARC
  8
0
  6
BYLAYER
 62
     1
 10
791.385031
 20
-461.894125
 30
0.0
 40
2.180395
 50
34.622485
 51
53.982829
  0
ARC
  8
0
  6
BYLAYER
 62
     1
 10
790.002891
 20
-463.795280
 30
0.0
 40
4.530863
 50
53.982829
 51
74.285344
  0
ARC
  8
0
  6
BYLAYER
 62
     1
 10
785.317406
 20
-480.448070
 30
0.0
 40
21.830262
 50
74.285344
 51
90.000000
  0
LINE
  8
0
  6
BYLAYER
 62
     1
 10
785.317406
 20
-463.617839
 30
0.0
 11
745.828514
 21
-463.617839
 31
0.0
  0
LINE
  8
0
  6
BYLAYER
 62
     1
 10
785.285179
 20
-458.617839
 30
0.0
 11
745.828514
 21
-458.617839
 31
0.0
  0
ARC
  8
0
  6
BYLAYER
 62
     1
 10
745.289461
 20
-444.107874
 30
0.0
 40
19.484832
 50
259.735492
 51
265.368735
  0
ARC
  8
0
  6
BYLAYER
 62
     1
 10
745.828514
 20
-438.427695
 30
0.0
 40
25.190113
 50
265.189820
 51
270.000000
  0
ARC
  8
0
  6
BYLAYER
 62
     1
 10
745.828514
 20
-481.881223
 30
0.0
 40
23.263414
 50
90.0
 51
101.969079
  0
ARC
  8
0
  6
BYLAYER
 62
     1
 10
742.810566
 20
-467.645117
 30
0.0
 40
8.710933
 50
101.969079
 51
113.641252
  0
LINE
  8
0
  6
BYLAYER
 62
     1
 10
719.907987
 20
-418.721955
 30
0.0
 11
719.907982
 21
-418.721965
 31
0.0
  0
ARC
  8
0
  6
BYLAYER
 62
     1
 10
738.813645
 20
-429.637171
 30
0.0
 40
21.830388
 50
149.999960
 51
165.714557
  0
ARC
  8
0
  6
BYLAYER
 62
     1
 10
722.049031
 20
-425.368461
 30
0.0
 40
4.530845
 50
165.714557
 51
186.017052
  0
ARC
  8
0
  6
BYLAYER
 62
     1
 10
719.711515
 20
-425.614847
 30
0.0
 40
2.180380
 50
186.017052
 51
205.377286
  0
ARC
  8
0
  6
BYLAYER
 62
     1
 10
718.494797
 20
-426.169627
 30
0.0
 40
0.843545
 50
206.750140
 51
239.999720
  0
ARC
  8
0
  6
BYLAYER
 62
     1
 10
718.494796
 20
-426.169630
 30
0.0
 40
0.843542
 50
239.999720
 51
273.249472
  0
ARC
  8
0
  6
BYLAYER
 62
     1
 10
718.366898
 20
-424.838545
 30
0.0
 40
2.180362
 50
274.622401
 51
293.982799
  0
ARC
  8
0
  6
BYLAYER
 62
     1
 10
717.411527
 20
-422.691011
 30
0.0
 40
4.530817
 50
293.982799
 51
314.285362
  0
ARC
  8
0
  6
BYLAYER
 62
     1
 10
705.332443
 20
-410.306786
 30
0.0
 40
21.830334
 50
314.285362
 51
329.999935
  0
LINE
  8
0
  6
BYLAYER
 62
     1
 10
743.982567
 20
-387.023570
 30
0.0
 11
724.238060
 21
-421.221965
 31
0.0
  0
LINE
  8
0
  6
BYLAYER
 62
     1
 10
739.636254
 20
-384.551524
 30
0.0
 11
719.907982
 21
-418.721965
 31
0.0
  0
ARC
  8
0
  6
BYLAYER
 62
     1
 10
725.076865
 20
-376.108372
 30
0.0
 40
21.830364
 50
330.000003
 51
345.714573
  0
ARC
  8
0
  6
BYLAYER
 62
     1
 10
741.841461
 20
-380.377073
 30
0.0
 40
4.530841
 50
345.714573
 51
366.017064
  0
ARC
  8
0
  6
BYLAYER
 62
     1
 10
744.178975
 20
-380.130687
 30
0.0
 40
2.180378
 50
6.017064
 51
25.377296
  0
ARC
  8
0
  6
BYLAYER
 62
     1
 10
745.395691
 20
-379.575907
 30
0.0
 40
0.843545
 50
26.750151
 51
59.999720
  0
ARC
  8
0
  6
BYLAYER
 62
     1
 10
745.395693
 20
-379.575904
 30
0.0
 40
0.843542
 50
59.999720
 51
93.249478
  0
ARC
  8
0
  6
BYLAYER
 62
     1
 10
745.523590
 20
-380.906990
 30
0.0
 40
2.180363
 50
94.622407
 51
113.982806
  0
ARC
  8
0
  6
BYLAYER
 62
     1
 10
746.478963
 20
-383.054525
 30
0.0
 40
4.530819
 50
113.982806
 51
134.285371
  0
ARC
  8
0
  6
BYLAYER
 62
     1
 10
758.558057
 20
-395.438757
 30
0.0
 40
21.830348
 50
134.285371
 51
149.999960
  0
LINE
  8
0
  6
BYLAYER
 62
     1
 10
739.652428
 20
-384.523570
 30
0.0
 11
739.652418
 21
-384.523586
 31
0.0
  0
LINE
  8
0
  6
BYLAYER
 62
     1
 10
652.668541
 20
-387.051432
 30
0.0
 11
672.396874
 21
-421.221873
 31
0.0
  0
LINE
  8
0
  6
BYLAYER
 62
     1
 10
656.982567
 20
-384.523478
 30
0.0
 11
676.726952
 21
-418.721873
 31
0.0
  0
ARC
  8
0
  6
BYLAYER
 62
     1
 10
691.302489
 20
-410.306696
 30
0.0
 40
21.830332
 50
210.000070
 51
225.714640
  0
ARC
  8
0
  6
BYLAYER
 62
     1
 10
679.223407
 20
-422.690920
 30
0.0
 40
4.530816
 50
225.714640
 51
246.017202
  0
ARC
  8
0
  6
BYLAYER
 62
     1
 10
678.268036
 20
-424.838454
 30
0.0
 40
2.180362
 50
246.017202
 51
265.377600
  0
ARC
  8
0
  6
BYLAYER
 62
     1
 10
678.140138
 20
-426.169539
 30
0.0
 40
0.843542
 50
266.750529
 51
300.000280
  0
ARC
  8
0
  6
BYLAYER
 62
     1
 10
678.140137
 20
-426.169536
 30
0.0
 40
0.843545
 50
300.000280
 51
333.249860
  0
ARC
  8
0
  6
BYLAYER
 62
     1
 10
676.923419
 20
-425.614755
 30
0.0
 40
2.180380
 50
334.622714
 51
353.982948
  0
ARC
  8
0
  6
BYLAYER
 62
     1
 10
674.585903
 20
-425.368369
 30
0.0
 40
4.530845
 50
353.982948
 51
374.285443
  0
ARC
  8
0
  6
BYLAYER
 62
     1
 10
657.821289
 20
-429.637080
 30
0.0
 40
21.830388
 50
14.285443
 51
30.000040
  0
LINE
  8
0
  6
BYLAYER
 62
     1
 10
676.726952
 20
-418.721873
 30
0.0
 11
676.726946
 21
-418.721863
 31
0.0
  0
LINE
  8
0
  6
BYLAYER
 62
     1
 10
656.982514
 20
-384.523522
 30
0.0
 11
656.982506
 21
-384.523509
 31
0.0
  0
ARC
  8
0
  6
BYLAYER
 62
     1
 10
638.076877
 20
-395.438696
 30
0.0
 40
21.830348
 50
30.000040
 51
45.714629
  0
ARC
  8
0
  6
BYLAYER
 62
     1
 10
650.155972
 20
-383.054464
 30
0.0
 40
4.530819
 50
45.714629
 51
66.017194
  0
ARC
  8
0
  6
BYLAYER
 62
     1
 10
651.111344
 20
-380.906929
 30
0.0
 40
2.180363
 50
66.017194
 51
85.377593
  0
ARC
  8
0
  6
BYLAYER
 62
     1
 10
651.239241
 20
-379.575843
 30
0.0
 40
0.843542
 50
86.750522
 51
120.000280
  0
ARC
  8
0
  6
BYLAYER
 62
     1
 10
651.239243
 20
-379.575846
 30
0.0
 40
0.843545
 50
120.000280
 51
153.249850
  0
ARC
  8
0
  6
BYLAYER
 62
     1
 10
652.455960
 20
-380.130626
 30
0.0
 40
2.180379
 50
154.622705
 51
173.982938
  0
ARC
  8
0
  6
BYLAYER
 62
     1
 10
654.793473
 20
-380.377012
 30
0.0
 40
4.530842
 50
173.982938
 51
194.285429
  0
ARC
  8
0
  6
BYLAYER
 62
     1
 10
671.558071
 20
-376.108310
 30
0.0
 40
21.830366
 50
194.285429
 51
210.000001
  0
LINE
  8
0
  6
BYLAYER
 62
     2
 10
766.245629
 20
-405.351573
 30
0.0
 11
763.675438
 21
-395.759532
 31
0.0
  0
LINE
  8
0
  6
BYLAYER
 62
     2
 10
763.675438
 20
-395.759532
 30
0.0
 11
754.083397
 21
-393.189341
 31
0.0
  0
LINE
  8
0
  6
BYLAYER
 62
     2
 10
754.083397
 20
-393.189341
 30
0.0
 11
747.061547
 21
-400.211192
 31
0.0
  0
LINE
  8
0
  6
BYLAYER
 62
     2
 10
747.061547
 20
-400.211192
 30
0.0
 11
749.631737
 21
-409.803294
 31
0.0
  0
LINE
  8
0
  6
BYLAYER
 62
     2
 10
749.631737
 20
-409.803294
 30
0.0
 11
759.223778
 21
-412.373484
 31
0.0
  0
LINE
  8
0
  6
BYLAYER
 62
     2
 10
759.223778
 20
-412.373484
 30
0.0
 11
766.245629
 21
-405.351573
 31
0.0
  0
LINE
  8
0
  6
BYLAYER
 62
     2
 10
766.245629
 20
-516.883860
 30
0.0
 11
763.675438
 21
-526.475962
 31
0.0
  0
LINE
  8
0
  6
BYLAYER
 62
     2
 10
763.675438
 20
-526.475962
 30
0.0
 11
754.083397
 21
-529.046092
 31
0.0
  0
LINE
  8
0
  6
BYLAYER
 62
     2
 10
754.083397
 20
-529.046092
 30
0.0
 11
747.061547
 21
-522.024241
 31
0.0
  0
LINE
  8
0
  6
BYLAYER
 62
     2
 10
747.061547
 20
-522.024241
 30
0.0
 11
749.631737
 21
-512.432200
 31
0.0
  0
LINE
  8
0
  6
BYLAYER
 62
     2
 10
749.631737
 20
-512.432200
 30
0.0
 11
759.223778
 21
-509.862010
 31
0.0
  0
LINE
  8
0
  6
BYLAYER
 62
     2
 10
759.223778
 20
-509.862010
 30
0.0
 11
766.245629
 21
-516.883860
 31
0.0
  0
LINE
  8
0
  6
BYLAYER
 62
     2
 10
630.389183
 20
-516.883860
 30
0.0
 11
632.959374
 21
-526.475962
 31
0.0
  0
LINE
  8
0
  6
BYLAYER
 62
     2
 10
632.959374
 20
-526.475962
 30
0.0
 11
642.551415
 21
-529.046092
 31
0.0
  0
LINE
  8
0
  6
BYLAYER
 62
     2
 10
642.551415
 20
-529.046092
 30
0.0
 11
649.573265
 21
-522.024241
 31
0.0
  0
LINE
  8
0
  6
BYLAYER
 62
     2
 10
649.573265
 20
-522.024241
 30
0.0
 11
647.003075
 21
-512.432200
 31
0.0
  0
LINE
  8
0
  6
BYLAYER
 62
     2
 10
647.003075
 20
-512.432200
 30
0.0
 11
637.411034
 21
-509.862010
 31
0.0
  0
LINE
  8
0
  6
BYLAYER
 62
     2
 10
637.411034
 20
-509.862010
 30
0.0
 11
630.389183
 21
-516.883860
 31
0.0
  0
LINE
  8
0
  6
BYLAYER
 62
     2
 10
630.389183
 20
-405.351573
 30
0.0
 11
632.959374
 21
-395.759532
 31
0.0
  0
LINE
  8
0
  6
BYLAYER
 62
     2
 10
632.959374
 20
-395.759532
 30
0.0
 11
642.551415
 21
-393.189341
 31
0.0
  0
LINE
  8
0
  6
BYLAYER
 62
     2
 10
642.551415
 20
-393.189341
 30
0.0
 11
649.573265
 21
-400.211192
 31
0.0
  0
LINE
  8
0
  6
BYLAYER
 62
     2
 10
649.573265
 20
-400.211192
 30
0.0
 11
647.003075
 21
-409.803294
 31
0.0
  0
LINE
  8
0
  6
BYLAYER
 62
     2
 10
647.003075
 20
-409.803294
 30
0.0
 11
637.411034
 21
-412.373484
 31
0.0
  0
LINE
  8
0
  6
BYLAYER
 62
     2
 10
637.411034
 20
-412.373484
 30
0.0
 11
630.389183
 21
-405.351573
 31
0.0
  0
ARC
  8
0
  6
BYLAYER
 62
     1
 10
233.317406
 20
-568.643138
 30
0.0
 40
2.000059
 50
180.000000
 51
266.999958
  0
LINE
  8
0
  6
BYLAYER
 62
     1
 10
242.317406
 20
-471.117747
 30
0.0
 11
242.317406
 21
-553.617625
 31
0.0
  0
LINE
  8
0
  6
BYLAYER
 62
     1
 10
223.317406
 20
-509.117747
 30
0.0
 11
223.317406
 21
-471.117747
 31
0.0
  0
LINE
  8
0
  6
BYLAYER
 62
     1
 10
223.317406
 20
-509.117747
 30
0.0
 11
223.730919
 21
-509.139353
 31
0.0
  0
ARC
  8
0
  6
BYLAYER
 62
     1
 10
223.704735
 20
-509.638743
 30
0.0
 40
0.500015
 50
15.000011
 51
86.999459
  0
LINE
  8
0
  6
BYLAYER
 62
     1
 10
231.249260
 20
-535.863352
 30
0.0
 11
224.187706
 21
-509.509226
 31
0.0
  0
LINE
  8
0
  6
BYLAYER
 62
     1
 10
231.317406
 20
-568.643138
 30
0.0
 11
231.317406
 21
-471.117747
 31
0.0
  0
ARC
  8
0
  6
BYLAYER
 62
     1
 10
229.317406
 20
-536.381053
 30
0.0
 40
2.000003
 50
0.0
 51
15.000011
  0
LINE
  8
0
  6
BYLAYER
 62
     1
 10
231.317406
 20
-553.486888
 30
0.0
 11
224.490258
 21
-510.638377
 31
0.0
  0
LINE
  8
0
  6
BYLAYER
 62
     1
 10
233.212670
 20
-570.640452
 30
0.0
 11
242.317406
 21
-571.117674
 31
0.0
  0
LINE
  8
0
  6
BYLAYER
 62
     1
 10
242.317406
 20
-571.117674
 30
0.0
 11
242.317406
 21
-553.617625
 31
0.0
  0
ARC
  8
0
  6
BYLAYER
 62
     1
 10
233.317406
 20
-373.592234
 30
0.0
 40
2.000059
 50
93.000067
 51
180.000025
  0
LINE
  8
0
  6
BYLAYER
 62
     1
 10
242.317406
 20
-471.117747
 30
0.0
 11
242.317406
 21
-388.617747
 31
0.0
  0
LINE
  8
0
  6
BYLAYER
 62
     1
 10
223.317406
 20
-433.117747
 30
0.0
 11
223.317406
 21
-471.117747
 31
0.0
  0
LINE
  8
0
  6
BYLAYER
 62
     1
 10
223.317406
 20
-433.117747
 30
0.0
 11
223.730919
 21
-433.096018
 31
0.0
  0
ARC
  8
0
  6
BYLAYER
 62
     1
 10
223.704735
 20
-432.596751
 30
0.0
 40
0.500015
 50
273.000530
 51
344.999979
  0
LINE
  8
0
  6
BYLAYER
 62
     1
 10
231.249260
 20
-406.372019
 30
0.0
 11
224.187706
 21
-432.726145
 31
0.0
  0
LINE
  8
0
  6
BYLAYER
 62
     1
 10
231.317406
 20
-373.592234
 30
0.0
 11
231.317406
 21
-471.117747
 31
0.0
  0
ARC
  8
0
  6
BYLAYER
 62
     1
 10
229.317406
 20
-405.854441
 30
0.0
 40
2.000003
 50
344.999986
 51
359.999996
  0
LINE
  8
0
  6
BYLAYER
 62
     1
 10
231.317406
 20
-388.748484
 30
0.0
 11
224.490258
 21
-431.596995
 31
0.0
  0
LINE
  8
0
  6
BYLAYER
 62
     1
 10
233.212670
 20
-371.594920
 30
0.0
 11
242.317406
 21
-371.117698
 31
0.0
  0
LINE
  8
0
  6
BYLAYER
 62
     1
 10
242.317406
 20
-371.117698
 30
0.0
 11
242.317406
 21
-388.617747
 31
0.0
  0
ENDSEC
  0
EOF
