  0
SECTION
  2
HEADER
  9
$EXTMIN
 10
101.658703
 20
562.0
 30
0.0
  9
$EXTMAX
 10
780.662116
 20
0.0
 30
0.0
  0
ENDSEC
  0
SECTION
  2
TABLES
  0
ENDSEC
  0
SECTION
  2
BLOCKS
  0
ENDSEC
  0
SECTION
  2
ENTITIES
  0
LINE
  8
0
  6
BYLAYER
 62
     7
 10
281.837531
 20
-37.660349
 30
0.0
 11
276.037482
 21
-37.660349
 31
0.0
  0
ARC
  8
0
  6
BYLAYER
 62
     7
 10
281.837531
 20
-39.160349
 30
0.0
 40
1.5
 50
0.0
 51
90.000003
  0
ARC
  8
0
  6
BYLAYER
 62
     7
 10
311.237540
 20
-39.160349
 30
0.0
 40
1.500000
 50
90.0
 51
180.000003
  0
LINE
  8
0
  6
BYLAYER
 62
     7
 10
320.837531
 20
-37.660349
 30
0.0
 11
311.237540
 21
-37.660349
 31
0.0
  0
ARC
  8
0
  6
BYLAYER
 62
     7
 10
320.837531
 20
-39.160349
 30
0.0
 40
1.5
 50
0.0
 51
90.000003
  0
LINE
  8
0
  6
BYLAYER
 62
     7
 10
356.037543
 20
-37.660288
 30
0.0
 11
350.237555
 21
-37.660288
 31
0.0
  0
ARC
  8
0
  6
BYLAYER
 62
     7
 10
350.237555
 20
-39.160288
 30
0.0
 40
1.500000
 50
90.0
 51
180.000003
  0
ARC
  8
0
  6
BYLAYER
 62
     7
 10
296.537543
 20
-46.660288
 30
0.0
 40
13.200012
 50
180.000000
 51
359.999995
  0
ARC
  8
0
  6
BYLAYER
 62
     7
 10
335.537543
 20
-46.660288
 30
0.0
 40
13.200012
 50
180.000000
 51
359.999995
  0
LINE
  8
0
  6
BYLAYER
 62
     7
 10
276.037482
 20
-43.160349
 30
0.0
 11
281.837531
 21
-43.160349
 31
0.0
  0
LINE
  8
0
  6
BYLAYER
 62
     7
 10
283.337531
 20
-39.160349
 30
0.0
 11
283.337531
 21
-44.660349
 31
0.0
  0
LINE
  8
0
  6
BYLAYER
 62
     7
 10
283.337531
 20
-44.660349
 30
0.0
 11
283.337531
 21
-46.660288
 31
0.0
  0
ARC
  8
0
  6
BYLAYER
 62
     7
 10
281.837531
 20
-44.660349
 30
0.0
 40
1.5
 50
0.0
 51
90.000003
  0
ARC
  8
0
  6
BYLAYER
 62
     7
 10
311.237540
 20
-44.660288
 30
0.0
 40
1.500000
 50
90.0
 51
180.000003
  0
LINE
  8
0
  6
BYLAYER
 62
     7
 10
311.237540
 20
-43.160288
 30
0.0
 11
320.837531
 21
-43.160288
 31
0.0
  0
LINE
  8
0
  6
BYLAYER
 62
     7
 10
322.337531
 20
-39.160349
 30
0.0
 11
322.337531
 21
-44.660288
 31
0.0
  0
LINE
  8
0
  6
BYLAYER
 62
     7
 10
322.337531
 20
-44.660288
 30
0.0
 11
322.337531
 21
-46.660288
 31
0.0
  0
ARC
  8
0
  6
BYLAYER
 62
     7
 10
320.837531
 20
-44.660288
 30
0.0
 40
1.5
 50
0.0
 51
90.000003
  0
LINE
  8
0
  6
BYLAYER
 62
     7
 10
348.737555
 20
-46.660288
 30
0.0
 11
348.737555
 21
-44.660288
 31
0.0
  0
LINE
  8
0
  6
BYLAYER
 62
     7
 10
348.737555
 20
-44.660288
 30
0.0
 11
348.737555
 21
-39.160288
 31
0.0
  0
LINE
  8
0
  6
BYLAYER
 62
     7
 10
350.237555
 20
-43.160288
 30
0.0
 11
356.037543
 21
-43.160288
 31
0.0
  0
ARC
  8
0
  6
BYLAYER
 62
     7
 10
350.237555
 20
-44.660288
 30
0.0
 40
1.500000
 50
90.0
 51
180.000003
  0
LINE
  8
0
  6
BYLAYER
 62
     7
 10
309.737540
 20
-39.160349
 30
0.0
 11
309.737540
 21
-46.660288
 31
0.0
  0
LINE
  8
0
  6
BYLAYER
 62
     7
 10
274.037482
 20
-52.910410
 30
0.0
 11
276.037512
 21
-52.910410
 31
0.0
  0
LINE
  8
0
  6
BYLAYER
 62
     7
 10
376.537604
 20
-50.908121
 30
0.0
 11
356.037543
 21
-50.908121
 31
0.0
  0
LINE
  8
0
  6
BYLAYER
 62
     7
 10
356.037543
 20
-33.160288
 30
0.0
 11
356.037543
 21
-66.928323
 31
0.0
  0
LINE
  8
0
  6
BYLAYER
 62
     7
 10
376.537604
 20
-46.450021
 30
0.0
 11
356.037543
 21
-46.450021
 31
0.0
  0
LINE
  8
0
  6
BYLAYER
 62
     7
 10
356.037543
 20
-42.326578
 30
0.0
 11
376.537604
 21
-42.326578
 31
0.0
  0
LINE
  8
0
  6
BYLAYER
 62
     7
 10
356.037543
 20
-43.672281
 30
0.0
 11
376.537604
 21
-43.672281
 31
0.0
  0
ARC
  8
0
  6
BYLAYER
 62
     7
 10
276.887534
 20
-104.810434
 30
0.0
 40
0.850006
 50
90.0
 51
269.999998
  0
ARC
  8
0
  6
BYLAYER
 62
     7
 10
280.887458
 20
-104.810434
 30
0.0
 40
0.850006
 50
90.0
 51
269.999998
  0
LINE
  8
0
  6
BYLAYER
 62
     7
 10
276.887519
 20
-103.960428
 30
0.0
 11
376.537604
 21
-103.960510
 31
0.0
  0
LINE
  8
0
  6
BYLAYER
 62
     7
 10
276.887519
 20
-105.660410
 30
0.0
 11
376.537604
 21
-105.660492
 31
0.0
  0
ARC
  8
0
  6
BYLAYER
 62
     7
 10
276.887534
 20
-94.110422
 30
0.0
 40
0.850006
 50
90.0
 51
269.999998
  0
ARC
  8
0
  6
BYLAYER
 62
     7
 10
280.887458
 20
-94.110422
 30
0.0
 40
0.850006
 50
90.0
 51
269.999998
  0
ARC
  8
0
  6
BYLAYER
 62
     7
 10
276.887534
 20
-83.410440
 30
0.0
 40
0.850006
 50
90.0
 51
269.999998
  0
ARC
  8
0
  6
BYLAYER
 62
     7
 10
280.887458
 20
-83.410440
 30
0.0
 40
0.850006
 50
90.0
 51
269.999998
  0
LINE
  8
0
  6
BYLAYER
 62
     7
 10
276.887519
 20
-82.560434
 30
0.0
 11
376.537604
 21
-82.560517
 31
0.0
  0
LINE
  8
0
  6
BYLAYER
 62
     7
 10
276.887519
 20
-84.260416
 30
0.0
 11
376.537604
 21
-84.260498
 31
0.0
  0
ARC
  8
0
  6
BYLAYER
 62
     7
 10
276.887534
 20
-72.710428
 30
0.0
 40
0.850006
 50
90.0
 51
269.999998
  0
ARC
  8
0
  6
BYLAYER
 62
     7
 10
280.887458
 20
-72.710428
 30
0.0
 40
0.850006
 50
90.0
 51
269.999998
  0
LINE
  8
0
  6
BYLAYER
 62
     7
 10
276.887519
 20
-71.860422
 30
0.0
 11
376.537604
 21
-71.860504
 31
0.0
  0
LINE
  8
0
  6
BYLAYER
 62
     7
 10
276.887519
 20
-73.560403
 30
0.0
 11
376.537604
 21
-73.560486
 31
0.0
  0
LINE
  8
0
  6
BYLAYER
 62
     7
 10
284.037482
 20
-94.960397
 30
0.0
 11
284.037482
 21
-103.960428
 31
0.0
  0
LINE
  8
0
  6
BYLAYER
 62
     7
 10
284.037482
 20
-84.260385
 30
0.0
 11
284.037482
 21
-93.260416
 31
0.0
  0
LINE
  8
0
  6
BYLAYER
 62
     7
 10
284.037482
 20
-73.560403
 30
0.0
 11
284.037482
 21
-82.560434
 31
0.0
  0
LINE
  8
0
  6
BYLAYER
 62
     7
 10
284.037482
 20
-66.928323
 30
0.0
 11
284.037482
 21
-71.860422
 31
0.0
  0
LINE
  8
0
  6
BYLAYER
 62
     7
 10
276.037512
 20
-62.618387
 30
0.0
 11
284.037482
 21
-66.928323
 31
0.0
  0
LINE
  8
0
  6
BYLAYER
 62
     7
 10
376.537604
 20
-66.928323
 30
0.0
 11
284.037482
 21
-66.928323
 31
0.0
  0
ARC
  8
0
  6
BYLAYER
 62
     7
 10
276.887534
 20
-115.510385
 30
0.0
 40
0.850006
 50
90.0
 51
269.999998
  0
ARC
  8
0
  6
BYLAYER
 62
     7
 10
280.887458
 20
-115.510385
 30
0.0
 40
0.850006
 50
90.0
 51
269.999998
  0
LINE
  8
0
  6
BYLAYER
 62
     7
 10
276.887519
 20
-116.360391
 30
0.0
 11
376.537604
 21
-116.360309
 31
0.0
  0
LINE
  8
0
  6
BYLAYER
 62
     7
 10
276.887519
 20
-114.660410
 30
0.0
 11
376.537604
 21
-114.660327
 31
0.0
  0
ARC
  8
0
  6
BYLAYER
 62
     7
 10
276.887534
 20
-126.210397
 30
0.0
 40
0.850006
 50
90.0
 51
269.999998
  0
ARC
  8
0
  6
BYLAYER
 62
     7
 10
280.887458
 20
-126.210397
 30
0.0
 40
0.850006
 50
90.0
 51
269.999998
  0
ARC
  8
0
  6
BYLAYER
 62
     7
 10
276.887534
 20
-136.910379
 30
0.0
 40
0.850006
 50
90.0
 51
269.999998
  0
ARC
  8
0
  6
BYLAYER
 62
     7
 10
280.887458
 20
-136.910379
 30
0.0
 40
0.850006
 50
90.0
 51
269.999998
  0
LINE
  8
0
  6
BYLAYER
 62
     7
 10
276.887519
 20
-137.760385
 30
0.0
 11
376.537604
 21
-137.760303
 31
0.0
  0
LINE
  8
0
  6
BYLAYER
 62
     7
 10
276.887519
 20
-136.060403
 30
0.0
 11
376.537604
 21
-136.060321
 31
0.0
  0
ARC
  8
0
  6
BYLAYER
 62
     7
 10
276.887534
 20
-147.610391
 30
0.0
 40
0.850006
 50
90.0
 51
269.999998
  0
ARC
  8
0
  6
BYLAYER
 62
     7
 10
280.887458
 20
-147.610391
 30
0.0
 40
0.850006
 50
90.0
 51
269.999998
  0
LINE
  8
0
  6
BYLAYER
 62
     7
 10
276.887519
 20
-148.460397
 30
0.0
 11
376.537604
 21
-148.460315
 31
0.0
  0
LINE
  8
0
  6
BYLAYER
 62
     7
 10
276.887519
 20
-146.760416
 30
0.0
 11
376.537604
 21
-146.760333
 31
0.0
  0
LINE
  8
0
  6
BYLAYER
 62
     7
 10
284.037482
 20
-125.360422
 30
0.0
 11
284.037482
 21
-116.360391
 31
0.0
  0
LINE
  8
0
  6
BYLAYER
 62
     7
 10
284.037482
 20
-136.060434
 30
0.0
 11
284.037482
 21
-127.060403
 31
0.0
  0
LINE
  8
0
  6
BYLAYER
 62
     7
 10
284.037482
 20
-146.760416
 30
0.0
 11
284.037482
 21
-137.760385
 31
0.0
  0
LINE
  8
0
  6
BYLAYER
 62
     7
 10
276.037604
 20
-167.410410
 30
0.0
 11
276.037482
 21
-33.160288
 31
0.0
  0
LINE
  8
0
  6
BYLAYER
 62
     7
 10
276.037604
 20
-167.410410
 30
0.0
 11
274.037604
 21
-167.410410
 31
0.0
  0
LINE
  8
0
  6
BYLAYER
 62
     7
 10
284.037482
 20
-105.660410
 30
0.0
 11
284.037482
 21
-114.660410
 31
0.0
  0
LINE
  8
0
  6
BYLAYER
 62
     7
 10
276.037589
 20
-148.886820
 30
0.0
 11
278.210334
 21
-156.995645
 31
0.0
  0
ARC
  8
0
  6
BYLAYER
 62
     7
 10
280.142188
 20
-156.478006
 30
0.0
 40
2.000003
 50
195.000016
 51
270.000001
  0
LINE
  8
0
  6
BYLAYER
 62
     7
 10
276.037589
 20
-152.324411
 30
0.0
 11
279.507758
 21
-165.275217
 31
0.0
  0
ARC
  8
0
  6
BYLAYER
 62
     7
 10
281.439597
 20
-164.757578
 30
0.0
 40
1.999988
 50
195.000043
 51
270.000001
  0
LINE
  8
0
  6
BYLAYER
 62
     7
 10
276.037604
 20
-160.119012
 30
0.0
 11
278.986457
 21
-171.124292
 31
0.0
  0
ARC
  8
0
  6
BYLAYER
 62
     7
 10
280.918311
 20
-170.606653
 30
0.0
 40
2.000003
 50
195.000043
 51
270.000001
  0
LINE
  8
0
  6
BYLAYER
 62
     7
 10
276.037604
 20
-164.758264
 30
0.0
 11
278.710334
 21
-174.733057
 31
0.0
  0
ARC
  8
0
  6
BYLAYER
 62
     7
 10
280.642188
 20
-174.215418
 30
0.0
 40
2.000003
 50
195.000043
 51
270.000001
  0
LINE
  8
0
  6
BYLAYER
 62
     7
 10
276.037604
 20
-167.410410
 30
0.0
 11
278.463660
 21
-176.464594
 31
0.0
  0
ARC
  8
0
  6
BYLAYER
 62
     7
 10
280.395514
 20
-175.946954
 30
0.0
 40
2.000003
 50
195.000016
 51
270.000001
  0
LINE
  8
0
  6
BYLAYER
 62
     7
 10
280.142188
 20
-158.478006
 30
0.0
 11
376.537604
 21
-158.477992
 31
0.0
  0
LINE
  8
0
  6
BYLAYER
 62
     7
 10
281.439597
 20
-166.757578
 30
0.0
 11
376.537604
 21
-166.757563
 31
0.0
  0
LINE
  8
0
  6
BYLAYER
 62
     7
 10
280.918311
 20
-172.606653
 30
0.0
 11
376.537604
 21
-172.606639
 31
0.0
  0
LINE
  8
0
  6
BYLAYER
 62
     7
 10
280.642188
 20
-176.215418
 30
0.0
 11
376.537604
 21
-176.215403
 31
0.0
  0
LINE
  8
0
  6
BYLAYER
 62
     7
 10
280.395514
 20
-177.946954
 30
0.0
 11
376.537604
 21
-177.946940
 31
0.0
  0
CIRCLE
  8
0
  6
BYLAYER
 62
     7
 10
304.537574
 20
-94.110422
 30
0.0
 40
3.0
  0
CIRCLE
  8
0
  6
BYLAYER
 62
     7
 10
359.537574
 20
-94.110422
 30
0.0
 40
3.0
  0
LINE
  8
0
  6
BYLAYER
 62
     7
 10
276.887519
 20
-93.260416
 30
0.0
 11
301.660498
 21
-93.260446
 31
0.0
  0
LINE
  8
0
  6
BYLAYER
 62
     7
 10
301.660498
 20
-94.960428
 30
0.0
 11
276.887519
 21
-94.960397
 31
0.0
  0
LINE
  8
0
  6
BYLAYER
 62
     7
 10
307.414649
 20
-93.260446
 30
0.0
 11
356.660498
 21
-93.260477
 31
0.0
  0
LINE
  8
0
  6
BYLAYER
 62
     7
 10
356.660529
 20
-94.960458
 30
0.0
 11
307.414633
 21
-94.960428
 31
0.0
  0
LINE
  8
0
  6
BYLAYER
 62
     7
 10
362.414649
 20
-93.260477
 30
0.0
 11
376.537604
 21
-93.260494
 31
0.0
  0
LINE
  8
0
  6
BYLAYER
 62
     7
 10
376.537604
 20
-94.960476
 30
0.0
 11
362.414618
 21
-94.960458
 31
0.0
  0
LINE
  8
0
  6
BYLAYER
 62
     7
 10
276.887519
 20
-125.360422
 30
0.0
 11
376.537604
 21
-125.360334
 31
0.0
  0
LINE
  8
0
  6
BYLAYER
 62
     7
 10
276.887519
 20
-127.060403
 30
0.0
 11
376.537604
 21
-127.060316
 31
0.0
  0
LINE
  8
0
  6
BYLAYER
 62
     7
 10
274.037482
 20
-52.910406
 30
0.0
 11
274.037604
 21
-167.410406
 31
0.0
  0
LINE
  8
0
  6
BYLAYER
 62
     7
 10
450.037604
 20
-55.160410
 30
0.0
 11
450.037604
 21
-165.160410
 31
0.0
  0
LINE
  8
0
  6
BYLAYER
 62
     7
 10
376.537604
 20
-40.710410
 30
0.0
 11
435.587604
 21
-40.710410
 31
0.0
  0
LINE
  8
0
  6
BYLAYER
 62
     7
 10
376.537604
 20
-179.610410
 30
0.0
 11
435.587604
 21
-179.610410
 31
0.0
  0
LINE
  8
0
  6
BYLAYER
 62
     7
 10
450.037604
 20
-55.160410
 30
0.0
 11
435.587604
 21
-40.710410
 31
0.0
  0
LINE
  8
0
  6
BYLAYER
 62
     7
 10
450.037604
 20
-165.160410
 30
0.0
 11
435.587604
 21
-179.610410
 31
0.0
  0
LINE
  8
0
  6
BYLAYER
 62
     7
 10
376.537604
 20
-110.160410
 30
0.0
 11
376.537604
 21
-179.610410
 31
0.0
  0
LINE
  8
0
  6
BYLAYER
 62
     7
 10
376.537604
 20
-110.160410
 30
0.0
 11
376.537604
 21
-40.710410
 31
0.0
  0
LINE
  8
0
  6
BYLAYER
 62
     7
 10
274.037543
 20
-52.151683
 30
0.0
 11
274.037543
 21
-168.169137
 31
0.0
  0
LINE
  8
0
  6
BYLAYER
 62
     7
 10
243.037543
 20
-30.160410
 30
0.0
 11
253.037543
 21
-30.160410
 31
0.0
  0
LINE
  8
0
  6
BYLAYER
 62
     7
 10
274.037543
 20
-52.151683
 30
0.0
 11
254.020087
 21
-51.802279
 31
0.0
  0
LINE
  8
0
  6
BYLAYER
 62
     7
 10
253.037543
 20
-30.160410
 30
0.0
 11
253.037543
 21
-110.160410
 31
0.0
  0
ARC
  8
0
  6
BYLAYER
 62
     7
 10
254.037543
 20
-50.802431
 30
0.0
 40
1.0
 50
180.000000
 51
269.000015
  0
LINE
  8
0
  6
BYLAYER
 62
     7
 10
243.037543
 20
-190.160410
 30
0.0
 11
253.037543
 21
-190.160410
 31
0.0
  0
LINE
  8
0
  6
BYLAYER
 62
     7
 10
272.537543
 20
-177.160410
 30
0.0
 11
253.037543
 21
-177.500786
 31
0.0
  0
LINE
  8
0
  6
BYLAYER
 62
     7
 10
272.537543
 20
-177.160410
 30
0.0
 11
272.537543
 21
-168.160410
 31
0.0
  0
LINE
  8
0
  6
BYLAYER
 62
     7
 10
274.037543
 20
-168.169137
 30
0.0
 11
272.537543
 21
-168.195318
 31
0.0
  0
LINE
  8
0
  6
BYLAYER
 62
     7
 10
253.037543
 20
-190.160410
 30
0.0
 11
253.037543
 21
-110.160410
 31
0.0
  0
LINE
  8
0
  6
BYLAYER
 62
     7
 10
243.037543
 20
-190.160410
 30
0.0
 11
243.037543
 21
-110.160410
 31
0.0
  0
LINE
  8
0
  6
BYLAYER
 62
     7
 10
243.037543
 20
-30.160410
 30
0.0
 11
243.037543
 21
-110.160410
 31
0.0
  0
ARC
  8
0
  6
BYLAYER
 62
     7
 10
346.791820
 20
-22.660288
 30
0.0
 40
1.500000
 50
180.000000
 51
270.000000
  0
ARC
  8
0
  6
BYLAYER
 62
     7
 10
285.283144
 20
-22.660288
 30
0.0
 40
1.500000
 50
270.0
 51
360.0
  0
ARC
  8
0
  6
BYLAYER
 62
     7
 10
277.537482
 20
-22.660288
 30
0.0
 40
1.5
 50
270.0
 51
360.0
  0
ARC
  8
0
  6
BYLAYER
 62
     7
 10
277.537482
 20
-25.660288
 30
0.0
 40
1.500000
 50
90.0
 51
180.0
  0
ARC
  8
0
  6
BYLAYER
 62
     7
 10
354.537482
 20
-22.660288
 30
0.0
 40
1.500000
 50
180.000000
 51
270.000000
  0
LINE
  8
0
  6
BYLAYER
 62
     7
 10
279.037482
 20
-22.660288
 30
0.0
 11
279.037482
 21
-1.160288
 31
0.0
  0
ARC
  8
0
  6
BYLAYER
 62
     7
 10
280.537482
 20
-1.160288
 30
0.0
 40
1.500000
 50
90.0
 51
180.0
  0
LINE
  8
0
  6
BYLAYER
 62
     7
 10
353.037482
 20
-22.660288
 30
0.0
 11
353.037482
 21
-1.160288
 31
0.0
  0
LINE
  8
0
  6
BYLAYER
 62
     7
 10
280.537482
 20
0.339712
 30
0.0
 11
351.537482
 21
0.339712
 31
0.0
  0
ARC
  8
0
  6
BYLAYER
 62
     7
 10
343.791820
 20
-1.160288
 30
0.0
 40
1.500000
 50
0.0
 51
90.0
  0
ARC
  8
0
  6
BYLAYER
 62
     7
 10
351.537482
 20
-1.160288
 30
0.0
 40
1.500000
 50
0.0
 51
90.0
  0
LINE
  8
0
  6
BYLAYER
 62
     7
 10
286.783144
 20
-22.660288
 30
0.0
 11
286.783144
 21
-1.160288
 31
0.0
  0
ARC
  8
0
  6
BYLAYER
 62
     7
 10
288.283144
 20
-1.160288
 30
0.0
 40
1.5
 50
90.0
 51
180.0
  0
LINE
  8
0
  6
BYLAYER
 62
     7
 10
345.291820
 20
-22.660288
 30
0.0
 11
345.291820
 21
-1.160288
 31
0.0
  0
ARC
  8
0
  6
BYLAYER
 62
     7
 10
354.537482
 20
-25.660288
 30
0.0
 40
1.5
 50
0.0
 51
90.0
  0
LINE
  8
0
  6
BYLAYER
 62
     7
 10
356.037482
 20
-33.160288
 30
0.0
 11
356.037482
 21
-25.660288
 31
0.0
  0
LINE
  8
0
  6
BYLAYER
 62
     7
 10
354.537482
 20
-24.160288
 30
0.0
 11
277.537482
 21
-24.160288
 31
0.0
  0
LINE
  8
0
  6
BYLAYER
 62
     7
 10
276.037482
 20
-25.660288
 30
0.0
 11
276.037482
 21
-33.160288
 31
0.0
  0
LINE
  8
0
  6
BYLAYER
 62
     7
 10
276.037482
 20
-33.160288
 30
0.0
 11
356.037482
 21
-33.160288
 31
0.0
  0
LINE
  8
0
  6
BYLAYER
 62
     7
 10
356.037482
 20
-31.160288
 30
0.0
 11
276.037482
 21
-31.160288
 31
0.0
  0
LINE
  8
0
  6
BYLAYER
 62
     7
 10
435.587604
 20
-179.610410
 30
0.0
 11
435.587604
 21
-40.710410
 31
0.0
  0
ARC
  8
0
  6
BYLAYER
 62
     7
 10
276.887534
 20
-497.610391
 30
0.0
 40
0.850006
 50
111.034603
 51
269.999998
  0
ARC
  8
0
  6
BYLAYER
 62
     7
 10
280.887458
 20
-497.610391
 30
0.0
 40
0.850006
 50
148.036043
 51
269.999998
  0
LINE
  8
0
  6
BYLAYER
 62
     7
 10
276.887519
 20
-498.460397
 30
0.0
 11
376.537604
 21
-498.460315
 31
0.0
  0
LINE
  8
0
  6
BYLAYER
 62
     7
 10
276.037604
 20
-517.410410
 30
0.0
 11
276.037552
 21
-460.160410
 31
0.0
  0
LINE
  8
0
  6
BYLAYER
 62
     7
 10
276.037604
 20
-517.410410
 30
0.0
 11
274.037604
 21
-517.410410
 31
0.0
  0
LINE
  8
0
  6
BYLAYER
 62
     7
 10
276.037589
 20
-498.886820
 30
0.0
 11
278.210334
 21
-506.995645
 31
0.0
  0
ARC
  8
0
  6
BYLAYER
 62
     7
 10
280.142188
 20
-506.478006
 30
0.0
 40
2.000003
 50
195.000016
 51
270.000001
  0
LINE
  8
0
  6
BYLAYER
 62
     7
 10
276.037589
 20
-502.324411
 30
0.0
 11
279.507758
 21
-515.275217
 31
0.0
  0
ARC
  8
0
  6
BYLAYER
 62
     7
 10
281.439597
 20
-514.757578
 30
0.0
 40
1.999988
 50
195.000043
 51
270.000001
  0
LINE
  8
0
  6
BYLAYER
 62
     7
 10
276.037604
 20
-510.119012
 30
0.0
 11
278.986457
 21
-521.124292
 31
0.0
  0
ARC
  8
0
  6
BYLAYER
 62
     7
 10
280.918311
 20
-520.606653
 30
0.0
 40
2.000003
 50
195.000043
 51
270.000001
  0
LINE
  8
0
  6
BYLAYER
 62
     7
 10
276.037604
 20
-514.758264
 30
0.0
 11
278.710334
 21
-524.733057
 31
0.0
  0
ARC
  8
0
  6
BYLAYER
 62
     7
 10
280.642188
 20
-524.215418
 30
0.0
 40
2.000003
 50
195.000043
 51
270.000001
  0
LINE
  8
0
  6
BYLAYER
 62
     7
 10
276.037604
 20
-517.410410
 30
0.0
 11
278.463660
 21
-526.464594
 31
0.0
  0
ARC
  8
0
  6
BYLAYER
 62
     7
 10
280.395514
 20
-525.946954
 30
0.0
 40
2.000003
 50
195.000016
 51
270.000001
  0
LINE
  8
0
  6
BYLAYER
 62
     7
 10
280.142188
 20
-508.478006
 30
0.0
 11
376.537604
 21
-508.477992
 31
0.0
  0
LINE
  8
0
  6
BYLAYER
 62
     7
 10
281.439597
 20
-516.757578
 30
0.0
 11
376.537604
 21
-516.757563
 31
0.0
  0
LINE
  8
0
  6
BYLAYER
 62
     7
 10
280.918311
 20
-522.606653
 30
0.0
 11
376.537604
 21
-522.606639
 31
0.0
  0
LINE
  8
0
  6
BYLAYER
 62
     7
 10
280.642188
 20
-526.215418
 30
0.0
 11
376.537604
 21
-526.215403
 31
0.0
  0
LINE
  8
0
  6
BYLAYER
 62
     7
 10
280.395514
 20
-527.946954
 30
0.0
 11
376.537604
 21
-527.946940
 31
0.0
  0
LINE
  8
0
  6
BYLAYER
 62
     7
 10
274.037543
 20
-460.160410
 30
0.0
 11
274.037604
 21
-517.410406
 31
0.0
  0
LINE
  8
0
  6
BYLAYER
 62
     7
 10
450.037604
 20
-460.160410
 30
0.0
 11
450.037604
 21
-515.160410
 31
0.0
  0
LINE
  8
0
  6
BYLAYER
 62
     7
 10
376.537604
 20
-529.610410
 30
0.0
 11
435.587604
 21
-529.610410
 31
0.0
  0
LINE
  8
0
  6
BYLAYER
 62
     7
 10
450.037604
 20
-515.160410
 30
0.0
 11
435.587604
 21
-529.610410
 31
0.0
  0
LINE
  8
0
  6
BYLAYER
 62
     7
 10
376.537604
 20
-460.160410
 30
0.0
 11
376.537604
 21
-529.610410
 31
0.0
  0
LINE
  8
0
  6
BYLAYER
 62
     7
 10
279.037552
 20
-484.677095
 30
0.0
 11
279.037552
 21
-460.160410
 31
0.0
  0
LINE
  8
0
  6
BYLAYER
 62
     7
 10
353.037552
 20
-460.160410
 30
0.0
 11
353.037552
 21
-484.677095
 31
0.0
  0
LINE
  8
0
  6
BYLAYER
 62
     7
 10
343.575146
 20
-494.410410
 30
0.0
 11
288.499958
 21
-494.410410
 31
0.0
  0
LINE
  8
0
  6
BYLAYER
 62
     7
 10
293.142250
 20
-465.261516
 30
0.0
 11
279.037552
 21
-465.754063
 31
0.0
  0
ARC
  8
0
  6
BYLAYER
 62
     7
 10
293.037552
 20
-462.263344
 30
0.0
 40
3.0
 50
272.000000
 51
360.000000
  0
LINE
  8
0
  6
BYLAYER
 62
     7
 10
293.142250
 20
-480.261516
 30
0.0
 11
279.037552
 21
-480.754063
 31
0.0
  0
ARC
  8
0
  6
BYLAYER
 62
     7
 10
293.037552
 20
-477.263344
 30
0.0
 40
3.0
 50
272.000000
 51
360.000000
  0
LINE
  8
0
  6
BYLAYER
 62
     7
 10
279.037552
 20
-469.566757
 30
0.0
 11
293.142250
 21
-470.059304
 31
0.0
  0
ARC
  8
0
  6
BYLAYER
 62
     7
 10
293.037552
 20
-473.057476
 30
0.0
 40
3.000000
 50
0.0
 51
88.0
  0
LINE
  8
0
  6
BYLAYER
 62
     7
 10
296.037552
 20
-473.057476
 30
0.0
 11
296.037552
 21
-477.263344
 31
0.0
  0
LINE
  8
0
  6
BYLAYER
 62
     7
 10
296.037552
 20
-460.160410
 30
0.0
 11
296.037552
 21
-462.263344
 31
0.0
  0
LINE
  8
0
  6
BYLAYER
 62
     7
 10
280.037552
 20
-460.160410
 30
0.0
 11
280.037552
 21
-465.719142
 31
0.0
  0
LINE
  8
0
  6
BYLAYER
 62
     7
 10
280.037552
 20
-469.601678
 30
0.0
 11
280.037552
 21
-480.719142
 31
0.0
  0
LINE
  8
0
  6
BYLAYER
 62
     7
 10
338.932853
 20
-465.261516
 30
0.0
 11
353.037552
 21
-465.754063
 31
0.0
  0
ARC
  8
0
  6
BYLAYER
 62
     7
 10
339.037552
 20
-462.263344
 30
0.0
 40
3.000000
 50
180.000000
 51
268.000000
  0
LINE
  8
0
  6
BYLAYER
 62
     7
 10
338.932853
 20
-480.261516
 30
0.0
 11
353.037552
 21
-480.754063
 31
0.0
  0
ARC
  8
0
  6
BYLAYER
 62
     7
 10
339.037552
 20
-477.263344
 30
0.0
 40
3.000000
 50
180.000000
 51
268.000000
  0
LINE
  8
0
  6
BYLAYER
 62
     7
 10
353.037552
 20
-469.566757
 30
0.0
 11
338.932853
 21
-470.059304
 31
0.0
  0
ARC
  8
0
  6
BYLAYER
 62
     7
 10
339.037552
 20
-473.057476
 30
0.0
 40
3.0
 50
92.000000
 51
180.000000
  0
LINE
  8
0
  6
BYLAYER
 62
     7
 10
336.037552
 20
-473.057476
 30
0.0
 11
336.037552
 21
-477.263344
 31
0.0
  0
LINE
  8
0
  6
BYLAYER
 62
     7
 10
336.037552
 20
-460.160410
 30
0.0
 11
336.037552
 21
-462.263344
 31
0.0
  0
LINE
  8
0
  6
BYLAYER
 62
     7
 10
352.037552
 20
-460.160410
 30
0.0
 11
352.037552
 21
-465.719142
 31
0.0
  0
LINE
  8
0
  6
BYLAYER
 62
     7
 10
352.037552
 20
-469.601678
 30
0.0
 11
352.037552
 21
-480.719142
 31
0.0
  0
LINE
  8
0
  6
BYLAYER
 62
     7
 10
276.037552
 20
-460.160410
 30
0.0
 11
276.037552
 21
-495.660410
 31
0.0
  0
ARC
  8
0
  6
BYLAYER
 62
     7
 10
277.537552
 20
-495.660410
 30
0.0
 40
1.5
 50
180.000000
 51
270.000000
  0
LINE
  8
0
  6
BYLAYER
 62
     7
 10
356.037552
 20
-495.660410
 30
0.0
 11
356.037552
 21
-460.160410
 31
0.0
  0
LINE
  8
0
  6
BYLAYER
 62
     7
 10
277.537552
 20
-497.160410
 30
0.0
 11
354.537552
 21
-497.160410
 31
0.0
  0
ARC
  8
0
  6
BYLAYER
 62
     7
 10
354.537552
 20
-495.660410
 30
0.0
 40
1.5
 50
270.0
 51
360.0
  0
ARC
  8
0
  6
BYLAYER
 62
     7
 10
351.037552
 20
-492.160410
 30
0.0
 40
6.000000
 50
86.177446
 51
185.739170
  0
ARC
  8
0
  6
BYLAYER
 62
     7
 10
351.537552
 20
-484.677095
 30
0.0
 40
1.5
 50
266.177446
 51
360.000000
  0
ARC
  8
0
  6
BYLAYER
 62
     7
 10
343.575146
 20
-492.910410
 30
0.0
 40
1.5
 50
270.0
 51
365.739170
  0
ARC
  8
0
  6
BYLAYER
 62
     7
 10
281.037552
 20
-492.160410
 30
0.0
 40
6.000000
 50
354.260830
 51
453.822554
  0
ARC
  8
0
  6
BYLAYER
 62
     7
 10
288.499958
 20
-492.910410
 30
0.0
 40
1.500000
 50
174.260830
 51
270.000000
  0
ARC
  8
0
  6
BYLAYER
 62
     7
 10
280.537552
 20
-484.677095
 30
0.0
 40
1.500000
 50
180.000000
 51
273.822554
  0
ARC
  8
0
  6
BYLAYER
 62
     7
 10
303.037552
 20
-487.160410
 30
0.0
 40
3.0
 50
180.000000
 51
270.000000
  0
ARC
  8
0
  6
BYLAYER
 62
     7
 10
329.037552
 20
-487.160410
 30
0.0
 40
3.0
 50
270.0
 51
360.0
  0
LINE
  8
0
  6
BYLAYER
 62
     7
 10
303.037552
 20
-490.160410
 30
0.0
 11
329.037552
 21
-490.160410
 31
0.0
  0
LINE
  8
0
  6
BYLAYER
 62
     7
 10
300.037552
 20
-487.160410
 30
0.0
 11
300.037552
 21
-460.160410
 31
0.0
  0
LINE
  8
0
  6
BYLAYER
 62
     7
 10
332.037552
 20
-460.160410
 30
0.0
 11
332.037552
 21
-487.160410
 31
0.0
  0
LINE
  8
0
  6
BYLAYER
 62
     7
 10
376.537604
 20
-486.060321
 30
0.0
 11
356.037552
 21
-486.060338
 31
0.0
  0
LINE
  8
0
  6
BYLAYER
 62
     7
 10
376.537604
 20
-487.760303
 30
0.0
 11
356.037552
 21
-487.760320
 31
0.0
  0
LINE
  8
0
  6
BYLAYER
 62
     7
 10
376.537604
 20
-496.760324
 30
0.0
 11
355.557449
 21
-496.760324
 31
0.0
  0
ARC
  8
0
  6
BYLAYER
 62
     7
 10
276.887534
 20
-422.710429
 30
0.0
 40
0.850006
 50
90.0
 51
248.965395
  0
ARC
  8
0
  6
BYLAYER
 62
     7
 10
280.887458
 20
-422.710429
 30
0.0
 40
0.850006
 50
90.0
 51
211.963955
  0
LINE
  8
0
  6
BYLAYER
 62
     7
 10
276.887519
 20
-421.860423
 30
0.0
 11
376.537604
 21
-421.860505
 31
0.0
  0
LINE
  8
0
  6
BYLAYER
 62
     7
 10
276.037604
 20
-402.910410
 30
0.0
 11
276.037552
 21
-460.160410
 31
0.0
  0
LINE
  8
0
  6
BYLAYER
 62
     7
 10
276.037604
 20
-402.910410
 30
0.0
 11
274.037604
 21
-402.910410
 31
0.0
  0
LINE
  8
0
  6
BYLAYER
 62
     7
 10
276.037589
 20
-421.434000
 30
0.0
 11
278.210334
 21
-413.325175
 31
0.0
  0
ARC
  8
0
  6
BYLAYER
 62
     7
 10
280.142188
 20
-413.842814
 30
0.0
 40
2.000003
 50
90.0
 51
164.999985
  0
LINE
  8
0
  6
BYLAYER
 62
     7
 10
276.037589
 20
-417.996409
 30
0.0
 11
279.507758
 21
-405.045603
 31
0.0
  0
ARC
  8
0
  6
BYLAYER
 62
     7
 10
281.439597
 20
-405.563242
 30
0.0
 40
1.999988
 50
90.0
 51
164.999958
  0
LINE
  8
0
  6
BYLAYER
 62
     7
 10
276.037604
 20
-410.201808
 30
0.0
 11
278.986457
 21
-399.196528
 31
0.0
  0
ARC
  8
0
  6
BYLAYER
 62
     7
 10
280.918311
 20
-399.714167
 30
0.0
 40
2.000003
 50
90.0
 51
164.999958
  0
LINE
  8
0
  6
BYLAYER
 62
     7
 10
276.037604
 20
-405.562556
 30
0.0
 11
278.710334
 21
-395.587763
 31
0.0
  0
ARC
  8
0
  6
BYLAYER
 62
     7
 10
280.642188
 20
-396.105402
 30
0.0
 40
2.000003
 50
90.0
 51
164.999958
  0
LINE
  8
0
  6
BYLAYER
 62
     7
 10
276.037604
 20
-402.910410
 30
0.0
 11
278.463660
 21
-393.856226
 31
0.0
  0
ARC
  8
0
  6
BYLAYER
 62
     7
 10
280.395514
 20
-394.373866
 30
0.0
 40
2.000003
 50
90.0
 51
164.999985
  0
LINE
  8
0
  6
BYLAYER
 62
     7
 10
280.142188
 20
-411.842814
 30
0.0
 11
376.537604
 21
-411.842828
 31
0.0
  0
LINE
  8
0
  6
BYLAYER
 62
     7
 10
281.439597
 20
-403.563242
 30
0.0
 11
376.537604
 21
-403.563257
 31
0.0
  0
LINE
  8
0
  6
BYLAYER
 62
     7
 10
280.918311
 20
-397.714167
 30
0.0
 11
376.537604
 21
-397.714181
 31
0.0
  0
LINE
  8
0
  6
BYLAYER
 62
     7
 10
280.642188
 20
-394.105402
 30
0.0
 11
376.537604
 21
-394.105417
 31
0.0
  0
LINE
  8
0
  6
BYLAYER
 62
     7
 10
280.395514
 20
-392.373866
 30
0.0
 11
376.537604
 21
-392.373880
 31
0.0
  0
LINE
  8
0
  6
BYLAYER
 62
     7
 10
274.037543
 20
-460.160410
 30
0.0
 11
274.037604
 21
-402.910414
 31
0.0
  0
LINE
  8
0
  6
BYLAYER
 62
     7
 10
450.037604
 20
-460.160410
 30
0.0
 11
450.037604
 21
-405.160410
 31
0.0
  0
LINE
  8
0
  6
BYLAYER
 62
     7
 10
376.537604
 20
-390.710410
 30
0.0
 11
435.587604
 21
-390.710410
 31
0.0
  0
LINE
  8
0
  6
BYLAYER
 62
     7
 10
450.037604
 20
-405.160410
 30
0.0
 11
435.587604
 21
-390.710410
 31
0.0
  0
LINE
  8
0
  6
BYLAYER
 62
     7
 10
376.537604
 20
-460.160410
 30
0.0
 11
376.537604
 21
-390.710410
 31
0.0
  0
LINE
  8
0
  6
BYLAYER
 62
     7
 10
279.037552
 20
-435.643725
 30
0.0
 11
279.037552
 21
-460.160410
 31
0.0
  0
LINE
  8
0
  6
BYLAYER
 62
     7
 10
353.037552
 20
-460.160410
 30
0.0
 11
353.037552
 21
-435.643725
 31
0.0
  0
LINE
  8
0
  6
BYLAYER
 62
     7
 10
343.575146
 20
-425.910410
 30
0.0
 11
288.499958
 21
-425.910410
 31
0.0
  0
LINE
  8
0
  6
BYLAYER
 62
     7
 10
293.142250
 20
-455.059304
 30
0.0
 11
279.037552
 21
-454.566757
 31
0.0
  0
ARC
  8
0
  6
BYLAYER
 62
     7
 10
293.037552
 20
-458.057476
 30
0.0
 40
3.000000
 50
0.0
 51
88.0
  0
LINE
  8
0
  6
BYLAYER
 62
     7
 10
293.142250
 20
-440.059304
 30
0.0
 11
279.037552
 21
-439.566757
 31
0.0
  0
ARC
  8
0
  6
BYLAYER
 62
     7
 10
293.037552
 20
-443.057476
 30
0.0
 40
3.000000
 50
0.0
 51
88.0
  0
LINE
  8
0
  6
BYLAYER
 62
     7
 10
279.037552
 20
-450.754063
 30
0.0
 11
293.142250
 21
-450.261516
 31
0.0
  0
ARC
  8
0
  6
BYLAYER
 62
     7
 10
293.037552
 20
-447.263344
 30
0.0
 40
3.0
 50
272.000000
 51
360.000000
  0
LINE
  8
0
  6
BYLAYER
 62
     7
 10
296.037552
 20
-447.263344
 30
0.0
 11
296.037552
 21
-443.057476
 31
0.0
  0
LINE
  8
0
  6
BYLAYER
 62
     7
 10
296.037552
 20
-460.160410
 30
0.0
 11
296.037552
 21
-458.057476
 31
0.0
  0
LINE
  8
0
  6
BYLAYER
 62
     7
 10
280.037552
 20
-460.160410
 30
0.0
 11
280.037552
 21
-454.601678
 31
0.0
  0
LINE
  8
0
  6
BYLAYER
 62
     7
 10
280.037552
 20
-450.719142
 30
0.0
 11
280.037552
 21
-439.601678
 31
0.0
  0
LINE
  8
0
  6
BYLAYER
 62
     7
 10
338.932853
 20
-455.059304
 30
0.0
 11
353.037552
 21
-454.566757
 31
0.0
  0
ARC
  8
0
  6
BYLAYER
 62
     7
 10
339.037552
 20
-458.057476
 30
0.0
 40
3.0
 50
92.000000
 51
180.000000
  0
LINE
  8
0
  6
BYLAYER
 62
     7
 10
338.932853
 20
-440.059304
 30
0.0
 11
353.037552
 21
-439.566757
 31
0.0
  0
ARC
  8
0
  6
BYLAYER
 62
     7
 10
339.037552
 20
-443.057476
 30
0.0
 40
3.0
 50
92.000000
 51
180.000000
  0
LINE
  8
0
  6
BYLAYER
 62
     7
 10
353.037552
 20
-450.754063
 30
0.0
 11
338.932853
 21
-450.261516
 31
0.0
  0
ARC
  8
0
  6
BYLAYER
 62
     7
 10
339.037552
 20
-447.263344
 30
0.0
 40
3.000000
 50
180.000000
 51
268.000000
  0
LINE
  8
0
  6
BYLAYER
 62
     7
 10
336.037552
 20
-447.263344
 30
0.0
 11
336.037552
 21
-443.057476
 31
0.0
  0
LINE
  8
0
  6
BYLAYER
 62
     7
 10
336.037552
 20
-460.160410
 30
0.0
 11
336.037552
 21
-458.057476
 31
0.0
  0
LINE
  8
0
  6
BYLAYER
 62
     7
 10
352.037552
 20
-460.160410
 30
0.0
 11
352.037552
 21
-454.601678
 31
0.0
  0
LINE
  8
0
  6
BYLAYER
 62
     7
 10
352.037552
 20
-450.719142
 30
0.0
 11
352.037552
 21
-439.601678
 31
0.0
  0
LINE
  8
0
  6
BYLAYER
 62
     7
 10
276.037552
 20
-460.160410
 30
0.0
 11
276.037552
 21
-424.660410
 31
0.0
  0
ARC
  8
0
  6
BYLAYER
 62
     7
 10
277.537552
 20
-424.660410
 30
0.0
 40
1.5
 50
90.0
 51
180.0
  0
LINE
  8
0
  6
BYLAYER
 62
     7
 10
356.037552
 20
-424.660410
 30
0.0
 11
356.037552
 21
-460.160410
 31
0.0
  0
LINE
  8
0
  6
BYLAYER
 62
     7
 10
277.537552
 20
-423.160410
 30
0.0
 11
354.537552
 21
-423.160410
 31
0.0
  0
ARC
  8
0
  6
BYLAYER
 62
     7
 10
354.537552
 20
-424.660410
 30
0.0
 40
1.500000
 50
0.0
 51
90.0
  0
ARC
  8
0
  6
BYLAYER
 62
     7
 10
351.037552
 20
-428.160410
 30
0.0
 40
6.000000
 50
174.260830
 51
273.822554
  0
ARC
  8
0
  6
BYLAYER
 62
     7
 10
351.537552
 20
-435.643725
 30
0.0
 40
1.500000
 50
0.0
 51
93.822554
  0
ARC
  8
0
  6
BYLAYER
 62
     7
 10
343.575146
 20
-427.410410
 30
0.0
 40
1.500000
 50
354.260830
 51
450.000000
  0
ARC
  8
0
  6
BYLAYER
 62
     7
 10
281.037552
 20
-428.160410
 30
0.0
 40
6.000000
 50
266.177446
 51
365.739170
  0
ARC
  8
0
  6
BYLAYER
 62
     7
 10
288.499958
 20
-427.410410
 30
0.0
 40
1.500000
 50
90.0
 51
185.73917
  0
ARC
  8
0
  6
BYLAYER
 62
     7
 10
280.537552
 20
-435.643725
 30
0.0
 40
1.5
 50
86.177446
 51
180.0
  0
ARC
  8
0
  6
BYLAYER
 62
     7
 10
303.037552
 20
-433.160410
 30
0.0
 40
3.0
 50
90.0
 51
180.0
  0
ARC
  8
0
  6
BYLAYER
 62
     7
 10
329.037552
 20
-433.160410
 30
0.0
 40
3.0
 50
0.0
 51
90.0
  0
LINE
  8
0
  6
BYLAYER
 62
     7
 10
303.037552
 20
-430.160410
 30
0.0
 11
329.037552
 21
-430.160410
 31
0.0
  0
LINE
  8
0
  6
BYLAYER
 62
     7
 10
300.037552
 20
-433.160410
 30
0.0
 11
300.037552
 21
-460.160410
 31
0.0
  0
LINE
  8
0
  6
BYLAYER
 62
     7
 10
332.037552
 20
-460.160410
 30
0.0
 11
332.037552
 21
-433.160410
 31
0.0
  0
LINE
  8
0
  6
BYLAYER
 62
     7
 10
376.537604
 20
-434.260499
 30
0.0
 11
356.037552
 21
-434.260482
 31
0.0
  0
LINE
  8
0
  6
BYLAYER
 62
     7
 10
376.537604
 20
-432.560517
 30
0.0
 11
356.037552
 21
-432.560500
 31
0.0
  0
LINE
  8
0
  6
BYLAYER
 62
     7
 10
376.537604
 20
-423.560496
 30
0.0
 11
355.557449
 21
-423.560496
 31
0.0
  0
LINE
  8
0
  6
BYLAYER
 62
     7
 10
274.037543
 20
-402.151683
 30
0.0
 11
274.037543
 21
-460.160410
 31
0.0
  0
LINE
  8
0
  6
BYLAYER
 62
     7
 10
243.037543
 20
-380.160410
 30
0.0
 11
253.037543
 21
-380.160410
 31
0.0
  0
LINE
  8
0
  6
BYLAYER
 62
     7
 10
274.037543
 20
-402.151683
 30
0.0
 11
254.020087
 21
-401.802279
 31
0.0
  0
LINE
  8
0
  6
BYLAYER
 62
     7
 10
253.037543
 20
-380.160410
 30
0.0
 11
253.037543
 21
-460.160410
 31
0.0
  0
ARC
  8
0
  6
BYLAYER
 62
     7
 10
254.037543
 20
-400.802431
 30
0.0
 40
1.0
 50
180.000000
 51
269.000015
  0
LINE
  8
0
  6
BYLAYER
 62
     7
 10
243.037543
 20
-380.160410
 30
0.0
 11
243.037543
 21
-460.160410
 31
0.0
  0
LINE
  8
0
  6
BYLAYER
 62
     7
 10
274.037543
 20
-518.169137
 30
0.0
 11
274.037543
 21
-460.160410
 31
0.0
  0
LINE
  8
0
  6
BYLAYER
 62
     7
 10
243.037543
 20
-540.160410
 30
0.0
 11
253.037543
 21
-540.160410
 31
0.0
  0
LINE
  8
0
  6
BYLAYER
 62
     7
 10
274.037543
 20
-518.169137
 30
0.0
 11
254.020087
 21
-518.518541
 31
0.0
  0
LINE
  8
0
  6
BYLAYER
 62
     7
 10
253.037543
 20
-540.160410
 30
0.0
 11
253.037543
 21
-460.160410
 31
0.0
  0
ARC
  8
0
  6
BYLAYER
 62
     7
 10
254.037543
 20
-519.518389
 30
0.0
 40
1.0
 50
90.999990
 51
180.000005
  0
LINE
  8
0
  6
BYLAYER
 62
     7
 10
243.037543
 20
-540.160410
 30
0.0
 11
243.037543
 21
-460.160410
 31
0.0
  0
LINE
  8
0
  6
BYLAYER
 62
     7
 10
435.587604
 20
-390.710410
 30
0.0
 11
435.587604
 21
-529.610410
 31
0.0
  0
LINE
  8
0
  6
BYLAYER
 62
     1
 10
133.037543
 20
-76.160410
 30
0.0
 11
134.537543
 21
-77.660410
 31
0.0
  0
LINE
  8
0
  6
BYLAYER
 62
     1
 10
133.037543
 20
-220.160410
 30
0.0
 11
134.537543
 21
-218.660410
 31
0.0
  0
LINE
  8
0
  6
BYLAYER
 62
     1
 10
103.037543
 20
-190.160410
 30
0.0
 11
104.537543
 21
-188.660410
 31
0.0
  0
LINE
  8
0
  6
BYLAYER
 62
     1
 10
133.037543
 20
-76.160410
 30
0.0
 11
104.537543
 21
-76.160410
 31
0.0
  0
LINE
  8
0
  6
BYLAYER
 62
     1
 10
104.537543
 20
-76.160410
 30
0.0
 11
103.037543
 21
-77.660410
 31
0.0
  0
LINE
  8
0
  6
BYLAYER
 62
     1
 10
133.037543
 20
-220.160410
 30
0.0
 11
104.537543
 21
-220.160410
 31
0.0
  0
LINE
  8
0
  6
BYLAYER
 62
     1
 10
104.537543
 20
-220.160410
 30
0.0
 11
103.037543
 21
-218.660410
 31
0.0
  0
LINE
  8
0
  6
BYLAYER
 62
     1
 10
223.037543
 20
-190.160410
 30
0.0
 11
221.537543
 21
-188.660410
 31
0.0
  0
LINE
  8
0
  6
BYLAYER
 62
     1
 10
193.037543
 20
-220.160410
 30
0.0
 11
221.537543
 21
-220.160410
 31
0.0
  0
LINE
  8
0
  6
BYLAYER
 62
     1
 10
221.537543
 20
-220.160410
 30
0.0
 11
223.037543
 21
-218.660410
 31
0.0
  0
LINE
  8
0
  6
BYLAYER
 62
     1
 10
223.037543
 20
-218.660410
 30
0.0
 11
223.037543
 21
-190.160410
 31
0.0
  0
LINE
  8
0
  6
BYLAYER
 62
     1
 10
193.037543
 20
-220.160410
 30
0.0
 11
191.537543
 21
-218.660410
 31
0.0
  0
LINE
  8
0
  6
BYLAYER
 62
     1
 10
193.037543
 20
-76.160410
 30
0.0
 11
221.537543
 21
-76.160410
 31
0.0
  0
LINE
  8
0
  6
BYLAYER
 62
     1
 10
221.537543
 20
-76.160410
 30
0.0
 11
223.037543
 21
-77.660410
 31
0.0
  0
LINE
  8
0
  6
BYLAYER
 62
     1
 10
193.037543
 20
-76.160410
 30
0.0
 11
191.537543
 21
-77.660410
 31
0.0
  0
LINE
  8
0
  6
BYLAYER
 62
     1
 10
134.537543
 20
-77.660410
 30
0.0
 11
191.537543
 21
-77.660410
 31
0.0
  0
LINE
  8
0
  6
BYLAYER
 62
     1
 10
134.537543
 20
-218.660410
 30
0.0
 11
191.537543
 21
-218.660410
 31
0.0
  0
LINE
  8
0
  6
BYLAYER
 62
     1
 10
103.037543
 20
-77.660410
 30
0.0
 11
103.037543
 21
-138.160410
 31
0.0
  0
LINE
  8
0
  6
BYLAYER
 62
     1
 10
103.037543
 20
-138.160410
 30
0.0
 11
104.537543
 21
-138.212778
 31
0.0
  0
LINE
  8
0
  6
BYLAYER
 62
     1
 10
223.037543
 20
-106.160410
 30
0.0
 11
221.537543
 21
-107.660410
 31
0.0
  0
LINE
  8
0
  6
BYLAYER
 62
     1
 10
221.537543
 20
-107.660410
 30
0.0
 11
221.537543
 21
-188.660410
 31
0.0
  0
ARC
  8
0
  6
BYLAYER
 62
     1
 10
214.037543
 20
-85.160410
 30
0.0
 40
2.000000
 50
0.0
 51
90.000016
  0
ARC
  8
0
  6
BYLAYER
 62
     1
 10
214.037543
 20
-211.160410
 30
0.0
 40
2.000000
 50
270.0
 51
359.999982
  0
ARC
  8
0
  6
BYLAYER
 62
     1
 10
112.037543
 20
-211.160410
 30
0.0
 40
2.0
 50
180.000000
 51
269.999996
  0
ARC
  8
0
  6
BYLAYER
 62
     1
 10
112.037543
 20
-85.160410
 30
0.0
 40
2.0
 50
90.0
 51
180.000009
  0
LINE
  8
0
  6
BYLAYER
 62
     1
 10
223.037543
 20
-106.160410
 30
0.0
 11
216.037543
 21
-106.160410
 31
0.0
  0
LINE
  8
0
  6
BYLAYER
 62
     1
 10
223.037543
 20
-190.160410
 30
0.0
 11
216.037543
 21
-190.160410
 31
0.0
  0
LINE
  8
0
  6
BYLAYER
 62
     1
 10
103.037543
 20
-106.160410
 30
0.0
 11
110.037543
 21
-106.160410
 31
0.0
  0
LINE
  8
0
  6
BYLAYER
 62
     1
 10
103.037543
 20
-190.160410
 30
0.0
 11
110.037543
 21
-190.160410
 31
0.0
  0
ARC
  8
0
  6
BYLAYER
 62
     1
 10
139.037543
 20
-100.160410
 30
0.0
 40
1.000000
 50
90.0
 51
269.999991
  0
ARC
  8
0
  6
BYLAYER
 62
     1
 10
132.037543
 20
-110.160410
 30
0.0
 40
1.0
 50
270.0
 51
450.000005
  0
ARC
  8
0
  6
BYLAYER
 62
     1
 10
123.037543
 20
-120.160410
 30
0.0
 40
1.000000
 50
270.0
 51
450.000005
  0
ARC
  8
0
  6
BYLAYER
 62
     1
 10
115.037543
 20
-130.160410
 30
0.0
 40
1.0
 50
270.0
 51
450.000005
  0
ARC
  8
0
  6
BYLAYER
 62
     1
 10
194.037543
 20
-110.160410
 30
0.0
 40
1.000000
 50
90.0
 51
270.000005
  0
ARC
  8
0
  6
BYLAYER
 62
     1
 10
203.037543
 20
-120.160410
 30
0.0
 40
1.000000
 50
90.0
 51
270.000005
  0
ARC
  8
0
  6
BYLAYER
 62
     1
 10
211.037543
 20
-130.160410
 30
0.0
 40
1.0
 50
90.0
 51
270.000005
  0
LINE
  8
0
  6
BYLAYER
 62
     1
 10
133.037543
 20
-76.160410
 30
0.0
 11
133.037543
 21
-83.160410
 31
0.0
  0
LINE
  8
0
  6
BYLAYER
 62
     1
 10
134.537543
 20
-77.660410
 30
0.0
 11
134.537543
 21
-83.160410
 31
0.0
  0
LINE
  8
0
  6
BYLAYER
 62
     1
 10
191.537543
 20
-77.660410
 30
0.0
 11
191.537543
 21
-83.160410
 31
0.0
  0
LINE
  8
0
  6
BYLAYER
 62
     1
 10
193.037543
 20
-76.160410
 30
0.0
 11
193.037543
 21
-83.160410
 31
0.0
  0
LINE
  8
0
  6
BYLAYER
 62
     1
 10
133.037543
 20
-220.160410
 30
0.0
 11
133.037543
 21
-213.160410
 31
0.0
  0
LINE
  8
0
  6
BYLAYER
 62
     1
 10
193.037543
 20
-220.160410
 30
0.0
 11
193.037543
 21
-213.160410
 31
0.0
  0
LINE
  8
0
  6
BYLAYER
 62
     1
 10
215.451728
 20
-212.574656
 30
0.0
 11
211.037543
 21
-208.160410
 31
0.0
  0
LINE
  8
0
  6
BYLAYER
 62
     1
 10
110.623358
 20
-212.574656
 30
0.0
 11
115.037543
 21
-208.160410
 31
0.0
  0
ARC
  8
0
  6
BYLAYER
 62
     1
 10
144.625556
 20
-215.160410
 30
0.0
 40
2.000000
 50
71.491301
 51
90.0
  0
LINE
  8
0
  6
BYLAYER
 62
     1
 10
216.037543
 20
-178.572336
 30
0.0
 11
216.037543
 21
-211.160410
 31
0.0
  0
ARC
  8
0
  6
BYLAYER
 62
     1
 10
218.037543
 20
-178.572336
 30
0.0
 40
2.0
 50
161.491512
 51
180.000000
  0
ARC
  8
0
  6
BYLAYER
 62
     1
 10
163.037543
 20
-160.160410
 30
0.0
 40
55.999943
 50
341.491399
 51
378.508607
  0
ARC
  8
0
  6
BYLAYER
 62
     1
 10
218.037543
 20
-141.748484
 30
0.0
 40
2.0
 50
180.000000
 51
198.508488
  0
ARC
  8
0
  6
BYLAYER
 62
     1
 10
108.037543
 20
-141.748423
 30
0.0
 40
2.000000
 50
341.491591
 51
360.0
  0
LINE
  8
0
  6
BYLAYER
 62
     1
 10
112.037543
 20
-213.160410
 30
0.0
 11
144.625556
 21
-213.160410
 31
0.0
  0
ARC
  8
0
  6
BYLAYER
 62
     1
 10
163.037543
 20
-160.160410
 30
0.0
 40
56.000019
 50
251.491363
 51
288.508666
  0
LINE
  8
0
  6
BYLAYER
 62
     1
 10
181.449530
 20
-213.160410
 30
0.0
 11
214.037543
 21
-213.160410
 31
0.0
  0
ARC
  8
0
  6
BYLAYER
 62
     1
 10
181.449530
 20
-215.160410
 30
0.0
 40
1.999992
 50
90.0
 51
108.508488
  0
LINE
  8
0
  6
BYLAYER
 62
     1
 10
104.537543
 20
-126.038401
 30
0.0
 11
103.037543
 21
-126.038401
 31
0.0
  0
LINE
  8
0
  6
BYLAYER
 62
     1
 10
104.537543
 20
-137.080393
 30
0.0
 11
103.037543
 21
-137.080393
 31
0.0
  0
ARC
  8
0
  6
BYLAYER
 62
     1
 10
163.037543
 20
-160.160410
 30
0.0
 40
56.000076
 50
161.491326
 51
198.508657
  0
LINE
  8
0
  6
BYLAYER
 62
     1
 10
110.037543
 20
-178.572367
 30
0.0
 11
110.037543
 21
-211.160410
 31
0.0
  0
ARC
  8
0
  6
BYLAYER
 62
     1
 10
108.037543
 20
-178.572367
 30
0.0
 40
1.999934
 50
0.0
 51
18.508419
  0
LINE
  8
0
  6
BYLAYER
 62
     1
 10
211.037543
 20
-183.787716
 30
0.0
 11
211.037543
 21
-208.160410
 31
0.0
  0
LINE
  8
0
  6
BYLAYER
 62
     1
 10
132.037543
 20
-109.160410
 30
0.0
 11
111.037543
 21
-109.160410
 31
0.0
  0
ARC
  8
0
  6
BYLAYER
 62
     1
 10
111.037543
 20
-108.160410
 30
0.0
 40
1.0
 50
180.000000
 51
269.999996
  0
LINE
  8
0
  6
BYLAYER
 62
     1
 10
132.037543
 20
-111.160410
 30
0.0
 11
111.037543
 21
-111.160410
 31
0.0
  0
ARC
  8
0
  6
BYLAYER
 62
     1
 10
111.037543
 20
-112.160410
 30
0.0
 40
1.0
 50
90.0
 51
180.000003
  0
LINE
  8
0
  6
BYLAYER
 62
     1
 10
123.037543
 20
-119.160410
 30
0.0
 11
111.037543
 21
-119.160410
 31
0.0
  0
ARC
  8
0
  6
BYLAYER
 62
     1
 10
111.037543
 20
-118.160410
 30
0.0
 40
1.0
 50
180.000000
 51
269.999996
  0
LINE
  8
0
  6
BYLAYER
 62
     1
 10
123.037543
 20
-121.160410
 30
0.0
 11
111.037543
 21
-121.160410
 31
0.0
  0
ARC
  8
0
  6
BYLAYER
 62
     1
 10
111.037543
 20
-122.160410
 30
0.0
 40
1.0
 50
90.0
 51
180.000003
  0
LINE
  8
0
  6
BYLAYER
 62
     1
 10
115.037543
 20
-129.160410
 30
0.0
 11
111.037543
 21
-129.160410
 31
0.0
  0
ARC
  8
0
  6
BYLAYER
 62
     1
 10
111.037543
 20
-128.160410
 30
0.0
 40
1.0
 50
180.000000
 51
269.999996
  0
LINE
  8
0
  6
BYLAYER
 62
     1
 10
115.037543
 20
-131.160410
 30
0.0
 11
111.037543
 21
-131.160410
 31
0.0
  0
ARC
  8
0
  6
BYLAYER
 62
     1
 10
111.037543
 20
-132.160410
 30
0.0
 40
1.000000
 50
90.0
 51
180.000003
  0
LINE
  8
0
  6
BYLAYER
 62
     1
 10
203.037543
 20
-119.160410
 30
0.0
 11
215.037543
 21
-119.160410
 31
0.0
  0
ARC
  8
0
  6
BYLAYER
 62
     1
 10
215.037543
 20
-118.160410
 30
0.0
 40
1.0
 50
270.0
 51
360.000003
  0
LINE
  8
0
  6
BYLAYER
 62
     1
 10
203.037543
 20
-121.160410
 30
0.0
 11
215.037543
 21
-121.160410
 31
0.0
  0
ARC
  8
0
  6
BYLAYER
 62
     1
 10
215.037543
 20
-122.160410
 30
0.0
 40
1.000000
 50
0.0
 51
90.000003
  0
LINE
  8
0
  6
BYLAYER
 62
     1
 10
211.037543
 20
-129.160410
 30
0.0
 11
215.037543
 21
-129.160410
 31
0.0
  0
ARC
  8
0
  6
BYLAYER
 62
     1
 10
215.037543
 20
-128.160410
 30
0.0
 40
1.000000
 50
270.0
 51
360.000003
  0
LINE
  8
0
  6
BYLAYER
 62
     1
 10
211.037543
 20
-131.160410
 30
0.0
 11
215.037543
 21
-131.160410
 31
0.0
  0
ARC
  8
0
  6
BYLAYER
 62
     1
 10
215.037543
 20
-132.160410
 30
0.0
 40
1.000000
 50
0.0
 51
90.000003
  0
LINE
  8
0
  6
BYLAYER
 62
     1
 10
110.037543
 20
-141.748423
 30
0.0
 11
110.037543
 21
-85.160410
 31
0.0
  0
LINE
  8
0
  6
BYLAYER
 62
     1
 10
216.037543
 20
-141.748484
 30
0.0
 11
216.037543
 21
-85.160410
 31
0.0
  0
LINE
  8
0
  6
BYLAYER
 62
     1
 10
139.410237
 20
-208.160410
 30
0.0
 11
115.037543
 21
-208.160410
 31
0.0
  0
LINE
  8
0
  6
BYLAYER
 62
     1
 10
224.037543
 20
-84.320566
 30
0.0
 11
223.037543
 21
-84.320566
 31
0.0
  0
LINE
  8
0
  6
BYLAYER
 62
     1
 10
224.037543
 20
-105.175181
 30
0.0
 11
223.037543
 21
-105.175181
 31
0.0
  0
LINE
  8
0
  6
BYLAYER
 62
     1
 10
224.037543
 20
-115.145639
 30
0.0
 11
221.537543
 21
-115.145639
 31
0.0
  0
LINE
  8
0
  6
BYLAYER
 62
     1
 10
224.037543
 20
-135.480539
 30
0.0
 11
221.537543
 21
-135.480539
 31
0.0
  0
LINE
  8
0
  6
BYLAYER
 62
     1
 10
222.391547
 20
-77.014414
 30
0.0
 11
224.037543
 21
-77.014414
 31
0.0
  0
LINE
  8
0
  6
BYLAYER
 62
     1
 10
224.037543
 20
-143.306406
 30
0.0
 11
221.537543
 21
-143.306406
 31
0.0
  0
LINE
  8
0
  6
BYLAYER
 62
     1
 10
224.037543
 20
-143.306406
 30
0.0
 11
224.037543
 21
-77.014414
 31
0.0
  0
LINE
  8
0
  6
BYLAYER
 62
     1
 10
191.287543
 20
-208.160410
 30
0.0
 11
188.787543
 21
-208.160410
 31
0.0
  0
LINE
  8
0
  6
BYLAYER
 62
     1
 10
216.037543
 20
-107.660410
 30
0.0
 11
221.537543
 21
-107.660410
 31
0.0
  0
LINE
  8
0
  6
BYLAYER
 62
     1
 10
216.037543
 20
-188.660410
 30
0.0
 11
221.537543
 21
-188.660410
 31
0.0
  0
LINE
  8
0
  6
BYLAYER
 62
     1
 10
191.537543
 20
-213.160410
 30
0.0
 11
191.537543
 21
-218.660410
 31
0.0
  0
LINE
  8
0
  6
BYLAYER
 62
     1
 10
134.537543
 20
-213.160410
 30
0.0
 11
134.537543
 21
-218.660410
 31
0.0
  0
LINE
  8
0
  6
BYLAYER
 62
     1
 10
110.037543
 20
-188.660410
 30
0.0
 11
104.537543
 21
-188.660410
 31
0.0
  0
LINE
  8
0
  6
BYLAYER
 62
     1
 10
110.037543
 20
-107.660410
 30
0.0
 11
104.537543
 21
-107.660410
 31
0.0
  0
LINE
  8
0
  6
BYLAYER
 62
     1
 10
104.537543
 20
-107.660410
 30
0.0
 11
103.037543
 21
-106.160410
 31
0.0
  0
LINE
  8
0
  6
BYLAYER
 62
     1
 10
214.037543
 20
-83.160410
 30
0.0
 11
112.037543
 21
-83.160410
 31
0.0
  0
LINE
  8
0
  6
BYLAYER
 62
     1
 10
216.037543
 20
-196.410410
 30
0.0
 11
223.037543
 21
-196.410410
 31
0.0
  0
LINE
  8
0
  6
BYLAYER
 62
     1
 10
216.037543
 20
-204.910410
 30
0.0
 11
223.037543
 21
-204.910410
 31
0.0
  0
LINE
  8
0
  6
BYLAYER
 62
     1
 10
207.287543
 20
-220.160410
 30
0.0
 11
207.287543
 21
-213.160410
 31
0.0
  0
LINE
  8
0
  6
BYLAYER
 62
     1
 10
198.787543
 20
-220.160410
 30
0.0
 11
198.787543
 21
-213.160410
 31
0.0
  0
LINE
  8
0
  6
BYLAYER
 62
     1
 10
223.037543
 20
-77.660410
 30
0.0
 11
223.037543
 21
-106.160410
 31
0.0
  0
LINE
  8
0
  6
BYLAYER
 62
     1
 10
207.287543
 20
-76.160410
 30
0.0
 11
207.287543
 21
-83.160410
 31
0.0
  0
LINE
  8
0
  6
BYLAYER
 62
     1
 10
198.787543
 20
-76.160410
 30
0.0
 11
198.787543
 21
-83.160410
 31
0.0
  0
LINE
  8
0
  6
BYLAYER
 62
     1
 10
127.287543
 20
-76.160410
 30
0.0
 11
127.287543
 21
-83.160410
 31
0.0
  0
LINE
  8
0
  6
BYLAYER
 62
     1
 10
118.787543
 20
-76.160410
 30
0.0
 11
118.787543
 21
-83.160410
 31
0.0
  0
LINE
  8
0
  6
BYLAYER
 62
     1
 10
110.037543
 20
-91.410410
 30
0.0
 11
103.037543
 21
-91.410410
 31
0.0
  0
LINE
  8
0
  6
BYLAYER
 62
     1
 10
110.037543
 20
-99.910410
 30
0.0
 11
103.037543
 21
-99.910410
 31
0.0
  0
LINE
  8
0
  6
BYLAYER
 62
     1
 10
110.037543
 20
-196.410410
 30
0.0
 11
103.037543
 21
-196.410410
 31
0.0
  0
LINE
  8
0
  6
BYLAYER
 62
     1
 10
110.037543
 20
-204.910410
 30
0.0
 11
103.037543
 21
-204.910410
 31
0.0
  0
LINE
  8
0
  6
BYLAYER
 62
     1
 10
103.037543
 20
-218.660410
 30
0.0
 11
103.037543
 21
-190.160410
 31
0.0
  0
LINE
  8
0
  6
BYLAYER
 62
     1
 10
118.787543
 20
-220.160410
 30
0.0
 11
118.787543
 21
-213.160410
 31
0.0
  0
LINE
  8
0
  6
BYLAYER
 62
     1
 10
127.287543
 20
-220.160410
 30
0.0
 11
127.287543
 21
-213.160410
 31
0.0
  0
LINE
  8
0
  6
BYLAYER
 62
     1
 10
115.037543
 20
-183.787716
 30
0.0
 11
115.037543
 21
-208.160410
 31
0.0
  0
LINE
  8
0
  6
BYLAYER
 62
     1
 10
211.037543
 20
-208.160410
 30
0.0
 11
198.309210
 21
-208.160410
 31
0.0
  0
LINE
  8
0
  6
BYLAYER
 62
     1
 10
198.309210
 20
-208.160410
 30
0.0
 11
186.664849
 21
-208.160410
 31
0.0
  0
ARC
  8
0
  6
BYLAYER
 62
     1
 10
195.037543
 20
-100.160410
 30
0.0
 40
1.0
 50
270.0
 51
450.000005
  0
LINE
  8
0
  6
BYLAYER
 62
     1
 10
139.037543
 20
-99.160410
 30
0.0
 11
195.037543
 21
-99.160410
 31
0.0
  0
LINE
  8
0
  6
BYLAYER
 62
     1
 10
139.037543
 20
-101.160410
 30
0.0
 11
195.037543
 21
-101.160410
 31
0.0
  0
LINE
  8
0
  6
BYLAYER
 62
     1
 10
194.037543
 20
-109.160410
 30
0.0
 11
207.029257
 21
-109.160410
 31
0.0
  0
ARC
  8
0
  6
BYLAYER
 62
     1
 10
207.029257
 20
-108.160410
 30
0.0
 40
1.0
 50
270.0
 51
360.000003
  0
LINE
  8
0
  6
BYLAYER
 62
     1
 10
194.037543
 20
-111.160410
 30
0.0
 11
207.029257
 21
-111.160410
 31
0.0
  0
ARC
  8
0
  6
BYLAYER
 62
     1
 10
207.029257
 20
-112.160410
 30
0.0
 40
1.000000
 50
0.0
 51
90.000003
  0
LINE
  8
0
  6
BYLAYER
 62
     1
 10
104.537543
 20
-107.660410
 30
0.0
 11
104.537543
 21
-188.660410
 31
0.0
  0
LINE
  8
0
  6
BYLAYER
 62
     1
 10
216.037543
 20
-104.865397
 30
0.0
 11
209.984778
 21
-105.000040
 31
0.0
  0
LINE
  8
0
  6
BYLAYER
 62
     1
 10
208.029257
 20
-106.999552
 30
0.0
 11
208.029257
 21
-110.160410
 31
0.0
  0
ARC
  8
0
  6
BYLAYER
 62
     1
 10
210.029257
 20
-106.999552
 30
0.0
 40
2.000006
 50
91.274338
 51
180.000005
  0
LINE
  8
0
  6
BYLAYER
 62
     1
 10
208.029257
 20
-113.321268
 30
0.0
 11
208.029257
 21
-110.160410
 31
0.0
  0
LINE
  8
0
  6
BYLAYER
 62
     1
 10
216.037543
 20
-115.455423
 30
0.0
 11
209.984778
 21
-115.320780
 31
0.0
  0
ARC
  8
0
  6
BYLAYER
 62
     1
 10
210.029257
 20
-113.321268
 30
0.0
 40
2.000000
 50
180.000000
 51
268.725646
  0
ARC
  8
0
  6
BYLAYER
 62
     1
 10
193.089621
 20
-130.108439
 30
0.0
 40
3.999988
 50
353.659945
 51
636.339946
  0
CIRCLE
  8
0
  6
BYLAYER
 62
     1
 10
193.089621
 20
-130.108439
 30
0.0
 40
3.600000
  0
ARC
  8
0
  6
BYLAYER
 62
     1
 10
132.985572
 20
-130.108378
 30
0.0
 40
3.999988
 50
83.659964
 51
366.339965
  0
CIRCLE
  8
0
  6
BYLAYER
 62
     1
 10
132.985572
 20
-130.108378
 30
0.0
 40
3.600000
  0
ARC
  8
0
  6
BYLAYER
 62
     1
 10
193.089575
 20
-190.212427
 30
0.0
 40
3.999988
 50
83.659955
 51
366.339956
  0
CIRCLE
  8
0
  6
BYLAYER
 62
     1
 10
193.089575
 20
-190.212427
 30
0.0
 40
3.600000
  0
ARC
  8
0
  6
BYLAYER
 62
     1
 10
132.985526
 20
-190.212381
 30
0.0
 40
3.999988
 50
353.659928
 51
636.339929
  0
CIRCLE
  8
0
  6
BYLAYER
 62
     1
 10
132.985526
 20
-190.212381
 30
0.0
 40
3.600000
  0
ARC
  8
0
  6
BYLAYER
 62
     1
 10
163.037543
 20
-160.160410
 30
0.0
 40
50.000042
 50
44.999950
 51
51.003205
  0
ARC
  8
0
  6
BYLAYER
 62
     1
 10
193.242896
 20
-122.855692
 30
0.0
 40
1.999986
 50
51.003273
 51
118.656638
  0
ARC
  8
0
  6
BYLAYER
 62
     1
 10
184.850562
 20
-107.499277
 30
0.0
 40
15.500010
 50
196.343145
 51
298.65677
  0
ARC
  8
0
  6
BYLAYER
 62
     1
 10
168.057654
 20
-112.423624
 30
0.0
 40
2.000017
 50
16.343389
 51
83.996802
  0
ARC
  8
0
  6
BYLAYER
 62
     1
 10
200.342307
 20
-129.955149
 30
0.0
 40
2.000035
 50
331.343378
 51
398.996811
  0
ARC
  8
0
  6
BYLAYER
 62
     1
 10
163.037543
 20
-160.160410
 30
0.0
 40
50.000042
 50
38.996695
 51
44.999950
  0
ARC
  8
0
  6
BYLAYER
 62
     1
 10
163.037543
 20
-160.160410
 30
0.0
 40
50.000031
 50
359.999928
 51
366.003203
  0
ARC
  8
0
  6
BYLAYER
 62
     1
 10
163.037543
 20
-160.160410
 30
0.0
 40
50.000057
 50
89.999948
 51
96.003199
  0
ARC
  8
0
  6
BYLAYER
 62
     1
 10
158.017493
 20
-112.423624
 30
0.0
 40
2.000002
 50
96.003097
 51
163.656523
  0
ARC
  8
0
  6
BYLAYER
 62
     1
 10
141.224631
 20
-107.499247
 30
0.0
 40
15.499990
 50
241.343122
 51
343.656761
  0
ARC
  8
0
  6
BYLAYER
 62
     1
 10
132.832282
 20
-122.855631
 30
0.0
 40
1.999991
 50
61.343268
 51
128.996647
  0
ARC
  8
0
  6
BYLAYER
 62
     1
 10
163.037543
 20
-160.160410
 30
0.0
 40
50.000038
 50
128.996715
 51
134.999959
  0
ARC
  8
0
  6
BYLAYER
 62
     1
 10
163.037543
 20
-160.160410
 30
0.0
 40
50.000034
 50
134.999959
 51
141.003218
  0
ARC
  8
0
  6
BYLAYER
 62
     1
 10
125.732840
 20
-129.955088
 30
0.0
 40
2.000009
 50
141.003108
 51
208.656528
  0
ARC
  8
0
  6
BYLAYER
 62
     1
 10
110.376418
 20
-138.347391
 30
0.0
 40
15.500005
 50
286.343110
 51
388.656776
  0
ARC
  8
0
  6
BYLAYER
 62
     1
 10
115.300749
 20
-155.140329
 30
0.0
 40
2.000018
 50
106.343272
 51
173.996638
  0
ARC
  8
0
  6
BYLAYER
 62
     1
 10
163.037543
 20
-160.160410
 30
0.0
 40
50.000046
 50
173.996706
 51
179.999978
  0
ARC
  8
0
  6
BYLAYER
 62
     1
 10
163.037543
 20
-160.160410
 30
0.0
 40
50.000042
 50
269.999946
 51
276.003191
  0
ARC
  8
0
  6
BYLAYER
 62
     1
 10
163.037543
 20
-160.160410
 30
0.0
 40
50.000034
 50
263.996702
 51
269.999946
  0
ARC
  8
0
  6
BYLAYER
 62
     1
 10
158.017424
 20
-207.897196
 30
0.0
 40
2.000005
 50
196.343391
 51
263.996811
  0
ARC
  8
0
  6
BYLAYER
 62
     1
 10
168.057585
 20
-207.897211
 30
0.0
 40
2.000005
 50
276.003081
 51
343.656515
  0
ARC
  8
0
  6
BYLAYER
 62
     1
 10
163.037543
 20
-160.160410
 30
0.0
 40
50.000050
 50
308.996693
 51
314.999964
  0
ARC
  8
0
  6
BYLAYER
 62
     1
 10
163.037543
 20
-160.160410
 30
0.0
 40
50.000046
 50
314.999964
 51
321.003209
  0
ARC
  8
0
  6
BYLAYER
 62
     1
 10
200.342261
 20
-190.365702
 30
0.0
 40
2.000028
 50
321.003096
 51
388.656523
  0
ARC
  8
0
  6
BYLAYER
 62
     1
 10
215.698661
 20
-181.973398
 30
0.0
 40
15.499966
 50
106.343122
 51
208.656774
  0
ARC
  8
0
  6
BYLAYER
 62
     1
 10
210.774359
 20
-165.180506
 30
0.0
 40
1.999983
 50
286.343277
 51
353.996629
  0
ARC
  8
0
  6
BYLAYER
 62
     1
 10
163.037543
 20
-160.160410
 30
0.0
 40
50.000034
 50
353.996711
 51
359.999983
  0
ARC
  8
0
  6
BYLAYER
 62
     1
 10
163.037543
 20
-160.160410
 30
0.0
 40
50.000042
 50
179.999937
 51
186.003209
  0
ARC
  8
0
  6
BYLAYER
 62
     1
 10
115.300742
 20
-165.180430
 30
0.0
 40
2.000014
 50
186.003277
 51
253.656615
  0
ARC
  8
0
  6
BYLAYER
 62
     1
 10
110.376383
 20
-181.973322
 30
0.0
 40
15.500010
 50
331.343132
 51
433.656791
  0
ARC
  8
0
  6
BYLAYER
 62
     1
 10
125.732794
 20
-190.365656
 30
0.0
 40
2.000009
 50
151.343386
 51
218.996806
  0
ARC
  8
0
  6
BYLAYER
 62
     1
 10
163.037543
 20
-160.160410
 30
0.0
 40
50.000038
 50
218.996697
 51
224.999955
  0
ARC
  8
0
  6
BYLAYER
 62
     1
 10
132.832228
 20
-197.465128
 30
0.0
 40
2.000008
 50
231.003254
 51
298.656633
  0
ARC
  8
0
  6
BYLAYER
 62
     1
 10
163.037543
 20
-160.160410
 30
0.0
 40
50.000065
 50
83.996703
 51
89.999955
  0
ARC
  8
0
  6
BYLAYER
 62
     1
 10
184.850486
 20
-212.821558
 30
0.0
 40
15.500014
 50
112.499971
 51
163.656783
  0
ARC
  8
0
  6
BYLAYER
 62
     1
 10
141.224547
 20
-212.821512
 30
0.0
 40
15.499984
 50
16.343138
 51
67.499992
  0
ARC
  8
0
  6
BYLAYER
 62
     1
 10
141.224547
 20
-212.821512
 30
0.0
 40
15.499984
 50
67.499993
 51
118.656778
  0
ARC
  8
0
  6
BYLAYER
 62
     1
 10
163.037543
 20
-160.160410
 30
0.0
 40
50.000038
 50
224.999955
 51
231.003200
  0
ARC
  8
0
  6
BYLAYER
 62
     1
 10
210.774359
 20
-155.140390
 30
0.0
 40
1.999985
 50
6.004065
 51
65.195017
  0
LINE
  8
0
  6
BYLAYER
 62
     1
 10
110.176680
 20
-151.855021
 30
0.0
 11
110.143737
 21
-152.041849
 31
0.0
  0
LINE
  8
0
  6
BYLAYER
 62
     1
 10
215.551108
 20
-170.435404
 30
0.0
 11
215.518164
 21
-170.622248
 31
0.0
  0
ARC
  8
0
  6
BYLAYER
 62
     1
 10
193.242835
 20
-197.465174
 30
0.0
 40
1.999998
 50
245.352689
 51
308.996501
  0
ARC
  8
0
  6
BYLAYER
 62
     1
 10
184.850486
 20
-212.821558
 30
0.0
 40
15.500011
 50
60.826391
 51
112.499991
  0
CIRCLE
  8
0
  6
BYLAYER
 62
     1
 10
163.037543
 20
-160.160410
 30
0.0
 40
53.499996
  0
CIRCLE
  8
0
  6
BYLAYER
 62
     1
 10
163.037543
 20
-160.160410
 30
0.0
 40
31.0
  0
CIRCLE
  8
0
  6
BYLAYER
 62
     1
 10
163.037543
 20
-160.160410
 30
0.0
 40
34.999985
  0
ARC
  8
0
  6
BYLAYER
 62
     1
 10
215.698691
 20
-138.347483
 30
0.0
 40
15.499958
 50
151.343127
 51
254.743031
  0
ARC
  8
0
  6
BYLAYER
 62
     1
 10
155.312047
 20
-95.874587
 30
0.0
 40
1.724236
 50
270.0
 51
308.795511
  0
ARC
  8
0
  6
BYLAYER
 62
     1
 10
155.145186
 20
-95.696879
 30
0.0
 40
1.967374
 50
309.340351
 51
360.0
  0
ARC
  8
0
  6
BYLAYER
 62
     1
 10
155.145186
 20
-95.696879
 30
0.0
 40
1.967374
 50
0.0
 51
50.659649
  0
ARC
  8
0
  6
BYLAYER
 62
     1
 10
155.312047
 20
-95.519171
 30
0.0
 40
1.724236
 50
51.204489
 51
90.0
  0
ARC
  8
0
  6
BYLAYER
 62
     1
 10
155.312047
 20
-95.519155
 30
0.0
 40
1.724220
 50
90.0
 51
128.795693
  0
ARC
  8
0
  6
BYLAYER
 62
     1
 10
155.478924
 20
-95.696879
 30
0.0
 40
1.967380
 50
129.340576
 51
180.0
  0
ARC
  8
0
  6
BYLAYER
 62
     1
 10
155.478924
 20
-95.696879
 30
0.0
 40
1.967380
 50
180.000000
 51
230.659424
  0
ARC
  8
0
  6
BYLAYER
 62
     1
 10
155.312047
 20
-95.874602
 30
0.0
 40
1.724220
 50
231.204307
 51
270.0
  0
ARC
  8
0
  6
BYLAYER
 62
     1
 10
155.312047
 20
-95.190988
 30
0.0
 40
0.797848
 50
90.0
 51
140.793201
  0
ARC
  8
0
  6
BYLAYER
 62
     1
 10
155.932180
 20
-95.696879
 30
0.0
 40
1.598154
 50
140.793201
 51
180.000000
  0
ARC
  8
0
  6
BYLAYER
 62
     1
 10
155.932170
 20
-95.696879
 30
0.0
 40
1.598144
 50
180.000000
 51
219.206869
  0
ARC
  8
0
  6
BYLAYER
 62
     1
 10
155.312047
 20
-96.202763
 30
0.0
 40
0.797850
 50
219.206869
 51
270.000000
  0
ARC
  8
0
  6
BYLAYER
 62
     1
 10
155.312047
 20
-96.202763
 30
0.0
 40
0.797850
 50
270.0
 51
320.793131
  0
ARC
  8
0
  6
BYLAYER
 62
     1
 10
154.691924
 20
-95.696879
 30
0.0
 40
1.598144
 50
320.793131
 51
360.0
  0
ARC
  8
0
  6
BYLAYER
 62
     1
 10
154.691914
 20
-95.696879
 30
0.0
 40
1.598154
 50
0.0
 51
39.206799
  0
ARC
  8
0
  6
BYLAYER
 62
     1
 10
155.312047
 20
-95.190988
 30
0.0
 40
0.797848
 50
39.206799
 51
90.000000
  0
LINE
  8
0
  6
BYLAYER
 62
     1
 10
149.403343
 20
-97.472022
 30
0.0
 11
149.403343
 21
-93.871006
 31
0.0
  0
LINE
  8
0
  6
BYLAYER
 62
     1
 10
149.403343
 20
-93.871006
 30
0.0
 11
150.867418
 21
-93.871006
 31
0.0
  0
LINE
  8
0
  6
BYLAYER
 62
     1
 10
150.867418
 20
-93.871006
 30
0.0
 11
151.356008
 21
-95.747599
 31
0.0
  0
LINE
  8
0
  6
BYLAYER
 62
     1
 10
149.403343
 20
-97.472022
 30
0.0
 11
150.282469
 21
-97.472022
 31
0.0
  0
LINE
  8
0
  6
BYLAYER
 62
     1
 10
150.282469
 20
-97.472022
 30
0.0
 11
150.282469
 21
-95.392567
 31
0.0
  0
LINE
  8
0
  6
BYLAYER
 62
     1
 10
150.975615
 20
-97.472022
 30
0.0
 11
150.282469
 21
-95.392567
 31
0.0
  0
LINE
  8
0
  6
BYLAYER
 62
     1
 10
153.308672
 20
-97.472022
 30
0.0
 11
153.308672
 21
-93.871006
 31
0.0
  0
LINE
  8
0
  6
BYLAYER
 62
     1
 10
153.308672
 20
-93.871006
 30
0.0
 11
151.844597
 21
-93.871006
 31
0.0
  0
LINE
  8
0
  6
BYLAYER
 62
     1
 10
151.844597
 20
-93.871006
 30
0.0
 11
151.356008
 21
-95.747599
 31
0.0
  0
LINE
  8
0
  6
BYLAYER
 62
     1
 10
153.308672
 20
-97.472022
 30
0.0
 11
152.429546
 21
-97.472022
 31
0.0
  0
LINE
  8
0
  6
BYLAYER
 62
     1
 10
152.429546
 20
-97.472022
 30
0.0
 11
152.429546
 21
-95.392567
 31
0.0
  0
LINE
  8
0
  6
BYLAYER
 62
     1
 10
151.736400
 20
-97.472022
 30
0.0
 11
152.429546
 21
-95.392567
 31
0.0
  0
LINE
  8
0
  6
BYLAYER
 62
     1
 10
151.736400
 20
-97.472022
 30
0.0
 11
150.975615
 21
-97.472022
 31
0.0
  0
LINE
  8
0
  6
BYLAYER
 62
     1
 10
166.191176
 20
-97.472022
 30
0.0
 11
167.560567
 21
-93.871006
 31
0.0
  0
LINE
  8
0
  6
BYLAYER
 62
     1
 10
166.191176
 20
-97.472022
 30
0.0
 11
167.357704
 21
-97.472022
 31
0.0
  0
LINE
  8
0
  6
BYLAYER
 62
     1
 10
167.560567
 20
-93.871006
 30
0.0
 11
168.676375
 21
-93.871006
 31
0.0
  0
LINE
  8
0
  6
BYLAYER
 62
     1
 10
167.357704
 20
-97.472022
 30
0.0
 11
167.530611
 21
-96.964838
 31
0.0
  0
LINE
  8
0
  6
BYLAYER
 62
     1
 10
167.807246
 20
-96.153343
 30
0.0
 11
168.118471
 21
-95.240406
 31
0.0
  0
LINE
  8
0
  6
BYLAYER
 62
     1
 10
170.045784
 20
-97.472022
 30
0.0
 11
168.676375
 21
-93.871006
 31
0.0
  0
LINE
  8
0
  6
BYLAYER
 62
     1
 10
170.045784
 20
-97.472022
 30
0.0
 11
168.879256
 21
-97.472022
 31
0.0
  0
LINE
  8
0
  6
BYLAYER
 62
     1
 10
168.706349
 20
-96.964838
 30
0.0
 11
167.530611
 21
-96.964838
 31
0.0
  0
LINE
  8
0
  6
BYLAYER
 62
     1
 10
168.429695
 20
-96.153343
 30
0.0
 11
167.807246
 21
-96.153343
 31
0.0
  0
LINE
  8
0
  6
BYLAYER
 62
     1
 10
168.879256
 20
-97.472022
 30
0.0
 11
168.706349
 21
-96.964838
 31
0.0
  0
LINE
  8
0
  6
BYLAYER
 62
     1
 10
168.429695
 20
-96.153343
 30
0.0
 11
168.118471
 21
-95.240406
 31
0.0
  0
LINE
  8
0
  6
BYLAYER
 62
     1
 10
157.112560
 20
-94.758582
 30
0.0
 11
158.126927
 21
-94.758582
 31
0.0
  0
LINE
  8
0
  6
BYLAYER
 62
     1
 10
158.126927
 20
-94.758582
 30
0.0
 11
158.126927
 21
-97.472022
 31
0.0
  0
LINE
  8
0
  6
BYLAYER
 62
     1
 10
158.126927
 20
-97.472022
 30
0.0
 11
159.242745
 21
-97.472022
 31
0.0
  0
LINE
  8
0
  6
BYLAYER
 62
     1
 10
159.242745
 20
-97.472022
 30
0.0
 11
159.242745
 21
-94.758582
 31
0.0
  0
LINE
  8
0
  6
BYLAYER
 62
     1
 10
159.242745
 20
-94.758582
 30
0.0
 11
160.257112
 21
-94.758582
 31
0.0
  0
LINE
  8
0
  6
BYLAYER
 62
     1
 10
160.257112
 20
-94.758582
 30
0.0
 11
160.257112
 21
-93.871006
 31
0.0
  0
LINE
  8
0
  6
BYLAYER
 62
     1
 10
160.257112
 20
-93.871006
 30
0.0
 11
157.112560
 21
-93.871006
 31
0.0
  0
LINE
  8
0
  6
BYLAYER
 62
     1
 10
157.112560
 20
-93.871006
 30
0.0
 11
157.112560
 21
-94.758582
 31
0.0
  0
ARC
  8
0
  6
BYLAYER
 62
     1
 10
162.057616
 20
-95.874602
 30
0.0
 40
1.724220
 50
270.0
 51
308.795693
  0
ARC
  8
0
  6
BYLAYER
 62
     1
 10
161.890739
 20
-95.696879
 30
0.0
 40
1.967380
 50
309.340576
 51
360.0
  0
ARC
  8
0
  6
BYLAYER
 62
     1
 10
161.890745
 20
-95.696879
 30
0.0
 40
1.967374
 50
0.0
 51
50.659649
  0
ARC
  8
0
  6
BYLAYER
 62
     1
 10
162.057607
 20
-95.519171
 30
0.0
 40
1.724236
 50
51.204489
 51
90.0
  0
ARC
  8
0
  6
BYLAYER
 62
     1
 10
162.057607
 20
-95.519155
 30
0.0
 40
1.724220
 50
90.0
 51
128.795693
  0
ARC
  8
0
  6
BYLAYER
 62
     1
 10
162.224483
 20
-95.696879
 30
0.0
 40
1.967380
 50
129.340576
 51
180.0
  0
ARC
  8
0
  6
BYLAYER
 62
     1
 10
162.224477
 20
-95.696879
 30
0.0
 40
1.967374
 50
180.000000
 51
230.659649
  0
ARC
  8
0
  6
BYLAYER
 62
     1
 10
162.057616
 20
-95.874587
 30
0.0
 40
1.724236
 50
231.204489
 51
270.0
  0
ARC
  8
0
  6
BYLAYER
 62
     1
 10
162.057607
 20
-95.190988
 30
0.0
 40
0.797848
 50
90.0
 51
140.793201
  0
ARC
  8
0
  6
BYLAYER
 62
     1
 10
162.677739
 20
-95.696879
 30
0.0
 40
1.598154
 50
140.793201
 51
180.0
  0
ARC
  8
0
  6
BYLAYER
 62
     1
 10
162.677719
 20
-95.696879
 30
0.0
 40
1.598134
 50
180.000000
 51
219.207055
  0
ARC
  8
0
  6
BYLAYER
 62
     1
 10
162.057616
 20
-96.202750
 30
0.0
 40
0.797863
 50
219.207055
 51
270.000000
  0
ARC
  8
0
  6
BYLAYER
 62
     1
 10
162.057616
 20
-96.202763
 30
0.0
 40
0.797850
 50
270.0
 51
320.793131
  0
ARC
  8
0
  6
BYLAYER
 62
     1
 10
161.437493
 20
-95.696879
 30
0.0
 40
1.598144
 50
320.793131
 51
360.0
  0
ARC
  8
0
  6
BYLAYER
 62
     1
 10
161.437494
 20
-95.696879
 30
0.0
 40
1.598143
 50
0.0
 51
39.206985
  0
ARC
  8
0
  6
BYLAYER
 62
     1
 10
162.057607
 20
-95.191001
 30
0.0
 40
0.797861
 50
39.206985
 51
90.0
  0
LINE
  8
0
  6
BYLAYER
 62
     1
 10
170.142976
 20
-97.472022
 30
0.0
 11
170.142976
 21
-93.871006
 31
0.0
  0
LINE
  8
0
  6
BYLAYER
 62
     1
 10
170.142976
 20
-93.871006
 30
0.0
 11
172.374583
 21
-93.871006
 31
0.0
  0
ARC
  8
0
  6
BYLAYER
 62
     1
 10
172.374583
 20
-94.885383
 30
0.0
 40
1.014366
 50
287.134650
 51
450.000006
  0
ARC
  8
0
  6
BYLAYER
 62
     1
 10
172.577464
 20
-96.660526
 30
0.0
 40
0.811496
 50
0.0
 51
83.207557
  0
LINE
  8
0
  6
BYLAYER
 62
     1
 10
173.388960
 20
-96.660526
 30
0.0
 11
173.388960
 21
-97.167710
 31
0.0
  0
ARC
  8
0
  6
BYLAYER
 62
     1
 10
174.200456
 20
-97.167710
 30
0.0
 40
0.811496
 50
180.000000
 51
202.024314
  0
LINE
  8
0
  6
BYLAYER
 62
     1
 10
172.332368
 20
-97.472022
 30
0.0
 11
173.448176
 21
-97.472022
 31
0.0
  0
ARC
  8
0
  6
BYLAYER
 62
     1
 10
173.084648
 20
-97.167710
 30
0.0
 40
0.811496
 50
180.000000
 51
202.024314
  0
LINE
  8
0
  6
BYLAYER
 62
     1
 10
172.273152
 20
-97.167710
 30
0.0
 11
172.273152
 21
-96.761967
 31
0.0
  0
LINE
  8
0
  6
BYLAYER
 62
     1
 10
170.142976
 20
-97.472022
 30
0.0
 11
171.208064
 21
-97.472022
 31
0.0
  0
LINE
  8
0
  6
BYLAYER
 62
     1
 10
171.208064
 20
-97.472022
 30
0.0
 11
171.208064
 21
-96.254783
 31
0.0
  0
LINE
  8
0
  6
BYLAYER
 62
     1
 10
171.765968
 20
-96.254783
 30
0.0
 11
171.208064
 21
-96.254783
 31
0.0
  0
ARC
  8
0
  6
BYLAYER
 62
     1
 10
171.765968
 20
-96.761967
 30
0.0
 40
0.507184
 50
0.0
 51
90.000003
  0
LINE
  8
0
  6
BYLAYER
 62
     1
 10
171.208064
 20
-95.443287
 30
0.0
 11
171.208064
 21
-94.682502
 31
0.0
  0
LINE
  8
0
  6
BYLAYER
 62
     1
 10
171.208064
 20
-94.682502
 30
0.0
 11
171.918120
 21
-94.682502
 31
0.0
  0
LINE
  8
0
  6
BYLAYER
 62
     1
 10
171.208064
 20
-95.443287
 30
0.0
 11
171.918120
 21
-95.443287
 31
0.0
  0
ARC
  8
0
  6
BYLAYER
 62
     1
 10
171.918120
 20
-95.062895
 30
0.0
 40
0.380392
 50
270.0
 51
450.000005
  0
LINE
  8
0
  6
BYLAYER
 62
     1
 10
165.303609
 20
-96.333344
 30
0.0
 11
164.644264
 21
-93.871006
 31
0.0
  0
LINE
  8
0
  6
BYLAYER
 62
     1
 10
164.644264
 20
-93.871006
 30
0.0
 11
163.579176
 21
-93.871006
 31
0.0
  0
LINE
  8
0
  6
BYLAYER
 62
     1
 10
163.579176
 20
-93.871006
 30
0.0
 11
164.694984
 21
-97.472022
 31
0.0
  0
LINE
  8
0
  6
BYLAYER
 62
     1
 10
165.303609
 20
-96.333344
 30
0.0
 11
165.962935
 21
-93.871006
 31
0.0
  0
LINE
  8
0
  6
BYLAYER
 62
     1
 10
165.962935
 20
-93.871006
 30
0.0
 11
167.028023
 21
-93.871006
 31
0.0
  0
LINE
  8
0
  6
BYLAYER
 62
     1
 10
167.028023
 20
-93.871006
 30
0.0
 11
165.912215
 21
-97.472022
 31
0.0
  0
LINE
  8
0
  6
BYLAYER
 62
     1
 10
165.912215
 20
-97.472022
 30
0.0
 11
164.694984
 21
-97.472022
 31
0.0
  0
LINE
  8
0
  6
BYLAYER
 62
     1
 10
173.545369
 20
-97.472022
 30
0.0
 11
174.610457
 21
-97.472022
 31
0.0
  0
LINE
  8
0
  6
BYLAYER
 62
     1
 10
174.610457
 20
-97.472022
 30
0.0
 11
174.610457
 21
-93.871006
 31
0.0
  0
LINE
  8
0
  6
BYLAYER
 62
     1
 10
174.610457
 20
-93.871006
 30
0.0
 11
173.545369
 21
-93.871006
 31
0.0
  0
LINE
  8
0
  6
BYLAYER
 62
     1
 10
173.545369
 20
-93.871006
 30
0.0
 11
173.545369
 21
-97.472022
 31
0.0
  0
ARC
  8
0
  6
BYLAYER
 62
     1
 10
176.613841
 20
-95.874602
 30
0.0
 40
1.724220
 50
270.0
 51
308.795693
  0
ARC
  8
0
  6
BYLAYER
 62
     1
 10
176.446964
 20
-95.696879
 30
0.0
 40
1.967380
 50
309.340576
 51
360.0
  0
ARC
  8
0
  6
BYLAYER
 62
     1
 10
176.446964
 20
-95.696879
 30
0.0
 40
1.967380
 50
0.0
 51
50.659424
  0
ARC
  8
0
  6
BYLAYER
 62
     1
 10
176.613841
 20
-95.519155
 30
0.0
 40
1.724220
 50
51.204307
 51
90.0
  0
ARC
  8
0
  6
BYLAYER
 62
     1
 10
176.613841
 20
-95.519155
 30
0.0
 40
1.724220
 50
90.0
 51
128.795693
  0
ARC
  8
0
  6
BYLAYER
 62
     1
 10
176.780718
 20
-95.696879
 30
0.0
 40
1.967380
 50
129.340576
 51
180.0
  0
ARC
  8
0
  6
BYLAYER
 62
     1
 10
176.780718
 20
-95.696879
 30
0.0
 40
1.967380
 50
180.000000
 51
230.659424
  0
ARC
  8
0
  6
BYLAYER
 62
     1
 10
176.613841
 20
-95.874602
 30
0.0
 40
1.724220
 50
231.204307
 51
270.0
  0
ARC
  8
0
  6
BYLAYER
 62
     1
 10
176.613841
 20
-95.190988
 30
0.0
 40
0.797848
 50
39.206799
 51
90.0
  0
ARC
  8
0
  6
BYLAYER
 62
     1
 10
175.993708
 20
-95.696879
 30
0.0
 40
1.598154
 50
0.0
 51
39.206799
  0
ARC
  8
0
  6
BYLAYER
 62
     1
 10
175.993718
 20
-95.696879
 30
0.0
 40
1.598144
 50
320.793131
 51
360.000000
  0
ARC
  8
0
  6
BYLAYER
 62
     1
 10
176.613841
 20
-96.202763
 30
0.0
 40
0.797850
 50
270.0
 51
320.793131
  0
ARC
  8
0
  6
BYLAYER
 62
     1
 10
176.613841
 20
-96.202763
 30
0.0
 40
0.797850
 50
219.206869
 51
270.000000
  0
ARC
  8
0
  6
BYLAYER
 62
     1
 10
177.233964
 20
-95.696879
 30
0.0
 40
1.598144
 50
180.000000
 51
219.206869
  0
ARC
  8
0
  6
BYLAYER
 62
     1
 10
177.233974
 20
-95.696879
 30
0.0
 40
1.598154
 50
140.793201
 51
180.0
  0
ARC
  8
0
  6
BYLAYER
 62
     1
 10
176.613841
 20
-95.190988
 30
0.0
 40
0.797848
 50
90.0
 51
140.793201
  0
LINE
  8
0
  6
BYLAYER
 62
     1
 10
173.560457
 20
-93.871006
 30
0.0
 11
173.560457
 21
-97.472022
 31
0.0
  0
ARC
  8
0
  6
BYLAYER
 62
     1
 10
158.630724
 20
-89.748570
 30
0.0
 40
4.457997
 50
174.535650
 51
180.000000
  0
LINE
  8
0
  6
BYLAYER
 62
     1
 10
154.192984
 20
-89.324049
 30
0.0
 11
154.192984
 21
-89.324044
 31
0.0
  0
LINE
  8
0
  6
BYLAYER
 62
     1
 10
154.197835
 20
-89.276090
 30
0.0
 11
154.623297
 21
-89.096965
 31
0.0
  0
ARC
  8
0
  6
BYLAYER
 62
     1
 10
158.630742
 20
-89.748606
 30
0.0
 40
4.060069
 50
159.235383
 51
170.763998
  0
LINE
  8
0
  6
BYLAYER
 62
     1
 10
154.834377
 20
-88.309167
 30
0.0
 11
154.555498
 21
-87.941299
 31
0.0
  0
ARC
  8
0
  6
BYLAYER
 62
     1
 10
158.630724
 20
-89.748570
 30
0.0
 40
4.457992
 50
144.139514
 51
156.083795
  0
LINE
  8
0
  6
BYLAYER
 62
     1
 10
154.988445
 20
-87.178053
 30
0.0
 11
154.988710
 21
-87.177677
 31
0.0
  0
LINE
  8
0
  6
BYLAYER
 62
     1
 10
155.017763
 20
-87.137017
 30
0.0
 11
155.470718
 21
-87.199336
 31
0.0
  0
ARC
  8
0
  6
BYLAYER
 62
     1
 10
158.630724
 20
-89.748570
 30
0.0
 40
4.060044
 50
129.235643
 51
141.105976
  0
LINE
  8
0
  6
BYLAYER
 62
     1
 10
155.996312
 20
-86.659255
 30
0.0
 11
155.996752
 21
-86.658875
 31
0.0
  0
LINE
  8
0
  6
BYLAYER
 62
     1
 10
156.062700
 20
-86.603857
 30
0.0
 11
156.005104
 21
-86.145814
 31
0.0
  0
ARC
  8
0
  6
BYLAYER
 62
     1
 10
158.630724
 20
-89.748570
 30
0.0
 40
4.457996
 50
114.139607
 51
126.083853
  0
LINE
  8
0
  6
BYLAYER
 62
     1
 10
156.761995
 20
-85.701151
 30
0.0
 11
156.762297
 21
-85.701010
 31
0.0
  0
LINE
  8
0
  6
BYLAYER
 62
     1
 10
156.807575
 20
-85.680417
 30
0.0
 11
157.168673
 21
-85.960854
 31
0.0
  0
LINE
  8
0
  6
BYLAYER
 62
     1
 10
157.251235
 20
-85.930061
 30
0.0
 11
157.251692
 21
-85.929901
 31
0.0
  0
ARC
  8
0
  6
BYLAYER
 62
     1
 10
158.630724
 20
-89.748570
 30
0.0
 40
4.060043
 50
99.235601
 51
111.106038
  0
ARC
  8
0
  6
BYLAYER
 62
     1
 10
158.630724
 20
-89.748570
 30
0.0
 40
4.457997
 50
90.0
 51
96.083892
  0
LINE
  8
0
  6
BYLAYER
 62
     1
 10
158.158245
 20
-85.315681
 30
0.0
 11
157.979109
 21
-85.741158
 31
0.0
  0
LINE
  8
0
  6
BYLAYER
 62
     1
 10
163.068459
 20
-89.324049
 30
0.0
 11
163.068459
 21
-89.324044
 31
0.0
  0
LINE
  8
0
  6
BYLAYER
 62
     1
 10
163.063612
 20
-89.276090
 30
0.0
 11
162.638129
 21
-89.096961
 31
0.0
  0
ARC
  8
0
  6
BYLAYER
 62
     1
 10
158.630696
 20
-89.748606
 30
0.0
 40
4.060069
 50
9.235986
 51
20.764650
  0
LINE
  8
0
  6
BYLAYER
 62
     1
 10
162.427091
 20
-88.309125
 30
0.0
 11
162.705950
 21
-87.941300
 31
0.0
  0
ARC
  8
0
  6
BYLAYER
 62
     1
 10
158.630724
 20
-89.748570
 30
0.0
 40
4.457992
 50
23.916189
 51
35.860484
  0
LINE
  8
0
  6
BYLAYER
 62
     1
 10
162.272994
 20
-87.178053
 30
0.0
 11
162.272728
 21
-87.177677
 31
0.0
  0
LINE
  8
0
  6
BYLAYER
 62
     1
 10
162.243685
 20
-87.137018
 30
0.0
 11
161.790761
 21
-87.199330
 31
0.0
  0
ARC
  8
0
  6
BYLAYER
 62
     1
 10
158.630724
 20
-89.748570
 30
0.0
 40
4.060044
 50
38.894050
 51
50.764315
  0
LINE
  8
0
  6
BYLAYER
 62
     1
 10
161.265135
 20
-86.659255
 30
0.0
 11
161.264696
 21
-86.658875
 31
0.0
  0
LINE
  8
0
  6
BYLAYER
 62
     1
 10
161.198759
 20
-86.603784
 30
0.0
 11
161.256334
 21
-86.145807
 31
0.0
  0
ARC
  8
0
  6
BYLAYER
 62
     1
 10
158.630724
 20
-89.748570
 30
0.0
 40
4.457996
 50
53.916300
 51
65.860381
  0
LINE
  8
0
  6
BYLAYER
 62
     1
 10
160.499452
 20
-85.701151
 30
0.0
 11
160.499141
 21
-85.701010
 31
0.0
  0
LINE
  8
0
  6
BYLAYER
 62
     1
 10
160.453873
 20
-85.680418
 30
0.0
 11
160.092779
 21
-85.960842
 31
0.0
  0
LINE
  8
0
  6
BYLAYER
 62
     1
 10
160.010204
 20
-85.930061
 30
0.0
 11
160.009755
 21
-85.929901
 31
0.0
  0
ARC
  8
0
  6
BYLAYER
 62
     1
 10
158.630724
 20
-89.748570
 30
0.0
 40
4.060043
 50
68.894081
 51
80.764578
  0
ARC
  8
0
  6
BYLAYER
 62
     1
 10
158.630724
 20
-89.748570
 30
0.0
 40
4.457997
 50
84.535428
 51
90.000003
  0
LINE
  8
0
  6
BYLAYER
 62
     1
 10
159.103204
 20
-85.315681
 30
0.0
 11
159.282296
 21
-85.741085
 31
0.0
  0
ARC
  8
0
  6
BYLAYER
 62
     1
 10
158.630724
 20
-89.748570
 30
0.0
 40
4.457997
 50
180.000000
 51
186.083899
  0
LINE
  8
0
  6
BYLAYER
 62
     1
 10
154.192984
 20
-90.173086
 30
0.0
 11
154.192984
 21
-90.173095
 31
0.0
  0
LINE
  8
0
  6
BYLAYER
 62
     1
 10
154.197835
 20
-90.221049
 30
0.0
 11
154.623310
 21
-90.400180
 31
0.0
  0
ARC
  8
0
  6
BYLAYER
 62
     1
 10
158.630742
 20
-89.748533
 30
0.0
 40
4.060069
 50
189.236002
 51
200.764629
  0
LINE
  8
0
  6
BYLAYER
 62
     1
 10
154.834392
 20
-91.187954
 30
0.0
 11
154.555496
 21
-91.555837
 31
0.0
  0
ARC
  8
0
  6
BYLAYER
 62
     1
 10
158.630724
 20
-89.748570
 30
0.0
 40
4.457992
 50
203.916158
 51
215.860410
  0
LINE
  8
0
  6
BYLAYER
 62
     1
 10
154.988445
 20
-92.319082
 30
0.0
 11
154.988710
 21
-92.319457
 31
0.0
  0
LINE
  8
0
  6
BYLAYER
 62
     1
 10
155.017759
 20
-92.360117
 30
0.0
 11
155.470757
 21
-92.297799
 31
0.0
  0
ARC
  8
0
  6
BYLAYER
 62
     1
 10
158.630724
 20
-89.748570
 30
0.0
 40
4.060044
 50
218.894045
 51
230.764345
  0
LINE
  8
0
  6
BYLAYER
 62
     1
 10
155.996312
 20
-92.837879
 30
0.0
 11
155.996752
 21
-92.838259
 31
0.0
  0
LINE
  8
0
  6
BYLAYER
 62
     1
 10
156.062699
 20
-92.893281
 30
0.0
 11
156.005104
 21
-93.351326
 31
0.0
  0
ARC
  8
0
  6
BYLAYER
 62
     1
 10
158.630724
 20
-89.748570
 30
0.0
 40
4.457996
 50
233.916148
 51
245.860401
  0
LINE
  8
0
  6
BYLAYER
 62
     1
 10
156.761995
 20
-93.795983
 30
0.0
 11
156.762297
 21
-93.796130
 31
0.0
  0
LINE
  8
0
  6
BYLAYER
 62
     1
 10
156.807576
 20
-93.816722
 30
0.0
 11
157.168716
 21
-93.536246
 31
0.0
  0
LINE
  8
0
  6
BYLAYER
 62
     1
 10
157.251235
 20
-93.567074
 30
0.0
 11
157.251692
 21
-93.567239
 31
0.0
  0
LINE
  8
0
  6
BYLAYER
 62
     1
 10
163.068459
 20
-90.173086
 30
0.0
 11
163.068459
 21
-90.173095
 31
0.0
  0
LINE
  8
0
  6
BYLAYER
 62
     1
 10
163.063611
 20
-90.221050
 30
0.0
 11
162.638129
 21
-90.400179
 31
0.0
  0
LINE
  8
0
  6
BYLAYER
 62
     1
 10
162.427051
 20
-91.187964
 30
0.0
 11
162.705954
 21
-91.555840
 31
0.0
  0
LINE
  8
0
  6
BYLAYER
 62
     1
 10
162.272994
 20
-92.319082
 30
0.0
 11
162.272728
 21
-92.319457
 31
0.0
  0
LINE
  8
0
  6
BYLAYER
 62
     1
 10
162.243693
 20
-92.360117
 30
0.0
 11
161.790666
 21
-92.297797
 31
0.0
  0
LINE
  8
0
  6
BYLAYER
 62
     1
 10
161.265135
 20
-92.837879
 30
0.0
 11
161.264696
 21
-92.838259
 31
0.0
  0
LINE
  8
0
  6
BYLAYER
 62
     1
 10
161.198750
 20
-92.893279
 30
0.0
 11
161.256334
 21
-93.351333
 31
0.0
  0
LINE
  8
0
  6
BYLAYER
 62
     1
 10
160.453872
 20
-93.816722
 30
0.0
 11
160.092724
 21
-93.536249
 31
0.0
  0
ARC
  8
0
  6
BYLAYER
 62
     1
 10
158.630724
 20
-89.748570
 30
0.0
 40
4.060044
 50
309.235697
 51
321.105929
  0
ARC
  8
0
  6
BYLAYER
 62
     1
 10
158.630724
 20
-89.748570
 30
0.0
 40
4.060043
 50
248.893873
 51
259.502886
  0
ARC
  8
0
  6
BYLAYER
 62
     1
 10
158.630724
 20
-89.748570
 30
0.0
 40
4.457996
 50
294.783232
 51
306.083699
  0
LINE
  8
0
  6
BYLAYER
 62
     1
 10
160.499141
 20
-93.796130
 30
0.0
 11
160.454147
 21
-93.817303
 31
0.0
  0
ARC
  8
0
  6
BYLAYER
 62
     1
 10
158.630724
 20
-89.748570
 30
0.0
 40
4.457992
 50
324.139593
 51
336.083825
  0
ARC
  8
0
  6
BYLAYER
 62
     1
 10
158.630696
 20
-89.748533
 30
0.0
 40
4.060069
 50
339.235210
 51
350.764014
  0
ARC
  8
0
  6
BYLAYER
 62
     1
 10
158.630724
 20
-89.748570
 30
0.0
 40
4.457997
 50
353.916089
 51
360.000000
  0
ARC
  8
0
  6
BYLAYER
 62
     1
 10
158.630724
 20
-89.748570
 30
0.0
 40
4.457997
 50
0.0
 51
6.083907
  0
CIRCLE
  8
0
  6
BYLAYER
 62
     1
 10
158.630724
 20
-89.748570
 30
0.0
 40
3.446307
  0
CIRCLE
  8
0
  6
BYLAYER
 62
     1
 10
158.630724
 20
-89.748570
 30
0.0
 40
2.649296
  0
ARC
  8
0
  6
BYLAYER
 62
     1
 10
158.630724
 20
-89.748570
 30
0.0
 40
4.060043
 50
259.503601
 51
291.106008
  0
LINE
  8
0
  6
BYLAYER
 62
     1
 10
163.037543
 20
-160.160410
 30
0.0
 11
160.037543
 21
-160.160410
 31
0.0
  0
LINE
  8
0
  6
BYLAYER
 62
     1
 10
163.037543
 20
-160.160410
 30
0.0
 11
163.037543
 21
-163.160410
 31
0.0
  0
LINE
  8
0
  6
BYLAYER
 62
     1
 10
163.037543
 20
-160.160410
 30
0.0
 11
166.037543
 21
-160.160410
 31
0.0
  0
LINE
  8
0
  6
BYLAYER
 62
     1
 10
163.037543
 20
-160.160410
 30
0.0
 11
163.037543
 21
-157.160410
 31
0.0
  0
LINE
  8
0
  6
BYLAYER
 62
     1
 10
656.537543
 20
-416.160410
 30
0.0
 11
656.537543
 21
-446.160410
 31
0.0
  0
LINE
  8
0
  6
BYLAYER
 62
     1
 10
656.537543
 20
-446.160410
 30
0.0
 11
658.037543
 21
-447.660410
 31
0.0
  0
LINE
  8
0
  6
BYLAYER
 62
     1
 10
656.537543
 20
-416.160410
 30
0.0
 11
674.537543
 21
-416.160410
 31
0.0
  0
LINE
  8
0
  6
BYLAYER
 62
     1
 10
656.537543
 20
-560.160471
 30
0.0
 11
674.537543
 21
-560.160471
 31
0.0
  0
CIRCLE
  8
0
  6
BYLAYER
 62
     1
 10
734.037543
 20
-436.160410
 30
0.0
 40
4.25
  0
CIRCLE
  8
0
  6
BYLAYER
 62
     1
 10
734.037543
 20
-540.160471
 30
0.0
 40
4.25
  0
LINE
  8
0
  6
BYLAYER
 62
     1
 10
653.037543
 20
-466.160410
 30
0.0
 11
654.037543
 21
-465.160410
 31
0.0
  0
LINE
  8
0
  6
BYLAYER
 62
     1
 10
654.037543
 20
-465.160410
 30
0.0
 11
655.537543
 21
-465.160410
 31
0.0
  0
LINE
  8
0
  6
BYLAYER
 62
     1
 10
655.537543
 20
-535.160471
 30
0.0
 11
654.037543
 21
-535.160471
 31
0.0
  0
LINE
  8
0
  6
BYLAYER
 62
     1
 10
654.037543
 20
-535.160471
 30
0.0
 11
653.037543
 21
-534.160471
 31
0.0
  0
LINE
  8
0
  6
BYLAYER
 62
     1
 10
653.037543
 20
-534.160471
 30
0.0
 11
653.037543
 21
-466.160410
 31
0.0
  0
LINE
  8
0
  6
BYLAYER
 62
     1
 10
658.037543
 20
-450.073130
 30
0.0
 11
655.537543
 21
-450.160410
 31
0.0
  0
LINE
  8
0
  6
BYLAYER
 62
     1
 10
656.537543
 20
-550.195505
 30
0.0
 11
655.537543
 21
-550.160471
 31
0.0
  0
LINE
  8
0
  6
BYLAYER
 62
     1
 10
656.537543
 20
-550.195383
 30
0.0
 11
655.537543
 21
-550.160471
 31
0.0
  0
CIRCLE
  8
0
  6
BYLAYER
 62
     1
 10
664.037543
 20
-540.160471
 30
0.0
 40
4.25
  0
LINE
  8
0
  6
BYLAYER
 62
     1
 10
656.537543
 20
-530.160471
 30
0.0
 11
658.037543
 21
-528.660471
 31
0.0
  0
LINE
  8
0
  6
BYLAYER
 62
     1
 10
656.537543
 20
-530.160471
 30
0.0
 11
656.537543
 21
-560.160471
 31
0.0
  0
LINE
  8
0
  6
BYLAYER
 62
     1
 10
658.037543
 20
-528.660471
 30
0.0
 11
658.037543
 21
-447.660410
 31
0.0
  0
LINE
  8
0
  6
BYLAYER
 62
     1
 10
656.537543
 20
-530.160471
 30
0.0
 11
674.537543
 21
-530.160471
 31
0.0
  0
LINE
  8
0
  6
BYLAYER
 62
     1
 10
658.037543
 20
-528.660471
 30
0.0
 11
674.537543
 21
-528.660471
 31
0.0
  0
LINE
  8
0
  6
BYLAYER
 62
     1
 10
655.537543
 20
-450.160410
 30
0.0
 11
655.537543
 21
-550.160471
 31
0.0
  0
LINE
  8
0
  6
BYLAYER
 62
     1
 10
723.537543
 20
-417.660410
 30
0.0
 11
674.537543
 21
-417.660410
 31
0.0
  0
CIRCLE
  8
0
  6
BYLAYER
 62
     1
 10
699.037543
 20
-450.160410
 30
0.0
 40
23.5
  0
CIRCLE
  8
0
  6
BYLAYER
 62
     1
 10
720.250678
 20
-428.947214
 30
0.0
 40
2.5
  0
CIRCLE
  8
0
  6
BYLAYER
 62
     1
 10
677.824286
 20
-428.947245
 30
0.0
 40
2.5
  0
CIRCLE
  8
0
  6
BYLAYER
 62
     1
 10
677.824286
 20
-471.373606
 30
0.0
 40
2.5
  0
CIRCLE
  8
0
  6
BYLAYER
 62
     1
 10
720.250678
 20
-471.373636
 30
0.0
 40
2.5
  0
LINE
  8
0
  6
BYLAYER
 62
     1
 10
674.537543
 20
-422.066538
 30
0.0
 11
674.537543
 21
-416.160410
 31
0.0
  0
ARC
  8
0
  6
BYLAYER
 62
     1
 10
676.537543
 20
-422.066538
 30
0.0
 40
2.0
 50
180.000000
 51
280.592963
  0
LINE
  8
0
  6
BYLAYER
 62
     1
 10
723.537543
 20
-422.066507
 30
0.0
 11
723.537543
 21
-416.160410
 31
0.0
  0
ARC
  8
0
  6
BYLAYER
 62
     1
 10
721.537543
 20
-422.066507
 30
0.0
 40
1.999999
 50
259.407470
 51
360.000003
  0
LINE
  8
0
  6
BYLAYER
 62
     1
 10
674.537543
 20
-475.141489
 30
0.0
 11
674.537543
 21
-560.160471
 31
0.0
  0
LINE
  8
0
  6
BYLAYER
 62
     1
 10
723.537543
 20
-560.160471
 30
0.0
 11
723.537543
 21
-475.141489
 31
0.0
  0
LINE
  8
0
  6
BYLAYER
 62
     1
 10
670.106635
 20
-446.160410
 30
0.0
 11
656.537543
 21
-446.160410
 31
0.0
  0
ARC
  8
0
  6
BYLAYER
 62
     1
 10
670.106635
 20
-448.160410
 30
0.0
 40
2.000000
 50
356.045188
 51
450.000000
  0
ARC
  8
0
  6
BYLAYER
 62
     1
 10
677.824286
 20
-428.947245
 30
0.0
 40
5.000019
 50
30.099438
 51
100.592680
  0
ARC
  8
0
  6
BYLAYER
 62
     1
 10
683.880439
 20
-425.436716
 30
0.0
 40
2.000038
 50
210.099802
 51
301.510887
  0
ARC
  8
0
  6
BYLAYER
 62
     1
 10
699.037543
 20
-450.160410
 30
0.0
 40
27.000027
 50
58.489253
 51
121.510841
  0
ARC
  8
0
  6
BYLAYER
 62
     1
 10
720.250678
 20
-428.947214
 30
0.0
 40
5.000012
 50
79.406980
 51
149.900563
  0
ARC
  8
0
  6
BYLAYER
 62
     1
 10
714.194647
 20
-425.436686
 30
0.0
 40
1.999980
 50
238.489114
 51
329.900186
  0
ARC
  8
0
  6
BYLAYER
 62
     1
 10
727.968451
 20
-448.160410
 30
0.0
 40
2.000002
 50
90.0
 51
183.954805
  0
ARC
  8
0
  6
BYLAYER
 62
     1
 10
714.194647
 20
-474.884165
 30
0.0
 40
2.000006
 50
30.099804
 51
121.510418
  0
ARC
  8
0
  6
BYLAYER
 62
     1
 10
720.250678
 20
-471.373636
 30
0.0
 40
4.999913
 50
210.099433
 51
419.900564
  0
ARC
  8
0
  6
BYLAYER
 62
     1
 10
699.037543
 20
-450.160410
 30
0.0
 40
26.999949
 50
328.489151
 51
363.954556
  0
ARC
  8
0
  6
BYLAYER
 62
     1
 10
723.761176
 20
-465.317545
 30
0.0
 40
1.999966
 50
148.489119
 51
239.900204
  0
ARC
  8
0
  6
BYLAYER
 62
     1
 10
683.880439
 20
-474.884104
 30
0.0
 40
2.000022
 50
58.489123
 51
149.900960
  0
ARC
  8
0
  6
BYLAYER
 62
     1
 10
677.824286
 20
-471.373606
 30
0.0
 40
4.999962
 50
120.099437
 51
329.900650
  0
ARC
  8
0
  6
BYLAYER
 62
     1
 10
699.037543
 20
-450.160410
 30
0.0
 40
26.999954
 50
176.045448
 51
211.510769
  0
ARC
  8
0
  6
BYLAYER
 62
     1
 10
674.313788
 20
-465.317514
 30
0.0
 40
2.000027
 50
300.099415
 51
391.510651
  0
LINE
  8
0
  6
BYLAYER
 62
     1
 10
658.037543
 20
-447.660410
 30
0.0
 11
672.043126
 21
-447.660410
 31
0.0
  0
CIRCLE
  8
0
  6
BYLAYER
 62
     1
 10
664.037543
 20
-436.160410
 30
0.0
 40
4.25
  0
LINE
  8
0
  6
BYLAYER
 62
     1
 10
723.537543
 20
-558.074656
 30
0.0
 11
674.537543
 21
-558.074656
 31
0.0
  0
ARC
  8
0
  6
BYLAYER
 62
     1
 10
699.037543
 20
-450.160410
 30
0.0
 40
27.0
 50
238.489223
 51
301.510696
  0
LINE
  8
0
  6
BYLAYER
 62
     1
 10
741.537543
 20
-416.160410
 30
0.0
 11
741.537543
 21
-446.160410
 31
0.0
  0
LINE
  8
0
  6
BYLAYER
 62
     1
 10
741.537543
 20
-446.160410
 30
0.0
 11
740.037543
 21
-447.660410
 31
0.0
  0
LINE
  8
0
  6
BYLAYER
 62
     1
 10
741.537543
 20
-560.160471
 30
0.0
 11
741.537543
 21
-530.160471
 31
0.0
  0
LINE
  8
0
  6
BYLAYER
 62
     1
 10
741.537543
 20
-530.160471
 30
0.0
 11
740.037543
 21
-528.660471
 31
0.0
  0
LINE
  8
0
  6
BYLAYER
 62
     1
 10
740.037543
 20
-447.660410
 30
0.0
 11
740.037543
 21
-528.660471
 31
0.0
  0
LINE
  8
0
  6
BYLAYER
 62
     1
 10
723.537543
 20
-416.160410
 30
0.0
 11
741.537543
 21
-416.160410
 31
0.0
  0
LINE
  8
0
  6
BYLAYER
 62
     1
 10
723.537543
 20
-560.160471
 30
0.0
 11
741.537543
 21
-560.160471
 31
0.0
  0
LINE
  8
0
  6
BYLAYER
 62
     1
 10
741.537543
 20
-530.160471
 30
0.0
 11
723.537543
 21
-530.160471
 31
0.0
  0
LINE
  8
0
  6
BYLAYER
 62
     1
 10
740.037543
 20
-528.660471
 30
0.0
 11
723.537543
 21
-528.660471
 31
0.0
  0
LINE
  8
0
  6
BYLAYER
 62
     1
 10
727.968451
 20
-446.160410
 30
0.0
 11
741.537543
 21
-446.160410
 31
0.0
  0
LINE
  8
0
  6
BYLAYER
 62
     1
 10
726.031958
 20
-447.660410
 30
0.0
 11
740.037543
 21
-447.660410
 31
0.0
  0
LINE
  8
0
  6
BYLAYER
 62
     1
 10
745.037543
 20
-466.160410
 30
0.0
 11
744.037543
 21
-465.160410
 31
0.0
  0
LINE
  8
0
  6
BYLAYER
 62
     1
 10
744.037543
 20
-465.160410
 30
0.0
 11
742.537543
 21
-465.160410
 31
0.0
  0
LINE
  8
0
  6
BYLAYER
 62
     1
 10
742.537543
 20
-535.160471
 30
0.0
 11
744.037543
 21
-535.160471
 31
0.0
  0
LINE
  8
0
  6
BYLAYER
 62
     1
 10
744.037543
 20
-535.160471
 30
0.0
 11
745.037543
 21
-534.160471
 31
0.0
  0
LINE
  8
0
  6
BYLAYER
 62
     1
 10
745.037543
 20
-534.160471
 30
0.0
 11
745.037543
 21
-466.160410
 31
0.0
  0
LINE
  8
0
  6
BYLAYER
 62
     1
 10
740.037543
 20
-450.073130
 30
0.0
 11
742.537543
 21
-450.160410
 31
0.0
  0
LINE
  8
0
  6
BYLAYER
 62
     1
 10
741.537543
 20
-550.195505
 30
0.0
 11
742.537543
 21
-550.160471
 31
0.0
  0
LINE
  8
0
  6
BYLAYER
 62
     1
 10
741.537543
 20
-550.195383
 30
0.0
 11
742.537543
 21
-550.160471
 31
0.0
  0
LINE
  8
0
  6
BYLAYER
 62
     1
 10
742.537543
 20
-450.160410
 30
0.0
 11
742.537543
 21
-550.160471
 31
0.0
  0
LINE
  8
0
  6
BYLAYER
 62
     1
 10
103.037482
 20
-502.660425
 30
0.0
 11
133.037482
 21
-502.660425
 31
0.0
  0
LINE
  8
0
  6
BYLAYER
 62
     1
 10
133.037482
 20
-502.660425
 30
0.0
 11
134.537482
 21
-501.160425
 31
0.0
  0
CIRCLE
  8
0
  6
BYLAYER
 62
     1
 10
123.037482
 20
-495.160425
 30
0.0
 40
4.25
  0
LINE
  8
0
  6
BYLAYER
 62
     1
 10
128.037482
 20
-416.660425
 30
0.0
 11
128.037482
 21
-415.160425
 31
0.0
  0
LINE
  8
0
  6
BYLAYER
 62
     1
 10
128.037482
 20
-415.160425
 30
0.0
 11
129.037482
 21
-414.160425
 31
0.0
  0
LINE
  8
0
  6
BYLAYER
 62
     1
 10
129.037482
 20
-414.160425
 30
0.0
 11
197.037604
 21
-414.160425
 31
0.0
  0
LINE
  8
0
  6
BYLAYER
 62
     1
 10
113.002448
 20
-417.660425
 30
0.0
 11
113.037482
 21
-416.660425
 31
0.0
  0
LINE
  8
0
  6
BYLAYER
 62
     1
 10
113.002570
 20
-417.660425
 30
0.0
 11
113.037482
 21
-416.660425
 31
0.0
  0
CIRCLE
  8
0
  6
BYLAYER
 62
     1
 10
123.037482
 20
-425.160425
 30
0.0
 40
4.25
  0
LINE
  8
0
  6
BYLAYER
 62
     1
 10
133.037482
 20
-417.660425
 30
0.0
 11
134.537482
 21
-419.160425
 31
0.0
  0
LINE
  8
0
  6
BYLAYER
 62
     1
 10
133.037482
 20
-417.660425
 30
0.0
 11
103.037482
 21
-417.660425
 31
0.0
  0
LINE
  8
0
  6
BYLAYER
 62
     1
 10
133.037482
 20
-502.660425
 30
0.0
 11
133.037482
 21
-484.660425
 31
0.0
  0
LINE
  8
0
  6
BYLAYER
 62
     1
 10
133.037482
 20
-417.660425
 30
0.0
 11
133.037482
 21
-435.660425
 31
0.0
  0
LINE
  8
0
  6
BYLAYER
 62
     1
 10
134.537482
 20
-501.160425
 30
0.0
 11
134.537482
 21
-484.660425
 31
0.0
  0
LINE
  8
0
  6
BYLAYER
 62
     1
 10
134.537482
 20
-419.160425
 30
0.0
 11
134.537482
 21
-435.660425
 31
0.0
  0
LINE
  8
0
  6
BYLAYER
 62
     1
 10
213.037604
 20
-416.660425
 30
0.0
 11
113.037482
 21
-416.660425
 31
0.0
  0
LINE
  8
0
  6
BYLAYER
 62
     1
 10
198.037482
 20
-416.660425
 30
0.0
 11
198.037482
 21
-415.160425
 31
0.0
  0
LINE
  8
0
  6
BYLAYER
 62
     1
 10
198.037482
 20
-415.160425
 30
0.0
 11
197.037482
 21
-414.160425
 31
0.0
  0
LINE
  8
0
  6
BYLAYER
 62
     1
 10
213.072516
 20
-417.660425
 30
0.0
 11
213.037482
 21
-416.660425
 31
0.0
  0
LINE
  8
0
  6
BYLAYER
 62
     1
 10
213.072394
 20
-417.660425
 30
0.0
 11
213.037482
 21
-416.660425
 31
0.0
  0
LINE
  8
0
  6
BYLAYER
 62
     1
 10
191.537482
 20
-419.160425
 30
0.0
 11
191.537482
 21
-435.660425
 31
0.0
  0
LINE
  8
0
  6
BYLAYER
 62
     1
 10
193.037482
 20
-417.660425
 30
0.0
 11
193.037482
 21
-435.660425
 31
0.0
  0
LINE
  8
0
  6
BYLAYER
 62
     1
 10
193.037482
 20
-417.660425
 30
0.0
 11
191.537482
 21
-419.160425
 31
0.0
  0
LINE
  8
0
  6
BYLAYER
 62
     1
 10
193.037482
 20
-417.660425
 30
0.0
 11
223.037482
 21
-417.660425
 31
0.0
  0
LINE
  8
0
  6
BYLAYER
 62
     1
 10
223.037482
 20
-417.660425
 30
0.0
 11
223.037482
 21
-435.660425
 31
0.0
  0
LINE
  8
0
  6
BYLAYER
 62
     1
 10
223.037482
 20
-484.660425
 30
0.0
 11
223.037482
 21
-502.660425
 31
0.0
  0
CIRCLE
  8
0
  6
BYLAYER
 62
     1
 10
203.037482
 20
-425.160425
 30
0.0
 40
4.25
  0
LINE
  8
0
  6
BYLAYER
 62
     1
 10
193.037482
 20
-502.660425
 30
0.0
 11
193.037482
 21
-484.660425
 31
0.0
  0
LINE
  8
0
  6
BYLAYER
 62
     1
 10
191.537482
 20
-501.160425
 30
0.0
 11
191.537482
 21
-484.660425
 31
0.0
  0
LINE
  8
0
  6
BYLAYER
 62
     1
 10
223.037482
 20
-502.660425
 30
0.0
 11
193.037482
 21
-502.660425
 31
0.0
  0
LINE
  8
0
  6
BYLAYER
 62
     1
 10
193.037482
 20
-502.660425
 30
0.0
 11
191.537482
 21
-501.160425
 31
0.0
  0
LINE
  8
0
  6
BYLAYER
 62
     1
 10
134.537482
 20
-419.160425
 30
0.0
 11
191.537482
 21
-419.160425
 31
0.0
  0
LINE
  8
0
  6
BYLAYER
 62
     1
 10
191.537482
 20
-501.160425
 30
0.0
 11
134.537482
 21
-501.160425
 31
0.0
  0
CIRCLE
  8
0
  6
BYLAYER
 62
     1
 10
203.037482
 20
-495.160425
 30
0.0
 40
4.25
  0
LINE
  8
0
  6
BYLAYER
 62
     1
 10
103.037482
 20
-502.660425
 30
0.0
 11
103.037482
 21
-417.660425
 31
0.0
  0
LINE
  8
0
  6
BYLAYER
 62
     1
 10
103.037482
 20
-484.660425
 30
0.0
 11
223.037482
 21
-484.660425
 31
0.0
  0
ARC
  8
0
  6
BYLAYER
 62
     1
 10
122.037482
 20
-436.660425
 30
0.0
 40
1.000000
 50
90.0
 51
180.000003
  0
LINE
  8
0
  6
BYLAYER
 62
     1
 10
103.037482
 20
-435.660425
 30
0.0
 11
223.037482
 21
-435.660425
 31
0.0
  0
ARC
  8
0
  6
BYLAYER
 62
     1
 10
122.037482
 20
-483.660425
 30
0.0
 40
1.000000
 50
180.000000
 51
270.000009
  0
ARC
  8
0
  6
BYLAYER
 62
     1
 10
204.037482
 20
-436.660425
 30
0.0
 40
1.0
 50
0.0
 51
90.000016
  0
ARC
  8
0
  6
BYLAYER
 62
     1
 10
204.037482
 20
-483.660425
 30
0.0
 40
1.0
 50
270.0
 51
360.000009
  0
ARC
  8
0
  6
BYLAYER
 62
     1
 10
157.037482
 20
-480.160425
 30
0.0
 40
1.0
 50
270.0
 51
450.000005
  0
ARC
  8
0
  6
BYLAYER
 62
     1
 10
169.037482
 20
-480.160425
 30
0.0
 40
1.0
 50
90.0
 51
269.999991
  0
LINE
  8
0
  6
BYLAYER
 62
     1
 10
224.037482
 20
-497.660425
 30
0.0
 11
223.037482
 21
-497.695337
 31
0.0
  0
LINE
  8
0
  6
BYLAYER
 62
     1
 10
224.037482
 20
-422.660425
 30
0.0
 11
223.037482
 21
-422.625513
 31
0.0
  0
LINE
  8
0
  6
BYLAYER
 62
     1
 10
224.037482
 20
-422.660425
 30
0.0
 11
224.037482
 21
-497.660425
 31
0.0
  0
LINE
  8
0
  6
BYLAYER
 62
     1
 10
205.037482
 20
-438.160425
 30
0.0
 11
205.037482
 21
-436.660425
 31
0.0
  0
LINE
  8
0
  6
BYLAYER
 62
     1
 10
169.037482
 20
-439.160425
 30
0.0
 11
204.037482
 21
-439.160395
 31
0.0
  0
ARC
  8
0
  6
BYLAYER
 62
     1
 10
204.037482
 20
-438.160425
 30
0.0
 40
1.0
 50
270.0
 51
360.000003
  0
LINE
  8
0
  6
BYLAYER
 62
     1
 10
169.037482
 20
-441.160425
 30
0.0
 11
204.037482
 21
-441.160395
 31
0.0
  0
ARC
  8
0
  6
BYLAYER
 62
     1
 10
204.037482
 20
-442.160425
 30
0.0
 40
1.000031
 50
0.0
 51
90.000003
  0
LINE
  8
0
  6
BYLAYER
 62
     1
 10
205.037482
 20
-448.160410
 30
0.0
 11
205.037482
 21
-442.160425
 31
0.0
  0
LINE
  8
0
  6
BYLAYER
 62
     1
 10
195.037482
 20
-449.160410
 30
0.0
 11
204.037482
 21
-449.160410
 31
0.0
  0
ARC
  8
0
  6
BYLAYER
 62
     1
 10
204.037482
 20
-448.160410
 30
0.0
 40
1.0
 50
270.0
 51
360.000003
  0
LINE
  8
0
  6
BYLAYER
 62
     1
 10
195.037482
 20
-451.160410
 30
0.0
 11
204.037482
 21
-451.160410
 31
0.0
  0
ARC
  8
0
  6
BYLAYER
 62
     1
 10
204.037482
 20
-452.160410
 30
0.0
 40
1.000000
 50
0.0
 51
90.000003
  0
LINE
  8
0
  6
BYLAYER
 62
     1
 10
204.037482
 20
-459.160410
 30
0.0
 11
193.812506
 21
-459.160410
 31
0.0
  0
LINE
  8
0
  6
BYLAYER
 62
     1
 10
205.037482
 20
-458.160410
 30
0.0
 11
205.037482
 21
-452.160410
 31
0.0
  0
ARC
  8
0
  6
BYLAYER
 62
     1
 10
204.037482
 20
-458.160410
 30
0.0
 40
1.0
 50
270.0
 51
360.000003
  0
LINE
  8
0
  6
BYLAYER
 62
     1
 10
204.037482
 20
-461.160410
 30
0.0
 11
193.812506
 21
-461.160410
 31
0.0
  0
ARC
  8
0
  6
BYLAYER
 62
     1
 10
204.037482
 20
-462.160395
 30
0.0
 40
0.999985
 50
0.0
 51
90.000003
  0
LINE
  8
0
  6
BYLAYER
 62
     1
 10
195.037482
 20
-469.160395
 30
0.0
 11
204.037482
 21
-469.160395
 31
0.0
  0
LINE
  8
0
  6
BYLAYER
 62
     1
 10
205.037482
 20
-468.160395
 30
0.0
 11
205.037482
 21
-462.160395
 31
0.0
  0
ARC
  8
0
  6
BYLAYER
 62
     1
 10
204.037482
 20
-468.160395
 30
0.0
 40
1.0
 50
270.0
 51
360.000003
  0
LINE
  8
0
  6
BYLAYER
 62
     1
 10
195.037482
 20
-471.160395
 30
0.0
 11
204.037482
 21
-471.160395
 31
0.0
  0
ARC
  8
0
  6
BYLAYER
 62
     1
 10
204.037482
 20
-472.160395
 30
0.0
 40
1.000000
 50
0.0
 51
90.000003
  0
LINE
  8
0
  6
BYLAYER
 62
     1
 10
169.037482
 20
-479.160425
 30
0.0
 11
204.037482
 21
-479.160425
 31
0.0
  0
LINE
  8
0
  6
BYLAYER
 62
     1
 10
205.037482
 20
-478.160395
 30
0.0
 11
205.037482
 21
-472.160395
 31
0.0
  0
ARC
  8
0
  6
BYLAYER
 62
     1
 10
204.037482
 20
-478.160395
 30
0.0
 40
1.000031
 50
270.0
 51
360.000003
  0
LINE
  8
0
  6
BYLAYER
 62
     1
 10
169.037482
 20
-481.160425
 30
0.0
 11
204.037482
 21
-481.160425
 31
0.0
  0
LINE
  8
0
  6
BYLAYER
 62
     1
 10
205.037482
 20
-483.660425
 30
0.0
 11
205.037482
 21
-482.160395
 31
0.0
  0
ARC
  8
0
  6
BYLAYER
 62
     1
 10
204.037482
 20
-482.160395
 30
0.0
 40
0.999969
 50
0.0
 51
90.000003
  0
LINE
  8
0
  6
BYLAYER
 62
     1
 10
121.037482
 20
-438.160395
 30
0.0
 11
121.037482
 21
-436.660425
 31
0.0
  0
LINE
  8
0
  6
BYLAYER
 62
     1
 10
122.037482
 20
-439.160395
 30
0.0
 11
157.037482
 21
-439.160425
 31
0.0
  0
ARC
  8
0
  6
BYLAYER
 62
     1
 10
122.037482
 20
-438.160395
 30
0.0
 40
1.0
 50
180.000000
 51
269.999996
  0
LINE
  8
0
  6
BYLAYER
 62
     1
 10
122.037482
 20
-441.160395
 30
0.0
 11
157.037482
 21
-441.160425
 31
0.0
  0
ARC
  8
0
  6
BYLAYER
 62
     1
 10
122.037482
 20
-442.160395
 30
0.0
 40
1.0
 50
90.0
 51
180.000003
  0
LINE
  8
0
  6
BYLAYER
 62
     1
 10
121.037482
 20
-448.160395
 30
0.0
 11
121.037482
 21
-442.160395
 31
0.0
  0
LINE
  8
0
  6
BYLAYER
 62
     1
 10
122.037482
 20
-449.160379
 30
0.0
 11
175.037482
 21
-449.160410
 31
0.0
  0
ARC
  8
0
  6
BYLAYER
 62
     1
 10
122.037482
 20
-448.160395
 30
0.0
 40
1.0
 50
180.000000
 51
269.999996
  0
LINE
  8
0
  6
BYLAYER
 62
     1
 10
122.037482
 20
-451.160379
 30
0.0
 11
175.037482
 21
-451.160410
 31
0.0
  0
ARC
  8
0
  6
BYLAYER
 62
     1
 10
122.037482
 20
-452.160395
 30
0.0
 40
1.000015
 50
90.0
 51
180.000003
  0
LINE
  8
0
  6
BYLAYER
 62
     1
 10
121.037482
 20
-458.160395
 30
0.0
 11
121.037482
 21
-452.160395
 31
0.0
  0
LINE
  8
0
  6
BYLAYER
 62
     1
 10
170.037482
 20
-459.160410
 30
0.0
 11
122.037482
 21
-459.160379
 31
0.0
  0
ARC
  8
0
  6
BYLAYER
 62
     1
 10
122.037482
 20
-458.160395
 30
0.0
 40
1.0
 50
180.000000
 51
269.999996
  0
LINE
  8
0
  6
BYLAYER
 62
     1
 10
170.037482
 20
-461.160410
 30
0.0
 11
122.037482
 21
-461.160379
 31
0.0
  0
ARC
  8
0
  6
BYLAYER
 62
     1
 10
122.037482
 20
-462.160395
 30
0.0
 40
1.0
 50
90.0
 51
180.000003
  0
LINE
  8
0
  6
BYLAYER
 62
     1
 10
121.037482
 20
-468.160395
 30
0.0
 11
121.037482
 21
-462.160395
 31
0.0
  0
LINE
  8
0
  6
BYLAYER
 62
     1
 10
175.037482
 20
-469.160395
 30
0.0
 11
122.037482
 21
-469.160395
 31
0.0
  0
ARC
  8
0
  6
BYLAYER
 62
     1
 10
122.037482
 20
-468.160395
 30
0.0
 40
1.0
 50
180.000000
 51
269.999996
  0
LINE
  8
0
  6
BYLAYER
 62
     1
 10
175.037482
 20
-471.160395
 30
0.0
 11
122.037482
 21
-471.160395
 31
0.0
  0
ARC
  8
0
  6
BYLAYER
 62
     1
 10
122.037482
 20
-472.160395
 30
0.0
 40
1.0
 50
90.0
 51
180.000003
  0
LINE
  8
0
  6
BYLAYER
 62
     1
 10
121.037482
 20
-478.160425
 30
0.0
 11
121.037482
 21
-472.160395
 31
0.0
  0
LINE
  8
0
  6
BYLAYER
 62
     1
 10
122.037482
 20
-479.160425
 30
0.0
 11
157.037482
 21
-479.160425
 31
0.0
  0
ARC
  8
0
  6
BYLAYER
 62
     1
 10
122.037482
 20
-478.160425
 30
0.0
 40
1.0
 50
180.000000
 51
269.999996
  0
LINE
  8
0
  6
BYLAYER
 62
     1
 10
122.037482
 20
-481.160425
 30
0.0
 11
157.037482
 21
-481.160425
 31
0.0
  0
LINE
  8
0
  6
BYLAYER
 62
     1
 10
121.037482
 20
-483.660425
 30
0.0
 11
121.037482
 21
-482.160425
 31
0.0
  0
ARC
  8
0
  6
BYLAYER
 62
     1
 10
122.037482
 20
-482.160425
 30
0.0
 40
1.000000
 50
90.0
 51
180.000003
  0
LINE
  8
0
  6
BYLAYER
 62
     1
 10
218.037482
 20
-483.660425
 30
0.0
 11
218.037482
 21
-436.660425
 31
0.0
  0
ARC
  8
0
  6
BYLAYER
 62
     1
 10
217.037482
 20
-436.660425
 30
0.0
 40
1.0
 50
0.0
 51
90.000016
  0
ARC
  8
0
  6
BYLAYER
 62
     1
 10
217.037482
 20
-483.660425
 30
0.0
 40
1.0
 50
270.0
 51
360.000009
  0
LINE
  8
0
  6
BYLAYER
 62
     1
 10
128.037482
 20
-503.660395
 30
0.0
 11
128.037482
 21
-505.160395
 31
0.0
  0
LINE
  8
0
  6
BYLAYER
 62
     1
 10
128.037482
 20
-505.160395
 30
0.0
 11
129.037482
 21
-506.160395
 31
0.0
  0
LINE
  8
0
  6
BYLAYER
 62
     1
 10
129.037482
 20
-506.160395
 30
0.0
 11
197.037604
 21
-506.160395
 31
0.0
  0
LINE
  8
0
  6
BYLAYER
 62
     1
 10
113.002448
 20
-502.660395
 30
0.0
 11
113.037482
 21
-503.660395
 31
0.0
  0
LINE
  8
0
  6
BYLAYER
 62
     1
 10
113.002570
 20
-502.660395
 30
0.0
 11
113.037482
 21
-503.660395
 31
0.0
  0
LINE
  8
0
  6
BYLAYER
 62
     1
 10
213.037604
 20
-503.660395
 30
0.0
 11
113.037482
 21
-503.660395
 31
0.0
  0
LINE
  8
0
  6
BYLAYER
 62
     1
 10
198.037482
 20
-503.660395
 30
0.0
 11
198.037482
 21
-505.160395
 31
0.0
  0
LINE
  8
0
  6
BYLAYER
 62
     1
 10
198.037482
 20
-505.160395
 30
0.0
 11
197.037482
 21
-506.160395
 31
0.0
  0
LINE
  8
0
  6
BYLAYER
 62
     1
 10
213.072516
 20
-502.660395
 30
0.0
 11
213.037482
 21
-503.660395
 31
0.0
  0
LINE
  8
0
  6
BYLAYER
 62
     1
 10
213.072394
 20
-502.660395
 30
0.0
 11
213.037482
 21
-503.660395
 31
0.0
  0
ARC
  8
0
  6
BYLAYER
 62
     1
 10
170.037482
 20
-460.160410
 30
0.0
 40
1.0
 50
270.0
 51
450.000005
  0
ARC
  8
0
  6
BYLAYER
 62
     1
 10
169.037482
 20
-440.160425
 30
0.0
 40
1.0
 50
90.0
 51
270.000005
  0
ARC
  8
0
  6
BYLAYER
 62
     1
 10
157.037482
 20
-440.160425
 30
0.0
 40
1.0
 50
270.0
 51
450.000005
  0
ARC
  8
0
  6
BYLAYER
 62
     1
 10
185.037482
 20
-460.160410
 30
0.0
 40
8.000080
 50
12.839588
 51
347.160409
  0
CIRCLE
  8
0
  6
BYLAYER
 62
     1
 10
185.037482
 20
-460.160410
 30
0.0
 40
4.25
  0
ARC
  8
0
  6
BYLAYER
 62
     1
 10
175.037482
 20
-470.160395
 30
0.0
 40
1.0
 50
270.0
 51
450.000005
  0
ARC
  8
0
  6
BYLAYER
 62
     1
 10
195.037482
 20
-470.160395
 30
0.0
 40
1.0
 50
90.0
 51
269.999991
  0
ARC
  8
0
  6
BYLAYER
 62
     1
 10
193.812506
 20
-462.160395
 30
0.0
 40
0.999982
 50
90.0
 51
167.160394
  0
ARC
  8
0
  6
BYLAYER
 62
     1
 10
193.812506
 20
-458.160410
 30
0.0
 40
0.999978
 50
192.839613
 51
270.000001
  0
ARC
  8
0
  6
BYLAYER
 62
     1
 10
175.037482
 20
-450.160410
 30
0.0
 40
1.0
 50
270.0
 51
450.000005
  0
ARC
  8
0
  6
BYLAYER
 62
     1
 10
195.037482
 20
-450.160410
 30
0.0
 40
1.0
 50
90.0
 51
269.999991
  0
LINE
  8
0
  6
BYLAYER
 62
     1
 10
224.037543
 20
-148.160410
 30
0.0
 11
224.037543
 21
-110.160410
 31
0.0
  0
ARC
  8
0
  6
BYLAYER
 62
     1
 10
235.037543
 20
-187.738535
 30
0.0
 40
1.999991
 50
180.000000
 51
267.000750
  0
ARC
  8
0
  6
BYLAYER
 62
     1
 10
231.037543
 20
-165.712534
 30
0.0
 40
2.0
 50
0.0
 51
25.651284
  0
LINE
  8
0
  6
BYLAYER
 62
     1
 10
233.037543
 20
-187.738535
 30
0.0
 11
233.037543
 21
-110.160410
 31
0.0
  0
LINE
  8
0
  6
BYLAYER
 62
     1
 10
232.850165
 20
-164.855478
 30
0.0
 11
225.344794
 21
-148.760141
 31
0.0
  0
ARC
  8
0
  6
BYLAYER
 62
     1
 10
224.438513
 20
-149.182871
 30
0.0
 40
0.999998
 50
24.999358
 51
86.999895
  0
LINE
  8
0
  6
BYLAYER
 62
     1
 10
225.003241
 20
-148.891733
 30
0.0
 11
233.037543
 21
-177.517099
 31
0.0
  0
LINE
  8
0
  6
BYLAYER
 62
     1
 10
224.092841
 20
-148.163340
 30
0.0
 11
224.037543
 21
-148.160410
 31
0.0
  0
ARC
  8
0
  6
BYLAYER
 62
     1
 10
224.040473
 20
-149.161997
 30
0.0
 40
0.999975
 50
15.678549
 51
86.998148
  0
LINE
  8
0
  6
BYLAYER
 62
     1
 10
224.037543
 20
-148.160410
 30
0.0
 11
224.490851
 21
-148.184214
 31
0.0
  0
LINE
  8
0
  6
BYLAYER
 62
     1
 10
243.037543
 20
-110.160410
 30
0.0
 11
243.037543
 21
-190.160447
 31
0.0
  0
LINE
  8
0
  6
BYLAYER
 62
     1
 10
243.037543
 20
-190.160447
 30
0.0
 11
234.932929
 21
-189.735849
 31
0.0
  0
LINE
  8
0
  6
BYLAYER
 62
     1
 10
224.037543
 20
-72.160410
 30
0.0
 11
224.037543
 21
-110.160410
 31
0.0
  0
ARC
  8
0
  6
BYLAYER
 62
     1
 10
235.037543
 20
-32.582285
 30
0.0
 40
1.999991
 50
92.999248
 51
179.999998
  0
ARC
  8
0
  6
BYLAYER
 62
     1
 10
231.037543
 20
-54.608408
 30
0.0
 40
2.000000
 50
334.348716
 51
360.0
  0
LINE
  8
0
  6
BYLAYER
 62
     1
 10
233.037543
 20
-32.582285
 30
0.0
 11
233.037543
 21
-110.160410
 31
0.0
  0
LINE
  8
0
  6
BYLAYER
 62
     1
 10
232.850165
 20
-55.465464
 30
0.0
 11
225.344794
 21
-71.560679
 31
0.0
  0
ARC
  8
0
  6
BYLAYER
 62
     1
 10
224.438513
 20
-71.138071
 30
0.0
 40
0.999998
 50
273.000107
 51
335.000643
  0
LINE
  8
0
  6
BYLAYER
 62
     1
 10
225.003241
 20
-71.429087
 30
0.0
 11
233.037543
 21
-42.803843
 31
0.0
  0
LINE
  8
0
  6
BYLAYER
 62
     1
 10
224.092841
 20
-72.157480
 30
0.0
 11
224.037543
 21
-72.160410
 31
0.0
  0
ARC
  8
0
  6
BYLAYER
 62
     1
 10
224.040473
 20
-71.158945
 30
0.0
 40
0.999975
 50
273.001848
 51
344.321447
  0
LINE
  8
0
  6
BYLAYER
 62
     1
 10
224.037543
 20
-72.160410
 30
0.0
 11
224.490851
 21
-72.136606
 31
0.0
  0
LINE
  8
0
  6
BYLAYER
 62
     1
 10
243.037543
 20
-110.160410
 30
0.0
 11
243.037543
 21
-30.160365
 31
0.0
  0
LINE
  8
0
  6
BYLAYER
 62
     1
 10
243.037543
 20
-30.160365
 30
0.0
 11
234.932929
 21
-30.585093
 31
0.0
  0
LINE
  8
0
  6
BYLAYER
 62
     1
 10
656.537543
 20
-220.160410
 30
0.0
 11
656.537543
 21
-190.160410
 31
0.0
  0
LINE
  8
0
  6
BYLAYER
 62
     1
 10
656.537543
 20
-190.160410
 30
0.0
 11
658.037543
 21
-188.660410
 31
0.0
  0
LINE
  8
0
  6
BYLAYER
 62
     1
 10
658.037543
 20
-178.855388
 30
0.0
 11
658.037543
 21
-188.660410
 31
0.0
  0
LINE
  8
0
  6
BYLAYER
 62
     1
 10
674.537543
 20
-220.160410
 30
0.0
 11
656.537543
 21
-220.160410
 31
0.0
  0
LINE
  8
0
  6
BYLAYER
 62
     1
 10
741.537543
 20
-220.160410
 30
0.0
 11
723.537543
 21
-220.160410
 31
0.0
  0
CIRCLE
  8
0
  6
BYLAYER
 62
     1
 10
664.037543
 20
-200.160410
 30
0.0
 40
4.25
  0
LINE
  8
0
  6
BYLAYER
 62
     1
 10
742.537543
 20
-195.160410
 30
0.0
 11
744.037543
 21
-195.160410
 31
0.0
  0
LINE
  8
0
  6
BYLAYER
 62
     1
 10
744.037543
 20
-195.160410
 30
0.0
 11
745.037543
 21
-194.160410
 31
0.0
  0
LINE
  8
0
  6
BYLAYER
 62
     1
 10
745.037543
 20
-194.160410
 30
0.0
 11
745.037543
 21
-175.612683
 31
0.0
  0
LINE
  8
0
  6
BYLAYER
 62
     1
 10
741.537543
 20
-210.195505
 30
0.0
 11
742.537543
 21
-210.160410
 31
0.0
  0
LINE
  8
0
  6
BYLAYER
 62
     1
 10
741.537543
 20
-210.195383
 30
0.0
 11
742.537543
 21
-210.160410
 31
0.0
  0
CIRCLE
  8
0
  6
BYLAYER
 62
     1
 10
734.037543
 20
-200.160410
 30
0.0
 40
4.25
  0
LINE
  8
0
  6
BYLAYER
 62
     1
 10
741.537543
 20
-190.160410
 30
0.0
 11
740.037543
 21
-188.660410
 31
0.0
  0
LINE
  8
0
  6
BYLAYER
 62
     1
 10
741.537543
 20
-190.160410
 30
0.0
 11
741.537543
 21
-220.160410
 31
0.0
  0
LINE
  8
0
  6
BYLAYER
 62
     1
 10
740.037543
 20
-188.660410
 30
0.0
 11
740.037543
 21
-178.855388
 31
0.0
  0
LINE
  8
0
  6
BYLAYER
 62
     1
 10
656.537543
 20
-190.160410
 30
0.0
 11
674.537543
 21
-190.160410
 31
0.0
  0
LINE
  8
0
  6
BYLAYER
 62
     1
 10
741.537543
 20
-190.160410
 30
0.0
 11
723.537543
 21
-190.160410
 31
0.0
  0
LINE
  8
0
  6
BYLAYER
 62
     1
 10
658.037543
 20
-188.660410
 30
0.0
 11
674.537543
 21
-188.660410
 31
0.0
  0
LINE
  8
0
  6
BYLAYER
 62
     1
 10
740.037543
 20
-188.660410
 30
0.0
 11
723.537543
 21
-188.660410
 31
0.0
  0
LINE
  8
0
  6
BYLAYER
 62
     1
 10
742.537543
 20
-177.300190
 30
0.0
 11
742.537543
 21
-210.160410
 31
0.0
  0
LINE
  8
0
  6
BYLAYER
 62
     1
 10
674.537543
 20
-186.316500
 30
0.0
 11
674.537543
 21
-220.160410
 31
0.0
  0
LINE
  8
0
  6
BYLAYER
 62
     1
 10
723.537543
 20
-186.316500
 30
0.0
 11
723.537543
 21
-220.160410
 31
0.0
  0
LINE
  8
0
  6
BYLAYER
 62
     1
 10
655.537543
 20
-195.160410
 30
0.0
 11
654.037543
 21
-195.160410
 31
0.0
  0
LINE
  8
0
  6
BYLAYER
 62
     1
 10
654.037543
 20
-195.160410
 30
0.0
 11
653.037543
 21
-194.160410
 31
0.0
  0
LINE
  8
0
  6
BYLAYER
 62
     1
 10
653.037543
 20
-194.160410
 30
0.0
 11
653.037543
 21
-175.612683
 31
0.0
  0
LINE
  8
0
  6
BYLAYER
 62
     1
 10
656.537543
 20
-210.195505
 30
0.0
 11
655.537543
 21
-210.160410
 31
0.0
  0
LINE
  8
0
  6
BYLAYER
 62
     1
 10
656.537543
 20
-210.195383
 30
0.0
 11
655.537543
 21
-210.160410
 31
0.0
  0
LINE
  8
0
  6
BYLAYER
 62
     1
 10
655.537543
 20
-177.300190
 30
0.0
 11
655.537543
 21
-210.160410
 31
0.0
  0
LINE
  8
0
  6
BYLAYER
 62
     1
 10
723.537543
 20
-218.074595
 30
0.0
 11
674.537543
 21
-218.074595
 31
0.0
  0
ARC
  8
0
  6
BYLAYER
 62
     7
 10
699.037543
 20
-110.160410
 30
0.0
 40
80.0
 50
117.548546
 51
422.451454
  0
LINE
  8
0
  6
BYLAYER
 62
     7
 10
741.368053
 20
-165.218837
 30
0.0
 11
744.363776
 21
-168.214560
 31
0.0
  0
ARC
  8
0
  6
BYLAYER
 62
     7
 10
742.595984
 20
-169.982325
 30
0.0
 40
2.499997
 50
306.059684
 51
405.000001
  0
ARC
  8
0
  6
BYLAYER
 62
     7
 10
699.037543
 20
-110.160410
 30
0.0
 40
76.500000
 50
273.680298
 51
306.059684
  0
ARC
  8
0
  6
BYLAYER
 62
     7
 10
703.787543
 20
-184.007807
 30
0.0
 40
2.500000
 50
180.000000
 51
273.680293
  0
LINE
  8
0
  6
BYLAYER
 62
     7
 10
701.287543
 20
-179.573953
 30
0.0
 11
701.287543
 21
-184.007807
 31
0.0
  0
LINE
  8
0
  6
BYLAYER
 62
     7
 10
656.707033
 20
-165.218837
 30
0.0
 11
653.711310
 21
-168.214560
 31
0.0
  0
ARC
  8
0
  6
BYLAYER
 62
     7
 10
655.479102
 20
-169.982325
 30
0.0
 40
2.499997
 50
135.000000
 51
233.940317
  0
ARC
  8
0
  6
BYLAYER
 62
     7
 10
699.037543
 20
-110.160410
 30
0.0
 40
76.5
 50
233.940317
 51
266.319704
  0
ARC
  8
0
  6
BYLAYER
 62
     7
 10
694.287543
 20
-184.007807
 30
0.0
 40
2.5
 50
266.319704
 51
359.999983
  0
LINE
  8
0
  6
BYLAYER
 62
     7
 10
696.787543
 20
-179.573953
 30
0.0
 11
696.787543
 21
-184.007807
 31
0.0
  0
LINE
  8
0
  6
BYLAYER
 62
     7
 10
754.095971
 20
-67.829901
 30
0.0
 11
757.091681
 21
-64.834192
 31
0.0
  0
ARC
  8
0
  6
BYLAYER
 62
     7
 10
758.859442
 20
-66.601957
 30
0.0
 40
2.5
 50
36.059693
 51
135.0
  0
ARC
  8
0
  6
BYLAYER
 62
     7
 10
699.037543
 20
-110.160410
 30
0.0
 40
76.500000
 50
3.680307
 51
36.059693
  0
ARC
  8
0
  6
BYLAYER
 62
     7
 10
772.884955
 20
-105.410405
 30
0.0
 40
2.5
 50
270.0
 51
363.680306
  0
LINE
  8
0
  6
BYLAYER
 62
     7
 10
768.451086
 20
-107.910405
 30
0.0
 11
772.884955
 21
-107.910405
 31
0.0
  0
LINE
  8
0
  6
BYLAYER
 62
     7
 10
754.095975
 20
-152.490915
 30
0.0
 11
757.091681
 21
-155.486620
 31
0.0
  0
ARC
  8
0
  6
BYLAYER
 62
     7
 10
758.859442
 20
-153.718855
 30
0.0
 40
2.499995
 50
225.000010
 51
323.940327
  0
ARC
  8
0
  6
BYLAYER
 62
     7
 10
699.037543
 20
-110.160410
 30
0.0
 40
76.5
 50
323.940327
 51
356.319713
  0
ARC
  8
0
  6
BYLAYER
 62
     7
 10
772.884955
 20
-114.910409
 30
0.0
 40
2.500000
 50
356.319713
 51
449.999989
  0
LINE
  8
0
  6
BYLAYER
 62
     7
 10
768.451086
 20
-112.410409
 30
0.0
 11
772.884955
 21
-112.410409
 31
0.0
  0
LINE
  8
0
  6
BYLAYER
 62
     7
 10
656.707031
 20
-55.101985
 30
0.0
 11
653.711310
 21
-52.106264
 31
0.0
  0
ARC
  8
0
  6
BYLAYER
 62
     7
 10
655.479071
 20
-50.338499
 30
0.0
 40
2.499997
 50
126.059706
 51
225.000010
  0
ARC
  8
0
  6
BYLAYER
 62
     7
 10
699.037543
 20
-110.160410
 30
0.0
 40
76.5
 50
118.924725
 51
126.059706
  0
LINE
  8
0
  6
BYLAYER
 62
     7
 10
741.368039
 20
-55.101972
 30
0.0
 11
744.363745
 21
-52.106257
 31
0.0
  0
ARC
  8
0
  6
BYLAYER
 62
     7
 10
742.595984
 20
-50.338492
 30
0.0
 40
2.499997
 50
315.000019
 51
413.940336
  0
ARC
  8
0
  6
BYLAYER
 62
     7
 10
699.037543
 20
-110.160410
 30
0.0
 40
76.500000
 50
53.940336
 51
61.075275
  0
LINE
  8
0
  6
BYLAYER
 62
     7
 10
643.979113
 20
-152.490917
 30
0.0
 11
640.983405
 21
-155.486624
 31
0.0
  0
ARC
  8
0
  6
BYLAYER
 62
     7
 10
639.215644
 20
-153.718859
 30
0.0
 40
2.499997
 50
216.059688
 51
314.999992
  0
ARC
  8
0
  6
BYLAYER
 62
     7
 10
699.037543
 20
-110.160410
 30
0.0
 40
76.5
 50
183.680329
 51
216.059688
  0
ARC
  8
0
  6
BYLAYER
 62
     7
 10
625.190131
 20
-114.910413
 30
0.0
 40
2.500000
 50
90.0
 51
183.680313
  0
LINE
  8
0
  6
BYLAYER
 62
     7
 10
629.624000
 20
-112.410413
 30
0.0
 11
625.190131
 21
-112.410413
 31
0.0
  0
LINE
  8
0
  6
BYLAYER
 62
     7
 10
643.979113
 20
-67.829903
 30
0.0
 11
640.983405
 21
-64.834196
 31
0.0
  0
ARC
  8
0
  6
BYLAYER
 62
     7
 10
639.215644
 20
-66.601961
 30
0.0
 40
2.499997
 50
45.000001
 51
143.940322
  0
ARC
  8
0
  6
BYLAYER
 62
     7
 10
699.037543
 20
-110.160410
 30
0.0
 40
76.5
 50
143.940322
 51
176.319681
  0
ARC
  8
0
  6
BYLAYER
 62
     7
 10
625.190131
 20
-105.410409
 30
0.0
 40
2.5
 50
176.319681
 51
269.999973
  0
LINE
  8
0
  6
BYLAYER
 62
     7
 10
629.624000
 20
-107.910409
 30
0.0
 11
625.190131
 21
-107.910409
 31
0.0
  0
LINE
  8
0
  6
BYLAYER
 62
     7
 10
662.037543
 20
-33.160410
 30
0.0
 11
662.037543
 21
-51.387095
 31
0.0
  0
LINE
  8
0
  6
BYLAYER
 62
     7
 10
736.037543
 20
-33.160410
 30
0.0
 11
736.037543
 21
-51.387095
 31
0.0
  0
LINE
  8
0
  6
BYLAYER
 62
     7
 10
662.037543
 20
-37.660410
 30
0.0
 11
665.037543
 21
-42.856546
 31
0.0
  0
LINE
  8
0
  6
BYLAYER
 62
     7
 10
665.037543
 20
-42.856546
 30
0.0
 11
665.037543
 21
-49.602153
 31
0.0
  0
LINE
  8
0
  6
BYLAYER
 62
     7
 10
736.037543
 20
-37.660410
 30
0.0
 11
733.037543
 21
-42.856546
 31
0.0
  0
LINE
  8
0
  6
BYLAYER
 62
     7
 10
733.037543
 20
-42.856546
 30
0.0
 11
733.037543
 21
-49.602153
 31
0.0
  0
LINE
  8
0
  6
BYLAYER
 62
     7
 10
700.037543
 20
-99.160410
 30
0.0
 11
708.037543
 21
-99.160410
 31
0.0
  0
LINE
  8
0
  6
BYLAYER
 62
     7
 10
700.037543
 20
-81.160410
 30
0.0
 11
700.037543
 21
-89.160410
 31
0.0
  0
LINE
  8
0
  6
BYLAYER
 62
     7
 10
700.037543
 20
-71.160410
 30
0.0
 11
700.037543
 21
-79.160410
 31
0.0
  0
LINE
  8
0
  6
BYLAYER
 62
     7
 10
700.037543
 20
-91.160410
 30
0.0
 11
700.037543
 21
-99.160410
 31
0.0
  0
LINE
  8
0
  6
BYLAYER
 62
     7
 10
708.037543
 20
-79.160410
 30
0.0
 11
708.037543
 21
-71.160410
 31
0.0
  0
LINE
  8
0
  6
BYLAYER
 62
     7
 10
710.037543
 20
-79.160410
 30
0.0
 11
710.037543
 21
-71.160410
 31
0.0
  0
LINE
  8
0
  6
BYLAYER
 62
     7
 10
700.037543
 20
-91.160410
 30
0.0
 11
708.037543
 21
-91.160410
 31
0.0
  0
LINE
  8
0
  6
BYLAYER
 62
     7
 10
700.037543
 20
-89.160410
 30
0.0
 11
708.037543
 21
-89.160410
 31
0.0
  0
LINE
  8
0
  6
BYLAYER
 62
     7
 10
700.037543
 20
-81.160410
 30
0.0
 11
708.037543
 21
-81.160410
 31
0.0
  0
LINE
  8
0
  6
BYLAYER
 62
     7
 10
710.037543
 20
-79.160410
 30
0.0
 11
717.875542
 21
-79.160410
 31
0.0
  0
LINE
  8
0
  6
BYLAYER
 62
     7
 10
700.037543
 20
-79.160410
 30
0.0
 11
708.037543
 21
-79.160410
 31
0.0
  0
LINE
  8
0
  6
BYLAYER
 62
     7
 10
710.037543
 20
-71.160410
 30
0.0
 11
717.875542
 21
-71.160410
 31
0.0
  0
LINE
  8
0
  6
BYLAYER
 62
     7
 10
700.037543
 20
-71.160410
 30
0.0
 11
708.037543
 21
-71.160410
 31
0.0
  0
LINE
  8
0
  6
BYLAYER
 62
     7
 10
717.875542
 20
-79.160410
 30
0.0
 11
717.875542
 21
-71.160410
 31
0.0
  0
LINE
  8
0
  6
BYLAYER
 62
     7
 10
708.037543
 20
-99.160410
 30
0.0
 11
708.037543
 21
-91.160410
 31
0.0
  0
LINE
  8
0
  6
BYLAYER
 62
     7
 10
708.037543
 20
-89.160410
 30
0.0
 11
708.037543
 21
-81.160410
 31
0.0
  0
LINE
  8
0
  6
BYLAYER
 62
     7
 10
710.037543
 20
-99.160410
 30
0.0
 11
718.037543
 21
-99.160410
 31
0.0
  0
LINE
  8
0
  6
BYLAYER
 62
     7
 10
710.037543
 20
-81.160410
 30
0.0
 11
710.037543
 21
-89.160410
 31
0.0
  0
LINE
  8
0
  6
BYLAYER
 62
     7
 10
710.037543
 20
-91.160410
 30
0.0
 11
710.037543
 21
-99.160410
 31
0.0
  0
LINE
  8
0
  6
BYLAYER
 62
     7
 10
710.037543
 20
-91.160410
 30
0.0
 11
718.037543
 21
-91.160410
 31
0.0
  0
LINE
  8
0
  6
BYLAYER
 62
     7
 10
710.037543
 20
-89.160410
 30
0.0
 11
718.037543
 21
-89.160410
 31
0.0
  0
LINE
  8
0
  6
BYLAYER
 62
     7
 10
710.037543
 20
-81.160410
 30
0.0
 11
718.037543
 21
-81.160410
 31
0.0
  0
LINE
  8
0
  6
BYLAYER
 62
     7
 10
718.037543
 20
-99.160410
 30
0.0
 11
718.037543
 21
-91.160410
 31
0.0
  0
LINE
  8
0
  6
BYLAYER
 62
     7
 10
718.037543
 20
-89.160410
 30
0.0
 11
718.037543
 21
-81.160410
 31
0.0
  0
LINE
  8
0
  6
BYLAYER
 62
     7
 10
720.037543
 20
-99.160410
 30
0.0
 11
728.037543
 21
-99.160410
 31
0.0
  0
LINE
  8
0
  6
BYLAYER
 62
     7
 10
720.037543
 20
-81.160410
 30
0.0
 11
720.037543
 21
-89.160410
 31
0.0
  0
LINE
  8
0
  6
BYLAYER
 62
     7
 10
720.037543
 20
-91.160410
 30
0.0
 11
720.037543
 21
-99.160410
 31
0.0
  0
LINE
  8
0
  6
BYLAYER
 62
     7
 10
720.037543
 20
-91.160410
 30
0.0
 11
728.037543
 21
-91.160410
 31
0.0
  0
LINE
  8
0
  6
BYLAYER
 62
     7
 10
720.037543
 20
-89.160410
 30
0.0
 11
728.037543
 21
-89.160410
 31
0.0
  0
LINE
  8
0
  6
BYLAYER
 62
     7
 10
720.037543
 20
-81.160410
 30
0.0
 11
728.037543
 21
-81.160410
 31
0.0
  0
LINE
  8
0
  6
BYLAYER
 62
     7
 10
728.037543
 20
-99.160410
 30
0.0
 11
728.037543
 21
-91.160410
 31
0.0
  0
LINE
  8
0
  6
BYLAYER
 62
     7
 10
728.037543
 20
-89.160410
 30
0.0
 11
728.037543
 21
-81.160410
 31
0.0
  0
LINE
  8
0
  6
BYLAYER
 62
     7
 10
710.037543
 20
-109.160410
 30
0.0
 11
718.037543
 21
-109.160410
 31
0.0
  0
LINE
  8
0
  6
BYLAYER
 62
     7
 10
710.037543
 20
-101.160410
 30
0.0
 11
710.037543
 21
-109.160410
 31
0.0
  0
LINE
  8
0
  6
BYLAYER
 62
     7
 10
710.037543
 20
-101.160410
 30
0.0
 11
718.037543
 21
-101.160410
 31
0.0
  0
LINE
  8
0
  6
BYLAYER
 62
     7
 10
718.037543
 20
-109.160410
 30
0.0
 11
718.037543
 21
-101.160410
 31
0.0
  0
LINE
  8
0
  6
BYLAYER
 62
     7
 10
720.037543
 20
-109.160410
 30
0.0
 11
728.037543
 21
-109.160410
 31
0.0
  0
LINE
  8
0
  6
BYLAYER
 62
     7
 10
720.037543
 20
-101.160410
 30
0.0
 11
720.037543
 21
-109.160410
 31
0.0
  0
LINE
  8
0
  6
BYLAYER
 62
     7
 10
720.037543
 20
-101.160410
 30
0.0
 11
728.037543
 21
-101.160410
 31
0.0
  0
LINE
  8
0
  6
BYLAYER
 62
     7
 10
728.037543
 20
-109.160410
 30
0.0
 11
728.037543
 21
-101.160410
 31
0.0
  0
LINE
  8
0
  6
BYLAYER
 62
     7
 10
730.037543
 20
-99.160410
 30
0.0
 11
738.037543
 21
-99.160410
 31
0.0
  0
LINE
  8
0
  6
BYLAYER
 62
     7
 10
730.037543
 20
-91.160410
 30
0.0
 11
730.037543
 21
-99.160410
 31
0.0
  0
LINE
  8
0
  6
BYLAYER
 62
     7
 10
730.037543
 20
-91.160410
 30
0.0
 11
738.037543
 21
-91.160410
 31
0.0
  0
LINE
  8
0
  6
BYLAYER
 62
     7
 10
738.037543
 20
-99.160410
 30
0.0
 11
738.037543
 21
-91.160410
 31
0.0
  0
LINE
  8
0
  6
BYLAYER
 62
     7
 10
730.037543
 20
-109.160410
 30
0.0
 11
738.037543
 21
-109.160410
 31
0.0
  0
LINE
  8
0
  6
BYLAYER
 62
     7
 10
730.037543
 20
-101.160410
 30
0.0
 11
730.037543
 21
-109.160410
 31
0.0
  0
LINE
  8
0
  6
BYLAYER
 62
     7
 10
730.037543
 20
-101.160410
 30
0.0
 11
738.037543
 21
-101.160410
 31
0.0
  0
LINE
  8
0
  6
BYLAYER
 62
     7
 10
738.037543
 20
-109.160410
 30
0.0
 11
738.037543
 21
-101.160410
 31
0.0
  0
CIRCLE
  8
0
  6
BYLAYER
 62
     7
 10
699.037543
 20
-110.160410
 30
0.0
 40
4.0
  0
LINE
  8
0
  6
BYLAYER
 62
     7
 10
700.037543
 20
-61.160410
 30
0.0
 11
700.037543
 21
-69.160410
 31
0.0
  0
LINE
  8
0
  6
BYLAYER
 62
     7
 10
708.037543
 20
-69.160410
 30
0.0
 11
708.037543
 21
-61.160410
 31
0.0
  0
LINE
  8
0
  6
BYLAYER
 62
     7
 10
700.037543
 20
-69.160410
 30
0.0
 11
708.037543
 21
-69.160410
 31
0.0
  0
LINE
  8
0
  6
BYLAYER
 62
     7
 10
700.037543
 20
-61.160410
 30
0.0
 11
708.037543
 21
-61.160410
 31
0.0
  0
LINE
  8
0
  6
BYLAYER
 62
     7
 10
720.037543
 20
-71.160410
 30
0.0
 11
720.037543
 21
-79.160410
 31
0.0
  0
LINE
  8
0
  6
BYLAYER
 62
     7
 10
720.037543
 20
-79.160410
 30
0.0
 11
728.037543
 21
-79.160410
 31
0.0
  0
LINE
  8
0
  6
BYLAYER
 62
     7
 10
720.037543
 20
-71.160410
 30
0.0
 11
728.037543
 21
-71.160410
 31
0.0
  0
LINE
  8
0
  6
BYLAYER
 62
     7
 10
728.037543
 20
-79.160410
 30
0.0
 11
728.037543
 21
-71.160410
 31
0.0
  0
LINE
  8
0
  6
BYLAYER
 62
     7
 10
740.037543
 20
-109.160410
 30
0.0
 11
748.037543
 21
-109.160410
 31
0.0
  0
LINE
  8
0
  6
BYLAYER
 62
     7
 10
740.037543
 20
-101.160410
 30
0.0
 11
740.037543
 21
-109.160410
 31
0.0
  0
LINE
  8
0
  6
BYLAYER
 62
     7
 10
740.037543
 20
-101.160410
 30
0.0
 11
748.037543
 21
-101.160410
 31
0.0
  0
LINE
  8
0
  6
BYLAYER
 62
     7
 10
748.037543
 20
-109.160410
 30
0.0
 11
748.037543
 21
-101.160410
 31
0.0
  0
LINE
  8
0
  6
BYLAYER
 62
     7
 10
730.037543
 20
-89.160410
 30
0.0
 11
738.037543
 21
-89.160410
 31
0.0
  0
LINE
  8
0
  6
BYLAYER
 62
     7
 10
730.037543
 20
-81.160410
 30
0.0
 11
730.037543
 21
-89.160410
 31
0.0
  0
LINE
  8
0
  6
BYLAYER
 62
     7
 10
730.037543
 20
-81.160410
 30
0.0
 11
738.037543
 21
-81.160410
 31
0.0
  0
LINE
  8
0
  6
BYLAYER
 62
     7
 10
738.037543
 20
-89.160410
 30
0.0
 11
738.037543
 21
-81.160410
 31
0.0
  0
CIRCLE
  8
0
  6
BYLAYER
 62
     7
 10
699.037543
 20
-110.160410
 30
0.0
 40
55.0
  0
CIRCLE
  8
0
  6
BYLAYER
 62
     7
 10
699.037543
 20
-110.160410
 30
0.0
 40
69.45
  0
CIRCLE
  8
0
  6
BYLAYER
 62
     7
 10
699.037543
 20
-110.160410
 30
0.0
 40
51.0
  0
LINE
  8
0
  6
BYLAYER
 62
     7
 10
700.037543
 20
-121.160410
 30
0.0
 11
708.037543
 21
-121.160410
 31
0.0
  0
LINE
  8
0
  6
BYLAYER
 62
     7
 10
700.037543
 20
-139.160410
 30
0.0
 11
700.037543
 21
-131.160410
 31
0.0
  0
LINE
  8
0
  6
BYLAYER
 62
     7
 10
700.037543
 20
-149.160410
 30
0.0
 11
700.037543
 21
-141.160410
 31
0.0
  0
LINE
  8
0
  6
BYLAYER
 62
     7
 10
700.037543
 20
-129.160410
 30
0.0
 11
700.037543
 21
-121.160410
 31
0.0
  0
LINE
  8
0
  6
BYLAYER
 62
     7
 10
708.037543
 20
-141.160410
 30
0.0
 11
708.037543
 21
-149.160410
 31
0.0
  0
LINE
  8
0
  6
BYLAYER
 62
     7
 10
710.037543
 20
-141.160410
 30
0.0
 11
710.037543
 21
-149.160410
 31
0.0
  0
LINE
  8
0
  6
BYLAYER
 62
     7
 10
700.037543
 20
-129.160410
 30
0.0
 11
708.037543
 21
-129.160410
 31
0.0
  0
LINE
  8
0
  6
BYLAYER
 62
     7
 10
700.037543
 20
-131.160410
 30
0.0
 11
708.037543
 21
-131.160410
 31
0.0
  0
LINE
  8
0
  6
BYLAYER
 62
     7
 10
700.037543
 20
-139.160410
 30
0.0
 11
708.037543
 21
-139.160410
 31
0.0
  0
LINE
  8
0
  6
BYLAYER
 62
     7
 10
710.037543
 20
-141.160410
 30
0.0
 11
717.875542
 21
-141.160410
 31
0.0
  0
LINE
  8
0
  6
BYLAYER
 62
     7
 10
700.037543
 20
-141.160410
 30
0.0
 11
708.037543
 21
-141.160410
 31
0.0
  0
LINE
  8
0
  6
BYLAYER
 62
     7
 10
710.037543
 20
-149.160410
 30
0.0
 11
717.875542
 21
-149.160410
 31
0.0
  0
LINE
  8
0
  6
BYLAYER
 62
     7
 10
700.037543
 20
-149.160410
 30
0.0
 11
708.037543
 21
-149.160410
 31
0.0
  0
LINE
  8
0
  6
BYLAYER
 62
     7
 10
717.875542
 20
-141.160410
 30
0.0
 11
717.875542
 21
-149.160410
 31
0.0
  0
LINE
  8
0
  6
BYLAYER
 62
     7
 10
708.037543
 20
-121.160410
 30
0.0
 11
708.037543
 21
-129.160410
 31
0.0
  0
LINE
  8
0
  6
BYLAYER
 62
     7
 10
708.037543
 20
-131.160410
 30
0.0
 11
708.037543
 21
-139.160410
 31
0.0
  0
LINE
  8
0
  6
BYLAYER
 62
     7
 10
710.037543
 20
-121.160410
 30
0.0
 11
718.037543
 21
-121.160410
 31
0.0
  0
LINE
  8
0
  6
BYLAYER
 62
     7
 10
710.037543
 20
-139.160410
 30
0.0
 11
710.037543
 21
-131.160410
 31
0.0
  0
LINE
  8
0
  6
BYLAYER
 62
     7
 10
710.037543
 20
-129.160410
 30
0.0
 11
710.037543
 21
-121.160410
 31
0.0
  0
LINE
  8
0
  6
BYLAYER
 62
     7
 10
710.037543
 20
-129.160410
 30
0.0
 11
718.037543
 21
-129.160410
 31
0.0
  0
LINE
  8
0
  6
BYLAYER
 62
     7
 10
710.037543
 20
-131.160410
 30
0.0
 11
718.037543
 21
-131.160410
 31
0.0
  0
LINE
  8
0
  6
BYLAYER
 62
     7
 10
710.037543
 20
-139.160410
 30
0.0
 11
718.037543
 21
-139.160410
 31
0.0
  0
LINE
  8
0
  6
BYLAYER
 62
     7
 10
718.037543
 20
-121.160410
 30
0.0
 11
718.037543
 21
-129.160410
 31
0.0
  0
LINE
  8
0
  6
BYLAYER
 62
     7
 10
718.037543
 20
-131.160410
 30
0.0
 11
718.037543
 21
-139.160410
 31
0.0
  0
LINE
  8
0
  6
BYLAYER
 62
     7
 10
720.037543
 20
-121.160410
 30
0.0
 11
728.037543
 21
-121.160410
 31
0.0
  0
LINE
  8
0
  6
BYLAYER
 62
     7
 10
720.037543
 20
-139.160410
 30
0.0
 11
720.037543
 21
-131.160410
 31
0.0
  0
LINE
  8
0
  6
BYLAYER
 62
     7
 10
720.037543
 20
-129.160410
 30
0.0
 11
720.037543
 21
-121.160410
 31
0.0
  0
LINE
  8
0
  6
BYLAYER
 62
     7
 10
720.037543
 20
-129.160410
 30
0.0
 11
728.037543
 21
-129.160410
 31
0.0
  0
LINE
  8
0
  6
BYLAYER
 62
     7
 10
720.037543
 20
-131.160410
 30
0.0
 11
728.037543
 21
-131.160410
 31
0.0
  0
LINE
  8
0
  6
BYLAYER
 62
     7
 10
720.037543
 20
-139.160410
 30
0.0
 11
728.037543
 21
-139.160410
 31
0.0
  0
LINE
  8
0
  6
BYLAYER
 62
     7
 10
728.037543
 20
-121.160410
 30
0.0
 11
728.037543
 21
-129.160410
 31
0.0
  0
LINE
  8
0
  6
BYLAYER
 62
     7
 10
728.037543
 20
-131.160410
 30
0.0
 11
728.037543
 21
-139.160410
 31
0.0
  0
LINE
  8
0
  6
BYLAYER
 62
     7
 10
710.037543
 20
-111.160410
 30
0.0
 11
718.037543
 21
-111.160410
 31
0.0
  0
LINE
  8
0
  6
BYLAYER
 62
     7
 10
710.037543
 20
-119.160410
 30
0.0
 11
710.037543
 21
-111.160410
 31
0.0
  0
LINE
  8
0
  6
BYLAYER
 62
     7
 10
710.037543
 20
-119.160410
 30
0.0
 11
718.037543
 21
-119.160410
 31
0.0
  0
LINE
  8
0
  6
BYLAYER
 62
     7
 10
718.037543
 20
-111.160410
 30
0.0
 11
718.037543
 21
-119.160410
 31
0.0
  0
LINE
  8
0
  6
BYLAYER
 62
     7
 10
720.037543
 20
-111.160410
 30
0.0
 11
728.037543
 21
-111.160410
 31
0.0
  0
LINE
  8
0
  6
BYLAYER
 62
     7
 10
720.037543
 20
-119.160410
 30
0.0
 11
720.037543
 21
-111.160410
 31
0.0
  0
LINE
  8
0
  6
BYLAYER
 62
     7
 10
720.037543
 20
-119.160410
 30
0.0
 11
728.037543
 21
-119.160410
 31
0.0
  0
LINE
  8
0
  6
BYLAYER
 62
     7
 10
728.037543
 20
-111.160410
 30
0.0
 11
728.037543
 21
-119.160410
 31
0.0
  0
LINE
  8
0
  6
BYLAYER
 62
     7
 10
730.037543
 20
-121.160410
 30
0.0
 11
738.037543
 21
-121.160410
 31
0.0
  0
LINE
  8
0
  6
BYLAYER
 62
     7
 10
730.037543
 20
-129.160410
 30
0.0
 11
730.037543
 21
-121.160410
 31
0.0
  0
LINE
  8
0
  6
BYLAYER
 62
     7
 10
730.037543
 20
-129.160410
 30
0.0
 11
738.037543
 21
-129.160410
 31
0.0
  0
LINE
  8
0
  6
BYLAYER
 62
     7
 10
738.037543
 20
-121.160410
 30
0.0
 11
738.037543
 21
-129.160410
 31
0.0
  0
LINE
  8
0
  6
BYLAYER
 62
     7
 10
730.037543
 20
-111.160410
 30
0.0
 11
738.037543
 21
-111.160410
 31
0.0
  0
LINE
  8
0
  6
BYLAYER
 62
     7
 10
730.037543
 20
-119.160410
 30
0.0
 11
730.037543
 21
-111.160410
 31
0.0
  0
LINE
  8
0
  6
BYLAYER
 62
     7
 10
730.037543
 20
-119.160410
 30
0.0
 11
738.037543
 21
-119.160410
 31
0.0
  0
LINE
  8
0
  6
BYLAYER
 62
     7
 10
738.037543
 20
-111.160410
 30
0.0
 11
738.037543
 21
-119.160410
 31
0.0
  0
LINE
  8
0
  6
BYLAYER
 62
     7
 10
700.037543
 20
-159.160410
 30
0.0
 11
700.037543
 21
-151.160410
 31
0.0
  0
LINE
  8
0
  6
BYLAYER
 62
     7
 10
708.037543
 20
-151.160410
 30
0.0
 11
708.037543
 21
-159.160410
 31
0.0
  0
LINE
  8
0
  6
BYLAYER
 62
     7
 10
700.037543
 20
-151.160410
 30
0.0
 11
708.037543
 21
-151.160410
 31
0.0
  0
LINE
  8
0
  6
BYLAYER
 62
     7
 10
700.037543
 20
-159.160410
 30
0.0
 11
708.037543
 21
-159.160410
 31
0.0
  0
LINE
  8
0
  6
BYLAYER
 62
     7
 10
720.037543
 20
-149.160410
 30
0.0
 11
720.037543
 21
-141.160410
 31
0.0
  0
LINE
  8
0
  6
BYLAYER
 62
     7
 10
720.037543
 20
-141.160410
 30
0.0
 11
728.037543
 21
-141.160410
 31
0.0
  0
LINE
  8
0
  6
BYLAYER
 62
     7
 10
720.037543
 20
-149.160410
 30
0.0
 11
728.037543
 21
-149.160410
 31
0.0
  0
LINE
  8
0
  6
BYLAYER
 62
     7
 10
728.037543
 20
-141.160410
 30
0.0
 11
728.037543
 21
-149.160410
 31
0.0
  0
LINE
  8
0
  6
BYLAYER
 62
     7
 10
740.037543
 20
-111.160410
 30
0.0
 11
748.037543
 21
-111.160410
 31
0.0
  0
LINE
  8
0
  6
BYLAYER
 62
     7
 10
740.037543
 20
-119.160410
 30
0.0
 11
740.037543
 21
-111.160410
 31
0.0
  0
LINE
  8
0
  6
BYLAYER
 62
     7
 10
740.037543
 20
-119.160410
 30
0.0
 11
748.037543
 21
-119.160410
 31
0.0
  0
LINE
  8
0
  6
BYLAYER
 62
     7
 10
748.037543
 20
-111.160410
 30
0.0
 11
748.037543
 21
-119.160410
 31
0.0
  0
LINE
  8
0
  6
BYLAYER
 62
     7
 10
730.037543
 20
-131.160410
 30
0.0
 11
738.037543
 21
-131.160410
 31
0.0
  0
LINE
  8
0
  6
BYLAYER
 62
     7
 10
730.037543
 20
-139.160410
 30
0.0
 11
730.037543
 21
-131.160410
 31
0.0
  0
LINE
  8
0
  6
BYLAYER
 62
     7
 10
730.037543
 20
-139.160410
 30
0.0
 11
738.037543
 21
-139.160410
 31
0.0
  0
LINE
  8
0
  6
BYLAYER
 62
     7
 10
738.037543
 20
-131.160410
 30
0.0
 11
738.037543
 21
-139.160410
 31
0.0
  0
LINE
  8
0
  6
BYLAYER
 62
     7
 10
698.037543
 20
-99.160410
 30
0.0
 11
690.037543
 21
-99.160410
 31
0.0
  0
LINE
  8
0
  6
BYLAYER
 62
     7
 10
698.037543
 20
-81.160410
 30
0.0
 11
698.037543
 21
-89.160410
 31
0.0
  0
LINE
  8
0
  6
BYLAYER
 62
     7
 10
698.037543
 20
-71.160410
 30
0.0
 11
698.037543
 21
-79.160410
 31
0.0
  0
LINE
  8
0
  6
BYLAYER
 62
     7
 10
698.037543
 20
-91.160410
 30
0.0
 11
698.037543
 21
-99.160410
 31
0.0
  0
LINE
  8
0
  6
BYLAYER
 62
     7
 10
690.037543
 20
-79.160410
 30
0.0
 11
690.037543
 21
-71.160410
 31
0.0
  0
LINE
  8
0
  6
BYLAYER
 62
     7
 10
688.037543
 20
-79.160410
 30
0.0
 11
688.037543
 21
-71.160410
 31
0.0
  0
LINE
  8
0
  6
BYLAYER
 62
     7
 10
698.037543
 20
-91.160410
 30
0.0
 11
690.037543
 21
-91.160410
 31
0.0
  0
LINE
  8
0
  6
BYLAYER
 62
     7
 10
698.037543
 20
-89.160410
 30
0.0
 11
690.037543
 21
-89.160410
 31
0.0
  0
LINE
  8
0
  6
BYLAYER
 62
     7
 10
698.037543
 20
-81.160410
 30
0.0
 11
690.037543
 21
-81.160410
 31
0.0
  0
LINE
  8
0
  6
BYLAYER
 62
     7
 10
688.037543
 20
-79.160410
 30
0.0
 11
680.199544
 21
-79.160410
 31
0.0
  0
LINE
  8
0
  6
BYLAYER
 62
     7
 10
698.037543
 20
-79.160410
 30
0.0
 11
690.037543
 21
-79.160410
 31
0.0
  0
LINE
  8
0
  6
BYLAYER
 62
     7
 10
688.037543
 20
-71.160410
 30
0.0
 11
680.199544
 21
-71.160410
 31
0.0
  0
LINE
  8
0
  6
BYLAYER
 62
     7
 10
698.037543
 20
-71.160410
 30
0.0
 11
690.037543
 21
-71.160410
 31
0.0
  0
LINE
  8
0
  6
BYLAYER
 62
     7
 10
680.199544
 20
-79.160410
 30
0.0
 11
680.199544
 21
-71.160410
 31
0.0
  0
LINE
  8
0
  6
BYLAYER
 62
     7
 10
690.037543
 20
-99.160410
 30
0.0
 11
690.037543
 21
-91.160410
 31
0.0
  0
LINE
  8
0
  6
BYLAYER
 62
     7
 10
690.037543
 20
-89.160410
 30
0.0
 11
690.037543
 21
-81.160410
 31
0.0
  0
LINE
  8
0
  6
BYLAYER
 62
     7
 10
688.037543
 20
-99.160410
 30
0.0
 11
680.037543
 21
-99.160410
 31
0.0
  0
LINE
  8
0
  6
BYLAYER
 62
     7
 10
688.037543
 20
-81.160410
 30
0.0
 11
688.037543
 21
-89.160410
 31
0.0
  0
LINE
  8
0
  6
BYLAYER
 62
     7
 10
688.037543
 20
-91.160410
 30
0.0
 11
688.037543
 21
-99.160410
 31
0.0
  0
LINE
  8
0
  6
BYLAYER
 62
     7
 10
688.037543
 20
-91.160410
 30
0.0
 11
680.037543
 21
-91.160410
 31
0.0
  0
LINE
  8
0
  6
BYLAYER
 62
     7
 10
688.037543
 20
-89.160410
 30
0.0
 11
680.037543
 21
-89.160410
 31
0.0
  0
LINE
  8
0
  6
BYLAYER
 62
     7
 10
688.037543
 20
-81.160410
 30
0.0
 11
680.037543
 21
-81.160410
 31
0.0
  0
LINE
  8
0
  6
BYLAYER
 62
     7
 10
680.037543
 20
-99.160410
 30
0.0
 11
680.037543
 21
-91.160410
 31
0.0
  0
LINE
  8
0
  6
BYLAYER
 62
     7
 10
680.037543
 20
-89.160410
 30
0.0
 11
680.037543
 21
-81.160410
 31
0.0
  0
LINE
  8
0
  6
BYLAYER
 62
     7
 10
678.037543
 20
-99.160410
 30
0.0
 11
670.037543
 21
-99.160410
 31
0.0
  0
LINE
  8
0
  6
BYLAYER
 62
     7
 10
678.037543
 20
-81.160410
 30
0.0
 11
678.037543
 21
-89.160410
 31
0.0
  0
LINE
  8
0
  6
BYLAYER
 62
     7
 10
678.037543
 20
-91.160410
 30
0.0
 11
678.037543
 21
-99.160410
 31
0.0
  0
LINE
  8
0
  6
BYLAYER
 62
     7
 10
678.037543
 20
-91.160410
 30
0.0
 11
670.037543
 21
-91.160410
 31
0.0
  0
LINE
  8
0
  6
BYLAYER
 62
     7
 10
678.037543
 20
-89.160410
 30
0.0
 11
670.037543
 21
-89.160410
 31
0.0
  0
LINE
  8
0
  6
BYLAYER
 62
     7
 10
678.037543
 20
-81.160410
 30
0.0
 11
670.037543
 21
-81.160410
 31
0.0
  0
LINE
  8
0
  6
BYLAYER
 62
     7
 10
670.037543
 20
-99.160410
 30
0.0
 11
670.037543
 21
-91.160410
 31
0.0
  0
LINE
  8
0
  6
BYLAYER
 62
     7
 10
670.037543
 20
-89.160410
 30
0.0
 11
670.037543
 21
-81.160410
 31
0.0
  0
LINE
  8
0
  6
BYLAYER
 62
     7
 10
688.037543
 20
-109.160410
 30
0.0
 11
680.037543
 21
-109.160410
 31
0.0
  0
LINE
  8
0
  6
BYLAYER
 62
     7
 10
688.037543
 20
-101.160410
 30
0.0
 11
688.037543
 21
-109.160410
 31
0.0
  0
LINE
  8
0
  6
BYLAYER
 62
     7
 10
688.037543
 20
-101.160410
 30
0.0
 11
680.037543
 21
-101.160410
 31
0.0
  0
LINE
  8
0
  6
BYLAYER
 62
     7
 10
680.037543
 20
-109.160410
 30
0.0
 11
680.037543
 21
-101.160410
 31
0.0
  0
LINE
  8
0
  6
BYLAYER
 62
     7
 10
678.037543
 20
-109.160410
 30
0.0
 11
670.037543
 21
-109.160410
 31
0.0
  0
LINE
  8
0
  6
BYLAYER
 62
     7
 10
678.037543
 20
-101.160410
 30
0.0
 11
678.037543
 21
-109.160410
 31
0.0
  0
LINE
  8
0
  6
BYLAYER
 62
     7
 10
678.037543
 20
-101.160410
 30
0.0
 11
670.037543
 21
-101.160410
 31
0.0
  0
LINE
  8
0
  6
BYLAYER
 62
     7
 10
670.037543
 20
-109.160410
 30
0.0
 11
670.037543
 21
-101.160410
 31
0.0
  0
LINE
  8
0
  6
BYLAYER
 62
     7
 10
668.037543
 20
-99.160410
 30
0.0
 11
660.037543
 21
-99.160410
 31
0.0
  0
LINE
  8
0
  6
BYLAYER
 62
     7
 10
668.037543
 20
-91.160410
 30
0.0
 11
668.037543
 21
-99.160410
 31
0.0
  0
LINE
  8
0
  6
BYLAYER
 62
     7
 10
668.037543
 20
-91.160410
 30
0.0
 11
660.037543
 21
-91.160410
 31
0.0
  0
LINE
  8
0
  6
BYLAYER
 62
     7
 10
660.037543
 20
-99.160410
 30
0.0
 11
660.037543
 21
-91.160410
 31
0.0
  0
LINE
  8
0
  6
BYLAYER
 62
     7
 10
668.037543
 20
-109.160410
 30
0.0
 11
660.037543
 21
-109.160410
 31
0.0
  0
LINE
  8
0
  6
BYLAYER
 62
     7
 10
668.037543
 20
-101.160410
 30
0.0
 11
668.037543
 21
-109.160410
 31
0.0
  0
LINE
  8
0
  6
BYLAYER
 62
     7
 10
668.037543
 20
-101.160410
 30
0.0
 11
660.037543
 21
-101.160410
 31
0.0
  0
LINE
  8
0
  6
BYLAYER
 62
     7
 10
660.037543
 20
-109.160410
 30
0.0
 11
660.037543
 21
-101.160410
 31
0.0
  0
LINE
  8
0
  6
BYLAYER
 62
     7
 10
698.037543
 20
-61.160410
 30
0.0
 11
698.037543
 21
-69.160410
 31
0.0
  0
LINE
  8
0
  6
BYLAYER
 62
     7
 10
690.037543
 20
-69.160410
 30
0.0
 11
690.037543
 21
-61.160410
 31
0.0
  0
LINE
  8
0
  6
BYLAYER
 62
     7
 10
698.037543
 20
-69.160410
 30
0.0
 11
690.037543
 21
-69.160410
 31
0.0
  0
LINE
  8
0
  6
BYLAYER
 62
     7
 10
698.037543
 20
-61.160410
 30
0.0
 11
690.037543
 21
-61.160410
 31
0.0
  0
LINE
  8
0
  6
BYLAYER
 62
     7
 10
678.037543
 20
-71.160410
 30
0.0
 11
678.037543
 21
-79.160410
 31
0.0
  0
LINE
  8
0
  6
BYLAYER
 62
     7
 10
678.037543
 20
-79.160410
 30
0.0
 11
670.037543
 21
-79.160410
 31
0.0
  0
LINE
  8
0
  6
BYLAYER
 62
     7
 10
678.037543
 20
-71.160410
 30
0.0
 11
670.037543
 21
-71.160410
 31
0.0
  0
LINE
  8
0
  6
BYLAYER
 62
     7
 10
670.037543
 20
-79.160410
 30
0.0
 11
670.037543
 21
-71.160410
 31
0.0
  0
LINE
  8
0
  6
BYLAYER
 62
     7
 10
658.037543
 20
-109.160410
 30
0.0
 11
650.037543
 21
-109.160410
 31
0.0
  0
LINE
  8
0
  6
BYLAYER
 62
     7
 10
658.037543
 20
-101.160410
 30
0.0
 11
658.037543
 21
-109.160410
 31
0.0
  0
LINE
  8
0
  6
BYLAYER
 62
     7
 10
658.037543
 20
-101.160410
 30
0.0
 11
650.037543
 21
-101.160410
 31
0.0
  0
LINE
  8
0
  6
BYLAYER
 62
     7
 10
650.037543
 20
-109.160410
 30
0.0
 11
650.037543
 21
-101.160410
 31
0.0
  0
LINE
  8
0
  6
BYLAYER
 62
     7
 10
668.037543
 20
-89.160410
 30
0.0
 11
660.037543
 21
-89.160410
 31
0.0
  0
LINE
  8
0
  6
BYLAYER
 62
     7
 10
668.037543
 20
-81.160410
 30
0.0
 11
668.037543
 21
-89.160410
 31
0.0
  0
LINE
  8
0
  6
BYLAYER
 62
     7
 10
668.037543
 20
-81.160410
 30
0.0
 11
660.037543
 21
-81.160410
 31
0.0
  0
LINE
  8
0
  6
BYLAYER
 62
     7
 10
660.037543
 20
-89.160410
 30
0.0
 11
660.037543
 21
-81.160410
 31
0.0
  0
LINE
  8
0
  6
BYLAYER
 62
     7
 10
698.037543
 20
-121.160410
 30
0.0
 11
690.037543
 21
-121.160410
 31
0.0
  0
LINE
  8
0
  6
BYLAYER
 62
     7
 10
698.037543
 20
-139.160410
 30
0.0
 11
698.037543
 21
-131.160410
 31
0.0
  0
LINE
  8
0
  6
BYLAYER
 62
     7
 10
698.037543
 20
-149.160410
 30
0.0
 11
698.037543
 21
-141.160410
 31
0.0
  0
LINE
  8
0
  6
BYLAYER
 62
     7
 10
698.037543
 20
-129.160410
 30
0.0
 11
698.037543
 21
-121.160410
 31
0.0
  0
LINE
  8
0
  6
BYLAYER
 62
     7
 10
690.037543
 20
-141.160410
 30
0.0
 11
690.037543
 21
-149.160410
 31
0.0
  0
LINE
  8
0
  6
BYLAYER
 62
     7
 10
688.037543
 20
-141.160410
 30
0.0
 11
688.037543
 21
-149.160410
 31
0.0
  0
LINE
  8
0
  6
BYLAYER
 62
     7
 10
698.037543
 20
-129.160410
 30
0.0
 11
690.037543
 21
-129.160410
 31
0.0
  0
LINE
  8
0
  6
BYLAYER
 62
     7
 10
698.037543
 20
-131.160410
 30
0.0
 11
690.037543
 21
-131.160410
 31
0.0
  0
LINE
  8
0
  6
BYLAYER
 62
     7
 10
698.037543
 20
-139.160410
 30
0.0
 11
690.037543
 21
-139.160410
 31
0.0
  0
LINE
  8
0
  6
BYLAYER
 62
     7
 10
688.037543
 20
-141.160410
 30
0.0
 11
680.199544
 21
-141.160410
 31
0.0
  0
LINE
  8
0
  6
BYLAYER
 62
     7
 10
698.037543
 20
-141.160410
 30
0.0
 11
690.037543
 21
-141.160410
 31
0.0
  0
LINE
  8
0
  6
BYLAYER
 62
     7
 10
688.037543
 20
-149.160410
 30
0.0
 11
680.199544
 21
-149.160410
 31
0.0
  0
LINE
  8
0
  6
BYLAYER
 62
     7
 10
698.037543
 20
-149.160410
 30
0.0
 11
690.037543
 21
-149.160410
 31
0.0
  0
LINE
  8
0
  6
BYLAYER
 62
     7
 10
680.199544
 20
-141.160410
 30
0.0
 11
680.199544
 21
-149.160410
 31
0.0
  0
LINE
  8
0
  6
BYLAYER
 62
     7
 10
690.037543
 20
-121.160410
 30
0.0
 11
690.037543
 21
-129.160410
 31
0.0
  0
LINE
  8
0
  6
BYLAYER
 62
     7
 10
690.037543
 20
-131.160410
 30
0.0
 11
690.037543
 21
-139.160410
 31
0.0
  0
LINE
  8
0
  6
BYLAYER
 62
     7
 10
688.037543
 20
-121.160410
 30
0.0
 11
680.037543
 21
-121.160410
 31
0.0
  0
LINE
  8
0
  6
BYLAYER
 62
     7
 10
688.037543
 20
-139.160410
 30
0.0
 11
688.037543
 21
-131.160410
 31
0.0
  0
LINE
  8
0
  6
BYLAYER
 62
     7
 10
688.037543
 20
-129.160410
 30
0.0
 11
688.037543
 21
-121.160410
 31
0.0
  0
LINE
  8
0
  6
BYLAYER
 62
     7
 10
688.037543
 20
-129.160410
 30
0.0
 11
680.037543
 21
-129.160410
 31
0.0
  0
LINE
  8
0
  6
BYLAYER
 62
     7
 10
688.037543
 20
-131.160410
 30
0.0
 11
680.037543
 21
-131.160410
 31
0.0
  0
LINE
  8
0
  6
BYLAYER
 62
     7
 10
688.037543
 20
-139.160410
 30
0.0
 11
680.037543
 21
-139.160410
 31
0.0
  0
LINE
  8
0
  6
BYLAYER
 62
     7
 10
680.037543
 20
-121.160410
 30
0.0
 11
680.037543
 21
-129.160410
 31
0.0
  0
LINE
  8
0
  6
BYLAYER
 62
     7
 10
680.037543
 20
-131.160410
 30
0.0
 11
680.037543
 21
-139.160410
 31
0.0
  0
LINE
  8
0
  6
BYLAYER
 62
     7
 10
678.037543
 20
-121.160410
 30
0.0
 11
670.037543
 21
-121.160410
 31
0.0
  0
LINE
  8
0
  6
BYLAYER
 62
     7
 10
678.037543
 20
-139.160410
 30
0.0
 11
678.037543
 21
-131.160410
 31
0.0
  0
LINE
  8
0
  6
BYLAYER
 62
     7
 10
678.037543
 20
-129.160410
 30
0.0
 11
678.037543
 21
-121.160410
 31
0.0
  0
LINE
  8
0
  6
BYLAYER
 62
     7
 10
678.037543
 20
-129.160410
 30
0.0
 11
670.037543
 21
-129.160410
 31
0.0
  0
LINE
  8
0
  6
BYLAYER
 62
     7
 10
678.037543
 20
-131.160410
 30
0.0
 11
670.037543
 21
-131.160410
 31
0.0
  0
LINE
  8
0
  6
BYLAYER
 62
     7
 10
678.037543
 20
-139.160410
 30
0.0
 11
670.037543
 21
-139.160410
 31
0.0
  0
LINE
  8
0
  6
BYLAYER
 62
     7
 10
670.037543
 20
-121.160410
 30
0.0
 11
670.037543
 21
-129.160410
 31
0.0
  0
LINE
  8
0
  6
BYLAYER
 62
     7
 10
670.037543
 20
-131.160410
 30
0.0
 11
670.037543
 21
-139.160410
 31
0.0
  0
LINE
  8
0
  6
BYLAYER
 62
     7
 10
688.037543
 20
-111.160410
 30
0.0
 11
680.037543
 21
-111.160410
 31
0.0
  0
LINE
  8
0
  6
BYLAYER
 62
     7
 10
688.037543
 20
-119.160410
 30
0.0
 11
688.037543
 21
-111.160410
 31
0.0
  0
LINE
  8
0
  6
BYLAYER
 62
     7
 10
688.037543
 20
-119.160410
 30
0.0
 11
680.037543
 21
-119.160410
 31
0.0
  0
LINE
  8
0
  6
BYLAYER
 62
     7
 10
680.037543
 20
-111.160410
 30
0.0
 11
680.037543
 21
-119.160410
 31
0.0
  0
LINE
  8
0
  6
BYLAYER
 62
     7
 10
678.037543
 20
-111.160410
 30
0.0
 11
670.037543
 21
-111.160410
 31
0.0
  0
LINE
  8
0
  6
BYLAYER
 62
     7
 10
678.037543
 20
-119.160410
 30
0.0
 11
678.037543
 21
-111.160410
 31
0.0
  0
LINE
  8
0
  6
BYLAYER
 62
     7
 10
678.037543
 20
-119.160410
 30
0.0
 11
670.037543
 21
-119.160410
 31
0.0
  0
LINE
  8
0
  6
BYLAYER
 62
     7
 10
670.037543
 20
-111.160410
 30
0.0
 11
670.037543
 21
-119.160410
 31
0.0
  0
LINE
  8
0
  6
BYLAYER
 62
     7
 10
668.037543
 20
-121.160410
 30
0.0
 11
660.037543
 21
-121.160410
 31
0.0
  0
LINE
  8
0
  6
BYLAYER
 62
     7
 10
668.037543
 20
-129.160410
 30
0.0
 11
668.037543
 21
-121.160410
 31
0.0
  0
LINE
  8
0
  6
BYLAYER
 62
     7
 10
668.037543
 20
-129.160410
 30
0.0
 11
660.037543
 21
-129.160410
 31
0.0
  0
LINE
  8
0
  6
BYLAYER
 62
     7
 10
660.037543
 20
-121.160410
 30
0.0
 11
660.037543
 21
-129.160410
 31
0.0
  0
LINE
  8
0
  6
BYLAYER
 62
     7
 10
668.037543
 20
-111.160410
 30
0.0
 11
660.037543
 21
-111.160410
 31
0.0
  0
LINE
  8
0
  6
BYLAYER
 62
     7
 10
668.037543
 20
-119.160410
 30
0.0
 11
668.037543
 21
-111.160410
 31
0.0
  0
LINE
  8
0
  6
BYLAYER
 62
     7
 10
668.037543
 20
-119.160410
 30
0.0
 11
660.037543
 21
-119.160410
 31
0.0
  0
LINE
  8
0
  6
BYLAYER
 62
     7
 10
660.037543
 20
-111.160410
 30
0.0
 11
660.037543
 21
-119.160410
 31
0.0
  0
LINE
  8
0
  6
BYLAYER
 62
     7
 10
698.037543
 20
-159.160410
 30
0.0
 11
698.037543
 21
-151.160410
 31
0.0
  0
LINE
  8
0
  6
BYLAYER
 62
     7
 10
690.037543
 20
-151.160410
 30
0.0
 11
690.037543
 21
-159.160410
 31
0.0
  0
LINE
  8
0
  6
BYLAYER
 62
     7
 10
698.037543
 20
-151.160410
 30
0.0
 11
690.037543
 21
-151.160410
 31
0.0
  0
LINE
  8
0
  6
BYLAYER
 62
     7
 10
698.037543
 20
-159.160410
 30
0.0
 11
690.037543
 21
-159.160410
 31
0.0
  0
LINE
  8
0
  6
BYLAYER
 62
     7
 10
678.037543
 20
-149.160410
 30
0.0
 11
678.037543
 21
-141.160410
 31
0.0
  0
LINE
  8
0
  6
BYLAYER
 62
     7
 10
678.037543
 20
-141.160410
 30
0.0
 11
670.037543
 21
-141.160410
 31
0.0
  0
LINE
  8
0
  6
BYLAYER
 62
     7
 10
678.037543
 20
-149.160410
 30
0.0
 11
670.037543
 21
-149.160410
 31
0.0
  0
LINE
  8
0
  6
BYLAYER
 62
     7
 10
670.037543
 20
-141.160410
 30
0.0
 11
670.037543
 21
-149.160410
 31
0.0
  0
LINE
  8
0
  6
BYLAYER
 62
     7
 10
658.037543
 20
-111.160410
 30
0.0
 11
650.037543
 21
-111.160410
 31
0.0
  0
LINE
  8
0
  6
BYLAYER
 62
     7
 10
658.037543
 20
-119.160410
 30
0.0
 11
658.037543
 21
-111.160410
 31
0.0
  0
LINE
  8
0
  6
BYLAYER
 62
     7
 10
658.037543
 20
-119.160410
 30
0.0
 11
650.037543
 21
-119.160410
 31
0.0
  0
LINE
  8
0
  6
BYLAYER
 62
     7
 10
650.037543
 20
-111.160410
 30
0.0
 11
650.037543
 21
-119.160410
 31
0.0
  0
LINE
  8
0
  6
BYLAYER
 62
     7
 10
668.037543
 20
-131.160410
 30
0.0
 11
660.037543
 21
-131.160410
 31
0.0
  0
LINE
  8
0
  6
BYLAYER
 62
     7
 10
668.037543
 20
-139.160410
 30
0.0
 11
668.037543
 21
-131.160410
 31
0.0
  0
LINE
  8
0
  6
BYLAYER
 62
     7
 10
668.037543
 20
-139.160410
 30
0.0
 11
660.037543
 21
-139.160410
 31
0.0
  0
LINE
  8
0
  6
BYLAYER
 62
     7
 10
660.037543
 20
-131.160410
 30
0.0
 11
660.037543
 21
-139.160410
 31
0.0
  0
ARC
  8
0
  6
BYLAYER
 62
     7
 10
734.787543
 20
-22.660410
 30
0.0
 40
1.500000
 50
180.000000
 51
265.219808
  0
ARC
  8
0
  6
BYLAYER
 62
     7
 10
663.287543
 20
-22.660410
 30
0.0
 40
1.500000
 50
274.780192
 51
360.000000
  0
ARC
  8
0
  6
BYLAYER
 62
     7
 10
671.283205
 20
-22.660410
 30
0.0
 40
1.5
 50
270.0
 51
360.0
  0
LINE
  8
0
  6
BYLAYER
 62
     7
 10
733.287543
 20
-22.660410
 30
0.0
 11
733.287543
 21
-1.160410
 31
0.0
  0
LINE
  8
0
  6
BYLAYER
 62
     7
 10
731.787543
 20
0.339590
 30
0.0
 11
666.287543
 21
0.339590
 31
0.0
  0
ARC
  8
0
  6
BYLAYER
 62
     7
 10
731.787543
 20
-1.160410
 30
0.0
 40
1.5
 50
0.0
 51
90.0
  0
ARC
  8
0
  6
BYLAYER
 62
     7
 10
666.287543
 20
-1.160410
 30
0.0
 40
1.5
 50
90.0
 51
180.0
  0
LINE
  8
0
  6
BYLAYER
 62
     7
 10
664.787543
 20
-22.660410
 30
0.0
 11
664.787543
 21
-1.160410
 31
0.0
  0
LINE
  8
0
  6
BYLAYER
 62
     7
 10
672.783205
 20
-22.660410
 30
0.0
 11
672.783205
 21
-1.160410
 31
0.0
  0
ARC
  8
0
  6
BYLAYER
 62
     7
 10
674.283205
 20
-1.160410
 30
0.0
 40
1.5
 50
90.0
 51
180.0
  0
ARC
  8
0
  6
BYLAYER
 62
     7
 10
723.791881
 20
-1.160410
 30
0.0
 40
1.5
 50
0.0
 51
90.0
  0
LINE
  8
0
  6
BYLAYER
 62
     7
 10
678.443890
 20
0.339590
 30
0.0
 11
678.936437
 21
-13.765108
 31
0.0
  0
ARC
  8
0
  6
BYLAYER
 62
     7
 10
681.934609
 20
-13.660410
 30
0.0
 40
3.000000
 50
182.0
 51
270.0
  0
LINE
  8
0
  6
BYLAYER
 62
     7
 10
689.138649
 20
-13.765108
 30
0.0
 11
689.631196
 21
0.339590
 31
0.0
  0
ARC
  8
0
  6
BYLAYER
 62
     7
 10
686.140477
 20
-13.660410
 30
0.0
 40
3.000000
 50
270.0
 51
358.0
  0
LINE
  8
0
  6
BYLAYER
 62
     7
 10
704.138649
 20
-13.765108
 30
0.0
 11
704.631196
 21
0.339590
 31
0.0
  0
ARC
  8
0
  6
BYLAYER
 62
     7
 10
701.140477
 20
-13.660410
 30
0.0
 40
3.000000
 50
270.0
 51
358.0
  0
LINE
  8
0
  6
BYLAYER
 62
     7
 10
719.138649
 20
-13.765108
 30
0.0
 11
719.631196
 21
0.339590
 31
0.0
  0
ARC
  8
0
  6
BYLAYER
 62
     7
 10
716.140477
 20
-13.660410
 30
0.0
 40
3.000000
 50
270.0
 51
358.0
  0
LINE
  8
0
  6
BYLAYER
 62
     7
 10
708.443890
 20
0.339590
 30
0.0
 11
708.936437
 21
-13.765108
 31
0.0
  0
ARC
  8
0
  6
BYLAYER
 62
     7
 10
711.934609
 20
-13.660410
 30
0.0
 40
3.000000
 50
182.0
 51
270.0
  0
LINE
  8
0
  6
BYLAYER
 62
     7
 10
693.443890
 20
0.339590
 30
0.0
 11
693.936437
 21
-13.765108
 31
0.0
  0
ARC
  8
0
  6
BYLAYER
 62
     7
 10
696.934609
 20
-13.660410
 30
0.0
 40
3.000000
 50
182.0
 51
270.0
  0
LINE
  8
0
  6
BYLAYER
 62
     7
 10
711.934609
 20
-16.660410
 30
0.0
 11
716.140477
 21
-16.660410
 31
0.0
  0
LINE
  8
0
  6
BYLAYER
 62
     7
 10
696.934609
 20
-16.660410
 30
0.0
 11
701.140477
 21
-16.660410
 31
0.0
  0
LINE
  8
0
  6
BYLAYER
 62
     7
 10
681.934609
 20
-16.660410
 30
0.0
 11
686.140477
 21
-16.660410
 31
0.0
  0
LINE
  8
0
  6
BYLAYER
 62
     7
 10
693.478811
 20
-0.660410
 30
0.0
 11
704.596275
 21
-0.660410
 31
0.0
  0
LINE
  8
0
  6
BYLAYER
 62
     7
 10
708.478811
 20
-0.660410
 30
0.0
 11
719.596275
 21
-0.660410
 31
0.0
  0
LINE
  8
0
  6
BYLAYER
 62
     7
 10
678.478811
 20
-0.660410
 30
0.0
 11
689.596275
 21
-0.660410
 31
0.0
  0
LINE
  8
0
  6
BYLAYER
 62
     7
 10
725.291881
 20
-1.160410
 30
0.0
 11
725.291881
 21
-22.660410
 31
0.0
  0
ARC
  8
0
  6
BYLAYER
 62
     7
 10
663.537543
 20
-25.649975
 30
0.0
 40
1.500000
 50
94.780192
 51
180.000000
  0
LINE
  8
0
  6
BYLAYER
 62
     7
 10
663.537543
 20
-24.160410
 30
0.0
 11
734.787543
 21
-24.160410
 31
0.0
  0
ARC
  8
0
  6
BYLAYER
 62
     7
 10
734.537543
 20
-25.649975
 30
0.0
 40
1.500000
 50
0.0
 51
85.219808
  0
LINE
  8
0
  6
BYLAYER
 62
     7
 10
736.037543
 20
-33.160410
 30
0.0
 11
736.037543
 21
-25.649975
 31
0.0
  0
ARC
  8
0
  6
BYLAYER
 62
     7
 10
726.791881
 20
-22.660410
 30
0.0
 40
1.5
 50
180.000000
 51
270.000000
  0
LINE
  8
0
  6
BYLAYER
 62
     7
 10
736.037543
 20
-31.160349
 30
0.0
 11
662.037543
 21
-31.160349
 31
0.0
  0
LINE
  8
0
  6
BYLAYER
 62
     7
 10
662.037543
 20
-25.649975
 30
0.0
 11
662.037543
 21
-33.160410
 31
0.0
  0
LINE
  8
0
  6
BYLAYER
 62
     7
 10
662.037543
 20
-33.160410
 30
0.0
 11
736.037543
 21
-33.160410
 31
0.0
  0
LINE
  8
0
  6
BYLAYER
 62
     7
 10
662.037543
 20
-373.160410
 30
0.0
 11
662.037543
 21
-379.230867
 31
0.0
  0
LINE
  8
0
  6
BYLAYER
 62
     7
 10
736.037543
 20
-373.160410
 30
0.0
 11
736.037543
 21
-379.230867
 31
0.0
  0
LINE
  8
0
  6
BYLAYER
 62
     7
 10
662.037543
 20
-377.660410
 30
0.0
 11
662.736314
 21
-378.870714
 31
0.0
  0
LINE
  8
0
  6
BYLAYER
 62
     7
 10
736.037543
 20
-377.660410
 30
0.0
 11
735.338772
 21
-378.870714
 31
0.0
  0
ARC
  8
0
  6
BYLAYER
 62
     7
 10
734.787543
 20
-362.660410
 30
0.0
 40
1.500000
 50
180.000000
 51
265.219808
  0
ARC
  8
0
  6
BYLAYER
 62
     7
 10
663.287543
 20
-362.660410
 30
0.0
 40
1.500000
 50
274.780192
 51
360.0
  0
ARC
  8
0
  6
BYLAYER
 62
     7
 10
671.283205
 20
-362.660410
 30
0.0
 40
1.5
 50
270.0
 51
360.0
  0
LINE
  8
0
  6
BYLAYER
 62
     7
 10
733.287543
 20
-362.660410
 30
0.0
 11
733.287543
 21
-341.160410
 31
0.0
  0
LINE
  8
0
  6
BYLAYER
 62
     7
 10
731.787543
 20
-339.660410
 30
0.0
 11
666.287543
 21
-339.660410
 31
0.0
  0
ARC
  8
0
  6
BYLAYER
 62
     7
 10
731.787543
 20
-341.160410
 30
0.0
 40
1.5
 50
0.0
 51
90.0
  0
ARC
  8
0
  6
BYLAYER
 62
     7
 10
666.287543
 20
-341.160410
 30
0.0
 40
1.5
 50
90.0
 51
180.0
  0
LINE
  8
0
  6
BYLAYER
 62
     7
 10
664.787543
 20
-362.660410
 30
0.0
 11
664.787543
 21
-341.160410
 31
0.0
  0
LINE
  8
0
  6
BYLAYER
 62
     7
 10
672.783205
 20
-362.660410
 30
0.0
 11
672.783205
 21
-341.160410
 31
0.0
  0
ARC
  8
0
  6
BYLAYER
 62
     7
 10
674.283205
 20
-341.160410
 30
0.0
 40
1.5
 50
90.0
 51
180.0
  0
ARC
  8
0
  6
BYLAYER
 62
     7
 10
723.791881
 20
-341.160410
 30
0.0
 40
1.5
 50
0.0
 51
90.0
  0
LINE
  8
0
  6
BYLAYER
 62
     7
 10
678.443890
 20
-339.660410
 30
0.0
 11
678.936437
 21
-353.765108
 31
0.0
  0
ARC
  8
0
  6
BYLAYER
 62
     7
 10
681.934609
 20
-353.660410
 30
0.0
 40
3.0
 50
182.000000
 51
270.000000
  0
LINE
  8
0
  6
BYLAYER
 62
     7
 10
689.138649
 20
-353.765108
 30
0.0
 11
689.631196
 21
-339.660410
 31
0.0
  0
ARC
  8
0
  6
BYLAYER
 62
     7
 10
686.140477
 20
-353.660410
 30
0.0
 40
3.000000
 50
270.0
 51
358.0
  0
LINE
  8
0
  6
BYLAYER
 62
     7
 10
704.138649
 20
-353.765108
 30
0.0
 11
704.631196
 21
-339.660410
 31
0.0
  0
ARC
  8
0
  6
BYLAYER
 62
     7
 10
701.140477
 20
-353.660410
 30
0.0
 40
3.000000
 50
270.0
 51
358.0
  0
LINE
  8
0
  6
BYLAYER
 62
     7
 10
719.138649
 20
-353.765108
 30
0.0
 11
719.631196
 21
-339.660410
 31
0.0
  0
ARC
  8
0
  6
BYLAYER
 62
     7
 10
716.140477
 20
-353.660410
 30
0.0
 40
3.000000
 50
270.0
 51
358.0
  0
LINE
  8
0
  6
BYLAYER
 62
     7
 10
708.443890
 20
-339.660410
 30
0.0
 11
708.936437
 21
-353.765108
 31
0.0
  0
ARC
  8
0
  6
BYLAYER
 62
     7
 10
711.934609
 20
-353.660410
 30
0.0
 40
3.0
 50
182.000000
 51
270.000000
  0
LINE
  8
0
  6
BYLAYER
 62
     7
 10
693.443890
 20
-339.660410
 30
0.0
 11
693.936437
 21
-353.765108
 31
0.0
  0
ARC
  8
0
  6
BYLAYER
 62
     7
 10
696.934609
 20
-353.660410
 30
0.0
 40
3.0
 50
182.000000
 51
270.000000
  0
LINE
  8
0
  6
BYLAYER
 62
     7
 10
711.934609
 20
-356.660410
 30
0.0
 11
716.140477
 21
-356.660410
 31
0.0
  0
LINE
  8
0
  6
BYLAYER
 62
     7
 10
696.934609
 20
-356.660410
 30
0.0
 11
701.140477
 21
-356.660410
 31
0.0
  0
LINE
  8
0
  6
BYLAYER
 62
     7
 10
681.934609
 20
-356.660410
 30
0.0
 11
686.140477
 21
-356.660410
 31
0.0
  0
LINE
  8
0
  6
BYLAYER
 62
     7
 10
693.478811
 20
-340.660410
 30
0.0
 11
704.596275
 21
-340.660410
 31
0.0
  0
LINE
  8
0
  6
BYLAYER
 62
     7
 10
708.478811
 20
-340.660410
 30
0.0
 11
719.596275
 21
-340.660410
 31
0.0
  0
LINE
  8
0
  6
BYLAYER
 62
     7
 10
678.478811
 20
-340.660410
 30
0.0
 11
689.596275
 21
-340.660410
 31
0.0
  0
LINE
  8
0
  6
BYLAYER
 62
     7
 10
725.291881
 20
-341.160410
 30
0.0
 11
725.291881
 21
-362.660410
 31
0.0
  0
ARC
  8
0
  6
BYLAYER
 62
     7
 10
663.537543
 20
-365.649975
 30
0.0
 40
1.500000
 50
94.780192
 51
180.000000
  0
LINE
  8
0
  6
BYLAYER
 62
     7
 10
663.537543
 20
-364.160410
 30
0.0
 11
734.787543
 21
-364.160410
 31
0.0
  0
ARC
  8
0
  6
BYLAYER
 62
     7
 10
734.537543
 20
-365.649975
 30
0.0
 40
1.500000
 50
0.0
 51
85.219808
  0
LINE
  8
0
  6
BYLAYER
 62
     7
 10
736.037543
 20
-373.160410
 30
0.0
 11
736.037543
 21
-365.649975
 31
0.0
  0
ARC
  8
0
  6
BYLAYER
 62
     7
 10
726.791881
 20
-362.660410
 30
0.0
 40
1.5
 50
180.000000
 51
270.000000
  0
LINE
  8
0
  6
BYLAYER
 62
     7
 10
736.037543
 20
-371.160349
 30
0.0
 11
711.646681
 21
-371.160349
 31
0.0
  0
LINE
  8
0
  6
BYLAYER
 62
     7
 10
686.428405
 20
-371.160349
 30
0.0
 11
662.037543
 21
-371.160349
 31
0.0
  0
LINE
  8
0
  6
BYLAYER
 62
     7
 10
662.037543
 20
-365.649975
 30
0.0
 11
662.037543
 21
-373.160410
 31
0.0
  0
LINE
  8
0
  6
BYLAYER
 62
     7
 10
720.740077
 20
-373.160410
 30
0.0
 11
736.037543
 21
-373.160410
 31
0.0
  0
LINE
  8
0
  6
BYLAYER
 62
     7
 10
662.037543
 20
-373.160410
 30
0.0
 11
677.335009
 21
-373.160410
 31
0.0
  0
ARC
  8
0
  6
BYLAYER
 62
     1
 10
699.037543
 20
-450.160410
 30
0.0
 40
80.000000
 50
305.099632
 51
594.900368
  0
LINE
  8
0
  6
BYLAYER
 62
     2
 10
750.785712
 20
-398.412363
 30
0.0
 11
742.881537
 21
-396.294321
 31
0.0
  0
LINE
  8
0
  6
BYLAYER
 62
     2
 10
742.881537
 20
-396.294321
 30
0.0
 11
737.095404
 21
-402.080515
 31
0.0
  0
LINE
  8
0
  6
BYLAYER
 62
     2
 10
737.095404
 20
-402.080515
 30
0.0
 11
739.213324
 21
-409.984690
 31
0.0
  0
LINE
  8
0
  6
BYLAYER
 62
     2
 10
739.213324
 20
-409.984690
 30
0.0
 11
747.117377
 21
-412.102488
 31
0.0
  0
LINE
  8
0
  6
BYLAYER
 62
     2
 10
747.117377
 20
-412.102488
 30
0.0
 11
752.903510
 21
-406.316294
 31
0.0
  0
LINE
  8
0
  6
BYLAYER
 62
     2
 10
752.903510
 20
-406.316294
 30
0.0
 11
750.785712
 21
-398.412363
 31
0.0
  0
ARC
  8
0
  6
BYLAYER
 62
     1
 10
699.037543
 20
-450.160410
 30
0.0
 40
38.000000
 50
58.788820
 51
121.211180
  0
ARC
  8
0
  6
BYLAYER
 62
     1
 10
717.372199
 20
-410.135569
 30
0.0
 40
6.635478
 50
287.188062
 51
330.538071
  0
ARC
  8
0
  6
BYLAYER
 62
     1
 10
724.532721
 20
-414.269724
 30
0.0
 40
6.635464
 50
149.461956
 51
192.811965
  0
ARC
  8
0
  6
BYLAYER
 62
     1
 10
719.037543
 20
-415.519419
 30
0.0
 40
0.999972
 50
192.813549
 51
287.186451
  0
ARC
  8
0
  6
BYLAYER
 62
     1
 10
715.797186
 20
-382.471645
 30
0.0
 40
21.830231
 50
330.000242
 51
345.714660
  0
ARC
  8
0
  6
BYLAYER
 62
     1
 10
732.561680
 20
-386.740293
 30
0.0
 40
4.530821
 50
345.714660
 51
366.017126
  0
ARC
  8
0
  6
BYLAYER
 62
     1
 10
734.899179
 20
-386.493905
 30
0.0
 40
2.180372
 50
6.017126
 51
25.377355
  0
ARC
  8
0
  6
BYLAYER
 62
     1
 10
736.115889
 20
-385.939126
 30
0.0
 40
0.843545
 50
26.750211
 51
59.999720
  0
ARC
  8
0
  6
BYLAYER
 62
     1
 10
736.115891
 20
-385.939123
 30
0.0
 40
0.843541
 50
59.999720
 51
93.249387
  0
ARC
  8
0
  6
BYLAYER
 62
     1
 10
736.243786
 20
-387.270200
 30
0.0
 40
2.180353
 50
94.622317
 51
113.982711
  0
ARC
  8
0
  6
BYLAYER
 62
     1
 10
737.199145
 20
-389.417717
 30
0.0
 40
4.530787
 50
113.982711
 51
134.285237
  0
ARC
  8
0
  6
BYLAYER
 62
     1
 10
749.278091
 20
-401.801854
 30
0.0
 40
21.830146
 50
134.285237
 51
149.999595
  0
LINE
  8
0
  6
BYLAYER
 62
     1
 10
718.695502
 20
-411.114389
 30
0.0
 11
730.372748
 21
-390.886667
 31
0.0
  0
LINE
  8
0
  6
BYLAYER
 62
     1
 10
723.023017
 20
-413.613779
 30
0.0
 11
734.702582
 21
-393.386515
 31
0.0
  0
ARC
  8
0
  6
BYLAYER
 62
     1
 10
673.542365
 20
-414.269724
 30
0.0
 40
6.635443
 50
347.188078
 51
390.538087
  0
ARC
  8
0
  6
BYLAYER
 62
     1
 10
680.702887
 20
-410.135599
 30
0.0
 40
6.635439
 50
209.461958
 51
252.811966
  0
ARC
  8
0
  6
BYLAYER
 62
     1
 10
679.037543
 20
-415.519419
 30
0.0
 40
0.999999
 50
252.813551
 51
347.186439
  0
ARC
  8
0
  6
BYLAYER
 62
     1
 10
648.797202
 20
-401.801730
 30
0.0
 40
21.830192
 50
30.000321
 51
45.714732
  0
ARC
  8
0
  6
BYLAYER
 62
     1
 10
660.876181
 20
-389.417571
 30
0.0
 40
4.530795
 50
45.714732
 51
66.017267
  0
ARC
  8
0
  6
BYLAYER
 62
     1
 10
661.831544
 20
-387.270050
 30
0.0
 40
2.180356
 50
66.017267
 51
85.377662
  0
ARC
  8
0
  6
BYLAYER
 62
     1
 10
661.959439
 20
-385.938971
 30
0.0
 40
0.843541
 50
86.750592
 51
120.000280
  0
ARC
  8
0
  6
BYLAYER
 62
     1
 10
661.959441
 20
-385.938974
 30
0.0
 40
0.843545
 50
120.000280
 51
153.249769
  0
ARC
  8
0
  6
BYLAYER
 62
     1
 10
663.176149
 20
-386.493752
 30
0.0
 40
2.180370
 50
154.622624
 51
173.982853
  0
ARC
  8
0
  6
BYLAYER
 62
     1
 10
665.513643
 20
-386.740140
 30
0.0
 40
4.530813
 50
173.982853
 51
194.285309
  0
ARC
  8
0
  6
BYLAYER
 62
     1
 10
682.278101
 20
-382.471510
 30
0.0
 40
21.830185
 50
194.285309
 51
209.999675
  0
LINE
  8
0
  6
BYLAYER
 62
     1
 10
675.051703
 20
-413.613108
 30
0.0
 11
663.372565
 21
-393.386454
 31
0.0
  0
LINE
  8
0
  6
BYLAYER
 62
     1
 10
679.379950
 20
-411.115061
 30
0.0
 11
667.702399
 21
-390.886637
 31
0.0
  0
ARC
  8
0
  6
BYLAYER
 62
     1
 10
655.207709
 20
-454.294565
 30
0.0
 40
6.635486
 50
64.756272
 51
90.538071
  0
ARC
  8
0
  6
BYLAYER
 62
     1
 10
655.207709
 20
-446.026285
 30
0.0
 40
6.635454
 50
269.461946
 51
272.849223
  0
ARC
  8
0
  6
BYLAYER
 62
     1
 10
632.037524
 20
-469.490363
 30
0.0
 40
21.830105
 50
90.000282
 51
105.714759
  0
ARC
  8
0
  6
BYLAYER
 62
     1
 10
627.352046
 20
-452.837708
 30
0.0
 40
4.530839
 50
105.714759
 51
126.017244
  0
ARC
  8
0
  6
BYLAYER
 62
     1
 10
625.969913
 20
-450.936569
 30
0.0
 40
2.180387
 50
126.017244
 51
145.377584
  0
ARC
  8
0
  6
BYLAYER
 62
     1
 10
624.881099
 20
-450.160257
 30
0.0
 40
0.843556
 50
146.750485
 51
180.000000
  0
ARC
  8
0
  6
BYLAYER
 62
     1
 10
624.881099
 20
-450.160257
 30
0.0
 40
0.843556
 50
180.000000
 51
213.249494
  0
ARC
  8
0
  6
BYLAYER
 62
     1
 10
625.969911
 20
-449.383948
 30
0.0
 40
2.180385
 50
214.622395
 51
233.982735
  0
ARC
  8
0
  6
BYLAYER
 62
     1
 10
627.352042
 20
-447.482813
 30
0.0
 40
4.530832
 50
233.982735
 51
254.285211
  0
ARC
  8
0
  6
BYLAYER
 62
     1
 10
632.037519
 20
-430.830198
 30
0.0
 40
21.830059
 50
254.285211
 51
269.999635
  0
LINE
  8
0
  6
BYLAYER
 62
     1
 10
655.393744
 20
-452.659128
 30
0.0
 11
632.037360
 21
-452.660196
 31
0.0
  0
LINE
  8
0
  6
BYLAYER
 62
     1
 10
655.394477
 20
-447.661692
 30
0.0
 11
632.037360
 21
-447.660532
 31
0.0
  0
ARC
  8
0
  6
BYLAYER
 62
     1
 10
742.867377
 20
-454.294535
 30
0.0
 40
6.635454
 50
89.461961
 51
115.243858
  0
ARC
  8
0
  6
BYLAYER
 62
     1
 10
766.037562
 20
-430.830457
 30
0.0
 40
21.830105
 50
270.000282
 51
285.714759
  0
ARC
  8
0
  6
BYLAYER
 62
     1
 10
770.723040
 20
-447.483112
 30
0.0
 40
4.530839
 50
285.714759
 51
306.017244
  0
ARC
  8
0
  6
BYLAYER
 62
     1
 10
772.105173
 20
-449.384251
 30
0.0
 40
2.180387
 50
306.017244
 51
325.377584
  0
ARC
  8
0
  6
BYLAYER
 62
     1
 10
773.193987
 20
-450.160563
 30
0.0
 40
0.843556
 50
326.750485
 51
360.000000
  0
ARC
  8
0
  6
BYLAYER
 62
     1
 10
773.193987
 20
-450.160563
 30
0.0
 40
0.843556
 50
0.0
 51
33.249494
  0
ARC
  8
0
  6
BYLAYER
 62
     1
 10
772.105175
 20
-450.936872
 30
0.0
 40
2.180385
 50
34.622395
 51
53.982735
  0
ARC
  8
0
  6
BYLAYER
 62
     1
 10
770.723044
 20
-452.838007
 30
0.0
 40
4.530832
 50
53.982735
 51
74.285211
  0
ARC
  8
0
  6
BYLAYER
 62
     1
 10
766.037567
 20
-469.490622
 30
0.0
 40
21.830059
 50
74.285211
 51
89.999635
  0
LINE
  8
0
  6
BYLAYER
 62
     1
 10
742.681342
 20
-447.661692
 30
0.0
 11
766.037726
 21
-447.660624
 31
0.0
  0
LINE
  8
0
  6
BYLAYER
 62
     1
 10
742.537543
 20
-452.659121
 30
0.0
 11
766.037726
 21
-452.660288
 31
0.0
  0
ARC
  8
0
  6
BYLAYER
 62
     1
 10
699.037543
 20
-450.160410
 30
0.0
 40
54.999989
 50
2.604456
 51
57.395486
  0
ARC
  8
0
  6
BYLAYER
 62
     1
 10
699.037543
 20
-450.160410
 30
0.0
 40
54.999973
 50
326.758140
 51
357.395522
  0
ARC
  8
0
  6
BYLAYER
 62
     1
 10
699.037543
 20
-450.160410
 30
0.0
 40
54.999996
 50
122.604450
 51
177.395517
  0
ARC
  8
0
  6
BYLAYER
 62
     1
 10
699.037543
 20
-450.160410
 30
0.0
 40
54.999989
 50
182.604452
 51
213.241884
  0
ARC
  8
0
  6
BYLAYER
 62
     1
 10
699.037543
 20
-450.160410
 30
0.0
 40
55.000004
 50
62.604455
 51
117.395543
  0
LINE
  8
0
  6
BYLAYER
 62
     2
 10
750.785712
 20
-501.908518
 30
0.0
 11
745.037543
 21
-503.448716
 31
0.0
  0
LINE
  8
0
  6
BYLAYER
 62
     2
 10
745.037543
 20
-488.775538
 30
0.0
 11
747.117377
 21
-488.218271
 31
0.0
  0
LINE
  8
0
  6
BYLAYER
 62
     2
 10
747.117377
 20
-488.218271
 30
0.0
 11
752.903510
 21
-494.004465
 31
0.0
  0
LINE
  8
0
  6
BYLAYER
 62
     2
 10
752.903510
 20
-494.004465
 30
0.0
 11
750.785712
 21
-501.908518
 31
0.0
  0
LINE
  8
0
  6
BYLAYER
 62
     2
 10
647.289496
 20
-501.908518
 30
0.0
 11
653.037543
 21
-503.448684
 31
0.0
  0
LINE
  8
0
  6
BYLAYER
 62
     2
 10
653.037543
 20
-488.775506
 30
0.0
 11
650.957831
 21
-488.218271
 31
0.0
  0
LINE
  8
0
  6
BYLAYER
 62
     2
 10
650.957831
 20
-488.218271
 30
0.0
 11
645.171698
 21
-494.004465
 31
0.0
  0
LINE
  8
0
  6
BYLAYER
 62
     2
 10
645.171698
 20
-494.004465
 30
0.0
 11
647.289496
 21
-501.908518
 31
0.0
  0
LINE
  8
0
  6
BYLAYER
 62
     2
 10
647.289496
 20
-398.412363
 30
0.0
 11
655.193549
 21
-396.294321
 31
0.0
  0
LINE
  8
0
  6
BYLAYER
 62
     2
 10
655.193549
 20
-396.294321
 30
0.0
 11
660.979682
 21
-402.080515
 31
0.0
  0
LINE
  8
0
  6
BYLAYER
 62
     2
 10
660.979682
 20
-402.080515
 30
0.0
 11
658.861884
 21
-409.984629
 31
0.0
  0
LINE
  8
0
  6
BYLAYER
 62
     2
 10
658.861884
 20
-409.984629
 30
0.0
 11
650.957831
 21
-412.102488
 31
0.0
  0
LINE
  8
0
  6
BYLAYER
 62
     2
 10
650.957831
 20
-412.102488
 30
0.0
 11
645.171576
 21
-406.316294
 31
0.0
  0
LINE
  8
0
  6
BYLAYER
 62
     2
 10
645.171576
 20
-406.316294
 30
0.0
 11
647.289496
 21
-398.412363
 31
0.0
  0
LINE
  8
0
  6
BYLAYER
 62
     1
 10
224.037543
 20
-498.160410
 30
0.0
 11
224.037543
 21
-460.160410
 31
0.0
  0
ARC
  8
0
  6
BYLAYER
 62
     1
 10
235.037543
 20
-537.738535
 30
0.0
 40
1.999991
 50
180.000000
 51
267.000750
  0
ARC
  8
0
  6
BYLAYER
 62
     1
 10
231.037543
 20
-515.712534
 30
0.0
 40
2.000000
 50
0.0
 51
25.651284
  0
LINE
  8
0
  6
BYLAYER
 62
     1
 10
233.037543
 20
-537.738535
 30
0.0
 11
233.037543
 21
-460.160410
 31
0.0
  0
LINE
  8
0
  6
BYLAYER
 62
     1
 10
232.850165
 20
-514.855478
 30
0.0
 11
225.344794
 21
-498.760141
 31
0.0
  0
ARC
  8
0
  6
BYLAYER
 62
     1
 10
224.438513
 20
-499.182871
 30
0.0
 40
0.999998
 50
24.999358
 51
86.999895
  0
LINE
  8
0
  6
BYLAYER
 62
     1
 10
225.003241
 20
-498.891733
 30
0.0
 11
233.037543
 21
-527.517099
 31
0.0
  0
LINE
  8
0
  6
BYLAYER
 62
     1
 10
224.092841
 20
-498.163340
 30
0.0
 11
224.037543
 21
-498.160410
 31
0.0
  0
ARC
  8
0
  6
BYLAYER
 62
     1
 10
224.040473
 20
-499.161997
 30
0.0
 40
0.999975
 50
15.678549
 51
86.998148
  0
LINE
  8
0
  6
BYLAYER
 62
     1
 10
224.037543
 20
-498.160410
 30
0.0
 11
224.490851
 21
-498.184214
 31
0.0
  0
LINE
  8
0
  6
BYLAYER
 62
     1
 10
243.037543
 20
-460.160410
 30
0.0
 11
243.037543
 21
-540.160447
 31
0.0
  0
LINE
  8
0
  6
BYLAYER
 62
     1
 10
243.037543
 20
-540.160447
 30
0.0
 11
234.932929
 21
-539.735849
 31
0.0
  0
LINE
  8
0
  6
BYLAYER
 62
     1
 10
224.037543
 20
-422.160410
 30
0.0
 11
224.037543
 21
-460.160410
 31
0.0
  0
ARC
  8
0
  6
BYLAYER
 62
     1
 10
235.037543
 20
-382.582285
 30
0.0
 40
1.999991
 50
92.999248
 51
179.999998
  0
ARC
  8
0
  6
BYLAYER
 62
     1
 10
231.037543
 20
-404.608408
 30
0.0
 40
2.0
 50
334.348716
 51
360.000000
  0
LINE
  8
0
  6
BYLAYER
 62
     1
 10
233.037543
 20
-382.582285
 30
0.0
 11
233.037543
 21
-460.160410
 31
0.0
  0
LINE
  8
0
  6
BYLAYER
 62
     1
 10
232.850165
 20
-405.465464
 30
0.0
 11
225.344794
 21
-421.560679
 31
0.0
  0
ARC
  8
0
  6
BYLAYER
 62
     1
 10
224.438513
 20
-421.138071
 30
0.0
 40
0.999998
 50
273.000107
 51
335.000643
  0
LINE
  8
0
  6
BYLAYER
 62
     1
 10
225.003241
 20
-421.429087
 30
0.0
 11
233.037543
 21
-392.803843
 31
0.0
  0
LINE
  8
0
  6
BYLAYER
 62
     1
 10
224.092841
 20
-422.157480
 30
0.0
 11
224.037543
 21
-422.160410
 31
0.0
  0
ARC
  8
0
  6
BYLAYER
 62
     1
 10
224.040473
 20
-421.158945
 30
0.0
 40
0.999975
 50
273.001848
 51
344.321447
  0
LINE
  8
0
  6
BYLAYER
 62
     1
 10
224.037543
 20
-422.160410
 30
0.0
 11
224.490851
 21
-422.136606
 31
0.0
  0
LINE
  8
0
  6
BYLAYER
 62
     1
 10
243.037543
 20
-460.160410
 30
0.0
 11
243.037543
 21
-380.160365
 31
0.0
  0
LINE
  8
0
  6
BYLAYER
 62
     1
 10
243.037543
 20
-380.160365
 30
0.0
 11
234.932929
 21
-380.585093
 31
0.0
  0
ENDSEC
  0
EOF
