  0
SECTION
  2
HEADER
  9
$EXTMIN
 10
105.494881
 20
562.0
 30
0.0
  9
$EXTMAX
 10
774.907850
 20
0.0
 30
0.0
  0
ENDSEC
  0
SECTION
  2
TABLES
  0
ENDSEC
  0
SECTION
  2
BLOCKS
  0
ENDSEC
  0
SECTION
  2
ENTITIES
  0
LINE
  8
0
  6
BYLAYER
 62
     7
 10
286.632753
 20
-37.660349
 30
0.0
 11
280.832704
 21
-37.660349
 31
0.0
  0
ARC
  8
0
  6
BYLAYER
 62
     7
 10
286.632753
 20
-39.160349
 30
0.0
 40
1.5
 50
0.0
 51
90.000003
  0
ARC
  8
0
  6
BYLAYER
 62
     7
 10
316.032762
 20
-39.160349
 30
0.0
 40
1.500000
 50
90.0
 51
180.000003
  0
LINE
  8
0
  6
BYLAYER
 62
     7
 10
325.632753
 20
-37.660349
 30
0.0
 11
316.032762
 21
-37.660349
 31
0.0
  0
ARC
  8
0
  6
BYLAYER
 62
     7
 10
325.632753
 20
-39.160349
 30
0.0
 40
1.5
 50
0.0
 51
90.000003
  0
LINE
  8
0
  6
BYLAYER
 62
     7
 10
360.832765
 20
-37.660288
 30
0.0
 11
355.032777
 21
-37.660288
 31
0.0
  0
ARC
  8
0
  6
BYLAYER
 62
     7
 10
355.032777
 20
-39.160288
 30
0.0
 40
1.500000
 50
90.0
 51
180.000003
  0
ARC
  8
0
  6
BYLAYER
 62
     7
 10
301.332765
 20
-46.660288
 30
0.0
 40
13.200012
 50
180.000000
 51
359.999995
  0
ARC
  8
0
  6
BYLAYER
 62
     7
 10
340.332765
 20
-46.660288
 30
0.0
 40
13.200012
 50
180.000000
 51
359.999995
  0
LINE
  8
0
  6
BYLAYER
 62
     7
 10
280.832704
 20
-43.160349
 30
0.0
 11
286.632753
 21
-43.160349
 31
0.0
  0
LINE
  8
0
  6
BYLAYER
 62
     7
 10
288.132753
 20
-39.160349
 30
0.0
 11
288.132753
 21
-44.660349
 31
0.0
  0
LINE
  8
0
  6
BYLAYER
 62
     7
 10
288.132753
 20
-44.660349
 30
0.0
 11
288.132753
 21
-46.660288
 31
0.0
  0
ARC
  8
0
  6
BYLAYER
 62
     7
 10
286.632753
 20
-44.660349
 30
0.0
 40
1.5
 50
0.0
 51
90.000003
  0
ARC
  8
0
  6
BYLAYER
 62
     7
 10
316.032762
 20
-44.660288
 30
0.0
 40
1.500000
 50
90.0
 51
180.000003
  0
LINE
  8
0
  6
BYLAYER
 62
     7
 10
316.032762
 20
-43.160288
 30
0.0
 11
325.632753
 21
-43.160288
 31
0.0
  0
LINE
  8
0
  6
BYLAYER
 62
     7
 10
327.132753
 20
-39.160349
 30
0.0
 11
327.132753
 21
-44.660288
 31
0.0
  0
LINE
  8
0
  6
BYLAYER
 62
     7
 10
327.132753
 20
-44.660288
 30
0.0
 11
327.132753
 21
-46.660288
 31
0.0
  0
ARC
  8
0
  6
BYLAYER
 62
     7
 10
325.632753
 20
-44.660288
 30
0.0
 40
1.5
 50
0.0
 51
90.000003
  0
LINE
  8
0
  6
BYLAYER
 62
     7
 10
353.532777
 20
-46.660288
 30
0.0
 11
353.532777
 21
-44.660288
 31
0.0
  0
LINE
  8
0
  6
BYLAYER
 62
     7
 10
353.532777
 20
-44.660288
 30
0.0
 11
353.532777
 21
-39.160288
 31
0.0
  0
LINE
  8
0
  6
BYLAYER
 62
     7
 10
355.032777
 20
-43.160288
 30
0.0
 11
360.832765
 21
-43.160288
 31
0.0
  0
ARC
  8
0
  6
BYLAYER
 62
     7
 10
355.032777
 20
-44.660288
 30
0.0
 40
1.500000
 50
90.0
 51
180.000003
  0
LINE
  8
0
  6
BYLAYER
 62
     7
 10
314.532762
 20
-39.160349
 30
0.0
 11
314.532762
 21
-46.660288
 31
0.0
  0
LINE
  8
0
  6
BYLAYER
 62
     7
 10
278.832704
 20
-52.910410
 30
0.0
 11
280.832734
 21
-52.910410
 31
0.0
  0
LINE
  8
0
  6
BYLAYER
 62
     7
 10
381.332826
 20
-50.908121
 30
0.0
 11
360.832765
 21
-50.908121
 31
0.0
  0
LINE
  8
0
  6
BYLAYER
 62
     7
 10
360.832765
 20
-33.160288
 30
0.0
 11
360.832765
 21
-66.928323
 31
0.0
  0
LINE
  8
0
  6
BYLAYER
 62
     7
 10
381.332826
 20
-46.450021
 30
0.0
 11
360.832765
 21
-46.450021
 31
0.0
  0
LINE
  8
0
  6
BYLAYER
 62
     7
 10
360.832765
 20
-42.326578
 30
0.0
 11
381.332826
 21
-42.326578
 31
0.0
  0
LINE
  8
0
  6
BYLAYER
 62
     7
 10
360.832765
 20
-43.672281
 30
0.0
 11
381.332826
 21
-43.672281
 31
0.0
  0
ARC
  8
0
  6
BYLAYER
 62
     7
 10
281.682756
 20
-104.810434
 30
0.0
 40
0.850006
 50
90.0
 51
269.999998
  0
ARC
  8
0
  6
BYLAYER
 62
     7
 10
285.682680
 20
-104.810434
 30
0.0
 40
0.850006
 50
90.0
 51
269.999998
  0
LINE
  8
0
  6
BYLAYER
 62
     7
 10
281.682741
 20
-103.960428
 30
0.0
 11
381.332826
 21
-103.960510
 31
0.0
  0
LINE
  8
0
  6
BYLAYER
 62
     7
 10
281.682741
 20
-105.660410
 30
0.0
 11
381.332826
 21
-105.660492
 31
0.0
  0
ARC
  8
0
  6
BYLAYER
 62
     7
 10
281.682756
 20
-94.110422
 30
0.0
 40
0.850006
 50
90.0
 51
269.999998
  0
ARC
  8
0
  6
BYLAYER
 62
     7
 10
285.682680
 20
-94.110422
 30
0.0
 40
0.850006
 50
90.0
 51
269.999998
  0
ARC
  8
0
  6
BYLAYER
 62
     7
 10
281.682756
 20
-83.410440
 30
0.0
 40
0.850006
 50
90.0
 51
269.999998
  0
ARC
  8
0
  6
BYLAYER
 62
     7
 10
285.682680
 20
-83.410440
 30
0.0
 40
0.850006
 50
90.0
 51
269.999998
  0
LINE
  8
0
  6
BYLAYER
 62
     7
 10
281.682741
 20
-82.560434
 30
0.0
 11
381.332826
 21
-82.560517
 31
0.0
  0
LINE
  8
0
  6
BYLAYER
 62
     7
 10
281.682741
 20
-84.260416
 30
0.0
 11
381.332826
 21
-84.260498
 31
0.0
  0
ARC
  8
0
  6
BYLAYER
 62
     7
 10
281.682756
 20
-72.710428
 30
0.0
 40
0.850006
 50
90.0
 51
269.999998
  0
ARC
  8
0
  6
BYLAYER
 62
     7
 10
285.682680
 20
-72.710428
 30
0.0
 40
0.850006
 50
90.0
 51
269.999998
  0
LINE
  8
0
  6
BYLAYER
 62
     7
 10
281.682741
 20
-71.860422
 30
0.0
 11
381.332826
 21
-71.860504
 31
0.0
  0
LINE
  8
0
  6
BYLAYER
 62
     7
 10
281.682741
 20
-73.560403
 30
0.0
 11
381.332826
 21
-73.560486
 31
0.0
  0
LINE
  8
0
  6
BYLAYER
 62
     7
 10
288.832704
 20
-94.960397
 30
0.0
 11
288.832704
 21
-103.960428
 31
0.0
  0
LINE
  8
0
  6
BYLAYER
 62
     7
 10
288.832704
 20
-84.260385
 30
0.0
 11
288.832704
 21
-93.260416
 31
0.0
  0
LINE
  8
0
  6
BYLAYER
 62
     7
 10
288.832704
 20
-73.560403
 30
0.0
 11
288.832704
 21
-82.560434
 31
0.0
  0
LINE
  8
0
  6
BYLAYER
 62
     7
 10
288.832704
 20
-66.928323
 30
0.0
 11
288.832704
 21
-71.860422
 31
0.0
  0
LINE
  8
0
  6
BYLAYER
 62
     7
 10
280.832734
 20
-62.618387
 30
0.0
 11
288.832704
 21
-66.928323
 31
0.0
  0
LINE
  8
0
  6
BYLAYER
 62
     7
 10
381.332826
 20
-66.928323
 30
0.0
 11
288.832704
 21
-66.928323
 31
0.0
  0
ARC
  8
0
  6
BYLAYER
 62
     7
 10
281.682756
 20
-115.510385
 30
0.0
 40
0.850006
 50
90.0
 51
269.999998
  0
ARC
  8
0
  6
BYLAYER
 62
     7
 10
285.682680
 20
-115.510385
 30
0.0
 40
0.850006
 50
90.0
 51
269.999998
  0
LINE
  8
0
  6
BYLAYER
 62
     7
 10
281.682741
 20
-116.360391
 30
0.0
 11
381.332826
 21
-116.360309
 31
0.0
  0
LINE
  8
0
  6
BYLAYER
 62
     7
 10
281.682741
 20
-114.660410
 30
0.0
 11
381.332826
 21
-114.660327
 31
0.0
  0
ARC
  8
0
  6
BYLAYER
 62
     7
 10
281.682756
 20
-126.210397
 30
0.0
 40
0.850006
 50
90.0
 51
269.999998
  0
ARC
  8
0
  6
BYLAYER
 62
     7
 10
285.682680
 20
-126.210397
 30
0.0
 40
0.850006
 50
90.0
 51
269.999998
  0
ARC
  8
0
  6
BYLAYER
 62
     7
 10
281.682756
 20
-136.910379
 30
0.0
 40
0.850006
 50
90.0
 51
269.999998
  0
ARC
  8
0
  6
BYLAYER
 62
     7
 10
285.682680
 20
-136.910379
 30
0.0
 40
0.850006
 50
90.0
 51
269.999998
  0
LINE
  8
0
  6
BYLAYER
 62
     7
 10
281.682741
 20
-137.760385
 30
0.0
 11
381.332826
 21
-137.760303
 31
0.0
  0
LINE
  8
0
  6
BYLAYER
 62
     7
 10
281.682741
 20
-136.060403
 30
0.0
 11
381.332826
 21
-136.060321
 31
0.0
  0
ARC
  8
0
  6
BYLAYER
 62
     7
 10
281.682756
 20
-147.610391
 30
0.0
 40
0.850006
 50
90.0
 51
269.999998
  0
ARC
  8
0
  6
BYLAYER
 62
     7
 10
285.682680
 20
-147.610391
 30
0.0
 40
0.850006
 50
90.0
 51
269.999998
  0
LINE
  8
0
  6
BYLAYER
 62
     7
 10
281.682741
 20
-148.460397
 30
0.0
 11
381.332826
 21
-148.460315
 31
0.0
  0
LINE
  8
0
  6
BYLAYER
 62
     7
 10
281.682741
 20
-146.760416
 30
0.0
 11
381.332826
 21
-146.760333
 31
0.0
  0
LINE
  8
0
  6
BYLAYER
 62
     7
 10
288.832704
 20
-125.360422
 30
0.0
 11
288.832704
 21
-116.360391
 31
0.0
  0
LINE
  8
0
  6
BYLAYER
 62
     7
 10
288.832704
 20
-136.060434
 30
0.0
 11
288.832704
 21
-127.060403
 31
0.0
  0
LINE
  8
0
  6
BYLAYER
 62
     7
 10
288.832704
 20
-146.760416
 30
0.0
 11
288.832704
 21
-137.760385
 31
0.0
  0
LINE
  8
0
  6
BYLAYER
 62
     7
 10
280.832826
 20
-167.410410
 30
0.0
 11
280.832704
 21
-33.160288
 31
0.0
  0
LINE
  8
0
  6
BYLAYER
 62
     7
 10
280.832826
 20
-167.410410
 30
0.0
 11
278.832826
 21
-167.410410
 31
0.0
  0
LINE
  8
0
  6
BYLAYER
 62
     7
 10
288.832704
 20
-105.660410
 30
0.0
 11
288.832704
 21
-114.660410
 31
0.0
  0
LINE
  8
0
  6
BYLAYER
 62
     7
 10
280.832811
 20
-148.886820
 30
0.0
 11
283.005556
 21
-156.995645
 31
0.0
  0
ARC
  8
0
  6
BYLAYER
 62
     7
 10
284.937410
 20
-156.478006
 30
0.0
 40
2.000003
 50
195.000016
 51
270.000001
  0
LINE
  8
0
  6
BYLAYER
 62
     7
 10
280.832811
 20
-152.324411
 30
0.0
 11
284.302980
 21
-165.275217
 31
0.0
  0
ARC
  8
0
  6
BYLAYER
 62
     7
 10
286.234819
 20
-164.757578
 30
0.0
 40
1.999988
 50
195.000043
 51
270.000001
  0
LINE
  8
0
  6
BYLAYER
 62
     7
 10
280.832826
 20
-160.119012
 30
0.0
 11
283.781679
 21
-171.124292
 31
0.0
  0
ARC
  8
0
  6
BYLAYER
 62
     7
 10
285.713533
 20
-170.606653
 30
0.0
 40
2.000003
 50
195.000043
 51
270.000001
  0
LINE
  8
0
  6
BYLAYER
 62
     7
 10
280.832826
 20
-164.758264
 30
0.0
 11
283.505556
 21
-174.733057
 31
0.0
  0
ARC
  8
0
  6
BYLAYER
 62
     7
 10
285.437410
 20
-174.215418
 30
0.0
 40
2.000003
 50
195.000043
 51
270.000001
  0
LINE
  8
0
  6
BYLAYER
 62
     7
 10
280.832826
 20
-167.410410
 30
0.0
 11
283.258882
 21
-176.464594
 31
0.0
  0
ARC
  8
0
  6
BYLAYER
 62
     7
 10
285.190736
 20
-175.946954
 30
0.0
 40
2.000003
 50
195.000016
 51
270.000001
  0
LINE
  8
0
  6
BYLAYER
 62
     7
 10
284.937410
 20
-158.478006
 30
0.0
 11
381.332826
 21
-158.477992
 31
0.0
  0
LINE
  8
0
  6
BYLAYER
 62
     7
 10
286.234819
 20
-166.757578
 30
0.0
 11
381.332826
 21
-166.757563
 31
0.0
  0
LINE
  8
0
  6
BYLAYER
 62
     7
 10
285.713533
 20
-172.606653
 30
0.0
 11
381.332826
 21
-172.606639
 31
0.0
  0
LINE
  8
0
  6
BYLAYER
 62
     7
 10
285.437410
 20
-176.215418
 30
0.0
 11
381.332826
 21
-176.215403
 31
0.0
  0
LINE
  8
0
  6
BYLAYER
 62
     7
 10
285.190736
 20
-177.946954
 30
0.0
 11
381.332826
 21
-177.946940
 31
0.0
  0
CIRCLE
  8
0
  6
BYLAYER
 62
     7
 10
309.332796
 20
-94.110422
 30
0.0
 40
3.0
  0
CIRCLE
  8
0
  6
BYLAYER
 62
     7
 10
364.332796
 20
-94.110422
 30
0.0
 40
3.0
  0
LINE
  8
0
  6
BYLAYER
 62
     7
 10
281.682741
 20
-93.260416
 30
0.0
 11
306.455720
 21
-93.260446
 31
0.0
  0
LINE
  8
0
  6
BYLAYER
 62
     7
 10
306.455720
 20
-94.960428
 30
0.0
 11
281.682741
 21
-94.960397
 31
0.0
  0
LINE
  8
0
  6
BYLAYER
 62
     7
 10
312.209871
 20
-93.260446
 30
0.0
 11
361.455720
 21
-93.260477
 31
0.0
  0
LINE
  8
0
  6
BYLAYER
 62
     7
 10
361.455751
 20
-94.960458
 30
0.0
 11
312.209855
 21
-94.960428
 31
0.0
  0
LINE
  8
0
  6
BYLAYER
 62
     7
 10
367.209871
 20
-93.260477
 30
0.0
 11
381.332826
 21
-93.260494
 31
0.0
  0
LINE
  8
0
  6
BYLAYER
 62
     7
 10
381.332826
 20
-94.960476
 30
0.0
 11
367.209840
 21
-94.960458
 31
0.0
  0
LINE
  8
0
  6
BYLAYER
 62
     7
 10
281.682741
 20
-125.360422
 30
0.0
 11
381.332826
 21
-125.360334
 31
0.0
  0
LINE
  8
0
  6
BYLAYER
 62
     7
 10
281.682741
 20
-127.060403
 30
0.0
 11
381.332826
 21
-127.060316
 31
0.0
  0
LINE
  8
0
  6
BYLAYER
 62
     7
 10
278.832704
 20
-52.910406
 30
0.0
 11
278.832826
 21
-167.410406
 31
0.0
  0
LINE
  8
0
  6
BYLAYER
 62
     7
 10
454.832826
 20
-55.160410
 30
0.0
 11
454.832826
 21
-165.160410
 31
0.0
  0
LINE
  8
0
  6
BYLAYER
 62
     7
 10
381.332826
 20
-40.710410
 30
0.0
 11
440.382826
 21
-40.710410
 31
0.0
  0
LINE
  8
0
  6
BYLAYER
 62
     7
 10
381.332826
 20
-179.610410
 30
0.0
 11
440.382826
 21
-179.610410
 31
0.0
  0
LINE
  8
0
  6
BYLAYER
 62
     7
 10
454.832826
 20
-55.160410
 30
0.0
 11
440.382826
 21
-40.710410
 31
0.0
  0
LINE
  8
0
  6
BYLAYER
 62
     7
 10
454.832826
 20
-165.160410
 30
0.0
 11
440.382826
 21
-179.610410
 31
0.0
  0
LINE
  8
0
  6
BYLAYER
 62
     7
 10
381.332826
 20
-110.160410
 30
0.0
 11
381.332826
 21
-179.610410
 31
0.0
  0
LINE
  8
0
  6
BYLAYER
 62
     7
 10
381.332826
 20
-110.160410
 30
0.0
 11
381.332826
 21
-40.710410
 31
0.0
  0
LINE
  8
0
  6
BYLAYER
 62
     7
 10
277.332765
 20
-168.160410
 30
0.0
 11
278.832765
 21
-168.160410
 31
0.0
  0
LINE
  8
0
  6
BYLAYER
 62
     7
 10
277.332765
 20
-110.160410
 30
0.0
 11
277.332765
 21
-178.160410
 31
0.0
  0
LINE
  8
0
  6
BYLAYER
 62
     7
 10
268.832765
 20
-178.160410
 30
0.0
 11
277.332765
 21
-178.160410
 31
0.0
  0
LINE
  8
0
  6
BYLAYER
 62
     7
 10
268.832765
 20
-110.160410
 30
0.0
 11
268.832765
 21
-178.160410
 31
0.0
  0
LINE
  8
0
  6
BYLAYER
 62
     7
 10
278.832765
 20
-110.160410
 30
0.0
 11
278.832765
 21
-168.160410
 31
0.0
  0
LINE
  8
0
  6
BYLAYER
 62
     7
 10
247.832765
 20
-110.160410
 30
0.0
 11
247.832765
 21
-162.718550
 31
0.0
  0
LINE
  8
0
  6
BYLAYER
 62
     7
 10
247.832765
 20
-162.730680
 30
0.0
 11
267.971938
 21
-165.561057
 31
0.0
  0
ARC
  8
0
  6
BYLAYER
 62
     7
 10
267.832765
 20
-166.551325
 30
0.0
 40
1.0
 50
0.0
 51
82.0
  0
LINE
  8
0
  6
BYLAYER
 62
     7
 10
277.332765
 20
-52.160410
 30
0.0
 11
278.832765
 21
-52.160410
 31
0.0
  0
LINE
  8
0
  6
BYLAYER
 62
     7
 10
277.332765
 20
-110.160410
 30
0.0
 11
277.332765
 21
-42.160410
 31
0.0
  0
LINE
  8
0
  6
BYLAYER
 62
     7
 10
268.832765
 20
-42.160410
 30
0.0
 11
277.332765
 21
-42.160410
 31
0.0
  0
LINE
  8
0
  6
BYLAYER
 62
     7
 10
268.832765
 20
-110.160410
 30
0.0
 11
268.832765
 21
-42.160410
 31
0.0
  0
LINE
  8
0
  6
BYLAYER
 62
     7
 10
278.832765
 20
-110.160410
 30
0.0
 11
278.832765
 21
-52.160410
 31
0.0
  0
LINE
  8
0
  6
BYLAYER
 62
     7
 10
247.832765
 20
-110.160410
 30
0.0
 11
247.832765
 21
-57.602270
 31
0.0
  0
LINE
  8
0
  6
BYLAYER
 62
     7
 10
247.832765
 20
-57.590140
 30
0.0
 11
267.971938
 21
-54.759763
 31
0.0
  0
ARC
  8
0
  6
BYLAYER
 62
     7
 10
267.832765
 20
-53.769495
 30
0.0
 40
1.0
 50
278.000000
 51
360.000000
  0
ARC
  8
0
  6
BYLAYER
 62
     7
 10
351.587042
 20
-22.660288
 30
0.0
 40
1.500000
 50
180.000000
 51
270.000000
  0
ARC
  8
0
  6
BYLAYER
 62
     7
 10
290.078366
 20
-22.660288
 30
0.0
 40
1.500000
 50
270.0
 51
360.0
  0
ARC
  8
0
  6
BYLAYER
 62
     7
 10
282.332704
 20
-22.660288
 30
0.0
 40
1.5
 50
270.0
 51
360.0
  0
ARC
  8
0
  6
BYLAYER
 62
     7
 10
282.332704
 20
-25.660288
 30
0.0
 40
1.500000
 50
90.0
 51
180.0
  0
ARC
  8
0
  6
BYLAYER
 62
     7
 10
359.332704
 20
-22.660288
 30
0.0
 40
1.500000
 50
180.000000
 51
270.000000
  0
LINE
  8
0
  6
BYLAYER
 62
     7
 10
283.832704
 20
-22.660288
 30
0.0
 11
283.832704
 21
-1.160288
 31
0.0
  0
ARC
  8
0
  6
BYLAYER
 62
     7
 10
285.332704
 20
-1.160288
 30
0.0
 40
1.500000
 50
90.0
 51
180.0
  0
LINE
  8
0
  6
BYLAYER
 62
     7
 10
357.832704
 20
-22.660288
 30
0.0
 11
357.832704
 21
-1.160288
 31
0.0
  0
LINE
  8
0
  6
BYLAYER
 62
     7
 10
285.332704
 20
0.339712
 30
0.0
 11
356.332704
 21
0.339712
 31
0.0
  0
ARC
  8
0
  6
BYLAYER
 62
     7
 10
348.587042
 20
-1.160288
 30
0.0
 40
1.500000
 50
0.0
 51
90.0
  0
ARC
  8
0
  6
BYLAYER
 62
     7
 10
356.332704
 20
-1.160288
 30
0.0
 40
1.500000
 50
0.0
 51
90.0
  0
LINE
  8
0
  6
BYLAYER
 62
     7
 10
291.578366
 20
-22.660288
 30
0.0
 11
291.578366
 21
-1.160288
 31
0.0
  0
ARC
  8
0
  6
BYLAYER
 62
     7
 10
293.078366
 20
-1.160288
 30
0.0
 40
1.5
 50
90.0
 51
180.0
  0
LINE
  8
0
  6
BYLAYER
 62
     7
 10
350.087042
 20
-22.660288
 30
0.0
 11
350.087042
 21
-1.160288
 31
0.0
  0
ARC
  8
0
  6
BYLAYER
 62
     7
 10
359.332704
 20
-25.660288
 30
0.0
 40
1.5
 50
0.0
 51
90.0
  0
LINE
  8
0
  6
BYLAYER
 62
     7
 10
360.832704
 20
-33.160288
 30
0.0
 11
360.832704
 21
-25.660288
 31
0.0
  0
LINE
  8
0
  6
BYLAYER
 62
     7
 10
359.332704
 20
-24.160288
 30
0.0
 11
282.332704
 21
-24.160288
 31
0.0
  0
LINE
  8
0
  6
BYLAYER
 62
     7
 10
280.832704
 20
-25.660288
 30
0.0
 11
280.832704
 21
-33.160288
 31
0.0
  0
LINE
  8
0
  6
BYLAYER
 62
     7
 10
280.832704
 20
-33.160288
 30
0.0
 11
360.832704
 21
-33.160288
 31
0.0
  0
LINE
  8
0
  6
BYLAYER
 62
     7
 10
360.832704
 20
-31.160288
 30
0.0
 11
280.832704
 21
-31.160288
 31
0.0
  0
LINE
  8
0
  6
BYLAYER
 62
     7
 10
440.382826
 20
-179.610410
 30
0.0
 11
440.382826
 21
-40.710410
 31
0.0
  0
ARC
  8
0
  6
BYLAYER
 62
     7
 10
281.682756
 20
-497.610391
 30
0.0
 40
0.850006
 50
111.034603
 51
269.999998
  0
ARC
  8
0
  6
BYLAYER
 62
     7
 10
285.682680
 20
-497.610391
 30
0.0
 40
0.850006
 50
148.036043
 51
269.999998
  0
LINE
  8
0
  6
BYLAYER
 62
     7
 10
281.682741
 20
-498.460397
 30
0.0
 11
381.332826
 21
-498.460315
 31
0.0
  0
LINE
  8
0
  6
BYLAYER
 62
     7
 10
280.832826
 20
-517.410410
 30
0.0
 11
280.832774
 21
-460.160410
 31
0.0
  0
LINE
  8
0
  6
BYLAYER
 62
     7
 10
280.832826
 20
-517.410410
 30
0.0
 11
278.832826
 21
-517.410410
 31
0.0
  0
LINE
  8
0
  6
BYLAYER
 62
     7
 10
280.832811
 20
-498.886820
 30
0.0
 11
283.005556
 21
-506.995645
 31
0.0
  0
ARC
  8
0
  6
BYLAYER
 62
     7
 10
284.937410
 20
-506.478006
 30
0.0
 40
2.000003
 50
195.000016
 51
270.000001
  0
LINE
  8
0
  6
BYLAYER
 62
     7
 10
280.832811
 20
-502.324411
 30
0.0
 11
284.302980
 21
-515.275217
 31
0.0
  0
ARC
  8
0
  6
BYLAYER
 62
     7
 10
286.234819
 20
-514.757578
 30
0.0
 40
1.999988
 50
195.000043
 51
270.000001
  0
LINE
  8
0
  6
BYLAYER
 62
     7
 10
280.832826
 20
-510.119012
 30
0.0
 11
283.781679
 21
-521.124292
 31
0.0
  0
ARC
  8
0
  6
BYLAYER
 62
     7
 10
285.713533
 20
-520.606653
 30
0.0
 40
2.000003
 50
195.000043
 51
270.000001
  0
LINE
  8
0
  6
BYLAYER
 62
     7
 10
280.832826
 20
-514.758264
 30
0.0
 11
283.505556
 21
-524.733057
 31
0.0
  0
ARC
  8
0
  6
BYLAYER
 62
     7
 10
285.437410
 20
-524.215418
 30
0.0
 40
2.000003
 50
195.000043
 51
270.000001
  0
LINE
  8
0
  6
BYLAYER
 62
     7
 10
280.832826
 20
-517.410410
 30
0.0
 11
283.258882
 21
-526.464594
 31
0.0
  0
ARC
  8
0
  6
BYLAYER
 62
     7
 10
285.190736
 20
-525.946954
 30
0.0
 40
2.000003
 50
195.000016
 51
270.000001
  0
LINE
  8
0
  6
BYLAYER
 62
     7
 10
284.937410
 20
-508.478006
 30
0.0
 11
381.332826
 21
-508.477992
 31
0.0
  0
LINE
  8
0
  6
BYLAYER
 62
     7
 10
286.234819
 20
-516.757578
 30
0.0
 11
381.332826
 21
-516.757563
 31
0.0
  0
LINE
  8
0
  6
BYLAYER
 62
     7
 10
285.713533
 20
-522.606653
 30
0.0
 11
381.332826
 21
-522.606639
 31
0.0
  0
LINE
  8
0
  6
BYLAYER
 62
     7
 10
285.437410
 20
-526.215418
 30
0.0
 11
381.332826
 21
-526.215403
 31
0.0
  0
LINE
  8
0
  6
BYLAYER
 62
     7
 10
285.190736
 20
-527.946954
 30
0.0
 11
381.332826
 21
-527.946940
 31
0.0
  0
LINE
  8
0
  6
BYLAYER
 62
     7
 10
278.832765
 20
-460.160410
 30
0.0
 11
278.832826
 21
-517.410406
 31
0.0
  0
ARC
  8
0
  6
BYLAYER
 62
     7
 10
278.432825
 20
-516.060410
 30
0.0
 40
0.4
 50
0.0
 51
89.999939
  0
LINE
  8
0
  6
BYLAYER
 62
     7
 10
454.832826
 20
-460.160410
 30
0.0
 11
454.832826
 21
-515.160410
 31
0.0
  0
LINE
  8
0
  6
BYLAYER
 62
     7
 10
381.332826
 20
-529.610410
 30
0.0
 11
440.382826
 21
-529.610410
 31
0.0
  0
LINE
  8
0
  6
BYLAYER
 62
     7
 10
454.832826
 20
-515.160410
 30
0.0
 11
440.382826
 21
-529.610410
 31
0.0
  0
LINE
  8
0
  6
BYLAYER
 62
     7
 10
381.332826
 20
-460.160410
 30
0.0
 11
381.332826
 21
-529.610410
 31
0.0
  0
LINE
  8
0
  6
BYLAYER
 62
     7
 10
283.832774
 20
-484.677095
 30
0.0
 11
283.832774
 21
-460.160410
 31
0.0
  0
LINE
  8
0
  6
BYLAYER
 62
     7
 10
357.832774
 20
-460.160410
 30
0.0
 11
357.832774
 21
-484.677095
 31
0.0
  0
LINE
  8
0
  6
BYLAYER
 62
     7
 10
348.370368
 20
-494.410410
 30
0.0
 11
293.295180
 21
-494.410410
 31
0.0
  0
LINE
  8
0
  6
BYLAYER
 62
     7
 10
297.937472
 20
-465.261516
 30
0.0
 11
283.832774
 21
-465.754063
 31
0.0
  0
ARC
  8
0
  6
BYLAYER
 62
     7
 10
297.832774
 20
-462.263344
 30
0.0
 40
3.0
 50
272.000000
 51
360.000000
  0
LINE
  8
0
  6
BYLAYER
 62
     7
 10
297.937472
 20
-480.261516
 30
0.0
 11
283.832774
 21
-480.754063
 31
0.0
  0
ARC
  8
0
  6
BYLAYER
 62
     7
 10
297.832774
 20
-477.263344
 30
0.0
 40
3.0
 50
272.000000
 51
360.000000
  0
LINE
  8
0
  6
BYLAYER
 62
     7
 10
283.832774
 20
-469.566757
 30
0.0
 11
297.937472
 21
-470.059304
 31
0.0
  0
ARC
  8
0
  6
BYLAYER
 62
     7
 10
297.832774
 20
-473.057476
 30
0.0
 40
3.000000
 50
0.0
 51
88.0
  0
LINE
  8
0
  6
BYLAYER
 62
     7
 10
300.832774
 20
-473.057476
 30
0.0
 11
300.832774
 21
-477.263344
 31
0.0
  0
LINE
  8
0
  6
BYLAYER
 62
     7
 10
300.832774
 20
-460.160410
 30
0.0
 11
300.832774
 21
-462.263344
 31
0.0
  0
LINE
  8
0
  6
BYLAYER
 62
     7
 10
284.832774
 20
-460.160410
 30
0.0
 11
284.832774
 21
-465.719142
 31
0.0
  0
LINE
  8
0
  6
BYLAYER
 62
     7
 10
284.832774
 20
-469.601678
 30
0.0
 11
284.832774
 21
-480.719142
 31
0.0
  0
LINE
  8
0
  6
BYLAYER
 62
     7
 10
343.728075
 20
-465.261516
 30
0.0
 11
357.832774
 21
-465.754063
 31
0.0
  0
ARC
  8
0
  6
BYLAYER
 62
     7
 10
343.832774
 20
-462.263344
 30
0.0
 40
3.000000
 50
180.000000
 51
268.000000
  0
LINE
  8
0
  6
BYLAYER
 62
     7
 10
343.728075
 20
-480.261516
 30
0.0
 11
357.832774
 21
-480.754063
 31
0.0
  0
ARC
  8
0
  6
BYLAYER
 62
     7
 10
343.832774
 20
-477.263344
 30
0.0
 40
3.000000
 50
180.000000
 51
268.000000
  0
LINE
  8
0
  6
BYLAYER
 62
     7
 10
357.832774
 20
-469.566757
 30
0.0
 11
343.728075
 21
-470.059304
 31
0.0
  0
ARC
  8
0
  6
BYLAYER
 62
     7
 10
343.832774
 20
-473.057476
 30
0.0
 40
3.0
 50
92.000000
 51
180.000000
  0
LINE
  8
0
  6
BYLAYER
 62
     7
 10
340.832774
 20
-473.057476
 30
0.0
 11
340.832774
 21
-477.263344
 31
0.0
  0
LINE
  8
0
  6
BYLAYER
 62
     7
 10
340.832774
 20
-460.160410
 30
0.0
 11
340.832774
 21
-462.263344
 31
0.0
  0
LINE
  8
0
  6
BYLAYER
 62
     7
 10
356.832774
 20
-460.160410
 30
0.0
 11
356.832774
 21
-465.719142
 31
0.0
  0
LINE
  8
0
  6
BYLAYER
 62
     7
 10
356.832774
 20
-469.601678
 30
0.0
 11
356.832774
 21
-480.719142
 31
0.0
  0
LINE
  8
0
  6
BYLAYER
 62
     7
 10
280.832774
 20
-460.160410
 30
0.0
 11
280.832774
 21
-495.660410
 31
0.0
  0
ARC
  8
0
  6
BYLAYER
 62
     7
 10
282.332774
 20
-495.660410
 30
0.0
 40
1.5
 50
180.000000
 51
270.000000
  0
LINE
  8
0
  6
BYLAYER
 62
     7
 10
360.832774
 20
-495.660410
 30
0.0
 11
360.832774
 21
-460.160410
 31
0.0
  0
LINE
  8
0
  6
BYLAYER
 62
     7
 10
282.332774
 20
-497.160410
 30
0.0
 11
359.332774
 21
-497.160410
 31
0.0
  0
ARC
  8
0
  6
BYLAYER
 62
     7
 10
359.332774
 20
-495.660410
 30
0.0
 40
1.5
 50
270.0
 51
360.0
  0
ARC
  8
0
  6
BYLAYER
 62
     7
 10
355.832774
 20
-492.160410
 30
0.0
 40
6.000000
 50
86.177446
 51
185.739170
  0
ARC
  8
0
  6
BYLAYER
 62
     7
 10
356.332774
 20
-484.677095
 30
0.0
 40
1.5
 50
266.177446
 51
360.0
  0
ARC
  8
0
  6
BYLAYER
 62
     7
 10
348.370368
 20
-492.910410
 30
0.0
 40
1.5
 50
270.0
 51
365.739170
  0
ARC
  8
0
  6
BYLAYER
 62
     7
 10
285.832774
 20
-492.160410
 30
0.0
 40
6.000000
 50
354.260830
 51
453.822554
  0
ARC
  8
0
  6
BYLAYER
 62
     7
 10
293.295180
 20
-492.910410
 30
0.0
 40
1.500000
 50
174.260830
 51
270.000000
  0
ARC
  8
0
  6
BYLAYER
 62
     7
 10
285.332774
 20
-484.677095
 30
0.0
 40
1.500000
 50
180.000000
 51
273.822554
  0
ARC
  8
0
  6
BYLAYER
 62
     7
 10
307.832774
 20
-487.160410
 30
0.0
 40
3.0
 50
180.000000
 51
270.000000
  0
ARC
  8
0
  6
BYLAYER
 62
     7
 10
333.832774
 20
-487.160410
 30
0.0
 40
3.0
 50
270.0
 51
360.0
  0
LINE
  8
0
  6
BYLAYER
 62
     7
 10
307.832774
 20
-490.160410
 30
0.0
 11
333.832774
 21
-490.160410
 31
0.0
  0
LINE
  8
0
  6
BYLAYER
 62
     7
 10
304.832774
 20
-487.160410
 30
0.0
 11
304.832774
 21
-460.160410
 31
0.0
  0
LINE
  8
0
  6
BYLAYER
 62
     7
 10
336.832774
 20
-460.160410
 30
0.0
 11
336.832774
 21
-487.160410
 31
0.0
  0
LINE
  8
0
  6
BYLAYER
 62
     7
 10
381.332826
 20
-486.060321
 30
0.0
 11
360.832774
 21
-486.060338
 31
0.0
  0
LINE
  8
0
  6
BYLAYER
 62
     7
 10
381.332826
 20
-487.760303
 30
0.0
 11
360.832774
 21
-487.760320
 31
0.0
  0
LINE
  8
0
  6
BYLAYER
 62
     7
 10
381.332826
 20
-496.760324
 30
0.0
 11
360.352671
 21
-496.760324
 31
0.0
  0
ARC
  8
0
  6
BYLAYER
 62
     7
 10
281.682756
 20
-422.710429
 30
0.0
 40
0.850006
 50
90.0
 51
248.965395
  0
ARC
  8
0
  6
BYLAYER
 62
     7
 10
285.682680
 20
-422.710429
 30
0.0
 40
0.850006
 50
90.0
 51
211.963955
  0
LINE
  8
0
  6
BYLAYER
 62
     7
 10
281.682741
 20
-421.860423
 30
0.0
 11
381.332826
 21
-421.860505
 31
0.0
  0
LINE
  8
0
  6
BYLAYER
 62
     7
 10
280.832826
 20
-402.910410
 30
0.0
 11
280.832774
 21
-460.160410
 31
0.0
  0
LINE
  8
0
  6
BYLAYER
 62
     7
 10
280.832826
 20
-402.910410
 30
0.0
 11
278.832826
 21
-402.910410
 31
0.0
  0
LINE
  8
0
  6
BYLAYER
 62
     7
 10
280.832811
 20
-421.434000
 30
0.0
 11
283.005556
 21
-413.325175
 31
0.0
  0
ARC
  8
0
  6
BYLAYER
 62
     7
 10
284.937410
 20
-413.842814
 30
0.0
 40
2.000003
 50
90.0
 51
164.999985
  0
LINE
  8
0
  6
BYLAYER
 62
     7
 10
280.832811
 20
-417.996409
 30
0.0
 11
284.302980
 21
-405.045603
 31
0.0
  0
ARC
  8
0
  6
BYLAYER
 62
     7
 10
286.234819
 20
-405.563242
 30
0.0
 40
1.999988
 50
90.0
 51
164.999958
  0
LINE
  8
0
  6
BYLAYER
 62
     7
 10
280.832826
 20
-410.201808
 30
0.0
 11
283.781679
 21
-399.196528
 31
0.0
  0
ARC
  8
0
  6
BYLAYER
 62
     7
 10
285.713533
 20
-399.714167
 30
0.0
 40
2.000003
 50
90.0
 51
164.999958
  0
LINE
  8
0
  6
BYLAYER
 62
     7
 10
280.832826
 20
-405.562556
 30
0.0
 11
283.505556
 21
-395.587763
 31
0.0
  0
ARC
  8
0
  6
BYLAYER
 62
     7
 10
285.437410
 20
-396.105402
 30
0.0
 40
2.000003
 50
90.0
 51
164.999958
  0
LINE
  8
0
  6
BYLAYER
 62
     7
 10
280.832826
 20
-402.910410
 30
0.0
 11
283.258882
 21
-393.856226
 31
0.0
  0
ARC
  8
0
  6
BYLAYER
 62
     7
 10
285.190736
 20
-394.373866
 30
0.0
 40
2.000003
 50
90.0
 51
164.999985
  0
LINE
  8
0
  6
BYLAYER
 62
     7
 10
284.937410
 20
-411.842814
 30
0.0
 11
381.332826
 21
-411.842828
 31
0.0
  0
LINE
  8
0
  6
BYLAYER
 62
     7
 10
286.234819
 20
-403.563242
 30
0.0
 11
381.332826
 21
-403.563257
 31
0.0
  0
LINE
  8
0
  6
BYLAYER
 62
     7
 10
285.713533
 20
-397.714167
 30
0.0
 11
381.332826
 21
-397.714181
 31
0.0
  0
LINE
  8
0
  6
BYLAYER
 62
     7
 10
285.437410
 20
-394.105402
 30
0.0
 11
381.332826
 21
-394.105417
 31
0.0
  0
LINE
  8
0
  6
BYLAYER
 62
     7
 10
285.190736
 20
-392.373866
 30
0.0
 11
381.332826
 21
-392.373880
 31
0.0
  0
LINE
  8
0
  6
BYLAYER
 62
     7
 10
278.832765
 20
-460.160410
 30
0.0
 11
278.832826
 21
-402.910414
 31
0.0
  0
LINE
  8
0
  6
BYLAYER
 62
     7
 10
454.832826
 20
-460.160410
 30
0.0
 11
454.832826
 21
-405.160410
 31
0.0
  0
LINE
  8
0
  6
BYLAYER
 62
     7
 10
381.332826
 20
-390.710410
 30
0.0
 11
440.382826
 21
-390.710410
 31
0.0
  0
LINE
  8
0
  6
BYLAYER
 62
     7
 10
454.832826
 20
-405.160410
 30
0.0
 11
440.382826
 21
-390.710410
 31
0.0
  0
LINE
  8
0
  6
BYLAYER
 62
     7
 10
381.332826
 20
-460.160410
 30
0.0
 11
381.332826
 21
-390.710410
 31
0.0
  0
LINE
  8
0
  6
BYLAYER
 62
     7
 10
283.832774
 20
-435.643725
 30
0.0
 11
283.832774
 21
-460.160410
 31
0.0
  0
LINE
  8
0
  6
BYLAYER
 62
     7
 10
357.832774
 20
-460.160410
 30
0.0
 11
357.832774
 21
-435.643725
 31
0.0
  0
LINE
  8
0
  6
BYLAYER
 62
     7
 10
348.370368
 20
-425.910410
 30
0.0
 11
293.295180
 21
-425.910410
 31
0.0
  0
LINE
  8
0
  6
BYLAYER
 62
     7
 10
297.937472
 20
-455.059304
 30
0.0
 11
283.832774
 21
-454.566757
 31
0.0
  0
ARC
  8
0
  6
BYLAYER
 62
     7
 10
297.832774
 20
-458.057476
 30
0.0
 40
3.000000
 50
0.0
 51
88.0
  0
LINE
  8
0
  6
BYLAYER
 62
     7
 10
297.937472
 20
-440.059304
 30
0.0
 11
283.832774
 21
-439.566757
 31
0.0
  0
ARC
  8
0
  6
BYLAYER
 62
     7
 10
297.832774
 20
-443.057476
 30
0.0
 40
3.000000
 50
0.0
 51
88.0
  0
LINE
  8
0
  6
BYLAYER
 62
     7
 10
283.832774
 20
-450.754063
 30
0.0
 11
297.937472
 21
-450.261516
 31
0.0
  0
ARC
  8
0
  6
BYLAYER
 62
     7
 10
297.832774
 20
-447.263344
 30
0.0
 40
3.0
 50
272.000000
 51
360.000000
  0
LINE
  8
0
  6
BYLAYER
 62
     7
 10
300.832774
 20
-447.263344
 30
0.0
 11
300.832774
 21
-443.057476
 31
0.0
  0
LINE
  8
0
  6
BYLAYER
 62
     7
 10
300.832774
 20
-460.160410
 30
0.0
 11
300.832774
 21
-458.057476
 31
0.0
  0
LINE
  8
0
  6
BYLAYER
 62
     7
 10
284.832774
 20
-460.160410
 30
0.0
 11
284.832774
 21
-454.601678
 31
0.0
  0
LINE
  8
0
  6
BYLAYER
 62
     7
 10
284.832774
 20
-450.719142
 30
0.0
 11
284.832774
 21
-439.601678
 31
0.0
  0
LINE
  8
0
  6
BYLAYER
 62
     7
 10
343.728075
 20
-455.059304
 30
0.0
 11
357.832774
 21
-454.566757
 31
0.0
  0
ARC
  8
0
  6
BYLAYER
 62
     7
 10
343.832774
 20
-458.057476
 30
0.0
 40
3.0
 50
92.000000
 51
180.000000
  0
LINE
  8
0
  6
BYLAYER
 62
     7
 10
343.728075
 20
-440.059304
 30
0.0
 11
357.832774
 21
-439.566757
 31
0.0
  0
ARC
  8
0
  6
BYLAYER
 62
     7
 10
343.832774
 20
-443.057476
 30
0.0
 40
3.0
 50
92.000000
 51
180.000000
  0
LINE
  8
0
  6
BYLAYER
 62
     7
 10
357.832774
 20
-450.754063
 30
0.0
 11
343.728075
 21
-450.261516
 31
0.0
  0
ARC
  8
0
  6
BYLAYER
 62
     7
 10
343.832774
 20
-447.263344
 30
0.0
 40
3.000000
 50
180.000000
 51
268.000000
  0
LINE
  8
0
  6
BYLAYER
 62
     7
 10
340.832774
 20
-447.263344
 30
0.0
 11
340.832774
 21
-443.057476
 31
0.0
  0
LINE
  8
0
  6
BYLAYER
 62
     7
 10
340.832774
 20
-460.160410
 30
0.0
 11
340.832774
 21
-458.057476
 31
0.0
  0
LINE
  8
0
  6
BYLAYER
 62
     7
 10
356.832774
 20
-460.160410
 30
0.0
 11
356.832774
 21
-454.601678
 31
0.0
  0
LINE
  8
0
  6
BYLAYER
 62
     7
 10
356.832774
 20
-450.719142
 30
0.0
 11
356.832774
 21
-439.601678
 31
0.0
  0
LINE
  8
0
  6
BYLAYER
 62
     7
 10
280.832774
 20
-460.160410
 30
0.0
 11
280.832774
 21
-424.660410
 31
0.0
  0
ARC
  8
0
  6
BYLAYER
 62
     7
 10
282.332774
 20
-424.660410
 30
0.0
 40
1.5
 50
90.0
 51
180.0
  0
LINE
  8
0
  6
BYLAYER
 62
     7
 10
360.832774
 20
-424.660410
 30
0.0
 11
360.832774
 21
-460.160410
 31
0.0
  0
LINE
  8
0
  6
BYLAYER
 62
     7
 10
282.332774
 20
-423.160410
 30
0.0
 11
359.332774
 21
-423.160410
 31
0.0
  0
ARC
  8
0
  6
BYLAYER
 62
     7
 10
359.332774
 20
-424.660410
 30
0.0
 40
1.500000
 50
0.0
 51
90.0
  0
ARC
  8
0
  6
BYLAYER
 62
     7
 10
355.832774
 20
-428.160410
 30
0.0
 40
6.000000
 50
174.260830
 51
273.822554
  0
ARC
  8
0
  6
BYLAYER
 62
     7
 10
356.332774
 20
-435.643725
 30
0.0
 40
1.500000
 50
0.0
 51
93.822554
  0
ARC
  8
0
  6
BYLAYER
 62
     7
 10
348.370368
 20
-427.410410
 30
0.0
 40
1.500000
 50
354.260830
 51
450.000000
  0
ARC
  8
0
  6
BYLAYER
 62
     7
 10
285.832774
 20
-428.160410
 30
0.0
 40
6.000000
 50
266.177446
 51
365.739170
  0
ARC
  8
0
  6
BYLAYER
 62
     7
 10
293.295180
 20
-427.410410
 30
0.0
 40
1.500000
 50
90.0
 51
185.73917
  0
ARC
  8
0
  6
BYLAYER
 62
     7
 10
285.332774
 20
-435.643725
 30
0.0
 40
1.5
 50
86.177446
 51
180.0
  0
ARC
  8
0
  6
BYLAYER
 62
     7
 10
307.832774
 20
-433.160410
 30
0.0
 40
3.0
 50
90.0
 51
180.0
  0
ARC
  8
0
  6
BYLAYER
 62
     7
 10
333.832774
 20
-433.160410
 30
0.0
 40
3.0
 50
0.0
 51
90.0
  0
LINE
  8
0
  6
BYLAYER
 62
     7
 10
307.832774
 20
-430.160410
 30
0.0
 11
333.832774
 21
-430.160410
 31
0.0
  0
LINE
  8
0
  6
BYLAYER
 62
     7
 10
304.832774
 20
-433.160410
 30
0.0
 11
304.832774
 21
-460.160410
 31
0.0
  0
LINE
  8
0
  6
BYLAYER
 62
     7
 10
336.832774
 20
-460.160410
 30
0.0
 11
336.832774
 21
-433.160410
 31
0.0
  0
LINE
  8
0
  6
BYLAYER
 62
     7
 10
381.332826
 20
-434.260499
 30
0.0
 11
360.832774
 21
-434.260482
 31
0.0
  0
LINE
  8
0
  6
BYLAYER
 62
     7
 10
381.332826
 20
-432.560517
 30
0.0
 11
360.832774
 21
-432.560500
 31
0.0
  0
LINE
  8
0
  6
BYLAYER
 62
     7
 10
381.332826
 20
-423.560496
 30
0.0
 11
360.352671
 21
-423.560496
 31
0.0
  0
LINE
  8
0
  6
BYLAYER
 62
     7
 10
277.332765
 20
-518.160410
 30
0.0
 11
278.832765
 21
-518.160410
 31
0.0
  0
LINE
  8
0
  6
BYLAYER
 62
     7
 10
277.332765
 20
-460.160410
 30
0.0
 11
277.332765
 21
-528.160410
 31
0.0
  0
LINE
  8
0
  6
BYLAYER
 62
     7
 10
268.832765
 20
-528.160410
 30
0.0
 11
277.332765
 21
-528.160410
 31
0.0
  0
LINE
  8
0
  6
BYLAYER
 62
     7
 10
268.832765
 20
-460.160410
 30
0.0
 11
268.832765
 21
-528.160410
 31
0.0
  0
LINE
  8
0
  6
BYLAYER
 62
     7
 10
278.832765
 20
-460.160410
 30
0.0
 11
278.832765
 21
-518.160410
 31
0.0
  0
LINE
  8
0
  6
BYLAYER
 62
     7
 10
247.832765
 20
-460.160410
 30
0.0
 11
247.832765
 21
-512.718550
 31
0.0
  0
LINE
  8
0
  6
BYLAYER
 62
     7
 10
247.832765
 20
-512.730680
 30
0.0
 11
267.971938
 21
-515.561057
 31
0.0
  0
ARC
  8
0
  6
BYLAYER
 62
     7
 10
267.832765
 20
-516.551325
 30
0.0
 40
1.000000
 50
0.0
 51
82.0
  0
LINE
  8
0
  6
BYLAYER
 62
     7
 10
277.332765
 20
-402.160410
 30
0.0
 11
278.832765
 21
-402.160410
 31
0.0
  0
LINE
  8
0
  6
BYLAYER
 62
     7
 10
277.332765
 20
-460.160410
 30
0.0
 11
277.332765
 21
-392.160410
 31
0.0
  0
LINE
  8
0
  6
BYLAYER
 62
     7
 10
268.832765
 20
-392.160410
 30
0.0
 11
277.332765
 21
-392.160410
 31
0.0
  0
LINE
  8
0
  6
BYLAYER
 62
     7
 10
268.832765
 20
-460.160410
 30
0.0
 11
268.832765
 21
-392.160410
 31
0.0
  0
LINE
  8
0
  6
BYLAYER
 62
     7
 10
278.832765
 20
-460.160410
 30
0.0
 11
278.832765
 21
-402.160410
 31
0.0
  0
LINE
  8
0
  6
BYLAYER
 62
     7
 10
247.832765
 20
-460.160410
 30
0.0
 11
247.832765
 21
-407.602270
 31
0.0
  0
LINE
  8
0
  6
BYLAYER
 62
     7
 10
247.832765
 20
-407.590140
 30
0.0
 11
267.971938
 21
-404.759763
 31
0.0
  0
ARC
  8
0
  6
BYLAYER
 62
     7
 10
267.832765
 20
-403.769495
 30
0.0
 40
1.000000
 50
278.000000
 51
360.000000
  0
LINE
  8
0
  6
BYLAYER
 62
     7
 10
440.382826
 20
-529.610410
 30
0.0
 11
440.382826
 21
-390.710410
 31
0.0
  0
LINE
  8
0
  6
BYLAYER
 62
     1
 10
137.832765
 20
-76.160410
 30
0.0
 11
139.332765
 21
-77.660410
 31
0.0
  0
LINE
  8
0
  6
BYLAYER
 62
     1
 10
137.832765
 20
-220.160410
 30
0.0
 11
139.332765
 21
-218.660410
 31
0.0
  0
LINE
  8
0
  6
BYLAYER
 62
     1
 10
107.832765
 20
-190.160410
 30
0.0
 11
109.332765
 21
-188.660410
 31
0.0
  0
LINE
  8
0
  6
BYLAYER
 62
     1
 10
137.832765
 20
-76.160410
 30
0.0
 11
109.332765
 21
-76.160410
 31
0.0
  0
LINE
  8
0
  6
BYLAYER
 62
     1
 10
109.332765
 20
-76.160410
 30
0.0
 11
107.832765
 21
-77.660410
 31
0.0
  0
LINE
  8
0
  6
BYLAYER
 62
     1
 10
137.832765
 20
-220.160410
 30
0.0
 11
109.332765
 21
-220.160410
 31
0.0
  0
LINE
  8
0
  6
BYLAYER
 62
     1
 10
109.332765
 20
-220.160410
 30
0.0
 11
107.832765
 21
-218.660410
 31
0.0
  0
LINE
  8
0
  6
BYLAYER
 62
     1
 10
227.832765
 20
-190.160410
 30
0.0
 11
226.332765
 21
-188.660410
 31
0.0
  0
LINE
  8
0
  6
BYLAYER
 62
     1
 10
197.832765
 20
-220.160410
 30
0.0
 11
226.332765
 21
-220.160410
 31
0.0
  0
LINE
  8
0
  6
BYLAYER
 62
     1
 10
226.332765
 20
-220.160410
 30
0.0
 11
227.832765
 21
-218.660410
 31
0.0
  0
LINE
  8
0
  6
BYLAYER
 62
     1
 10
227.832765
 20
-218.660410
 30
0.0
 11
227.832765
 21
-190.160410
 31
0.0
  0
LINE
  8
0
  6
BYLAYER
 62
     1
 10
197.832765
 20
-220.160410
 30
0.0
 11
196.332765
 21
-218.660410
 31
0.0
  0
LINE
  8
0
  6
BYLAYER
 62
     1
 10
197.832765
 20
-76.160410
 30
0.0
 11
226.332765
 21
-76.160410
 31
0.0
  0
LINE
  8
0
  6
BYLAYER
 62
     1
 10
226.332765
 20
-76.160410
 30
0.0
 11
227.832765
 21
-77.660410
 31
0.0
  0
LINE
  8
0
  6
BYLAYER
 62
     1
 10
197.832765
 20
-76.160410
 30
0.0
 11
196.332765
 21
-77.660410
 31
0.0
  0
LINE
  8
0
  6
BYLAYER
 62
     1
 10
139.332765
 20
-77.660410
 30
0.0
 11
196.332765
 21
-77.660410
 31
0.0
  0
LINE
  8
0
  6
BYLAYER
 62
     1
 10
139.332765
 20
-218.660410
 30
0.0
 11
196.332765
 21
-218.660410
 31
0.0
  0
LINE
  8
0
  6
BYLAYER
 62
     1
 10
107.832765
 20
-77.660410
 30
0.0
 11
107.832765
 21
-138.160410
 31
0.0
  0
LINE
  8
0
  6
BYLAYER
 62
     1
 10
107.832765
 20
-138.160410
 30
0.0
 11
109.332765
 21
-138.212778
 31
0.0
  0
LINE
  8
0
  6
BYLAYER
 62
     1
 10
227.832765
 20
-106.160410
 30
0.0
 11
226.332765
 21
-107.660410
 31
0.0
  0
LINE
  8
0
  6
BYLAYER
 62
     1
 10
226.332765
 20
-107.660410
 30
0.0
 11
226.332765
 21
-188.660410
 31
0.0
  0
ARC
  8
0
  6
BYLAYER
 62
     1
 10
218.832765
 20
-85.160410
 30
0.0
 40
2.000000
 50
0.0
 51
90.000016
  0
ARC
  8
0
  6
BYLAYER
 62
     1
 10
218.832765
 20
-211.160410
 30
0.0
 40
2.000000
 50
270.0
 51
359.999982
  0
ARC
  8
0
  6
BYLAYER
 62
     1
 10
116.832765
 20
-211.160410
 30
0.0
 40
2.0
 50
180.000000
 51
269.999996
  0
ARC
  8
0
  6
BYLAYER
 62
     1
 10
116.832765
 20
-85.160410
 30
0.0
 40
2.0
 50
90.0
 51
180.000009
  0
LINE
  8
0
  6
BYLAYER
 62
     1
 10
227.832765
 20
-106.160410
 30
0.0
 11
220.832765
 21
-106.160410
 31
0.0
  0
LINE
  8
0
  6
BYLAYER
 62
     1
 10
227.832765
 20
-190.160410
 30
0.0
 11
220.832765
 21
-190.160410
 31
0.0
  0
LINE
  8
0
  6
BYLAYER
 62
     1
 10
107.832765
 20
-106.160410
 30
0.0
 11
114.832765
 21
-106.160410
 31
0.0
  0
LINE
  8
0
  6
BYLAYER
 62
     1
 10
107.832765
 20
-190.160410
 30
0.0
 11
114.832765
 21
-190.160410
 31
0.0
  0
ARC
  8
0
  6
BYLAYER
 62
     1
 10
143.832765
 20
-100.160410
 30
0.0
 40
1.000000
 50
90.0
 51
269.999991
  0
ARC
  8
0
  6
BYLAYER
 62
     1
 10
136.832765
 20
-110.160410
 30
0.0
 40
1.0
 50
270.0
 51
450.000005
  0
ARC
  8
0
  6
BYLAYER
 62
     1
 10
127.832765
 20
-120.160410
 30
0.0
 40
1.000000
 50
270.0
 51
450.000005
  0
ARC
  8
0
  6
BYLAYER
 62
     1
 10
119.832765
 20
-130.160410
 30
0.0
 40
1.0
 50
270.0
 51
450.000005
  0
ARC
  8
0
  6
BYLAYER
 62
     1
 10
198.832765
 20
-110.160410
 30
0.0
 40
1.000000
 50
90.0
 51
270.000005
  0
ARC
  8
0
  6
BYLAYER
 62
     1
 10
207.832765
 20
-120.160410
 30
0.0
 40
1.000000
 50
90.0
 51
270.000005
  0
ARC
  8
0
  6
BYLAYER
 62
     1
 10
215.832765
 20
-130.160410
 30
0.0
 40
1.0
 50
90.0
 51
270.000005
  0
LINE
  8
0
  6
BYLAYER
 62
     1
 10
137.832765
 20
-76.160410
 30
0.0
 11
137.832765
 21
-83.160410
 31
0.0
  0
LINE
  8
0
  6
BYLAYER
 62
     1
 10
139.332765
 20
-77.660410
 30
0.0
 11
139.332765
 21
-83.160410
 31
0.0
  0
LINE
  8
0
  6
BYLAYER
 62
     1
 10
196.332765
 20
-77.660410
 30
0.0
 11
196.332765
 21
-83.160410
 31
0.0
  0
LINE
  8
0
  6
BYLAYER
 62
     1
 10
197.832765
 20
-76.160410
 30
0.0
 11
197.832765
 21
-83.160410
 31
0.0
  0
LINE
  8
0
  6
BYLAYER
 62
     1
 10
137.832765
 20
-220.160410
 30
0.0
 11
137.832765
 21
-213.160410
 31
0.0
  0
LINE
  8
0
  6
BYLAYER
 62
     1
 10
197.832765
 20
-220.160410
 30
0.0
 11
197.832765
 21
-213.160410
 31
0.0
  0
LINE
  8
0
  6
BYLAYER
 62
     1
 10
220.246950
 20
-212.574656
 30
0.0
 11
215.832765
 21
-208.160410
 31
0.0
  0
LINE
  8
0
  6
BYLAYER
 62
     1
 10
115.418580
 20
-212.574656
 30
0.0
 11
119.832765
 21
-208.160410
 31
0.0
  0
ARC
  8
0
  6
BYLAYER
 62
     1
 10
149.420778
 20
-215.160410
 30
0.0
 40
2.000000
 50
71.491301
 51
90.0
  0
LINE
  8
0
  6
BYLAYER
 62
     1
 10
220.832765
 20
-178.572336
 30
0.0
 11
220.832765
 21
-211.160410
 31
0.0
  0
ARC
  8
0
  6
BYLAYER
 62
     1
 10
222.832765
 20
-178.572336
 30
0.0
 40
2.0
 50
161.491512
 51
180.000000
  0
ARC
  8
0
  6
BYLAYER
 62
     1
 10
167.832765
 20
-160.160410
 30
0.0
 40
55.999943
 50
341.491399
 51
378.508607
  0
ARC
  8
0
  6
BYLAYER
 62
     1
 10
222.832765
 20
-141.748484
 30
0.0
 40
2.0
 50
180.000000
 51
198.508488
  0
ARC
  8
0
  6
BYLAYER
 62
     1
 10
112.832765
 20
-141.748423
 30
0.0
 40
2.000000
 50
341.491591
 51
360.0
  0
LINE
  8
0
  6
BYLAYER
 62
     1
 10
116.832765
 20
-213.160410
 30
0.0
 11
149.420778
 21
-213.160410
 31
0.0
  0
ARC
  8
0
  6
BYLAYER
 62
     1
 10
167.832765
 20
-160.160410
 30
0.0
 40
56.000019
 50
251.491363
 51
288.508666
  0
LINE
  8
0
  6
BYLAYER
 62
     1
 10
186.244752
 20
-213.160410
 30
0.0
 11
218.832765
 21
-213.160410
 31
0.0
  0
ARC
  8
0
  6
BYLAYER
 62
     1
 10
186.244752
 20
-215.160410
 30
0.0
 40
1.999992
 50
90.0
 51
108.508488
  0
LINE
  8
0
  6
BYLAYER
 62
     1
 10
109.332765
 20
-126.038401
 30
0.0
 11
107.832765
 21
-126.038401
 31
0.0
  0
LINE
  8
0
  6
BYLAYER
 62
     1
 10
109.332765
 20
-137.080393
 30
0.0
 11
107.832765
 21
-137.080393
 31
0.0
  0
ARC
  8
0
  6
BYLAYER
 62
     1
 10
167.832765
 20
-160.160410
 30
0.0
 40
56.000076
 50
161.491326
 51
198.508657
  0
LINE
  8
0
  6
BYLAYER
 62
     1
 10
114.832765
 20
-178.572367
 30
0.0
 11
114.832765
 21
-211.160410
 31
0.0
  0
ARC
  8
0
  6
BYLAYER
 62
     1
 10
112.832765
 20
-178.572367
 30
0.0
 40
1.999934
 50
0.0
 51
18.508419
  0
LINE
  8
0
  6
BYLAYER
 62
     1
 10
215.832765
 20
-183.787716
 30
0.0
 11
215.832765
 21
-208.160410
 31
0.0
  0
LINE
  8
0
  6
BYLAYER
 62
     1
 10
136.832765
 20
-109.160410
 30
0.0
 11
115.832765
 21
-109.160410
 31
0.0
  0
ARC
  8
0
  6
BYLAYER
 62
     1
 10
115.832765
 20
-108.160410
 30
0.0
 40
1.0
 50
180.000000
 51
269.999996
  0
LINE
  8
0
  6
BYLAYER
 62
     1
 10
136.832765
 20
-111.160410
 30
0.0
 11
115.832765
 21
-111.160410
 31
0.0
  0
ARC
  8
0
  6
BYLAYER
 62
     1
 10
115.832765
 20
-112.160410
 30
0.0
 40
1.0
 50
90.0
 51
180.000003
  0
LINE
  8
0
  6
BYLAYER
 62
     1
 10
127.832765
 20
-119.160410
 30
0.0
 11
115.832765
 21
-119.160410
 31
0.0
  0
ARC
  8
0
  6
BYLAYER
 62
     1
 10
115.832765
 20
-118.160410
 30
0.0
 40
1.0
 50
180.000000
 51
269.999996
  0
LINE
  8
0
  6
BYLAYER
 62
     1
 10
127.832765
 20
-121.160410
 30
0.0
 11
115.832765
 21
-121.160410
 31
0.0
  0
ARC
  8
0
  6
BYLAYER
 62
     1
 10
115.832765
 20
-122.160410
 30
0.0
 40
1.0
 50
90.0
 51
180.000003
  0
LINE
  8
0
  6
BYLAYER
 62
     1
 10
119.832765
 20
-129.160410
 30
0.0
 11
115.832765
 21
-129.160410
 31
0.0
  0
ARC
  8
0
  6
BYLAYER
 62
     1
 10
115.832765
 20
-128.160410
 30
0.0
 40
1.0
 50
180.000000
 51
269.999996
  0
LINE
  8
0
  6
BYLAYER
 62
     1
 10
119.832765
 20
-131.160410
 30
0.0
 11
115.832765
 21
-131.160410
 31
0.0
  0
ARC
  8
0
  6
BYLAYER
 62
     1
 10
115.832765
 20
-132.160410
 30
0.0
 40
1.000000
 50
90.0
 51
180.000003
  0
LINE
  8
0
  6
BYLAYER
 62
     1
 10
207.832765
 20
-119.160410
 30
0.0
 11
219.832765
 21
-119.160410
 31
0.0
  0
ARC
  8
0
  6
BYLAYER
 62
     1
 10
219.832765
 20
-118.160410
 30
0.0
 40
1.0
 50
270.0
 51
360.000003
  0
LINE
  8
0
  6
BYLAYER
 62
     1
 10
207.832765
 20
-121.160410
 30
0.0
 11
219.832765
 21
-121.160410
 31
0.0
  0
ARC
  8
0
  6
BYLAYER
 62
     1
 10
219.832765
 20
-122.160410
 30
0.0
 40
1.000000
 50
0.0
 51
90.000003
  0
LINE
  8
0
  6
BYLAYER
 62
     1
 10
215.832765
 20
-129.160410
 30
0.0
 11
219.832765
 21
-129.160410
 31
0.0
  0
ARC
  8
0
  6
BYLAYER
 62
     1
 10
219.832765
 20
-128.160410
 30
0.0
 40
1.000000
 50
270.0
 51
360.000003
  0
LINE
  8
0
  6
BYLAYER
 62
     1
 10
215.832765
 20
-131.160410
 30
0.0
 11
219.832765
 21
-131.160410
 31
0.0
  0
ARC
  8
0
  6
BYLAYER
 62
     1
 10
219.832765
 20
-132.160410
 30
0.0
 40
1.000000
 50
0.0
 51
90.000003
  0
LINE
  8
0
  6
BYLAYER
 62
     1
 10
114.832765
 20
-141.748423
 30
0.0
 11
114.832765
 21
-85.160410
 31
0.0
  0
LINE
  8
0
  6
BYLAYER
 62
     1
 10
220.832765
 20
-141.748484
 30
0.0
 11
220.832765
 21
-85.160410
 31
0.0
  0
LINE
  8
0
  6
BYLAYER
 62
     1
 10
144.205459
 20
-208.160410
 30
0.0
 11
119.832765
 21
-208.160410
 31
0.0
  0
LINE
  8
0
  6
BYLAYER
 62
     1
 10
228.832765
 20
-84.320566
 30
0.0
 11
227.832765
 21
-84.320566
 31
0.0
  0
LINE
  8
0
  6
BYLAYER
 62
     1
 10
228.832765
 20
-105.175181
 30
0.0
 11
227.832765
 21
-105.175181
 31
0.0
  0
LINE
  8
0
  6
BYLAYER
 62
     1
 10
228.832765
 20
-115.145639
 30
0.0
 11
226.332765
 21
-115.145639
 31
0.0
  0
LINE
  8
0
  6
BYLAYER
 62
     1
 10
228.832765
 20
-135.480539
 30
0.0
 11
226.332765
 21
-135.480539
 31
0.0
  0
LINE
  8
0
  6
BYLAYER
 62
     1
 10
227.186769
 20
-77.014414
 30
0.0
 11
228.832765
 21
-77.014414
 31
0.0
  0
LINE
  8
0
  6
BYLAYER
 62
     1
 10
228.832765
 20
-143.306406
 30
0.0
 11
226.332765
 21
-143.306406
 31
0.0
  0
LINE
  8
0
  6
BYLAYER
 62
     1
 10
228.832765
 20
-143.306406
 30
0.0
 11
228.832765
 21
-77.014414
 31
0.0
  0
LINE
  8
0
  6
BYLAYER
 62
     1
 10
196.082765
 20
-208.160410
 30
0.0
 11
193.582765
 21
-208.160410
 31
0.0
  0
LINE
  8
0
  6
BYLAYER
 62
     1
 10
220.832765
 20
-107.660410
 30
0.0
 11
226.332765
 21
-107.660410
 31
0.0
  0
LINE
  8
0
  6
BYLAYER
 62
     1
 10
220.832765
 20
-188.660410
 30
0.0
 11
226.332765
 21
-188.660410
 31
0.0
  0
LINE
  8
0
  6
BYLAYER
 62
     1
 10
196.332765
 20
-213.160410
 30
0.0
 11
196.332765
 21
-218.660410
 31
0.0
  0
LINE
  8
0
  6
BYLAYER
 62
     1
 10
139.332765
 20
-213.160410
 30
0.0
 11
139.332765
 21
-218.660410
 31
0.0
  0
LINE
  8
0
  6
BYLAYER
 62
     1
 10
114.832765
 20
-188.660410
 30
0.0
 11
109.332765
 21
-188.660410
 31
0.0
  0
LINE
  8
0
  6
BYLAYER
 62
     1
 10
114.832765
 20
-107.660410
 30
0.0
 11
109.332765
 21
-107.660410
 31
0.0
  0
LINE
  8
0
  6
BYLAYER
 62
     1
 10
109.332765
 20
-107.660410
 30
0.0
 11
107.832765
 21
-106.160410
 31
0.0
  0
LINE
  8
0
  6
BYLAYER
 62
     1
 10
218.832765
 20
-83.160410
 30
0.0
 11
116.832765
 21
-83.160410
 31
0.0
  0
LINE
  8
0
  6
BYLAYER
 62
     1
 10
220.832765
 20
-196.410410
 30
0.0
 11
227.832765
 21
-196.410410
 31
0.0
  0
LINE
  8
0
  6
BYLAYER
 62
     1
 10
220.832765
 20
-204.910410
 30
0.0
 11
227.832765
 21
-204.910410
 31
0.0
  0
LINE
  8
0
  6
BYLAYER
 62
     1
 10
212.082765
 20
-220.160410
 30
0.0
 11
212.082765
 21
-213.160410
 31
0.0
  0
LINE
  8
0
  6
BYLAYER
 62
     1
 10
203.582765
 20
-220.160410
 30
0.0
 11
203.582765
 21
-213.160410
 31
0.0
  0
LINE
  8
0
  6
BYLAYER
 62
     1
 10
227.832765
 20
-77.660410
 30
0.0
 11
227.832765
 21
-106.160410
 31
0.0
  0
LINE
  8
0
  6
BYLAYER
 62
     1
 10
212.082765
 20
-76.160410
 30
0.0
 11
212.082765
 21
-83.160410
 31
0.0
  0
LINE
  8
0
  6
BYLAYER
 62
     1
 10
203.582765
 20
-76.160410
 30
0.0
 11
203.582765
 21
-83.160410
 31
0.0
  0
LINE
  8
0
  6
BYLAYER
 62
     1
 10
132.082765
 20
-76.160410
 30
0.0
 11
132.082765
 21
-83.160410
 31
0.0
  0
LINE
  8
0
  6
BYLAYER
 62
     1
 10
123.582765
 20
-76.160410
 30
0.0
 11
123.582765
 21
-83.160410
 31
0.0
  0
LINE
  8
0
  6
BYLAYER
 62
     1
 10
114.832765
 20
-91.410410
 30
0.0
 11
107.832765
 21
-91.410410
 31
0.0
  0
LINE
  8
0
  6
BYLAYER
 62
     1
 10
114.832765
 20
-99.910410
 30
0.0
 11
107.832765
 21
-99.910410
 31
0.0
  0
LINE
  8
0
  6
BYLAYER
 62
     1
 10
114.832765
 20
-196.410410
 30
0.0
 11
107.832765
 21
-196.410410
 31
0.0
  0
LINE
  8
0
  6
BYLAYER
 62
     1
 10
114.832765
 20
-204.910410
 30
0.0
 11
107.832765
 21
-204.910410
 31
0.0
  0
LINE
  8
0
  6
BYLAYER
 62
     1
 10
107.832765
 20
-218.660410
 30
0.0
 11
107.832765
 21
-190.160410
 31
0.0
  0
LINE
  8
0
  6
BYLAYER
 62
     1
 10
123.582765
 20
-220.160410
 30
0.0
 11
123.582765
 21
-213.160410
 31
0.0
  0
LINE
  8
0
  6
BYLAYER
 62
     1
 10
132.082765
 20
-220.160410
 30
0.0
 11
132.082765
 21
-213.160410
 31
0.0
  0
LINE
  8
0
  6
BYLAYER
 62
     1
 10
119.832765
 20
-183.787716
 30
0.0
 11
119.832765
 21
-208.160410
 31
0.0
  0
LINE
  8
0
  6
BYLAYER
 62
     1
 10
215.832765
 20
-208.160410
 30
0.0
 11
203.104432
 21
-208.160410
 31
0.0
  0
LINE
  8
0
  6
BYLAYER
 62
     1
 10
203.104432
 20
-208.160410
 30
0.0
 11
191.460071
 21
-208.160410
 31
0.0
  0
ARC
  8
0
  6
BYLAYER
 62
     1
 10
199.832765
 20
-100.160410
 30
0.0
 40
1.0
 50
270.0
 51
450.000005
  0
LINE
  8
0
  6
BYLAYER
 62
     1
 10
143.832765
 20
-99.160410
 30
0.0
 11
199.832765
 21
-99.160410
 31
0.0
  0
LINE
  8
0
  6
BYLAYER
 62
     1
 10
143.832765
 20
-101.160410
 30
0.0
 11
199.832765
 21
-101.160410
 31
0.0
  0
LINE
  8
0
  6
BYLAYER
 62
     1
 10
198.832765
 20
-109.160410
 30
0.0
 11
211.824479
 21
-109.160410
 31
0.0
  0
ARC
  8
0
  6
BYLAYER
 62
     1
 10
211.824479
 20
-108.160410
 30
0.0
 40
1.0
 50
270.0
 51
360.000003
  0
LINE
  8
0
  6
BYLAYER
 62
     1
 10
198.832765
 20
-111.160410
 30
0.0
 11
211.824479
 21
-111.160410
 31
0.0
  0
ARC
  8
0
  6
BYLAYER
 62
     1
 10
211.824479
 20
-112.160410
 30
0.0
 40
1.000000
 50
0.0
 51
90.000003
  0
LINE
  8
0
  6
BYLAYER
 62
     1
 10
109.332765
 20
-107.660410
 30
0.0
 11
109.332765
 21
-188.660410
 31
0.0
  0
LINE
  8
0
  6
BYLAYER
 62
     1
 10
220.832765
 20
-104.865397
 30
0.0
 11
214.780000
 21
-105.000040
 31
0.0
  0
LINE
  8
0
  6
BYLAYER
 62
     1
 10
212.824479
 20
-106.999552
 30
0.0
 11
212.824479
 21
-110.160410
 31
0.0
  0
ARC
  8
0
  6
BYLAYER
 62
     1
 10
214.824479
 20
-106.999552
 30
0.0
 40
2.000006
 50
91.274338
 51
180.000005
  0
LINE
  8
0
  6
BYLAYER
 62
     1
 10
212.824479
 20
-113.321268
 30
0.0
 11
212.824479
 21
-110.160410
 31
0.0
  0
LINE
  8
0
  6
BYLAYER
 62
     1
 10
220.832765
 20
-115.455423
 30
0.0
 11
214.780000
 21
-115.320780
 31
0.0
  0
ARC
  8
0
  6
BYLAYER
 62
     1
 10
214.824479
 20
-113.321268
 30
0.0
 40
2.000000
 50
180.000000
 51
268.725646
  0
ARC
  8
0
  6
BYLAYER
 62
     1
 10
197.884843
 20
-130.108439
 30
0.0
 40
3.999988
 50
353.659945
 51
636.339946
  0
CIRCLE
  8
0
  6
BYLAYER
 62
     1
 10
197.884843
 20
-130.108439
 30
0.0
 40
3.600000
  0
ARC
  8
0
  6
BYLAYER
 62
     1
 10
137.780794
 20
-130.108378
 30
0.0
 40
3.999988
 50
83.659964
 51
366.339965
  0
CIRCLE
  8
0
  6
BYLAYER
 62
     1
 10
137.780794
 20
-130.108378
 30
0.0
 40
3.600000
  0
ARC
  8
0
  6
BYLAYER
 62
     1
 10
197.884797
 20
-190.212427
 30
0.0
 40
3.999988
 50
83.659955
 51
366.339956
  0
CIRCLE
  8
0
  6
BYLAYER
 62
     1
 10
197.884797
 20
-190.212427
 30
0.0
 40
3.600000
  0
ARC
  8
0
  6
BYLAYER
 62
     1
 10
137.780748
 20
-190.212381
 30
0.0
 40
3.999988
 50
353.659928
 51
636.339929
  0
CIRCLE
  8
0
  6
BYLAYER
 62
     1
 10
137.780748
 20
-190.212381
 30
0.0
 40
3.600000
  0
ARC
  8
0
  6
BYLAYER
 62
     1
 10
167.832765
 20
-160.160410
 30
0.0
 40
50.000042
 50
44.999950
 51
51.003205
  0
ARC
  8
0
  6
BYLAYER
 62
     1
 10
198.038118
 20
-122.855692
 30
0.0
 40
1.999986
 50
51.003273
 51
118.656638
  0
ARC
  8
0
  6
BYLAYER
 62
     1
 10
189.645784
 20
-107.499277
 30
0.0
 40
15.500010
 50
196.343145
 51
298.65677
  0
ARC
  8
0
  6
BYLAYER
 62
     1
 10
172.852876
 20
-112.423624
 30
0.0
 40
2.000017
 50
16.343389
 51
83.996802
  0
ARC
  8
0
  6
BYLAYER
 62
     1
 10
205.137529
 20
-129.955149
 30
0.0
 40
2.000035
 50
331.343378
 51
398.996811
  0
ARC
  8
0
  6
BYLAYER
 62
     1
 10
167.832765
 20
-160.160410
 30
0.0
 40
50.000042
 50
38.996695
 51
44.999950
  0
ARC
  8
0
  6
BYLAYER
 62
     1
 10
167.832765
 20
-160.160410
 30
0.0
 40
50.000031
 50
359.999928
 51
366.003203
  0
ARC
  8
0
  6
BYLAYER
 62
     1
 10
167.832765
 20
-160.160410
 30
0.0
 40
50.000057
 50
89.999948
 51
96.003199
  0
ARC
  8
0
  6
BYLAYER
 62
     1
 10
162.812715
 20
-112.423624
 30
0.0
 40
2.000002
 50
96.003097
 51
163.656523
  0
ARC
  8
0
  6
BYLAYER
 62
     1
 10
146.019853
 20
-107.499247
 30
0.0
 40
15.499990
 50
241.343122
 51
343.656761
  0
ARC
  8
0
  6
BYLAYER
 62
     1
 10
137.627504
 20
-122.855631
 30
0.0
 40
1.999991
 50
61.343268
 51
128.996647
  0
ARC
  8
0
  6
BYLAYER
 62
     1
 10
167.832765
 20
-160.160410
 30
0.0
 40
50.000038
 50
128.996715
 51
134.999959
  0
ARC
  8
0
  6
BYLAYER
 62
     1
 10
167.832765
 20
-160.160410
 30
0.0
 40
50.000034
 50
134.999959
 51
141.003218
  0
ARC
  8
0
  6
BYLAYER
 62
     1
 10
130.528062
 20
-129.955088
 30
0.0
 40
2.000009
 50
141.003108
 51
208.656528
  0
ARC
  8
0
  6
BYLAYER
 62
     1
 10
115.171640
 20
-138.347391
 30
0.0
 40
15.500005
 50
286.343110
 51
388.656776
  0
ARC
  8
0
  6
BYLAYER
 62
     1
 10
120.095971
 20
-155.140329
 30
0.0
 40
2.000018
 50
106.343272
 51
173.996638
  0
ARC
  8
0
  6
BYLAYER
 62
     1
 10
167.832765
 20
-160.160410
 30
0.0
 40
50.000046
 50
173.996706
 51
179.999978
  0
ARC
  8
0
  6
BYLAYER
 62
     1
 10
167.832765
 20
-160.160410
 30
0.0
 40
50.000042
 50
269.999946
 51
276.003191
  0
ARC
  8
0
  6
BYLAYER
 62
     1
 10
167.832765
 20
-160.160410
 30
0.0
 40
50.000034
 50
263.996702
 51
269.999946
  0
ARC
  8
0
  6
BYLAYER
 62
     1
 10
162.812646
 20
-207.897196
 30
0.0
 40
2.000005
 50
196.343391
 51
263.996811
  0
ARC
  8
0
  6
BYLAYER
 62
     1
 10
172.852807
 20
-207.897211
 30
0.0
 40
2.000005
 50
276.003081
 51
343.656515
  0
ARC
  8
0
  6
BYLAYER
 62
     1
 10
167.832765
 20
-160.160410
 30
0.0
 40
50.000050
 50
308.996693
 51
314.999964
  0
ARC
  8
0
  6
BYLAYER
 62
     1
 10
167.832765
 20
-160.160410
 30
0.0
 40
50.000046
 50
314.999964
 51
321.003209
  0
ARC
  8
0
  6
BYLAYER
 62
     1
 10
205.137483
 20
-190.365702
 30
0.0
 40
2.000028
 50
321.003096
 51
388.656523
  0
ARC
  8
0
  6
BYLAYER
 62
     1
 10
220.493883
 20
-181.973398
 30
0.0
 40
15.499966
 50
106.343122
 51
208.656774
  0
ARC
  8
0
  6
BYLAYER
 62
     1
 10
215.569581
 20
-165.180506
 30
0.0
 40
1.999983
 50
286.343277
 51
353.996629
  0
ARC
  8
0
  6
BYLAYER
 62
     1
 10
167.832765
 20
-160.160410
 30
0.0
 40
50.000034
 50
353.996711
 51
359.999983
  0
ARC
  8
0
  6
BYLAYER
 62
     1
 10
167.832765
 20
-160.160410
 30
0.0
 40
50.000042
 50
179.999937
 51
186.003209
  0
ARC
  8
0
  6
BYLAYER
 62
     1
 10
120.095964
 20
-165.180430
 30
0.0
 40
2.000014
 50
186.003277
 51
253.656615
  0
ARC
  8
0
  6
BYLAYER
 62
     1
 10
115.171605
 20
-181.973322
 30
0.0
 40
15.500010
 50
331.343132
 51
433.656791
  0
ARC
  8
0
  6
BYLAYER
 62
     1
 10
130.528016
 20
-190.365656
 30
0.0
 40
2.000009
 50
151.343386
 51
218.996806
  0
ARC
  8
0
  6
BYLAYER
 62
     1
 10
167.832765
 20
-160.160410
 30
0.0
 40
50.000038
 50
218.996697
 51
224.999955
  0
ARC
  8
0
  6
BYLAYER
 62
     1
 10
137.627450
 20
-197.465128
 30
0.0
 40
2.000008
 50
231.003254
 51
298.656633
  0
ARC
  8
0
  6
BYLAYER
 62
     1
 10
167.832765
 20
-160.160410
 30
0.0
 40
50.000065
 50
83.996703
 51
89.999955
  0
ARC
  8
0
  6
BYLAYER
 62
     1
 10
189.645708
 20
-212.821558
 30
0.0
 40
15.500014
 50
112.499971
 51
163.656783
  0
ARC
  8
0
  6
BYLAYER
 62
     1
 10
146.019769
 20
-212.821512
 30
0.0
 40
15.499984
 50
16.343138
 51
67.499992
  0
ARC
  8
0
  6
BYLAYER
 62
     1
 10
146.019769
 20
-212.821512
 30
0.0
 40
15.499984
 50
67.499993
 51
118.656778
  0
ARC
  8
0
  6
BYLAYER
 62
     1
 10
167.832765
 20
-160.160410
 30
0.0
 40
50.000038
 50
224.999955
 51
231.0032
  0
ARC
  8
0
  6
BYLAYER
 62
     1
 10
215.569581
 20
-155.140390
 30
0.0
 40
1.999985
 50
6.004065
 51
65.195017
  0
LINE
  8
0
  6
BYLAYER
 62
     1
 10
114.971902
 20
-151.855021
 30
0.0
 11
114.938959
 21
-152.041849
 31
0.0
  0
LINE
  8
0
  6
BYLAYER
 62
     1
 10
220.346330
 20
-170.435404
 30
0.0
 11
220.313386
 21
-170.622248
 31
0.0
  0
ARC
  8
0
  6
BYLAYER
 62
     1
 10
198.038057
 20
-197.465174
 30
0.0
 40
1.999998
 50
245.352689
 51
308.996501
  0
ARC
  8
0
  6
BYLAYER
 62
     1
 10
189.645708
 20
-212.821558
 30
0.0
 40
15.500011
 50
60.826391
 51
112.499991
  0
CIRCLE
  8
0
  6
BYLAYER
 62
     1
 10
167.832765
 20
-160.160410
 30
0.0
 40
53.499996
  0
CIRCLE
  8
0
  6
BYLAYER
 62
     1
 10
167.832765
 20
-160.160410
 30
0.0
 40
31.0
  0
CIRCLE
  8
0
  6
BYLAYER
 62
     1
 10
167.832765
 20
-160.160410
 30
0.0
 40
34.999985
  0
ARC
  8
0
  6
BYLAYER
 62
     1
 10
220.493913
 20
-138.347483
 30
0.0
 40
15.499958
 50
151.343127
 51
254.743031
  0
ARC
  8
0
  6
BYLAYER
 62
     1
 10
160.107269
 20
-95.874587
 30
0.0
 40
1.724236
 50
270.0
 51
308.795511
  0
ARC
  8
0
  6
BYLAYER
 62
     1
 10
159.940408
 20
-95.696879
 30
0.0
 40
1.967374
 50
309.340351
 51
360.0
  0
ARC
  8
0
  6
BYLAYER
 62
     1
 10
159.940408
 20
-95.696879
 30
0.0
 40
1.967374
 50
0.0
 51
50.659649
  0
ARC
  8
0
  6
BYLAYER
 62
     1
 10
160.107269
 20
-95.519171
 30
0.0
 40
1.724236
 50
51.204489
 51
90.0
  0
ARC
  8
0
  6
BYLAYER
 62
     1
 10
160.107269
 20
-95.519155
 30
0.0
 40
1.724220
 50
90.0
 51
128.795693
  0
ARC
  8
0
  6
BYLAYER
 62
     1
 10
160.274146
 20
-95.696879
 30
0.0
 40
1.967380
 50
129.340576
 51
180.0
  0
ARC
  8
0
  6
BYLAYER
 62
     1
 10
160.274146
 20
-95.696879
 30
0.0
 40
1.967380
 50
180.000000
 51
230.659424
  0
ARC
  8
0
  6
BYLAYER
 62
     1
 10
160.107269
 20
-95.874602
 30
0.0
 40
1.724220
 50
231.204307
 51
270.0
  0
ARC
  8
0
  6
BYLAYER
 62
     1
 10
160.107269
 20
-95.190988
 30
0.0
 40
0.797848
 50
90.0
 51
140.793201
  0
ARC
  8
0
  6
BYLAYER
 62
     1
 10
160.727402
 20
-95.696879
 30
0.0
 40
1.598154
 50
140.793201
 51
180.000000
  0
ARC
  8
0
  6
BYLAYER
 62
     1
 10
160.727392
 20
-95.696879
 30
0.0
 40
1.598144
 50
180.000000
 51
219.206869
  0
ARC
  8
0
  6
BYLAYER
 62
     1
 10
160.107269
 20
-96.202763
 30
0.0
 40
0.797850
 50
219.206869
 51
270.000000
  0
ARC
  8
0
  6
BYLAYER
 62
     1
 10
160.107269
 20
-96.202763
 30
0.0
 40
0.797850
 50
270.0
 51
320.793131
  0
ARC
  8
0
  6
BYLAYER
 62
     1
 10
159.487146
 20
-95.696879
 30
0.0
 40
1.598144
 50
320.793131
 51
360.000000
  0
ARC
  8
0
  6
BYLAYER
 62
     1
 10
159.487136
 20
-95.696879
 30
0.0
 40
1.598154
 50
0.0
 51
39.206799
  0
ARC
  8
0
  6
BYLAYER
 62
     1
 10
160.107269
 20
-95.190988
 30
0.0
 40
0.797848
 50
39.206799
 51
90.000000
  0
LINE
  8
0
  6
BYLAYER
 62
     1
 10
154.198565
 20
-97.472022
 30
0.0
 11
154.198565
 21
-93.871006
 31
0.0
  0
LINE
  8
0
  6
BYLAYER
 62
     1
 10
154.198565
 20
-93.871006
 30
0.0
 11
155.662640
 21
-93.871006
 31
0.0
  0
LINE
  8
0
  6
BYLAYER
 62
     1
 10
155.662640
 20
-93.871006
 30
0.0
 11
156.151230
 21
-95.747599
 31
0.0
  0
LINE
  8
0
  6
BYLAYER
 62
     1
 10
154.198565
 20
-97.472022
 30
0.0
 11
155.077691
 21
-97.472022
 31
0.0
  0
LINE
  8
0
  6
BYLAYER
 62
     1
 10
155.077691
 20
-97.472022
 30
0.0
 11
155.077691
 21
-95.392567
 31
0.0
  0
LINE
  8
0
  6
BYLAYER
 62
     1
 10
155.770837
 20
-97.472022
 30
0.0
 11
155.077691
 21
-95.392567
 31
0.0
  0
LINE
  8
0
  6
BYLAYER
 62
     1
 10
158.103894
 20
-97.472022
 30
0.0
 11
158.103894
 21
-93.871006
 31
0.0
  0
LINE
  8
0
  6
BYLAYER
 62
     1
 10
158.103894
 20
-93.871006
 30
0.0
 11
156.639819
 21
-93.871006
 31
0.0
  0
LINE
  8
0
  6
BYLAYER
 62
     1
 10
156.639819
 20
-93.871006
 30
0.0
 11
156.151230
 21
-95.747599
 31
0.0
  0
LINE
  8
0
  6
BYLAYER
 62
     1
 10
158.103894
 20
-97.472022
 30
0.0
 11
157.224768
 21
-97.472022
 31
0.0
  0
LINE
  8
0
  6
BYLAYER
 62
     1
 10
157.224768
 20
-97.472022
 30
0.0
 11
157.224768
 21
-95.392567
 31
0.0
  0
LINE
  8
0
  6
BYLAYER
 62
     1
 10
156.531622
 20
-97.472022
 30
0.0
 11
157.224768
 21
-95.392567
 31
0.0
  0
LINE
  8
0
  6
BYLAYER
 62
     1
 10
156.531622
 20
-97.472022
 30
0.0
 11
155.770837
 21
-97.472022
 31
0.0
  0
LINE
  8
0
  6
BYLAYER
 62
     1
 10
170.986398
 20
-97.472022
 30
0.0
 11
172.355789
 21
-93.871006
 31
0.0
  0
LINE
  8
0
  6
BYLAYER
 62
     1
 10
170.986398
 20
-97.472022
 30
0.0
 11
172.152926
 21
-97.472022
 31
0.0
  0
LINE
  8
0
  6
BYLAYER
 62
     1
 10
172.355789
 20
-93.871006
 30
0.0
 11
173.471597
 21
-93.871006
 31
0.0
  0
LINE
  8
0
  6
BYLAYER
 62
     1
 10
172.152926
 20
-97.472022
 30
0.0
 11
172.325833
 21
-96.964838
 31
0.0
  0
LINE
  8
0
  6
BYLAYER
 62
     1
 10
172.602468
 20
-96.153343
 30
0.0
 11
172.913693
 21
-95.240406
 31
0.0
  0
LINE
  8
0
  6
BYLAYER
 62
     1
 10
174.841006
 20
-97.472022
 30
0.0
 11
173.471597
 21
-93.871006
 31
0.0
  0
LINE
  8
0
  6
BYLAYER
 62
     1
 10
174.841006
 20
-97.472022
 30
0.0
 11
173.674478
 21
-97.472022
 31
0.0
  0
LINE
  8
0
  6
BYLAYER
 62
     1
 10
173.501571
 20
-96.964838
 30
0.0
 11
172.325833
 21
-96.964838
 31
0.0
  0
LINE
  8
0
  6
BYLAYER
 62
     1
 10
173.224917
 20
-96.153343
 30
0.0
 11
172.602468
 21
-96.153343
 31
0.0
  0
LINE
  8
0
  6
BYLAYER
 62
     1
 10
173.674478
 20
-97.472022
 30
0.0
 11
173.501571
 21
-96.964838
 31
0.0
  0
LINE
  8
0
  6
BYLAYER
 62
     1
 10
173.224917
 20
-96.153343
 30
0.0
 11
172.913693
 21
-95.240406
 31
0.0
  0
LINE
  8
0
  6
BYLAYER
 62
     1
 10
161.907782
 20
-94.758582
 30
0.0
 11
162.922149
 21
-94.758582
 31
0.0
  0
LINE
  8
0
  6
BYLAYER
 62
     1
 10
162.922149
 20
-94.758582
 30
0.0
 11
162.922149
 21
-97.472022
 31
0.0
  0
LINE
  8
0
  6
BYLAYER
 62
     1
 10
162.922149
 20
-97.472022
 30
0.0
 11
164.037967
 21
-97.472022
 31
0.0
  0
LINE
  8
0
  6
BYLAYER
 62
     1
 10
164.037967
 20
-97.472022
 30
0.0
 11
164.037967
 21
-94.758582
 31
0.0
  0
LINE
  8
0
  6
BYLAYER
 62
     1
 10
164.037967
 20
-94.758582
 30
0.0
 11
165.052334
 21
-94.758582
 31
0.0
  0
LINE
  8
0
  6
BYLAYER
 62
     1
 10
165.052334
 20
-94.758582
 30
0.0
 11
165.052334
 21
-93.871006
 31
0.0
  0
LINE
  8
0
  6
BYLAYER
 62
     1
 10
165.052334
 20
-93.871006
 30
0.0
 11
161.907782
 21
-93.871006
 31
0.0
  0
LINE
  8
0
  6
BYLAYER
 62
     1
 10
161.907782
 20
-93.871006
 30
0.0
 11
161.907782
 21
-94.758582
 31
0.0
  0
ARC
  8
0
  6
BYLAYER
 62
     1
 10
166.852838
 20
-95.874602
 30
0.0
 40
1.724220
 50
270.0
 51
308.795693
  0
ARC
  8
0
  6
BYLAYER
 62
     1
 10
166.685961
 20
-95.696879
 30
0.0
 40
1.967380
 50
309.340576
 51
360.0
  0
ARC
  8
0
  6
BYLAYER
 62
     1
 10
166.685967
 20
-95.696879
 30
0.0
 40
1.967374
 50
0.0
 51
50.659649
  0
ARC
  8
0
  6
BYLAYER
 62
     1
 10
166.852829
 20
-95.519171
 30
0.0
 40
1.724236
 50
51.204489
 51
90.0
  0
ARC
  8
0
  6
BYLAYER
 62
     1
 10
166.852829
 20
-95.519155
 30
0.0
 40
1.724220
 50
90.0
 51
128.795693
  0
ARC
  8
0
  6
BYLAYER
 62
     1
 10
167.019705
 20
-95.696879
 30
0.0
 40
1.967380
 50
129.340576
 51
180.0
  0
ARC
  8
0
  6
BYLAYER
 62
     1
 10
167.019699
 20
-95.696879
 30
0.0
 40
1.967374
 50
180.000000
 51
230.659649
  0
ARC
  8
0
  6
BYLAYER
 62
     1
 10
166.852838
 20
-95.874587
 30
0.0
 40
1.724236
 50
231.204489
 51
270.0
  0
ARC
  8
0
  6
BYLAYER
 62
     1
 10
166.852829
 20
-95.190988
 30
0.0
 40
0.797848
 50
90.0
 51
140.793201
  0
ARC
  8
0
  6
BYLAYER
 62
     1
 10
167.472961
 20
-95.696879
 30
0.0
 40
1.598154
 50
140.793201
 51
180.0
  0
ARC
  8
0
  6
BYLAYER
 62
     1
 10
167.472941
 20
-95.696879
 30
0.0
 40
1.598134
 50
180.000000
 51
219.207055
  0
ARC
  8
0
  6
BYLAYER
 62
     1
 10
166.852838
 20
-96.202750
 30
0.0
 40
0.797863
 50
219.207055
 51
270.0
  0
ARC
  8
0
  6
BYLAYER
 62
     1
 10
166.852838
 20
-96.202763
 30
0.0
 40
0.797850
 50
270.0
 51
320.793131
  0
ARC
  8
0
  6
BYLAYER
 62
     1
 10
166.232715
 20
-95.696879
 30
0.0
 40
1.598144
 50
320.793131
 51
360.0
  0
ARC
  8
0
  6
BYLAYER
 62
     1
 10
166.232716
 20
-95.696879
 30
0.0
 40
1.598143
 50
0.0
 51
39.206985
  0
ARC
  8
0
  6
BYLAYER
 62
     1
 10
166.852829
 20
-95.191001
 30
0.0
 40
0.797861
 50
39.206985
 51
90.0
  0
LINE
  8
0
  6
BYLAYER
 62
     1
 10
174.938198
 20
-97.472022
 30
0.0
 11
174.938198
 21
-93.871006
 31
0.0
  0
LINE
  8
0
  6
BYLAYER
 62
     1
 10
174.938198
 20
-93.871006
 30
0.0
 11
177.169805
 21
-93.871006
 31
0.0
  0
ARC
  8
0
  6
BYLAYER
 62
     1
 10
177.169805
 20
-94.885383
 30
0.0
 40
1.014366
 50
287.134650
 51
450.000006
  0
ARC
  8
0
  6
BYLAYER
 62
     1
 10
177.372686
 20
-96.660526
 30
0.0
 40
0.811496
 50
0.0
 51
83.207557
  0
LINE
  8
0
  6
BYLAYER
 62
     1
 10
178.184182
 20
-96.660526
 30
0.0
 11
178.184182
 21
-97.167710
 31
0.0
  0
ARC
  8
0
  6
BYLAYER
 62
     1
 10
178.995678
 20
-97.167710
 30
0.0
 40
0.811496
 50
180.000000
 51
202.024314
  0
LINE
  8
0
  6
BYLAYER
 62
     1
 10
177.127590
 20
-97.472022
 30
0.0
 11
178.243398
 21
-97.472022
 31
0.0
  0
ARC
  8
0
  6
BYLAYER
 62
     1
 10
177.879870
 20
-97.167710
 30
0.0
 40
0.811496
 50
180.000000
 51
202.024314
  0
LINE
  8
0
  6
BYLAYER
 62
     1
 10
177.068374
 20
-97.167710
 30
0.0
 11
177.068374
 21
-96.761967
 31
0.0
  0
LINE
  8
0
  6
BYLAYER
 62
     1
 10
174.938198
 20
-97.472022
 30
0.0
 11
176.003286
 21
-97.472022
 31
0.0
  0
LINE
  8
0
  6
BYLAYER
 62
     1
 10
176.003286
 20
-97.472022
 30
0.0
 11
176.003286
 21
-96.254783
 31
0.0
  0
LINE
  8
0
  6
BYLAYER
 62
     1
 10
176.561190
 20
-96.254783
 30
0.0
 11
176.003286
 21
-96.254783
 31
0.0
  0
ARC
  8
0
  6
BYLAYER
 62
     1
 10
176.561190
 20
-96.761967
 30
0.0
 40
0.507184
 50
0.0
 51
90.000003
  0
LINE
  8
0
  6
BYLAYER
 62
     1
 10
176.003286
 20
-95.443287
 30
0.0
 11
176.003286
 21
-94.682502
 31
0.0
  0
LINE
  8
0
  6
BYLAYER
 62
     1
 10
176.003286
 20
-94.682502
 30
0.0
 11
176.713342
 21
-94.682502
 31
0.0
  0
LINE
  8
0
  6
BYLAYER
 62
     1
 10
176.003286
 20
-95.443287
 30
0.0
 11
176.713342
 21
-95.443287
 31
0.0
  0
ARC
  8
0
  6
BYLAYER
 62
     1
 10
176.713342
 20
-95.062895
 30
0.0
 40
0.380392
 50
270.0
 51
450.000005
  0
LINE
  8
0
  6
BYLAYER
 62
     1
 10
170.098831
 20
-96.333344
 30
0.0
 11
169.439486
 21
-93.871006
 31
0.0
  0
LINE
  8
0
  6
BYLAYER
 62
     1
 10
169.439486
 20
-93.871006
 30
0.0
 11
168.374398
 21
-93.871006
 31
0.0
  0
LINE
  8
0
  6
BYLAYER
 62
     1
 10
168.374398
 20
-93.871006
 30
0.0
 11
169.490206
 21
-97.472022
 31
0.0
  0
LINE
  8
0
  6
BYLAYER
 62
     1
 10
170.098831
 20
-96.333344
 30
0.0
 11
170.758157
 21
-93.871006
 31
0.0
  0
LINE
  8
0
  6
BYLAYER
 62
     1
 10
170.758157
 20
-93.871006
 30
0.0
 11
171.823245
 21
-93.871006
 31
0.0
  0
LINE
  8
0
  6
BYLAYER
 62
     1
 10
171.823245
 20
-93.871006
 30
0.0
 11
170.707437
 21
-97.472022
 31
0.0
  0
LINE
  8
0
  6
BYLAYER
 62
     1
 10
170.707437
 20
-97.472022
 30
0.0
 11
169.490206
 21
-97.472022
 31
0.0
  0
LINE
  8
0
  6
BYLAYER
 62
     1
 10
178.340591
 20
-97.472022
 30
0.0
 11
179.405679
 21
-97.472022
 31
0.0
  0
LINE
  8
0
  6
BYLAYER
 62
     1
 10
179.405679
 20
-97.472022
 30
0.0
 11
179.405679
 21
-93.871006
 31
0.0
  0
LINE
  8
0
  6
BYLAYER
 62
     1
 10
179.405679
 20
-93.871006
 30
0.0
 11
178.340591
 21
-93.871006
 31
0.0
  0
LINE
  8
0
  6
BYLAYER
 62
     1
 10
178.340591
 20
-93.871006
 30
0.0
 11
178.340591
 21
-97.472022
 31
0.0
  0
ARC
  8
0
  6
BYLAYER
 62
     1
 10
181.409063
 20
-95.874602
 30
0.0
 40
1.724220
 50
270.0
 51
308.795693
  0
ARC
  8
0
  6
BYLAYER
 62
     1
 10
181.242186
 20
-95.696879
 30
0.0
 40
1.967380
 50
309.340576
 51
360.0
  0
ARC
  8
0
  6
BYLAYER
 62
     1
 10
181.242186
 20
-95.696879
 30
0.0
 40
1.967380
 50
0.0
 51
50.659424
  0
ARC
  8
0
  6
BYLAYER
 62
     1
 10
181.409063
 20
-95.519155
 30
0.0
 40
1.724220
 50
51.204307
 51
90.0
  0
ARC
  8
0
  6
BYLAYER
 62
     1
 10
181.409063
 20
-95.519155
 30
0.0
 40
1.724220
 50
90.0
 51
128.795693
  0
ARC
  8
0
  6
BYLAYER
 62
     1
 10
181.575940
 20
-95.696879
 30
0.0
 40
1.967380
 50
129.340576
 51
180.0
  0
ARC
  8
0
  6
BYLAYER
 62
     1
 10
181.575940
 20
-95.696879
 30
0.0
 40
1.967380
 50
180.000000
 51
230.659424
  0
ARC
  8
0
  6
BYLAYER
 62
     1
 10
181.409063
 20
-95.874602
 30
0.0
 40
1.724220
 50
231.204307
 51
270.0
  0
ARC
  8
0
  6
BYLAYER
 62
     1
 10
181.409063
 20
-95.190988
 30
0.0
 40
0.797848
 50
39.206799
 51
90.0
  0
ARC
  8
0
  6
BYLAYER
 62
     1
 10
180.788930
 20
-95.696879
 30
0.0
 40
1.598154
 50
0.0
 51
39.206799
  0
ARC
  8
0
  6
BYLAYER
 62
     1
 10
180.788940
 20
-95.696879
 30
0.0
 40
1.598144
 50
320.793131
 51
360.000000
  0
ARC
  8
0
  6
BYLAYER
 62
     1
 10
181.409063
 20
-96.202763
 30
0.0
 40
0.797850
 50
270.0
 51
320.793131
  0
ARC
  8
0
  6
BYLAYER
 62
     1
 10
181.409063
 20
-96.202763
 30
0.0
 40
0.797850
 50
219.206869
 51
270.000000
  0
ARC
  8
0
  6
BYLAYER
 62
     1
 10
182.029186
 20
-95.696879
 30
0.0
 40
1.598144
 50
180.000000
 51
219.206869
  0
ARC
  8
0
  6
BYLAYER
 62
     1
 10
182.029196
 20
-95.696879
 30
0.0
 40
1.598154
 50
140.793201
 51
180.0
  0
ARC
  8
0
  6
BYLAYER
 62
     1
 10
181.409063
 20
-95.190988
 30
0.0
 40
0.797848
 50
90.0
 51
140.793201
  0
LINE
  8
0
  6
BYLAYER
 62
     1
 10
178.355679
 20
-93.871006
 30
0.0
 11
178.355679
 21
-97.472022
 31
0.0
  0
ARC
  8
0
  6
BYLAYER
 62
     1
 10
163.425946
 20
-89.748570
 30
0.0
 40
4.457997
 50
174.535650
 51
180.000000
  0
LINE
  8
0
  6
BYLAYER
 62
     1
 10
158.988206
 20
-89.324049
 30
0.0
 11
158.988206
 21
-89.324044
 31
0.0
  0
LINE
  8
0
  6
BYLAYER
 62
     1
 10
158.993057
 20
-89.276090
 30
0.0
 11
159.418519
 21
-89.096965
 31
0.0
  0
ARC
  8
0
  6
BYLAYER
 62
     1
 10
163.425964
 20
-89.748606
 30
0.0
 40
4.060069
 50
159.235383
 51
170.763998
  0
LINE
  8
0
  6
BYLAYER
 62
     1
 10
159.629599
 20
-88.309167
 30
0.0
 11
159.350720
 21
-87.941299
 31
0.0
  0
ARC
  8
0
  6
BYLAYER
 62
     1
 10
163.425946
 20
-89.748570
 30
0.0
 40
4.457992
 50
144.139514
 51
156.083795
  0
LINE
  8
0
  6
BYLAYER
 62
     1
 10
159.783667
 20
-87.178053
 30
0.0
 11
159.783932
 21
-87.177677
 31
0.0
  0
LINE
  8
0
  6
BYLAYER
 62
     1
 10
159.812985
 20
-87.137017
 30
0.0
 11
160.265940
 21
-87.199336
 31
0.0
  0
ARC
  8
0
  6
BYLAYER
 62
     1
 10
163.425946
 20
-89.748570
 30
0.0
 40
4.060044
 50
129.235643
 51
141.105976
  0
LINE
  8
0
  6
BYLAYER
 62
     1
 10
160.791534
 20
-86.659255
 30
0.0
 11
160.791974
 21
-86.658875
 31
0.0
  0
LINE
  8
0
  6
BYLAYER
 62
     1
 10
160.857922
 20
-86.603857
 30
0.0
 11
160.800326
 21
-86.145814
 31
0.0
  0
ARC
  8
0
  6
BYLAYER
 62
     1
 10
163.425946
 20
-89.748570
 30
0.0
 40
4.457996
 50
114.139607
 51
126.083853
  0
LINE
  8
0
  6
BYLAYER
 62
     1
 10
161.557217
 20
-85.701151
 30
0.0
 11
161.557519
 21
-85.701010
 31
0.0
  0
LINE
  8
0
  6
BYLAYER
 62
     1
 10
161.602797
 20
-85.680417
 30
0.0
 11
161.963895
 21
-85.960854
 31
0.0
  0
LINE
  8
0
  6
BYLAYER
 62
     1
 10
162.046457
 20
-85.930061
 30
0.0
 11
162.046914
 21
-85.929901
 31
0.0
  0
ARC
  8
0
  6
BYLAYER
 62
     1
 10
163.425946
 20
-89.748570
 30
0.0
 40
4.060043
 50
99.235601
 51
111.106038
  0
ARC
  8
0
  6
BYLAYER
 62
     1
 10
163.425946
 20
-89.748570
 30
0.0
 40
4.457997
 50
90.0
 51
96.083892
  0
LINE
  8
0
  6
BYLAYER
 62
     1
 10
162.953467
 20
-85.315681
 30
0.0
 11
162.774331
 21
-85.741158
 31
0.0
  0
LINE
  8
0
  6
BYLAYER
 62
     1
 10
167.863681
 20
-89.324049
 30
0.0
 11
167.863681
 21
-89.324044
 31
0.0
  0
LINE
  8
0
  6
BYLAYER
 62
     1
 10
167.858834
 20
-89.276090
 30
0.0
 11
167.433351
 21
-89.096961
 31
0.0
  0
ARC
  8
0
  6
BYLAYER
 62
     1
 10
163.425918
 20
-89.748606
 30
0.0
 40
4.060069
 50
9.235986
 51
20.764650
  0
LINE
  8
0
  6
BYLAYER
 62
     1
 10
167.222313
 20
-88.309125
 30
0.0
 11
167.501172
 21
-87.941300
 31
0.0
  0
ARC
  8
0
  6
BYLAYER
 62
     1
 10
163.425946
 20
-89.748570
 30
0.0
 40
4.457992
 50
23.916189
 51
35.860484
  0
LINE
  8
0
  6
BYLAYER
 62
     1
 10
167.068216
 20
-87.178053
 30
0.0
 11
167.067950
 21
-87.177677
 31
0.0
  0
LINE
  8
0
  6
BYLAYER
 62
     1
 10
167.038907
 20
-87.137018
 30
0.0
 11
166.585983
 21
-87.199330
 31
0.0
  0
ARC
  8
0
  6
BYLAYER
 62
     1
 10
163.425946
 20
-89.748570
 30
0.0
 40
4.060044
 50
38.894050
 51
50.764315
  0
LINE
  8
0
  6
BYLAYER
 62
     1
 10
166.060357
 20
-86.659255
 30
0.0
 11
166.059918
 21
-86.658875
 31
0.0
  0
LINE
  8
0
  6
BYLAYER
 62
     1
 10
165.993981
 20
-86.603784
 30
0.0
 11
166.051556
 21
-86.145807
 31
0.0
  0
ARC
  8
0
  6
BYLAYER
 62
     1
 10
163.425946
 20
-89.748570
 30
0.0
 40
4.457996
 50
53.916300
 51
65.860381
  0
LINE
  8
0
  6
BYLAYER
 62
     1
 10
165.294674
 20
-85.701151
 30
0.0
 11
165.294363
 21
-85.701010
 31
0.0
  0
LINE
  8
0
  6
BYLAYER
 62
     1
 10
165.249095
 20
-85.680418
 30
0.0
 11
164.888001
 21
-85.960842
 31
0.0
  0
LINE
  8
0
  6
BYLAYER
 62
     1
 10
164.805426
 20
-85.930061
 30
0.0
 11
164.804977
 21
-85.929901
 31
0.0
  0
ARC
  8
0
  6
BYLAYER
 62
     1
 10
163.425946
 20
-89.748570
 30
0.0
 40
4.060043
 50
68.894081
 51
80.764578
  0
ARC
  8
0
  6
BYLAYER
 62
     1
 10
163.425946
 20
-89.748570
 30
0.0
 40
4.457997
 50
84.535428
 51
90.000003
  0
LINE
  8
0
  6
BYLAYER
 62
     1
 10
163.898426
 20
-85.315681
 30
0.0
 11
164.077518
 21
-85.741085
 31
0.0
  0
ARC
  8
0
  6
BYLAYER
 62
     1
 10
163.425946
 20
-89.748570
 30
0.0
 40
4.457997
 50
180.000000
 51
186.083899
  0
LINE
  8
0
  6
BYLAYER
 62
     1
 10
158.988206
 20
-90.173086
 30
0.0
 11
158.988206
 21
-90.173095
 31
0.0
  0
LINE
  8
0
  6
BYLAYER
 62
     1
 10
158.993057
 20
-90.221049
 30
0.0
 11
159.418532
 21
-90.400180
 31
0.0
  0
ARC
  8
0
  6
BYLAYER
 62
     1
 10
163.425964
 20
-89.748533
 30
0.0
 40
4.060069
 50
189.236002
 51
200.764629
  0
LINE
  8
0
  6
BYLAYER
 62
     1
 10
159.629614
 20
-91.187954
 30
0.0
 11
159.350718
 21
-91.555837
 31
0.0
  0
ARC
  8
0
  6
BYLAYER
 62
     1
 10
163.425946
 20
-89.748570
 30
0.0
 40
4.457992
 50
203.916158
 51
215.860410
  0
LINE
  8
0
  6
BYLAYER
 62
     1
 10
159.783667
 20
-92.319082
 30
0.0
 11
159.783932
 21
-92.319457
 31
0.0
  0
LINE
  8
0
  6
BYLAYER
 62
     1
 10
159.812981
 20
-92.360117
 30
0.0
 11
160.265979
 21
-92.297799
 31
0.0
  0
ARC
  8
0
  6
BYLAYER
 62
     1
 10
163.425946
 20
-89.748570
 30
0.0
 40
4.060044
 50
218.894045
 51
230.764345
  0
LINE
  8
0
  6
BYLAYER
 62
     1
 10
160.791534
 20
-92.837879
 30
0.0
 11
160.791974
 21
-92.838259
 31
0.0
  0
LINE
  8
0
  6
BYLAYER
 62
     1
 10
160.857921
 20
-92.893281
 30
0.0
 11
160.800326
 21
-93.351326
 31
0.0
  0
ARC
  8
0
  6
BYLAYER
 62
     1
 10
163.425946
 20
-89.748570
 30
0.0
 40
4.457996
 50
233.916148
 51
245.860401
  0
LINE
  8
0
  6
BYLAYER
 62
     1
 10
161.557217
 20
-93.795983
 30
0.0
 11
161.557519
 21
-93.796130
 31
0.0
  0
LINE
  8
0
  6
BYLAYER
 62
     1
 10
161.602798
 20
-93.816722
 30
0.0
 11
161.963938
 21
-93.536246
 31
0.0
  0
LINE
  8
0
  6
BYLAYER
 62
     1
 10
162.046457
 20
-93.567074
 30
0.0
 11
162.046914
 21
-93.567239
 31
0.0
  0
LINE
  8
0
  6
BYLAYER
 62
     1
 10
167.863681
 20
-90.173086
 30
0.0
 11
167.863681
 21
-90.173095
 31
0.0
  0
LINE
  8
0
  6
BYLAYER
 62
     1
 10
167.858833
 20
-90.221050
 30
0.0
 11
167.433351
 21
-90.400179
 31
0.0
  0
LINE
  8
0
  6
BYLAYER
 62
     1
 10
167.222273
 20
-91.187964
 30
0.0
 11
167.501176
 21
-91.555840
 31
0.0
  0
LINE
  8
0
  6
BYLAYER
 62
     1
 10
167.068216
 20
-92.319082
 30
0.0
 11
167.067950
 21
-92.319457
 31
0.0
  0
LINE
  8
0
  6
BYLAYER
 62
     1
 10
167.038915
 20
-92.360117
 30
0.0
 11
166.585888
 21
-92.297797
 31
0.0
  0
LINE
  8
0
  6
BYLAYER
 62
     1
 10
166.060357
 20
-92.837879
 30
0.0
 11
166.059918
 21
-92.838259
 31
0.0
  0
LINE
  8
0
  6
BYLAYER
 62
     1
 10
165.993972
 20
-92.893279
 30
0.0
 11
166.051556
 21
-93.351333
 31
0.0
  0
LINE
  8
0
  6
BYLAYER
 62
     1
 10
165.249094
 20
-93.816722
 30
0.0
 11
164.887946
 21
-93.536249
 31
0.0
  0
ARC
  8
0
  6
BYLAYER
 62
     1
 10
163.425946
 20
-89.748570
 30
0.0
 40
4.060044
 50
309.235697
 51
321.105929
  0
ARC
  8
0
  6
BYLAYER
 62
     1
 10
163.425946
 20
-89.748570
 30
0.0
 40
4.060043
 50
248.893873
 51
259.502886
  0
ARC
  8
0
  6
BYLAYER
 62
     1
 10
163.425946
 20
-89.748570
 30
0.0
 40
4.457996
 50
294.783232
 51
306.083699
  0
LINE
  8
0
  6
BYLAYER
 62
     1
 10
165.294363
 20
-93.796130
 30
0.0
 11
165.249369
 21
-93.817303
 31
0.0
  0
ARC
  8
0
  6
BYLAYER
 62
     1
 10
163.425946
 20
-89.748570
 30
0.0
 40
4.457992
 50
324.139593
 51
336.083825
  0
ARC
  8
0
  6
BYLAYER
 62
     1
 10
163.425918
 20
-89.748533
 30
0.0
 40
4.060069
 50
339.235210
 51
350.764014
  0
ARC
  8
0
  6
BYLAYER
 62
     1
 10
163.425946
 20
-89.748570
 30
0.0
 40
4.457997
 50
353.916089
 51
360.000000
  0
ARC
  8
0
  6
BYLAYER
 62
     1
 10
163.425946
 20
-89.748570
 30
0.0
 40
4.457997
 50
0.0
 51
6.083907
  0
CIRCLE
  8
0
  6
BYLAYER
 62
     1
 10
163.425946
 20
-89.748570
 30
0.0
 40
3.446307
  0
CIRCLE
  8
0
  6
BYLAYER
 62
     1
 10
163.425946
 20
-89.748570
 30
0.0
 40
2.649296
  0
ARC
  8
0
  6
BYLAYER
 62
     1
 10
163.425946
 20
-89.748570
 30
0.0
 40
4.060043
 50
259.503601
 51
291.106008
  0
LINE
  8
0
  6
BYLAYER
 62
     1
 10
167.832765
 20
-160.160410
 30
0.0
 11
164.832765
 21
-160.160410
 31
0.0
  0
LINE
  8
0
  6
BYLAYER
 62
     1
 10
167.832765
 20
-160.160410
 30
0.0
 11
167.832765
 21
-163.160410
 31
0.0
  0
LINE
  8
0
  6
BYLAYER
 62
     1
 10
167.832765
 20
-160.160410
 30
0.0
 11
170.832765
 21
-160.160410
 31
0.0
  0
LINE
  8
0
  6
BYLAYER
 62
     1
 10
167.832765
 20
-160.160410
 30
0.0
 11
167.832765
 21
-157.160410
 31
0.0
  0
LINE
  8
0
  6
BYLAYER
 62
     1
 10
661.332765
 20
-416.160410
 30
0.0
 11
661.332765
 21
-446.160410
 31
0.0
  0
LINE
  8
0
  6
BYLAYER
 62
     1
 10
661.332765
 20
-446.160410
 30
0.0
 11
662.832765
 21
-447.660410
 31
0.0
  0
LINE
  8
0
  6
BYLAYER
 62
     1
 10
661.332765
 20
-416.160410
 30
0.0
 11
679.332765
 21
-416.160410
 31
0.0
  0
LINE
  8
0
  6
BYLAYER
 62
     1
 10
661.332765
 20
-560.160471
 30
0.0
 11
679.332765
 21
-560.160471
 31
0.0
  0
CIRCLE
  8
0
  6
BYLAYER
 62
     1
 10
738.832765
 20
-436.160410
 30
0.0
 40
4.25
  0
CIRCLE
  8
0
  6
BYLAYER
 62
     1
 10
738.832765
 20
-540.160471
 30
0.0
 40
4.25
  0
LINE
  8
0
  6
BYLAYER
 62
     1
 10
657.832765
 20
-466.160410
 30
0.0
 11
658.832765
 21
-465.160410
 31
0.0
  0
LINE
  8
0
  6
BYLAYER
 62
     1
 10
658.832765
 20
-465.160410
 30
0.0
 11
660.332765
 21
-465.160410
 31
0.0
  0
LINE
  8
0
  6
BYLAYER
 62
     1
 10
660.332765
 20
-535.160471
 30
0.0
 11
658.832765
 21
-535.160471
 31
0.0
  0
LINE
  8
0
  6
BYLAYER
 62
     1
 10
658.832765
 20
-535.160471
 30
0.0
 11
657.832765
 21
-534.160471
 31
0.0
  0
LINE
  8
0
  6
BYLAYER
 62
     1
 10
657.832765
 20
-534.160471
 30
0.0
 11
657.832765
 21
-466.160410
 31
0.0
  0
LINE
  8
0
  6
BYLAYER
 62
     1
 10
662.832765
 20
-450.073130
 30
0.0
 11
660.332765
 21
-450.160410
 31
0.0
  0
LINE
  8
0
  6
BYLAYER
 62
     1
 10
661.332765
 20
-550.195505
 30
0.0
 11
660.332765
 21
-550.160471
 31
0.0
  0
LINE
  8
0
  6
BYLAYER
 62
     1
 10
661.332765
 20
-550.195383
 30
0.0
 11
660.332765
 21
-550.160471
 31
0.0
  0
CIRCLE
  8
0
  6
BYLAYER
 62
     1
 10
668.832765
 20
-540.160471
 30
0.0
 40
4.25
  0
LINE
  8
0
  6
BYLAYER
 62
     1
 10
661.332765
 20
-530.160471
 30
0.0
 11
662.832765
 21
-528.660471
 31
0.0
  0
LINE
  8
0
  6
BYLAYER
 62
     1
 10
661.332765
 20
-530.160471
 30
0.0
 11
661.332765
 21
-560.160471
 31
0.0
  0
LINE
  8
0
  6
BYLAYER
 62
     1
 10
662.832765
 20
-528.660471
 30
0.0
 11
662.832765
 21
-447.660410
 31
0.0
  0
LINE
  8
0
  6
BYLAYER
 62
     1
 10
661.332765
 20
-530.160471
 30
0.0
 11
679.332765
 21
-530.160471
 31
0.0
  0
LINE
  8
0
  6
BYLAYER
 62
     1
 10
662.832765
 20
-528.660471
 30
0.0
 11
679.332765
 21
-528.660471
 31
0.0
  0
LINE
  8
0
  6
BYLAYER
 62
     1
 10
660.332765
 20
-450.160410
 30
0.0
 11
660.332765
 21
-550.160471
 31
0.0
  0
LINE
  8
0
  6
BYLAYER
 62
     1
 10
728.332765
 20
-417.660410
 30
0.0
 11
679.332765
 21
-417.660410
 31
0.0
  0
CIRCLE
  8
0
  6
BYLAYER
 62
     1
 10
703.832765
 20
-450.160410
 30
0.0
 40
23.5
  0
CIRCLE
  8
0
  6
BYLAYER
 62
     1
 10
725.045900
 20
-428.947214
 30
0.0
 40
2.5
  0
CIRCLE
  8
0
  6
BYLAYER
 62
     1
 10
682.619508
 20
-428.947245
 30
0.0
 40
2.5
  0
CIRCLE
  8
0
  6
BYLAYER
 62
     1
 10
682.619508
 20
-471.373606
 30
0.0
 40
2.5
  0
CIRCLE
  8
0
  6
BYLAYER
 62
     1
 10
725.045900
 20
-471.373636
 30
0.0
 40
2.5
  0
LINE
  8
0
  6
BYLAYER
 62
     1
 10
679.332765
 20
-422.066538
 30
0.0
 11
679.332765
 21
-416.160410
 31
0.0
  0
ARC
  8
0
  6
BYLAYER
 62
     1
 10
681.332765
 20
-422.066538
 30
0.0
 40
2.0
 50
180.000000
 51
280.592963
  0
LINE
  8
0
  6
BYLAYER
 62
     1
 10
728.332765
 20
-422.066507
 30
0.0
 11
728.332765
 21
-416.160410
 31
0.0
  0
ARC
  8
0
  6
BYLAYER
 62
     1
 10
726.332765
 20
-422.066507
 30
0.0
 40
1.999999
 50
259.407470
 51
360.000003
  0
LINE
  8
0
  6
BYLAYER
 62
     1
 10
679.332765
 20
-475.141489
 30
0.0
 11
679.332765
 21
-560.160471
 31
0.0
  0
LINE
  8
0
  6
BYLAYER
 62
     1
 10
728.332765
 20
-560.160471
 30
0.0
 11
728.332765
 21
-475.141489
 31
0.0
  0
LINE
  8
0
  6
BYLAYER
 62
     1
 10
674.901857
 20
-446.160410
 30
0.0
 11
661.332765
 21
-446.160410
 31
0.0
  0
ARC
  8
0
  6
BYLAYER
 62
     1
 10
674.901857
 20
-448.160410
 30
0.0
 40
2.000000
 50
356.045188
 51
450.000000
  0
ARC
  8
0
  6
BYLAYER
 62
     1
 10
682.619508
 20
-428.947245
 30
0.0
 40
5.000019
 50
30.099438
 51
100.592680
  0
ARC
  8
0
  6
BYLAYER
 62
     1
 10
688.675661
 20
-425.436716
 30
0.0
 40
2.000038
 50
210.099802
 51
301.510887
  0
ARC
  8
0
  6
BYLAYER
 62
     1
 10
703.832765
 20
-450.160410
 30
0.0
 40
27.000027
 50
58.489253
 51
121.510841
  0
ARC
  8
0
  6
BYLAYER
 62
     1
 10
725.045900
 20
-428.947214
 30
0.0
 40
5.000012
 50
79.406980
 51
149.900563
  0
ARC
  8
0
  6
BYLAYER
 62
     1
 10
718.989869
 20
-425.436686
 30
0.0
 40
1.999980
 50
238.489114
 51
329.900186
  0
ARC
  8
0
  6
BYLAYER
 62
     1
 10
732.763673
 20
-448.160410
 30
0.0
 40
2.000002
 50
90.0
 51
183.954805
  0
ARC
  8
0
  6
BYLAYER
 62
     1
 10
718.989869
 20
-474.884165
 30
0.0
 40
2.000006
 50
30.099804
 51
121.510418
  0
ARC
  8
0
  6
BYLAYER
 62
     1
 10
725.045900
 20
-471.373636
 30
0.0
 40
4.999913
 50
210.099433
 51
419.900564
  0
ARC
  8
0
  6
BYLAYER
 62
     1
 10
703.832765
 20
-450.160410
 30
0.0
 40
26.999949
 50
328.489151
 51
363.954556
  0
ARC
  8
0
  6
BYLAYER
 62
     1
 10
728.556398
 20
-465.317545
 30
0.0
 40
1.999966
 50
148.489119
 51
239.900204
  0
ARC
  8
0
  6
BYLAYER
 62
     1
 10
688.675661
 20
-474.884104
 30
0.0
 40
2.000022
 50
58.489123
 51
149.900960
  0
ARC
  8
0
  6
BYLAYER
 62
     1
 10
682.619508
 20
-471.373606
 30
0.0
 40
4.999962
 50
120.099437
 51
329.900650
  0
ARC
  8
0
  6
BYLAYER
 62
     1
 10
703.832765
 20
-450.160410
 30
0.0
 40
26.999954
 50
176.045448
 51
211.510769
  0
ARC
  8
0
  6
BYLAYER
 62
     1
 10
679.109010
 20
-465.317514
 30
0.0
 40
2.000027
 50
300.099415
 51
391.510651
  0
LINE
  8
0
  6
BYLAYER
 62
     1
 10
662.832765
 20
-447.660410
 30
0.0
 11
676.838348
 21
-447.660410
 31
0.0
  0
CIRCLE
  8
0
  6
BYLAYER
 62
     1
 10
668.832765
 20
-436.160410
 30
0.0
 40
4.25
  0
LINE
  8
0
  6
BYLAYER
 62
     1
 10
728.332765
 20
-558.074656
 30
0.0
 11
679.332765
 21
-558.074656
 31
0.0
  0
ARC
  8
0
  6
BYLAYER
 62
     1
 10
703.832765
 20
-450.160410
 30
0.0
 40
27.0
 50
238.489223
 51
301.510696
  0
LINE
  8
0
  6
BYLAYER
 62
     1
 10
746.332765
 20
-416.160410
 30
0.0
 11
746.332765
 21
-446.160410
 31
0.0
  0
LINE
  8
0
  6
BYLAYER
 62
     1
 10
746.332765
 20
-446.160410
 30
0.0
 11
744.832765
 21
-447.660410
 31
0.0
  0
LINE
  8
0
  6
BYLAYER
 62
     1
 10
746.332765
 20
-560.160471
 30
0.0
 11
746.332765
 21
-530.160471
 31
0.0
  0
LINE
  8
0
  6
BYLAYER
 62
     1
 10
746.332765
 20
-530.160471
 30
0.0
 11
744.832765
 21
-528.660471
 31
0.0
  0
LINE
  8
0
  6
BYLAYER
 62
     1
 10
744.832765
 20
-447.660410
 30
0.0
 11
744.832765
 21
-528.660471
 31
0.0
  0
LINE
  8
0
  6
BYLAYER
 62
     1
 10
728.332765
 20
-416.160410
 30
0.0
 11
746.332765
 21
-416.160410
 31
0.0
  0
LINE
  8
0
  6
BYLAYER
 62
     1
 10
728.332765
 20
-560.160471
 30
0.0
 11
746.332765
 21
-560.160471
 31
0.0
  0
LINE
  8
0
  6
BYLAYER
 62
     1
 10
746.332765
 20
-530.160471
 30
0.0
 11
728.332765
 21
-530.160471
 31
0.0
  0
LINE
  8
0
  6
BYLAYER
 62
     1
 10
744.832765
 20
-528.660471
 30
0.0
 11
728.332765
 21
-528.660471
 31
0.0
  0
LINE
  8
0
  6
BYLAYER
 62
     1
 10
732.763673
 20
-446.160410
 30
0.0
 11
746.332765
 21
-446.160410
 31
0.0
  0
LINE
  8
0
  6
BYLAYER
 62
     1
 10
730.827180
 20
-447.660410
 30
0.0
 11
744.832765
 21
-447.660410
 31
0.0
  0
LINE
  8
0
  6
BYLAYER
 62
     1
 10
749.832765
 20
-466.160410
 30
0.0
 11
748.832765
 21
-465.160410
 31
0.0
  0
LINE
  8
0
  6
BYLAYER
 62
     1
 10
748.832765
 20
-465.160410
 30
0.0
 11
747.332765
 21
-465.160410
 31
0.0
  0
LINE
  8
0
  6
BYLAYER
 62
     1
 10
747.332765
 20
-535.160471
 30
0.0
 11
748.832765
 21
-535.160471
 31
0.0
  0
LINE
  8
0
  6
BYLAYER
 62
     1
 10
748.832765
 20
-535.160471
 30
0.0
 11
749.832765
 21
-534.160471
 31
0.0
  0
LINE
  8
0
  6
BYLAYER
 62
     1
 10
749.832765
 20
-534.160471
 30
0.0
 11
749.832765
 21
-466.160410
 31
0.0
  0
LINE
  8
0
  6
BYLAYER
 62
     1
 10
744.832765
 20
-450.073130
 30
0.0
 11
747.332765
 21
-450.160410
 31
0.0
  0
LINE
  8
0
  6
BYLAYER
 62
     1
 10
746.332765
 20
-550.195505
 30
0.0
 11
747.332765
 21
-550.160471
 31
0.0
  0
LINE
  8
0
  6
BYLAYER
 62
     1
 10
746.332765
 20
-550.195383
 30
0.0
 11
747.332765
 21
-550.160471
 31
0.0
  0
LINE
  8
0
  6
BYLAYER
 62
     1
 10
747.332765
 20
-450.160410
 30
0.0
 11
747.332765
 21
-550.160471
 31
0.0
  0
LINE
  8
0
  6
BYLAYER
 62
     1
 10
107.832704
 20
-502.660425
 30
0.0
 11
137.832704
 21
-502.660425
 31
0.0
  0
LINE
  8
0
  6
BYLAYER
 62
     1
 10
137.832704
 20
-502.660425
 30
0.0
 11
139.332704
 21
-501.160425
 31
0.0
  0
CIRCLE
  8
0
  6
BYLAYER
 62
     1
 10
127.832704
 20
-495.160425
 30
0.0
 40
4.250000
  0
LINE
  8
0
  6
BYLAYER
 62
     1
 10
132.832704
 20
-416.660425
 30
0.0
 11
132.832704
 21
-415.160425
 31
0.0
  0
LINE
  8
0
  6
BYLAYER
 62
     1
 10
132.832704
 20
-415.160425
 30
0.0
 11
133.832704
 21
-414.160425
 31
0.0
  0
LINE
  8
0
  6
BYLAYER
 62
     1
 10
133.832704
 20
-414.160425
 30
0.0
 11
201.832826
 21
-414.160425
 31
0.0
  0
LINE
  8
0
  6
BYLAYER
 62
     1
 10
117.797670
 20
-417.660425
 30
0.0
 11
117.832704
 21
-416.660425
 31
0.0
  0
LINE
  8
0
  6
BYLAYER
 62
     1
 10
117.797792
 20
-417.660425
 30
0.0
 11
117.832704
 21
-416.660425
 31
0.0
  0
CIRCLE
  8
0
  6
BYLAYER
 62
     1
 10
127.832704
 20
-425.160425
 30
0.0
 40
4.250000
  0
LINE
  8
0
  6
BYLAYER
 62
     1
 10
137.832704
 20
-417.660425
 30
0.0
 11
139.332704
 21
-419.160425
 31
0.0
  0
LINE
  8
0
  6
BYLAYER
 62
     1
 10
137.832704
 20
-417.660425
 30
0.0
 11
107.832704
 21
-417.660425
 31
0.0
  0
LINE
  8
0
  6
BYLAYER
 62
     1
 10
137.832704
 20
-502.660425
 30
0.0
 11
137.832704
 21
-484.660425
 31
0.0
  0
LINE
  8
0
  6
BYLAYER
 62
     1
 10
137.832704
 20
-417.660425
 30
0.0
 11
137.832704
 21
-435.660425
 31
0.0
  0
LINE
  8
0
  6
BYLAYER
 62
     1
 10
139.332704
 20
-501.160425
 30
0.0
 11
139.332704
 21
-484.660425
 31
0.0
  0
LINE
  8
0
  6
BYLAYER
 62
     1
 10
139.332704
 20
-419.160425
 30
0.0
 11
139.332704
 21
-435.660425
 31
0.0
  0
LINE
  8
0
  6
BYLAYER
 62
     1
 10
217.832826
 20
-416.660425
 30
0.0
 11
117.832704
 21
-416.660425
 31
0.0
  0
LINE
  8
0
  6
BYLAYER
 62
     1
 10
202.832704
 20
-416.660425
 30
0.0
 11
202.832704
 21
-415.160425
 31
0.0
  0
LINE
  8
0
  6
BYLAYER
 62
     1
 10
202.832704
 20
-415.160425
 30
0.0
 11
201.832704
 21
-414.160425
 31
0.0
  0
LINE
  8
0
  6
BYLAYER
 62
     1
 10
217.867738
 20
-417.660425
 30
0.0
 11
217.832704
 21
-416.660425
 31
0.0
  0
LINE
  8
0
  6
BYLAYER
 62
     1
 10
217.867616
 20
-417.660425
 30
0.0
 11
217.832704
 21
-416.660425
 31
0.0
  0
LINE
  8
0
  6
BYLAYER
 62
     1
 10
196.332704
 20
-419.160425
 30
0.0
 11
196.332704
 21
-435.660425
 31
0.0
  0
LINE
  8
0
  6
BYLAYER
 62
     1
 10
197.832704
 20
-417.660425
 30
0.0
 11
197.832704
 21
-435.660425
 31
0.0
  0
LINE
  8
0
  6
BYLAYER
 62
     1
 10
197.832704
 20
-417.660425
 30
0.0
 11
196.332704
 21
-419.160425
 31
0.0
  0
LINE
  8
0
  6
BYLAYER
 62
     1
 10
197.832704
 20
-417.660425
 30
0.0
 11
227.832704
 21
-417.660425
 31
0.0
  0
LINE
  8
0
  6
BYLAYER
 62
     1
 10
227.832704
 20
-417.660425
 30
0.0
 11
227.832704
 21
-435.660425
 31
0.0
  0
LINE
  8
0
  6
BYLAYER
 62
     1
 10
227.832704
 20
-484.660425
 30
0.0
 11
227.832704
 21
-502.660425
 31
0.0
  0
CIRCLE
  8
0
  6
BYLAYER
 62
     1
 10
207.832704
 20
-425.160425
 30
0.0
 40
4.25
  0
LINE
  8
0
  6
BYLAYER
 62
     1
 10
197.832704
 20
-502.660425
 30
0.0
 11
197.832704
 21
-484.660425
 31
0.0
  0
LINE
  8
0
  6
BYLAYER
 62
     1
 10
196.332704
 20
-501.160425
 30
0.0
 11
196.332704
 21
-484.660425
 31
0.0
  0
LINE
  8
0
  6
BYLAYER
 62
     1
 10
227.832704
 20
-502.660425
 30
0.0
 11
197.832704
 21
-502.660425
 31
0.0
  0
LINE
  8
0
  6
BYLAYER
 62
     1
 10
197.832704
 20
-502.660425
 30
0.0
 11
196.332704
 21
-501.160425
 31
0.0
  0
LINE
  8
0
  6
BYLAYER
 62
     1
 10
139.332704
 20
-419.160425
 30
0.0
 11
196.332704
 21
-419.160425
 31
0.0
  0
LINE
  8
0
  6
BYLAYER
 62
     1
 10
196.332704
 20
-501.160425
 30
0.0
 11
139.332704
 21
-501.160425
 31
0.0
  0
CIRCLE
  8
0
  6
BYLAYER
 62
     1
 10
207.832704
 20
-495.160425
 30
0.0
 40
4.25
  0
LINE
  8
0
  6
BYLAYER
 62
     1
 10
107.832704
 20
-502.660425
 30
0.0
 11
107.832704
 21
-417.660425
 31
0.0
  0
LINE
  8
0
  6
BYLAYER
 62
     1
 10
107.832704
 20
-484.660425
 30
0.0
 11
227.832704
 21
-484.660425
 31
0.0
  0
ARC
  8
0
  6
BYLAYER
 62
     1
 10
126.832704
 20
-436.660425
 30
0.0
 40
1.000000
 50
90.0
 51
180.000003
  0
LINE
  8
0
  6
BYLAYER
 62
     1
 10
107.832704
 20
-435.660425
 30
0.0
 11
227.832704
 21
-435.660425
 31
0.0
  0
ARC
  8
0
  6
BYLAYER
 62
     1
 10
126.832704
 20
-483.660425
 30
0.0
 40
1.000000
 50
180.000000
 51
270.000009
  0
ARC
  8
0
  6
BYLAYER
 62
     1
 10
208.832704
 20
-436.660425
 30
0.0
 40
1.0
 50
0.0
 51
90.000016
  0
ARC
  8
0
  6
BYLAYER
 62
     1
 10
208.832704
 20
-483.660425
 30
0.0
 40
1.0
 50
270.0
 51
360.000009
  0
ARC
  8
0
  6
BYLAYER
 62
     1
 10
161.832704
 20
-480.160425
 30
0.0
 40
1.0
 50
270.0
 51
450.000005
  0
ARC
  8
0
  6
BYLAYER
 62
     1
 10
173.832704
 20
-480.160425
 30
0.0
 40
1.0
 50
90.0
 51
269.999991
  0
LINE
  8
0
  6
BYLAYER
 62
     1
 10
228.832704
 20
-497.660425
 30
0.0
 11
227.832704
 21
-497.695337
 31
0.0
  0
LINE
  8
0
  6
BYLAYER
 62
     1
 10
228.832704
 20
-422.660425
 30
0.0
 11
227.832704
 21
-422.625513
 31
0.0
  0
LINE
  8
0
  6
BYLAYER
 62
     1
 10
228.832704
 20
-422.660425
 30
0.0
 11
228.832704
 21
-497.660425
 31
0.0
  0
LINE
  8
0
  6
BYLAYER
 62
     1
 10
209.832704
 20
-438.160425
 30
0.0
 11
209.832704
 21
-436.660425
 31
0.0
  0
LINE
  8
0
  6
BYLAYER
 62
     1
 10
173.832704
 20
-439.160425
 30
0.0
 11
208.832704
 21
-439.160395
 31
0.0
  0
ARC
  8
0
  6
BYLAYER
 62
     1
 10
208.832704
 20
-438.160425
 30
0.0
 40
1.0
 50
270.0
 51
360.000003
  0
LINE
  8
0
  6
BYLAYER
 62
     1
 10
173.832704
 20
-441.160425
 30
0.0
 11
208.832704
 21
-441.160395
 31
0.0
  0
ARC
  8
0
  6
BYLAYER
 62
     1
 10
208.832704
 20
-442.160425
 30
0.0
 40
1.000031
 50
0.0
 51
90.000003
  0
LINE
  8
0
  6
BYLAYER
 62
     1
 10
209.832704
 20
-448.160410
 30
0.0
 11
209.832704
 21
-442.160425
 31
0.0
  0
LINE
  8
0
  6
BYLAYER
 62
     1
 10
199.832704
 20
-449.160410
 30
0.0
 11
208.832704
 21
-449.160410
 31
0.0
  0
ARC
  8
0
  6
BYLAYER
 62
     1
 10
208.832704
 20
-448.160410
 30
0.0
 40
1.0
 50
270.0
 51
360.000003
  0
LINE
  8
0
  6
BYLAYER
 62
     1
 10
199.832704
 20
-451.160410
 30
0.0
 11
208.832704
 21
-451.160410
 31
0.0
  0
ARC
  8
0
  6
BYLAYER
 62
     1
 10
208.832704
 20
-452.160410
 30
0.0
 40
1.000000
 50
0.0
 51
90.000003
  0
LINE
  8
0
  6
BYLAYER
 62
     1
 10
208.832704
 20
-459.160410
 30
0.0
 11
198.607728
 21
-459.160410
 31
0.0
  0
LINE
  8
0
  6
BYLAYER
 62
     1
 10
209.832704
 20
-458.160410
 30
0.0
 11
209.832704
 21
-452.160410
 31
0.0
  0
ARC
  8
0
  6
BYLAYER
 62
     1
 10
208.832704
 20
-458.160410
 30
0.0
 40
1.0
 50
270.0
 51
360.000003
  0
LINE
  8
0
  6
BYLAYER
 62
     1
 10
208.832704
 20
-461.160410
 30
0.0
 11
198.607728
 21
-461.160410
 31
0.0
  0
ARC
  8
0
  6
BYLAYER
 62
     1
 10
208.832704
 20
-462.160395
 30
0.0
 40
0.999985
 50
0.0
 51
90.000003
  0
LINE
  8
0
  6
BYLAYER
 62
     1
 10
199.832704
 20
-469.160395
 30
0.0
 11
208.832704
 21
-469.160395
 31
0.0
  0
LINE
  8
0
  6
BYLAYER
 62
     1
 10
209.832704
 20
-468.160395
 30
0.0
 11
209.832704
 21
-462.160395
 31
0.0
  0
ARC
  8
0
  6
BYLAYER
 62
     1
 10
208.832704
 20
-468.160395
 30
0.0
 40
1.0
 50
270.0
 51
360.000003
  0
LINE
  8
0
  6
BYLAYER
 62
     1
 10
199.832704
 20
-471.160395
 30
0.0
 11
208.832704
 21
-471.160395
 31
0.0
  0
ARC
  8
0
  6
BYLAYER
 62
     1
 10
208.832704
 20
-472.160395
 30
0.0
 40
1.000000
 50
0.0
 51
90.000003
  0
LINE
  8
0
  6
BYLAYER
 62
     1
 10
173.832704
 20
-479.160425
 30
0.0
 11
208.832704
 21
-479.160425
 31
0.0
  0
LINE
  8
0
  6
BYLAYER
 62
     1
 10
209.832704
 20
-478.160395
 30
0.0
 11
209.832704
 21
-472.160395
 31
0.0
  0
ARC
  8
0
  6
BYLAYER
 62
     1
 10
208.832704
 20
-478.160395
 30
0.0
 40
1.000031
 50
270.0
 51
360.000003
  0
LINE
  8
0
  6
BYLAYER
 62
     1
 10
173.832704
 20
-481.160425
 30
0.0
 11
208.832704
 21
-481.160425
 31
0.0
  0
LINE
  8
0
  6
BYLAYER
 62
     1
 10
209.832704
 20
-483.660425
 30
0.0
 11
209.832704
 21
-482.160395
 31
0.0
  0
ARC
  8
0
  6
BYLAYER
 62
     1
 10
208.832704
 20
-482.160395
 30
0.0
 40
0.999969
 50
0.0
 51
90.000003
  0
LINE
  8
0
  6
BYLAYER
 62
     1
 10
125.832704
 20
-438.160395
 30
0.0
 11
125.832704
 21
-436.660425
 31
0.0
  0
LINE
  8
0
  6
BYLAYER
 62
     1
 10
126.832704
 20
-439.160395
 30
0.0
 11
161.832704
 21
-439.160425
 31
0.0
  0
ARC
  8
0
  6
BYLAYER
 62
     1
 10
126.832704
 20
-438.160395
 30
0.0
 40
1.0
 50
180.000000
 51
269.999996
  0
LINE
  8
0
  6
BYLAYER
 62
     1
 10
126.832704
 20
-441.160395
 30
0.0
 11
161.832704
 21
-441.160425
 31
0.0
  0
ARC
  8
0
  6
BYLAYER
 62
     1
 10
126.832704
 20
-442.160395
 30
0.0
 40
1.0
 50
90.0
 51
180.000003
  0
LINE
  8
0
  6
BYLAYER
 62
     1
 10
125.832704
 20
-448.160395
 30
0.0
 11
125.832704
 21
-442.160395
 31
0.0
  0
LINE
  8
0
  6
BYLAYER
 62
     1
 10
126.832704
 20
-449.160379
 30
0.0
 11
179.832704
 21
-449.160410
 31
0.0
  0
ARC
  8
0
  6
BYLAYER
 62
     1
 10
126.832704
 20
-448.160395
 30
0.0
 40
1.0
 50
180.000000
 51
269.999996
  0
LINE
  8
0
  6
BYLAYER
 62
     1
 10
126.832704
 20
-451.160379
 30
0.0
 11
179.832704
 21
-451.160410
 31
0.0
  0
ARC
  8
0
  6
BYLAYER
 62
     1
 10
126.832704
 20
-452.160395
 30
0.0
 40
1.000015
 50
90.0
 51
180.000003
  0
LINE
  8
0
  6
BYLAYER
 62
     1
 10
125.832704
 20
-458.160395
 30
0.0
 11
125.832704
 21
-452.160395
 31
0.0
  0
LINE
  8
0
  6
BYLAYER
 62
     1
 10
174.832704
 20
-459.160410
 30
0.0
 11
126.832704
 21
-459.160379
 31
0.0
  0
ARC
  8
0
  6
BYLAYER
 62
     1
 10
126.832704
 20
-458.160395
 30
0.0
 40
1.0
 50
180.000000
 51
269.999996
  0
LINE
  8
0
  6
BYLAYER
 62
     1
 10
174.832704
 20
-461.160410
 30
0.0
 11
126.832704
 21
-461.160379
 31
0.0
  0
ARC
  8
0
  6
BYLAYER
 62
     1
 10
126.832704
 20
-462.160395
 30
0.0
 40
1.0
 50
90.0
 51
180.000003
  0
LINE
  8
0
  6
BYLAYER
 62
     1
 10
125.832704
 20
-468.160395
 30
0.0
 11
125.832704
 21
-462.160395
 31
0.0
  0
LINE
  8
0
  6
BYLAYER
 62
     1
 10
179.832704
 20
-469.160395
 30
0.0
 11
126.832704
 21
-469.160395
 31
0.0
  0
ARC
  8
0
  6
BYLAYER
 62
     1
 10
126.832704
 20
-468.160395
 30
0.0
 40
1.0
 50
180.000000
 51
269.999996
  0
LINE
  8
0
  6
BYLAYER
 62
     1
 10
179.832704
 20
-471.160395
 30
0.0
 11
126.832704
 21
-471.160395
 31
0.0
  0
ARC
  8
0
  6
BYLAYER
 62
     1
 10
126.832704
 20
-472.160395
 30
0.0
 40
1.0
 50
90.0
 51
180.000003
  0
LINE
  8
0
  6
BYLAYER
 62
     1
 10
125.832704
 20
-478.160425
 30
0.0
 11
125.832704
 21
-472.160395
 31
0.0
  0
LINE
  8
0
  6
BYLAYER
 62
     1
 10
126.832704
 20
-479.160425
 30
0.0
 11
161.832704
 21
-479.160425
 31
0.0
  0
ARC
  8
0
  6
BYLAYER
 62
     1
 10
126.832704
 20
-478.160425
 30
0.0
 40
1.0
 50
180.000000
 51
269.999996
  0
LINE
  8
0
  6
BYLAYER
 62
     1
 10
126.832704
 20
-481.160425
 30
0.0
 11
161.832704
 21
-481.160425
 31
0.0
  0
LINE
  8
0
  6
BYLAYER
 62
     1
 10
125.832704
 20
-483.660425
 30
0.0
 11
125.832704
 21
-482.160425
 31
0.0
  0
ARC
  8
0
  6
BYLAYER
 62
     1
 10
126.832704
 20
-482.160425
 30
0.0
 40
1.000000
 50
90.0
 51
180.000003
  0
LINE
  8
0
  6
BYLAYER
 62
     1
 10
222.832704
 20
-483.660425
 30
0.0
 11
222.832704
 21
-436.660425
 31
0.0
  0
ARC
  8
0
  6
BYLAYER
 62
     1
 10
221.832704
 20
-436.660425
 30
0.0
 40
1.0
 50
0.0
 51
90.000016
  0
ARC
  8
0
  6
BYLAYER
 62
     1
 10
221.832704
 20
-483.660425
 30
0.0
 40
1.0
 50
270.0
 51
360.000009
  0
LINE
  8
0
  6
BYLAYER
 62
     1
 10
132.832704
 20
-503.660395
 30
0.0
 11
132.832704
 21
-505.160395
 31
0.0
  0
LINE
  8
0
  6
BYLAYER
 62
     1
 10
132.832704
 20
-505.160395
 30
0.0
 11
133.832704
 21
-506.160395
 31
0.0
  0
LINE
  8
0
  6
BYLAYER
 62
     1
 10
133.832704
 20
-506.160395
 30
0.0
 11
201.832826
 21
-506.160395
 31
0.0
  0
LINE
  8
0
  6
BYLAYER
 62
     1
 10
117.797670
 20
-502.660395
 30
0.0
 11
117.832704
 21
-503.660395
 31
0.0
  0
LINE
  8
0
  6
BYLAYER
 62
     1
 10
117.797792
 20
-502.660395
 30
0.0
 11
117.832704
 21
-503.660395
 31
0.0
  0
LINE
  8
0
  6
BYLAYER
 62
     1
 10
217.832826
 20
-503.660395
 30
0.0
 11
117.832704
 21
-503.660395
 31
0.0
  0
LINE
  8
0
  6
BYLAYER
 62
     1
 10
202.832704
 20
-503.660395
 30
0.0
 11
202.832704
 21
-505.160395
 31
0.0
  0
LINE
  8
0
  6
BYLAYER
 62
     1
 10
202.832704
 20
-505.160395
 30
0.0
 11
201.832704
 21
-506.160395
 31
0.0
  0
LINE
  8
0
  6
BYLAYER
 62
     1
 10
217.867738
 20
-502.660395
 30
0.0
 11
217.832704
 21
-503.660395
 31
0.0
  0
LINE
  8
0
  6
BYLAYER
 62
     1
 10
217.867616
 20
-502.660395
 30
0.0
 11
217.832704
 21
-503.660395
 31
0.0
  0
ARC
  8
0
  6
BYLAYER
 62
     1
 10
174.832704
 20
-460.160410
 30
0.0
 40
1.0
 50
270.0
 51
450.000005
  0
ARC
  8
0
  6
BYLAYER
 62
     1
 10
173.832704
 20
-440.160425
 30
0.0
 40
1.0
 50
90.0
 51
270.000005
  0
ARC
  8
0
  6
BYLAYER
 62
     1
 10
161.832704
 20
-440.160425
 30
0.0
 40
1.0
 50
270.0
 51
450.000005
  0
ARC
  8
0
  6
BYLAYER
 62
     1
 10
189.832704
 20
-460.160410
 30
0.0
 40
8.000080
 50
12.839588
 51
347.160409
  0
CIRCLE
  8
0
  6
BYLAYER
 62
     1
 10
189.832704
 20
-460.160410
 30
0.0
 40
4.25
  0
ARC
  8
0
  6
BYLAYER
 62
     1
 10
179.832704
 20
-470.160395
 30
0.0
 40
1.0
 50
270.0
 51
450.000005
  0
ARC
  8
0
  6
BYLAYER
 62
     1
 10
199.832704
 20
-470.160395
 30
0.0
 40
1.0
 50
90.0
 51
269.999991
  0
ARC
  8
0
  6
BYLAYER
 62
     1
 10
198.607728
 20
-462.160395
 30
0.0
 40
0.999982
 50
90.0
 51
167.160394
  0
ARC
  8
0
  6
BYLAYER
 62
     1
 10
198.607728
 20
-458.160410
 30
0.0
 40
0.999978
 50
192.839613
 51
270.000001
  0
ARC
  8
0
  6
BYLAYER
 62
     1
 10
179.832704
 20
-450.160410
 30
0.0
 40
1.0
 50
270.0
 51
450.000005
  0
ARC
  8
0
  6
BYLAYER
 62
     1
 10
199.832704
 20
-450.160410
 30
0.0
 40
1.0
 50
90.0
 51
269.999991
  0
LINE
  8
0
  6
BYLAYER
 62
     1
 10
247.832765
 20
-110.160410
 30
0.0
 11
247.832765
 21
-162.660285
 31
0.0
  0
LINE
  8
0
  6
BYLAYER
 62
     1
 10
228.832765
 20
-140.660273
 30
0.0
 11
228.832765
 21
-110.160410
 31
0.0
  0
LINE
  8
0
  6
BYLAYER
 62
     1
 10
241.728120
 20
-162.340387
 30
0.0
 11
247.832765
 21
-162.660285
 31
0.0
  0
ARC
  8
0
  6
BYLAYER
 62
     1
 10
237.847566
 20
-160.686884
 30
0.0
 40
2.000014
 50
4.929978
 51
28.000489
  0
ARC
  8
0
  6
BYLAYER
 62
     1
 10
241.832765
 20
-160.343134
 30
0.0
 40
2.000000
 50
180.000000
 51
267.000750
  0
LINE
  8
0
  6
BYLAYER
 62
     1
 10
229.983583
 20
-141.636774
 30
0.0
 11
239.613466
 21
-159.747919
 31
0.0
  0
ARC
  8
0
  6
BYLAYER
 62
     1
 10
228.217683
 20
-142.575708
 30
0.0
 40
2.000026
 50
27.999718
 51
66.000227
  0
LINE
  8
0
  6
BYLAYER
 62
     1
 10
228.832765
 20
-140.660273
 30
0.0
 11
239.536104
 21
-145.424982
 31
0.0
  0
LINE
  8
0
  6
BYLAYER
 62
     1
 10
239.832765
 20
-160.343134
 30
0.0
 11
239.832765
 21
-110.160410
 31
0.0
  0
ARC
  8
0
  6
BYLAYER
 62
     1
 10
239.332765
 20
-145.881769
 30
0.0
 40
0.500001
 50
0.0
 51
66.003779
  0
LINE
  8
0
  6
BYLAYER
 62
     1
 10
247.832765
 20
-110.160410
 30
0.0
 11
247.832765
 21
-57.660535
 31
0.0
  0
LINE
  8
0
  6
BYLAYER
 62
     1
 10
228.832765
 20
-79.660547
 30
0.0
 11
228.832765
 21
-110.160410
 31
0.0
  0
LINE
  8
0
  6
BYLAYER
 62
     1
 10
241.728120
 20
-57.980433
 30
0.0
 11
247.832765
 21
-57.660535
 31
0.0
  0
ARC
  8
0
  6
BYLAYER
 62
     1
 10
237.847566
 20
-59.633936
 30
0.0
 40
2.000014
 50
331.999511
 51
355.070022
  0
ARC
  8
0
  6
BYLAYER
 62
     1
 10
241.832765
 20
-59.977686
 30
0.0
 40
2.000000
 50
92.999250
 51
180.000000
  0
LINE
  8
0
  6
BYLAYER
 62
     1
 10
229.983583
 20
-78.684046
 30
0.0
 11
239.613466
 21
-60.572901
 31
0.0
  0
ARC
  8
0
  6
BYLAYER
 62
     1
 10
228.217683
 20
-77.745112
 30
0.0
 40
2.000026
 50
293.999773
 51
332.000282
  0
LINE
  8
0
  6
BYLAYER
 62
     1
 10
228.832765
 20
-79.660547
 30
0.0
 11
239.536104
 21
-74.895838
 31
0.0
  0
LINE
  8
0
  6
BYLAYER
 62
     1
 10
239.832765
 20
-59.977686
 30
0.0
 11
239.832765
 21
-110.160410
 31
0.0
  0
ARC
  8
0
  6
BYLAYER
 62
     1
 10
239.332765
 20
-74.439051
 30
0.0
 40
0.500001
 50
293.996221
 51
360.000000
  0
LINE
  8
0
  6
BYLAYER
 62
     1
 10
661.332765
 20
-220.160410
 30
0.0
 11
661.332765
 21
-190.160410
 31
0.0
  0
LINE
  8
0
  6
BYLAYER
 62
     1
 10
661.332765
 20
-190.160410
 30
0.0
 11
662.832765
 21
-188.660410
 31
0.0
  0
LINE
  8
0
  6
BYLAYER
 62
     1
 10
662.832765
 20
-166.216654
 30
0.0
 11
662.832765
 21
-188.660410
 31
0.0
  0
LINE
  8
0
  6
BYLAYER
 62
     1
 10
679.332765
 20
-220.160410
 30
0.0
 11
661.332765
 21
-220.160410
 31
0.0
  0
LINE
  8
0
  6
BYLAYER
 62
     1
 10
746.332765
 20
-220.160410
 30
0.0
 11
728.332765
 21
-220.160410
 31
0.0
  0
CIRCLE
  8
0
  6
BYLAYER
 62
     1
 10
668.832765
 20
-200.160410
 30
0.0
 40
4.25
  0
LINE
  8
0
  6
BYLAYER
 62
     1
 10
747.332765
 20
-195.160410
 30
0.0
 11
748.832765
 21
-195.160410
 31
0.0
  0
LINE
  8
0
  6
BYLAYER
 62
     1
 10
748.832765
 20
-195.160410
 30
0.0
 11
749.832765
 21
-194.160410
 31
0.0
  0
LINE
  8
0
  6
BYLAYER
 62
     1
 10
749.832765
 20
-194.160410
 30
0.0
 11
749.832765
 21
-162.192155
 31
0.0
  0
LINE
  8
0
  6
BYLAYER
 62
     1
 10
746.332765
 20
-210.195505
 30
0.0
 11
747.332765
 21
-210.160410
 31
0.0
  0
LINE
  8
0
  6
BYLAYER
 62
     1
 10
746.332765
 20
-210.195383
 30
0.0
 11
747.332765
 21
-210.160410
 31
0.0
  0
CIRCLE
  8
0
  6
BYLAYER
 62
     1
 10
738.832765
 20
-200.160410
 30
0.0
 40
4.25
  0
LINE
  8
0
  6
BYLAYER
 62
     1
 10
746.332765
 20
-190.160410
 30
0.0
 11
744.832765
 21
-188.660410
 31
0.0
  0
LINE
  8
0
  6
BYLAYER
 62
     1
 10
746.332765
 20
-190.160410
 30
0.0
 11
746.332765
 21
-220.160410
 31
0.0
  0
LINE
  8
0
  6
BYLAYER
 62
     1
 10
744.832765
 20
-188.660410
 30
0.0
 11
744.832765
 21
-166.216654
 31
0.0
  0
LINE
  8
0
  6
BYLAYER
 62
     1
 10
661.332765
 20
-190.160410
 30
0.0
 11
679.332765
 21
-190.160410
 31
0.0
  0
LINE
  8
0
  6
BYLAYER
 62
     1
 10
746.332765
 20
-190.160410
 30
0.0
 11
728.332765
 21
-190.160410
 31
0.0
  0
LINE
  8
0
  6
BYLAYER
 62
     1
 10
662.832765
 20
-188.660410
 30
0.0
 11
679.332765
 21
-188.660410
 31
0.0
  0
LINE
  8
0
  6
BYLAYER
 62
     1
 10
744.832765
 20
-188.660410
 30
0.0
 11
728.332765
 21
-188.660410
 31
0.0
  0
LINE
  8
0
  6
BYLAYER
 62
     1
 10
747.332765
 20
-164.299606
 30
0.0
 11
747.332765
 21
-210.160410
 31
0.0
  0
LINE
  8
0
  6
BYLAYER
 62
     1
 10
679.332765
 20
-175.145428
 30
0.0
 11
679.332765
 21
-220.160410
 31
0.0
  0
LINE
  8
0
  6
BYLAYER
 62
     1
 10
728.332765
 20
-175.145428
 30
0.0
 11
728.332765
 21
-220.160410
 31
0.0
  0
LINE
  8
0
  6
BYLAYER
 62
     1
 10
660.332765
 20
-195.160410
 30
0.0
 11
658.832765
 21
-195.160410
 31
0.0
  0
LINE
  8
0
  6
BYLAYER
 62
     1
 10
658.832765
 20
-195.160410
 30
0.0
 11
657.832765
 21
-194.160410
 31
0.0
  0
LINE
  8
0
  6
BYLAYER
 62
     1
 10
657.832765
 20
-194.160410
 30
0.0
 11
657.832765
 21
-162.192155
 31
0.0
  0
LINE
  8
0
  6
BYLAYER
 62
     1
 10
661.332765
 20
-210.195505
 30
0.0
 11
660.332765
 21
-210.160410
 31
0.0
  0
LINE
  8
0
  6
BYLAYER
 62
     1
 10
661.332765
 20
-210.195383
 30
0.0
 11
660.332765
 21
-210.160410
 31
0.0
  0
LINE
  8
0
  6
BYLAYER
 62
     1
 10
660.332765
 20
-164.299606
 30
0.0
 11
660.332765
 21
-210.160410
 31
0.0
  0
LINE
  8
0
  6
BYLAYER
 62
     1
 10
728.332765
 20
-218.074595
 30
0.0
 11
679.332765
 21
-218.074595
 31
0.0
  0
LINE
  8
0
  6
BYLAYER
 62
     7
 10
666.832765
 20
-33.160410
 30
0.0
 11
666.832765
 21
-51.387095
 31
0.0
  0
LINE
  8
0
  6
BYLAYER
 62
     7
 10
740.832765
 20
-33.160410
 30
0.0
 11
740.832765
 21
-51.387095
 31
0.0
  0
LINE
  8
0
  6
BYLAYER
 62
     7
 10
666.832765
 20
-37.660410
 30
0.0
 11
669.832765
 21
-42.856546
 31
0.0
  0
LINE
  8
0
  6
BYLAYER
 62
     7
 10
669.832765
 20
-42.856546
 30
0.0
 11
669.832765
 21
-49.602153
 31
0.0
  0
LINE
  8
0
  6
BYLAYER
 62
     7
 10
740.832765
 20
-37.660410
 30
0.0
 11
737.832765
 21
-42.856546
 31
0.0
  0
LINE
  8
0
  6
BYLAYER
 62
     7
 10
737.832765
 20
-42.856546
 30
0.0
 11
737.832765
 21
-49.602153
 31
0.0
  0
LINE
  8
0
  6
BYLAYER
 62
     7
 10
704.832765
 20
-99.160410
 30
0.0
 11
712.832765
 21
-99.160410
 31
0.0
  0
LINE
  8
0
  6
BYLAYER
 62
     7
 10
704.832765
 20
-81.160410
 30
0.0
 11
704.832765
 21
-89.160410
 31
0.0
  0
LINE
  8
0
  6
BYLAYER
 62
     7
 10
704.832765
 20
-71.160410
 30
0.0
 11
704.832765
 21
-79.160410
 31
0.0
  0
LINE
  8
0
  6
BYLAYER
 62
     7
 10
704.832765
 20
-91.160410
 30
0.0
 11
704.832765
 21
-99.160410
 31
0.0
  0
LINE
  8
0
  6
BYLAYER
 62
     7
 10
712.832765
 20
-79.160410
 30
0.0
 11
712.832765
 21
-71.160410
 31
0.0
  0
LINE
  8
0
  6
BYLAYER
 62
     7
 10
714.832765
 20
-79.160410
 30
0.0
 11
714.832765
 21
-71.160410
 31
0.0
  0
LINE
  8
0
  6
BYLAYER
 62
     7
 10
704.832765
 20
-91.160410
 30
0.0
 11
712.832765
 21
-91.160410
 31
0.0
  0
LINE
  8
0
  6
BYLAYER
 62
     7
 10
704.832765
 20
-89.160410
 30
0.0
 11
712.832765
 21
-89.160410
 31
0.0
  0
LINE
  8
0
  6
BYLAYER
 62
     7
 10
704.832765
 20
-81.160410
 30
0.0
 11
712.832765
 21
-81.160410
 31
0.0
  0
LINE
  8
0
  6
BYLAYER
 62
     7
 10
714.832765
 20
-79.160410
 30
0.0
 11
722.670764
 21
-79.160410
 31
0.0
  0
LINE
  8
0
  6
BYLAYER
 62
     7
 10
704.832765
 20
-79.160410
 30
0.0
 11
712.832765
 21
-79.160410
 31
0.0
  0
LINE
  8
0
  6
BYLAYER
 62
     7
 10
714.832765
 20
-71.160410
 30
0.0
 11
722.670764
 21
-71.160410
 31
0.0
  0
LINE
  8
0
  6
BYLAYER
 62
     7
 10
704.832765
 20
-71.160410
 30
0.0
 11
712.832765
 21
-71.160410
 31
0.0
  0
LINE
  8
0
  6
BYLAYER
 62
     7
 10
722.670764
 20
-79.160410
 30
0.0
 11
722.670764
 21
-71.160410
 31
0.0
  0
LINE
  8
0
  6
BYLAYER
 62
     7
 10
712.832765
 20
-99.160410
 30
0.0
 11
712.832765
 21
-91.160410
 31
0.0
  0
LINE
  8
0
  6
BYLAYER
 62
     7
 10
712.832765
 20
-89.160410
 30
0.0
 11
712.832765
 21
-81.160410
 31
0.0
  0
LINE
  8
0
  6
BYLAYER
 62
     7
 10
714.832765
 20
-99.160410
 30
0.0
 11
722.832765
 21
-99.160410
 31
0.0
  0
LINE
  8
0
  6
BYLAYER
 62
     7
 10
714.832765
 20
-81.160410
 30
0.0
 11
714.832765
 21
-89.160410
 31
0.0
  0
LINE
  8
0
  6
BYLAYER
 62
     7
 10
714.832765
 20
-91.160410
 30
0.0
 11
714.832765
 21
-99.160410
 31
0.0
  0
LINE
  8
0
  6
BYLAYER
 62
     7
 10
714.832765
 20
-91.160410
 30
0.0
 11
722.832765
 21
-91.160410
 31
0.0
  0
LINE
  8
0
  6
BYLAYER
 62
     7
 10
714.832765
 20
-89.160410
 30
0.0
 11
722.832765
 21
-89.160410
 31
0.0
  0
LINE
  8
0
  6
BYLAYER
 62
     7
 10
714.832765
 20
-81.160410
 30
0.0
 11
722.832765
 21
-81.160410
 31
0.0
  0
LINE
  8
0
  6
BYLAYER
 62
     7
 10
722.832765
 20
-99.160410
 30
0.0
 11
722.832765
 21
-91.160410
 31
0.0
  0
LINE
  8
0
  6
BYLAYER
 62
     7
 10
722.832765
 20
-89.160410
 30
0.0
 11
722.832765
 21
-81.160410
 31
0.0
  0
LINE
  8
0
  6
BYLAYER
 62
     7
 10
724.832765
 20
-99.160410
 30
0.0
 11
732.832765
 21
-99.160410
 31
0.0
  0
LINE
  8
0
  6
BYLAYER
 62
     7
 10
724.832765
 20
-81.160410
 30
0.0
 11
724.832765
 21
-89.160410
 31
0.0
  0
LINE
  8
0
  6
BYLAYER
 62
     7
 10
724.832765
 20
-91.160410
 30
0.0
 11
724.832765
 21
-99.160410
 31
0.0
  0
LINE
  8
0
  6
BYLAYER
 62
     7
 10
724.832765
 20
-91.160410
 30
0.0
 11
732.832765
 21
-91.160410
 31
0.0
  0
LINE
  8
0
  6
BYLAYER
 62
     7
 10
724.832765
 20
-89.160410
 30
0.0
 11
732.832765
 21
-89.160410
 31
0.0
  0
LINE
  8
0
  6
BYLAYER
 62
     7
 10
724.832765
 20
-81.160410
 30
0.0
 11
732.832765
 21
-81.160410
 31
0.0
  0
LINE
  8
0
  6
BYLAYER
 62
     7
 10
732.832765
 20
-99.160410
 30
0.0
 11
732.832765
 21
-91.160410
 31
0.0
  0
LINE
  8
0
  6
BYLAYER
 62
     7
 10
732.832765
 20
-89.160410
 30
0.0
 11
732.832765
 21
-81.160410
 31
0.0
  0
LINE
  8
0
  6
BYLAYER
 62
     7
 10
714.832765
 20
-109.160410
 30
0.0
 11
722.832765
 21
-109.160410
 31
0.0
  0
LINE
  8
0
  6
BYLAYER
 62
     7
 10
714.832765
 20
-101.160410
 30
0.0
 11
714.832765
 21
-109.160410
 31
0.0
  0
LINE
  8
0
  6
BYLAYER
 62
     7
 10
714.832765
 20
-101.160410
 30
0.0
 11
722.832765
 21
-101.160410
 31
0.0
  0
LINE
  8
0
  6
BYLAYER
 62
     7
 10
722.832765
 20
-109.160410
 30
0.0
 11
722.832765
 21
-101.160410
 31
0.0
  0
LINE
  8
0
  6
BYLAYER
 62
     7
 10
724.832765
 20
-109.160410
 30
0.0
 11
732.832765
 21
-109.160410
 31
0.0
  0
LINE
  8
0
  6
BYLAYER
 62
     7
 10
724.832765
 20
-101.160410
 30
0.0
 11
724.832765
 21
-109.160410
 31
0.0
  0
LINE
  8
0
  6
BYLAYER
 62
     7
 10
724.832765
 20
-101.160410
 30
0.0
 11
732.832765
 21
-101.160410
 31
0.0
  0
LINE
  8
0
  6
BYLAYER
 62
     7
 10
732.832765
 20
-109.160410
 30
0.0
 11
732.832765
 21
-101.160410
 31
0.0
  0
LINE
  8
0
  6
BYLAYER
 62
     7
 10
734.832765
 20
-99.160410
 30
0.0
 11
742.832765
 21
-99.160410
 31
0.0
  0
LINE
  8
0
  6
BYLAYER
 62
     7
 10
734.832765
 20
-91.160410
 30
0.0
 11
734.832765
 21
-99.160410
 31
0.0
  0
LINE
  8
0
  6
BYLAYER
 62
     7
 10
734.832765
 20
-91.160410
 30
0.0
 11
742.832765
 21
-91.160410
 31
0.0
  0
LINE
  8
0
  6
BYLAYER
 62
     7
 10
742.832765
 20
-99.160410
 30
0.0
 11
742.832765
 21
-91.160410
 31
0.0
  0
LINE
  8
0
  6
BYLAYER
 62
     7
 10
734.832765
 20
-109.160410
 30
0.0
 11
742.832765
 21
-109.160410
 31
0.0
  0
LINE
  8
0
  6
BYLAYER
 62
     7
 10
734.832765
 20
-101.160410
 30
0.0
 11
734.832765
 21
-109.160410
 31
0.0
  0
LINE
  8
0
  6
BYLAYER
 62
     7
 10
734.832765
 20
-101.160410
 30
0.0
 11
742.832765
 21
-101.160410
 31
0.0
  0
LINE
  8
0
  6
BYLAYER
 62
     7
 10
742.832765
 20
-109.160410
 30
0.0
 11
742.832765
 21
-101.160410
 31
0.0
  0
CIRCLE
  8
0
  6
BYLAYER
 62
     7
 10
703.832765
 20
-110.160410
 30
0.0
 40
4.0
  0
LINE
  8
0
  6
BYLAYER
 62
     7
 10
704.832765
 20
-61.160410
 30
0.0
 11
704.832765
 21
-69.160410
 31
0.0
  0
LINE
  8
0
  6
BYLAYER
 62
     7
 10
712.832765
 20
-69.160410
 30
0.0
 11
712.832765
 21
-61.160410
 31
0.0
  0
LINE
  8
0
  6
BYLAYER
 62
     7
 10
704.832765
 20
-69.160410
 30
0.0
 11
712.832765
 21
-69.160410
 31
0.0
  0
LINE
  8
0
  6
BYLAYER
 62
     7
 10
704.832765
 20
-61.160410
 30
0.0
 11
712.832765
 21
-61.160410
 31
0.0
  0
LINE
  8
0
  6
BYLAYER
 62
     7
 10
724.832765
 20
-71.160410
 30
0.0
 11
724.832765
 21
-79.160410
 31
0.0
  0
LINE
  8
0
  6
BYLAYER
 62
     7
 10
724.832765
 20
-79.160410
 30
0.0
 11
732.832765
 21
-79.160410
 31
0.0
  0
LINE
  8
0
  6
BYLAYER
 62
     7
 10
724.832765
 20
-71.160410
 30
0.0
 11
732.832765
 21
-71.160410
 31
0.0
  0
LINE
  8
0
  6
BYLAYER
 62
     7
 10
732.832765
 20
-79.160410
 30
0.0
 11
732.832765
 21
-71.160410
 31
0.0
  0
LINE
  8
0
  6
BYLAYER
 62
     7
 10
744.832765
 20
-109.160410
 30
0.0
 11
752.832765
 21
-109.160410
 31
0.0
  0
LINE
  8
0
  6
BYLAYER
 62
     7
 10
744.832765
 20
-101.160410
 30
0.0
 11
744.832765
 21
-109.160410
 31
0.0
  0
LINE
  8
0
  6
BYLAYER
 62
     7
 10
744.832765
 20
-101.160410
 30
0.0
 11
752.832765
 21
-101.160410
 31
0.0
  0
LINE
  8
0
  6
BYLAYER
 62
     7
 10
752.832765
 20
-109.160410
 30
0.0
 11
752.832765
 21
-101.160410
 31
0.0
  0
LINE
  8
0
  6
BYLAYER
 62
     7
 10
734.832765
 20
-89.160410
 30
0.0
 11
742.832765
 21
-89.160410
 31
0.0
  0
LINE
  8
0
  6
BYLAYER
 62
     7
 10
734.832765
 20
-81.160410
 30
0.0
 11
734.832765
 21
-89.160410
 31
0.0
  0
LINE
  8
0
  6
BYLAYER
 62
     7
 10
734.832765
 20
-81.160410
 30
0.0
 11
742.832765
 21
-81.160410
 31
0.0
  0
LINE
  8
0
  6
BYLAYER
 62
     7
 10
742.832765
 20
-89.160410
 30
0.0
 11
742.832765
 21
-81.160410
 31
0.0
  0
CIRCLE
  8
0
  6
BYLAYER
 62
     7
 10
703.832765
 20
-110.160410
 30
0.0
 40
55.0
  0
CIRCLE
  8
0
  6
BYLAYER
 62
     7
 10
703.832765
 20
-110.160410
 30
0.0
 40
69.45
  0
CIRCLE
  8
0
  6
BYLAYER
 62
     7
 10
703.832765
 20
-110.160410
 30
0.0
 40
51.0
  0
LINE
  8
0
  6
BYLAYER
 62
     7
 10
704.832765
 20
-121.160410
 30
0.0
 11
712.832765
 21
-121.160410
 31
0.0
  0
LINE
  8
0
  6
BYLAYER
 62
     7
 10
704.832765
 20
-139.160410
 30
0.0
 11
704.832765
 21
-131.160410
 31
0.0
  0
LINE
  8
0
  6
BYLAYER
 62
     7
 10
704.832765
 20
-149.160410
 30
0.0
 11
704.832765
 21
-141.160410
 31
0.0
  0
LINE
  8
0
  6
BYLAYER
 62
     7
 10
704.832765
 20
-129.160410
 30
0.0
 11
704.832765
 21
-121.160410
 31
0.0
  0
LINE
  8
0
  6
BYLAYER
 62
     7
 10
712.832765
 20
-141.160410
 30
0.0
 11
712.832765
 21
-149.160410
 31
0.0
  0
LINE
  8
0
  6
BYLAYER
 62
     7
 10
714.832765
 20
-141.160410
 30
0.0
 11
714.832765
 21
-149.160410
 31
0.0
  0
LINE
  8
0
  6
BYLAYER
 62
     7
 10
704.832765
 20
-129.160410
 30
0.0
 11
712.832765
 21
-129.160410
 31
0.0
  0
LINE
  8
0
  6
BYLAYER
 62
     7
 10
704.832765
 20
-131.160410
 30
0.0
 11
712.832765
 21
-131.160410
 31
0.0
  0
LINE
  8
0
  6
BYLAYER
 62
     7
 10
704.832765
 20
-139.160410
 30
0.0
 11
712.832765
 21
-139.160410
 31
0.0
  0
LINE
  8
0
  6
BYLAYER
 62
     7
 10
714.832765
 20
-141.160410
 30
0.0
 11
722.670764
 21
-141.160410
 31
0.0
  0
LINE
  8
0
  6
BYLAYER
 62
     7
 10
704.832765
 20
-141.160410
 30
0.0
 11
712.832765
 21
-141.160410
 31
0.0
  0
LINE
  8
0
  6
BYLAYER
 62
     7
 10
714.832765
 20
-149.160410
 30
0.0
 11
722.670764
 21
-149.160410
 31
0.0
  0
LINE
  8
0
  6
BYLAYER
 62
     7
 10
704.832765
 20
-149.160410
 30
0.0
 11
712.832765
 21
-149.160410
 31
0.0
  0
LINE
  8
0
  6
BYLAYER
 62
     7
 10
722.670764
 20
-141.160410
 30
0.0
 11
722.670764
 21
-149.160410
 31
0.0
  0
LINE
  8
0
  6
BYLAYER
 62
     7
 10
712.832765
 20
-121.160410
 30
0.0
 11
712.832765
 21
-129.160410
 31
0.0
  0
LINE
  8
0
  6
BYLAYER
 62
     7
 10
712.832765
 20
-131.160410
 30
0.0
 11
712.832765
 21
-139.160410
 31
0.0
  0
LINE
  8
0
  6
BYLAYER
 62
     7
 10
714.832765
 20
-121.160410
 30
0.0
 11
722.832765
 21
-121.160410
 31
0.0
  0
LINE
  8
0
  6
BYLAYER
 62
     7
 10
714.832765
 20
-139.160410
 30
0.0
 11
714.832765
 21
-131.160410
 31
0.0
  0
LINE
  8
0
  6
BYLAYER
 62
     7
 10
714.832765
 20
-129.160410
 30
0.0
 11
714.832765
 21
-121.160410
 31
0.0
  0
LINE
  8
0
  6
BYLAYER
 62
     7
 10
714.832765
 20
-129.160410
 30
0.0
 11
722.832765
 21
-129.160410
 31
0.0
  0
LINE
  8
0
  6
BYLAYER
 62
     7
 10
714.832765
 20
-131.160410
 30
0.0
 11
722.832765
 21
-131.160410
 31
0.0
  0
LINE
  8
0
  6
BYLAYER
 62
     7
 10
714.832765
 20
-139.160410
 30
0.0
 11
722.832765
 21
-139.160410
 31
0.0
  0
LINE
  8
0
  6
BYLAYER
 62
     7
 10
722.832765
 20
-121.160410
 30
0.0
 11
722.832765
 21
-129.160410
 31
0.0
  0
LINE
  8
0
  6
BYLAYER
 62
     7
 10
722.832765
 20
-131.160410
 30
0.0
 11
722.832765
 21
-139.160410
 31
0.0
  0
LINE
  8
0
  6
BYLAYER
 62
     7
 10
724.832765
 20
-121.160410
 30
0.0
 11
732.832765
 21
-121.160410
 31
0.0
  0
LINE
  8
0
  6
BYLAYER
 62
     7
 10
724.832765
 20
-139.160410
 30
0.0
 11
724.832765
 21
-131.160410
 31
0.0
  0
LINE
  8
0
  6
BYLAYER
 62
     7
 10
724.832765
 20
-129.160410
 30
0.0
 11
724.832765
 21
-121.160410
 31
0.0
  0
LINE
  8
0
  6
BYLAYER
 62
     7
 10
724.832765
 20
-129.160410
 30
0.0
 11
732.832765
 21
-129.160410
 31
0.0
  0
LINE
  8
0
  6
BYLAYER
 62
     7
 10
724.832765
 20
-131.160410
 30
0.0
 11
732.832765
 21
-131.160410
 31
0.0
  0
LINE
  8
0
  6
BYLAYER
 62
     7
 10
724.832765
 20
-139.160410
 30
0.0
 11
732.832765
 21
-139.160410
 31
0.0
  0
LINE
  8
0
  6
BYLAYER
 62
     7
 10
732.832765
 20
-121.160410
 30
0.0
 11
732.832765
 21
-129.160410
 31
0.0
  0
LINE
  8
0
  6
BYLAYER
 62
     7
 10
732.832765
 20
-131.160410
 30
0.0
 11
732.832765
 21
-139.160410
 31
0.0
  0
LINE
  8
0
  6
BYLAYER
 62
     7
 10
714.832765
 20
-111.160410
 30
0.0
 11
722.832765
 21
-111.160410
 31
0.0
  0
LINE
  8
0
  6
BYLAYER
 62
     7
 10
714.832765
 20
-119.160410
 30
0.0
 11
714.832765
 21
-111.160410
 31
0.0
  0
LINE
  8
0
  6
BYLAYER
 62
     7
 10
714.832765
 20
-119.160410
 30
0.0
 11
722.832765
 21
-119.160410
 31
0.0
  0
LINE
  8
0
  6
BYLAYER
 62
     7
 10
722.832765
 20
-111.160410
 30
0.0
 11
722.832765
 21
-119.160410
 31
0.0
  0
LINE
  8
0
  6
BYLAYER
 62
     7
 10
724.832765
 20
-111.160410
 30
0.0
 11
732.832765
 21
-111.160410
 31
0.0
  0
LINE
  8
0
  6
BYLAYER
 62
     7
 10
724.832765
 20
-119.160410
 30
0.0
 11
724.832765
 21
-111.160410
 31
0.0
  0
LINE
  8
0
  6
BYLAYER
 62
     7
 10
724.832765
 20
-119.160410
 30
0.0
 11
732.832765
 21
-119.160410
 31
0.0
  0
LINE
  8
0
  6
BYLAYER
 62
     7
 10
732.832765
 20
-111.160410
 30
0.0
 11
732.832765
 21
-119.160410
 31
0.0
  0
LINE
  8
0
  6
BYLAYER
 62
     7
 10
734.832765
 20
-121.160410
 30
0.0
 11
742.832765
 21
-121.160410
 31
0.0
  0
LINE
  8
0
  6
BYLAYER
 62
     7
 10
734.832765
 20
-129.160410
 30
0.0
 11
734.832765
 21
-121.160410
 31
0.0
  0
LINE
  8
0
  6
BYLAYER
 62
     7
 10
734.832765
 20
-129.160410
 30
0.0
 11
742.832765
 21
-129.160410
 31
0.0
  0
LINE
  8
0
  6
BYLAYER
 62
     7
 10
742.832765
 20
-121.160410
 30
0.0
 11
742.832765
 21
-129.160410
 31
0.0
  0
LINE
  8
0
  6
BYLAYER
 62
     7
 10
734.832765
 20
-111.160410
 30
0.0
 11
742.832765
 21
-111.160410
 31
0.0
  0
LINE
  8
0
  6
BYLAYER
 62
     7
 10
734.832765
 20
-119.160410
 30
0.0
 11
734.832765
 21
-111.160410
 31
0.0
  0
LINE
  8
0
  6
BYLAYER
 62
     7
 10
734.832765
 20
-119.160410
 30
0.0
 11
742.832765
 21
-119.160410
 31
0.0
  0
LINE
  8
0
  6
BYLAYER
 62
     7
 10
742.832765
 20
-111.160410
 30
0.0
 11
742.832765
 21
-119.160410
 31
0.0
  0
LINE
  8
0
  6
BYLAYER
 62
     7
 10
704.832765
 20
-159.160410
 30
0.0
 11
704.832765
 21
-151.160410
 31
0.0
  0
LINE
  8
0
  6
BYLAYER
 62
     7
 10
712.832765
 20
-151.160410
 30
0.0
 11
712.832765
 21
-159.160410
 31
0.0
  0
LINE
  8
0
  6
BYLAYER
 62
     7
 10
704.832765
 20
-151.160410
 30
0.0
 11
712.832765
 21
-151.160410
 31
0.0
  0
LINE
  8
0
  6
BYLAYER
 62
     7
 10
704.832765
 20
-159.160410
 30
0.0
 11
712.832765
 21
-159.160410
 31
0.0
  0
LINE
  8
0
  6
BYLAYER
 62
     7
 10
724.832765
 20
-149.160410
 30
0.0
 11
724.832765
 21
-141.160410
 31
0.0
  0
LINE
  8
0
  6
BYLAYER
 62
     7
 10
724.832765
 20
-141.160410
 30
0.0
 11
732.832765
 21
-141.160410
 31
0.0
  0
LINE
  8
0
  6
BYLAYER
 62
     7
 10
724.832765
 20
-149.160410
 30
0.0
 11
732.832765
 21
-149.160410
 31
0.0
  0
LINE
  8
0
  6
BYLAYER
 62
     7
 10
732.832765
 20
-141.160410
 30
0.0
 11
732.832765
 21
-149.160410
 31
0.0
  0
LINE
  8
0
  6
BYLAYER
 62
     7
 10
744.832765
 20
-111.160410
 30
0.0
 11
752.832765
 21
-111.160410
 31
0.0
  0
LINE
  8
0
  6
BYLAYER
 62
     7
 10
744.832765
 20
-119.160410
 30
0.0
 11
744.832765
 21
-111.160410
 31
0.0
  0
LINE
  8
0
  6
BYLAYER
 62
     7
 10
744.832765
 20
-119.160410
 30
0.0
 11
752.832765
 21
-119.160410
 31
0.0
  0
LINE
  8
0
  6
BYLAYER
 62
     7
 10
752.832765
 20
-111.160410
 30
0.0
 11
752.832765
 21
-119.160410
 31
0.0
  0
LINE
  8
0
  6
BYLAYER
 62
     7
 10
734.832765
 20
-131.160410
 30
0.0
 11
742.832765
 21
-131.160410
 31
0.0
  0
LINE
  8
0
  6
BYLAYER
 62
     7
 10
734.832765
 20
-139.160410
 30
0.0
 11
734.832765
 21
-131.160410
 31
0.0
  0
LINE
  8
0
  6
BYLAYER
 62
     7
 10
734.832765
 20
-139.160410
 30
0.0
 11
742.832765
 21
-139.160410
 31
0.0
  0
LINE
  8
0
  6
BYLAYER
 62
     7
 10
742.832765
 20
-131.160410
 30
0.0
 11
742.832765
 21
-139.160410
 31
0.0
  0
LINE
  8
0
  6
BYLAYER
 62
     7
 10
702.832765
 20
-99.160410
 30
0.0
 11
694.832765
 21
-99.160410
 31
0.0
  0
LINE
  8
0
  6
BYLAYER
 62
     7
 10
702.832765
 20
-81.160410
 30
0.0
 11
702.832765
 21
-89.160410
 31
0.0
  0
LINE
  8
0
  6
BYLAYER
 62
     7
 10
702.832765
 20
-71.160410
 30
0.0
 11
702.832765
 21
-79.160410
 31
0.0
  0
LINE
  8
0
  6
BYLAYER
 62
     7
 10
702.832765
 20
-91.160410
 30
0.0
 11
702.832765
 21
-99.160410
 31
0.0
  0
LINE
  8
0
  6
BYLAYER
 62
     7
 10
694.832765
 20
-79.160410
 30
0.0
 11
694.832765
 21
-71.160410
 31
0.0
  0
LINE
  8
0
  6
BYLAYER
 62
     7
 10
692.832765
 20
-79.160410
 30
0.0
 11
692.832765
 21
-71.160410
 31
0.0
  0
LINE
  8
0
  6
BYLAYER
 62
     7
 10
702.832765
 20
-91.160410
 30
0.0
 11
694.832765
 21
-91.160410
 31
0.0
  0
LINE
  8
0
  6
BYLAYER
 62
     7
 10
702.832765
 20
-89.160410
 30
0.0
 11
694.832765
 21
-89.160410
 31
0.0
  0
LINE
  8
0
  6
BYLAYER
 62
     7
 10
702.832765
 20
-81.160410
 30
0.0
 11
694.832765
 21
-81.160410
 31
0.0
  0
LINE
  8
0
  6
BYLAYER
 62
     7
 10
692.832765
 20
-79.160410
 30
0.0
 11
684.994766
 21
-79.160410
 31
0.0
  0
LINE
  8
0
  6
BYLAYER
 62
     7
 10
702.832765
 20
-79.160410
 30
0.0
 11
694.832765
 21
-79.160410
 31
0.0
  0
LINE
  8
0
  6
BYLAYER
 62
     7
 10
692.832765
 20
-71.160410
 30
0.0
 11
684.994766
 21
-71.160410
 31
0.0
  0
LINE
  8
0
  6
BYLAYER
 62
     7
 10
702.832765
 20
-71.160410
 30
0.0
 11
694.832765
 21
-71.160410
 31
0.0
  0
LINE
  8
0
  6
BYLAYER
 62
     7
 10
684.994766
 20
-79.160410
 30
0.0
 11
684.994766
 21
-71.160410
 31
0.0
  0
LINE
  8
0
  6
BYLAYER
 62
     7
 10
694.832765
 20
-99.160410
 30
0.0
 11
694.832765
 21
-91.160410
 31
0.0
  0
LINE
  8
0
  6
BYLAYER
 62
     7
 10
694.832765
 20
-89.160410
 30
0.0
 11
694.832765
 21
-81.160410
 31
0.0
  0
LINE
  8
0
  6
BYLAYER
 62
     7
 10
692.832765
 20
-99.160410
 30
0.0
 11
684.832765
 21
-99.160410
 31
0.0
  0
LINE
  8
0
  6
BYLAYER
 62
     7
 10
692.832765
 20
-81.160410
 30
0.0
 11
692.832765
 21
-89.160410
 31
0.0
  0
LINE
  8
0
  6
BYLAYER
 62
     7
 10
692.832765
 20
-91.160410
 30
0.0
 11
692.832765
 21
-99.160410
 31
0.0
  0
LINE
  8
0
  6
BYLAYER
 62
     7
 10
692.832765
 20
-91.160410
 30
0.0
 11
684.832765
 21
-91.160410
 31
0.0
  0
LINE
  8
0
  6
BYLAYER
 62
     7
 10
692.832765
 20
-89.160410
 30
0.0
 11
684.832765
 21
-89.160410
 31
0.0
  0
LINE
  8
0
  6
BYLAYER
 62
     7
 10
692.832765
 20
-81.160410
 30
0.0
 11
684.832765
 21
-81.160410
 31
0.0
  0
LINE
  8
0
  6
BYLAYER
 62
     7
 10
684.832765
 20
-99.160410
 30
0.0
 11
684.832765
 21
-91.160410
 31
0.0
  0
LINE
  8
0
  6
BYLAYER
 62
     7
 10
684.832765
 20
-89.160410
 30
0.0
 11
684.832765
 21
-81.160410
 31
0.0
  0
LINE
  8
0
  6
BYLAYER
 62
     7
 10
682.832765
 20
-99.160410
 30
0.0
 11
674.832765
 21
-99.160410
 31
0.0
  0
LINE
  8
0
  6
BYLAYER
 62
     7
 10
682.832765
 20
-81.160410
 30
0.0
 11
682.832765
 21
-89.160410
 31
0.0
  0
LINE
  8
0
  6
BYLAYER
 62
     7
 10
682.832765
 20
-91.160410
 30
0.0
 11
682.832765
 21
-99.160410
 31
0.0
  0
LINE
  8
0
  6
BYLAYER
 62
     7
 10
682.832765
 20
-91.160410
 30
0.0
 11
674.832765
 21
-91.160410
 31
0.0
  0
LINE
  8
0
  6
BYLAYER
 62
     7
 10
682.832765
 20
-89.160410
 30
0.0
 11
674.832765
 21
-89.160410
 31
0.0
  0
LINE
  8
0
  6
BYLAYER
 62
     7
 10
682.832765
 20
-81.160410
 30
0.0
 11
674.832765
 21
-81.160410
 31
0.0
  0
LINE
  8
0
  6
BYLAYER
 62
     7
 10
674.832765
 20
-99.160410
 30
0.0
 11
674.832765
 21
-91.160410
 31
0.0
  0
LINE
  8
0
  6
BYLAYER
 62
     7
 10
674.832765
 20
-89.160410
 30
0.0
 11
674.832765
 21
-81.160410
 31
0.0
  0
LINE
  8
0
  6
BYLAYER
 62
     7
 10
692.832765
 20
-109.160410
 30
0.0
 11
684.832765
 21
-109.160410
 31
0.0
  0
LINE
  8
0
  6
BYLAYER
 62
     7
 10
692.832765
 20
-101.160410
 30
0.0
 11
692.832765
 21
-109.160410
 31
0.0
  0
LINE
  8
0
  6
BYLAYER
 62
     7
 10
692.832765
 20
-101.160410
 30
0.0
 11
684.832765
 21
-101.160410
 31
0.0
  0
LINE
  8
0
  6
BYLAYER
 62
     7
 10
684.832765
 20
-109.160410
 30
0.0
 11
684.832765
 21
-101.160410
 31
0.0
  0
LINE
  8
0
  6
BYLAYER
 62
     7
 10
682.832765
 20
-109.160410
 30
0.0
 11
674.832765
 21
-109.160410
 31
0.0
  0
LINE
  8
0
  6
BYLAYER
 62
     7
 10
682.832765
 20
-101.160410
 30
0.0
 11
682.832765
 21
-109.160410
 31
0.0
  0
LINE
  8
0
  6
BYLAYER
 62
     7
 10
682.832765
 20
-101.160410
 30
0.0
 11
674.832765
 21
-101.160410
 31
0.0
  0
LINE
  8
0
  6
BYLAYER
 62
     7
 10
674.832765
 20
-109.160410
 30
0.0
 11
674.832765
 21
-101.160410
 31
0.0
  0
LINE
  8
0
  6
BYLAYER
 62
     7
 10
672.832765
 20
-99.160410
 30
0.0
 11
664.832765
 21
-99.160410
 31
0.0
  0
LINE
  8
0
  6
BYLAYER
 62
     7
 10
672.832765
 20
-91.160410
 30
0.0
 11
672.832765
 21
-99.160410
 31
0.0
  0
LINE
  8
0
  6
BYLAYER
 62
     7
 10
672.832765
 20
-91.160410
 30
0.0
 11
664.832765
 21
-91.160410
 31
0.0
  0
LINE
  8
0
  6
BYLAYER
 62
     7
 10
664.832765
 20
-99.160410
 30
0.0
 11
664.832765
 21
-91.160410
 31
0.0
  0
LINE
  8
0
  6
BYLAYER
 62
     7
 10
672.832765
 20
-109.160410
 30
0.0
 11
664.832765
 21
-109.160410
 31
0.0
  0
LINE
  8
0
  6
BYLAYER
 62
     7
 10
672.832765
 20
-101.160410
 30
0.0
 11
672.832765
 21
-109.160410
 31
0.0
  0
LINE
  8
0
  6
BYLAYER
 62
     7
 10
672.832765
 20
-101.160410
 30
0.0
 11
664.832765
 21
-101.160410
 31
0.0
  0
LINE
  8
0
  6
BYLAYER
 62
     7
 10
664.832765
 20
-109.160410
 30
0.0
 11
664.832765
 21
-101.160410
 31
0.0
  0
LINE
  8
0
  6
BYLAYER
 62
     7
 10
702.832765
 20
-61.160410
 30
0.0
 11
702.832765
 21
-69.160410
 31
0.0
  0
LINE
  8
0
  6
BYLAYER
 62
     7
 10
694.832765
 20
-69.160410
 30
0.0
 11
694.832765
 21
-61.160410
 31
0.0
  0
LINE
  8
0
  6
BYLAYER
 62
     7
 10
702.832765
 20
-69.160410
 30
0.0
 11
694.832765
 21
-69.160410
 31
0.0
  0
LINE
  8
0
  6
BYLAYER
 62
     7
 10
702.832765
 20
-61.160410
 30
0.0
 11
694.832765
 21
-61.160410
 31
0.0
  0
LINE
  8
0
  6
BYLAYER
 62
     7
 10
682.832765
 20
-71.160410
 30
0.0
 11
682.832765
 21
-79.160410
 31
0.0
  0
LINE
  8
0
  6
BYLAYER
 62
     7
 10
682.832765
 20
-79.160410
 30
0.0
 11
674.832765
 21
-79.160410
 31
0.0
  0
LINE
  8
0
  6
BYLAYER
 62
     7
 10
682.832765
 20
-71.160410
 30
0.0
 11
674.832765
 21
-71.160410
 31
0.0
  0
LINE
  8
0
  6
BYLAYER
 62
     7
 10
674.832765
 20
-79.160410
 30
0.0
 11
674.832765
 21
-71.160410
 31
0.0
  0
LINE
  8
0
  6
BYLAYER
 62
     7
 10
662.832765
 20
-109.160410
 30
0.0
 11
654.832765
 21
-109.160410
 31
0.0
  0
LINE
  8
0
  6
BYLAYER
 62
     7
 10
662.832765
 20
-101.160410
 30
0.0
 11
662.832765
 21
-109.160410
 31
0.0
  0
LINE
  8
0
  6
BYLAYER
 62
     7
 10
662.832765
 20
-101.160410
 30
0.0
 11
654.832765
 21
-101.160410
 31
0.0
  0
LINE
  8
0
  6
BYLAYER
 62
     7
 10
654.832765
 20
-109.160410
 30
0.0
 11
654.832765
 21
-101.160410
 31
0.0
  0
LINE
  8
0
  6
BYLAYER
 62
     7
 10
672.832765
 20
-89.160410
 30
0.0
 11
664.832765
 21
-89.160410
 31
0.0
  0
LINE
  8
0
  6
BYLAYER
 62
     7
 10
672.832765
 20
-81.160410
 30
0.0
 11
672.832765
 21
-89.160410
 31
0.0
  0
LINE
  8
0
  6
BYLAYER
 62
     7
 10
672.832765
 20
-81.160410
 30
0.0
 11
664.832765
 21
-81.160410
 31
0.0
  0
LINE
  8
0
  6
BYLAYER
 62
     7
 10
664.832765
 20
-89.160410
 30
0.0
 11
664.832765
 21
-81.160410
 31
0.0
  0
LINE
  8
0
  6
BYLAYER
 62
     7
 10
702.832765
 20
-121.160410
 30
0.0
 11
694.832765
 21
-121.160410
 31
0.0
  0
LINE
  8
0
  6
BYLAYER
 62
     7
 10
702.832765
 20
-139.160410
 30
0.0
 11
702.832765
 21
-131.160410
 31
0.0
  0
LINE
  8
0
  6
BYLAYER
 62
     7
 10
702.832765
 20
-149.160410
 30
0.0
 11
702.832765
 21
-141.160410
 31
0.0
  0
LINE
  8
0
  6
BYLAYER
 62
     7
 10
702.832765
 20
-129.160410
 30
0.0
 11
702.832765
 21
-121.160410
 31
0.0
  0
LINE
  8
0
  6
BYLAYER
 62
     7
 10
694.832765
 20
-141.160410
 30
0.0
 11
694.832765
 21
-149.160410
 31
0.0
  0
LINE
  8
0
  6
BYLAYER
 62
     7
 10
692.832765
 20
-141.160410
 30
0.0
 11
692.832765
 21
-149.160410
 31
0.0
  0
LINE
  8
0
  6
BYLAYER
 62
     7
 10
702.832765
 20
-129.160410
 30
0.0
 11
694.832765
 21
-129.160410
 31
0.0
  0
LINE
  8
0
  6
BYLAYER
 62
     7
 10
702.832765
 20
-131.160410
 30
0.0
 11
694.832765
 21
-131.160410
 31
0.0
  0
LINE
  8
0
  6
BYLAYER
 62
     7
 10
702.832765
 20
-139.160410
 30
0.0
 11
694.832765
 21
-139.160410
 31
0.0
  0
LINE
  8
0
  6
BYLAYER
 62
     7
 10
692.832765
 20
-141.160410
 30
0.0
 11
684.994766
 21
-141.160410
 31
0.0
  0
LINE
  8
0
  6
BYLAYER
 62
     7
 10
702.832765
 20
-141.160410
 30
0.0
 11
694.832765
 21
-141.160410
 31
0.0
  0
LINE
  8
0
  6
BYLAYER
 62
     7
 10
692.832765
 20
-149.160410
 30
0.0
 11
684.994766
 21
-149.160410
 31
0.0
  0
LINE
  8
0
  6
BYLAYER
 62
     7
 10
702.832765
 20
-149.160410
 30
0.0
 11
694.832765
 21
-149.160410
 31
0.0
  0
LINE
  8
0
  6
BYLAYER
 62
     7
 10
684.994766
 20
-141.160410
 30
0.0
 11
684.994766
 21
-149.160410
 31
0.0
  0
LINE
  8
0
  6
BYLAYER
 62
     7
 10
694.832765
 20
-121.160410
 30
0.0
 11
694.832765
 21
-129.160410
 31
0.0
  0
LINE
  8
0
  6
BYLAYER
 62
     7
 10
694.832765
 20
-131.160410
 30
0.0
 11
694.832765
 21
-139.160410
 31
0.0
  0
LINE
  8
0
  6
BYLAYER
 62
     7
 10
692.832765
 20
-121.160410
 30
0.0
 11
684.832765
 21
-121.160410
 31
0.0
  0
LINE
  8
0
  6
BYLAYER
 62
     7
 10
692.832765
 20
-139.160410
 30
0.0
 11
692.832765
 21
-131.160410
 31
0.0
  0
LINE
  8
0
  6
BYLAYER
 62
     7
 10
692.832765
 20
-129.160410
 30
0.0
 11
692.832765
 21
-121.160410
 31
0.0
  0
LINE
  8
0
  6
BYLAYER
 62
     7
 10
692.832765
 20
-129.160410
 30
0.0
 11
684.832765
 21
-129.160410
 31
0.0
  0
LINE
  8
0
  6
BYLAYER
 62
     7
 10
692.832765
 20
-131.160410
 30
0.0
 11
684.832765
 21
-131.160410
 31
0.0
  0
LINE
  8
0
  6
BYLAYER
 62
     7
 10
692.832765
 20
-139.160410
 30
0.0
 11
684.832765
 21
-139.160410
 31
0.0
  0
LINE
  8
0
  6
BYLAYER
 62
     7
 10
684.832765
 20
-121.160410
 30
0.0
 11
684.832765
 21
-129.160410
 31
0.0
  0
LINE
  8
0
  6
BYLAYER
 62
     7
 10
684.832765
 20
-131.160410
 30
0.0
 11
684.832765
 21
-139.160410
 31
0.0
  0
LINE
  8
0
  6
BYLAYER
 62
     7
 10
682.832765
 20
-121.160410
 30
0.0
 11
674.832765
 21
-121.160410
 31
0.0
  0
LINE
  8
0
  6
BYLAYER
 62
     7
 10
682.832765
 20
-139.160410
 30
0.0
 11
682.832765
 21
-131.160410
 31
0.0
  0
LINE
  8
0
  6
BYLAYER
 62
     7
 10
682.832765
 20
-129.160410
 30
0.0
 11
682.832765
 21
-121.160410
 31
0.0
  0
LINE
  8
0
  6
BYLAYER
 62
     7
 10
682.832765
 20
-129.160410
 30
0.0
 11
674.832765
 21
-129.160410
 31
0.0
  0
LINE
  8
0
  6
BYLAYER
 62
     7
 10
682.832765
 20
-131.160410
 30
0.0
 11
674.832765
 21
-131.160410
 31
0.0
  0
LINE
  8
0
  6
BYLAYER
 62
     7
 10
682.832765
 20
-139.160410
 30
0.0
 11
674.832765
 21
-139.160410
 31
0.0
  0
LINE
  8
0
  6
BYLAYER
 62
     7
 10
674.832765
 20
-121.160410
 30
0.0
 11
674.832765
 21
-129.160410
 31
0.0
  0
LINE
  8
0
  6
BYLAYER
 62
     7
 10
674.832765
 20
-131.160410
 30
0.0
 11
674.832765
 21
-139.160410
 31
0.0
  0
LINE
  8
0
  6
BYLAYER
 62
     7
 10
692.832765
 20
-111.160410
 30
0.0
 11
684.832765
 21
-111.160410
 31
0.0
  0
LINE
  8
0
  6
BYLAYER
 62
     7
 10
692.832765
 20
-119.160410
 30
0.0
 11
692.832765
 21
-111.160410
 31
0.0
  0
LINE
  8
0
  6
BYLAYER
 62
     7
 10
692.832765
 20
-119.160410
 30
0.0
 11
684.832765
 21
-119.160410
 31
0.0
  0
LINE
  8
0
  6
BYLAYER
 62
     7
 10
684.832765
 20
-111.160410
 30
0.0
 11
684.832765
 21
-119.160410
 31
0.0
  0
LINE
  8
0
  6
BYLAYER
 62
     7
 10
682.832765
 20
-111.160410
 30
0.0
 11
674.832765
 21
-111.160410
 31
0.0
  0
LINE
  8
0
  6
BYLAYER
 62
     7
 10
682.832765
 20
-119.160410
 30
0.0
 11
682.832765
 21
-111.160410
 31
0.0
  0
LINE
  8
0
  6
BYLAYER
 62
     7
 10
682.832765
 20
-119.160410
 30
0.0
 11
674.832765
 21
-119.160410
 31
0.0
  0
LINE
  8
0
  6
BYLAYER
 62
     7
 10
674.832765
 20
-111.160410
 30
0.0
 11
674.832765
 21
-119.160410
 31
0.0
  0
LINE
  8
0
  6
BYLAYER
 62
     7
 10
672.832765
 20
-121.160410
 30
0.0
 11
664.832765
 21
-121.160410
 31
0.0
  0
LINE
  8
0
  6
BYLAYER
 62
     7
 10
672.832765
 20
-129.160410
 30
0.0
 11
672.832765
 21
-121.160410
 31
0.0
  0
LINE
  8
0
  6
BYLAYER
 62
     7
 10
672.832765
 20
-129.160410
 30
0.0
 11
664.832765
 21
-129.160410
 31
0.0
  0
LINE
  8
0
  6
BYLAYER
 62
     7
 10
664.832765
 20
-121.160410
 30
0.0
 11
664.832765
 21
-129.160410
 31
0.0
  0
LINE
  8
0
  6
BYLAYER
 62
     7
 10
672.832765
 20
-111.160410
 30
0.0
 11
664.832765
 21
-111.160410
 31
0.0
  0
LINE
  8
0
  6
BYLAYER
 62
     7
 10
672.832765
 20
-119.160410
 30
0.0
 11
672.832765
 21
-111.160410
 31
0.0
  0
LINE
  8
0
  6
BYLAYER
 62
     7
 10
672.832765
 20
-119.160410
 30
0.0
 11
664.832765
 21
-119.160410
 31
0.0
  0
LINE
  8
0
  6
BYLAYER
 62
     7
 10
664.832765
 20
-111.160410
 30
0.0
 11
664.832765
 21
-119.160410
 31
0.0
  0
LINE
  8
0
  6
BYLAYER
 62
     7
 10
702.832765
 20
-159.160410
 30
0.0
 11
702.832765
 21
-151.160410
 31
0.0
  0
LINE
  8
0
  6
BYLAYER
 62
     7
 10
694.832765
 20
-151.160410
 30
0.0
 11
694.832765
 21
-159.160410
 31
0.0
  0
LINE
  8
0
  6
BYLAYER
 62
     7
 10
702.832765
 20
-151.160410
 30
0.0
 11
694.832765
 21
-151.160410
 31
0.0
  0
LINE
  8
0
  6
BYLAYER
 62
     7
 10
702.832765
 20
-159.160410
 30
0.0
 11
694.832765
 21
-159.160410
 31
0.0
  0
LINE
  8
0
  6
BYLAYER
 62
     7
 10
682.832765
 20
-149.160410
 30
0.0
 11
682.832765
 21
-141.160410
 31
0.0
  0
LINE
  8
0
  6
BYLAYER
 62
     7
 10
682.832765
 20
-141.160410
 30
0.0
 11
674.832765
 21
-141.160410
 31
0.0
  0
LINE
  8
0
  6
BYLAYER
 62
     7
 10
682.832765
 20
-149.160410
 30
0.0
 11
674.832765
 21
-149.160410
 31
0.0
  0
LINE
  8
0
  6
BYLAYER
 62
     7
 10
674.832765
 20
-141.160410
 30
0.0
 11
674.832765
 21
-149.160410
 31
0.0
  0
LINE
  8
0
  6
BYLAYER
 62
     7
 10
662.832765
 20
-111.160410
 30
0.0
 11
654.832765
 21
-111.160410
 31
0.0
  0
LINE
  8
0
  6
BYLAYER
 62
     7
 10
662.832765
 20
-119.160410
 30
0.0
 11
662.832765
 21
-111.160410
 31
0.0
  0
LINE
  8
0
  6
BYLAYER
 62
     7
 10
662.832765
 20
-119.160410
 30
0.0
 11
654.832765
 21
-119.160410
 31
0.0
  0
LINE
  8
0
  6
BYLAYER
 62
     7
 10
654.832765
 20
-111.160410
 30
0.0
 11
654.832765
 21
-119.160410
 31
0.0
  0
LINE
  8
0
  6
BYLAYER
 62
     7
 10
672.832765
 20
-131.160410
 30
0.0
 11
664.832765
 21
-131.160410
 31
0.0
  0
LINE
  8
0
  6
BYLAYER
 62
     7
 10
672.832765
 20
-139.160410
 30
0.0
 11
672.832765
 21
-131.160410
 31
0.0
  0
LINE
  8
0
  6
BYLAYER
 62
     7
 10
672.832765
 20
-139.160410
 30
0.0
 11
664.832765
 21
-139.160410
 31
0.0
  0
LINE
  8
0
  6
BYLAYER
 62
     7
 10
664.832765
 20
-131.160410
 30
0.0
 11
664.832765
 21
-139.160410
 31
0.0
  0
ARC
  8
0
  6
BYLAYER
 62
     7
 10
739.582765
 20
-22.660410
 30
0.0
 40
1.500000
 50
180.000000
 51
265.219808
  0
ARC
  8
0
  6
BYLAYER
 62
     7
 10
668.082765
 20
-22.660410
 30
0.0
 40
1.500000
 50
274.780192
 51
360.000000
  0
ARC
  8
0
  6
BYLAYER
 62
     7
 10
676.078427
 20
-22.660410
 30
0.0
 40
1.5
 50
270.0
 51
360.0
  0
LINE
  8
0
  6
BYLAYER
 62
     7
 10
738.082765
 20
-22.660410
 30
0.0
 11
738.082765
 21
-1.160410
 31
0.0
  0
LINE
  8
0
  6
BYLAYER
 62
     7
 10
736.582765
 20
0.339590
 30
0.0
 11
671.082765
 21
0.339590
 31
0.0
  0
ARC
  8
0
  6
BYLAYER
 62
     7
 10
736.582765
 20
-1.160410
 30
0.0
 40
1.5
 50
0.0
 51
90.0
  0
ARC
  8
0
  6
BYLAYER
 62
     7
 10
671.082765
 20
-1.160410
 30
0.0
 40
1.5
 50
90.0
 51
180.0
  0
LINE
  8
0
  6
BYLAYER
 62
     7
 10
669.582765
 20
-22.660410
 30
0.0
 11
669.582765
 21
-1.160410
 31
0.0
  0
LINE
  8
0
  6
BYLAYER
 62
     7
 10
677.578427
 20
-22.660410
 30
0.0
 11
677.578427
 21
-1.160410
 31
0.0
  0
ARC
  8
0
  6
BYLAYER
 62
     7
 10
679.078427
 20
-1.160410
 30
0.0
 40
1.5
 50
90.0
 51
180.0
  0
ARC
  8
0
  6
BYLAYER
 62
     7
 10
728.587103
 20
-1.160410
 30
0.0
 40
1.5
 50
0.0
 51
90.0
  0
LINE
  8
0
  6
BYLAYER
 62
     7
 10
683.239112
 20
0.339590
 30
0.0
 11
683.731659
 21
-13.765108
 31
0.0
  0
ARC
  8
0
  6
BYLAYER
 62
     7
 10
686.729831
 20
-13.660410
 30
0.0
 40
3.000000
 50
182.0
 51
270.0
  0
LINE
  8
0
  6
BYLAYER
 62
     7
 10
693.933871
 20
-13.765108
 30
0.0
 11
694.426418
 21
0.339590
 31
0.0
  0
ARC
  8
0
  6
BYLAYER
 62
     7
 10
690.935699
 20
-13.660410
 30
0.0
 40
3.000000
 50
270.0
 51
358.0
  0
LINE
  8
0
  6
BYLAYER
 62
     7
 10
708.933871
 20
-13.765108
 30
0.0
 11
709.426418
 21
0.339590
 31
0.0
  0
ARC
  8
0
  6
BYLAYER
 62
     7
 10
705.935699
 20
-13.660410
 30
0.0
 40
3.000000
 50
270.0
 51
358.0
  0
LINE
  8
0
  6
BYLAYER
 62
     7
 10
723.933871
 20
-13.765108
 30
0.0
 11
724.426418
 21
0.339590
 31
0.0
  0
ARC
  8
0
  6
BYLAYER
 62
     7
 10
720.935699
 20
-13.660410
 30
0.0
 40
3.000000
 50
270.0
 51
358.0
  0
LINE
  8
0
  6
BYLAYER
 62
     7
 10
713.239112
 20
0.339590
 30
0.0
 11
713.731659
 21
-13.765108
 31
0.0
  0
ARC
  8
0
  6
BYLAYER
 62
     7
 10
716.729831
 20
-13.660410
 30
0.0
 40
3.000000
 50
182.0
 51
270.0
  0
LINE
  8
0
  6
BYLAYER
 62
     7
 10
698.239112
 20
0.339590
 30
0.0
 11
698.731659
 21
-13.765108
 31
0.0
  0
ARC
  8
0
  6
BYLAYER
 62
     7
 10
701.729831
 20
-13.660410
 30
0.0
 40
3.000000
 50
182.0
 51
270.0
  0
LINE
  8
0
  6
BYLAYER
 62
     7
 10
716.729831
 20
-16.660410
 30
0.0
 11
720.935699
 21
-16.660410
 31
0.0
  0
LINE
  8
0
  6
BYLAYER
 62
     7
 10
701.729831
 20
-16.660410
 30
0.0
 11
705.935699
 21
-16.660410
 31
0.0
  0
LINE
  8
0
  6
BYLAYER
 62
     7
 10
686.729831
 20
-16.660410
 30
0.0
 11
690.935699
 21
-16.660410
 31
0.0
  0
LINE
  8
0
  6
BYLAYER
 62
     7
 10
698.274033
 20
-0.660410
 30
0.0
 11
709.391497
 21
-0.660410
 31
0.0
  0
LINE
  8
0
  6
BYLAYER
 62
     7
 10
713.274033
 20
-0.660410
 30
0.0
 11
724.391497
 21
-0.660410
 31
0.0
  0
LINE
  8
0
  6
BYLAYER
 62
     7
 10
683.274033
 20
-0.660410
 30
0.0
 11
694.391497
 21
-0.660410
 31
0.0
  0
LINE
  8
0
  6
BYLAYER
 62
     7
 10
730.087103
 20
-1.160410
 30
0.0
 11
730.087103
 21
-22.660410
 31
0.0
  0
ARC
  8
0
  6
BYLAYER
 62
     7
 10
668.332765
 20
-25.649975
 30
0.0
 40
1.500000
 50
94.780192
 51
180.000000
  0
LINE
  8
0
  6
BYLAYER
 62
     7
 10
668.332765
 20
-24.160410
 30
0.0
 11
739.582765
 21
-24.160410
 31
0.0
  0
ARC
  8
0
  6
BYLAYER
 62
     7
 10
739.332765
 20
-25.649975
 30
0.0
 40
1.500000
 50
0.0
 51
85.219808
  0
LINE
  8
0
  6
BYLAYER
 62
     7
 10
740.832765
 20
-33.160410
 30
0.0
 11
740.832765
 21
-25.649975
 31
0.0
  0
ARC
  8
0
  6
BYLAYER
 62
     7
 10
731.587103
 20
-22.660410
 30
0.0
 40
1.5
 50
180.000000
 51
270.000000
  0
LINE
  8
0
  6
BYLAYER
 62
     7
 10
740.832765
 20
-31.160349
 30
0.0
 11
666.832765
 21
-31.160349
 31
0.0
  0
LINE
  8
0
  6
BYLAYER
 62
     7
 10
666.832765
 20
-25.649975
 30
0.0
 11
666.832765
 21
-33.160410
 31
0.0
  0
LINE
  8
0
  6
BYLAYER
 62
     7
 10
666.832765
 20
-33.160410
 30
0.0
 11
740.832765
 21
-33.160410
 31
0.0
  0
ARC
  8
0
  6
BYLAYER
 62
     7
 10
703.832765
 20
-450.160410
 30
0.0
 40
68.000000
 50
86.147657
 51
93.852343
  0
LINE
  8
0
  6
BYLAYER
 62
     7
 10
697.466675
 20
-383.791898
 30
0.0
 11
695.378855
 21
-391.583751
 31
0.0
  0
ARC
  8
0
  6
BYLAYER
 62
     7
 10
693.447003
 20
-391.066113
 30
0.0
 40
2.0
 50
279.967878
 51
345.000000
  0
ARC
  8
0
  6
BYLAYER
 62
     7
 10
699.398527
 20
-384.309537
 30
0.0
 40
2.000000
 50
93.852343
 51
165.000000
  0
LINE
  8
0
  6
BYLAYER
 62
     7
 10
710.198855
 20
-383.791898
 30
0.0
 11
712.286675
 21
-391.583751
 31
0.0
  0
ARC
  8
0
  6
BYLAYER
 62
     7
 10
714.218527
 20
-391.066113
 30
0.0
 40
2.0
 50
195.000000
 51
260.032122
  0
ARC
  8
0
  6
BYLAYER
 62
     7
 10
708.267003
 20
-384.309537
 30
0.0
 40
2.000000
 50
15.0
 51
86.147657
  0
ARC
  8
0
  6
BYLAYER
 62
     7
 10
703.832765
 20
-450.160410
 30
0.0
 40
58.0
 50
189.967878
 51
217.523513
  0
ARC
  8
0
  6
BYLAYER
 62
     7
 10
703.832765
 20
-450.160410
 30
0.0
 40
58.000000
 50
322.476487
 51
350.032122
  0
ARC
  8
0
  6
BYLAYER
 62
     7
 10
703.832765
 20
-450.160410
 30
0.0
 40
58.0
 50
99.967878
 51
170.032122
  0
ARC
  8
0
  6
BYLAYER
 62
     7
 10
703.832765
 20
-450.160410
 30
0.0
 40
58.0
 50
9.967878
 51
80.032122
  0
ARC
  8
0
  6
BYLAYER
 62
     7
 10
703.832765
 20
-450.160410
 30
0.0
 40
68.0
 50
176.147657
 51
183.852343
  0
LINE
  8
0
  6
BYLAYER
 62
     7
 10
637.464253
 20
-456.526500
 30
0.0
 11
645.256106
 21
-458.614320
 31
0.0
  0
ARC
  8
0
  6
BYLAYER
 62
     7
 10
644.738468
 20
-460.546172
 30
0.0
 40
2.0
 50
9.967878
 51
75.0
  0
ARC
  8
0
  6
BYLAYER
 62
     7
 10
637.981892
 20
-454.594648
 30
0.0
 40
2.0
 50
183.852343
 51
255.000000
  0
LINE
  8
0
  6
BYLAYER
 62
     7
 10
637.464253
 20
-443.794320
 30
0.0
 11
645.256106
 21
-441.706500
 31
0.0
  0
ARC
  8
0
  6
BYLAYER
 62
     7
 10
644.738468
 20
-439.774648
 30
0.0
 40
2.0
 50
285.000000
 51
350.032122
  0
ARC
  8
0
  6
BYLAYER
 62
     7
 10
637.981892
 20
-445.726172
 30
0.0
 40
2.0
 50
105.0
 51
176.147657
  0
ARC
  8
0
  6
BYLAYER
 62
     7
 10
703.832765
 20
-450.160410
 30
0.0
 40
68.000000
 50
356.147657
 51
363.852343
  0
LINE
  8
0
  6
BYLAYER
 62
     7
 10
770.201277
 20
-443.794320
 30
0.0
 11
762.409424
 21
-441.706500
 31
0.0
  0
ARC
  8
0
  6
BYLAYER
 62
     7
 10
762.927062
 20
-439.774648
 30
0.0
 40
2.0
 50
189.967878
 51
255.0
  0
ARC
  8
0
  6
BYLAYER
 62
     7
 10
769.683638
 20
-445.726172
 30
0.0
 40
2.0
 50
3.852343
 51
75.000000
  0
LINE
  8
0
  6
BYLAYER
 62
     7
 10
770.201277
 20
-456.526500
 30
0.0
 11
762.409424
 21
-458.614320
 31
0.0
  0
ARC
  8
0
  6
BYLAYER
 62
     7
 10
762.927062
 20
-460.546172
 30
0.0
 40
2.0
 50
105.000000
 51
170.032122
  0
ARC
  8
0
  6
BYLAYER
 62
     7
 10
769.683638
 20
-454.594648
 30
0.0
 40
2.0
 50
285.000000
 51
356.147657
  0
ARC
  8
0
  6
BYLAYER
 62
     7
 10
703.832765
 20
-450.160410
 30
0.0
 40
52.500000
 50
331.186183
 51
395.950568
  0
ARC
  8
0
  6
BYLAYER
 62
     7
 10
703.832765
 20
-450.160410
 30
0.0
 40
52.5
 50
40.362328
 51
139.637672
  0
ARC
  8
0
  6
BYLAYER
 62
     7
 10
703.832765
 20
-450.160410
 30
0.0
 40
52.5
 50
144.049432
 51
208.813817
  0
ARC
  8
0
  6
BYLAYER
 62
     7
 10
703.832765
 20
-450.160410
 30
0.0
 40
55.522000
 50
325.945001
 51
574.054999
  0
ARC
  8
0
  6
BYLAYER
 62
     7
 10
667.832765
 20
-398.860422
 30
0.0
 40
1.0
 50
180.000000
 51
269.999996
  0
ARC
  8
0
  6
BYLAYER
 62
     7
 10
739.832765
 20
-398.860422
 30
0.0
 40
1.000000
 50
270.0
 51
359.999999
  0
LINE
  8
0
  6
BYLAYER
 62
     7
 10
666.832765
 20
-373.160410
 30
0.0
 11
666.832765
 21
-398.860422
 31
0.0
  0
LINE
  8
0
  6
BYLAYER
 62
     7
 10
740.832765
 20
-373.160410
 30
0.0
 11
740.832765
 21
-398.860422
 31
0.0
  0
LINE
  8
0
  6
BYLAYER
 62
     7
 10
666.832765
 20
-377.660410
 30
0.0
 11
669.832765
 21
-382.856546
 31
0.0
  0
LINE
  8
0
  6
BYLAYER
 62
     7
 10
669.832765
 20
-382.856546
 30
0.0
 11
669.832765
 21
-403.171050
 31
0.0
  0
LINE
  8
0
  6
BYLAYER
 62
     7
 10
669.832765
 20
-399.860422
 30
0.0
 11
667.832765
 21
-399.860422
 31
0.0
  0
LINE
  8
0
  6
BYLAYER
 62
     7
 10
740.832765
 20
-377.660410
 30
0.0
 11
737.832765
 21
-382.856546
 31
0.0
  0
LINE
  8
0
  6
BYLAYER
 62
     7
 10
765.507081
 20
-422.610910
 30
0.0
 11
754.666045
 21
-422.232331
 31
0.0
  0
LINE
  8
0
  6
BYLAYER
 62
     7
 10
769.115846
 20
-433.310892
 30
0.0
 11
759.225319
 21
-432.965500
 31
0.0
  0
LINE
  8
0
  6
BYLAYER
 62
     7
 10
769.115846
 20
-434.909922
 30
0.0
 11
759.878791
 21
-435.232485
 31
0.0
  0
LINE
  8
0
  6
BYLAYER
 62
     7
 10
765.507081
 20
-424.209910
 30
0.0
 11
755.870486
 21
-424.546438
 31
0.0
  0
LINE
  8
0
  6
BYLAYER
 62
     7
 10
759.657960
 20
-413.509928
 30
0.0
 11
749.083965
 21
-413.879163
 31
0.0
  0
ARC
  8
0
  6
BYLAYER
 62
     7
 10
759.630067
 20
-412.710398
 30
0.0
 40
0.800016
 50
272.000017
 51
447.999987
  0
ARC
  8
0
  6
BYLAYER
 62
     7
 10
765.479158
 20
-423.410410
 30
0.0
 40
0.799987
 50
272.000017
 51
447.999987
  0
ARC
  8
0
  6
BYLAYER
 62
     7
 10
769.087953
 20
-434.110422
 30
0.0
 40
0.799986
 50
271.999743
 51
448.000267
  0
LINE
  8
0
  6
BYLAYER
 62
     7
 10
759.657960
 20
-488.409922
 30
0.0
 11
749.832765
 21
-488.753023
 31
0.0
  0
LINE
  8
0
  6
BYLAYER
 62
     7
 10
765.507081
 20
-477.709910
 30
0.0
 11
754.666045
 21
-478.088489
 31
0.0
  0
LINE
  8
0
  6
BYLAYER
 62
     7
 10
769.115846
 20
-467.009928
 30
0.0
 11
759.225324
 21
-467.355306
 31
0.0
  0
LINE
  8
0
  6
BYLAYER
 62
     7
 10
769.115846
 20
-465.410898
 30
0.0
 11
759.878791
 21
-465.088335
 31
0.0
  0
LINE
  8
0
  6
BYLAYER
 62
     7
 10
765.507081
 20
-476.110895
 30
0.0
 11
755.870487
 21
-475.774381
 31
0.0
  0
LINE
  8
0
  6
BYLAYER
 62
     7
 10
759.657960
 20
-486.810892
 30
0.0
 11
749.832765
 21
-486.467792
 31
0.0
  0
ARC
  8
0
  6
BYLAYER
 62
     7
 10
759.630067
 20
-487.610407
 30
0.0
 40
0.800001
 50
272.000017
 51
447.999987
  0
ARC
  8
0
  6
BYLAYER
 62
     7
 10
765.479158
 20
-476.910410
 30
0.0
 40
0.800002
 50
272.000017
 51
447.999987
  0
ARC
  8
0
  6
BYLAYER
 62
     7
 10
769.087953
 20
-466.210398
 30
0.0
 40
0.799986
 50
271.999743
 51
448.000260
  0
ARC
  8
0
  6
BYLAYER
 62
     7
 10
768.961854
 20
-469.710398
 30
0.0
 40
0.5
 50
270.0
 51
343.291700
  0
ARC
  8
0
  6
BYLAYER
 62
     7
 10
703.832765
 20
-450.160410
 30
0.0
 40
68.499992
 50
343.291646
 51
349.364586
  0
ARC
  8
0
  6
BYLAYER
 62
     7
 10
770.664613
 20
-462.710398
 30
0.0
 40
0.500015
 50
349.364559
 51
450.000003
  0
LINE
  8
0
  6
BYLAYER
 62
     7
 10
760.640432
 20
-461.860364
 30
0.0
 11
770.664613
 21
-462.210398
 31
0.0
  0
LINE
  8
0
  6
BYLAYER
 62
     7
 10
758.115974
 20
-470.589145
 30
0.0
 11
768.961854
 21
-470.210398
 31
0.0
  0
ARC
  8
0
  6
BYLAYER
 62
     7
 10
768.874666
 20
-432.110422
 30
0.0
 40
0.499996
 50
15.510094
 51
90.000003
  0
ARC
  8
0
  6
BYLAYER
 62
     7
 10
703.832765
 20
-450.160410
 30
0.0
 40
68.000008
 50
12.013850
 51
15.510050
  0
ARC
  8
0
  6
BYLAYER
 62
     7
 10
769.854341
 20
-436.110422
 30
0.0
 40
0.5
 50
270.0
 51
372.013821
  0
LINE
  8
0
  6
BYLAYER
 62
     7
 10
758.664718
 20
-431.253878
 30
0.0
 11
768.874666
 21
-431.610422
 31
0.0
  0
LINE
  8
0
  6
BYLAYER
 62
     7
 10
760.306844
 20
-436.943813
 30
0.0
 11
769.854341
 21
-436.610422
 31
0.0
  0
LINE
  8
0
  6
BYLAYER
 62
     7
 10
751.935548
 20
-497.132532
 30
0.0
 11
749.832765
 21
-494.877567
 31
0.0
  0
LINE
  8
0
  6
BYLAYER
 62
     7
 10
750.804872
 20
-498.263224
 30
0.0
 11
749.832765
 21
-497.356720
 31
0.0
  0
ARC
  8
0
  6
BYLAYER
 62
     7
 10
751.350465
 20
-497.678141
 30
0.0
 40
0.799996
 50
226.999862
 51
402.999927
  0
LINE
  8
0
  6
BYLAYER
 62
     7
 10
648.007570
 20
-411.910898
 30
0.0
 11
660.623046
 21
-411.470358
 31
0.0
  0
LINE
  8
0
  6
BYLAYER
 62
     7
 10
642.158449
 20
-422.610910
 30
0.0
 11
652.999484
 21
-422.232332
 31
0.0
  0
LINE
  8
0
  6
BYLAYER
 62
     7
 10
638.549684
 20
-433.310892
 30
0.0
 11
648.440211
 21
-432.965500
 31
0.0
  0
LINE
  8
0
  6
BYLAYER
 62
     7
 10
638.549684
 20
-434.909922
 30
0.0
 11
647.786739
 21
-435.232484
 31
0.0
  0
LINE
  8
0
  6
BYLAYER
 62
     7
 10
642.158449
 20
-424.209910
 30
0.0
 11
651.795044
 21
-424.546438
 31
0.0
  0
LINE
  8
0
  6
BYLAYER
 62
     7
 10
648.007570
 20
-413.509928
 30
0.0
 11
658.581566
 21
-413.879162
 31
0.0
  0
ARC
  8
0
  6
BYLAYER
 62
     7
 10
648.035524
 20
-412.710398
 30
0.0
 40
0.800019
 50
92.000012
 51
267.999985
  0
ARC
  8
0
  6
BYLAYER
 62
     7
 10
642.186403
 20
-423.410410
 30
0.0
 40
0.799988
 50
92.000012
 51
267.999985
  0
ARC
  8
0
  6
BYLAYER
 62
     7
 10
638.577638
 20
-434.110422
 30
0.0
 40
0.799988
 50
91.999732
 51
268.000258
  0
LINE
  8
0
  6
BYLAYER
 62
     7
 10
648.007570
 20
-488.409922
 30
0.0
 11
657.832765
 21
-488.753024
 31
0.0
  0
LINE
  8
0
  6
BYLAYER
 62
     7
 10
642.158449
 20
-477.709910
 30
0.0
 11
652.999484
 21
-478.088488
 31
0.0
  0
LINE
  8
0
  6
BYLAYER
 62
     7
 10
638.549684
 20
-467.009928
 30
0.0
 11
648.440206
 21
-467.355306
 31
0.0
  0
LINE
  8
0
  6
BYLAYER
 62
     7
 10
638.549684
 20
-465.410898
 30
0.0
 11
647.786739
 21
-465.088336
 31
0.0
  0
LINE
  8
0
  6
BYLAYER
 62
     7
 10
642.158449
 20
-476.110895
 30
0.0
 11
651.795043
 21
-475.774381
 31
0.0
  0
LINE
  8
0
  6
BYLAYER
 62
     7
 10
648.007570
 20
-486.810892
 30
0.0
 11
657.832765
 21
-486.467793
 31
0.0
  0
ARC
  8
0
  6
BYLAYER
 62
     7
 10
648.035524
 20
-487.610407
 30
0.0
 40
0.800003
 50
92.000012
 51
267.999985
  0
ARC
  8
0
  6
BYLAYER
 62
     7
 10
642.186403
 20
-476.910410
 30
0.0
 40
0.800003
 50
92.000012
 51
267.999985
  0
ARC
  8
0
  6
BYLAYER
 62
     7
 10
638.577638
 20
-466.210398
 30
0.0
 40
0.799988
 50
91.999738
 51
268.000258
  0
ARC
  8
0
  6
BYLAYER
 62
     7
 10
638.703676
 20
-469.710398
 30
0.0
 40
0.500000
 50
196.708301
 51
270.000001
  0
ARC
  8
0
  6
BYLAYER
 62
     7
 10
703.832765
 20
-450.160410
 30
0.0
 40
68.499992
 50
190.635416
 51
196.708355
  0
ARC
  8
0
  6
BYLAYER
 62
     7
 10
637.000856
 20
-462.710398
 30
0.0
 40
0.499925
 50
90.0
 51
190.635447
  0
LINE
  8
0
  6
BYLAYER
 62
     7
 10
647.025098
 20
-461.860364
 30
0.0
 11
637.000856
 21
-462.210398
 31
0.0
  0
LINE
  8
0
  6
BYLAYER
 62
     7
 10
649.549555
 20
-470.589143
 30
0.0
 11
638.703676
 21
-470.210398
 31
0.0
  0
ARC
  8
0
  6
BYLAYER
 62
     7
 10
638.790895
 20
-432.110422
 30
0.0
 40
0.500026
 50
90.0
 51
164.489906
  0
ARC
  8
0
  6
BYLAYER
 62
     7
 10
703.832765
 20
-450.160410
 30
0.0
 40
68.000008
 50
164.489957
 51
167.986153
  0
ARC
  8
0
  6
BYLAYER
 62
     7
 10
637.811159
 20
-436.110422
 30
0.0
 40
0.499970
 50
167.986180
 51
270.000001
  0
LINE
  8
0
  6
BYLAYER
 62
     7
 10
649.000812
 20
-431.253877
 30
0.0
 11
638.790895
 21
-431.610422
 31
0.0
  0
LINE
  8
0
  6
BYLAYER
 62
     7
 10
647.358686
 20
-436.943812
 30
0.0
 11
637.811159
 21
-436.610422
 31
0.0
  0
LINE
  8
0
  6
BYLAYER
 62
     7
 10
655.729982
 20
-497.132532
 30
0.0
 11
657.832765
 21
-494.877557
 31
0.0
  0
LINE
  8
0
  6
BYLAYER
 62
     7
 10
656.860658
 20
-498.263224
 30
0.0
 11
657.832765
 21
-497.356720
 31
0.0
  0
ARC
  8
0
  6
BYLAYER
 62
     7
 10
656.315065
 20
-497.678141
 30
0.0
 40
0.799996
 50
137.000071
 51
313.000140
  0
LINE
  8
0
  6
BYLAYER
 62
     7
 10
747.042493
 20
-411.470367
 30
0.0
 11
759.657960
 21
-411.910898
 31
0.0
  0
LINE
  8
0
  6
BYLAYER
 62
     7
 10
737.832765
 20
-382.856546
 30
0.0
 11
737.832765
 21
-403.171050
 31
0.0
  0
LINE
  8
0
  6
BYLAYER
 62
     7
 10
737.832765
 20
-399.860422
 30
0.0
 11
739.832765
 21
-399.860422
 31
0.0
  0
ARC
  8
0
  6
BYLAYER
 62
     7
 10
703.832765
 20
-450.160410
 30
0.0
 40
69.450000
 50
311.479116
 51
417.808050
  0
ARC
  8
0
  6
BYLAYER
 62
     7
 10
703.832765
 20
-450.160410
 30
0.0
 40
69.450000
 50
122.191950
 51
228.520884
  0
ARC
  8
0
  6
BYLAYER
 62
     7
 10
739.582765
 20
-362.660410
 30
0.0
 40
1.500000
 50
180.000000
 51
265.219808
  0
ARC
  8
0
  6
BYLAYER
 62
     7
 10
668.082765
 20
-362.660410
 30
0.0
 40
1.500000
 50
274.780192
 51
360.000000
  0
ARC
  8
0
  6
BYLAYER
 62
     7
 10
676.078427
 20
-362.660410
 30
0.0
 40
1.5
 50
270.0
 51
360.0
  0
LINE
  8
0
  6
BYLAYER
 62
     7
 10
738.082765
 20
-362.660410
 30
0.0
 11
738.082765
 21
-341.160410
 31
0.0
  0
LINE
  8
0
  6
BYLAYER
 62
     7
 10
736.582765
 20
-339.660410
 30
0.0
 11
671.082765
 21
-339.660410
 31
0.0
  0
ARC
  8
0
  6
BYLAYER
 62
     7
 10
736.582765
 20
-341.160410
 30
0.0
 40
1.5
 50
0.0
 51
90.0
  0
ARC
  8
0
  6
BYLAYER
 62
     7
 10
671.082765
 20
-341.160410
 30
0.0
 40
1.5
 50
90.0
 51
180.0
  0
LINE
  8
0
  6
BYLAYER
 62
     7
 10
669.582765
 20
-362.660410
 30
0.0
 11
669.582765
 21
-341.160410
 31
0.0
  0
LINE
  8
0
  6
BYLAYER
 62
     7
 10
677.578427
 20
-362.660410
 30
0.0
 11
677.578427
 21
-341.160410
 31
0.0
  0
ARC
  8
0
  6
BYLAYER
 62
     7
 10
679.078427
 20
-341.160410
 30
0.0
 40
1.5
 50
90.0
 51
180.0
  0
ARC
  8
0
  6
BYLAYER
 62
     7
 10
728.587103
 20
-341.160410
 30
0.0
 40
1.5
 50
0.0
 51
90.0
  0
LINE
  8
0
  6
BYLAYER
 62
     7
 10
683.239112
 20
-339.660410
 30
0.0
 11
683.731659
 21
-353.765108
 31
0.0
  0
ARC
  8
0
  6
BYLAYER
 62
     7
 10
686.729831
 20
-353.660410
 30
0.0
 40
3.0
 50
182.000000
 51
270.000000
  0
LINE
  8
0
  6
BYLAYER
 62
     7
 10
693.933871
 20
-353.765108
 30
0.0
 11
694.426418
 21
-339.660410
 31
0.0
  0
ARC
  8
0
  6
BYLAYER
 62
     7
 10
690.935699
 20
-353.660410
 30
0.0
 40
3.000000
 50
270.0
 51
358.0
  0
LINE
  8
0
  6
BYLAYER
 62
     7
 10
708.933871
 20
-353.765108
 30
0.0
 11
709.426418
 21
-339.660410
 31
0.0
  0
ARC
  8
0
  6
BYLAYER
 62
     7
 10
705.935699
 20
-353.660410
 30
0.0
 40
3.000000
 50
270.0
 51
358.0
  0
LINE
  8
0
  6
BYLAYER
 62
     7
 10
723.933871
 20
-353.765108
 30
0.0
 11
724.426418
 21
-339.660410
 31
0.0
  0
ARC
  8
0
  6
BYLAYER
 62
     7
 10
720.935699
 20
-353.660410
 30
0.0
 40
3.000000
 50
270.0
 51
358.0
  0
LINE
  8
0
  6
BYLAYER
 62
     7
 10
713.239112
 20
-339.660410
 30
0.0
 11
713.731659
 21
-353.765108
 31
0.0
  0
ARC
  8
0
  6
BYLAYER
 62
     7
 10
716.729831
 20
-353.660410
 30
0.0
 40
3.0
 50
182.000000
 51
270.000000
  0
LINE
  8
0
  6
BYLAYER
 62
     7
 10
698.239112
 20
-339.660410
 30
0.0
 11
698.731659
 21
-353.765108
 31
0.0
  0
ARC
  8
0
  6
BYLAYER
 62
     7
 10
701.729831
 20
-353.660410
 30
0.0
 40
3.0
 50
182.000000
 51
270.000000
  0
LINE
  8
0
  6
BYLAYER
 62
     7
 10
716.729831
 20
-356.660410
 30
0.0
 11
720.935699
 21
-356.660410
 31
0.0
  0
LINE
  8
0
  6
BYLAYER
 62
     7
 10
701.729831
 20
-356.660410
 30
0.0
 11
705.935699
 21
-356.660410
 31
0.0
  0
LINE
  8
0
  6
BYLAYER
 62
     7
 10
686.729831
 20
-356.660410
 30
0.0
 11
690.935699
 21
-356.660410
 31
0.0
  0
LINE
  8
0
  6
BYLAYER
 62
     7
 10
698.274033
 20
-340.660410
 30
0.0
 11
709.391497
 21
-340.660410
 31
0.0
  0
LINE
  8
0
  6
BYLAYER
 62
     7
 10
713.274033
 20
-340.660410
 30
0.0
 11
724.391497
 21
-340.660410
 31
0.0
  0
LINE
  8
0
  6
BYLAYER
 62
     7
 10
683.274033
 20
-340.660410
 30
0.0
 11
694.391497
 21
-340.660410
 31
0.0
  0
LINE
  8
0
  6
BYLAYER
 62
     7
 10
730.087103
 20
-341.160410
 30
0.0
 11
730.087103
 21
-362.660410
 31
0.0
  0
ARC
  8
0
  6
BYLAYER
 62
     7
 10
668.332765
 20
-365.649975
 30
0.0
 40
1.500000
 50
94.780192
 51
180.000000
  0
LINE
  8
0
  6
BYLAYER
 62
     7
 10
668.332765
 20
-364.160410
 30
0.0
 11
739.582765
 21
-364.160410
 31
0.0
  0
ARC
  8
0
  6
BYLAYER
 62
     7
 10
739.332765
 20
-365.649975
 30
0.0
 40
1.500000
 50
0.0
 51
85.219808
  0
LINE
  8
0
  6
BYLAYER
 62
     7
 10
740.832765
 20
-373.160410
 30
0.0
 11
740.832765
 21
-365.649975
 31
0.0
  0
ARC
  8
0
  6
BYLAYER
 62
     7
 10
731.587103
 20
-362.660410
 30
0.0
 40
1.5
 50
180.000000
 51
270.000000
  0
LINE
  8
0
  6
BYLAYER
 62
     7
 10
740.832765
 20
-371.160349
 30
0.0
 11
666.832765
 21
-371.160349
 31
0.0
  0
LINE
  8
0
  6
BYLAYER
 62
     7
 10
666.832765
 20
-365.649975
 30
0.0
 11
666.832765
 21
-373.160410
 31
0.0
  0
LINE
  8
0
  6
BYLAYER
 62
     7
 10
666.832765
 20
-373.160410
 30
0.0
 11
740.832765
 21
-373.160410
 31
0.0
  0
LINE
  8
0
  6
BYLAYER
 62
     1
 10
247.832765
 20
-460.160410
 30
0.0
 11
247.832765
 21
-512.660285
 31
0.0
  0
LINE
  8
0
  6
BYLAYER
 62
     1
 10
228.832765
 20
-490.660273
 30
0.0
 11
228.832765
 21
-460.160410
 31
0.0
  0
LINE
  8
0
  6
BYLAYER
 62
     1
 10
241.728120
 20
-512.340387
 30
0.0
 11
247.832765
 21
-512.660285
 31
0.0
  0
ARC
  8
0
  6
BYLAYER
 62
     1
 10
237.847566
 20
-510.686884
 30
0.0
 40
2.000014
 50
4.929978
 51
28.000489
  0
ARC
  8
0
  6
BYLAYER
 62
     1
 10
241.832765
 20
-510.343134
 30
0.0
 40
2.000000
 50
180.000000
 51
267.000750
  0
LINE
  8
0
  6
BYLAYER
 62
     1
 10
229.983583
 20
-491.636774
 30
0.0
 11
239.613466
 21
-509.747919
 31
0.0
  0
ARC
  8
0
  6
BYLAYER
 62
     1
 10
228.217683
 20
-492.575708
 30
0.0
 40
2.000026
 50
27.999718
 51
66.000227
  0
LINE
  8
0
  6
BYLAYER
 62
     1
 10
228.832765
 20
-490.660273
 30
0.0
 11
239.536104
 21
-495.424982
 31
0.0
  0
LINE
  8
0
  6
BYLAYER
 62
     1
 10
239.832765
 20
-510.343134
 30
0.0
 11
239.832765
 21
-460.160410
 31
0.0
  0
ARC
  8
0
  6
BYLAYER
 62
     1
 10
239.332765
 20
-495.881769
 30
0.0
 40
0.500001
 50
0.0
 51
66.003779
  0
LINE
  8
0
  6
BYLAYER
 62
     1
 10
247.832765
 20
-460.160410
 30
0.0
 11
247.832765
 21
-407.660535
 31
0.0
  0
LINE
  8
0
  6
BYLAYER
 62
     1
 10
228.832765
 20
-429.660547
 30
0.0
 11
228.832765
 21
-460.160410
 31
0.0
  0
LINE
  8
0
  6
BYLAYER
 62
     1
 10
241.728120
 20
-407.980433
 30
0.0
 11
247.832765
 21
-407.660535
 31
0.0
  0
ARC
  8
0
  6
BYLAYER
 62
     1
 10
237.847566
 20
-409.633936
 30
0.0
 40
2.000014
 50
331.999511
 51
355.070022
  0
ARC
  8
0
  6
BYLAYER
 62
     1
 10
241.832765
 20
-409.977686
 30
0.0
 40
2.000000
 50
92.999250
 51
180.000000
  0
LINE
  8
0
  6
BYLAYER
 62
     1
 10
229.983583
 20
-428.684046
 30
0.0
 11
239.613466
 21
-410.572901
 31
0.0
  0
ARC
  8
0
  6
BYLAYER
 62
     1
 10
228.217683
 20
-427.745112
 30
0.0
 40
2.000026
 50
293.999773
 51
332.000282
  0
LINE
  8
0
  6
BYLAYER
 62
     1
 10
228.832765
 20
-429.660547
 30
0.0
 11
239.536104
 21
-424.895838
 31
0.0
  0
LINE
  8
0
  6
BYLAYER
 62
     1
 10
239.832765
 20
-409.977686
 30
0.0
 11
239.832765
 21
-460.160410
 31
0.0
  0
ARC
  8
0
  6
BYLAYER
 62
     1
 10
239.332765
 20
-424.439051
 30
0.0
 40
0.500001
 50
293.996221
 51
360.000000
  0
ENDSEC
  0
EOF
