  0
SECTION
  2
HEADER
  9
$EXTMIN
 10
97.610922
 20
550.0
 30
0.0
  9
$EXTMAX
 10
765.870307
 20
0.0
 30
0.0
  0
ENDSEC
  0
SECTION
  2
TABLES
  0
ENDSEC
  0
SECTION
  2
BLOCKS
  0
ENDSEC
  0
SECTION
  2
ENTITIES
  0
LINE
  8
0
  6
BYLAYER
 62
     7
 10
265.617686
 20
-49.193508
 30
0.0
 11
267.617686
 21
-49.193508
 31
0.0
  0
ARC
  8
0
  6
BYLAYER
 62
     7
 10
271.717783
 20
-131.293423
 30
0.0
 40
0.600037
 50
90.0
 51
270.000012
  0
ARC
  8
0
  6
BYLAYER
 62
     7
 10
268.217783
 20
-131.293423
 30
0.0
 40
0.600037
 50
90.0
 51
270.000012
  0
ARC
  8
0
  6
BYLAYER
 62
     7
 10
271.717783
 20
-120.293423
 30
0.0
 40
0.600037
 50
90.0
 51
270.000012
  0
ARC
  8
0
  6
BYLAYER
 62
     7
 10
268.217783
 20
-120.293423
 30
0.0
 40
0.600037
 50
90.0
 51
270.000012
  0
ARC
  8
0
  6
BYLAYER
 62
     7
 10
271.717783
 20
-109.293423
 30
0.0
 40
0.600037
 50
90.0
 51
270.000012
  0
ARC
  8
0
  6
BYLAYER
 62
     7
 10
268.217783
 20
-109.293423
 30
0.0
 40
0.600037
 50
90.0
 51
270.000012
  0
ARC
  8
0
  6
BYLAYER
 62
     7
 10
271.717783
 20
-87.293423
 30
0.0
 40
0.600037
 50
90.0
 51
270.000012
  0
ARC
  8
0
  6
BYLAYER
 62
     7
 10
268.217783
 20
-87.293423
 30
0.0
 40
0.600037
 50
90.0
 51
270.000012
  0
ARC
  8
0
  6
BYLAYER
 62
     7
 10
271.717722
 20
-76.293423
 30
0.0
 40
0.600037
 50
90.0
 51
270.000012
  0
ARC
  8
0
  6
BYLAYER
 62
     7
 10
268.217783
 20
-76.293423
 30
0.0
 40
0.600037
 50
90.0
 51
270.000012
  0
ARC
  8
0
  6
BYLAYER
 62
     7
 10
271.717722
 20
-65.293423
 30
0.0
 40
0.600037
 50
90.0
 51
270.000012
  0
ARC
  8
0
  6
BYLAYER
 62
     7
 10
268.217783
 20
-65.293423
 30
0.0
 40
0.600037
 50
90.0
 51
270.000012
  0
LINE
  8
0
  6
BYLAYER
 62
     7
 10
267.617747
 20
-98.293484
 30
0.0
 11
267.617808
 21
-147.393460
 31
0.0
  0
ARC
  8
0
  6
BYLAYER
 62
     7
 10
271.717783
 20
-98.293423
 30
0.0
 40
0.600037
 50
90.0
 51
270.000012
  0
ARC
  8
0
  6
BYLAYER
 62
     7
 10
268.217783
 20
-98.293423
 30
0.0
 40
0.600037
 50
90.0
 51
270.000012
  0
LINE
  8
0
  6
BYLAYER
 62
     7
 10
267.617747
 20
-98.293484
 30
0.0
 11
267.617686
 21
-33.093411
 31
0.0
  0
LINE
  8
0
  6
BYLAYER
 62
     7
 10
347.617747
 20
-33.093411
 30
0.0
 11
267.617686
 21
-33.093411
 31
0.0
  0
LINE
  8
0
  6
BYLAYER
 62
     7
 10
360.867747
 20
-38.293423
 30
0.0
 11
347.617747
 21
-38.293423
 31
0.0
  0
LINE
  8
0
  6
BYLAYER
 62
     7
 10
347.617747
 20
-39.293423
 30
0.0
 11
360.867747
 21
-39.293423
 31
0.0
  0
LINE
  8
0
  6
BYLAYER
 62
     7
 10
347.617747
 20
-42.293423
 30
0.0
 11
360.867747
 21
-42.293423
 31
0.0
  0
LINE
  8
0
  6
BYLAYER
 62
     7
 10
347.617747
 20
-48.293423
 30
0.0
 11
360.867747
 21
-48.293423
 31
0.0
  0
ARC
  8
0
  6
BYLAYER
 62
     7
 10
288.117747
 20
-46.593411
 30
0.0
 40
11.500000
 50
180.000000
 51
360.000005
  0
ARC
  8
0
  6
BYLAYER
 62
     7
 10
327.117747
 20
-46.593411
 30
0.0
 40
11.500000
 50
180.000000
 51
360.000005
  0
LINE
  8
0
  6
BYLAYER
 62
     7
 10
267.617686
 20
-43.093472
 30
0.0
 11
275.617747
 21
-43.093472
 31
0.0
  0
ARC
  8
0
  6
BYLAYER
 62
     7
 10
275.617747
 20
-44.093472
 30
0.0
 40
1.000000
 50
0.0
 51
89.999992
  0
ARC
  8
0
  6
BYLAYER
 62
     7
 10
300.617747
 20
-44.093411
 30
0.0
 40
1.000000
 50
90.0
 51
180.000003
  0
LINE
  8
0
  6
BYLAYER
 62
     7
 10
300.617747
 20
-43.093411
 30
0.0
 11
314.617747
 21
-43.093411
 31
0.0
  0
ARC
  8
0
  6
BYLAYER
 62
     7
 10
314.617747
 20
-44.093411
 30
0.0
 40
1.000000
 50
0.0
 51
89.999992
  0
LINE
  8
0
  6
BYLAYER
 62
     7
 10
339.617747
 20
-43.093411
 30
0.0
 11
347.617747
 21
-43.093411
 31
0.0
  0
ARC
  8
0
  6
BYLAYER
 62
     7
 10
339.617747
 20
-44.093411
 30
0.0
 40
1.0
 50
90.0
 51
180.000003
  0
CIRCLE
  8
0
  6
BYLAYER
 62
     7
 10
290.367747
 20
-87.290737
 30
0.0
 40
1.35
  0
CIRCLE
  8
0
  6
BYLAYER
 62
     7
 10
345.367747
 20
-87.221646
 30
0.0
 40
1.350000
  0
LINE
  8
0
  6
BYLAYER
 62
     7
 10
268.217783
 20
-86.693447
 30
0.0
 11
287.427805
 21
-86.693447
 31
0.0
  0
LINE
  8
0
  6
BYLAYER
 62
     7
 10
268.217783
 20
-87.893460
 30
0.0
 11
287.428904
 21
-87.893460
 31
0.0
  0
LINE
  8
0
  6
BYLAYER
 62
     7
 10
293.307688
 20
-86.693447
 30
0.0
 11
317.867747
 21
-86.693447
 31
0.0
  0
LINE
  8
0
  6
BYLAYER
 62
     7
 10
293.306589
 20
-87.893460
 30
0.0
 11
317.867747
 21
-87.893460
 31
0.0
  0
LINE
  8
0
  6
BYLAYER
 62
     7
 10
342.414622
 20
-86.693386
 30
0.0
 11
317.867747
 21
-86.693447
 31
0.0
  0
LINE
  8
0
  6
BYLAYER
 62
     7
 10
342.443919
 20
-87.893399
 30
0.0
 11
317.867747
 21
-87.893460
 31
0.0
  0
LINE
  8
0
  6
BYLAYER
 62
     7
 10
360.867747
 20
-86.693386
 30
0.0
 11
348.320872
 21
-86.693386
 31
0.0
  0
LINE
  8
0
  6
BYLAYER
 62
     7
 10
360.867747
 20
-87.893399
 30
0.0
 11
348.291575
 21
-87.893399
 31
0.0
  0
LINE
  8
0
  6
BYLAYER
 62
     7
 10
360.867747
 20
-149.293542
 30
0.0
 11
317.867869
 21
-149.293484
 31
0.0
  0
LINE
  8
0
  6
BYLAYER
 62
     7
 10
360.867747
 20
-155.293542
 30
0.0
 11
317.867869
 21
-155.293484
 31
0.0
  0
LINE
  8
0
  6
BYLAYER
 62
     7
 10
360.867747
 20
-158.293542
 30
0.0
 11
317.867869
 21
-158.293484
 31
0.0
  0
LINE
  8
0
  6
BYLAYER
 62
     7
 10
267.617930
 20
-136.293545
 30
0.0
 11
270.704050
 21
-147.811184
 31
0.0
  0
ARC
  8
0
  6
BYLAYER
 62
     7
 10
272.635874
 20
-147.293545
 30
0.0
 40
1.999973
 50
195.000043
 51
270.000055
  0
LINE
  8
0
  6
BYLAYER
 62
     7
 10
267.617930
 20
-143.293545
 30
0.0
 11
269.242258
 21
-142.355740
 31
0.0
  0
LINE
  8
0
  6
BYLAYER
 62
     7
 10
267.617930
 20
-143.293545
 30
0.0
 11
270.436106
 21
-153.811184
 31
0.0
  0
ARC
  8
0
  6
BYLAYER
 62
     7
 10
272.367930
 20
-153.293545
 30
0.0
 40
1.999973
 50
195.000043
 51
270.000055
  0
ARC
  8
0
  6
BYLAYER
 62
     7
 10
272.367991
 20
-156.293545
 30
0.0
 40
2.000032
 50
195.000070
 51
270.000055
  0
LINE
  8
0
  6
BYLAYER
 62
     7
 10
267.617930
 20
-146.293545
 30
0.0
 11
270.436106
 21
-156.811184
 31
0.0
  0
LINE
  8
0
  6
BYLAYER
 62
     7
 10
272.635874
 20
-149.293545
 30
0.0
 11
317.867869
 21
-149.293484
 31
0.0
  0
LINE
  8
0
  6
BYLAYER
 62
     7
 10
272.367991
 20
-155.293545
 30
0.0
 11
317.867869
 21
-155.293484
 31
0.0
  0
LINE
  8
0
  6
BYLAYER
 62
     7
 10
272.367991
 20
-158.293545
 30
0.0
 11
317.867869
 21
-158.293484
 31
0.0
  0
LINE
  8
0
  6
BYLAYER
 62
     7
 10
267.617808
 20
-147.393460
 30
0.0
 11
267.873118
 21
-147.246060
 31
0.0
  0
ARC
  8
0
  6
BYLAYER
 62
     7
 10
290.367747
 20
-87.290737
 30
0.0
 40
3.000002
 50
11.484133
 51
168.515862
  0
ARC
  8
0
  6
BYLAYER
 62
     7
 10
345.367747
 20
-87.221646
 30
0.0
 40
2.999990
 50
10.140737
 51
169.859264
  0
ARC
  8
0
  6
BYLAYER
 62
     7
 10
345.367747
 20
-87.221646
 30
0.0
 40
3.000004
 50
192.939225
 51
347.060790
  0
ARC
  8
0
  6
BYLAYER
 62
     7
 10
290.367747
 20
-87.290737
 30
0.0
 40
2.999964
 50
191.590672
 51
348.409452
  0
LINE
  8
0
  6
BYLAYER
 62
     7
 10
268.217783
 20
-65.893521
 30
0.0
 11
360.867747
 21
-65.893407
 31
0.0
  0
LINE
  8
0
  6
BYLAYER
 62
     7
 10
268.217783
 20
-75.693447
 30
0.0
 11
360.867747
 21
-75.693390
 31
0.0
  0
LINE
  8
0
  6
BYLAYER
 62
     7
 10
268.217783
 20
-76.893521
 30
0.0
 11
360.867747
 21
-76.893407
 31
0.0
  0
LINE
  8
0
  6
BYLAYER
 62
     7
 10
276.617747
 20
-39.593472
 30
0.0
 11
276.617747
 21
-46.593411
 31
0.0
  0
LINE
  8
0
  6
BYLAYER
 62
     7
 10
274.617747
 20
-37.593472
 30
0.0
 11
267.617686
 21
-37.593472
 31
0.0
  0
ARC
  8
0
  6
BYLAYER
 62
     7
 10
274.617747
 20
-39.593472
 30
0.0
 40
2.0
 50
0.0
 51
90.000003
  0
LINE
  8
0
  6
BYLAYER
 62
     7
 10
299.617747
 20
-39.593472
 30
0.0
 11
299.617747
 21
-46.593411
 31
0.0
  0
ARC
  8
0
  6
BYLAYER
 62
     7
 10
301.617747
 20
-39.593472
 30
0.0
 40
2.000000
 50
90.0
 51
180.000003
  0
LINE
  8
0
  6
BYLAYER
 62
     7
 10
315.617747
 20
-39.593472
 30
0.0
 11
315.617747
 21
-46.593411
 31
0.0
  0
LINE
  8
0
  6
BYLAYER
 62
     7
 10
313.617747
 20
-37.593472
 30
0.0
 11
301.617747
 21
-37.593472
 31
0.0
  0
ARC
  8
0
  6
BYLAYER
 62
     7
 10
313.617747
 20
-39.593472
 30
0.0
 40
2.0
 50
0.0
 51
90.000003
  0
LINE
  8
0
  6
BYLAYER
 62
     7
 10
338.617747
 20
-39.593411
 30
0.0
 11
338.617747
 21
-46.593411
 31
0.0
  0
LINE
  8
0
  6
BYLAYER
 62
     7
 10
347.617747
 20
-37.593411
 30
0.0
 11
340.617747
 21
-37.593411
 31
0.0
  0
ARC
  8
0
  6
BYLAYER
 62
     7
 10
340.617747
 20
-39.593411
 30
0.0
 40
2.0
 50
90.0
 51
180.000003
  0
LINE
  8
0
  6
BYLAYER
 62
     7
 10
360.867747
 20
-64.693447
 30
0.0
 11
268.217783
 21
-64.693447
 31
0.0
  0
LINE
  8
0
  6
BYLAYER
 62
     7
 10
347.617747
 20
-64.693447
 30
0.0
 11
347.617747
 21
-33.093411
 31
0.0
  0
LINE
  8
0
  6
BYLAYER
 62
     7
 10
268.217783
 20
-97.693447
 30
0.0
 11
360.867747
 21
-97.693447
 31
0.0
  0
LINE
  8
0
  6
BYLAYER
 62
     7
 10
268.217783
 20
-98.893460
 30
0.0
 11
360.867747
 21
-98.893460
 31
0.0
  0
LINE
  8
0
  6
BYLAYER
 62
     7
 10
268.217783
 20
-109.893460
 30
0.0
 11
360.867747
 21
-109.893400
 31
0.0
  0
LINE
  8
0
  6
BYLAYER
 62
     7
 10
268.217783
 20
-119.693447
 30
0.0
 11
360.867747
 21
-119.693390
 31
0.0
  0
LINE
  8
0
  6
BYLAYER
 62
     7
 10
268.217783
 20
-120.893521
 30
0.0
 11
360.867747
 21
-120.893407
 31
0.0
  0
LINE
  8
0
  6
BYLAYER
 62
     7
 10
268.217783
 20
-130.693508
 30
0.0
 11
360.867747
 21
-130.693394
 31
0.0
  0
LINE
  8
0
  6
BYLAYER
 62
     7
 10
268.217783
 20
-131.893521
 30
0.0
 11
360.867747
 21
-131.893407
 31
0.0
  0
LINE
  8
0
  6
BYLAYER
 62
     7
 10
268.217783
 20
-108.693447
 30
0.0
 11
360.867747
 21
-108.693386
 31
0.0
  0
LINE
  8
0
  6
BYLAYER
 62
     7
 10
359.617747
 20
-65.893399
 30
0.0
 11
359.617747
 21
-75.693386
 31
0.0
  0
LINE
  8
0
  6
BYLAYER
 62
     7
 10
276.117808
 20
-65.893521
 30
0.0
 11
276.117808
 21
-75.693447
 31
0.0
  0
LINE
  8
0
  6
BYLAYER
 62
     7
 10
359.617747
 20
-76.893399
 30
0.0
 11
359.617747
 21
-86.693386
 31
0.0
  0
LINE
  8
0
  6
BYLAYER
 62
     7
 10
276.117808
 20
-76.893521
 30
0.0
 11
276.117808
 21
-86.693386
 31
0.0
  0
LINE
  8
0
  6
BYLAYER
 62
     7
 10
359.617747
 20
-87.893460
 30
0.0
 11
359.617747
 21
-97.693447
 31
0.0
  0
LINE
  8
0
  6
BYLAYER
 62
     7
 10
276.117808
 20
-87.893460
 30
0.0
 11
276.117808
 21
-97.693447
 31
0.0
  0
LINE
  8
0
  6
BYLAYER
 62
     7
 10
276.117808
 20
-98.893460
 30
0.0
 11
276.117808
 21
-108.693447
 31
0.0
  0
LINE
  8
0
  6
BYLAYER
 62
     7
 10
359.617747
 20
-98.893460
 30
0.0
 11
359.617747
 21
-108.693386
 31
0.0
  0
LINE
  8
0
  6
BYLAYER
 62
     7
 10
276.117808
 20
-109.893460
 30
0.0
 11
276.117808
 21
-119.693447
 31
0.0
  0
LINE
  8
0
  6
BYLAYER
 62
     7
 10
359.617747
 20
-109.893399
 30
0.0
 11
359.617747
 21
-119.693386
 31
0.0
  0
LINE
  8
0
  6
BYLAYER
 62
     7
 10
276.117808
 20
-120.893460
 30
0.0
 11
276.117808
 21
-130.693508
 31
0.0
  0
LINE
  8
0
  6
BYLAYER
 62
     7
 10
359.617747
 20
-120.893399
 30
0.0
 11
359.617747
 21
-130.693386
 31
0.0
  0
LINE
  8
0
  6
BYLAYER
 62
     7
 10
360.867747
 20
-64.197524
 30
0.0
 11
359.659861
 21
-64.681362
 31
0.0
  0
LINE
  8
0
  6
BYLAYER
 62
     7
 10
276.107859
 20
-64.564724
 30
0.0
 11
267.583567
 21
-62.148770
 31
0.0
  0
LINE
  8
0
  6
BYLAYER
 62
     7
 10
276.117808
 20
-131.893460
 30
0.0
 11
276.117808
 21
-133.893460
 31
0.0
  0
LINE
  8
0
  6
BYLAYER
 62
     7
 10
359.617747
 20
-131.893399
 30
0.0
 11
359.617747
 21
-133.893399
 31
0.0
  0
LINE
  8
0
  6
BYLAYER
 62
     7
 10
359.617747
 20
-133.893399
 30
0.0
 11
276.117808
 21
-133.893460
 31
0.0
  0
LINE
  8
0
  6
BYLAYER
 62
     7
 10
359.617747
 20
-133.893399
 30
0.0
 11
360.867747
 21
-134.246362
 31
0.0
  0
LINE
  8
0
  6
BYLAYER
 62
     7
 10
276.117808
 20
-133.893460
 30
0.0
 11
267.617930
 21
-136.293545
 31
0.0
  0
LINE
  8
0
  6
BYLAYER
 62
     7
 10
265.617686
 20
-147.393521
 30
0.0
 11
267.617686
 21
-147.393521
 31
0.0
  0
LINE
  8
0
  6
BYLAYER
 62
     7
 10
360.867747
 20
-98.293514
 30
0.0
 11
360.867747
 21
-37.693514
 31
0.0
  0
LINE
  8
0
  6
BYLAYER
 62
     7
 10
417.116275
 20
-37.693514
 30
0.0
 11
427.467747
 21
-48.044986
 31
0.0
  0
LINE
  8
0
  6
BYLAYER
 62
     7
 10
360.867747
 20
-37.693514
 30
0.0
 11
367.867747
 21
-37.693514
 31
0.0
  0
LINE
  8
0
  6
BYLAYER
 62
     7
 10
367.867747
 20
-37.693514
 30
0.0
 11
417.116275
 21
-37.693514
 31
0.0
  0
LINE
  8
0
  6
BYLAYER
 62
     7
 10
427.467747
 20
-48.044986
 30
0.0
 11
427.467747
 21
-98.293514
 31
0.0
  0
LINE
  8
0
  6
BYLAYER
 62
     7
 10
360.867747
 20
-158.893514
 30
0.0
 11
360.867747
 21
-98.293514
 31
0.0
  0
LINE
  8
0
  6
BYLAYER
 62
     7
 10
427.467747
 20
-148.542043
 30
0.0
 11
417.116275
 21
-158.893514
 31
0.0
  0
LINE
  8
0
  6
BYLAYER
 62
     7
 10
417.116275
 20
-158.893514
 30
0.0
 11
360.867747
 21
-158.893514
 31
0.0
  0
LINE
  8
0
  6
BYLAYER
 62
     7
 10
427.467747
 20
-98.293514
 30
0.0
 11
427.467747
 21
-148.542043
 31
0.0
  0
LINE
  8
0
  6
BYLAYER
 62
     7
 10
238.617747
 20
-167.793515
 30
0.0
 11
238.617747
 21
-98.293515
 31
0.0
  0
LINE
  8
0
  6
BYLAYER
 62
     7
 10
239.117747
 20
-168.293515
 30
0.0
 11
238.617747
 21
-167.793515
 31
0.0
  0
LINE
  8
0
  6
BYLAYER
 62
     7
 10
238.617747
 20
-98.293515
 30
0.0
 11
238.617747
 21
-28.793515
 31
0.0
  0
LINE
  8
0
  6
BYLAYER
 62
     7
 10
238.617747
 20
-28.793515
 30
0.0
 11
239.117747
 21
-28.293515
 31
0.0
  0
LINE
  8
0
  6
BYLAYER
 62
     7
 10
247.617747
 20
-168.293515
 30
0.0
 11
239.117747
 21
-168.293515
 31
0.0
  0
LINE
  8
0
  6
BYLAYER
 62
     7
 10
247.617747
 20
-98.293515
 30
0.0
 11
247.617747
 21
-168.293515
 31
0.0
  0
LINE
  8
0
  6
BYLAYER
 62
     7
 10
249.582835
 20
-49.013608
 30
0.0
 11
265.617747
 21
-49.293515
 31
0.0
  0
LINE
  8
0
  6
BYLAYER
 62
     7
 10
247.617747
 20
-28.293515
 30
0.0
 11
247.617747
 21
-98.293515
 31
0.0
  0
ARC
  8
0
  6
BYLAYER
 62
     7
 10
249.617747
 20
-47.013913
 30
0.0
 40
2.000000
 50
180.000000
 51
268.999783
  0
LINE
  8
0
  6
BYLAYER
 62
     7
 10
239.117747
 20
-28.293515
 30
0.0
 11
247.617747
 21
-28.293515
 31
0.0
  0
LINE
  8
0
  6
BYLAYER
 62
     7
 10
263.617747
 20
-147.328427
 30
0.0
 11
263.617747
 21
-157.293515
 31
0.0
  0
LINE
  8
0
  6
BYLAYER
 62
     7
 10
265.617747
 20
-147.293515
 30
0.0
 11
263.617747
 21
-147.328427
 31
0.0
  0
LINE
  8
0
  6
BYLAYER
 62
     7
 10
263.617747
 20
-157.293515
 30
0.0
 11
247.617747
 21
-157.572790
 31
0.0
  0
LINE
  8
0
  6
BYLAYER
 62
     7
 10
265.617747
 20
-98.293515
 30
0.0
 11
265.617747
 21
-147.293515
 31
0.0
  0
LINE
  8
0
  6
BYLAYER
 62
     7
 10
265.617747
 20
-49.293515
 30
0.0
 11
265.617747
 21
-98.293515
 31
0.0
  0
ARC
  8
0
  6
BYLAYER
 62
     7
 10
338.372024
 20
-22.593411
 30
0.0
 40
1.500000
 50
180.000000
 51
270.000000
  0
ARC
  8
0
  6
BYLAYER
 62
     7
 10
276.863348
 20
-22.593411
 30
0.0
 40
1.5
 50
270.0
 51
360.0
  0
ARC
  8
0
  6
BYLAYER
 62
     7
 10
269.117686
 20
-22.593411
 30
0.0
 40
1.5
 50
270.0
 51
360.0
  0
ARC
  8
0
  6
BYLAYER
 62
     7
 10
269.117686
 20
-25.593411
 30
0.0
 40
1.5
 50
90.0
 51
180.0
  0
ARC
  8
0
  6
BYLAYER
 62
     7
 10
346.117686
 20
-22.593411
 30
0.0
 40
1.500000
 50
180.000000
 51
270.000000
  0
LINE
  8
0
  6
BYLAYER
 62
     7
 10
270.617686
 20
-22.593411
 30
0.0
 11
270.617686
 21
-1.093411
 31
0.0
  0
ARC
  8
0
  6
BYLAYER
 62
     7
 10
272.117686
 20
-1.093411
 30
0.0
 40
1.500000
 50
90.0
 51
180.0
  0
LINE
  8
0
  6
BYLAYER
 62
     7
 10
344.617686
 20
-22.593411
 30
0.0
 11
344.617686
 21
-1.093411
 31
0.0
  0
LINE
  8
0
  6
BYLAYER
 62
     7
 10
272.117686
 20
0.406589
 30
0.0
 11
343.117686
 21
0.406589
 31
0.0
  0
ARC
  8
0
  6
BYLAYER
 62
     7
 10
335.372024
 20
-1.093411
 30
0.0
 40
1.500000
 50
0.0
 51
90.0
  0
ARC
  8
0
  6
BYLAYER
 62
     7
 10
343.117686
 20
-1.093411
 30
0.0
 40
1.500000
 50
0.0
 51
90.0
  0
LINE
  8
0
  6
BYLAYER
 62
     7
 10
278.363348
 20
-22.593411
 30
0.0
 11
278.363348
 21
-1.093411
 31
0.0
  0
ARC
  8
0
  6
BYLAYER
 62
     7
 10
279.863348
 20
-1.093411
 30
0.0
 40
1.500000
 50
90.0
 51
180.0
  0
LINE
  8
0
  6
BYLAYER
 62
     7
 10
336.872024
 20
-22.593411
 30
0.0
 11
336.872024
 21
-1.093411
 31
0.0
  0
ARC
  8
0
  6
BYLAYER
 62
     7
 10
346.117686
 20
-25.593411
 30
0.0
 40
1.5
 50
0.0
 51
90.0
  0
LINE
  8
0
  6
BYLAYER
 62
     7
 10
347.617686
 20
-33.093411
 30
0.0
 11
347.617686
 21
-25.593411
 31
0.0
  0
LINE
  8
0
  6
BYLAYER
 62
     7
 10
346.117686
 20
-24.093411
 30
0.0
 11
269.117686
 21
-24.093411
 31
0.0
  0
LINE
  8
0
  6
BYLAYER
 62
     7
 10
267.617686
 20
-25.593411
 30
0.0
 11
267.617686
 21
-33.093411
 31
0.0
  0
LINE
  8
0
  6
BYLAYER
 62
     7
 10
267.617686
 20
-33.093411
 30
0.0
 11
347.617686
 21
-33.093411
 31
0.0
  0
LINE
  8
0
  6
BYLAYER
 62
     7
 10
347.617686
 20
-31.093411
 30
0.0
 11
267.617686
 21
-31.093411
 31
0.0
  0
LINE
  8
0
  6
BYLAYER
 62
     7
 10
417.116275
 20
-37.693514
 30
0.0
 11
417.116275
 21
-158.893514
 31
0.0
  0
LINE
  8
0
  6
BYLAYER
 62
     7
 10
270.617747
 20
-472.810170
 30
0.0
 11
270.617747
 21
-423.776800
 31
0.0
  0
LINE
  8
0
  6
BYLAYER
 62
     7
 10
280.080153
 20
-414.043485
 30
0.0
 11
335.155341
 21
-414.043485
 31
0.0
  0
LINE
  8
0
  6
BYLAYER
 62
     7
 10
344.617747
 20
-423.776800
 30
0.0
 11
344.617747
 21
-472.810170
 31
0.0
  0
LINE
  8
0
  6
BYLAYER
 62
     7
 10
335.155341
 20
-482.543485
 30
0.0
 11
280.080153
 21
-482.543485
 31
0.0
  0
LINE
  8
0
  6
BYLAYER
 62
     7
 10
284.722445
 20
-438.394591
 30
0.0
 11
270.617747
 21
-438.887138
 31
0.0
  0
ARC
  8
0
  6
BYLAYER
 62
     7
 10
284.617747
 20
-435.396419
 30
0.0
 40
3.000000
 50
272.000000
 51
360.000000
  0
LINE
  8
0
  6
BYLAYER
 62
     7
 10
284.722445
 20
-453.394591
 30
0.0
 11
270.617747
 21
-453.887138
 31
0.0
  0
ARC
  8
0
  6
BYLAYER
 62
     7
 10
284.617747
 20
-450.396419
 30
0.0
 40
3.000000
 50
272.000000
 51
360.000000
  0
LINE
  8
0
  6
BYLAYER
 62
     7
 10
284.722445
 20
-468.394591
 30
0.0
 11
270.617747
 21
-468.887138
 31
0.0
  0
ARC
  8
0
  6
BYLAYER
 62
     7
 10
284.617747
 20
-465.396419
 30
0.0
 40
3.000000
 50
272.000000
 51
360.000000
  0
LINE
  8
0
  6
BYLAYER
 62
     7
 10
270.617747
 20
-457.699832
 30
0.0
 11
284.722445
 21
-458.192379
 31
0.0
  0
ARC
  8
0
  6
BYLAYER
 62
     7
 10
284.617747
 20
-461.190551
 30
0.0
 40
3.000000
 50
0.0
 51
88.0
  0
LINE
  8
0
  6
BYLAYER
 62
     7
 10
270.617747
 20
-442.699832
 30
0.0
 11
284.722445
 21
-443.192379
 31
0.0
  0
ARC
  8
0
  6
BYLAYER
 62
     7
 10
284.617747
 20
-446.190551
 30
0.0
 40
3.000000
 50
0.0
 51
88.0
  0
LINE
  8
0
  6
BYLAYER
 62
     7
 10
287.617747
 20
-461.190551
 30
0.0
 11
287.617747
 21
-465.396419
 31
0.0
  0
LINE
  8
0
  6
BYLAYER
 62
     7
 10
287.617747
 20
-446.190551
 30
0.0
 11
287.617747
 21
-450.396419
 31
0.0
  0
LINE
  8
0
  6
BYLAYER
 62
     7
 10
271.617747
 20
-442.734753
 30
0.0
 11
271.617747
 21
-453.852217
 31
0.0
  0
LINE
  8
0
  6
BYLAYER
 62
     7
 10
271.617747
 20
-457.734753
 30
0.0
 11
271.617747
 21
-468.852217
 31
0.0
  0
LINE
  8
0
  6
BYLAYER
 62
     7
 10
271.617747
 20
-427.734753
 30
0.0
 11
271.617747
 21
-438.852217
 31
0.0
  0
LINE
  8
0
  6
BYLAYER
 62
     7
 10
344.617747
 20
-427.699832
 30
0.0
 11
330.513049
 21
-428.192379
 31
0.0
  0
ARC
  8
0
  6
BYLAYER
 62
     7
 10
330.617747
 20
-431.190551
 30
0.0
 40
3.000000
 50
92.000000
 51
180.000000
  0
LINE
  8
0
  6
BYLAYER
 62
     7
 10
330.513049
 20
-438.394591
 30
0.0
 11
344.617747
 21
-438.887138
 31
0.0
  0
ARC
  8
0
  6
BYLAYER
 62
     7
 10
330.617747
 20
-435.396419
 30
0.0
 40
3.000000
 50
180.000000
 51
268.000000
  0
LINE
  8
0
  6
BYLAYER
 62
     7
 10
330.513049
 20
-453.394591
 30
0.0
 11
344.617747
 21
-453.887138
 31
0.0
  0
ARC
  8
0
  6
BYLAYER
 62
     7
 10
330.617747
 20
-450.396419
 30
0.0
 40
3.000000
 50
180.000000
 51
268.000000
  0
LINE
  8
0
  6
BYLAYER
 62
     7
 10
330.513049
 20
-468.394591
 30
0.0
 11
344.617747
 21
-468.887138
 31
0.0
  0
ARC
  8
0
  6
BYLAYER
 62
     7
 10
330.617747
 20
-465.396419
 30
0.0
 40
3.000000
 50
180.000000
 51
268.000000
  0
LINE
  8
0
  6
BYLAYER
 62
     7
 10
344.617747
 20
-457.699832
 30
0.0
 11
330.513049
 21
-458.192379
 31
0.0
  0
ARC
  8
0
  6
BYLAYER
 62
     7
 10
330.617747
 20
-461.190551
 30
0.0
 40
3.000000
 50
92.000000
 51
180.000000
  0
LINE
  8
0
  6
BYLAYER
 62
     7
 10
344.617747
 20
-442.699832
 30
0.0
 11
330.513049
 21
-443.192379
 31
0.0
  0
ARC
  8
0
  6
BYLAYER
 62
     7
 10
330.617747
 20
-446.190551
 30
0.0
 40
3.000000
 50
92.000000
 51
180.000000
  0
LINE
  8
0
  6
BYLAYER
 62
     7
 10
327.617747
 20
-461.190551
 30
0.0
 11
327.617747
 21
-465.396419
 31
0.0
  0
LINE
  8
0
  6
BYLAYER
 62
     7
 10
327.617747
 20
-446.190551
 30
0.0
 11
327.617747
 21
-450.396419
 31
0.0
  0
LINE
  8
0
  6
BYLAYER
 62
     7
 10
327.617747
 20
-431.190551
 30
0.0
 11
327.617747
 21
-435.396419
 31
0.0
  0
LINE
  8
0
  6
BYLAYER
 62
     7
 10
343.617747
 20
-442.734753
 30
0.0
 11
343.617747
 21
-453.852217
 31
0.0
  0
LINE
  8
0
  6
BYLAYER
 62
     7
 10
343.617747
 20
-457.734753
 30
0.0
 11
343.617747
 21
-468.852217
 31
0.0
  0
LINE
  8
0
  6
BYLAYER
 62
     7
 10
343.617747
 20
-427.734753
 30
0.0
 11
343.617747
 21
-438.852217
 31
0.0
  0
LINE
  8
0
  6
BYLAYER
 62
     7
 10
267.617747
 20
-412.793485
 30
0.0
 11
267.617747
 21
-483.793485
 31
0.0
  0
ARC
  8
0
  6
BYLAYER
 62
     7
 10
269.117747
 20
-483.793485
 30
0.0
 40
1.5
 50
180.000000
 51
270.000000
  0
ARC
  8
0
  6
BYLAYER
 62
     7
 10
269.117747
 20
-412.793485
 30
0.0
 40
1.5
 50
90.0
 51
180.0
  0
LINE
  8
0
  6
BYLAYER
 62
     7
 10
346.117747
 20
-411.293485
 30
0.0
 11
269.117747
 21
-411.293485
 31
0.0
  0
ARC
  8
0
  6
BYLAYER
 62
     7
 10
346.117747
 20
-412.793485
 30
0.0
 40
1.5
 50
0.0
 51
90.0
  0
LINE
  8
0
  6
BYLAYER
 62
     7
 10
347.617747
 20
-483.793485
 30
0.0
 11
347.617747
 21
-412.793485
 31
0.0
  0
LINE
  8
0
  6
BYLAYER
 62
     7
 10
269.117747
 20
-485.293485
 30
0.0
 11
346.117747
 21
-485.293485
 31
0.0
  0
ARC
  8
0
  6
BYLAYER
 62
     7
 10
346.117747
 20
-483.793485
 30
0.0
 40
1.5
 50
270.0
 51
360.0
  0
ARC
  8
0
  6
BYLAYER
 62
     7
 10
342.617747
 20
-416.293485
 30
0.0
 40
6.000000
 50
174.260830
 51
273.822554
  0
ARC
  8
0
  6
BYLAYER
 62
     7
 10
343.117747
 20
-423.776800
 30
0.0
 40
1.500000
 50
0.0
 51
93.822554
  0
ARC
  8
0
  6
BYLAYER
 62
     7
 10
335.155341
 20
-415.543485
 30
0.0
 40
1.500000
 50
354.26083
 51
450.0
  0
ARC
  8
0
  6
BYLAYER
 62
     7
 10
342.617747
 20
-480.293485
 30
0.0
 40
6.000000
 50
86.177446
 51
185.739170
  0
ARC
  8
0
  6
BYLAYER
 62
     7
 10
343.117747
 20
-472.810170
 30
0.0
 40
1.500000
 50
266.177446
 51
360.000000
  0
ARC
  8
0
  6
BYLAYER
 62
     7
 10
335.155341
 20
-481.043485
 30
0.0
 40
1.500000
 50
270.0
 51
365.739170
  0
ARC
  8
0
  6
BYLAYER
 62
     7
 10
272.617747
 20
-480.293485
 30
0.0
 40
6.000000
 50
354.260830
 51
453.822554
  0
ARC
  8
0
  6
BYLAYER
 62
     7
 10
280.080153
 20
-481.043485
 30
0.0
 40
1.5
 50
174.260830
 51
270.000000
  0
ARC
  8
0
  6
BYLAYER
 62
     7
 10
272.117747
 20
-472.810170
 30
0.0
 40
1.500000
 50
180.000000
 51
273.822554
  0
ARC
  8
0
  6
BYLAYER
 62
     7
 10
272.617747
 20
-416.293485
 30
0.0
 40
6.0
 50
266.177446
 51
365.739170
  0
ARC
  8
0
  6
BYLAYER
 62
     7
 10
272.117747
 20
-423.776800
 30
0.0
 40
1.500000
 50
86.177446
 51
180.0
  0
ARC
  8
0
  6
BYLAYER
 62
     7
 10
280.080153
 20
-415.543485
 30
0.0
 40
1.5
 50
90.0
 51
185.73917
  0
ARC
  8
0
  6
BYLAYER
 62
     7
 10
294.617747
 20
-421.293485
 30
0.0
 40
3.000000
 50
90.0
 51
180.0
  0
ARC
  8
0
  6
BYLAYER
 62
     7
 10
320.617747
 20
-421.293485
 30
0.0
 40
3.000000
 50
0.0
 51
90.0
  0
LINE
  8
0
  6
BYLAYER
 62
     7
 10
294.617747
 20
-418.293485
 30
0.0
 11
320.617747
 21
-418.293485
 31
0.0
  0
ARC
  8
0
  6
BYLAYER
 62
     7
 10
294.617747
 20
-475.293485
 30
0.0
 40
3.000000
 50
180.000000
 51
270.000000
  0
ARC
  8
0
  6
BYLAYER
 62
     7
 10
320.617747
 20
-475.293485
 30
0.0
 40
3.000000
 50
270.0
 51
360.0
  0
LINE
  8
0
  6
BYLAYER
 62
     7
 10
294.617747
 20
-478.293485
 30
0.0
 11
320.617747
 21
-478.293485
 31
0.0
  0
LINE
  8
0
  6
BYLAYER
 62
     7
 10
291.617747
 20
-475.293485
 30
0.0
 11
291.617747
 21
-421.293485
 31
0.0
  0
LINE
  8
0
  6
BYLAYER
 62
     7
 10
323.617747
 20
-421.293485
 30
0.0
 11
323.617747
 21
-475.293485
 31
0.0
  0
LINE
  8
0
  6
BYLAYER
 62
     7
 10
267.617747
 20
-448.293485
 30
0.0
 11
267.617808
 21
-497.393461
 31
0.0
  0
LINE
  8
0
  6
BYLAYER
 62
     7
 10
360.867747
 20
-499.293543
 30
0.0
 11
317.867869
 21
-499.293485
 31
0.0
  0
LINE
  8
0
  6
BYLAYER
 62
     7
 10
360.867747
 20
-505.293543
 30
0.0
 11
317.867869
 21
-505.293485
 31
0.0
  0
LINE
  8
0
  6
BYLAYER
 62
     7
 10
360.867747
 20
-508.293543
 30
0.0
 11
317.867869
 21
-508.293485
 31
0.0
  0
LINE
  8
0
  6
BYLAYER
 62
     7
 10
267.617930
 20
-486.293546
 30
0.0
 11
270.704050
 21
-497.811185
 31
0.0
  0
ARC
  8
0
  6
BYLAYER
 62
     7
 10
272.635874
 20
-497.293546
 30
0.0
 40
1.999973
 50
195.000043
 51
270.000055
  0
LINE
  8
0
  6
BYLAYER
 62
     7
 10
267.617930
 20
-493.293546
 30
0.0
 11
269.242258
 21
-492.355741
 31
0.0
  0
LINE
  8
0
  6
BYLAYER
 62
     7
 10
267.617930
 20
-493.293546
 30
0.0
 11
270.436106
 21
-503.811185
 31
0.0
  0
ARC
  8
0
  6
BYLAYER
 62
     7
 10
272.367930
 20
-503.293546
 30
0.0
 40
1.999973
 50
195.000043
 51
270.000055
  0
ARC
  8
0
  6
BYLAYER
 62
     7
 10
272.367991
 20
-506.293546
 30
0.0
 40
2.000032
 50
195.000070
 51
270.000055
  0
LINE
  8
0
  6
BYLAYER
 62
     7
 10
267.617930
 20
-496.293546
 30
0.0
 11
270.436106
 21
-506.811185
 31
0.0
  0
LINE
  8
0
  6
BYLAYER
 62
     7
 10
272.635874
 20
-499.293546
 30
0.0
 11
317.867869
 21
-499.293485
 31
0.0
  0
LINE
  8
0
  6
BYLAYER
 62
     7
 10
272.367991
 20
-505.293546
 30
0.0
 11
317.867869
 21
-505.293485
 31
0.0
  0
LINE
  8
0
  6
BYLAYER
 62
     7
 10
272.367991
 20
-508.293546
 30
0.0
 11
317.867869
 21
-508.293485
 31
0.0
  0
LINE
  8
0
  6
BYLAYER
 62
     7
 10
267.617808
 20
-497.393461
 30
0.0
 11
267.873118
 21
-497.246061
 31
0.0
  0
LINE
  8
0
  6
BYLAYER
 62
     7
 10
347.617747
 20
-448.893461
 30
0.0
 11
360.867747
 21
-448.893461
 31
0.0
  0
LINE
  8
0
  6
BYLAYER
 62
     7
 10
347.617747
 20
-459.893410
 30
0.0
 11
360.867747
 21
-459.893401
 31
0.0
  0
LINE
  8
0
  6
BYLAYER
 62
     7
 10
347.617747
 20
-469.693399
 30
0.0
 11
360.867747
 21
-469.693391
 31
0.0
  0
LINE
  8
0
  6
BYLAYER
 62
     7
 10
347.617747
 20
-470.893425
 30
0.0
 11
360.867747
 21
-470.893408
 31
0.0
  0
LINE
  8
0
  6
BYLAYER
 62
     7
 10
347.617747
 20
-480.693412
 30
0.0
 11
360.867747
 21
-480.693395
 31
0.0
  0
LINE
  8
0
  6
BYLAYER
 62
     7
 10
347.617747
 20
-481.893425
 30
0.0
 11
360.867747
 21
-481.893408
 31
0.0
  0
LINE
  8
0
  6
BYLAYER
 62
     7
 10
347.617747
 20
-458.693396
 30
0.0
 11
360.867747
 21
-458.693388
 31
0.0
  0
LINE
  8
0
  6
BYLAYER
 62
     7
 10
359.617747
 20
-448.893461
 30
0.0
 11
359.617747
 21
-458.693387
 31
0.0
  0
LINE
  8
0
  6
BYLAYER
 62
     7
 10
359.617747
 20
-459.893400
 30
0.0
 11
359.617747
 21
-469.693387
 31
0.0
  0
LINE
  8
0
  6
BYLAYER
 62
     7
 10
359.617747
 20
-470.893400
 30
0.0
 11
359.617747
 21
-480.693387
 31
0.0
  0
LINE
  8
0
  6
BYLAYER
 62
     7
 10
359.617747
 20
-481.893400
 30
0.0
 11
359.617747
 21
-483.893400
 31
0.0
  0
LINE
  8
0
  6
BYLAYER
 62
     7
 10
359.617747
 20
-483.893400
 30
0.0
 11
347.617747
 21
-483.893409
 31
0.0
  0
LINE
  8
0
  6
BYLAYER
 62
     7
 10
359.617747
 20
-483.893400
 30
0.0
 11
360.867747
 21
-484.246363
 31
0.0
  0
LINE
  8
0
  6
BYLAYER
 62
     7
 10
271.159636
 20
-485.293485
 30
0.0
 11
267.617930
 21
-486.293546
 31
0.0
  0
LINE
  8
0
  6
BYLAYER
 62
     7
 10
265.617686
 20
-497.393522
 30
0.0
 11
267.617686
 21
-497.393522
 31
0.0
  0
LINE
  8
0
  6
BYLAYER
 62
     7
 10
360.867747
 20
-508.893516
 30
0.0
 11
360.867747
 21
-448.293516
 31
0.0
  0
LINE
  8
0
  6
BYLAYER
 62
     7
 10
427.467747
 20
-498.542044
 30
0.0
 11
417.116275
 21
-508.893516
 31
0.0
  0
LINE
  8
0
  6
BYLAYER
 62
     7
 10
417.116275
 20
-508.893516
 30
0.0
 11
360.867747
 21
-508.893516
 31
0.0
  0
LINE
  8
0
  6
BYLAYER
 62
     7
 10
427.467747
 20
-448.293516
 30
0.0
 11
427.467747
 21
-498.542044
 31
0.0
  0
LINE
  8
0
  6
BYLAYER
 62
     7
 10
270.617747
 20
-427.699832
 30
0.0
 11
284.722445
 21
-428.192379
 31
0.0
  0
ARC
  8
0
  6
BYLAYER
 62
     7
 10
284.617747
 20
-431.190551
 30
0.0
 40
3.000000
 50
0.0
 51
88.0
  0
LINE
  8
0
  6
BYLAYER
 62
     7
 10
287.617747
 20
-435.396419
 30
0.0
 11
287.617747
 21
-431.190551
 31
0.0
  0
LINE
  8
0
  6
BYLAYER
 62
     7
 10
267.617747
 20
-448.293546
 30
0.0
 11
267.617808
 21
-399.193570
 31
0.0
  0
LINE
  8
0
  6
BYLAYER
 62
     7
 10
360.867747
 20
-397.293488
 30
0.0
 11
317.867869
 21
-397.293546
 31
0.0
  0
LINE
  8
0
  6
BYLAYER
 62
     7
 10
360.867747
 20
-391.293488
 30
0.0
 11
317.867869
 21
-391.293546
 31
0.0
  0
LINE
  8
0
  6
BYLAYER
 62
     7
 10
360.867747
 20
-388.293488
 30
0.0
 11
317.867869
 21
-388.293546
 31
0.0
  0
LINE
  8
0
  6
BYLAYER
 62
     7
 10
267.617930
 20
-410.293485
 30
0.0
 11
270.704050
 21
-398.775846
 31
0.0
  0
ARC
  8
0
  6
BYLAYER
 62
     7
 10
272.635874
 20
-399.293485
 30
0.0
 40
1.999973
 50
89.999945
 51
164.999957
  0
LINE
  8
0
  6
BYLAYER
 62
     7
 10
267.617930
 20
-403.293485
 30
0.0
 11
269.242258
 21
-404.231290
 31
0.0
  0
LINE
  8
0
  6
BYLAYER
 62
     7
 10
267.617930
 20
-403.293485
 30
0.0
 11
270.436106
 21
-392.775846
 31
0.0
  0
ARC
  8
0
  6
BYLAYER
 62
     7
 10
272.367930
 20
-393.293485
 30
0.0
 40
1.999973
 50
89.999945
 51
164.999957
  0
ARC
  8
0
  6
BYLAYER
 62
     7
 10
272.367991
 20
-390.293485
 30
0.0
 40
2.000032
 50
89.999945
 51
164.999930
  0
LINE
  8
0
  6
BYLAYER
 62
     7
 10
267.617930
 20
-400.293485
 30
0.0
 11
270.436106
 21
-389.775846
 31
0.0
  0
LINE
  8
0
  6
BYLAYER
 62
     7
 10
272.635874
 20
-397.293485
 30
0.0
 11
317.867869
 21
-397.293546
 31
0.0
  0
LINE
  8
0
  6
BYLAYER
 62
     7
 10
272.367991
 20
-391.293485
 30
0.0
 11
317.867869
 21
-391.293546
 31
0.0
  0
LINE
  8
0
  6
BYLAYER
 62
     7
 10
272.367991
 20
-388.293485
 30
0.0
 11
317.867869
 21
-388.293546
 31
0.0
  0
LINE
  8
0
  6
BYLAYER
 62
     7
 10
267.617808
 20
-399.193570
 30
0.0
 11
267.873118
 21
-399.340970
 31
0.0
  0
LINE
  8
0
  6
BYLAYER
 62
     7
 10
347.617747
 20
-447.693570
 30
0.0
 11
360.867747
 21
-447.693570
 31
0.0
  0
LINE
  8
0
  6
BYLAYER
 62
     7
 10
347.617747
 20
-436.693622
 30
0.0
 11
360.867747
 21
-436.693630
 31
0.0
  0
LINE
  8
0
  6
BYLAYER
 62
     7
 10
347.617747
 20
-426.893632
 30
0.0
 11
360.867747
 21
-426.893640
 31
0.0
  0
LINE
  8
0
  6
BYLAYER
 62
     7
 10
347.617747
 20
-425.693607
 30
0.0
 11
360.867747
 21
-425.693623
 31
0.0
  0
LINE
  8
0
  6
BYLAYER
 62
     7
 10
347.617747
 20
-415.893620
 30
0.0
 11
360.867747
 21
-415.893636
 31
0.0
  0
LINE
  8
0
  6
BYLAYER
 62
     7
 10
347.617747
 20
-414.693607
 30
0.0
 11
360.867747
 21
-414.693623
 31
0.0
  0
LINE
  8
0
  6
BYLAYER
 62
     7
 10
347.617747
 20
-437.893635
 30
0.0
 11
360.867747
 21
-437.893644
 31
0.0
  0
LINE
  8
0
  6
BYLAYER
 62
     7
 10
359.617747
 20
-447.693570
 30
0.0
 11
359.617747
 21
-437.893644
 31
0.0
  0
LINE
  8
0
  6
BYLAYER
 62
     7
 10
359.617747
 20
-436.693631
 30
0.0
 11
359.617747
 21
-426.893644
 31
0.0
  0
LINE
  8
0
  6
BYLAYER
 62
     7
 10
359.617747
 20
-425.693631
 30
0.0
 11
359.617747
 21
-415.893644
 31
0.0
  0
LINE
  8
0
  6
BYLAYER
 62
     7
 10
359.617747
 20
-414.693631
 30
0.0
 11
359.617747
 21
-412.693631
 31
0.0
  0
LINE
  8
0
  6
BYLAYER
 62
     7
 10
359.617747
 20
-412.693631
 30
0.0
 11
347.617747
 21
-412.693622
 31
0.0
  0
LINE
  8
0
  6
BYLAYER
 62
     7
 10
359.617747
 20
-412.693631
 30
0.0
 11
360.867747
 21
-412.340668
 31
0.0
  0
LINE
  8
0
  6
BYLAYER
 62
     7
 10
271.159636
 20
-411.293546
 30
0.0
 11
267.617930
 21
-410.293485
 31
0.0
  0
LINE
  8
0
  6
BYLAYER
 62
     7
 10
265.617686
 20
-399.193509
 30
0.0
 11
267.617686
 21
-399.193509
 31
0.0
  0
LINE
  8
0
  6
BYLAYER
 62
     7
 10
360.867747
 20
-387.693516
 30
0.0
 11
360.867747
 21
-448.293516
 31
0.0
  0
LINE
  8
0
  6
BYLAYER
 62
     7
 10
427.467747
 20
-398.044987
 30
0.0
 11
417.116275
 21
-387.693516
 31
0.0
  0
LINE
  8
0
  6
BYLAYER
 62
     7
 10
417.116275
 20
-387.693516
 30
0.0
 11
360.867747
 21
-387.693516
 31
0.0
  0
LINE
  8
0
  6
BYLAYER
 62
     7
 10
427.467747
 20
-448.293516
 30
0.0
 11
427.467747
 21
-398.044987
 31
0.0
  0
LINE
  8
0
  6
BYLAYER
 62
     7
 10
238.617747
 20
-448.293515
 30
0.0
 11
238.617747
 21
-378.793515
 31
0.0
  0
LINE
  8
0
  6
BYLAYER
 62
     7
 10
238.617747
 20
-378.793515
 30
0.0
 11
239.117747
 21
-378.293515
 31
0.0
  0
LINE
  8
0
  6
BYLAYER
 62
     7
 10
249.582835
 20
-399.013608
 30
0.0
 11
265.617747
 21
-399.293515
 31
0.0
  0
LINE
  8
0
  6
BYLAYER
 62
     7
 10
247.617747
 20
-378.293515
 30
0.0
 11
247.617747
 21
-448.293515
 31
0.0
  0
ARC
  8
0
  6
BYLAYER
 62
     7
 10
249.617747
 20
-397.013913
 30
0.0
 40
2.0
 50
180.000000
 51
268.999783
  0
LINE
  8
0
  6
BYLAYER
 62
     7
 10
239.117747
 20
-378.293515
 30
0.0
 11
247.617747
 21
-378.293515
 31
0.0
  0
LINE
  8
0
  6
BYLAYER
 62
     7
 10
265.617747
 20
-399.293515
 30
0.0
 11
265.617747
 21
-448.293515
 31
0.0
  0
LINE
  8
0
  6
BYLAYER
 62
     7
 10
238.617747
 20
-448.293516
 30
0.0
 11
238.617747
 21
-517.793516
 31
0.0
  0
LINE
  8
0
  6
BYLAYER
 62
     7
 10
238.617747
 20
-517.793516
 30
0.0
 11
239.117747
 21
-518.293516
 31
0.0
  0
LINE
  8
0
  6
BYLAYER
 62
     7
 10
249.582835
 20
-497.573423
 30
0.0
 11
265.617747
 21
-497.293516
 31
0.0
  0
LINE
  8
0
  6
BYLAYER
 62
     7
 10
247.617747
 20
-518.293516
 30
0.0
 11
247.617747
 21
-448.293516
 31
0.0
  0
ARC
  8
0
  6
BYLAYER
 62
     7
 10
249.617747
 20
-499.573118
 30
0.0
 40
2.000000
 50
91.000217
 51
180.000000
  0
LINE
  8
0
  6
BYLAYER
 62
     7
 10
239.117747
 20
-518.293516
 30
0.0
 11
247.617747
 21
-518.293516
 31
0.0
  0
LINE
  8
0
  6
BYLAYER
 62
     7
 10
265.617747
 20
-497.293516
 30
0.0
 11
265.617747
 21
-448.293516
 31
0.0
  0
LINE
  8
0
  6
BYLAYER
 62
     7
 10
417.116275
 20
-508.893516
 30
0.0
 11
417.116275
 21
-387.693516
 31
0.0
  0
LINE
  8
0
  6
BYLAYER
 62
     1
 10
128.617747
 20
-64.293515
 30
0.0
 11
130.117747
 21
-65.793515
 31
0.0
  0
LINE
  8
0
  6
BYLAYER
 62
     1
 10
128.617747
 20
-208.293515
 30
0.0
 11
130.117747
 21
-206.793515
 31
0.0
  0
LINE
  8
0
  6
BYLAYER
 62
     1
 10
98.617747
 20
-178.293515
 30
0.0
 11
100.117747
 21
-176.793515
 31
0.0
  0
LINE
  8
0
  6
BYLAYER
 62
     1
 10
128.617747
 20
-64.293515
 30
0.0
 11
100.117747
 21
-64.293515
 31
0.0
  0
LINE
  8
0
  6
BYLAYER
 62
     1
 10
100.117747
 20
-64.293515
 30
0.0
 11
98.617747
 21
-65.793515
 31
0.0
  0
LINE
  8
0
  6
BYLAYER
 62
     1
 10
128.617747
 20
-208.293515
 30
0.0
 11
100.117747
 21
-208.293515
 31
0.0
  0
LINE
  8
0
  6
BYLAYER
 62
     1
 10
100.117747
 20
-208.293515
 30
0.0
 11
98.617747
 21
-206.793515
 31
0.0
  0
LINE
  8
0
  6
BYLAYER
 62
     1
 10
218.617747
 20
-178.293515
 30
0.0
 11
217.117747
 21
-176.793515
 31
0.0
  0
LINE
  8
0
  6
BYLAYER
 62
     1
 10
188.617747
 20
-208.293515
 30
0.0
 11
217.117747
 21
-208.293515
 31
0.0
  0
LINE
  8
0
  6
BYLAYER
 62
     1
 10
217.117747
 20
-208.293515
 30
0.0
 11
218.617747
 21
-206.793515
 31
0.0
  0
LINE
  8
0
  6
BYLAYER
 62
     1
 10
218.617747
 20
-206.793515
 30
0.0
 11
218.617747
 21
-178.293515
 31
0.0
  0
LINE
  8
0
  6
BYLAYER
 62
     1
 10
188.617747
 20
-208.293515
 30
0.0
 11
187.117747
 21
-206.793515
 31
0.0
  0
LINE
  8
0
  6
BYLAYER
 62
     1
 10
188.617747
 20
-64.293515
 30
0.0
 11
217.117747
 21
-64.293515
 31
0.0
  0
LINE
  8
0
  6
BYLAYER
 62
     1
 10
217.117747
 20
-64.293515
 30
0.0
 11
218.617747
 21
-65.793515
 31
0.0
  0
LINE
  8
0
  6
BYLAYER
 62
     1
 10
188.617747
 20
-64.293515
 30
0.0
 11
187.117747
 21
-65.793515
 31
0.0
  0
LINE
  8
0
  6
BYLAYER
 62
     1
 10
130.117747
 20
-65.793515
 30
0.0
 11
187.117747
 21
-65.793515
 31
0.0
  0
LINE
  8
0
  6
BYLAYER
 62
     1
 10
130.117747
 20
-206.793515
 30
0.0
 11
187.117747
 21
-206.793515
 31
0.0
  0
LINE
  8
0
  6
BYLAYER
 62
     1
 10
98.617747
 20
-65.793515
 30
0.0
 11
98.617747
 21
-126.293515
 31
0.0
  0
LINE
  8
0
  6
BYLAYER
 62
     1
 10
98.617747
 20
-126.293515
 30
0.0
 11
100.117747
 21
-126.345883
 31
0.0
  0
LINE
  8
0
  6
BYLAYER
 62
     1
 10
218.617747
 20
-94.293515
 30
0.0
 11
217.117747
 21
-95.793515
 31
0.0
  0
LINE
  8
0
  6
BYLAYER
 62
     1
 10
217.117747
 20
-95.793515
 30
0.0
 11
217.117747
 21
-176.793515
 31
0.0
  0
ARC
  8
0
  6
BYLAYER
 62
     1
 10
209.617747
 20
-73.293515
 30
0.0
 40
2.000000
 50
0.0
 51
90.000016
  0
ARC
  8
0
  6
BYLAYER
 62
     1
 10
209.617747
 20
-199.293515
 30
0.0
 40
2.000000
 50
270.0
 51
359.999982
  0
ARC
  8
0
  6
BYLAYER
 62
     1
 10
107.617747
 20
-199.293515
 30
0.0
 40
2.0
 50
180.000000
 51
269.999996
  0
ARC
  8
0
  6
BYLAYER
 62
     1
 10
107.617747
 20
-73.293515
 30
0.0
 40
2.000000
 50
90.0
 51
180.000009
  0
LINE
  8
0
  6
BYLAYER
 62
     1
 10
218.617747
 20
-94.293515
 30
0.0
 11
211.617747
 21
-94.293515
 31
0.0
  0
LINE
  8
0
  6
BYLAYER
 62
     1
 10
218.617747
 20
-178.293515
 30
0.0
 11
211.617747
 21
-178.293515
 31
0.0
  0
LINE
  8
0
  6
BYLAYER
 62
     1
 10
98.617747
 20
-94.293515
 30
0.0
 11
105.617747
 21
-94.293515
 31
0.0
  0
LINE
  8
0
  6
BYLAYER
 62
     1
 10
98.617747
 20
-178.293515
 30
0.0
 11
105.617747
 21
-178.293515
 31
0.0
  0
ARC
  8
0
  6
BYLAYER
 62
     1
 10
134.617747
 20
-88.293515
 30
0.0
 40
1.000000
 50
90.0
 51
269.999991
  0
ARC
  8
0
  6
BYLAYER
 62
     1
 10
127.617747
 20
-98.293515
 30
0.0
 40
1.0
 50
270.0
 51
450.000005
  0
ARC
  8
0
  6
BYLAYER
 62
     1
 10
118.617747
 20
-108.293515
 30
0.0
 40
1.0
 50
270.0
 51
450.000005
  0
ARC
  8
0
  6
BYLAYER
 62
     1
 10
110.617747
 20
-118.293515
 30
0.0
 40
1.0
 50
270.0
 51
450.000005
  0
ARC
  8
0
  6
BYLAYER
 62
     1
 10
189.617747
 20
-98.293515
 30
0.0
 40
1.0
 50
90.0
 51
270.000005
  0
ARC
  8
0
  6
BYLAYER
 62
     1
 10
198.617747
 20
-108.293515
 30
0.0
 40
1.0
 50
90.0
 51
270.000005
  0
ARC
  8
0
  6
BYLAYER
 62
     1
 10
206.617747
 20
-118.293515
 30
0.0
 40
1.0
 50
90.0
 51
270.000005
  0
LINE
  8
0
  6
BYLAYER
 62
     1
 10
128.617747
 20
-64.293515
 30
0.0
 11
128.617747
 21
-71.293515
 31
0.0
  0
LINE
  8
0
  6
BYLAYER
 62
     1
 10
130.117747
 20
-65.793515
 30
0.0
 11
130.117747
 21
-71.293515
 31
0.0
  0
LINE
  8
0
  6
BYLAYER
 62
     1
 10
187.117747
 20
-65.793515
 30
0.0
 11
187.117747
 21
-71.293515
 31
0.0
  0
LINE
  8
0
  6
BYLAYER
 62
     1
 10
188.617747
 20
-64.293515
 30
0.0
 11
188.617747
 21
-71.293515
 31
0.0
  0
LINE
  8
0
  6
BYLAYER
 62
     1
 10
128.617747
 20
-208.293515
 30
0.0
 11
128.617747
 21
-201.293515
 31
0.0
  0
LINE
  8
0
  6
BYLAYER
 62
     1
 10
188.617747
 20
-208.293515
 30
0.0
 11
188.617747
 21
-201.293515
 31
0.0
  0
LINE
  8
0
  6
BYLAYER
 62
     1
 10
211.031932
 20
-200.707761
 30
0.0
 11
206.617747
 21
-196.293515
 31
0.0
  0
LINE
  8
0
  6
BYLAYER
 62
     1
 10
106.203562
 20
-200.707761
 30
0.0
 11
110.617747
 21
-196.293515
 31
0.0
  0
ARC
  8
0
  6
BYLAYER
 62
     1
 10
140.205760
 20
-203.293515
 30
0.0
 40
2.000000
 50
71.491301
 51
90.0
  0
LINE
  8
0
  6
BYLAYER
 62
     1
 10
211.617747
 20
-166.705441
 30
0.0
 11
211.617747
 21
-199.293515
 31
0.0
  0
ARC
  8
0
  6
BYLAYER
 62
     1
 10
213.617747
 20
-166.705441
 30
0.0
 40
2.0
 50
161.491512
 51
180.0
  0
ARC
  8
0
  6
BYLAYER
 62
     1
 10
158.617747
 20
-148.293515
 30
0.0
 40
55.999943
 50
341.491399
 51
378.508607
  0
ARC
  8
0
  6
BYLAYER
 62
     1
 10
213.617747
 20
-129.881589
 30
0.0
 40
2.0
 50
180.000000
 51
198.508488
  0
ARC
  8
0
  6
BYLAYER
 62
     1
 10
103.617747
 20
-129.881528
 30
0.0
 40
2.0
 50
341.491591
 51
360.000000
  0
LINE
  8
0
  6
BYLAYER
 62
     1
 10
107.617747
 20
-201.293515
 30
0.0
 11
140.205760
 21
-201.293515
 31
0.0
  0
ARC
  8
0
  6
BYLAYER
 62
     1
 10
158.617747
 20
-148.293515
 30
0.0
 40
56.000019
 50
251.491363
 51
288.508666
  0
LINE
  8
0
  6
BYLAYER
 62
     1
 10
177.029734
 20
-201.293515
 30
0.0
 11
209.617747
 21
-201.293515
 31
0.0
  0
ARC
  8
0
  6
BYLAYER
 62
     1
 10
177.029734
 20
-203.293515
 30
0.0
 40
1.999992
 50
90.0
 51
108.508488
  0
LINE
  8
0
  6
BYLAYER
 62
     1
 10
100.117747
 20
-114.171506
 30
0.0
 11
98.617747
 21
-114.171506
 31
0.0
  0
LINE
  8
0
  6
BYLAYER
 62
     1
 10
100.117747
 20
-125.213498
 30
0.0
 11
98.617747
 21
-125.213498
 31
0.0
  0
ARC
  8
0
  6
BYLAYER
 62
     1
 10
158.617747
 20
-148.293515
 30
0.0
 40
56.000076
 50
161.491326
 51
198.508657
  0
LINE
  8
0
  6
BYLAYER
 62
     1
 10
105.617747
 20
-166.705472
 30
0.0
 11
105.617747
 21
-199.293515
 31
0.0
  0
ARC
  8
0
  6
BYLAYER
 62
     1
 10
103.617747
 20
-166.705472
 30
0.0
 40
1.999934
 50
0.0
 51
18.508419
  0
LINE
  8
0
  6
BYLAYER
 62
     1
 10
206.617747
 20
-171.920821
 30
0.0
 11
206.617747
 21
-196.293515
 31
0.0
  0
LINE
  8
0
  6
BYLAYER
 62
     1
 10
127.617747
 20
-97.293515
 30
0.0
 11
106.617747
 21
-97.293515
 31
0.0
  0
ARC
  8
0
  6
BYLAYER
 62
     1
 10
106.617747
 20
-96.293515
 30
0.0
 40
1.000000
 50
180.000000
 51
269.999996
  0
LINE
  8
0
  6
BYLAYER
 62
     1
 10
127.617747
 20
-99.293515
 30
0.0
 11
106.617747
 21
-99.293515
 31
0.0
  0
ARC
  8
0
  6
BYLAYER
 62
     1
 10
106.617747
 20
-100.293515
 30
0.0
 40
1.0
 50
90.0
 51
180.000003
  0
LINE
  8
0
  6
BYLAYER
 62
     1
 10
118.617747
 20
-107.293515
 30
0.0
 11
106.617747
 21
-107.293515
 31
0.0
  0
ARC
  8
0
  6
BYLAYER
 62
     1
 10
106.617747
 20
-106.293515
 30
0.0
 40
1.000000
 50
180.000000
 51
269.999996
  0
LINE
  8
0
  6
BYLAYER
 62
     1
 10
118.617747
 20
-109.293515
 30
0.0
 11
106.617747
 21
-109.293515
 31
0.0
  0
ARC
  8
0
  6
BYLAYER
 62
     1
 10
106.617747
 20
-110.293515
 30
0.0
 40
1.0
 50
90.0
 51
180.000003
  0
LINE
  8
0
  6
BYLAYER
 62
     1
 10
110.617747
 20
-117.293515
 30
0.0
 11
106.617747
 21
-117.293515
 31
0.0
  0
ARC
  8
0
  6
BYLAYER
 62
     1
 10
106.617747
 20
-116.293515
 30
0.0
 40
1.000000
 50
180.000000
 51
269.999996
  0
LINE
  8
0
  6
BYLAYER
 62
     1
 10
110.617747
 20
-119.293515
 30
0.0
 11
106.617747
 21
-119.293515
 31
0.0
  0
ARC
  8
0
  6
BYLAYER
 62
     1
 10
106.617747
 20
-120.293515
 30
0.0
 40
1.000000
 50
90.0
 51
180.000003
  0
LINE
  8
0
  6
BYLAYER
 62
     1
 10
198.617747
 20
-107.293515
 30
0.0
 11
210.617747
 21
-107.293515
 31
0.0
  0
ARC
  8
0
  6
BYLAYER
 62
     1
 10
210.617747
 20
-106.293515
 30
0.0
 40
1.0
 50
270.0
 51
360.000003
  0
LINE
  8
0
  6
BYLAYER
 62
     1
 10
198.617747
 20
-109.293515
 30
0.0
 11
210.617747
 21
-109.293515
 31
0.0
  0
ARC
  8
0
  6
BYLAYER
 62
     1
 10
210.617747
 20
-110.293515
 30
0.0
 40
1.000000
 50
0.0
 51
90.000003
  0
LINE
  8
0
  6
BYLAYER
 62
     1
 10
206.617747
 20
-117.293515
 30
0.0
 11
210.617747
 21
-117.293515
 31
0.0
  0
ARC
  8
0
  6
BYLAYER
 62
     1
 10
210.617747
 20
-116.293515
 30
0.0
 40
1.0
 50
270.0
 51
360.000003
  0
LINE
  8
0
  6
BYLAYER
 62
     1
 10
206.617747
 20
-119.293515
 30
0.0
 11
210.617747
 21
-119.293515
 31
0.0
  0
ARC
  8
0
  6
BYLAYER
 62
     1
 10
210.617747
 20
-120.293515
 30
0.0
 40
1.000000
 50
0.0
 51
90.000003
  0
LINE
  8
0
  6
BYLAYER
 62
     1
 10
105.617747
 20
-129.881528
 30
0.0
 11
105.617747
 21
-73.293515
 31
0.0
  0
LINE
  8
0
  6
BYLAYER
 62
     1
 10
211.617747
 20
-129.881589
 30
0.0
 11
211.617747
 21
-73.293515
 31
0.0
  0
LINE
  8
0
  6
BYLAYER
 62
     1
 10
134.990441
 20
-196.293515
 30
0.0
 11
110.617747
 21
-196.293515
 31
0.0
  0
LINE
  8
0
  6
BYLAYER
 62
     1
 10
219.617747
 20
-72.453671
 30
0.0
 11
218.617747
 21
-72.453671
 31
0.0
  0
LINE
  8
0
  6
BYLAYER
 62
     1
 10
219.617747
 20
-93.308286
 30
0.0
 11
218.617747
 21
-93.308286
 31
0.0
  0
LINE
  8
0
  6
BYLAYER
 62
     1
 10
219.617747
 20
-103.278744
 30
0.0
 11
217.117747
 21
-103.278744
 31
0.0
  0
LINE
  8
0
  6
BYLAYER
 62
     1
 10
219.617747
 20
-123.613644
 30
0.0
 11
217.117747
 21
-123.613644
 31
0.0
  0
LINE
  8
0
  6
BYLAYER
 62
     1
 10
217.971751
 20
-65.147519
 30
0.0
 11
219.617747
 21
-65.147519
 31
0.0
  0
LINE
  8
0
  6
BYLAYER
 62
     1
 10
219.617747
 20
-131.439511
 30
0.0
 11
217.117747
 21
-131.439511
 31
0.0
  0
LINE
  8
0
  6
BYLAYER
 62
     1
 10
219.617747
 20
-131.439511
 30
0.0
 11
219.617747
 21
-65.147519
 31
0.0
  0
LINE
  8
0
  6
BYLAYER
 62
     1
 10
186.867747
 20
-196.293515
 30
0.0
 11
184.367747
 21
-196.293515
 31
0.0
  0
LINE
  8
0
  6
BYLAYER
 62
     1
 10
211.617747
 20
-95.793515
 30
0.0
 11
217.117747
 21
-95.793515
 31
0.0
  0
LINE
  8
0
  6
BYLAYER
 62
     1
 10
211.617747
 20
-176.793515
 30
0.0
 11
217.117747
 21
-176.793515
 31
0.0
  0
LINE
  8
0
  6
BYLAYER
 62
     1
 10
187.117747
 20
-201.293515
 30
0.0
 11
187.117747
 21
-206.793515
 31
0.0
  0
LINE
  8
0
  6
BYLAYER
 62
     1
 10
130.117747
 20
-201.293515
 30
0.0
 11
130.117747
 21
-206.793515
 31
0.0
  0
LINE
  8
0
  6
BYLAYER
 62
     1
 10
105.617747
 20
-176.793515
 30
0.0
 11
100.117747
 21
-176.793515
 31
0.0
  0
LINE
  8
0
  6
BYLAYER
 62
     1
 10
105.617747
 20
-95.793515
 30
0.0
 11
100.117747
 21
-95.793515
 31
0.0
  0
LINE
  8
0
  6
BYLAYER
 62
     1
 10
100.117747
 20
-95.793515
 30
0.0
 11
98.617747
 21
-94.293515
 31
0.0
  0
LINE
  8
0
  6
BYLAYER
 62
     1
 10
209.617747
 20
-71.293515
 30
0.0
 11
107.617747
 21
-71.293515
 31
0.0
  0
LINE
  8
0
  6
BYLAYER
 62
     1
 10
211.617747
 20
-184.543515
 30
0.0
 11
218.617747
 21
-184.543515
 31
0.0
  0
LINE
  8
0
  6
BYLAYER
 62
     1
 10
211.617747
 20
-193.043515
 30
0.0
 11
218.617747
 21
-193.043515
 31
0.0
  0
LINE
  8
0
  6
BYLAYER
 62
     1
 10
202.867747
 20
-208.293515
 30
0.0
 11
202.867747
 21
-201.293515
 31
0.0
  0
LINE
  8
0
  6
BYLAYER
 62
     1
 10
194.367747
 20
-208.293515
 30
0.0
 11
194.367747
 21
-201.293515
 31
0.0
  0
LINE
  8
0
  6
BYLAYER
 62
     1
 10
218.617747
 20
-65.793515
 30
0.0
 11
218.617747
 21
-94.293515
 31
0.0
  0
LINE
  8
0
  6
BYLAYER
 62
     1
 10
202.867747
 20
-64.293515
 30
0.0
 11
202.867747
 21
-71.293515
 31
0.0
  0
LINE
  8
0
  6
BYLAYER
 62
     1
 10
194.367747
 20
-64.293515
 30
0.0
 11
194.367747
 21
-71.293515
 31
0.0
  0
LINE
  8
0
  6
BYLAYER
 62
     1
 10
122.867747
 20
-64.293515
 30
0.0
 11
122.867747
 21
-71.293515
 31
0.0
  0
LINE
  8
0
  6
BYLAYER
 62
     1
 10
114.367747
 20
-64.293515
 30
0.0
 11
114.367747
 21
-71.293515
 31
0.0
  0
LINE
  8
0
  6
BYLAYER
 62
     1
 10
105.617747
 20
-79.543515
 30
0.0
 11
98.617747
 21
-79.543515
 31
0.0
  0
LINE
  8
0
  6
BYLAYER
 62
     1
 10
105.617747
 20
-88.043515
 30
0.0
 11
98.617747
 21
-88.043515
 31
0.0
  0
LINE
  8
0
  6
BYLAYER
 62
     1
 10
105.617747
 20
-184.543515
 30
0.0
 11
98.617747
 21
-184.543515
 31
0.0
  0
LINE
  8
0
  6
BYLAYER
 62
     1
 10
105.617747
 20
-193.043515
 30
0.0
 11
98.617747
 21
-193.043515
 31
0.0
  0
LINE
  8
0
  6
BYLAYER
 62
     1
 10
98.617747
 20
-206.793515
 30
0.0
 11
98.617747
 21
-178.293515
 31
0.0
  0
LINE
  8
0
  6
BYLAYER
 62
     1
 10
114.367747
 20
-208.293515
 30
0.0
 11
114.367747
 21
-201.293515
 31
0.0
  0
LINE
  8
0
  6
BYLAYER
 62
     1
 10
122.867747
 20
-208.293515
 30
0.0
 11
122.867747
 21
-201.293515
 31
0.0
  0
LINE
  8
0
  6
BYLAYER
 62
     1
 10
110.617747
 20
-171.920821
 30
0.0
 11
110.617747
 21
-196.293515
 31
0.0
  0
LINE
  8
0
  6
BYLAYER
 62
     1
 10
206.617747
 20
-196.293515
 30
0.0
 11
193.889414
 21
-196.293515
 31
0.0
  0
LINE
  8
0
  6
BYLAYER
 62
     1
 10
193.889414
 20
-196.293515
 30
0.0
 11
182.245053
 21
-196.293515
 31
0.0
  0
ARC
  8
0
  6
BYLAYER
 62
     1
 10
190.617747
 20
-88.293515
 30
0.0
 40
1.0
 50
270.0
 51
450.000005
  0
LINE
  8
0
  6
BYLAYER
 62
     1
 10
134.617747
 20
-87.293515
 30
0.0
 11
190.617747
 21
-87.293515
 31
0.0
  0
LINE
  8
0
  6
BYLAYER
 62
     1
 10
134.617747
 20
-89.293515
 30
0.0
 11
190.617747
 21
-89.293515
 31
0.0
  0
LINE
  8
0
  6
BYLAYER
 62
     1
 10
189.617747
 20
-97.293515
 30
0.0
 11
202.609461
 21
-97.293515
 31
0.0
  0
ARC
  8
0
  6
BYLAYER
 62
     1
 10
202.609461
 20
-96.293515
 30
0.0
 40
1.0
 50
270.0
 51
360.000003
  0
LINE
  8
0
  6
BYLAYER
 62
     1
 10
189.617747
 20
-99.293515
 30
0.0
 11
202.609461
 21
-99.293515
 31
0.0
  0
ARC
  8
0
  6
BYLAYER
 62
     1
 10
202.609461
 20
-100.293515
 30
0.0
 40
1.0
 50
0.0
 51
90.000003
  0
LINE
  8
0
  6
BYLAYER
 62
     1
 10
100.117747
 20
-95.793515
 30
0.0
 11
100.117747
 21
-176.793515
 31
0.0
  0
LINE
  8
0
  6
BYLAYER
 62
     1
 10
211.617747
 20
-92.998502
 30
0.0
 11
205.564982
 21
-93.133145
 31
0.0
  0
LINE
  8
0
  6
BYLAYER
 62
     1
 10
203.609461
 20
-95.132657
 30
0.0
 11
203.609461
 21
-98.293515
 31
0.0
  0
ARC
  8
0
  6
BYLAYER
 62
     1
 10
205.609461
 20
-95.132657
 30
0.0
 40
2.000006
 50
91.274338
 51
180.000005
  0
LINE
  8
0
  6
BYLAYER
 62
     1
 10
203.609461
 20
-101.454373
 30
0.0
 11
203.609461
 21
-98.293515
 31
0.0
  0
LINE
  8
0
  6
BYLAYER
 62
     1
 10
211.617747
 20
-103.588528
 30
0.0
 11
205.564982
 21
-103.453885
 31
0.0
  0
ARC
  8
0
  6
BYLAYER
 62
     1
 10
205.609461
 20
-101.454373
 30
0.0
 40
2.000000
 50
180.000000
 51
268.725646
  0
ARC
  8
0
  6
BYLAYER
 62
     1
 10
188.669825
 20
-118.241544
 30
0.0
 40
3.999988
 50
353.659945
 51
636.339946
  0
CIRCLE
  8
0
  6
BYLAYER
 62
     1
 10
188.669825
 20
-118.241544
 30
0.0
 40
3.600000
  0
ARC
  8
0
  6
BYLAYER
 62
     1
 10
128.565776
 20
-118.241483
 30
0.0
 40
3.999988
 50
83.659964
 51
366.339965
  0
CIRCLE
  8
0
  6
BYLAYER
 62
     1
 10
128.565776
 20
-118.241483
 30
0.0
 40
3.6
  0
ARC
  8
0
  6
BYLAYER
 62
     1
 10
188.669779
 20
-178.345532
 30
0.0
 40
3.999988
 50
83.659955
 51
366.339956
  0
CIRCLE
  8
0
  6
BYLAYER
 62
     1
 10
188.669779
 20
-178.345532
 30
0.0
 40
3.600000
  0
ARC
  8
0
  6
BYLAYER
 62
     1
 10
128.565730
 20
-178.345486
 30
0.0
 40
3.999988
 50
353.659928
 51
636.339929
  0
CIRCLE
  8
0
  6
BYLAYER
 62
     1
 10
128.565730
 20
-178.345486
 30
0.0
 40
3.6
  0
ARC
  8
0
  6
BYLAYER
 62
     1
 10
158.617747
 20
-148.293515
 30
0.0
 40
50.000042
 50
44.999950
 51
51.003205
  0
ARC
  8
0
  6
BYLAYER
 62
     1
 10
188.823100
 20
-110.988797
 30
0.0
 40
1.999986
 50
51.003273
 51
118.656638
  0
ARC
  8
0
  6
BYLAYER
 62
     1
 10
180.430766
 20
-95.632382
 30
0.0
 40
15.500010
 50
196.343145
 51
298.65677
  0
ARC
  8
0
  6
BYLAYER
 62
     1
 10
163.637858
 20
-100.556729
 30
0.0
 40
2.000017
 50
16.343389
 51
83.996802
  0
ARC
  8
0
  6
BYLAYER
 62
     1
 10
195.922511
 20
-118.088254
 30
0.0
 40
2.000035
 50
331.343378
 51
398.996811
  0
ARC
  8
0
  6
BYLAYER
 62
     1
 10
158.617747
 20
-148.293515
 30
0.0
 40
50.000042
 50
38.996695
 51
44.999950
  0
ARC
  8
0
  6
BYLAYER
 62
     1
 10
158.617747
 20
-148.293515
 30
0.0
 40
50.000031
 50
359.999928
 51
366.003203
  0
ARC
  8
0
  6
BYLAYER
 62
     1
 10
158.617747
 20
-148.293515
 30
0.0
 40
50.000057
 50
89.999948
 51
96.003199
  0
ARC
  8
0
  6
BYLAYER
 62
     1
 10
153.597697
 20
-100.556729
 30
0.0
 40
2.000002
 50
96.003097
 51
163.656523
  0
ARC
  8
0
  6
BYLAYER
 62
     1
 10
136.804835
 20
-95.632352
 30
0.0
 40
15.499990
 50
241.343122
 51
343.656761
  0
ARC
  8
0
  6
BYLAYER
 62
     1
 10
128.412486
 20
-110.988736
 30
0.0
 40
1.999991
 50
61.343268
 51
128.996647
  0
ARC
  8
0
  6
BYLAYER
 62
     1
 10
158.617747
 20
-148.293515
 30
0.0
 40
50.000038
 50
128.996715
 51
134.999959
  0
ARC
  8
0
  6
BYLAYER
 62
     1
 10
158.617747
 20
-148.293515
 30
0.0
 40
50.000034
 50
134.999959
 51
141.003218
  0
ARC
  8
0
  6
BYLAYER
 62
     1
 10
121.313044
 20
-118.088193
 30
0.0
 40
2.000009
 50
141.003108
 51
208.656528
  0
ARC
  8
0
  6
BYLAYER
 62
     1
 10
105.956622
 20
-126.480496
 30
0.0
 40
15.500005
 50
286.343110
 51
388.656776
  0
ARC
  8
0
  6
BYLAYER
 62
     1
 10
110.880953
 20
-143.273434
 30
0.0
 40
2.000018
 50
106.343272
 51
173.996638
  0
ARC
  8
0
  6
BYLAYER
 62
     1
 10
158.617747
 20
-148.293515
 30
0.0
 40
50.000046
 50
173.996706
 51
179.999978
  0
ARC
  8
0
  6
BYLAYER
 62
     1
 10
158.617747
 20
-148.293515
 30
0.0
 40
50.000042
 50
269.999946
 51
276.003191
  0
ARC
  8
0
  6
BYLAYER
 62
     1
 10
158.617747
 20
-148.293515
 30
0.0
 40
50.000034
 50
263.996702
 51
269.999946
  0
ARC
  8
0
  6
BYLAYER
 62
     1
 10
153.597628
 20
-196.030301
 30
0.0
 40
2.000005
 50
196.343391
 51
263.996811
  0
ARC
  8
0
  6
BYLAYER
 62
     1
 10
163.637789
 20
-196.030316
 30
0.0
 40
2.000005
 50
276.003081
 51
343.656515
  0
ARC
  8
0
  6
BYLAYER
 62
     1
 10
158.617747
 20
-148.293515
 30
0.0
 40
50.000050
 50
308.996693
 51
314.999964
  0
ARC
  8
0
  6
BYLAYER
 62
     1
 10
158.617747
 20
-148.293515
 30
0.0
 40
50.000046
 50
314.999964
 51
321.003209
  0
ARC
  8
0
  6
BYLAYER
 62
     1
 10
195.922465
 20
-178.498807
 30
0.0
 40
2.000028
 50
321.003096
 51
388.656523
  0
ARC
  8
0
  6
BYLAYER
 62
     1
 10
211.278865
 20
-170.106503
 30
0.0
 40
15.499966
 50
106.343122
 51
208.656774
  0
ARC
  8
0
  6
BYLAYER
 62
     1
 10
206.354563
 20
-153.313611
 30
0.0
 40
1.999983
 50
286.343277
 51
353.996629
  0
ARC
  8
0
  6
BYLAYER
 62
     1
 10
158.617747
 20
-148.293515
 30
0.0
 40
50.000034
 50
353.996711
 51
359.999983
  0
ARC
  8
0
  6
BYLAYER
 62
     1
 10
158.617747
 20
-148.293515
 30
0.0
 40
50.000042
 50
179.999937
 51
186.003209
  0
ARC
  8
0
  6
BYLAYER
 62
     1
 10
110.880946
 20
-153.313535
 30
0.0
 40
2.000014
 50
186.003277
 51
253.656615
  0
ARC
  8
0
  6
BYLAYER
 62
     1
 10
105.956587
 20
-170.106427
 30
0.0
 40
15.500010
 50
331.343132
 51
433.656791
  0
ARC
  8
0
  6
BYLAYER
 62
     1
 10
121.312998
 20
-178.498761
 30
0.0
 40
2.000009
 50
151.343386
 51
218.996806
  0
ARC
  8
0
  6
BYLAYER
 62
     1
 10
158.617747
 20
-148.293515
 30
0.0
 40
50.000038
 50
218.996697
 51
224.999955
  0
ARC
  8
0
  6
BYLAYER
 62
     1
 10
128.412432
 20
-185.598233
 30
0.0
 40
2.000008
 50
231.003254
 51
298.656633
  0
ARC
  8
0
  6
BYLAYER
 62
     1
 10
158.617747
 20
-148.293515
 30
0.0
 40
50.000065
 50
83.996703
 51
89.999955
  0
ARC
  8
0
  6
BYLAYER
 62
     1
 10
180.430690
 20
-200.954663
 30
0.0
 40
15.500014
 50
112.499971
 51
163.656783
  0
ARC
  8
0
  6
BYLAYER
 62
     1
 10
136.804751
 20
-200.954617
 30
0.0
 40
15.499984
 50
16.343138
 51
67.499992
  0
ARC
  8
0
  6
BYLAYER
 62
     1
 10
136.804751
 20
-200.954617
 30
0.0
 40
15.499984
 50
67.499993
 51
118.656778
  0
ARC
  8
0
  6
BYLAYER
 62
     1
 10
158.617747
 20
-148.293515
 30
0.0
 40
50.000038
 50
224.999955
 51
231.003200
  0
ARC
  8
0
  6
BYLAYER
 62
     1
 10
206.354563
 20
-143.273495
 30
0.0
 40
1.999985
 50
6.004065
 51
65.195017
  0
LINE
  8
0
  6
BYLAYER
 62
     1
 10
105.756884
 20
-139.988126
 30
0.0
 11
105.723941
 21
-140.174954
 31
0.0
  0
LINE
  8
0
  6
BYLAYER
 62
     1
 10
211.131312
 20
-158.568509
 30
0.0
 11
211.098368
 21
-158.755353
 31
0.0
  0
ARC
  8
0
  6
BYLAYER
 62
     1
 10
188.823039
 20
-185.598279
 30
0.0
 40
1.999998
 50
245.352689
 51
308.996501
  0
ARC
  8
0
  6
BYLAYER
 62
     1
 10
180.430690
 20
-200.954663
 30
0.0
 40
15.500011
 50
60.826391
 51
112.499991
  0
CIRCLE
  8
0
  6
BYLAYER
 62
     1
 10
158.617747
 20
-148.293515
 30
0.0
 40
53.499996
  0
CIRCLE
  8
0
  6
BYLAYER
 62
     1
 10
158.617747
 20
-148.293515
 30
0.0
 40
31.0
  0
CIRCLE
  8
0
  6
BYLAYER
 62
     1
 10
158.617747
 20
-148.293515
 30
0.0
 40
34.999985
  0
ARC
  8
0
  6
BYLAYER
 62
     1
 10
211.278895
 20
-126.480588
 30
0.0
 40
15.499958
 50
151.343127
 51
254.743031
  0
ARC
  8
0
  6
BYLAYER
 62
     1
 10
150.892251
 20
-84.007692
 30
0.0
 40
1.724236
 50
270.0
 51
308.795511
  0
ARC
  8
0
  6
BYLAYER
 62
     1
 10
150.725390
 20
-83.829984
 30
0.0
 40
1.967374
 50
309.340351
 51
360.0
  0
ARC
  8
0
  6
BYLAYER
 62
     1
 10
150.725390
 20
-83.829984
 30
0.0
 40
1.967374
 50
0.0
 51
50.659649
  0
ARC
  8
0
  6
BYLAYER
 62
     1
 10
150.892251
 20
-83.652276
 30
0.0
 40
1.724236
 50
51.204489
 51
90.000000
  0
ARC
  8
0
  6
BYLAYER
 62
     1
 10
150.892251
 20
-83.652260
 30
0.0
 40
1.724220
 50
90.0
 51
128.795693
  0
ARC
  8
0
  6
BYLAYER
 62
     1
 10
151.059128
 20
-83.829984
 30
0.0
 40
1.967380
 50
129.340576
 51
180.0
  0
ARC
  8
0
  6
BYLAYER
 62
     1
 10
151.059128
 20
-83.829984
 30
0.0
 40
1.967380
 50
180.000000
 51
230.659424
  0
ARC
  8
0
  6
BYLAYER
 62
     1
 10
150.892251
 20
-84.007707
 30
0.0
 40
1.724220
 50
231.204307
 51
270.000000
  0
ARC
  8
0
  6
BYLAYER
 62
     1
 10
150.892251
 20
-83.324093
 30
0.0
 40
0.797848
 50
90.0
 51
140.793201
  0
ARC
  8
0
  6
BYLAYER
 62
     1
 10
151.512384
 20
-83.829984
 30
0.0
 40
1.598154
 50
140.793201
 51
180.0
  0
ARC
  8
0
  6
BYLAYER
 62
     1
 10
151.512374
 20
-83.829984
 30
0.0
 40
1.598144
 50
180.000000
 51
219.206869
  0
ARC
  8
0
  6
BYLAYER
 62
     1
 10
150.892251
 20
-84.335868
 30
0.0
 40
0.797850
 50
219.206869
 51
270.000000
  0
ARC
  8
0
  6
BYLAYER
 62
     1
 10
150.892251
 20
-84.335868
 30
0.0
 40
0.797850
 50
270.0
 51
320.793131
  0
ARC
  8
0
  6
BYLAYER
 62
     1
 10
150.272128
 20
-83.829984
 30
0.0
 40
1.598144
 50
320.793131
 51
360.0
  0
ARC
  8
0
  6
BYLAYER
 62
     1
 10
150.272118
 20
-83.829984
 30
0.0
 40
1.598154
 50
0.0
 51
39.206799
  0
ARC
  8
0
  6
BYLAYER
 62
     1
 10
150.892251
 20
-83.324093
 30
0.0
 40
0.797848
 50
39.206799
 51
90.0
  0
LINE
  8
0
  6
BYLAYER
 62
     1
 10
144.983547
 20
-85.605127
 30
0.0
 11
144.983547
 21
-82.004111
 31
0.0
  0
LINE
  8
0
  6
BYLAYER
 62
     1
 10
144.983547
 20
-82.004111
 30
0.0
 11
146.447622
 21
-82.004111
 31
0.0
  0
LINE
  8
0
  6
BYLAYER
 62
     1
 10
146.447622
 20
-82.004111
 30
0.0
 11
146.936212
 21
-83.880704
 31
0.0
  0
LINE
  8
0
  6
BYLAYER
 62
     1
 10
144.983547
 20
-85.605127
 30
0.0
 11
145.862673
 21
-85.605127
 31
0.0
  0
LINE
  8
0
  6
BYLAYER
 62
     1
 10
145.862673
 20
-85.605127
 30
0.0
 11
145.862673
 21
-83.525672
 31
0.0
  0
LINE
  8
0
  6
BYLAYER
 62
     1
 10
146.555819
 20
-85.605127
 30
0.0
 11
145.862673
 21
-83.525672
 31
0.0
  0
LINE
  8
0
  6
BYLAYER
 62
     1
 10
148.888876
 20
-85.605127
 30
0.0
 11
148.888876
 21
-82.004111
 31
0.0
  0
LINE
  8
0
  6
BYLAYER
 62
     1
 10
148.888876
 20
-82.004111
 30
0.0
 11
147.424801
 21
-82.004111
 31
0.0
  0
LINE
  8
0
  6
BYLAYER
 62
     1
 10
147.424801
 20
-82.004111
 30
0.0
 11
146.936212
 21
-83.880704
 31
0.0
  0
LINE
  8
0
  6
BYLAYER
 62
     1
 10
148.888876
 20
-85.605127
 30
0.0
 11
148.009750
 21
-85.605127
 31
0.0
  0
LINE
  8
0
  6
BYLAYER
 62
     1
 10
148.009750
 20
-85.605127
 30
0.0
 11
148.009750
 21
-83.525672
 31
0.0
  0
LINE
  8
0
  6
BYLAYER
 62
     1
 10
147.316604
 20
-85.605127
 30
0.0
 11
148.009750
 21
-83.525672
 31
0.0
  0
LINE
  8
0
  6
BYLAYER
 62
     1
 10
147.316604
 20
-85.605127
 30
0.0
 11
146.555819
 21
-85.605127
 31
0.0
  0
LINE
  8
0
  6
BYLAYER
 62
     1
 10
161.771380
 20
-85.605127
 30
0.0
 11
163.140771
 21
-82.004111
 31
0.0
  0
LINE
  8
0
  6
BYLAYER
 62
     1
 10
161.771380
 20
-85.605127
 30
0.0
 11
162.937908
 21
-85.605127
 31
0.0
  0
LINE
  8
0
  6
BYLAYER
 62
     1
 10
163.140771
 20
-82.004111
 30
0.0
 11
164.256579
 21
-82.004111
 31
0.0
  0
LINE
  8
0
  6
BYLAYER
 62
     1
 10
162.937908
 20
-85.605127
 30
0.0
 11
163.110815
 21
-85.097943
 31
0.0
  0
LINE
  8
0
  6
BYLAYER
 62
     1
 10
163.387450
 20
-84.286448
 30
0.0
 11
163.698675
 21
-83.373511
 31
0.0
  0
LINE
  8
0
  6
BYLAYER
 62
     1
 10
165.625988
 20
-85.605127
 30
0.0
 11
164.256579
 21
-82.004111
 31
0.0
  0
LINE
  8
0
  6
BYLAYER
 62
     1
 10
165.625988
 20
-85.605127
 30
0.0
 11
164.459460
 21
-85.605127
 31
0.0
  0
LINE
  8
0
  6
BYLAYER
 62
     1
 10
164.286553
 20
-85.097943
 30
0.0
 11
163.110815
 21
-85.097943
 31
0.0
  0
LINE
  8
0
  6
BYLAYER
 62
     1
 10
164.009899
 20
-84.286448
 30
0.0
 11
163.387450
 21
-84.286448
 31
0.0
  0
LINE
  8
0
  6
BYLAYER
 62
     1
 10
164.459460
 20
-85.605127
 30
0.0
 11
164.286553
 21
-85.097943
 31
0.0
  0
LINE
  8
0
  6
BYLAYER
 62
     1
 10
164.009899
 20
-84.286448
 30
0.0
 11
163.698675
 21
-83.373511
 31
0.0
  0
LINE
  8
0
  6
BYLAYER
 62
     1
 10
152.692764
 20
-82.891687
 30
0.0
 11
153.707131
 21
-82.891687
 31
0.0
  0
LINE
  8
0
  6
BYLAYER
 62
     1
 10
153.707131
 20
-82.891687
 30
0.0
 11
153.707131
 21
-85.605127
 31
0.0
  0
LINE
  8
0
  6
BYLAYER
 62
     1
 10
153.707131
 20
-85.605127
 30
0.0
 11
154.822949
 21
-85.605127
 31
0.0
  0
LINE
  8
0
  6
BYLAYER
 62
     1
 10
154.822949
 20
-85.605127
 30
0.0
 11
154.822949
 21
-82.891687
 31
0.0
  0
LINE
  8
0
  6
BYLAYER
 62
     1
 10
154.822949
 20
-82.891687
 30
0.0
 11
155.837316
 21
-82.891687
 31
0.0
  0
LINE
  8
0
  6
BYLAYER
 62
     1
 10
155.837316
 20
-82.891687
 30
0.0
 11
155.837316
 21
-82.004111
 31
0.0
  0
LINE
  8
0
  6
BYLAYER
 62
     1
 10
155.837316
 20
-82.004111
 30
0.0
 11
152.692764
 21
-82.004111
 31
0.0
  0
LINE
  8
0
  6
BYLAYER
 62
     1
 10
152.692764
 20
-82.004111
 30
0.0
 11
152.692764
 21
-82.891687
 31
0.0
  0
ARC
  8
0
  6
BYLAYER
 62
     1
 10
157.637820
 20
-84.007707
 30
0.0
 40
1.724220
 50
270.0
 51
308.795693
  0
ARC
  8
0
  6
BYLAYER
 62
     1
 10
157.470943
 20
-83.829984
 30
0.0
 40
1.967380
 50
309.340576
 51
360.0
  0
ARC
  8
0
  6
BYLAYER
 62
     1
 10
157.470949
 20
-83.829984
 30
0.0
 40
1.967374
 50
0.0
 51
50.659649
  0
ARC
  8
0
  6
BYLAYER
 62
     1
 10
157.637811
 20
-83.652276
 30
0.0
 40
1.724236
 50
51.204489
 51
90.000000
  0
ARC
  8
0
  6
BYLAYER
 62
     1
 10
157.637811
 20
-83.652260
 30
0.0
 40
1.724220
 50
90.0
 51
128.795693
  0
ARC
  8
0
  6
BYLAYER
 62
     1
 10
157.804687
 20
-83.829984
 30
0.0
 40
1.967380
 50
129.340576
 51
180.0
  0
ARC
  8
0
  6
BYLAYER
 62
     1
 10
157.804681
 20
-83.829984
 30
0.0
 40
1.967374
 50
180.000000
 51
230.659649
  0
ARC
  8
0
  6
BYLAYER
 62
     1
 10
157.637820
 20
-84.007692
 30
0.0
 40
1.724236
 50
231.204489
 51
270.000000
  0
ARC
  8
0
  6
BYLAYER
 62
     1
 10
157.637811
 20
-83.324093
 30
0.0
 40
0.797848
 50
90.0
 51
140.793201
  0
ARC
  8
0
  6
BYLAYER
 62
     1
 10
158.257943
 20
-83.829984
 30
0.0
 40
1.598154
 50
140.793201
 51
180.000000
  0
ARC
  8
0
  6
BYLAYER
 62
     1
 10
158.257923
 20
-83.829984
 30
0.0
 40
1.598134
 50
180.000000
 51
219.207055
  0
ARC
  8
0
  6
BYLAYER
 62
     1
 10
157.637820
 20
-84.335855
 30
0.0
 40
0.797863
 50
219.207055
 51
270.0
  0
ARC
  8
0
  6
BYLAYER
 62
     1
 10
157.637820
 20
-84.335868
 30
0.0
 40
0.797850
 50
270.0
 51
320.793131
  0
ARC
  8
0
  6
BYLAYER
 62
     1
 10
157.017697
 20
-83.829984
 30
0.0
 40
1.598144
 50
320.793131
 51
360.0
  0
ARC
  8
0
  6
BYLAYER
 62
     1
 10
157.017698
 20
-83.829984
 30
0.0
 40
1.598143
 50
0.0
 51
39.206985
  0
ARC
  8
0
  6
BYLAYER
 62
     1
 10
157.637811
 20
-83.324106
 30
0.0
 40
0.797861
 50
39.206985
 51
90.000000
  0
LINE
  8
0
  6
BYLAYER
 62
     1
 10
165.723180
 20
-85.605127
 30
0.0
 11
165.723180
 21
-82.004111
 31
0.0
  0
LINE
  8
0
  6
BYLAYER
 62
     1
 10
165.723180
 20
-82.004111
 30
0.0
 11
167.954787
 21
-82.004111
 31
0.0
  0
ARC
  8
0
  6
BYLAYER
 62
     1
 10
167.954787
 20
-83.018488
 30
0.0
 40
1.014366
 50
287.134650
 51
450.000006
  0
ARC
  8
0
  6
BYLAYER
 62
     1
 10
168.157668
 20
-84.793631
 30
0.0
 40
0.811496
 50
0.0
 51
83.207557
  0
LINE
  8
0
  6
BYLAYER
 62
     1
 10
168.969164
 20
-84.793631
 30
0.0
 11
168.969164
 21
-85.300815
 31
0.0
  0
ARC
  8
0
  6
BYLAYER
 62
     1
 10
169.780660
 20
-85.300815
 30
0.0
 40
0.811496
 50
180.000000
 51
202.024314
  0
LINE
  8
0
  6
BYLAYER
 62
     1
 10
167.912572
 20
-85.605127
 30
0.0
 11
169.028380
 21
-85.605127
 31
0.0
  0
ARC
  8
0
  6
BYLAYER
 62
     1
 10
168.664852
 20
-85.300815
 30
0.0
 40
0.811496
 50
180.000000
 51
202.024314
  0
LINE
  8
0
  6
BYLAYER
 62
     1
 10
167.853356
 20
-85.300815
 30
0.0
 11
167.853356
 21
-84.895072
 31
0.0
  0
LINE
  8
0
  6
BYLAYER
 62
     1
 10
165.723180
 20
-85.605127
 30
0.0
 11
166.788268
 21
-85.605127
 31
0.0
  0
LINE
  8
0
  6
BYLAYER
 62
     1
 10
166.788268
 20
-85.605127
 30
0.0
 11
166.788268
 21
-84.387888
 31
0.0
  0
LINE
  8
0
  6
BYLAYER
 62
     1
 10
167.346172
 20
-84.387888
 30
0.0
 11
166.788268
 21
-84.387888
 31
0.0
  0
ARC
  8
0
  6
BYLAYER
 62
     1
 10
167.346172
 20
-84.895072
 30
0.0
 40
0.507184
 50
0.0
 51
90.000003
  0
LINE
  8
0
  6
BYLAYER
 62
     1
 10
166.788268
 20
-83.576392
 30
0.0
 11
166.788268
 21
-82.815607
 31
0.0
  0
LINE
  8
0
  6
BYLAYER
 62
     1
 10
166.788268
 20
-82.815607
 30
0.0
 11
167.498324
 21
-82.815607
 31
0.0
  0
LINE
  8
0
  6
BYLAYER
 62
     1
 10
166.788268
 20
-83.576392
 30
0.0
 11
167.498324
 21
-83.576392
 31
0.0
  0
ARC
  8
0
  6
BYLAYER
 62
     1
 10
167.498324
 20
-83.196000
 30
0.0
 40
0.380392
 50
270.0
 51
450.000005
  0
LINE
  8
0
  6
BYLAYER
 62
     1
 10
160.883813
 20
-84.466449
 30
0.0
 11
160.224468
 21
-82.004111
 31
0.0
  0
LINE
  8
0
  6
BYLAYER
 62
     1
 10
160.224468
 20
-82.004111
 30
0.0
 11
159.159380
 21
-82.004111
 31
0.0
  0
LINE
  8
0
  6
BYLAYER
 62
     1
 10
159.159380
 20
-82.004111
 30
0.0
 11
160.275188
 21
-85.605127
 31
0.0
  0
LINE
  8
0
  6
BYLAYER
 62
     1
 10
160.883813
 20
-84.466449
 30
0.0
 11
161.543139
 21
-82.004111
 31
0.0
  0
LINE
  8
0
  6
BYLAYER
 62
     1
 10
161.543139
 20
-82.004111
 30
0.0
 11
162.608227
 21
-82.004111
 31
0.0
  0
LINE
  8
0
  6
BYLAYER
 62
     1
 10
162.608227
 20
-82.004111
 30
0.0
 11
161.492419
 21
-85.605127
 31
0.0
  0
LINE
  8
0
  6
BYLAYER
 62
     1
 10
161.492419
 20
-85.605127
 30
0.0
 11
160.275188
 21
-85.605127
 31
0.0
  0
LINE
  8
0
  6
BYLAYER
 62
     1
 10
169.125573
 20
-85.605127
 30
0.0
 11
170.190661
 21
-85.605127
 31
0.0
  0
LINE
  8
0
  6
BYLAYER
 62
     1
 10
170.190661
 20
-85.605127
 30
0.0
 11
170.190661
 21
-82.004111
 31
0.0
  0
LINE
  8
0
  6
BYLAYER
 62
     1
 10
170.190661
 20
-82.004111
 30
0.0
 11
169.125573
 21
-82.004111
 31
0.0
  0
LINE
  8
0
  6
BYLAYER
 62
     1
 10
169.125573
 20
-82.004111
 30
0.0
 11
169.125573
 21
-85.605127
 31
0.0
  0
ARC
  8
0
  6
BYLAYER
 62
     1
 10
172.194045
 20
-84.007707
 30
0.0
 40
1.724220
 50
270.0
 51
308.795693
  0
ARC
  8
0
  6
BYLAYER
 62
     1
 10
172.027168
 20
-83.829984
 30
0.0
 40
1.967380
 50
309.340576
 51
360.0
  0
ARC
  8
0
  6
BYLAYER
 62
     1
 10
172.027168
 20
-83.829984
 30
0.0
 40
1.967380
 50
0.0
 51
50.659424
  0
ARC
  8
0
  6
BYLAYER
 62
     1
 10
172.194045
 20
-83.652260
 30
0.0
 40
1.724220
 50
51.204307
 51
90.000000
  0
ARC
  8
0
  6
BYLAYER
 62
     1
 10
172.194045
 20
-83.652260
 30
0.0
 40
1.724220
 50
90.0
 51
128.795693
  0
ARC
  8
0
  6
BYLAYER
 62
     1
 10
172.360922
 20
-83.829984
 30
0.0
 40
1.967380
 50
129.340576
 51
180.0
  0
ARC
  8
0
  6
BYLAYER
 62
     1
 10
172.360922
 20
-83.829984
 30
0.0
 40
1.967380
 50
180.000000
 51
230.659424
  0
ARC
  8
0
  6
BYLAYER
 62
     1
 10
172.194045
 20
-84.007707
 30
0.0
 40
1.724220
 50
231.204307
 51
270.000000
  0
ARC
  8
0
  6
BYLAYER
 62
     1
 10
172.194045
 20
-83.324093
 30
0.0
 40
0.797848
 50
39.206799
 51
90.0
  0
ARC
  8
0
  6
BYLAYER
 62
     1
 10
171.573912
 20
-83.829984
 30
0.0
 40
1.598154
 50
0.0
 51
39.206799
  0
ARC
  8
0
  6
BYLAYER
 62
     1
 10
171.573922
 20
-83.829984
 30
0.0
 40
1.598144
 50
320.793131
 51
360.0
  0
ARC
  8
0
  6
BYLAYER
 62
     1
 10
172.194045
 20
-84.335868
 30
0.0
 40
0.797850
 50
270.0
 51
320.793131
  0
ARC
  8
0
  6
BYLAYER
 62
     1
 10
172.194045
 20
-84.335868
 30
0.0
 40
0.797850
 50
219.206869
 51
270.000000
  0
ARC
  8
0
  6
BYLAYER
 62
     1
 10
172.814168
 20
-83.829984
 30
0.0
 40
1.598144
 50
180.000000
 51
219.206869
  0
ARC
  8
0
  6
BYLAYER
 62
     1
 10
172.814178
 20
-83.829984
 30
0.0
 40
1.598154
 50
140.793201
 51
180.0
  0
ARC
  8
0
  6
BYLAYER
 62
     1
 10
172.194045
 20
-83.324093
 30
0.0
 40
0.797848
 50
90.0
 51
140.793201
  0
LINE
  8
0
  6
BYLAYER
 62
     1
 10
169.140661
 20
-82.004111
 30
0.0
 11
169.140661
 21
-85.605127
 31
0.0
  0
ARC
  8
0
  6
BYLAYER
 62
     1
 10
154.210928
 20
-77.881675
 30
0.0
 40
4.457997
 50
174.535650
 51
180.000000
  0
LINE
  8
0
  6
BYLAYER
 62
     1
 10
149.773188
 20
-77.457154
 30
0.0
 11
149.773188
 21
-77.457149
 31
0.0
  0
LINE
  8
0
  6
BYLAYER
 62
     1
 10
149.778039
 20
-77.409195
 30
0.0
 11
150.203501
 21
-77.230070
 31
0.0
  0
ARC
  8
0
  6
BYLAYER
 62
     1
 10
154.210946
 20
-77.881711
 30
0.0
 40
4.060069
 50
159.235383
 51
170.763998
  0
LINE
  8
0
  6
BYLAYER
 62
     1
 10
150.414581
 20
-76.442272
 30
0.0
 11
150.135702
 21
-76.074404
 31
0.0
  0
ARC
  8
0
  6
BYLAYER
 62
     1
 10
154.210928
 20
-77.881675
 30
0.0
 40
4.457992
 50
144.139514
 51
156.083795
  0
LINE
  8
0
  6
BYLAYER
 62
     1
 10
150.568649
 20
-75.311158
 30
0.0
 11
150.568914
 21
-75.310782
 31
0.0
  0
LINE
  8
0
  6
BYLAYER
 62
     1
 10
150.597967
 20
-75.270122
 30
0.0
 11
151.050922
 21
-75.332441
 31
0.0
  0
ARC
  8
0
  6
BYLAYER
 62
     1
 10
154.210928
 20
-77.881675
 30
0.0
 40
4.060044
 50
129.235643
 51
141.105976
  0
LINE
  8
0
  6
BYLAYER
 62
     1
 10
151.576516
 20
-74.792360
 30
0.0
 11
151.576956
 21
-74.791980
 31
0.0
  0
LINE
  8
0
  6
BYLAYER
 62
     1
 10
151.642904
 20
-74.736962
 30
0.0
 11
151.585308
 21
-74.278919
 31
0.0
  0
ARC
  8
0
  6
BYLAYER
 62
     1
 10
154.210928
 20
-77.881675
 30
0.0
 40
4.457996
 50
114.139607
 51
126.083853
  0
LINE
  8
0
  6
BYLAYER
 62
     1
 10
152.342199
 20
-73.834256
 30
0.0
 11
152.342501
 21
-73.834115
 31
0.0
  0
LINE
  8
0
  6
BYLAYER
 62
     1
 10
152.387779
 20
-73.813522
 30
0.0
 11
152.748877
 21
-74.093959
 31
0.0
  0
LINE
  8
0
  6
BYLAYER
 62
     1
 10
152.831439
 20
-74.063166
 30
0.0
 11
152.831896
 21
-74.063006
 31
0.0
  0
ARC
  8
0
  6
BYLAYER
 62
     1
 10
154.210928
 20
-77.881675
 30
0.0
 40
4.060043
 50
99.235601
 51
111.106038
  0
ARC
  8
0
  6
BYLAYER
 62
     1
 10
154.210928
 20
-77.881675
 30
0.0
 40
4.457997
 50
90.0
 51
96.083892
  0
LINE
  8
0
  6
BYLAYER
 62
     1
 10
153.738449
 20
-73.448786
 30
0.0
 11
153.559313
 21
-73.874263
 31
0.0
  0
LINE
  8
0
  6
BYLAYER
 62
     1
 10
158.648663
 20
-77.457154
 30
0.0
 11
158.648663
 21
-77.457149
 31
0.0
  0
LINE
  8
0
  6
BYLAYER
 62
     1
 10
158.643816
 20
-77.409195
 30
0.0
 11
158.218333
 21
-77.230066
 31
0.0
  0
ARC
  8
0
  6
BYLAYER
 62
     1
 10
154.210900
 20
-77.881711
 30
0.0
 40
4.060069
 50
9.235986
 51
20.764650
  0
LINE
  8
0
  6
BYLAYER
 62
     1
 10
158.007295
 20
-76.442230
 30
0.0
 11
158.286154
 21
-76.074405
 31
0.0
  0
ARC
  8
0
  6
BYLAYER
 62
     1
 10
154.210928
 20
-77.881675
 30
0.0
 40
4.457992
 50
23.916189
 51
35.860484
  0
LINE
  8
0
  6
BYLAYER
 62
     1
 10
157.853198
 20
-75.311158
 30
0.0
 11
157.852932
 21
-75.310782
 31
0.0
  0
LINE
  8
0
  6
BYLAYER
 62
     1
 10
157.823889
 20
-75.270123
 30
0.0
 11
157.370965
 21
-75.332435
 31
0.0
  0
ARC
  8
0
  6
BYLAYER
 62
     1
 10
154.210928
 20
-77.881675
 30
0.0
 40
4.060044
 50
38.894050
 51
50.764315
  0
LINE
  8
0
  6
BYLAYER
 62
     1
 10
156.845339
 20
-74.792360
 30
0.0
 11
156.844900
 21
-74.791980
 31
0.0
  0
LINE
  8
0
  6
BYLAYER
 62
     1
 10
156.778963
 20
-74.736889
 30
0.0
 11
156.836538
 21
-74.278912
 31
0.0
  0
ARC
  8
0
  6
BYLAYER
 62
     1
 10
154.210928
 20
-77.881675
 30
0.0
 40
4.457996
 50
53.916300
 51
65.860381
  0
LINE
  8
0
  6
BYLAYER
 62
     1
 10
156.079656
 20
-73.834256
 30
0.0
 11
156.079345
 21
-73.834115
 31
0.0
  0
LINE
  8
0
  6
BYLAYER
 62
     1
 10
156.034077
 20
-73.813523
 30
0.0
 11
155.672983
 21
-74.093947
 31
0.0
  0
LINE
  8
0
  6
BYLAYER
 62
     1
 10
155.590408
 20
-74.063166
 30
0.0
 11
155.589959
 21
-74.063006
 31
0.0
  0
ARC
  8
0
  6
BYLAYER
 62
     1
 10
154.210928
 20
-77.881675
 30
0.0
 40
4.060043
 50
68.894081
 51
80.764578
  0
ARC
  8
0
  6
BYLAYER
 62
     1
 10
154.210928
 20
-77.881675
 30
0.0
 40
4.457997
 50
84.535428
 51
90.000003
  0
LINE
  8
0
  6
BYLAYER
 62
     1
 10
154.683408
 20
-73.448786
 30
0.0
 11
154.862500
 21
-73.874190
 31
0.0
  0
ARC
  8
0
  6
BYLAYER
 62
     1
 10
154.210928
 20
-77.881675
 30
0.0
 40
4.457997
 50
180.000000
 51
186.083899
  0
LINE
  8
0
  6
BYLAYER
 62
     1
 10
149.773188
 20
-78.306191
 30
0.0
 11
149.773188
 21
-78.306200
 31
0.0
  0
LINE
  8
0
  6
BYLAYER
 62
     1
 10
149.778039
 20
-78.354154
 30
0.0
 11
150.203514
 21
-78.533285
 31
0.0
  0
ARC
  8
0
  6
BYLAYER
 62
     1
 10
154.210946
 20
-77.881638
 30
0.0
 40
4.060069
 50
189.236002
 51
200.764629
  0
LINE
  8
0
  6
BYLAYER
 62
     1
 10
150.414596
 20
-79.321059
 30
0.0
 11
150.135700
 21
-79.688942
 31
0.0
  0
ARC
  8
0
  6
BYLAYER
 62
     1
 10
154.210928
 20
-77.881675
 30
0.0
 40
4.457992
 50
203.916158
 51
215.860410
  0
LINE
  8
0
  6
BYLAYER
 62
     1
 10
150.568649
 20
-80.452187
 30
0.0
 11
150.568914
 21
-80.452562
 31
0.0
  0
LINE
  8
0
  6
BYLAYER
 62
     1
 10
150.597963
 20
-80.493222
 30
0.0
 11
151.050961
 21
-80.430904
 31
0.0
  0
ARC
  8
0
  6
BYLAYER
 62
     1
 10
154.210928
 20
-77.881675
 30
0.0
 40
4.060044
 50
218.894045
 51
230.764345
  0
LINE
  8
0
  6
BYLAYER
 62
     1
 10
151.576516
 20
-80.970984
 30
0.0
 11
151.576956
 21
-80.971364
 31
0.0
  0
LINE
  8
0
  6
BYLAYER
 62
     1
 10
151.642903
 20
-81.026386
 30
0.0
 11
151.585308
 21
-81.484431
 31
0.0
  0
ARC
  8
0
  6
BYLAYER
 62
     1
 10
154.210928
 20
-77.881675
 30
0.0
 40
4.457996
 50
233.916148
 51
245.860401
  0
LINE
  8
0
  6
BYLAYER
 62
     1
 10
152.342199
 20
-81.929088
 30
0.0
 11
152.342501
 21
-81.929235
 31
0.0
  0
LINE
  8
0
  6
BYLAYER
 62
     1
 10
152.387780
 20
-81.949827
 30
0.0
 11
152.748920
 21
-81.669351
 31
0.0
  0
LINE
  8
0
  6
BYLAYER
 62
     1
 10
152.831439
 20
-81.700179
 30
0.0
 11
152.831896
 21
-81.700344
 31
0.0
  0
LINE
  8
0
  6
BYLAYER
 62
     1
 10
158.648663
 20
-78.306191
 30
0.0
 11
158.648663
 21
-78.306200
 31
0.0
  0
LINE
  8
0
  6
BYLAYER
 62
     1
 10
158.643815
 20
-78.354155
 30
0.0
 11
158.218333
 21
-78.533284
 31
0.0
  0
LINE
  8
0
  6
BYLAYER
 62
     1
 10
158.007255
 20
-79.321069
 30
0.0
 11
158.286158
 21
-79.688945
 31
0.0
  0
LINE
  8
0
  6
BYLAYER
 62
     1
 10
157.853198
 20
-80.452187
 30
0.0
 11
157.852932
 21
-80.452562
 31
0.0
  0
LINE
  8
0
  6
BYLAYER
 62
     1
 10
157.823897
 20
-80.493222
 30
0.0
 11
157.370870
 21
-80.430902
 31
0.0
  0
LINE
  8
0
  6
BYLAYER
 62
     1
 10
156.845339
 20
-80.970984
 30
0.0
 11
156.844900
 21
-80.971364
 31
0.0
  0
LINE
  8
0
  6
BYLAYER
 62
     1
 10
156.778954
 20
-81.026384
 30
0.0
 11
156.836538
 21
-81.484438
 31
0.0
  0
LINE
  8
0
  6
BYLAYER
 62
     1
 10
156.034076
 20
-81.949827
 30
0.0
 11
155.672928
 21
-81.669354
 31
0.0
  0
ARC
  8
0
  6
BYLAYER
 62
     1
 10
154.210928
 20
-77.881675
 30
0.0
 40
4.060044
 50
309.235697
 51
321.105929
  0
ARC
  8
0
  6
BYLAYER
 62
     1
 10
154.210928
 20
-77.881675
 30
0.0
 40
4.060043
 50
248.893873
 51
259.502886
  0
ARC
  8
0
  6
BYLAYER
 62
     1
 10
154.210928
 20
-77.881675
 30
0.0
 40
4.457996
 50
294.783232
 51
306.083699
  0
LINE
  8
0
  6
BYLAYER
 62
     1
 10
156.079345
 20
-81.929235
 30
0.0
 11
156.034351
 21
-81.950408
 31
0.0
  0
ARC
  8
0
  6
BYLAYER
 62
     1
 10
154.210928
 20
-77.881675
 30
0.0
 40
4.457992
 50
324.139593
 51
336.083825
  0
ARC
  8
0
  6
BYLAYER
 62
     1
 10
154.210900
 20
-77.881638
 30
0.0
 40
4.060069
 50
339.235210
 51
350.764014
  0
ARC
  8
0
  6
BYLAYER
 62
     1
 10
154.210928
 20
-77.881675
 30
0.0
 40
4.457997
 50
353.916089
 51
360.000000
  0
ARC
  8
0
  6
BYLAYER
 62
     1
 10
154.210928
 20
-77.881675
 30
0.0
 40
4.457997
 50
0.0
 51
6.083907
  0
CIRCLE
  8
0
  6
BYLAYER
 62
     1
 10
154.210928
 20
-77.881675
 30
0.0
 40
3.446307
  0
CIRCLE
  8
0
  6
BYLAYER
 62
     1
 10
154.210928
 20
-77.881675
 30
0.0
 40
2.649296
  0
ARC
  8
0
  6
BYLAYER
 62
     1
 10
154.210928
 20
-77.881675
 30
0.0
 40
4.060043
 50
259.503601
 51
291.106008
  0
LINE
  8
0
  6
BYLAYER
 62
     1
 10
158.617747
 20
-148.293515
 30
0.0
 11
155.617747
 21
-148.293515
 31
0.0
  0
LINE
  8
0
  6
BYLAYER
 62
     1
 10
158.617747
 20
-148.293515
 30
0.0
 11
158.617747
 21
-151.293515
 31
0.0
  0
LINE
  8
0
  6
BYLAYER
 62
     1
 10
158.617747
 20
-148.293515
 30
0.0
 11
161.617747
 21
-148.293515
 31
0.0
  0
LINE
  8
0
  6
BYLAYER
 62
     1
 10
158.617747
 20
-148.293515
 30
0.0
 11
158.617747
 21
-145.293515
 31
0.0
  0
LINE
  8
0
  6
BYLAYER
 62
     1
 10
652.117747
 20
-404.293515
 30
0.0
 11
652.117747
 21
-434.293515
 31
0.0
  0
LINE
  8
0
  6
BYLAYER
 62
     1
 10
652.117747
 20
-434.293515
 30
0.0
 11
653.617747
 21
-435.793515
 31
0.0
  0
LINE
  8
0
  6
BYLAYER
 62
     1
 10
652.117747
 20
-404.293515
 30
0.0
 11
670.117747
 21
-404.293515
 31
0.0
  0
LINE
  8
0
  6
BYLAYER
 62
     1
 10
652.117747
 20
-548.293576
 30
0.0
 11
670.117747
 21
-548.293576
 31
0.0
  0
CIRCLE
  8
0
  6
BYLAYER
 62
     1
 10
729.617747
 20
-424.293515
 30
0.0
 40
4.25
  0
CIRCLE
  8
0
  6
BYLAYER
 62
     1
 10
729.617747
 20
-528.293576
 30
0.0
 40
4.25
  0
LINE
  8
0
  6
BYLAYER
 62
     1
 10
648.617747
 20
-454.293515
 30
0.0
 11
649.617747
 21
-453.293515
 31
0.0
  0
LINE
  8
0
  6
BYLAYER
 62
     1
 10
649.617747
 20
-453.293515
 30
0.0
 11
651.117747
 21
-453.293515
 31
0.0
  0
LINE
  8
0
  6
BYLAYER
 62
     1
 10
651.117747
 20
-523.293576
 30
0.0
 11
649.617747
 21
-523.293576
 31
0.0
  0
LINE
  8
0
  6
BYLAYER
 62
     1
 10
649.617747
 20
-523.293576
 30
0.0
 11
648.617747
 21
-522.293576
 31
0.0
  0
LINE
  8
0
  6
BYLAYER
 62
     1
 10
648.617747
 20
-522.293576
 30
0.0
 11
648.617747
 21
-454.293515
 31
0.0
  0
LINE
  8
0
  6
BYLAYER
 62
     1
 10
653.617747
 20
-438.206235
 30
0.0
 11
651.117747
 21
-438.293515
 31
0.0
  0
LINE
  8
0
  6
BYLAYER
 62
     1
 10
652.117747
 20
-538.328610
 30
0.0
 11
651.117747
 21
-538.293576
 31
0.0
  0
LINE
  8
0
  6
BYLAYER
 62
     1
 10
652.117747
 20
-538.328488
 30
0.0
 11
651.117747
 21
-538.293576
 31
0.0
  0
CIRCLE
  8
0
  6
BYLAYER
 62
     1
 10
659.617747
 20
-528.293576
 30
0.0
 40
4.25
  0
LINE
  8
0
  6
BYLAYER
 62
     1
 10
652.117747
 20
-518.293576
 30
0.0
 11
653.617747
 21
-516.793576
 31
0.0
  0
LINE
  8
0
  6
BYLAYER
 62
     1
 10
652.117747
 20
-518.293576
 30
0.0
 11
652.117747
 21
-548.293576
 31
0.0
  0
LINE
  8
0
  6
BYLAYER
 62
     1
 10
653.617747
 20
-516.793576
 30
0.0
 11
653.617747
 21
-435.793515
 31
0.0
  0
LINE
  8
0
  6
BYLAYER
 62
     1
 10
652.117747
 20
-518.293576
 30
0.0
 11
670.117747
 21
-518.293576
 31
0.0
  0
LINE
  8
0
  6
BYLAYER
 62
     1
 10
653.617747
 20
-516.793576
 30
0.0
 11
670.117747
 21
-516.793576
 31
0.0
  0
LINE
  8
0
  6
BYLAYER
 62
     1
 10
651.117747
 20
-438.293515
 30
0.0
 11
651.117747
 21
-538.293576
 31
0.0
  0
LINE
  8
0
  6
BYLAYER
 62
     1
 10
719.117747
 20
-405.793515
 30
0.0
 11
670.117747
 21
-405.793515
 31
0.0
  0
CIRCLE
  8
0
  6
BYLAYER
 62
     1
 10
694.617747
 20
-438.293515
 30
0.0
 40
23.5
  0
CIRCLE
  8
0
  6
BYLAYER
 62
     1
 10
715.830882
 20
-417.080319
 30
0.0
 40
2.5
  0
CIRCLE
  8
0
  6
BYLAYER
 62
     1
 10
673.404490
 20
-417.080350
 30
0.0
 40
2.5
  0
CIRCLE
  8
0
  6
BYLAYER
 62
     1
 10
673.404490
 20
-459.506711
 30
0.0
 40
2.5
  0
CIRCLE
  8
0
  6
BYLAYER
 62
     1
 10
715.830882
 20
-459.506741
 30
0.0
 40
2.5
  0
LINE
  8
0
  6
BYLAYER
 62
     1
 10
670.117747
 20
-410.199643
 30
0.0
 11
670.117747
 21
-404.293515
 31
0.0
  0
ARC
  8
0
  6
BYLAYER
 62
     1
 10
672.117747
 20
-410.199643
 30
0.0
 40
2.0
 50
180.000000
 51
280.592963
  0
LINE
  8
0
  6
BYLAYER
 62
     1
 10
719.117747
 20
-410.199612
 30
0.0
 11
719.117747
 21
-404.293515
 31
0.0
  0
ARC
  8
0
  6
BYLAYER
 62
     1
 10
717.117747
 20
-410.199612
 30
0.0
 40
1.999999
 50
259.407470
 51
360.000003
  0
LINE
  8
0
  6
BYLAYER
 62
     1
 10
670.117747
 20
-463.274594
 30
0.0
 11
670.117747
 21
-548.293576
 31
0.0
  0
LINE
  8
0
  6
BYLAYER
 62
     1
 10
719.117747
 20
-548.293576
 30
0.0
 11
719.117747
 21
-463.274594
 31
0.0
  0
LINE
  8
0
  6
BYLAYER
 62
     1
 10
665.686839
 20
-434.293515
 30
0.0
 11
652.117747
 21
-434.293515
 31
0.0
  0
ARC
  8
0
  6
BYLAYER
 62
     1
 10
665.686839
 20
-436.293515
 30
0.0
 40
2.000000
 50
356.045188
 51
450.000000
  0
ARC
  8
0
  6
BYLAYER
 62
     1
 10
673.404490
 20
-417.080350
 30
0.0
 40
5.000019
 50
30.099438
 51
100.592680
  0
ARC
  8
0
  6
BYLAYER
 62
     1
 10
679.460643
 20
-413.569821
 30
0.0
 40
2.000038
 50
210.099802
 51
301.510887
  0
ARC
  8
0
  6
BYLAYER
 62
     1
 10
694.617747
 20
-438.293515
 30
0.0
 40
27.000027
 50
58.489253
 51
121.510841
  0
ARC
  8
0
  6
BYLAYER
 62
     1
 10
715.830882
 20
-417.080319
 30
0.0
 40
5.000012
 50
79.406980
 51
149.900563
  0
ARC
  8
0
  6
BYLAYER
 62
     1
 10
709.774851
 20
-413.569791
 30
0.0
 40
1.999980
 50
238.489114
 51
329.900186
  0
ARC
  8
0
  6
BYLAYER
 62
     1
 10
723.548655
 20
-436.293515
 30
0.0
 40
2.000002
 50
90.0
 51
183.954805
  0
ARC
  8
0
  6
BYLAYER
 62
     1
 10
709.774851
 20
-463.017270
 30
0.0
 40
2.000006
 50
30.099804
 51
121.510418
  0
ARC
  8
0
  6
BYLAYER
 62
     1
 10
715.830882
 20
-459.506741
 30
0.0
 40
4.999913
 50
210.099433
 51
419.900564
  0
ARC
  8
0
  6
BYLAYER
 62
     1
 10
694.617747
 20
-438.293515
 30
0.0
 40
26.999949
 50
328.489151
 51
363.954556
  0
ARC
  8
0
  6
BYLAYER
 62
     1
 10
719.341380
 20
-453.450650
 30
0.0
 40
1.999966
 50
148.489119
 51
239.900204
  0
ARC
  8
0
  6
BYLAYER
 62
     1
 10
679.460643
 20
-463.017209
 30
0.0
 40
2.000022
 50
58.489123
 51
149.900960
  0
ARC
  8
0
  6
BYLAYER
 62
     1
 10
673.404490
 20
-459.506711
 30
0.0
 40
4.999962
 50
120.099437
 51
329.90065
  0
ARC
  8
0
  6
BYLAYER
 62
     1
 10
694.617747
 20
-438.293515
 30
0.0
 40
26.999954
 50
176.045448
 51
211.510769
  0
ARC
  8
0
  6
BYLAYER
 62
     1
 10
669.893992
 20
-453.450619
 30
0.0
 40
2.000027
 50
300.099415
 51
391.510651
  0
LINE
  8
0
  6
BYLAYER
 62
     1
 10
653.617747
 20
-435.793515
 30
0.0
 11
667.623330
 21
-435.793515
 31
0.0
  0
CIRCLE
  8
0
  6
BYLAYER
 62
     1
 10
659.617747
 20
-424.293515
 30
0.0
 40
4.25
  0
LINE
  8
0
  6
BYLAYER
 62
     1
 10
719.117747
 20
-546.207761
 30
0.0
 11
670.117747
 21
-546.207761
 31
0.0
  0
ARC
  8
0
  6
BYLAYER
 62
     1
 10
694.617747
 20
-438.293515
 30
0.0
 40
27.0
 50
238.489223
 51
301.510696
  0
LINE
  8
0
  6
BYLAYER
 62
     1
 10
737.117747
 20
-404.293515
 30
0.0
 11
737.117747
 21
-434.293515
 31
0.0
  0
LINE
  8
0
  6
BYLAYER
 62
     1
 10
737.117747
 20
-434.293515
 30
0.0
 11
735.617747
 21
-435.793515
 31
0.0
  0
LINE
  8
0
  6
BYLAYER
 62
     1
 10
737.117747
 20
-548.293576
 30
0.0
 11
737.117747
 21
-518.293576
 31
0.0
  0
LINE
  8
0
  6
BYLAYER
 62
     1
 10
737.117747
 20
-518.293576
 30
0.0
 11
735.617747
 21
-516.793576
 31
0.0
  0
LINE
  8
0
  6
BYLAYER
 62
     1
 10
735.617747
 20
-435.793515
 30
0.0
 11
735.617747
 21
-516.793576
 31
0.0
  0
LINE
  8
0
  6
BYLAYER
 62
     1
 10
719.117747
 20
-404.293515
 30
0.0
 11
737.117747
 21
-404.293515
 31
0.0
  0
LINE
  8
0
  6
BYLAYER
 62
     1
 10
719.117747
 20
-548.293576
 30
0.0
 11
737.117747
 21
-548.293576
 31
0.0
  0
LINE
  8
0
  6
BYLAYER
 62
     1
 10
737.117747
 20
-518.293576
 30
0.0
 11
719.117747
 21
-518.293576
 31
0.0
  0
LINE
  8
0
  6
BYLAYER
 62
     1
 10
735.617747
 20
-516.793576
 30
0.0
 11
719.117747
 21
-516.793576
 31
0.0
  0
LINE
  8
0
  6
BYLAYER
 62
     1
 10
723.548655
 20
-434.293515
 30
0.0
 11
737.117747
 21
-434.293515
 31
0.0
  0
LINE
  8
0
  6
BYLAYER
 62
     1
 10
721.612162
 20
-435.793515
 30
0.0
 11
735.617747
 21
-435.793515
 31
0.0
  0
LINE
  8
0
  6
BYLAYER
 62
     1
 10
740.617747
 20
-454.293515
 30
0.0
 11
739.617747
 21
-453.293515
 31
0.0
  0
LINE
  8
0
  6
BYLAYER
 62
     1
 10
739.617747
 20
-453.293515
 30
0.0
 11
738.117747
 21
-453.293515
 31
0.0
  0
LINE
  8
0
  6
BYLAYER
 62
     1
 10
738.117747
 20
-523.293576
 30
0.0
 11
739.617747
 21
-523.293576
 31
0.0
  0
LINE
  8
0
  6
BYLAYER
 62
     1
 10
739.617747
 20
-523.293576
 30
0.0
 11
740.617747
 21
-522.293576
 31
0.0
  0
LINE
  8
0
  6
BYLAYER
 62
     1
 10
740.617747
 20
-522.293576
 30
0.0
 11
740.617747
 21
-454.293515
 31
0.0
  0
LINE
  8
0
  6
BYLAYER
 62
     1
 10
735.617747
 20
-438.206235
 30
0.0
 11
738.117747
 21
-438.293515
 31
0.0
  0
LINE
  8
0
  6
BYLAYER
 62
     1
 10
737.117747
 20
-538.328610
 30
0.0
 11
738.117747
 21
-538.293576
 31
0.0
  0
LINE
  8
0
  6
BYLAYER
 62
     1
 10
737.117747
 20
-538.328488
 30
0.0
 11
738.117747
 21
-538.293576
 31
0.0
  0
LINE
  8
0
  6
BYLAYER
 62
     1
 10
738.117747
 20
-438.293515
 30
0.0
 11
738.117747
 21
-538.293576
 31
0.0
  0
LINE
  8
0
  6
BYLAYER
 62
     1
 10
98.617686
 20
-490.793530
 30
0.0
 11
128.617686
 21
-490.793530
 31
0.0
  0
LINE
  8
0
  6
BYLAYER
 62
     1
 10
128.617686
 20
-490.793530
 30
0.0
 11
130.117686
 21
-489.293530
 31
0.0
  0
CIRCLE
  8
0
  6
BYLAYER
 62
     1
 10
118.617686
 20
-483.293530
 30
0.0
 40
4.25
  0
LINE
  8
0
  6
BYLAYER
 62
     1
 10
123.617686
 20
-404.793530
 30
0.0
 11
123.617686
 21
-403.293530
 31
0.0
  0
LINE
  8
0
  6
BYLAYER
 62
     1
 10
123.617686
 20
-403.293530
 30
0.0
 11
124.617686
 21
-402.293530
 31
0.0
  0
LINE
  8
0
  6
BYLAYER
 62
     1
 10
124.617686
 20
-402.293530
 30
0.0
 11
192.617808
 21
-402.293530
 31
0.0
  0
LINE
  8
0
  6
BYLAYER
 62
     1
 10
108.582652
 20
-405.793530
 30
0.0
 11
108.617686
 21
-404.793530
 31
0.0
  0
LINE
  8
0
  6
BYLAYER
 62
     1
 10
108.582774
 20
-405.793530
 30
0.0
 11
108.617686
 21
-404.793530
 31
0.0
  0
CIRCLE
  8
0
  6
BYLAYER
 62
     1
 10
118.617686
 20
-413.293530
 30
0.0
 40
4.25
  0
LINE
  8
0
  6
BYLAYER
 62
     1
 10
128.617686
 20
-405.793530
 30
0.0
 11
130.117686
 21
-407.293530
 31
0.0
  0
LINE
  8
0
  6
BYLAYER
 62
     1
 10
128.617686
 20
-405.793530
 30
0.0
 11
98.617686
 21
-405.793530
 31
0.0
  0
LINE
  8
0
  6
BYLAYER
 62
     1
 10
128.617686
 20
-490.793530
 30
0.0
 11
128.617686
 21
-472.793530
 31
0.0
  0
LINE
  8
0
  6
BYLAYER
 62
     1
 10
128.617686
 20
-405.793530
 30
0.0
 11
128.617686
 21
-423.793530
 31
0.0
  0
LINE
  8
0
  6
BYLAYER
 62
     1
 10
130.117686
 20
-489.293530
 30
0.0
 11
130.117686
 21
-472.793530
 31
0.0
  0
LINE
  8
0
  6
BYLAYER
 62
     1
 10
130.117686
 20
-407.293530
 30
0.0
 11
130.117686
 21
-423.793530
 31
0.0
  0
LINE
  8
0
  6
BYLAYER
 62
     1
 10
208.617808
 20
-404.793530
 30
0.0
 11
108.617686
 21
-404.793530
 31
0.0
  0
LINE
  8
0
  6
BYLAYER
 62
     1
 10
193.617686
 20
-404.793530
 30
0.0
 11
193.617686
 21
-403.293530
 31
0.0
  0
LINE
  8
0
  6
BYLAYER
 62
     1
 10
193.617686
 20
-403.293530
 30
0.0
 11
192.617686
 21
-402.293530
 31
0.0
  0
LINE
  8
0
  6
BYLAYER
 62
     1
 10
208.652720
 20
-405.793530
 30
0.0
 11
208.617686
 21
-404.793530
 31
0.0
  0
LINE
  8
0
  6
BYLAYER
 62
     1
 10
208.652598
 20
-405.793530
 30
0.0
 11
208.617686
 21
-404.793530
 31
0.0
  0
LINE
  8
0
  6
BYLAYER
 62
     1
 10
187.117686
 20
-407.293530
 30
0.0
 11
187.117686
 21
-423.793530
 31
0.0
  0
LINE
  8
0
  6
BYLAYER
 62
     1
 10
188.617686
 20
-405.793530
 30
0.0
 11
188.617686
 21
-423.793530
 31
0.0
  0
LINE
  8
0
  6
BYLAYER
 62
     1
 10
188.617686
 20
-405.793530
 30
0.0
 11
187.117686
 21
-407.293530
 31
0.0
  0
LINE
  8
0
  6
BYLAYER
 62
     1
 10
188.617686
 20
-405.793530
 30
0.0
 11
218.617686
 21
-405.793530
 31
0.0
  0
LINE
  8
0
  6
BYLAYER
 62
     1
 10
218.617686
 20
-405.793530
 30
0.0
 11
218.617686
 21
-423.793530
 31
0.0
  0
LINE
  8
0
  6
BYLAYER
 62
     1
 10
218.617686
 20
-472.793530
 30
0.0
 11
218.617686
 21
-490.793530
 31
0.0
  0
CIRCLE
  8
0
  6
BYLAYER
 62
     1
 10
198.617686
 20
-413.293530
 30
0.0
 40
4.25
  0
LINE
  8
0
  6
BYLAYER
 62
     1
 10
188.617686
 20
-490.793530
 30
0.0
 11
188.617686
 21
-472.793530
 31
0.0
  0
LINE
  8
0
  6
BYLAYER
 62
     1
 10
187.117686
 20
-489.293530
 30
0.0
 11
187.117686
 21
-472.793530
 31
0.0
  0
LINE
  8
0
  6
BYLAYER
 62
     1
 10
218.617686
 20
-490.793530
 30
0.0
 11
188.617686
 21
-490.793530
 31
0.0
  0
LINE
  8
0
  6
BYLAYER
 62
     1
 10
188.617686
 20
-490.793530
 30
0.0
 11
187.117686
 21
-489.293530
 31
0.0
  0
LINE
  8
0
  6
BYLAYER
 62
     1
 10
130.117686
 20
-407.293530
 30
0.0
 11
187.117686
 21
-407.293530
 31
0.0
  0
LINE
  8
0
  6
BYLAYER
 62
     1
 10
187.117686
 20
-489.293530
 30
0.0
 11
130.117686
 21
-489.293530
 31
0.0
  0
CIRCLE
  8
0
  6
BYLAYER
 62
     1
 10
198.617686
 20
-483.293530
 30
0.0
 40
4.25
  0
LINE
  8
0
  6
BYLAYER
 62
     1
 10
98.617686
 20
-490.793530
 30
0.0
 11
98.617686
 21
-405.793530
 31
0.0
  0
LINE
  8
0
  6
BYLAYER
 62
     1
 10
98.617686
 20
-472.793530
 30
0.0
 11
218.617686
 21
-472.793530
 31
0.0
  0
ARC
  8
0
  6
BYLAYER
 62
     1
 10
117.617686
 20
-424.793530
 30
0.0
 40
1.000000
 50
90.0
 51
180.000003
  0
LINE
  8
0
  6
BYLAYER
 62
     1
 10
98.617686
 20
-423.793530
 30
0.0
 11
218.617686
 21
-423.793530
 31
0.0
  0
ARC
  8
0
  6
BYLAYER
 62
     1
 10
117.617686
 20
-471.793530
 30
0.0
 40
1.000000
 50
180.000000
 51
270.000009
  0
ARC
  8
0
  6
BYLAYER
 62
     1
 10
199.617686
 20
-424.793530
 30
0.0
 40
1.0
 50
0.0
 51
90.000016
  0
ARC
  8
0
  6
BYLAYER
 62
     1
 10
199.617686
 20
-471.793530
 30
0.0
 40
1.0
 50
270.0
 51
360.000009
  0
ARC
  8
0
  6
BYLAYER
 62
     1
 10
152.617686
 20
-468.293530
 30
0.0
 40
1.0
 50
270.0
 51
450.000005
  0
ARC
  8
0
  6
BYLAYER
 62
     1
 10
164.617686
 20
-468.293530
 30
0.0
 40
1.000000
 50
90.0
 51
269.999991
  0
LINE
  8
0
  6
BYLAYER
 62
     1
 10
219.617686
 20
-485.793530
 30
0.0
 11
218.617686
 21
-485.828442
 31
0.0
  0
LINE
  8
0
  6
BYLAYER
 62
     1
 10
219.617686
 20
-410.793530
 30
0.0
 11
218.617686
 21
-410.758618
 31
0.0
  0
LINE
  8
0
  6
BYLAYER
 62
     1
 10
219.617686
 20
-410.793530
 30
0.0
 11
219.617686
 21
-485.793530
 31
0.0
  0
LINE
  8
0
  6
BYLAYER
 62
     1
 10
200.617686
 20
-426.293530
 30
0.0
 11
200.617686
 21
-424.793530
 31
0.0
  0
LINE
  8
0
  6
BYLAYER
 62
     1
 10
164.617686
 20
-427.293530
 30
0.0
 11
199.617686
 21
-427.293500
 31
0.0
  0
ARC
  8
0
  6
BYLAYER
 62
     1
 10
199.617686
 20
-426.293530
 30
0.0
 40
1.0
 50
270.0
 51
360.000003
  0
LINE
  8
0
  6
BYLAYER
 62
     1
 10
164.617686
 20
-429.293530
 30
0.0
 11
199.617686
 21
-429.293500
 31
0.0
  0
ARC
  8
0
  6
BYLAYER
 62
     1
 10
199.617686
 20
-430.293530
 30
0.0
 40
1.000031
 50
0.0
 51
90.000003
  0
LINE
  8
0
  6
BYLAYER
 62
     1
 10
200.617686
 20
-436.293515
 30
0.0
 11
200.617686
 21
-430.293530
 31
0.0
  0
LINE
  8
0
  6
BYLAYER
 62
     1
 10
190.617686
 20
-437.293515
 30
0.0
 11
199.617686
 21
-437.293515
 31
0.0
  0
ARC
  8
0
  6
BYLAYER
 62
     1
 10
199.617686
 20
-436.293515
 30
0.0
 40
1.0
 50
270.0
 51
360.000003
  0
LINE
  8
0
  6
BYLAYER
 62
     1
 10
190.617686
 20
-439.293515
 30
0.0
 11
199.617686
 21
-439.293515
 31
0.0
  0
ARC
  8
0
  6
BYLAYER
 62
     1
 10
199.617686
 20
-440.293515
 30
0.0
 40
1.000000
 50
0.0
 51
90.000003
  0
LINE
  8
0
  6
BYLAYER
 62
     1
 10
199.617686
 20
-447.293515
 30
0.0
 11
189.392710
 21
-447.293515
 31
0.0
  0
LINE
  8
0
  6
BYLAYER
 62
     1
 10
200.617686
 20
-446.293515
 30
0.0
 11
200.617686
 21
-440.293515
 31
0.0
  0
ARC
  8
0
  6
BYLAYER
 62
     1
 10
199.617686
 20
-446.293515
 30
0.0
 40
1.0
 50
270.0
 51
360.000003
  0
LINE
  8
0
  6
BYLAYER
 62
     1
 10
199.617686
 20
-449.293515
 30
0.0
 11
189.392710
 21
-449.293515
 31
0.0
  0
ARC
  8
0
  6
BYLAYER
 62
     1
 10
199.617686
 20
-450.293500
 30
0.0
 40
0.999985
 50
0.0
 51
90.000003
  0
LINE
  8
0
  6
BYLAYER
 62
     1
 10
190.617686
 20
-457.293500
 30
0.0
 11
199.617686
 21
-457.293500
 31
0.0
  0
LINE
  8
0
  6
BYLAYER
 62
     1
 10
200.617686
 20
-456.293500
 30
0.0
 11
200.617686
 21
-450.293500
 31
0.0
  0
ARC
  8
0
  6
BYLAYER
 62
     1
 10
199.617686
 20
-456.293500
 30
0.0
 40
1.0
 50
270.0
 51
360.000003
  0
LINE
  8
0
  6
BYLAYER
 62
     1
 10
190.617686
 20
-459.293500
 30
0.0
 11
199.617686
 21
-459.293500
 31
0.0
  0
ARC
  8
0
  6
BYLAYER
 62
     1
 10
199.617686
 20
-460.293500
 30
0.0
 40
1.000000
 50
0.0
 51
90.000003
  0
LINE
  8
0
  6
BYLAYER
 62
     1
 10
164.617686
 20
-467.293530
 30
0.0
 11
199.617686
 21
-467.293530
 31
0.0
  0
LINE
  8
0
  6
BYLAYER
 62
     1
 10
200.617686
 20
-466.293500
 30
0.0
 11
200.617686
 21
-460.293500
 31
0.0
  0
ARC
  8
0
  6
BYLAYER
 62
     1
 10
199.617686
 20
-466.293500
 30
0.0
 40
1.000031
 50
270.0
 51
360.000003
  0
LINE
  8
0
  6
BYLAYER
 62
     1
 10
164.617686
 20
-469.293530
 30
0.0
 11
199.617686
 21
-469.293530
 31
0.0
  0
LINE
  8
0
  6
BYLAYER
 62
     1
 10
200.617686
 20
-471.793530
 30
0.0
 11
200.617686
 21
-470.293500
 31
0.0
  0
ARC
  8
0
  6
BYLAYER
 62
     1
 10
199.617686
 20
-470.293500
 30
0.0
 40
0.999969
 50
0.0
 51
90.000003
  0
LINE
  8
0
  6
BYLAYER
 62
     1
 10
116.617686
 20
-426.293500
 30
0.0
 11
116.617686
 21
-424.793530
 31
0.0
  0
LINE
  8
0
  6
BYLAYER
 62
     1
 10
117.617686
 20
-427.293500
 30
0.0
 11
152.617686
 21
-427.293530
 31
0.0
  0
ARC
  8
0
  6
BYLAYER
 62
     1
 10
117.617686
 20
-426.293500
 30
0.0
 40
1.0
 50
180.000000
 51
269.999996
  0
LINE
  8
0
  6
BYLAYER
 62
     1
 10
117.617686
 20
-429.293500
 30
0.0
 11
152.617686
 21
-429.293530
 31
0.0
  0
ARC
  8
0
  6
BYLAYER
 62
     1
 10
117.617686
 20
-430.293500
 30
0.0
 40
1.0
 50
90.0
 51
180.000003
  0
LINE
  8
0
  6
BYLAYER
 62
     1
 10
116.617686
 20
-436.293500
 30
0.0
 11
116.617686
 21
-430.293500
 31
0.0
  0
LINE
  8
0
  6
BYLAYER
 62
     1
 10
117.617686
 20
-437.293484
 30
0.0
 11
170.617686
 21
-437.293515
 31
0.0
  0
ARC
  8
0
  6
BYLAYER
 62
     1
 10
117.617686
 20
-436.293500
 30
0.0
 40
1.0
 50
180.000000
 51
269.999996
  0
LINE
  8
0
  6
BYLAYER
 62
     1
 10
117.617686
 20
-439.293484
 30
0.0
 11
170.617686
 21
-439.293515
 31
0.0
  0
ARC
  8
0
  6
BYLAYER
 62
     1
 10
117.617686
 20
-440.293500
 30
0.0
 40
1.000015
 50
90.0
 51
180.000003
  0
LINE
  8
0
  6
BYLAYER
 62
     1
 10
116.617686
 20
-446.293500
 30
0.0
 11
116.617686
 21
-440.293500
 31
0.0
  0
LINE
  8
0
  6
BYLAYER
 62
     1
 10
165.617686
 20
-447.293515
 30
0.0
 11
117.617686
 21
-447.293484
 31
0.0
  0
ARC
  8
0
  6
BYLAYER
 62
     1
 10
117.617686
 20
-446.293500
 30
0.0
 40
1.0
 50
180.000000
 51
269.999996
  0
LINE
  8
0
  6
BYLAYER
 62
     1
 10
165.617686
 20
-449.293515
 30
0.0
 11
117.617686
 21
-449.293484
 31
0.0
  0
ARC
  8
0
  6
BYLAYER
 62
     1
 10
117.617686
 20
-450.293500
 30
0.0
 40
1.0
 50
90.0
 51
180.000003
  0
LINE
  8
0
  6
BYLAYER
 62
     1
 10
116.617686
 20
-456.293500
 30
0.0
 11
116.617686
 21
-450.293500
 31
0.0
  0
LINE
  8
0
  6
BYLAYER
 62
     1
 10
170.617686
 20
-457.293500
 30
0.0
 11
117.617686
 21
-457.293500
 31
0.0
  0
ARC
  8
0
  6
BYLAYER
 62
     1
 10
117.617686
 20
-456.293500
 30
0.0
 40
1.0
 50
180.000000
 51
269.999996
  0
LINE
  8
0
  6
BYLAYER
 62
     1
 10
170.617686
 20
-459.293500
 30
0.0
 11
117.617686
 21
-459.293500
 31
0.0
  0
ARC
  8
0
  6
BYLAYER
 62
     1
 10
117.617686
 20
-460.293500
 30
0.0
 40
1.0
 50
90.0
 51
180.000003
  0
LINE
  8
0
  6
BYLAYER
 62
     1
 10
116.617686
 20
-466.293530
 30
0.0
 11
116.617686
 21
-460.293500
 31
0.0
  0
LINE
  8
0
  6
BYLAYER
 62
     1
 10
117.617686
 20
-467.293530
 30
0.0
 11
152.617686
 21
-467.293530
 31
0.0
  0
ARC
  8
0
  6
BYLAYER
 62
     1
 10
117.617686
 20
-466.293530
 30
0.0
 40
1.0
 50
180.000000
 51
269.999996
  0
LINE
  8
0
  6
BYLAYER
 62
     1
 10
117.617686
 20
-469.293530
 30
0.0
 11
152.617686
 21
-469.293530
 31
0.0
  0
LINE
  8
0
  6
BYLAYER
 62
     1
 10
116.617686
 20
-471.793530
 30
0.0
 11
116.617686
 21
-470.293530
 31
0.0
  0
ARC
  8
0
  6
BYLAYER
 62
     1
 10
117.617686
 20
-470.293530
 30
0.0
 40
1.000000
 50
90.0
 51
180.000003
  0
LINE
  8
0
  6
BYLAYER
 62
     1
 10
213.617686
 20
-471.793530
 30
0.0
 11
213.617686
 21
-424.793530
 31
0.0
  0
ARC
  8
0
  6
BYLAYER
 62
     1
 10
212.617686
 20
-424.793530
 30
0.0
 40
1.0
 50
0.0
 51
90.000016
  0
ARC
  8
0
  6
BYLAYER
 62
     1
 10
212.617686
 20
-471.793530
 30
0.0
 40
1.0
 50
270.0
 51
360.000009
  0
LINE
  8
0
  6
BYLAYER
 62
     1
 10
123.617686
 20
-491.793500
 30
0.0
 11
123.617686
 21
-493.293500
 31
0.0
  0
LINE
  8
0
  6
BYLAYER
 62
     1
 10
123.617686
 20
-493.293500
 30
0.0
 11
124.617686
 21
-494.293500
 31
0.0
  0
LINE
  8
0
  6
BYLAYER
 62
     1
 10
124.617686
 20
-494.293500
 30
0.0
 11
192.617808
 21
-494.293500
 31
0.0
  0
LINE
  8
0
  6
BYLAYER
 62
     1
 10
108.582652
 20
-490.793500
 30
0.0
 11
108.617686
 21
-491.793500
 31
0.0
  0
LINE
  8
0
  6
BYLAYER
 62
     1
 10
108.582774
 20
-490.793500
 30
0.0
 11
108.617686
 21
-491.793500
 31
0.0
  0
LINE
  8
0
  6
BYLAYER
 62
     1
 10
208.617808
 20
-491.793500
 30
0.0
 11
108.617686
 21
-491.793500
 31
0.0
  0
LINE
  8
0
  6
BYLAYER
 62
     1
 10
193.617686
 20
-491.793500
 30
0.0
 11
193.617686
 21
-493.293500
 31
0.0
  0
LINE
  8
0
  6
BYLAYER
 62
     1
 10
193.617686
 20
-493.293500
 30
0.0
 11
192.617686
 21
-494.293500
 31
0.0
  0
LINE
  8
0
  6
BYLAYER
 62
     1
 10
208.652720
 20
-490.793500
 30
0.0
 11
208.617686
 21
-491.793500
 31
0.0
  0
LINE
  8
0
  6
BYLAYER
 62
     1
 10
208.652598
 20
-490.793500
 30
0.0
 11
208.617686
 21
-491.793500
 31
0.0
  0
ARC
  8
0
  6
BYLAYER
 62
     1
 10
165.617686
 20
-448.293515
 30
0.0
 40
1.0
 50
270.0
 51
450.000005
  0
ARC
  8
0
  6
BYLAYER
 62
     1
 10
164.617686
 20
-428.293530
 30
0.0
 40
1.0
 50
90.0
 51
270.000005
  0
ARC
  8
0
  6
BYLAYER
 62
     1
 10
152.617686
 20
-428.293530
 30
0.0
 40
1.0
 50
270.0
 51
450.000005
  0
ARC
  8
0
  6
BYLAYER
 62
     1
 10
180.617686
 20
-448.293515
 30
0.0
 40
8.000080
 50
12.839588
 51
347.160409
  0
CIRCLE
  8
0
  6
BYLAYER
 62
     1
 10
180.617686
 20
-448.293515
 30
0.0
 40
4.25
  0
ARC
  8
0
  6
BYLAYER
 62
     1
 10
170.617686
 20
-458.293500
 30
0.0
 40
1.0
 50
270.0
 51
450.000005
  0
ARC
  8
0
  6
BYLAYER
 62
     1
 10
190.617686
 20
-458.293500
 30
0.0
 40
1.0
 50
90.0
 51
269.999991
  0
ARC
  8
0
  6
BYLAYER
 62
     1
 10
189.392710
 20
-450.293500
 30
0.0
 40
0.999982
 50
90.0
 51
167.160394
  0
ARC
  8
0
  6
BYLAYER
 62
     1
 10
189.392710
 20
-446.293515
 30
0.0
 40
0.999978
 50
192.839613
 51
270.000001
  0
ARC
  8
0
  6
BYLAYER
 62
     1
 10
170.617686
 20
-438.293515
 30
0.0
 40
1.0
 50
270.0
 51
450.000005
  0
ARC
  8
0
  6
BYLAYER
 62
     1
 10
190.617686
 20
-438.293515
 30
0.0
 40
1.0
 50
90.0
 51
269.999991
  0
LINE
  8
0
  6
BYLAYER
 62
     1
 10
219.617747
 20
-136.293515
 30
0.0
 11
219.617747
 21
-98.293515
 31
0.0
  0
ARC
  8
0
  6
BYLAYER
 62
     1
 10
230.617747
 20
-165.871396
 30
0.0
 40
2.0
 50
180.000000
 51
267.000764
  0
LINE
  8
0
  6
BYLAYER
 62
     1
 10
221.091349
 20
-137.045468
 30
0.0
 11
228.527842
 21
-161.003598
 31
0.0
  0
ARC
  8
0
  6
BYLAYER
 62
     1
 10
226.617747
 20
-161.596494
 30
0.0
 40
2.000000
 50
0.0
 51
17.244395
  0
ARC
  8
0
  6
BYLAYER
 62
     1
 10
220.130076
 20
-137.321103
 30
0.0
 40
0.999994
 50
15.999684
 51
87.003380
  0
LINE
  8
0
  6
BYLAYER
 62
     1
 10
219.976115
 20
-136.311581
 30
0.0
 11
219.617747
 21
-136.292905
 31
0.0
  0
LINE
  8
0
  6
BYLAYER
 62
     1
 10
219.617747
 20
-136.292905
 30
0.0
 11
220.676554
 21
-136.348325
 31
0.0
  0
ARC
  8
0
  6
BYLAYER
 62
     1
 10
220.624247
 20
-137.346982
 30
0.0
 40
0.999996
 50
37.000354
 51
87.001631
  0
LINE
  8
0
  6
BYLAYER
 62
     1
 10
221.422862
 20
-136.745175
 30
0.0
 11
228.215007
 21
-145.758603
 31
0.0
  0
LINE
  8
0
  6
BYLAYER
 62
     1
 10
228.617747
 20
-98.293515
 30
0.0
 11
228.617747
 21
-165.871396
 31
0.0
  0
ARC
  8
0
  6
BYLAYER
 62
     1
 10
226.617747
 20
-146.962216
 30
0.0
 40
2.000000
 50
0.0
 51
37.000514
  0
LINE
  8
0
  6
BYLAYER
 62
     1
 10
238.617747
 20
-98.293271
 30
0.0
 11
238.617747
 21
-168.293316
 31
0.0
  0
LINE
  8
0
  6
BYLAYER
 62
     1
 10
238.617747
 20
-168.293316
 30
0.0
 11
230.513133
 21
-167.868588
 31
0.0
  0
LINE
  8
0
  6
BYLAYER
 62
     1
 10
219.617747
 20
-60.293515
 30
0.0
 11
219.617747
 21
-98.293515
 31
0.0
  0
ARC
  8
0
  6
BYLAYER
 62
     1
 10
230.617747
 20
-30.715512
 30
0.0
 40
2.0
 50
92.999236
 51
180.000000
  0
LINE
  8
0
  6
BYLAYER
 62
     1
 10
221.091349
 20
-59.541562
 30
0.0
 11
228.527842
 21
-35.583310
 31
0.0
  0
ARC
  8
0
  6
BYLAYER
 62
     1
 10
226.617747
 20
-34.990414
 30
0.0
 40
2.000000
 50
342.755605
 51
360.000000
  0
ARC
  8
0
  6
BYLAYER
 62
     1
 10
220.130076
 20
-59.265927
 30
0.0
 40
0.999994
 50
272.996623
 51
344.000319
  0
LINE
  8
0
  6
BYLAYER
 62
     1
 10
219.976115
 20
-60.275327
 30
0.0
 11
219.617747
 21
-60.294125
 31
0.0
  0
LINE
  8
0
  6
BYLAYER
 62
     1
 10
219.617747
 20
-60.294125
 30
0.0
 11
220.676554
 21
-60.238583
 31
0.0
  0
ARC
  8
0
  6
BYLAYER
 62
     1
 10
220.624247
 20
-59.240048
 30
0.0
 40
0.999996
 50
272.998372
 51
322.999649
  0
LINE
  8
0
  6
BYLAYER
 62
     1
 10
221.422862
 20
-59.841855
 30
0.0
 11
228.215007
 21
-50.828305
 31
0.0
  0
LINE
  8
0
  6
BYLAYER
 62
     1
 10
228.617747
 20
-98.293515
 30
0.0
 11
228.617747
 21
-30.715512
 31
0.0
  0
ARC
  8
0
  6
BYLAYER
 62
     1
 10
226.617747
 20
-49.624692
 30
0.0
 40
2.000000
 50
322.999486
 51
360.000000
  0
LINE
  8
0
  6
BYLAYER
 62
     1
 10
238.617747
 20
-98.293637
 30
0.0
 11
238.617747
 21
-28.293592
 31
0.0
  0
LINE
  8
0
  6
BYLAYER
 62
     1
 10
238.617747
 20
-28.293592
 30
0.0
 11
230.513133
 21
-28.718320
 31
0.0
  0
LINE
  8
0
  6
BYLAYER
 62
     1
 10
652.117747
 20
-208.293515
 30
0.0
 11
652.117747
 21
-178.293515
 31
0.0
  0
LINE
  8
0
  6
BYLAYER
 62
     1
 10
652.117747
 20
-178.293515
 30
0.0
 11
653.617747
 21
-176.793515
 31
0.0
  0
LINE
  8
0
  6
BYLAYER
 62
     1
 10
653.617747
 20
-155.029747
 30
0.0
 11
653.617747
 21
-176.793515
 31
0.0
  0
LINE
  8
0
  6
BYLAYER
 62
     1
 10
670.117747
 20
-208.293515
 30
0.0
 11
652.117747
 21
-208.293515
 31
0.0
  0
LINE
  8
0
  6
BYLAYER
 62
     1
 10
737.117747
 20
-208.293515
 30
0.0
 11
719.117747
 21
-208.293515
 31
0.0
  0
CIRCLE
  8
0
  6
BYLAYER
 62
     1
 10
659.617747
 20
-188.293515
 30
0.0
 40
4.25
  0
LINE
  8
0
  6
BYLAYER
 62
     1
 10
738.117747
 20
-183.293515
 30
0.0
 11
739.617747
 21
-183.293515
 31
0.0
  0
LINE
  8
0
  6
BYLAYER
 62
     1
 10
739.617747
 20
-183.293515
 30
0.0
 11
740.617747
 21
-182.293515
 31
0.0
  0
LINE
  8
0
  6
BYLAYER
 62
     1
 10
740.617747
 20
-182.293515
 30
0.0
 11
740.617747
 21
-151.057139
 31
0.0
  0
LINE
  8
0
  6
BYLAYER
 62
     1
 10
737.117747
 20
-198.328610
 30
0.0
 11
738.117747
 21
-198.293515
 31
0.0
  0
LINE
  8
0
  6
BYLAYER
 62
     1
 10
737.117747
 20
-198.328488
 30
0.0
 11
738.117747
 21
-198.293515
 31
0.0
  0
CIRCLE
  8
0
  6
BYLAYER
 62
     1
 10
729.617747
 20
-188.293515
 30
0.0
 40
4.25
  0
LINE
  8
0
  6
BYLAYER
 62
     1
 10
737.117747
 20
-178.293515
 30
0.0
 11
735.617747
 21
-176.793515
 31
0.0
  0
LINE
  8
0
  6
BYLAYER
 62
     1
 10
737.117747
 20
-178.293515
 30
0.0
 11
737.117747
 21
-208.293515
 31
0.0
  0
LINE
  8
0
  6
BYLAYER
 62
     1
 10
735.617747
 20
-176.793515
 30
0.0
 11
735.617747
 21
-155.029747
 31
0.0
  0
LINE
  8
0
  6
BYLAYER
 62
     1
 10
652.117747
 20
-178.293515
 30
0.0
 11
670.117747
 21
-178.293515
 31
0.0
  0
LINE
  8
0
  6
BYLAYER
 62
     1
 10
737.117747
 20
-178.293515
 30
0.0
 11
719.117747
 21
-178.293515
 31
0.0
  0
LINE
  8
0
  6
BYLAYER
 62
     1
 10
653.617747
 20
-176.793515
 30
0.0
 11
670.117747
 21
-176.793515
 31
0.0
  0
LINE
  8
0
  6
BYLAYER
 62
     1
 10
735.617747
 20
-176.793515
 30
0.0
 11
719.117747
 21
-176.793515
 31
0.0
  0
LINE
  8
0
  6
BYLAYER
 62
     1
 10
738.117747
 20
-153.136473
 30
0.0
 11
738.117747
 21
-198.293515
 31
0.0
  0
LINE
  8
0
  6
BYLAYER
 62
     1
 10
670.117747
 20
-163.865994
 30
0.0
 11
670.117747
 21
-208.293515
 31
0.0
  0
LINE
  8
0
  6
BYLAYER
 62
     1
 10
719.117747
 20
-163.865994
 30
0.0
 11
719.117747
 21
-208.293515
 31
0.0
  0
LINE
  8
0
  6
BYLAYER
 62
     1
 10
651.117747
 20
-183.293515
 30
0.0
 11
649.617747
 21
-183.293515
 31
0.0
  0
LINE
  8
0
  6
BYLAYER
 62
     1
 10
649.617747
 20
-183.293515
 30
0.0
 11
648.617747
 21
-182.293515
 31
0.0
  0
LINE
  8
0
  6
BYLAYER
 62
     1
 10
648.617747
 20
-182.293515
 30
0.0
 11
648.617747
 21
-151.057139
 31
0.0
  0
LINE
  8
0
  6
BYLAYER
 62
     1
 10
652.117747
 20
-198.328610
 30
0.0
 11
651.117747
 21
-198.293515
 31
0.0
  0
LINE
  8
0
  6
BYLAYER
 62
     1
 10
652.117747
 20
-198.328488
 30
0.0
 11
651.117747
 21
-198.293515
 31
0.0
  0
LINE
  8
0
  6
BYLAYER
 62
     1
 10
651.117747
 20
-153.136473
 30
0.0
 11
651.117747
 21
-198.293515
 31
0.0
  0
LINE
  8
0
  6
BYLAYER
 62
     1
 10
719.117747
 20
-206.207700
 30
0.0
 11
670.117747
 21
-206.207700
 31
0.0
  0
LINE
  8
0
  6
BYLAYER
 62
     7
 10
657.617686
 20
-37.593503
 30
0.0
 11
660.617686
 21
-42.789670
 31
0.0
  0
LINE
  8
0
  6
BYLAYER
 62
     7
 10
657.617686
 20
-33.093564
 30
0.0
 11
657.617686
 21
-50.300229
 31
0.0
  0
LINE
  8
0
  6
BYLAYER
 62
     7
 10
731.617686
 20
-33.093503
 30
0.0
 11
731.617686
 21
-50.300135
 31
0.0
  0
LINE
  8
0
  6
BYLAYER
 62
     7
 10
731.617686
 20
-37.593503
 30
0.0
 11
728.617686
 21
-42.789609
 31
0.0
  0
ARC
  8
0
  6
BYLAYER
 62
     7
 10
694.617747
 20
-98.293515
 30
0.0
 40
70.0
 50
270.0
 51
418.091076
  0
ARC
  8
0
  6
BYLAYER
 62
     7
 10
735.267741
 20
-57.643521
 30
0.0
 40
4.750000
 50
354.170342
 51
455.829658
  0
ARC
  8
0
  6
BYLAYER
 62
     7
 10
735.267741
 20
-138.943509
 30
0.0
 40
4.750000
 50
264.170342
 51
365.829658
  0
LINE
  8
0
  6
BYLAYER
 62
     7
 10
696.617747
 20
-162.669369
 30
0.0
 11
696.617747
 21
-158.860503
 31
0.0
  0
ARC
  8
0
  6
BYLAYER
 62
     7
 10
698.617747
 20
-162.669369
 30
0.0
 40
2.000004
 50
180.000000
 51
273.555492
  0
ARC
  8
0
  6
BYLAYER
 62
     7
 10
694.617747
 20
-98.293515
 30
0.0
 40
66.500000
 50
273.555497
 51
305.180611
  0
ARC
  8
0
  6
BYLAYER
 62
     7
 10
731.779795
 20
-151.011929
 30
0.0
 40
1.999997
 50
305.180529
 51
405.000001
  0
LINE
  8
0
  6
BYLAYER
 62
     7
 10
730.629245
 20
-147.032945
 30
0.0
 11
733.194010
 21
-149.597714
 31
0.0
  0
ARC
  8
0
  6
BYLAYER
 62
     7
 10
747.336161
 20
-135.455594
 30
0.0
 40
2.000003
 50
224.999928
 51
324.819372
  0
LINE
  8
0
  6
BYLAYER
 62
     7
 10
745.921946
 20
-136.869794
 30
0.0
 11
743.357170
 21
-134.305022
 31
0.0
  0
ARC
  8
0
  6
BYLAYER
 62
     7
 10
694.617747
 20
-98.293515
 30
0.0
 40
66.500000
 50
324.819372
 51
356.444487
  0
LINE
  8
0
  6
BYLAYER
 62
     7
 10
755.184735
 20
-100.293515
 30
0.0
 11
758.993601
 21
-100.293515
 31
0.0
  0
ARC
  8
0
  6
BYLAYER
 62
     7
 10
758.993601
 20
-102.293515
 30
0.0
 40
2.000004
 50
356.444487
 51
450.000003
  0
ARC
  8
0
  6
BYLAYER
 62
     7
 10
694.617747
 20
-98.293515
 30
0.0
 40
66.500000
 50
54.819389
 51
56.193488
  0
ARC
  8
0
  6
BYLAYER
 62
     7
 10
731.779795
 20
-45.575101
 30
0.0
 40
1.999997
 50
314.999992
 51
414.819471
  0
LINE
  8
0
  6
BYLAYER
 62
     7
 10
731.617686
 20
-48.565645
 30
0.0
 11
733.194010
 21
-46.989316
 31
0.0
  0
LINE
  8
0
  6
BYLAYER
 62
     7
 10
751.368846
 20
-67.837643
 30
0.0
 11
748.070300
 21
-69.742078
 31
0.0
  0
ARC
  8
0
  6
BYLAYER
 62
     7
 10
752.368846
 20
-69.569699
 30
0.0
 40
2.000005
 50
26.444505
 51
119.999990
  0
ARC
  8
0
  6
BYLAYER
 62
     7
 10
694.617747
 20
-98.293515
 30
0.0
 40
66.5
 50
3.555507
 51
26.444490
  0
ARC
  8
0
  6
BYLAYER
 62
     7
 10
758.993601
 20
-94.293515
 30
0.0
 40
2.000004
 50
270.0
 51
363.555494
  0
LINE
  8
0
  6
BYLAYER
 62
     7
 10
755.184735
 20
-96.293515
 30
0.0
 11
758.993601
 21
-96.293515
 31
0.0
  0
ARC
  8
0
  6
BYLAYER
 62
     7
 10
694.617747
 20
-98.293515
 30
0.0
 40
70.0
 50
121.909042
 51
270.0
  0
ARC
  8
0
  6
BYLAYER
 62
     7
 10
653.967753
 20
-57.643521
 30
0.0
 40
4.750000
 50
84.170342
 51
185.829658
  0
ARC
  8
0
  6
BYLAYER
 62
     7
 10
653.967753
 20
-138.943509
 30
0.0
 40
4.75
 50
174.170342
 51
275.829658
  0
LINE
  8
0
  6
BYLAYER
 62
     7
 10
692.617747
 20
-162.669369
 30
0.0
 11
692.617747
 21
-158.860503
 31
0.0
  0
ARC
  8
0
  6
BYLAYER
 62
     7
 10
690.617747
 20
-162.669369
 30
0.0
 40
2.000004
 50
266.444508
 51
360.000000
  0
ARC
  8
0
  6
BYLAYER
 62
     7
 10
694.617747
 20
-98.293515
 30
0.0
 40
66.5
 50
234.819389
 51
266.444503
  0
ARC
  8
0
  6
BYLAYER
 62
     7
 10
657.455699
 20
-151.011929
 30
0.0
 40
1.999997
 50
134.999999
 51
234.819471
  0
LINE
  8
0
  6
BYLAYER
 62
     7
 10
658.606249
 20
-147.032945
 30
0.0
 11
656.041484
 21
-149.597714
 31
0.0
  0
ARC
  8
0
  6
BYLAYER
 62
     7
 10
641.899333
 20
-135.455594
 30
0.0
 40
2.000003
 50
215.180628
 51
315.000072
  0
LINE
  8
0
  6
BYLAYER
 62
     7
 10
643.313548
 20
-136.869794
 30
0.0
 11
645.878324
 21
-134.305022
 31
0.0
  0
ARC
  8
0
  6
BYLAYER
 62
     7
 10
694.617747
 20
-98.293515
 30
0.0
 40
66.500000
 50
183.555513
 51
215.180628
  0
LINE
  8
0
  6
BYLAYER
 62
     7
 10
634.050759
 20
-100.293515
 30
0.0
 11
630.241893
 21
-100.293515
 31
0.0
  0
ARC
  8
0
  6
BYLAYER
 62
     7
 10
630.241893
 20
-102.293515
 30
0.0
 40
2.000004
 50
90.0
 51
183.555516
  0
ARC
  8
0
  6
BYLAYER
 62
     7
 10
694.617747
 20
-98.293515
 30
0.0
 40
66.500000
 50
123.806639
 51
125.180611
  0
ARC
  8
0
  6
BYLAYER
 62
     7
 10
657.455699
 20
-45.575101
 30
0.0
 40
1.999997
 50
125.180529
 51
225.000008
  0
LINE
  8
0
  6
BYLAYER
 62
     7
 10
657.617686
 20
-48.565523
 30
0.0
 11
656.041484
 21
-46.989316
 31
0.0
  0
LINE
  8
0
  6
BYLAYER
 62
     7
 10
637.866648
 20
-67.837643
 30
0.0
 11
641.877421
 21
-70.153287
 31
0.0
  0
ARC
  8
0
  6
BYLAYER
 62
     7
 10
636.866648
 20
-69.569699
 30
0.0
 40
2.000005
 50
60.000010
 51
153.555495
  0
ARC
  8
0
  6
BYLAYER
 62
     7
 10
694.617747
 20
-98.293515
 30
0.0
 40
66.5
 50
153.55551
 51
176.444493
  0
ARC
  8
0
  6
BYLAYER
 62
     7
 10
630.241893
 20
-94.293515
 30
0.0
 40
2.000004
 50
176.444506
 51
270.0
  0
LINE
  8
0
  6
BYLAYER
 62
     7
 10
634.050759
 20
-96.293515
 30
0.0
 11
630.241893
 21
-96.293515
 31
0.0
  0
CIRCLE
  8
0
  6
BYLAYER
 62
     7
 10
694.617747
 20
-98.293515
 30
0.0
 40
50.248528
  0
CIRCLE
  8
0
  6
BYLAYER
 62
     7
 10
694.617747
 20
-98.293515
 30
0.0
 40
60.6
  0
CIRCLE
  8
0
  6
BYLAYER
 62
     7
 10
694.617747
 20
-98.293515
 30
0.0
 40
46.0
  0
LINE
  8
0
  6
BYLAYER
 62
     7
 10
695.617747
 20
-87.293515
 30
0.0
 11
703.617747
 21
-87.293515
 31
0.0
  0
LINE
  8
0
  6
BYLAYER
 62
     7
 10
695.617747
 20
-69.293515
 30
0.0
 11
695.617747
 21
-77.293515
 31
0.0
  0
LINE
  8
0
  6
BYLAYER
 62
     7
 10
695.617747
 20
-59.293515
 30
0.0
 11
695.617747
 21
-67.293515
 31
0.0
  0
LINE
  8
0
  6
BYLAYER
 62
     7
 10
695.617747
 20
-79.293515
 30
0.0
 11
695.617747
 21
-87.293515
 31
0.0
  0
LINE
  8
0
  6
BYLAYER
 62
     7
 10
703.617747
 20
-67.293515
 30
0.0
 11
703.617747
 21
-59.293515
 31
0.0
  0
LINE
  8
0
  6
BYLAYER
 62
     7
 10
705.617747
 20
-67.293515
 30
0.0
 11
705.617747
 21
-59.293515
 31
0.0
  0
LINE
  8
0
  6
BYLAYER
 62
     7
 10
695.617747
 20
-79.293515
 30
0.0
 11
703.617747
 21
-79.293515
 31
0.0
  0
LINE
  8
0
  6
BYLAYER
 62
     7
 10
695.617747
 20
-77.293515
 30
0.0
 11
703.617747
 21
-77.293515
 31
0.0
  0
LINE
  8
0
  6
BYLAYER
 62
     7
 10
695.617747
 20
-69.293515
 30
0.0
 11
703.617747
 21
-69.293515
 31
0.0
  0
LINE
  8
0
  6
BYLAYER
 62
     7
 10
705.617747
 20
-67.293515
 30
0.0
 11
713.455746
 21
-67.293515
 31
0.0
  0
LINE
  8
0
  6
BYLAYER
 62
     7
 10
695.617747
 20
-67.293515
 30
0.0
 11
703.617747
 21
-67.293515
 31
0.0
  0
LINE
  8
0
  6
BYLAYER
 62
     7
 10
705.617747
 20
-59.293515
 30
0.0
 11
713.455746
 21
-59.293515
 31
0.0
  0
LINE
  8
0
  6
BYLAYER
 62
     7
 10
695.617747
 20
-59.293515
 30
0.0
 11
703.617747
 21
-59.293515
 31
0.0
  0
LINE
  8
0
  6
BYLAYER
 62
     7
 10
713.455746
 20
-67.293515
 30
0.0
 11
713.455746
 21
-59.293515
 31
0.0
  0
LINE
  8
0
  6
BYLAYER
 62
     7
 10
703.617747
 20
-87.293515
 30
0.0
 11
703.617747
 21
-79.293515
 31
0.0
  0
LINE
  8
0
  6
BYLAYER
 62
     7
 10
703.617747
 20
-77.293515
 30
0.0
 11
703.617747
 21
-69.293515
 31
0.0
  0
LINE
  8
0
  6
BYLAYER
 62
     7
 10
705.617747
 20
-87.293515
 30
0.0
 11
713.617747
 21
-87.293515
 31
0.0
  0
LINE
  8
0
  6
BYLAYER
 62
     7
 10
705.617747
 20
-69.293515
 30
0.0
 11
705.617747
 21
-77.293515
 31
0.0
  0
LINE
  8
0
  6
BYLAYER
 62
     7
 10
705.617747
 20
-79.293515
 30
0.0
 11
705.617747
 21
-87.293515
 31
0.0
  0
LINE
  8
0
  6
BYLAYER
 62
     7
 10
705.617747
 20
-79.293515
 30
0.0
 11
713.617747
 21
-79.293515
 31
0.0
  0
LINE
  8
0
  6
BYLAYER
 62
     7
 10
705.617747
 20
-77.293515
 30
0.0
 11
713.617747
 21
-77.293515
 31
0.0
  0
LINE
  8
0
  6
BYLAYER
 62
     7
 10
705.617747
 20
-69.293515
 30
0.0
 11
713.617747
 21
-69.293515
 31
0.0
  0
LINE
  8
0
  6
BYLAYER
 62
     7
 10
713.617747
 20
-87.293515
 30
0.0
 11
713.617747
 21
-79.293515
 31
0.0
  0
LINE
  8
0
  6
BYLAYER
 62
     7
 10
713.617747
 20
-77.293515
 30
0.0
 11
713.617747
 21
-69.293515
 31
0.0
  0
LINE
  8
0
  6
BYLAYER
 62
     7
 10
715.617747
 20
-87.293515
 30
0.0
 11
723.617747
 21
-87.293515
 31
0.0
  0
LINE
  8
0
  6
BYLAYER
 62
     7
 10
715.617747
 20
-69.293515
 30
0.0
 11
715.617747
 21
-77.293515
 31
0.0
  0
LINE
  8
0
  6
BYLAYER
 62
     7
 10
715.617747
 20
-79.293515
 30
0.0
 11
715.617747
 21
-87.293515
 31
0.0
  0
LINE
  8
0
  6
BYLAYER
 62
     7
 10
715.617747
 20
-79.293515
 30
0.0
 11
723.617747
 21
-79.293515
 31
0.0
  0
LINE
  8
0
  6
BYLAYER
 62
     7
 10
715.617747
 20
-77.293515
 30
0.0
 11
723.617747
 21
-77.293515
 31
0.0
  0
LINE
  8
0
  6
BYLAYER
 62
     7
 10
715.617747
 20
-69.293515
 30
0.0
 11
723.617747
 21
-69.293515
 31
0.0
  0
LINE
  8
0
  6
BYLAYER
 62
     7
 10
723.617747
 20
-87.293515
 30
0.0
 11
723.617747
 21
-79.293515
 31
0.0
  0
LINE
  8
0
  6
BYLAYER
 62
     7
 10
723.617747
 20
-77.293515
 30
0.0
 11
723.617747
 21
-69.293515
 31
0.0
  0
LINE
  8
0
  6
BYLAYER
 62
     7
 10
705.617747
 20
-97.293515
 30
0.0
 11
713.617747
 21
-97.293515
 31
0.0
  0
LINE
  8
0
  6
BYLAYER
 62
     7
 10
705.617747
 20
-89.293515
 30
0.0
 11
705.617747
 21
-97.293515
 31
0.0
  0
LINE
  8
0
  6
BYLAYER
 62
     7
 10
705.617747
 20
-89.293515
 30
0.0
 11
713.617747
 21
-89.293515
 31
0.0
  0
LINE
  8
0
  6
BYLAYER
 62
     7
 10
713.617747
 20
-97.293515
 30
0.0
 11
713.617747
 21
-89.293515
 31
0.0
  0
LINE
  8
0
  6
BYLAYER
 62
     7
 10
715.617747
 20
-97.293515
 30
0.0
 11
723.617747
 21
-97.293515
 31
0.0
  0
LINE
  8
0
  6
BYLAYER
 62
     7
 10
715.617747
 20
-89.293515
 30
0.0
 11
715.617747
 21
-97.293515
 31
0.0
  0
LINE
  8
0
  6
BYLAYER
 62
     7
 10
715.617747
 20
-89.293515
 30
0.0
 11
723.617747
 21
-89.293515
 31
0.0
  0
LINE
  8
0
  6
BYLAYER
 62
     7
 10
723.617747
 20
-97.293515
 30
0.0
 11
723.617747
 21
-89.293515
 31
0.0
  0
LINE
  8
0
  6
BYLAYER
 62
     7
 10
725.617747
 20
-87.293515
 30
0.0
 11
733.617747
 21
-87.293515
 31
0.0
  0
LINE
  8
0
  6
BYLAYER
 62
     7
 10
725.617747
 20
-79.293515
 30
0.0
 11
725.617747
 21
-87.293515
 31
0.0
  0
LINE
  8
0
  6
BYLAYER
 62
     7
 10
725.617747
 20
-79.293515
 30
0.0
 11
733.617747
 21
-79.293515
 31
0.0
  0
LINE
  8
0
  6
BYLAYER
 62
     7
 10
733.617747
 20
-87.293515
 30
0.0
 11
733.617747
 21
-79.293515
 31
0.0
  0
LINE
  8
0
  6
BYLAYER
 62
     7
 10
725.617747
 20
-97.293515
 30
0.0
 11
733.617747
 21
-97.293515
 31
0.0
  0
LINE
  8
0
  6
BYLAYER
 62
     7
 10
725.617747
 20
-89.293515
 30
0.0
 11
725.617747
 21
-97.293515
 31
0.0
  0
LINE
  8
0
  6
BYLAYER
 62
     7
 10
725.617747
 20
-89.293515
 30
0.0
 11
733.617747
 21
-89.293515
 31
0.0
  0
LINE
  8
0
  6
BYLAYER
 62
     7
 10
733.617747
 20
-97.293515
 30
0.0
 11
733.617747
 21
-89.293515
 31
0.0
  0
LINE
  8
0
  6
BYLAYER
 62
     7
 10
695.617747
 20
-109.293515
 30
0.0
 11
703.617747
 21
-109.293515
 31
0.0
  0
LINE
  8
0
  6
BYLAYER
 62
     7
 10
695.617747
 20
-127.293515
 30
0.0
 11
695.617747
 21
-119.293515
 31
0.0
  0
LINE
  8
0
  6
BYLAYER
 62
     7
 10
695.617747
 20
-137.293515
 30
0.0
 11
695.617747
 21
-129.293515
 31
0.0
  0
LINE
  8
0
  6
BYLAYER
 62
     7
 10
695.617747
 20
-117.293515
 30
0.0
 11
695.617747
 21
-109.293515
 31
0.0
  0
LINE
  8
0
  6
BYLAYER
 62
     7
 10
703.617747
 20
-129.293515
 30
0.0
 11
703.617747
 21
-137.293515
 31
0.0
  0
LINE
  8
0
  6
BYLAYER
 62
     7
 10
705.617747
 20
-129.293515
 30
0.0
 11
705.617747
 21
-137.293515
 31
0.0
  0
LINE
  8
0
  6
BYLAYER
 62
     7
 10
695.617747
 20
-117.293515
 30
0.0
 11
703.617747
 21
-117.293515
 31
0.0
  0
LINE
  8
0
  6
BYLAYER
 62
     7
 10
695.617747
 20
-119.293515
 30
0.0
 11
703.617747
 21
-119.293515
 31
0.0
  0
LINE
  8
0
  6
BYLAYER
 62
     7
 10
695.617747
 20
-127.293515
 30
0.0
 11
703.617747
 21
-127.293515
 31
0.0
  0
LINE
  8
0
  6
BYLAYER
 62
     7
 10
705.617747
 20
-129.293515
 30
0.0
 11
713.455746
 21
-129.293515
 31
0.0
  0
LINE
  8
0
  6
BYLAYER
 62
     7
 10
695.617747
 20
-129.293515
 30
0.0
 11
703.617747
 21
-129.293515
 31
0.0
  0
LINE
  8
0
  6
BYLAYER
 62
     7
 10
705.617747
 20
-137.293515
 30
0.0
 11
713.455746
 21
-137.293515
 31
0.0
  0
LINE
  8
0
  6
BYLAYER
 62
     7
 10
695.617747
 20
-137.293515
 30
0.0
 11
703.617747
 21
-137.293515
 31
0.0
  0
LINE
  8
0
  6
BYLAYER
 62
     7
 10
713.455746
 20
-129.293515
 30
0.0
 11
713.455746
 21
-137.293515
 31
0.0
  0
LINE
  8
0
  6
BYLAYER
 62
     7
 10
703.617747
 20
-109.293515
 30
0.0
 11
703.617747
 21
-117.293515
 31
0.0
  0
LINE
  8
0
  6
BYLAYER
 62
     7
 10
703.617747
 20
-119.293515
 30
0.0
 11
703.617747
 21
-127.293515
 31
0.0
  0
LINE
  8
0
  6
BYLAYER
 62
     7
 10
705.617747
 20
-109.293515
 30
0.0
 11
713.617747
 21
-109.293515
 31
0.0
  0
LINE
  8
0
  6
BYLAYER
 62
     7
 10
705.617747
 20
-127.293515
 30
0.0
 11
705.617747
 21
-119.293515
 31
0.0
  0
LINE
  8
0
  6
BYLAYER
 62
     7
 10
705.617747
 20
-117.293515
 30
0.0
 11
705.617747
 21
-109.293515
 31
0.0
  0
LINE
  8
0
  6
BYLAYER
 62
     7
 10
705.617747
 20
-117.293515
 30
0.0
 11
713.617747
 21
-117.293515
 31
0.0
  0
LINE
  8
0
  6
BYLAYER
 62
     7
 10
705.617747
 20
-119.293515
 30
0.0
 11
713.617747
 21
-119.293515
 31
0.0
  0
LINE
  8
0
  6
BYLAYER
 62
     7
 10
705.617747
 20
-127.293515
 30
0.0
 11
713.617747
 21
-127.293515
 31
0.0
  0
LINE
  8
0
  6
BYLAYER
 62
     7
 10
713.617747
 20
-109.293515
 30
0.0
 11
713.617747
 21
-117.293515
 31
0.0
  0
LINE
  8
0
  6
BYLAYER
 62
     7
 10
713.617747
 20
-119.293515
 30
0.0
 11
713.617747
 21
-127.293515
 31
0.0
  0
LINE
  8
0
  6
BYLAYER
 62
     7
 10
715.617747
 20
-109.293515
 30
0.0
 11
723.617747
 21
-109.293515
 31
0.0
  0
LINE
  8
0
  6
BYLAYER
 62
     7
 10
715.617747
 20
-127.293515
 30
0.0
 11
715.617747
 21
-119.293515
 31
0.0
  0
LINE
  8
0
  6
BYLAYER
 62
     7
 10
715.617747
 20
-117.293515
 30
0.0
 11
715.617747
 21
-109.293515
 31
0.0
  0
LINE
  8
0
  6
BYLAYER
 62
     7
 10
715.617747
 20
-117.293515
 30
0.0
 11
723.617747
 21
-117.293515
 31
0.0
  0
LINE
  8
0
  6
BYLAYER
 62
     7
 10
715.617747
 20
-119.293515
 30
0.0
 11
723.617747
 21
-119.293515
 31
0.0
  0
LINE
  8
0
  6
BYLAYER
 62
     7
 10
715.617747
 20
-127.293515
 30
0.0
 11
723.617747
 21
-127.293515
 31
0.0
  0
LINE
  8
0
  6
BYLAYER
 62
     7
 10
723.617747
 20
-109.293515
 30
0.0
 11
723.617747
 21
-117.293515
 31
0.0
  0
LINE
  8
0
  6
BYLAYER
 62
     7
 10
723.617747
 20
-119.293515
 30
0.0
 11
723.617747
 21
-127.293515
 31
0.0
  0
LINE
  8
0
  6
BYLAYER
 62
     7
 10
705.617747
 20
-99.293515
 30
0.0
 11
713.617747
 21
-99.293515
 31
0.0
  0
LINE
  8
0
  6
BYLAYER
 62
     7
 10
705.617747
 20
-107.293515
 30
0.0
 11
705.617747
 21
-99.293515
 31
0.0
  0
LINE
  8
0
  6
BYLAYER
 62
     7
 10
705.617747
 20
-107.293515
 30
0.0
 11
713.617747
 21
-107.293515
 31
0.0
  0
LINE
  8
0
  6
BYLAYER
 62
     7
 10
713.617747
 20
-99.293515
 30
0.0
 11
713.617747
 21
-107.293515
 31
0.0
  0
LINE
  8
0
  6
BYLAYER
 62
     7
 10
715.617747
 20
-99.293515
 30
0.0
 11
723.617747
 21
-99.293515
 31
0.0
  0
LINE
  8
0
  6
BYLAYER
 62
     7
 10
715.617747
 20
-107.293515
 30
0.0
 11
715.617747
 21
-99.293515
 31
0.0
  0
LINE
  8
0
  6
BYLAYER
 62
     7
 10
715.617747
 20
-107.293515
 30
0.0
 11
723.617747
 21
-107.293515
 31
0.0
  0
LINE
  8
0
  6
BYLAYER
 62
     7
 10
723.617747
 20
-99.293515
 30
0.0
 11
723.617747
 21
-107.293515
 31
0.0
  0
LINE
  8
0
  6
BYLAYER
 62
     7
 10
725.617747
 20
-109.293515
 30
0.0
 11
733.617747
 21
-109.293515
 31
0.0
  0
LINE
  8
0
  6
BYLAYER
 62
     7
 10
725.617747
 20
-117.293515
 30
0.0
 11
725.617747
 21
-109.293515
 31
0.0
  0
LINE
  8
0
  6
BYLAYER
 62
     7
 10
725.617747
 20
-117.293515
 30
0.0
 11
733.617747
 21
-117.293515
 31
0.0
  0
LINE
  8
0
  6
BYLAYER
 62
     7
 10
733.617747
 20
-109.293515
 30
0.0
 11
733.617747
 21
-117.293515
 31
0.0
  0
LINE
  8
0
  6
BYLAYER
 62
     7
 10
725.617747
 20
-99.293515
 30
0.0
 11
733.617747
 21
-99.293515
 31
0.0
  0
LINE
  8
0
  6
BYLAYER
 62
     7
 10
725.617747
 20
-107.293515
 30
0.0
 11
725.617747
 21
-99.293515
 31
0.0
  0
LINE
  8
0
  6
BYLAYER
 62
     7
 10
725.617747
 20
-107.293515
 30
0.0
 11
733.617747
 21
-107.293515
 31
0.0
  0
LINE
  8
0
  6
BYLAYER
 62
     7
 10
733.617747
 20
-99.293515
 30
0.0
 11
733.617747
 21
-107.293515
 31
0.0
  0
LINE
  8
0
  6
BYLAYER
 62
     7
 10
693.617747
 20
-87.293515
 30
0.0
 11
685.617747
 21
-87.293515
 31
0.0
  0
LINE
  8
0
  6
BYLAYER
 62
     7
 10
693.617747
 20
-69.293515
 30
0.0
 11
693.617747
 21
-77.293515
 31
0.0
  0
LINE
  8
0
  6
BYLAYER
 62
     7
 10
693.617747
 20
-59.293515
 30
0.0
 11
693.617747
 21
-67.293515
 31
0.0
  0
LINE
  8
0
  6
BYLAYER
 62
     7
 10
693.617747
 20
-79.293515
 30
0.0
 11
693.617747
 21
-87.293515
 31
0.0
  0
LINE
  8
0
  6
BYLAYER
 62
     7
 10
685.617747
 20
-67.293515
 30
0.0
 11
685.617747
 21
-59.293515
 31
0.0
  0
LINE
  8
0
  6
BYLAYER
 62
     7
 10
683.617747
 20
-67.293515
 30
0.0
 11
683.617747
 21
-59.293515
 31
0.0
  0
LINE
  8
0
  6
BYLAYER
 62
     7
 10
693.617747
 20
-79.293515
 30
0.0
 11
685.617747
 21
-79.293515
 31
0.0
  0
LINE
  8
0
  6
BYLAYER
 62
     7
 10
693.617747
 20
-77.293515
 30
0.0
 11
685.617747
 21
-77.293515
 31
0.0
  0
LINE
  8
0
  6
BYLAYER
 62
     7
 10
693.617747
 20
-69.293515
 30
0.0
 11
685.617747
 21
-69.293515
 31
0.0
  0
LINE
  8
0
  6
BYLAYER
 62
     7
 10
683.617747
 20
-67.293515
 30
0.0
 11
675.779748
 21
-67.293515
 31
0.0
  0
LINE
  8
0
  6
BYLAYER
 62
     7
 10
693.617747
 20
-67.293515
 30
0.0
 11
685.617747
 21
-67.293515
 31
0.0
  0
LINE
  8
0
  6
BYLAYER
 62
     7
 10
683.617747
 20
-59.293515
 30
0.0
 11
675.779748
 21
-59.293515
 31
0.0
  0
LINE
  8
0
  6
BYLAYER
 62
     7
 10
693.617747
 20
-59.293515
 30
0.0
 11
685.617747
 21
-59.293515
 31
0.0
  0
LINE
  8
0
  6
BYLAYER
 62
     7
 10
675.779748
 20
-67.293515
 30
0.0
 11
675.779748
 21
-59.293515
 31
0.0
  0
LINE
  8
0
  6
BYLAYER
 62
     7
 10
685.617747
 20
-87.293515
 30
0.0
 11
685.617747
 21
-79.293515
 31
0.0
  0
LINE
  8
0
  6
BYLAYER
 62
     7
 10
685.617747
 20
-77.293515
 30
0.0
 11
685.617747
 21
-69.293515
 31
0.0
  0
LINE
  8
0
  6
BYLAYER
 62
     7
 10
683.617747
 20
-87.293515
 30
0.0
 11
675.617747
 21
-87.293515
 31
0.0
  0
LINE
  8
0
  6
BYLAYER
 62
     7
 10
683.617747
 20
-69.293515
 30
0.0
 11
683.617747
 21
-77.293515
 31
0.0
  0
LINE
  8
0
  6
BYLAYER
 62
     7
 10
683.617747
 20
-79.293515
 30
0.0
 11
683.617747
 21
-87.293515
 31
0.0
  0
LINE
  8
0
  6
BYLAYER
 62
     7
 10
683.617747
 20
-79.293515
 30
0.0
 11
675.617747
 21
-79.293515
 31
0.0
  0
LINE
  8
0
  6
BYLAYER
 62
     7
 10
683.617747
 20
-77.293515
 30
0.0
 11
675.617747
 21
-77.293515
 31
0.0
  0
LINE
  8
0
  6
BYLAYER
 62
     7
 10
683.617747
 20
-69.293515
 30
0.0
 11
675.617747
 21
-69.293515
 31
0.0
  0
LINE
  8
0
  6
BYLAYER
 62
     7
 10
675.617747
 20
-87.293515
 30
0.0
 11
675.617747
 21
-79.293515
 31
0.0
  0
LINE
  8
0
  6
BYLAYER
 62
     7
 10
675.617747
 20
-77.293515
 30
0.0
 11
675.617747
 21
-69.293515
 31
0.0
  0
LINE
  8
0
  6
BYLAYER
 62
     7
 10
673.617747
 20
-87.293515
 30
0.0
 11
665.617747
 21
-87.293515
 31
0.0
  0
LINE
  8
0
  6
BYLAYER
 62
     7
 10
673.617747
 20
-69.293515
 30
0.0
 11
673.617747
 21
-77.293515
 31
0.0
  0
LINE
  8
0
  6
BYLAYER
 62
     7
 10
673.617747
 20
-79.293515
 30
0.0
 11
673.617747
 21
-87.293515
 31
0.0
  0
LINE
  8
0
  6
BYLAYER
 62
     7
 10
673.617747
 20
-79.293515
 30
0.0
 11
665.617747
 21
-79.293515
 31
0.0
  0
LINE
  8
0
  6
BYLAYER
 62
     7
 10
673.617747
 20
-77.293515
 30
0.0
 11
665.617747
 21
-77.293515
 31
0.0
  0
LINE
  8
0
  6
BYLAYER
 62
     7
 10
673.617747
 20
-69.293515
 30
0.0
 11
665.617747
 21
-69.293515
 31
0.0
  0
LINE
  8
0
  6
BYLAYER
 62
     7
 10
665.617747
 20
-87.293515
 30
0.0
 11
665.617747
 21
-79.293515
 31
0.0
  0
LINE
  8
0
  6
BYLAYER
 62
     7
 10
665.617747
 20
-77.293515
 30
0.0
 11
665.617747
 21
-69.293515
 31
0.0
  0
LINE
  8
0
  6
BYLAYER
 62
     7
 10
683.617747
 20
-97.293515
 30
0.0
 11
675.617747
 21
-97.293515
 31
0.0
  0
LINE
  8
0
  6
BYLAYER
 62
     7
 10
683.617747
 20
-89.293515
 30
0.0
 11
683.617747
 21
-97.293515
 31
0.0
  0
LINE
  8
0
  6
BYLAYER
 62
     7
 10
683.617747
 20
-89.293515
 30
0.0
 11
675.617747
 21
-89.293515
 31
0.0
  0
LINE
  8
0
  6
BYLAYER
 62
     7
 10
675.617747
 20
-97.293515
 30
0.0
 11
675.617747
 21
-89.293515
 31
0.0
  0
LINE
  8
0
  6
BYLAYER
 62
     7
 10
673.617747
 20
-97.293515
 30
0.0
 11
665.617747
 21
-97.293515
 31
0.0
  0
LINE
  8
0
  6
BYLAYER
 62
     7
 10
673.617747
 20
-89.293515
 30
0.0
 11
673.617747
 21
-97.293515
 31
0.0
  0
LINE
  8
0
  6
BYLAYER
 62
     7
 10
673.617747
 20
-89.293515
 30
0.0
 11
665.617747
 21
-89.293515
 31
0.0
  0
LINE
  8
0
  6
BYLAYER
 62
     7
 10
665.617747
 20
-97.293515
 30
0.0
 11
665.617747
 21
-89.293515
 31
0.0
  0
LINE
  8
0
  6
BYLAYER
 62
     7
 10
663.617747
 20
-87.293515
 30
0.0
 11
655.617747
 21
-87.293515
 31
0.0
  0
LINE
  8
0
  6
BYLAYER
 62
     7
 10
663.617747
 20
-79.293515
 30
0.0
 11
663.617747
 21
-87.293515
 31
0.0
  0
LINE
  8
0
  6
BYLAYER
 62
     7
 10
663.617747
 20
-79.293515
 30
0.0
 11
655.617747
 21
-79.293515
 31
0.0
  0
LINE
  8
0
  6
BYLAYER
 62
     7
 10
655.617747
 20
-87.293515
 30
0.0
 11
655.617747
 21
-79.293515
 31
0.0
  0
LINE
  8
0
  6
BYLAYER
 62
     7
 10
663.617747
 20
-97.293515
 30
0.0
 11
655.617747
 21
-97.293515
 31
0.0
  0
LINE
  8
0
  6
BYLAYER
 62
     7
 10
663.617747
 20
-89.293515
 30
0.0
 11
663.617747
 21
-97.293515
 31
0.0
  0
LINE
  8
0
  6
BYLAYER
 62
     7
 10
663.617747
 20
-89.293515
 30
0.0
 11
655.617747
 21
-89.293515
 31
0.0
  0
LINE
  8
0
  6
BYLAYER
 62
     7
 10
655.617747
 20
-97.293515
 30
0.0
 11
655.617747
 21
-89.293515
 31
0.0
  0
LINE
  8
0
  6
BYLAYER
 62
     7
 10
693.617747
 20
-109.293515
 30
0.0
 11
685.617747
 21
-109.293515
 31
0.0
  0
LINE
  8
0
  6
BYLAYER
 62
     7
 10
693.617747
 20
-127.293515
 30
0.0
 11
693.617747
 21
-119.293515
 31
0.0
  0
LINE
  8
0
  6
BYLAYER
 62
     7
 10
693.617747
 20
-137.293515
 30
0.0
 11
693.617747
 21
-129.293515
 31
0.0
  0
LINE
  8
0
  6
BYLAYER
 62
     7
 10
693.617747
 20
-117.293515
 30
0.0
 11
693.617747
 21
-109.293515
 31
0.0
  0
LINE
  8
0
  6
BYLAYER
 62
     7
 10
685.617747
 20
-129.293515
 30
0.0
 11
685.617747
 21
-137.293515
 31
0.0
  0
LINE
  8
0
  6
BYLAYER
 62
     7
 10
683.617747
 20
-129.293515
 30
0.0
 11
683.617747
 21
-137.293515
 31
0.0
  0
LINE
  8
0
  6
BYLAYER
 62
     7
 10
693.617747
 20
-117.293515
 30
0.0
 11
685.617747
 21
-117.293515
 31
0.0
  0
LINE
  8
0
  6
BYLAYER
 62
     7
 10
693.617747
 20
-119.293515
 30
0.0
 11
685.617747
 21
-119.293515
 31
0.0
  0
LINE
  8
0
  6
BYLAYER
 62
     7
 10
693.617747
 20
-127.293515
 30
0.0
 11
685.617747
 21
-127.293515
 31
0.0
  0
LINE
  8
0
  6
BYLAYER
 62
     7
 10
683.617747
 20
-129.293515
 30
0.0
 11
675.779748
 21
-129.293515
 31
0.0
  0
LINE
  8
0
  6
BYLAYER
 62
     7
 10
693.617747
 20
-129.293515
 30
0.0
 11
685.617747
 21
-129.293515
 31
0.0
  0
LINE
  8
0
  6
BYLAYER
 62
     7
 10
683.617747
 20
-137.293515
 30
0.0
 11
675.779748
 21
-137.293515
 31
0.0
  0
LINE
  8
0
  6
BYLAYER
 62
     7
 10
693.617747
 20
-137.293515
 30
0.0
 11
685.617747
 21
-137.293515
 31
0.0
  0
LINE
  8
0
  6
BYLAYER
 62
     7
 10
675.779748
 20
-129.293515
 30
0.0
 11
675.779748
 21
-137.293515
 31
0.0
  0
LINE
  8
0
  6
BYLAYER
 62
     7
 10
685.617747
 20
-109.293515
 30
0.0
 11
685.617747
 21
-117.293515
 31
0.0
  0
LINE
  8
0
  6
BYLAYER
 62
     7
 10
685.617747
 20
-119.293515
 30
0.0
 11
685.617747
 21
-127.293515
 31
0.0
  0
LINE
  8
0
  6
BYLAYER
 62
     7
 10
683.617747
 20
-109.293515
 30
0.0
 11
675.617747
 21
-109.293515
 31
0.0
  0
LINE
  8
0
  6
BYLAYER
 62
     7
 10
683.617747
 20
-127.293515
 30
0.0
 11
683.617747
 21
-119.293515
 31
0.0
  0
LINE
  8
0
  6
BYLAYER
 62
     7
 10
683.617747
 20
-117.293515
 30
0.0
 11
683.617747
 21
-109.293515
 31
0.0
  0
LINE
  8
0
  6
BYLAYER
 62
     7
 10
683.617747
 20
-117.293515
 30
0.0
 11
675.617747
 21
-117.293515
 31
0.0
  0
LINE
  8
0
  6
BYLAYER
 62
     7
 10
683.617747
 20
-119.293515
 30
0.0
 11
675.617747
 21
-119.293515
 31
0.0
  0
LINE
  8
0
  6
BYLAYER
 62
     7
 10
683.617747
 20
-127.293515
 30
0.0
 11
675.617747
 21
-127.293515
 31
0.0
  0
LINE
  8
0
  6
BYLAYER
 62
     7
 10
675.617747
 20
-109.293515
 30
0.0
 11
675.617747
 21
-117.293515
 31
0.0
  0
LINE
  8
0
  6
BYLAYER
 62
     7
 10
675.617747
 20
-119.293515
 30
0.0
 11
675.617747
 21
-127.293515
 31
0.0
  0
LINE
  8
0
  6
BYLAYER
 62
     7
 10
673.617747
 20
-109.293515
 30
0.0
 11
665.617747
 21
-109.293515
 31
0.0
  0
LINE
  8
0
  6
BYLAYER
 62
     7
 10
673.617747
 20
-127.293515
 30
0.0
 11
673.617747
 21
-119.293515
 31
0.0
  0
LINE
  8
0
  6
BYLAYER
 62
     7
 10
673.617747
 20
-117.293515
 30
0.0
 11
673.617747
 21
-109.293515
 31
0.0
  0
LINE
  8
0
  6
BYLAYER
 62
     7
 10
673.617747
 20
-117.293515
 30
0.0
 11
665.617747
 21
-117.293515
 31
0.0
  0
LINE
  8
0
  6
BYLAYER
 62
     7
 10
673.617747
 20
-119.293515
 30
0.0
 11
665.617747
 21
-119.293515
 31
0.0
  0
LINE
  8
0
  6
BYLAYER
 62
     7
 10
673.617747
 20
-127.293515
 30
0.0
 11
665.617747
 21
-127.293515
 31
0.0
  0
LINE
  8
0
  6
BYLAYER
 62
     7
 10
665.617747
 20
-109.293515
 30
0.0
 11
665.617747
 21
-117.293515
 31
0.0
  0
LINE
  8
0
  6
BYLAYER
 62
     7
 10
665.617747
 20
-119.293515
 30
0.0
 11
665.617747
 21
-127.293515
 31
0.0
  0
LINE
  8
0
  6
BYLAYER
 62
     7
 10
683.617747
 20
-99.293515
 30
0.0
 11
675.617747
 21
-99.293515
 31
0.0
  0
LINE
  8
0
  6
BYLAYER
 62
     7
 10
683.617747
 20
-107.293515
 30
0.0
 11
683.617747
 21
-99.293515
 31
0.0
  0
LINE
  8
0
  6
BYLAYER
 62
     7
 10
683.617747
 20
-107.293515
 30
0.0
 11
675.617747
 21
-107.293515
 31
0.0
  0
LINE
  8
0
  6
BYLAYER
 62
     7
 10
675.617747
 20
-99.293515
 30
0.0
 11
675.617747
 21
-107.293515
 31
0.0
  0
LINE
  8
0
  6
BYLAYER
 62
     7
 10
673.617747
 20
-99.293515
 30
0.0
 11
665.617747
 21
-99.293515
 31
0.0
  0
LINE
  8
0
  6
BYLAYER
 62
     7
 10
673.617747
 20
-107.293515
 30
0.0
 11
673.617747
 21
-99.293515
 31
0.0
  0
LINE
  8
0
  6
BYLAYER
 62
     7
 10
673.617747
 20
-107.293515
 30
0.0
 11
665.617747
 21
-107.293515
 31
0.0
  0
LINE
  8
0
  6
BYLAYER
 62
     7
 10
665.617747
 20
-99.293515
 30
0.0
 11
665.617747
 21
-107.293515
 31
0.0
  0
LINE
  8
0
  6
BYLAYER
 62
     7
 10
663.617747
 20
-109.293515
 30
0.0
 11
655.617747
 21
-109.293515
 31
0.0
  0
LINE
  8
0
  6
BYLAYER
 62
     7
 10
663.617747
 20
-117.293515
 30
0.0
 11
663.617747
 21
-109.293515
 31
0.0
  0
LINE
  8
0
  6
BYLAYER
 62
     7
 10
663.617747
 20
-117.293515
 30
0.0
 11
655.617747
 21
-117.293515
 31
0.0
  0
LINE
  8
0
  6
BYLAYER
 62
     7
 10
655.617747
 20
-109.293515
 30
0.0
 11
655.617747
 21
-117.293515
 31
0.0
  0
LINE
  8
0
  6
BYLAYER
 62
     7
 10
663.617747
 20
-99.293515
 30
0.0
 11
655.617747
 21
-99.293515
 31
0.0
  0
LINE
  8
0
  6
BYLAYER
 62
     7
 10
663.617747
 20
-107.293515
 30
0.0
 11
663.617747
 21
-99.293515
 31
0.0
  0
LINE
  8
0
  6
BYLAYER
 62
     7
 10
663.617747
 20
-107.293515
 30
0.0
 11
655.617747
 21
-107.293515
 31
0.0
  0
LINE
  8
0
  6
BYLAYER
 62
     7
 10
655.617747
 20
-99.293515
 30
0.0
 11
655.617747
 21
-107.293515
 31
0.0
  0
LINE
  8
0
  6
BYLAYER
 62
     7
 10
660.617686
 20
-42.789670
 30
0.0
 11
660.617686
 21
-48.130223
 31
0.0
  0
LINE
  8
0
  6
BYLAYER
 62
     7
 10
728.617686
 20
-42.789609
 30
0.0
 11
728.617686
 21
-48.130140
 31
0.0
  0
CIRCLE
  8
0
  6
BYLAYER
 62
     7
 10
694.617747
 20
-98.293515
 30
0.0
 40
4.0
  0
ARC
  8
0
  6
BYLAYER
 62
     7
 10
730.367686
 20
-22.593564
 30
0.0
 40
1.500000
 50
180.000000
 51
265.219808
  0
ARC
  8
0
  6
BYLAYER
 62
     7
 10
658.867686
 20
-22.593564
 30
0.0
 40
1.500000
 50
274.780192
 51
360.0
  0
ARC
  8
0
  6
BYLAYER
 62
     7
 10
666.863348
 20
-22.593564
 30
0.0
 40
1.5
 50
270.0
 51
360.0
  0
LINE
  8
0
  6
BYLAYER
 62
     7
 10
728.867686
 20
-22.593564
 30
0.0
 11
728.867686
 21
-1.093564
 31
0.0
  0
LINE
  8
0
  6
BYLAYER
 62
     7
 10
727.367686
 20
0.406436
 30
0.0
 11
661.867686
 21
0.406436
 31
0.0
  0
ARC
  8
0
  6
BYLAYER
 62
     7
 10
727.367686
 20
-1.093564
 30
0.0
 40
1.5
 50
0.0
 51
90.0
  0
ARC
  8
0
  6
BYLAYER
 62
     7
 10
661.867686
 20
-1.093564
 30
0.0
 40
1.5
 50
90.0
 51
180.0
  0
LINE
  8
0
  6
BYLAYER
 62
     7
 10
660.367686
 20
-22.593564
 30
0.0
 11
660.367686
 21
-1.093564
 31
0.0
  0
LINE
  8
0
  6
BYLAYER
 62
     7
 10
668.363348
 20
-22.593564
 30
0.0
 11
668.363348
 21
-1.093564
 31
0.0
  0
ARC
  8
0
  6
BYLAYER
 62
     7
 10
669.863348
 20
-1.093564
 30
0.0
 40
1.5
 50
90.0
 51
180.0
  0
ARC
  8
0
  6
BYLAYER
 62
     7
 10
719.372024
 20
-1.093564
 30
0.0
 40
1.5
 50
0.0
 51
90.0
  0
LINE
  8
0
  6
BYLAYER
 62
     7
 10
674.024033
 20
0.406436
 30
0.0
 11
674.516580
 21
-13.698262
 31
0.0
  0
ARC
  8
0
  6
BYLAYER
 62
     7
 10
677.514752
 20
-13.593564
 30
0.0
 40
3.000000
 50
182.0
 51
270.0
  0
LINE
  8
0
  6
BYLAYER
 62
     7
 10
684.718792
 20
-13.698262
 30
0.0
 11
685.211339
 21
0.406436
 31
0.0
  0
ARC
  8
0
  6
BYLAYER
 62
     7
 10
681.720620
 20
-13.593564
 30
0.0
 40
3.000000
 50
270.0
 51
358.0
  0
LINE
  8
0
  6
BYLAYER
 62
     7
 10
699.718792
 20
-13.698262
 30
0.0
 11
700.211339
 21
0.406436
 31
0.0
  0
ARC
  8
0
  6
BYLAYER
 62
     7
 10
696.720620
 20
-13.593564
 30
0.0
 40
3.000000
 50
270.0
 51
358.0
  0
LINE
  8
0
  6
BYLAYER
 62
     7
 10
714.718792
 20
-13.698262
 30
0.0
 11
715.211339
 21
0.406436
 31
0.0
  0
ARC
  8
0
  6
BYLAYER
 62
     7
 10
711.720620
 20
-13.593564
 30
0.0
 40
3.000000
 50
270.0
 51
358.0
  0
LINE
  8
0
  6
BYLAYER
 62
     7
 10
704.024033
 20
0.406436
 30
0.0
 11
704.516580
 21
-13.698262
 31
0.0
  0
ARC
  8
0
  6
BYLAYER
 62
     7
 10
707.514752
 20
-13.593564
 30
0.0
 40
3.000000
 50
182.0
 51
270.0
  0
LINE
  8
0
  6
BYLAYER
 62
     7
 10
689.024033
 20
0.406436
 30
0.0
 11
689.516580
 21
-13.698262
 31
0.0
  0
ARC
  8
0
  6
BYLAYER
 62
     7
 10
692.514752
 20
-13.593564
 30
0.0
 40
3.000000
 50
182.0
 51
270.0
  0
LINE
  8
0
  6
BYLAYER
 62
     7
 10
707.514752
 20
-16.593564
 30
0.0
 11
711.720620
 21
-16.593564
 31
0.0
  0
LINE
  8
0
  6
BYLAYER
 62
     7
 10
692.514752
 20
-16.593564
 30
0.0
 11
696.720620
 21
-16.593564
 31
0.0
  0
LINE
  8
0
  6
BYLAYER
 62
     7
 10
677.514752
 20
-16.593564
 30
0.0
 11
681.720620
 21
-16.593564
 31
0.0
  0
LINE
  8
0
  6
BYLAYER
 62
     7
 10
689.058954
 20
-0.593564
 30
0.0
 11
700.176418
 21
-0.593564
 31
0.0
  0
LINE
  8
0
  6
BYLAYER
 62
     7
 10
704.058954
 20
-0.593564
 30
0.0
 11
715.176418
 21
-0.593564
 31
0.0
  0
LINE
  8
0
  6
BYLAYER
 62
     7
 10
674.058954
 20
-0.593564
 30
0.0
 11
685.176418
 21
-0.593564
 31
0.0
  0
LINE
  8
0
  6
BYLAYER
 62
     7
 10
720.872024
 20
-1.093564
 30
0.0
 11
720.872024
 21
-22.593564
 31
0.0
  0
ARC
  8
0
  6
BYLAYER
 62
     7
 10
659.117686
 20
-25.583129
 30
0.0
 40
1.500000
 50
94.780192
 51
180.000000
  0
LINE
  8
0
  6
BYLAYER
 62
     7
 10
659.117686
 20
-24.093564
 30
0.0
 11
730.367686
 21
-24.093564
 31
0.0
  0
ARC
  8
0
  6
BYLAYER
 62
     7
 10
730.117686
 20
-25.583129
 30
0.0
 40
1.5
 50
0.0
 51
85.219808
  0
LINE
  8
0
  6
BYLAYER
 62
     7
 10
731.617686
 20
-33.093564
 30
0.0
 11
731.617686
 21
-25.583129
 31
0.0
  0
ARC
  8
0
  6
BYLAYER
 62
     7
 10
722.372024
 20
-22.593564
 30
0.0
 40
1.5
 50
180.000000
 51
270.000000
  0
LINE
  8
0
  6
BYLAYER
 62
     7
 10
731.617686
 20
-31.093503
 30
0.0
 11
657.617686
 21
-31.093503
 31
0.0
  0
LINE
  8
0
  6
BYLAYER
 62
     7
 10
657.617686
 20
-25.583129
 30
0.0
 11
657.617686
 21
-33.093564
 31
0.0
  0
LINE
  8
0
  6
BYLAYER
 62
     7
 10
657.617686
 20
-33.093564
 30
0.0
 11
731.617686
 21
-33.093564
 31
0.0
  0
LINE
  8
0
  6
BYLAYER
 62
     7
 10
657.617686
 20
-373.093564
 30
0.0
 11
657.617686
 21
-378.871335
 31
0.0
  0
LINE
  8
0
  6
BYLAYER
 62
     7
 10
731.617686
 20
-373.093503
 30
0.0
 11
731.617686
 21
-378.871259
 31
0.0
  0
ARC
  8
0
  6
BYLAYER
 62
     7
 10
730.367686
 20
-362.593564
 30
0.0
 40
1.500000
 50
180.000000
 51
265.219808
  0
ARC
  8
0
  6
BYLAYER
 62
     7
 10
658.867686
 20
-362.593564
 30
0.0
 40
1.500000
 50
274.780192
 51
360.0
  0
ARC
  8
0
  6
BYLAYER
 62
     7
 10
666.863348
 20
-362.593564
 30
0.0
 40
1.5
 50
270.0
 51
360.0
  0
LINE
  8
0
  6
BYLAYER
 62
     7
 10
728.867686
 20
-362.593564
 30
0.0
 11
728.867686
 21
-341.093564
 31
0.0
  0
LINE
  8
0
  6
BYLAYER
 62
     7
 10
727.367686
 20
-339.593564
 30
0.0
 11
661.867686
 21
-339.593564
 31
0.0
  0
ARC
  8
0
  6
BYLAYER
 62
     7
 10
727.367686
 20
-341.093564
 30
0.0
 40
1.5
 50
0.0
 51
90.0
  0
ARC
  8
0
  6
BYLAYER
 62
     7
 10
661.867686
 20
-341.093564
 30
0.0
 40
1.5
 50
90.0
 51
180.0
  0
LINE
  8
0
  6
BYLAYER
 62
     7
 10
660.367686
 20
-362.593564
 30
0.0
 11
660.367686
 21
-341.093564
 31
0.0
  0
LINE
  8
0
  6
BYLAYER
 62
     7
 10
668.363348
 20
-362.593564
 30
0.0
 11
668.363348
 21
-341.093564
 31
0.0
  0
ARC
  8
0
  6
BYLAYER
 62
     7
 10
669.863348
 20
-341.093564
 30
0.0
 40
1.5
 50
90.0
 51
180.0
  0
ARC
  8
0
  6
BYLAYER
 62
     7
 10
719.372024
 20
-341.093564
 30
0.0
 40
1.5
 50
0.0
 51
90.0
  0
LINE
  8
0
  6
BYLAYER
 62
     7
 10
674.024033
 20
-339.593564
 30
0.0
 11
674.516580
 21
-353.698262
 31
0.0
  0
ARC
  8
0
  6
BYLAYER
 62
     7
 10
677.514752
 20
-353.593564
 30
0.0
 40
3.000000
 50
182.000000
 51
270.000000
  0
LINE
  8
0
  6
BYLAYER
 62
     7
 10
684.718792
 20
-353.698262
 30
0.0
 11
685.211339
 21
-339.593564
 31
0.0
  0
ARC
  8
0
  6
BYLAYER
 62
     7
 10
681.720620
 20
-353.593564
 30
0.0
 40
3.000000
 50
270.0
 51
358.0
  0
LINE
  8
0
  6
BYLAYER
 62
     7
 10
699.718792
 20
-353.698262
 30
0.0
 11
700.211339
 21
-339.593564
 31
0.0
  0
ARC
  8
0
  6
BYLAYER
 62
     7
 10
696.720620
 20
-353.593564
 30
0.0
 40
3.000000
 50
270.0
 51
358.0
  0
LINE
  8
0
  6
BYLAYER
 62
     7
 10
714.718792
 20
-353.698262
 30
0.0
 11
715.211339
 21
-339.593564
 31
0.0
  0
ARC
  8
0
  6
BYLAYER
 62
     7
 10
711.720620
 20
-353.593564
 30
0.0
 40
3.000000
 50
270.0
 51
358.0
  0
LINE
  8
0
  6
BYLAYER
 62
     7
 10
704.024033
 20
-339.593564
 30
0.0
 11
704.516580
 21
-353.698262
 31
0.0
  0
ARC
  8
0
  6
BYLAYER
 62
     7
 10
707.514752
 20
-353.593564
 30
0.0
 40
3.000000
 50
182.000000
 51
270.000000
  0
LINE
  8
0
  6
BYLAYER
 62
     7
 10
689.024033
 20
-339.593564
 30
0.0
 11
689.516580
 21
-353.698262
 31
0.0
  0
ARC
  8
0
  6
BYLAYER
 62
     7
 10
692.514752
 20
-353.593564
 30
0.0
 40
3.000000
 50
182.000000
 51
270.000000
  0
LINE
  8
0
  6
BYLAYER
 62
     7
 10
707.514752
 20
-356.593564
 30
0.0
 11
711.720620
 21
-356.593564
 31
0.0
  0
LINE
  8
0
  6
BYLAYER
 62
     7
 10
692.514752
 20
-356.593564
 30
0.0
 11
696.720620
 21
-356.593564
 31
0.0
  0
LINE
  8
0
  6
BYLAYER
 62
     7
 10
677.514752
 20
-356.593564
 30
0.0
 11
681.720620
 21
-356.593564
 31
0.0
  0
LINE
  8
0
  6
BYLAYER
 62
     7
 10
689.058954
 20
-340.593564
 30
0.0
 11
700.176418
 21
-340.593564
 31
0.0
  0
LINE
  8
0
  6
BYLAYER
 62
     7
 10
704.058954
 20
-340.593564
 30
0.0
 11
715.176418
 21
-340.593564
 31
0.0
  0
LINE
  8
0
  6
BYLAYER
 62
     7
 10
674.058954
 20
-340.593564
 30
0.0
 11
685.176418
 21
-340.593564
 31
0.0
  0
LINE
  8
0
  6
BYLAYER
 62
     7
 10
720.872024
 20
-341.093564
 30
0.0
 11
720.872024
 21
-362.593564
 31
0.0
  0
ARC
  8
0
  6
BYLAYER
 62
     7
 10
659.117686
 20
-365.583129
 30
0.0
 40
1.500000
 50
94.780192
 51
180.0
  0
LINE
  8
0
  6
BYLAYER
 62
     7
 10
659.117686
 20
-364.093564
 30
0.0
 11
730.367686
 21
-364.093564
 31
0.0
  0
ARC
  8
0
  6
BYLAYER
 62
     7
 10
730.117686
 20
-365.583129
 30
0.0
 40
1.500000
 50
0.0
 51
85.219808
  0
LINE
  8
0
  6
BYLAYER
 62
     7
 10
731.617686
 20
-373.093564
 30
0.0
 11
731.617686
 21
-365.583129
 31
0.0
  0
ARC
  8
0
  6
BYLAYER
 62
     7
 10
722.372024
 20
-362.593564
 30
0.0
 40
1.5
 50
180.000000
 51
270.000000
  0
LINE
  8
0
  6
BYLAYER
 62
     7
 10
675.017788
 20
-371.093503
 30
0.0
 11
657.617686
 21
-371.093503
 31
0.0
  0
LINE
  8
0
  6
BYLAYER
 62
     7
 10
731.617686
 20
-371.093503
 30
0.0
 11
714.217706
 21
-371.093503
 31
0.0
  0
LINE
  8
0
  6
BYLAYER
 62
     7
 10
657.617686
 20
-365.583129
 30
0.0
 11
657.617686
 21
-373.093564
 31
0.0
  0
LINE
  8
0
  6
BYLAYER
 62
     7
 10
657.617686
 20
-373.093564
 30
0.0
 11
669.142928
 21
-373.093564
 31
0.0
  0
LINE
  8
0
  6
BYLAYER
 62
     7
 10
720.092566
 20
-373.093564
 30
0.0
 11
731.617686
 21
-373.093564
 31
0.0
  0
ARC
  8
0
  6
BYLAYER
 62
     1
 10
694.617747
 20
-438.293515
 30
0.0
 40
38.000000
 50
58.788820
 51
121.211180
  0
ARC
  8
0
  6
BYLAYER
 62
     1
 10
694.617747
 20
-438.293515
 30
0.0
 40
70.0
 50
311.082333
 51
588.917667
  0
ARC
  8
0
  6
BYLAYER
 62
     1
 10
636.617747
 20
-462.894046
 30
0.0
 40
26.100653
 50
90.0
 51
102.634515
  0
ARC
  8
0
  6
BYLAYER
 62
     1
 10
631.529720
 20
-440.195759
 30
0.0
 40
2.839091
 50
102.634515
 51
123.765210
  0
ARC
  8
0
  6
BYLAYER
 62
     1
 10
630.581288
 20
-438.777145
 30
0.0
 40
1.132636
 50
123.765210
 51
141.819817
  0
ARC
  8
0
  6
BYLAYER
 62
     1
 10
629.974099
 20
-438.293393
 30
0.0
 40
0.356352
 50
142.613743
 51
180.000000
  0
ARC
  8
0
  6
BYLAYER
 62
     1
 10
629.974099
 20
-438.293393
 30
0.0
 40
0.356352
 50
180.000000
 51
217.386257
  0
ARC
  8
0
  6
BYLAYER
 62
     1
 10
630.581288
 20
-437.809641
 30
0.0
 40
1.132636
 50
218.180183
 51
236.234790
  0
ARC
  8
0
  6
BYLAYER
 62
     1
 10
631.529720
 20
-436.391027
 30
0.0
 40
2.839091
 50
236.234790
 51
257.365485
  0
ARC
  8
0
  6
BYLAYER
 62
     1
 10
636.617747
 20
-413.692740
 30
0.0
 40
26.100653
 50
257.365485
 51
270.000000
  0
ARC
  8
0
  6
BYLAYER
 62
     1
 10
652.584056
 20
-442.427670
 30
0.0
 40
5.635472
 50
79.430628
 51
90.538017
  0
LINE
  8
0
  6
BYLAYER
 62
     1
 10
636.617747
 20
-436.793393
 30
0.0
 11
652.531138
 21
-436.793393
 31
0.0
  0
LINE
  8
0
  6
BYLAYER
 62
     1
 10
636.617747
 20
-439.793393
 30
0.0
 11
651.117747
 21
-439.793393
 31
0.0
  0
ARC
  8
0
  6
BYLAYER
 62
     1
 10
752.617747
 20
-413.692984
 30
0.0
 40
26.100653
 50
270.0
 51
282.634515
  0
ARC
  8
0
  6
BYLAYER
 62
     1
 10
757.705774
 20
-436.391271
 30
0.0
 40
2.839091
 50
282.634515
 51
303.765210
  0
ARC
  8
0
  6
BYLAYER
 62
     1
 10
758.654206
 20
-437.809885
 30
0.0
 40
1.132636
 50
303.765210
 51
321.819817
  0
ARC
  8
0
  6
BYLAYER
 62
     1
 10
759.261395
 20
-438.293637
 30
0.0
 40
0.356352
 50
322.613743
 51
360.000000
  0
ARC
  8
0
  6
BYLAYER
 62
     1
 10
759.261395
 20
-438.293637
 30
0.0
 40
0.356352
 50
0.0
 51
37.386257
  0
ARC
  8
0
  6
BYLAYER
 62
     1
 10
758.654206
 20
-438.777389
 30
0.0
 40
1.132636
 50
38.180183
 51
56.234790
  0
ARC
  8
0
  6
BYLAYER
 62
     1
 10
757.705774
 20
-440.196003
 30
0.0
 40
2.839091
 50
56.234790
 51
77.365485
  0
ARC
  8
0
  6
BYLAYER
 62
     1
 10
752.617747
 20
-462.894290
 30
0.0
 40
26.100653
 50
77.365485
 51
90.000000
  0
ARC
  8
0
  6
BYLAYER
 62
     1
 10
736.651438
 20
-442.427670
 30
0.0
 40
5.635472
 50
89.461961
 51
100.569372
  0
LINE
  8
0
  6
BYLAYER
 62
     1
 10
752.617747
 20
-439.793637
 30
0.0
 11
738.117747
 21
-439.793637
 31
0.0
  0
LINE
  8
0
  6
BYLAYER
 62
     1
 10
752.617747
 20
-436.793637
 30
0.0
 11
736.704356
 21
-436.793637
 31
0.0
  0
LINE
  8
0
  6
BYLAYER
 62
     1
 10
724.916874
 20
-388.814095
 30
0.0
 11
724.916880
 21
-388.814084
 31
0.0
  0
ARC
  8
0
  6
BYLAYER
 62
     1
 10
702.312811
 20
-375.763589
 30
0.0
 40
26.100945
 50
329.999945
 51
342.634350
  0
ARC
  8
0
  6
BYLAYER
 62
     1
 10
724.514402
 20
-382.706531
 30
0.0
 40
2.839065
 50
342.634350
 51
363.765005
  0
ARC
  8
0
  6
BYLAYER
 62
     1
 10
726.217164
 20
-382.594479
 30
0.0
 40
1.132620
 50
3.765005
 51
21.819434
  0
ARC
  8
0
  6
BYLAYER
 62
     1
 10
726.939694
 20
-382.310521
 30
0.0
 40
0.356344
 50
22.613258
 51
59.999487
  0
ARC
  8
0
  6
BYLAYER
 62
     1
 10
726.939696
 20
-382.310518
 30
0.0
 40
0.356341
 50
59.999487
 51
97.386059
  0
ARC
  8
0
  6
BYLAYER
 62
     1
 10
727.055038
 20
-383.078214
 30
0.0
 40
1.132603
 50
98.180034
 51
116.234736
  0
ARC
  8
0
  6
BYLAYER
 62
     1
 10
727.809364
 20
-384.608864
 30
0.0
 40
2.839031
 50
116.234736
 51
137.365533
  0
ARC
  8
0
  6
BYLAYER
 62
     1
 10
744.922859
 20
-400.364539
 30
0.0
 40
26.100867
 50
137.365533
 51
149.999945
  0
LINE
  8
0
  6
BYLAYER
 62
     1
 10
722.318858
 20
-387.314084
 30
0.0
 11
722.318849
 21
-387.314098
 31
0.0
  0
ARC
  8
0
  6
BYLAYER
 62
     1
 10
714.586192
 20
-403.707089
 30
0.0
 40
0.999995
 50
176.893526
 51
303.106529
  0
ARC
  8
0
  6
BYLAYER
 62
     1
 10
712.054331
 20
-399.824185
 30
0.0
 40
5.635450
 50
303.106938
 51
330.538016
  0
ARC
  8
0
  6
BYLAYER
 62
     1
 10
719.214854
 20
-403.958340
 30
0.0
 40
5.635445
 50
149.461956
 51
176.893089
  0
LINE
  8
0
  6
BYLAYER
 62
     1
 10
724.916880
 20
-388.814084
 30
0.0
 11
716.960215
 21
-402.595517
 31
0.0
  0
LINE
  8
0
  6
BYLAYER
 62
     1
 10
722.318797
 20
-387.314084
 30
0.0
 11
714.362132
 21
-401.095517
 31
0.0
  0
ARC
  8
0
  6
BYLAYER
 62
     1
 10
644.312901
 20
-400.364401
 30
0.0
 40
26.100840
 50
30.000079
 51
42.634477
  0
ARC
  8
0
  6
BYLAYER
 62
     1
 10
661.426375
 20
-384.608740
 30
0.0
 40
2.839029
 50
42.634477
 51
63.765271
  0
ARC
  8
0
  6
BYLAYER
 62
     1
 10
662.180700
 20
-383.078091
 30
0.0
 40
1.132602
 50
63.765271
 51
81.819973
  0
ARC
  8
0
  6
BYLAYER
 62
     1
 10
662.296042
 20
-382.310396
 30
0.0
 40
0.356340
 50
82.613949
 51
120.000513
  0
ARC
  8
0
  6
BYLAYER
 62
     1
 10
662.296044
 20
-382.310399
 30
0.0
 40
0.356344
 50
120.000513
 51
157.386732
  0
ARC
  8
0
  6
BYLAYER
 62
     1
 10
663.018574
 20
-382.594357
 30
0.0
 40
1.132620
 50
158.180557
 51
176.234987
  0
ARC
  8
0
  6
BYLAYER
 62
     1
 10
664.721334
 20
-382.706409
 30
0.0
 40
2.839063
 50
176.234987
 51
197.365638
  0
ARC
  8
0
  6
BYLAYER
 62
     1
 10
686.922894
 20
-375.763482
 30
0.0
 40
26.100910
 50
197.365638
 51
210.000025
  0
ARC
  8
0
  6
BYLAYER
 62
     1
 10
674.649302
 20
-403.707089
 30
0.0
 40
0.999944
 50
236.893500
 51
363.106517
  0
ARC
  8
0
  6
BYLAYER
 62
     1
 10
670.020640
 20
-403.958340
 30
0.0
 40
5.635445
 50
3.106927
 51
30.538005
  0
ARC
  8
0
  6
BYLAYER
 62
     1
 10
677.181163
 20
-399.824185
 30
0.0
 40
5.635450
 50
209.461944
 51
236.893063
  0
LINE
  8
0
  6
BYLAYER
 62
     1
 10
666.916880
 20
-387.313962
 30
0.0
 11
674.873606
 21
-401.095395
 31
0.0
  0
LINE
  8
0
  6
BYLAYER
 62
     1
 10
664.318797
 20
-388.813962
 30
0.0
 11
672.275523
 21
-402.595395
 31
0.0
  0
ARC
  8
0
  6
BYLAYER
 62
     1
 10
694.617747
 20
-438.293515
 30
0.0
 40
47.947388
 50
341.258816
 51
358.208561
  0
ARC
  8
0
  6
BYLAYER
 62
     1
 10
694.617747
 20
-438.293515
 30
0.0
 40
47.947376
 50
62.987465
 51
118.208540
  0
ARC
  8
0
  6
BYLAYER
 62
     1
 10
694.617747
 20
-438.293515
 30
0.0
 40
47.947365
 50
121.792573
 51
134.837377
  0
ARC
  8
0
  6
BYLAYER
 62
     1
 10
694.617747
 20
-438.293515
 30
0.0
 40
47.947365
 50
152.422897
 51
178.208569
  0
ARC
  8
0
  6
BYLAYER
 62
     1
 10
694.617747
 20
-438.293515
 30
0.0
 40
47.947353
 50
181.792602
 51
198.741164
  0
ARC
  8
0
  6
BYLAYER
 62
     1
 10
694.617747
 20
-438.293515
 30
0.0
 40
47.947353
 50
1.792606
 51
27.577077
  0
ARC
  8
0
  6
BYLAYER
 62
     1
 10
694.617747
 20
-438.293515
 30
0.0
 40
47.947353
 50
45.162637
 51
58.208551
  0
LINE
  8
0
  6
BYLAYER
 62
     2
 10
646.040171
 20
-399.756772
 30
0.0
 11
648.162120
 21
-391.837765
 31
0.0
  0
LINE
  8
0
  6
BYLAYER
 62
     2
 10
648.162120
 20
-391.837765
 30
0.0
 11
656.081065
 21
-389.715878
 31
0.0
  0
LINE
  8
0
  6
BYLAYER
 62
     2
 10
656.081065
 20
-389.715878
 30
0.0
 11
661.878184
 21
-395.512997
 31
0.0
  0
LINE
  8
0
  6
BYLAYER
 62
     2
 10
661.878184
 20
-395.512997
 30
0.0
 11
659.756358
 21
-403.432004
 31
0.0
  0
LINE
  8
0
  6
BYLAYER
 62
     2
 10
659.756358
 20
-403.432004
 30
0.0
 11
656.541123
 21
-404.293515
 31
0.0
  0
LINE
  8
0
  6
BYLAYER
 62
     2
 10
651.837290
 20
-405.553891
 30
0.0
 11
646.040171
 21
-399.756772
 31
0.0
  0
LINE
  8
0
  6
BYLAYER
 62
     2
 10
743.195384
 20
-399.756772
 30
0.0
 11
741.073435
 21
-391.837765
 31
0.0
  0
LINE
  8
0
  6
BYLAYER
 62
     2
 10
741.073435
 20
-391.837765
 30
0.0
 11
733.154490
 21
-389.715878
 31
0.0
  0
LINE
  8
0
  6
BYLAYER
 62
     2
 10
733.154490
 20
-389.715878
 30
0.0
 11
727.357371
 21
-395.512997
 31
0.0
  0
LINE
  8
0
  6
BYLAYER
 62
     2
 10
727.357371
 20
-395.512997
 30
0.0
 11
729.479197
 21
-403.432004
 31
0.0
  0
LINE
  8
0
  6
BYLAYER
 62
     2
 10
729.479197
 20
-403.432004
 30
0.0
 11
732.694432
 21
-404.293515
 31
0.0
  0
LINE
  8
0
  6
BYLAYER
 62
     2
 10
737.398265
 20
-405.553891
 30
0.0
 11
743.195384
 21
-399.756772
 31
0.0
  0
LINE
  8
0
  6
BYLAYER
 62
     2
 10
646.040171
 20
-476.830197
 30
0.0
 11
648.162120
 21
-484.749203
 31
0.0
  0
LINE
  8
0
  6
BYLAYER
 62
     2
 10
648.162120
 20
-484.749203
 30
0.0
 11
648.617747
 21
-484.871289
 31
0.0
  0
LINE
  8
0
  6
BYLAYER
 62
     2
 10
648.617747
 20
-474.252621
 30
0.0
 11
646.040171
 21
-476.830197
 31
0.0
  0
LINE
  8
0
  6
BYLAYER
 62
     2
 10
743.195384
 20
-476.830197
 30
0.0
 11
741.073435
 21
-484.749203
 31
0.0
  0
LINE
  8
0
  6
BYLAYER
 62
     2
 10
741.073435
 20
-484.749203
 30
0.0
 11
740.617747
 21
-484.871306
 31
0.0
  0
LINE
  8
0
  6
BYLAYER
 62
     2
 10
740.617747
 20
-474.252560
 30
0.0
 11
743.195384
 21
-476.830197
 31
0.0
  0
LINE
  8
0
  6
BYLAYER
 62
     1
 10
219.617747
 20
-486.293515
 30
0.0
 11
219.617747
 21
-448.293515
 31
0.0
  0
ARC
  8
0
  6
BYLAYER
 62
     1
 10
230.617747
 20
-515.871396
 30
0.0
 40
2.0
 50
180.000000
 51
267.000764
  0
LINE
  8
0
  6
BYLAYER
 62
     1
 10
221.091349
 20
-487.045468
 30
0.0
 11
228.527842
 21
-511.003598
 31
0.0
  0
ARC
  8
0
  6
BYLAYER
 62
     1
 10
226.617747
 20
-511.596494
 30
0.0
 40
2.000000
 50
0.0
 51
17.244395
  0
ARC
  8
0
  6
BYLAYER
 62
     1
 10
220.130076
 20
-487.321103
 30
0.0
 40
0.999994
 50
15.999684
 51
87.003380
  0
LINE
  8
0
  6
BYLAYER
 62
     1
 10
219.976115
 20
-486.311581
 30
0.0
 11
219.617747
 21
-486.292905
 31
0.0
  0
LINE
  8
0
  6
BYLAYER
 62
     1
 10
219.617747
 20
-486.292905
 30
0.0
 11
220.676554
 21
-486.348325
 31
0.0
  0
ARC
  8
0
  6
BYLAYER
 62
     1
 10
220.624247
 20
-487.346982
 30
0.0
 40
0.999996
 50
37.000354
 51
87.001631
  0
LINE
  8
0
  6
BYLAYER
 62
     1
 10
221.422862
 20
-486.745175
 30
0.0
 11
228.215007
 21
-495.758603
 31
0.0
  0
LINE
  8
0
  6
BYLAYER
 62
     1
 10
228.617747
 20
-448.293515
 30
0.0
 11
228.617747
 21
-515.871396
 31
0.0
  0
ARC
  8
0
  6
BYLAYER
 62
     1
 10
226.617747
 20
-496.962216
 30
0.0
 40
2.0
 50
0.0
 51
37.000514
  0
LINE
  8
0
  6
BYLAYER
 62
     1
 10
238.617747
 20
-448.293271
 30
0.0
 11
238.617747
 21
-518.293316
 31
0.0
  0
LINE
  8
0
  6
BYLAYER
 62
     1
 10
238.617747
 20
-518.293316
 30
0.0
 11
230.513133
 21
-517.868588
 31
0.0
  0
LINE
  8
0
  6
BYLAYER
 62
     1
 10
219.617747
 20
-410.293515
 30
0.0
 11
219.617747
 21
-448.293515
 31
0.0
  0
ARC
  8
0
  6
BYLAYER
 62
     1
 10
230.617747
 20
-380.715512
 30
0.0
 40
2.000000
 50
92.999236
 51
180.000000
  0
LINE
  8
0
  6
BYLAYER
 62
     1
 10
221.091349
 20
-409.541562
 30
0.0
 11
228.527842
 21
-385.583310
 31
0.0
  0
ARC
  8
0
  6
BYLAYER
 62
     1
 10
226.617747
 20
-384.990414
 30
0.0
 40
2.000000
 50
342.755605
 51
360.000000
  0
ARC
  8
0
  6
BYLAYER
 62
     1
 10
220.130076
 20
-409.265927
 30
0.0
 40
0.999994
 50
272.996623
 51
344.000319
  0
LINE
  8
0
  6
BYLAYER
 62
     1
 10
219.976115
 20
-410.275327
 30
0.0
 11
219.617747
 21
-410.294125
 31
0.0
  0
LINE
  8
0
  6
BYLAYER
 62
     1
 10
219.617747
 20
-410.294125
 30
0.0
 11
220.676554
 21
-410.238583
 31
0.0
  0
ARC
  8
0
  6
BYLAYER
 62
     1
 10
220.624247
 20
-409.240048
 30
0.0
 40
0.999996
 50
272.998372
 51
322.999649
  0
LINE
  8
0
  6
BYLAYER
 62
     1
 10
221.422862
 20
-409.841855
 30
0.0
 11
228.215007
 21
-400.828305
 31
0.0
  0
LINE
  8
0
  6
BYLAYER
 62
     1
 10
228.617747
 20
-448.293515
 30
0.0
 11
228.617747
 21
-380.715512
 31
0.0
  0
ARC
  8
0
  6
BYLAYER
 62
     1
 10
226.617747
 20
-399.624692
 30
0.0
 40
2.000000
 50
322.999486
 51
360.0
  0
LINE
  8
0
  6
BYLAYER
 62
     1
 10
238.617747
 20
-448.293637
 30
0.0
 11
238.617747
 21
-378.293592
 31
0.0
  0
LINE
  8
0
  6
BYLAYER
 62
     1
 10
238.617747
 20
-378.293592
 30
0.0
 11
230.513133
 21
-378.718320
 31
0.0
  0
ENDSEC
  0
EOF
