  0
SECTION
  2
HEADER
  9
$EXTMIN
 10
90.641638
 20
542.0
 30
0.0
  9
$EXTMAX
 10
760.279863
 20
0.0
 30
0.0
  0
ENDSEC
  0
SECTION
  2
TABLES
  0
ENDSEC
  0
SECTION
  2
BLOCKS
  0
ENDSEC
  0
SECTION
  2
ENTITIES
  0
LINE
  8
0
  6
BYLAYER
 62
     7
 10
251.236848
 20
-37.336116
 30
0.0
 11
245.436799
 21
-37.336116
 31
0.0
  0
ARC
  8
0
  6
BYLAYER
 62
     7
 10
251.236848
 20
-38.836116
 30
0.0
 40
1.500000
 50
0.0
 51
90.000003
  0
ARC
  8
0
  6
BYLAYER
 62
     7
 10
280.636857
 20
-38.836116
 30
0.0
 40
1.500000
 50
90.0
 51
180.000003
  0
LINE
  8
0
  6
BYLAYER
 62
     7
 10
290.236848
 20
-37.336116
 30
0.0
 11
280.636857
 21
-37.336116
 31
0.0
  0
ARC
  8
0
  6
BYLAYER
 62
     7
 10
290.236848
 20
-38.836116
 30
0.0
 40
1.5
 50
0.0
 51
90.000003
  0
LINE
  8
0
  6
BYLAYER
 62
     7
 10
325.436860
 20
-37.336055
 30
0.0
 11
319.636872
 21
-37.336055
 31
0.0
  0
ARC
  8
0
  6
BYLAYER
 62
     7
 10
319.636872
 20
-38.836055
 30
0.0
 40
1.5
 50
90.0
 51
180.000003
  0
ARC
  8
0
  6
BYLAYER
 62
     7
 10
265.936860
 20
-46.336055
 30
0.0
 40
13.200012
 50
180.000000
 51
359.999995
  0
ARC
  8
0
  6
BYLAYER
 62
     7
 10
304.936860
 20
-46.336055
 30
0.0
 40
13.200012
 50
180.000000
 51
359.999995
  0
LINE
  8
0
  6
BYLAYER
 62
     7
 10
245.436799
 20
-42.836116
 30
0.0
 11
251.236848
 21
-42.836116
 31
0.0
  0
LINE
  8
0
  6
BYLAYER
 62
     7
 10
252.736848
 20
-38.836116
 30
0.0
 11
252.736848
 21
-44.336116
 31
0.0
  0
LINE
  8
0
  6
BYLAYER
 62
     7
 10
252.736848
 20
-44.336116
 30
0.0
 11
252.736848
 21
-46.336055
 31
0.0
  0
ARC
  8
0
  6
BYLAYER
 62
     7
 10
251.236848
 20
-44.336116
 30
0.0
 40
1.500000
 50
0.0
 51
90.000003
  0
ARC
  8
0
  6
BYLAYER
 62
     7
 10
280.636857
 20
-44.336055
 30
0.0
 40
1.500000
 50
90.0
 51
180.000003
  0
LINE
  8
0
  6
BYLAYER
 62
     7
 10
280.636857
 20
-42.836055
 30
0.0
 11
290.236848
 21
-42.836055
 31
0.0
  0
LINE
  8
0
  6
BYLAYER
 62
     7
 10
291.736848
 20
-38.836116
 30
0.0
 11
291.736848
 21
-44.336055
 31
0.0
  0
LINE
  8
0
  6
BYLAYER
 62
     7
 10
291.736848
 20
-44.336055
 30
0.0
 11
291.736848
 21
-46.336055
 31
0.0
  0
ARC
  8
0
  6
BYLAYER
 62
     7
 10
290.236848
 20
-44.336055
 30
0.0
 40
1.5
 50
0.0
 51
90.000003
  0
LINE
  8
0
  6
BYLAYER
 62
     7
 10
318.136872
 20
-46.336055
 30
0.0
 11
318.136872
 21
-44.336055
 31
0.0
  0
LINE
  8
0
  6
BYLAYER
 62
     7
 10
318.136872
 20
-44.336055
 30
0.0
 11
318.136872
 21
-38.836055
 31
0.0
  0
LINE
  8
0
  6
BYLAYER
 62
     7
 10
319.636872
 20
-42.836055
 30
0.0
 11
325.436860
 21
-42.836055
 31
0.0
  0
ARC
  8
0
  6
BYLAYER
 62
     7
 10
319.636872
 20
-44.336055
 30
0.0
 40
1.5
 50
90.0
 51
180.000003
  0
LINE
  8
0
  6
BYLAYER
 62
     7
 10
279.136857
 20
-38.836116
 30
0.0
 11
279.136857
 21
-46.336055
 31
0.0
  0
LINE
  8
0
  6
BYLAYER
 62
     7
 10
243.436799
 20
-52.586177
 30
0.0
 11
245.436829
 21
-52.586177
 31
0.0
  0
LINE
  8
0
  6
BYLAYER
 62
     7
 10
345.936921
 20
-50.583888
 30
0.0
 11
325.436860
 21
-50.583888
 31
0.0
  0
LINE
  8
0
  6
BYLAYER
 62
     7
 10
325.436860
 20
-32.836055
 30
0.0
 11
325.436860
 21
-66.604090
 31
0.0
  0
LINE
  8
0
  6
BYLAYER
 62
     7
 10
345.936921
 20
-46.125788
 30
0.0
 11
325.436860
 21
-46.125788
 31
0.0
  0
LINE
  8
0
  6
BYLAYER
 62
     7
 10
325.436860
 20
-42.002345
 30
0.0
 11
345.936921
 21
-42.002345
 31
0.0
  0
LINE
  8
0
  6
BYLAYER
 62
     7
 10
325.436860
 20
-43.348048
 30
0.0
 11
345.936921
 21
-43.348048
 31
0.0
  0
ARC
  8
0
  6
BYLAYER
 62
     7
 10
246.286851
 20
-104.486201
 30
0.0
 40
0.850006
 50
90.0
 51
269.999998
  0
ARC
  8
0
  6
BYLAYER
 62
     7
 10
250.286775
 20
-104.486201
 30
0.0
 40
0.850006
 50
90.0
 51
269.999998
  0
LINE
  8
0
  6
BYLAYER
 62
     7
 10
246.286836
 20
-103.636195
 30
0.0
 11
345.936921
 21
-103.636277
 31
0.0
  0
LINE
  8
0
  6
BYLAYER
 62
     7
 10
246.286836
 20
-105.336177
 30
0.0
 11
345.936921
 21
-105.336259
 31
0.0
  0
ARC
  8
0
  6
BYLAYER
 62
     7
 10
246.286851
 20
-93.786189
 30
0.0
 40
0.850006
 50
90.0
 51
269.999998
  0
ARC
  8
0
  6
BYLAYER
 62
     7
 10
250.286775
 20
-93.786189
 30
0.0
 40
0.850006
 50
90.0
 51
269.999998
  0
ARC
  8
0
  6
BYLAYER
 62
     7
 10
246.286851
 20
-83.086207
 30
0.0
 40
0.850006
 50
90.0
 51
269.999998
  0
ARC
  8
0
  6
BYLAYER
 62
     7
 10
250.286775
 20
-83.086207
 30
0.0
 40
0.850006
 50
90.0
 51
269.999998
  0
LINE
  8
0
  6
BYLAYER
 62
     7
 10
246.286836
 20
-82.236201
 30
0.0
 11
345.936921
 21
-82.236284
 31
0.0
  0
LINE
  8
0
  6
BYLAYER
 62
     7
 10
246.286836
 20
-83.936183
 30
0.0
 11
345.936921
 21
-83.936265
 31
0.0
  0
ARC
  8
0
  6
BYLAYER
 62
     7
 10
246.286851
 20
-72.386195
 30
0.0
 40
0.850006
 50
90.0
 51
269.999998
  0
ARC
  8
0
  6
BYLAYER
 62
     7
 10
250.286775
 20
-72.386195
 30
0.0
 40
0.850006
 50
90.0
 51
269.999998
  0
LINE
  8
0
  6
BYLAYER
 62
     7
 10
246.286836
 20
-71.536189
 30
0.0
 11
345.936921
 21
-71.536271
 31
0.0
  0
LINE
  8
0
  6
BYLAYER
 62
     7
 10
246.286836
 20
-73.236170
 30
0.0
 11
345.936921
 21
-73.236253
 31
0.0
  0
LINE
  8
0
  6
BYLAYER
 62
     7
 10
253.436799
 20
-94.636164
 30
0.0
 11
253.436799
 21
-103.636195
 31
0.0
  0
LINE
  8
0
  6
BYLAYER
 62
     7
 10
253.436799
 20
-83.936152
 30
0.0
 11
253.436799
 21
-92.936183
 31
0.0
  0
LINE
  8
0
  6
BYLAYER
 62
     7
 10
253.436799
 20
-73.236170
 30
0.0
 11
253.436799
 21
-82.236201
 31
0.0
  0
LINE
  8
0
  6
BYLAYER
 62
     7
 10
253.436799
 20
-66.604090
 30
0.0
 11
253.436799
 21
-71.536189
 31
0.0
  0
LINE
  8
0
  6
BYLAYER
 62
     7
 10
245.436829
 20
-62.294154
 30
0.0
 11
253.436799
 21
-66.604090
 31
0.0
  0
LINE
  8
0
  6
BYLAYER
 62
     7
 10
345.936921
 20
-66.604090
 30
0.0
 11
253.436799
 21
-66.604090
 31
0.0
  0
ARC
  8
0
  6
BYLAYER
 62
     7
 10
246.286851
 20
-115.186152
 30
0.0
 40
0.850006
 50
90.0
 51
269.999998
  0
ARC
  8
0
  6
BYLAYER
 62
     7
 10
250.286775
 20
-115.186152
 30
0.0
 40
0.850006
 50
90.0
 51
269.999998
  0
LINE
  8
0
  6
BYLAYER
 62
     7
 10
246.286836
 20
-116.036158
 30
0.0
 11
345.936921
 21
-116.036076
 31
0.0
  0
LINE
  8
0
  6
BYLAYER
 62
     7
 10
246.286836
 20
-114.336177
 30
0.0
 11
345.936921
 21
-114.336094
 31
0.0
  0
ARC
  8
0
  6
BYLAYER
 62
     7
 10
246.286851
 20
-125.886164
 30
0.0
 40
0.850006
 50
90.0
 51
269.999998
  0
ARC
  8
0
  6
BYLAYER
 62
     7
 10
250.286775
 20
-125.886164
 30
0.0
 40
0.850006
 50
90.0
 51
269.999998
  0
ARC
  8
0
  6
BYLAYER
 62
     7
 10
246.286851
 20
-136.586146
 30
0.0
 40
0.850006
 50
90.0
 51
269.999998
  0
ARC
  8
0
  6
BYLAYER
 62
     7
 10
250.286775
 20
-136.586146
 30
0.0
 40
0.850006
 50
90.0
 51
269.999998
  0
LINE
  8
0
  6
BYLAYER
 62
     7
 10
246.286836
 20
-137.436152
 30
0.0
 11
345.936921
 21
-137.436070
 31
0.0
  0
LINE
  8
0
  6
BYLAYER
 62
     7
 10
246.286836
 20
-135.736170
 30
0.0
 11
345.936921
 21
-135.736088
 31
0.0
  0
ARC
  8
0
  6
BYLAYER
 62
     7
 10
246.286851
 20
-147.286158
 30
0.0
 40
0.850006
 50
90.0
 51
269.999998
  0
ARC
  8
0
  6
BYLAYER
 62
     7
 10
250.286775
 20
-147.286158
 30
0.0
 40
0.850006
 50
90.0
 51
269.999998
  0
LINE
  8
0
  6
BYLAYER
 62
     7
 10
246.286836
 20
-148.136164
 30
0.0
 11
345.936921
 21
-148.136082
 31
0.0
  0
LINE
  8
0
  6
BYLAYER
 62
     7
 10
246.286836
 20
-146.436183
 30
0.0
 11
345.936921
 21
-146.436100
 31
0.0
  0
LINE
  8
0
  6
BYLAYER
 62
     7
 10
253.436799
 20
-125.036189
 30
0.0
 11
253.436799
 21
-116.036158
 31
0.0
  0
LINE
  8
0
  6
BYLAYER
 62
     7
 10
253.436799
 20
-135.736201
 30
0.0
 11
253.436799
 21
-126.736170
 31
0.0
  0
LINE
  8
0
  6
BYLAYER
 62
     7
 10
253.436799
 20
-146.436183
 30
0.0
 11
253.436799
 21
-137.436152
 31
0.0
  0
LINE
  8
0
  6
BYLAYER
 62
     7
 10
245.436921
 20
-167.086177
 30
0.0
 11
245.436799
 21
-32.836055
 31
0.0
  0
LINE
  8
0
  6
BYLAYER
 62
     7
 10
245.436921
 20
-167.086177
 30
0.0
 11
243.436921
 21
-167.086177
 31
0.0
  0
LINE
  8
0
  6
BYLAYER
 62
     7
 10
253.436799
 20
-105.336177
 30
0.0
 11
253.436799
 21
-114.336177
 31
0.0
  0
LINE
  8
0
  6
BYLAYER
 62
     7
 10
245.436906
 20
-148.562587
 30
0.0
 11
247.609651
 21
-156.671412
 31
0.0
  0
ARC
  8
0
  6
BYLAYER
 62
     7
 10
249.541505
 20
-156.153773
 30
0.0
 40
2.000003
 50
195.000016
 51
270.000001
  0
LINE
  8
0
  6
BYLAYER
 62
     7
 10
245.436906
 20
-152.000178
 30
0.0
 11
248.907075
 21
-164.950984
 31
0.0
  0
ARC
  8
0
  6
BYLAYER
 62
     7
 10
250.838914
 20
-164.433345
 30
0.0
 40
1.999988
 50
195.000043
 51
270.000001
  0
LINE
  8
0
  6
BYLAYER
 62
     7
 10
245.436921
 20
-159.794779
 30
0.0
 11
248.385774
 21
-170.800059
 31
0.0
  0
ARC
  8
0
  6
BYLAYER
 62
     7
 10
250.317628
 20
-170.282420
 30
0.0
 40
2.000003
 50
195.000043
 51
270.000001
  0
LINE
  8
0
  6
BYLAYER
 62
     7
 10
245.436921
 20
-164.434031
 30
0.0
 11
248.109651
 21
-174.408824
 31
0.0
  0
ARC
  8
0
  6
BYLAYER
 62
     7
 10
250.041505
 20
-173.891185
 30
0.0
 40
2.000003
 50
195.000043
 51
270.000001
  0
LINE
  8
0
  6
BYLAYER
 62
     7
 10
245.436921
 20
-167.086177
 30
0.0
 11
247.862977
 21
-176.140361
 31
0.0
  0
ARC
  8
0
  6
BYLAYER
 62
     7
 10
249.794831
 20
-175.622721
 30
0.0
 40
2.000003
 50
195.000016
 51
270.000001
  0
LINE
  8
0
  6
BYLAYER
 62
     7
 10
249.541505
 20
-158.153773
 30
0.0
 11
345.936921
 21
-158.153759
 31
0.0
  0
LINE
  8
0
  6
BYLAYER
 62
     7
 10
250.838914
 20
-166.433345
 30
0.0
 11
345.936921
 21
-166.433330
 31
0.0
  0
LINE
  8
0
  6
BYLAYER
 62
     7
 10
250.317628
 20
-172.282420
 30
0.0
 11
345.936921
 21
-172.282406
 31
0.0
  0
LINE
  8
0
  6
BYLAYER
 62
     7
 10
250.041505
 20
-175.891185
 30
0.0
 11
345.936921
 21
-175.891170
 31
0.0
  0
LINE
  8
0
  6
BYLAYER
 62
     7
 10
249.794831
 20
-177.622721
 30
0.0
 11
345.936921
 21
-177.622707
 31
0.0
  0
CIRCLE
  8
0
  6
BYLAYER
 62
     7
 10
273.936891
 20
-93.786189
 30
0.0
 40
3.0
  0
CIRCLE
  8
0
  6
BYLAYER
 62
     7
 10
328.936891
 20
-93.786189
 30
0.0
 40
3.0
  0
LINE
  8
0
  6
BYLAYER
 62
     7
 10
246.286836
 20
-92.936183
 30
0.0
 11
271.059815
 21
-92.936213
 31
0.0
  0
LINE
  8
0
  6
BYLAYER
 62
     7
 10
271.059815
 20
-94.636195
 30
0.0
 11
246.286836
 21
-94.636164
 31
0.0
  0
LINE
  8
0
  6
BYLAYER
 62
     7
 10
276.813966
 20
-92.936213
 30
0.0
 11
326.059815
 21
-92.936244
 31
0.0
  0
LINE
  8
0
  6
BYLAYER
 62
     7
 10
326.059846
 20
-94.636225
 30
0.0
 11
276.813950
 21
-94.636195
 31
0.0
  0
LINE
  8
0
  6
BYLAYER
 62
     7
 10
331.813966
 20
-92.936244
 30
0.0
 11
345.936921
 21
-92.936261
 31
0.0
  0
LINE
  8
0
  6
BYLAYER
 62
     7
 10
345.936921
 20
-94.636243
 30
0.0
 11
331.813935
 21
-94.636225
 31
0.0
  0
LINE
  8
0
  6
BYLAYER
 62
     7
 10
246.286836
 20
-125.036189
 30
0.0
 11
345.936921
 21
-125.036101
 31
0.0
  0
LINE
  8
0
  6
BYLAYER
 62
     7
 10
246.286836
 20
-126.736170
 30
0.0
 11
345.936921
 21
-126.736083
 31
0.0
  0
LINE
  8
0
  6
BYLAYER
 62
     7
 10
243.436799
 20
-52.586173
 30
0.0
 11
243.436921
 21
-167.086173
 31
0.0
  0
LINE
  8
0
  6
BYLAYER
 62
     7
 10
419.436921
 20
-54.836177
 30
0.0
 11
419.436921
 21
-164.836177
 31
0.0
  0
LINE
  8
0
  6
BYLAYER
 62
     7
 10
345.936921
 20
-40.386177
 30
0.0
 11
404.986921
 21
-40.386177
 31
0.0
  0
LINE
  8
0
  6
BYLAYER
 62
     7
 10
345.936921
 20
-179.286177
 30
0.0
 11
404.986921
 21
-179.286177
 31
0.0
  0
LINE
  8
0
  6
BYLAYER
 62
     7
 10
419.436921
 20
-54.836177
 30
0.0
 11
404.986921
 21
-40.386177
 31
0.0
  0
LINE
  8
0
  6
BYLAYER
 62
     7
 10
419.436921
 20
-164.836177
 30
0.0
 11
404.986921
 21
-179.286177
 31
0.0
  0
LINE
  8
0
  6
BYLAYER
 62
     7
 10
345.936921
 20
-109.836177
 30
0.0
 11
345.936921
 21
-179.286177
 31
0.0
  0
LINE
  8
0
  6
BYLAYER
 62
     7
 10
345.936921
 20
-109.836177
 30
0.0
 11
345.936921
 21
-40.386177
 31
0.0
  0
LINE
  8
0
  6
BYLAYER
 62
     7
 10
243.436860
 20
-51.827450
 30
0.0
 11
243.436860
 21
-167.844904
 31
0.0
  0
LINE
  8
0
  6
BYLAYER
 62
     7
 10
212.436860
 20
-29.836177
 30
0.0
 11
222.436860
 21
-29.836177
 31
0.0
  0
LINE
  8
0
  6
BYLAYER
 62
     7
 10
243.436860
 20
-51.827450
 30
0.0
 11
223.419404
 21
-51.478046
 31
0.0
  0
LINE
  8
0
  6
BYLAYER
 62
     7
 10
222.436860
 20
-29.836177
 30
0.0
 11
222.436860
 21
-109.836177
 31
0.0
  0
ARC
  8
0
  6
BYLAYER
 62
     7
 10
223.436860
 20
-50.478198
 30
0.0
 40
1.000000
 50
180.000000
 51
269.000015
  0
LINE
  8
0
  6
BYLAYER
 62
     7
 10
212.436860
 20
-189.836177
 30
0.0
 11
222.436860
 21
-189.836177
 31
0.0
  0
LINE
  8
0
  6
BYLAYER
 62
     7
 10
241.936860
 20
-176.836177
 30
0.0
 11
222.436860
 21
-177.176553
 31
0.0
  0
LINE
  8
0
  6
BYLAYER
 62
     7
 10
241.936860
 20
-176.836177
 30
0.0
 11
241.936860
 21
-167.836177
 31
0.0
  0
LINE
  8
0
  6
BYLAYER
 62
     7
 10
243.436860
 20
-167.844904
 30
0.0
 11
241.936860
 21
-167.871085
 31
0.0
  0
LINE
  8
0
  6
BYLAYER
 62
     7
 10
222.436860
 20
-189.836177
 30
0.0
 11
222.436860
 21
-109.836177
 31
0.0
  0
LINE
  8
0
  6
BYLAYER
 62
     7
 10
212.436860
 20
-189.836177
 30
0.0
 11
212.436860
 21
-109.836177
 31
0.0
  0
LINE
  8
0
  6
BYLAYER
 62
     7
 10
212.436860
 20
-29.836177
 30
0.0
 11
212.436860
 21
-109.836177
 31
0.0
  0
ARC
  8
0
  6
BYLAYER
 62
     7
 10
316.191137
 20
-22.336055
 30
0.0
 40
1.5
 50
180.000000
 51
270.000000
  0
ARC
  8
0
  6
BYLAYER
 62
     7
 10
254.682461
 20
-22.336055
 30
0.0
 40
1.5
 50
270.0
 51
360.0
  0
ARC
  8
0
  6
BYLAYER
 62
     7
 10
246.936799
 20
-22.336055
 30
0.0
 40
1.500000
 50
270.0
 51
360.0
  0
ARC
  8
0
  6
BYLAYER
 62
     7
 10
246.936799
 20
-25.336055
 30
0.0
 40
1.5
 50
90.0
 51
180.0
  0
ARC
  8
0
  6
BYLAYER
 62
     7
 10
323.936799
 20
-22.336055
 30
0.0
 40
1.500000
 50
180.000000
 51
270.000000
  0
LINE
  8
0
  6
BYLAYER
 62
     7
 10
248.436799
 20
-22.336055
 30
0.0
 11
248.436799
 21
-0.836055
 31
0.0
  0
ARC
  8
0
  6
BYLAYER
 62
     7
 10
249.936799
 20
-0.836055
 30
0.0
 40
1.5
 50
90.0
 51
180.0
  0
LINE
  8
0
  6
BYLAYER
 62
     7
 10
322.436799
 20
-22.336055
 30
0.0
 11
322.436799
 21
-0.836055
 31
0.0
  0
LINE
  8
0
  6
BYLAYER
 62
     7
 10
249.936799
 20
0.663945
 30
0.0
 11
320.936799
 21
0.663945
 31
0.0
  0
ARC
  8
0
  6
BYLAYER
 62
     7
 10
313.191137
 20
-0.836055
 30
0.0
 40
1.5
 50
0.0
 51
90.0
  0
ARC
  8
0
  6
BYLAYER
 62
     7
 10
320.936799
 20
-0.836055
 30
0.0
 40
1.500000
 50
0.0
 51
90.0
  0
LINE
  8
0
  6
BYLAYER
 62
     7
 10
256.182461
 20
-22.336055
 30
0.0
 11
256.182461
 21
-0.836055
 31
0.0
  0
ARC
  8
0
  6
BYLAYER
 62
     7
 10
257.682461
 20
-0.836055
 30
0.0
 40
1.5
 50
90.0
 51
180.0
  0
LINE
  8
0
  6
BYLAYER
 62
     7
 10
314.691137
 20
-22.336055
 30
0.0
 11
314.691137
 21
-0.836055
 31
0.0
  0
ARC
  8
0
  6
BYLAYER
 62
     7
 10
323.936799
 20
-25.336055
 30
0.0
 40
1.5
 50
0.0
 51
90.0
  0
LINE
  8
0
  6
BYLAYER
 62
     7
 10
325.436799
 20
-32.836055
 30
0.0
 11
325.436799
 21
-25.336055
 31
0.0
  0
LINE
  8
0
  6
BYLAYER
 62
     7
 10
323.936799
 20
-23.836055
 30
0.0
 11
246.936799
 21
-23.836055
 31
0.0
  0
LINE
  8
0
  6
BYLAYER
 62
     7
 10
245.436799
 20
-25.336055
 30
0.0
 11
245.436799
 21
-32.836055
 31
0.0
  0
LINE
  8
0
  6
BYLAYER
 62
     7
 10
245.436799
 20
-32.836055
 30
0.0
 11
325.436799
 21
-32.836055
 31
0.0
  0
LINE
  8
0
  6
BYLAYER
 62
     7
 10
325.436799
 20
-30.836055
 30
0.0
 11
245.436799
 21
-30.836055
 31
0.0
  0
LINE
  8
0
  6
BYLAYER
 62
     7
 10
404.986921
 20
-179.286177
 30
0.0
 11
404.986921
 21
-40.386177
 31
0.0
  0
ARC
  8
0
  6
BYLAYER
 62
     7
 10
246.286851
 20
-487.286158
 30
0.0
 40
0.850006
 50
111.034603
 51
269.999998
  0
ARC
  8
0
  6
BYLAYER
 62
     7
 10
250.286775
 20
-487.286158
 30
0.0
 40
0.850006
 50
148.036043
 51
269.999998
  0
LINE
  8
0
  6
BYLAYER
 62
     7
 10
246.286836
 20
-488.136164
 30
0.0
 11
345.936921
 21
-488.136082
 31
0.0
  0
LINE
  8
0
  6
BYLAYER
 62
     7
 10
245.436921
 20
-507.086177
 30
0.0
 11
245.436869
 21
-449.836177
 31
0.0
  0
LINE
  8
0
  6
BYLAYER
 62
     7
 10
245.436921
 20
-507.086177
 30
0.0
 11
243.436921
 21
-507.086177
 31
0.0
  0
LINE
  8
0
  6
BYLAYER
 62
     7
 10
245.436906
 20
-488.562587
 30
0.0
 11
247.609651
 21
-496.671412
 31
0.0
  0
ARC
  8
0
  6
BYLAYER
 62
     7
 10
249.541505
 20
-496.153773
 30
0.0
 40
2.000003
 50
195.000016
 51
270.000001
  0
LINE
  8
0
  6
BYLAYER
 62
     7
 10
245.436906
 20
-492.000178
 30
0.0
 11
248.907075
 21
-504.950984
 31
0.0
  0
ARC
  8
0
  6
BYLAYER
 62
     7
 10
250.838914
 20
-504.433345
 30
0.0
 40
1.999988
 50
195.000043
 51
270.000001
  0
LINE
  8
0
  6
BYLAYER
 62
     7
 10
245.436921
 20
-499.794779
 30
0.0
 11
248.385774
 21
-510.800059
 31
0.0
  0
ARC
  8
0
  6
BYLAYER
 62
     7
 10
250.317628
 20
-510.282420
 30
0.0
 40
2.000003
 50
195.000043
 51
270.000001
  0
LINE
  8
0
  6
BYLAYER
 62
     7
 10
245.436921
 20
-504.434031
 30
0.0
 11
248.109651
 21
-514.408824
 31
0.0
  0
ARC
  8
0
  6
BYLAYER
 62
     7
 10
250.041505
 20
-513.891185
 30
0.0
 40
2.000003
 50
195.000043
 51
270.000001
  0
LINE
  8
0
  6
BYLAYER
 62
     7
 10
245.436921
 20
-507.086177
 30
0.0
 11
247.862977
 21
-516.140361
 31
0.0
  0
ARC
  8
0
  6
BYLAYER
 62
     7
 10
249.794831
 20
-515.622721
 30
0.0
 40
2.000003
 50
195.000016
 51
270.000001
  0
LINE
  8
0
  6
BYLAYER
 62
     7
 10
249.541505
 20
-498.153773
 30
0.0
 11
345.936921
 21
-498.153759
 31
0.0
  0
LINE
  8
0
  6
BYLAYER
 62
     7
 10
250.838914
 20
-506.433345
 30
0.0
 11
345.936921
 21
-506.433330
 31
0.0
  0
LINE
  8
0
  6
BYLAYER
 62
     7
 10
250.317628
 20
-512.282420
 30
0.0
 11
345.936921
 21
-512.282406
 31
0.0
  0
LINE
  8
0
  6
BYLAYER
 62
     7
 10
250.041505
 20
-515.891185
 30
0.0
 11
345.936921
 21
-515.891170
 31
0.0
  0
LINE
  8
0
  6
BYLAYER
 62
     7
 10
249.794831
 20
-517.622721
 30
0.0
 11
345.936921
 21
-517.622707
 31
0.0
  0
LINE
  8
0
  6
BYLAYER
 62
     7
 10
243.436860
 20
-449.836177
 30
0.0
 11
243.436921
 21
-507.086173
 31
0.0
  0
LINE
  8
0
  6
BYLAYER
 62
     7
 10
419.436921
 20
-449.836177
 30
0.0
 11
419.436921
 21
-504.836177
 31
0.0
  0
LINE
  8
0
  6
BYLAYER
 62
     7
 10
345.936921
 20
-519.286177
 30
0.0
 11
404.986921
 21
-519.286177
 31
0.0
  0
LINE
  8
0
  6
BYLAYER
 62
     7
 10
419.436921
 20
-504.836177
 30
0.0
 11
404.986921
 21
-519.286177
 31
0.0
  0
LINE
  8
0
  6
BYLAYER
 62
     7
 10
345.936921
 20
-449.836177
 30
0.0
 11
345.936921
 21
-519.286177
 31
0.0
  0
LINE
  8
0
  6
BYLAYER
 62
     7
 10
248.436869
 20
-474.352862
 30
0.0
 11
248.436869
 21
-449.836177
 31
0.0
  0
LINE
  8
0
  6
BYLAYER
 62
     7
 10
322.436869
 20
-449.836177
 30
0.0
 11
322.436869
 21
-474.352862
 31
0.0
  0
LINE
  8
0
  6
BYLAYER
 62
     7
 10
312.974463
 20
-484.086177
 30
0.0
 11
257.899275
 21
-484.086177
 31
0.0
  0
LINE
  8
0
  6
BYLAYER
 62
     7
 10
262.541567
 20
-454.937283
 30
0.0
 11
248.436869
 21
-455.429830
 31
0.0
  0
ARC
  8
0
  6
BYLAYER
 62
     7
 10
262.436869
 20
-451.939111
 30
0.0
 40
3.000000
 50
272.000000
 51
360.000000
  0
LINE
  8
0
  6
BYLAYER
 62
     7
 10
262.541567
 20
-469.937283
 30
0.0
 11
248.436869
 21
-470.429830
 31
0.0
  0
ARC
  8
0
  6
BYLAYER
 62
     7
 10
262.436869
 20
-466.939111
 30
0.0
 40
3.000000
 50
272.000000
 51
360.000000
  0
LINE
  8
0
  6
BYLAYER
 62
     7
 10
248.436869
 20
-459.242524
 30
0.0
 11
262.541567
 21
-459.735071
 31
0.0
  0
ARC
  8
0
  6
BYLAYER
 62
     7
 10
262.436869
 20
-462.733243
 30
0.0
 40
3.000000
 50
0.0
 51
88.0
  0
LINE
  8
0
  6
BYLAYER
 62
     7
 10
265.436869
 20
-462.733243
 30
0.0
 11
265.436869
 21
-466.939111
 31
0.0
  0
LINE
  8
0
  6
BYLAYER
 62
     7
 10
265.436869
 20
-449.836177
 30
0.0
 11
265.436869
 21
-451.939111
 31
0.0
  0
LINE
  8
0
  6
BYLAYER
 62
     7
 10
249.436869
 20
-449.836177
 30
0.0
 11
249.436869
 21
-455.394909
 31
0.0
  0
LINE
  8
0
  6
BYLAYER
 62
     7
 10
249.436869
 20
-459.277445
 30
0.0
 11
249.436869
 21
-470.394909
 31
0.0
  0
LINE
  8
0
  6
BYLAYER
 62
     7
 10
308.332170
 20
-454.937283
 30
0.0
 11
322.436869
 21
-455.429830
 31
0.0
  0
ARC
  8
0
  6
BYLAYER
 62
     7
 10
308.436869
 20
-451.939111
 30
0.0
 40
3.000000
 50
180.000000
 51
268.000000
  0
LINE
  8
0
  6
BYLAYER
 62
     7
 10
308.332170
 20
-469.937283
 30
0.0
 11
322.436869
 21
-470.429830
 31
0.0
  0
ARC
  8
0
  6
BYLAYER
 62
     7
 10
308.436869
 20
-466.939111
 30
0.0
 40
3.000000
 50
180.000000
 51
268.000000
  0
LINE
  8
0
  6
BYLAYER
 62
     7
 10
322.436869
 20
-459.242524
 30
0.0
 11
308.332170
 21
-459.735071
 31
0.0
  0
ARC
  8
0
  6
BYLAYER
 62
     7
 10
308.436869
 20
-462.733243
 30
0.0
 40
3.000000
 50
92.0
 51
180.0
  0
LINE
  8
0
  6
BYLAYER
 62
     7
 10
305.436869
 20
-462.733243
 30
0.0
 11
305.436869
 21
-466.939111
 31
0.0
  0
LINE
  8
0
  6
BYLAYER
 62
     7
 10
305.436869
 20
-449.836177
 30
0.0
 11
305.436869
 21
-451.939111
 31
0.0
  0
LINE
  8
0
  6
BYLAYER
 62
     7
 10
321.436869
 20
-449.836177
 30
0.0
 11
321.436869
 21
-455.394909
 31
0.0
  0
LINE
  8
0
  6
BYLAYER
 62
     7
 10
321.436869
 20
-459.277445
 30
0.0
 11
321.436869
 21
-470.394909
 31
0.0
  0
LINE
  8
0
  6
BYLAYER
 62
     7
 10
245.436869
 20
-449.836177
 30
0.0
 11
245.436869
 21
-485.336177
 31
0.0
  0
ARC
  8
0
  6
BYLAYER
 62
     7
 10
246.936869
 20
-485.336177
 30
0.0
 40
1.5
 50
180.000000
 51
270.000000
  0
LINE
  8
0
  6
BYLAYER
 62
     7
 10
325.436869
 20
-485.336177
 30
0.0
 11
325.436869
 21
-449.836177
 31
0.0
  0
LINE
  8
0
  6
BYLAYER
 62
     7
 10
246.936869
 20
-486.836177
 30
0.0
 11
323.936869
 21
-486.836177
 31
0.0
  0
ARC
  8
0
  6
BYLAYER
 62
     7
 10
323.936869
 20
-485.336177
 30
0.0
 40
1.5
 50
270.0
 51
360.0
  0
ARC
  8
0
  6
BYLAYER
 62
     7
 10
320.436869
 20
-481.836177
 30
0.0
 40
6.000000
 50
86.177446
 51
185.739170
  0
ARC
  8
0
  6
BYLAYER
 62
     7
 10
320.936869
 20
-474.352862
 30
0.0
 40
1.5
 50
266.177446
 51
360.0
  0
ARC
  8
0
  6
BYLAYER
 62
     7
 10
312.974463
 20
-482.586177
 30
0.0
 40
1.500000
 50
270.0
 51
365.739170
  0
ARC
  8
0
  6
BYLAYER
 62
     7
 10
250.436869
 20
-481.836177
 30
0.0
 40
6.000000
 50
354.260830
 51
453.822554
  0
ARC
  8
0
  6
BYLAYER
 62
     7
 10
257.899275
 20
-482.586177
 30
0.0
 40
1.500000
 50
174.260830
 51
270.000000
  0
ARC
  8
0
  6
BYLAYER
 62
     7
 10
249.936869
 20
-474.352862
 30
0.0
 40
1.5
 50
180.000000
 51
273.822554
  0
ARC
  8
0
  6
BYLAYER
 62
     7
 10
272.436869
 20
-476.836177
 30
0.0
 40
3.0
 50
180.000000
 51
270.000000
  0
ARC
  8
0
  6
BYLAYER
 62
     7
 10
298.436869
 20
-476.836177
 30
0.0
 40
3.0
 50
270.0
 51
360.0
  0
LINE
  8
0
  6
BYLAYER
 62
     7
 10
272.436869
 20
-479.836177
 30
0.0
 11
298.436869
 21
-479.836177
 31
0.0
  0
LINE
  8
0
  6
BYLAYER
 62
     7
 10
269.436869
 20
-476.836177
 30
0.0
 11
269.436869
 21
-449.836177
 31
0.0
  0
LINE
  8
0
  6
BYLAYER
 62
     7
 10
301.436869
 20
-449.836177
 30
0.0
 11
301.436869
 21
-476.836177
 31
0.0
  0
LINE
  8
0
  6
BYLAYER
 62
     7
 10
345.936921
 20
-475.736088
 30
0.0
 11
325.436869
 21
-475.736105
 31
0.0
  0
LINE
  8
0
  6
BYLAYER
 62
     7
 10
345.936921
 20
-477.436070
 30
0.0
 11
325.436869
 21
-477.436087
 31
0.0
  0
LINE
  8
0
  6
BYLAYER
 62
     7
 10
345.936921
 20
-486.436091
 30
0.0
 11
324.956766
 21
-486.436091
 31
0.0
  0
ARC
  8
0
  6
BYLAYER
 62
     7
 10
246.286851
 20
-412.386196
 30
0.0
 40
0.850006
 50
90.0
 51
248.965395
  0
ARC
  8
0
  6
BYLAYER
 62
     7
 10
250.286775
 20
-412.386196
 30
0.0
 40
0.850006
 50
90.0
 51
211.963955
  0
LINE
  8
0
  6
BYLAYER
 62
     7
 10
246.286836
 20
-411.536190
 30
0.0
 11
345.936921
 21
-411.536272
 31
0.0
  0
LINE
  8
0
  6
BYLAYER
 62
     7
 10
245.436921
 20
-392.586177
 30
0.0
 11
245.436869
 21
-449.836177
 31
0.0
  0
LINE
  8
0
  6
BYLAYER
 62
     7
 10
245.436921
 20
-392.586177
 30
0.0
 11
243.436921
 21
-392.586177
 31
0.0
  0
LINE
  8
0
  6
BYLAYER
 62
     7
 10
245.436906
 20
-411.109767
 30
0.0
 11
247.609651
 21
-403.000942
 31
0.0
  0
ARC
  8
0
  6
BYLAYER
 62
     7
 10
249.541505
 20
-403.518581
 30
0.0
 40
2.000003
 50
90.0
 51
164.999985
  0
LINE
  8
0
  6
BYLAYER
 62
     7
 10
245.436906
 20
-407.672176
 30
0.0
 11
248.907075
 21
-394.721370
 31
0.0
  0
ARC
  8
0
  6
BYLAYER
 62
     7
 10
250.838914
 20
-395.239009
 30
0.0
 40
1.999988
 50
90.0
 51
164.999958
  0
LINE
  8
0
  6
BYLAYER
 62
     7
 10
245.436921
 20
-399.877575
 30
0.0
 11
248.385774
 21
-388.872295
 31
0.0
  0
ARC
  8
0
  6
BYLAYER
 62
     7
 10
250.317628
 20
-389.389934
 30
0.0
 40
2.000003
 50
90.0
 51
164.999958
  0
LINE
  8
0
  6
BYLAYER
 62
     7
 10
245.436921
 20
-395.238323
 30
0.0
 11
248.109651
 21
-385.263530
 31
0.0
  0
ARC
  8
0
  6
BYLAYER
 62
     7
 10
250.041505
 20
-385.781169
 30
0.0
 40
2.000003
 50
90.0
 51
164.999958
  0
LINE
  8
0
  6
BYLAYER
 62
     7
 10
245.436921
 20
-392.586177
 30
0.0
 11
247.862977
 21
-383.531993
 31
0.0
  0
ARC
  8
0
  6
BYLAYER
 62
     7
 10
249.794831
 20
-384.049633
 30
0.0
 40
2.000003
 50
90.0
 51
164.999985
  0
LINE
  8
0
  6
BYLAYER
 62
     7
 10
249.541505
 20
-401.518581
 30
0.0
 11
345.936921
 21
-401.518595
 31
0.0
  0
LINE
  8
0
  6
BYLAYER
 62
     7
 10
250.838914
 20
-393.239009
 30
0.0
 11
345.936921
 21
-393.239024
 31
0.0
  0
LINE
  8
0
  6
BYLAYER
 62
     7
 10
250.317628
 20
-387.389934
 30
0.0
 11
345.936921
 21
-387.389948
 31
0.0
  0
LINE
  8
0
  6
BYLAYER
 62
     7
 10
250.041505
 20
-383.781169
 30
0.0
 11
345.936921
 21
-383.781184
 31
0.0
  0
LINE
  8
0
  6
BYLAYER
 62
     7
 10
249.794831
 20
-382.049633
 30
0.0
 11
345.936921
 21
-382.049647
 31
0.0
  0
LINE
  8
0
  6
BYLAYER
 62
     7
 10
243.436860
 20
-449.836177
 30
0.0
 11
243.436921
 21
-392.586181
 31
0.0
  0
LINE
  8
0
  6
BYLAYER
 62
     7
 10
419.436921
 20
-449.836177
 30
0.0
 11
419.436921
 21
-394.836177
 31
0.0
  0
LINE
  8
0
  6
BYLAYER
 62
     7
 10
345.936921
 20
-380.386177
 30
0.0
 11
404.986921
 21
-380.386177
 31
0.0
  0
LINE
  8
0
  6
BYLAYER
 62
     7
 10
419.436921
 20
-394.836177
 30
0.0
 11
404.986921
 21
-380.386177
 31
0.0
  0
LINE
  8
0
  6
BYLAYER
 62
     7
 10
345.936921
 20
-449.836177
 30
0.0
 11
345.936921
 21
-380.386177
 31
0.0
  0
LINE
  8
0
  6
BYLAYER
 62
     7
 10
248.436869
 20
-425.319492
 30
0.0
 11
248.436869
 21
-449.836177
 31
0.0
  0
LINE
  8
0
  6
BYLAYER
 62
     7
 10
322.436869
 20
-449.836177
 30
0.0
 11
322.436869
 21
-425.319492
 31
0.0
  0
LINE
  8
0
  6
BYLAYER
 62
     7
 10
312.974463
 20
-415.586177
 30
0.0
 11
257.899275
 21
-415.586177
 31
0.0
  0
LINE
  8
0
  6
BYLAYER
 62
     7
 10
262.541567
 20
-444.735071
 30
0.0
 11
248.436869
 21
-444.242524
 31
0.0
  0
ARC
  8
0
  6
BYLAYER
 62
     7
 10
262.436869
 20
-447.733243
 30
0.0
 40
3.000000
 50
0.0
 51
88.0
  0
LINE
  8
0
  6
BYLAYER
 62
     7
 10
262.541567
 20
-429.735071
 30
0.0
 11
248.436869
 21
-429.242524
 31
0.0
  0
ARC
  8
0
  6
BYLAYER
 62
     7
 10
262.436869
 20
-432.733243
 30
0.0
 40
3.000000
 50
0.0
 51
88.0
  0
LINE
  8
0
  6
BYLAYER
 62
     7
 10
248.436869
 20
-440.429830
 30
0.0
 11
262.541567
 21
-439.937283
 31
0.0
  0
ARC
  8
0
  6
BYLAYER
 62
     7
 10
262.436869
 20
-436.939111
 30
0.0
 40
3.000000
 50
272.000000
 51
360.000000
  0
LINE
  8
0
  6
BYLAYER
 62
     7
 10
265.436869
 20
-436.939111
 30
0.0
 11
265.436869
 21
-432.733243
 31
0.0
  0
LINE
  8
0
  6
BYLAYER
 62
     7
 10
265.436869
 20
-449.836177
 30
0.0
 11
265.436869
 21
-447.733243
 31
0.0
  0
LINE
  8
0
  6
BYLAYER
 62
     7
 10
249.436869
 20
-449.836177
 30
0.0
 11
249.436869
 21
-444.277445
 31
0.0
  0
LINE
  8
0
  6
BYLAYER
 62
     7
 10
249.436869
 20
-440.394909
 30
0.0
 11
249.436869
 21
-429.277445
 31
0.0
  0
LINE
  8
0
  6
BYLAYER
 62
     7
 10
308.332170
 20
-444.735071
 30
0.0
 11
322.436869
 21
-444.242524
 31
0.0
  0
ARC
  8
0
  6
BYLAYER
 62
     7
 10
308.436869
 20
-447.733243
 30
0.0
 40
3.000000
 50
92.0
 51
180.0
  0
LINE
  8
0
  6
BYLAYER
 62
     7
 10
308.332170
 20
-429.735071
 30
0.0
 11
322.436869
 21
-429.242524
 31
0.0
  0
ARC
  8
0
  6
BYLAYER
 62
     7
 10
308.436869
 20
-432.733243
 30
0.0
 40
3.000000
 50
92.0
 51
180.0
  0
LINE
  8
0
  6
BYLAYER
 62
     7
 10
322.436869
 20
-440.429830
 30
0.0
 11
308.332170
 21
-439.937283
 31
0.0
  0
ARC
  8
0
  6
BYLAYER
 62
     7
 10
308.436869
 20
-436.939111
 30
0.0
 40
3.000000
 50
180.000000
 51
268.000000
  0
LINE
  8
0
  6
BYLAYER
 62
     7
 10
305.436869
 20
-436.939111
 30
0.0
 11
305.436869
 21
-432.733243
 31
0.0
  0
LINE
  8
0
  6
BYLAYER
 62
     7
 10
305.436869
 20
-449.836177
 30
0.0
 11
305.436869
 21
-447.733243
 31
0.0
  0
LINE
  8
0
  6
BYLAYER
 62
     7
 10
321.436869
 20
-449.836177
 30
0.0
 11
321.436869
 21
-444.277445
 31
0.0
  0
LINE
  8
0
  6
BYLAYER
 62
     7
 10
321.436869
 20
-440.394909
 30
0.0
 11
321.436869
 21
-429.277445
 31
0.0
  0
LINE
  8
0
  6
BYLAYER
 62
     7
 10
245.436869
 20
-449.836177
 30
0.0
 11
245.436869
 21
-414.336177
 31
0.0
  0
ARC
  8
0
  6
BYLAYER
 62
     7
 10
246.936869
 20
-414.336177
 30
0.0
 40
1.5
 50
90.0
 51
180.0
  0
LINE
  8
0
  6
BYLAYER
 62
     7
 10
325.436869
 20
-414.336177
 30
0.0
 11
325.436869
 21
-449.836177
 31
0.0
  0
LINE
  8
0
  6
BYLAYER
 62
     7
 10
246.936869
 20
-412.836177
 30
0.0
 11
323.936869
 21
-412.836177
 31
0.0
  0
ARC
  8
0
  6
BYLAYER
 62
     7
 10
323.936869
 20
-414.336177
 30
0.0
 40
1.5
 50
0.0
 51
90.0
  0
ARC
  8
0
  6
BYLAYER
 62
     7
 10
320.436869
 20
-417.836177
 30
0.0
 40
6.000000
 50
174.260830
 51
273.822554
  0
ARC
  8
0
  6
BYLAYER
 62
     7
 10
320.936869
 20
-425.319492
 30
0.0
 40
1.500000
 50
0.0
 51
93.822554
  0
ARC
  8
0
  6
BYLAYER
 62
     7
 10
312.974463
 20
-417.086177
 30
0.0
 40
1.5
 50
354.260830
 51
450.000000
  0
ARC
  8
0
  6
BYLAYER
 62
     7
 10
250.436869
 20
-417.836177
 30
0.0
 40
6.000000
 50
266.177446
 51
365.739170
  0
ARC
  8
0
  6
BYLAYER
 62
     7
 10
257.899275
 20
-417.086177
 30
0.0
 40
1.500000
 50
90.0
 51
185.73917
  0
ARC
  8
0
  6
BYLAYER
 62
     7
 10
249.936869
 20
-425.319492
 30
0.0
 40
1.500000
 50
86.177446
 51
180.0
  0
ARC
  8
0
  6
BYLAYER
 62
     7
 10
272.436869
 20
-422.836177
 30
0.0
 40
3.0
 50
90.0
 51
180.0
  0
ARC
  8
0
  6
BYLAYER
 62
     7
 10
298.436869
 20
-422.836177
 30
0.0
 40
3.0
 50
0.0
 51
90.0
  0
LINE
  8
0
  6
BYLAYER
 62
     7
 10
272.436869
 20
-419.836177
 30
0.0
 11
298.436869
 21
-419.836177
 31
0.0
  0
LINE
  8
0
  6
BYLAYER
 62
     7
 10
269.436869
 20
-422.836177
 30
0.0
 11
269.436869
 21
-449.836177
 31
0.0
  0
LINE
  8
0
  6
BYLAYER
 62
     7
 10
301.436869
 20
-449.836177
 30
0.0
 11
301.436869
 21
-422.836177
 31
0.0
  0
LINE
  8
0
  6
BYLAYER
 62
     7
 10
345.936921
 20
-423.936266
 30
0.0
 11
325.436869
 21
-423.936249
 31
0.0
  0
LINE
  8
0
  6
BYLAYER
 62
     7
 10
345.936921
 20
-422.236284
 30
0.0
 11
325.436869
 21
-422.236267
 31
0.0
  0
LINE
  8
0
  6
BYLAYER
 62
     7
 10
345.936921
 20
-413.236263
 30
0.0
 11
324.956766
 21
-413.236263
 31
0.0
  0
LINE
  8
0
  6
BYLAYER
 62
     7
 10
243.436860
 20
-391.827450
 30
0.0
 11
243.436860
 21
-449.836177
 31
0.0
  0
LINE
  8
0
  6
BYLAYER
 62
     7
 10
212.436860
 20
-369.836177
 30
0.0
 11
222.436860
 21
-369.836177
 31
0.0
  0
LINE
  8
0
  6
BYLAYER
 62
     7
 10
243.436860
 20
-391.827450
 30
0.0
 11
223.419404
 21
-391.478046
 31
0.0
  0
LINE
  8
0
  6
BYLAYER
 62
     7
 10
222.436860
 20
-369.836177
 30
0.0
 11
222.436860
 21
-449.836177
 31
0.0
  0
ARC
  8
0
  6
BYLAYER
 62
     7
 10
223.436860
 20
-390.478198
 30
0.0
 40
1.000000
 50
180.000000
 51
269.000015
  0
LINE
  8
0
  6
BYLAYER
 62
     7
 10
212.436860
 20
-369.836177
 30
0.0
 11
212.436860
 21
-449.836177
 31
0.0
  0
LINE
  8
0
  6
BYLAYER
 62
     7
 10
243.436860
 20
-507.844904
 30
0.0
 11
243.436860
 21
-449.836177
 31
0.0
  0
LINE
  8
0
  6
BYLAYER
 62
     7
 10
212.436860
 20
-529.836177
 30
0.0
 11
222.436860
 21
-529.836177
 31
0.0
  0
LINE
  8
0
  6
BYLAYER
 62
     7
 10
243.436860
 20
-507.844904
 30
0.0
 11
223.419404
 21
-508.194308
 31
0.0
  0
LINE
  8
0
  6
BYLAYER
 62
     7
 10
222.436860
 20
-529.836177
 30
0.0
 11
222.436860
 21
-449.836177
 31
0.0
  0
ARC
  8
0
  6
BYLAYER
 62
     7
 10
223.436860
 20
-509.194156
 30
0.0
 40
1.0
 50
90.999990
 51
180.000005
  0
LINE
  8
0
  6
BYLAYER
 62
     7
 10
212.436860
 20
-529.836177
 30
0.0
 11
212.436860
 21
-449.836177
 31
0.0
  0
LINE
  8
0
  6
BYLAYER
 62
     7
 10
404.986921
 20
-380.386177
 30
0.0
 11
404.986921
 21
-519.286177
 31
0.0
  0
LINE
  8
0
  6
BYLAYER
 62
     1
 10
192.436860
 20
-174.836146
 30
0.0
 11
190.936860
 21
-173.336177
 31
0.0
  0
LINE
  8
0
  6
BYLAYER
 62
     1
 10
167.436860
 20
-199.836146
 30
0.0
 11
165.936860
 21
-198.336146
 31
0.0
  0
LINE
  8
0
  6
BYLAYER
 62
     1
 10
92.436860
 20
-174.836146
 30
0.0
 11
93.936860
 21
-173.336177
 31
0.0
  0
LINE
  8
0
  6
BYLAYER
 62
     1
 10
118.936860
 20
-198.336146
 30
0.0
 11
165.936860
 21
-198.336146
 31
0.0
  0
LINE
  8
0
  6
BYLAYER
 62
     1
 10
193.436860
 20
-143.336177
 30
0.0
 11
193.436860
 21
-81.836146
 31
0.0
  0
LINE
  8
0
  6
BYLAYER
 62
     1
 10
193.436860
 20
-143.336177
 30
0.0
 11
190.936860
 21
-143.423457
 31
0.0
  0
LINE
  8
0
  6
BYLAYER
 62
     1
 10
92.436860
 20
-174.836146
 30
0.0
 11
98.936860
 21
-174.836146
 31
0.0
  0
LINE
  8
0
  6
BYLAYER
 62
     1
 10
192.436860
 20
-174.836146
 30
0.0
 11
185.936860
 21
-174.836146
 31
0.0
  0
LINE
  8
0
  6
BYLAYER
 62
     1
 10
193.436860
 20
-81.836146
 30
0.0
 11
192.436860
 21
-81.836146
 31
0.0
  0
ARC
  8
0
  6
BYLAYER
 62
     1
 10
166.436860
 20
-99.836146
 30
0.0
 40
1.0
 50
270.0
 51
450.000005
  0
ARC
  8
0
  6
BYLAYER
 62
     1
 10
125.936891
 20
-107.836146
 30
0.0
 40
1.0
 50
270.0
 51
450.000005
  0
ARC
  8
0
  6
BYLAYER
 62
     1
 10
158.936860
 20
-107.836146
 30
0.0
 40
1.000000
 50
90.0
 51
270.000005
  0
ARC
  8
0
  6
BYLAYER
 62
     1
 10
112.936891
 20
-115.836146
 30
0.0
 40
1.000000
 50
270.0
 51
450.000005
  0
LINE
  8
0
  6
BYLAYER
 62
     1
 10
117.436860
 20
-199.836146
 30
0.0
 11
117.436860
 21
-193.336146
 31
0.0
  0
LINE
  8
0
  6
BYLAYER
 62
     1
 10
167.436860
 20
-199.836146
 30
0.0
 11
167.436860
 21
-193.336146
 31
0.0
  0
LINE
  8
0
  6
BYLAYER
 62
     1
 10
190.936860
 20
-104.836146
 30
0.0
 11
193.436860
 21
-104.836146
 31
0.0
  0
LINE
  8
0
  6
BYLAYER
 62
     1
 10
117.436860
 20
-199.836146
 30
0.0
 11
93.936860
 21
-199.836146
 31
0.0
  0
LINE
  8
0
  6
BYLAYER
 62
     1
 10
93.936860
 20
-199.836146
 30
0.0
 11
92.436860
 21
-198.336208
 31
0.0
  0
LINE
  8
0
  6
BYLAYER
 62
     1
 10
92.436860
 20
-198.336208
 30
0.0
 11
92.436860
 21
-174.836146
 31
0.0
  0
LINE
  8
0
  6
BYLAYER
 62
     1
 10
192.436860
 20
-174.836146
 30
0.0
 11
192.436860
 21
-198.336146
 31
0.0
  0
LINE
  8
0
  6
BYLAYER
 62
     1
 10
192.436860
 20
-198.336146
 30
0.0
 11
190.936860
 21
-199.836146
 31
0.0
  0
LINE
  8
0
  6
BYLAYER
 62
     1
 10
190.936860
 20
-199.836146
 30
0.0
 11
167.436860
 21
-199.836146
 31
0.0
  0
ARC
  8
0
  6
BYLAYER
 62
     1
 10
176.936860
 20
-123.836177
 30
0.0
 40
1.000000
 50
90.0
 51
110.183422
  0
LINE
  8
0
  6
BYLAYER
 62
     1
 10
193.436860
 20
-130.714778
 30
0.0
 11
190.936860
 21
-130.714778
 31
0.0
  0
LINE
  8
0
  6
BYLAYER
 62
     1
 10
190.936860
 20
-139.517940
 30
0.0
 11
193.436860
 21
-139.517879
 31
0.0
  0
LINE
  8
0
  6
BYLAYER
 62
     1
 10
92.436891
 20
-128.711177
 30
0.0
 11
93.936891
 21
-128.711177
 31
0.0
  0
LINE
  8
0
  6
BYLAYER
 62
     1
 10
93.936860
 20
-116.065944
 30
0.0
 11
92.436891
 21
-116.065944
 31
0.0
  0
LINE
  8
0
  6
BYLAYER
 62
     1
 10
112.936891
 20
-114.836146
 30
0.0
 11
99.936860
 21
-114.836146
 31
0.0
  0
ARC
  8
0
  6
BYLAYER
 62
     1
 10
99.936860
 20
-113.836146
 30
0.0
 40
1.0
 50
180.000000
 51
269.999996
  0
LINE
  8
0
  6
BYLAYER
 62
     1
 10
99.936860
 20
-106.836146
 30
0.0
 11
125.936891
 21
-106.836146
 31
0.0
  0
ARC
  8
0
  6
BYLAYER
 62
     1
 10
99.936860
 20
-105.836146
 30
0.0
 40
1.0
 50
180.000000
 51
269.999996
  0
LINE
  8
0
  6
BYLAYER
 62
     1
 10
99.936860
 20
-108.836146
 30
0.0
 11
125.936891
 21
-108.836146
 31
0.0
  0
ARC
  8
0
  6
BYLAYER
 62
     1
 10
99.936860
 20
-109.836146
 30
0.0
 40
1.0
 50
90.0
 51
180.000003
  0
LINE
  8
0
  6
BYLAYER
 62
     1
 10
176.936860
 20
-122.836177
 30
0.0
 11
184.936860
 21
-122.836177
 31
0.0
  0
ARC
  8
0
  6
BYLAYER
 62
     1
 10
184.936860
 20
-121.836177
 30
0.0
 40
1.0
 50
270.0
 51
360.000003
  0
LINE
  8
0
  6
BYLAYER
 62
     1
 10
178.035315
 20
-124.836177
 30
0.0
 11
184.936860
 21
-124.836177
 31
0.0
  0
ARC
  8
0
  6
BYLAYER
 62
     1
 10
184.936860
 20
-125.836177
 30
0.0
 40
1.0
 50
0.0
 51
90.000003
  0
LINE
  8
0
  6
BYLAYER
 62
     1
 10
193.436860
 20
-114.836146
 30
0.0
 11
190.936860
 21
-114.836146
 31
0.0
  0
LINE
  8
0
  6
BYLAYER
 62
     1
 10
98.936860
 20
-173.336177
 30
0.0
 11
93.936860
 21
-173.336177
 31
0.0
  0
LINE
  8
0
  6
BYLAYER
 62
     1
 10
118.936860
 20
-193.336208
 30
0.0
 11
118.936860
 21
-198.336146
 31
0.0
  0
LINE
  8
0
  6
BYLAYER
 62
     1
 10
165.936860
 20
-193.336299
 30
0.0
 11
165.936860
 21
-198.336146
 31
0.0
  0
LINE
  8
0
  6
BYLAYER
 62
     1
 10
118.936860
 20
-198.336146
 30
0.0
 11
117.436860
 21
-199.836146
 31
0.0
  0
LINE
  8
0
  6
BYLAYER
 62
     1
 10
185.936860
 20
-173.336177
 30
0.0
 11
190.936860
 21
-173.336177
 31
0.0
  0
LINE
  8
0
  6
BYLAYER
 62
     1
 10
98.936860
 20
-104.836146
 30
0.0
 11
93.936860
 21
-104.836146
 31
0.0
  0
LINE
  8
0
  6
BYLAYER
 62
     1
 10
92.436860
 20
-103.336146
 30
0.0
 11
93.936860
 21
-104.836146
 31
0.0
  0
LINE
  8
0
  6
BYLAYER
 62
     1
 10
92.436860
 20
-103.336146
 30
0.0
 11
98.936860
 21
-103.336146
 31
0.0
  0
LINE
  8
0
  6
BYLAYER
 62
     1
 10
185.936860
 20
-104.836146
 30
0.0
 11
190.936860
 21
-104.836146
 31
0.0
  0
LINE
  8
0
  6
BYLAYER
 62
     1
 10
192.436860
 20
-103.336146
 30
0.0
 11
190.936860
 21
-104.836146
 31
0.0
  0
LINE
  8
0
  6
BYLAYER
 62
     1
 10
192.436860
 20
-103.336146
 30
0.0
 11
185.936860
 21
-103.336146
 31
0.0
  0
LINE
  8
0
  6
BYLAYER
 62
     1
 10
192.436860
 20
-103.336146
 30
0.0
 11
192.436860
 21
-81.776088
 31
0.0
  0
LINE
  8
0
  6
BYLAYER
 62
     1
 10
192.436860
 20
-81.776088
 30
0.0
 11
192.436860
 21
-79.836146
 31
0.0
  0
LINE
  8
0
  6
BYLAYER
 62
     1
 10
192.436860
 20
-79.836146
 30
0.0
 11
190.936860
 21
-78.336146
 31
0.0
  0
LINE
  8
0
  6
BYLAYER
 62
     1
 10
190.936860
 20
-78.336146
 30
0.0
 11
167.436860
 21
-78.336146
 31
0.0
  0
LINE
  8
0
  6
BYLAYER
 62
     1
 10
167.436860
 20
-78.336146
 30
0.0
 11
167.436860
 21
-84.836146
 31
0.0
  0
LINE
  8
0
  6
BYLAYER
 62
     1
 10
167.436860
 20
-78.336146
 30
0.0
 11
165.936860
 21
-79.836146
 31
0.0
  0
LINE
  8
0
  6
BYLAYER
 62
     1
 10
165.936860
 20
-79.836146
 30
0.0
 11
165.936860
 21
-84.836146
 31
0.0
  0
LINE
  8
0
  6
BYLAYER
 62
     1
 10
118.936860
 20
-79.836146
 30
0.0
 11
165.936860
 21
-79.836146
 31
0.0
  0
LINE
  8
0
  6
BYLAYER
 62
     1
 10
118.936860
 20
-79.836146
 30
0.0
 11
118.936860
 21
-84.836146
 31
0.0
  0
LINE
  8
0
  6
BYLAYER
 62
     1
 10
117.436860
 20
-78.336146
 30
0.0
 11
117.436860
 21
-84.836146
 31
0.0
  0
LINE
  8
0
  6
BYLAYER
 62
     1
 10
118.936860
 20
-79.836146
 30
0.0
 11
117.436860
 21
-78.336146
 31
0.0
  0
LINE
  8
0
  6
BYLAYER
 62
     1
 10
93.936860
 20
-78.336146
 30
0.0
 11
117.436860
 21
-78.336146
 31
0.0
  0
LINE
  8
0
  6
BYLAYER
 62
     1
 10
92.436860
 20
-79.836146
 30
0.0
 11
93.936860
 21
-78.336146
 31
0.0
  0
LINE
  8
0
  6
BYLAYER
 62
     1
 10
93.936860
 20
-173.336177
 30
0.0
 11
93.936860
 21
-104.836146
 31
0.0
  0
LINE
  8
0
  6
BYLAYER
 62
     1
 10
190.936860
 20
-173.336177
 30
0.0
 11
190.936860
 21
-104.836146
 31
0.0
  0
LINE
  8
0
  6
BYLAYER
 62
     1
 10
98.936860
 20
-116.065944
 30
0.0
 11
106.436860
 21
-116.065944
 31
0.0
  0
ARC
  8
0
  6
BYLAYER
 62
     1
 10
106.436860
 20
-118.065944
 30
0.0
 40
2.0
 50
0.0
 51
90.000003
  0
LINE
  8
0
  6
BYLAYER
 62
     1
 10
98.936891
 20
-128.711177
 30
0.0
 11
104.410759
 21
-128.711177
 31
0.0
  0
LINE
  8
0
  6
BYLAYER
 62
     1
 10
108.436860
 20
-122.702250
 30
0.0
 11
108.436860
 21
-118.065944
 31
0.0
  0
LINE
  8
0
  6
BYLAYER
 62
     1
 10
185.936860
 20
-104.836146
 30
0.0
 11
179.436860
 21
-104.836146
 31
0.0
  0
ARC
  8
0
  6
BYLAYER
 62
     1
 10
179.436860
 20
-106.836146
 30
0.0
 40
2.000000
 50
90.0
 51
180.000003
  0
LINE
  8
0
  6
BYLAYER
 62
     1
 10
177.436860
 20
-112.836146
 30
0.0
 11
177.436860
 21
-106.836146
 31
0.0
  0
LINE
  8
0
  6
BYLAYER
 62
     1
 10
185.936860
 20
-114.836146
 30
0.0
 11
179.436860
 21
-114.836146
 31
0.0
  0
ARC
  8
0
  6
BYLAYER
 62
     1
 10
179.436860
 20
-112.836146
 30
0.0
 40
2.000000
 50
180.000000
 51
269.999996
  0
LINE
  8
0
  6
BYLAYER
 62
     1
 10
112.936891
 20
-116.836146
 30
0.0
 11
109.436860
 21
-116.836146
 31
0.0
  0
ARC
  8
0
  6
BYLAYER
 62
     1
 10
109.436860
 20
-117.836146
 30
0.0
 40
1.0
 50
90.0
 51
180.000003
  0
LINE
  8
0
  6
BYLAYER
 62
     1
 10
158.936860
 20
-108.836146
 30
0.0
 11
176.436860
 21
-108.836146
 31
0.0
  0
ARC
  8
0
  6
BYLAYER
 62
     1
 10
176.436860
 20
-109.836146
 30
0.0
 40
1.0
 50
0.0
 51
90.000003
  0
LINE
  8
0
  6
BYLAYER
 62
     1
 10
176.608430
 20
-106.836146
 30
0.0
 11
158.936860
 21
-106.836146
 31
0.0
  0
ARC
  8
0
  6
BYLAYER
 62
     1
 10
176.608430
 20
-105.836146
 30
0.0
 40
1.0
 50
270.0
 51
340.52826
  0
ARC
  8
0
  6
BYLAYER
 62
     1
 10
99.936860
 20
-85.836146
 30
0.0
 40
1.0
 50
90.0
 51
180.000003
  0
LINE
  8
0
  6
BYLAYER
 62
     1
 10
184.936860
 20
-84.836146
 30
0.0
 11
99.936860
 21
-84.836146
 31
0.0
  0
ARC
  8
0
  6
BYLAYER
 62
     1
 10
184.936860
 20
-85.836146
 30
0.0
 40
1.000000
 50
0.0
 51
90.000003
  0
LINE
  8
0
  6
BYLAYER
 62
     1
 10
162.589985
 20
-188.386165
 30
0.0
 11
179.986863
 21
-188.386165
 31
0.0
  0
LINE
  8
0
  6
BYLAYER
 62
     1
 10
180.986863
 20
-187.386165
 30
0.0
 11
180.986863
 21
-169.989273
 31
0.0
  0
ARC
  8
0
  6
BYLAYER
 62
     1
 10
179.986863
 20
-187.386165
 30
0.0
 40
1.000000
 50
270.0
 51
360.000003
  0
ARC
  8
0
  6
BYLAYER
 62
     1
 10
184.936860
 20
-192.336146
 30
0.0
 40
1.0
 50
270.0
 51
360.000003
  0
LINE
  8
0
  6
BYLAYER
 62
     1
 10
104.886857
 20
-188.386165
 30
0.0
 11
122.283735
 21
-188.386165
 31
0.0
  0
ARC
  8
0
  6
BYLAYER
 62
     1
 10
104.886857
 20
-187.386165
 30
0.0
 40
1.0
 50
180.000000
 51
269.999996
  0
ARC
  8
0
  6
BYLAYER
 62
     1
 10
99.936860
 20
-192.336146
 30
0.0
 40
1.0
 50
180.000000
 51
269.999996
  0
LINE
  8
0
  6
BYLAYER
 62
     1
 10
185.643968
 20
-193.043269
 30
0.0
 11
180.693971
 21
-188.093288
 31
0.0
  0
LINE
  8
0
  6
BYLAYER
 62
     1
 10
99.229752
 20
-193.043269
 30
0.0
 11
104.179749
 21
-188.093288
 31
0.0
  0
LINE
  8
0
  6
BYLAYER
 62
     1
 10
98.936860
 20
-85.836146
 30
0.0
 11
98.936860
 21
-134.547298
 31
0.0
  0
ARC
  8
0
  6
BYLAYER
 62
     1
 10
96.936860
 20
-134.547298
 30
0.0
 40
1.999991
 50
341.426977
 51
360.0
  0
ARC
  8
0
  6
BYLAYER
 62
     1
 10
142.436860
 20
-149.836177
 30
0.0
 40
46.000008
 50
161.426644
 51
198.573352
  0
LINE
  8
0
  6
BYLAYER
 62
     1
 10
98.936860
 20
-165.125087
 30
0.0
 11
98.936860
 21
-192.336146
 31
0.0
  0
ARC
  8
0
  6
BYLAYER
 62
     1
 10
96.936860
 20
-165.125087
 30
0.0
 40
2.000001
 50
0.0
 51
18.573839
  0
ARC
  8
0
  6
BYLAYER
 62
     1
 10
127.147981
 20
-195.336177
 30
0.0
 40
2.000005
 50
71.426983
 51
90.000003
  0
ARC
  8
0
  6
BYLAYER
 62
     1
 10
142.436860
 20
-149.836177
 30
0.0
 40
45.999992
 50
251.426640
 51
288.573361
  0
ARC
  8
0
  6
BYLAYER
 62
     1
 10
157.725770
 20
-195.336177
 30
0.0
 40
2.000015
 50
90.0
 51
108.573839
  0
ARC
  8
0
  6
BYLAYER
 62
     1
 10
187.936860
 20
-165.125056
 30
0.0
 40
1.999991
 50
161.426972
 51
180.000005
  0
ARC
  8
0
  6
BYLAYER
 62
     1
 10
142.436860
 20
-149.836177
 30
0.0
 40
46.000008
 50
341.426649
 51
378.573343
  0
ARC
  8
0
  6
BYLAYER
 62
     1
 10
187.936860
 20
-134.547267
 30
0.0
 40
2.000001
 50
180.000000
 51
198.573839
  0
LINE
  8
0
  6
BYLAYER
 62
     1
 10
127.147988
 20
-193.336208
 30
0.0
 11
99.936860
 21
-193.336146
 31
0.0
  0
LINE
  8
0
  6
BYLAYER
 62
     1
 10
184.936860
 20
-193.336146
 30
0.0
 11
157.725770
 21
-193.336146
 31
0.0
  0
LINE
  8
0
  6
BYLAYER
 62
     1
 10
185.936860
 20
-85.836146
 30
0.0
 11
185.936860
 21
-134.547267
 31
0.0
  0
LINE
  8
0
  6
BYLAYER
 62
     1
 10
185.936860
 20
-192.336146
 30
0.0
 11
185.936860
 21
-165.125056
 31
0.0
  0
LINE
  8
0
  6
BYLAYER
 62
     1
 10
92.436860
 20
-133.336146
 30
0.0
 11
92.436860
 21
-79.836146
 31
0.0
  0
LINE
  8
0
  6
BYLAYER
 62
     1
 10
93.936860
 20
-133.336146
 30
0.0
 11
92.436860
 21
-133.336146
 31
0.0
  0
LINE
  8
0
  6
BYLAYER
 62
     1
 10
103.886857
 20
-187.386165
 30
0.0
 11
103.886857
 21
-169.989273
 31
0.0
  0
ARC
  8
0
  6
BYLAYER
 62
     1
 10
121.436860
 20
-99.836146
 30
0.0
 40
1.0
 50
90.0
 51
270.000005
  0
LINE
  8
0
  6
BYLAYER
 62
     1
 10
166.436860
 20
-98.836146
 30
0.0
 11
121.436860
 21
-98.836146
 31
0.0
  0
LINE
  8
0
  6
BYLAYER
 62
     1
 10
166.436860
 20
-100.836146
 30
0.0
 11
121.436860
 21
-100.836146
 31
0.0
  0
LINE
  8
0
  6
BYLAYER
 62
     1
 10
98.936860
 20
-181.436153
 30
0.0
 11
92.436860
 21
-181.436153
 31
0.0
  0
LINE
  8
0
  6
BYLAYER
 62
     1
 10
98.936860
 20
-188.236140
 30
0.0
 11
92.436860
 21
-188.236140
 31
0.0
  0
LINE
  8
0
  6
BYLAYER
 62
     1
 10
104.036858
 20
-193.336146
 30
0.0
 11
104.036858
 21
-199.836146
 31
0.0
  0
LINE
  8
0
  6
BYLAYER
 62
     1
 10
110.836862
 20
-193.336177
 30
0.0
 11
110.836862
 21
-199.836146
 31
0.0
  0
LINE
  8
0
  6
BYLAYER
 62
     1
 10
174.036866
 20
-193.336146
 30
0.0
 11
174.036866
 21
-199.836146
 31
0.0
  0
LINE
  8
0
  6
BYLAYER
 62
     1
 10
180.836854
 20
-193.336146
 30
0.0
 11
180.836854
 21
-199.836146
 31
0.0
  0
LINE
  8
0
  6
BYLAYER
 62
     1
 10
185.936860
 20
-188.236140
 30
0.0
 11
192.436860
 21
-188.236140
 31
0.0
  0
LINE
  8
0
  6
BYLAYER
 62
     1
 10
185.936860
 20
-181.436153
 30
0.0
 11
192.436860
 21
-181.436153
 31
0.0
  0
ARC
  8
0
  6
BYLAYER
 62
     1
 10
115.920350
 20
-123.319667
 30
0.0
 40
3.000004
 50
42.767120
 51
314.999992
  0
ARC
  8
0
  6
BYLAYER
 62
     1
 10
168.953370
 20
-123.319667
 30
0.0
 40
3.000015
 50
225.000010
 51
497.232885
  0
ARC
  8
0
  6
BYLAYER
 62
     1
 10
142.436860
 20
-149.836177
 30
0.0
 40
30.0
 50
0.0
 51
180.000005
  0
ARC
  8
0
  6
BYLAYER
 62
     1
 10
115.920350
 20
-176.352687
 30
0.0
 40
2.999983
 50
45.000008
 51
317.232890
  0
ARC
  8
0
  6
BYLAYER
 62
     1
 10
168.953370
 20
-176.352687
 30
0.0
 40
3.000016
 50
222.767112
 51
494.999987
  0
CIRCLE
  8
0
  6
BYLAYER
 62
     1
 10
142.436860
 20
-149.836177
 30
0.0
 40
20.0
  0
CIRCLE
  8
0
  6
BYLAYER
 62
     1
 10
115.920350
 20
-123.319667
 30
0.0
 40
2.5
  0
CIRCLE
  8
0
  6
BYLAYER
 62
     1
 10
168.953370
 20
-123.319667
 30
0.0
 40
2.5
  0
CIRCLE
  8
0
  6
BYLAYER
 62
     1
 10
168.953370
 20
-176.352687
 30
0.0
 40
2.5
  0
CIRCLE
  8
0
  6
BYLAYER
 62
     1
 10
115.920350
 20
-176.352687
 30
0.0
 40
2.5
  0
ARC
  8
0
  6
BYLAYER
 62
     1
 10
142.436860
 20
-149.836177
 30
0.0
 40
30.000000
 50
292.499983
 51
360.000000
  0
ARC
  8
0
  6
BYLAYER
 62
     1
 10
142.436860
 20
-149.836177
 30
0.0
 40
29.999998
 50
180.000005
 51
292.499983
  0
ARC
  8
0
  6
BYLAYER
 62
     1
 10
142.436860
 20
-149.836177
 30
0.0
 40
45.25
 50
83.304540
 51
96.695460
  0
ARC
  8
0
  6
BYLAYER
 62
     1
 10
147.546266
 20
-106.385554
 30
0.0
 40
1.500024
 50
33.869498
 51
83.293706
  0
ARC
  8
0
  6
BYLAYER
 62
     1
 10
137.327454
 20
-106.385554
 30
0.0
 40
1.500024
 50
97.044942
 51
146.130504
  0
ARC
  8
0
  6
BYLAYER
 62
     1
 10
119.475852
 20
-94.403394
 30
0.0
 40
20.000020
 50
265.957319
 51
326.130123
  0
ARC
  8
0
  6
BYLAYER
 62
     1
 10
98.986237
 20
-144.726771
 30
0.0
 40
1.500024
 50
123.869497
 51
173.293702
  0
ARC
  8
0
  6
BYLAYER
 62
     1
 10
137.327454
 20
-193.286800
 30
0.0
 40
1.500024
 50
213.869506
 51
263.293711
  0
ARC
  8
0
  6
BYLAYER
 62
     1
 10
185.887483
 20
-154.945583
 30
0.0
 40
1.500024
 50
303.869488
 51
353.293720
  0
ARC
  8
0
  6
BYLAYER
 62
     1
 10
98.986237
 20
-154.945583
 30
0.0
 40
1.500024
 50
186.706295
 51
236.130513
  0
ARC
  8
0
  6
BYLAYER
 62
     1
 10
147.546266
 20
-193.286800
 30
0.0
 40
1.500024
 50
276.706290
 51
326.130495
  0
ARC
  8
0
  6
BYLAYER
 62
     1
 10
185.887483
 20
-144.726771
 30
0.0
 40
1.500024
 50
6.706299
 51
56.130505
  0
ARC
  8
0
  6
BYLAYER
 62
     1
 10
87.004090
 20
-126.875178
 30
0.0
 40
20.000032
 50
303.869871
 51
364.042736
  0
ARC
  8
0
  6
BYLAYER
 62
     1
 10
108.949381
 20
-125.324165
 30
0.0
 40
2.0
 50
143.796789
 51
184.042736
  0
ARC
  8
0
  6
BYLAYER
 62
     1
 10
142.436860
 20
-149.836177
 30
0.0
 40
43.5
 50
100.784127
 51
169.215926
  0
ARC
  8
0
  6
BYLAYER
 62
     1
 10
133.923393
 20
-105.139747
 30
0.0
 40
2.0
 50
280.784127
 51
323.382976
  0
ARC
  8
0
  6
BYLAYER
 62
     1
 10
97.740422
 20
-141.322751
 30
0.0
 40
2.0
 50
306.616911
 51
349.215926
  0
ARC
  8
0
  6
BYLAYER
 62
     1
 10
117.924864
 20
-116.348686
 30
0.0
 40
2.000000
 50
85.957305
 51
126.203183
  0
ARC
  8
0
  6
BYLAYER
 62
     1
 10
142.436860
 20
-149.836177
 30
0.0
 40
45.250000
 50
173.304540
 51
186.695460
  0
ARC
  8
0
  6
BYLAYER
 62
     1
 10
87.004077
 20
-172.797185
 30
0.0
 40
20.000020
 50
355.957319
 51
416.130123
  0
ARC
  8
0
  6
BYLAYER
 62
     1
 10
119.475861
 20
-205.268947
 30
0.0
 40
20.000032
 50
33.869871
 51
94.042736
  0
ARC
  8
0
  6
BYLAYER
 62
     1
 10
117.924848
 20
-183.323656
 30
0.0
 40
2.000000
 50
233.796789
 51
274.042736
  0
ARC
  8
0
  6
BYLAYER
 62
     1
 10
142.436860
 20
-149.836177
 30
0.0
 40
43.500000
 50
190.784127
 51
259.215926
  0
ARC
  8
0
  6
BYLAYER
 62
     1
 10
97.740430
 20
-158.349644
 30
0.0
 40
2.000000
 50
10.784127
 51
53.382976
  0
ARC
  8
0
  6
BYLAYER
 62
     1
 10
133.923434
 20
-194.532615
 30
0.0
 40
2.0
 50
36.616911
 51
79.215926
  0
ARC
  8
0
  6
BYLAYER
 62
     1
 10
108.949369
 20
-174.348173
 30
0.0
 40
2.000000
 50
175.957305
 51
216.203183
  0
ARC
  8
0
  6
BYLAYER
 62
     1
 10
142.436860
 20
-149.836177
 30
0.0
 40
45.25
 50
263.304540
 51
276.695460
  0
ARC
  8
0
  6
BYLAYER
 62
     1
 10
165.397868
 20
-205.268960
 30
0.0
 40
20.000020
 50
85.957319
 51
146.130123
  0
ARC
  8
0
  6
BYLAYER
 62
     1
 10
197.869630
 20
-172.797176
 30
0.0
 40
20.000032
 50
123.869871
 51
184.042736
  0
ARC
  8
0
  6
BYLAYER
 62
     1
 10
175.924339
 20
-174.348189
 30
0.0
 40
2.0
 50
323.796789
 51
364.042736
  0
ARC
  8
0
  6
BYLAYER
 62
     1
 10
142.436860
 20
-149.836177
 30
0.0
 40
43.500000
 50
280.784127
 51
349.215926
  0
ARC
  8
0
  6
BYLAYER
 62
     1
 10
150.950327
 20
-194.532607
 30
0.0
 40
2.0
 50
100.784127
 51
143.382976
  0
ARC
  8
0
  6
BYLAYER
 62
     1
 10
187.133298
 20
-158.349603
 30
0.0
 40
2.0
 50
126.616911
 51
169.215926
  0
ARC
  8
0
  6
BYLAYER
 62
     1
 10
166.948856
 20
-183.323668
 30
0.0
 40
2.000000
 50
265.957305
 51
306.203183
  0
ARC
  8
0
  6
BYLAYER
 62
     1
 10
142.436860
 20
-149.836177
 30
0.0
 40
45.25
 50
353.304540
 51
366.695460
  0
ARC
  8
0
  6
BYLAYER
 62
     1
 10
197.869643
 20
-126.875169
 30
0.0
 40
20.000020
 50
175.957319
 51
236.130123
  0
ARC
  8
0
  6
BYLAYER
 62
     1
 10
165.397859
 20
-94.403407
 30
0.0
 40
20.000032
 50
213.869871
 51
274.042736
  0
ARC
  8
0
  6
BYLAYER
 62
     1
 10
166.948872
 20
-116.348698
 30
0.0
 40
2.0
 50
53.796789
 51
94.042736
  0
ARC
  8
0
  6
BYLAYER
 62
     1
 10
142.436860
 20
-149.836177
 30
0.0
 40
43.500000
 50
10.784127
 51
79.215926
  0
ARC
  8
0
  6
BYLAYER
 62
     1
 10
187.133290
 20
-141.322710
 30
0.0
 40
2.0
 50
190.784127
 51
233.382976
  0
ARC
  8
0
  6
BYLAYER
 62
     1
 10
150.950286
 20
-105.139739
 30
0.0
 40
2.0
 50
216.616911
 51
259.215926
  0
ARC
  8
0
  6
BYLAYER
 62
     1
 10
135.421296
 20
-95.441191
 30
0.0
 40
1.436863
 50
270.0
 51
308.795511
  0
ARC
  8
0
  6
BYLAYER
 62
     1
 10
135.282245
 20
-95.293101
 30
0.0
 40
1.639478
 50
309.340351
 51
360.000000
  0
ARC
  8
0
  6
BYLAYER
 62
     1
 10
135.282245
 20
-95.293101
 30
0.0
 40
1.639478
 50
0.0
 51
50.659649
  0
ARC
  8
0
  6
BYLAYER
 62
     1
 10
135.421296
 20
-95.145011
 30
0.0
 40
1.436863
 50
51.204489
 51
90.0
  0
ARC
  8
0
  6
BYLAYER
 62
     1
 10
135.421296
 20
-95.144998
 30
0.0
 40
1.436850
 50
90.0
 51
128.795693
  0
ARC
  8
0
  6
BYLAYER
 62
     1
 10
135.560360
 20
-95.293101
 30
0.0
 40
1.639484
 50
129.340576
 51
180.0
  0
ARC
  8
0
  6
BYLAYER
 62
     1
 10
135.560360
 20
-95.293101
 30
0.0
 40
1.639484
 50
180.000000
 51
230.659424
  0
ARC
  8
0
  6
BYLAYER
 62
     1
 10
135.421296
 20
-95.441204
 30
0.0
 40
1.436850
 50
231.204307
 51
270.000000
  0
ARC
  8
0
  6
BYLAYER
 62
     1
 10
135.421296
 20
-94.871526
 30
0.0
 40
0.664873
 50
90.0
 51
140.793201
  0
ARC
  8
0
  6
BYLAYER
 62
     1
 10
135.938073
 20
-95.293101
 30
0.0
 40
1.331795
 50
140.793201
 51
180.000000
  0
ARC
  8
0
  6
BYLAYER
 62
     1
 10
135.938065
 20
-95.293101
 30
0.0
 40
1.331787
 50
180.000000
 51
219.206869
  0
ARC
  8
0
  6
BYLAYER
 62
     1
 10
135.421296
 20
-95.714671
 30
0.0
 40
0.664875
 50
219.206869
 51
270.000000
  0
ARC
  8
0
  6
BYLAYER
 62
     1
 10
135.421296
 20
-95.714671
 30
0.0
 40
0.664875
 50
270.0
 51
320.793131
  0
ARC
  8
0
  6
BYLAYER
 62
     1
 10
134.904527
 20
-95.293101
 30
0.0
 40
1.331787
 50
320.793131
 51
360.000000
  0
ARC
  8
0
  6
BYLAYER
 62
     1
 10
134.904519
 20
-95.293101
 30
0.0
 40
1.331795
 50
0.0
 51
39.206799
  0
ARC
  8
0
  6
BYLAYER
 62
     1
 10
135.421296
 20
-94.871526
 30
0.0
 40
0.664873
 50
39.206799
 51
90.000000
  0
LINE
  8
0
  6
BYLAYER
 62
     1
 10
130.497376
 20
-96.772388
 30
0.0
 11
130.497376
 21
-93.771541
 31
0.0
  0
LINE
  8
0
  6
BYLAYER
 62
     1
 10
130.497376
 20
-93.771541
 30
0.0
 11
131.717439
 21
-93.771541
 31
0.0
  0
LINE
  8
0
  6
BYLAYER
 62
     1
 10
131.717439
 20
-93.771541
 30
0.0
 11
132.124597
 21
-95.335368
 31
0.0
  0
LINE
  8
0
  6
BYLAYER
 62
     1
 10
130.497376
 20
-96.772388
 30
0.0
 11
131.229981
 21
-96.772388
 31
0.0
  0
LINE
  8
0
  6
BYLAYER
 62
     1
 10
131.229981
 20
-96.772388
 30
0.0
 11
131.229981
 21
-95.039508
 31
0.0
  0
LINE
  8
0
  6
BYLAYER
 62
     1
 10
131.807603
 20
-96.772388
 30
0.0
 11
131.229981
 21
-95.039508
 31
0.0
  0
LINE
  8
0
  6
BYLAYER
 62
     1
 10
133.751817
 20
-96.772388
 30
0.0
 11
133.751817
 21
-93.771541
 31
0.0
  0
LINE
  8
0
  6
BYLAYER
 62
     1
 10
133.751817
 20
-93.771541
 30
0.0
 11
132.531754
 21
-93.771541
 31
0.0
  0
LINE
  8
0
  6
BYLAYER
 62
     1
 10
132.531754
 20
-93.771541
 30
0.0
 11
132.124597
 21
-95.335368
 31
0.0
  0
LINE
  8
0
  6
BYLAYER
 62
     1
 10
133.751817
 20
-96.772388
 30
0.0
 11
133.019212
 21
-96.772388
 31
0.0
  0
LINE
  8
0
  6
BYLAYER
 62
     1
 10
133.019212
 20
-96.772388
 30
0.0
 11
133.019212
 21
-95.039508
 31
0.0
  0
LINE
  8
0
  6
BYLAYER
 62
     1
 10
132.441590
 20
-96.772388
 30
0.0
 11
133.019212
 21
-95.039508
 31
0.0
  0
LINE
  8
0
  6
BYLAYER
 62
     1
 10
132.441590
 20
-96.772388
 30
0.0
 11
131.807603
 21
-96.772388
 31
0.0
  0
LINE
  8
0
  6
BYLAYER
 62
     1
 10
144.487237
 20
-96.772388
 30
0.0
 11
145.628396
 21
-93.771541
 31
0.0
  0
LINE
  8
0
  6
BYLAYER
 62
     1
 10
144.487237
 20
-96.772388
 30
0.0
 11
145.459344
 21
-96.772388
 31
0.0
  0
LINE
  8
0
  6
BYLAYER
 62
     1
 10
145.628396
 20
-93.771541
 30
0.0
 11
146.558236
 21
-93.771541
 31
0.0
  0
LINE
  8
0
  6
BYLAYER
 62
     1
 10
145.459344
 20
-96.772388
 30
0.0
 11
145.603432
 21
-96.349734
 31
0.0
  0
LINE
  8
0
  6
BYLAYER
 62
     1
 10
145.833962
 20
-95.673488
 30
0.0
 11
146.093316
 21
-94.912707
 31
0.0
  0
LINE
  8
0
  6
BYLAYER
 62
     1
 10
147.699410
 20
-96.772388
 30
0.0
 11
146.558236
 21
-93.771541
 31
0.0
  0
LINE
  8
0
  6
BYLAYER
 62
     1
 10
147.699410
 20
-96.772388
 30
0.0
 11
146.727303
 21
-96.772388
 31
0.0
  0
LINE
  8
0
  6
BYLAYER
 62
     1
 10
146.583215
 20
-96.349734
 30
0.0
 11
145.603432
 21
-96.349734
 31
0.0
  0
LINE
  8
0
  6
BYLAYER
 62
     1
 10
146.352670
 20
-95.673488
 30
0.0
 11
145.833962
 21
-95.673488
 31
0.0
  0
LINE
  8
0
  6
BYLAYER
 62
     1
 10
146.727303
 20
-96.772388
 30
0.0
 11
146.583215
 21
-96.349734
 31
0.0
  0
LINE
  8
0
  6
BYLAYER
 62
     1
 10
146.352670
 20
-95.673488
 30
0.0
 11
146.093316
 21
-94.912707
 31
0.0
  0
LINE
  8
0
  6
BYLAYER
 62
     1
 10
136.921723
 20
-94.511188
 30
0.0
 11
137.767030
 21
-94.511188
 31
0.0
  0
LINE
  8
0
  6
BYLAYER
 62
     1
 10
137.767030
 20
-94.511188
 30
0.0
 11
137.767030
 21
-96.772388
 31
0.0
  0
LINE
  8
0
  6
BYLAYER
 62
     1
 10
137.767030
 20
-96.772388
 30
0.0
 11
138.696877
 21
-96.772388
 31
0.0
  0
LINE
  8
0
  6
BYLAYER
 62
     1
 10
138.696877
 20
-96.772388
 30
0.0
 11
138.696877
 21
-94.511188
 31
0.0
  0
LINE
  8
0
  6
BYLAYER
 62
     1
 10
138.696877
 20
-94.511188
 30
0.0
 11
139.542184
 21
-94.511188
 31
0.0
  0
LINE
  8
0
  6
BYLAYER
 62
     1
 10
139.542184
 20
-94.511188
 30
0.0
 11
139.542184
 21
-93.771541
 31
0.0
  0
LINE
  8
0
  6
BYLAYER
 62
     1
 10
139.542184
 20
-93.771541
 30
0.0
 11
136.921723
 21
-93.771541
 31
0.0
  0
LINE
  8
0
  6
BYLAYER
 62
     1
 10
136.921723
 20
-93.771541
 30
0.0
 11
136.921723
 21
-94.511188
 31
0.0
  0
ARC
  8
0
  6
BYLAYER
 62
     1
 10
141.042603
 20
-95.441204
 30
0.0
 40
1.436850
 50
270.0
 51
308.795693
  0
ARC
  8
0
  6
BYLAYER
 62
     1
 10
140.903539
 20
-95.293101
 30
0.0
 40
1.639484
 50
309.340576
 51
360.000000
  0
ARC
  8
0
  6
BYLAYER
 62
     1
 10
140.903545
 20
-95.293101
 30
0.0
 40
1.639478
 50
0.0
 51
50.659649
  0
ARC
  8
0
  6
BYLAYER
 62
     1
 10
141.042596
 20
-95.145011
 30
0.0
 40
1.436863
 50
51.204489
 51
90.0
  0
ARC
  8
0
  6
BYLAYER
 62
     1
 10
141.042596
 20
-95.144998
 30
0.0
 40
1.436850
 50
90.0
 51
128.795693
  0
ARC
  8
0
  6
BYLAYER
 62
     1
 10
141.181660
 20
-95.293101
 30
0.0
 40
1.639484
 50
129.340576
 51
180.000000
  0
ARC
  8
0
  6
BYLAYER
 62
     1
 10
141.181654
 20
-95.293101
 30
0.0
 40
1.639478
 50
180.000000
 51
230.659649
  0
ARC
  8
0
  6
BYLAYER
 62
     1
 10
141.042603
 20
-95.441191
 30
0.0
 40
1.436863
 50
231.204489
 51
270.000000
  0
ARC
  8
0
  6
BYLAYER
 62
     1
 10
141.042596
 20
-94.871526
 30
0.0
 40
0.664873
 50
90.0
 51
140.793201
  0
ARC
  8
0
  6
BYLAYER
 62
     1
 10
141.559373
 20
-95.293101
 30
0.0
 40
1.331795
 50
140.793201
 51
180.000000
  0
ARC
  8
0
  6
BYLAYER
 62
     1
 10
141.559356
 20
-95.293101
 30
0.0
 40
1.331778
 50
180.000000
 51
219.207055
  0
ARC
  8
0
  6
BYLAYER
 62
     1
 10
141.042603
 20
-95.714661
 30
0.0
 40
0.664886
 50
219.207055
 51
270.000000
  0
ARC
  8
0
  6
BYLAYER
 62
     1
 10
141.042603
 20
-95.714671
 30
0.0
 40
0.664875
 50
270.0
 51
320.793131
  0
ARC
  8
0
  6
BYLAYER
 62
     1
 10
140.525834
 20
-95.293101
 30
0.0
 40
1.331787
 50
320.793131
 51
360.000000
  0
ARC
  8
0
  6
BYLAYER
 62
     1
 10
140.525835
 20
-95.293101
 30
0.0
 40
1.331786
 50
0.0
 51
39.206985
  0
ARC
  8
0
  6
BYLAYER
 62
     1
 10
141.042596
 20
-94.871537
 30
0.0
 40
0.664884
 50
39.206985
 51
90.000000
  0
LINE
  8
0
  6
BYLAYER
 62
     1
 10
147.780404
 20
-96.772388
 30
0.0
 11
147.780404
 21
-93.771541
 31
0.0
  0
LINE
  8
0
  6
BYLAYER
 62
     1
 10
147.780404
 20
-93.771541
 30
0.0
 11
149.640076
 21
-93.771541
 31
0.0
  0
ARC
  8
0
  6
BYLAYER
 62
     1
 10
149.640076
 20
-94.616855
 30
0.0
 40
0.845305
 50
287.134650
 51
450.000006
  0
ARC
  8
0
  6
BYLAYER
 62
     1
 10
149.809144
 20
-96.096141
 30
0.0
 40
0.676247
 50
0.0
 51
83.207557
  0
LINE
  8
0
  6
BYLAYER
 62
     1
 10
150.485390
 20
-96.096141
 30
0.0
 11
150.485390
 21
-96.518794
 31
0.0
  0
ARC
  8
0
  6
BYLAYER
 62
     1
 10
151.161637
 20
-96.518794
 30
0.0
 40
0.676247
 50
180.000000
 51
202.024314
  0
LINE
  8
0
  6
BYLAYER
 62
     1
 10
149.604897
 20
-96.772388
 30
0.0
 11
150.534737
 21
-96.772388
 31
0.0
  0
ARC
  8
0
  6
BYLAYER
 62
     1
 10
150.231797
 20
-96.518794
 30
0.0
 40
0.676247
 50
180.000000
 51
202.024314
  0
LINE
  8
0
  6
BYLAYER
 62
     1
 10
149.555550
 20
-96.518794
 30
0.0
 11
149.555550
 21
-96.180675
 31
0.0
  0
LINE
  8
0
  6
BYLAYER
 62
     1
 10
147.780404
 20
-96.772388
 30
0.0
 11
148.667977
 21
-96.772388
 31
0.0
  0
LINE
  8
0
  6
BYLAYER
 62
     1
 10
148.667977
 20
-96.772388
 30
0.0
 11
148.667977
 21
-95.758021
 31
0.0
  0
LINE
  8
0
  6
BYLAYER
 62
     1
 10
149.132897
 20
-95.758021
 30
0.0
 11
148.667977
 21
-95.758021
 31
0.0
  0
ARC
  8
0
  6
BYLAYER
 62
     1
 10
149.132897
 20
-96.180675
 30
0.0
 40
0.422653
 50
0.0
 51
90.000003
  0
LINE
  8
0
  6
BYLAYER
 62
     1
 10
148.667977
 20
-95.081775
 30
0.0
 11
148.667977
 21
-94.447787
 31
0.0
  0
LINE
  8
0
  6
BYLAYER
 62
     1
 10
148.667977
 20
-94.447787
 30
0.0
 11
149.259690
 21
-94.447787
 31
0.0
  0
LINE
  8
0
  6
BYLAYER
 62
     1
 10
148.667977
 20
-95.081775
 30
0.0
 11
149.259690
 21
-95.081775
 31
0.0
  0
ARC
  8
0
  6
BYLAYER
 62
     1
 10
149.259690
 20
-94.764781
 30
0.0
 40
0.316994
 50
270.0
 51
450.000005
  0
LINE
  8
0
  6
BYLAYER
 62
     1
 10
143.747598
 20
-95.823489
 30
0.0
 11
143.198144
 21
-93.771541
 31
0.0
  0
LINE
  8
0
  6
BYLAYER
 62
     1
 10
143.198144
 20
-93.771541
 30
0.0
 11
142.310571
 21
-93.771541
 31
0.0
  0
LINE
  8
0
  6
BYLAYER
 62
     1
 10
142.310571
 20
-93.771541
 30
0.0
 11
143.240411
 21
-96.772388
 31
0.0
  0
LINE
  8
0
  6
BYLAYER
 62
     1
 10
143.747598
 20
-95.823489
 30
0.0
 11
144.297036
 21
-93.771541
 31
0.0
  0
LINE
  8
0
  6
BYLAYER
 62
     1
 10
144.297036
 20
-93.771541
 30
0.0
 11
145.184609
 21
-93.771541
 31
0.0
  0
LINE
  8
0
  6
BYLAYER
 62
     1
 10
145.184609
 20
-93.771541
 30
0.0
 11
144.254769
 21
-96.772388
 31
0.0
  0
LINE
  8
0
  6
BYLAYER
 62
     1
 10
144.254769
 20
-96.772388
 30
0.0
 11
143.240411
 21
-96.772388
 31
0.0
  0
LINE
  8
0
  6
BYLAYER
 62
     1
 10
150.615731
 20
-96.772388
 30
0.0
 11
151.503304
 21
-96.772388
 31
0.0
  0
LINE
  8
0
  6
BYLAYER
 62
     1
 10
151.503304
 20
-96.772388
 30
0.0
 11
151.503304
 21
-93.771541
 31
0.0
  0
LINE
  8
0
  6
BYLAYER
 62
     1
 10
151.503304
 20
-93.771541
 30
0.0
 11
150.615731
 21
-93.771541
 31
0.0
  0
LINE
  8
0
  6
BYLAYER
 62
     1
 10
150.615731
 20
-93.771541
 30
0.0
 11
150.615731
 21
-96.772388
 31
0.0
  0
ARC
  8
0
  6
BYLAYER
 62
     1
 10
153.172791
 20
-95.441204
 30
0.0
 40
1.436850
 50
270.0
 51
308.795693
  0
ARC
  8
0
  6
BYLAYER
 62
     1
 10
153.033727
 20
-95.293101
 30
0.0
 40
1.639484
 50
309.340576
 51
360.000000
  0
ARC
  8
0
  6
BYLAYER
 62
     1
 10
153.033727
 20
-95.293101
 30
0.0
 40
1.639484
 50
0.0
 51
50.659424
  0
ARC
  8
0
  6
BYLAYER
 62
     1
 10
153.172791
 20
-95.144998
 30
0.0
 40
1.436850
 50
51.204307
 51
90.0
  0
ARC
  8
0
  6
BYLAYER
 62
     1
 10
153.172791
 20
-95.144998
 30
0.0
 40
1.436850
 50
90.0
 51
128.795693
  0
ARC
  8
0
  6
BYLAYER
 62
     1
 10
153.311855
 20
-95.293101
 30
0.0
 40
1.639484
 50
129.340576
 51
180.000000
  0
ARC
  8
0
  6
BYLAYER
 62
     1
 10
153.311855
 20
-95.293101
 30
0.0
 40
1.639484
 50
180.000000
 51
230.659424
  0
ARC
  8
0
  6
BYLAYER
 62
     1
 10
153.172791
 20
-95.441204
 30
0.0
 40
1.436850
 50
231.204307
 51
270.000000
  0
ARC
  8
0
  6
BYLAYER
 62
     1
 10
153.172791
 20
-94.871526
 30
0.0
 40
0.664873
 50
39.206799
 51
90.000000
  0
ARC
  8
0
  6
BYLAYER
 62
     1
 10
152.656014
 20
-95.293101
 30
0.0
 40
1.331795
 50
0.0
 51
39.206799
  0
ARC
  8
0
  6
BYLAYER
 62
     1
 10
152.656022
 20
-95.293101
 30
0.0
 40
1.331787
 50
320.793131
 51
360.000000
  0
ARC
  8
0
  6
BYLAYER
 62
     1
 10
153.172791
 20
-95.714671
 30
0.0
 40
0.664875
 50
270.0
 51
320.793131
  0
ARC
  8
0
  6
BYLAYER
 62
     1
 10
153.172791
 20
-95.714671
 30
0.0
 40
0.664875
 50
219.206869
 51
270.000000
  0
ARC
  8
0
  6
BYLAYER
 62
     1
 10
153.689560
 20
-95.293101
 30
0.0
 40
1.331787
 50
180.000000
 51
219.206869
  0
ARC
  8
0
  6
BYLAYER
 62
     1
 10
153.689568
 20
-95.293101
 30
0.0
 40
1.331795
 50
140.793201
 51
180.000000
  0
ARC
  8
0
  6
BYLAYER
 62
     1
 10
153.172791
 20
-94.871526
 30
0.0
 40
0.664873
 50
90.0
 51
140.793201
  0
ARC
  8
0
  6
BYLAYER
 62
     1
 10
138.186860
 20
-90.336177
 30
0.0
 40
3.714997
 50
174.535650
 51
180.000000
  0
LINE
  8
0
  6
BYLAYER
 62
     1
 10
134.488744
 20
-89.982410
 30
0.0
 11
134.488744
 21
-89.982406
 31
0.0
  0
LINE
  8
0
  6
BYLAYER
 62
     1
 10
134.492786
 20
-89.942444
 30
0.0
 11
134.847338
 21
-89.793173
 31
0.0
  0
ARC
  8
0
  6
BYLAYER
 62
     1
 10
138.186875
 20
-90.336208
 30
0.0
 40
3.383391
 50
159.235383
 51
170.763998
  0
LINE
  8
0
  6
BYLAYER
 62
     1
 10
135.023238
 20
-89.136675
 30
0.0
 11
134.790839
 21
-88.830118
 31
0.0
  0
ARC
  8
0
  6
BYLAYER
 62
     1
 10
138.186860
 20
-90.336177
 30
0.0
 40
3.714993
 50
144.139514
 51
156.083795
  0
LINE
  8
0
  6
BYLAYER
 62
     1
 10
135.151628
 20
-88.194080
 30
0.0
 11
135.151849
 21
-88.193767
 31
0.0
  0
LINE
  8
0
  6
BYLAYER
 62
     1
 10
135.176059
 20
-88.159884
 30
0.0
 11
135.553522
 21
-88.211816
 31
0.0
  0
ARC
  8
0
  6
BYLAYER
 62
     1
 10
138.186860
 20
-90.336177
 30
0.0
 40
3.383370
 50
129.235643
 51
141.105976
  0
LINE
  8
0
  6
BYLAYER
 62
     1
 10
135.991517
 20
-87.761748
 30
0.0
 11
135.991883
 21
-87.761432
 31
0.0
  0
LINE
  8
0
  6
BYLAYER
 62
     1
 10
136.046840
 20
-87.715584
 30
0.0
 11
135.998843
 21
-87.333880
 31
0.0
  0
ARC
  8
0
  6
BYLAYER
 62
     1
 10
138.186860
 20
-90.336177
 30
0.0
 40
3.714997
 50
114.139607
 51
126.083853
  0
LINE
  8
0
  6
BYLAYER
 62
     1
 10
136.629586
 20
-86.963329
 30
0.0
 11
136.629838
 21
-86.963210
 31
0.0
  0
LINE
  8
0
  6
BYLAYER
 62
     1
 10
136.667570
 20
-86.946050
 30
0.0
 11
136.968484
 21
-87.179747
 31
0.0
  0
LINE
  8
0
  6
BYLAYER
 62
     1
 10
137.037286
 20
-87.154086
 30
0.0
 11
137.037667
 21
-87.153953
 31
0.0
  0
ARC
  8
0
  6
BYLAYER
 62
     1
 10
138.186860
 20
-90.336177
 30
0.0
 40
3.383369
 50
99.235601
 51
111.106038
  0
ARC
  8
0
  6
BYLAYER
 62
     1
 10
138.186860
 20
-90.336177
 30
0.0
 40
3.714997
 50
90.0
 51
96.083892
  0
LINE
  8
0
  6
BYLAYER
 62
     1
 10
137.793128
 20
-86.642103
 30
0.0
 11
137.643848
 21
-86.996667
 31
0.0
  0
LINE
  8
0
  6
BYLAYER
 62
     1
 10
141.884972
 20
-89.982410
 30
0.0
 11
141.884972
 21
-89.982406
 31
0.0
  0
LINE
  8
0
  6
BYLAYER
 62
     1
 10
141.880934
 20
-89.942444
 30
0.0
 11
141.526364
 21
-89.793169
 31
0.0
  0
ARC
  8
0
  6
BYLAYER
 62
     1
 10
138.186837
 20
-90.336208
 30
0.0
 40
3.383391
 50
9.235986
 51
20.764650
  0
LINE
  8
0
  6
BYLAYER
 62
     1
 10
141.350499
 20
-89.136640
 30
0.0
 11
141.582882
 21
-88.830119
 31
0.0
  0
ARC
  8
0
  6
BYLAYER
 62
     1
 10
138.186860
 20
-90.336177
 30
0.0
 40
3.714993
 50
23.916189
 51
35.860484
  0
LINE
  8
0
  6
BYLAYER
 62
     1
 10
141.222085
 20
-88.194080
 30
0.0
 11
141.221864
 21
-88.193767
 31
0.0
  0
LINE
  8
0
  6
BYLAYER
 62
     1
 10
141.197661
 20
-88.159884
 30
0.0
 11
140.820225
 21
-88.211811
 31
0.0
  0
ARC
  8
0
  6
BYLAYER
 62
     1
 10
138.186860
 20
-90.336177
 30
0.0
 40
3.383370
 50
38.894050
 51
50.764315
  0
LINE
  8
0
  6
BYLAYER
 62
     1
 10
140.382203
 20
-87.761748
 30
0.0
 11
140.381837
 21
-87.761432
 31
0.0
  0
LINE
  8
0
  6
BYLAYER
 62
     1
 10
140.326890
 20
-87.715522
 30
0.0
 11
140.374869
 21
-87.333874
 31
0.0
  0
ARC
  8
0
  6
BYLAYER
 62
     1
 10
138.186860
 20
-90.336177
 30
0.0
 40
3.714997
 50
53.916300
 51
65.860381
  0
LINE
  8
0
  6
BYLAYER
 62
     1
 10
139.744134
 20
-86.963329
 30
0.0
 11
139.743874
 21
-86.963210
 31
0.0
  0
LINE
  8
0
  6
BYLAYER
 62
     1
 10
139.706151
 20
-86.946051
 30
0.0
 11
139.405239
 21
-87.179737
 31
0.0
  0
LINE
  8
0
  6
BYLAYER
 62
     1
 10
139.336427
 20
-87.154086
 30
0.0
 11
139.336053
 21
-87.153953
 31
0.0
  0
ARC
  8
0
  6
BYLAYER
 62
     1
 10
138.186860
 20
-90.336177
 30
0.0
 40
3.383369
 50
68.894081
 51
80.764578
  0
ARC
  8
0
  6
BYLAYER
 62
     1
 10
138.186860
 20
-90.336177
 30
0.0
 40
3.714997
 50
84.535428
 51
90.000003
  0
LINE
  8
0
  6
BYLAYER
 62
     1
 10
138.580594
 20
-86.642103
 30
0.0
 11
138.729837
 21
-86.996607
 31
0.0
  0
ARC
  8
0
  6
BYLAYER
 62
     1
 10
138.186860
 20
-90.336177
 30
0.0
 40
3.714997
 50
180.000000
 51
186.083899
  0
LINE
  8
0
  6
BYLAYER
 62
     1
 10
134.488744
 20
-90.689941
 30
0.0
 11
134.488744
 21
-90.689948
 31
0.0
  0
LINE
  8
0
  6
BYLAYER
 62
     1
 10
134.492786
 20
-90.729910
 30
0.0
 11
134.847348
 21
-90.879186
 31
0.0
  0
ARC
  8
0
  6
BYLAYER
 62
     1
 10
138.186875
 20
-90.336146
 30
0.0
 40
3.383391
 50
189.236002
 51
200.764629
  0
LINE
  8
0
  6
BYLAYER
 62
     1
 10
135.023250
 20
-91.535664
 30
0.0
 11
134.790837
 21
-91.842233
 31
0.0
  0
ARC
  8
0
  6
BYLAYER
 62
     1
 10
138.186860
 20
-90.336177
 30
0.0
 40
3.714993
 50
203.916158
 51
215.860410
  0
LINE
  8
0
  6
BYLAYER
 62
     1
 10
135.151628
 20
-92.478271
 30
0.0
 11
135.151849
 21
-92.478583
 31
0.0
  0
LINE
  8
0
  6
BYLAYER
 62
     1
 10
135.176056
 20
-92.512466
 30
0.0
 11
135.553554
 21
-92.460535
 31
0.0
  0
ARC
  8
0
  6
BYLAYER
 62
     1
 10
138.186860
 20
-90.336177
 30
0.0
 40
3.383370
 50
218.894045
 51
230.764345
  0
LINE
  8
0
  6
BYLAYER
 62
     1
 10
135.991517
 20
-92.910602
 30
0.0
 11
135.991883
 21
-92.910918
 31
0.0
  0
LINE
  8
0
  6
BYLAYER
 62
     1
 10
136.046840
 20
-92.956770
 30
0.0
 11
135.998843
 21
-93.338474
 31
0.0
  0
ARC
  8
0
  6
BYLAYER
 62
     1
 10
138.186860
 20
-90.336177
 30
0.0
 40
3.714997
 50
233.916148
 51
245.860401
  0
LINE
  8
0
  6
BYLAYER
 62
     1
 10
136.629586
 20
-93.709022
 30
0.0
 11
136.629838
 21
-93.709144
 31
0.0
  0
LINE
  8
0
  6
BYLAYER
 62
     1
 10
136.667570
 20
-93.726304
 30
0.0
 11
136.968520
 21
-93.492574
 31
0.0
  0
LINE
  8
0
  6
BYLAYER
 62
     1
 10
137.037286
 20
-93.518264
 30
0.0
 11
137.037667
 21
-93.518401
 31
0.0
  0
LINE
  8
0
  6
BYLAYER
 62
     1
 10
141.884972
 20
-90.689941
 30
0.0
 11
141.884972
 21
-90.689948
 31
0.0
  0
LINE
  8
0
  6
BYLAYER
 62
     1
 10
141.880933
 20
-90.729910
 30
0.0
 11
141.526364
 21
-90.879185
 31
0.0
  0
LINE
  8
0
  6
BYLAYER
 62
     1
 10
141.350466
 20
-91.535672
 30
0.0
 11
141.582886
 21
-91.842236
 31
0.0
  0
LINE
  8
0
  6
BYLAYER
 62
     1
 10
141.222085
 20
-92.478271
 30
0.0
 11
141.221864
 21
-92.478583
 31
0.0
  0
LINE
  8
0
  6
BYLAYER
 62
     1
 10
141.197668
 20
-92.512467
 30
0.0
 11
140.820145
 21
-92.460533
 31
0.0
  0
LINE
  8
0
  6
BYLAYER
 62
     1
 10
140.382203
 20
-92.910602
 30
0.0
 11
140.381837
 21
-92.910918
 31
0.0
  0
LINE
  8
0
  6
BYLAYER
 62
     1
 10
140.326882
 20
-92.956768
 30
0.0
 11
140.374869
 21
-93.338480
 31
0.0
  0
LINE
  8
0
  6
BYLAYER
 62
     1
 10
139.706151
 20
-93.726304
 30
0.0
 11
139.405194
 21
-93.492577
 31
0.0
  0
ARC
  8
0
  6
BYLAYER
 62
     1
 10
138.186860
 20
-90.336177
 30
0.0
 40
3.383370
 50
309.235697
 51
321.105929
  0
ARC
  8
0
  6
BYLAYER
 62
     1
 10
138.186860
 20
-90.336177
 30
0.0
 40
3.383369
 50
248.893873
 51
270.000000
  0
ARC
  8
0
  6
BYLAYER
 62
     1
 10
138.186860
 20
-90.336177
 30
0.0
 40
3.714997
 50
294.783232
 51
306.083699
  0
LINE
  8
0
  6
BYLAYER
 62
     1
 10
139.743874
 20
-93.709144
 30
0.0
 11
139.706379
 21
-93.726788
 31
0.0
  0
ARC
  8
0
  6
BYLAYER
 62
     1
 10
138.186860
 20
-90.336177
 30
0.0
 40
3.714993
 50
324.139593
 51
336.083825
  0
ARC
  8
0
  6
BYLAYER
 62
     1
 10
138.186837
 20
-90.336146
 30
0.0
 40
3.383391
 50
339.235210
 51
350.764014
  0
ARC
  8
0
  6
BYLAYER
 62
     1
 10
138.186860
 20
-90.336177
 30
0.0
 40
3.714997
 50
353.916089
 51
360.000000
  0
ARC
  8
0
  6
BYLAYER
 62
     1
 10
138.186860
 20
-90.336177
 30
0.0
 40
3.714997
 50
0.0
 51
6.083907
  0
ARC
  8
0
  6
BYLAYER
 62
     1
 10
138.186860
 20
-90.336177
 30
0.0
 40
3.383369
 50
270.0
 51
291.106008
  0
CIRCLE
  8
0
  6
BYLAYER
 62
     1
 10
138.186860
 20
-90.336177
 30
0.0
 40
1.815040
  0
CIRCLE
  8
0
  6
BYLAYER
 62
     1
 10
138.186860
 20
-90.336177
 30
0.0
 40
2.648016
  0
LINE
  8
0
  6
BYLAYER
 62
     1
 10
142.436860
 20
-149.836177
 30
0.0
 11
139.436860
 21
-149.836177
 31
0.0
  0
LINE
  8
0
  6
BYLAYER
 62
     1
 10
142.436860
 20
-149.836177
 30
0.0
 11
142.436860
 21
-152.836177
 31
0.0
  0
LINE
  8
0
  6
BYLAYER
 62
     1
 10
142.436860
 20
-149.836177
 30
0.0
 11
145.436860
 21
-149.836177
 31
0.0
  0
LINE
  8
0
  6
BYLAYER
 62
     1
 10
142.436860
 20
-149.836177
 30
0.0
 11
142.436860
 21
-146.836177
 31
0.0
  0
ARC
  8
0
  6
BYLAYER
 62
     1
 10
175.924351
 20
-125.324181
 30
0.0
 40
2.000000
 50
355.957305
 51
396.203183
  0
LINE
  8
0
  6
BYLAYER
 62
     1
 10
713.936860
 20
-539.836238
 30
0.0
 11
699.936860
 21
-539.836238
 31
0.0
  0
LINE
  8
0
  6
BYLAYER
 62
     1
 10
642.936860
 20
-539.836238
 30
0.0
 11
656.936860
 21
-539.836238
 31
0.0
  0
CIRCLE
  8
0
  6
BYLAYER
 62
     1
 10
648.436860
 20
-434.836177
 30
0.0
 40
3.250001
  0
CIRCLE
  8
0
  6
BYLAYER
 62
     1
 10
708.436860
 20
-434.836177
 30
0.0
 40
3.250001
  0
LINE
  8
0
  6
BYLAYER
 62
     1
 10
713.936860
 20
-514.836177
 30
0.0
 11
712.436860
 21
-513.336208
 31
0.0
  0
LINE
  8
0
  6
BYLAYER
 62
     1
 10
713.936860
 20
-539.836238
 30
0.0
 11
713.936860
 21
-529.200832
 31
0.0
  0
LINE
  8
0
  6
BYLAYER
 62
     1
 10
713.936860
 20
-520.471522
 30
0.0
 11
713.936860
 21
-514.836177
 31
0.0
  0
CIRCLE
  8
0
  6
BYLAYER
 62
     1
 10
678.436860
 20
-449.836177
 30
0.0
 40
20.0
  0
LINE
  8
0
  6
BYLAYER
 62
     1
 10
642.936860
 20
-539.836238
 30
0.0
 11
642.936860
 21
-529.200832
 31
0.0
  0
LINE
  8
0
  6
BYLAYER
 62
     1
 10
642.936860
 20
-520.471522
 30
0.0
 11
642.936860
 21
-514.836177
 31
0.0
  0
LINE
  8
0
  6
BYLAYER
 62
     1
 10
642.936860
 20
-514.836177
 30
0.0
 11
644.436860
 21
-513.336208
 31
0.0
  0
LINE
  8
0
  6
BYLAYER
 62
     1
 10
656.936860
 20
-514.836177
 30
0.0
 11
642.936860
 21
-514.836177
 31
0.0
  0
LINE
  8
0
  6
BYLAYER
 62
     1
 10
699.936860
 20
-513.336208
 30
0.0
 11
712.436860
 21
-513.336208
 31
0.0
  0
LINE
  8
0
  6
BYLAYER
 62
     1
 10
699.936860
 20
-514.836177
 30
0.0
 11
713.936860
 21
-514.836177
 31
0.0
  0
CIRCLE
  8
0
  6
BYLAYER
 62
     1
 10
678.436860
 20
-423.586177
 30
0.0
 40
3.0
  0
CIRCLE
  8
0
  6
BYLAYER
 62
     1
 10
655.703706
 20
-462.961208
 30
0.0
 40
3.0
  0
CIRCLE
  8
0
  6
BYLAYER
 62
     1
 10
701.170014
 20
-462.961208
 30
0.0
 40
3.0
  0
LINE
  8
0
  6
BYLAYER
 62
     1
 10
656.936860
 20
-513.336208
 30
0.0
 11
644.436860
 21
-513.336208
 31
0.0
  0
LINE
  8
0
  6
BYLAYER
 62
     1
 10
642.936860
 20
-533.336208
 30
0.0
 11
641.936860
 21
-533.336208
 31
0.0
  0
LINE
  8
0
  6
BYLAYER
 62
     1
 10
641.936860
 20
-446.336208
 30
0.0
 11
644.436860
 21
-446.336208
 31
0.0
  0
LINE
  8
0
  6
BYLAYER
 62
     1
 10
641.936860
 20
-446.336208
 30
0.0
 11
641.936860
 21
-533.336208
 31
0.0
  0
LINE
  8
0
  6
BYLAYER
 62
     1
 10
699.936860
 20
-468.064326
 30
0.0
 11
699.936860
 21
-539.836238
 31
0.0
  0
LINE
  8
0
  6
BYLAYER
 62
     1
 10
656.936860
 20
-468.064326
 30
0.0
 11
656.936860
 21
-539.836238
 31
0.0
  0
LINE
  8
0
  6
BYLAYER
 62
     1
 10
642.936860
 20
-443.336177
 30
0.0
 11
644.436860
 21
-444.836177
 31
0.0
  0
LINE
  8
0
  6
BYLAYER
 62
     1
 10
642.936860
 20
-443.336177
 30
0.0
 11
642.936860
 21
-418.336177
 31
0.0
  0
LINE
  8
0
  6
BYLAYER
 62
     1
 10
642.936860
 20
-418.336177
 30
0.0
 11
656.936860
 21
-418.336177
 31
0.0
  0
LINE
  8
0
  6
BYLAYER
 62
     1
 10
713.936860
 20
-418.336177
 30
0.0
 11
699.936860
 21
-418.336177
 31
0.0
  0
LINE
  8
0
  6
BYLAYER
 62
     1
 10
713.936860
 20
-443.336177
 30
0.0
 11
713.936860
 21
-418.336177
 31
0.0
  0
LINE
  8
0
  6
BYLAYER
 62
     1
 10
713.936860
 20
-443.336177
 30
0.0
 11
712.436860
 21
-444.836177
 31
0.0
  0
LINE
  8
0
  6
BYLAYER
 62
     1
 10
644.436860
 20
-513.336208
 30
0.0
 11
644.436860
 21
-444.836177
 31
0.0
  0
LINE
  8
0
  6
BYLAYER
 62
     1
 10
712.436860
 20
-513.336208
 30
0.0
 11
712.436860
 21
-444.836177
 31
0.0
  0
LINE
  8
0
  6
BYLAYER
 62
     1
 10
682.111085
 20
-419.836177
 30
0.0
 11
699.936860
 21
-419.836177
 31
0.0
  0
LINE
  8
0
  6
BYLAYER
 62
     1
 10
656.936860
 20
-419.836177
 30
0.0
 11
674.762635
 21
-419.836177
 31
0.0
  0
LINE
  8
0
  6
BYLAYER
 62
     1
 10
639.936891
 20
-459.836208
 30
0.0
 11
639.436891
 21
-460.336208
 31
0.0
  0
LINE
  8
0
  6
BYLAYER
 62
     1
 10
639.936891
 20
-519.836177
 30
0.0
 11
639.436891
 21
-519.336177
 31
0.0
  0
LINE
  8
0
  6
BYLAYER
 62
     1
 10
639.436891
 20
-519.336177
 30
0.0
 11
639.436891
 21
-460.336208
 31
0.0
  0
LINE
  8
0
  6
BYLAYER
 62
     1
 10
639.936891
 20
-519.836177
 30
0.0
 11
641.536866
 21
-519.836177
 31
0.0
  0
ARC
  8
0
  6
BYLAYER
 62
     1
 10
641.536866
 20
-520.236201
 30
0.0
 40
0.399994
 50
0.0
 51
90.000003
  0
LINE
  8
0
  6
BYLAYER
 62
     1
 10
641.536866
 20
-459.836208
 30
0.0
 11
639.936891
 21
-459.836208
 31
0.0
  0
ARC
  8
0
  6
BYLAYER
 62
     1
 10
641.536866
 20
-459.436214
 30
0.0
 40
0.399994
 50
270.0
 51
360.000003
  0
LINE
  8
0
  6
BYLAYER
 62
     1
 10
653.337068
 20
-443.336177
 30
0.0
 11
642.936860
 21
-443.336177
 31
0.0
  0
ARC
  8
0
  6
BYLAYER
 62
     1
 10
653.337068
 20
-445.336177
 30
0.0
 40
2.0
 50
349.835836
 51
450.000000
  0
LINE
  8
0
  6
BYLAYER
 62
     1
 10
656.936860
 20
-433.404506
 30
0.0
 11
656.936860
 21
-418.336177
 31
0.0
  0
ARC
  8
0
  6
BYLAYER
 62
     1
 10
658.936860
 20
-433.404506
 30
0.0
 40
2.0
 50
180.000000
 51
319.881004
  0
ARC
  8
0
  6
BYLAYER
 62
     1
 10
678.436860
 20
-449.836177
 30
0.0
 40
23.499983
 50
106.021611
 51
139.880826
  0
ARC
  8
0
  6
BYLAYER
 62
     1
 10
671.398866
 20
-425.326656
 30
0.0
 40
2.000017
 50
286.021521
 51
373.890361
  0
ARC
  8
0
  6
BYLAYER
 62
     1
 10
678.436860
 20
-423.586177
 30
0.0
 40
5.249994
 50
346.109564
 51
553.890434
  0
ARC
  8
0
  6
BYLAYER
 62
     1
 10
685.474824
 20
-425.326656
 30
0.0
 40
1.999985
 50
166.109436
 51
253.979054
  0
ARC
  8
0
  6
BYLAYER
 62
     1
 10
678.436860
 20
-449.836177
 30
0.0
 40
23.499992
 50
40.119172
 51
73.978414
  0
LINE
  8
0
  6
BYLAYER
 62
     1
 10
699.936860
 20
-433.404506
 30
0.0
 11
699.936860
 21
-418.336177
 31
0.0
  0
ARC
  8
0
  6
BYLAYER
 62
     1
 10
697.936860
 20
-433.404506
 30
0.0
 40
2.000005
 50
220.118993
 51
359.999996
  0
LINE
  8
0
  6
BYLAYER
 62
     1
 10
703.536652
 20
-443.336177
 30
0.0
 11
713.936860
 21
-443.336177
 31
0.0
  0
ARC
  8
0
  6
BYLAYER
 62
     1
 10
703.536652
 20
-445.336177
 30
0.0
 40
1.999985
 50
90.0
 51
190.164171
  0
ARC
  8
0
  6
BYLAYER
 62
     1
 10
678.436860
 20
-449.836177
 30
0.0
 40
23.499996
 50
346.021509
 51
370.164259
  0
ARC
  8
0
  6
BYLAYER
 62
     1
 10
703.181703
 20
-455.995875
 30
0.0
 40
1.999987
 50
166.022064
 51
253.891054
  0
ARC
  8
0
  6
BYLAYER
 62
     1
 10
701.170014
 20
-462.961208
 30
0.0
 40
5.250013
 50
226.109533
 51
433.890322
  0
ARC
  8
0
  6
BYLAYER
 62
     1
 10
655.703706
 20
-462.961208
 30
0.0
 40
5.250010
 50
106.109680
 51
313.890468
  0
ARC
  8
0
  6
BYLAYER
 62
     1
 10
678.436860
 20
-449.836177
 30
0.0
 40
23.500008
 50
169.835741
 51
193.978493
  0
ARC
  8
0
  6
BYLAYER
 62
     1
 10
653.691987
 20
-455.995906
 30
0.0
 40
1.999986
 50
286.110040
 51
373.978573
  0
LINE
  8
0
  6
BYLAYER
 62
     1
 10
655.273560
 20
-444.836177
 30
0.0
 11
644.436860
 21
-444.836177
 31
0.0
  0
LINE
  8
0
  6
BYLAYER
 62
     1
 10
712.436860
 20
-444.836177
 30
0.0
 11
701.600190
 21
-444.836177
 31
0.0
  0
ARC
  8
0
  6
BYLAYER
 62
     1
 10
643.936860
 20
-520.471522
 30
0.0
 40
1.0
 50
180.000000
 51
267.938986
  0
ARC
  8
0
  6
BYLAYER
 62
     1
 10
708.436860
 20
-524.836177
 30
0.0
 40
3.2
 50
92.061012
 51
267.938984
  0
LINE
  8
0
  6
BYLAYER
 62
     1
 10
712.972810
 20
-521.470882
 30
0.0
 11
708.321778
 21
-521.638240
 31
0.0
  0
LINE
  8
0
  6
BYLAYER
 62
     1
 10
712.972810
 20
-528.201472
 30
0.0
 11
708.321778
 21
-528.034114
 31
0.0
  0
ARC
  8
0
  6
BYLAYER
 62
     1
 10
648.436860
 20
-524.836177
 30
0.0
 40
3.200000
 50
272.061014
 51
447.938986
  0
LINE
  8
0
  6
BYLAYER
 62
     1
 10
643.900910
 20
-521.470882
 30
0.0
 11
648.551942
 21
-521.638240
 31
0.0
  0
LINE
  8
0
  6
BYLAYER
 62
     1
 10
643.900910
 20
-528.201472
 30
0.0
 11
648.551942
 21
-528.034114
 31
0.0
  0
ARC
  8
0
  6
BYLAYER
 62
     1
 10
643.936860
 20
-529.200832
 30
0.0
 40
1.000000
 50
92.061012
 51
179.999998
  0
ARC
  8
0
  6
BYLAYER
 62
     1
 10
712.936860
 20
-520.471522
 30
0.0
 40
1.0
 50
272.061014
 51
360.000000
  0
ARC
  8
0
  6
BYLAYER
 62
     1
 10
712.936860
 20
-529.200832
 30
0.0
 40
1.0
 50
0.0
 51
87.938986
  0
LINE
  8
0
  6
BYLAYER
 62
     1
 10
713.936860
 20
-533.336208
 30
0.0
 11
714.936860
 21
-533.336208
 31
0.0
  0
LINE
  8
0
  6
BYLAYER
 62
     1
 10
714.936860
 20
-446.336208
 30
0.0
 11
712.436860
 21
-446.336208
 31
0.0
  0
LINE
  8
0
  6
BYLAYER
 62
     1
 10
714.936860
 20
-446.336208
 30
0.0
 11
714.936860
 21
-533.336208
 31
0.0
  0
LINE
  8
0
  6
BYLAYER
 62
     1
 10
716.936799
 20
-459.836208
 30
0.0
 11
717.436799
 21
-460.336208
 31
0.0
  0
LINE
  8
0
  6
BYLAYER
 62
     1
 10
716.936799
 20
-519.836177
 30
0.0
 11
717.436799
 21
-519.336177
 31
0.0
  0
LINE
  8
0
  6
BYLAYER
 62
     1
 10
717.436799
 20
-519.336177
 30
0.0
 11
717.436799
 21
-460.336208
 31
0.0
  0
LINE
  8
0
  6
BYLAYER
 62
     1
 10
716.936799
 20
-519.836177
 30
0.0
 11
715.336823
 21
-519.836177
 31
0.0
  0
ARC
  8
0
  6
BYLAYER
 62
     1
 10
715.336823
 20
-520.236201
 30
0.0
 40
0.399994
 50
90.0
 51
180.000003
  0
LINE
  8
0
  6
BYLAYER
 62
     1
 10
715.336823
 20
-459.836208
 30
0.0
 11
716.936799
 21
-459.836208
 31
0.0
  0
ARC
  8
0
  6
BYLAYER
 62
     1
 10
715.336823
 20
-459.436214
 30
0.0
 40
0.399994
 50
180.000000
 51
270.000003
  0
LINE
  8
0
  6
BYLAYER
 62
     1
 10
656.936860
 20
-537.836177
 30
0.0
 11
699.936860
 21
-537.836177
 31
0.0
  0
ARC
  8
0
  6
BYLAYER
 62
     1
 10
678.436860
 20
-449.836177
 30
0.0
 40
23.499996
 50
226.021628
 51
313.978359
  0
ARC
  8
0
  6
BYLAYER
 62
     1
 10
660.730012
 20
-468.186031
 30
0.0
 40
1.999988
 50
46.021938
 51
133.890873
  0
ARC
  8
0
  6
BYLAYER
 62
     1
 10
696.143708
 20
-468.186031
 30
0.0
 40
1.999997
 50
46.109125
 51
133.978067
  0
LINE
  8
0
  6
BYLAYER
 62
     1
 10
192.436906
 20
-414.336223
 30
0.0
 11
192.436906
 21
-428.336162
 31
0.0
  0
LINE
  8
0
  6
BYLAYER
 62
     1
 10
192.436906
 20
-485.336177
 30
0.0
 11
192.436906
 21
-471.336177
 31
0.0
  0
LINE
  8
0
  6
BYLAYER
 62
     1
 10
167.436875
 20
-414.336223
 30
0.0
 11
165.936875
 21
-415.836223
 31
0.0
  0
LINE
  8
0
  6
BYLAYER
 62
     1
 10
192.436906
 20
-414.336223
 30
0.0
 11
167.436875
 21
-414.336223
 31
0.0
  0
LINE
  8
0
  6
BYLAYER
 62
     1
 10
192.436906
 20
-485.336177
 30
0.0
 11
167.436875
 21
-485.336177
 31
0.0
  0
LINE
  8
0
  6
BYLAYER
 62
     1
 10
167.436875
 20
-485.336177
 30
0.0
 11
165.936875
 21
-483.836177
 31
0.0
  0
CIRCLE
  8
0
  6
BYLAYER
 62
     1
 10
177.436875
 20
-419.836223
 30
0.0
 40
3.250001
  0
CIRCLE
  8
0
  6
BYLAYER
 62
     1
 10
177.436875
 20
-479.836177
 30
0.0
 40
3.250001
  0
LINE
  8
0
  6
BYLAYER
 62
     1
 10
167.436875
 20
-428.336162
 30
0.0
 11
167.436875
 21
-414.336223
 31
0.0
  0
LINE
  8
0
  6
BYLAYER
 62
     1
 10
167.436875
 20
-471.336177
 30
0.0
 11
167.436875
 21
-485.336177
 31
0.0
  0
LINE
  8
0
  6
BYLAYER
 62
     1
 10
117.436845
 20
-414.336223
 30
0.0
 11
118.936845
 21
-415.836223
 31
0.0
  0
LINE
  8
0
  6
BYLAYER
 62
     1
 10
92.436845
 20
-414.336223
 30
0.0
 11
117.436845
 21
-414.336223
 31
0.0
  0
LINE
  8
0
  6
BYLAYER
 62
     1
 10
92.436845
 20
-485.336177
 30
0.0
 11
117.436845
 21
-485.336177
 31
0.0
  0
LINE
  8
0
  6
BYLAYER
 62
     1
 10
117.436845
 20
-485.336177
 30
0.0
 11
118.936845
 21
-483.836177
 31
0.0
  0
CIRCLE
  8
0
  6
BYLAYER
 62
     1
 10
107.436845
 20
-419.836223
 30
0.0
 40
3.250001
  0
CIRCLE
  8
0
  6
BYLAYER
 62
     1
 10
107.436845
 20
-479.836177
 30
0.0
 40
3.250001
  0
LINE
  8
0
  6
BYLAYER
 62
     1
 10
117.436845
 20
-428.336162
 30
0.0
 11
117.436845
 21
-414.336223
 31
0.0
  0
LINE
  8
0
  6
BYLAYER
 62
     1
 10
117.436845
 20
-471.336177
 30
0.0
 11
117.436845
 21
-485.336177
 31
0.0
  0
LINE
  8
0
  6
BYLAYER
 62
     1
 10
165.936875
 20
-415.836223
 30
0.0
 11
118.936845
 21
-415.836223
 31
0.0
  0
LINE
  8
0
  6
BYLAYER
 62
     1
 10
165.936875
 20
-483.836177
 30
0.0
 11
118.936845
 21
-483.836177
 31
0.0
  0
LINE
  8
0
  6
BYLAYER
 62
     1
 10
193.436906
 20
-483.336177
 30
0.0
 11
193.436906
 21
-416.336162
 31
0.0
  0
LINE
  8
0
  6
BYLAYER
 62
     1
 10
193.436906
 20
-483.336177
 30
0.0
 11
192.436906
 21
-483.371089
 31
0.0
  0
LINE
  8
0
  6
BYLAYER
 62
     1
 10
193.436906
 20
-416.336162
 30
0.0
 11
192.436906
 21
-416.301250
 31
0.0
  0
LINE
  8
0
  6
BYLAYER
 62
     1
 10
92.436845
 20
-485.336177
 30
0.0
 11
92.436845
 21
-414.336223
 31
0.0
  0
ARC
  8
0
  6
BYLAYER
 62
     1
 10
177.436906
 20
-429.336162
 30
0.0
 40
1.000000
 50
0.0
 51
90.000016
  0
ARC
  8
0
  6
BYLAYER
 62
     1
 10
177.436906
 20
-470.336177
 30
0.0
 40
1.0
 50
270.0
 51
359.999982
  0
LINE
  8
0
  6
BYLAYER
 62
     1
 10
192.436906
 20
-428.336162
 30
0.0
 11
92.436967
 21
-428.336162
 31
0.0
  0
LINE
  8
0
  6
BYLAYER
 62
     1
 10
192.436906
 20
-471.336177
 30
0.0
 11
92.436967
 21
-471.336177
 31
0.0
  0
ARC
  8
0
  6
BYLAYER
 62
     1
 10
107.436967
 20
-429.336162
 30
0.0
 40
1.000000
 50
90.0
 51
180.000016
  0
ARC
  8
0
  6
BYLAYER
 62
     1
 10
107.436967
 20
-470.336177
 30
0.0
 40
1.000000
 50
180.000000
 51
269.999982
  0
LINE
  8
0
  6
BYLAYER
 62
     1
 10
165.936875
 20
-471.336177
 30
0.0
 11
165.936875
 21
-483.836177
 31
0.0
  0
LINE
  8
0
  6
BYLAYER
 62
     1
 10
118.936845
 20
-471.336177
 30
0.0
 11
118.936845
 21
-483.836177
 31
0.0
  0
LINE
  8
0
  6
BYLAYER
 62
     1
 10
165.936875
 20
-428.336162
 30
0.0
 11
165.936875
 21
-415.836223
 31
0.0
  0
LINE
  8
0
  6
BYLAYER
 62
     1
 10
118.936845
 20
-428.336162
 30
0.0
 11
118.936845
 21
-415.836223
 31
0.0
  0
LINE
  8
0
  6
BYLAYER
 62
     1
 10
178.436906
 20
-466.836177
 30
0.0
 11
178.436906
 21
-470.336177
 31
0.0
  0
LINE
  8
0
  6
BYLAYER
 62
     1
 10
98.936875
 20
-413.336192
 30
0.0
 11
185.936875
 21
-413.336192
 31
0.0
  0
LINE
  8
0
  6
BYLAYER
 62
     1
 10
98.936875
 20
-413.336192
 30
0.0
 11
98.936875
 21
-414.336253
 31
0.0
  0
LINE
  8
0
  6
BYLAYER
 62
     1
 10
185.936875
 20
-413.336192
 30
0.0
 11
185.936875
 21
-414.336223
 31
0.0
  0
LINE
  8
0
  6
BYLAYER
 62
     1
 10
192.436891
 20
-417.776164
 30
0.0
 11
192.436891
 21
-415.836223
 31
0.0
  0
LINE
  8
0
  6
BYLAYER
 62
     1
 10
192.436891
 20
-481.896205
 30
0.0
 11
192.436891
 21
-483.836146
 31
0.0
  0
LINE
  8
0
  6
BYLAYER
 62
     1
 10
178.436906
 20
-456.836177
 30
0.0
 11
170.436906
 21
-456.836177
 31
0.0
  0
LINE
  8
0
  6
BYLAYER
 62
     1
 10
170.436906
 20
-458.836177
 30
0.0
 11
178.436906
 21
-458.836177
 31
0.0
  0
LINE
  8
0
  6
BYLAYER
 62
     1
 10
170.436906
 20
-440.836177
 30
0.0
 11
178.436906
 21
-440.836177
 31
0.0
  0
LINE
  8
0
  6
BYLAYER
 62
     1
 10
178.436906
 20
-442.836177
 30
0.0
 11
170.436906
 21
-442.836177
 31
0.0
  0
LINE
  8
0
  6
BYLAYER
 62
     1
 10
172.436875
 20
-411.336223
 30
0.0
 11
171.936875
 21
-410.836223
 31
0.0
  0
LINE
  8
0
  6
BYLAYER
 62
     1
 10
112.436845
 20
-411.336223
 30
0.0
 11
112.936845
 21
-410.836223
 31
0.0
  0
LINE
  8
0
  6
BYLAYER
 62
     1
 10
112.936845
 20
-410.836223
 30
0.0
 11
171.936875
 21
-410.836223
 31
0.0
  0
LINE
  8
0
  6
BYLAYER
 62
     1
 10
112.436845
 20
-412.936198
 30
0.0
 11
112.436845
 21
-411.336223
 31
0.0
  0
ARC
  8
0
  6
BYLAYER
 62
     1
 10
112.036843
 20
-412.936198
 30
0.0
 40
0.399994
 50
270.0
 51
360.000003
  0
LINE
  8
0
  6
BYLAYER
 62
     1
 10
172.436875
 20
-411.336223
 30
0.0
 11
172.436875
 21
-412.936198
 31
0.0
  0
ARC
  8
0
  6
BYLAYER
 62
     1
 10
172.836869
 20
-412.936198
 30
0.0
 40
0.399994
 50
180.000000
 51
269.999996
  0
LINE
  8
0
  6
BYLAYER
 62
     1
 10
178.436906
 20
-464.836177
 30
0.0
 11
178.436906
 21
-458.836177
 31
0.0
  0
LINE
  8
0
  6
BYLAYER
 62
     1
 10
178.436906
 20
-456.836177
 30
0.0
 11
178.436906
 21
-450.836177
 31
0.0
  0
LINE
  8
0
  6
BYLAYER
 62
     1
 10
178.436906
 20
-448.836177
 30
0.0
 11
178.436906
 21
-442.836177
 31
0.0
  0
LINE
  8
0
  6
BYLAYER
 62
     1
 10
178.436906
 20
-440.836177
 30
0.0
 11
178.436906
 21
-434.836162
 31
0.0
  0
LINE
  8
0
  6
BYLAYER
 62
     1
 10
178.436906
 20
-432.836162
 30
0.0
 11
178.436906
 21
-429.336162
 31
0.0
  0
LINE
  8
0
  6
BYLAYER
 62
     1
 10
106.436967
 20
-470.336177
 30
0.0
 11
106.436967
 21
-466.836177
 31
0.0
  0
LINE
  8
0
  6
BYLAYER
 62
     1
 10
106.436967
 20
-464.836177
 30
0.0
 11
106.436967
 21
-458.836177
 31
0.0
  0
LINE
  8
0
  6
BYLAYER
 62
     1
 10
106.436967
 20
-456.836177
 30
0.0
 11
106.436967
 21
-450.836177
 31
0.0
  0
LINE
  8
0
  6
BYLAYER
 62
     1
 10
106.436967
 20
-448.836177
 30
0.0
 11
106.436967
 21
-442.836177
 31
0.0
  0
LINE
  8
0
  6
BYLAYER
 62
     1
 10
106.436967
 20
-440.836177
 30
0.0
 11
106.436967
 21
-434.836162
 31
0.0
  0
LINE
  8
0
  6
BYLAYER
 62
     1
 10
106.436967
 20
-432.836162
 30
0.0
 11
106.436967
 21
-429.336162
 31
0.0
  0
LINE
  8
0
  6
BYLAYER
 62
     1
 10
178.436906
 20
-448.836177
 30
0.0
 11
171.211900
 21
-448.836177
 31
0.0
  0
LINE
  8
0
  6
BYLAYER
 62
     1
 10
178.436906
 20
-450.836177
 30
0.0
 11
171.211900
 21
-450.836177
 31
0.0
  0
LINE
  8
0
  6
BYLAYER
 62
     1
 10
98.936875
 20
-486.336162
 30
0.0
 11
185.936875
 21
-486.336162
 31
0.0
  0
LINE
  8
0
  6
BYLAYER
 62
     1
 10
98.936875
 20
-486.336162
 30
0.0
 11
98.936875
 21
-485.336101
 31
0.0
  0
LINE
  8
0
  6
BYLAYER
 62
     1
 10
185.936875
 20
-486.336162
 30
0.0
 11
185.936875
 21
-485.336131
 31
0.0
  0
LINE
  8
0
  6
BYLAYER
 62
     1
 10
172.436875
 20
-488.336131
 30
0.0
 11
171.936875
 21
-488.836131
 31
0.0
  0
LINE
  8
0
  6
BYLAYER
 62
     1
 10
112.436845
 20
-488.336131
 30
0.0
 11
112.936845
 21
-488.836131
 31
0.0
  0
LINE
  8
0
  6
BYLAYER
 62
     1
 10
112.936845
 20
-488.836131
 30
0.0
 11
171.936875
 21
-488.836131
 31
0.0
  0
LINE
  8
0
  6
BYLAYER
 62
     1
 10
112.436845
 20
-486.736156
 30
0.0
 11
112.436845
 21
-488.336131
 31
0.0
  0
ARC
  8
0
  6
BYLAYER
 62
     1
 10
112.036843
 20
-486.736156
 30
0.0
 40
0.399994
 50
0.0
 51
90.000003
  0
LINE
  8
0
  6
BYLAYER
 62
     1
 10
172.436875
 20
-488.336131
 30
0.0
 11
172.436875
 21
-486.736156
 31
0.0
  0
ARC
  8
0
  6
BYLAYER
 62
     1
 10
172.836869
 20
-486.736156
 30
0.0
 40
0.399994
 50
90.0
 51
179.999996
  0
LINE
  8
0
  6
BYLAYER
 62
     1
 10
122.436875
 20
-432.836162
 30
0.0
 11
106.436967
 21
-432.836162
 31
0.0
  0
LINE
  8
0
  6
BYLAYER
 62
     1
 10
122.436875
 20
-434.836162
 30
0.0
 11
106.436967
 21
-434.836162
 31
0.0
  0
LINE
  8
0
  6
BYLAYER
 62
     1
 10
122.436875
 20
-464.836177
 30
0.0
 11
106.436967
 21
-464.836177
 31
0.0
  0
LINE
  8
0
  6
BYLAYER
 62
     1
 10
122.436875
 20
-466.836177
 30
0.0
 11
106.436967
 21
-466.836177
 31
0.0
  0
LINE
  8
0
  6
BYLAYER
 62
     1
 10
178.436906
 20
-434.836162
 30
0.0
 11
157.436875
 21
-434.836162
 31
0.0
  0
LINE
  8
0
  6
BYLAYER
 62
     1
 10
178.436906
 20
-432.836162
 30
0.0
 11
157.436875
 21
-432.836162
 31
0.0
  0
LINE
  8
0
  6
BYLAYER
 62
     1
 10
178.436906
 20
-464.836177
 30
0.0
 11
157.436875
 21
-464.836177
 31
0.0
  0
LINE
  8
0
  6
BYLAYER
 62
     1
 10
178.436906
 20
-466.836177
 30
0.0
 11
157.436875
 21
-466.836177
 31
0.0
  0
LINE
  8
0
  6
BYLAYER
 62
     1
 10
119.436875
 20
-440.836177
 30
0.0
 11
106.436967
 21
-440.836177
 31
0.0
  0
LINE
  8
0
  6
BYLAYER
 62
     1
 10
119.436875
 20
-442.836177
 30
0.0
 11
106.436967
 21
-442.836177
 31
0.0
  0
LINE
  8
0
  6
BYLAYER
 62
     1
 10
119.436875
 20
-456.836177
 30
0.0
 11
106.436967
 21
-456.836177
 31
0.0
  0
LINE
  8
0
  6
BYLAYER
 62
     1
 10
119.436875
 20
-458.836177
 30
0.0
 11
106.436967
 21
-458.836177
 31
0.0
  0
LINE
  8
0
  6
BYLAYER
 62
     1
 10
106.436967
 20
-448.836177
 30
0.0
 11
122.436875
 21
-448.836177
 31
0.0
  0
LINE
  8
0
  6
BYLAYER
 62
     1
 10
122.436875
 20
-450.836177
 30
0.0
 11
106.436967
 21
-450.836177
 31
0.0
  0
ARC
  8
0
  6
BYLAYER
 62
     1
 10
122.436875
 20
-465.836177
 30
0.0
 40
1.0
 50
270.0
 51
449.999991
  0
ARC
  8
0
  6
BYLAYER
 62
     1
 10
119.436875
 20
-457.836177
 30
0.0
 40
1.0
 50
270.0
 51
449.999991
  0
ARC
  8
0
  6
BYLAYER
 62
     1
 10
122.436875
 20
-449.836177
 30
0.0
 40
1.0
 50
270.0
 51
449.999991
  0
ARC
  8
0
  6
BYLAYER
 62
     1
 10
122.436875
 20
-433.836162
 30
0.0
 40
1.000000
 50
270.0
 51
449.999991
  0
ARC
  8
0
  6
BYLAYER
 62
     1
 10
119.436875
 20
-441.836177
 30
0.0
 40
1.0
 50
270.0
 51
449.999991
  0
ARC
  8
0
  6
BYLAYER
 62
     1
 10
162.436936
 20
-449.836177
 30
0.0
 40
8.000003
 50
12.839535
 51
347.160356
  0
CIRCLE
  8
0
  6
BYLAYER
 62
     1
 10
162.436936
 20
-449.836177
 30
0.0
 40
4.25
  0
ARC
  8
0
  6
BYLAYER
 62
     1
 10
157.436875
 20
-465.836177
 30
0.0
 40
1.0
 50
90.0
 51
270.000005
  0
ARC
  8
0
  6
BYLAYER
 62
     1
 10
170.436906
 20
-457.836177
 30
0.0
 40
1.0
 50
90.0
 51
270.000005
  0
ARC
  8
0
  6
BYLAYER
 62
     1
 10
171.211900
 20
-451.836177
 30
0.0
 40
1.000000
 50
90.0
 51
167.160818
  0
ARC
  8
0
  6
BYLAYER
 62
     1
 10
171.211900
 20
-447.836177
 30
0.0
 40
0.999996
 50
192.840037
 51
269.999998
  0
ARC
  8
0
  6
BYLAYER
 62
     1
 10
157.436875
 20
-433.836162
 30
0.0
 40
1.0
 50
90.0
 51
270.000005
  0
ARC
  8
0
  6
BYLAYER
 62
     1
 10
170.436906
 20
-441.836177
 30
0.0
 40
1.0
 50
90.0
 51
270.000005
  0
ARC
  8
0
  6
BYLAYER
 62
     1
 10
204.436860
 20
-187.413997
 30
0.0
 40
2.0
 50
180.000000
 51
267.000764
  0
LINE
  8
0
  6
BYLAYER
 62
     1
 10
212.436829
 20
-109.835933
 30
0.0
 11
212.436829
 21
-177.128902
 31
0.0
  0
LINE
  8
0
  6
BYLAYER
 62
     1
 10
193.436860
 20
-109.836177
 30
0.0
 11
193.436860
 21
-143.586055
 31
0.0
  0
LINE
  8
0
  6
BYLAYER
 62
     1
 10
193.436860
 20
-143.586055
 30
0.0
 11
193.627076
 21
-143.596004
 31
0.0
  0
ARC
  8
0
  6
BYLAYER
 62
     1
 10
193.600984
 20
-144.095332
 30
0.0
 40
0.500010
 50
21.639071
 51
87.008714
  0
LINE
  8
0
  6
BYLAYER
 62
     1
 10
202.436860
 20
-187.413997
 30
0.0
 11
202.436860
 21
-109.836177
 31
0.0
  0
ARC
  8
0
  6
BYLAYER
 62
     1
 10
200.436860
 20
-166.099971
 30
0.0
 40
1.999996
 50
0.0
 51
21.000038
  0
LINE
  8
0
  6
BYLAYER
 62
     1
 10
194.086549
 20
-143.975978
 30
0.0
 11
202.304017
 21
-165.383235
 31
0.0
  0
LINE
  8
0
  6
BYLAYER
 62
     1
 10
204.332246
 20
-189.411250
 30
0.0
 11
212.436829
 21
-189.835945
 31
0.0
  0
LINE
  8
0
  6
BYLAYER
 62
     1
 10
212.436829
 20
-189.835945
 30
0.0
 11
212.436829
 21
-165.335933
 31
0.0
  0
ARC
  8
0
  6
BYLAYER
 62
     1
 10
204.436860
 20
-32.258357
 30
0.0
 40
2.000000
 50
92.999236
 51
180.000000
  0
LINE
  8
0
  6
BYLAYER
 62
     1
 10
212.436829
 20
-109.836421
 30
0.0
 11
212.436829
 21
-42.543452
 31
0.0
  0
LINE
  8
0
  6
BYLAYER
 62
     1
 10
193.436860
 20
-109.836177
 30
0.0
 11
193.436860
 21
-76.086299
 31
0.0
  0
LINE
  8
0
  6
BYLAYER
 62
     1
 10
193.436860
 20
-76.086299
 30
0.0
 11
193.627076
 21
-76.076350
 31
0.0
  0
ARC
  8
0
  6
BYLAYER
 62
     1
 10
193.600984
 20
-75.577022
 30
0.0
 40
0.500010
 50
272.991286
 51
338.360929
  0
LINE
  8
0
  6
BYLAYER
 62
     1
 10
202.436860
 20
-32.258357
 30
0.0
 11
202.436860
 21
-109.836177
 31
0.0
  0
ARC
  8
0
  6
BYLAYER
 62
     1
 10
200.436860
 20
-53.572383
 30
0.0
 40
1.999996
 50
338.999962
 51
360.0
  0
LINE
  8
0
  6
BYLAYER
 62
     1
 10
194.086549
 20
-75.696376
 30
0.0
 11
202.304017
 21
-54.289119
 31
0.0
  0
LINE
  8
0
  6
BYLAYER
 62
     1
 10
204.332246
 20
-30.261104
 30
0.0
 11
212.436829
 21
-29.836409
 31
0.0
  0
LINE
  8
0
  6
BYLAYER
 62
     1
 10
212.436829
 20
-29.836409
 30
0.0
 11
212.436829
 21
-54.336421
 31
0.0
  0
LINE
  8
0
  6
BYLAYER
 62
     1
 10
642.936921
 20
-199.836238
 30
0.0
 11
656.936860
 21
-199.836238
 31
0.0
  0
LINE
  8
0
  6
BYLAYER
 62
     1
 10
713.936875
 20
-199.836238
 30
0.0
 11
699.936875
 21
-199.836238
 31
0.0
  0
LINE
  8
0
  6
BYLAYER
 62
     1
 10
642.936921
 20
-199.836238
 30
0.0
 11
642.936921
 21
-189.200832
 31
0.0
  0
LINE
  8
0
  6
BYLAYER
 62
     1
 10
713.936875
 20
-199.836238
 30
0.0
 11
713.936875
 21
-189.211879
 31
0.0
  0
LINE
  8
0
  6
BYLAYER
 62
     1
 10
656.936860
 20
-186.892974
 30
0.0
 11
656.936860
 21
-199.836238
 31
0.0
  0
LINE
  8
0
  6
BYLAYER
 62
     1
 10
699.936875
 20
-186.892970
 30
0.0
 11
699.936875
 21
-199.836238
 31
0.0
  0
LINE
  8
0
  6
BYLAYER
 62
     1
 10
713.936875
 20
-193.336208
 30
0.0
 11
714.936875
 21
-193.336208
 31
0.0
  0
LINE
  8
0
  6
BYLAYER
 62
     1
 10
714.936875
 20
-181.024300
 30
0.0
 11
714.936875
 21
-193.336208
 31
0.0
  0
ARC
  8
0
  6
BYLAYER
 62
     1
 10
708.436936
 20
-184.836177
 30
0.0
 40
3.2
 50
186.636019
 51
267.938984
  0
LINE
  8
0
  6
BYLAYER
 62
     1
 10
712.972886
 20
-188.201472
 30
0.0
 11
708.321824
 21
-188.034114
 31
0.0
  0
ARC
  8
0
  6
BYLAYER
 62
     1
 10
648.436921
 20
-184.836177
 30
0.0
 40
3.200000
 50
272.061014
 51
353.363136
  0
LINE
  8
0
  6
BYLAYER
 62
     1
 10
643.900971
 20
-188.201472
 30
0.0
 11
648.552033
 21
-188.034114
 31
0.0
  0
ARC
  8
0
  6
BYLAYER
 62
     1
 10
643.936921
 20
-189.200832
 30
0.0
 40
1.000000
 50
92.061012
 51
179.999998
  0
ARC
  8
0
  6
BYLAYER
 62
     1
 10
712.936936
 20
-189.200832
 30
0.0
 40
1.0
 50
0.0
 51
87.938986
  0
LINE
  8
0
  6
BYLAYER
 62
     1
 10
642.936860
 20
-193.336208
 30
0.0
 11
641.936860
 21
-193.336208
 31
0.0
  0
LINE
  8
0
  6
BYLAYER
 62
     1
 10
641.936860
 20
-181.024308
 30
0.0
 11
641.936860
 21
-193.336208
 31
0.0
  0
LINE
  8
0
  6
BYLAYER
 62
     1
 10
699.936875
 20
-197.836177
 30
0.0
 11
656.936860
 21
-197.836177
 31
0.0
  0
ARC
  8
0
  6
BYLAYER
 62
     7
 10
678.436860
 20
-109.836177
 30
0.0
 40
80.000000
 50
117.548546
 51
422.451454
  0
LINE
  8
0
  6
BYLAYER
 62
     7
 10
720.767370
 20
-164.894604
 30
0.0
 11
723.763093
 21
-167.890327
 31
0.0
  0
ARC
  8
0
  6
BYLAYER
 62
     7
 10
721.995301
 20
-169.658092
 30
0.0
 40
2.499997
 50
306.059684
 51
405.000001
  0
ARC
  8
0
  6
BYLAYER
 62
     7
 10
678.436860
 20
-109.836177
 30
0.0
 40
76.5
 50
273.680298
 51
306.059684
  0
ARC
  8
0
  6
BYLAYER
 62
     7
 10
683.186860
 20
-183.683574
 30
0.0
 40
2.500000
 50
180.000000
 51
273.680293
  0
LINE
  8
0
  6
BYLAYER
 62
     7
 10
680.686860
 20
-179.249720
 30
0.0
 11
680.686860
 21
-183.683574
 31
0.0
  0
LINE
  8
0
  6
BYLAYER
 62
     7
 10
636.106350
 20
-164.894604
 30
0.0
 11
633.110627
 21
-167.890327
 31
0.0
  0
ARC
  8
0
  6
BYLAYER
 62
     7
 10
634.878419
 20
-169.658092
 30
0.0
 40
2.499997
 50
135.000000
 51
233.940317
  0
ARC
  8
0
  6
BYLAYER
 62
     7
 10
678.436860
 20
-109.836177
 30
0.0
 40
76.5
 50
233.940317
 51
266.319704
  0
ARC
  8
0
  6
BYLAYER
 62
     7
 10
673.686860
 20
-183.683574
 30
0.0
 40
2.5
 50
266.319704
 51
359.999983
  0
LINE
  8
0
  6
BYLAYER
 62
     7
 10
676.186860
 20
-179.249720
 30
0.0
 11
676.186860
 21
-183.683574
 31
0.0
  0
LINE
  8
0
  6
BYLAYER
 62
     7
 10
733.495288
 20
-67.505668
 30
0.0
 11
736.490998
 21
-64.509959
 31
0.0
  0
ARC
  8
0
  6
BYLAYER
 62
     7
 10
738.258759
 20
-66.277724
 30
0.0
 40
2.5
 50
36.059693
 51
135.0
  0
ARC
  8
0
  6
BYLAYER
 62
     7
 10
678.436860
 20
-109.836177
 30
0.0
 40
76.5
 50
3.680307
 51
36.059693
  0
ARC
  8
0
  6
BYLAYER
 62
     7
 10
752.284272
 20
-105.086172
 30
0.0
 40
2.5
 50
270.0
 51
363.680306
  0
LINE
  8
0
  6
BYLAYER
 62
     7
 10
747.850403
 20
-107.586172
 30
0.0
 11
752.284272
 21
-107.586172
 31
0.0
  0
LINE
  8
0
  6
BYLAYER
 62
     7
 10
733.495292
 20
-152.166682
 30
0.0
 11
736.490998
 21
-155.162387
 31
0.0
  0
ARC
  8
0
  6
BYLAYER
 62
     7
 10
738.258759
 20
-153.394622
 30
0.0
 40
2.499995
 50
225.000010
 51
323.940327
  0
ARC
  8
0
  6
BYLAYER
 62
     7
 10
678.436860
 20
-109.836177
 30
0.0
 40
76.500000
 50
323.940327
 51
356.319713
  0
ARC
  8
0
  6
BYLAYER
 62
     7
 10
752.284272
 20
-114.586176
 30
0.0
 40
2.5
 50
356.319713
 51
449.999989
  0
LINE
  8
0
  6
BYLAYER
 62
     7
 10
747.850403
 20
-112.086176
 30
0.0
 11
752.284272
 21
-112.086176
 31
0.0
  0
LINE
  8
0
  6
BYLAYER
 62
     7
 10
636.106348
 20
-54.777752
 30
0.0
 11
633.110627
 21
-51.782031
 31
0.0
  0
ARC
  8
0
  6
BYLAYER
 62
     7
 10
634.878388
 20
-50.014266
 30
0.0
 40
2.499997
 50
126.059706
 51
225.000010
  0
ARC
  8
0
  6
BYLAYER
 62
     7
 10
678.436860
 20
-109.836177
 30
0.0
 40
76.500000
 50
118.924725
 51
126.059706
  0
LINE
  8
0
  6
BYLAYER
 62
     7
 10
720.767356
 20
-54.777739
 30
0.0
 11
723.763062
 21
-51.782024
 31
0.0
  0
ARC
  8
0
  6
BYLAYER
 62
     7
 10
721.995301
 20
-50.014259
 30
0.0
 40
2.499997
 50
315.000019
 51
413.940336
  0
ARC
  8
0
  6
BYLAYER
 62
     7
 10
678.436860
 20
-109.836177
 30
0.0
 40
76.500000
 50
53.940336
 51
61.075275
  0
LINE
  8
0
  6
BYLAYER
 62
     7
 10
623.378430
 20
-152.166684
 30
0.0
 11
620.382722
 21
-155.162391
 31
0.0
  0
ARC
  8
0
  6
BYLAYER
 62
     7
 10
618.614961
 20
-153.394626
 30
0.0
 40
2.499997
 50
216.059688
 51
314.999992
  0
ARC
  8
0
  6
BYLAYER
 62
     7
 10
678.436860
 20
-109.836177
 30
0.0
 40
76.5
 50
183.680329
 51
216.059688
  0
ARC
  8
0
  6
BYLAYER
 62
     7
 10
604.589448
 20
-114.586180
 30
0.0
 40
2.5
 50
90.0
 51
183.680313
  0
LINE
  8
0
  6
BYLAYER
 62
     7
 10
609.023317
 20
-112.086180
 30
0.0
 11
604.589448
 21
-112.086180
 31
0.0
  0
LINE
  8
0
  6
BYLAYER
 62
     7
 10
623.378430
 20
-67.505670
 30
0.0
 11
620.382722
 21
-64.509963
 31
0.0
  0
ARC
  8
0
  6
BYLAYER
 62
     7
 10
618.614961
 20
-66.277728
 30
0.0
 40
2.499997
 50
45.000001
 51
143.940322
  0
ARC
  8
0
  6
BYLAYER
 62
     7
 10
678.436860
 20
-109.836177
 30
0.0
 40
76.5
 50
143.940322
 51
176.319681
  0
ARC
  8
0
  6
BYLAYER
 62
     7
 10
604.589448
 20
-105.086176
 30
0.0
 40
2.5
 50
176.319681
 51
269.999973
  0
LINE
  8
0
  6
BYLAYER
 62
     7
 10
609.023317
 20
-107.586176
 30
0.0
 11
604.589448
 21
-107.586176
 31
0.0
  0
LINE
  8
0
  6
BYLAYER
 62
     7
 10
641.436860
 20
-32.836177
 30
0.0
 11
641.436860
 21
-51.062862
 31
0.0
  0
LINE
  8
0
  6
BYLAYER
 62
     7
 10
715.436860
 20
-32.836177
 30
0.0
 11
715.436860
 21
-51.062862
 31
0.0
  0
LINE
  8
0
  6
BYLAYER
 62
     7
 10
641.436860
 20
-37.336177
 30
0.0
 11
644.436860
 21
-42.532313
 31
0.0
  0
LINE
  8
0
  6
BYLAYER
 62
     7
 10
644.436860
 20
-42.532313
 30
0.0
 11
644.436860
 21
-49.277920
 31
0.0
  0
LINE
  8
0
  6
BYLAYER
 62
     7
 10
715.436860
 20
-37.336177
 30
0.0
 11
712.436860
 21
-42.532313
 31
0.0
  0
LINE
  8
0
  6
BYLAYER
 62
     7
 10
712.436860
 20
-42.532313
 30
0.0
 11
712.436860
 21
-49.277920
 31
0.0
  0
LINE
  8
0
  6
BYLAYER
 62
     7
 10
679.436860
 20
-98.836177
 30
0.0
 11
687.436860
 21
-98.836177
 31
0.0
  0
LINE
  8
0
  6
BYLAYER
 62
     7
 10
679.436860
 20
-80.836177
 30
0.0
 11
679.436860
 21
-88.836177
 31
0.0
  0
LINE
  8
0
  6
BYLAYER
 62
     7
 10
679.436860
 20
-70.836177
 30
0.0
 11
679.436860
 21
-78.836177
 31
0.0
  0
LINE
  8
0
  6
BYLAYER
 62
     7
 10
679.436860
 20
-90.836177
 30
0.0
 11
679.436860
 21
-98.836177
 31
0.0
  0
LINE
  8
0
  6
BYLAYER
 62
     7
 10
687.436860
 20
-78.836177
 30
0.0
 11
687.436860
 21
-70.836177
 31
0.0
  0
LINE
  8
0
  6
BYLAYER
 62
     7
 10
689.436860
 20
-78.836177
 30
0.0
 11
689.436860
 21
-70.836177
 31
0.0
  0
LINE
  8
0
  6
BYLAYER
 62
     7
 10
679.436860
 20
-90.836177
 30
0.0
 11
687.436860
 21
-90.836177
 31
0.0
  0
LINE
  8
0
  6
BYLAYER
 62
     7
 10
679.436860
 20
-88.836177
 30
0.0
 11
687.436860
 21
-88.836177
 31
0.0
  0
LINE
  8
0
  6
BYLAYER
 62
     7
 10
679.436860
 20
-80.836177
 30
0.0
 11
687.436860
 21
-80.836177
 31
0.0
  0
LINE
  8
0
  6
BYLAYER
 62
     7
 10
689.436860
 20
-78.836177
 30
0.0
 11
697.274859
 21
-78.836177
 31
0.0
  0
LINE
  8
0
  6
BYLAYER
 62
     7
 10
679.436860
 20
-78.836177
 30
0.0
 11
687.436860
 21
-78.836177
 31
0.0
  0
LINE
  8
0
  6
BYLAYER
 62
     7
 10
689.436860
 20
-70.836177
 30
0.0
 11
697.274859
 21
-70.836177
 31
0.0
  0
LINE
  8
0
  6
BYLAYER
 62
     7
 10
679.436860
 20
-70.836177
 30
0.0
 11
687.436860
 21
-70.836177
 31
0.0
  0
LINE
  8
0
  6
BYLAYER
 62
     7
 10
697.274859
 20
-78.836177
 30
0.0
 11
697.274859
 21
-70.836177
 31
0.0
  0
LINE
  8
0
  6
BYLAYER
 62
     7
 10
687.436860
 20
-98.836177
 30
0.0
 11
687.436860
 21
-90.836177
 31
0.0
  0
LINE
  8
0
  6
BYLAYER
 62
     7
 10
687.436860
 20
-88.836177
 30
0.0
 11
687.436860
 21
-80.836177
 31
0.0
  0
LINE
  8
0
  6
BYLAYER
 62
     7
 10
689.436860
 20
-98.836177
 30
0.0
 11
697.436860
 21
-98.836177
 31
0.0
  0
LINE
  8
0
  6
BYLAYER
 62
     7
 10
689.436860
 20
-80.836177
 30
0.0
 11
689.436860
 21
-88.836177
 31
0.0
  0
LINE
  8
0
  6
BYLAYER
 62
     7
 10
689.436860
 20
-90.836177
 30
0.0
 11
689.436860
 21
-98.836177
 31
0.0
  0
LINE
  8
0
  6
BYLAYER
 62
     7
 10
689.436860
 20
-90.836177
 30
0.0
 11
697.436860
 21
-90.836177
 31
0.0
  0
LINE
  8
0
  6
BYLAYER
 62
     7
 10
689.436860
 20
-88.836177
 30
0.0
 11
697.436860
 21
-88.836177
 31
0.0
  0
LINE
  8
0
  6
BYLAYER
 62
     7
 10
689.436860
 20
-80.836177
 30
0.0
 11
697.436860
 21
-80.836177
 31
0.0
  0
LINE
  8
0
  6
BYLAYER
 62
     7
 10
697.436860
 20
-98.836177
 30
0.0
 11
697.436860
 21
-90.836177
 31
0.0
  0
LINE
  8
0
  6
BYLAYER
 62
     7
 10
697.436860
 20
-88.836177
 30
0.0
 11
697.436860
 21
-80.836177
 31
0.0
  0
LINE
  8
0
  6
BYLAYER
 62
     7
 10
699.436860
 20
-98.836177
 30
0.0
 11
707.436860
 21
-98.836177
 31
0.0
  0
LINE
  8
0
  6
BYLAYER
 62
     7
 10
699.436860
 20
-80.836177
 30
0.0
 11
699.436860
 21
-88.836177
 31
0.0
  0
LINE
  8
0
  6
BYLAYER
 62
     7
 10
699.436860
 20
-90.836177
 30
0.0
 11
699.436860
 21
-98.836177
 31
0.0
  0
LINE
  8
0
  6
BYLAYER
 62
     7
 10
699.436860
 20
-90.836177
 30
0.0
 11
707.436860
 21
-90.836177
 31
0.0
  0
LINE
  8
0
  6
BYLAYER
 62
     7
 10
699.436860
 20
-88.836177
 30
0.0
 11
707.436860
 21
-88.836177
 31
0.0
  0
LINE
  8
0
  6
BYLAYER
 62
     7
 10
699.436860
 20
-80.836177
 30
0.0
 11
707.436860
 21
-80.836177
 31
0.0
  0
LINE
  8
0
  6
BYLAYER
 62
     7
 10
707.436860
 20
-98.836177
 30
0.0
 11
707.436860
 21
-90.836177
 31
0.0
  0
LINE
  8
0
  6
BYLAYER
 62
     7
 10
707.436860
 20
-88.836177
 30
0.0
 11
707.436860
 21
-80.836177
 31
0.0
  0
LINE
  8
0
  6
BYLAYER
 62
     7
 10
689.436860
 20
-108.836177
 30
0.0
 11
697.436860
 21
-108.836177
 31
0.0
  0
LINE
  8
0
  6
BYLAYER
 62
     7
 10
689.436860
 20
-100.836177
 30
0.0
 11
689.436860
 21
-108.836177
 31
0.0
  0
LINE
  8
0
  6
BYLAYER
 62
     7
 10
689.436860
 20
-100.836177
 30
0.0
 11
697.436860
 21
-100.836177
 31
0.0
  0
LINE
  8
0
  6
BYLAYER
 62
     7
 10
697.436860
 20
-108.836177
 30
0.0
 11
697.436860
 21
-100.836177
 31
0.0
  0
LINE
  8
0
  6
BYLAYER
 62
     7
 10
699.436860
 20
-108.836177
 30
0.0
 11
707.436860
 21
-108.836177
 31
0.0
  0
LINE
  8
0
  6
BYLAYER
 62
     7
 10
699.436860
 20
-100.836177
 30
0.0
 11
699.436860
 21
-108.836177
 31
0.0
  0
LINE
  8
0
  6
BYLAYER
 62
     7
 10
699.436860
 20
-100.836177
 30
0.0
 11
707.436860
 21
-100.836177
 31
0.0
  0
LINE
  8
0
  6
BYLAYER
 62
     7
 10
707.436860
 20
-108.836177
 30
0.0
 11
707.436860
 21
-100.836177
 31
0.0
  0
LINE
  8
0
  6
BYLAYER
 62
     7
 10
709.436860
 20
-98.836177
 30
0.0
 11
717.436860
 21
-98.836177
 31
0.0
  0
LINE
  8
0
  6
BYLAYER
 62
     7
 10
709.436860
 20
-90.836177
 30
0.0
 11
709.436860
 21
-98.836177
 31
0.0
  0
LINE
  8
0
  6
BYLAYER
 62
     7
 10
709.436860
 20
-90.836177
 30
0.0
 11
717.436860
 21
-90.836177
 31
0.0
  0
LINE
  8
0
  6
BYLAYER
 62
     7
 10
717.436860
 20
-98.836177
 30
0.0
 11
717.436860
 21
-90.836177
 31
0.0
  0
LINE
  8
0
  6
BYLAYER
 62
     7
 10
709.436860
 20
-108.836177
 30
0.0
 11
717.436860
 21
-108.836177
 31
0.0
  0
LINE
  8
0
  6
BYLAYER
 62
     7
 10
709.436860
 20
-100.836177
 30
0.0
 11
709.436860
 21
-108.836177
 31
0.0
  0
LINE
  8
0
  6
BYLAYER
 62
     7
 10
709.436860
 20
-100.836177
 30
0.0
 11
717.436860
 21
-100.836177
 31
0.0
  0
LINE
  8
0
  6
BYLAYER
 62
     7
 10
717.436860
 20
-108.836177
 30
0.0
 11
717.436860
 21
-100.836177
 31
0.0
  0
CIRCLE
  8
0
  6
BYLAYER
 62
     7
 10
678.436860
 20
-109.836177
 30
0.0
 40
4.0
  0
LINE
  8
0
  6
BYLAYER
 62
     7
 10
679.436860
 20
-60.836177
 30
0.0
 11
679.436860
 21
-68.836177
 31
0.0
  0
LINE
  8
0
  6
BYLAYER
 62
     7
 10
687.436860
 20
-68.836177
 30
0.0
 11
687.436860
 21
-60.836177
 31
0.0
  0
LINE
  8
0
  6
BYLAYER
 62
     7
 10
679.436860
 20
-68.836177
 30
0.0
 11
687.436860
 21
-68.836177
 31
0.0
  0
LINE
  8
0
  6
BYLAYER
 62
     7
 10
679.436860
 20
-60.836177
 30
0.0
 11
687.436860
 21
-60.836177
 31
0.0
  0
LINE
  8
0
  6
BYLAYER
 62
     7
 10
699.436860
 20
-70.836177
 30
0.0
 11
699.436860
 21
-78.836177
 31
0.0
  0
LINE
  8
0
  6
BYLAYER
 62
     7
 10
699.436860
 20
-78.836177
 30
0.0
 11
707.436860
 21
-78.836177
 31
0.0
  0
LINE
  8
0
  6
BYLAYER
 62
     7
 10
699.436860
 20
-70.836177
 30
0.0
 11
707.436860
 21
-70.836177
 31
0.0
  0
LINE
  8
0
  6
BYLAYER
 62
     7
 10
707.436860
 20
-78.836177
 30
0.0
 11
707.436860
 21
-70.836177
 31
0.0
  0
LINE
  8
0
  6
BYLAYER
 62
     7
 10
719.436860
 20
-108.836177
 30
0.0
 11
727.436860
 21
-108.836177
 31
0.0
  0
LINE
  8
0
  6
BYLAYER
 62
     7
 10
719.436860
 20
-100.836177
 30
0.0
 11
719.436860
 21
-108.836177
 31
0.0
  0
LINE
  8
0
  6
BYLAYER
 62
     7
 10
719.436860
 20
-100.836177
 30
0.0
 11
727.436860
 21
-100.836177
 31
0.0
  0
LINE
  8
0
  6
BYLAYER
 62
     7
 10
727.436860
 20
-108.836177
 30
0.0
 11
727.436860
 21
-100.836177
 31
0.0
  0
LINE
  8
0
  6
BYLAYER
 62
     7
 10
709.436860
 20
-88.836177
 30
0.0
 11
717.436860
 21
-88.836177
 31
0.0
  0
LINE
  8
0
  6
BYLAYER
 62
     7
 10
709.436860
 20
-80.836177
 30
0.0
 11
709.436860
 21
-88.836177
 31
0.0
  0
LINE
  8
0
  6
BYLAYER
 62
     7
 10
709.436860
 20
-80.836177
 30
0.0
 11
717.436860
 21
-80.836177
 31
0.0
  0
LINE
  8
0
  6
BYLAYER
 62
     7
 10
717.436860
 20
-88.836177
 30
0.0
 11
717.436860
 21
-80.836177
 31
0.0
  0
CIRCLE
  8
0
  6
BYLAYER
 62
     7
 10
678.436860
 20
-109.836177
 30
0.0
 40
55.0
  0
CIRCLE
  8
0
  6
BYLAYER
 62
     7
 10
678.436860
 20
-109.836177
 30
0.0
 40
69.45
  0
CIRCLE
  8
0
  6
BYLAYER
 62
     7
 10
678.436860
 20
-109.836177
 30
0.0
 40
51.0
  0
LINE
  8
0
  6
BYLAYER
 62
     7
 10
679.436860
 20
-120.836177
 30
0.0
 11
687.436860
 21
-120.836177
 31
0.0
  0
LINE
  8
0
  6
BYLAYER
 62
     7
 10
679.436860
 20
-138.836177
 30
0.0
 11
679.436860
 21
-130.836177
 31
0.0
  0
LINE
  8
0
  6
BYLAYER
 62
     7
 10
679.436860
 20
-148.836177
 30
0.0
 11
679.436860
 21
-140.836177
 31
0.0
  0
LINE
  8
0
  6
BYLAYER
 62
     7
 10
679.436860
 20
-128.836177
 30
0.0
 11
679.436860
 21
-120.836177
 31
0.0
  0
LINE
  8
0
  6
BYLAYER
 62
     7
 10
687.436860
 20
-140.836177
 30
0.0
 11
687.436860
 21
-148.836177
 31
0.0
  0
LINE
  8
0
  6
BYLAYER
 62
     7
 10
689.436860
 20
-140.836177
 30
0.0
 11
689.436860
 21
-148.836177
 31
0.0
  0
LINE
  8
0
  6
BYLAYER
 62
     7
 10
679.436860
 20
-128.836177
 30
0.0
 11
687.436860
 21
-128.836177
 31
0.0
  0
LINE
  8
0
  6
BYLAYER
 62
     7
 10
679.436860
 20
-130.836177
 30
0.0
 11
687.436860
 21
-130.836177
 31
0.0
  0
LINE
  8
0
  6
BYLAYER
 62
     7
 10
679.436860
 20
-138.836177
 30
0.0
 11
687.436860
 21
-138.836177
 31
0.0
  0
LINE
  8
0
  6
BYLAYER
 62
     7
 10
689.436860
 20
-140.836177
 30
0.0
 11
697.274859
 21
-140.836177
 31
0.0
  0
LINE
  8
0
  6
BYLAYER
 62
     7
 10
679.436860
 20
-140.836177
 30
0.0
 11
687.436860
 21
-140.836177
 31
0.0
  0
LINE
  8
0
  6
BYLAYER
 62
     7
 10
689.436860
 20
-148.836177
 30
0.0
 11
697.274859
 21
-148.836177
 31
0.0
  0
LINE
  8
0
  6
BYLAYER
 62
     7
 10
679.436860
 20
-148.836177
 30
0.0
 11
687.436860
 21
-148.836177
 31
0.0
  0
LINE
  8
0
  6
BYLAYER
 62
     7
 10
697.274859
 20
-140.836177
 30
0.0
 11
697.274859
 21
-148.836177
 31
0.0
  0
LINE
  8
0
  6
BYLAYER
 62
     7
 10
687.436860
 20
-120.836177
 30
0.0
 11
687.436860
 21
-128.836177
 31
0.0
  0
LINE
  8
0
  6
BYLAYER
 62
     7
 10
687.436860
 20
-130.836177
 30
0.0
 11
687.436860
 21
-138.836177
 31
0.0
  0
LINE
  8
0
  6
BYLAYER
 62
     7
 10
689.436860
 20
-120.836177
 30
0.0
 11
697.436860
 21
-120.836177
 31
0.0
  0
LINE
  8
0
  6
BYLAYER
 62
     7
 10
689.436860
 20
-138.836177
 30
0.0
 11
689.436860
 21
-130.836177
 31
0.0
  0
LINE
  8
0
  6
BYLAYER
 62
     7
 10
689.436860
 20
-128.836177
 30
0.0
 11
689.436860
 21
-120.836177
 31
0.0
  0
LINE
  8
0
  6
BYLAYER
 62
     7
 10
689.436860
 20
-128.836177
 30
0.0
 11
697.436860
 21
-128.836177
 31
0.0
  0
LINE
  8
0
  6
BYLAYER
 62
     7
 10
689.436860
 20
-130.836177
 30
0.0
 11
697.436860
 21
-130.836177
 31
0.0
  0
LINE
  8
0
  6
BYLAYER
 62
     7
 10
689.436860
 20
-138.836177
 30
0.0
 11
697.436860
 21
-138.836177
 31
0.0
  0
LINE
  8
0
  6
BYLAYER
 62
     7
 10
697.436860
 20
-120.836177
 30
0.0
 11
697.436860
 21
-128.836177
 31
0.0
  0
LINE
  8
0
  6
BYLAYER
 62
     7
 10
697.436860
 20
-130.836177
 30
0.0
 11
697.436860
 21
-138.836177
 31
0.0
  0
LINE
  8
0
  6
BYLAYER
 62
     7
 10
699.436860
 20
-120.836177
 30
0.0
 11
707.436860
 21
-120.836177
 31
0.0
  0
LINE
  8
0
  6
BYLAYER
 62
     7
 10
699.436860
 20
-138.836177
 30
0.0
 11
699.436860
 21
-130.836177
 31
0.0
  0
LINE
  8
0
  6
BYLAYER
 62
     7
 10
699.436860
 20
-128.836177
 30
0.0
 11
699.436860
 21
-120.836177
 31
0.0
  0
LINE
  8
0
  6
BYLAYER
 62
     7
 10
699.436860
 20
-128.836177
 30
0.0
 11
707.436860
 21
-128.836177
 31
0.0
  0
LINE
  8
0
  6
BYLAYER
 62
     7
 10
699.436860
 20
-130.836177
 30
0.0
 11
707.436860
 21
-130.836177
 31
0.0
  0
LINE
  8
0
  6
BYLAYER
 62
     7
 10
699.436860
 20
-138.836177
 30
0.0
 11
707.436860
 21
-138.836177
 31
0.0
  0
LINE
  8
0
  6
BYLAYER
 62
     7
 10
707.436860
 20
-120.836177
 30
0.0
 11
707.436860
 21
-128.836177
 31
0.0
  0
LINE
  8
0
  6
BYLAYER
 62
     7
 10
707.436860
 20
-130.836177
 30
0.0
 11
707.436860
 21
-138.836177
 31
0.0
  0
LINE
  8
0
  6
BYLAYER
 62
     7
 10
689.436860
 20
-110.836177
 30
0.0
 11
697.436860
 21
-110.836177
 31
0.0
  0
LINE
  8
0
  6
BYLAYER
 62
     7
 10
689.436860
 20
-118.836177
 30
0.0
 11
689.436860
 21
-110.836177
 31
0.0
  0
LINE
  8
0
  6
BYLAYER
 62
     7
 10
689.436860
 20
-118.836177
 30
0.0
 11
697.436860
 21
-118.836177
 31
0.0
  0
LINE
  8
0
  6
BYLAYER
 62
     7
 10
697.436860
 20
-110.836177
 30
0.0
 11
697.436860
 21
-118.836177
 31
0.0
  0
LINE
  8
0
  6
BYLAYER
 62
     7
 10
699.436860
 20
-110.836177
 30
0.0
 11
707.436860
 21
-110.836177
 31
0.0
  0
LINE
  8
0
  6
BYLAYER
 62
     7
 10
699.436860
 20
-118.836177
 30
0.0
 11
699.436860
 21
-110.836177
 31
0.0
  0
LINE
  8
0
  6
BYLAYER
 62
     7
 10
699.436860
 20
-118.836177
 30
0.0
 11
707.436860
 21
-118.836177
 31
0.0
  0
LINE
  8
0
  6
BYLAYER
 62
     7
 10
707.436860
 20
-110.836177
 30
0.0
 11
707.436860
 21
-118.836177
 31
0.0
  0
LINE
  8
0
  6
BYLAYER
 62
     7
 10
709.436860
 20
-120.836177
 30
0.0
 11
717.436860
 21
-120.836177
 31
0.0
  0
LINE
  8
0
  6
BYLAYER
 62
     7
 10
709.436860
 20
-128.836177
 30
0.0
 11
709.436860
 21
-120.836177
 31
0.0
  0
LINE
  8
0
  6
BYLAYER
 62
     7
 10
709.436860
 20
-128.836177
 30
0.0
 11
717.436860
 21
-128.836177
 31
0.0
  0
LINE
  8
0
  6
BYLAYER
 62
     7
 10
717.436860
 20
-120.836177
 30
0.0
 11
717.436860
 21
-128.836177
 31
0.0
  0
LINE
  8
0
  6
BYLAYER
 62
     7
 10
709.436860
 20
-110.836177
 30
0.0
 11
717.436860
 21
-110.836177
 31
0.0
  0
LINE
  8
0
  6
BYLAYER
 62
     7
 10
709.436860
 20
-118.836177
 30
0.0
 11
709.436860
 21
-110.836177
 31
0.0
  0
LINE
  8
0
  6
BYLAYER
 62
     7
 10
709.436860
 20
-118.836177
 30
0.0
 11
717.436860
 21
-118.836177
 31
0.0
  0
LINE
  8
0
  6
BYLAYER
 62
     7
 10
717.436860
 20
-110.836177
 30
0.0
 11
717.436860
 21
-118.836177
 31
0.0
  0
LINE
  8
0
  6
BYLAYER
 62
     7
 10
679.436860
 20
-158.836177
 30
0.0
 11
679.436860
 21
-150.836177
 31
0.0
  0
LINE
  8
0
  6
BYLAYER
 62
     7
 10
687.436860
 20
-150.836177
 30
0.0
 11
687.436860
 21
-158.836177
 31
0.0
  0
LINE
  8
0
  6
BYLAYER
 62
     7
 10
679.436860
 20
-150.836177
 30
0.0
 11
687.436860
 21
-150.836177
 31
0.0
  0
LINE
  8
0
  6
BYLAYER
 62
     7
 10
679.436860
 20
-158.836177
 30
0.0
 11
687.436860
 21
-158.836177
 31
0.0
  0
LINE
  8
0
  6
BYLAYER
 62
     7
 10
699.436860
 20
-148.836177
 30
0.0
 11
699.436860
 21
-140.836177
 31
0.0
  0
LINE
  8
0
  6
BYLAYER
 62
     7
 10
699.436860
 20
-140.836177
 30
0.0
 11
707.436860
 21
-140.836177
 31
0.0
  0
LINE
  8
0
  6
BYLAYER
 62
     7
 10
699.436860
 20
-148.836177
 30
0.0
 11
707.436860
 21
-148.836177
 31
0.0
  0
LINE
  8
0
  6
BYLAYER
 62
     7
 10
707.436860
 20
-140.836177
 30
0.0
 11
707.436860
 21
-148.836177
 31
0.0
  0
LINE
  8
0
  6
BYLAYER
 62
     7
 10
719.436860
 20
-110.836177
 30
0.0
 11
727.436860
 21
-110.836177
 31
0.0
  0
LINE
  8
0
  6
BYLAYER
 62
     7
 10
719.436860
 20
-118.836177
 30
0.0
 11
719.436860
 21
-110.836177
 31
0.0
  0
LINE
  8
0
  6
BYLAYER
 62
     7
 10
719.436860
 20
-118.836177
 30
0.0
 11
727.436860
 21
-118.836177
 31
0.0
  0
LINE
  8
0
  6
BYLAYER
 62
     7
 10
727.436860
 20
-110.836177
 30
0.0
 11
727.436860
 21
-118.836177
 31
0.0
  0
LINE
  8
0
  6
BYLAYER
 62
     7
 10
709.436860
 20
-130.836177
 30
0.0
 11
717.436860
 21
-130.836177
 31
0.0
  0
LINE
  8
0
  6
BYLAYER
 62
     7
 10
709.436860
 20
-138.836177
 30
0.0
 11
709.436860
 21
-130.836177
 31
0.0
  0
LINE
  8
0
  6
BYLAYER
 62
     7
 10
709.436860
 20
-138.836177
 30
0.0
 11
717.436860
 21
-138.836177
 31
0.0
  0
LINE
  8
0
  6
BYLAYER
 62
     7
 10
717.436860
 20
-130.836177
 30
0.0
 11
717.436860
 21
-138.836177
 31
0.0
  0
LINE
  8
0
  6
BYLAYER
 62
     7
 10
677.436860
 20
-98.836177
 30
0.0
 11
669.436860
 21
-98.836177
 31
0.0
  0
LINE
  8
0
  6
BYLAYER
 62
     7
 10
677.436860
 20
-80.836177
 30
0.0
 11
677.436860
 21
-88.836177
 31
0.0
  0
LINE
  8
0
  6
BYLAYER
 62
     7
 10
677.436860
 20
-70.836177
 30
0.0
 11
677.436860
 21
-78.836177
 31
0.0
  0
LINE
  8
0
  6
BYLAYER
 62
     7
 10
677.436860
 20
-90.836177
 30
0.0
 11
677.436860
 21
-98.836177
 31
0.0
  0
LINE
  8
0
  6
BYLAYER
 62
     7
 10
669.436860
 20
-78.836177
 30
0.0
 11
669.436860
 21
-70.836177
 31
0.0
  0
LINE
  8
0
  6
BYLAYER
 62
     7
 10
667.436860
 20
-78.836177
 30
0.0
 11
667.436860
 21
-70.836177
 31
0.0
  0
LINE
  8
0
  6
BYLAYER
 62
     7
 10
677.436860
 20
-90.836177
 30
0.0
 11
669.436860
 21
-90.836177
 31
0.0
  0
LINE
  8
0
  6
BYLAYER
 62
     7
 10
677.436860
 20
-88.836177
 30
0.0
 11
669.436860
 21
-88.836177
 31
0.0
  0
LINE
  8
0
  6
BYLAYER
 62
     7
 10
677.436860
 20
-80.836177
 30
0.0
 11
669.436860
 21
-80.836177
 31
0.0
  0
LINE
  8
0
  6
BYLAYER
 62
     7
 10
667.436860
 20
-78.836177
 30
0.0
 11
659.598861
 21
-78.836177
 31
0.0
  0
LINE
  8
0
  6
BYLAYER
 62
     7
 10
677.436860
 20
-78.836177
 30
0.0
 11
669.436860
 21
-78.836177
 31
0.0
  0
LINE
  8
0
  6
BYLAYER
 62
     7
 10
667.436860
 20
-70.836177
 30
0.0
 11
659.598861
 21
-70.836177
 31
0.0
  0
LINE
  8
0
  6
BYLAYER
 62
     7
 10
677.436860
 20
-70.836177
 30
0.0
 11
669.436860
 21
-70.836177
 31
0.0
  0
LINE
  8
0
  6
BYLAYER
 62
     7
 10
659.598861
 20
-78.836177
 30
0.0
 11
659.598861
 21
-70.836177
 31
0.0
  0
LINE
  8
0
  6
BYLAYER
 62
     7
 10
669.436860
 20
-98.836177
 30
0.0
 11
669.436860
 21
-90.836177
 31
0.0
  0
LINE
  8
0
  6
BYLAYER
 62
     7
 10
669.436860
 20
-88.836177
 30
0.0
 11
669.436860
 21
-80.836177
 31
0.0
  0
LINE
  8
0
  6
BYLAYER
 62
     7
 10
667.436860
 20
-98.836177
 30
0.0
 11
659.436860
 21
-98.836177
 31
0.0
  0
LINE
  8
0
  6
BYLAYER
 62
     7
 10
667.436860
 20
-80.836177
 30
0.0
 11
667.436860
 21
-88.836177
 31
0.0
  0
LINE
  8
0
  6
BYLAYER
 62
     7
 10
667.436860
 20
-90.836177
 30
0.0
 11
667.436860
 21
-98.836177
 31
0.0
  0
LINE
  8
0
  6
BYLAYER
 62
     7
 10
667.436860
 20
-90.836177
 30
0.0
 11
659.436860
 21
-90.836177
 31
0.0
  0
LINE
  8
0
  6
BYLAYER
 62
     7
 10
667.436860
 20
-88.836177
 30
0.0
 11
659.436860
 21
-88.836177
 31
0.0
  0
LINE
  8
0
  6
BYLAYER
 62
     7
 10
667.436860
 20
-80.836177
 30
0.0
 11
659.436860
 21
-80.836177
 31
0.0
  0
LINE
  8
0
  6
BYLAYER
 62
     7
 10
659.436860
 20
-98.836177
 30
0.0
 11
659.436860
 21
-90.836177
 31
0.0
  0
LINE
  8
0
  6
BYLAYER
 62
     7
 10
659.436860
 20
-88.836177
 30
0.0
 11
659.436860
 21
-80.836177
 31
0.0
  0
LINE
  8
0
  6
BYLAYER
 62
     7
 10
657.436860
 20
-98.836177
 30
0.0
 11
649.436860
 21
-98.836177
 31
0.0
  0
LINE
  8
0
  6
BYLAYER
 62
     7
 10
657.436860
 20
-80.836177
 30
0.0
 11
657.436860
 21
-88.836177
 31
0.0
  0
LINE
  8
0
  6
BYLAYER
 62
     7
 10
657.436860
 20
-90.836177
 30
0.0
 11
657.436860
 21
-98.836177
 31
0.0
  0
LINE
  8
0
  6
BYLAYER
 62
     7
 10
657.436860
 20
-90.836177
 30
0.0
 11
649.436860
 21
-90.836177
 31
0.0
  0
LINE
  8
0
  6
BYLAYER
 62
     7
 10
657.436860
 20
-88.836177
 30
0.0
 11
649.436860
 21
-88.836177
 31
0.0
  0
LINE
  8
0
  6
BYLAYER
 62
     7
 10
657.436860
 20
-80.836177
 30
0.0
 11
649.436860
 21
-80.836177
 31
0.0
  0
LINE
  8
0
  6
BYLAYER
 62
     7
 10
649.436860
 20
-98.836177
 30
0.0
 11
649.436860
 21
-90.836177
 31
0.0
  0
LINE
  8
0
  6
BYLAYER
 62
     7
 10
649.436860
 20
-88.836177
 30
0.0
 11
649.436860
 21
-80.836177
 31
0.0
  0
LINE
  8
0
  6
BYLAYER
 62
     7
 10
667.436860
 20
-108.836177
 30
0.0
 11
659.436860
 21
-108.836177
 31
0.0
  0
LINE
  8
0
  6
BYLAYER
 62
     7
 10
667.436860
 20
-100.836177
 30
0.0
 11
667.436860
 21
-108.836177
 31
0.0
  0
LINE
  8
0
  6
BYLAYER
 62
     7
 10
667.436860
 20
-100.836177
 30
0.0
 11
659.436860
 21
-100.836177
 31
0.0
  0
LINE
  8
0
  6
BYLAYER
 62
     7
 10
659.436860
 20
-108.836177
 30
0.0
 11
659.436860
 21
-100.836177
 31
0.0
  0
LINE
  8
0
  6
BYLAYER
 62
     7
 10
657.436860
 20
-108.836177
 30
0.0
 11
649.436860
 21
-108.836177
 31
0.0
  0
LINE
  8
0
  6
BYLAYER
 62
     7
 10
657.436860
 20
-100.836177
 30
0.0
 11
657.436860
 21
-108.836177
 31
0.0
  0
LINE
  8
0
  6
BYLAYER
 62
     7
 10
657.436860
 20
-100.836177
 30
0.0
 11
649.436860
 21
-100.836177
 31
0.0
  0
LINE
  8
0
  6
BYLAYER
 62
     7
 10
649.436860
 20
-108.836177
 30
0.0
 11
649.436860
 21
-100.836177
 31
0.0
  0
LINE
  8
0
  6
BYLAYER
 62
     7
 10
647.436860
 20
-98.836177
 30
0.0
 11
639.436860
 21
-98.836177
 31
0.0
  0
LINE
  8
0
  6
BYLAYER
 62
     7
 10
647.436860
 20
-90.836177
 30
0.0
 11
647.436860
 21
-98.836177
 31
0.0
  0
LINE
  8
0
  6
BYLAYER
 62
     7
 10
647.436860
 20
-90.836177
 30
0.0
 11
639.436860
 21
-90.836177
 31
0.0
  0
LINE
  8
0
  6
BYLAYER
 62
     7
 10
639.436860
 20
-98.836177
 30
0.0
 11
639.436860
 21
-90.836177
 31
0.0
  0
LINE
  8
0
  6
BYLAYER
 62
     7
 10
647.436860
 20
-108.836177
 30
0.0
 11
639.436860
 21
-108.836177
 31
0.0
  0
LINE
  8
0
  6
BYLAYER
 62
     7
 10
647.436860
 20
-100.836177
 30
0.0
 11
647.436860
 21
-108.836177
 31
0.0
  0
LINE
  8
0
  6
BYLAYER
 62
     7
 10
647.436860
 20
-100.836177
 30
0.0
 11
639.436860
 21
-100.836177
 31
0.0
  0
LINE
  8
0
  6
BYLAYER
 62
     7
 10
639.436860
 20
-108.836177
 30
0.0
 11
639.436860
 21
-100.836177
 31
0.0
  0
LINE
  8
0
  6
BYLAYER
 62
     7
 10
677.436860
 20
-60.836177
 30
0.0
 11
677.436860
 21
-68.836177
 31
0.0
  0
LINE
  8
0
  6
BYLAYER
 62
     7
 10
669.436860
 20
-68.836177
 30
0.0
 11
669.436860
 21
-60.836177
 31
0.0
  0
LINE
  8
0
  6
BYLAYER
 62
     7
 10
677.436860
 20
-68.836177
 30
0.0
 11
669.436860
 21
-68.836177
 31
0.0
  0
LINE
  8
0
  6
BYLAYER
 62
     7
 10
677.436860
 20
-60.836177
 30
0.0
 11
669.436860
 21
-60.836177
 31
0.0
  0
LINE
  8
0
  6
BYLAYER
 62
     7
 10
657.436860
 20
-70.836177
 30
0.0
 11
657.436860
 21
-78.836177
 31
0.0
  0
LINE
  8
0
  6
BYLAYER
 62
     7
 10
657.436860
 20
-78.836177
 30
0.0
 11
649.436860
 21
-78.836177
 31
0.0
  0
LINE
  8
0
  6
BYLAYER
 62
     7
 10
657.436860
 20
-70.836177
 30
0.0
 11
649.436860
 21
-70.836177
 31
0.0
  0
LINE
  8
0
  6
BYLAYER
 62
     7
 10
649.436860
 20
-78.836177
 30
0.0
 11
649.436860
 21
-70.836177
 31
0.0
  0
LINE
  8
0
  6
BYLAYER
 62
     7
 10
637.436860
 20
-108.836177
 30
0.0
 11
629.436860
 21
-108.836177
 31
0.0
  0
LINE
  8
0
  6
BYLAYER
 62
     7
 10
637.436860
 20
-100.836177
 30
0.0
 11
637.436860
 21
-108.836177
 31
0.0
  0
LINE
  8
0
  6
BYLAYER
 62
     7
 10
637.436860
 20
-100.836177
 30
0.0
 11
629.436860
 21
-100.836177
 31
0.0
  0
LINE
  8
0
  6
BYLAYER
 62
     7
 10
629.436860
 20
-108.836177
 30
0.0
 11
629.436860
 21
-100.836177
 31
0.0
  0
LINE
  8
0
  6
BYLAYER
 62
     7
 10
647.436860
 20
-88.836177
 30
0.0
 11
639.436860
 21
-88.836177
 31
0.0
  0
LINE
  8
0
  6
BYLAYER
 62
     7
 10
647.436860
 20
-80.836177
 30
0.0
 11
647.436860
 21
-88.836177
 31
0.0
  0
LINE
  8
0
  6
BYLAYER
 62
     7
 10
647.436860
 20
-80.836177
 30
0.0
 11
639.436860
 21
-80.836177
 31
0.0
  0
LINE
  8
0
  6
BYLAYER
 62
     7
 10
639.436860
 20
-88.836177
 30
0.0
 11
639.436860
 21
-80.836177
 31
0.0
  0
LINE
  8
0
  6
BYLAYER
 62
     7
 10
677.436860
 20
-120.836177
 30
0.0
 11
669.436860
 21
-120.836177
 31
0.0
  0
LINE
  8
0
  6
BYLAYER
 62
     7
 10
677.436860
 20
-138.836177
 30
0.0
 11
677.436860
 21
-130.836177
 31
0.0
  0
LINE
  8
0
  6
BYLAYER
 62
     7
 10
677.436860
 20
-148.836177
 30
0.0
 11
677.436860
 21
-140.836177
 31
0.0
  0
LINE
  8
0
  6
BYLAYER
 62
     7
 10
677.436860
 20
-128.836177
 30
0.0
 11
677.436860
 21
-120.836177
 31
0.0
  0
LINE
  8
0
  6
BYLAYER
 62
     7
 10
669.436860
 20
-140.836177
 30
0.0
 11
669.436860
 21
-148.836177
 31
0.0
  0
LINE
  8
0
  6
BYLAYER
 62
     7
 10
667.436860
 20
-140.836177
 30
0.0
 11
667.436860
 21
-148.836177
 31
0.0
  0
LINE
  8
0
  6
BYLAYER
 62
     7
 10
677.436860
 20
-128.836177
 30
0.0
 11
669.436860
 21
-128.836177
 31
0.0
  0
LINE
  8
0
  6
BYLAYER
 62
     7
 10
677.436860
 20
-130.836177
 30
0.0
 11
669.436860
 21
-130.836177
 31
0.0
  0
LINE
  8
0
  6
BYLAYER
 62
     7
 10
677.436860
 20
-138.836177
 30
0.0
 11
669.436860
 21
-138.836177
 31
0.0
  0
LINE
  8
0
  6
BYLAYER
 62
     7
 10
667.436860
 20
-140.836177
 30
0.0
 11
659.598861
 21
-140.836177
 31
0.0
  0
LINE
  8
0
  6
BYLAYER
 62
     7
 10
677.436860
 20
-140.836177
 30
0.0
 11
669.436860
 21
-140.836177
 31
0.0
  0
LINE
  8
0
  6
BYLAYER
 62
     7
 10
667.436860
 20
-148.836177
 30
0.0
 11
659.598861
 21
-148.836177
 31
0.0
  0
LINE
  8
0
  6
BYLAYER
 62
     7
 10
677.436860
 20
-148.836177
 30
0.0
 11
669.436860
 21
-148.836177
 31
0.0
  0
LINE
  8
0
  6
BYLAYER
 62
     7
 10
659.598861
 20
-140.836177
 30
0.0
 11
659.598861
 21
-148.836177
 31
0.0
  0
LINE
  8
0
  6
BYLAYER
 62
     7
 10
669.436860
 20
-120.836177
 30
0.0
 11
669.436860
 21
-128.836177
 31
0.0
  0
LINE
  8
0
  6
BYLAYER
 62
     7
 10
669.436860
 20
-130.836177
 30
0.0
 11
669.436860
 21
-138.836177
 31
0.0
  0
LINE
  8
0
  6
BYLAYER
 62
     7
 10
667.436860
 20
-120.836177
 30
0.0
 11
659.436860
 21
-120.836177
 31
0.0
  0
LINE
  8
0
  6
BYLAYER
 62
     7
 10
667.436860
 20
-138.836177
 30
0.0
 11
667.436860
 21
-130.836177
 31
0.0
  0
LINE
  8
0
  6
BYLAYER
 62
     7
 10
667.436860
 20
-128.836177
 30
0.0
 11
667.436860
 21
-120.836177
 31
0.0
  0
LINE
  8
0
  6
BYLAYER
 62
     7
 10
667.436860
 20
-128.836177
 30
0.0
 11
659.436860
 21
-128.836177
 31
0.0
  0
LINE
  8
0
  6
BYLAYER
 62
     7
 10
667.436860
 20
-130.836177
 30
0.0
 11
659.436860
 21
-130.836177
 31
0.0
  0
LINE
  8
0
  6
BYLAYER
 62
     7
 10
667.436860
 20
-138.836177
 30
0.0
 11
659.436860
 21
-138.836177
 31
0.0
  0
LINE
  8
0
  6
BYLAYER
 62
     7
 10
659.436860
 20
-120.836177
 30
0.0
 11
659.436860
 21
-128.836177
 31
0.0
  0
LINE
  8
0
  6
BYLAYER
 62
     7
 10
659.436860
 20
-130.836177
 30
0.0
 11
659.436860
 21
-138.836177
 31
0.0
  0
LINE
  8
0
  6
BYLAYER
 62
     7
 10
657.436860
 20
-120.836177
 30
0.0
 11
649.436860
 21
-120.836177
 31
0.0
  0
LINE
  8
0
  6
BYLAYER
 62
     7
 10
657.436860
 20
-138.836177
 30
0.0
 11
657.436860
 21
-130.836177
 31
0.0
  0
LINE
  8
0
  6
BYLAYER
 62
     7
 10
657.436860
 20
-128.836177
 30
0.0
 11
657.436860
 21
-120.836177
 31
0.0
  0
LINE
  8
0
  6
BYLAYER
 62
     7
 10
657.436860
 20
-128.836177
 30
0.0
 11
649.436860
 21
-128.836177
 31
0.0
  0
LINE
  8
0
  6
BYLAYER
 62
     7
 10
657.436860
 20
-130.836177
 30
0.0
 11
649.436860
 21
-130.836177
 31
0.0
  0
LINE
  8
0
  6
BYLAYER
 62
     7
 10
657.436860
 20
-138.836177
 30
0.0
 11
649.436860
 21
-138.836177
 31
0.0
  0
LINE
  8
0
  6
BYLAYER
 62
     7
 10
649.436860
 20
-120.836177
 30
0.0
 11
649.436860
 21
-128.836177
 31
0.0
  0
LINE
  8
0
  6
BYLAYER
 62
     7
 10
649.436860
 20
-130.836177
 30
0.0
 11
649.436860
 21
-138.836177
 31
0.0
  0
LINE
  8
0
  6
BYLAYER
 62
     7
 10
667.436860
 20
-110.836177
 30
0.0
 11
659.436860
 21
-110.836177
 31
0.0
  0
LINE
  8
0
  6
BYLAYER
 62
     7
 10
667.436860
 20
-118.836177
 30
0.0
 11
667.436860
 21
-110.836177
 31
0.0
  0
LINE
  8
0
  6
BYLAYER
 62
     7
 10
667.436860
 20
-118.836177
 30
0.0
 11
659.436860
 21
-118.836177
 31
0.0
  0
LINE
  8
0
  6
BYLAYER
 62
     7
 10
659.436860
 20
-110.836177
 30
0.0
 11
659.436860
 21
-118.836177
 31
0.0
  0
LINE
  8
0
  6
BYLAYER
 62
     7
 10
657.436860
 20
-110.836177
 30
0.0
 11
649.436860
 21
-110.836177
 31
0.0
  0
LINE
  8
0
  6
BYLAYER
 62
     7
 10
657.436860
 20
-118.836177
 30
0.0
 11
657.436860
 21
-110.836177
 31
0.0
  0
LINE
  8
0
  6
BYLAYER
 62
     7
 10
657.436860
 20
-118.836177
 30
0.0
 11
649.436860
 21
-118.836177
 31
0.0
  0
LINE
  8
0
  6
BYLAYER
 62
     7
 10
649.436860
 20
-110.836177
 30
0.0
 11
649.436860
 21
-118.836177
 31
0.0
  0
LINE
  8
0
  6
BYLAYER
 62
     7
 10
647.436860
 20
-120.836177
 30
0.0
 11
639.436860
 21
-120.836177
 31
0.0
  0
LINE
  8
0
  6
BYLAYER
 62
     7
 10
647.436860
 20
-128.836177
 30
0.0
 11
647.436860
 21
-120.836177
 31
0.0
  0
LINE
  8
0
  6
BYLAYER
 62
     7
 10
647.436860
 20
-128.836177
 30
0.0
 11
639.436860
 21
-128.836177
 31
0.0
  0
LINE
  8
0
  6
BYLAYER
 62
     7
 10
639.436860
 20
-120.836177
 30
0.0
 11
639.436860
 21
-128.836177
 31
0.0
  0
LINE
  8
0
  6
BYLAYER
 62
     7
 10
647.436860
 20
-110.836177
 30
0.0
 11
639.436860
 21
-110.836177
 31
0.0
  0
LINE
  8
0
  6
BYLAYER
 62
     7
 10
647.436860
 20
-118.836177
 30
0.0
 11
647.436860
 21
-110.836177
 31
0.0
  0
LINE
  8
0
  6
BYLAYER
 62
     7
 10
647.436860
 20
-118.836177
 30
0.0
 11
639.436860
 21
-118.836177
 31
0.0
  0
LINE
  8
0
  6
BYLAYER
 62
     7
 10
639.436860
 20
-110.836177
 30
0.0
 11
639.436860
 21
-118.836177
 31
0.0
  0
LINE
  8
0
  6
BYLAYER
 62
     7
 10
677.436860
 20
-158.836177
 30
0.0
 11
677.436860
 21
-150.836177
 31
0.0
  0
LINE
  8
0
  6
BYLAYER
 62
     7
 10
669.436860
 20
-150.836177
 30
0.0
 11
669.436860
 21
-158.836177
 31
0.0
  0
LINE
  8
0
  6
BYLAYER
 62
     7
 10
677.436860
 20
-150.836177
 30
0.0
 11
669.436860
 21
-150.836177
 31
0.0
  0
LINE
  8
0
  6
BYLAYER
 62
     7
 10
677.436860
 20
-158.836177
 30
0.0
 11
669.436860
 21
-158.836177
 31
0.0
  0
LINE
  8
0
  6
BYLAYER
 62
     7
 10
657.436860
 20
-148.836177
 30
0.0
 11
657.436860
 21
-140.836177
 31
0.0
  0
LINE
  8
0
  6
BYLAYER
 62
     7
 10
657.436860
 20
-140.836177
 30
0.0
 11
649.436860
 21
-140.836177
 31
0.0
  0
LINE
  8
0
  6
BYLAYER
 62
     7
 10
657.436860
 20
-148.836177
 30
0.0
 11
649.436860
 21
-148.836177
 31
0.0
  0
LINE
  8
0
  6
BYLAYER
 62
     7
 10
649.436860
 20
-140.836177
 30
0.0
 11
649.436860
 21
-148.836177
 31
0.0
  0
LINE
  8
0
  6
BYLAYER
 62
     7
 10
637.436860
 20
-110.836177
 30
0.0
 11
629.436860
 21
-110.836177
 31
0.0
  0
LINE
  8
0
  6
BYLAYER
 62
     7
 10
637.436860
 20
-118.836177
 30
0.0
 11
637.436860
 21
-110.836177
 31
0.0
  0
LINE
  8
0
  6
BYLAYER
 62
     7
 10
637.436860
 20
-118.836177
 30
0.0
 11
629.436860
 21
-118.836177
 31
0.0
  0
LINE
  8
0
  6
BYLAYER
 62
     7
 10
629.436860
 20
-110.836177
 30
0.0
 11
629.436860
 21
-118.836177
 31
0.0
  0
LINE
  8
0
  6
BYLAYER
 62
     7
 10
647.436860
 20
-130.836177
 30
0.0
 11
639.436860
 21
-130.836177
 31
0.0
  0
LINE
  8
0
  6
BYLAYER
 62
     7
 10
647.436860
 20
-138.836177
 30
0.0
 11
647.436860
 21
-130.836177
 31
0.0
  0
LINE
  8
0
  6
BYLAYER
 62
     7
 10
647.436860
 20
-138.836177
 30
0.0
 11
639.436860
 21
-138.836177
 31
0.0
  0
LINE
  8
0
  6
BYLAYER
 62
     7
 10
639.436860
 20
-130.836177
 30
0.0
 11
639.436860
 21
-138.836177
 31
0.0
  0
ARC
  8
0
  6
BYLAYER
 62
     7
 10
714.186860
 20
-22.336177
 30
0.0
 40
1.500000
 50
180.000000
 51
265.219808
  0
ARC
  8
0
  6
BYLAYER
 62
     7
 10
642.686860
 20
-22.336177
 30
0.0
 40
1.5
 50
274.780192
 51
360.000000
  0
ARC
  8
0
  6
BYLAYER
 62
     7
 10
650.682522
 20
-22.336177
 30
0.0
 40
1.5
 50
270.0
 51
360.0
  0
LINE
  8
0
  6
BYLAYER
 62
     7
 10
712.686860
 20
-22.336177
 30
0.0
 11
712.686860
 21
-0.836177
 31
0.0
  0
LINE
  8
0
  6
BYLAYER
 62
     7
 10
711.186860
 20
0.663823
 30
0.0
 11
645.686860
 21
0.663823
 31
0.0
  0
ARC
  8
0
  6
BYLAYER
 62
     7
 10
711.186860
 20
-0.836177
 30
0.0
 40
1.5
 50
0.0
 51
90.0
  0
ARC
  8
0
  6
BYLAYER
 62
     7
 10
645.686860
 20
-0.836177
 30
0.0
 40
1.5
 50
90.0
 51
180.0
  0
LINE
  8
0
  6
BYLAYER
 62
     7
 10
644.186860
 20
-22.336177
 30
0.0
 11
644.186860
 21
-0.836177
 31
0.0
  0
LINE
  8
0
  6
BYLAYER
 62
     7
 10
652.182522
 20
-22.336177
 30
0.0
 11
652.182522
 21
-0.836177
 31
0.0
  0
ARC
  8
0
  6
BYLAYER
 62
     7
 10
653.682522
 20
-0.836177
 30
0.0
 40
1.5
 50
90.0
 51
180.0
  0
ARC
  8
0
  6
BYLAYER
 62
     7
 10
703.191198
 20
-0.836177
 30
0.0
 40
1.5
 50
0.0
 51
90.0
  0
LINE
  8
0
  6
BYLAYER
 62
     7
 10
657.843207
 20
0.663823
 30
0.0
 11
658.335754
 21
-13.440875
 31
0.0
  0
ARC
  8
0
  6
BYLAYER
 62
     7
 10
661.333926
 20
-13.336177
 30
0.0
 40
3.000000
 50
182.0
 51
270.0
  0
LINE
  8
0
  6
BYLAYER
 62
     7
 10
668.537966
 20
-13.440875
 30
0.0
 11
669.030513
 21
0.663823
 31
0.0
  0
ARC
  8
0
  6
BYLAYER
 62
     7
 10
665.539794
 20
-13.336177
 30
0.0
 40
3.0
 50
270.0
 51
358.0
  0
LINE
  8
0
  6
BYLAYER
 62
     7
 10
683.537966
 20
-13.440875
 30
0.0
 11
684.030513
 21
0.663823
 31
0.0
  0
ARC
  8
0
  6
BYLAYER
 62
     7
 10
680.539794
 20
-13.336177
 30
0.0
 40
3.0
 50
270.0
 51
358.0
  0
LINE
  8
0
  6
BYLAYER
 62
     7
 10
698.537966
 20
-13.440875
 30
0.0
 11
699.030513
 21
0.663823
 31
0.0
  0
ARC
  8
0
  6
BYLAYER
 62
     7
 10
695.539794
 20
-13.336177
 30
0.0
 40
3.0
 50
270.0
 51
358.0
  0
LINE
  8
0
  6
BYLAYER
 62
     7
 10
687.843207
 20
0.663823
 30
0.0
 11
688.335754
 21
-13.440875
 31
0.0
  0
ARC
  8
0
  6
BYLAYER
 62
     7
 10
691.333926
 20
-13.336177
 30
0.0
 40
3.000000
 50
182.0
 51
270.0
  0
LINE
  8
0
  6
BYLAYER
 62
     7
 10
672.843207
 20
0.663823
 30
0.0
 11
673.335754
 21
-13.440875
 31
0.0
  0
ARC
  8
0
  6
BYLAYER
 62
     7
 10
676.333926
 20
-13.336177
 30
0.0
 40
3.000000
 50
182.0
 51
270.0
  0
LINE
  8
0
  6
BYLAYER
 62
     7
 10
691.333926
 20
-16.336177
 30
0.0
 11
695.539794
 21
-16.336177
 31
0.0
  0
LINE
  8
0
  6
BYLAYER
 62
     7
 10
676.333926
 20
-16.336177
 30
0.0
 11
680.539794
 21
-16.336177
 31
0.0
  0
LINE
  8
0
  6
BYLAYER
 62
     7
 10
661.333926
 20
-16.336177
 30
0.0
 11
665.539794
 21
-16.336177
 31
0.0
  0
LINE
  8
0
  6
BYLAYER
 62
     7
 10
672.878128
 20
-0.336177
 30
0.0
 11
683.995592
 21
-0.336177
 31
0.0
  0
LINE
  8
0
  6
BYLAYER
 62
     7
 10
687.878128
 20
-0.336177
 30
0.0
 11
698.995592
 21
-0.336177
 31
0.0
  0
LINE
  8
0
  6
BYLAYER
 62
     7
 10
657.878128
 20
-0.336177
 30
0.0
 11
668.995592
 21
-0.336177
 31
0.0
  0
LINE
  8
0
  6
BYLAYER
 62
     7
 10
704.691198
 20
-0.836177
 30
0.0
 11
704.691198
 21
-22.336177
 31
0.0
  0
ARC
  8
0
  6
BYLAYER
 62
     7
 10
642.936860
 20
-25.325742
 30
0.0
 40
1.5
 50
94.780192
 51
180.0
  0
LINE
  8
0
  6
BYLAYER
 62
     7
 10
642.936860
 20
-23.836177
 30
0.0
 11
714.186860
 21
-23.836177
 31
0.0
  0
ARC
  8
0
  6
BYLAYER
 62
     7
 10
713.936860
 20
-25.325742
 30
0.0
 40
1.500000
 50
0.0
 51
85.219808
  0
LINE
  8
0
  6
BYLAYER
 62
     7
 10
715.436860
 20
-32.836177
 30
0.0
 11
715.436860
 21
-25.325742
 31
0.0
  0
ARC
  8
0
  6
BYLAYER
 62
     7
 10
706.191198
 20
-22.336177
 30
0.0
 40
1.5
 50
180.000000
 51
270.000000
  0
LINE
  8
0
  6
BYLAYER
 62
     7
 10
715.436860
 20
-30.836116
 30
0.0
 11
641.436860
 21
-30.836116
 31
0.0
  0
LINE
  8
0
  6
BYLAYER
 62
     7
 10
641.436860
 20
-25.325742
 30
0.0
 11
641.436860
 21
-32.836177
 31
0.0
  0
LINE
  8
0
  6
BYLAYER
 62
     7
 10
641.436860
 20
-32.836177
 30
0.0
 11
715.436860
 21
-32.836177
 31
0.0
  0
LINE
  8
0
  6
BYLAYER
 62
     7
 10
641.436860
 20
-372.836177
 30
0.0
 11
641.436860
 21
-378.906634
 31
0.0
  0
LINE
  8
0
  6
BYLAYER
 62
     7
 10
715.436860
 20
-372.836177
 30
0.0
 11
715.436860
 21
-378.906634
 31
0.0
  0
LINE
  8
0
  6
BYLAYER
 62
     7
 10
641.436860
 20
-377.336177
 30
0.0
 11
642.135631
 21
-378.546481
 31
0.0
  0
LINE
  8
0
  6
BYLAYER
 62
     7
 10
715.436860
 20
-377.336177
 30
0.0
 11
714.738089
 21
-378.546481
 31
0.0
  0
ARC
  8
0
  6
BYLAYER
 62
     7
 10
714.186860
 20
-362.336177
 30
0.0
 40
1.500000
 50
180.000000
 51
265.219808
  0
ARC
  8
0
  6
BYLAYER
 62
     7
 10
642.686860
 20
-362.336177
 30
0.0
 40
1.5
 50
274.780192
 51
360.000000
  0
ARC
  8
0
  6
BYLAYER
 62
     7
 10
650.682522
 20
-362.336177
 30
0.0
 40
1.5
 50
270.0
 51
360.0
  0
LINE
  8
0
  6
BYLAYER
 62
     7
 10
712.686860
 20
-362.336177
 30
0.0
 11
712.686860
 21
-340.836177
 31
0.0
  0
LINE
  8
0
  6
BYLAYER
 62
     7
 10
711.186860
 20
-339.336177
 30
0.0
 11
645.686860
 21
-339.336177
 31
0.0
  0
ARC
  8
0
  6
BYLAYER
 62
     7
 10
711.186860
 20
-340.836177
 30
0.0
 40
1.5
 50
0.0
 51
90.0
  0
ARC
  8
0
  6
BYLAYER
 62
     7
 10
645.686860
 20
-340.836177
 30
0.0
 40
1.5
 50
90.0
 51
180.0
  0
LINE
  8
0
  6
BYLAYER
 62
     7
 10
644.186860
 20
-362.336177
 30
0.0
 11
644.186860
 21
-340.836177
 31
0.0
  0
LINE
  8
0
  6
BYLAYER
 62
     7
 10
652.182522
 20
-362.336177
 30
0.0
 11
652.182522
 21
-340.836177
 31
0.0
  0
ARC
  8
0
  6
BYLAYER
 62
     7
 10
653.682522
 20
-340.836177
 30
0.0
 40
1.5
 50
90.0
 51
180.0
  0
ARC
  8
0
  6
BYLAYER
 62
     7
 10
703.191198
 20
-340.836177
 30
0.0
 40
1.5
 50
0.0
 51
90.0
  0
LINE
  8
0
  6
BYLAYER
 62
     7
 10
657.843207
 20
-339.336177
 30
0.0
 11
658.335754
 21
-353.440875
 31
0.0
  0
ARC
  8
0
  6
BYLAYER
 62
     7
 10
661.333926
 20
-353.336177
 30
0.0
 40
3.000000
 50
182.0
 51
270.0
  0
LINE
  8
0
  6
BYLAYER
 62
     7
 10
668.537966
 20
-353.440875
 30
0.0
 11
669.030513
 21
-339.336177
 31
0.0
  0
ARC
  8
0
  6
BYLAYER
 62
     7
 10
665.539794
 20
-353.336177
 30
0.0
 40
3.000000
 50
270.0
 51
358.0
  0
LINE
  8
0
  6
BYLAYER
 62
     7
 10
683.537966
 20
-353.440875
 30
0.0
 11
684.030513
 21
-339.336177
 31
0.0
  0
ARC
  8
0
  6
BYLAYER
 62
     7
 10
680.539794
 20
-353.336177
 30
0.0
 40
3.000000
 50
270.0
 51
358.0
  0
LINE
  8
0
  6
BYLAYER
 62
     7
 10
698.537966
 20
-353.440875
 30
0.0
 11
699.030513
 21
-339.336177
 31
0.0
  0
ARC
  8
0
  6
BYLAYER
 62
     7
 10
695.539794
 20
-353.336177
 30
0.0
 40
3.000000
 50
270.0
 51
358.0
  0
LINE
  8
0
  6
BYLAYER
 62
     7
 10
687.843207
 20
-339.336177
 30
0.0
 11
688.335754
 21
-353.440875
 31
0.0
  0
ARC
  8
0
  6
BYLAYER
 62
     7
 10
691.333926
 20
-353.336177
 30
0.0
 40
3.000000
 50
182.0
 51
270.0
  0
LINE
  8
0
  6
BYLAYER
 62
     7
 10
672.843207
 20
-339.336177
 30
0.0
 11
673.335754
 21
-353.440875
 31
0.0
  0
ARC
  8
0
  6
BYLAYER
 62
     7
 10
676.333926
 20
-353.336177
 30
0.0
 40
3.000000
 50
182.0
 51
270.0
  0
LINE
  8
0
  6
BYLAYER
 62
     7
 10
691.333926
 20
-356.336177
 30
0.0
 11
695.539794
 21
-356.336177
 31
0.0
  0
LINE
  8
0
  6
BYLAYER
 62
     7
 10
676.333926
 20
-356.336177
 30
0.0
 11
680.539794
 21
-356.336177
 31
0.0
  0
LINE
  8
0
  6
BYLAYER
 62
     7
 10
661.333926
 20
-356.336177
 30
0.0
 11
665.539794
 21
-356.336177
 31
0.0
  0
LINE
  8
0
  6
BYLAYER
 62
     7
 10
672.878128
 20
-340.336177
 30
0.0
 11
683.995592
 21
-340.336177
 31
0.0
  0
LINE
  8
0
  6
BYLAYER
 62
     7
 10
687.878128
 20
-340.336177
 30
0.0
 11
698.995592
 21
-340.336177
 31
0.0
  0
LINE
  8
0
  6
BYLAYER
 62
     7
 10
657.878128
 20
-340.336177
 30
0.0
 11
668.995592
 21
-340.336177
 31
0.0
  0
LINE
  8
0
  6
BYLAYER
 62
     7
 10
704.691198
 20
-340.836177
 30
0.0
 11
704.691198
 21
-362.336177
 31
0.0
  0
ARC
  8
0
  6
BYLAYER
 62
     7
 10
642.936860
 20
-365.325742
 30
0.0
 40
1.5
 50
94.780192
 51
180.0
  0
LINE
  8
0
  6
BYLAYER
 62
     7
 10
642.936860
 20
-363.836177
 30
0.0
 11
714.186860
 21
-363.836177
 31
0.0
  0
ARC
  8
0
  6
BYLAYER
 62
     7
 10
713.936860
 20
-365.325742
 30
0.0
 40
1.500000
 50
0.0
 51
85.219808
  0
LINE
  8
0
  6
BYLAYER
 62
     7
 10
715.436860
 20
-372.836177
 30
0.0
 11
715.436860
 21
-365.325742
 31
0.0
  0
ARC
  8
0
  6
BYLAYER
 62
     7
 10
706.191198
 20
-362.336177
 30
0.0
 40
1.5
 50
180.000000
 51
270.000000
  0
LINE
  8
0
  6
BYLAYER
 62
     7
 10
715.436860
 20
-370.836116
 30
0.0
 11
691.045998
 21
-370.836116
 31
0.0
  0
LINE
  8
0
  6
BYLAYER
 62
     7
 10
665.827722
 20
-370.836116
 30
0.0
 11
641.436860
 21
-370.836116
 31
0.0
  0
LINE
  8
0
  6
BYLAYER
 62
     7
 10
641.436860
 20
-365.325742
 30
0.0
 11
641.436860
 21
-372.836177
 31
0.0
  0
LINE
  8
0
  6
BYLAYER
 62
     7
 10
700.139394
 20
-372.836177
 30
0.0
 11
715.436860
 21
-372.836177
 31
0.0
  0
LINE
  8
0
  6
BYLAYER
 62
     7
 10
641.436860
 20
-372.836177
 30
0.0
 11
656.734326
 21
-372.836177
 31
0.0
  0
ARC
  8
0
  6
BYLAYER
 62
     1
 10
678.436860
 20
-449.836177
 30
0.0
 40
80.0
 50
297.145390
 51
602.85461
  0
LINE
  8
0
  6
BYLAYER
 62
     2
 10
730.185029
 20
-398.088130
 30
0.0
 11
722.280854
 21
-395.970088
 31
0.0
  0
LINE
  8
0
  6
BYLAYER
 62
     2
 10
722.280854
 20
-395.970088
 30
0.0
 11
716.494721
 21
-401.756282
 31
0.0
  0
LINE
  8
0
  6
BYLAYER
 62
     2
 10
716.494721
 20
-401.756282
 30
0.0
 11
718.612641
 21
-409.660457
 31
0.0
  0
LINE
  8
0
  6
BYLAYER
 62
     2
 10
718.612641
 20
-409.660457
 30
0.0
 11
726.516694
 21
-411.778255
 31
0.0
  0
LINE
  8
0
  6
BYLAYER
 62
     2
 10
726.516694
 20
-411.778255
 30
0.0
 11
732.302827
 21
-405.992061
 31
0.0
  0
LINE
  8
0
  6
BYLAYER
 62
     2
 10
732.302827
 20
-405.992061
 30
0.0
 11
730.185029
 21
-398.088130
 31
0.0
  0
ARC
  8
0
  6
BYLAYER
 62
     1
 10
695.196503
 20
-382.147412
 30
0.0
 40
21.830231
 50
330.000242
 51
345.714660
  0
ARC
  8
0
  6
BYLAYER
 62
     1
 10
711.960997
 20
-386.416060
 30
0.0
 40
4.530821
 50
345.714660
 51
366.017126
  0
ARC
  8
0
  6
BYLAYER
 62
     1
 10
714.298496
 20
-386.169672
 30
0.0
 40
2.180372
 50
6.017126
 51
25.377355
  0
ARC
  8
0
  6
BYLAYER
 62
     1
 10
715.515206
 20
-385.614893
 30
0.0
 40
0.843545
 50
26.750211
 51
59.999720
  0
ARC
  8
0
  6
BYLAYER
 62
     1
 10
715.515208
 20
-385.614890
 30
0.0
 40
0.843541
 50
59.999720
 51
93.249387
  0
ARC
  8
0
  6
BYLAYER
 62
     1
 10
715.643103
 20
-386.945967
 30
0.0
 40
2.180353
 50
94.622317
 51
113.982711
  0
ARC
  8
0
  6
BYLAYER
 62
     1
 10
716.598462
 20
-389.093484
 30
0.0
 40
4.530787
 50
113.982711
 51
134.285237
  0
ARC
  8
0
  6
BYLAYER
 62
     1
 10
728.677408
 20
-401.477621
 30
0.0
 40
21.830146
 50
134.285237
 51
149.999595
  0
ARC
  8
0
  6
BYLAYER
 62
     1
 10
628.196488
 20
-401.477489
 30
0.0
 40
21.830230
 50
30.000253
 51
45.714707
  0
ARC
  8
0
  6
BYLAYER
 62
     1
 10
640.275495
 20
-389.093312
 30
0.0
 40
4.530801
 50
45.714707
 51
66.017249
  0
ARC
  8
0
  6
BYLAYER
 62
     1
 10
641.230860
 20
-386.945788
 30
0.0
 40
2.180357
 50
66.017249
 51
85.377645
  0
ARC
  8
0
  6
BYLAYER
 62
     1
 10
641.358756
 20
-385.614707
 30
0.0
 40
0.843541
 50
86.750575
 51
120.000280
  0
ARC
  8
0
  6
BYLAYER
 62
     1
 10
641.358758
 20
-385.614710
 30
0.0
 40
0.843545
 50
120.000280
 51
153.249781
  0
ARC
  8
0
  6
BYLAYER
 62
     1
 10
642.575468
 20
-386.169489
 30
0.0
 40
2.180371
 50
154.622637
 51
173.982866
  0
ARC
  8
0
  6
BYLAYER
 62
     1
 10
644.912964
 20
-386.415876
 30
0.0
 40
4.530818
 50
173.982866
 51
194.285328
  0
ARC
  8
0
  6
BYLAYER
 62
     1
 10
661.677444
 20
-382.147236
 30
0.0
 40
21.830213
 50
194.285328
 51
209.999726
  0
ARC
  8
0
  6
BYLAYER
 62
     1
 10
611.436860
 20
-469.166256
 30
0.0
 40
21.830262
 50
90.0
 51
105.714656
  0
ARC
  8
0
  6
BYLAYER
 62
     1
 10
606.751375
 20
-452.513466
 30
0.0
 40
4.530863
 50
105.714656
 51
126.017171
  0
ARC
  8
0
  6
BYLAYER
 62
     1
 10
605.369235
 20
-450.612311
 30
0.0
 40
2.180395
 50
126.017171
 51
145.377515
  0
ARC
  8
0
  6
BYLAYER
 62
     1
 10
604.280416
 20
-449.835994
 30
0.0
 40
0.843556
 50
146.750415
 51
180.000000
  0
ARC
  8
0
  6
BYLAYER
 62
     1
 10
604.280416
 20
-449.835994
 30
0.0
 40
0.843556
 50
180.000000
 51
213.249585
  0
ARC
  8
0
  6
BYLAYER
 62
     1
 10
605.369235
 20
-449.059677
 30
0.0
 40
2.180395
 50
214.622485
 51
233.982829
  0
ARC
  8
0
  6
BYLAYER
 62
     1
 10
606.751375
 20
-447.158522
 30
0.0
 40
4.530863
 50
233.982829
 51
254.285344
  0
ARC
  8
0
  6
BYLAYER
 62
     1
 10
611.436860
 20
-430.505732
 30
0.0
 40
21.830262
 50
254.285344
 51
270.000000
  0
ARC
  8
0
  6
BYLAYER
 62
     1
 10
745.436860
 20
-430.506037
 30
0.0
 40
21.830262
 50
270.0
 51
285.714656
  0
ARC
  8
0
  6
BYLAYER
 62
     1
 10
750.122345
 20
-447.158827
 30
0.0
 40
4.530863
 50
285.714656
 51
306.017171
  0
ARC
  8
0
  6
BYLAYER
 62
     1
 10
751.504485
 20
-449.059982
 30
0.0
 40
2.180395
 50
306.017171
 51
325.377515
  0
ARC
  8
0
  6
BYLAYER
 62
     1
 10
752.593304
 20
-449.836299
 30
0.0
 40
0.843556
 50
326.750415
 51
360.000000
  0
ARC
  8
0
  6
BYLAYER
 62
     1
 10
752.593304
 20
-449.836299
 30
0.0
 40
0.843556
 50
0.0
 51
33.249585
  0
ARC
  8
0
  6
BYLAYER
 62
     1
 10
751.504485
 20
-450.612616
 30
0.0
 40
2.180395
 50
34.622485
 51
53.982829
  0
ARC
  8
0
  6
BYLAYER
 62
     1
 10
750.122345
 20
-452.513771
 30
0.0
 40
4.530863
 50
53.982829
 51
74.285344
  0
ARC
  8
0
  6
BYLAYER
 62
     1
 10
745.436860
 20
-469.166561
 30
0.0
 40
21.830262
 50
74.285344
 51
90.000000
  0
ARC
  8
0
  6
BYLAYER
 62
     1
 10
678.436860
 20
-449.836177
 30
0.0
 40
33.750000
 50
62.733956
 51
117.266044
  0
ARC
  8
0
  6
BYLAYER
 62
     1
 10
660.561860
 20
-418.875789
 30
0.0
 40
0.999992
 50
252.813551
 51
347.186439
  0
ARC
  8
0
  6
BYLAYER
 62
     1
 10
662.227204
 20
-413.491939
 30
0.0
 40
6.635454
 50
209.461958
 51
252.811966
  0
ARC
  8
0
  6
BYLAYER
 62
     1
 10
655.066682
 20
-417.626094
 30
0.0
 40
6.635443
 50
347.188078
 51
390.538087
  0
LINE
  8
0
  6
BYLAYER
 62
     1
 10
642.771882
 20
-393.062190
 30
0.0
 11
656.386872
 21
-416.641536
 31
0.0
  0
ARC
  8
0
  6
BYLAYER
 62
     1
 10
638.857026
 20
-445.702022
 30
0.0
 40
6.635454
 50
269.461946
 51
297.655108
  0
ARC
  8
0
  6
BYLAYER
 62
     1
 10
638.857026
 20
-453.970302
 30
0.0
 40
6.635425
 50
62.344761
 51
90.538092
  0
ARC
  8
0
  6
BYLAYER
 62
     1
 10
718.016694
 20
-453.970332
 30
0.0
 40
6.635454
 50
89.461961
 51
117.655108
  0
ARC
  8
0
  6
BYLAYER
 62
     1
 10
718.016694
 20
-445.702052
 30
0.0
 40
6.635425
 50
242.344761
 51
270.538083
  0
ARC
  8
0
  6
BYLAYER
 62
     1
 10
696.311860
 20
-418.875789
 30
0.0
 40
0.999990
 50
192.813549
 51
287.186423
  0
ARC
  8
0
  6
BYLAYER
 62
     1
 10
701.807099
 20
-417.626094
 30
0.0
 40
6.635501
 50
149.461956
 51
192.811965
  0
ARC
  8
0
  6
BYLAYER
 62
     1
 10
694.646516
 20
-413.491969
 30
0.0
 40
6.635462
 50
287.188062
 51
330.538071
  0
LINE
  8
0
  6
BYLAYER
 62
     1
 10
709.772065
 20
-390.562434
 30
0.0
 11
696.159028
 21
-414.143397
 31
0.0
  0
LINE
  8
0
  6
BYLAYER
 62
     1
 10
714.101899
 20
-393.062251
 30
0.0
 11
700.487092
 21
-416.641109
 31
0.0
  0
LINE
  8
0
  6
BYLAYER
 62
     1
 10
611.436677
 20
-447.336299
 30
0.0
 11
638.665131
 21
-447.337642
 31
0.0
  0
LINE
  8
0
  6
BYLAYER
 62
     1
 10
611.436677
 20
-452.335933
 30
0.0
 11
638.665925
 21
-452.334712
 31
0.0
  0
LINE
  8
0
  6
BYLAYER
 62
     1
 10
745.437043
 20
-447.336360
 30
0.0
 11
718.208161
 21
-447.337642
 31
0.0
  0
LINE
  8
0
  6
BYLAYER
 62
     1
 10
745.437043
 20
-452.336055
 30
0.0
 11
718.208527
 21
-452.334712
 31
0.0
  0
LINE
  8
0
  6
BYLAYER
 62
     1
 10
647.101716
 20
-390.562373
 30
0.0
 11
652.679292
 21
-400.224086
 31
0.0
  0
LINE
  8
0
  6
BYLAYER
 62
     1
 10
652.679292
 20
-400.224086
 30
0.0
 11
660.714143
 21
-414.142543
 31
0.0
  0
ARC
  8
0
  6
BYLAYER
 62
     1
 10
678.436860
 20
-449.836177
 30
0.0
 40
55.750019
 50
62.569423
 51
117.430500
  0
ARC
  8
0
  6
BYLAYER
 62
     1
 10
678.436738
 20
-449.836024
 30
0.0
 40
55.750019
 50
122.569425
 51
177.430502
  0
ARC
  8
0
  6
BYLAYER
 62
     1
 10
678.436555
 20
-449.836024
 30
0.0
 40
55.750019
 50
182.569427
 51
225.609465
  0
ARC
  8
0
  6
BYLAYER
 62
     1
 10
678.436616
 20
-449.836330
 30
0.0
 40
55.750019
 50
314.391282
 51
357.430520
  0
ARC
  8
0
  6
BYLAYER
 62
     1
 10
678.436738
 20
-449.836330
 30
0.0
 40
55.750080
 50
2.569418
 51
57.430505
  0
LINE
  8
0
  6
BYLAYER
 62
     2
 10
730.185029
 20
-501.584285
 30
0.0
 11
722.280976
 21
-503.702144
 31
0.0
  0
LINE
  8
0
  6
BYLAYER
 62
     2
 10
722.280976
 20
-503.702144
 30
0.0
 11
717.436799
 21
-498.858018
 31
0.0
  0
LINE
  8
0
  6
BYLAYER
 62
     2
 10
717.436799
 20
-494.400100
 30
0.0
 11
718.612641
 21
-490.011836
 31
0.0
  0
LINE
  8
0
  6
BYLAYER
 62
     2
 10
718.612641
 20
-490.011836
 30
0.0
 11
726.516694
 21
-487.894038
 31
0.0
  0
LINE
  8
0
  6
BYLAYER
 62
     2
 10
726.516694
 20
-487.894038
 30
0.0
 11
732.302827
 21
-493.680232
 31
0.0
  0
LINE
  8
0
  6
BYLAYER
 62
     2
 10
732.302827
 20
-493.680232
 30
0.0
 11
730.185029
 21
-501.584285
 31
0.0
  0
LINE
  8
0
  6
BYLAYER
 62
     2
 10
626.688813
 20
-501.584285
 30
0.0
 11
634.592866
 21
-503.702144
 31
0.0
  0
LINE
  8
0
  6
BYLAYER
 62
     2
 10
634.592866
 20
-503.702144
 30
0.0
 11
639.436891
 21
-498.858170
 31
0.0
  0
LINE
  8
0
  6
BYLAYER
 62
     2
 10
639.436891
 20
-494.399532
 30
0.0
 11
638.261201
 21
-490.011836
 31
0.0
  0
LINE
  8
0
  6
BYLAYER
 62
     2
 10
638.261201
 20
-490.011836
 30
0.0
 11
630.357148
 21
-487.894038
 31
0.0
  0
LINE
  8
0
  6
BYLAYER
 62
     2
 10
630.357148
 20
-487.894038
 30
0.0
 11
624.571015
 21
-493.680232
 31
0.0
  0
LINE
  8
0
  6
BYLAYER
 62
     2
 10
624.571015
 20
-493.680232
 30
0.0
 11
626.688813
 21
-501.584285
 31
0.0
  0
LINE
  8
0
  6
BYLAYER
 62
     2
 10
626.688813
 20
-398.088130
 30
0.0
 11
634.592866
 21
-395.970088
 31
0.0
  0
LINE
  8
0
  6
BYLAYER
 62
     2
 10
634.592866
 20
-395.970088
 30
0.0
 11
640.378999
 21
-401.756282
 31
0.0
  0
LINE
  8
0
  6
BYLAYER
 62
     2
 10
640.378999
 20
-401.756282
 30
0.0
 11
638.261201
 21
-409.660396
 31
0.0
  0
LINE
  8
0
  6
BYLAYER
 62
     2
 10
638.261201
 20
-409.660396
 30
0.0
 11
630.357148
 21
-411.778255
 31
0.0
  0
LINE
  8
0
  6
BYLAYER
 62
     2
 10
630.357148
 20
-411.778255
 30
0.0
 11
624.570893
 21
-405.992061
 31
0.0
  0
LINE
  8
0
  6
BYLAYER
 62
     2
 10
624.570893
 20
-405.992061
 30
0.0
 11
626.688813
 21
-398.088130
 31
0.0
  0
ARC
  8
0
  6
BYLAYER
 62
     1
 10
204.436860
 20
-527.413997
 30
0.0
 40
2.000000
 50
180.000000
 51
267.000764
  0
LINE
  8
0
  6
BYLAYER
 62
     1
 10
212.436829
 20
-449.835933
 30
0.0
 11
212.436829
 21
-517.128902
 31
0.0
  0
LINE
  8
0
  6
BYLAYER
 62
     1
 10
193.436860
 20
-449.836177
 30
0.0
 11
193.436860
 21
-483.586055
 31
0.0
  0
LINE
  8
0
  6
BYLAYER
 62
     1
 10
193.436860
 20
-483.586055
 30
0.0
 11
193.627076
 21
-483.596004
 31
0.0
  0
ARC
  8
0
  6
BYLAYER
 62
     1
 10
193.600984
 20
-484.095332
 30
0.0
 40
0.500010
 50
21.639071
 51
87.008714
  0
LINE
  8
0
  6
BYLAYER
 62
     1
 10
202.436860
 20
-527.413997
 30
0.0
 11
202.436860
 21
-449.836177
 31
0.0
  0
ARC
  8
0
  6
BYLAYER
 62
     1
 10
200.436860
 20
-506.099971
 30
0.0
 40
1.999996
 50
0.0
 51
21.000038
  0
LINE
  8
0
  6
BYLAYER
 62
     1
 10
194.086549
 20
-483.975978
 30
0.0
 11
202.304017
 21
-505.383235
 31
0.0
  0
LINE
  8
0
  6
BYLAYER
 62
     1
 10
204.332246
 20
-529.411250
 30
0.0
 11
212.436829
 21
-529.835945
 31
0.0
  0
LINE
  8
0
  6
BYLAYER
 62
     1
 10
212.436829
 20
-529.835945
 30
0.0
 11
212.436829
 21
-505.335933
 31
0.0
  0
ARC
  8
0
  6
BYLAYER
 62
     1
 10
204.436860
 20
-372.258357
 30
0.0
 40
2.000000
 50
92.999236
 51
180.000000
  0
LINE
  8
0
  6
BYLAYER
 62
     1
 10
212.436829
 20
-449.836421
 30
0.0
 11
212.436829
 21
-382.543452
 31
0.0
  0
LINE
  8
0
  6
BYLAYER
 62
     1
 10
193.436860
 20
-449.836177
 30
0.0
 11
193.436860
 21
-416.086299
 31
0.0
  0
LINE
  8
0
  6
BYLAYER
 62
     1
 10
193.436860
 20
-416.086299
 30
0.0
 11
193.627076
 21
-416.076350
 31
0.0
  0
ARC
  8
0
  6
BYLAYER
 62
     1
 10
193.600984
 20
-415.577022
 30
0.0
 40
0.500010
 50
272.991286
 51
338.360929
  0
LINE
  8
0
  6
BYLAYER
 62
     1
 10
202.436860
 20
-372.258357
 30
0.0
 11
202.436860
 21
-449.836177
 31
0.0
  0
ARC
  8
0
  6
BYLAYER
 62
     1
 10
200.436860
 20
-393.572383
 30
0.0
 40
1.999996
 50
338.999962
 51
360.0
  0
LINE
  8
0
  6
BYLAYER
 62
     1
 10
194.086549
 20
-415.696376
 30
0.0
 11
202.304017
 21
-394.289119
 31
0.0
  0
LINE
  8
0
  6
BYLAYER
 62
     1
 10
204.332246
 20
-370.261104
 30
0.0
 11
212.436829
 21
-369.836409
 31
0.0
  0
LINE
  8
0
  6
BYLAYER
 62
     1
 10
212.436829
 20
-369.836409
 30
0.0
 11
212.436829
 21
-394.336421
 31
0.0
  0
ENDSEC
  0
EOF
