  0
SECTION
  2
HEADER
  9
$EXTMIN
 10
96.191126
 20
542.0
 30
0.0
  9
$EXTMAX
 10
754.730375
 20
0.0
 30
0.0
  0
ENDSEC
  0
SECTION
  2
TABLES
  0
ENDSEC
  0
SECTION
  2
BLOCKS
  0
ENDSEC
  0
SECTION
  2
ENTITIES
  0
LINE
  8
0
  6
BYLAYER
 62
     7
 10
256.786336
 20
-37.336116
 30
0.0
 11
250.986287
 21
-37.336116
 31
0.0
  0
ARC
  8
0
  6
BYLAYER
 62
     7
 10
256.786336
 20
-38.836116
 30
0.0
 40
1.500000
 50
0.0
 51
90.000003
  0
ARC
  8
0
  6
BYLAYER
 62
     7
 10
286.186345
 20
-38.836116
 30
0.0
 40
1.500000
 50
90.0
 51
180.000003
  0
LINE
  8
0
  6
BYLAYER
 62
     7
 10
295.786336
 20
-37.336116
 30
0.0
 11
286.186345
 21
-37.336116
 31
0.0
  0
ARC
  8
0
  6
BYLAYER
 62
     7
 10
295.786336
 20
-38.836116
 30
0.0
 40
1.5
 50
0.0
 51
90.000003
  0
LINE
  8
0
  6
BYLAYER
 62
     7
 10
330.986348
 20
-37.336055
 30
0.0
 11
325.186360
 21
-37.336055
 31
0.0
  0
ARC
  8
0
  6
BYLAYER
 62
     7
 10
325.186360
 20
-38.836055
 30
0.0
 40
1.5
 50
90.0
 51
180.000003
  0
ARC
  8
0
  6
BYLAYER
 62
     7
 10
271.486348
 20
-46.336055
 30
0.0
 40
13.200012
 50
180.000000
 51
359.999995
  0
ARC
  8
0
  6
BYLAYER
 62
     7
 10
310.486348
 20
-46.336055
 30
0.0
 40
13.200012
 50
180.000000
 51
359.999995
  0
LINE
  8
0
  6
BYLAYER
 62
     7
 10
250.986287
 20
-42.836116
 30
0.0
 11
256.786336
 21
-42.836116
 31
0.0
  0
LINE
  8
0
  6
BYLAYER
 62
     7
 10
258.286336
 20
-38.836116
 30
0.0
 11
258.286336
 21
-44.336116
 31
0.0
  0
LINE
  8
0
  6
BYLAYER
 62
     7
 10
258.286336
 20
-44.336116
 30
0.0
 11
258.286336
 21
-46.336055
 31
0.0
  0
ARC
  8
0
  6
BYLAYER
 62
     7
 10
256.786336
 20
-44.336116
 30
0.0
 40
1.500000
 50
0.0
 51
90.000003
  0
ARC
  8
0
  6
BYLAYER
 62
     7
 10
286.186345
 20
-44.336055
 30
0.0
 40
1.500000
 50
90.0
 51
180.000003
  0
LINE
  8
0
  6
BYLAYER
 62
     7
 10
286.186345
 20
-42.836055
 30
0.0
 11
295.786336
 21
-42.836055
 31
0.0
  0
LINE
  8
0
  6
BYLAYER
 62
     7
 10
297.286336
 20
-38.836116
 30
0.0
 11
297.286336
 21
-44.336055
 31
0.0
  0
LINE
  8
0
  6
BYLAYER
 62
     7
 10
297.286336
 20
-44.336055
 30
0.0
 11
297.286336
 21
-46.336055
 31
0.0
  0
ARC
  8
0
  6
BYLAYER
 62
     7
 10
295.786336
 20
-44.336055
 30
0.0
 40
1.5
 50
0.0
 51
90.000003
  0
LINE
  8
0
  6
BYLAYER
 62
     7
 10
323.686360
 20
-46.336055
 30
0.0
 11
323.686360
 21
-44.336055
 31
0.0
  0
LINE
  8
0
  6
BYLAYER
 62
     7
 10
323.686360
 20
-44.336055
 30
0.0
 11
323.686360
 21
-38.836055
 31
0.0
  0
LINE
  8
0
  6
BYLAYER
 62
     7
 10
325.186360
 20
-42.836055
 30
0.0
 11
330.986348
 21
-42.836055
 31
0.0
  0
ARC
  8
0
  6
BYLAYER
 62
     7
 10
325.186360
 20
-44.336055
 30
0.0
 40
1.5
 50
90.0
 51
180.000003
  0
LINE
  8
0
  6
BYLAYER
 62
     7
 10
284.686345
 20
-38.836116
 30
0.0
 11
284.686345
 21
-46.336055
 31
0.0
  0
LINE
  8
0
  6
BYLAYER
 62
     7
 10
248.986287
 20
-52.586177
 30
0.0
 11
250.986317
 21
-52.586177
 31
0.0
  0
LINE
  8
0
  6
BYLAYER
 62
     7
 10
351.486409
 20
-50.583888
 30
0.0
 11
330.986348
 21
-50.583888
 31
0.0
  0
LINE
  8
0
  6
BYLAYER
 62
     7
 10
330.986348
 20
-32.836055
 30
0.0
 11
330.986348
 21
-66.604090
 31
0.0
  0
LINE
  8
0
  6
BYLAYER
 62
     7
 10
351.486409
 20
-46.125788
 30
0.0
 11
330.986348
 21
-46.125788
 31
0.0
  0
LINE
  8
0
  6
BYLAYER
 62
     7
 10
330.986348
 20
-42.002345
 30
0.0
 11
351.486409
 21
-42.002345
 31
0.0
  0
LINE
  8
0
  6
BYLAYER
 62
     7
 10
330.986348
 20
-43.348048
 30
0.0
 11
351.486409
 21
-43.348048
 31
0.0
  0
ARC
  8
0
  6
BYLAYER
 62
     7
 10
251.836339
 20
-104.486201
 30
0.0
 40
0.850006
 50
90.0
 51
269.999998
  0
ARC
  8
0
  6
BYLAYER
 62
     7
 10
255.836263
 20
-104.486201
 30
0.0
 40
0.850006
 50
90.0
 51
269.999998
  0
LINE
  8
0
  6
BYLAYER
 62
     7
 10
251.836324
 20
-103.636195
 30
0.0
 11
351.486409
 21
-103.636277
 31
0.0
  0
LINE
  8
0
  6
BYLAYER
 62
     7
 10
251.836324
 20
-105.336177
 30
0.0
 11
351.486409
 21
-105.336259
 31
0.0
  0
ARC
  8
0
  6
BYLAYER
 62
     7
 10
251.836339
 20
-93.786189
 30
0.0
 40
0.850006
 50
90.0
 51
269.999998
  0
ARC
  8
0
  6
BYLAYER
 62
     7
 10
255.836263
 20
-93.786189
 30
0.0
 40
0.850006
 50
90.0
 51
269.999998
  0
ARC
  8
0
  6
BYLAYER
 62
     7
 10
251.836339
 20
-83.086207
 30
0.0
 40
0.850006
 50
90.0
 51
269.999998
  0
ARC
  8
0
  6
BYLAYER
 62
     7
 10
255.836263
 20
-83.086207
 30
0.0
 40
0.850006
 50
90.0
 51
269.999998
  0
LINE
  8
0
  6
BYLAYER
 62
     7
 10
251.836324
 20
-82.236201
 30
0.0
 11
351.486409
 21
-82.236284
 31
0.0
  0
LINE
  8
0
  6
BYLAYER
 62
     7
 10
251.836324
 20
-83.936183
 30
0.0
 11
351.486409
 21
-83.936265
 31
0.0
  0
ARC
  8
0
  6
BYLAYER
 62
     7
 10
251.836339
 20
-72.386195
 30
0.0
 40
0.850006
 50
90.0
 51
269.999998
  0
ARC
  8
0
  6
BYLAYER
 62
     7
 10
255.836263
 20
-72.386195
 30
0.0
 40
0.850006
 50
90.0
 51
269.999998
  0
LINE
  8
0
  6
BYLAYER
 62
     7
 10
251.836324
 20
-71.536189
 30
0.0
 11
351.486409
 21
-71.536271
 31
0.0
  0
LINE
  8
0
  6
BYLAYER
 62
     7
 10
251.836324
 20
-73.236170
 30
0.0
 11
351.486409
 21
-73.236253
 31
0.0
  0
LINE
  8
0
  6
BYLAYER
 62
     7
 10
258.986287
 20
-94.636164
 30
0.0
 11
258.986287
 21
-103.636195
 31
0.0
  0
LINE
  8
0
  6
BYLAYER
 62
     7
 10
258.986287
 20
-83.936152
 30
0.0
 11
258.986287
 21
-92.936183
 31
0.0
  0
LINE
  8
0
  6
BYLAYER
 62
     7
 10
258.986287
 20
-73.236170
 30
0.0
 11
258.986287
 21
-82.236201
 31
0.0
  0
LINE
  8
0
  6
BYLAYER
 62
     7
 10
258.986287
 20
-66.604090
 30
0.0
 11
258.986287
 21
-71.536189
 31
0.0
  0
LINE
  8
0
  6
BYLAYER
 62
     7
 10
250.986317
 20
-62.294154
 30
0.0
 11
258.986287
 21
-66.604090
 31
0.0
  0
LINE
  8
0
  6
BYLAYER
 62
     7
 10
351.486409
 20
-66.604090
 30
0.0
 11
258.986287
 21
-66.604090
 31
0.0
  0
ARC
  8
0
  6
BYLAYER
 62
     7
 10
251.836339
 20
-115.186152
 30
0.0
 40
0.850006
 50
90.0
 51
269.999998
  0
ARC
  8
0
  6
BYLAYER
 62
     7
 10
255.836263
 20
-115.186152
 30
0.0
 40
0.850006
 50
90.0
 51
269.999998
  0
LINE
  8
0
  6
BYLAYER
 62
     7
 10
251.836324
 20
-116.036158
 30
0.0
 11
351.486409
 21
-116.036076
 31
0.0
  0
LINE
  8
0
  6
BYLAYER
 62
     7
 10
251.836324
 20
-114.336177
 30
0.0
 11
351.486409
 21
-114.336094
 31
0.0
  0
ARC
  8
0
  6
BYLAYER
 62
     7
 10
251.836339
 20
-125.886164
 30
0.0
 40
0.850006
 50
90.0
 51
269.999998
  0
ARC
  8
0
  6
BYLAYER
 62
     7
 10
255.836263
 20
-125.886164
 30
0.0
 40
0.850006
 50
90.0
 51
269.999998
  0
ARC
  8
0
  6
BYLAYER
 62
     7
 10
251.836339
 20
-136.586146
 30
0.0
 40
0.850006
 50
90.0
 51
269.999998
  0
ARC
  8
0
  6
BYLAYER
 62
     7
 10
255.836263
 20
-136.586146
 30
0.0
 40
0.850006
 50
90.0
 51
269.999998
  0
LINE
  8
0
  6
BYLAYER
 62
     7
 10
251.836324
 20
-137.436152
 30
0.0
 11
351.486409
 21
-137.436070
 31
0.0
  0
LINE
  8
0
  6
BYLAYER
 62
     7
 10
251.836324
 20
-135.736170
 30
0.0
 11
351.486409
 21
-135.736088
 31
0.0
  0
ARC
  8
0
  6
BYLAYER
 62
     7
 10
251.836339
 20
-147.286158
 30
0.0
 40
0.850006
 50
90.0
 51
269.999998
  0
ARC
  8
0
  6
BYLAYER
 62
     7
 10
255.836263
 20
-147.286158
 30
0.0
 40
0.850006
 50
90.0
 51
269.999998
  0
LINE
  8
0
  6
BYLAYER
 62
     7
 10
251.836324
 20
-148.136164
 30
0.0
 11
351.486409
 21
-148.136082
 31
0.0
  0
LINE
  8
0
  6
BYLAYER
 62
     7
 10
251.836324
 20
-146.436183
 30
0.0
 11
351.486409
 21
-146.436100
 31
0.0
  0
LINE
  8
0
  6
BYLAYER
 62
     7
 10
258.986287
 20
-125.036189
 30
0.0
 11
258.986287
 21
-116.036158
 31
0.0
  0
LINE
  8
0
  6
BYLAYER
 62
     7
 10
258.986287
 20
-135.736201
 30
0.0
 11
258.986287
 21
-126.736170
 31
0.0
  0
LINE
  8
0
  6
BYLAYER
 62
     7
 10
258.986287
 20
-146.436183
 30
0.0
 11
258.986287
 21
-137.436152
 31
0.0
  0
LINE
  8
0
  6
BYLAYER
 62
     7
 10
250.986409
 20
-167.086177
 30
0.0
 11
250.986287
 21
-32.836055
 31
0.0
  0
LINE
  8
0
  6
BYLAYER
 62
     7
 10
250.986409
 20
-167.086177
 30
0.0
 11
248.986409
 21
-167.086177
 31
0.0
  0
LINE
  8
0
  6
BYLAYER
 62
     7
 10
258.986287
 20
-105.336177
 30
0.0
 11
258.986287
 21
-114.336177
 31
0.0
  0
LINE
  8
0
  6
BYLAYER
 62
     7
 10
250.986394
 20
-148.562587
 30
0.0
 11
253.159139
 21
-156.671412
 31
0.0
  0
ARC
  8
0
  6
BYLAYER
 62
     7
 10
255.090993
 20
-156.153773
 30
0.0
 40
2.000003
 50
195.000016
 51
270.000001
  0
LINE
  8
0
  6
BYLAYER
 62
     7
 10
250.986394
 20
-152.000178
 30
0.0
 11
254.456563
 21
-164.950984
 31
0.0
  0
ARC
  8
0
  6
BYLAYER
 62
     7
 10
256.388402
 20
-164.433345
 30
0.0
 40
1.999988
 50
195.000043
 51
270.000001
  0
LINE
  8
0
  6
BYLAYER
 62
     7
 10
250.986409
 20
-159.794779
 30
0.0
 11
253.935262
 21
-170.800059
 31
0.0
  0
ARC
  8
0
  6
BYLAYER
 62
     7
 10
255.867116
 20
-170.282420
 30
0.0
 40
2.000003
 50
195.000043
 51
270.000001
  0
LINE
  8
0
  6
BYLAYER
 62
     7
 10
250.986409
 20
-164.434031
 30
0.0
 11
253.659139
 21
-174.408824
 31
0.0
  0
ARC
  8
0
  6
BYLAYER
 62
     7
 10
255.590993
 20
-173.891185
 30
0.0
 40
2.000003
 50
195.000043
 51
270.000001
  0
LINE
  8
0
  6
BYLAYER
 62
     7
 10
250.986409
 20
-167.086177
 30
0.0
 11
253.412465
 21
-176.140361
 31
0.0
  0
ARC
  8
0
  6
BYLAYER
 62
     7
 10
255.344319
 20
-175.622721
 30
0.0
 40
2.000003
 50
195.000016
 51
270.000001
  0
LINE
  8
0
  6
BYLAYER
 62
     7
 10
255.090993
 20
-158.153773
 30
0.0
 11
351.486409
 21
-158.153759
 31
0.0
  0
LINE
  8
0
  6
BYLAYER
 62
     7
 10
256.388402
 20
-166.433345
 30
0.0
 11
351.486409
 21
-166.433330
 31
0.0
  0
LINE
  8
0
  6
BYLAYER
 62
     7
 10
255.867116
 20
-172.282420
 30
0.0
 11
351.486409
 21
-172.282406
 31
0.0
  0
LINE
  8
0
  6
BYLAYER
 62
     7
 10
255.590993
 20
-175.891185
 30
0.0
 11
351.486409
 21
-175.891170
 31
0.0
  0
LINE
  8
0
  6
BYLAYER
 62
     7
 10
255.344319
 20
-177.622721
 30
0.0
 11
351.486409
 21
-177.622707
 31
0.0
  0
CIRCLE
  8
0
  6
BYLAYER
 62
     7
 10
279.486379
 20
-93.786189
 30
0.0
 40
3.0
  0
CIRCLE
  8
0
  6
BYLAYER
 62
     7
 10
334.486379
 20
-93.786189
 30
0.0
 40
3.0
  0
LINE
  8
0
  6
BYLAYER
 62
     7
 10
251.836324
 20
-92.936183
 30
0.0
 11
276.609303
 21
-92.936213
 31
0.0
  0
LINE
  8
0
  6
BYLAYER
 62
     7
 10
276.609303
 20
-94.636195
 30
0.0
 11
251.836324
 21
-94.636164
 31
0.0
  0
LINE
  8
0
  6
BYLAYER
 62
     7
 10
282.363454
 20
-92.936213
 30
0.0
 11
331.609303
 21
-92.936244
 31
0.0
  0
LINE
  8
0
  6
BYLAYER
 62
     7
 10
331.609334
 20
-94.636225
 30
0.0
 11
282.363438
 21
-94.636195
 31
0.0
  0
LINE
  8
0
  6
BYLAYER
 62
     7
 10
337.363454
 20
-92.936244
 30
0.0
 11
351.486409
 21
-92.936261
 31
0.0
  0
LINE
  8
0
  6
BYLAYER
 62
     7
 10
351.486409
 20
-94.636243
 30
0.0
 11
337.363423
 21
-94.636225
 31
0.0
  0
LINE
  8
0
  6
BYLAYER
 62
     7
 10
251.836324
 20
-125.036189
 30
0.0
 11
351.486409
 21
-125.036101
 31
0.0
  0
LINE
  8
0
  6
BYLAYER
 62
     7
 10
251.836324
 20
-126.736170
 30
0.0
 11
351.486409
 21
-126.736083
 31
0.0
  0
LINE
  8
0
  6
BYLAYER
 62
     7
 10
248.986287
 20
-52.586173
 30
0.0
 11
248.986409
 21
-167.086173
 31
0.0
  0
LINE
  8
0
  6
BYLAYER
 62
     7
 10
424.986409
 20
-54.836177
 30
0.0
 11
424.986409
 21
-164.836177
 31
0.0
  0
LINE
  8
0
  6
BYLAYER
 62
     7
 10
351.486409
 20
-40.386177
 30
0.0
 11
410.536409
 21
-40.386177
 31
0.0
  0
LINE
  8
0
  6
BYLAYER
 62
     7
 10
351.486409
 20
-179.286177
 30
0.0
 11
410.536409
 21
-179.286177
 31
0.0
  0
LINE
  8
0
  6
BYLAYER
 62
     7
 10
424.986409
 20
-54.836177
 30
0.0
 11
410.536409
 21
-40.386177
 31
0.0
  0
LINE
  8
0
  6
BYLAYER
 62
     7
 10
424.986409
 20
-164.836177
 30
0.0
 11
410.536409
 21
-179.286177
 31
0.0
  0
LINE
  8
0
  6
BYLAYER
 62
     7
 10
351.486409
 20
-109.836177
 30
0.0
 11
351.486409
 21
-179.286177
 31
0.0
  0
LINE
  8
0
  6
BYLAYER
 62
     7
 10
351.486409
 20
-109.836177
 30
0.0
 11
351.486409
 21
-40.386177
 31
0.0
  0
LINE
  8
0
  6
BYLAYER
 62
     7
 10
247.486348
 20
-167.836177
 30
0.0
 11
248.986348
 21
-167.836177
 31
0.0
  0
LINE
  8
0
  6
BYLAYER
 62
     7
 10
247.486348
 20
-109.836177
 30
0.0
 11
247.486348
 21
-177.836177
 31
0.0
  0
LINE
  8
0
  6
BYLAYER
 62
     7
 10
238.986348
 20
-177.836177
 30
0.0
 11
247.486348
 21
-177.836177
 31
0.0
  0
LINE
  8
0
  6
BYLAYER
 62
     7
 10
238.986348
 20
-109.836177
 30
0.0
 11
238.986348
 21
-177.836177
 31
0.0
  0
LINE
  8
0
  6
BYLAYER
 62
     7
 10
248.986348
 20
-109.836177
 30
0.0
 11
248.986348
 21
-167.836177
 31
0.0
  0
LINE
  8
0
  6
BYLAYER
 62
     7
 10
217.986348
 20
-109.836177
 30
0.0
 11
217.986348
 21
-162.394317
 31
0.0
  0
LINE
  8
0
  6
BYLAYER
 62
     7
 10
217.986348
 20
-162.406447
 30
0.0
 11
238.125521
 21
-165.236824
 31
0.0
  0
ARC
  8
0
  6
BYLAYER
 62
     7
 10
237.986348
 20
-166.227092
 30
0.0
 40
1.0
 50
0.0
 51
82.0
  0
LINE
  8
0
  6
BYLAYER
 62
     7
 10
247.486348
 20
-51.836177
 30
0.0
 11
248.986348
 21
-51.836177
 31
0.0
  0
LINE
  8
0
  6
BYLAYER
 62
     7
 10
247.486348
 20
-109.836177
 30
0.0
 11
247.486348
 21
-41.836177
 31
0.0
  0
LINE
  8
0
  6
BYLAYER
 62
     7
 10
238.986348
 20
-41.836177
 30
0.0
 11
247.486348
 21
-41.836177
 31
0.0
  0
LINE
  8
0
  6
BYLAYER
 62
     7
 10
238.986348
 20
-109.836177
 30
0.0
 11
238.986348
 21
-41.836177
 31
0.0
  0
LINE
  8
0
  6
BYLAYER
 62
     7
 10
248.986348
 20
-109.836177
 30
0.0
 11
248.986348
 21
-51.836177
 31
0.0
  0
LINE
  8
0
  6
BYLAYER
 62
     7
 10
217.986348
 20
-109.836177
 30
0.0
 11
217.986348
 21
-57.278037
 31
0.0
  0
LINE
  8
0
  6
BYLAYER
 62
     7
 10
217.986348
 20
-57.265907
 30
0.0
 11
238.125521
 21
-54.435530
 31
0.0
  0
ARC
  8
0
  6
BYLAYER
 62
     7
 10
237.986348
 20
-53.445262
 30
0.0
 40
1.0
 50
278.000000
 51
360.000000
  0
ARC
  8
0
  6
BYLAYER
 62
     7
 10
321.740625
 20
-22.336055
 30
0.0
 40
1.5
 50
180.000000
 51
270.000000
  0
ARC
  8
0
  6
BYLAYER
 62
     7
 10
260.231949
 20
-22.336055
 30
0.0
 40
1.5
 50
270.0
 51
360.0
  0
ARC
  8
0
  6
BYLAYER
 62
     7
 10
252.486287
 20
-22.336055
 30
0.0
 40
1.500000
 50
270.0
 51
360.0
  0
ARC
  8
0
  6
BYLAYER
 62
     7
 10
252.486287
 20
-25.336055
 30
0.0
 40
1.5
 50
90.0
 51
180.0
  0
ARC
  8
0
  6
BYLAYER
 62
     7
 10
329.486287
 20
-22.336055
 30
0.0
 40
1.500000
 50
180.000000
 51
270.000000
  0
LINE
  8
0
  6
BYLAYER
 62
     7
 10
253.986287
 20
-22.336055
 30
0.0
 11
253.986287
 21
-0.836055
 31
0.0
  0
ARC
  8
0
  6
BYLAYER
 62
     7
 10
255.486287
 20
-0.836055
 30
0.0
 40
1.5
 50
90.0
 51
180.0
  0
LINE
  8
0
  6
BYLAYER
 62
     7
 10
327.986287
 20
-22.336055
 30
0.0
 11
327.986287
 21
-0.836055
 31
0.0
  0
LINE
  8
0
  6
BYLAYER
 62
     7
 10
255.486287
 20
0.663945
 30
0.0
 11
326.486287
 21
0.663945
 31
0.0
  0
ARC
  8
0
  6
BYLAYER
 62
     7
 10
318.740625
 20
-0.836055
 30
0.0
 40
1.5
 50
0.0
 51
90.0
  0
ARC
  8
0
  6
BYLAYER
 62
     7
 10
326.486287
 20
-0.836055
 30
0.0
 40
1.500000
 50
0.0
 51
90.0
  0
LINE
  8
0
  6
BYLAYER
 62
     7
 10
261.731949
 20
-22.336055
 30
0.0
 11
261.731949
 21
-0.836055
 31
0.0
  0
ARC
  8
0
  6
BYLAYER
 62
     7
 10
263.231949
 20
-0.836055
 30
0.0
 40
1.5
 50
90.0
 51
180.0
  0
LINE
  8
0
  6
BYLAYER
 62
     7
 10
320.240625
 20
-22.336055
 30
0.0
 11
320.240625
 21
-0.836055
 31
0.0
  0
ARC
  8
0
  6
BYLAYER
 62
     7
 10
329.486287
 20
-25.336055
 30
0.0
 40
1.5
 50
0.0
 51
90.0
  0
LINE
  8
0
  6
BYLAYER
 62
     7
 10
330.986287
 20
-32.836055
 30
0.0
 11
330.986287
 21
-25.336055
 31
0.0
  0
LINE
  8
0
  6
BYLAYER
 62
     7
 10
329.486287
 20
-23.836055
 30
0.0
 11
252.486287
 21
-23.836055
 31
0.0
  0
LINE
  8
0
  6
BYLAYER
 62
     7
 10
250.986287
 20
-25.336055
 30
0.0
 11
250.986287
 21
-32.836055
 31
0.0
  0
LINE
  8
0
  6
BYLAYER
 62
     7
 10
250.986287
 20
-32.836055
 30
0.0
 11
330.986287
 21
-32.836055
 31
0.0
  0
LINE
  8
0
  6
BYLAYER
 62
     7
 10
330.986287
 20
-30.836055
 30
0.0
 11
250.986287
 21
-30.836055
 31
0.0
  0
LINE
  8
0
  6
BYLAYER
 62
     7
 10
410.536409
 20
-179.286177
 30
0.0
 11
410.536409
 21
-40.386177
 31
0.0
  0
ARC
  8
0
  6
BYLAYER
 62
     7
 10
251.836339
 20
-487.286158
 30
0.0
 40
0.850006
 50
111.034603
 51
269.999998
  0
ARC
  8
0
  6
BYLAYER
 62
     7
 10
255.836263
 20
-487.286158
 30
0.0
 40
0.850006
 50
148.036043
 51
269.999998
  0
LINE
  8
0
  6
BYLAYER
 62
     7
 10
251.836324
 20
-488.136164
 30
0.0
 11
351.486409
 21
-488.136082
 31
0.0
  0
LINE
  8
0
  6
BYLAYER
 62
     7
 10
250.986409
 20
-507.086177
 30
0.0
 11
250.986357
 21
-449.836177
 31
0.0
  0
LINE
  8
0
  6
BYLAYER
 62
     7
 10
250.986409
 20
-507.086177
 30
0.0
 11
248.986409
 21
-507.086177
 31
0.0
  0
LINE
  8
0
  6
BYLAYER
 62
     7
 10
250.986394
 20
-488.562587
 30
0.0
 11
253.159139
 21
-496.671412
 31
0.0
  0
ARC
  8
0
  6
BYLAYER
 62
     7
 10
255.090993
 20
-496.153773
 30
0.0
 40
2.000003
 50
195.000016
 51
270.000001
  0
LINE
  8
0
  6
BYLAYER
 62
     7
 10
250.986394
 20
-492.000178
 30
0.0
 11
254.456563
 21
-504.950984
 31
0.0
  0
ARC
  8
0
  6
BYLAYER
 62
     7
 10
256.388402
 20
-504.433345
 30
0.0
 40
1.999988
 50
195.000043
 51
270.000001
  0
LINE
  8
0
  6
BYLAYER
 62
     7
 10
250.986409
 20
-499.794779
 30
0.0
 11
253.935262
 21
-510.800059
 31
0.0
  0
ARC
  8
0
  6
BYLAYER
 62
     7
 10
255.867116
 20
-510.282420
 30
0.0
 40
2.000003
 50
195.000043
 51
270.000001
  0
LINE
  8
0
  6
BYLAYER
 62
     7
 10
250.986409
 20
-504.434031
 30
0.0
 11
253.659139
 21
-514.408824
 31
0.0
  0
ARC
  8
0
  6
BYLAYER
 62
     7
 10
255.590993
 20
-513.891185
 30
0.0
 40
2.000003
 50
195.000043
 51
270.000001
  0
LINE
  8
0
  6
BYLAYER
 62
     7
 10
250.986409
 20
-507.086177
 30
0.0
 11
253.412465
 21
-516.140361
 31
0.0
  0
ARC
  8
0
  6
BYLAYER
 62
     7
 10
255.344319
 20
-515.622721
 30
0.0
 40
2.000003
 50
195.000016
 51
270.000001
  0
LINE
  8
0
  6
BYLAYER
 62
     7
 10
255.090993
 20
-498.153773
 30
0.0
 11
351.486409
 21
-498.153759
 31
0.0
  0
LINE
  8
0
  6
BYLAYER
 62
     7
 10
256.388402
 20
-506.433345
 30
0.0
 11
351.486409
 21
-506.433330
 31
0.0
  0
LINE
  8
0
  6
BYLAYER
 62
     7
 10
255.867116
 20
-512.282420
 30
0.0
 11
351.486409
 21
-512.282406
 31
0.0
  0
LINE
  8
0
  6
BYLAYER
 62
     7
 10
255.590993
 20
-515.891185
 30
0.0
 11
351.486409
 21
-515.891170
 31
0.0
  0
LINE
  8
0
  6
BYLAYER
 62
     7
 10
255.344319
 20
-517.622721
 30
0.0
 11
351.486409
 21
-517.622707
 31
0.0
  0
LINE
  8
0
  6
BYLAYER
 62
     7
 10
248.986348
 20
-449.836177
 30
0.0
 11
248.986409
 21
-507.086173
 31
0.0
  0
ARC
  8
0
  6
BYLAYER
 62
     7
 10
248.586408
 20
-505.736177
 30
0.0
 40
0.400000
 50
0.0
 51
89.999939
  0
LINE
  8
0
  6
BYLAYER
 62
     7
 10
424.986409
 20
-449.836177
 30
0.0
 11
424.986409
 21
-504.836177
 31
0.0
  0
LINE
  8
0
  6
BYLAYER
 62
     7
 10
351.486409
 20
-519.286177
 30
0.0
 11
410.536409
 21
-519.286177
 31
0.0
  0
LINE
  8
0
  6
BYLAYER
 62
     7
 10
424.986409
 20
-504.836177
 30
0.0
 11
410.536409
 21
-519.286177
 31
0.0
  0
LINE
  8
0
  6
BYLAYER
 62
     7
 10
351.486409
 20
-449.836177
 30
0.0
 11
351.486409
 21
-519.286177
 31
0.0
  0
LINE
  8
0
  6
BYLAYER
 62
     7
 10
253.986357
 20
-474.352862
 30
0.0
 11
253.986357
 21
-449.836177
 31
0.0
  0
LINE
  8
0
  6
BYLAYER
 62
     7
 10
327.986357
 20
-449.836177
 30
0.0
 11
327.986357
 21
-474.352862
 31
0.0
  0
LINE
  8
0
  6
BYLAYER
 62
     7
 10
318.523951
 20
-484.086177
 30
0.0
 11
263.448763
 21
-484.086177
 31
0.0
  0
LINE
  8
0
  6
BYLAYER
 62
     7
 10
268.091055
 20
-454.937283
 30
0.0
 11
253.986357
 21
-455.429830
 31
0.0
  0
ARC
  8
0
  6
BYLAYER
 62
     7
 10
267.986357
 20
-451.939111
 30
0.0
 40
3.000000
 50
272.000000
 51
360.000000
  0
LINE
  8
0
  6
BYLAYER
 62
     7
 10
268.091055
 20
-469.937283
 30
0.0
 11
253.986357
 21
-470.429830
 31
0.0
  0
ARC
  8
0
  6
BYLAYER
 62
     7
 10
267.986357
 20
-466.939111
 30
0.0
 40
3.000000
 50
272.000000
 51
360.000000
  0
LINE
  8
0
  6
BYLAYER
 62
     7
 10
253.986357
 20
-459.242524
 30
0.0
 11
268.091055
 21
-459.735071
 31
0.0
  0
ARC
  8
0
  6
BYLAYER
 62
     7
 10
267.986357
 20
-462.733243
 30
0.0
 40
3.000000
 50
0.0
 51
88.0
  0
LINE
  8
0
  6
BYLAYER
 62
     7
 10
270.986357
 20
-462.733243
 30
0.0
 11
270.986357
 21
-466.939111
 31
0.0
  0
LINE
  8
0
  6
BYLAYER
 62
     7
 10
270.986357
 20
-449.836177
 30
0.0
 11
270.986357
 21
-451.939111
 31
0.0
  0
LINE
  8
0
  6
BYLAYER
 62
     7
 10
254.986357
 20
-449.836177
 30
0.0
 11
254.986357
 21
-455.394909
 31
0.0
  0
LINE
  8
0
  6
BYLAYER
 62
     7
 10
254.986357
 20
-459.277445
 30
0.0
 11
254.986357
 21
-470.394909
 31
0.0
  0
LINE
  8
0
  6
BYLAYER
 62
     7
 10
313.881658
 20
-454.937283
 30
0.0
 11
327.986357
 21
-455.429830
 31
0.0
  0
ARC
  8
0
  6
BYLAYER
 62
     7
 10
313.986357
 20
-451.939111
 30
0.0
 40
3.000000
 50
180.000000
 51
268.000000
  0
LINE
  8
0
  6
BYLAYER
 62
     7
 10
313.881658
 20
-469.937283
 30
0.0
 11
327.986357
 21
-470.429830
 31
0.0
  0
ARC
  8
0
  6
BYLAYER
 62
     7
 10
313.986357
 20
-466.939111
 30
0.0
 40
3.000000
 50
180.000000
 51
268.000000
  0
LINE
  8
0
  6
BYLAYER
 62
     7
 10
327.986357
 20
-459.242524
 30
0.0
 11
313.881658
 21
-459.735071
 31
0.0
  0
ARC
  8
0
  6
BYLAYER
 62
     7
 10
313.986357
 20
-462.733243
 30
0.0
 40
3.000000
 50
92.0
 51
180.0
  0
LINE
  8
0
  6
BYLAYER
 62
     7
 10
310.986357
 20
-462.733243
 30
0.0
 11
310.986357
 21
-466.939111
 31
0.0
  0
LINE
  8
0
  6
BYLAYER
 62
     7
 10
310.986357
 20
-449.836177
 30
0.0
 11
310.986357
 21
-451.939111
 31
0.0
  0
LINE
  8
0
  6
BYLAYER
 62
     7
 10
326.986357
 20
-449.836177
 30
0.0
 11
326.986357
 21
-455.394909
 31
0.0
  0
LINE
  8
0
  6
BYLAYER
 62
     7
 10
326.986357
 20
-459.277445
 30
0.0
 11
326.986357
 21
-470.394909
 31
0.0
  0
LINE
  8
0
  6
BYLAYER
 62
     7
 10
250.986357
 20
-449.836177
 30
0.0
 11
250.986357
 21
-485.336177
 31
0.0
  0
ARC
  8
0
  6
BYLAYER
 62
     7
 10
252.486357
 20
-485.336177
 30
0.0
 40
1.5
 50
180.000000
 51
270.000000
  0
LINE
  8
0
  6
BYLAYER
 62
     7
 10
330.986357
 20
-485.336177
 30
0.0
 11
330.986357
 21
-449.836177
 31
0.0
  0
LINE
  8
0
  6
BYLAYER
 62
     7
 10
252.486357
 20
-486.836177
 30
0.0
 11
329.486357
 21
-486.836177
 31
0.0
  0
ARC
  8
0
  6
BYLAYER
 62
     7
 10
329.486357
 20
-485.336177
 30
0.0
 40
1.5
 50
270.0
 51
360.0
  0
ARC
  8
0
  6
BYLAYER
 62
     7
 10
325.986357
 20
-481.836177
 30
0.0
 40
6.000000
 50
86.177446
 51
185.739170
  0
ARC
  8
0
  6
BYLAYER
 62
     7
 10
326.486357
 20
-474.352862
 30
0.0
 40
1.5
 50
266.177446
 51
360.0
  0
ARC
  8
0
  6
BYLAYER
 62
     7
 10
318.523951
 20
-482.586177
 30
0.0
 40
1.500000
 50
270.0
 51
365.739170
  0
ARC
  8
0
  6
BYLAYER
 62
     7
 10
255.986357
 20
-481.836177
 30
0.0
 40
6.000000
 50
354.260830
 51
453.822554
  0
ARC
  8
0
  6
BYLAYER
 62
     7
 10
263.448763
 20
-482.586177
 30
0.0
 40
1.500000
 50
174.260830
 51
270.000000
  0
ARC
  8
0
  6
BYLAYER
 62
     7
 10
255.486357
 20
-474.352862
 30
0.0
 40
1.5
 50
180.000000
 51
273.822554
  0
ARC
  8
0
  6
BYLAYER
 62
     7
 10
277.986357
 20
-476.836177
 30
0.0
 40
3.0
 50
180.000000
 51
270.000000
  0
ARC
  8
0
  6
BYLAYER
 62
     7
 10
303.986357
 20
-476.836177
 30
0.0
 40
3.0
 50
270.0
 51
360.0
  0
LINE
  8
0
  6
BYLAYER
 62
     7
 10
277.986357
 20
-479.836177
 30
0.0
 11
303.986357
 21
-479.836177
 31
0.0
  0
LINE
  8
0
  6
BYLAYER
 62
     7
 10
274.986357
 20
-476.836177
 30
0.0
 11
274.986357
 21
-449.836177
 31
0.0
  0
LINE
  8
0
  6
BYLAYER
 62
     7
 10
306.986357
 20
-449.836177
 30
0.0
 11
306.986357
 21
-476.836177
 31
0.0
  0
LINE
  8
0
  6
BYLAYER
 62
     7
 10
351.486409
 20
-475.736088
 30
0.0
 11
330.986357
 21
-475.736105
 31
0.0
  0
LINE
  8
0
  6
BYLAYER
 62
     7
 10
351.486409
 20
-477.436070
 30
0.0
 11
330.986357
 21
-477.436087
 31
0.0
  0
LINE
  8
0
  6
BYLAYER
 62
     7
 10
351.486409
 20
-486.436091
 30
0.0
 11
330.506254
 21
-486.436091
 31
0.0
  0
ARC
  8
0
  6
BYLAYER
 62
     7
 10
251.836339
 20
-412.386196
 30
0.0
 40
0.850006
 50
90.0
 51
248.965395
  0
ARC
  8
0
  6
BYLAYER
 62
     7
 10
255.836263
 20
-412.386196
 30
0.0
 40
0.850006
 50
90.0
 51
211.963955
  0
LINE
  8
0
  6
BYLAYER
 62
     7
 10
251.836324
 20
-411.536190
 30
0.0
 11
351.486409
 21
-411.536272
 31
0.0
  0
LINE
  8
0
  6
BYLAYER
 62
     7
 10
250.986409
 20
-392.586177
 30
0.0
 11
250.986357
 21
-449.836177
 31
0.0
  0
LINE
  8
0
  6
BYLAYER
 62
     7
 10
250.986409
 20
-392.586177
 30
0.0
 11
248.986409
 21
-392.586177
 31
0.0
  0
LINE
  8
0
  6
BYLAYER
 62
     7
 10
250.986394
 20
-411.109767
 30
0.0
 11
253.159139
 21
-403.000942
 31
0.0
  0
ARC
  8
0
  6
BYLAYER
 62
     7
 10
255.090993
 20
-403.518581
 30
0.0
 40
2.000003
 50
90.0
 51
164.999985
  0
LINE
  8
0
  6
BYLAYER
 62
     7
 10
250.986394
 20
-407.672176
 30
0.0
 11
254.456563
 21
-394.721370
 31
0.0
  0
ARC
  8
0
  6
BYLAYER
 62
     7
 10
256.388402
 20
-395.239009
 30
0.0
 40
1.999988
 50
90.0
 51
164.999958
  0
LINE
  8
0
  6
BYLAYER
 62
     7
 10
250.986409
 20
-399.877575
 30
0.0
 11
253.935262
 21
-388.872295
 31
0.0
  0
ARC
  8
0
  6
BYLAYER
 62
     7
 10
255.867116
 20
-389.389934
 30
0.0
 40
2.000003
 50
90.0
 51
164.999958
  0
LINE
  8
0
  6
BYLAYER
 62
     7
 10
250.986409
 20
-395.238323
 30
0.0
 11
253.659139
 21
-385.263530
 31
0.0
  0
ARC
  8
0
  6
BYLAYER
 62
     7
 10
255.590993
 20
-385.781169
 30
0.0
 40
2.000003
 50
90.0
 51
164.999958
  0
LINE
  8
0
  6
BYLAYER
 62
     7
 10
250.986409
 20
-392.586177
 30
0.0
 11
253.412465
 21
-383.531993
 31
0.0
  0
ARC
  8
0
  6
BYLAYER
 62
     7
 10
255.344319
 20
-384.049633
 30
0.0
 40
2.000003
 50
90.0
 51
164.999985
  0
LINE
  8
0
  6
BYLAYER
 62
     7
 10
255.090993
 20
-401.518581
 30
0.0
 11
351.486409
 21
-401.518595
 31
0.0
  0
LINE
  8
0
  6
BYLAYER
 62
     7
 10
256.388402
 20
-393.239009
 30
0.0
 11
351.486409
 21
-393.239024
 31
0.0
  0
LINE
  8
0
  6
BYLAYER
 62
     7
 10
255.867116
 20
-387.389934
 30
0.0
 11
351.486409
 21
-387.389948
 31
0.0
  0
LINE
  8
0
  6
BYLAYER
 62
     7
 10
255.590993
 20
-383.781169
 30
0.0
 11
351.486409
 21
-383.781184
 31
0.0
  0
LINE
  8
0
  6
BYLAYER
 62
     7
 10
255.344319
 20
-382.049633
 30
0.0
 11
351.486409
 21
-382.049647
 31
0.0
  0
LINE
  8
0
  6
BYLAYER
 62
     7
 10
248.986348
 20
-449.836177
 30
0.0
 11
248.986409
 21
-392.586181
 31
0.0
  0
LINE
  8
0
  6
BYLAYER
 62
     7
 10
424.986409
 20
-449.836177
 30
0.0
 11
424.986409
 21
-394.836177
 31
0.0
  0
LINE
  8
0
  6
BYLAYER
 62
     7
 10
351.486409
 20
-380.386177
 30
0.0
 11
410.536409
 21
-380.386177
 31
0.0
  0
LINE
  8
0
  6
BYLAYER
 62
     7
 10
424.986409
 20
-394.836177
 30
0.0
 11
410.536409
 21
-380.386177
 31
0.0
  0
LINE
  8
0
  6
BYLAYER
 62
     7
 10
351.486409
 20
-449.836177
 30
0.0
 11
351.486409
 21
-380.386177
 31
0.0
  0
LINE
  8
0
  6
BYLAYER
 62
     7
 10
253.986357
 20
-425.319492
 30
0.0
 11
253.986357
 21
-449.836177
 31
0.0
  0
LINE
  8
0
  6
BYLAYER
 62
     7
 10
327.986357
 20
-449.836177
 30
0.0
 11
327.986357
 21
-425.319492
 31
0.0
  0
LINE
  8
0
  6
BYLAYER
 62
     7
 10
318.523951
 20
-415.586177
 30
0.0
 11
263.448763
 21
-415.586177
 31
0.0
  0
LINE
  8
0
  6
BYLAYER
 62
     7
 10
268.091055
 20
-444.735071
 30
0.0
 11
253.986357
 21
-444.242524
 31
0.0
  0
ARC
  8
0
  6
BYLAYER
 62
     7
 10
267.986357
 20
-447.733243
 30
0.0
 40
3.000000
 50
0.0
 51
88.0
  0
LINE
  8
0
  6
BYLAYER
 62
     7
 10
268.091055
 20
-429.735071
 30
0.0
 11
253.986357
 21
-429.242524
 31
0.0
  0
ARC
  8
0
  6
BYLAYER
 62
     7
 10
267.986357
 20
-432.733243
 30
0.0
 40
3.000000
 50
0.0
 51
88.0
  0
LINE
  8
0
  6
BYLAYER
 62
     7
 10
253.986357
 20
-440.429830
 30
0.0
 11
268.091055
 21
-439.937283
 31
0.0
  0
ARC
  8
0
  6
BYLAYER
 62
     7
 10
267.986357
 20
-436.939111
 30
0.0
 40
3.000000
 50
272.000000
 51
360.000000
  0
LINE
  8
0
  6
BYLAYER
 62
     7
 10
270.986357
 20
-436.939111
 30
0.0
 11
270.986357
 21
-432.733243
 31
0.0
  0
LINE
  8
0
  6
BYLAYER
 62
     7
 10
270.986357
 20
-449.836177
 30
0.0
 11
270.986357
 21
-447.733243
 31
0.0
  0
LINE
  8
0
  6
BYLAYER
 62
     7
 10
254.986357
 20
-449.836177
 30
0.0
 11
254.986357
 21
-444.277445
 31
0.0
  0
LINE
  8
0
  6
BYLAYER
 62
     7
 10
254.986357
 20
-440.394909
 30
0.0
 11
254.986357
 21
-429.277445
 31
0.0
  0
LINE
  8
0
  6
BYLAYER
 62
     7
 10
313.881658
 20
-444.735071
 30
0.0
 11
327.986357
 21
-444.242524
 31
0.0
  0
ARC
  8
0
  6
BYLAYER
 62
     7
 10
313.986357
 20
-447.733243
 30
0.0
 40
3.000000
 50
92.0
 51
180.0
  0
LINE
  8
0
  6
BYLAYER
 62
     7
 10
313.881658
 20
-429.735071
 30
0.0
 11
327.986357
 21
-429.242524
 31
0.0
  0
ARC
  8
0
  6
BYLAYER
 62
     7
 10
313.986357
 20
-432.733243
 30
0.0
 40
3.000000
 50
92.0
 51
180.0
  0
LINE
  8
0
  6
BYLAYER
 62
     7
 10
327.986357
 20
-440.429830
 30
0.0
 11
313.881658
 21
-439.937283
 31
0.0
  0
ARC
  8
0
  6
BYLAYER
 62
     7
 10
313.986357
 20
-436.939111
 30
0.0
 40
3.000000
 50
180.000000
 51
268.000000
  0
LINE
  8
0
  6
BYLAYER
 62
     7
 10
310.986357
 20
-436.939111
 30
0.0
 11
310.986357
 21
-432.733243
 31
0.0
  0
LINE
  8
0
  6
BYLAYER
 62
     7
 10
310.986357
 20
-449.836177
 30
0.0
 11
310.986357
 21
-447.733243
 31
0.0
  0
LINE
  8
0
  6
BYLAYER
 62
     7
 10
326.986357
 20
-449.836177
 30
0.0
 11
326.986357
 21
-444.277445
 31
0.0
  0
LINE
  8
0
  6
BYLAYER
 62
     7
 10
326.986357
 20
-440.394909
 30
0.0
 11
326.986357
 21
-429.277445
 31
0.0
  0
LINE
  8
0
  6
BYLAYER
 62
     7
 10
250.986357
 20
-449.836177
 30
0.0
 11
250.986357
 21
-414.336177
 31
0.0
  0
ARC
  8
0
  6
BYLAYER
 62
     7
 10
252.486357
 20
-414.336177
 30
0.0
 40
1.5
 50
90.0
 51
180.0
  0
LINE
  8
0
  6
BYLAYER
 62
     7
 10
330.986357
 20
-414.336177
 30
0.0
 11
330.986357
 21
-449.836177
 31
0.0
  0
LINE
  8
0
  6
BYLAYER
 62
     7
 10
252.486357
 20
-412.836177
 30
0.0
 11
329.486357
 21
-412.836177
 31
0.0
  0
ARC
  8
0
  6
BYLAYER
 62
     7
 10
329.486357
 20
-414.336177
 30
0.0
 40
1.5
 50
0.0
 51
90.0
  0
ARC
  8
0
  6
BYLAYER
 62
     7
 10
325.986357
 20
-417.836177
 30
0.0
 40
6.000000
 50
174.260830
 51
273.822554
  0
ARC
  8
0
  6
BYLAYER
 62
     7
 10
326.486357
 20
-425.319492
 30
0.0
 40
1.500000
 50
0.0
 51
93.822554
  0
ARC
  8
0
  6
BYLAYER
 62
     7
 10
318.523951
 20
-417.086177
 30
0.0
 40
1.5
 50
354.260830
 51
450.000000
  0
ARC
  8
0
  6
BYLAYER
 62
     7
 10
255.986357
 20
-417.836177
 30
0.0
 40
6.000000
 50
266.177446
 51
365.739170
  0
ARC
  8
0
  6
BYLAYER
 62
     7
 10
263.448763
 20
-417.086177
 30
0.0
 40
1.500000
 50
90.0
 51
185.73917
  0
ARC
  8
0
  6
BYLAYER
 62
     7
 10
255.486357
 20
-425.319492
 30
0.0
 40
1.500000
 50
86.177446
 51
180.0
  0
ARC
  8
0
  6
BYLAYER
 62
     7
 10
277.986357
 20
-422.836177
 30
0.0
 40
3.0
 50
90.0
 51
180.0
  0
ARC
  8
0
  6
BYLAYER
 62
     7
 10
303.986357
 20
-422.836177
 30
0.0
 40
3.0
 50
0.0
 51
90.0
  0
LINE
  8
0
  6
BYLAYER
 62
     7
 10
277.986357
 20
-419.836177
 30
0.0
 11
303.986357
 21
-419.836177
 31
0.0
  0
LINE
  8
0
  6
BYLAYER
 62
     7
 10
274.986357
 20
-422.836177
 30
0.0
 11
274.986357
 21
-449.836177
 31
0.0
  0
LINE
  8
0
  6
BYLAYER
 62
     7
 10
306.986357
 20
-449.836177
 30
0.0
 11
306.986357
 21
-422.836177
 31
0.0
  0
LINE
  8
0
  6
BYLAYER
 62
     7
 10
351.486409
 20
-423.936266
 30
0.0
 11
330.986357
 21
-423.936249
 31
0.0
  0
LINE
  8
0
  6
BYLAYER
 62
     7
 10
351.486409
 20
-422.236284
 30
0.0
 11
330.986357
 21
-422.236267
 31
0.0
  0
LINE
  8
0
  6
BYLAYER
 62
     7
 10
351.486409
 20
-413.236263
 30
0.0
 11
330.506254
 21
-413.236263
 31
0.0
  0
LINE
  8
0
  6
BYLAYER
 62
     7
 10
247.486348
 20
-507.836177
 30
0.0
 11
248.986348
 21
-507.836177
 31
0.0
  0
LINE
  8
0
  6
BYLAYER
 62
     7
 10
247.486348
 20
-449.836177
 30
0.0
 11
247.486348
 21
-517.836177
 31
0.0
  0
LINE
  8
0
  6
BYLAYER
 62
     7
 10
238.986348
 20
-517.836177
 30
0.0
 11
247.486348
 21
-517.836177
 31
0.0
  0
LINE
  8
0
  6
BYLAYER
 62
     7
 10
238.986348
 20
-449.836177
 30
0.0
 11
238.986348
 21
-517.836177
 31
0.0
  0
LINE
  8
0
  6
BYLAYER
 62
     7
 10
248.986348
 20
-449.836177
 30
0.0
 11
248.986348
 21
-507.836177
 31
0.0
  0
LINE
  8
0
  6
BYLAYER
 62
     7
 10
217.986348
 20
-449.836177
 30
0.0
 11
217.986348
 21
-502.394317
 31
0.0
  0
LINE
  8
0
  6
BYLAYER
 62
     7
 10
217.986348
 20
-502.406447
 30
0.0
 11
238.125521
 21
-505.236824
 31
0.0
  0
ARC
  8
0
  6
BYLAYER
 62
     7
 10
237.986348
 20
-506.227092
 30
0.0
 40
1.000000
 50
0.0
 51
82.0
  0
LINE
  8
0
  6
BYLAYER
 62
     7
 10
247.486348
 20
-391.836177
 30
0.0
 11
248.986348
 21
-391.836177
 31
0.0
  0
LINE
  8
0
  6
BYLAYER
 62
     7
 10
247.486348
 20
-449.836177
 30
0.0
 11
247.486348
 21
-381.836177
 31
0.0
  0
LINE
  8
0
  6
BYLAYER
 62
     7
 10
238.986348
 20
-381.836177
 30
0.0
 11
247.486348
 21
-381.836177
 31
0.0
  0
LINE
  8
0
  6
BYLAYER
 62
     7
 10
238.986348
 20
-449.836177
 30
0.0
 11
238.986348
 21
-381.836177
 31
0.0
  0
LINE
  8
0
  6
BYLAYER
 62
     7
 10
248.986348
 20
-449.836177
 30
0.0
 11
248.986348
 21
-391.836177
 31
0.0
  0
LINE
  8
0
  6
BYLAYER
 62
     7
 10
217.986348
 20
-449.836177
 30
0.0
 11
217.986348
 21
-397.278037
 31
0.0
  0
LINE
  8
0
  6
BYLAYER
 62
     7
 10
217.986348
 20
-397.265907
 30
0.0
 11
238.125521
 21
-394.435530
 31
0.0
  0
ARC
  8
0
  6
BYLAYER
 62
     7
 10
237.986348
 20
-393.445262
 30
0.0
 40
1.000000
 50
278.000000
 51
360.000000
  0
LINE
  8
0
  6
BYLAYER
 62
     7
 10
410.536409
 20
-519.286177
 30
0.0
 11
410.536409
 21
-380.386177
 31
0.0
  0
LINE
  8
0
  6
BYLAYER
 62
     1
 10
197.986348
 20
-174.836146
 30
0.0
 11
196.486348
 21
-173.336177
 31
0.0
  0
LINE
  8
0
  6
BYLAYER
 62
     1
 10
172.986348
 20
-199.836146
 30
0.0
 11
171.486348
 21
-198.336146
 31
0.0
  0
LINE
  8
0
  6
BYLAYER
 62
     1
 10
97.986348
 20
-174.836146
 30
0.0
 11
99.486348
 21
-173.336177
 31
0.0
  0
LINE
  8
0
  6
BYLAYER
 62
     1
 10
124.486348
 20
-198.336146
 30
0.0
 11
171.486348
 21
-198.336146
 31
0.0
  0
LINE
  8
0
  6
BYLAYER
 62
     1
 10
198.986348
 20
-143.336177
 30
0.0
 11
198.986348
 21
-81.836146
 31
0.0
  0
LINE
  8
0
  6
BYLAYER
 62
     1
 10
198.986348
 20
-143.336177
 30
0.0
 11
196.486348
 21
-143.423457
 31
0.0
  0
LINE
  8
0
  6
BYLAYER
 62
     1
 10
97.986348
 20
-174.836146
 30
0.0
 11
104.486348
 21
-174.836146
 31
0.0
  0
LINE
  8
0
  6
BYLAYER
 62
     1
 10
197.986348
 20
-174.836146
 30
0.0
 11
191.486348
 21
-174.836146
 31
0.0
  0
LINE
  8
0
  6
BYLAYER
 62
     1
 10
198.986348
 20
-81.836146
 30
0.0
 11
197.986348
 21
-81.836146
 31
0.0
  0
ARC
  8
0
  6
BYLAYER
 62
     1
 10
171.986348
 20
-99.836146
 30
0.0
 40
1.0
 50
270.0
 51
450.000005
  0
ARC
  8
0
  6
BYLAYER
 62
     1
 10
131.486379
 20
-107.836146
 30
0.0
 40
1.0
 50
270.0
 51
450.000005
  0
ARC
  8
0
  6
BYLAYER
 62
     1
 10
164.486348
 20
-107.836146
 30
0.0
 40
1.000000
 50
90.0
 51
270.000005
  0
ARC
  8
0
  6
BYLAYER
 62
     1
 10
118.486379
 20
-115.836146
 30
0.0
 40
1.000000
 50
270.0
 51
450.000005
  0
LINE
  8
0
  6
BYLAYER
 62
     1
 10
122.986348
 20
-199.836146
 30
0.0
 11
122.986348
 21
-193.336146
 31
0.0
  0
LINE
  8
0
  6
BYLAYER
 62
     1
 10
172.986348
 20
-199.836146
 30
0.0
 11
172.986348
 21
-193.336146
 31
0.0
  0
LINE
  8
0
  6
BYLAYER
 62
     1
 10
196.486348
 20
-104.836146
 30
0.0
 11
198.986348
 21
-104.836146
 31
0.0
  0
LINE
  8
0
  6
BYLAYER
 62
     1
 10
122.986348
 20
-199.836146
 30
0.0
 11
99.486348
 21
-199.836146
 31
0.0
  0
LINE
  8
0
  6
BYLAYER
 62
     1
 10
99.486348
 20
-199.836146
 30
0.0
 11
97.986348
 21
-198.336208
 31
0.0
  0
LINE
  8
0
  6
BYLAYER
 62
     1
 10
97.986348
 20
-198.336208
 30
0.0
 11
97.986348
 21
-174.836146
 31
0.0
  0
LINE
  8
0
  6
BYLAYER
 62
     1
 10
197.986348
 20
-174.836146
 30
0.0
 11
197.986348
 21
-198.336146
 31
0.0
  0
LINE
  8
0
  6
BYLAYER
 62
     1
 10
197.986348
 20
-198.336146
 30
0.0
 11
196.486348
 21
-199.836146
 31
0.0
  0
LINE
  8
0
  6
BYLAYER
 62
     1
 10
196.486348
 20
-199.836146
 30
0.0
 11
172.986348
 21
-199.836146
 31
0.0
  0
ARC
  8
0
  6
BYLAYER
 62
     1
 10
182.486348
 20
-123.836177
 30
0.0
 40
1.000000
 50
90.0
 51
110.183422
  0
LINE
  8
0
  6
BYLAYER
 62
     1
 10
198.986348
 20
-130.714778
 30
0.0
 11
196.486348
 21
-130.714778
 31
0.0
  0
LINE
  8
0
  6
BYLAYER
 62
     1
 10
196.486348
 20
-139.517940
 30
0.0
 11
198.986348
 21
-139.517879
 31
0.0
  0
LINE
  8
0
  6
BYLAYER
 62
     1
 10
97.986379
 20
-128.711177
 30
0.0
 11
99.486379
 21
-128.711177
 31
0.0
  0
LINE
  8
0
  6
BYLAYER
 62
     1
 10
99.486348
 20
-116.065944
 30
0.0
 11
97.986379
 21
-116.065944
 31
0.0
  0
LINE
  8
0
  6
BYLAYER
 62
     1
 10
118.486379
 20
-114.836146
 30
0.0
 11
105.486348
 21
-114.836146
 31
0.0
  0
ARC
  8
0
  6
BYLAYER
 62
     1
 10
105.486348
 20
-113.836146
 30
0.0
 40
1.0
 50
180.000000
 51
269.999996
  0
LINE
  8
0
  6
BYLAYER
 62
     1
 10
105.486348
 20
-106.836146
 30
0.0
 11
131.486379
 21
-106.836146
 31
0.0
  0
ARC
  8
0
  6
BYLAYER
 62
     1
 10
105.486348
 20
-105.836146
 30
0.0
 40
1.0
 50
180.000000
 51
269.999996
  0
LINE
  8
0
  6
BYLAYER
 62
     1
 10
105.486348
 20
-108.836146
 30
0.0
 11
131.486379
 21
-108.836146
 31
0.0
  0
ARC
  8
0
  6
BYLAYER
 62
     1
 10
105.486348
 20
-109.836146
 30
0.0
 40
1.0
 50
90.0
 51
180.000003
  0
LINE
  8
0
  6
BYLAYER
 62
     1
 10
182.486348
 20
-122.836177
 30
0.0
 11
190.486348
 21
-122.836177
 31
0.0
  0
ARC
  8
0
  6
BYLAYER
 62
     1
 10
190.486348
 20
-121.836177
 30
0.0
 40
1.0
 50
270.0
 51
360.000003
  0
LINE
  8
0
  6
BYLAYER
 62
     1
 10
183.584803
 20
-124.836177
 30
0.0
 11
190.486348
 21
-124.836177
 31
0.0
  0
ARC
  8
0
  6
BYLAYER
 62
     1
 10
190.486348
 20
-125.836177
 30
0.0
 40
1.0
 50
0.0
 51
90.000003
  0
LINE
  8
0
  6
BYLAYER
 62
     1
 10
198.986348
 20
-114.836146
 30
0.0
 11
196.486348
 21
-114.836146
 31
0.0
  0
LINE
  8
0
  6
BYLAYER
 62
     1
 10
104.486348
 20
-173.336177
 30
0.0
 11
99.486348
 21
-173.336177
 31
0.0
  0
LINE
  8
0
  6
BYLAYER
 62
     1
 10
124.486348
 20
-193.336208
 30
0.0
 11
124.486348
 21
-198.336146
 31
0.0
  0
LINE
  8
0
  6
BYLAYER
 62
     1
 10
171.486348
 20
-193.336299
 30
0.0
 11
171.486348
 21
-198.336146
 31
0.0
  0
LINE
  8
0
  6
BYLAYER
 62
     1
 10
124.486348
 20
-198.336146
 30
0.0
 11
122.986348
 21
-199.836146
 31
0.0
  0
LINE
  8
0
  6
BYLAYER
 62
     1
 10
191.486348
 20
-173.336177
 30
0.0
 11
196.486348
 21
-173.336177
 31
0.0
  0
LINE
  8
0
  6
BYLAYER
 62
     1
 10
104.486348
 20
-104.836146
 30
0.0
 11
99.486348
 21
-104.836146
 31
0.0
  0
LINE
  8
0
  6
BYLAYER
 62
     1
 10
97.986348
 20
-103.336146
 30
0.0
 11
99.486348
 21
-104.836146
 31
0.0
  0
LINE
  8
0
  6
BYLAYER
 62
     1
 10
97.986348
 20
-103.336146
 30
0.0
 11
104.486348
 21
-103.336146
 31
0.0
  0
LINE
  8
0
  6
BYLAYER
 62
     1
 10
191.486348
 20
-104.836146
 30
0.0
 11
196.486348
 21
-104.836146
 31
0.0
  0
LINE
  8
0
  6
BYLAYER
 62
     1
 10
197.986348
 20
-103.336146
 30
0.0
 11
196.486348
 21
-104.836146
 31
0.0
  0
LINE
  8
0
  6
BYLAYER
 62
     1
 10
197.986348
 20
-103.336146
 30
0.0
 11
191.486348
 21
-103.336146
 31
0.0
  0
LINE
  8
0
  6
BYLAYER
 62
     1
 10
197.986348
 20
-103.336146
 30
0.0
 11
197.986348
 21
-81.776088
 31
0.0
  0
LINE
  8
0
  6
BYLAYER
 62
     1
 10
197.986348
 20
-81.776088
 30
0.0
 11
197.986348
 21
-79.836146
 31
0.0
  0
LINE
  8
0
  6
BYLAYER
 62
     1
 10
197.986348
 20
-79.836146
 30
0.0
 11
196.486348
 21
-78.336146
 31
0.0
  0
LINE
  8
0
  6
BYLAYER
 62
     1
 10
196.486348
 20
-78.336146
 30
0.0
 11
172.986348
 21
-78.336146
 31
0.0
  0
LINE
  8
0
  6
BYLAYER
 62
     1
 10
172.986348
 20
-78.336146
 30
0.0
 11
172.986348
 21
-84.836146
 31
0.0
  0
LINE
  8
0
  6
BYLAYER
 62
     1
 10
172.986348
 20
-78.336146
 30
0.0
 11
171.486348
 21
-79.836146
 31
0.0
  0
LINE
  8
0
  6
BYLAYER
 62
     1
 10
171.486348
 20
-79.836146
 30
0.0
 11
171.486348
 21
-84.836146
 31
0.0
  0
LINE
  8
0
  6
BYLAYER
 62
     1
 10
124.486348
 20
-79.836146
 30
0.0
 11
171.486348
 21
-79.836146
 31
0.0
  0
LINE
  8
0
  6
BYLAYER
 62
     1
 10
124.486348
 20
-79.836146
 30
0.0
 11
124.486348
 21
-84.836146
 31
0.0
  0
LINE
  8
0
  6
BYLAYER
 62
     1
 10
122.986348
 20
-78.336146
 30
0.0
 11
122.986348
 21
-84.836146
 31
0.0
  0
LINE
  8
0
  6
BYLAYER
 62
     1
 10
124.486348
 20
-79.836146
 30
0.0
 11
122.986348
 21
-78.336146
 31
0.0
  0
LINE
  8
0
  6
BYLAYER
 62
     1
 10
99.486348
 20
-78.336146
 30
0.0
 11
122.986348
 21
-78.336146
 31
0.0
  0
LINE
  8
0
  6
BYLAYER
 62
     1
 10
97.986348
 20
-79.836146
 30
0.0
 11
99.486348
 21
-78.336146
 31
0.0
  0
LINE
  8
0
  6
BYLAYER
 62
     1
 10
99.486348
 20
-173.336177
 30
0.0
 11
99.486348
 21
-104.836146
 31
0.0
  0
LINE
  8
0
  6
BYLAYER
 62
     1
 10
196.486348
 20
-173.336177
 30
0.0
 11
196.486348
 21
-104.836146
 31
0.0
  0
LINE
  8
0
  6
BYLAYER
 62
     1
 10
104.486348
 20
-116.065944
 30
0.0
 11
111.986348
 21
-116.065944
 31
0.0
  0
ARC
  8
0
  6
BYLAYER
 62
     1
 10
111.986348
 20
-118.065944
 30
0.0
 40
2.0
 50
0.0
 51
90.000003
  0
LINE
  8
0
  6
BYLAYER
 62
     1
 10
104.486379
 20
-128.711177
 30
0.0
 11
109.960247
 21
-128.711177
 31
0.0
  0
LINE
  8
0
  6
BYLAYER
 62
     1
 10
113.986348
 20
-122.702250
 30
0.0
 11
113.986348
 21
-118.065944
 31
0.0
  0
LINE
  8
0
  6
BYLAYER
 62
     1
 10
191.486348
 20
-104.836146
 30
0.0
 11
184.986348
 21
-104.836146
 31
0.0
  0
ARC
  8
0
  6
BYLAYER
 62
     1
 10
184.986348
 20
-106.836146
 30
0.0
 40
2.000000
 50
90.0
 51
180.000003
  0
LINE
  8
0
  6
BYLAYER
 62
     1
 10
182.986348
 20
-112.836146
 30
0.0
 11
182.986348
 21
-106.836146
 31
0.0
  0
LINE
  8
0
  6
BYLAYER
 62
     1
 10
191.486348
 20
-114.836146
 30
0.0
 11
184.986348
 21
-114.836146
 31
0.0
  0
ARC
  8
0
  6
BYLAYER
 62
     1
 10
184.986348
 20
-112.836146
 30
0.0
 40
2.000000
 50
180.000000
 51
269.999996
  0
LINE
  8
0
  6
BYLAYER
 62
     1
 10
118.486379
 20
-116.836146
 30
0.0
 11
114.986348
 21
-116.836146
 31
0.0
  0
ARC
  8
0
  6
BYLAYER
 62
     1
 10
114.986348
 20
-117.836146
 30
0.0
 40
1.0
 50
90.0
 51
180.000003
  0
LINE
  8
0
  6
BYLAYER
 62
     1
 10
164.486348
 20
-108.836146
 30
0.0
 11
181.986348
 21
-108.836146
 31
0.0
  0
ARC
  8
0
  6
BYLAYER
 62
     1
 10
181.986348
 20
-109.836146
 30
0.0
 40
1.0
 50
0.0
 51
90.000003
  0
LINE
  8
0
  6
BYLAYER
 62
     1
 10
182.157918
 20
-106.836146
 30
0.0
 11
164.486348
 21
-106.836146
 31
0.0
  0
ARC
  8
0
  6
BYLAYER
 62
     1
 10
182.157918
 20
-105.836146
 30
0.0
 40
1.0
 50
270.0
 51
340.52826
  0
ARC
  8
0
  6
BYLAYER
 62
     1
 10
105.486348
 20
-85.836146
 30
0.0
 40
1.0
 50
90.0
 51
180.000003
  0
LINE
  8
0
  6
BYLAYER
 62
     1
 10
190.486348
 20
-84.836146
 30
0.0
 11
105.486348
 21
-84.836146
 31
0.0
  0
ARC
  8
0
  6
BYLAYER
 62
     1
 10
190.486348
 20
-85.836146
 30
0.0
 40
1.000000
 50
0.0
 51
90.000003
  0
LINE
  8
0
  6
BYLAYER
 62
     1
 10
168.139473
 20
-188.386165
 30
0.0
 11
185.536351
 21
-188.386165
 31
0.0
  0
LINE
  8
0
  6
BYLAYER
 62
     1
 10
186.536351
 20
-187.386165
 30
0.0
 11
186.536351
 21
-169.989273
 31
0.0
  0
ARC
  8
0
  6
BYLAYER
 62
     1
 10
185.536351
 20
-187.386165
 30
0.0
 40
1.000000
 50
270.0
 51
360.000003
  0
ARC
  8
0
  6
BYLAYER
 62
     1
 10
190.486348
 20
-192.336146
 30
0.0
 40
1.0
 50
270.0
 51
360.000003
  0
LINE
  8
0
  6
BYLAYER
 62
     1
 10
110.436345
 20
-188.386165
 30
0.0
 11
127.833223
 21
-188.386165
 31
0.0
  0
ARC
  8
0
  6
BYLAYER
 62
     1
 10
110.436345
 20
-187.386165
 30
0.0
 40
1.0
 50
180.000000
 51
269.999996
  0
ARC
  8
0
  6
BYLAYER
 62
     1
 10
105.486348
 20
-192.336146
 30
0.0
 40
1.0
 50
180.000000
 51
269.999996
  0
LINE
  8
0
  6
BYLAYER
 62
     1
 10
191.193456
 20
-193.043269
 30
0.0
 11
186.243459
 21
-188.093288
 31
0.0
  0
LINE
  8
0
  6
BYLAYER
 62
     1
 10
104.779240
 20
-193.043269
 30
0.0
 11
109.729237
 21
-188.093288
 31
0.0
  0
LINE
  8
0
  6
BYLAYER
 62
     1
 10
104.486348
 20
-85.836146
 30
0.0
 11
104.486348
 21
-134.547298
 31
0.0
  0
ARC
  8
0
  6
BYLAYER
 62
     1
 10
102.486348
 20
-134.547298
 30
0.0
 40
1.999991
 50
341.426977
 51
360.0
  0
ARC
  8
0
  6
BYLAYER
 62
     1
 10
147.986348
 20
-149.836177
 30
0.0
 40
46.000008
 50
161.426644
 51
198.573352
  0
LINE
  8
0
  6
BYLAYER
 62
     1
 10
104.486348
 20
-165.125087
 30
0.0
 11
104.486348
 21
-192.336146
 31
0.0
  0
ARC
  8
0
  6
BYLAYER
 62
     1
 10
102.486348
 20
-165.125087
 30
0.0
 40
2.000001
 50
0.0
 51
18.573839
  0
ARC
  8
0
  6
BYLAYER
 62
     1
 10
132.697469
 20
-195.336177
 30
0.0
 40
2.000005
 50
71.426983
 51
90.000003
  0
ARC
  8
0
  6
BYLAYER
 62
     1
 10
147.986348
 20
-149.836177
 30
0.0
 40
45.999992
 50
251.426640
 51
288.573361
  0
ARC
  8
0
  6
BYLAYER
 62
     1
 10
163.275258
 20
-195.336177
 30
0.0
 40
2.000015
 50
90.0
 51
108.573839
  0
ARC
  8
0
  6
BYLAYER
 62
     1
 10
193.486348
 20
-165.125056
 30
0.0
 40
1.999991
 50
161.426972
 51
180.000005
  0
ARC
  8
0
  6
BYLAYER
 62
     1
 10
147.986348
 20
-149.836177
 30
0.0
 40
46.000008
 50
341.426649
 51
378.573343
  0
ARC
  8
0
  6
BYLAYER
 62
     1
 10
193.486348
 20
-134.547267
 30
0.0
 40
2.000001
 50
180.000000
 51
198.573839
  0
LINE
  8
0
  6
BYLAYER
 62
     1
 10
132.697476
 20
-193.336208
 30
0.0
 11
105.486348
 21
-193.336146
 31
0.0
  0
LINE
  8
0
  6
BYLAYER
 62
     1
 10
190.486348
 20
-193.336146
 30
0.0
 11
163.275258
 21
-193.336146
 31
0.0
  0
LINE
  8
0
  6
BYLAYER
 62
     1
 10
191.486348
 20
-85.836146
 30
0.0
 11
191.486348
 21
-134.547267
 31
0.0
  0
LINE
  8
0
  6
BYLAYER
 62
     1
 10
191.486348
 20
-192.336146
 30
0.0
 11
191.486348
 21
-165.125056
 31
0.0
  0
LINE
  8
0
  6
BYLAYER
 62
     1
 10
97.986348
 20
-133.336146
 30
0.0
 11
97.986348
 21
-79.836146
 31
0.0
  0
LINE
  8
0
  6
BYLAYER
 62
     1
 10
99.486348
 20
-133.336146
 30
0.0
 11
97.986348
 21
-133.336146
 31
0.0
  0
LINE
  8
0
  6
BYLAYER
 62
     1
 10
109.436345
 20
-187.386165
 30
0.0
 11
109.436345
 21
-169.989273
 31
0.0
  0
ARC
  8
0
  6
BYLAYER
 62
     1
 10
126.986348
 20
-99.836146
 30
0.0
 40
1.0
 50
90.0
 51
270.000005
  0
LINE
  8
0
  6
BYLAYER
 62
     1
 10
171.986348
 20
-98.836146
 30
0.0
 11
126.986348
 21
-98.836146
 31
0.0
  0
LINE
  8
0
  6
BYLAYER
 62
     1
 10
171.986348
 20
-100.836146
 30
0.0
 11
126.986348
 21
-100.836146
 31
0.0
  0
LINE
  8
0
  6
BYLAYER
 62
     1
 10
104.486348
 20
-181.436153
 30
0.0
 11
97.986348
 21
-181.436153
 31
0.0
  0
LINE
  8
0
  6
BYLAYER
 62
     1
 10
104.486348
 20
-188.236140
 30
0.0
 11
97.986348
 21
-188.236140
 31
0.0
  0
LINE
  8
0
  6
BYLAYER
 62
     1
 10
109.586346
 20
-193.336146
 30
0.0
 11
109.586346
 21
-199.836146
 31
0.0
  0
LINE
  8
0
  6
BYLAYER
 62
     1
 10
116.386350
 20
-193.336177
 30
0.0
 11
116.386350
 21
-199.836146
 31
0.0
  0
LINE
  8
0
  6
BYLAYER
 62
     1
 10
179.586354
 20
-193.336146
 30
0.0
 11
179.586354
 21
-199.836146
 31
0.0
  0
LINE
  8
0
  6
BYLAYER
 62
     1
 10
186.386342
 20
-193.336146
 30
0.0
 11
186.386342
 21
-199.836146
 31
0.0
  0
LINE
  8
0
  6
BYLAYER
 62
     1
 10
191.486348
 20
-188.236140
 30
0.0
 11
197.986348
 21
-188.236140
 31
0.0
  0
LINE
  8
0
  6
BYLAYER
 62
     1
 10
191.486348
 20
-181.436153
 30
0.0
 11
197.986348
 21
-181.436153
 31
0.0
  0
ARC
  8
0
  6
BYLAYER
 62
     1
 10
121.469838
 20
-123.319667
 30
0.0
 40
3.000004
 50
42.767120
 51
314.999992
  0
ARC
  8
0
  6
BYLAYER
 62
     1
 10
174.502858
 20
-123.319667
 30
0.0
 40
3.000015
 50
225.000010
 51
497.232885
  0
ARC
  8
0
  6
BYLAYER
 62
     1
 10
147.986348
 20
-149.836177
 30
0.0
 40
30.0
 50
0.0
 51
180.000005
  0
ARC
  8
0
  6
BYLAYER
 62
     1
 10
121.469838
 20
-176.352687
 30
0.0
 40
2.999983
 50
45.000008
 51
317.232890
  0
ARC
  8
0
  6
BYLAYER
 62
     1
 10
174.502858
 20
-176.352687
 30
0.0
 40
3.000016
 50
222.767112
 51
494.999987
  0
CIRCLE
  8
0
  6
BYLAYER
 62
     1
 10
147.986348
 20
-149.836177
 30
0.0
 40
20.0
  0
CIRCLE
  8
0
  6
BYLAYER
 62
     1
 10
121.469838
 20
-123.319667
 30
0.0
 40
2.5
  0
CIRCLE
  8
0
  6
BYLAYER
 62
     1
 10
174.502858
 20
-123.319667
 30
0.0
 40
2.5
  0
CIRCLE
  8
0
  6
BYLAYER
 62
     1
 10
174.502858
 20
-176.352687
 30
0.0
 40
2.5
  0
CIRCLE
  8
0
  6
BYLAYER
 62
     1
 10
121.469838
 20
-176.352687
 30
0.0
 40
2.5
  0
ARC
  8
0
  6
BYLAYER
 62
     1
 10
147.986348
 20
-149.836177
 30
0.0
 40
30.000000
 50
292.499983
 51
360.000000
  0
ARC
  8
0
  6
BYLAYER
 62
     1
 10
147.986348
 20
-149.836177
 30
0.0
 40
29.999998
 50
180.000005
 51
292.499983
  0
ARC
  8
0
  6
BYLAYER
 62
     1
 10
147.986348
 20
-149.836177
 30
0.0
 40
45.25
 50
83.304540
 51
96.69546
  0
ARC
  8
0
  6
BYLAYER
 62
     1
 10
153.095754
 20
-106.385554
 30
0.0
 40
1.500024
 50
33.869498
 51
83.293706
  0
ARC
  8
0
  6
BYLAYER
 62
     1
 10
142.876942
 20
-106.385554
 30
0.0
 40
1.500024
 50
97.044942
 51
146.130504
  0
ARC
  8
0
  6
BYLAYER
 62
     1
 10
125.025340
 20
-94.403394
 30
0.0
 40
20.000020
 50
265.957319
 51
326.130123
  0
ARC
  8
0
  6
BYLAYER
 62
     1
 10
104.535725
 20
-144.726771
 30
0.0
 40
1.500024
 50
123.869497
 51
173.293702
  0
ARC
  8
0
  6
BYLAYER
 62
     1
 10
142.876942
 20
-193.286800
 30
0.0
 40
1.500024
 50
213.869506
 51
263.293711
  0
ARC
  8
0
  6
BYLAYER
 62
     1
 10
191.436971
 20
-154.945583
 30
0.0
 40
1.500024
 50
303.869488
 51
353.293720
  0
ARC
  8
0
  6
BYLAYER
 62
     1
 10
104.535725
 20
-154.945583
 30
0.0
 40
1.500024
 50
186.706295
 51
236.130513
  0
ARC
  8
0
  6
BYLAYER
 62
     1
 10
153.095754
 20
-193.286800
 30
0.0
 40
1.500024
 50
276.706290
 51
326.130495
  0
ARC
  8
0
  6
BYLAYER
 62
     1
 10
191.436971
 20
-144.726771
 30
0.0
 40
1.500024
 50
6.706299
 51
56.130505
  0
ARC
  8
0
  6
BYLAYER
 62
     1
 10
92.553578
 20
-126.875178
 30
0.0
 40
20.000032
 50
303.869871
 51
364.042736
  0
ARC
  8
0
  6
BYLAYER
 62
     1
 10
114.498869
 20
-125.324165
 30
0.0
 40
2.0
 50
143.796789
 51
184.042736
  0
ARC
  8
0
  6
BYLAYER
 62
     1
 10
147.986348
 20
-149.836177
 30
0.0
 40
43.5
 50
100.784127
 51
169.215926
  0
ARC
  8
0
  6
BYLAYER
 62
     1
 10
139.472881
 20
-105.139747
 30
0.0
 40
2.0
 50
280.784127
 51
323.382976
  0
ARC
  8
0
  6
BYLAYER
 62
     1
 10
103.289910
 20
-141.322751
 30
0.0
 40
2.0
 50
306.616911
 51
349.215926
  0
ARC
  8
0
  6
BYLAYER
 62
     1
 10
123.474352
 20
-116.348686
 30
0.0
 40
2.000000
 50
85.957305
 51
126.203183
  0
ARC
  8
0
  6
BYLAYER
 62
     1
 10
147.986348
 20
-149.836177
 30
0.0
 40
45.250000
 50
173.304540
 51
186.695460
  0
ARC
  8
0
  6
BYLAYER
 62
     1
 10
92.553565
 20
-172.797185
 30
0.0
 40
20.000020
 50
355.957319
 51
416.130123
  0
ARC
  8
0
  6
BYLAYER
 62
     1
 10
125.025349
 20
-205.268947
 30
0.0
 40
20.000032
 50
33.869871
 51
94.042736
  0
ARC
  8
0
  6
BYLAYER
 62
     1
 10
123.474336
 20
-183.323656
 30
0.0
 40
2.0
 50
233.796789
 51
274.042736
  0
ARC
  8
0
  6
BYLAYER
 62
     1
 10
147.986348
 20
-149.836177
 30
0.0
 40
43.500000
 50
190.784127
 51
259.215926
  0
ARC
  8
0
  6
BYLAYER
 62
     1
 10
103.289918
 20
-158.349644
 30
0.0
 40
2.000000
 50
10.784127
 51
53.382976
  0
ARC
  8
0
  6
BYLAYER
 62
     1
 10
139.472922
 20
-194.532615
 30
0.0
 40
2.0
 50
36.616911
 51
79.215926
  0
ARC
  8
0
  6
BYLAYER
 62
     1
 10
114.498857
 20
-174.348173
 30
0.0
 40
2.000000
 50
175.957305
 51
216.203183
  0
ARC
  8
0
  6
BYLAYER
 62
     1
 10
147.986348
 20
-149.836177
 30
0.0
 40
45.25
 50
263.304540
 51
276.695460
  0
ARC
  8
0
  6
BYLAYER
 62
     1
 10
170.947356
 20
-205.268960
 30
0.0
 40
20.000020
 50
85.957319
 51
146.130123
  0
ARC
  8
0
  6
BYLAYER
 62
     1
 10
203.419118
 20
-172.797176
 30
0.0
 40
20.000032
 50
123.869871
 51
184.042736
  0
ARC
  8
0
  6
BYLAYER
 62
     1
 10
181.473827
 20
-174.348189
 30
0.0
 40
2.0
 50
323.796789
 51
364.042736
  0
ARC
  8
0
  6
BYLAYER
 62
     1
 10
147.986348
 20
-149.836177
 30
0.0
 40
43.5
 50
280.784127
 51
349.215926
  0
ARC
  8
0
  6
BYLAYER
 62
     1
 10
156.499815
 20
-194.532607
 30
0.0
 40
2.0
 50
100.784127
 51
143.382976
  0
ARC
  8
0
  6
BYLAYER
 62
     1
 10
192.682786
 20
-158.349603
 30
0.0
 40
2.0
 50
126.616911
 51
169.215926
  0
ARC
  8
0
  6
BYLAYER
 62
     1
 10
172.498344
 20
-183.323668
 30
0.0
 40
2.000000
 50
265.957305
 51
306.203183
  0
ARC
  8
0
  6
BYLAYER
 62
     1
 10
147.986348
 20
-149.836177
 30
0.0
 40
45.25
 50
353.304540
 51
366.69546
  0
ARC
  8
0
  6
BYLAYER
 62
     1
 10
203.419131
 20
-126.875169
 30
0.0
 40
20.000020
 50
175.957319
 51
236.130123
  0
ARC
  8
0
  6
BYLAYER
 62
     1
 10
170.947347
 20
-94.403407
 30
0.0
 40
20.000032
 50
213.869871
 51
274.042736
  0
ARC
  8
0
  6
BYLAYER
 62
     1
 10
172.498360
 20
-116.348698
 30
0.0
 40
2.0
 50
53.796789
 51
94.042736
  0
ARC
  8
0
  6
BYLAYER
 62
     1
 10
147.986348
 20
-149.836177
 30
0.0
 40
43.500000
 50
10.784127
 51
79.215926
  0
ARC
  8
0
  6
BYLAYER
 62
     1
 10
192.682778
 20
-141.322710
 30
0.0
 40
2.0
 50
190.784127
 51
233.382976
  0
ARC
  8
0
  6
BYLAYER
 62
     1
 10
156.499774
 20
-105.139739
 30
0.0
 40
2.0
 50
216.616911
 51
259.215926
  0
ARC
  8
0
  6
BYLAYER
 62
     1
 10
140.970784
 20
-95.441191
 30
0.0
 40
1.436863
 50
270.0
 51
308.795511
  0
ARC
  8
0
  6
BYLAYER
 62
     1
 10
140.831733
 20
-95.293101
 30
0.0
 40
1.639478
 50
309.340351
 51
360.000000
  0
ARC
  8
0
  6
BYLAYER
 62
     1
 10
140.831733
 20
-95.293101
 30
0.0
 40
1.639478
 50
0.0
 51
50.659649
  0
ARC
  8
0
  6
BYLAYER
 62
     1
 10
140.970784
 20
-95.145011
 30
0.0
 40
1.436863
 50
51.204489
 51
90.0
  0
ARC
  8
0
  6
BYLAYER
 62
     1
 10
140.970784
 20
-95.144998
 30
0.0
 40
1.436850
 50
90.0
 51
128.795693
  0
ARC
  8
0
  6
BYLAYER
 62
     1
 10
141.109848
 20
-95.293101
 30
0.0
 40
1.639484
 50
129.340576
 51
180.000000
  0
ARC
  8
0
  6
BYLAYER
 62
     1
 10
141.109848
 20
-95.293101
 30
0.0
 40
1.639484
 50
180.000000
 51
230.659424
  0
ARC
  8
0
  6
BYLAYER
 62
     1
 10
140.970784
 20
-95.441204
 30
0.0
 40
1.436850
 50
231.204307
 51
270.000000
  0
ARC
  8
0
  6
BYLAYER
 62
     1
 10
140.970784
 20
-94.871526
 30
0.0
 40
0.664873
 50
90.0
 51
140.793201
  0
ARC
  8
0
  6
BYLAYER
 62
     1
 10
141.487561
 20
-95.293101
 30
0.0
 40
1.331795
 50
140.793201
 51
180.000000
  0
ARC
  8
0
  6
BYLAYER
 62
     1
 10
141.487553
 20
-95.293101
 30
0.0
 40
1.331787
 50
180.000000
 51
219.206869
  0
ARC
  8
0
  6
BYLAYER
 62
     1
 10
140.970784
 20
-95.714671
 30
0.0
 40
0.664875
 50
219.206869
 51
270.000000
  0
ARC
  8
0
  6
BYLAYER
 62
     1
 10
140.970784
 20
-95.714671
 30
0.0
 40
0.664875
 50
270.0
 51
320.793131
  0
ARC
  8
0
  6
BYLAYER
 62
     1
 10
140.454015
 20
-95.293101
 30
0.0
 40
1.331787
 50
320.793131
 51
360.000000
  0
ARC
  8
0
  6
BYLAYER
 62
     1
 10
140.454007
 20
-95.293101
 30
0.0
 40
1.331795
 50
0.0
 51
39.206799
  0
ARC
  8
0
  6
BYLAYER
 62
     1
 10
140.970784
 20
-94.871526
 30
0.0
 40
0.664873
 50
39.206799
 51
90.000000
  0
LINE
  8
0
  6
BYLAYER
 62
     1
 10
136.046864
 20
-96.772388
 30
0.0
 11
136.046864
 21
-93.771541
 31
0.0
  0
LINE
  8
0
  6
BYLAYER
 62
     1
 10
136.046864
 20
-93.771541
 30
0.0
 11
137.266927
 21
-93.771541
 31
0.0
  0
LINE
  8
0
  6
BYLAYER
 62
     1
 10
137.266927
 20
-93.771541
 30
0.0
 11
137.674085
 21
-95.335368
 31
0.0
  0
LINE
  8
0
  6
BYLAYER
 62
     1
 10
136.046864
 20
-96.772388
 30
0.0
 11
136.779469
 21
-96.772388
 31
0.0
  0
LINE
  8
0
  6
BYLAYER
 62
     1
 10
136.779469
 20
-96.772388
 30
0.0
 11
136.779469
 21
-95.039508
 31
0.0
  0
LINE
  8
0
  6
BYLAYER
 62
     1
 10
137.357091
 20
-96.772388
 30
0.0
 11
136.779469
 21
-95.039508
 31
0.0
  0
LINE
  8
0
  6
BYLAYER
 62
     1
 10
139.301305
 20
-96.772388
 30
0.0
 11
139.301305
 21
-93.771541
 31
0.0
  0
LINE
  8
0
  6
BYLAYER
 62
     1
 10
139.301305
 20
-93.771541
 30
0.0
 11
138.081242
 21
-93.771541
 31
0.0
  0
LINE
  8
0
  6
BYLAYER
 62
     1
 10
138.081242
 20
-93.771541
 30
0.0
 11
137.674085
 21
-95.335368
 31
0.0
  0
LINE
  8
0
  6
BYLAYER
 62
     1
 10
139.301305
 20
-96.772388
 30
0.0
 11
138.568700
 21
-96.772388
 31
0.0
  0
LINE
  8
0
  6
BYLAYER
 62
     1
 10
138.568700
 20
-96.772388
 30
0.0
 11
138.568700
 21
-95.039508
 31
0.0
  0
LINE
  8
0
  6
BYLAYER
 62
     1
 10
137.991078
 20
-96.772388
 30
0.0
 11
138.568700
 21
-95.039508
 31
0.0
  0
LINE
  8
0
  6
BYLAYER
 62
     1
 10
137.991078
 20
-96.772388
 30
0.0
 11
137.357091
 21
-96.772388
 31
0.0
  0
LINE
  8
0
  6
BYLAYER
 62
     1
 10
150.036725
 20
-96.772388
 30
0.0
 11
151.177884
 21
-93.771541
 31
0.0
  0
LINE
  8
0
  6
BYLAYER
 62
     1
 10
150.036725
 20
-96.772388
 30
0.0
 11
151.008832
 21
-96.772388
 31
0.0
  0
LINE
  8
0
  6
BYLAYER
 62
     1
 10
151.177884
 20
-93.771541
 30
0.0
 11
152.107724
 21
-93.771541
 31
0.0
  0
LINE
  8
0
  6
BYLAYER
 62
     1
 10
151.008832
 20
-96.772388
 30
0.0
 11
151.152920
 21
-96.349734
 31
0.0
  0
LINE
  8
0
  6
BYLAYER
 62
     1
 10
151.383450
 20
-95.673488
 30
0.0
 11
151.642804
 21
-94.912707
 31
0.0
  0
LINE
  8
0
  6
BYLAYER
 62
     1
 10
153.248898
 20
-96.772388
 30
0.0
 11
152.107724
 21
-93.771541
 31
0.0
  0
LINE
  8
0
  6
BYLAYER
 62
     1
 10
153.248898
 20
-96.772388
 30
0.0
 11
152.276791
 21
-96.772388
 31
0.0
  0
LINE
  8
0
  6
BYLAYER
 62
     1
 10
152.132703
 20
-96.349734
 30
0.0
 11
151.152920
 21
-96.349734
 31
0.0
  0
LINE
  8
0
  6
BYLAYER
 62
     1
 10
151.902158
 20
-95.673488
 30
0.0
 11
151.383450
 21
-95.673488
 31
0.0
  0
LINE
  8
0
  6
BYLAYER
 62
     1
 10
152.276791
 20
-96.772388
 30
0.0
 11
152.132703
 21
-96.349734
 31
0.0
  0
LINE
  8
0
  6
BYLAYER
 62
     1
 10
151.902158
 20
-95.673488
 30
0.0
 11
151.642804
 21
-94.912707
 31
0.0
  0
LINE
  8
0
  6
BYLAYER
 62
     1
 10
142.471211
 20
-94.511188
 30
0.0
 11
143.316518
 21
-94.511188
 31
0.0
  0
LINE
  8
0
  6
BYLAYER
 62
     1
 10
143.316518
 20
-94.511188
 30
0.0
 11
143.316518
 21
-96.772388
 31
0.0
  0
LINE
  8
0
  6
BYLAYER
 62
     1
 10
143.316518
 20
-96.772388
 30
0.0
 11
144.246365
 21
-96.772388
 31
0.0
  0
LINE
  8
0
  6
BYLAYER
 62
     1
 10
144.246365
 20
-96.772388
 30
0.0
 11
144.246365
 21
-94.511188
 31
0.0
  0
LINE
  8
0
  6
BYLAYER
 62
     1
 10
144.246365
 20
-94.511188
 30
0.0
 11
145.091672
 21
-94.511188
 31
0.0
  0
LINE
  8
0
  6
BYLAYER
 62
     1
 10
145.091672
 20
-94.511188
 30
0.0
 11
145.091672
 21
-93.771541
 31
0.0
  0
LINE
  8
0
  6
BYLAYER
 62
     1
 10
145.091672
 20
-93.771541
 30
0.0
 11
142.471211
 21
-93.771541
 31
0.0
  0
LINE
  8
0
  6
BYLAYER
 62
     1
 10
142.471211
 20
-93.771541
 30
0.0
 11
142.471211
 21
-94.511188
 31
0.0
  0
ARC
  8
0
  6
BYLAYER
 62
     1
 10
146.592091
 20
-95.441204
 30
0.0
 40
1.436850
 50
270.0
 51
308.795693
  0
ARC
  8
0
  6
BYLAYER
 62
     1
 10
146.453027
 20
-95.293101
 30
0.0
 40
1.639484
 50
309.340576
 51
360.000000
  0
ARC
  8
0
  6
BYLAYER
 62
     1
 10
146.453033
 20
-95.293101
 30
0.0
 40
1.639478
 50
0.0
 51
50.659649
  0
ARC
  8
0
  6
BYLAYER
 62
     1
 10
146.592084
 20
-95.145011
 30
0.0
 40
1.436863
 50
51.204489
 51
90.0
  0
ARC
  8
0
  6
BYLAYER
 62
     1
 10
146.592084
 20
-95.144998
 30
0.0
 40
1.436850
 50
90.0
 51
128.795693
  0
ARC
  8
0
  6
BYLAYER
 62
     1
 10
146.731148
 20
-95.293101
 30
0.0
 40
1.639484
 50
129.340576
 51
180.000000
  0
ARC
  8
0
  6
BYLAYER
 62
     1
 10
146.731142
 20
-95.293101
 30
0.0
 40
1.639478
 50
180.000000
 51
230.659649
  0
ARC
  8
0
  6
BYLAYER
 62
     1
 10
146.592091
 20
-95.441191
 30
0.0
 40
1.436863
 50
231.204489
 51
270.000000
  0
ARC
  8
0
  6
BYLAYER
 62
     1
 10
146.592084
 20
-94.871526
 30
0.0
 40
0.664873
 50
90.0
 51
140.793201
  0
ARC
  8
0
  6
BYLAYER
 62
     1
 10
147.108861
 20
-95.293101
 30
0.0
 40
1.331795
 50
140.793201
 51
180.000000
  0
ARC
  8
0
  6
BYLAYER
 62
     1
 10
147.108844
 20
-95.293101
 30
0.0
 40
1.331778
 50
180.000000
 51
219.207055
  0
ARC
  8
0
  6
BYLAYER
 62
     1
 10
146.592091
 20
-95.714661
 30
0.0
 40
0.664886
 50
219.207055
 51
270.000000
  0
ARC
  8
0
  6
BYLAYER
 62
     1
 10
146.592091
 20
-95.714671
 30
0.0
 40
0.664875
 50
270.0
 51
320.793131
  0
ARC
  8
0
  6
BYLAYER
 62
     1
 10
146.075322
 20
-95.293101
 30
0.0
 40
1.331787
 50
320.793131
 51
360.000000
  0
ARC
  8
0
  6
BYLAYER
 62
     1
 10
146.075323
 20
-95.293101
 30
0.0
 40
1.331786
 50
0.0
 51
39.206985
  0
ARC
  8
0
  6
BYLAYER
 62
     1
 10
146.592084
 20
-94.871537
 30
0.0
 40
0.664884
 50
39.206985
 51
90.000000
  0
LINE
  8
0
  6
BYLAYER
 62
     1
 10
153.329892
 20
-96.772388
 30
0.0
 11
153.329892
 21
-93.771541
 31
0.0
  0
LINE
  8
0
  6
BYLAYER
 62
     1
 10
153.329892
 20
-93.771541
 30
0.0
 11
155.189564
 21
-93.771541
 31
0.0
  0
ARC
  8
0
  6
BYLAYER
 62
     1
 10
155.189564
 20
-94.616855
 30
0.0
 40
0.845305
 50
287.134650
 51
450.000006
  0
ARC
  8
0
  6
BYLAYER
 62
     1
 10
155.358632
 20
-96.096141
 30
0.0
 40
0.676247
 50
0.0
 51
83.207557
  0
LINE
  8
0
  6
BYLAYER
 62
     1
 10
156.034878
 20
-96.096141
 30
0.0
 11
156.034878
 21
-96.518794
 31
0.0
  0
ARC
  8
0
  6
BYLAYER
 62
     1
 10
156.711125
 20
-96.518794
 30
0.0
 40
0.676247
 50
180.000000
 51
202.024314
  0
LINE
  8
0
  6
BYLAYER
 62
     1
 10
155.154385
 20
-96.772388
 30
0.0
 11
156.084225
 21
-96.772388
 31
0.0
  0
ARC
  8
0
  6
BYLAYER
 62
     1
 10
155.781285
 20
-96.518794
 30
0.0
 40
0.676247
 50
180.000000
 51
202.024314
  0
LINE
  8
0
  6
BYLAYER
 62
     1
 10
155.105038
 20
-96.518794
 30
0.0
 11
155.105038
 21
-96.180675
 31
0.0
  0
LINE
  8
0
  6
BYLAYER
 62
     1
 10
153.329892
 20
-96.772388
 30
0.0
 11
154.217465
 21
-96.772388
 31
0.0
  0
LINE
  8
0
  6
BYLAYER
 62
     1
 10
154.217465
 20
-96.772388
 30
0.0
 11
154.217465
 21
-95.758021
 31
0.0
  0
LINE
  8
0
  6
BYLAYER
 62
     1
 10
154.682385
 20
-95.758021
 30
0.0
 11
154.217465
 21
-95.758021
 31
0.0
  0
ARC
  8
0
  6
BYLAYER
 62
     1
 10
154.682385
 20
-96.180675
 30
0.0
 40
0.422653
 50
0.0
 51
90.000003
  0
LINE
  8
0
  6
BYLAYER
 62
     1
 10
154.217465
 20
-95.081775
 30
0.0
 11
154.217465
 21
-94.447787
 31
0.0
  0
LINE
  8
0
  6
BYLAYER
 62
     1
 10
154.217465
 20
-94.447787
 30
0.0
 11
154.809178
 21
-94.447787
 31
0.0
  0
LINE
  8
0
  6
BYLAYER
 62
     1
 10
154.217465
 20
-95.081775
 30
0.0
 11
154.809178
 21
-95.081775
 31
0.0
  0
ARC
  8
0
  6
BYLAYER
 62
     1
 10
154.809178
 20
-94.764781
 30
0.0
 40
0.316994
 50
270.0
 51
450.000005
  0
LINE
  8
0
  6
BYLAYER
 62
     1
 10
149.297086
 20
-95.823489
 30
0.0
 11
148.747632
 21
-93.771541
 31
0.0
  0
LINE
  8
0
  6
BYLAYER
 62
     1
 10
148.747632
 20
-93.771541
 30
0.0
 11
147.860059
 21
-93.771541
 31
0.0
  0
LINE
  8
0
  6
BYLAYER
 62
     1
 10
147.860059
 20
-93.771541
 30
0.0
 11
148.789899
 21
-96.772388
 31
0.0
  0
LINE
  8
0
  6
BYLAYER
 62
     1
 10
149.297086
 20
-95.823489
 30
0.0
 11
149.846524
 21
-93.771541
 31
0.0
  0
LINE
  8
0
  6
BYLAYER
 62
     1
 10
149.846524
 20
-93.771541
 30
0.0
 11
150.734097
 21
-93.771541
 31
0.0
  0
LINE
  8
0
  6
BYLAYER
 62
     1
 10
150.734097
 20
-93.771541
 30
0.0
 11
149.804257
 21
-96.772388
 31
0.0
  0
LINE
  8
0
  6
BYLAYER
 62
     1
 10
149.804257
 20
-96.772388
 30
0.0
 11
148.789899
 21
-96.772388
 31
0.0
  0
LINE
  8
0
  6
BYLAYER
 62
     1
 10
156.165219
 20
-96.772388
 30
0.0
 11
157.052792
 21
-96.772388
 31
0.0
  0
LINE
  8
0
  6
BYLAYER
 62
     1
 10
157.052792
 20
-96.772388
 30
0.0
 11
157.052792
 21
-93.771541
 31
0.0
  0
LINE
  8
0
  6
BYLAYER
 62
     1
 10
157.052792
 20
-93.771541
 30
0.0
 11
156.165219
 21
-93.771541
 31
0.0
  0
LINE
  8
0
  6
BYLAYER
 62
     1
 10
156.165219
 20
-93.771541
 30
0.0
 11
156.165219
 21
-96.772388
 31
0.0
  0
ARC
  8
0
  6
BYLAYER
 62
     1
 10
158.722279
 20
-95.441204
 30
0.0
 40
1.436850
 50
270.0
 51
308.795693
  0
ARC
  8
0
  6
BYLAYER
 62
     1
 10
158.583215
 20
-95.293101
 30
0.0
 40
1.639484
 50
309.340576
 51
360.000000
  0
ARC
  8
0
  6
BYLAYER
 62
     1
 10
158.583215
 20
-95.293101
 30
0.0
 40
1.639484
 50
0.0
 51
50.659424
  0
ARC
  8
0
  6
BYLAYER
 62
     1
 10
158.722279
 20
-95.144998
 30
0.0
 40
1.436850
 50
51.204307
 51
90.000000
  0
ARC
  8
0
  6
BYLAYER
 62
     1
 10
158.722279
 20
-95.144998
 30
0.0
 40
1.436850
 50
90.0
 51
128.795693
  0
ARC
  8
0
  6
BYLAYER
 62
     1
 10
158.861343
 20
-95.293101
 30
0.0
 40
1.639484
 50
129.340576
 51
180.000000
  0
ARC
  8
0
  6
BYLAYER
 62
     1
 10
158.861343
 20
-95.293101
 30
0.0
 40
1.639484
 50
180.000000
 51
230.659424
  0
ARC
  8
0
  6
BYLAYER
 62
     1
 10
158.722279
 20
-95.441204
 30
0.0
 40
1.436850
 50
231.204307
 51
270.000000
  0
ARC
  8
0
  6
BYLAYER
 62
     1
 10
158.722279
 20
-94.871526
 30
0.0
 40
0.664873
 50
39.206799
 51
90.000000
  0
ARC
  8
0
  6
BYLAYER
 62
     1
 10
158.205502
 20
-95.293101
 30
0.0
 40
1.331795
 50
0.0
 51
39.206799
  0
ARC
  8
0
  6
BYLAYER
 62
     1
 10
158.205510
 20
-95.293101
 30
0.0
 40
1.331787
 50
320.793131
 51
360.000000
  0
ARC
  8
0
  6
BYLAYER
 62
     1
 10
158.722279
 20
-95.714671
 30
0.0
 40
0.664875
 50
270.0
 51
320.793131
  0
ARC
  8
0
  6
BYLAYER
 62
     1
 10
158.722279
 20
-95.714671
 30
0.0
 40
0.664875
 50
219.206869
 51
270.000000
  0
ARC
  8
0
  6
BYLAYER
 62
     1
 10
159.239048
 20
-95.293101
 30
0.0
 40
1.331787
 50
180.000000
 51
219.206869
  0
ARC
  8
0
  6
BYLAYER
 62
     1
 10
159.239056
 20
-95.293101
 30
0.0
 40
1.331795
 50
140.793201
 51
180.000000
  0
ARC
  8
0
  6
BYLAYER
 62
     1
 10
158.722279
 20
-94.871526
 30
0.0
 40
0.664873
 50
90.0
 51
140.793201
  0
ARC
  8
0
  6
BYLAYER
 62
     1
 10
143.736348
 20
-90.336177
 30
0.0
 40
3.714997
 50
174.535650
 51
180.000000
  0
LINE
  8
0
  6
BYLAYER
 62
     1
 10
140.038232
 20
-89.982410
 30
0.0
 11
140.038232
 21
-89.982406
 31
0.0
  0
LINE
  8
0
  6
BYLAYER
 62
     1
 10
140.042274
 20
-89.942444
 30
0.0
 11
140.396826
 21
-89.793173
 31
0.0
  0
ARC
  8
0
  6
BYLAYER
 62
     1
 10
143.736363
 20
-90.336208
 30
0.0
 40
3.383391
 50
159.235383
 51
170.763998
  0
LINE
  8
0
  6
BYLAYER
 62
     1
 10
140.572726
 20
-89.136675
 30
0.0
 11
140.340327
 21
-88.830118
 31
0.0
  0
ARC
  8
0
  6
BYLAYER
 62
     1
 10
143.736348
 20
-90.336177
 30
0.0
 40
3.714993
 50
144.139514
 51
156.083795
  0
LINE
  8
0
  6
BYLAYER
 62
     1
 10
140.701116
 20
-88.194080
 30
0.0
 11
140.701337
 21
-88.193767
 31
0.0
  0
LINE
  8
0
  6
BYLAYER
 62
     1
 10
140.725547
 20
-88.159884
 30
0.0
 11
141.103010
 21
-88.211816
 31
0.0
  0
ARC
  8
0
  6
BYLAYER
 62
     1
 10
143.736348
 20
-90.336177
 30
0.0
 40
3.383370
 50
129.235643
 51
141.105976
  0
LINE
  8
0
  6
BYLAYER
 62
     1
 10
141.541005
 20
-87.761748
 30
0.0
 11
141.541371
 21
-87.761432
 31
0.0
  0
LINE
  8
0
  6
BYLAYER
 62
     1
 10
141.596328
 20
-87.715584
 30
0.0
 11
141.548331
 21
-87.333880
 31
0.0
  0
ARC
  8
0
  6
BYLAYER
 62
     1
 10
143.736348
 20
-90.336177
 30
0.0
 40
3.714997
 50
114.139607
 51
126.083853
  0
LINE
  8
0
  6
BYLAYER
 62
     1
 10
142.179074
 20
-86.963329
 30
0.0
 11
142.179326
 21
-86.963210
 31
0.0
  0
LINE
  8
0
  6
BYLAYER
 62
     1
 10
142.217058
 20
-86.946050
 30
0.0
 11
142.517972
 21
-87.179747
 31
0.0
  0
LINE
  8
0
  6
BYLAYER
 62
     1
 10
142.586774
 20
-87.154086
 30
0.0
 11
142.587155
 21
-87.153953
 31
0.0
  0
ARC
  8
0
  6
BYLAYER
 62
     1
 10
143.736348
 20
-90.336177
 30
0.0
 40
3.383369
 50
99.235601
 51
111.106038
  0
ARC
  8
0
  6
BYLAYER
 62
     1
 10
143.736348
 20
-90.336177
 30
0.0
 40
3.714997
 50
90.0
 51
96.083892
  0
LINE
  8
0
  6
BYLAYER
 62
     1
 10
143.342616
 20
-86.642103
 30
0.0
 11
143.193336
 21
-86.996667
 31
0.0
  0
LINE
  8
0
  6
BYLAYER
 62
     1
 10
147.434460
 20
-89.982410
 30
0.0
 11
147.434460
 21
-89.982406
 31
0.0
  0
LINE
  8
0
  6
BYLAYER
 62
     1
 10
147.430422
 20
-89.942444
 30
0.0
 11
147.075852
 21
-89.793169
 31
0.0
  0
ARC
  8
0
  6
BYLAYER
 62
     1
 10
143.736325
 20
-90.336208
 30
0.0
 40
3.383391
 50
9.235986
 51
20.764650
  0
LINE
  8
0
  6
BYLAYER
 62
     1
 10
146.899987
 20
-89.136640
 30
0.0
 11
147.132370
 21
-88.830119
 31
0.0
  0
ARC
  8
0
  6
BYLAYER
 62
     1
 10
143.736348
 20
-90.336177
 30
0.0
 40
3.714993
 50
23.916189
 51
35.860484
  0
LINE
  8
0
  6
BYLAYER
 62
     1
 10
146.771573
 20
-88.194080
 30
0.0
 11
146.771352
 21
-88.193767
 31
0.0
  0
LINE
  8
0
  6
BYLAYER
 62
     1
 10
146.747149
 20
-88.159884
 30
0.0
 11
146.369713
 21
-88.211811
 31
0.0
  0
ARC
  8
0
  6
BYLAYER
 62
     1
 10
143.736348
 20
-90.336177
 30
0.0
 40
3.383370
 50
38.894050
 51
50.764315
  0
LINE
  8
0
  6
BYLAYER
 62
     1
 10
145.931691
 20
-87.761748
 30
0.0
 11
145.931325
 21
-87.761432
 31
0.0
  0
LINE
  8
0
  6
BYLAYER
 62
     1
 10
145.876378
 20
-87.715522
 30
0.0
 11
145.924357
 21
-87.333874
 31
0.0
  0
ARC
  8
0
  6
BYLAYER
 62
     1
 10
143.736348
 20
-90.336177
 30
0.0
 40
3.714997
 50
53.916300
 51
65.860381
  0
LINE
  8
0
  6
BYLAYER
 62
     1
 10
145.293622
 20
-86.963329
 30
0.0
 11
145.293362
 21
-86.963210
 31
0.0
  0
LINE
  8
0
  6
BYLAYER
 62
     1
 10
145.255639
 20
-86.946051
 30
0.0
 11
144.954727
 21
-87.179737
 31
0.0
  0
LINE
  8
0
  6
BYLAYER
 62
     1
 10
144.885915
 20
-87.154086
 30
0.0
 11
144.885541
 21
-87.153953
 31
0.0
  0
ARC
  8
0
  6
BYLAYER
 62
     1
 10
143.736348
 20
-90.336177
 30
0.0
 40
3.383369
 50
68.894081
 51
80.764578
  0
ARC
  8
0
  6
BYLAYER
 62
     1
 10
143.736348
 20
-90.336177
 30
0.0
 40
3.714997
 50
84.535428
 51
90.000003
  0
LINE
  8
0
  6
BYLAYER
 62
     1
 10
144.130082
 20
-86.642103
 30
0.0
 11
144.279325
 21
-86.996607
 31
0.0
  0
ARC
  8
0
  6
BYLAYER
 62
     1
 10
143.736348
 20
-90.336177
 30
0.0
 40
3.714997
 50
180.000000
 51
186.083899
  0
LINE
  8
0
  6
BYLAYER
 62
     1
 10
140.038232
 20
-90.689941
 30
0.0
 11
140.038232
 21
-90.689948
 31
0.0
  0
LINE
  8
0
  6
BYLAYER
 62
     1
 10
140.042274
 20
-90.729910
 30
0.0
 11
140.396836
 21
-90.879186
 31
0.0
  0
ARC
  8
0
  6
BYLAYER
 62
     1
 10
143.736363
 20
-90.336146
 30
0.0
 40
3.383391
 50
189.236002
 51
200.764629
  0
LINE
  8
0
  6
BYLAYER
 62
     1
 10
140.572738
 20
-91.535664
 30
0.0
 11
140.340325
 21
-91.842233
 31
0.0
  0
ARC
  8
0
  6
BYLAYER
 62
     1
 10
143.736348
 20
-90.336177
 30
0.0
 40
3.714993
 50
203.916158
 51
215.860410
  0
LINE
  8
0
  6
BYLAYER
 62
     1
 10
140.701116
 20
-92.478271
 30
0.0
 11
140.701337
 21
-92.478583
 31
0.0
  0
LINE
  8
0
  6
BYLAYER
 62
     1
 10
140.725544
 20
-92.512466
 30
0.0
 11
141.103042
 21
-92.460535
 31
0.0
  0
ARC
  8
0
  6
BYLAYER
 62
     1
 10
143.736348
 20
-90.336177
 30
0.0
 40
3.383370
 50
218.894045
 51
230.764345
  0
LINE
  8
0
  6
BYLAYER
 62
     1
 10
141.541005
 20
-92.910602
 30
0.0
 11
141.541371
 21
-92.910918
 31
0.0
  0
LINE
  8
0
  6
BYLAYER
 62
     1
 10
141.596328
 20
-92.956770
 30
0.0
 11
141.548331
 21
-93.338474
 31
0.0
  0
ARC
  8
0
  6
BYLAYER
 62
     1
 10
143.736348
 20
-90.336177
 30
0.0
 40
3.714997
 50
233.916148
 51
245.860401
  0
LINE
  8
0
  6
BYLAYER
 62
     1
 10
142.179074
 20
-93.709022
 30
0.0
 11
142.179326
 21
-93.709144
 31
0.0
  0
LINE
  8
0
  6
BYLAYER
 62
     1
 10
142.217058
 20
-93.726304
 30
0.0
 11
142.518008
 21
-93.492574
 31
0.0
  0
LINE
  8
0
  6
BYLAYER
 62
     1
 10
142.586774
 20
-93.518264
 30
0.0
 11
142.587155
 21
-93.518401
 31
0.0
  0
LINE
  8
0
  6
BYLAYER
 62
     1
 10
147.434460
 20
-90.689941
 30
0.0
 11
147.434460
 21
-90.689948
 31
0.0
  0
LINE
  8
0
  6
BYLAYER
 62
     1
 10
147.430421
 20
-90.729910
 30
0.0
 11
147.075852
 21
-90.879185
 31
0.0
  0
LINE
  8
0
  6
BYLAYER
 62
     1
 10
146.899954
 20
-91.535672
 30
0.0
 11
147.132374
 21
-91.842236
 31
0.0
  0
LINE
  8
0
  6
BYLAYER
 62
     1
 10
146.771573
 20
-92.478271
 30
0.0
 11
146.771352
 21
-92.478583
 31
0.0
  0
LINE
  8
0
  6
BYLAYER
 62
     1
 10
146.747156
 20
-92.512467
 30
0.0
 11
146.369633
 21
-92.460533
 31
0.0
  0
LINE
  8
0
  6
BYLAYER
 62
     1
 10
145.931691
 20
-92.910602
 30
0.0
 11
145.931325
 21
-92.910918
 31
0.0
  0
LINE
  8
0
  6
BYLAYER
 62
     1
 10
145.876370
 20
-92.956768
 30
0.0
 11
145.924357
 21
-93.338480
 31
0.0
  0
LINE
  8
0
  6
BYLAYER
 62
     1
 10
145.255639
 20
-93.726304
 30
0.0
 11
144.954682
 21
-93.492577
 31
0.0
  0
ARC
  8
0
  6
BYLAYER
 62
     1
 10
143.736348
 20
-90.336177
 30
0.0
 40
3.383370
 50
309.235697
 51
321.105929
  0
ARC
  8
0
  6
BYLAYER
 62
     1
 10
143.736348
 20
-90.336177
 30
0.0
 40
3.383369
 50
248.893873
 51
270.000000
  0
ARC
  8
0
  6
BYLAYER
 62
     1
 10
143.736348
 20
-90.336177
 30
0.0
 40
3.714997
 50
294.783232
 51
306.083699
  0
LINE
  8
0
  6
BYLAYER
 62
     1
 10
145.293362
 20
-93.709144
 30
0.0
 11
145.255867
 21
-93.726788
 31
0.0
  0
ARC
  8
0
  6
BYLAYER
 62
     1
 10
143.736348
 20
-90.336177
 30
0.0
 40
3.714993
 50
324.139593
 51
336.083825
  0
ARC
  8
0
  6
BYLAYER
 62
     1
 10
143.736325
 20
-90.336146
 30
0.0
 40
3.383391
 50
339.235210
 51
350.764014
  0
ARC
  8
0
  6
BYLAYER
 62
     1
 10
143.736348
 20
-90.336177
 30
0.0
 40
3.714997
 50
353.916089
 51
360.000000
  0
ARC
  8
0
  6
BYLAYER
 62
     1
 10
143.736348
 20
-90.336177
 30
0.0
 40
3.714997
 50
0.0
 51
6.083907
  0
ARC
  8
0
  6
BYLAYER
 62
     1
 10
143.736348
 20
-90.336177
 30
0.0
 40
3.383369
 50
270.0
 51
291.106008
  0
CIRCLE
  8
0
  6
BYLAYER
 62
     1
 10
143.736348
 20
-90.336177
 30
0.0
 40
1.815040
  0
CIRCLE
  8
0
  6
BYLAYER
 62
     1
 10
143.736348
 20
-90.336177
 30
0.0
 40
2.648016
  0
LINE
  8
0
  6
BYLAYER
 62
     1
 10
147.986348
 20
-149.836177
 30
0.0
 11
144.986348
 21
-149.836177
 31
0.0
  0
LINE
  8
0
  6
BYLAYER
 62
     1
 10
147.986348
 20
-149.836177
 30
0.0
 11
147.986348
 21
-152.836177
 31
0.0
  0
LINE
  8
0
  6
BYLAYER
 62
     1
 10
147.986348
 20
-149.836177
 30
0.0
 11
150.986348
 21
-149.836177
 31
0.0
  0
LINE
  8
0
  6
BYLAYER
 62
     1
 10
147.986348
 20
-149.836177
 30
0.0
 11
147.986348
 21
-146.836177
 31
0.0
  0
ARC
  8
0
  6
BYLAYER
 62
     1
 10
181.473839
 20
-125.324181
 30
0.0
 40
2.000000
 50
355.957305
 51
396.203183
  0
LINE
  8
0
  6
BYLAYER
 62
     1
 10
719.486348
 20
-539.836238
 30
0.0
 11
705.486348
 21
-539.836238
 31
0.0
  0
LINE
  8
0
  6
BYLAYER
 62
     1
 10
648.486348
 20
-539.836238
 30
0.0
 11
662.486348
 21
-539.836238
 31
0.0
  0
CIRCLE
  8
0
  6
BYLAYER
 62
     1
 10
653.986348
 20
-434.836177
 30
0.0
 40
3.250001
  0
CIRCLE
  8
0
  6
BYLAYER
 62
     1
 10
713.986348
 20
-434.836177
 30
0.0
 40
3.250001
  0
LINE
  8
0
  6
BYLAYER
 62
     1
 10
719.486348
 20
-514.836177
 30
0.0
 11
717.986348
 21
-513.336208
 31
0.0
  0
LINE
  8
0
  6
BYLAYER
 62
     1
 10
719.486348
 20
-539.836238
 30
0.0
 11
719.486348
 21
-529.200832
 31
0.0
  0
LINE
  8
0
  6
BYLAYER
 62
     1
 10
719.486348
 20
-520.471522
 30
0.0
 11
719.486348
 21
-514.836177
 31
0.0
  0
CIRCLE
  8
0
  6
BYLAYER
 62
     1
 10
683.986348
 20
-449.836177
 30
0.0
 40
20.0
  0
LINE
  8
0
  6
BYLAYER
 62
     1
 10
648.486348
 20
-539.836238
 30
0.0
 11
648.486348
 21
-529.200832
 31
0.0
  0
LINE
  8
0
  6
BYLAYER
 62
     1
 10
648.486348
 20
-520.471522
 30
0.0
 11
648.486348
 21
-514.836177
 31
0.0
  0
LINE
  8
0
  6
BYLAYER
 62
     1
 10
648.486348
 20
-514.836177
 30
0.0
 11
649.986348
 21
-513.336208
 31
0.0
  0
LINE
  8
0
  6
BYLAYER
 62
     1
 10
662.486348
 20
-514.836177
 30
0.0
 11
648.486348
 21
-514.836177
 31
0.0
  0
LINE
  8
0
  6
BYLAYER
 62
     1
 10
705.486348
 20
-513.336208
 30
0.0
 11
717.986348
 21
-513.336208
 31
0.0
  0
LINE
  8
0
  6
BYLAYER
 62
     1
 10
705.486348
 20
-514.836177
 30
0.0
 11
719.486348
 21
-514.836177
 31
0.0
  0
CIRCLE
  8
0
  6
BYLAYER
 62
     1
 10
683.986348
 20
-423.586177
 30
0.0
 40
3.0
  0
CIRCLE
  8
0
  6
BYLAYER
 62
     1
 10
661.253194
 20
-462.961208
 30
0.0
 40
3.0
  0
CIRCLE
  8
0
  6
BYLAYER
 62
     1
 10
706.719502
 20
-462.961208
 30
0.0
 40
3.0
  0
LINE
  8
0
  6
BYLAYER
 62
     1
 10
662.486348
 20
-513.336208
 30
0.0
 11
649.986348
 21
-513.336208
 31
0.0
  0
LINE
  8
0
  6
BYLAYER
 62
     1
 10
648.486348
 20
-533.336208
 30
0.0
 11
647.486348
 21
-533.336208
 31
0.0
  0
LINE
  8
0
  6
BYLAYER
 62
     1
 10
647.486348
 20
-446.336208
 30
0.0
 11
649.986348
 21
-446.336208
 31
0.0
  0
LINE
  8
0
  6
BYLAYER
 62
     1
 10
647.486348
 20
-446.336208
 30
0.0
 11
647.486348
 21
-533.336208
 31
0.0
  0
LINE
  8
0
  6
BYLAYER
 62
     1
 10
705.486348
 20
-468.064326
 30
0.0
 11
705.486348
 21
-539.836238
 31
0.0
  0
LINE
  8
0
  6
BYLAYER
 62
     1
 10
662.486348
 20
-468.064326
 30
0.0
 11
662.486348
 21
-539.836238
 31
0.0
  0
LINE
  8
0
  6
BYLAYER
 62
     1
 10
648.486348
 20
-443.336177
 30
0.0
 11
649.986348
 21
-444.836177
 31
0.0
  0
LINE
  8
0
  6
BYLAYER
 62
     1
 10
648.486348
 20
-443.336177
 30
0.0
 11
648.486348
 21
-418.336177
 31
0.0
  0
LINE
  8
0
  6
BYLAYER
 62
     1
 10
648.486348
 20
-418.336177
 30
0.0
 11
662.486348
 21
-418.336177
 31
0.0
  0
LINE
  8
0
  6
BYLAYER
 62
     1
 10
719.486348
 20
-418.336177
 30
0.0
 11
705.486348
 21
-418.336177
 31
0.0
  0
LINE
  8
0
  6
BYLAYER
 62
     1
 10
719.486348
 20
-443.336177
 30
0.0
 11
719.486348
 21
-418.336177
 31
0.0
  0
LINE
  8
0
  6
BYLAYER
 62
     1
 10
719.486348
 20
-443.336177
 30
0.0
 11
717.986348
 21
-444.836177
 31
0.0
  0
LINE
  8
0
  6
BYLAYER
 62
     1
 10
649.986348
 20
-513.336208
 30
0.0
 11
649.986348
 21
-444.836177
 31
0.0
  0
LINE
  8
0
  6
BYLAYER
 62
     1
 10
717.986348
 20
-513.336208
 30
0.0
 11
717.986348
 21
-444.836177
 31
0.0
  0
LINE
  8
0
  6
BYLAYER
 62
     1
 10
687.660573
 20
-419.836177
 30
0.0
 11
705.486348
 21
-419.836177
 31
0.0
  0
LINE
  8
0
  6
BYLAYER
 62
     1
 10
662.486348
 20
-419.836177
 30
0.0
 11
680.312123
 21
-419.836177
 31
0.0
  0
LINE
  8
0
  6
BYLAYER
 62
     1
 10
645.486379
 20
-459.836208
 30
0.0
 11
644.986379
 21
-460.336208
 31
0.0
  0
LINE
  8
0
  6
BYLAYER
 62
     1
 10
645.486379
 20
-519.836177
 30
0.0
 11
644.986379
 21
-519.336177
 31
0.0
  0
LINE
  8
0
  6
BYLAYER
 62
     1
 10
644.986379
 20
-519.336177
 30
0.0
 11
644.986379
 21
-460.336208
 31
0.0
  0
LINE
  8
0
  6
BYLAYER
 62
     1
 10
645.486379
 20
-519.836177
 30
0.0
 11
647.086354
 21
-519.836177
 31
0.0
  0
ARC
  8
0
  6
BYLAYER
 62
     1
 10
647.086354
 20
-520.236201
 30
0.0
 40
0.399994
 50
0.0
 51
90.000003
  0
LINE
  8
0
  6
BYLAYER
 62
     1
 10
647.086354
 20
-459.836208
 30
0.0
 11
645.486379
 21
-459.836208
 31
0.0
  0
ARC
  8
0
  6
BYLAYER
 62
     1
 10
647.086354
 20
-459.436214
 30
0.0
 40
0.399994
 50
270.0
 51
360.000003
  0
LINE
  8
0
  6
BYLAYER
 62
     1
 10
658.886556
 20
-443.336177
 30
0.0
 11
648.486348
 21
-443.336177
 31
0.0
  0
ARC
  8
0
  6
BYLAYER
 62
     1
 10
658.886556
 20
-445.336177
 30
0.0
 40
2.0
 50
349.835836
 51
450.000000
  0
LINE
  8
0
  6
BYLAYER
 62
     1
 10
662.486348
 20
-433.404506
 30
0.0
 11
662.486348
 21
-418.336177
 31
0.0
  0
ARC
  8
0
  6
BYLAYER
 62
     1
 10
664.486348
 20
-433.404506
 30
0.0
 40
2.0
 50
180.000000
 51
319.881004
  0
ARC
  8
0
  6
BYLAYER
 62
     1
 10
683.986348
 20
-449.836177
 30
0.0
 40
23.499983
 50
106.021611
 51
139.880826
  0
ARC
  8
0
  6
BYLAYER
 62
     1
 10
676.948354
 20
-425.326656
 30
0.0
 40
2.000017
 50
286.021521
 51
373.890361
  0
ARC
  8
0
  6
BYLAYER
 62
     1
 10
683.986348
 20
-423.586177
 30
0.0
 40
5.249994
 50
346.109564
 51
553.890434
  0
ARC
  8
0
  6
BYLAYER
 62
     1
 10
691.024312
 20
-425.326656
 30
0.0
 40
1.999985
 50
166.109436
 51
253.979054
  0
ARC
  8
0
  6
BYLAYER
 62
     1
 10
683.986348
 20
-449.836177
 30
0.0
 40
23.499992
 50
40.119172
 51
73.978414
  0
LINE
  8
0
  6
BYLAYER
 62
     1
 10
705.486348
 20
-433.404506
 30
0.0
 11
705.486348
 21
-418.336177
 31
0.0
  0
ARC
  8
0
  6
BYLAYER
 62
     1
 10
703.486348
 20
-433.404506
 30
0.0
 40
2.000005
 50
220.118993
 51
359.999996
  0
LINE
  8
0
  6
BYLAYER
 62
     1
 10
709.086140
 20
-443.336177
 30
0.0
 11
719.486348
 21
-443.336177
 31
0.0
  0
ARC
  8
0
  6
BYLAYER
 62
     1
 10
709.086140
 20
-445.336177
 30
0.0
 40
1.999985
 50
90.0
 51
190.164171
  0
ARC
  8
0
  6
BYLAYER
 62
     1
 10
683.986348
 20
-449.836177
 30
0.0
 40
23.499996
 50
346.021509
 51
370.164259
  0
ARC
  8
0
  6
BYLAYER
 62
     1
 10
708.731191
 20
-455.995875
 30
0.0
 40
1.999987
 50
166.022064
 51
253.891054
  0
ARC
  8
0
  6
BYLAYER
 62
     1
 10
706.719502
 20
-462.961208
 30
0.0
 40
5.250013
 50
226.109533
 51
433.890322
  0
ARC
  8
0
  6
BYLAYER
 62
     1
 10
661.253194
 20
-462.961208
 30
0.0
 40
5.250010
 50
106.109680
 51
313.890468
  0
ARC
  8
0
  6
BYLAYER
 62
     1
 10
683.986348
 20
-449.836177
 30
0.0
 40
23.500008
 50
169.835741
 51
193.978493
  0
ARC
  8
0
  6
BYLAYER
 62
     1
 10
659.241475
 20
-455.995906
 30
0.0
 40
1.999986
 50
286.110040
 51
373.978573
  0
LINE
  8
0
  6
BYLAYER
 62
     1
 10
660.823048
 20
-444.836177
 30
0.0
 11
649.986348
 21
-444.836177
 31
0.0
  0
LINE
  8
0
  6
BYLAYER
 62
     1
 10
717.986348
 20
-444.836177
 30
0.0
 11
707.149678
 21
-444.836177
 31
0.0
  0
ARC
  8
0
  6
BYLAYER
 62
     1
 10
649.486348
 20
-520.471522
 30
0.0
 40
1.0
 50
180.000000
 51
267.938986
  0
ARC
  8
0
  6
BYLAYER
 62
     1
 10
713.986348
 20
-524.836177
 30
0.0
 40
3.2
 50
92.061012
 51
267.938984
  0
LINE
  8
0
  6
BYLAYER
 62
     1
 10
718.522298
 20
-521.470882
 30
0.0
 11
713.871266
 21
-521.638240
 31
0.0
  0
LINE
  8
0
  6
BYLAYER
 62
     1
 10
718.522298
 20
-528.201472
 30
0.0
 11
713.871266
 21
-528.034114
 31
0.0
  0
ARC
  8
0
  6
BYLAYER
 62
     1
 10
653.986348
 20
-524.836177
 30
0.0
 40
3.200000
 50
272.061014
 51
447.938986
  0
LINE
  8
0
  6
BYLAYER
 62
     1
 10
649.450398
 20
-521.470882
 30
0.0
 11
654.101430
 21
-521.638240
 31
0.0
  0
LINE
  8
0
  6
BYLAYER
 62
     1
 10
649.450398
 20
-528.201472
 30
0.0
 11
654.101430
 21
-528.034114
 31
0.0
  0
ARC
  8
0
  6
BYLAYER
 62
     1
 10
649.486348
 20
-529.200832
 30
0.0
 40
1.000000
 50
92.061012
 51
179.999998
  0
ARC
  8
0
  6
BYLAYER
 62
     1
 10
718.486348
 20
-520.471522
 30
0.0
 40
1.0
 50
272.061014
 51
360.000000
  0
ARC
  8
0
  6
BYLAYER
 62
     1
 10
718.486348
 20
-529.200832
 30
0.0
 40
1.0
 50
0.0
 51
87.938986
  0
LINE
  8
0
  6
BYLAYER
 62
     1
 10
719.486348
 20
-533.336208
 30
0.0
 11
720.486348
 21
-533.336208
 31
0.0
  0
LINE
  8
0
  6
BYLAYER
 62
     1
 10
720.486348
 20
-446.336208
 30
0.0
 11
717.986348
 21
-446.336208
 31
0.0
  0
LINE
  8
0
  6
BYLAYER
 62
     1
 10
720.486348
 20
-446.336208
 30
0.0
 11
720.486348
 21
-533.336208
 31
0.0
  0
LINE
  8
0
  6
BYLAYER
 62
     1
 10
722.486287
 20
-459.836208
 30
0.0
 11
722.986287
 21
-460.336208
 31
0.0
  0
LINE
  8
0
  6
BYLAYER
 62
     1
 10
722.486287
 20
-519.836177
 30
0.0
 11
722.986287
 21
-519.336177
 31
0.0
  0
LINE
  8
0
  6
BYLAYER
 62
     1
 10
722.986287
 20
-519.336177
 30
0.0
 11
722.986287
 21
-460.336208
 31
0.0
  0
LINE
  8
0
  6
BYLAYER
 62
     1
 10
722.486287
 20
-519.836177
 30
0.0
 11
720.886311
 21
-519.836177
 31
0.0
  0
ARC
  8
0
  6
BYLAYER
 62
     1
 10
720.886311
 20
-520.236201
 30
0.0
 40
0.399994
 50
90.0
 51
180.000003
  0
LINE
  8
0
  6
BYLAYER
 62
     1
 10
720.886311
 20
-459.836208
 30
0.0
 11
722.486287
 21
-459.836208
 31
0.0
  0
ARC
  8
0
  6
BYLAYER
 62
     1
 10
720.886311
 20
-459.436214
 30
0.0
 40
0.399994
 50
180.000000
 51
270.000003
  0
LINE
  8
0
  6
BYLAYER
 62
     1
 10
662.486348
 20
-537.836177
 30
0.0
 11
705.486348
 21
-537.836177
 31
0.0
  0
ARC
  8
0
  6
BYLAYER
 62
     1
 10
683.986348
 20
-449.836177
 30
0.0
 40
23.499996
 50
226.021628
 51
313.978359
  0
ARC
  8
0
  6
BYLAYER
 62
     1
 10
666.279500
 20
-468.186031
 30
0.0
 40
1.999988
 50
46.021938
 51
133.890873
  0
ARC
  8
0
  6
BYLAYER
 62
     1
 10
701.693196
 20
-468.186031
 30
0.0
 40
1.999997
 50
46.109125
 51
133.978067
  0
LINE
  8
0
  6
BYLAYER
 62
     1
 10
197.986394
 20
-414.336223
 30
0.0
 11
197.986394
 21
-428.336162
 31
0.0
  0
LINE
  8
0
  6
BYLAYER
 62
     1
 10
197.986394
 20
-485.336177
 30
0.0
 11
197.986394
 21
-471.336177
 31
0.0
  0
LINE
  8
0
  6
BYLAYER
 62
     1
 10
172.986363
 20
-414.336223
 30
0.0
 11
171.486363
 21
-415.836223
 31
0.0
  0
LINE
  8
0
  6
BYLAYER
 62
     1
 10
197.986394
 20
-414.336223
 30
0.0
 11
172.986363
 21
-414.336223
 31
0.0
  0
LINE
  8
0
  6
BYLAYER
 62
     1
 10
197.986394
 20
-485.336177
 30
0.0
 11
172.986363
 21
-485.336177
 31
0.0
  0
LINE
  8
0
  6
BYLAYER
 62
     1
 10
172.986363
 20
-485.336177
 30
0.0
 11
171.486363
 21
-483.836177
 31
0.0
  0
CIRCLE
  8
0
  6
BYLAYER
 62
     1
 10
182.986363
 20
-419.836223
 30
0.0
 40
3.250001
  0
CIRCLE
  8
0
  6
BYLAYER
 62
     1
 10
182.986363
 20
-479.836177
 30
0.0
 40
3.250001
  0
LINE
  8
0
  6
BYLAYER
 62
     1
 10
172.986363
 20
-428.336162
 30
0.0
 11
172.986363
 21
-414.336223
 31
0.0
  0
LINE
  8
0
  6
BYLAYER
 62
     1
 10
172.986363
 20
-471.336177
 30
0.0
 11
172.986363
 21
-485.336177
 31
0.0
  0
LINE
  8
0
  6
BYLAYER
 62
     1
 10
122.986333
 20
-414.336223
 30
0.0
 11
124.486333
 21
-415.836223
 31
0.0
  0
LINE
  8
0
  6
BYLAYER
 62
     1
 10
97.986333
 20
-414.336223
 30
0.0
 11
122.986333
 21
-414.336223
 31
0.0
  0
LINE
  8
0
  6
BYLAYER
 62
     1
 10
97.986333
 20
-485.336177
 30
0.0
 11
122.986333
 21
-485.336177
 31
0.0
  0
LINE
  8
0
  6
BYLAYER
 62
     1
 10
122.986333
 20
-485.336177
 30
0.0
 11
124.486333
 21
-483.836177
 31
0.0
  0
CIRCLE
  8
0
  6
BYLAYER
 62
     1
 10
112.986333
 20
-419.836223
 30
0.0
 40
3.250001
  0
CIRCLE
  8
0
  6
BYLAYER
 62
     1
 10
112.986333
 20
-479.836177
 30
0.0
 40
3.250001
  0
LINE
  8
0
  6
BYLAYER
 62
     1
 10
122.986333
 20
-428.336162
 30
0.0
 11
122.986333
 21
-414.336223
 31
0.0
  0
LINE
  8
0
  6
BYLAYER
 62
     1
 10
122.986333
 20
-471.336177
 30
0.0
 11
122.986333
 21
-485.336177
 31
0.0
  0
LINE
  8
0
  6
BYLAYER
 62
     1
 10
171.486363
 20
-415.836223
 30
0.0
 11
124.486333
 21
-415.836223
 31
0.0
  0
LINE
  8
0
  6
BYLAYER
 62
     1
 10
171.486363
 20
-483.836177
 30
0.0
 11
124.486333
 21
-483.836177
 31
0.0
  0
LINE
  8
0
  6
BYLAYER
 62
     1
 10
198.986394
 20
-483.336177
 30
0.0
 11
198.986394
 21
-416.336162
 31
0.0
  0
LINE
  8
0
  6
BYLAYER
 62
     1
 10
198.986394
 20
-483.336177
 30
0.0
 11
197.986394
 21
-483.371089
 31
0.0
  0
LINE
  8
0
  6
BYLAYER
 62
     1
 10
198.986394
 20
-416.336162
 30
0.0
 11
197.986394
 21
-416.301250
 31
0.0
  0
LINE
  8
0
  6
BYLAYER
 62
     1
 10
97.986333
 20
-485.336177
 30
0.0
 11
97.986333
 21
-414.336223
 31
0.0
  0
ARC
  8
0
  6
BYLAYER
 62
     1
 10
182.986394
 20
-429.336162
 30
0.0
 40
1.000000
 50
0.0
 51
90.000016
  0
ARC
  8
0
  6
BYLAYER
 62
     1
 10
182.986394
 20
-470.336177
 30
0.0
 40
1.0
 50
270.0
 51
359.999982
  0
LINE
  8
0
  6
BYLAYER
 62
     1
 10
197.986394
 20
-428.336162
 30
0.0
 11
97.986455
 21
-428.336162
 31
0.0
  0
LINE
  8
0
  6
BYLAYER
 62
     1
 10
197.986394
 20
-471.336177
 30
0.0
 11
97.986455
 21
-471.336177
 31
0.0
  0
ARC
  8
0
  6
BYLAYER
 62
     1
 10
112.986455
 20
-429.336162
 30
0.0
 40
1.000000
 50
90.0
 51
180.000016
  0
ARC
  8
0
  6
BYLAYER
 62
     1
 10
112.986455
 20
-470.336177
 30
0.0
 40
1.000000
 50
180.000000
 51
269.999982
  0
LINE
  8
0
  6
BYLAYER
 62
     1
 10
171.486363
 20
-471.336177
 30
0.0
 11
171.486363
 21
-483.836177
 31
0.0
  0
LINE
  8
0
  6
BYLAYER
 62
     1
 10
124.486333
 20
-471.336177
 30
0.0
 11
124.486333
 21
-483.836177
 31
0.0
  0
LINE
  8
0
  6
BYLAYER
 62
     1
 10
171.486363
 20
-428.336162
 30
0.0
 11
171.486363
 21
-415.836223
 31
0.0
  0
LINE
  8
0
  6
BYLAYER
 62
     1
 10
124.486333
 20
-428.336162
 30
0.0
 11
124.486333
 21
-415.836223
 31
0.0
  0
LINE
  8
0
  6
BYLAYER
 62
     1
 10
183.986394
 20
-466.836177
 30
0.0
 11
183.986394
 21
-470.336177
 31
0.0
  0
LINE
  8
0
  6
BYLAYER
 62
     1
 10
104.486363
 20
-413.336192
 30
0.0
 11
191.486363
 21
-413.336192
 31
0.0
  0
LINE
  8
0
  6
BYLAYER
 62
     1
 10
104.486363
 20
-413.336192
 30
0.0
 11
104.486363
 21
-414.336253
 31
0.0
  0
LINE
  8
0
  6
BYLAYER
 62
     1
 10
191.486363
 20
-413.336192
 30
0.0
 11
191.486363
 21
-414.336223
 31
0.0
  0
LINE
  8
0
  6
BYLAYER
 62
     1
 10
197.986379
 20
-417.776164
 30
0.0
 11
197.986379
 21
-415.836223
 31
0.0
  0
LINE
  8
0
  6
BYLAYER
 62
     1
 10
197.986379
 20
-481.896205
 30
0.0
 11
197.986379
 21
-483.836146
 31
0.0
  0
LINE
  8
0
  6
BYLAYER
 62
     1
 10
183.986394
 20
-456.836177
 30
0.0
 11
175.986394
 21
-456.836177
 31
0.0
  0
LINE
  8
0
  6
BYLAYER
 62
     1
 10
175.986394
 20
-458.836177
 30
0.0
 11
183.986394
 21
-458.836177
 31
0.0
  0
LINE
  8
0
  6
BYLAYER
 62
     1
 10
175.986394
 20
-440.836177
 30
0.0
 11
183.986394
 21
-440.836177
 31
0.0
  0
LINE
  8
0
  6
BYLAYER
 62
     1
 10
183.986394
 20
-442.836177
 30
0.0
 11
175.986394
 21
-442.836177
 31
0.0
  0
LINE
  8
0
  6
BYLAYER
 62
     1
 10
177.986363
 20
-411.336223
 30
0.0
 11
177.486363
 21
-410.836223
 31
0.0
  0
LINE
  8
0
  6
BYLAYER
 62
     1
 10
117.986333
 20
-411.336223
 30
0.0
 11
118.486333
 21
-410.836223
 31
0.0
  0
LINE
  8
0
  6
BYLAYER
 62
     1
 10
118.486333
 20
-410.836223
 30
0.0
 11
177.486363
 21
-410.836223
 31
0.0
  0
LINE
  8
0
  6
BYLAYER
 62
     1
 10
117.986333
 20
-412.936198
 30
0.0
 11
117.986333
 21
-411.336223
 31
0.0
  0
ARC
  8
0
  6
BYLAYER
 62
     1
 10
117.586331
 20
-412.936198
 30
0.0
 40
0.399994
 50
270.0
 51
360.000003
  0
LINE
  8
0
  6
BYLAYER
 62
     1
 10
177.986363
 20
-411.336223
 30
0.0
 11
177.986363
 21
-412.936198
 31
0.0
  0
ARC
  8
0
  6
BYLAYER
 62
     1
 10
178.386357
 20
-412.936198
 30
0.0
 40
0.399994
 50
180.000000
 51
269.999996
  0
LINE
  8
0
  6
BYLAYER
 62
     1
 10
183.986394
 20
-464.836177
 30
0.0
 11
183.986394
 21
-458.836177
 31
0.0
  0
LINE
  8
0
  6
BYLAYER
 62
     1
 10
183.986394
 20
-456.836177
 30
0.0
 11
183.986394
 21
-450.836177
 31
0.0
  0
LINE
  8
0
  6
BYLAYER
 62
     1
 10
183.986394
 20
-448.836177
 30
0.0
 11
183.986394
 21
-442.836177
 31
0.0
  0
LINE
  8
0
  6
BYLAYER
 62
     1
 10
183.986394
 20
-440.836177
 30
0.0
 11
183.986394
 21
-434.836162
 31
0.0
  0
LINE
  8
0
  6
BYLAYER
 62
     1
 10
183.986394
 20
-432.836162
 30
0.0
 11
183.986394
 21
-429.336162
 31
0.0
  0
LINE
  8
0
  6
BYLAYER
 62
     1
 10
111.986455
 20
-470.336177
 30
0.0
 11
111.986455
 21
-466.836177
 31
0.0
  0
LINE
  8
0
  6
BYLAYER
 62
     1
 10
111.986455
 20
-464.836177
 30
0.0
 11
111.986455
 21
-458.836177
 31
0.0
  0
LINE
  8
0
  6
BYLAYER
 62
     1
 10
111.986455
 20
-456.836177
 30
0.0
 11
111.986455
 21
-450.836177
 31
0.0
  0
LINE
  8
0
  6
BYLAYER
 62
     1
 10
111.986455
 20
-448.836177
 30
0.0
 11
111.986455
 21
-442.836177
 31
0.0
  0
LINE
  8
0
  6
BYLAYER
 62
     1
 10
111.986455
 20
-440.836177
 30
0.0
 11
111.986455
 21
-434.836162
 31
0.0
  0
LINE
  8
0
  6
BYLAYER
 62
     1
 10
111.986455
 20
-432.836162
 30
0.0
 11
111.986455
 21
-429.336162
 31
0.0
  0
LINE
  8
0
  6
BYLAYER
 62
     1
 10
183.986394
 20
-448.836177
 30
0.0
 11
176.761388
 21
-448.836177
 31
0.0
  0
LINE
  8
0
  6
BYLAYER
 62
     1
 10
183.986394
 20
-450.836177
 30
0.0
 11
176.761388
 21
-450.836177
 31
0.0
  0
LINE
  8
0
  6
BYLAYER
 62
     1
 10
104.486363
 20
-486.336162
 30
0.0
 11
191.486363
 21
-486.336162
 31
0.0
  0
LINE
  8
0
  6
BYLAYER
 62
     1
 10
104.486363
 20
-486.336162
 30
0.0
 11
104.486363
 21
-485.336101
 31
0.0
  0
LINE
  8
0
  6
BYLAYER
 62
     1
 10
191.486363
 20
-486.336162
 30
0.0
 11
191.486363
 21
-485.336131
 31
0.0
  0
LINE
  8
0
  6
BYLAYER
 62
     1
 10
177.986363
 20
-488.336131
 30
0.0
 11
177.486363
 21
-488.836131
 31
0.0
  0
LINE
  8
0
  6
BYLAYER
 62
     1
 10
117.986333
 20
-488.336131
 30
0.0
 11
118.486333
 21
-488.836131
 31
0.0
  0
LINE
  8
0
  6
BYLAYER
 62
     1
 10
118.486333
 20
-488.836131
 30
0.0
 11
177.486363
 21
-488.836131
 31
0.0
  0
LINE
  8
0
  6
BYLAYER
 62
     1
 10
117.986333
 20
-486.736156
 30
0.0
 11
117.986333
 21
-488.336131
 31
0.0
  0
ARC
  8
0
  6
BYLAYER
 62
     1
 10
117.586331
 20
-486.736156
 30
0.0
 40
0.399994
 50
0.0
 51
90.000003
  0
LINE
  8
0
  6
BYLAYER
 62
     1
 10
177.986363
 20
-488.336131
 30
0.0
 11
177.986363
 21
-486.736156
 31
0.0
  0
ARC
  8
0
  6
BYLAYER
 62
     1
 10
178.386357
 20
-486.736156
 30
0.0
 40
0.399994
 50
90.0
 51
179.999996
  0
LINE
  8
0
  6
BYLAYER
 62
     1
 10
127.986363
 20
-432.836162
 30
0.0
 11
111.986455
 21
-432.836162
 31
0.0
  0
LINE
  8
0
  6
BYLAYER
 62
     1
 10
127.986363
 20
-434.836162
 30
0.0
 11
111.986455
 21
-434.836162
 31
0.0
  0
LINE
  8
0
  6
BYLAYER
 62
     1
 10
127.986363
 20
-464.836177
 30
0.0
 11
111.986455
 21
-464.836177
 31
0.0
  0
LINE
  8
0
  6
BYLAYER
 62
     1
 10
127.986363
 20
-466.836177
 30
0.0
 11
111.986455
 21
-466.836177
 31
0.0
  0
LINE
  8
0
  6
BYLAYER
 62
     1
 10
183.986394
 20
-434.836162
 30
0.0
 11
162.986363
 21
-434.836162
 31
0.0
  0
LINE
  8
0
  6
BYLAYER
 62
     1
 10
183.986394
 20
-432.836162
 30
0.0
 11
162.986363
 21
-432.836162
 31
0.0
  0
LINE
  8
0
  6
BYLAYER
 62
     1
 10
183.986394
 20
-464.836177
 30
0.0
 11
162.986363
 21
-464.836177
 31
0.0
  0
LINE
  8
0
  6
BYLAYER
 62
     1
 10
183.986394
 20
-466.836177
 30
0.0
 11
162.986363
 21
-466.836177
 31
0.0
  0
LINE
  8
0
  6
BYLAYER
 62
     1
 10
124.986363
 20
-440.836177
 30
0.0
 11
111.986455
 21
-440.836177
 31
0.0
  0
LINE
  8
0
  6
BYLAYER
 62
     1
 10
124.986363
 20
-442.836177
 30
0.0
 11
111.986455
 21
-442.836177
 31
0.0
  0
LINE
  8
0
  6
BYLAYER
 62
     1
 10
124.986363
 20
-456.836177
 30
0.0
 11
111.986455
 21
-456.836177
 31
0.0
  0
LINE
  8
0
  6
BYLAYER
 62
     1
 10
124.986363
 20
-458.836177
 30
0.0
 11
111.986455
 21
-458.836177
 31
0.0
  0
LINE
  8
0
  6
BYLAYER
 62
     1
 10
111.986455
 20
-448.836177
 30
0.0
 11
127.986363
 21
-448.836177
 31
0.0
  0
LINE
  8
0
  6
BYLAYER
 62
     1
 10
127.986363
 20
-450.836177
 30
0.0
 11
111.986455
 21
-450.836177
 31
0.0
  0
ARC
  8
0
  6
BYLAYER
 62
     1
 10
127.986363
 20
-465.836177
 30
0.0
 40
1.0
 50
270.0
 51
449.999991
  0
ARC
  8
0
  6
BYLAYER
 62
     1
 10
124.986363
 20
-457.836177
 30
0.0
 40
1.0
 50
270.0
 51
449.999991
  0
ARC
  8
0
  6
BYLAYER
 62
     1
 10
127.986363
 20
-449.836177
 30
0.0
 40
1.0
 50
270.0
 51
449.999991
  0
ARC
  8
0
  6
BYLAYER
 62
     1
 10
127.986363
 20
-433.836162
 30
0.0
 40
1.000000
 50
270.0
 51
449.999991
  0
ARC
  8
0
  6
BYLAYER
 62
     1
 10
124.986363
 20
-441.836177
 30
0.0
 40
1.0
 50
270.0
 51
449.999991
  0
ARC
  8
0
  6
BYLAYER
 62
     1
 10
167.986424
 20
-449.836177
 30
0.0
 40
8.000003
 50
12.839535
 51
347.160356
  0
CIRCLE
  8
0
  6
BYLAYER
 62
     1
 10
167.986424
 20
-449.836177
 30
0.0
 40
4.25
  0
ARC
  8
0
  6
BYLAYER
 62
     1
 10
162.986363
 20
-465.836177
 30
0.0
 40
1.0
 50
90.0
 51
270.000005
  0
ARC
  8
0
  6
BYLAYER
 62
     1
 10
175.986394
 20
-457.836177
 30
0.0
 40
1.0
 50
90.0
 51
270.000005
  0
ARC
  8
0
  6
BYLAYER
 62
     1
 10
176.761388
 20
-451.836177
 30
0.0
 40
1.000000
 50
90.0
 51
167.160818
  0
ARC
  8
0
  6
BYLAYER
 62
     1
 10
176.761388
 20
-447.836177
 30
0.0
 40
0.999996
 50
192.840037
 51
269.999998
  0
ARC
  8
0
  6
BYLAYER
 62
     1
 10
162.986363
 20
-433.836162
 30
0.0
 40
1.0
 50
90.0
 51
270.000005
  0
ARC
  8
0
  6
BYLAYER
 62
     1
 10
175.986394
 20
-441.836177
 30
0.0
 40
1.0
 50
90.0
 51
270.000005
  0
LINE
  8
0
  6
BYLAYER
 62
     1
 10
209.986348
 20
-59.653621
 30
0.0
 11
209.986348
 21
-109.836177
 31
0.0
  0
ARC
  8
0
  6
BYLAYER
 62
     1
 10
209.486348
 20
-73.726924
 30
0.0
 40
0.499997
 50
279.999879
 51
360.000000
  0
ARC
  8
0
  6
BYLAYER
 62
     1
 10
209.486348
 20
-73.726924
 30
0.0
 40
0.499997
 50
279.999879
 51
360.000000
  0
LINE
  8
0
  6
BYLAYER
 62
     1
 10
198.986348
 20
-76.086055
 30
0.0
 11
209.573171
 21
-74.219325
 31
0.0
  0
ARC
  8
0
  6
BYLAYER
 62
     1
 10
211.986348
 20
-59.653621
 30
0.0
 40
2.000000
 50
93.000097
 51
180.000000
  0
LINE
  8
0
  6
BYLAYER
 62
     1
 10
211.881673
 20
-57.656367
 30
0.0
 11
217.986348
 21
-57.336436
 31
0.0
  0
LINE
  8
0
  6
BYLAYER
 62
     1
 10
199.808858
 20
-75.941035
 30
0.0
 11
209.986348
 21
-59.653621
 31
0.0
  0
LINE
  8
0
  6
BYLAYER
 62
     1
 10
198.986348
 20
-109.836177
 30
0.0
 11
198.986348
 21
-76.086055
 31
0.0
  0
LINE
  8
0
  6
BYLAYER
 62
     1
 10
217.986348
 20
-57.336436
 30
0.0
 11
217.986348
 21
-109.836299
 31
0.0
  0
LINE
  8
0
  6
BYLAYER
 62
     1
 10
209.986348
 20
-160.018733
 30
0.0
 11
209.986348
 21
-109.836177
 31
0.0
  0
ARC
  8
0
  6
BYLAYER
 62
     1
 10
209.486348
 20
-145.945430
 30
0.0
 40
0.499997
 50
0.0
 51
80.000121
  0
ARC
  8
0
  6
BYLAYER
 62
     1
 10
209.486348
 20
-145.945430
 30
0.0
 40
0.499997
 50
0.0
 51
80.000121
  0
LINE
  8
0
  6
BYLAYER
 62
     1
 10
198.986348
 20
-143.586299
 30
0.0
 11
209.573171
 21
-145.453029
 31
0.0
  0
ARC
  8
0
  6
BYLAYER
 62
     1
 10
211.986348
 20
-160.018733
 30
0.0
 40
2.000000
 50
180.000000
 51
266.999903
  0
LINE
  8
0
  6
BYLAYER
 62
     1
 10
211.881673
 20
-162.015987
 30
0.0
 11
217.986348
 21
-162.335918
 31
0.0
  0
LINE
  8
0
  6
BYLAYER
 62
     1
 10
199.808858
 20
-143.731319
 30
0.0
 11
209.986348
 21
-160.018733
 31
0.0
  0
LINE
  8
0
  6
BYLAYER
 62
     1
 10
198.986348
 20
-109.836177
 30
0.0
 11
198.986348
 21
-143.586299
 31
0.0
  0
LINE
  8
0
  6
BYLAYER
 62
     1
 10
217.986348
 20
-162.335918
 30
0.0
 11
217.986348
 21
-109.836055
 31
0.0
  0
LINE
  8
0
  6
BYLAYER
 62
     1
 10
648.486409
 20
-174.836177
 30
0.0
 11
649.986409
 21
-173.336208
 31
0.0
  0
LINE
  8
0
  6
BYLAYER
 62
     1
 10
648.486409
 20
-180.471522
 30
0.0
 11
648.486409
 21
-174.836177
 31
0.0
  0
LINE
  8
0
  6
BYLAYER
 62
     1
 10
719.486363
 20
-180.460475
 30
0.0
 11
719.486363
 21
-174.836177
 31
0.0
  0
LINE
  8
0
  6
BYLAYER
 62
     1
 10
719.486363
 20
-174.836177
 30
0.0
 11
717.986363
 21
-173.336208
 31
0.0
  0
LINE
  8
0
  6
BYLAYER
 62
     1
 10
659.526125
 20
-174.836177
 30
0.0
 11
648.486409
 21
-174.836177
 31
0.0
  0
LINE
  8
0
  6
BYLAYER
 62
     1
 10
708.446571
 20
-174.836177
 30
0.0
 11
719.486363
 21
-174.836177
 31
0.0
  0
LINE
  8
0
  6
BYLAYER
 62
     1
 10
712.111934
 20
-173.336208
 30
0.0
 11
717.986363
 21
-173.336208
 31
0.0
  0
LINE
  8
0
  6
BYLAYER
 62
     1
 10
655.860762
 20
-173.336208
 30
0.0
 11
649.986409
 21
-173.336208
 31
0.0
  0
LINE
  8
0
  6
BYLAYER
 62
     1
 10
719.486363
 20
-193.336208
 30
0.0
 11
720.486363
 21
-193.336208
 31
0.0
  0
LINE
  8
0
  6
BYLAYER
 62
     1
 10
720.486363
 20
-168.921297
 30
0.0
 11
720.486363
 21
-193.336208
 31
0.0
  0
LINE
  8
0
  6
BYLAYER
 62
     1
 10
649.986409
 20
-173.336208
 30
0.0
 11
649.986409
 21
-170.394468
 31
0.0
  0
LINE
  8
0
  6
BYLAYER
 62
     1
 10
717.986363
 20
-173.336208
 30
0.0
 11
717.986363
 21
-170.394426
 31
0.0
  0
LINE
  8
0
  6
BYLAYER
 62
     1
 10
722.486363
 20
-179.836177
 30
0.0
 11
722.986363
 21
-179.336177
 31
0.0
  0
LINE
  8
0
  6
BYLAYER
 62
     1
 10
722.986363
 20
-179.336177
 30
0.0
 11
722.986363
 21
-167.301830
 31
0.0
  0
LINE
  8
0
  6
BYLAYER
 62
     1
 10
722.486363
 20
-179.836177
 30
0.0
 11
720.886388
 21
-179.836177
 31
0.0
  0
ARC
  8
0
  6
BYLAYER
 62
     1
 10
720.886388
 20
-180.236201
 30
0.0
 40
0.400024
 50
90.0
 51
180.000003
  0
ARC
  8
0
  6
BYLAYER
 62
     1
 10
649.486409
 20
-180.471522
 30
0.0
 40
1.0
 50
180.000000
 51
267.938986
  0
ARC
  8
0
  6
BYLAYER
 62
     1
 10
713.986424
 20
-184.836177
 30
0.0
 40
3.200000
 50
92.061012
 51
267.938984
  0
LINE
  8
0
  6
BYLAYER
 62
     1
 10
718.522374
 20
-181.470882
 30
0.0
 11
713.871312
 21
-181.638240
 31
0.0
  0
LINE
  8
0
  6
BYLAYER
 62
     1
 10
718.522374
 20
-188.201472
 30
0.0
 11
713.871312
 21
-188.034114
 31
0.0
  0
ARC
  8
0
  6
BYLAYER
 62
     1
 10
653.986409
 20
-184.836177
 30
0.0
 40
3.2
 50
272.061014
 51
447.938986
  0
LINE
  8
0
  6
BYLAYER
 62
     1
 10
649.450459
 20
-181.470882
 30
0.0
 11
654.101521
 21
-181.638240
 31
0.0
  0
LINE
  8
0
  6
BYLAYER
 62
     1
 10
649.450459
 20
-188.201472
 30
0.0
 11
654.101521
 21
-188.034114
 31
0.0
  0
ARC
  8
0
  6
BYLAYER
 62
     1
 10
649.486409
 20
-189.200832
 30
0.0
 40
1.000000
 50
92.061012
 51
179.999998
  0
ARC
  8
0
  6
BYLAYER
 62
     1
 10
718.486424
 20
-180.471522
 30
0.0
 40
1.0
 50
272.061014
 51
360.000000
  0
ARC
  8
0
  6
BYLAYER
 62
     1
 10
718.486424
 20
-189.200832
 30
0.0
 40
1.0
 50
0.0
 51
87.938986
  0
LINE
  8
0
  6
BYLAYER
 62
     1
 10
648.486348
 20
-193.336208
 30
0.0
 11
647.486348
 21
-193.336208
 31
0.0
  0
LINE
  8
0
  6
BYLAYER
 62
     1
 10
647.486348
 20
-168.921306
 30
0.0
 11
647.486348
 21
-193.336208
 31
0.0
  0
LINE
  8
0
  6
BYLAYER
 62
     1
 10
645.486348
 20
-179.836177
 30
0.0
 11
644.986348
 21
-179.336177
 31
0.0
  0
LINE
  8
0
  6
BYLAYER
 62
     1
 10
644.986348
 20
-179.336177
 30
0.0
 11
644.986348
 21
-167.301841
 31
0.0
  0
LINE
  8
0
  6
BYLAYER
 62
     1
 10
645.486348
 20
-179.836177
 30
0.0
 11
647.086324
 21
-179.836177
 31
0.0
  0
ARC
  8
0
  6
BYLAYER
 62
     1
 10
647.086324
 20
-180.236201
 30
0.0
 40
0.400024
 50
0.0
 51
90.000003
  0
LINE
  8
0
  6
BYLAYER
 62
     1
 10
705.486363
 20
-197.836177
 30
0.0
 11
662.486348
 21
-197.836177
 31
0.0
  0
LINE
  8
0
  6
BYLAYER
 62
     1
 10
648.486409
 20
-199.836238
 30
0.0
 11
662.486348
 21
-199.836238
 31
0.0
  0
LINE
  8
0
  6
BYLAYER
 62
     1
 10
719.486363
 20
-199.836238
 30
0.0
 11
705.486363
 21
-199.836238
 31
0.0
  0
LINE
  8
0
  6
BYLAYER
 62
     1
 10
648.486409
 20
-199.836238
 30
0.0
 11
648.486409
 21
-189.200832
 31
0.0
  0
LINE
  8
0
  6
BYLAYER
 62
     1
 10
719.486363
 20
-199.836238
 30
0.0
 11
719.486363
 21
-189.211879
 31
0.0
  0
LINE
  8
0
  6
BYLAYER
 62
     1
 10
662.486348
 20
-175.874442
 30
0.0
 11
662.486348
 21
-199.836238
 31
0.0
  0
LINE
  8
0
  6
BYLAYER
 62
     1
 10
705.486363
 20
-175.874438
 30
0.0
 11
705.486363
 21
-199.836238
 31
0.0
  0
LINE
  8
0
  6
BYLAYER
 62
     7
 10
646.986348
 20
-32.836177
 30
0.0
 11
646.986348
 21
-51.062862
 31
0.0
  0
LINE
  8
0
  6
BYLAYER
 62
     7
 10
720.986348
 20
-32.836177
 30
0.0
 11
720.986348
 21
-51.062862
 31
0.0
  0
LINE
  8
0
  6
BYLAYER
 62
     7
 10
646.986348
 20
-37.336177
 30
0.0
 11
649.986348
 21
-42.532313
 31
0.0
  0
LINE
  8
0
  6
BYLAYER
 62
     7
 10
649.986348
 20
-42.532313
 30
0.0
 11
649.986348
 21
-49.277920
 31
0.0
  0
LINE
  8
0
  6
BYLAYER
 62
     7
 10
720.986348
 20
-37.336177
 30
0.0
 11
717.986348
 21
-42.532313
 31
0.0
  0
LINE
  8
0
  6
BYLAYER
 62
     7
 10
717.986348
 20
-42.532313
 30
0.0
 11
717.986348
 21
-49.277920
 31
0.0
  0
LINE
  8
0
  6
BYLAYER
 62
     7
 10
684.986348
 20
-98.836177
 30
0.0
 11
692.986348
 21
-98.836177
 31
0.0
  0
LINE
  8
0
  6
BYLAYER
 62
     7
 10
684.986348
 20
-80.836177
 30
0.0
 11
684.986348
 21
-88.836177
 31
0.0
  0
LINE
  8
0
  6
BYLAYER
 62
     7
 10
684.986348
 20
-70.836177
 30
0.0
 11
684.986348
 21
-78.836177
 31
0.0
  0
LINE
  8
0
  6
BYLAYER
 62
     7
 10
684.986348
 20
-90.836177
 30
0.0
 11
684.986348
 21
-98.836177
 31
0.0
  0
LINE
  8
0
  6
BYLAYER
 62
     7
 10
692.986348
 20
-78.836177
 30
0.0
 11
692.986348
 21
-70.836177
 31
0.0
  0
LINE
  8
0
  6
BYLAYER
 62
     7
 10
694.986348
 20
-78.836177
 30
0.0
 11
694.986348
 21
-70.836177
 31
0.0
  0
LINE
  8
0
  6
BYLAYER
 62
     7
 10
684.986348
 20
-90.836177
 30
0.0
 11
692.986348
 21
-90.836177
 31
0.0
  0
LINE
  8
0
  6
BYLAYER
 62
     7
 10
684.986348
 20
-88.836177
 30
0.0
 11
692.986348
 21
-88.836177
 31
0.0
  0
LINE
  8
0
  6
BYLAYER
 62
     7
 10
684.986348
 20
-80.836177
 30
0.0
 11
692.986348
 21
-80.836177
 31
0.0
  0
LINE
  8
0
  6
BYLAYER
 62
     7
 10
694.986348
 20
-78.836177
 30
0.0
 11
702.824347
 21
-78.836177
 31
0.0
  0
LINE
  8
0
  6
BYLAYER
 62
     7
 10
684.986348
 20
-78.836177
 30
0.0
 11
692.986348
 21
-78.836177
 31
0.0
  0
LINE
  8
0
  6
BYLAYER
 62
     7
 10
694.986348
 20
-70.836177
 30
0.0
 11
702.824347
 21
-70.836177
 31
0.0
  0
LINE
  8
0
  6
BYLAYER
 62
     7
 10
684.986348
 20
-70.836177
 30
0.0
 11
692.986348
 21
-70.836177
 31
0.0
  0
LINE
  8
0
  6
BYLAYER
 62
     7
 10
702.824347
 20
-78.836177
 30
0.0
 11
702.824347
 21
-70.836177
 31
0.0
  0
LINE
  8
0
  6
BYLAYER
 62
     7
 10
692.986348
 20
-98.836177
 30
0.0
 11
692.986348
 21
-90.836177
 31
0.0
  0
LINE
  8
0
  6
BYLAYER
 62
     7
 10
692.986348
 20
-88.836177
 30
0.0
 11
692.986348
 21
-80.836177
 31
0.0
  0
LINE
  8
0
  6
BYLAYER
 62
     7
 10
694.986348
 20
-98.836177
 30
0.0
 11
702.986348
 21
-98.836177
 31
0.0
  0
LINE
  8
0
  6
BYLAYER
 62
     7
 10
694.986348
 20
-80.836177
 30
0.0
 11
694.986348
 21
-88.836177
 31
0.0
  0
LINE
  8
0
  6
BYLAYER
 62
     7
 10
694.986348
 20
-90.836177
 30
0.0
 11
694.986348
 21
-98.836177
 31
0.0
  0
LINE
  8
0
  6
BYLAYER
 62
     7
 10
694.986348
 20
-90.836177
 30
0.0
 11
702.986348
 21
-90.836177
 31
0.0
  0
LINE
  8
0
  6
BYLAYER
 62
     7
 10
694.986348
 20
-88.836177
 30
0.0
 11
702.986348
 21
-88.836177
 31
0.0
  0
LINE
  8
0
  6
BYLAYER
 62
     7
 10
694.986348
 20
-80.836177
 30
0.0
 11
702.986348
 21
-80.836177
 31
0.0
  0
LINE
  8
0
  6
BYLAYER
 62
     7
 10
702.986348
 20
-98.836177
 30
0.0
 11
702.986348
 21
-90.836177
 31
0.0
  0
LINE
  8
0
  6
BYLAYER
 62
     7
 10
702.986348
 20
-88.836177
 30
0.0
 11
702.986348
 21
-80.836177
 31
0.0
  0
LINE
  8
0
  6
BYLAYER
 62
     7
 10
704.986348
 20
-98.836177
 30
0.0
 11
712.986348
 21
-98.836177
 31
0.0
  0
LINE
  8
0
  6
BYLAYER
 62
     7
 10
704.986348
 20
-80.836177
 30
0.0
 11
704.986348
 21
-88.836177
 31
0.0
  0
LINE
  8
0
  6
BYLAYER
 62
     7
 10
704.986348
 20
-90.836177
 30
0.0
 11
704.986348
 21
-98.836177
 31
0.0
  0
LINE
  8
0
  6
BYLAYER
 62
     7
 10
704.986348
 20
-90.836177
 30
0.0
 11
712.986348
 21
-90.836177
 31
0.0
  0
LINE
  8
0
  6
BYLAYER
 62
     7
 10
704.986348
 20
-88.836177
 30
0.0
 11
712.986348
 21
-88.836177
 31
0.0
  0
LINE
  8
0
  6
BYLAYER
 62
     7
 10
704.986348
 20
-80.836177
 30
0.0
 11
712.986348
 21
-80.836177
 31
0.0
  0
LINE
  8
0
  6
BYLAYER
 62
     7
 10
712.986348
 20
-98.836177
 30
0.0
 11
712.986348
 21
-90.836177
 31
0.0
  0
LINE
  8
0
  6
BYLAYER
 62
     7
 10
712.986348
 20
-88.836177
 30
0.0
 11
712.986348
 21
-80.836177
 31
0.0
  0
LINE
  8
0
  6
BYLAYER
 62
     7
 10
694.986348
 20
-108.836177
 30
0.0
 11
702.986348
 21
-108.836177
 31
0.0
  0
LINE
  8
0
  6
BYLAYER
 62
     7
 10
694.986348
 20
-100.836177
 30
0.0
 11
694.986348
 21
-108.836177
 31
0.0
  0
LINE
  8
0
  6
BYLAYER
 62
     7
 10
694.986348
 20
-100.836177
 30
0.0
 11
702.986348
 21
-100.836177
 31
0.0
  0
LINE
  8
0
  6
BYLAYER
 62
     7
 10
702.986348
 20
-108.836177
 30
0.0
 11
702.986348
 21
-100.836177
 31
0.0
  0
LINE
  8
0
  6
BYLAYER
 62
     7
 10
704.986348
 20
-108.836177
 30
0.0
 11
712.986348
 21
-108.836177
 31
0.0
  0
LINE
  8
0
  6
BYLAYER
 62
     7
 10
704.986348
 20
-100.836177
 30
0.0
 11
704.986348
 21
-108.836177
 31
0.0
  0
LINE
  8
0
  6
BYLAYER
 62
     7
 10
704.986348
 20
-100.836177
 30
0.0
 11
712.986348
 21
-100.836177
 31
0.0
  0
LINE
  8
0
  6
BYLAYER
 62
     7
 10
712.986348
 20
-108.836177
 30
0.0
 11
712.986348
 21
-100.836177
 31
0.0
  0
LINE
  8
0
  6
BYLAYER
 62
     7
 10
714.986348
 20
-98.836177
 30
0.0
 11
722.986348
 21
-98.836177
 31
0.0
  0
LINE
  8
0
  6
BYLAYER
 62
     7
 10
714.986348
 20
-90.836177
 30
0.0
 11
714.986348
 21
-98.836177
 31
0.0
  0
LINE
  8
0
  6
BYLAYER
 62
     7
 10
714.986348
 20
-90.836177
 30
0.0
 11
722.986348
 21
-90.836177
 31
0.0
  0
LINE
  8
0
  6
BYLAYER
 62
     7
 10
722.986348
 20
-98.836177
 30
0.0
 11
722.986348
 21
-90.836177
 31
0.0
  0
LINE
  8
0
  6
BYLAYER
 62
     7
 10
714.986348
 20
-108.836177
 30
0.0
 11
722.986348
 21
-108.836177
 31
0.0
  0
LINE
  8
0
  6
BYLAYER
 62
     7
 10
714.986348
 20
-100.836177
 30
0.0
 11
714.986348
 21
-108.836177
 31
0.0
  0
LINE
  8
0
  6
BYLAYER
 62
     7
 10
714.986348
 20
-100.836177
 30
0.0
 11
722.986348
 21
-100.836177
 31
0.0
  0
LINE
  8
0
  6
BYLAYER
 62
     7
 10
722.986348
 20
-108.836177
 30
0.0
 11
722.986348
 21
-100.836177
 31
0.0
  0
CIRCLE
  8
0
  6
BYLAYER
 62
     7
 10
683.986348
 20
-109.836177
 30
0.0
 40
4.0
  0
LINE
  8
0
  6
BYLAYER
 62
     7
 10
684.986348
 20
-60.836177
 30
0.0
 11
684.986348
 21
-68.836177
 31
0.0
  0
LINE
  8
0
  6
BYLAYER
 62
     7
 10
692.986348
 20
-68.836177
 30
0.0
 11
692.986348
 21
-60.836177
 31
0.0
  0
LINE
  8
0
  6
BYLAYER
 62
     7
 10
684.986348
 20
-68.836177
 30
0.0
 11
692.986348
 21
-68.836177
 31
0.0
  0
LINE
  8
0
  6
BYLAYER
 62
     7
 10
684.986348
 20
-60.836177
 30
0.0
 11
692.986348
 21
-60.836177
 31
0.0
  0
LINE
  8
0
  6
BYLAYER
 62
     7
 10
704.986348
 20
-70.836177
 30
0.0
 11
704.986348
 21
-78.836177
 31
0.0
  0
LINE
  8
0
  6
BYLAYER
 62
     7
 10
704.986348
 20
-78.836177
 30
0.0
 11
712.986348
 21
-78.836177
 31
0.0
  0
LINE
  8
0
  6
BYLAYER
 62
     7
 10
704.986348
 20
-70.836177
 30
0.0
 11
712.986348
 21
-70.836177
 31
0.0
  0
LINE
  8
0
  6
BYLAYER
 62
     7
 10
712.986348
 20
-78.836177
 30
0.0
 11
712.986348
 21
-70.836177
 31
0.0
  0
LINE
  8
0
  6
BYLAYER
 62
     7
 10
724.986348
 20
-108.836177
 30
0.0
 11
732.986348
 21
-108.836177
 31
0.0
  0
LINE
  8
0
  6
BYLAYER
 62
     7
 10
724.986348
 20
-100.836177
 30
0.0
 11
724.986348
 21
-108.836177
 31
0.0
  0
LINE
  8
0
  6
BYLAYER
 62
     7
 10
724.986348
 20
-100.836177
 30
0.0
 11
732.986348
 21
-100.836177
 31
0.0
  0
LINE
  8
0
  6
BYLAYER
 62
     7
 10
732.986348
 20
-108.836177
 30
0.0
 11
732.986348
 21
-100.836177
 31
0.0
  0
LINE
  8
0
  6
BYLAYER
 62
     7
 10
714.986348
 20
-88.836177
 30
0.0
 11
722.986348
 21
-88.836177
 31
0.0
  0
LINE
  8
0
  6
BYLAYER
 62
     7
 10
714.986348
 20
-80.836177
 30
0.0
 11
714.986348
 21
-88.836177
 31
0.0
  0
LINE
  8
0
  6
BYLAYER
 62
     7
 10
714.986348
 20
-80.836177
 30
0.0
 11
722.986348
 21
-80.836177
 31
0.0
  0
LINE
  8
0
  6
BYLAYER
 62
     7
 10
722.986348
 20
-88.836177
 30
0.0
 11
722.986348
 21
-80.836177
 31
0.0
  0
CIRCLE
  8
0
  6
BYLAYER
 62
     7
 10
683.986348
 20
-109.836177
 30
0.0
 40
55.0
  0
CIRCLE
  8
0
  6
BYLAYER
 62
     7
 10
683.986348
 20
-109.836177
 30
0.0
 40
69.45
  0
CIRCLE
  8
0
  6
BYLAYER
 62
     7
 10
683.986348
 20
-109.836177
 30
0.0
 40
51.0
  0
LINE
  8
0
  6
BYLAYER
 62
     7
 10
684.986348
 20
-120.836177
 30
0.0
 11
692.986348
 21
-120.836177
 31
0.0
  0
LINE
  8
0
  6
BYLAYER
 62
     7
 10
684.986348
 20
-138.836177
 30
0.0
 11
684.986348
 21
-130.836177
 31
0.0
  0
LINE
  8
0
  6
BYLAYER
 62
     7
 10
684.986348
 20
-148.836177
 30
0.0
 11
684.986348
 21
-140.836177
 31
0.0
  0
LINE
  8
0
  6
BYLAYER
 62
     7
 10
684.986348
 20
-128.836177
 30
0.0
 11
684.986348
 21
-120.836177
 31
0.0
  0
LINE
  8
0
  6
BYLAYER
 62
     7
 10
692.986348
 20
-140.836177
 30
0.0
 11
692.986348
 21
-148.836177
 31
0.0
  0
LINE
  8
0
  6
BYLAYER
 62
     7
 10
694.986348
 20
-140.836177
 30
0.0
 11
694.986348
 21
-148.836177
 31
0.0
  0
LINE
  8
0
  6
BYLAYER
 62
     7
 10
684.986348
 20
-128.836177
 30
0.0
 11
692.986348
 21
-128.836177
 31
0.0
  0
LINE
  8
0
  6
BYLAYER
 62
     7
 10
684.986348
 20
-130.836177
 30
0.0
 11
692.986348
 21
-130.836177
 31
0.0
  0
LINE
  8
0
  6
BYLAYER
 62
     7
 10
684.986348
 20
-138.836177
 30
0.0
 11
692.986348
 21
-138.836177
 31
0.0
  0
LINE
  8
0
  6
BYLAYER
 62
     7
 10
694.986348
 20
-140.836177
 30
0.0
 11
702.824347
 21
-140.836177
 31
0.0
  0
LINE
  8
0
  6
BYLAYER
 62
     7
 10
684.986348
 20
-140.836177
 30
0.0
 11
692.986348
 21
-140.836177
 31
0.0
  0
LINE
  8
0
  6
BYLAYER
 62
     7
 10
694.986348
 20
-148.836177
 30
0.0
 11
702.824347
 21
-148.836177
 31
0.0
  0
LINE
  8
0
  6
BYLAYER
 62
     7
 10
684.986348
 20
-148.836177
 30
0.0
 11
692.986348
 21
-148.836177
 31
0.0
  0
LINE
  8
0
  6
BYLAYER
 62
     7
 10
702.824347
 20
-140.836177
 30
0.0
 11
702.824347
 21
-148.836177
 31
0.0
  0
LINE
  8
0
  6
BYLAYER
 62
     7
 10
692.986348
 20
-120.836177
 30
0.0
 11
692.986348
 21
-128.836177
 31
0.0
  0
LINE
  8
0
  6
BYLAYER
 62
     7
 10
692.986348
 20
-130.836177
 30
0.0
 11
692.986348
 21
-138.836177
 31
0.0
  0
LINE
  8
0
  6
BYLAYER
 62
     7
 10
694.986348
 20
-120.836177
 30
0.0
 11
702.986348
 21
-120.836177
 31
0.0
  0
LINE
  8
0
  6
BYLAYER
 62
     7
 10
694.986348
 20
-138.836177
 30
0.0
 11
694.986348
 21
-130.836177
 31
0.0
  0
LINE
  8
0
  6
BYLAYER
 62
     7
 10
694.986348
 20
-128.836177
 30
0.0
 11
694.986348
 21
-120.836177
 31
0.0
  0
LINE
  8
0
  6
BYLAYER
 62
     7
 10
694.986348
 20
-128.836177
 30
0.0
 11
702.986348
 21
-128.836177
 31
0.0
  0
LINE
  8
0
  6
BYLAYER
 62
     7
 10
694.986348
 20
-130.836177
 30
0.0
 11
702.986348
 21
-130.836177
 31
0.0
  0
LINE
  8
0
  6
BYLAYER
 62
     7
 10
694.986348
 20
-138.836177
 30
0.0
 11
702.986348
 21
-138.836177
 31
0.0
  0
LINE
  8
0
  6
BYLAYER
 62
     7
 10
702.986348
 20
-120.836177
 30
0.0
 11
702.986348
 21
-128.836177
 31
0.0
  0
LINE
  8
0
  6
BYLAYER
 62
     7
 10
702.986348
 20
-130.836177
 30
0.0
 11
702.986348
 21
-138.836177
 31
0.0
  0
LINE
  8
0
  6
BYLAYER
 62
     7
 10
704.986348
 20
-120.836177
 30
0.0
 11
712.986348
 21
-120.836177
 31
0.0
  0
LINE
  8
0
  6
BYLAYER
 62
     7
 10
704.986348
 20
-138.836177
 30
0.0
 11
704.986348
 21
-130.836177
 31
0.0
  0
LINE
  8
0
  6
BYLAYER
 62
     7
 10
704.986348
 20
-128.836177
 30
0.0
 11
704.986348
 21
-120.836177
 31
0.0
  0
LINE
  8
0
  6
BYLAYER
 62
     7
 10
704.986348
 20
-128.836177
 30
0.0
 11
712.986348
 21
-128.836177
 31
0.0
  0
LINE
  8
0
  6
BYLAYER
 62
     7
 10
704.986348
 20
-130.836177
 30
0.0
 11
712.986348
 21
-130.836177
 31
0.0
  0
LINE
  8
0
  6
BYLAYER
 62
     7
 10
704.986348
 20
-138.836177
 30
0.0
 11
712.986348
 21
-138.836177
 31
0.0
  0
LINE
  8
0
  6
BYLAYER
 62
     7
 10
712.986348
 20
-120.836177
 30
0.0
 11
712.986348
 21
-128.836177
 31
0.0
  0
LINE
  8
0
  6
BYLAYER
 62
     7
 10
712.986348
 20
-130.836177
 30
0.0
 11
712.986348
 21
-138.836177
 31
0.0
  0
LINE
  8
0
  6
BYLAYER
 62
     7
 10
694.986348
 20
-110.836177
 30
0.0
 11
702.986348
 21
-110.836177
 31
0.0
  0
LINE
  8
0
  6
BYLAYER
 62
     7
 10
694.986348
 20
-118.836177
 30
0.0
 11
694.986348
 21
-110.836177
 31
0.0
  0
LINE
  8
0
  6
BYLAYER
 62
     7
 10
694.986348
 20
-118.836177
 30
0.0
 11
702.986348
 21
-118.836177
 31
0.0
  0
LINE
  8
0
  6
BYLAYER
 62
     7
 10
702.986348
 20
-110.836177
 30
0.0
 11
702.986348
 21
-118.836177
 31
0.0
  0
LINE
  8
0
  6
BYLAYER
 62
     7
 10
704.986348
 20
-110.836177
 30
0.0
 11
712.986348
 21
-110.836177
 31
0.0
  0
LINE
  8
0
  6
BYLAYER
 62
     7
 10
704.986348
 20
-118.836177
 30
0.0
 11
704.986348
 21
-110.836177
 31
0.0
  0
LINE
  8
0
  6
BYLAYER
 62
     7
 10
704.986348
 20
-118.836177
 30
0.0
 11
712.986348
 21
-118.836177
 31
0.0
  0
LINE
  8
0
  6
BYLAYER
 62
     7
 10
712.986348
 20
-110.836177
 30
0.0
 11
712.986348
 21
-118.836177
 31
0.0
  0
LINE
  8
0
  6
BYLAYER
 62
     7
 10
714.986348
 20
-120.836177
 30
0.0
 11
722.986348
 21
-120.836177
 31
0.0
  0
LINE
  8
0
  6
BYLAYER
 62
     7
 10
714.986348
 20
-128.836177
 30
0.0
 11
714.986348
 21
-120.836177
 31
0.0
  0
LINE
  8
0
  6
BYLAYER
 62
     7
 10
714.986348
 20
-128.836177
 30
0.0
 11
722.986348
 21
-128.836177
 31
0.0
  0
LINE
  8
0
  6
BYLAYER
 62
     7
 10
722.986348
 20
-120.836177
 30
0.0
 11
722.986348
 21
-128.836177
 31
0.0
  0
LINE
  8
0
  6
BYLAYER
 62
     7
 10
714.986348
 20
-110.836177
 30
0.0
 11
722.986348
 21
-110.836177
 31
0.0
  0
LINE
  8
0
  6
BYLAYER
 62
     7
 10
714.986348
 20
-118.836177
 30
0.0
 11
714.986348
 21
-110.836177
 31
0.0
  0
LINE
  8
0
  6
BYLAYER
 62
     7
 10
714.986348
 20
-118.836177
 30
0.0
 11
722.986348
 21
-118.836177
 31
0.0
  0
LINE
  8
0
  6
BYLAYER
 62
     7
 10
722.986348
 20
-110.836177
 30
0.0
 11
722.986348
 21
-118.836177
 31
0.0
  0
LINE
  8
0
  6
BYLAYER
 62
     7
 10
684.986348
 20
-158.836177
 30
0.0
 11
684.986348
 21
-150.836177
 31
0.0
  0
LINE
  8
0
  6
BYLAYER
 62
     7
 10
692.986348
 20
-150.836177
 30
0.0
 11
692.986348
 21
-158.836177
 31
0.0
  0
LINE
  8
0
  6
BYLAYER
 62
     7
 10
684.986348
 20
-150.836177
 30
0.0
 11
692.986348
 21
-150.836177
 31
0.0
  0
LINE
  8
0
  6
BYLAYER
 62
     7
 10
684.986348
 20
-158.836177
 30
0.0
 11
692.986348
 21
-158.836177
 31
0.0
  0
LINE
  8
0
  6
BYLAYER
 62
     7
 10
704.986348
 20
-148.836177
 30
0.0
 11
704.986348
 21
-140.836177
 31
0.0
  0
LINE
  8
0
  6
BYLAYER
 62
     7
 10
704.986348
 20
-140.836177
 30
0.0
 11
712.986348
 21
-140.836177
 31
0.0
  0
LINE
  8
0
  6
BYLAYER
 62
     7
 10
704.986348
 20
-148.836177
 30
0.0
 11
712.986348
 21
-148.836177
 31
0.0
  0
LINE
  8
0
  6
BYLAYER
 62
     7
 10
712.986348
 20
-140.836177
 30
0.0
 11
712.986348
 21
-148.836177
 31
0.0
  0
LINE
  8
0
  6
BYLAYER
 62
     7
 10
724.986348
 20
-110.836177
 30
0.0
 11
732.986348
 21
-110.836177
 31
0.0
  0
LINE
  8
0
  6
BYLAYER
 62
     7
 10
724.986348
 20
-118.836177
 30
0.0
 11
724.986348
 21
-110.836177
 31
0.0
  0
LINE
  8
0
  6
BYLAYER
 62
     7
 10
724.986348
 20
-118.836177
 30
0.0
 11
732.986348
 21
-118.836177
 31
0.0
  0
LINE
  8
0
  6
BYLAYER
 62
     7
 10
732.986348
 20
-110.836177
 30
0.0
 11
732.986348
 21
-118.836177
 31
0.0
  0
LINE
  8
0
  6
BYLAYER
 62
     7
 10
714.986348
 20
-130.836177
 30
0.0
 11
722.986348
 21
-130.836177
 31
0.0
  0
LINE
  8
0
  6
BYLAYER
 62
     7
 10
714.986348
 20
-138.836177
 30
0.0
 11
714.986348
 21
-130.836177
 31
0.0
  0
LINE
  8
0
  6
BYLAYER
 62
     7
 10
714.986348
 20
-138.836177
 30
0.0
 11
722.986348
 21
-138.836177
 31
0.0
  0
LINE
  8
0
  6
BYLAYER
 62
     7
 10
722.986348
 20
-130.836177
 30
0.0
 11
722.986348
 21
-138.836177
 31
0.0
  0
LINE
  8
0
  6
BYLAYER
 62
     7
 10
682.986348
 20
-98.836177
 30
0.0
 11
674.986348
 21
-98.836177
 31
0.0
  0
LINE
  8
0
  6
BYLAYER
 62
     7
 10
682.986348
 20
-80.836177
 30
0.0
 11
682.986348
 21
-88.836177
 31
0.0
  0
LINE
  8
0
  6
BYLAYER
 62
     7
 10
682.986348
 20
-70.836177
 30
0.0
 11
682.986348
 21
-78.836177
 31
0.0
  0
LINE
  8
0
  6
BYLAYER
 62
     7
 10
682.986348
 20
-90.836177
 30
0.0
 11
682.986348
 21
-98.836177
 31
0.0
  0
LINE
  8
0
  6
BYLAYER
 62
     7
 10
674.986348
 20
-78.836177
 30
0.0
 11
674.986348
 21
-70.836177
 31
0.0
  0
LINE
  8
0
  6
BYLAYER
 62
     7
 10
672.986348
 20
-78.836177
 30
0.0
 11
672.986348
 21
-70.836177
 31
0.0
  0
LINE
  8
0
  6
BYLAYER
 62
     7
 10
682.986348
 20
-90.836177
 30
0.0
 11
674.986348
 21
-90.836177
 31
0.0
  0
LINE
  8
0
  6
BYLAYER
 62
     7
 10
682.986348
 20
-88.836177
 30
0.0
 11
674.986348
 21
-88.836177
 31
0.0
  0
LINE
  8
0
  6
BYLAYER
 62
     7
 10
682.986348
 20
-80.836177
 30
0.0
 11
674.986348
 21
-80.836177
 31
0.0
  0
LINE
  8
0
  6
BYLAYER
 62
     7
 10
672.986348
 20
-78.836177
 30
0.0
 11
665.148349
 21
-78.836177
 31
0.0
  0
LINE
  8
0
  6
BYLAYER
 62
     7
 10
682.986348
 20
-78.836177
 30
0.0
 11
674.986348
 21
-78.836177
 31
0.0
  0
LINE
  8
0
  6
BYLAYER
 62
     7
 10
672.986348
 20
-70.836177
 30
0.0
 11
665.148349
 21
-70.836177
 31
0.0
  0
LINE
  8
0
  6
BYLAYER
 62
     7
 10
682.986348
 20
-70.836177
 30
0.0
 11
674.986348
 21
-70.836177
 31
0.0
  0
LINE
  8
0
  6
BYLAYER
 62
     7
 10
665.148349
 20
-78.836177
 30
0.0
 11
665.148349
 21
-70.836177
 31
0.0
  0
LINE
  8
0
  6
BYLAYER
 62
     7
 10
674.986348
 20
-98.836177
 30
0.0
 11
674.986348
 21
-90.836177
 31
0.0
  0
LINE
  8
0
  6
BYLAYER
 62
     7
 10
674.986348
 20
-88.836177
 30
0.0
 11
674.986348
 21
-80.836177
 31
0.0
  0
LINE
  8
0
  6
BYLAYER
 62
     7
 10
672.986348
 20
-98.836177
 30
0.0
 11
664.986348
 21
-98.836177
 31
0.0
  0
LINE
  8
0
  6
BYLAYER
 62
     7
 10
672.986348
 20
-80.836177
 30
0.0
 11
672.986348
 21
-88.836177
 31
0.0
  0
LINE
  8
0
  6
BYLAYER
 62
     7
 10
672.986348
 20
-90.836177
 30
0.0
 11
672.986348
 21
-98.836177
 31
0.0
  0
LINE
  8
0
  6
BYLAYER
 62
     7
 10
672.986348
 20
-90.836177
 30
0.0
 11
664.986348
 21
-90.836177
 31
0.0
  0
LINE
  8
0
  6
BYLAYER
 62
     7
 10
672.986348
 20
-88.836177
 30
0.0
 11
664.986348
 21
-88.836177
 31
0.0
  0
LINE
  8
0
  6
BYLAYER
 62
     7
 10
672.986348
 20
-80.836177
 30
0.0
 11
664.986348
 21
-80.836177
 31
0.0
  0
LINE
  8
0
  6
BYLAYER
 62
     7
 10
664.986348
 20
-98.836177
 30
0.0
 11
664.986348
 21
-90.836177
 31
0.0
  0
LINE
  8
0
  6
BYLAYER
 62
     7
 10
664.986348
 20
-88.836177
 30
0.0
 11
664.986348
 21
-80.836177
 31
0.0
  0
LINE
  8
0
  6
BYLAYER
 62
     7
 10
662.986348
 20
-98.836177
 30
0.0
 11
654.986348
 21
-98.836177
 31
0.0
  0
LINE
  8
0
  6
BYLAYER
 62
     7
 10
662.986348
 20
-80.836177
 30
0.0
 11
662.986348
 21
-88.836177
 31
0.0
  0
LINE
  8
0
  6
BYLAYER
 62
     7
 10
662.986348
 20
-90.836177
 30
0.0
 11
662.986348
 21
-98.836177
 31
0.0
  0
LINE
  8
0
  6
BYLAYER
 62
     7
 10
662.986348
 20
-90.836177
 30
0.0
 11
654.986348
 21
-90.836177
 31
0.0
  0
LINE
  8
0
  6
BYLAYER
 62
     7
 10
662.986348
 20
-88.836177
 30
0.0
 11
654.986348
 21
-88.836177
 31
0.0
  0
LINE
  8
0
  6
BYLAYER
 62
     7
 10
662.986348
 20
-80.836177
 30
0.0
 11
654.986348
 21
-80.836177
 31
0.0
  0
LINE
  8
0
  6
BYLAYER
 62
     7
 10
654.986348
 20
-98.836177
 30
0.0
 11
654.986348
 21
-90.836177
 31
0.0
  0
LINE
  8
0
  6
BYLAYER
 62
     7
 10
654.986348
 20
-88.836177
 30
0.0
 11
654.986348
 21
-80.836177
 31
0.0
  0
LINE
  8
0
  6
BYLAYER
 62
     7
 10
672.986348
 20
-108.836177
 30
0.0
 11
664.986348
 21
-108.836177
 31
0.0
  0
LINE
  8
0
  6
BYLAYER
 62
     7
 10
672.986348
 20
-100.836177
 30
0.0
 11
672.986348
 21
-108.836177
 31
0.0
  0
LINE
  8
0
  6
BYLAYER
 62
     7
 10
672.986348
 20
-100.836177
 30
0.0
 11
664.986348
 21
-100.836177
 31
0.0
  0
LINE
  8
0
  6
BYLAYER
 62
     7
 10
664.986348
 20
-108.836177
 30
0.0
 11
664.986348
 21
-100.836177
 31
0.0
  0
LINE
  8
0
  6
BYLAYER
 62
     7
 10
662.986348
 20
-108.836177
 30
0.0
 11
654.986348
 21
-108.836177
 31
0.0
  0
LINE
  8
0
  6
BYLAYER
 62
     7
 10
662.986348
 20
-100.836177
 30
0.0
 11
662.986348
 21
-108.836177
 31
0.0
  0
LINE
  8
0
  6
BYLAYER
 62
     7
 10
662.986348
 20
-100.836177
 30
0.0
 11
654.986348
 21
-100.836177
 31
0.0
  0
LINE
  8
0
  6
BYLAYER
 62
     7
 10
654.986348
 20
-108.836177
 30
0.0
 11
654.986348
 21
-100.836177
 31
0.0
  0
LINE
  8
0
  6
BYLAYER
 62
     7
 10
652.986348
 20
-98.836177
 30
0.0
 11
644.986348
 21
-98.836177
 31
0.0
  0
LINE
  8
0
  6
BYLAYER
 62
     7
 10
652.986348
 20
-90.836177
 30
0.0
 11
652.986348
 21
-98.836177
 31
0.0
  0
LINE
  8
0
  6
BYLAYER
 62
     7
 10
652.986348
 20
-90.836177
 30
0.0
 11
644.986348
 21
-90.836177
 31
0.0
  0
LINE
  8
0
  6
BYLAYER
 62
     7
 10
644.986348
 20
-98.836177
 30
0.0
 11
644.986348
 21
-90.836177
 31
0.0
  0
LINE
  8
0
  6
BYLAYER
 62
     7
 10
652.986348
 20
-108.836177
 30
0.0
 11
644.986348
 21
-108.836177
 31
0.0
  0
LINE
  8
0
  6
BYLAYER
 62
     7
 10
652.986348
 20
-100.836177
 30
0.0
 11
652.986348
 21
-108.836177
 31
0.0
  0
LINE
  8
0
  6
BYLAYER
 62
     7
 10
652.986348
 20
-100.836177
 30
0.0
 11
644.986348
 21
-100.836177
 31
0.0
  0
LINE
  8
0
  6
BYLAYER
 62
     7
 10
644.986348
 20
-108.836177
 30
0.0
 11
644.986348
 21
-100.836177
 31
0.0
  0
LINE
  8
0
  6
BYLAYER
 62
     7
 10
682.986348
 20
-60.836177
 30
0.0
 11
682.986348
 21
-68.836177
 31
0.0
  0
LINE
  8
0
  6
BYLAYER
 62
     7
 10
674.986348
 20
-68.836177
 30
0.0
 11
674.986348
 21
-60.836177
 31
0.0
  0
LINE
  8
0
  6
BYLAYER
 62
     7
 10
682.986348
 20
-68.836177
 30
0.0
 11
674.986348
 21
-68.836177
 31
0.0
  0
LINE
  8
0
  6
BYLAYER
 62
     7
 10
682.986348
 20
-60.836177
 30
0.0
 11
674.986348
 21
-60.836177
 31
0.0
  0
LINE
  8
0
  6
BYLAYER
 62
     7
 10
662.986348
 20
-70.836177
 30
0.0
 11
662.986348
 21
-78.836177
 31
0.0
  0
LINE
  8
0
  6
BYLAYER
 62
     7
 10
662.986348
 20
-78.836177
 30
0.0
 11
654.986348
 21
-78.836177
 31
0.0
  0
LINE
  8
0
  6
BYLAYER
 62
     7
 10
662.986348
 20
-70.836177
 30
0.0
 11
654.986348
 21
-70.836177
 31
0.0
  0
LINE
  8
0
  6
BYLAYER
 62
     7
 10
654.986348
 20
-78.836177
 30
0.0
 11
654.986348
 21
-70.836177
 31
0.0
  0
LINE
  8
0
  6
BYLAYER
 62
     7
 10
642.986348
 20
-108.836177
 30
0.0
 11
634.986348
 21
-108.836177
 31
0.0
  0
LINE
  8
0
  6
BYLAYER
 62
     7
 10
642.986348
 20
-100.836177
 30
0.0
 11
642.986348
 21
-108.836177
 31
0.0
  0
LINE
  8
0
  6
BYLAYER
 62
     7
 10
642.986348
 20
-100.836177
 30
0.0
 11
634.986348
 21
-100.836177
 31
0.0
  0
LINE
  8
0
  6
BYLAYER
 62
     7
 10
634.986348
 20
-108.836177
 30
0.0
 11
634.986348
 21
-100.836177
 31
0.0
  0
LINE
  8
0
  6
BYLAYER
 62
     7
 10
652.986348
 20
-88.836177
 30
0.0
 11
644.986348
 21
-88.836177
 31
0.0
  0
LINE
  8
0
  6
BYLAYER
 62
     7
 10
652.986348
 20
-80.836177
 30
0.0
 11
652.986348
 21
-88.836177
 31
0.0
  0
LINE
  8
0
  6
BYLAYER
 62
     7
 10
652.986348
 20
-80.836177
 30
0.0
 11
644.986348
 21
-80.836177
 31
0.0
  0
LINE
  8
0
  6
BYLAYER
 62
     7
 10
644.986348
 20
-88.836177
 30
0.0
 11
644.986348
 21
-80.836177
 31
0.0
  0
LINE
  8
0
  6
BYLAYER
 62
     7
 10
682.986348
 20
-120.836177
 30
0.0
 11
674.986348
 21
-120.836177
 31
0.0
  0
LINE
  8
0
  6
BYLAYER
 62
     7
 10
682.986348
 20
-138.836177
 30
0.0
 11
682.986348
 21
-130.836177
 31
0.0
  0
LINE
  8
0
  6
BYLAYER
 62
     7
 10
682.986348
 20
-148.836177
 30
0.0
 11
682.986348
 21
-140.836177
 31
0.0
  0
LINE
  8
0
  6
BYLAYER
 62
     7
 10
682.986348
 20
-128.836177
 30
0.0
 11
682.986348
 21
-120.836177
 31
0.0
  0
LINE
  8
0
  6
BYLAYER
 62
     7
 10
674.986348
 20
-140.836177
 30
0.0
 11
674.986348
 21
-148.836177
 31
0.0
  0
LINE
  8
0
  6
BYLAYER
 62
     7
 10
672.986348
 20
-140.836177
 30
0.0
 11
672.986348
 21
-148.836177
 31
0.0
  0
LINE
  8
0
  6
BYLAYER
 62
     7
 10
682.986348
 20
-128.836177
 30
0.0
 11
674.986348
 21
-128.836177
 31
0.0
  0
LINE
  8
0
  6
BYLAYER
 62
     7
 10
682.986348
 20
-130.836177
 30
0.0
 11
674.986348
 21
-130.836177
 31
0.0
  0
LINE
  8
0
  6
BYLAYER
 62
     7
 10
682.986348
 20
-138.836177
 30
0.0
 11
674.986348
 21
-138.836177
 31
0.0
  0
LINE
  8
0
  6
BYLAYER
 62
     7
 10
672.986348
 20
-140.836177
 30
0.0
 11
665.148349
 21
-140.836177
 31
0.0
  0
LINE
  8
0
  6
BYLAYER
 62
     7
 10
682.986348
 20
-140.836177
 30
0.0
 11
674.986348
 21
-140.836177
 31
0.0
  0
LINE
  8
0
  6
BYLAYER
 62
     7
 10
672.986348
 20
-148.836177
 30
0.0
 11
665.148349
 21
-148.836177
 31
0.0
  0
LINE
  8
0
  6
BYLAYER
 62
     7
 10
682.986348
 20
-148.836177
 30
0.0
 11
674.986348
 21
-148.836177
 31
0.0
  0
LINE
  8
0
  6
BYLAYER
 62
     7
 10
665.148349
 20
-140.836177
 30
0.0
 11
665.148349
 21
-148.836177
 31
0.0
  0
LINE
  8
0
  6
BYLAYER
 62
     7
 10
674.986348
 20
-120.836177
 30
0.0
 11
674.986348
 21
-128.836177
 31
0.0
  0
LINE
  8
0
  6
BYLAYER
 62
     7
 10
674.986348
 20
-130.836177
 30
0.0
 11
674.986348
 21
-138.836177
 31
0.0
  0
LINE
  8
0
  6
BYLAYER
 62
     7
 10
672.986348
 20
-120.836177
 30
0.0
 11
664.986348
 21
-120.836177
 31
0.0
  0
LINE
  8
0
  6
BYLAYER
 62
     7
 10
672.986348
 20
-138.836177
 30
0.0
 11
672.986348
 21
-130.836177
 31
0.0
  0
LINE
  8
0
  6
BYLAYER
 62
     7
 10
672.986348
 20
-128.836177
 30
0.0
 11
672.986348
 21
-120.836177
 31
0.0
  0
LINE
  8
0
  6
BYLAYER
 62
     7
 10
672.986348
 20
-128.836177
 30
0.0
 11
664.986348
 21
-128.836177
 31
0.0
  0
LINE
  8
0
  6
BYLAYER
 62
     7
 10
672.986348
 20
-130.836177
 30
0.0
 11
664.986348
 21
-130.836177
 31
0.0
  0
LINE
  8
0
  6
BYLAYER
 62
     7
 10
672.986348
 20
-138.836177
 30
0.0
 11
664.986348
 21
-138.836177
 31
0.0
  0
LINE
  8
0
  6
BYLAYER
 62
     7
 10
664.986348
 20
-120.836177
 30
0.0
 11
664.986348
 21
-128.836177
 31
0.0
  0
LINE
  8
0
  6
BYLAYER
 62
     7
 10
664.986348
 20
-130.836177
 30
0.0
 11
664.986348
 21
-138.836177
 31
0.0
  0
LINE
  8
0
  6
BYLAYER
 62
     7
 10
662.986348
 20
-120.836177
 30
0.0
 11
654.986348
 21
-120.836177
 31
0.0
  0
LINE
  8
0
  6
BYLAYER
 62
     7
 10
662.986348
 20
-138.836177
 30
0.0
 11
662.986348
 21
-130.836177
 31
0.0
  0
LINE
  8
0
  6
BYLAYER
 62
     7
 10
662.986348
 20
-128.836177
 30
0.0
 11
662.986348
 21
-120.836177
 31
0.0
  0
LINE
  8
0
  6
BYLAYER
 62
     7
 10
662.986348
 20
-128.836177
 30
0.0
 11
654.986348
 21
-128.836177
 31
0.0
  0
LINE
  8
0
  6
BYLAYER
 62
     7
 10
662.986348
 20
-130.836177
 30
0.0
 11
654.986348
 21
-130.836177
 31
0.0
  0
LINE
  8
0
  6
BYLAYER
 62
     7
 10
662.986348
 20
-138.836177
 30
0.0
 11
654.986348
 21
-138.836177
 31
0.0
  0
LINE
  8
0
  6
BYLAYER
 62
     7
 10
654.986348
 20
-120.836177
 30
0.0
 11
654.986348
 21
-128.836177
 31
0.0
  0
LINE
  8
0
  6
BYLAYER
 62
     7
 10
654.986348
 20
-130.836177
 30
0.0
 11
654.986348
 21
-138.836177
 31
0.0
  0
LINE
  8
0
  6
BYLAYER
 62
     7
 10
672.986348
 20
-110.836177
 30
0.0
 11
664.986348
 21
-110.836177
 31
0.0
  0
LINE
  8
0
  6
BYLAYER
 62
     7
 10
672.986348
 20
-118.836177
 30
0.0
 11
672.986348
 21
-110.836177
 31
0.0
  0
LINE
  8
0
  6
BYLAYER
 62
     7
 10
672.986348
 20
-118.836177
 30
0.0
 11
664.986348
 21
-118.836177
 31
0.0
  0
LINE
  8
0
  6
BYLAYER
 62
     7
 10
664.986348
 20
-110.836177
 30
0.0
 11
664.986348
 21
-118.836177
 31
0.0
  0
LINE
  8
0
  6
BYLAYER
 62
     7
 10
662.986348
 20
-110.836177
 30
0.0
 11
654.986348
 21
-110.836177
 31
0.0
  0
LINE
  8
0
  6
BYLAYER
 62
     7
 10
662.986348
 20
-118.836177
 30
0.0
 11
662.986348
 21
-110.836177
 31
0.0
  0
LINE
  8
0
  6
BYLAYER
 62
     7
 10
662.986348
 20
-118.836177
 30
0.0
 11
654.986348
 21
-118.836177
 31
0.0
  0
LINE
  8
0
  6
BYLAYER
 62
     7
 10
654.986348
 20
-110.836177
 30
0.0
 11
654.986348
 21
-118.836177
 31
0.0
  0
LINE
  8
0
  6
BYLAYER
 62
     7
 10
652.986348
 20
-120.836177
 30
0.0
 11
644.986348
 21
-120.836177
 31
0.0
  0
LINE
  8
0
  6
BYLAYER
 62
     7
 10
652.986348
 20
-128.836177
 30
0.0
 11
652.986348
 21
-120.836177
 31
0.0
  0
LINE
  8
0
  6
BYLAYER
 62
     7
 10
652.986348
 20
-128.836177
 30
0.0
 11
644.986348
 21
-128.836177
 31
0.0
  0
LINE
  8
0
  6
BYLAYER
 62
     7
 10
644.986348
 20
-120.836177
 30
0.0
 11
644.986348
 21
-128.836177
 31
0.0
  0
LINE
  8
0
  6
BYLAYER
 62
     7
 10
652.986348
 20
-110.836177
 30
0.0
 11
644.986348
 21
-110.836177
 31
0.0
  0
LINE
  8
0
  6
BYLAYER
 62
     7
 10
652.986348
 20
-118.836177
 30
0.0
 11
652.986348
 21
-110.836177
 31
0.0
  0
LINE
  8
0
  6
BYLAYER
 62
     7
 10
652.986348
 20
-118.836177
 30
0.0
 11
644.986348
 21
-118.836177
 31
0.0
  0
LINE
  8
0
  6
BYLAYER
 62
     7
 10
644.986348
 20
-110.836177
 30
0.0
 11
644.986348
 21
-118.836177
 31
0.0
  0
LINE
  8
0
  6
BYLAYER
 62
     7
 10
682.986348
 20
-158.836177
 30
0.0
 11
682.986348
 21
-150.836177
 31
0.0
  0
LINE
  8
0
  6
BYLAYER
 62
     7
 10
674.986348
 20
-150.836177
 30
0.0
 11
674.986348
 21
-158.836177
 31
0.0
  0
LINE
  8
0
  6
BYLAYER
 62
     7
 10
682.986348
 20
-150.836177
 30
0.0
 11
674.986348
 21
-150.836177
 31
0.0
  0
LINE
  8
0
  6
BYLAYER
 62
     7
 10
682.986348
 20
-158.836177
 30
0.0
 11
674.986348
 21
-158.836177
 31
0.0
  0
LINE
  8
0
  6
BYLAYER
 62
     7
 10
662.986348
 20
-148.836177
 30
0.0
 11
662.986348
 21
-140.836177
 31
0.0
  0
LINE
  8
0
  6
BYLAYER
 62
     7
 10
662.986348
 20
-140.836177
 30
0.0
 11
654.986348
 21
-140.836177
 31
0.0
  0
LINE
  8
0
  6
BYLAYER
 62
     7
 10
662.986348
 20
-148.836177
 30
0.0
 11
654.986348
 21
-148.836177
 31
0.0
  0
LINE
  8
0
  6
BYLAYER
 62
     7
 10
654.986348
 20
-140.836177
 30
0.0
 11
654.986348
 21
-148.836177
 31
0.0
  0
LINE
  8
0
  6
BYLAYER
 62
     7
 10
642.986348
 20
-110.836177
 30
0.0
 11
634.986348
 21
-110.836177
 31
0.0
  0
LINE
  8
0
  6
BYLAYER
 62
     7
 10
642.986348
 20
-118.836177
 30
0.0
 11
642.986348
 21
-110.836177
 31
0.0
  0
LINE
  8
0
  6
BYLAYER
 62
     7
 10
642.986348
 20
-118.836177
 30
0.0
 11
634.986348
 21
-118.836177
 31
0.0
  0
LINE
  8
0
  6
BYLAYER
 62
     7
 10
634.986348
 20
-110.836177
 30
0.0
 11
634.986348
 21
-118.836177
 31
0.0
  0
LINE
  8
0
  6
BYLAYER
 62
     7
 10
652.986348
 20
-130.836177
 30
0.0
 11
644.986348
 21
-130.836177
 31
0.0
  0
LINE
  8
0
  6
BYLAYER
 62
     7
 10
652.986348
 20
-138.836177
 30
0.0
 11
652.986348
 21
-130.836177
 31
0.0
  0
LINE
  8
0
  6
BYLAYER
 62
     7
 10
652.986348
 20
-138.836177
 30
0.0
 11
644.986348
 21
-138.836177
 31
0.0
  0
LINE
  8
0
  6
BYLAYER
 62
     7
 10
644.986348
 20
-130.836177
 30
0.0
 11
644.986348
 21
-138.836177
 31
0.0
  0
ARC
  8
0
  6
BYLAYER
 62
     7
 10
719.736348
 20
-22.336177
 30
0.0
 40
1.500000
 50
180.000000
 51
265.219808
  0
ARC
  8
0
  6
BYLAYER
 62
     7
 10
648.236348
 20
-22.336177
 30
0.0
 40
1.5
 50
274.780192
 51
360.000000
  0
ARC
  8
0
  6
BYLAYER
 62
     7
 10
656.232010
 20
-22.336177
 30
0.0
 40
1.5
 50
270.0
 51
360.0
  0
LINE
  8
0
  6
BYLAYER
 62
     7
 10
718.236348
 20
-22.336177
 30
0.0
 11
718.236348
 21
-0.836177
 31
0.0
  0
LINE
  8
0
  6
BYLAYER
 62
     7
 10
716.736348
 20
0.663823
 30
0.0
 11
651.236348
 21
0.663823
 31
0.0
  0
ARC
  8
0
  6
BYLAYER
 62
     7
 10
716.736348
 20
-0.836177
 30
0.0
 40
1.5
 50
0.0
 51
90.0
  0
ARC
  8
0
  6
BYLAYER
 62
     7
 10
651.236348
 20
-0.836177
 30
0.0
 40
1.5
 50
90.0
 51
180.0
  0
LINE
  8
0
  6
BYLAYER
 62
     7
 10
649.736348
 20
-22.336177
 30
0.0
 11
649.736348
 21
-0.836177
 31
0.0
  0
LINE
  8
0
  6
BYLAYER
 62
     7
 10
657.732010
 20
-22.336177
 30
0.0
 11
657.732010
 21
-0.836177
 31
0.0
  0
ARC
  8
0
  6
BYLAYER
 62
     7
 10
659.232010
 20
-0.836177
 30
0.0
 40
1.5
 50
90.0
 51
180.0
  0
ARC
  8
0
  6
BYLAYER
 62
     7
 10
708.740686
 20
-0.836177
 30
0.0
 40
1.5
 50
0.0
 51
90.0
  0
LINE
  8
0
  6
BYLAYER
 62
     7
 10
663.392695
 20
0.663823
 30
0.0
 11
663.885242
 21
-13.440875
 31
0.0
  0
ARC
  8
0
  6
BYLAYER
 62
     7
 10
666.883414
 20
-13.336177
 30
0.0
 40
3.000000
 50
182.0
 51
270.0
  0
LINE
  8
0
  6
BYLAYER
 62
     7
 10
674.087454
 20
-13.440875
 30
0.0
 11
674.580001
 21
0.663823
 31
0.0
  0
ARC
  8
0
  6
BYLAYER
 62
     7
 10
671.089282
 20
-13.336177
 30
0.0
 40
3.0
 50
270.0
 51
358.0
  0
LINE
  8
0
  6
BYLAYER
 62
     7
 10
689.087454
 20
-13.440875
 30
0.0
 11
689.580001
 21
0.663823
 31
0.0
  0
ARC
  8
0
  6
BYLAYER
 62
     7
 10
686.089282
 20
-13.336177
 30
0.0
 40
3.0
 50
270.0
 51
358.0
  0
LINE
  8
0
  6
BYLAYER
 62
     7
 10
704.087454
 20
-13.440875
 30
0.0
 11
704.580001
 21
0.663823
 31
0.0
  0
ARC
  8
0
  6
BYLAYER
 62
     7
 10
701.089282
 20
-13.336177
 30
0.0
 40
3.0
 50
270.0
 51
358.0
  0
LINE
  8
0
  6
BYLAYER
 62
     7
 10
693.392695
 20
0.663823
 30
0.0
 11
693.885242
 21
-13.440875
 31
0.0
  0
ARC
  8
0
  6
BYLAYER
 62
     7
 10
696.883414
 20
-13.336177
 30
0.0
 40
3.000000
 50
182.0
 51
270.0
  0
LINE
  8
0
  6
BYLAYER
 62
     7
 10
678.392695
 20
0.663823
 30
0.0
 11
678.885242
 21
-13.440875
 31
0.0
  0
ARC
  8
0
  6
BYLAYER
 62
     7
 10
681.883414
 20
-13.336177
 30
0.0
 40
3.000000
 50
182.0
 51
270.0
  0
LINE
  8
0
  6
BYLAYER
 62
     7
 10
696.883414
 20
-16.336177
 30
0.0
 11
701.089282
 21
-16.336177
 31
0.0
  0
LINE
  8
0
  6
BYLAYER
 62
     7
 10
681.883414
 20
-16.336177
 30
0.0
 11
686.089282
 21
-16.336177
 31
0.0
  0
LINE
  8
0
  6
BYLAYER
 62
     7
 10
666.883414
 20
-16.336177
 30
0.0
 11
671.089282
 21
-16.336177
 31
0.0
  0
LINE
  8
0
  6
BYLAYER
 62
     7
 10
678.427616
 20
-0.336177
 30
0.0
 11
689.545080
 21
-0.336177
 31
0.0
  0
LINE
  8
0
  6
BYLAYER
 62
     7
 10
693.427616
 20
-0.336177
 30
0.0
 11
704.545080
 21
-0.336177
 31
0.0
  0
LINE
  8
0
  6
BYLAYER
 62
     7
 10
663.427616
 20
-0.336177
 30
0.0
 11
674.545080
 21
-0.336177
 31
0.0
  0
LINE
  8
0
  6
BYLAYER
 62
     7
 10
710.240686
 20
-0.836177
 30
0.0
 11
710.240686
 21
-22.336177
 31
0.0
  0
ARC
  8
0
  6
BYLAYER
 62
     7
 10
648.486348
 20
-25.325742
 30
0.0
 40
1.5
 50
94.780192
 51
180.0
  0
LINE
  8
0
  6
BYLAYER
 62
     7
 10
648.486348
 20
-23.836177
 30
0.0
 11
719.736348
 21
-23.836177
 31
0.0
  0
ARC
  8
0
  6
BYLAYER
 62
     7
 10
719.486348
 20
-25.325742
 30
0.0
 40
1.500000
 50
0.0
 51
85.219808
  0
LINE
  8
0
  6
BYLAYER
 62
     7
 10
720.986348
 20
-32.836177
 30
0.0
 11
720.986348
 21
-25.325742
 31
0.0
  0
ARC
  8
0
  6
BYLAYER
 62
     7
 10
711.740686
 20
-22.336177
 30
0.0
 40
1.5
 50
180.000000
 51
270.000000
  0
LINE
  8
0
  6
BYLAYER
 62
     7
 10
720.986348
 20
-30.836116
 30
0.0
 11
646.986348
 21
-30.836116
 31
0.0
  0
LINE
  8
0
  6
BYLAYER
 62
     7
 10
646.986348
 20
-25.325742
 30
0.0
 11
646.986348
 21
-32.836177
 31
0.0
  0
LINE
  8
0
  6
BYLAYER
 62
     7
 10
646.986348
 20
-32.836177
 30
0.0
 11
720.986348
 21
-32.836177
 31
0.0
  0
ARC
  8
0
  6
BYLAYER
 62
     7
 10
683.986348
 20
-449.836177
 30
0.0
 40
68.000000
 50
86.147657
 51
93.852343
  0
LINE
  8
0
  6
BYLAYER
 62
     7
 10
677.620258
 20
-383.467665
 30
0.0
 11
675.532438
 21
-391.259518
 31
0.0
  0
ARC
  8
0
  6
BYLAYER
 62
     7
 10
673.600586
 20
-390.741880
 30
0.0
 40
2.0
 50
279.967878
 51
345.000000
  0
ARC
  8
0
  6
BYLAYER
 62
     7
 10
679.552110
 20
-383.985304
 30
0.0
 40
2.000000
 50
93.852343
 51
165.000000
  0
LINE
  8
0
  6
BYLAYER
 62
     7
 10
690.352438
 20
-383.467665
 30
0.0
 11
692.440258
 21
-391.259518
 31
0.0
  0
ARC
  8
0
  6
BYLAYER
 62
     7
 10
694.372110
 20
-390.741880
 30
0.0
 40
2.0
 50
195.000000
 51
260.032122
  0
ARC
  8
0
  6
BYLAYER
 62
     7
 10
688.420586
 20
-383.985304
 30
0.0
 40
2.0
 50
15.0
 51
86.147657
  0
ARC
  8
0
  6
BYLAYER
 62
     7
 10
683.986348
 20
-449.836177
 30
0.0
 40
58.000000
 50
189.967878
 51
227.746404
  0
ARC
  8
0
  6
BYLAYER
 62
     7
 10
683.986348
 20
-449.836177
 30
0.0
 40
58.000000
 50
312.253556
 51
350.032122
  0
ARC
  8
0
  6
BYLAYER
 62
     7
 10
683.986348
 20
-449.836177
 30
0.0
 40
58.000000
 50
99.967878
 51
170.032122
  0
ARC
  8
0
  6
BYLAYER
 62
     7
 10
683.986348
 20
-449.836177
 30
0.0
 40
58.000000
 50
9.967878
 51
80.032122
  0
ARC
  8
0
  6
BYLAYER
 62
     7
 10
683.986348
 20
-449.836177
 30
0.0
 40
68.0
 50
176.147657
 51
183.852343
  0
LINE
  8
0
  6
BYLAYER
 62
     7
 10
617.617836
 20
-456.202267
 30
0.0
 11
625.409689
 21
-458.290087
 31
0.0
  0
ARC
  8
0
  6
BYLAYER
 62
     7
 10
624.892051
 20
-460.221939
 30
0.0
 40
2.0
 50
9.967878
 51
75.000000
  0
ARC
  8
0
  6
BYLAYER
 62
     7
 10
618.135475
 20
-454.270415
 30
0.0
 40
2.000000
 50
183.852343
 51
255.000000
  0
LINE
  8
0
  6
BYLAYER
 62
     7
 10
617.617836
 20
-443.470087
 30
0.0
 11
625.409689
 21
-441.382267
 31
0.0
  0
ARC
  8
0
  6
BYLAYER
 62
     7
 10
624.892051
 20
-439.450415
 30
0.0
 40
2.000000
 50
285.000000
 51
350.032122
  0
ARC
  8
0
  6
BYLAYER
 62
     7
 10
618.135475
 20
-445.401939
 30
0.0
 40
2.0
 50
105.000000
 51
176.147657
  0
ARC
  8
0
  6
BYLAYER
 62
     7
 10
683.986348
 20
-449.836177
 30
0.0
 40
68.000000
 50
356.147657
 51
363.852343
  0
LINE
  8
0
  6
BYLAYER
 62
     7
 10
750.354860
 20
-443.470087
 30
0.0
 11
742.563007
 21
-441.382267
 31
0.0
  0
ARC
  8
0
  6
BYLAYER
 62
     7
 10
743.080645
 20
-439.450415
 30
0.0
 40
2.000000
 50
189.967878
 51
255.000000
  0
ARC
  8
0
  6
BYLAYER
 62
     7
 10
749.837221
 20
-445.401939
 30
0.0
 40
2.0
 50
3.852343
 51
75.000000
  0
LINE
  8
0
  6
BYLAYER
 62
     7
 10
750.354860
 20
-456.202267
 30
0.0
 11
742.563007
 21
-458.290087
 31
0.0
  0
ARC
  8
0
  6
BYLAYER
 62
     7
 10
743.080645
 20
-460.221939
 30
0.0
 40
2.000000
 50
105.000000
 51
170.032122
  0
ARC
  8
0
  6
BYLAYER
 62
     7
 10
749.837221
 20
-454.270415
 30
0.0
 40
2.0
 50
285.000000
 51
356.147657
  0
ARC
  8
0
  6
BYLAYER
 62
     7
 10
683.986348
 20
-449.836177
 30
0.0
 40
52.5
 50
317.975273
 51
582.024678
  0
ARC
  8
0
  6
BYLAYER
 62
     7
 10
683.986348
 20
-449.836177
 30
0.0
 40
55.522
 50
314.62174
 51
585.378217
  0
ARC
  8
0
  6
BYLAYER
 62
     7
 10
647.986348
 20
-398.536189
 30
0.0
 40
1.0
 50
180.000000
 51
269.999996
  0
ARC
  8
0
  6
BYLAYER
 62
     7
 10
719.986348
 20
-398.536189
 30
0.0
 40
1.0
 50
270.0
 51
359.999999
  0
LINE
  8
0
  6
BYLAYER
 62
     7
 10
646.986348
 20
-372.836177
 30
0.0
 11
646.986348
 21
-398.536189
 31
0.0
  0
LINE
  8
0
  6
BYLAYER
 62
     7
 10
720.986348
 20
-372.836177
 30
0.0
 11
720.986348
 21
-398.536189
 31
0.0
  0
LINE
  8
0
  6
BYLAYER
 62
     7
 10
646.986348
 20
-377.336177
 30
0.0
 11
649.986348
 21
-382.532313
 31
0.0
  0
LINE
  8
0
  6
BYLAYER
 62
     7
 10
649.986348
 20
-382.532313
 30
0.0
 11
649.986348
 21
-402.846817
 31
0.0
  0
LINE
  8
0
  6
BYLAYER
 62
     7
 10
649.986348
 20
-399.536189
 30
0.0
 11
647.986348
 21
-399.536189
 31
0.0
  0
LINE
  8
0
  6
BYLAYER
 62
     7
 10
720.986348
 20
-377.336177
 30
0.0
 11
717.986348
 21
-382.532313
 31
0.0
  0
LINE
  8
0
  6
BYLAYER
 62
     7
 10
745.660664
 20
-422.286677
 30
0.0
 11
734.819628
 21
-421.908098
 31
0.0
  0
LINE
  8
0
  6
BYLAYER
 62
     7
 10
749.269429
 20
-432.986659
 30
0.0
 11
739.378902
 21
-432.641267
 31
0.0
  0
LINE
  8
0
  6
BYLAYER
 62
     7
 10
749.269429
 20
-434.585689
 30
0.0
 11
740.032374
 21
-434.908252
 31
0.0
  0
LINE
  8
0
  6
BYLAYER
 62
     7
 10
745.660664
 20
-423.885677
 30
0.0
 11
736.024069
 21
-424.222205
 31
0.0
  0
LINE
  8
0
  6
BYLAYER
 62
     7
 10
739.811543
 20
-413.185695
 30
0.0
 11
729.237548
 21
-413.554930
 31
0.0
  0
ARC
  8
0
  6
BYLAYER
 62
     7
 10
739.783650
 20
-412.386165
 30
0.0
 40
0.800016
 50
272.000017
 51
447.999987
  0
ARC
  8
0
  6
BYLAYER
 62
     7
 10
745.632741
 20
-423.086177
 30
0.0
 40
0.799987
 50
272.000017
 51
447.999987
  0
ARC
  8
0
  6
BYLAYER
 62
     7
 10
749.241536
 20
-433.786189
 30
0.0
 40
0.799986
 50
271.999743
 51
448.000267
  0
LINE
  8
0
  6
BYLAYER
 62
     7
 10
739.811543
 20
-488.085689
 30
0.0
 11
727.196068
 21
-488.526228
 31
0.0
  0
LINE
  8
0
  6
BYLAYER
 62
     7
 10
745.660664
 20
-477.385677
 30
0.0
 11
734.819628
 21
-477.764256
 31
0.0
  0
LINE
  8
0
  6
BYLAYER
 62
     7
 10
749.269429
 20
-466.685695
 30
0.0
 11
739.378907
 21
-467.031073
 31
0.0
  0
LINE
  8
0
  6
BYLAYER
 62
     7
 10
749.269429
 20
-465.086665
 30
0.0
 11
740.032374
 21
-464.764102
 31
0.0
  0
LINE
  8
0
  6
BYLAYER
 62
     7
 10
745.660664
 20
-475.786662
 30
0.0
 11
736.024070
 21
-475.450148
 31
0.0
  0
LINE
  8
0
  6
BYLAYER
 62
     7
 10
739.811543
 20
-486.486659
 30
0.0
 11
729.237559
 21
-486.117411
 31
0.0
  0
ARC
  8
0
  6
BYLAYER
 62
     7
 10
739.783650
 20
-487.286174
 30
0.0
 40
0.800001
 50
272.000017
 51
447.999987
  0
ARC
  8
0
  6
BYLAYER
 62
     7
 10
745.632741
 20
-476.586177
 30
0.0
 40
0.800002
 50
272.000017
 51
447.999987
  0
ARC
  8
0
  6
BYLAYER
 62
     7
 10
749.241536
 20
-465.886165
 30
0.0
 40
0.799986
 50
271.999743
 51
448.000260
  0
ARC
  8
0
  6
BYLAYER
 62
     7
 10
749.115437
 20
-469.386165
 30
0.0
 40
0.5
 50
270.0
 51
343.291700
  0
ARC
  8
0
  6
BYLAYER
 62
     7
 10
683.986348
 20
-449.836177
 30
0.0
 40
68.499992
 50
343.291646
 51
349.364586
  0
ARC
  8
0
  6
BYLAYER
 62
     7
 10
750.818196
 20
-462.386165
 30
0.0
 40
0.500015
 50
349.364559
 51
450.000003
  0
LINE
  8
0
  6
BYLAYER
 62
     7
 10
740.794015
 20
-461.536131
 30
0.0
 11
750.818196
 21
-461.886165
 31
0.0
  0
LINE
  8
0
  6
BYLAYER
 62
     7
 10
738.269557
 20
-470.264912
 30
0.0
 11
749.115437
 21
-469.886165
 31
0.0
  0
ARC
  8
0
  6
BYLAYER
 62
     7
 10
749.028249
 20
-431.786189
 30
0.0
 40
0.499996
 50
15.510094
 51
90.000003
  0
ARC
  8
0
  6
BYLAYER
 62
     7
 10
683.986348
 20
-449.836177
 30
0.0
 40
68.000008
 50
12.013850
 51
15.510050
  0
ARC
  8
0
  6
BYLAYER
 62
     7
 10
750.007924
 20
-435.786189
 30
0.0
 40
0.500000
 50
270.0
 51
372.013821
  0
LINE
  8
0
  6
BYLAYER
 62
     7
 10
738.818301
 20
-430.929645
 30
0.0
 11
749.028249
 21
-431.286189
 31
0.0
  0
LINE
  8
0
  6
BYLAYER
 62
     7
 10
740.460427
 20
-436.619580
 30
0.0
 11
750.007924
 21
-436.286189
 31
0.0
  0
LINE
  8
0
  6
BYLAYER
 62
     7
 10
732.089131
 20
-496.808299
 30
0.0
 11
725.784340
 21
-490.047219
 31
0.0
  0
LINE
  8
0
  6
BYLAYER
 62
     7
 10
730.958455
 20
-497.938991
 30
0.0
 11
724.197374
 21
-491.634184
 31
0.0
  0
ARC
  8
0
  6
BYLAYER
 62
     7
 10
731.504048
 20
-497.353908
 30
0.0
 40
0.799996
 50
226.999862
 51
402.999927
  0
LINE
  8
0
  6
BYLAYER
 62
     7
 10
628.161153
 20
-411.586665
 30
0.0
 11
640.776629
 21
-411.146125
 31
0.0
  0
LINE
  8
0
  6
BYLAYER
 62
     7
 10
622.312032
 20
-422.286677
 30
0.0
 11
633.153067
 21
-421.908099
 31
0.0
  0
LINE
  8
0
  6
BYLAYER
 62
     7
 10
618.703267
 20
-432.986659
 30
0.0
 11
628.593794
 21
-432.641267
 31
0.0
  0
LINE
  8
0
  6
BYLAYER
 62
     7
 10
618.703267
 20
-434.585689
 30
0.0
 11
627.940322
 21
-434.908251
 31
0.0
  0
LINE
  8
0
  6
BYLAYER
 62
     7
 10
622.312032
 20
-423.885677
 30
0.0
 11
631.948627
 21
-424.222205
 31
0.0
  0
LINE
  8
0
  6
BYLAYER
 62
     7
 10
628.161153
 20
-413.185695
 30
0.0
 11
638.735149
 21
-413.554929
 31
0.0
  0
ARC
  8
0
  6
BYLAYER
 62
     7
 10
628.189107
 20
-412.386165
 30
0.0
 40
0.800019
 50
92.000012
 51
267.999985
  0
ARC
  8
0
  6
BYLAYER
 62
     7
 10
622.339986
 20
-423.086177
 30
0.0
 40
0.799988
 50
92.000012
 51
267.999985
  0
ARC
  8
0
  6
BYLAYER
 62
     7
 10
618.731221
 20
-433.786189
 30
0.0
 40
0.799988
 50
91.999732
 51
268.000258
  0
LINE
  8
0
  6
BYLAYER
 62
     7
 10
628.161153
 20
-488.085689
 30
0.0
 11
640.776629
 21
-488.526229
 31
0.0
  0
LINE
  8
0
  6
BYLAYER
 62
     7
 10
622.312032
 20
-477.385677
 30
0.0
 11
633.153067
 21
-477.764255
 31
0.0
  0
LINE
  8
0
  6
BYLAYER
 62
     7
 10
618.703267
 20
-466.685695
 30
0.0
 11
628.593789
 21
-467.031073
 31
0.0
  0
LINE
  8
0
  6
BYLAYER
 62
     7
 10
618.703267
 20
-465.086665
 30
0.0
 11
627.940322
 21
-464.764103
 31
0.0
  0
LINE
  8
0
  6
BYLAYER
 62
     7
 10
622.312032
 20
-475.786662
 30
0.0
 11
631.948626
 21
-475.450148
 31
0.0
  0
LINE
  8
0
  6
BYLAYER
 62
     7
 10
628.161153
 20
-486.486659
 30
0.0
 11
638.735138
 21
-486.117412
 31
0.0
  0
ARC
  8
0
  6
BYLAYER
 62
     7
 10
628.189107
 20
-487.286174
 30
0.0
 40
0.800003
 50
92.000012
 51
267.999985
  0
ARC
  8
0
  6
BYLAYER
 62
     7
 10
622.339986
 20
-476.586177
 30
0.0
 40
0.800003
 50
92.000012
 51
267.999985
  0
ARC
  8
0
  6
BYLAYER
 62
     7
 10
618.731221
 20
-465.886165
 30
0.0
 40
0.799988
 50
91.999738
 51
268.000258
  0
ARC
  8
0
  6
BYLAYER
 62
     7
 10
618.857259
 20
-469.386165
 30
0.0
 40
0.5
 50
196.708301
 51
270.000001
  0
ARC
  8
0
  6
BYLAYER
 62
     7
 10
683.986348
 20
-449.836177
 30
0.0
 40
68.499992
 50
190.635416
 51
196.708355
  0
ARC
  8
0
  6
BYLAYER
 62
     7
 10
617.154439
 20
-462.386165
 30
0.0
 40
0.499925
 50
90.0
 51
190.635447
  0
LINE
  8
0
  6
BYLAYER
 62
     7
 10
627.178681
 20
-461.536131
 30
0.0
 11
617.154439
 21
-461.886165
 31
0.0
  0
LINE
  8
0
  6
BYLAYER
 62
     7
 10
629.703138
 20
-470.264910
 30
0.0
 11
618.857259
 21
-469.886165
 31
0.0
  0
ARC
  8
0
  6
BYLAYER
 62
     7
 10
618.944478
 20
-431.786189
 30
0.0
 40
0.500026
 50
90.0
 51
164.489906
  0
ARC
  8
0
  6
BYLAYER
 62
     7
 10
683.986348
 20
-449.836177
 30
0.0
 40
68.000008
 50
164.489957
 51
167.986153
  0
ARC
  8
0
  6
BYLAYER
 62
     7
 10
617.964742
 20
-435.786189
 30
0.0
 40
0.499970
 50
167.986180
 51
270.000001
  0
LINE
  8
0
  6
BYLAYER
 62
     7
 10
629.154395
 20
-430.929644
 30
0.0
 11
618.944478
 21
-431.286189
 31
0.0
  0
LINE
  8
0
  6
BYLAYER
 62
     7
 10
627.512269
 20
-436.619579
 30
0.0
 11
617.964742
 21
-436.286189
 31
0.0
  0
LINE
  8
0
  6
BYLAYER
 62
     7
 10
635.883565
 20
-496.808299
 30
0.0
 11
642.188342
 21
-490.047204
 31
0.0
  0
LINE
  8
0
  6
BYLAYER
 62
     7
 10
637.014241
 20
-497.938991
 30
0.0
 11
643.775322
 21
-491.634184
 31
0.0
  0
ARC
  8
0
  6
BYLAYER
 62
     7
 10
636.468648
 20
-497.353908
 30
0.0
 40
0.799996
 50
137.000071
 51
313.000140
  0
LINE
  8
0
  6
BYLAYER
 62
     7
 10
727.196076
 20
-411.146134
 30
0.0
 11
739.811543
 21
-411.586665
 31
0.0
  0
LINE
  8
0
  6
BYLAYER
 62
     7
 10
717.986348
 20
-382.532313
 30
0.0
 11
717.986348
 21
-402.846817
 31
0.0
  0
LINE
  8
0
  6
BYLAYER
 62
     7
 10
717.986348
 20
-399.536189
 30
0.0
 11
719.986348
 21
-399.536189
 31
0.0
  0
ARC
  8
0
  6
BYLAYER
 62
     7
 10
683.986348
 20
-449.836177
 30
0.0
 40
69.450000
 50
304.163349
 51
417.80805
  0
ARC
  8
0
  6
BYLAYER
 62
     7
 10
683.986348
 20
-449.836177
 30
0.0
 40
69.45
 50
122.191950
 51
235.836621
  0
ARC
  8
0
  6
BYLAYER
 62
     7
 10
719.736348
 20
-362.336177
 30
0.0
 40
1.500000
 50
180.000000
 51
265.219808
  0
ARC
  8
0
  6
BYLAYER
 62
     7
 10
648.236348
 20
-362.336177
 30
0.0
 40
1.5
 50
274.780192
 51
360.000000
  0
ARC
  8
0
  6
BYLAYER
 62
     7
 10
656.232010
 20
-362.336177
 30
0.0
 40
1.5
 50
270.0
 51
360.0
  0
LINE
  8
0
  6
BYLAYER
 62
     7
 10
718.236348
 20
-362.336177
 30
0.0
 11
718.236348
 21
-340.836177
 31
0.0
  0
LINE
  8
0
  6
BYLAYER
 62
     7
 10
716.736348
 20
-339.336177
 30
0.0
 11
651.236348
 21
-339.336177
 31
0.0
  0
ARC
  8
0
  6
BYLAYER
 62
     7
 10
716.736348
 20
-340.836177
 30
0.0
 40
1.5
 50
0.0
 51
90.0
  0
ARC
  8
0
  6
BYLAYER
 62
     7
 10
651.236348
 20
-340.836177
 30
0.0
 40
1.5
 50
90.0
 51
180.0
  0
LINE
  8
0
  6
BYLAYER
 62
     7
 10
649.736348
 20
-362.336177
 30
0.0
 11
649.736348
 21
-340.836177
 31
0.0
  0
LINE
  8
0
  6
BYLAYER
 62
     7
 10
657.732010
 20
-362.336177
 30
0.0
 11
657.732010
 21
-340.836177
 31
0.0
  0
ARC
  8
0
  6
BYLAYER
 62
     7
 10
659.232010
 20
-340.836177
 30
0.0
 40
1.5
 50
90.0
 51
180.0
  0
ARC
  8
0
  6
BYLAYER
 62
     7
 10
708.740686
 20
-340.836177
 30
0.0
 40
1.5
 50
0.0
 51
90.0
  0
LINE
  8
0
  6
BYLAYER
 62
     7
 10
663.392695
 20
-339.336177
 30
0.0
 11
663.885242
 21
-353.440875
 31
0.0
  0
ARC
  8
0
  6
BYLAYER
 62
     7
 10
666.883414
 20
-353.336177
 30
0.0
 40
3.000000
 50
182.0
 51
270.0
  0
LINE
  8
0
  6
BYLAYER
 62
     7
 10
674.087454
 20
-353.440875
 30
0.0
 11
674.580001
 21
-339.336177
 31
0.0
  0
ARC
  8
0
  6
BYLAYER
 62
     7
 10
671.089282
 20
-353.336177
 30
0.0
 40
3.000000
 50
270.0
 51
358.0
  0
LINE
  8
0
  6
BYLAYER
 62
     7
 10
689.087454
 20
-353.440875
 30
0.0
 11
689.580001
 21
-339.336177
 31
0.0
  0
ARC
  8
0
  6
BYLAYER
 62
     7
 10
686.089282
 20
-353.336177
 30
0.0
 40
3.000000
 50
270.0
 51
358.0
  0
LINE
  8
0
  6
BYLAYER
 62
     7
 10
704.087454
 20
-353.440875
 30
0.0
 11
704.580001
 21
-339.336177
 31
0.0
  0
ARC
  8
0
  6
BYLAYER
 62
     7
 10
701.089282
 20
-353.336177
 30
0.0
 40
3.000000
 50
270.0
 51
358.0
  0
LINE
  8
0
  6
BYLAYER
 62
     7
 10
693.392695
 20
-339.336177
 30
0.0
 11
693.885242
 21
-353.440875
 31
0.0
  0
ARC
  8
0
  6
BYLAYER
 62
     7
 10
696.883414
 20
-353.336177
 30
0.0
 40
3.000000
 50
182.0
 51
270.0
  0
LINE
  8
0
  6
BYLAYER
 62
     7
 10
678.392695
 20
-339.336177
 30
0.0
 11
678.885242
 21
-353.440875
 31
0.0
  0
ARC
  8
0
  6
BYLAYER
 62
     7
 10
681.883414
 20
-353.336177
 30
0.0
 40
3.000000
 50
182.0
 51
270.0
  0
LINE
  8
0
  6
BYLAYER
 62
     7
 10
696.883414
 20
-356.336177
 30
0.0
 11
701.089282
 21
-356.336177
 31
0.0
  0
LINE
  8
0
  6
BYLAYER
 62
     7
 10
681.883414
 20
-356.336177
 30
0.0
 11
686.089282
 21
-356.336177
 31
0.0
  0
LINE
  8
0
  6
BYLAYER
 62
     7
 10
666.883414
 20
-356.336177
 30
0.0
 11
671.089282
 21
-356.336177
 31
0.0
  0
LINE
  8
0
  6
BYLAYER
 62
     7
 10
678.427616
 20
-340.336177
 30
0.0
 11
689.545080
 21
-340.336177
 31
0.0
  0
LINE
  8
0
  6
BYLAYER
 62
     7
 10
693.427616
 20
-340.336177
 30
0.0
 11
704.545080
 21
-340.336177
 31
0.0
  0
LINE
  8
0
  6
BYLAYER
 62
     7
 10
663.427616
 20
-340.336177
 30
0.0
 11
674.545080
 21
-340.336177
 31
0.0
  0
LINE
  8
0
  6
BYLAYER
 62
     7
 10
710.240686
 20
-340.836177
 30
0.0
 11
710.240686
 21
-362.336177
 31
0.0
  0
ARC
  8
0
  6
BYLAYER
 62
     7
 10
648.486348
 20
-365.325742
 30
0.0
 40
1.5
 50
94.780192
 51
180.0
  0
LINE
  8
0
  6
BYLAYER
 62
     7
 10
648.486348
 20
-363.836177
 30
0.0
 11
719.736348
 21
-363.836177
 31
0.0
  0
ARC
  8
0
  6
BYLAYER
 62
     7
 10
719.486348
 20
-365.325742
 30
0.0
 40
1.500000
 50
0.0
 51
85.219808
  0
LINE
  8
0
  6
BYLAYER
 62
     7
 10
720.986348
 20
-372.836177
 30
0.0
 11
720.986348
 21
-365.325742
 31
0.0
  0
ARC
  8
0
  6
BYLAYER
 62
     7
 10
711.740686
 20
-362.336177
 30
0.0
 40
1.5
 50
180.000000
 51
270.000000
  0
LINE
  8
0
  6
BYLAYER
 62
     7
 10
720.986348
 20
-370.836116
 30
0.0
 11
646.986348
 21
-370.836116
 31
0.0
  0
LINE
  8
0
  6
BYLAYER
 62
     7
 10
646.986348
 20
-365.325742
 30
0.0
 11
646.986348
 21
-372.836177
 31
0.0
  0
LINE
  8
0
  6
BYLAYER
 62
     7
 10
646.986348
 20
-372.836177
 30
0.0
 11
720.986348
 21
-372.836177
 31
0.0
  0
LINE
  8
0
  6
BYLAYER
 62
     1
 10
209.986348
 20
-399.653621
 30
0.0
 11
209.986348
 21
-449.836177
 31
0.0
  0
ARC
  8
0
  6
BYLAYER
 62
     1
 10
209.486348
 20
-413.726924
 30
0.0
 40
0.499997
 50
279.999879
 51
360.000000
  0
ARC
  8
0
  6
BYLAYER
 62
     1
 10
209.486348
 20
-413.726924
 30
0.0
 40
0.499997
 50
279.999879
 51
360.000000
  0
LINE
  8
0
  6
BYLAYER
 62
     1
 10
198.986348
 20
-416.086055
 30
0.0
 11
209.573171
 21
-414.219325
 31
0.0
  0
ARC
  8
0
  6
BYLAYER
 62
     1
 10
211.986348
 20
-399.653621
 30
0.0
 40
2.000000
 50
93.000097
 51
180.000000
  0
LINE
  8
0
  6
BYLAYER
 62
     1
 10
211.881673
 20
-397.656367
 30
0.0
 11
217.986348
 21
-397.336436
 31
0.0
  0
LINE
  8
0
  6
BYLAYER
 62
     1
 10
199.808858
 20
-415.941035
 30
0.0
 11
209.986348
 21
-399.653621
 31
0.0
  0
LINE
  8
0
  6
BYLAYER
 62
     1
 10
198.986348
 20
-449.836177
 30
0.0
 11
198.986348
 21
-416.086055
 31
0.0
  0
LINE
  8
0
  6
BYLAYER
 62
     1
 10
217.986348
 20
-397.336436
 30
0.0
 11
217.986348
 21
-449.836299
 31
0.0
  0
LINE
  8
0
  6
BYLAYER
 62
     1
 10
209.986348
 20
-500.018733
 30
0.0
 11
209.986348
 21
-449.836177
 31
0.0
  0
ARC
  8
0
  6
BYLAYER
 62
     1
 10
209.486348
 20
-485.945430
 30
0.0
 40
0.499997
 50
0.0
 51
80.000121
  0
ARC
  8
0
  6
BYLAYER
 62
     1
 10
209.486348
 20
-485.945430
 30
0.0
 40
0.499997
 50
0.0
 51
80.000121
  0
LINE
  8
0
  6
BYLAYER
 62
     1
 10
198.986348
 20
-483.586299
 30
0.0
 11
209.573171
 21
-485.453029
 31
0.0
  0
ARC
  8
0
  6
BYLAYER
 62
     1
 10
211.986348
 20
-500.018733
 30
0.0
 40
2.0
 50
180.000000
 51
266.999903
  0
LINE
  8
0
  6
BYLAYER
 62
     1
 10
211.881673
 20
-502.015987
 30
0.0
 11
217.986348
 21
-502.335918
 31
0.0
  0
LINE
  8
0
  6
BYLAYER
 62
     1
 10
199.808858
 20
-483.731319
 30
0.0
 11
209.986348
 21
-500.018733
 31
0.0
  0
LINE
  8
0
  6
BYLAYER
 62
     1
 10
198.986348
 20
-449.836177
 30
0.0
 11
198.986348
 21
-483.586299
 31
0.0
  0
LINE
  8
0
  6
BYLAYER
 62
     1
 10
217.986348
 20
-502.335918
 30
0.0
 11
217.986348
 21
-449.836055
 31
0.0
  0
ENDSEC
  0
EOF
