  0
SECTION
  2
HEADER
  9
$EXTMIN
 10
86.825939
 20
530.0
 30
0.0
  9
$EXTMAX
 10
747.064846
 20
0.0
 30
0.0
  0
ENDSEC
  0
SECTION
  2
TABLES
  0
ENDSEC
  0
SECTION
  2
BLOCKS
  0
ENDSEC
  0
SECTION
  2
ENTITIES
  0
LINE
  8
0
  6
BYLAYER
 62
     7
 10
235.378779
 20
-49.278833
 30
0.0
 11
237.378779
 21
-49.278833
 31
0.0
  0
ARC
  8
0
  6
BYLAYER
 62
     7
 10
241.478876
 20
-131.378748
 30
0.0
 40
0.600037
 50
90.0
 51
270.000012
  0
ARC
  8
0
  6
BYLAYER
 62
     7
 10
237.978876
 20
-131.378748
 30
0.0
 40
0.600037
 50
90.0
 51
270.000012
  0
ARC
  8
0
  6
BYLAYER
 62
     7
 10
241.478876
 20
-120.378748
 30
0.0
 40
0.600037
 50
90.0
 51
270.000012
  0
ARC
  8
0
  6
BYLAYER
 62
     7
 10
237.978876
 20
-120.378748
 30
0.0
 40
0.600037
 50
90.0
 51
270.000012
  0
ARC
  8
0
  6
BYLAYER
 62
     7
 10
241.478876
 20
-109.378748
 30
0.0
 40
0.600037
 50
90.0
 51
270.000012
  0
ARC
  8
0
  6
BYLAYER
 62
     7
 10
237.978876
 20
-109.378748
 30
0.0
 40
0.600037
 50
90.0
 51
270.000012
  0
ARC
  8
0
  6
BYLAYER
 62
     7
 10
241.478876
 20
-87.378748
 30
0.0
 40
0.600037
 50
90.0
 51
270.000012
  0
ARC
  8
0
  6
BYLAYER
 62
     7
 10
237.978876
 20
-87.378748
 30
0.0
 40
0.600037
 50
90.0
 51
270.000012
  0
ARC
  8
0
  6
BYLAYER
 62
     7
 10
241.478815
 20
-76.378748
 30
0.0
 40
0.600037
 50
90.0
 51
270.000012
  0
ARC
  8
0
  6
BYLAYER
 62
     7
 10
237.978876
 20
-76.378748
 30
0.0
 40
0.600037
 50
90.0
 51
270.000012
  0
ARC
  8
0
  6
BYLAYER
 62
     7
 10
241.478815
 20
-65.378748
 30
0.0
 40
0.600037
 50
90.0
 51
270.000012
  0
ARC
  8
0
  6
BYLAYER
 62
     7
 10
237.978876
 20
-65.378748
 30
0.0
 40
0.600037
 50
90.0
 51
270.000012
  0
LINE
  8
0
  6
BYLAYER
 62
     7
 10
237.378840
 20
-98.378809
 30
0.0
 11
237.378901
 21
-147.478785
 31
0.0
  0
ARC
  8
0
  6
BYLAYER
 62
     7
 10
241.478876
 20
-98.378748
 30
0.0
 40
0.600037
 50
90.0
 51
270.000012
  0
ARC
  8
0
  6
BYLAYER
 62
     7
 10
237.978876
 20
-98.378748
 30
0.0
 40
0.600037
 50
90.0
 51
270.000012
  0
LINE
  8
0
  6
BYLAYER
 62
     7
 10
237.378840
 20
-98.378809
 30
0.0
 11
237.378779
 21
-33.178736
 31
0.0
  0
LINE
  8
0
  6
BYLAYER
 62
     7
 10
317.378840
 20
-33.178736
 30
0.0
 11
237.378779
 21
-33.178736
 31
0.0
  0
LINE
  8
0
  6
BYLAYER
 62
     7
 10
330.628840
 20
-38.378748
 30
0.0
 11
317.378840
 21
-38.378748
 31
0.0
  0
LINE
  8
0
  6
BYLAYER
 62
     7
 10
317.378840
 20
-39.378748
 30
0.0
 11
330.628840
 21
-39.378748
 31
0.0
  0
LINE
  8
0
  6
BYLAYER
 62
     7
 10
317.378840
 20
-42.378748
 30
0.0
 11
330.628840
 21
-42.378748
 31
0.0
  0
LINE
  8
0
  6
BYLAYER
 62
     7
 10
317.378840
 20
-48.378748
 30
0.0
 11
330.628840
 21
-48.378748
 31
0.0
  0
ARC
  8
0
  6
BYLAYER
 62
     7
 10
257.878840
 20
-46.678736
 30
0.0
 40
11.500000
 50
180.000000
 51
360.000005
  0
ARC
  8
0
  6
BYLAYER
 62
     7
 10
296.878840
 20
-46.678736
 30
0.0
 40
11.500000
 50
180.000000
 51
360.000005
  0
LINE
  8
0
  6
BYLAYER
 62
     7
 10
237.378779
 20
-43.178797
 30
0.0
 11
245.378840
 21
-43.178797
 31
0.0
  0
ARC
  8
0
  6
BYLAYER
 62
     7
 10
245.378840
 20
-44.178797
 30
0.0
 40
1.0
 50
0.0
 51
89.999992
  0
ARC
  8
0
  6
BYLAYER
 62
     7
 10
270.378840
 20
-44.178736
 30
0.0
 40
1.0
 50
90.0
 51
180.000003
  0
LINE
  8
0
  6
BYLAYER
 62
     7
 10
270.378840
 20
-43.178736
 30
0.0
 11
284.378840
 21
-43.178736
 31
0.0
  0
ARC
  8
0
  6
BYLAYER
 62
     7
 10
284.378840
 20
-44.178736
 30
0.0
 40
1.000000
 50
0.0
 51
89.999992
  0
LINE
  8
0
  6
BYLAYER
 62
     7
 10
309.378840
 20
-43.178736
 30
0.0
 11
317.378840
 21
-43.178736
 31
0.0
  0
ARC
  8
0
  6
BYLAYER
 62
     7
 10
309.378840
 20
-44.178736
 30
0.0
 40
1.0
 50
90.0
 51
180.000003
  0
CIRCLE
  8
0
  6
BYLAYER
 62
     7
 10
260.128840
 20
-87.376062
 30
0.0
 40
1.350000
  0
CIRCLE
  8
0
  6
BYLAYER
 62
     7
 10
315.128840
 20
-87.306971
 30
0.0
 40
1.350000
  0
LINE
  8
0
  6
BYLAYER
 62
     7
 10
237.978876
 20
-86.778772
 30
0.0
 11
257.188898
 21
-86.778772
 31
0.0
  0
LINE
  8
0
  6
BYLAYER
 62
     7
 10
237.978876
 20
-87.978785
 30
0.0
 11
257.189997
 21
-87.978785
 31
0.0
  0
LINE
  8
0
  6
BYLAYER
 62
     7
 10
263.068781
 20
-86.778772
 30
0.0
 11
287.628840
 21
-86.778772
 31
0.0
  0
LINE
  8
0
  6
BYLAYER
 62
     7
 10
263.067682
 20
-87.978785
 30
0.0
 11
287.628840
 21
-87.978785
 31
0.0
  0
LINE
  8
0
  6
BYLAYER
 62
     7
 10
312.175715
 20
-86.778711
 30
0.0
 11
287.628840
 21
-86.778772
 31
0.0
  0
LINE
  8
0
  6
BYLAYER
 62
     7
 10
312.205012
 20
-87.978724
 30
0.0
 11
287.628840
 21
-87.978785
 31
0.0
  0
LINE
  8
0
  6
BYLAYER
 62
     7
 10
330.628840
 20
-86.778711
 30
0.0
 11
318.081965
 21
-86.778711
 31
0.0
  0
LINE
  8
0
  6
BYLAYER
 62
     7
 10
330.628840
 20
-87.978724
 30
0.0
 11
318.052668
 21
-87.978724
 31
0.0
  0
LINE
  8
0
  6
BYLAYER
 62
     7
 10
330.628840
 20
-149.378867
 30
0.0
 11
287.628962
 21
-149.378809
 31
0.0
  0
LINE
  8
0
  6
BYLAYER
 62
     7
 10
330.628840
 20
-155.378867
 30
0.0
 11
287.628962
 21
-155.378809
 31
0.0
  0
LINE
  8
0
  6
BYLAYER
 62
     7
 10
330.628840
 20
-158.378867
 30
0.0
 11
287.628962
 21
-158.378809
 31
0.0
  0
LINE
  8
0
  6
BYLAYER
 62
     7
 10
237.379023
 20
-136.378870
 30
0.0
 11
240.465143
 21
-147.896509
 31
0.0
  0
ARC
  8
0
  6
BYLAYER
 62
     7
 10
242.396967
 20
-147.378870
 30
0.0
 40
1.999973
 50
195.000043
 51
270.000055
  0
LINE
  8
0
  6
BYLAYER
 62
     7
 10
237.379023
 20
-143.378870
 30
0.0
 11
239.003351
 21
-142.441065
 31
0.0
  0
LINE
  8
0
  6
BYLAYER
 62
     7
 10
237.379023
 20
-143.378870
 30
0.0
 11
240.197199
 21
-153.896509
 31
0.0
  0
ARC
  8
0
  6
BYLAYER
 62
     7
 10
242.129023
 20
-153.378870
 30
0.0
 40
1.999973
 50
195.000043
 51
270.000055
  0
ARC
  8
0
  6
BYLAYER
 62
     7
 10
242.129084
 20
-156.378870
 30
0.0
 40
2.000032
 50
195.000070
 51
270.000055
  0
LINE
  8
0
  6
BYLAYER
 62
     7
 10
237.379023
 20
-146.378870
 30
0.0
 11
240.197199
 21
-156.896509
 31
0.0
  0
LINE
  8
0
  6
BYLAYER
 62
     7
 10
242.396967
 20
-149.378870
 30
0.0
 11
287.628962
 21
-149.378809
 31
0.0
  0
LINE
  8
0
  6
BYLAYER
 62
     7
 10
242.129084
 20
-155.378870
 30
0.0
 11
287.628962
 21
-155.378809
 31
0.0
  0
LINE
  8
0
  6
BYLAYER
 62
     7
 10
242.129084
 20
-158.378870
 30
0.0
 11
287.628962
 21
-158.378809
 31
0.0
  0
LINE
  8
0
  6
BYLAYER
 62
     7
 10
237.378901
 20
-147.478785
 30
0.0
 11
237.634211
 21
-147.331385
 31
0.0
  0
ARC
  8
0
  6
BYLAYER
 62
     7
 10
260.128840
 20
-87.376062
 30
0.0
 40
3.000002
 50
11.484133
 51
168.515862
  0
ARC
  8
0
  6
BYLAYER
 62
     7
 10
315.128840
 20
-87.306971
 30
0.0
 40
2.999990
 50
10.140737
 51
169.859264
  0
ARC
  8
0
  6
BYLAYER
 62
     7
 10
315.128840
 20
-87.306971
 30
0.0
 40
3.000004
 50
192.939225
 51
347.060790
  0
ARC
  8
0
  6
BYLAYER
 62
     7
 10
260.128840
 20
-87.376062
 30
0.0
 40
2.999964
 50
191.590672
 51
348.409452
  0
LINE
  8
0
  6
BYLAYER
 62
     7
 10
237.978876
 20
-65.978846
 30
0.0
 11
330.628840
 21
-65.978732
 31
0.0
  0
LINE
  8
0
  6
BYLAYER
 62
     7
 10
237.978876
 20
-75.778772
 30
0.0
 11
330.628840
 21
-75.778715
 31
0.0
  0
LINE
  8
0
  6
BYLAYER
 62
     7
 10
237.978876
 20
-76.978846
 30
0.0
 11
330.628840
 21
-76.978732
 31
0.0
  0
LINE
  8
0
  6
BYLAYER
 62
     7
 10
246.378840
 20
-39.678797
 30
0.0
 11
246.378840
 21
-46.678736
 31
0.0
  0
LINE
  8
0
  6
BYLAYER
 62
     7
 10
244.378840
 20
-37.678797
 30
0.0
 11
237.378779
 21
-37.678797
 31
0.0
  0
ARC
  8
0
  6
BYLAYER
 62
     7
 10
244.378840
 20
-39.678797
 30
0.0
 40
2.0
 50
0.0
 51
90.000003
  0
LINE
  8
0
  6
BYLAYER
 62
     7
 10
269.378840
 20
-39.678797
 30
0.0
 11
269.378840
 21
-46.678736
 31
0.0
  0
ARC
  8
0
  6
BYLAYER
 62
     7
 10
271.378840
 20
-39.678797
 30
0.0
 40
2.000000
 50
90.0
 51
180.000003
  0
LINE
  8
0
  6
BYLAYER
 62
     7
 10
285.378840
 20
-39.678797
 30
0.0
 11
285.378840
 21
-46.678736
 31
0.0
  0
LINE
  8
0
  6
BYLAYER
 62
     7
 10
283.378840
 20
-37.678797
 30
0.0
 11
271.378840
 21
-37.678797
 31
0.0
  0
ARC
  8
0
  6
BYLAYER
 62
     7
 10
283.378840
 20
-39.678797
 30
0.0
 40
2.000000
 50
0.0
 51
90.000003
  0
LINE
  8
0
  6
BYLAYER
 62
     7
 10
308.378840
 20
-39.678736
 30
0.0
 11
308.378840
 21
-46.678736
 31
0.0
  0
LINE
  8
0
  6
BYLAYER
 62
     7
 10
317.378840
 20
-37.678736
 30
0.0
 11
310.378840
 21
-37.678736
 31
0.0
  0
ARC
  8
0
  6
BYLAYER
 62
     7
 10
310.378840
 20
-39.678736
 30
0.0
 40
2.0
 50
90.0
 51
180.000003
  0
LINE
  8
0
  6
BYLAYER
 62
     7
 10
330.628840
 20
-64.778772
 30
0.0
 11
237.978876
 21
-64.778772
 31
0.0
  0
LINE
  8
0
  6
BYLAYER
 62
     7
 10
317.378840
 20
-64.778772
 30
0.0
 11
317.378840
 21
-33.178736
 31
0.0
  0
LINE
  8
0
  6
BYLAYER
 62
     7
 10
237.978876
 20
-97.778772
 30
0.0
 11
330.628840
 21
-97.778772
 31
0.0
  0
LINE
  8
0
  6
BYLAYER
 62
     7
 10
237.978876
 20
-98.978785
 30
0.0
 11
330.628840
 21
-98.978785
 31
0.0
  0
LINE
  8
0
  6
BYLAYER
 62
     7
 10
237.978876
 20
-109.978785
 30
0.0
 11
330.628840
 21
-109.978725
 31
0.0
  0
LINE
  8
0
  6
BYLAYER
 62
     7
 10
237.978876
 20
-119.778772
 30
0.0
 11
330.628840
 21
-119.778715
 31
0.0
  0
LINE
  8
0
  6
BYLAYER
 62
     7
 10
237.978876
 20
-120.978846
 30
0.0
 11
330.628840
 21
-120.978732
 31
0.0
  0
LINE
  8
0
  6
BYLAYER
 62
     7
 10
237.978876
 20
-130.778833
 30
0.0
 11
330.628840
 21
-130.778719
 31
0.0
  0
LINE
  8
0
  6
BYLAYER
 62
     7
 10
237.978876
 20
-131.978846
 30
0.0
 11
330.628840
 21
-131.978732
 31
0.0
  0
LINE
  8
0
  6
BYLAYER
 62
     7
 10
237.978876
 20
-108.778772
 30
0.0
 11
330.628840
 21
-108.778711
 31
0.0
  0
LINE
  8
0
  6
BYLAYER
 62
     7
 10
329.378840
 20
-65.978724
 30
0.0
 11
329.378840
 21
-75.778711
 31
0.0
  0
LINE
  8
0
  6
BYLAYER
 62
     7
 10
245.878901
 20
-65.978846
 30
0.0
 11
245.878901
 21
-75.778772
 31
0.0
  0
LINE
  8
0
  6
BYLAYER
 62
     7
 10
329.378840
 20
-76.978724
 30
0.0
 11
329.378840
 21
-86.778711
 31
0.0
  0
LINE
  8
0
  6
BYLAYER
 62
     7
 10
245.878901
 20
-76.978846
 30
0.0
 11
245.878901
 21
-86.778711
 31
0.0
  0
LINE
  8
0
  6
BYLAYER
 62
     7
 10
329.378840
 20
-87.978785
 30
0.0
 11
329.378840
 21
-97.778772
 31
0.0
  0
LINE
  8
0
  6
BYLAYER
 62
     7
 10
245.878901
 20
-87.978785
 30
0.0
 11
245.878901
 21
-97.778772
 31
0.0
  0
LINE
  8
0
  6
BYLAYER
 62
     7
 10
245.878901
 20
-98.978785
 30
0.0
 11
245.878901
 21
-108.778772
 31
0.0
  0
LINE
  8
0
  6
BYLAYER
 62
     7
 10
329.378840
 20
-98.978785
 30
0.0
 11
329.378840
 21
-108.778711
 31
0.0
  0
LINE
  8
0
  6
BYLAYER
 62
     7
 10
245.878901
 20
-109.978785
 30
0.0
 11
245.878901
 21
-119.778772
 31
0.0
  0
LINE
  8
0
  6
BYLAYER
 62
     7
 10
329.378840
 20
-109.978724
 30
0.0
 11
329.378840
 21
-119.778711
 31
0.0
  0
LINE
  8
0
  6
BYLAYER
 62
     7
 10
245.878901
 20
-120.978785
 30
0.0
 11
245.878901
 21
-130.778833
 31
0.0
  0
LINE
  8
0
  6
BYLAYER
 62
     7
 10
329.378840
 20
-120.978724
 30
0.0
 11
329.378840
 21
-130.778711
 31
0.0
  0
LINE
  8
0
  6
BYLAYER
 62
     7
 10
330.628840
 20
-64.282849
 30
0.0
 11
329.420954
 21
-64.766687
 31
0.0
  0
LINE
  8
0
  6
BYLAYER
 62
     7
 10
245.868952
 20
-64.650049
 30
0.0
 11
237.344660
 21
-62.234095
 31
0.0
  0
LINE
  8
0
  6
BYLAYER
 62
     7
 10
245.878901
 20
-131.978785
 30
0.0
 11
245.878901
 21
-133.978785
 31
0.0
  0
LINE
  8
0
  6
BYLAYER
 62
     7
 10
329.378840
 20
-131.978724
 30
0.0
 11
329.378840
 21
-133.978724
 31
0.0
  0
LINE
  8
0
  6
BYLAYER
 62
     7
 10
329.378840
 20
-133.978724
 30
0.0
 11
245.878901
 21
-133.978785
 31
0.0
  0
LINE
  8
0
  6
BYLAYER
 62
     7
 10
329.378840
 20
-133.978724
 30
0.0
 11
330.628840
 21
-134.331687
 31
0.0
  0
LINE
  8
0
  6
BYLAYER
 62
     7
 10
245.878901
 20
-133.978785
 30
0.0
 11
237.379023
 21
-136.378870
 31
0.0
  0
LINE
  8
0
  6
BYLAYER
 62
     7
 10
235.378779
 20
-147.478846
 30
0.0
 11
237.378779
 21
-147.478846
 31
0.0
  0
LINE
  8
0
  6
BYLAYER
 62
     7
 10
330.628840
 20
-98.378839
 30
0.0
 11
330.628840
 21
-37.778839
 31
0.0
  0
LINE
  8
0
  6
BYLAYER
 62
     7
 10
386.877368
 20
-37.778839
 30
0.0
 11
397.228840
 21
-48.130311
 31
0.0
  0
LINE
  8
0
  6
BYLAYER
 62
     7
 10
330.628840
 20
-37.778839
 30
0.0
 11
337.628840
 21
-37.778839
 31
0.0
  0
LINE
  8
0
  6
BYLAYER
 62
     7
 10
337.628840
 20
-37.778839
 30
0.0
 11
386.877368
 21
-37.778839
 31
0.0
  0
LINE
  8
0
  6
BYLAYER
 62
     7
 10
397.228840
 20
-48.130311
 30
0.0
 11
397.228840
 21
-98.378839
 31
0.0
  0
LINE
  8
0
  6
BYLAYER
 62
     7
 10
330.628840
 20
-158.978839
 30
0.0
 11
330.628840
 21
-98.378839
 31
0.0
  0
LINE
  8
0
  6
BYLAYER
 62
     7
 10
397.228840
 20
-148.627368
 30
0.0
 11
386.877368
 21
-158.978839
 31
0.0
  0
LINE
  8
0
  6
BYLAYER
 62
     7
 10
386.877368
 20
-158.978839
 30
0.0
 11
330.628840
 21
-158.978839
 31
0.0
  0
LINE
  8
0
  6
BYLAYER
 62
     7
 10
397.228840
 20
-98.378839
 30
0.0
 11
397.228840
 21
-148.627368
 31
0.0
  0
LINE
  8
0
  6
BYLAYER
 62
     7
 10
208.378840
 20
-167.878840
 30
0.0
 11
208.378840
 21
-98.378840
 31
0.0
  0
LINE
  8
0
  6
BYLAYER
 62
     7
 10
208.878840
 20
-168.378840
 30
0.0
 11
208.378840
 21
-167.878840
 31
0.0
  0
LINE
  8
0
  6
BYLAYER
 62
     7
 10
208.378840
 20
-98.378840
 30
0.0
 11
208.378840
 21
-28.878840
 31
0.0
  0
LINE
  8
0
  6
BYLAYER
 62
     7
 10
208.378840
 20
-28.878840
 30
0.0
 11
208.878840
 21
-28.378840
 31
0.0
  0
LINE
  8
0
  6
BYLAYER
 62
     7
 10
217.378840
 20
-168.378840
 30
0.0
 11
208.878840
 21
-168.378840
 31
0.0
  0
LINE
  8
0
  6
BYLAYER
 62
     7
 10
217.378840
 20
-98.378840
 30
0.0
 11
217.378840
 21
-168.378840
 31
0.0
  0
LINE
  8
0
  6
BYLAYER
 62
     7
 10
219.343928
 20
-49.098933
 30
0.0
 11
235.378840
 21
-49.378840
 31
0.0
  0
LINE
  8
0
  6
BYLAYER
 62
     7
 10
217.378840
 20
-28.378840
 30
0.0
 11
217.378840
 21
-98.378840
 31
0.0
  0
ARC
  8
0
  6
BYLAYER
 62
     7
 10
219.378840
 20
-47.099238
 30
0.0
 40
2.000000
 50
180.000000
 51
268.999783
  0
LINE
  8
0
  6
BYLAYER
 62
     7
 10
208.878840
 20
-28.378840
 30
0.0
 11
217.378840
 21
-28.378840
 31
0.0
  0
LINE
  8
0
  6
BYLAYER
 62
     7
 10
233.378840
 20
-147.413752
 30
0.0
 11
233.378840
 21
-157.378840
 31
0.0
  0
LINE
  8
0
  6
BYLAYER
 62
     7
 10
235.378840
 20
-147.378840
 30
0.0
 11
233.378840
 21
-147.413752
 31
0.0
  0
LINE
  8
0
  6
BYLAYER
 62
     7
 10
233.378840
 20
-157.378840
 30
0.0
 11
217.378840
 21
-157.658115
 31
0.0
  0
LINE
  8
0
  6
BYLAYER
 62
     7
 10
235.378840
 20
-98.378840
 30
0.0
 11
235.378840
 21
-147.378840
 31
0.0
  0
LINE
  8
0
  6
BYLAYER
 62
     7
 10
235.378840
 20
-49.378840
 30
0.0
 11
235.378840
 21
-98.378840
 31
0.0
  0
ARC
  8
0
  6
BYLAYER
 62
     7
 10
308.133117
 20
-22.678736
 30
0.0
 40
1.500000
 50
180.000000
 51
270.000000
  0
ARC
  8
0
  6
BYLAYER
 62
     7
 10
246.624441
 20
-22.678736
 30
0.0
 40
1.5
 50
270.0
 51
360.0
  0
ARC
  8
0
  6
BYLAYER
 62
     7
 10
238.878779
 20
-22.678736
 30
0.0
 40
1.5
 50
270.0
 51
360.0
  0
ARC
  8
0
  6
BYLAYER
 62
     7
 10
238.878779
 20
-25.678736
 30
0.0
 40
1.5
 50
90.0
 51
180.0
  0
ARC
  8
0
  6
BYLAYER
 62
     7
 10
315.878779
 20
-22.678736
 30
0.0
 40
1.500000
 50
180.000000
 51
270.000000
  0
LINE
  8
0
  6
BYLAYER
 62
     7
 10
240.378779
 20
-22.678736
 30
0.0
 11
240.378779
 21
-1.178736
 31
0.0
  0
ARC
  8
0
  6
BYLAYER
 62
     7
 10
241.878779
 20
-1.178736
 30
0.0
 40
1.5
 50
90.0
 51
180.0
  0
LINE
  8
0
  6
BYLAYER
 62
     7
 10
314.378779
 20
-22.678736
 30
0.0
 11
314.378779
 21
-1.178736
 31
0.0
  0
LINE
  8
0
  6
BYLAYER
 62
     7
 10
241.878779
 20
0.321264
 30
0.0
 11
312.878779
 21
0.321264
 31
0.0
  0
ARC
  8
0
  6
BYLAYER
 62
     7
 10
305.133117
 20
-1.178736
 30
0.0
 40
1.5
 50
0.0
 51
90.0
  0
ARC
  8
0
  6
BYLAYER
 62
     7
 10
312.878779
 20
-1.178736
 30
0.0
 40
1.5
 50
0.0
 51
90.0
  0
LINE
  8
0
  6
BYLAYER
 62
     7
 10
248.124441
 20
-22.678736
 30
0.0
 11
248.124441
 21
-1.178736
 31
0.0
  0
ARC
  8
0
  6
BYLAYER
 62
     7
 10
249.624441
 20
-1.178736
 30
0.0
 40
1.500000
 50
90.0
 51
180.0
  0
LINE
  8
0
  6
BYLAYER
 62
     7
 10
306.633117
 20
-22.678736
 30
0.0
 11
306.633117
 21
-1.178736
 31
0.0
  0
ARC
  8
0
  6
BYLAYER
 62
     7
 10
315.878779
 20
-25.678736
 30
0.0
 40
1.5
 50
0.0
 51
90.0
  0
LINE
  8
0
  6
BYLAYER
 62
     7
 10
317.378779
 20
-33.178736
 30
0.0
 11
317.378779
 21
-25.678736
 31
0.0
  0
LINE
  8
0
  6
BYLAYER
 62
     7
 10
315.878779
 20
-24.178736
 30
0.0
 11
238.878779
 21
-24.178736
 31
0.0
  0
LINE
  8
0
  6
BYLAYER
 62
     7
 10
237.378779
 20
-25.678736
 30
0.0
 11
237.378779
 21
-33.178736
 31
0.0
  0
LINE
  8
0
  6
BYLAYER
 62
     7
 10
237.378779
 20
-33.178736
 30
0.0
 11
317.378779
 21
-33.178736
 31
0.0
  0
LINE
  8
0
  6
BYLAYER
 62
     7
 10
317.378779
 20
-31.178736
 30
0.0
 11
237.378779
 21
-31.178736
 31
0.0
  0
LINE
  8
0
  6
BYLAYER
 62
     7
 10
386.877368
 20
-37.778839
 30
0.0
 11
386.877368
 21
-158.978839
 31
0.0
  0
LINE
  8
0
  6
BYLAYER
 62
     7
 10
240.378840
 20
-462.895495
 30
0.0
 11
240.378840
 21
-413.862125
 31
0.0
  0
LINE
  8
0
  6
BYLAYER
 62
     7
 10
249.841246
 20
-404.128810
 30
0.0
 11
304.916434
 21
-404.128810
 31
0.0
  0
LINE
  8
0
  6
BYLAYER
 62
     7
 10
314.378840
 20
-413.862125
 30
0.0
 11
314.378840
 21
-462.895495
 31
0.0
  0
LINE
  8
0
  6
BYLAYER
 62
     7
 10
304.916434
 20
-472.628810
 30
0.0
 11
249.841246
 21
-472.628810
 31
0.0
  0
LINE
  8
0
  6
BYLAYER
 62
     7
 10
254.483538
 20
-428.479916
 30
0.0
 11
240.378840
 21
-428.972463
 31
0.0
  0
ARC
  8
0
  6
BYLAYER
 62
     7
 10
254.378840
 20
-425.481744
 30
0.0
 40
3.000000
 50
272.000000
 51
360.000000
  0
LINE
  8
0
  6
BYLAYER
 62
     7
 10
254.483538
 20
-443.479916
 30
0.0
 11
240.378840
 21
-443.972463
 31
0.0
  0
ARC
  8
0
  6
BYLAYER
 62
     7
 10
254.378840
 20
-440.481744
 30
0.0
 40
3.000000
 50
272.000000
 51
360.000000
  0
LINE
  8
0
  6
BYLAYER
 62
     7
 10
254.483538
 20
-458.479916
 30
0.0
 11
240.378840
 21
-458.972463
 31
0.0
  0
ARC
  8
0
  6
BYLAYER
 62
     7
 10
254.378840
 20
-455.481744
 30
0.0
 40
3.000000
 50
272.000000
 51
360.000000
  0
LINE
  8
0
  6
BYLAYER
 62
     7
 10
240.378840
 20
-447.785157
 30
0.0
 11
254.483538
 21
-448.277704
 31
0.0
  0
ARC
  8
0
  6
BYLAYER
 62
     7
 10
254.378840
 20
-451.275876
 30
0.0
 40
3.0
 50
0.0
 51
88.0
  0
LINE
  8
0
  6
BYLAYER
 62
     7
 10
240.378840
 20
-432.785157
 30
0.0
 11
254.483538
 21
-433.277704
 31
0.0
  0
ARC
  8
0
  6
BYLAYER
 62
     7
 10
254.378840
 20
-436.275876
 30
0.0
 40
3.0
 50
0.0
 51
88.0
  0
LINE
  8
0
  6
BYLAYER
 62
     7
 10
257.378840
 20
-451.275876
 30
0.0
 11
257.378840
 21
-455.481744
 31
0.0
  0
LINE
  8
0
  6
BYLAYER
 62
     7
 10
257.378840
 20
-436.275876
 30
0.0
 11
257.378840
 21
-440.481744
 31
0.0
  0
LINE
  8
0
  6
BYLAYER
 62
     7
 10
241.378840
 20
-432.820078
 30
0.0
 11
241.378840
 21
-443.937542
 31
0.0
  0
LINE
  8
0
  6
BYLAYER
 62
     7
 10
241.378840
 20
-447.820078
 30
0.0
 11
241.378840
 21
-458.937542
 31
0.0
  0
LINE
  8
0
  6
BYLAYER
 62
     7
 10
241.378840
 20
-417.820078
 30
0.0
 11
241.378840
 21
-428.937542
 31
0.0
  0
LINE
  8
0
  6
BYLAYER
 62
     7
 10
314.378840
 20
-417.785157
 30
0.0
 11
300.274142
 21
-418.277704
 31
0.0
  0
ARC
  8
0
  6
BYLAYER
 62
     7
 10
300.378840
 20
-421.275876
 30
0.0
 40
3.000000
 50
92.000000
 51
180.000000
  0
LINE
  8
0
  6
BYLAYER
 62
     7
 10
300.274142
 20
-428.479916
 30
0.0
 11
314.378840
 21
-428.972463
 31
0.0
  0
ARC
  8
0
  6
BYLAYER
 62
     7
 10
300.378840
 20
-425.481744
 30
0.0
 40
3.000000
 50
180.000000
 51
268.000000
  0
LINE
  8
0
  6
BYLAYER
 62
     7
 10
300.274142
 20
-443.479916
 30
0.0
 11
314.378840
 21
-443.972463
 31
0.0
  0
ARC
  8
0
  6
BYLAYER
 62
     7
 10
300.378840
 20
-440.481744
 30
0.0
 40
3.000000
 50
180.000000
 51
268.000000
  0
LINE
  8
0
  6
BYLAYER
 62
     7
 10
300.274142
 20
-458.479916
 30
0.0
 11
314.378840
 21
-458.972463
 31
0.0
  0
ARC
  8
0
  6
BYLAYER
 62
     7
 10
300.378840
 20
-455.481744
 30
0.0
 40
3.000000
 50
180.000000
 51
268.000000
  0
LINE
  8
0
  6
BYLAYER
 62
     7
 10
314.378840
 20
-447.785157
 30
0.0
 11
300.274142
 21
-448.277704
 31
0.0
  0
ARC
  8
0
  6
BYLAYER
 62
     7
 10
300.378840
 20
-451.275876
 30
0.0
 40
3.000000
 50
92.000000
 51
180.000000
  0
LINE
  8
0
  6
BYLAYER
 62
     7
 10
314.378840
 20
-432.785157
 30
0.0
 11
300.274142
 21
-433.277704
 31
0.0
  0
ARC
  8
0
  6
BYLAYER
 62
     7
 10
300.378840
 20
-436.275876
 30
0.0
 40
3.000000
 50
92.000000
 51
180.000000
  0
LINE
  8
0
  6
BYLAYER
 62
     7
 10
297.378840
 20
-451.275876
 30
0.0
 11
297.378840
 21
-455.481744
 31
0.0
  0
LINE
  8
0
  6
BYLAYER
 62
     7
 10
297.378840
 20
-436.275876
 30
0.0
 11
297.378840
 21
-440.481744
 31
0.0
  0
LINE
  8
0
  6
BYLAYER
 62
     7
 10
297.378840
 20
-421.275876
 30
0.0
 11
297.378840
 21
-425.481744
 31
0.0
  0
LINE
  8
0
  6
BYLAYER
 62
     7
 10
313.378840
 20
-432.820078
 30
0.0
 11
313.378840
 21
-443.937542
 31
0.0
  0
LINE
  8
0
  6
BYLAYER
 62
     7
 10
313.378840
 20
-447.820078
 30
0.0
 11
313.378840
 21
-458.937542
 31
0.0
  0
LINE
  8
0
  6
BYLAYER
 62
     7
 10
313.378840
 20
-417.820078
 30
0.0
 11
313.378840
 21
-428.937542
 31
0.0
  0
LINE
  8
0
  6
BYLAYER
 62
     7
 10
237.378840
 20
-402.878810
 30
0.0
 11
237.378840
 21
-473.878810
 31
0.0
  0
ARC
  8
0
  6
BYLAYER
 62
     7
 10
238.878840
 20
-473.878810
 30
0.0
 40
1.5
 50
180.000000
 51
270.000000
  0
ARC
  8
0
  6
BYLAYER
 62
     7
 10
238.878840
 20
-402.878810
 30
0.0
 40
1.5
 50
90.0
 51
180.0
  0
LINE
  8
0
  6
BYLAYER
 62
     7
 10
315.878840
 20
-401.378810
 30
0.0
 11
238.878840
 21
-401.378810
 31
0.0
  0
ARC
  8
0
  6
BYLAYER
 62
     7
 10
315.878840
 20
-402.878810
 30
0.0
 40
1.5
 50
0.0
 51
90.0
  0
LINE
  8
0
  6
BYLAYER
 62
     7
 10
317.378840
 20
-473.878810
 30
0.0
 11
317.378840
 21
-402.878810
 31
0.0
  0
LINE
  8
0
  6
BYLAYER
 62
     7
 10
238.878840
 20
-475.378810
 30
0.0
 11
315.878840
 21
-475.378810
 31
0.0
  0
ARC
  8
0
  6
BYLAYER
 62
     7
 10
315.878840
 20
-473.878810
 30
0.0
 40
1.500000
 50
270.0
 51
360.0
  0
ARC
  8
0
  6
BYLAYER
 62
     7
 10
312.378840
 20
-406.378810
 30
0.0
 40
6.0
 50
174.260830
 51
273.822554
  0
ARC
  8
0
  6
BYLAYER
 62
     7
 10
312.878840
 20
-413.862125
 30
0.0
 40
1.500000
 50
0.0
 51
93.822554
  0
ARC
  8
0
  6
BYLAYER
 62
     7
 10
304.916434
 20
-405.628810
 30
0.0
 40
1.500000
 50
354.26083
 51
450.0
  0
ARC
  8
0
  6
BYLAYER
 62
     7
 10
312.378840
 20
-470.378810
 30
0.0
 40
6.000000
 50
86.177446
 51
185.739170
  0
ARC
  8
0
  6
BYLAYER
 62
     7
 10
312.878840
 20
-462.895495
 30
0.0
 40
1.500000
 50
266.177446
 51
360.000000
  0
ARC
  8
0
  6
BYLAYER
 62
     7
 10
304.916434
 20
-471.128810
 30
0.0
 40
1.500000
 50
270.0
 51
365.739170
  0
ARC
  8
0
  6
BYLAYER
 62
     7
 10
242.378840
 20
-470.378810
 30
0.0
 40
6.000000
 50
354.260830
 51
453.822554
  0
ARC
  8
0
  6
BYLAYER
 62
     7
 10
249.841246
 20
-471.128810
 30
0.0
 40
1.500000
 50
174.260830
 51
270.000000
  0
ARC
  8
0
  6
BYLAYER
 62
     7
 10
241.878840
 20
-462.895495
 30
0.0
 40
1.5
 50
180.000000
 51
273.822554
  0
ARC
  8
0
  6
BYLAYER
 62
     7
 10
242.378840
 20
-406.378810
 30
0.0
 40
6.000000
 50
266.177446
 51
365.739170
  0
ARC
  8
0
  6
BYLAYER
 62
     7
 10
241.878840
 20
-413.862125
 30
0.0
 40
1.5
 50
86.177446
 51
180.000000
  0
ARC
  8
0
  6
BYLAYER
 62
     7
 10
249.841246
 20
-405.628810
 30
0.0
 40
1.500000
 50
90.0
 51
185.73917
  0
ARC
  8
0
  6
BYLAYER
 62
     7
 10
264.378840
 20
-411.378810
 30
0.0
 40
3.0
 50
90.0
 51
180.0
  0
ARC
  8
0
  6
BYLAYER
 62
     7
 10
290.378840
 20
-411.378810
 30
0.0
 40
3.0
 50
0.0
 51
90.0
  0
LINE
  8
0
  6
BYLAYER
 62
     7
 10
264.378840
 20
-408.378810
 30
0.0
 11
290.378840
 21
-408.378810
 31
0.0
  0
ARC
  8
0
  6
BYLAYER
 62
     7
 10
264.378840
 20
-465.378810
 30
0.0
 40
3.0
 50
180.000000
 51
270.000000
  0
ARC
  8
0
  6
BYLAYER
 62
     7
 10
290.378840
 20
-465.378810
 30
0.0
 40
3.0
 50
270.0
 51
360.0
  0
LINE
  8
0
  6
BYLAYER
 62
     7
 10
264.378840
 20
-468.378810
 30
0.0
 11
290.378840
 21
-468.378810
 31
0.0
  0
LINE
  8
0
  6
BYLAYER
 62
     7
 10
261.378840
 20
-465.378810
 30
0.0
 11
261.378840
 21
-411.378810
 31
0.0
  0
LINE
  8
0
  6
BYLAYER
 62
     7
 10
293.378840
 20
-411.378810
 30
0.0
 11
293.378840
 21
-465.378810
 31
0.0
  0
LINE
  8
0
  6
BYLAYER
 62
     7
 10
237.378840
 20
-438.378810
 30
0.0
 11
237.378901
 21
-487.478786
 31
0.0
  0
LINE
  8
0
  6
BYLAYER
 62
     7
 10
330.628840
 20
-489.378868
 30
0.0
 11
287.628962
 21
-489.378810
 31
0.0
  0
LINE
  8
0
  6
BYLAYER
 62
     7
 10
330.628840
 20
-495.378868
 30
0.0
 11
287.628962
 21
-495.378810
 31
0.0
  0
LINE
  8
0
  6
BYLAYER
 62
     7
 10
330.628840
 20
-498.378868
 30
0.0
 11
287.628962
 21
-498.378810
 31
0.0
  0
LINE
  8
0
  6
BYLAYER
 62
     7
 10
237.379023
 20
-476.378871
 30
0.0
 11
240.465143
 21
-487.896510
 31
0.0
  0
ARC
  8
0
  6
BYLAYER
 62
     7
 10
242.396967
 20
-487.378871
 30
0.0
 40
1.999973
 50
195.000043
 51
270.000055
  0
LINE
  8
0
  6
BYLAYER
 62
     7
 10
237.379023
 20
-483.378871
 30
0.0
 11
239.003351
 21
-482.441066
 31
0.0
  0
LINE
  8
0
  6
BYLAYER
 62
     7
 10
237.379023
 20
-483.378871
 30
0.0
 11
240.197199
 21
-493.896510
 31
0.0
  0
ARC
  8
0
  6
BYLAYER
 62
     7
 10
242.129023
 20
-493.378871
 30
0.0
 40
1.999973
 50
195.000043
 51
270.000055
  0
ARC
  8
0
  6
BYLAYER
 62
     7
 10
242.129084
 20
-496.378871
 30
0.0
 40
2.000032
 50
195.000070
 51
270.000055
  0
LINE
  8
0
  6
BYLAYER
 62
     7
 10
237.379023
 20
-486.378871
 30
0.0
 11
240.197199
 21
-496.896510
 31
0.0
  0
LINE
  8
0
  6
BYLAYER
 62
     7
 10
242.396967
 20
-489.378871
 30
0.0
 11
287.628962
 21
-489.378810
 31
0.0
  0
LINE
  8
0
  6
BYLAYER
 62
     7
 10
242.129084
 20
-495.378871
 30
0.0
 11
287.628962
 21
-495.378810
 31
0.0
  0
LINE
  8
0
  6
BYLAYER
 62
     7
 10
242.129084
 20
-498.378871
 30
0.0
 11
287.628962
 21
-498.378810
 31
0.0
  0
LINE
  8
0
  6
BYLAYER
 62
     7
 10
237.378901
 20
-487.478786
 30
0.0
 11
237.634211
 21
-487.331386
 31
0.0
  0
LINE
  8
0
  6
BYLAYER
 62
     7
 10
317.378840
 20
-438.978786
 30
0.0
 11
330.628840
 21
-438.978786
 31
0.0
  0
LINE
  8
0
  6
BYLAYER
 62
     7
 10
317.378840
 20
-449.978735
 30
0.0
 11
330.628840
 21
-449.978726
 31
0.0
  0
LINE
  8
0
  6
BYLAYER
 62
     7
 10
317.378840
 20
-459.778724
 30
0.0
 11
330.628840
 21
-459.778716
 31
0.0
  0
LINE
  8
0
  6
BYLAYER
 62
     7
 10
317.378840
 20
-460.978750
 30
0.0
 11
330.628840
 21
-460.978733
 31
0.0
  0
LINE
  8
0
  6
BYLAYER
 62
     7
 10
317.378840
 20
-470.778737
 30
0.0
 11
330.628840
 21
-470.778720
 31
0.0
  0
LINE
  8
0
  6
BYLAYER
 62
     7
 10
317.378840
 20
-471.978750
 30
0.0
 11
330.628840
 21
-471.978733
 31
0.0
  0
LINE
  8
0
  6
BYLAYER
 62
     7
 10
317.378840
 20
-448.778721
 30
0.0
 11
330.628840
 21
-448.778713
 31
0.0
  0
LINE
  8
0
  6
BYLAYER
 62
     7
 10
329.378840
 20
-438.978786
 30
0.0
 11
329.378840
 21
-448.778712
 31
0.0
  0
LINE
  8
0
  6
BYLAYER
 62
     7
 10
329.378840
 20
-449.978725
 30
0.0
 11
329.378840
 21
-459.778712
 31
0.0
  0
LINE
  8
0
  6
BYLAYER
 62
     7
 10
329.378840
 20
-460.978725
 30
0.0
 11
329.378840
 21
-470.778712
 31
0.0
  0
LINE
  8
0
  6
BYLAYER
 62
     7
 10
329.378840
 20
-471.978725
 30
0.0
 11
329.378840
 21
-473.978725
 31
0.0
  0
LINE
  8
0
  6
BYLAYER
 62
     7
 10
329.378840
 20
-473.978725
 30
0.0
 11
317.378840
 21
-473.978734
 31
0.0
  0
LINE
  8
0
  6
BYLAYER
 62
     7
 10
329.378840
 20
-473.978725
 30
0.0
 11
330.628840
 21
-474.331688
 31
0.0
  0
LINE
  8
0
  6
BYLAYER
 62
     7
 10
240.920729
 20
-475.378810
 30
0.0
 11
237.379023
 21
-476.378871
 31
0.0
  0
LINE
  8
0
  6
BYLAYER
 62
     7
 10
235.378779
 20
-487.478847
 30
0.0
 11
237.378779
 21
-487.478847
 31
0.0
  0
LINE
  8
0
  6
BYLAYER
 62
     7
 10
330.628840
 20
-498.978841
 30
0.0
 11
330.628840
 21
-438.378841
 31
0.0
  0
LINE
  8
0
  6
BYLAYER
 62
     7
 10
397.228840
 20
-488.627369
 30
0.0
 11
386.877368
 21
-498.978841
 31
0.0
  0
LINE
  8
0
  6
BYLAYER
 62
     7
 10
386.877368
 20
-498.978841
 30
0.0
 11
330.628840
 21
-498.978841
 31
0.0
  0
LINE
  8
0
  6
BYLAYER
 62
     7
 10
397.228840
 20
-438.378841
 30
0.0
 11
397.228840
 21
-488.627369
 31
0.0
  0
LINE
  8
0
  6
BYLAYER
 62
     7
 10
240.378840
 20
-417.785157
 30
0.0
 11
254.483538
 21
-418.277704
 31
0.0
  0
ARC
  8
0
  6
BYLAYER
 62
     7
 10
254.378840
 20
-421.275876
 30
0.0
 40
3.0
 50
0.0
 51
88.0
  0
LINE
  8
0
  6
BYLAYER
 62
     7
 10
257.378840
 20
-425.481744
 30
0.0
 11
257.378840
 21
-421.275876
 31
0.0
  0
LINE
  8
0
  6
BYLAYER
 62
     7
 10
237.378840
 20
-438.378871
 30
0.0
 11
237.378901
 21
-389.278895
 31
0.0
  0
LINE
  8
0
  6
BYLAYER
 62
     7
 10
330.628840
 20
-387.378813
 30
0.0
 11
287.628962
 21
-387.378871
 31
0.0
  0
LINE
  8
0
  6
BYLAYER
 62
     7
 10
330.628840
 20
-381.378813
 30
0.0
 11
287.628962
 21
-381.378871
 31
0.0
  0
LINE
  8
0
  6
BYLAYER
 62
     7
 10
330.628840
 20
-378.378813
 30
0.0
 11
287.628962
 21
-378.378871
 31
0.0
  0
LINE
  8
0
  6
BYLAYER
 62
     7
 10
237.379023
 20
-400.378810
 30
0.0
 11
240.465143
 21
-388.861171
 31
0.0
  0
ARC
  8
0
  6
BYLAYER
 62
     7
 10
242.396967
 20
-389.378810
 30
0.0
 40
1.999973
 50
89.999945
 51
164.999957
  0
LINE
  8
0
  6
BYLAYER
 62
     7
 10
237.379023
 20
-393.378810
 30
0.0
 11
239.003351
 21
-394.316615
 31
0.0
  0
LINE
  8
0
  6
BYLAYER
 62
     7
 10
237.379023
 20
-393.378810
 30
0.0
 11
240.197199
 21
-382.861171
 31
0.0
  0
ARC
  8
0
  6
BYLAYER
 62
     7
 10
242.129023
 20
-383.378810
 30
0.0
 40
1.999973
 50
89.999945
 51
164.999957
  0
ARC
  8
0
  6
BYLAYER
 62
     7
 10
242.129084
 20
-380.378810
 30
0.0
 40
2.000032
 50
89.999945
 51
164.999930
  0
LINE
  8
0
  6
BYLAYER
 62
     7
 10
237.379023
 20
-390.378810
 30
0.0
 11
240.197199
 21
-379.861171
 31
0.0
  0
LINE
  8
0
  6
BYLAYER
 62
     7
 10
242.396967
 20
-387.378810
 30
0.0
 11
287.628962
 21
-387.378871
 31
0.0
  0
LINE
  8
0
  6
BYLAYER
 62
     7
 10
242.129084
 20
-381.378810
 30
0.0
 11
287.628962
 21
-381.378871
 31
0.0
  0
LINE
  8
0
  6
BYLAYER
 62
     7
 10
242.129084
 20
-378.378810
 30
0.0
 11
287.628962
 21
-378.378871
 31
0.0
  0
LINE
  8
0
  6
BYLAYER
 62
     7
 10
237.378901
 20
-389.278895
 30
0.0
 11
237.634211
 21
-389.426295
 31
0.0
  0
LINE
  8
0
  6
BYLAYER
 62
     7
 10
317.378840
 20
-437.778895
 30
0.0
 11
330.628840
 21
-437.778895
 31
0.0
  0
LINE
  8
0
  6
BYLAYER
 62
     7
 10
317.378840
 20
-426.778947
 30
0.0
 11
330.628840
 21
-426.778955
 31
0.0
  0
LINE
  8
0
  6
BYLAYER
 62
     7
 10
317.378840
 20
-416.978957
 30
0.0
 11
330.628840
 21
-416.978965
 31
0.0
  0
LINE
  8
0
  6
BYLAYER
 62
     7
 10
317.378840
 20
-415.778932
 30
0.0
 11
330.628840
 21
-415.778948
 31
0.0
  0
LINE
  8
0
  6
BYLAYER
 62
     7
 10
317.378840
 20
-405.978945
 30
0.0
 11
330.628840
 21
-405.978961
 31
0.0
  0
LINE
  8
0
  6
BYLAYER
 62
     7
 10
317.378840
 20
-404.778932
 30
0.0
 11
330.628840
 21
-404.778948
 31
0.0
  0
LINE
  8
0
  6
BYLAYER
 62
     7
 10
317.378840
 20
-427.978960
 30
0.0
 11
330.628840
 21
-427.978969
 31
0.0
  0
LINE
  8
0
  6
BYLAYER
 62
     7
 10
329.378840
 20
-437.778895
 30
0.0
 11
329.378840
 21
-427.978969
 31
0.0
  0
LINE
  8
0
  6
BYLAYER
 62
     7
 10
329.378840
 20
-426.778956
 30
0.0
 11
329.378840
 21
-416.978969
 31
0.0
  0
LINE
  8
0
  6
BYLAYER
 62
     7
 10
329.378840
 20
-415.778956
 30
0.0
 11
329.378840
 21
-405.978969
 31
0.0
  0
LINE
  8
0
  6
BYLAYER
 62
     7
 10
329.378840
 20
-404.778956
 30
0.0
 11
329.378840
 21
-402.778956
 31
0.0
  0
LINE
  8
0
  6
BYLAYER
 62
     7
 10
329.378840
 20
-402.778956
 30
0.0
 11
317.378840
 21
-402.778947
 31
0.0
  0
LINE
  8
0
  6
BYLAYER
 62
     7
 10
329.378840
 20
-402.778956
 30
0.0
 11
330.628840
 21
-402.425993
 31
0.0
  0
LINE
  8
0
  6
BYLAYER
 62
     7
 10
240.920729
 20
-401.378871
 30
0.0
 11
237.379023
 21
-400.378810
 31
0.0
  0
LINE
  8
0
  6
BYLAYER
 62
     7
 10
235.378779
 20
-389.278834
 30
0.0
 11
237.378779
 21
-389.278834
 31
0.0
  0
LINE
  8
0
  6
BYLAYER
 62
     7
 10
330.628840
 20
-377.778841
 30
0.0
 11
330.628840
 21
-438.378841
 31
0.0
  0
LINE
  8
0
  6
BYLAYER
 62
     7
 10
397.228840
 20
-388.130312
 30
0.0
 11
386.877368
 21
-377.778841
 31
0.0
  0
LINE
  8
0
  6
BYLAYER
 62
     7
 10
386.877368
 20
-377.778841
 30
0.0
 11
330.628840
 21
-377.778841
 31
0.0
  0
LINE
  8
0
  6
BYLAYER
 62
     7
 10
397.228840
 20
-438.378841
 30
0.0
 11
397.228840
 21
-388.130312
 31
0.0
  0
LINE
  8
0
  6
BYLAYER
 62
     7
 10
208.378840
 20
-438.378840
 30
0.0
 11
208.378840
 21
-368.878840
 31
0.0
  0
LINE
  8
0
  6
BYLAYER
 62
     7
 10
208.378840
 20
-368.878840
 30
0.0
 11
208.878840
 21
-368.378840
 31
0.0
  0
LINE
  8
0
  6
BYLAYER
 62
     7
 10
219.343928
 20
-389.098933
 30
0.0
 11
235.378840
 21
-389.378840
 31
0.0
  0
LINE
  8
0
  6
BYLAYER
 62
     7
 10
217.378840
 20
-368.378840
 30
0.0
 11
217.378840
 21
-438.378840
 31
0.0
  0
ARC
  8
0
  6
BYLAYER
 62
     7
 10
219.378840
 20
-387.099238
 30
0.0
 40
2.0
 50
180.000000
 51
268.999783
  0
LINE
  8
0
  6
BYLAYER
 62
     7
 10
208.878840
 20
-368.378840
 30
0.0
 11
217.378840
 21
-368.378840
 31
0.0
  0
LINE
  8
0
  6
BYLAYER
 62
     7
 10
235.378840
 20
-389.378840
 30
0.0
 11
235.378840
 21
-438.378840
 31
0.0
  0
LINE
  8
0
  6
BYLAYER
 62
     7
 10
208.378840
 20
-438.378841
 30
0.0
 11
208.378840
 21
-507.878841
 31
0.0
  0
LINE
  8
0
  6
BYLAYER
 62
     7
 10
208.378840
 20
-507.878841
 30
0.0
 11
208.878840
 21
-508.378841
 31
0.0
  0
LINE
  8
0
  6
BYLAYER
 62
     7
 10
219.343928
 20
-487.658748
 30
0.0
 11
235.378840
 21
-487.378841
 31
0.0
  0
LINE
  8
0
  6
BYLAYER
 62
     7
 10
217.378840
 20
-508.378841
 30
0.0
 11
217.378840
 21
-438.378841
 31
0.0
  0
ARC
  8
0
  6
BYLAYER
 62
     7
 10
219.378840
 20
-489.658443
 30
0.0
 40
2.0
 50
91.000217
 51
180.0
  0
LINE
  8
0
  6
BYLAYER
 62
     7
 10
208.878840
 20
-508.378841
 30
0.0
 11
217.378840
 21
-508.378841
 31
0.0
  0
LINE
  8
0
  6
BYLAYER
 62
     7
 10
235.378840
 20
-487.378841
 30
0.0
 11
235.378840
 21
-438.378841
 31
0.0
  0
LINE
  8
0
  6
BYLAYER
 62
     7
 10
386.877368
 20
-498.978841
 30
0.0
 11
386.877368
 21
-377.778841
 31
0.0
  0
LINE
  8
0
  6
BYLAYER
 62
     1
 10
188.378840
 20
-163.378809
 30
0.0
 11
186.878840
 21
-161.878840
 31
0.0
  0
LINE
  8
0
  6
BYLAYER
 62
     1
 10
163.378840
 20
-188.378809
 30
0.0
 11
161.878840
 21
-186.878809
 31
0.0
  0
LINE
  8
0
  6
BYLAYER
 62
     1
 10
88.378840
 20
-163.378809
 30
0.0
 11
89.878840
 21
-161.878840
 31
0.0
  0
LINE
  8
0
  6
BYLAYER
 62
     1
 10
114.878840
 20
-186.878809
 30
0.0
 11
161.878840
 21
-186.878809
 31
0.0
  0
LINE
  8
0
  6
BYLAYER
 62
     1
 10
189.378840
 20
-131.878840
 30
0.0
 11
189.378840
 21
-70.378809
 31
0.0
  0
LINE
  8
0
  6
BYLAYER
 62
     1
 10
189.378840
 20
-131.878840
 30
0.0
 11
186.878840
 21
-131.966120
 31
0.0
  0
LINE
  8
0
  6
BYLAYER
 62
     1
 10
88.378840
 20
-163.378809
 30
0.0
 11
94.878840
 21
-163.378809
 31
0.0
  0
LINE
  8
0
  6
BYLAYER
 62
     1
 10
188.378840
 20
-163.378809
 30
0.0
 11
181.878840
 21
-163.378809
 31
0.0
  0
LINE
  8
0
  6
BYLAYER
 62
     1
 10
189.378840
 20
-70.378809
 30
0.0
 11
188.378840
 21
-70.378809
 31
0.0
  0
ARC
  8
0
  6
BYLAYER
 62
     1
 10
162.378840
 20
-88.378809
 30
0.0
 40
1.000000
 50
270.0
 51
450.000005
  0
ARC
  8
0
  6
BYLAYER
 62
     1
 10
121.878871
 20
-96.378809
 30
0.0
 40
1.0
 50
270.0
 51
450.000005
  0
ARC
  8
0
  6
BYLAYER
 62
     1
 10
154.878840
 20
-96.378809
 30
0.0
 40
1.0
 50
90.0
 51
270.000005
  0
ARC
  8
0
  6
BYLAYER
 62
     1
 10
108.878871
 20
-104.378809
 30
0.0
 40
1.0
 50
270.0
 51
450.000005
  0
LINE
  8
0
  6
BYLAYER
 62
     1
 10
113.378840
 20
-188.378809
 30
0.0
 11
113.378840
 21
-181.878809
 31
0.0
  0
LINE
  8
0
  6
BYLAYER
 62
     1
 10
163.378840
 20
-188.378809
 30
0.0
 11
163.378840
 21
-181.878809
 31
0.0
  0
LINE
  8
0
  6
BYLAYER
 62
     1
 10
186.878840
 20
-93.378809
 30
0.0
 11
189.378840
 21
-93.378809
 31
0.0
  0
LINE
  8
0
  6
BYLAYER
 62
     1
 10
113.378840
 20
-188.378809
 30
0.0
 11
89.878840
 21
-188.378809
 31
0.0
  0
LINE
  8
0
  6
BYLAYER
 62
     1
 10
89.878840
 20
-188.378809
 30
0.0
 11
88.378840
 21
-186.878871
 31
0.0
  0
LINE
  8
0
  6
BYLAYER
 62
     1
 10
88.378840
 20
-186.878871
 30
0.0
 11
88.378840
 21
-163.378809
 31
0.0
  0
LINE
  8
0
  6
BYLAYER
 62
     1
 10
188.378840
 20
-163.378809
 30
0.0
 11
188.378840
 21
-186.878809
 31
0.0
  0
LINE
  8
0
  6
BYLAYER
 62
     1
 10
188.378840
 20
-186.878809
 30
0.0
 11
186.878840
 21
-188.378809
 31
0.0
  0
LINE
  8
0
  6
BYLAYER
 62
     1
 10
186.878840
 20
-188.378809
 30
0.0
 11
163.378840
 21
-188.378809
 31
0.0
  0
ARC
  8
0
  6
BYLAYER
 62
     1
 10
172.878840
 20
-112.378840
 30
0.0
 40
1.0
 50
90.0
 51
110.183422
  0
LINE
  8
0
  6
BYLAYER
 62
     1
 10
189.378840
 20
-119.257441
 30
0.0
 11
186.878840
 21
-119.257441
 31
0.0
  0
LINE
  8
0
  6
BYLAYER
 62
     1
 10
186.878840
 20
-128.060603
 30
0.0
 11
189.378840
 21
-128.060542
 31
0.0
  0
LINE
  8
0
  6
BYLAYER
 62
     1
 10
88.378871
 20
-117.253840
 30
0.0
 11
89.878871
 21
-117.253840
 31
0.0
  0
LINE
  8
0
  6
BYLAYER
 62
     1
 10
89.878840
 20
-104.608607
 30
0.0
 11
88.378871
 21
-104.608607
 31
0.0
  0
LINE
  8
0
  6
BYLAYER
 62
     1
 10
108.878871
 20
-103.378809
 30
0.0
 11
95.878840
 21
-103.378809
 31
0.0
  0
ARC
  8
0
  6
BYLAYER
 62
     1
 10
95.878840
 20
-102.378809
 30
0.0
 40
1.0
 50
180.000000
 51
269.999996
  0
LINE
  8
0
  6
BYLAYER
 62
     1
 10
95.878840
 20
-95.378809
 30
0.0
 11
121.878871
 21
-95.378809
 31
0.0
  0
ARC
  8
0
  6
BYLAYER
 62
     1
 10
95.878840
 20
-94.378809
 30
0.0
 40
1.0
 50
180.000000
 51
269.999996
  0
LINE
  8
0
  6
BYLAYER
 62
     1
 10
95.878840
 20
-97.378809
 30
0.0
 11
121.878871
 21
-97.378809
 31
0.0
  0
ARC
  8
0
  6
BYLAYER
 62
     1
 10
95.878840
 20
-98.378809
 30
0.0
 40
1.0
 50
90.0
 51
180.000003
  0
LINE
  8
0
  6
BYLAYER
 62
     1
 10
172.878840
 20
-111.378840
 30
0.0
 11
180.878840
 21
-111.378840
 31
0.0
  0
ARC
  8
0
  6
BYLAYER
 62
     1
 10
180.878840
 20
-110.378840
 30
0.0
 40
1.0
 50
270.0
 51
360.000003
  0
LINE
  8
0
  6
BYLAYER
 62
     1
 10
173.977295
 20
-113.378840
 30
0.0
 11
180.878840
 21
-113.378840
 31
0.0
  0
ARC
  8
0
  6
BYLAYER
 62
     1
 10
180.878840
 20
-114.378840
 30
0.0
 40
1.000000
 50
0.0
 51
90.000003
  0
LINE
  8
0
  6
BYLAYER
 62
     1
 10
189.378840
 20
-103.378809
 30
0.0
 11
186.878840
 21
-103.378809
 31
0.0
  0
LINE
  8
0
  6
BYLAYER
 62
     1
 10
94.878840
 20
-161.878840
 30
0.0
 11
89.878840
 21
-161.878840
 31
0.0
  0
LINE
  8
0
  6
BYLAYER
 62
     1
 10
114.878840
 20
-181.878871
 30
0.0
 11
114.878840
 21
-186.878809
 31
0.0
  0
LINE
  8
0
  6
BYLAYER
 62
     1
 10
161.878840
 20
-181.878962
 30
0.0
 11
161.878840
 21
-186.878809
 31
0.0
  0
LINE
  8
0
  6
BYLAYER
 62
     1
 10
114.878840
 20
-186.878809
 30
0.0
 11
113.378840
 21
-188.378809
 31
0.0
  0
LINE
  8
0
  6
BYLAYER
 62
     1
 10
181.878840
 20
-161.878840
 30
0.0
 11
186.878840
 21
-161.878840
 31
0.0
  0
LINE
  8
0
  6
BYLAYER
 62
     1
 10
94.878840
 20
-93.378809
 30
0.0
 11
89.878840
 21
-93.378809
 31
0.0
  0
LINE
  8
0
  6
BYLAYER
 62
     1
 10
88.378840
 20
-91.878809
 30
0.0
 11
89.878840
 21
-93.378809
 31
0.0
  0
LINE
  8
0
  6
BYLAYER
 62
     1
 10
88.378840
 20
-91.878809
 30
0.0
 11
94.878840
 21
-91.878809
 31
0.0
  0
LINE
  8
0
  6
BYLAYER
 62
     1
 10
181.878840
 20
-93.378809
 30
0.0
 11
186.878840
 21
-93.378809
 31
0.0
  0
LINE
  8
0
  6
BYLAYER
 62
     1
 10
188.378840
 20
-91.878809
 30
0.0
 11
186.878840
 21
-93.378809
 31
0.0
  0
LINE
  8
0
  6
BYLAYER
 62
     1
 10
188.378840
 20
-91.878809
 30
0.0
 11
181.878840
 21
-91.878809
 31
0.0
  0
LINE
  8
0
  6
BYLAYER
 62
     1
 10
188.378840
 20
-91.878809
 30
0.0
 11
188.378840
 21
-70.318751
 31
0.0
  0
LINE
  8
0
  6
BYLAYER
 62
     1
 10
188.378840
 20
-70.318751
 30
0.0
 11
188.378840
 21
-68.378809
 31
0.0
  0
LINE
  8
0
  6
BYLAYER
 62
     1
 10
188.378840
 20
-68.378809
 30
0.0
 11
186.878840
 21
-66.878809
 31
0.0
  0
LINE
  8
0
  6
BYLAYER
 62
     1
 10
186.878840
 20
-66.878809
 30
0.0
 11
163.378840
 21
-66.878809
 31
0.0
  0
LINE
  8
0
  6
BYLAYER
 62
     1
 10
163.378840
 20
-66.878809
 30
0.0
 11
163.378840
 21
-73.378809
 31
0.0
  0
LINE
  8
0
  6
BYLAYER
 62
     1
 10
163.378840
 20
-66.878809
 30
0.0
 11
161.878840
 21
-68.378809
 31
0.0
  0
LINE
  8
0
  6
BYLAYER
 62
     1
 10
161.878840
 20
-68.378809
 30
0.0
 11
161.878840
 21
-73.378809
 31
0.0
  0
LINE
  8
0
  6
BYLAYER
 62
     1
 10
114.878840
 20
-68.378809
 30
0.0
 11
161.878840
 21
-68.378809
 31
0.0
  0
LINE
  8
0
  6
BYLAYER
 62
     1
 10
114.878840
 20
-68.378809
 30
0.0
 11
114.878840
 21
-73.378809
 31
0.0
  0
LINE
  8
0
  6
BYLAYER
 62
     1
 10
113.378840
 20
-66.878809
 30
0.0
 11
113.378840
 21
-73.378809
 31
0.0
  0
LINE
  8
0
  6
BYLAYER
 62
     1
 10
114.878840
 20
-68.378809
 30
0.0
 11
113.378840
 21
-66.878809
 31
0.0
  0
LINE
  8
0
  6
BYLAYER
 62
     1
 10
89.878840
 20
-66.878809
 30
0.0
 11
113.378840
 21
-66.878809
 31
0.0
  0
LINE
  8
0
  6
BYLAYER
 62
     1
 10
88.378840
 20
-68.378809
 30
0.0
 11
89.878840
 21
-66.878809
 31
0.0
  0
LINE
  8
0
  6
BYLAYER
 62
     1
 10
89.878840
 20
-161.878840
 30
0.0
 11
89.878840
 21
-93.378809
 31
0.0
  0
LINE
  8
0
  6
BYLAYER
 62
     1
 10
186.878840
 20
-161.878840
 30
0.0
 11
186.878840
 21
-93.378809
 31
0.0
  0
LINE
  8
0
  6
BYLAYER
 62
     1
 10
94.878840
 20
-104.608607
 30
0.0
 11
102.378840
 21
-104.608607
 31
0.0
  0
ARC
  8
0
  6
BYLAYER
 62
     1
 10
102.378840
 20
-106.608607
 30
0.0
 40
2.0
 50
0.0
 51
90.000003
  0
LINE
  8
0
  6
BYLAYER
 62
     1
 10
94.878871
 20
-117.253840
 30
0.0
 11
100.352739
 21
-117.253840
 31
0.0
  0
LINE
  8
0
  6
BYLAYER
 62
     1
 10
104.378840
 20
-111.244913
 30
0.0
 11
104.378840
 21
-106.608607
 31
0.0
  0
LINE
  8
0
  6
BYLAYER
 62
     1
 10
181.878840
 20
-93.378809
 30
0.0
 11
175.378840
 21
-93.378809
 31
0.0
  0
ARC
  8
0
  6
BYLAYER
 62
     1
 10
175.378840
 20
-95.378809
 30
0.0
 40
2.000000
 50
90.0
 51
180.000003
  0
LINE
  8
0
  6
BYLAYER
 62
     1
 10
173.378840
 20
-101.378809
 30
0.0
 11
173.378840
 21
-95.378809
 31
0.0
  0
LINE
  8
0
  6
BYLAYER
 62
     1
 10
181.878840
 20
-103.378809
 30
0.0
 11
175.378840
 21
-103.378809
 31
0.0
  0
ARC
  8
0
  6
BYLAYER
 62
     1
 10
175.378840
 20
-101.378809
 30
0.0
 40
2.0
 50
180.000000
 51
269.999996
  0
LINE
  8
0
  6
BYLAYER
 62
     1
 10
108.878871
 20
-105.378809
 30
0.0
 11
105.378840
 21
-105.378809
 31
0.0
  0
ARC
  8
0
  6
BYLAYER
 62
     1
 10
105.378840
 20
-106.378809
 30
0.0
 40
1.0
 50
90.0
 51
180.000003
  0
LINE
  8
0
  6
BYLAYER
 62
     1
 10
154.878840
 20
-97.378809
 30
0.0
 11
172.378840
 21
-97.378809
 31
0.0
  0
ARC
  8
0
  6
BYLAYER
 62
     1
 10
172.378840
 20
-98.378809
 30
0.0
 40
1.000000
 50
0.0
 51
90.000003
  0
LINE
  8
0
  6
BYLAYER
 62
     1
 10
172.550410
 20
-95.378809
 30
0.0
 11
154.878840
 21
-95.378809
 31
0.0
  0
ARC
  8
0
  6
BYLAYER
 62
     1
 10
172.550410
 20
-94.378809
 30
0.0
 40
1.0
 50
270.0
 51
340.52826
  0
ARC
  8
0
  6
BYLAYER
 62
     1
 10
95.878840
 20
-74.378809
 30
0.0
 40
1.0
 50
90.0
 51
180.000003
  0
LINE
  8
0
  6
BYLAYER
 62
     1
 10
180.878840
 20
-73.378809
 30
0.0
 11
95.878840
 21
-73.378809
 31
0.0
  0
ARC
  8
0
  6
BYLAYER
 62
     1
 10
180.878840
 20
-74.378809
 30
0.0
 40
1.000000
 50
0.0
 51
90.000003
  0
LINE
  8
0
  6
BYLAYER
 62
     1
 10
158.531965
 20
-176.928828
 30
0.0
 11
175.928843
 21
-176.928828
 31
0.0
  0
LINE
  8
0
  6
BYLAYER
 62
     1
 10
176.928843
 20
-175.928828
 30
0.0
 11
176.928843
 21
-158.531936
 31
0.0
  0
ARC
  8
0
  6
BYLAYER
 62
     1
 10
175.928843
 20
-175.928828
 30
0.0
 40
1.000000
 50
270.0
 51
360.000003
  0
ARC
  8
0
  6
BYLAYER
 62
     1
 10
180.878840
 20
-180.878809
 30
0.0
 40
1.000000
 50
270.0
 51
360.000003
  0
LINE
  8
0
  6
BYLAYER
 62
     1
 10
100.828837
 20
-176.928828
 30
0.0
 11
118.225715
 21
-176.928828
 31
0.0
  0
ARC
  8
0
  6
BYLAYER
 62
     1
 10
100.828837
 20
-175.928828
 30
0.0
 40
1.0
 50
180.000000
 51
269.999996
  0
ARC
  8
0
  6
BYLAYER
 62
     1
 10
95.878840
 20
-180.878809
 30
0.0
 40
1.0
 50
180.000000
 51
269.999996
  0
LINE
  8
0
  6
BYLAYER
 62
     1
 10
181.585948
 20
-181.585932
 30
0.0
 11
176.635951
 21
-176.635951
 31
0.0
  0
LINE
  8
0
  6
BYLAYER
 62
     1
 10
95.171732
 20
-181.585932
 30
0.0
 11
100.121729
 21
-176.635951
 31
0.0
  0
LINE
  8
0
  6
BYLAYER
 62
     1
 10
94.878840
 20
-74.378809
 30
0.0
 11
94.878840
 21
-123.089961
 31
0.0
  0
ARC
  8
0
  6
BYLAYER
 62
     1
 10
92.878840
 20
-123.089961
 30
0.0
 40
1.999991
 50
341.426977
 51
360.000000
  0
ARC
  8
0
  6
BYLAYER
 62
     1
 10
138.378840
 20
-138.378840
 30
0.0
 40
46.000008
 50
161.426644
 51
198.573352
  0
LINE
  8
0
  6
BYLAYER
 62
     1
 10
94.878840
 20
-153.667750
 30
0.0
 11
94.878840
 21
-180.878809
 31
0.0
  0
ARC
  8
0
  6
BYLAYER
 62
     1
 10
92.878840
 20
-153.667750
 30
0.0
 40
2.000001
 50
0.0
 51
18.573839
  0
ARC
  8
0
  6
BYLAYER
 62
     1
 10
123.089961
 20
-183.878840
 30
0.0
 40
2.000005
 50
71.426983
 51
90.000003
  0
ARC
  8
0
  6
BYLAYER
 62
     1
 10
138.378840
 20
-138.378840
 30
0.0
 40
45.999992
 50
251.426640
 51
288.573361
  0
ARC
  8
0
  6
BYLAYER
 62
     1
 10
153.667750
 20
-183.878840
 30
0.0
 40
2.000015
 50
90.0
 51
108.573839
  0
ARC
  8
0
  6
BYLAYER
 62
     1
 10
183.878840
 20
-153.667719
 30
0.0
 40
1.999991
 50
161.426972
 51
180.000005
  0
ARC
  8
0
  6
BYLAYER
 62
     1
 10
138.378840
 20
-138.378840
 30
0.0
 40
46.000008
 50
341.426649
 51
378.573343
  0
ARC
  8
0
  6
BYLAYER
 62
     1
 10
183.878840
 20
-123.089930
 30
0.0
 40
2.000001
 50
180.000000
 51
198.573839
  0
LINE
  8
0
  6
BYLAYER
 62
     1
 10
123.089968
 20
-181.878871
 30
0.0
 11
95.878840
 21
-181.878809
 31
0.0
  0
LINE
  8
0
  6
BYLAYER
 62
     1
 10
180.878840
 20
-181.878809
 30
0.0
 11
153.667750
 21
-181.878809
 31
0.0
  0
LINE
  8
0
  6
BYLAYER
 62
     1
 10
181.878840
 20
-74.378809
 30
0.0
 11
181.878840
 21
-123.089930
 31
0.0
  0
LINE
  8
0
  6
BYLAYER
 62
     1
 10
181.878840
 20
-180.878809
 30
0.0
 11
181.878840
 21
-153.667719
 31
0.0
  0
LINE
  8
0
  6
BYLAYER
 62
     1
 10
88.378840
 20
-121.878809
 30
0.0
 11
88.378840
 21
-68.378809
 31
0.0
  0
LINE
  8
0
  6
BYLAYER
 62
     1
 10
89.878840
 20
-121.878809
 30
0.0
 11
88.378840
 21
-121.878809
 31
0.0
  0
LINE
  8
0
  6
BYLAYER
 62
     1
 10
99.828837
 20
-175.928828
 30
0.0
 11
99.828837
 21
-158.531936
 31
0.0
  0
ARC
  8
0
  6
BYLAYER
 62
     1
 10
117.378840
 20
-88.378809
 30
0.0
 40
1.0
 50
90.0
 51
270.000005
  0
LINE
  8
0
  6
BYLAYER
 62
     1
 10
162.378840
 20
-87.378809
 30
0.0
 11
117.378840
 21
-87.378809
 31
0.0
  0
LINE
  8
0
  6
BYLAYER
 62
     1
 10
162.378840
 20
-89.378809
 30
0.0
 11
117.378840
 21
-89.378809
 31
0.0
  0
LINE
  8
0
  6
BYLAYER
 62
     1
 10
94.878840
 20
-169.978816
 30
0.0
 11
88.378840
 21
-169.978816
 31
0.0
  0
LINE
  8
0
  6
BYLAYER
 62
     1
 10
94.878840
 20
-176.778803
 30
0.0
 11
88.378840
 21
-176.778803
 31
0.0
  0
LINE
  8
0
  6
BYLAYER
 62
     1
 10
99.978838
 20
-181.878809
 30
0.0
 11
99.978838
 21
-188.378809
 31
0.0
  0
LINE
  8
0
  6
BYLAYER
 62
     1
 10
106.778842
 20
-181.878840
 30
0.0
 11
106.778842
 21
-188.378809
 31
0.0
  0
LINE
  8
0
  6
BYLAYER
 62
     1
 10
169.978846
 20
-181.878809
 30
0.0
 11
169.978846
 21
-188.378809
 31
0.0
  0
LINE
  8
0
  6
BYLAYER
 62
     1
 10
176.778834
 20
-181.878809
 30
0.0
 11
176.778834
 21
-188.378809
 31
0.0
  0
LINE
  8
0
  6
BYLAYER
 62
     1
 10
181.878840
 20
-176.778803
 30
0.0
 11
188.378840
 21
-176.778803
 31
0.0
  0
LINE
  8
0
  6
BYLAYER
 62
     1
 10
181.878840
 20
-169.978816
 30
0.0
 11
188.378840
 21
-169.978816
 31
0.0
  0
ARC
  8
0
  6
BYLAYER
 62
     1
 10
111.862330
 20
-111.862330
 30
0.0
 40
3.000004
 50
42.767120
 51
314.999992
  0
ARC
  8
0
  6
BYLAYER
 62
     1
 10
164.895350
 20
-111.862330
 30
0.0
 40
3.000015
 50
225.000010
 51
497.232885
  0
ARC
  8
0
  6
BYLAYER
 62
     1
 10
138.378840
 20
-138.378840
 30
0.0
 40
30.0
 50
0.0
 51
180.000005
  0
ARC
  8
0
  6
BYLAYER
 62
     1
 10
111.862330
 20
-164.895350
 30
0.0
 40
2.999983
 50
45.000008
 51
317.232890
  0
ARC
  8
0
  6
BYLAYER
 62
     1
 10
164.895350
 20
-164.895350
 30
0.0
 40
3.000016
 50
222.767112
 51
494.999987
  0
CIRCLE
  8
0
  6
BYLAYER
 62
     1
 10
138.378840
 20
-138.378840
 30
0.0
 40
20.0
  0
CIRCLE
  8
0
  6
BYLAYER
 62
     1
 10
111.862330
 20
-111.862330
 30
0.0
 40
2.5
  0
CIRCLE
  8
0
  6
BYLAYER
 62
     1
 10
164.895350
 20
-111.862330
 30
0.0
 40
2.5
  0
CIRCLE
  8
0
  6
BYLAYER
 62
     1
 10
164.895350
 20
-164.895350
 30
0.0
 40
2.5
  0
CIRCLE
  8
0
  6
BYLAYER
 62
     1
 10
111.862330
 20
-164.895350
 30
0.0
 40
2.5
  0
ARC
  8
0
  6
BYLAYER
 62
     1
 10
138.378840
 20
-138.378840
 30
0.0
 40
30.0
 50
292.499983
 51
360.000000
  0
ARC
  8
0
  6
BYLAYER
 62
     1
 10
138.378840
 20
-138.378840
 30
0.0
 40
29.999998
 50
180.000005
 51
292.499983
  0
ARC
  8
0
  6
BYLAYER
 62
     1
 10
138.378840
 20
-138.378840
 30
0.0
 40
45.25
 50
83.304540
 51
96.695460
  0
ARC
  8
0
  6
BYLAYER
 62
     1
 10
143.488246
 20
-94.928217
 30
0.0
 40
1.500024
 50
33.869498
 51
83.293706
  0
ARC
  8
0
  6
BYLAYER
 62
     1
 10
133.269434
 20
-94.928217
 30
0.0
 40
1.500024
 50
97.044942
 51
146.130504
  0
ARC
  8
0
  6
BYLAYER
 62
     1
 10
115.417832
 20
-82.946057
 30
0.0
 40
20.000020
 50
265.957319
 51
326.130123
  0
ARC
  8
0
  6
BYLAYER
 62
     1
 10
94.928217
 20
-133.269434
 30
0.0
 40
1.500024
 50
123.869497
 51
173.293702
  0
ARC
  8
0
  6
BYLAYER
 62
     1
 10
133.269434
 20
-181.829463
 30
0.0
 40
1.500024
 50
213.869506
 51
263.293711
  0
ARC
  8
0
  6
BYLAYER
 62
     1
 10
181.829463
 20
-143.488246
 30
0.0
 40
1.500024
 50
303.869488
 51
353.293720
  0
ARC
  8
0
  6
BYLAYER
 62
     1
 10
94.928217
 20
-143.488246
 30
0.0
 40
1.500024
 50
186.706295
 51
236.130513
  0
ARC
  8
0
  6
BYLAYER
 62
     1
 10
143.488246
 20
-181.829463
 30
0.0
 40
1.500024
 50
276.706290
 51
326.130495
  0
ARC
  8
0
  6
BYLAYER
 62
     1
 10
181.829463
 20
-133.269434
 30
0.0
 40
1.500024
 50
6.706299
 51
56.130505
  0
ARC
  8
0
  6
BYLAYER
 62
     1
 10
82.946070
 20
-115.417841
 30
0.0
 40
20.000032
 50
303.869871
 51
364.042736
  0
ARC
  8
0
  6
BYLAYER
 62
     1
 10
104.891361
 20
-113.866828
 30
0.0
 40
2.000000
 50
143.796789
 51
184.042736
  0
ARC
  8
0
  6
BYLAYER
 62
     1
 10
138.378840
 20
-138.378840
 30
0.0
 40
43.5
 50
100.784127
 51
169.215926
  0
ARC
  8
0
  6
BYLAYER
 62
     1
 10
129.865373
 20
-93.682410
 30
0.0
 40
2.0
 50
280.784127
 51
323.382976
  0
ARC
  8
0
  6
BYLAYER
 62
     1
 10
93.682402
 20
-129.865414
 30
0.0
 40
2.000000
 50
306.616911
 51
349.215926
  0
ARC
  8
0
  6
BYLAYER
 62
     1
 10
113.866844
 20
-104.891349
 30
0.0
 40
2.0
 50
85.957305
 51
126.203183
  0
ARC
  8
0
  6
BYLAYER
 62
     1
 10
138.378840
 20
-138.378840
 30
0.0
 40
45.25
 50
173.304540
 51
186.695460
  0
ARC
  8
0
  6
BYLAYER
 62
     1
 10
82.946057
 20
-161.339848
 30
0.0
 40
20.000020
 50
355.957319
 51
416.130123
  0
ARC
  8
0
  6
BYLAYER
 62
     1
 10
115.417841
 20
-193.811610
 30
0.0
 40
20.000032
 50
33.869871
 51
94.042736
  0
ARC
  8
0
  6
BYLAYER
 62
     1
 10
113.866828
 20
-171.866319
 30
0.0
 40
2.000000
 50
233.796789
 51
274.042736
  0
ARC
  8
0
  6
BYLAYER
 62
     1
 10
138.378840
 20
-138.378840
 30
0.0
 40
43.500000
 50
190.784127
 51
259.215926
  0
ARC
  8
0
  6
BYLAYER
 62
     1
 10
93.682410
 20
-146.892307
 30
0.0
 40
2.0
 50
10.784127
 51
53.382976
  0
ARC
  8
0
  6
BYLAYER
 62
     1
 10
129.865414
 20
-183.075278
 30
0.0
 40
2.000000
 50
36.616911
 51
79.215926
  0
ARC
  8
0
  6
BYLAYER
 62
     1
 10
104.891349
 20
-162.890836
 30
0.0
 40
2.000000
 50
175.957305
 51
216.203183
  0
ARC
  8
0
  6
BYLAYER
 62
     1
 10
138.378840
 20
-138.378840
 30
0.0
 40
45.250000
 50
263.304540
 51
276.695460
  0
ARC
  8
0
  6
BYLAYER
 62
     1
 10
161.339848
 20
-193.811623
 30
0.0
 40
20.000020
 50
85.957319
 51
146.130123
  0
ARC
  8
0
  6
BYLAYER
 62
     1
 10
193.811610
 20
-161.339839
 30
0.0
 40
20.000032
 50
123.869871
 51
184.042736
  0
ARC
  8
0
  6
BYLAYER
 62
     1
 10
171.866319
 20
-162.890852
 30
0.0
 40
2.000000
 50
323.796789
 51
364.042736
  0
ARC
  8
0
  6
BYLAYER
 62
     1
 10
138.378840
 20
-138.378840
 30
0.0
 40
43.5
 50
280.784127
 51
349.215926
  0
ARC
  8
0
  6
BYLAYER
 62
     1
 10
146.892307
 20
-183.075270
 30
0.0
 40
2.000000
 50
100.784127
 51
143.382976
  0
ARC
  8
0
  6
BYLAYER
 62
     1
 10
183.075278
 20
-146.892266
 30
0.0
 40
2.000000
 50
126.616911
 51
169.215926
  0
ARC
  8
0
  6
BYLAYER
 62
     1
 10
162.890836
 20
-171.866331
 30
0.0
 40
2.000000
 50
265.957305
 51
306.203183
  0
ARC
  8
0
  6
BYLAYER
 62
     1
 10
138.378840
 20
-138.378840
 30
0.0
 40
45.25
 50
353.304540
 51
366.695460
  0
ARC
  8
0
  6
BYLAYER
 62
     1
 10
193.811623
 20
-115.417832
 30
0.0
 40
20.000020
 50
175.957319
 51
236.130123
  0
ARC
  8
0
  6
BYLAYER
 62
     1
 10
161.339839
 20
-82.946070
 30
0.0
 40
20.000032
 50
213.869871
 51
274.042736
  0
ARC
  8
0
  6
BYLAYER
 62
     1
 10
162.890852
 20
-104.891361
 30
0.0
 40
2.000000
 50
53.796789
 51
94.042736
  0
ARC
  8
0
  6
BYLAYER
 62
     1
 10
138.378840
 20
-138.378840
 30
0.0
 40
43.500000
 50
10.784127
 51
79.215926
  0
ARC
  8
0
  6
BYLAYER
 62
     1
 10
183.075270
 20
-129.865373
 30
0.0
 40
2.0
 50
190.784127
 51
233.382976
  0
ARC
  8
0
  6
BYLAYER
 62
     1
 10
146.892266
 20
-93.682402
 30
0.0
 40
2.000000
 50
216.616911
 51
259.215926
  0
ARC
  8
0
  6
BYLAYER
 62
     1
 10
131.363276
 20
-83.983854
 30
0.0
 40
1.436863
 50
270.0
 51
308.795511
  0
ARC
  8
0
  6
BYLAYER
 62
     1
 10
131.224225
 20
-83.835764
 30
0.0
 40
1.639478
 50
309.340351
 51
360.0
  0
ARC
  8
0
  6
BYLAYER
 62
     1
 10
131.224225
 20
-83.835764
 30
0.0
 40
1.639478
 50
0.0
 51
50.659649
  0
ARC
  8
0
  6
BYLAYER
 62
     1
 10
131.363276
 20
-83.687674
 30
0.0
 40
1.436863
 50
51.204489
 51
90.0
  0
ARC
  8
0
  6
BYLAYER
 62
     1
 10
131.363276
 20
-83.687661
 30
0.0
 40
1.436850
 50
90.0
 51
128.795693
  0
ARC
  8
0
  6
BYLAYER
 62
     1
 10
131.502340
 20
-83.835764
 30
0.0
 40
1.639484
 50
129.340576
 51
180.0
  0
ARC
  8
0
  6
BYLAYER
 62
     1
 10
131.502340
 20
-83.835764
 30
0.0
 40
1.639484
 50
180.000000
 51
230.659424
  0
ARC
  8
0
  6
BYLAYER
 62
     1
 10
131.363276
 20
-83.983867
 30
0.0
 40
1.436850
 50
231.204307
 51
270.000000
  0
ARC
  8
0
  6
BYLAYER
 62
     1
 10
131.363276
 20
-83.414189
 30
0.0
 40
0.664873
 50
90.0
 51
140.793201
  0
ARC
  8
0
  6
BYLAYER
 62
     1
 10
131.880053
 20
-83.835764
 30
0.0
 40
1.331795
 50
140.793201
 51
180.000000
  0
ARC
  8
0
  6
BYLAYER
 62
     1
 10
131.880045
 20
-83.835764
 30
0.0
 40
1.331787
 50
180.000000
 51
219.206869
  0
ARC
  8
0
  6
BYLAYER
 62
     1
 10
131.363276
 20
-84.257334
 30
0.0
 40
0.664875
 50
219.206869
 51
270.000000
  0
ARC
  8
0
  6
BYLAYER
 62
     1
 10
131.363276
 20
-84.257334
 30
0.0
 40
0.664875
 50
270.0
 51
320.793131
  0
ARC
  8
0
  6
BYLAYER
 62
     1
 10
130.846507
 20
-83.835764
 30
0.0
 40
1.331787
 50
320.793131
 51
360.0
  0
ARC
  8
0
  6
BYLAYER
 62
     1
 10
130.846499
 20
-83.835764
 30
0.0
 40
1.331795
 50
0.0
 51
39.206799
  0
ARC
  8
0
  6
BYLAYER
 62
     1
 10
131.363276
 20
-83.414189
 30
0.0
 40
0.664873
 50
39.206799
 51
90.000000
  0
LINE
  8
0
  6
BYLAYER
 62
     1
 10
126.439356
 20
-85.315051
 30
0.0
 11
126.439356
 21
-82.314204
 31
0.0
  0
LINE
  8
0
  6
BYLAYER
 62
     1
 10
126.439356
 20
-82.314204
 30
0.0
 11
127.659419
 21
-82.314204
 31
0.0
  0
LINE
  8
0
  6
BYLAYER
 62
     1
 10
127.659419
 20
-82.314204
 30
0.0
 11
128.066577
 21
-83.878031
 31
0.0
  0
LINE
  8
0
  6
BYLAYER
 62
     1
 10
126.439356
 20
-85.315051
 30
0.0
 11
127.171961
 21
-85.315051
 31
0.0
  0
LINE
  8
0
  6
BYLAYER
 62
     1
 10
127.171961
 20
-85.315051
 30
0.0
 11
127.171961
 21
-83.582171
 31
0.0
  0
LINE
  8
0
  6
BYLAYER
 62
     1
 10
127.749583
 20
-85.315051
 30
0.0
 11
127.171961
 21
-83.582171
 31
0.0
  0
LINE
  8
0
  6
BYLAYER
 62
     1
 10
129.693797
 20
-85.315051
 30
0.0
 11
129.693797
 21
-82.314204
 31
0.0
  0
LINE
  8
0
  6
BYLAYER
 62
     1
 10
129.693797
 20
-82.314204
 30
0.0
 11
128.473734
 21
-82.314204
 31
0.0
  0
LINE
  8
0
  6
BYLAYER
 62
     1
 10
128.473734
 20
-82.314204
 30
0.0
 11
128.066577
 21
-83.878031
 31
0.0
  0
LINE
  8
0
  6
BYLAYER
 62
     1
 10
129.693797
 20
-85.315051
 30
0.0
 11
128.961192
 21
-85.315051
 31
0.0
  0
LINE
  8
0
  6
BYLAYER
 62
     1
 10
128.961192
 20
-85.315051
 30
0.0
 11
128.961192
 21
-83.582171
 31
0.0
  0
LINE
  8
0
  6
BYLAYER
 62
     1
 10
128.383570
 20
-85.315051
 30
0.0
 11
128.961192
 21
-83.582171
 31
0.0
  0
LINE
  8
0
  6
BYLAYER
 62
     1
 10
128.383570
 20
-85.315051
 30
0.0
 11
127.749583
 21
-85.315051
 31
0.0
  0
LINE
  8
0
  6
BYLAYER
 62
     1
 10
140.429217
 20
-85.315051
 30
0.0
 11
141.570376
 21
-82.314204
 31
0.0
  0
LINE
  8
0
  6
BYLAYER
 62
     1
 10
140.429217
 20
-85.315051
 30
0.0
 11
141.401324
 21
-85.315051
 31
0.0
  0
LINE
  8
0
  6
BYLAYER
 62
     1
 10
141.570376
 20
-82.314204
 30
0.0
 11
142.500216
 21
-82.314204
 31
0.0
  0
LINE
  8
0
  6
BYLAYER
 62
     1
 10
141.401324
 20
-85.315051
 30
0.0
 11
141.545412
 21
-84.892397
 31
0.0
  0
LINE
  8
0
  6
BYLAYER
 62
     1
 10
141.775942
 20
-84.216151
 30
0.0
 11
142.035296
 21
-83.455370
 31
0.0
  0
LINE
  8
0
  6
BYLAYER
 62
     1
 10
143.641390
 20
-85.315051
 30
0.0
 11
142.500216
 21
-82.314204
 31
0.0
  0
LINE
  8
0
  6
BYLAYER
 62
     1
 10
143.641390
 20
-85.315051
 30
0.0
 11
142.669283
 21
-85.315051
 31
0.0
  0
LINE
  8
0
  6
BYLAYER
 62
     1
 10
142.525195
 20
-84.892397
 30
0.0
 11
141.545412
 21
-84.892397
 31
0.0
  0
LINE
  8
0
  6
BYLAYER
 62
     1
 10
142.294650
 20
-84.216151
 30
0.0
 11
141.775942
 21
-84.216151
 31
0.0
  0
LINE
  8
0
  6
BYLAYER
 62
     1
 10
142.669283
 20
-85.315051
 30
0.0
 11
142.525195
 21
-84.892397
 31
0.0
  0
LINE
  8
0
  6
BYLAYER
 62
     1
 10
142.294650
 20
-84.216151
 30
0.0
 11
142.035296
 21
-83.455370
 31
0.0
  0
LINE
  8
0
  6
BYLAYER
 62
     1
 10
132.863703
 20
-83.053851
 30
0.0
 11
133.709010
 21
-83.053851
 31
0.0
  0
LINE
  8
0
  6
BYLAYER
 62
     1
 10
133.709010
 20
-83.053851
 30
0.0
 11
133.709010
 21
-85.315051
 31
0.0
  0
LINE
  8
0
  6
BYLAYER
 62
     1
 10
133.709010
 20
-85.315051
 30
0.0
 11
134.638857
 21
-85.315051
 31
0.0
  0
LINE
  8
0
  6
BYLAYER
 62
     1
 10
134.638857
 20
-85.315051
 30
0.0
 11
134.638857
 21
-83.053851
 31
0.0
  0
LINE
  8
0
  6
BYLAYER
 62
     1
 10
134.638857
 20
-83.053851
 30
0.0
 11
135.484164
 21
-83.053851
 31
0.0
  0
LINE
  8
0
  6
BYLAYER
 62
     1
 10
135.484164
 20
-83.053851
 30
0.0
 11
135.484164
 21
-82.314204
 31
0.0
  0
LINE
  8
0
  6
BYLAYER
 62
     1
 10
135.484164
 20
-82.314204
 30
0.0
 11
132.863703
 21
-82.314204
 31
0.0
  0
LINE
  8
0
  6
BYLAYER
 62
     1
 10
132.863703
 20
-82.314204
 30
0.0
 11
132.863703
 21
-83.053851
 31
0.0
  0
ARC
  8
0
  6
BYLAYER
 62
     1
 10
136.984583
 20
-83.983867
 30
0.0
 40
1.436850
 50
270.0
 51
308.795693
  0
ARC
  8
0
  6
BYLAYER
 62
     1
 10
136.845519
 20
-83.835764
 30
0.0
 40
1.639484
 50
309.340576
 51
360.000000
  0
ARC
  8
0
  6
BYLAYER
 62
     1
 10
136.845525
 20
-83.835764
 30
0.0
 40
1.639478
 50
0.0
 51
50.659649
  0
ARC
  8
0
  6
BYLAYER
 62
     1
 10
136.984576
 20
-83.687674
 30
0.0
 40
1.436863
 50
51.204489
 51
90.000000
  0
ARC
  8
0
  6
BYLAYER
 62
     1
 10
136.984576
 20
-83.687661
 30
0.0
 40
1.436850
 50
90.0
 51
128.795693
  0
ARC
  8
0
  6
BYLAYER
 62
     1
 10
137.123640
 20
-83.835764
 30
0.0
 40
1.639484
 50
129.340576
 51
180.000000
  0
ARC
  8
0
  6
BYLAYER
 62
     1
 10
137.123634
 20
-83.835764
 30
0.0
 40
1.639478
 50
180.000000
 51
230.659649
  0
ARC
  8
0
  6
BYLAYER
 62
     1
 10
136.984583
 20
-83.983854
 30
0.0
 40
1.436863
 50
231.204489
 51
270.000000
  0
ARC
  8
0
  6
BYLAYER
 62
     1
 10
136.984576
 20
-83.414189
 30
0.0
 40
0.664873
 50
90.0
 51
140.793201
  0
ARC
  8
0
  6
BYLAYER
 62
     1
 10
137.501353
 20
-83.835764
 30
0.0
 40
1.331795
 50
140.793201
 51
180.000000
  0
ARC
  8
0
  6
BYLAYER
 62
     1
 10
137.501336
 20
-83.835764
 30
0.0
 40
1.331778
 50
180.000000
 51
219.207055
  0
ARC
  8
0
  6
BYLAYER
 62
     1
 10
136.984583
 20
-84.257324
 30
0.0
 40
0.664886
 50
219.207055
 51
270.0
  0
ARC
  8
0
  6
BYLAYER
 62
     1
 10
136.984583
 20
-84.257334
 30
0.0
 40
0.664875
 50
270.0
 51
320.793131
  0
ARC
  8
0
  6
BYLAYER
 62
     1
 10
136.467814
 20
-83.835764
 30
0.0
 40
1.331787
 50
320.793131
 51
360.000000
  0
ARC
  8
0
  6
BYLAYER
 62
     1
 10
136.467815
 20
-83.835764
 30
0.0
 40
1.331786
 50
0.0
 51
39.206985
  0
ARC
  8
0
  6
BYLAYER
 62
     1
 10
136.984576
 20
-83.414200
 30
0.0
 40
0.664884
 50
39.206985
 51
90.000000
  0
LINE
  8
0
  6
BYLAYER
 62
     1
 10
143.722384
 20
-85.315051
 30
0.0
 11
143.722384
 21
-82.314204
 31
0.0
  0
LINE
  8
0
  6
BYLAYER
 62
     1
 10
143.722384
 20
-82.314204
 30
0.0
 11
145.582056
 21
-82.314204
 31
0.0
  0
ARC
  8
0
  6
BYLAYER
 62
     1
 10
145.582056
 20
-83.159518
 30
0.0
 40
0.845305
 50
287.134650
 51
450.000006
  0
ARC
  8
0
  6
BYLAYER
 62
     1
 10
145.751124
 20
-84.638804
 30
0.0
 40
0.676247
 50
0.0
 51
83.207557
  0
LINE
  8
0
  6
BYLAYER
 62
     1
 10
146.427370
 20
-84.638804
 30
0.0
 11
146.427370
 21
-85.061457
 31
0.0
  0
ARC
  8
0
  6
BYLAYER
 62
     1
 10
147.103617
 20
-85.061457
 30
0.0
 40
0.676247
 50
180.000000
 51
202.024314
  0
LINE
  8
0
  6
BYLAYER
 62
     1
 10
145.546877
 20
-85.315051
 30
0.0
 11
146.476717
 21
-85.315051
 31
0.0
  0
ARC
  8
0
  6
BYLAYER
 62
     1
 10
146.173777
 20
-85.061457
 30
0.0
 40
0.676247
 50
180.000000
 51
202.024314
  0
LINE
  8
0
  6
BYLAYER
 62
     1
 10
145.497530
 20
-85.061457
 30
0.0
 11
145.497530
 21
-84.723338
 31
0.0
  0
LINE
  8
0
  6
BYLAYER
 62
     1
 10
143.722384
 20
-85.315051
 30
0.0
 11
144.609957
 21
-85.315051
 31
0.0
  0
LINE
  8
0
  6
BYLAYER
 62
     1
 10
144.609957
 20
-85.315051
 30
0.0
 11
144.609957
 21
-84.300684
 31
0.0
  0
LINE
  8
0
  6
BYLAYER
 62
     1
 10
145.074877
 20
-84.300684
 30
0.0
 11
144.609957
 21
-84.300684
 31
0.0
  0
ARC
  8
0
  6
BYLAYER
 62
     1
 10
145.074877
 20
-84.723338
 30
0.0
 40
0.422653
 50
0.0
 51
90.000003
  0
LINE
  8
0
  6
BYLAYER
 62
     1
 10
144.609957
 20
-83.624438
 30
0.0
 11
144.609957
 21
-82.990450
 31
0.0
  0
LINE
  8
0
  6
BYLAYER
 62
     1
 10
144.609957
 20
-82.990450
 30
0.0
 11
145.201670
 21
-82.990450
 31
0.0
  0
LINE
  8
0
  6
BYLAYER
 62
     1
 10
144.609957
 20
-83.624438
 30
0.0
 11
145.201670
 21
-83.624438
 31
0.0
  0
ARC
  8
0
  6
BYLAYER
 62
     1
 10
145.201670
 20
-83.307444
 30
0.0
 40
0.316994
 50
270.0
 51
450.000005
  0
LINE
  8
0
  6
BYLAYER
 62
     1
 10
139.689578
 20
-84.366152
 30
0.0
 11
139.140124
 21
-82.314204
 31
0.0
  0
LINE
  8
0
  6
BYLAYER
 62
     1
 10
139.140124
 20
-82.314204
 30
0.0
 11
138.252551
 21
-82.314204
 31
0.0
  0
LINE
  8
0
  6
BYLAYER
 62
     1
 10
138.252551
 20
-82.314204
 30
0.0
 11
139.182391
 21
-85.315051
 31
0.0
  0
LINE
  8
0
  6
BYLAYER
 62
     1
 10
139.689578
 20
-84.366152
 30
0.0
 11
140.239016
 21
-82.314204
 31
0.0
  0
LINE
  8
0
  6
BYLAYER
 62
     1
 10
140.239016
 20
-82.314204
 30
0.0
 11
141.126589
 21
-82.314204
 31
0.0
  0
LINE
  8
0
  6
BYLAYER
 62
     1
 10
141.126589
 20
-82.314204
 30
0.0
 11
140.196749
 21
-85.315051
 31
0.0
  0
LINE
  8
0
  6
BYLAYER
 62
     1
 10
140.196749
 20
-85.315051
 30
0.0
 11
139.182391
 21
-85.315051
 31
0.0
  0
LINE
  8
0
  6
BYLAYER
 62
     1
 10
146.557711
 20
-85.315051
 30
0.0
 11
147.445284
 21
-85.315051
 31
0.0
  0
LINE
  8
0
  6
BYLAYER
 62
     1
 10
147.445284
 20
-85.315051
 30
0.0
 11
147.445284
 21
-82.314204
 31
0.0
  0
LINE
  8
0
  6
BYLAYER
 62
     1
 10
147.445284
 20
-82.314204
 30
0.0
 11
146.557711
 21
-82.314204
 31
0.0
  0
LINE
  8
0
  6
BYLAYER
 62
     1
 10
146.557711
 20
-82.314204
 30
0.0
 11
146.557711
 21
-85.315051
 31
0.0
  0
ARC
  8
0
  6
BYLAYER
 62
     1
 10
149.114771
 20
-83.983867
 30
0.0
 40
1.436850
 50
270.0
 51
308.795693
  0
ARC
  8
0
  6
BYLAYER
 62
     1
 10
148.975707
 20
-83.835764
 30
0.0
 40
1.639484
 50
309.340576
 51
360.000000
  0
ARC
  8
0
  6
BYLAYER
 62
     1
 10
148.975707
 20
-83.835764
 30
0.0
 40
1.639484
 50
0.0
 51
50.659424
  0
ARC
  8
0
  6
BYLAYER
 62
     1
 10
149.114771
 20
-83.687661
 30
0.0
 40
1.436850
 50
51.204307
 51
90.000000
  0
ARC
  8
0
  6
BYLAYER
 62
     1
 10
149.114771
 20
-83.687661
 30
0.0
 40
1.436850
 50
90.0
 51
128.795693
  0
ARC
  8
0
  6
BYLAYER
 62
     1
 10
149.253835
 20
-83.835764
 30
0.0
 40
1.639484
 50
129.340576
 51
180.000000
  0
ARC
  8
0
  6
BYLAYER
 62
     1
 10
149.253835
 20
-83.835764
 30
0.0
 40
1.639484
 50
180.000000
 51
230.659424
  0
ARC
  8
0
  6
BYLAYER
 62
     1
 10
149.114771
 20
-83.983867
 30
0.0
 40
1.436850
 50
231.204307
 51
270.0
  0
ARC
  8
0
  6
BYLAYER
 62
     1
 10
149.114771
 20
-83.414189
 30
0.0
 40
0.664873
 50
39.206799
 51
90.000000
  0
ARC
  8
0
  6
BYLAYER
 62
     1
 10
148.597994
 20
-83.835764
 30
0.0
 40
1.331795
 50
0.0
 51
39.206799
  0
ARC
  8
0
  6
BYLAYER
 62
     1
 10
148.598002
 20
-83.835764
 30
0.0
 40
1.331787
 50
320.793131
 51
360.000000
  0
ARC
  8
0
  6
BYLAYER
 62
     1
 10
149.114771
 20
-84.257334
 30
0.0
 40
0.664875
 50
270.0
 51
320.793131
  0
ARC
  8
0
  6
BYLAYER
 62
     1
 10
149.114771
 20
-84.257334
 30
0.0
 40
0.664875
 50
219.206869
 51
270.000000
  0
ARC
  8
0
  6
BYLAYER
 62
     1
 10
149.631540
 20
-83.835764
 30
0.0
 40
1.331787
 50
180.000000
 51
219.206869
  0
ARC
  8
0
  6
BYLAYER
 62
     1
 10
149.631548
 20
-83.835764
 30
0.0
 40
1.331795
 50
140.793201
 51
180.000000
  0
ARC
  8
0
  6
BYLAYER
 62
     1
 10
149.114771
 20
-83.414189
 30
0.0
 40
0.664873
 50
90.0
 51
140.793201
  0
ARC
  8
0
  6
BYLAYER
 62
     1
 10
134.128840
 20
-78.878840
 30
0.0
 40
3.714997
 50
174.535650
 51
180.000000
  0
LINE
  8
0
  6
BYLAYER
 62
     1
 10
130.430724
 20
-78.525073
 30
0.0
 11
130.430724
 21
-78.525069
 31
0.0
  0
LINE
  8
0
  6
BYLAYER
 62
     1
 10
130.434766
 20
-78.485107
 30
0.0
 11
130.789318
 21
-78.335836
 31
0.0
  0
ARC
  8
0
  6
BYLAYER
 62
     1
 10
134.128855
 20
-78.878871
 30
0.0
 40
3.383391
 50
159.235383
 51
170.763998
  0
LINE
  8
0
  6
BYLAYER
 62
     1
 10
130.965218
 20
-77.679338
 30
0.0
 11
130.732819
 21
-77.372781
 31
0.0
  0
ARC
  8
0
  6
BYLAYER
 62
     1
 10
134.128840
 20
-78.878840
 30
0.0
 40
3.714993
 50
144.139514
 51
156.083795
  0
LINE
  8
0
  6
BYLAYER
 62
     1
 10
131.093608
 20
-76.736743
 30
0.0
 11
131.093829
 21
-76.736430
 31
0.0
  0
LINE
  8
0
  6
BYLAYER
 62
     1
 10
131.118039
 20
-76.702547
 30
0.0
 11
131.495502
 21
-76.754479
 31
0.0
  0
ARC
  8
0
  6
BYLAYER
 62
     1
 10
134.128840
 20
-78.878840
 30
0.0
 40
3.383370
 50
129.235643
 51
141.105976
  0
LINE
  8
0
  6
BYLAYER
 62
     1
 10
131.933497
 20
-76.304411
 30
0.0
 11
131.933863
 21
-76.304095
 31
0.0
  0
LINE
  8
0
  6
BYLAYER
 62
     1
 10
131.988820
 20
-76.258247
 30
0.0
 11
131.940823
 21
-75.876543
 31
0.0
  0
ARC
  8
0
  6
BYLAYER
 62
     1
 10
134.128840
 20
-78.878840
 30
0.0
 40
3.714997
 50
114.139607
 51
126.083853
  0
LINE
  8
0
  6
BYLAYER
 62
     1
 10
132.571566
 20
-75.505992
 30
0.0
 11
132.571818
 21
-75.505873
 31
0.0
  0
LINE
  8
0
  6
BYLAYER
 62
     1
 10
132.609550
 20
-75.488713
 30
0.0
 11
132.910464
 21
-75.722410
 31
0.0
  0
LINE
  8
0
  6
BYLAYER
 62
     1
 10
132.979266
 20
-75.696749
 30
0.0
 11
132.979647
 21
-75.696616
 31
0.0
  0
ARC
  8
0
  6
BYLAYER
 62
     1
 10
134.128840
 20
-78.878840
 30
0.0
 40
3.383369
 50
99.235601
 51
111.106038
  0
ARC
  8
0
  6
BYLAYER
 62
     1
 10
134.128840
 20
-78.878840
 30
0.0
 40
3.714997
 50
90.0
 51
96.083892
  0
LINE
  8
0
  6
BYLAYER
 62
     1
 10
133.735108
 20
-75.184766
 30
0.0
 11
133.585828
 21
-75.539330
 31
0.0
  0
LINE
  8
0
  6
BYLAYER
 62
     1
 10
137.826952
 20
-78.525073
 30
0.0
 11
137.826952
 21
-78.525069
 31
0.0
  0
LINE
  8
0
  6
BYLAYER
 62
     1
 10
137.822914
 20
-78.485107
 30
0.0
 11
137.468344
 21
-78.335832
 31
0.0
  0
ARC
  8
0
  6
BYLAYER
 62
     1
 10
134.128817
 20
-78.878871
 30
0.0
 40
3.383391
 50
9.235986
 51
20.764650
  0
LINE
  8
0
  6
BYLAYER
 62
     1
 10
137.292479
 20
-77.679303
 30
0.0
 11
137.524862
 21
-77.372782
 31
0.0
  0
ARC
  8
0
  6
BYLAYER
 62
     1
 10
134.128840
 20
-78.878840
 30
0.0
 40
3.714993
 50
23.916189
 51
35.860484
  0
LINE
  8
0
  6
BYLAYER
 62
     1
 10
137.164065
 20
-76.736743
 30
0.0
 11
137.163844
 21
-76.736430
 31
0.0
  0
LINE
  8
0
  6
BYLAYER
 62
     1
 10
137.139641
 20
-76.702547
 30
0.0
 11
136.762205
 21
-76.754474
 31
0.0
  0
ARC
  8
0
  6
BYLAYER
 62
     1
 10
134.128840
 20
-78.878840
 30
0.0
 40
3.383370
 50
38.894050
 51
50.764315
  0
LINE
  8
0
  6
BYLAYER
 62
     1
 10
136.324183
 20
-76.304411
 30
0.0
 11
136.323817
 21
-76.304095
 31
0.0
  0
LINE
  8
0
  6
BYLAYER
 62
     1
 10
136.268870
 20
-76.258185
 30
0.0
 11
136.316849
 21
-75.876537
 31
0.0
  0
ARC
  8
0
  6
BYLAYER
 62
     1
 10
134.128840
 20
-78.878840
 30
0.0
 40
3.714997
 50
53.916300
 51
65.860381
  0
LINE
  8
0
  6
BYLAYER
 62
     1
 10
135.686114
 20
-75.505992
 30
0.0
 11
135.685854
 21
-75.505873
 31
0.0
  0
LINE
  8
0
  6
BYLAYER
 62
     1
 10
135.648131
 20
-75.488714
 30
0.0
 11
135.347219
 21
-75.722400
 31
0.0
  0
LINE
  8
0
  6
BYLAYER
 62
     1
 10
135.278407
 20
-75.696749
 30
0.0
 11
135.278033
 21
-75.696616
 31
0.0
  0
ARC
  8
0
  6
BYLAYER
 62
     1
 10
134.128840
 20
-78.878840
 30
0.0
 40
3.383369
 50
68.894081
 51
80.764578
  0
ARC
  8
0
  6
BYLAYER
 62
     1
 10
134.128840
 20
-78.878840
 30
0.0
 40
3.714997
 50
84.535428
 51
90.000003
  0
LINE
  8
0
  6
BYLAYER
 62
     1
 10
134.522574
 20
-75.184766
 30
0.0
 11
134.671817
 21
-75.539270
 31
0.0
  0
ARC
  8
0
  6
BYLAYER
 62
     1
 10
134.128840
 20
-78.878840
 30
0.0
 40
3.714997
 50
180.000000
 51
186.083899
  0
LINE
  8
0
  6
BYLAYER
 62
     1
 10
130.430724
 20
-79.232604
 30
0.0
 11
130.430724
 21
-79.232611
 31
0.0
  0
LINE
  8
0
  6
BYLAYER
 62
     1
 10
130.434766
 20
-79.272573
 30
0.0
 11
130.789328
 21
-79.421849
 31
0.0
  0
ARC
  8
0
  6
BYLAYER
 62
     1
 10
134.128855
 20
-78.878809
 30
0.0
 40
3.383391
 50
189.236002
 51
200.764629
  0
LINE
  8
0
  6
BYLAYER
 62
     1
 10
130.965230
 20
-80.078327
 30
0.0
 11
130.732817
 21
-80.384896
 31
0.0
  0
ARC
  8
0
  6
BYLAYER
 62
     1
 10
134.128840
 20
-78.878840
 30
0.0
 40
3.714993
 50
203.916158
 51
215.860410
  0
LINE
  8
0
  6
BYLAYER
 62
     1
 10
131.093608
 20
-81.020934
 30
0.0
 11
131.093829
 21
-81.021246
 31
0.0
  0
LINE
  8
0
  6
BYLAYER
 62
     1
 10
131.118036
 20
-81.055129
 30
0.0
 11
131.495534
 21
-81.003198
 31
0.0
  0
ARC
  8
0
  6
BYLAYER
 62
     1
 10
134.128840
 20
-78.878840
 30
0.0
 40
3.383370
 50
218.894045
 51
230.764345
  0
LINE
  8
0
  6
BYLAYER
 62
     1
 10
131.933497
 20
-81.453265
 30
0.0
 11
131.933863
 21
-81.453581
 31
0.0
  0
LINE
  8
0
  6
BYLAYER
 62
     1
 10
131.988820
 20
-81.499433
 30
0.0
 11
131.940823
 21
-81.881137
 31
0.0
  0
ARC
  8
0
  6
BYLAYER
 62
     1
 10
134.128840
 20
-78.878840
 30
0.0
 40
3.714997
 50
233.916148
 51
245.860401
  0
LINE
  8
0
  6
BYLAYER
 62
     1
 10
132.571566
 20
-82.251685
 30
0.0
 11
132.571818
 21
-82.251807
 31
0.0
  0
LINE
  8
0
  6
BYLAYER
 62
     1
 10
132.609550
 20
-82.268967
 30
0.0
 11
132.910500
 21
-82.035237
 31
0.0
  0
LINE
  8
0
  6
BYLAYER
 62
     1
 10
132.979266
 20
-82.060927
 30
0.0
 11
132.979647
 21
-82.061064
 31
0.0
  0
LINE
  8
0
  6
BYLAYER
 62
     1
 10
137.826952
 20
-79.232604
 30
0.0
 11
137.826952
 21
-79.232611
 31
0.0
  0
LINE
  8
0
  6
BYLAYER
 62
     1
 10
137.822913
 20
-79.272573
 30
0.0
 11
137.468344
 21
-79.421848
 31
0.0
  0
LINE
  8
0
  6
BYLAYER
 62
     1
 10
137.292446
 20
-80.078335
 30
0.0
 11
137.524866
 21
-80.384899
 31
0.0
  0
LINE
  8
0
  6
BYLAYER
 62
     1
 10
137.164065
 20
-81.020934
 30
0.0
 11
137.163844
 21
-81.021246
 31
0.0
  0
LINE
  8
0
  6
BYLAYER
 62
     1
 10
137.139648
 20
-81.055130
 30
0.0
 11
136.762125
 21
-81.003196
 31
0.0
  0
LINE
  8
0
  6
BYLAYER
 62
     1
 10
136.324183
 20
-81.453265
 30
0.0
 11
136.323817
 21
-81.453581
 31
0.0
  0
LINE
  8
0
  6
BYLAYER
 62
     1
 10
136.268862
 20
-81.499431
 30
0.0
 11
136.316849
 21
-81.881143
 31
0.0
  0
LINE
  8
0
  6
BYLAYER
 62
     1
 10
135.648131
 20
-82.268967
 30
0.0
 11
135.347174
 21
-82.035240
 31
0.0
  0
ARC
  8
0
  6
BYLAYER
 62
     1
 10
134.128840
 20
-78.878840
 30
0.0
 40
3.383370
 50
309.235697
 51
321.105929
  0
ARC
  8
0
  6
BYLAYER
 62
     1
 10
134.128840
 20
-78.878840
 30
0.0
 40
3.383369
 50
248.893873
 51
270.000000
  0
ARC
  8
0
  6
BYLAYER
 62
     1
 10
134.128840
 20
-78.878840
 30
0.0
 40
3.714997
 50
294.783232
 51
306.083699
  0
LINE
  8
0
  6
BYLAYER
 62
     1
 10
135.685854
 20
-82.251807
 30
0.0
 11
135.648359
 21
-82.269451
 31
0.0
  0
ARC
  8
0
  6
BYLAYER
 62
     1
 10
134.128840
 20
-78.878840
 30
0.0
 40
3.714993
 50
324.139593
 51
336.083825
  0
ARC
  8
0
  6
BYLAYER
 62
     1
 10
134.128817
 20
-78.878809
 30
0.0
 40
3.383391
 50
339.235210
 51
350.764014
  0
ARC
  8
0
  6
BYLAYER
 62
     1
 10
134.128840
 20
-78.878840
 30
0.0
 40
3.714997
 50
353.916089
 51
360.000000
  0
ARC
  8
0
  6
BYLAYER
 62
     1
 10
134.128840
 20
-78.878840
 30
0.0
 40
3.714997
 50
0.0
 51
6.083907
  0
ARC
  8
0
  6
BYLAYER
 62
     1
 10
134.128840
 20
-78.878840
 30
0.0
 40
3.383369
 50
270.0
 51
291.106008
  0
CIRCLE
  8
0
  6
BYLAYER
 62
     1
 10
134.128840
 20
-78.878840
 30
0.0
 40
1.815040
  0
CIRCLE
  8
0
  6
BYLAYER
 62
     1
 10
134.128840
 20
-78.878840
 30
0.0
 40
2.648016
  0
LINE
  8
0
  6
BYLAYER
 62
     1
 10
138.378840
 20
-138.378840
 30
0.0
 11
135.378840
 21
-138.378840
 31
0.0
  0
LINE
  8
0
  6
BYLAYER
 62
     1
 10
138.378840
 20
-138.378840
 30
0.0
 11
138.378840
 21
-141.378840
 31
0.0
  0
LINE
  8
0
  6
BYLAYER
 62
     1
 10
138.378840
 20
-138.378840
 30
0.0
 11
141.378840
 21
-138.378840
 31
0.0
  0
LINE
  8
0
  6
BYLAYER
 62
     1
 10
138.378840
 20
-138.378840
 30
0.0
 11
138.378840
 21
-135.378840
 31
0.0
  0
ARC
  8
0
  6
BYLAYER
 62
     1
 10
171.866331
 20
-113.866844
 30
0.0
 40
2.000000
 50
355.957305
 51
396.203183
  0
LINE
  8
0
  6
BYLAYER
 62
     1
 10
709.878840
 20
-528.378901
 30
0.0
 11
695.878840
 21
-528.378901
 31
0.0
  0
LINE
  8
0
  6
BYLAYER
 62
     1
 10
638.878840
 20
-528.378901
 30
0.0
 11
652.878840
 21
-528.378901
 31
0.0
  0
CIRCLE
  8
0
  6
BYLAYER
 62
     1
 10
644.378840
 20
-423.378840
 30
0.0
 40
3.250001
  0
CIRCLE
  8
0
  6
BYLAYER
 62
     1
 10
704.378840
 20
-423.378840
 30
0.0
 40
3.250001
  0
LINE
  8
0
  6
BYLAYER
 62
     1
 10
709.878840
 20
-503.378840
 30
0.0
 11
708.378840
 21
-501.878871
 31
0.0
  0
LINE
  8
0
  6
BYLAYER
 62
     1
 10
709.878840
 20
-528.378901
 30
0.0
 11
709.878840
 21
-517.743495
 31
0.0
  0
LINE
  8
0
  6
BYLAYER
 62
     1
 10
709.878840
 20
-509.014185
 30
0.0
 11
709.878840
 21
-503.378840
 31
0.0
  0
CIRCLE
  8
0
  6
BYLAYER
 62
     1
 10
674.378840
 20
-438.378840
 30
0.0
 40
20.0
  0
LINE
  8
0
  6
BYLAYER
 62
     1
 10
638.878840
 20
-528.378901
 30
0.0
 11
638.878840
 21
-517.743495
 31
0.0
  0
LINE
  8
0
  6
BYLAYER
 62
     1
 10
638.878840
 20
-509.014185
 30
0.0
 11
638.878840
 21
-503.378840
 31
0.0
  0
LINE
  8
0
  6
BYLAYER
 62
     1
 10
638.878840
 20
-503.378840
 30
0.0
 11
640.378840
 21
-501.878871
 31
0.0
  0
LINE
  8
0
  6
BYLAYER
 62
     1
 10
652.878840
 20
-503.378840
 30
0.0
 11
638.878840
 21
-503.378840
 31
0.0
  0
LINE
  8
0
  6
BYLAYER
 62
     1
 10
695.878840
 20
-501.878871
 30
0.0
 11
708.378840
 21
-501.878871
 31
0.0
  0
LINE
  8
0
  6
BYLAYER
 62
     1
 10
695.878840
 20
-503.378840
 30
0.0
 11
709.878840
 21
-503.378840
 31
0.0
  0
CIRCLE
  8
0
  6
BYLAYER
 62
     1
 10
674.378840
 20
-412.128840
 30
0.0
 40
3.0
  0
CIRCLE
  8
0
  6
BYLAYER
 62
     1
 10
651.645686
 20
-451.503871
 30
0.0
 40
3.0
  0
CIRCLE
  8
0
  6
BYLAYER
 62
     1
 10
697.111994
 20
-451.503871
 30
0.0
 40
3.0
  0
LINE
  8
0
  6
BYLAYER
 62
     1
 10
652.878840
 20
-501.878871
 30
0.0
 11
640.378840
 21
-501.878871
 31
0.0
  0
LINE
  8
0
  6
BYLAYER
 62
     1
 10
638.878840
 20
-521.878871
 30
0.0
 11
637.878840
 21
-521.878871
 31
0.0
  0
LINE
  8
0
  6
BYLAYER
 62
     1
 10
637.878840
 20
-434.878871
 30
0.0
 11
640.378840
 21
-434.878871
 31
0.0
  0
LINE
  8
0
  6
BYLAYER
 62
     1
 10
637.878840
 20
-434.878871
 30
0.0
 11
637.878840
 21
-521.878871
 31
0.0
  0
LINE
  8
0
  6
BYLAYER
 62
     1
 10
695.878840
 20
-456.606989
 30
0.0
 11
695.878840
 21
-528.378901
 31
0.0
  0
LINE
  8
0
  6
BYLAYER
 62
     1
 10
652.878840
 20
-456.606989
 30
0.0
 11
652.878840
 21
-528.378901
 31
0.0
  0
LINE
  8
0
  6
BYLAYER
 62
     1
 10
638.878840
 20
-431.878840
 30
0.0
 11
640.378840
 21
-433.378840
 31
0.0
  0
LINE
  8
0
  6
BYLAYER
 62
     1
 10
638.878840
 20
-431.878840
 30
0.0
 11
638.878840
 21
-406.878840
 31
0.0
  0
LINE
  8
0
  6
BYLAYER
 62
     1
 10
638.878840
 20
-406.878840
 30
0.0
 11
652.878840
 21
-406.878840
 31
0.0
  0
LINE
  8
0
  6
BYLAYER
 62
     1
 10
709.878840
 20
-406.878840
 30
0.0
 11
695.878840
 21
-406.878840
 31
0.0
  0
LINE
  8
0
  6
BYLAYER
 62
     1
 10
709.878840
 20
-431.878840
 30
0.0
 11
709.878840
 21
-406.878840
 31
0.0
  0
LINE
  8
0
  6
BYLAYER
 62
     1
 10
709.878840
 20
-431.878840
 30
0.0
 11
708.378840
 21
-433.378840
 31
0.0
  0
LINE
  8
0
  6
BYLAYER
 62
     1
 10
640.378840
 20
-501.878871
 30
0.0
 11
640.378840
 21
-433.378840
 31
0.0
  0
LINE
  8
0
  6
BYLAYER
 62
     1
 10
708.378840
 20
-501.878871
 30
0.0
 11
708.378840
 21
-433.378840
 31
0.0
  0
LINE
  8
0
  6
BYLAYER
 62
     1
 10
678.053065
 20
-408.378840
 30
0.0
 11
695.878840
 21
-408.378840
 31
0.0
  0
LINE
  8
0
  6
BYLAYER
 62
     1
 10
652.878840
 20
-408.378840
 30
0.0
 11
670.704615
 21
-408.378840
 31
0.0
  0
LINE
  8
0
  6
BYLAYER
 62
     1
 10
635.878871
 20
-448.378871
 30
0.0
 11
635.378871
 21
-448.878871
 31
0.0
  0
LINE
  8
0
  6
BYLAYER
 62
     1
 10
635.878871
 20
-508.378840
 30
0.0
 11
635.378871
 21
-507.878840
 31
0.0
  0
LINE
  8
0
  6
BYLAYER
 62
     1
 10
635.378871
 20
-507.878840
 30
0.0
 11
635.378871
 21
-448.878871
 31
0.0
  0
LINE
  8
0
  6
BYLAYER
 62
     1
 10
635.878871
 20
-508.378840
 30
0.0
 11
637.478846
 21
-508.378840
 31
0.0
  0
ARC
  8
0
  6
BYLAYER
 62
     1
 10
637.478846
 20
-508.778864
 30
0.0
 40
0.399994
 50
0.0
 51
90.000003
  0
LINE
  8
0
  6
BYLAYER
 62
     1
 10
637.478846
 20
-448.378871
 30
0.0
 11
635.878871
 21
-448.378871
 31
0.0
  0
ARC
  8
0
  6
BYLAYER
 62
     1
 10
637.478846
 20
-447.978877
 30
0.0
 40
0.399994
 50
270.0
 51
360.000003
  0
LINE
  8
0
  6
BYLAYER
 62
     1
 10
649.279048
 20
-431.878840
 30
0.0
 11
638.878840
 21
-431.878840
 31
0.0
  0
ARC
  8
0
  6
BYLAYER
 62
     1
 10
649.279048
 20
-433.878840
 30
0.0
 40
2.0
 50
349.835836
 51
450.0
  0
LINE
  8
0
  6
BYLAYER
 62
     1
 10
652.878840
 20
-421.947169
 30
0.0
 11
652.878840
 21
-406.878840
 31
0.0
  0
ARC
  8
0
  6
BYLAYER
 62
     1
 10
654.878840
 20
-421.947169
 30
0.0
 40
2.0
 50
180.000000
 51
319.881004
  0
ARC
  8
0
  6
BYLAYER
 62
     1
 10
674.378840
 20
-438.378840
 30
0.0
 40
23.499983
 50
106.021611
 51
139.880826
  0
ARC
  8
0
  6
BYLAYER
 62
     1
 10
667.340846
 20
-413.869319
 30
0.0
 40
2.000017
 50
286.021521
 51
373.890361
  0
ARC
  8
0
  6
BYLAYER
 62
     1
 10
674.378840
 20
-412.128840
 30
0.0
 40
5.249994
 50
346.109564
 51
553.890434
  0
ARC
  8
0
  6
BYLAYER
 62
     1
 10
681.416804
 20
-413.869319
 30
0.0
 40
1.999985
 50
166.109436
 51
253.979054
  0
ARC
  8
0
  6
BYLAYER
 62
     1
 10
674.378840
 20
-438.378840
 30
0.0
 40
23.499992
 50
40.119172
 51
73.978414
  0
LINE
  8
0
  6
BYLAYER
 62
     1
 10
695.878840
 20
-421.947169
 30
0.0
 11
695.878840
 21
-406.878840
 31
0.0
  0
ARC
  8
0
  6
BYLAYER
 62
     1
 10
693.878840
 20
-421.947169
 30
0.0
 40
2.000005
 50
220.118993
 51
359.999996
  0
LINE
  8
0
  6
BYLAYER
 62
     1
 10
699.478632
 20
-431.878840
 30
0.0
 11
709.878840
 21
-431.878840
 31
0.0
  0
ARC
  8
0
  6
BYLAYER
 62
     1
 10
699.478632
 20
-433.878840
 30
0.0
 40
1.999985
 50
90.0
 51
190.164171
  0
ARC
  8
0
  6
BYLAYER
 62
     1
 10
674.378840
 20
-438.378840
 30
0.0
 40
23.499996
 50
346.021509
 51
370.164259
  0
ARC
  8
0
  6
BYLAYER
 62
     1
 10
699.123683
 20
-444.538538
 30
0.0
 40
1.999987
 50
166.022064
 51
253.891054
  0
ARC
  8
0
  6
BYLAYER
 62
     1
 10
697.111994
 20
-451.503871
 30
0.0
 40
5.250013
 50
226.109533
 51
433.890322
  0
ARC
  8
0
  6
BYLAYER
 62
     1
 10
651.645686
 20
-451.503871
 30
0.0
 40
5.250010
 50
106.109680
 51
313.890468
  0
ARC
  8
0
  6
BYLAYER
 62
     1
 10
674.378840
 20
-438.378840
 30
0.0
 40
23.500008
 50
169.835741
 51
193.978493
  0
ARC
  8
0
  6
BYLAYER
 62
     1
 10
649.633967
 20
-444.538569
 30
0.0
 40
1.999986
 50
286.110040
 51
373.978573
  0
LINE
  8
0
  6
BYLAYER
 62
     1
 10
651.215540
 20
-433.378840
 30
0.0
 11
640.378840
 21
-433.378840
 31
0.0
  0
LINE
  8
0
  6
BYLAYER
 62
     1
 10
708.378840
 20
-433.378840
 30
0.0
 11
697.542170
 21
-433.378840
 31
0.0
  0
ARC
  8
0
  6
BYLAYER
 62
     1
 10
639.878840
 20
-509.014185
 30
0.0
 40
1.0
 50
180.000000
 51
267.938986
  0
ARC
  8
0
  6
BYLAYER
 62
     1
 10
704.378840
 20
-513.378840
 30
0.0
 40
3.2
 50
92.061012
 51
267.938984
  0
LINE
  8
0
  6
BYLAYER
 62
     1
 10
708.914790
 20
-510.013545
 30
0.0
 11
704.263758
 21
-510.180903
 31
0.0
  0
LINE
  8
0
  6
BYLAYER
 62
     1
 10
708.914790
 20
-516.744135
 30
0.0
 11
704.263758
 21
-516.576777
 31
0.0
  0
ARC
  8
0
  6
BYLAYER
 62
     1
 10
644.378840
 20
-513.378840
 30
0.0
 40
3.2
 50
272.061014
 51
447.938986
  0
LINE
  8
0
  6
BYLAYER
 62
     1
 10
639.842890
 20
-510.013545
 30
0.0
 11
644.493922
 21
-510.180903
 31
0.0
  0
LINE
  8
0
  6
BYLAYER
 62
     1
 10
639.842890
 20
-516.744135
 30
0.0
 11
644.493922
 21
-516.576777
 31
0.0
  0
ARC
  8
0
  6
BYLAYER
 62
     1
 10
639.878840
 20
-517.743495
 30
0.0
 40
1.0
 50
92.061012
 51
179.999998
  0
ARC
  8
0
  6
BYLAYER
 62
     1
 10
708.878840
 20
-509.014185
 30
0.0
 40
1.0
 50
272.061014
 51
360.000000
  0
ARC
  8
0
  6
BYLAYER
 62
     1
 10
708.878840
 20
-517.743495
 30
0.0
 40
1.0
 50
0.0
 51
87.938986
  0
LINE
  8
0
  6
BYLAYER
 62
     1
 10
709.878840
 20
-521.878871
 30
0.0
 11
710.878840
 21
-521.878871
 31
0.0
  0
LINE
  8
0
  6
BYLAYER
 62
     1
 10
710.878840
 20
-434.878871
 30
0.0
 11
708.378840
 21
-434.878871
 31
0.0
  0
LINE
  8
0
  6
BYLAYER
 62
     1
 10
710.878840
 20
-434.878871
 30
0.0
 11
710.878840
 21
-521.878871
 31
0.0
  0
LINE
  8
0
  6
BYLAYER
 62
     1
 10
712.878779
 20
-448.378871
 30
0.0
 11
713.378779
 21
-448.878871
 31
0.0
  0
LINE
  8
0
  6
BYLAYER
 62
     1
 10
712.878779
 20
-508.378840
 30
0.0
 11
713.378779
 21
-507.878840
 31
0.0
  0
LINE
  8
0
  6
BYLAYER
 62
     1
 10
713.378779
 20
-507.878840
 30
0.0
 11
713.378779
 21
-448.878871
 31
0.0
  0
LINE
  8
0
  6
BYLAYER
 62
     1
 10
712.878779
 20
-508.378840
 30
0.0
 11
711.278803
 21
-508.378840
 31
0.0
  0
ARC
  8
0
  6
BYLAYER
 62
     1
 10
711.278803
 20
-508.778864
 30
0.0
 40
0.399994
 50
90.0
 51
180.000003
  0
LINE
  8
0
  6
BYLAYER
 62
     1
 10
711.278803
 20
-448.378871
 30
0.0
 11
712.878779
 21
-448.378871
 31
0.0
  0
ARC
  8
0
  6
BYLAYER
 62
     1
 10
711.278803
 20
-447.978877
 30
0.0
 40
0.399994
 50
180.000000
 51
270.000003
  0
LINE
  8
0
  6
BYLAYER
 62
     1
 10
652.878840
 20
-526.378840
 30
0.0
 11
695.878840
 21
-526.378840
 31
0.0
  0
ARC
  8
0
  6
BYLAYER
 62
     1
 10
674.378840
 20
-438.378840
 30
0.0
 40
23.499996
 50
226.021628
 51
313.978359
  0
ARC
  8
0
  6
BYLAYER
 62
     1
 10
656.671992
 20
-456.728694
 30
0.0
 40
1.999988
 50
46.021938
 51
133.890873
  0
ARC
  8
0
  6
BYLAYER
 62
     1
 10
692.085688
 20
-456.728694
 30
0.0
 40
1.999997
 50
46.109125
 51
133.978067
  0
LINE
  8
0
  6
BYLAYER
 62
     1
 10
188.378886
 20
-402.878886
 30
0.0
 11
188.378886
 21
-416.878825
 31
0.0
  0
LINE
  8
0
  6
BYLAYER
 62
     1
 10
188.378886
 20
-473.878840
 30
0.0
 11
188.378886
 21
-459.878840
 31
0.0
  0
LINE
  8
0
  6
BYLAYER
 62
     1
 10
163.378855
 20
-402.878886
 30
0.0
 11
161.878855
 21
-404.378886
 31
0.0
  0
LINE
  8
0
  6
BYLAYER
 62
     1
 10
188.378886
 20
-402.878886
 30
0.0
 11
163.378855
 21
-402.878886
 31
0.0
  0
LINE
  8
0
  6
BYLAYER
 62
     1
 10
188.378886
 20
-473.878840
 30
0.0
 11
163.378855
 21
-473.878840
 31
0.0
  0
LINE
  8
0
  6
BYLAYER
 62
     1
 10
163.378855
 20
-473.878840
 30
0.0
 11
161.878855
 21
-472.378840
 31
0.0
  0
CIRCLE
  8
0
  6
BYLAYER
 62
     1
 10
173.378855
 20
-408.378886
 30
0.0
 40
3.250001
  0
CIRCLE
  8
0
  6
BYLAYER
 62
     1
 10
173.378855
 20
-468.378840
 30
0.0
 40
3.250001
  0
LINE
  8
0
  6
BYLAYER
 62
     1
 10
163.378855
 20
-416.878825
 30
0.0
 11
163.378855
 21
-402.878886
 31
0.0
  0
LINE
  8
0
  6
BYLAYER
 62
     1
 10
163.378855
 20
-459.878840
 30
0.0
 11
163.378855
 21
-473.878840
 31
0.0
  0
LINE
  8
0
  6
BYLAYER
 62
     1
 10
113.378825
 20
-402.878886
 30
0.0
 11
114.878825
 21
-404.378886
 31
0.0
  0
LINE
  8
0
  6
BYLAYER
 62
     1
 10
88.378825
 20
-402.878886
 30
0.0
 11
113.378825
 21
-402.878886
 31
0.0
  0
LINE
  8
0
  6
BYLAYER
 62
     1
 10
88.378825
 20
-473.878840
 30
0.0
 11
113.378825
 21
-473.878840
 31
0.0
  0
LINE
  8
0
  6
BYLAYER
 62
     1
 10
113.378825
 20
-473.878840
 30
0.0
 11
114.878825
 21
-472.378840
 31
0.0
  0
CIRCLE
  8
0
  6
BYLAYER
 62
     1
 10
103.378825
 20
-408.378886
 30
0.0
 40
3.250001
  0
CIRCLE
  8
0
  6
BYLAYER
 62
     1
 10
103.378825
 20
-468.378840
 30
0.0
 40
3.250001
  0
LINE
  8
0
  6
BYLAYER
 62
     1
 10
113.378825
 20
-416.878825
 30
0.0
 11
113.378825
 21
-402.878886
 31
0.0
  0
LINE
  8
0
  6
BYLAYER
 62
     1
 10
113.378825
 20
-459.878840
 30
0.0
 11
113.378825
 21
-473.878840
 31
0.0
  0
LINE
  8
0
  6
BYLAYER
 62
     1
 10
161.878855
 20
-404.378886
 30
0.0
 11
114.878825
 21
-404.378886
 31
0.0
  0
LINE
  8
0
  6
BYLAYER
 62
     1
 10
161.878855
 20
-472.378840
 30
0.0
 11
114.878825
 21
-472.378840
 31
0.0
  0
LINE
  8
0
  6
BYLAYER
 62
     1
 10
189.378886
 20
-471.878840
 30
0.0
 11
189.378886
 21
-404.878825
 31
0.0
  0
LINE
  8
0
  6
BYLAYER
 62
     1
 10
189.378886
 20
-471.878840
 30
0.0
 11
188.378886
 21
-471.913752
 31
0.0
  0
LINE
  8
0
  6
BYLAYER
 62
     1
 10
189.378886
 20
-404.878825
 30
0.0
 11
188.378886
 21
-404.843913
 31
0.0
  0
LINE
  8
0
  6
BYLAYER
 62
     1
 10
88.378825
 20
-473.878840
 30
0.0
 11
88.378825
 21
-402.878886
 31
0.0
  0
ARC
  8
0
  6
BYLAYER
 62
     1
 10
173.378886
 20
-417.878825
 30
0.0
 40
1.000000
 50
0.0
 51
90.000016
  0
ARC
  8
0
  6
BYLAYER
 62
     1
 10
173.378886
 20
-458.878840
 30
0.0
 40
1.0
 50
270.0
 51
359.999982
  0
LINE
  8
0
  6
BYLAYER
 62
     1
 10
188.378886
 20
-416.878825
 30
0.0
 11
88.378947
 21
-416.878825
 31
0.0
  0
LINE
  8
0
  6
BYLAYER
 62
     1
 10
188.378886
 20
-459.878840
 30
0.0
 11
88.378947
 21
-459.878840
 31
0.0
  0
ARC
  8
0
  6
BYLAYER
 62
     1
 10
103.378947
 20
-417.878825
 30
0.0
 40
1.000000
 50
90.0
 51
180.000016
  0
ARC
  8
0
  6
BYLAYER
 62
     1
 10
103.378947
 20
-458.878840
 30
0.0
 40
1.000000
 50
180.000000
 51
269.999982
  0
LINE
  8
0
  6
BYLAYER
 62
     1
 10
161.878855
 20
-459.878840
 30
0.0
 11
161.878855
 21
-472.378840
 31
0.0
  0
LINE
  8
0
  6
BYLAYER
 62
     1
 10
114.878825
 20
-459.878840
 30
0.0
 11
114.878825
 21
-472.378840
 31
0.0
  0
LINE
  8
0
  6
BYLAYER
 62
     1
 10
161.878855
 20
-416.878825
 30
0.0
 11
161.878855
 21
-404.378886
 31
0.0
  0
LINE
  8
0
  6
BYLAYER
 62
     1
 10
114.878825
 20
-416.878825
 30
0.0
 11
114.878825
 21
-404.378886
 31
0.0
  0
LINE
  8
0
  6
BYLAYER
 62
     1
 10
174.378886
 20
-455.378840
 30
0.0
 11
174.378886
 21
-458.878840
 31
0.0
  0
LINE
  8
0
  6
BYLAYER
 62
     1
 10
94.878855
 20
-401.878855
 30
0.0
 11
181.878855
 21
-401.878855
 31
0.0
  0
LINE
  8
0
  6
BYLAYER
 62
     1
 10
94.878855
 20
-401.878855
 30
0.0
 11
94.878855
 21
-402.878916
 31
0.0
  0
LINE
  8
0
  6
BYLAYER
 62
     1
 10
181.878855
 20
-401.878855
 30
0.0
 11
181.878855
 21
-402.878886
 31
0.0
  0
LINE
  8
0
  6
BYLAYER
 62
     1
 10
188.378871
 20
-406.318827
 30
0.0
 11
188.378871
 21
-404.378886
 31
0.0
  0
LINE
  8
0
  6
BYLAYER
 62
     1
 10
188.378871
 20
-470.438868
 30
0.0
 11
188.378871
 21
-472.378809
 31
0.0
  0
LINE
  8
0
  6
BYLAYER
 62
     1
 10
174.378886
 20
-445.378840
 30
0.0
 11
166.378886
 21
-445.378840
 31
0.0
  0
LINE
  8
0
  6
BYLAYER
 62
     1
 10
166.378886
 20
-447.378840
 30
0.0
 11
174.378886
 21
-447.378840
 31
0.0
  0
LINE
  8
0
  6
BYLAYER
 62
     1
 10
166.378886
 20
-429.378840
 30
0.0
 11
174.378886
 21
-429.378840
 31
0.0
  0
LINE
  8
0
  6
BYLAYER
 62
     1
 10
174.378886
 20
-431.378840
 30
0.0
 11
166.378886
 21
-431.378840
 31
0.0
  0
LINE
  8
0
  6
BYLAYER
 62
     1
 10
168.378855
 20
-399.878886
 30
0.0
 11
167.878855
 21
-399.378886
 31
0.0
  0
LINE
  8
0
  6
BYLAYER
 62
     1
 10
108.378825
 20
-399.878886
 30
0.0
 11
108.878825
 21
-399.378886
 31
0.0
  0
LINE
  8
0
  6
BYLAYER
 62
     1
 10
108.878825
 20
-399.378886
 30
0.0
 11
167.878855
 21
-399.378886
 31
0.0
  0
LINE
  8
0
  6
BYLAYER
 62
     1
 10
108.378825
 20
-401.478861
 30
0.0
 11
108.378825
 21
-399.878886
 31
0.0
  0
ARC
  8
0
  6
BYLAYER
 62
     1
 10
107.978823
 20
-401.478861
 30
0.0
 40
0.399994
 50
270.0
 51
360.000003
  0
LINE
  8
0
  6
BYLAYER
 62
     1
 10
168.378855
 20
-399.878886
 30
0.0
 11
168.378855
 21
-401.478861
 31
0.0
  0
ARC
  8
0
  6
BYLAYER
 62
     1
 10
168.778849
 20
-401.478861
 30
0.0
 40
0.399994
 50
180.000000
 51
269.999996
  0
LINE
  8
0
  6
BYLAYER
 62
     1
 10
174.378886
 20
-453.378840
 30
0.0
 11
174.378886
 21
-447.378840
 31
0.0
  0
LINE
  8
0
  6
BYLAYER
 62
     1
 10
174.378886
 20
-445.378840
 30
0.0
 11
174.378886
 21
-439.378840
 31
0.0
  0
LINE
  8
0
  6
BYLAYER
 62
     1
 10
174.378886
 20
-437.378840
 30
0.0
 11
174.378886
 21
-431.378840
 31
0.0
  0
LINE
  8
0
  6
BYLAYER
 62
     1
 10
174.378886
 20
-429.378840
 30
0.0
 11
174.378886
 21
-423.378825
 31
0.0
  0
LINE
  8
0
  6
BYLAYER
 62
     1
 10
174.378886
 20
-421.378825
 30
0.0
 11
174.378886
 21
-417.878825
 31
0.0
  0
LINE
  8
0
  6
BYLAYER
 62
     1
 10
102.378947
 20
-458.878840
 30
0.0
 11
102.378947
 21
-455.378840
 31
0.0
  0
LINE
  8
0
  6
BYLAYER
 62
     1
 10
102.378947
 20
-453.378840
 30
0.0
 11
102.378947
 21
-447.378840
 31
0.0
  0
LINE
  8
0
  6
BYLAYER
 62
     1
 10
102.378947
 20
-445.378840
 30
0.0
 11
102.378947
 21
-439.378840
 31
0.0
  0
LINE
  8
0
  6
BYLAYER
 62
     1
 10
102.378947
 20
-437.378840
 30
0.0
 11
102.378947
 21
-431.378840
 31
0.0
  0
LINE
  8
0
  6
BYLAYER
 62
     1
 10
102.378947
 20
-429.378840
 30
0.0
 11
102.378947
 21
-423.378825
 31
0.0
  0
LINE
  8
0
  6
BYLAYER
 62
     1
 10
102.378947
 20
-421.378825
 30
0.0
 11
102.378947
 21
-417.878825
 31
0.0
  0
LINE
  8
0
  6
BYLAYER
 62
     1
 10
174.378886
 20
-437.378840
 30
0.0
 11
167.153880
 21
-437.378840
 31
0.0
  0
LINE
  8
0
  6
BYLAYER
 62
     1
 10
174.378886
 20
-439.378840
 30
0.0
 11
167.153880
 21
-439.378840
 31
0.0
  0
LINE
  8
0
  6
BYLAYER
 62
     1
 10
94.878855
 20
-474.878825
 30
0.0
 11
181.878855
 21
-474.878825
 31
0.0
  0
LINE
  8
0
  6
BYLAYER
 62
     1
 10
94.878855
 20
-474.878825
 30
0.0
 11
94.878855
 21
-473.878764
 31
0.0
  0
LINE
  8
0
  6
BYLAYER
 62
     1
 10
181.878855
 20
-474.878825
 30
0.0
 11
181.878855
 21
-473.878794
 31
0.0
  0
LINE
  8
0
  6
BYLAYER
 62
     1
 10
168.378855
 20
-476.878794
 30
0.0
 11
167.878855
 21
-477.378794
 31
0.0
  0
LINE
  8
0
  6
BYLAYER
 62
     1
 10
108.378825
 20
-476.878794
 30
0.0
 11
108.878825
 21
-477.378794
 31
0.0
  0
LINE
  8
0
  6
BYLAYER
 62
     1
 10
108.878825
 20
-477.378794
 30
0.0
 11
167.878855
 21
-477.378794
 31
0.0
  0
LINE
  8
0
  6
BYLAYER
 62
     1
 10
108.378825
 20
-475.278819
 30
0.0
 11
108.378825
 21
-476.878794
 31
0.0
  0
ARC
  8
0
  6
BYLAYER
 62
     1
 10
107.978823
 20
-475.278819
 30
0.0
 40
0.399994
 50
0.0
 51
90.000003
  0
LINE
  8
0
  6
BYLAYER
 62
     1
 10
168.378855
 20
-476.878794
 30
0.0
 11
168.378855
 21
-475.278819
 31
0.0
  0
ARC
  8
0
  6
BYLAYER
 62
     1
 10
168.778849
 20
-475.278819
 30
0.0
 40
0.399994
 50
90.0
 51
179.999996
  0
LINE
  8
0
  6
BYLAYER
 62
     1
 10
118.378855
 20
-421.378825
 30
0.0
 11
102.378947
 21
-421.378825
 31
0.0
  0
LINE
  8
0
  6
BYLAYER
 62
     1
 10
118.378855
 20
-423.378825
 30
0.0
 11
102.378947
 21
-423.378825
 31
0.0
  0
LINE
  8
0
  6
BYLAYER
 62
     1
 10
118.378855
 20
-453.378840
 30
0.0
 11
102.378947
 21
-453.378840
 31
0.0
  0
LINE
  8
0
  6
BYLAYER
 62
     1
 10
118.378855
 20
-455.378840
 30
0.0
 11
102.378947
 21
-455.378840
 31
0.0
  0
LINE
  8
0
  6
BYLAYER
 62
     1
 10
174.378886
 20
-423.378825
 30
0.0
 11
153.378855
 21
-423.378825
 31
0.0
  0
LINE
  8
0
  6
BYLAYER
 62
     1
 10
174.378886
 20
-421.378825
 30
0.0
 11
153.378855
 21
-421.378825
 31
0.0
  0
LINE
  8
0
  6
BYLAYER
 62
     1
 10
174.378886
 20
-453.378840
 30
0.0
 11
153.378855
 21
-453.378840
 31
0.0
  0
LINE
  8
0
  6
BYLAYER
 62
     1
 10
174.378886
 20
-455.378840
 30
0.0
 11
153.378855
 21
-455.378840
 31
0.0
  0
LINE
  8
0
  6
BYLAYER
 62
     1
 10
115.378855
 20
-429.378840
 30
0.0
 11
102.378947
 21
-429.378840
 31
0.0
  0
LINE
  8
0
  6
BYLAYER
 62
     1
 10
115.378855
 20
-431.378840
 30
0.0
 11
102.378947
 21
-431.378840
 31
0.0
  0
LINE
  8
0
  6
BYLAYER
 62
     1
 10
115.378855
 20
-445.378840
 30
0.0
 11
102.378947
 21
-445.378840
 31
0.0
  0
LINE
  8
0
  6
BYLAYER
 62
     1
 10
115.378855
 20
-447.378840
 30
0.0
 11
102.378947
 21
-447.378840
 31
0.0
  0
LINE
  8
0
  6
BYLAYER
 62
     1
 10
102.378947
 20
-437.378840
 30
0.0
 11
118.378855
 21
-437.378840
 31
0.0
  0
LINE
  8
0
  6
BYLAYER
 62
     1
 10
118.378855
 20
-439.378840
 30
0.0
 11
102.378947
 21
-439.378840
 31
0.0
  0
ARC
  8
0
  6
BYLAYER
 62
     1
 10
118.378855
 20
-454.378840
 30
0.0
 40
1.0
 50
270.0
 51
449.999991
  0
ARC
  8
0
  6
BYLAYER
 62
     1
 10
115.378855
 20
-446.378840
 30
0.0
 40
1.0
 50
270.0
 51
449.999991
  0
ARC
  8
0
  6
BYLAYER
 62
     1
 10
118.378855
 20
-438.378840
 30
0.0
 40
1.0
 50
270.0
 51
449.999991
  0
ARC
  8
0
  6
BYLAYER
 62
     1
 10
118.378855
 20
-422.378825
 30
0.0
 40
1.000000
 50
270.0
 51
449.999991
  0
ARC
  8
0
  6
BYLAYER
 62
     1
 10
115.378855
 20
-430.378840
 30
0.0
 40
1.0
 50
270.0
 51
449.999991
  0
ARC
  8
0
  6
BYLAYER
 62
     1
 10
158.378916
 20
-438.378840
 30
0.0
 40
8.000003
 50
12.839535
 51
347.160356
  0
CIRCLE
  8
0
  6
BYLAYER
 62
     1
 10
158.378916
 20
-438.378840
 30
0.0
 40
4.25
  0
ARC
  8
0
  6
BYLAYER
 62
     1
 10
153.378855
 20
-454.378840
 30
0.0
 40
1.0
 50
90.0
 51
270.000005
  0
ARC
  8
0
  6
BYLAYER
 62
     1
 10
166.378886
 20
-446.378840
 30
0.0
 40
1.0
 50
90.0
 51
270.000005
  0
ARC
  8
0
  6
BYLAYER
 62
     1
 10
167.153880
 20
-440.378840
 30
0.0
 40
1.0
 50
90.0
 51
167.160818
  0
ARC
  8
0
  6
BYLAYER
 62
     1
 10
167.153880
 20
-436.378840
 30
0.0
 40
0.999996
 50
192.840037
 51
269.999998
  0
ARC
  8
0
  6
BYLAYER
 62
     1
 10
153.378855
 20
-422.378825
 30
0.0
 40
1.0
 50
90.0
 51
270.000005
  0
ARC
  8
0
  6
BYLAYER
 62
     1
 10
166.378886
 20
-430.378840
 30
0.0
 40
1.0
 50
90.0
 51
270.000005
  0
LINE
  8
0
  6
BYLAYER
 62
     1
 10
189.453669
 20
-130.128932
 30
0.0
 11
189.378840
 21
-130.203791
 31
0.0
  0
LINE
  8
0
  6
BYLAYER
 62
     1
 10
189.378840
 20
-98.378840
 30
0.0
 11
189.378840
 21
-132.129054
 31
0.0
  0
LINE
  8
0
  6
BYLAYER
 62
     1
 10
189.967707
 20
-132.380580
 30
0.0
 11
198.093134
 21
-145.903590
 31
0.0
  0
ARC
  8
0
  6
BYLAYER
 62
     1
 10
196.378840
 20
-146.933680
 30
0.0
 40
1.999957
 50
0.0
 51
30.999889
  0
ARC
  8
0
  6
BYLAYER
 62
     1
 10
200.378840
 20
-165.957179
 30
0.0
 40
2.0
 50
180.000000
 51
267.000764
  0
LINE
  8
0
  6
BYLAYER
 62
     1
 10
198.378840
 20
-98.378840
 30
0.0
 11
198.378840
 21
-161.399226
 31
0.0
  0
LINE
  8
0
  6
BYLAYER
 62
     1
 10
198.378840
 20
-161.683741
 30
0.0
 11
198.378840
 21
-165.957148
 31
0.0
  0
ARC
  8
0
  6
BYLAYER
 62
     1
 10
196.378840
 20
-161.683741
 30
0.0
 40
2.000000
 50
0.0
 51
16.193620
  0
ARC
  8
0
  6
BYLAYER
 62
     1
 10
189.539118
 20
-132.638087
 30
0.0
 40
0.499978
 50
36.734209
 51
87.012027
  0
ARC
  8
0
  6
BYLAYER
 62
     1
 10
189.539118
 20
-132.638087
 30
0.0
 40
0.499983
 50
30.998540
 51
36.734209
  0
LINE
  8
0
  6
BYLAYER
 62
     1
 10
189.985652
 20
-132.496913
 30
0.0
 11
198.299494
 21
-161.125971
 31
0.0
  0
LINE
  8
0
  6
BYLAYER
 62
     1
 10
189.378840
 20
-132.129054
 30
0.0
 11
189.531580
 21
-132.137019
 31
0.0
  0
ARC
  8
0
  6
BYLAYER
 62
     1
 10
189.505488
 20
-132.636347
 30
0.0
 40
0.499999
 50
16.192782
 51
87.008716
  0
LINE
  8
0
  6
BYLAYER
 62
     1
 10
200.274226
 20
-167.954371
 30
0.0
 11
208.378840
 21
-168.379066
 31
0.0
  0
LINE
  8
0
  6
BYLAYER
 62
     1
 10
208.378840
 20
-168.379066
 30
0.0
 11
208.378840
 21
-98.379023
 31
0.0
  0
LINE
  8
0
  6
BYLAYER
 62
     1
 10
189.453669
 20
-66.628748
 30
0.0
 11
189.378840
 21
-66.553889
 31
0.0
  0
LINE
  8
0
  6
BYLAYER
 62
     1
 10
189.378840
 20
-98.378840
 30
0.0
 11
189.378840
 21
-64.628626
 31
0.0
  0
LINE
  8
0
  6
BYLAYER
 62
     1
 10
189.967707
 20
-64.377100
 30
0.0
 11
198.093134
 21
-50.854090
 31
0.0
  0
ARC
  8
0
  6
BYLAYER
 62
     1
 10
196.378840
 20
-49.824000
 30
0.0
 40
1.999957
 50
329.000111
 51
360.000000
  0
ARC
  8
0
  6
BYLAYER
 62
     1
 10
200.378840
 20
-30.800501
 30
0.0
 40
2.0
 50
92.999236
 51
180.000000
  0
LINE
  8
0
  6
BYLAYER
 62
     1
 10
198.378840
 20
-98.378840
 30
0.0
 11
198.378840
 21
-35.358454
 31
0.0
  0
LINE
  8
0
  6
BYLAYER
 62
     1
 10
198.378840
 20
-35.073939
 30
0.0
 11
198.378840
 21
-30.800532
 31
0.0
  0
ARC
  8
0
  6
BYLAYER
 62
     1
 10
196.378840
 20
-35.073939
 30
0.0
 40
2.000000
 50
343.806380
 51
360.000000
  0
ARC
  8
0
  6
BYLAYER
 62
     1
 10
189.539118
 20
-64.119593
 30
0.0
 40
0.499978
 50
272.987973
 51
323.265791
  0
ARC
  8
0
  6
BYLAYER
 62
     1
 10
189.539118
 20
-64.119593
 30
0.0
 40
0.499983
 50
323.265791
 51
329.001460
  0
LINE
  8
0
  6
BYLAYER
 62
     1
 10
189.985652
 20
-64.260767
 30
0.0
 11
198.299494
 21
-35.631709
 31
0.0
  0
LINE
  8
0
  6
BYLAYER
 62
     1
 10
189.378840
 20
-64.628626
 30
0.0
 11
189.531580
 21
-64.620661
 31
0.0
  0
ARC
  8
0
  6
BYLAYER
 62
     1
 10
189.505488
 20
-64.121333
 30
0.0
 40
0.499999
 50
272.991284
 51
343.807218
  0
LINE
  8
0
  6
BYLAYER
 62
     1
 10
200.274226
 20
-28.803309
 30
0.0
 11
208.378840
 21
-28.378614
 31
0.0
  0
LINE
  8
0
  6
BYLAYER
 62
     1
 10
208.378840
 20
-28.378614
 30
0.0
 11
208.378840
 21
-98.378657
 31
0.0
  0
LINE
  8
0
  6
BYLAYER
 62
     1
 10
638.878901
 20
-188.378901
 30
0.0
 11
652.878840
 21
-188.378901
 31
0.0
  0
LINE
  8
0
  6
BYLAYER
 62
     1
 10
709.878855
 20
-188.378901
 30
0.0
 11
695.878855
 21
-188.378901
 31
0.0
  0
LINE
  8
0
  6
BYLAYER
 62
     1
 10
638.878901
 20
-163.378840
 30
0.0
 11
640.378901
 21
-161.878871
 31
0.0
  0
LINE
  8
0
  6
BYLAYER
 62
     1
 10
638.878901
 20
-188.378901
 30
0.0
 11
638.878901
 21
-177.743495
 31
0.0
  0
LINE
  8
0
  6
BYLAYER
 62
     1
 10
638.878901
 20
-169.014185
 30
0.0
 11
638.878901
 21
-163.378840
 31
0.0
  0
LINE
  8
0
  6
BYLAYER
 62
     1
 10
709.878855
 20
-188.378901
 30
0.0
 11
709.878855
 21
-177.754542
 31
0.0
  0
LINE
  8
0
  6
BYLAYER
 62
     1
 10
709.878855
 20
-169.003138
 30
0.0
 11
709.878855
 21
-163.378840
 31
0.0
  0
LINE
  8
0
  6
BYLAYER
 62
     1
 10
709.878855
 20
-163.378840
 30
0.0
 11
708.378855
 21
-161.878871
 31
0.0
  0
LINE
  8
0
  6
BYLAYER
 62
     1
 10
652.878840
 20
-164.995279
 30
0.0
 11
652.878840
 21
-188.378901
 31
0.0
  0
LINE
  8
0
  6
BYLAYER
 62
     1
 10
695.878855
 20
-164.995274
 30
0.0
 11
695.878855
 21
-188.378901
 31
0.0
  0
LINE
  8
0
  6
BYLAYER
 62
     1
 10
648.398078
 20
-163.378840
 30
0.0
 11
638.878901
 21
-163.378840
 31
0.0
  0
LINE
  8
0
  6
BYLAYER
 62
     1
 10
700.359602
 20
-163.378840
 30
0.0
 11
709.878855
 21
-163.378840
 31
0.0
  0
LINE
  8
0
  6
BYLAYER
 62
     1
 10
703.836371
 20
-161.878871
 30
0.0
 11
708.378855
 21
-161.878871
 31
0.0
  0
LINE
  8
0
  6
BYLAYER
 62
     1
 10
644.921309
 20
-161.878871
 30
0.0
 11
640.378901
 21
-161.878871
 31
0.0
  0
LINE
  8
0
  6
BYLAYER
 62
     1
 10
709.878855
 20
-181.878871
 30
0.0
 11
710.878855
 21
-181.878871
 31
0.0
  0
LINE
  8
0
  6
BYLAYER
 62
     1
 10
710.878855
 20
-158.109476
 30
0.0
 11
710.878855
 21
-181.878871
 31
0.0
  0
LINE
  8
0
  6
BYLAYER
 62
     1
 10
640.378901
 20
-161.878871
 30
0.0
 11
640.378901
 21
-159.567108
 31
0.0
  0
LINE
  8
0
  6
BYLAYER
 62
     1
 10
708.378855
 20
-161.878871
 30
0.0
 11
708.378855
 21
-159.567066
 31
0.0
  0
LINE
  8
0
  6
BYLAYER
 62
     1
 10
712.878855
 20
-168.378840
 30
0.0
 11
713.378855
 21
-167.878840
 31
0.0
  0
LINE
  8
0
  6
BYLAYER
 62
     1
 10
713.378855
 20
-167.878840
 30
0.0
 11
713.378855
 21
-156.507996
 31
0.0
  0
LINE
  8
0
  6
BYLAYER
 62
     1
 10
712.878855
 20
-168.378840
 30
0.0
 11
711.278880
 21
-168.378840
 31
0.0
  0
ARC
  8
0
  6
BYLAYER
 62
     1
 10
711.278880
 20
-168.778864
 30
0.0
 40
0.400024
 50
90.0
 51
180.000003
  0
ARC
  8
0
  6
BYLAYER
 62
     1
 10
639.878901
 20
-169.014185
 30
0.0
 40
1.0
 50
180.000000
 51
267.938986
  0
ARC
  8
0
  6
BYLAYER
 62
     1
 10
704.378916
 20
-173.378840
 30
0.0
 40
3.200000
 50
92.061012
 51
267.938984
  0
LINE
  8
0
  6
BYLAYER
 62
     1
 10
708.914866
 20
-170.013545
 30
0.0
 11
704.263804
 21
-170.180903
 31
0.0
  0
LINE
  8
0
  6
BYLAYER
 62
     1
 10
708.914866
 20
-176.744135
 30
0.0
 11
704.263804
 21
-176.576777
 31
0.0
  0
ARC
  8
0
  6
BYLAYER
 62
     1
 10
644.378901
 20
-173.378840
 30
0.0
 40
3.2
 50
272.061014
 51
447.938986
  0
LINE
  8
0
  6
BYLAYER
 62
     1
 10
639.842951
 20
-170.013545
 30
0.0
 11
644.494013
 21
-170.180903
 31
0.0
  0
LINE
  8
0
  6
BYLAYER
 62
     1
 10
639.842951
 20
-176.744135
 30
0.0
 11
644.494013
 21
-176.576777
 31
0.0
  0
ARC
  8
0
  6
BYLAYER
 62
     1
 10
639.878901
 20
-177.743495
 30
0.0
 40
1.000000
 50
92.061012
 51
179.999998
  0
ARC
  8
0
  6
BYLAYER
 62
     1
 10
708.878916
 20
-169.014185
 30
0.0
 40
1.000000
 50
272.061014
 51
360.000000
  0
ARC
  8
0
  6
BYLAYER
 62
     1
 10
708.878916
 20
-177.743495
 30
0.0
 40
1.0
 50
0.0
 51
87.938986
  0
LINE
  8
0
  6
BYLAYER
 62
     1
 10
638.878840
 20
-181.878871
 30
0.0
 11
637.878840
 21
-181.878871
 31
0.0
  0
LINE
  8
0
  6
BYLAYER
 62
     1
 10
637.878840
 20
-158.109485
 30
0.0
 11
637.878840
 21
-181.878871
 31
0.0
  0
LINE
  8
0
  6
BYLAYER
 62
     1
 10
635.878840
 20
-168.378840
 30
0.0
 11
635.378840
 21
-167.878840
 31
0.0
  0
LINE
  8
0
  6
BYLAYER
 62
     1
 10
635.378840
 20
-167.878840
 30
0.0
 11
635.378840
 21
-156.508007
 31
0.0
  0
LINE
  8
0
  6
BYLAYER
 62
     1
 10
635.878840
 20
-168.378840
 30
0.0
 11
637.478816
 21
-168.378840
 31
0.0
  0
ARC
  8
0
  6
BYLAYER
 62
     1
 10
637.478816
 20
-168.778864
 30
0.0
 40
0.400024
 50
0.0
 51
90.000003
  0
LINE
  8
0
  6
BYLAYER
 62
     1
 10
652.878840
 20
-186.378840
 30
0.0
 11
695.878855
 21
-186.378840
 31
0.0
  0
LINE
  8
0
  6
BYLAYER
 62
     7
 10
637.378779
 20
-37.678828
 30
0.0
 11
640.378779
 21
-42.874995
 31
0.0
  0
LINE
  8
0
  6
BYLAYER
 62
     7
 10
637.378779
 20
-33.178889
 30
0.0
 11
637.378779
 21
-50.385554
 31
0.0
  0
LINE
  8
0
  6
BYLAYER
 62
     7
 10
711.378779
 20
-33.178828
 30
0.0
 11
711.378779
 21
-50.385460
 31
0.0
  0
LINE
  8
0
  6
BYLAYER
 62
     7
 10
711.378779
 20
-37.678828
 30
0.0
 11
708.378779
 21
-42.874934
 31
0.0
  0
ARC
  8
0
  6
BYLAYER
 62
     7
 10
674.378840
 20
-98.378840
 30
0.0
 40
70.0
 50
270.0
 51
418.091076
  0
ARC
  8
0
  6
BYLAYER
 62
     7
 10
715.028834
 20
-57.728846
 30
0.0
 40
4.750000
 50
354.170342
 51
455.829658
  0
ARC
  8
0
  6
BYLAYER
 62
     7
 10
715.028834
 20
-139.028834
 30
0.0
 40
4.750000
 50
264.170342
 51
365.829658
  0
LINE
  8
0
  6
BYLAYER
 62
     7
 10
676.378840
 20
-162.754694
 30
0.0
 11
676.378840
 21
-158.945828
 31
0.0
  0
ARC
  8
0
  6
BYLAYER
 62
     7
 10
678.378840
 20
-162.754694
 30
0.0
 40
2.000004
 50
180.000000
 51
273.555492
  0
ARC
  8
0
  6
BYLAYER
 62
     7
 10
674.378840
 20
-98.378840
 30
0.0
 40
66.500000
 50
273.555497
 51
305.180611
  0
ARC
  8
0
  6
BYLAYER
 62
     7
 10
711.540888
 20
-151.097254
 30
0.0
 40
1.999997
 50
305.180529
 51
405.000001
  0
LINE
  8
0
  6
BYLAYER
 62
     7
 10
710.390338
 20
-147.118270
 30
0.0
 11
712.955103
 21
-149.683039
 31
0.0
  0
ARC
  8
0
  6
BYLAYER
 62
     7
 10
727.097254
 20
-135.540919
 30
0.0
 40
2.000003
 50
224.999928
 51
324.819372
  0
LINE
  8
0
  6
BYLAYER
 62
     7
 10
725.683039
 20
-136.955119
 30
0.0
 11
723.118263
 21
-134.390347
 31
0.0
  0
ARC
  8
0
  6
BYLAYER
 62
     7
 10
674.378840
 20
-98.378840
 30
0.0
 40
66.500000
 50
324.819372
 51
356.444487
  0
LINE
  8
0
  6
BYLAYER
 62
     7
 10
734.945828
 20
-100.378840
 30
0.0
 11
738.754694
 21
-100.378840
 31
0.0
  0
ARC
  8
0
  6
BYLAYER
 62
     7
 10
738.754694
 20
-102.378840
 30
0.0
 40
2.000004
 50
356.444487
 51
450.000003
  0
ARC
  8
0
  6
BYLAYER
 62
     7
 10
674.378840
 20
-98.378840
 30
0.0
 40
66.500000
 50
54.819389
 51
56.193488
  0
ARC
  8
0
  6
BYLAYER
 62
     7
 10
711.540888
 20
-45.660426
 30
0.0
 40
1.999997
 50
314.999992
 51
414.819471
  0
LINE
  8
0
  6
BYLAYER
 62
     7
 10
711.378779
 20
-48.650970
 30
0.0
 11
712.955103
 21
-47.074641
 31
0.0
  0
LINE
  8
0
  6
BYLAYER
 62
     7
 10
731.129939
 20
-67.922968
 30
0.0
 11
727.831393
 21
-69.827403
 31
0.0
  0
ARC
  8
0
  6
BYLAYER
 62
     7
 10
732.129939
 20
-69.655024
 30
0.0
 40
2.000005
 50
26.444505
 51
119.999990
  0
ARC
  8
0
  6
BYLAYER
 62
     7
 10
674.378840
 20
-98.378840
 30
0.0
 40
66.5
 50
3.555507
 51
26.444490
  0
ARC
  8
0
  6
BYLAYER
 62
     7
 10
738.754694
 20
-94.378840
 30
0.0
 40
2.000004
 50
270.0
 51
363.555494
  0
LINE
  8
0
  6
BYLAYER
 62
     7
 10
734.945828
 20
-96.378840
 30
0.0
 11
738.754694
 21
-96.378840
 31
0.0
  0
ARC
  8
0
  6
BYLAYER
 62
     7
 10
674.378840
 20
-98.378840
 30
0.0
 40
70.0
 50
121.909042
 51
270.0
  0
ARC
  8
0
  6
BYLAYER
 62
     7
 10
633.728846
 20
-57.728846
 30
0.0
 40
4.750000
 50
84.170342
 51
185.829658
  0
ARC
  8
0
  6
BYLAYER
 62
     7
 10
633.728846
 20
-139.028834
 30
0.0
 40
4.750000
 50
174.170342
 51
275.829658
  0
LINE
  8
0
  6
BYLAYER
 62
     7
 10
672.378840
 20
-162.754694
 30
0.0
 11
672.378840
 21
-158.945828
 31
0.0
  0
ARC
  8
0
  6
BYLAYER
 62
     7
 10
670.378840
 20
-162.754694
 30
0.0
 40
2.000004
 50
266.444508
 51
360.000000
  0
ARC
  8
0
  6
BYLAYER
 62
     7
 10
674.378840
 20
-98.378840
 30
0.0
 40
66.5
 50
234.819389
 51
266.444503
  0
ARC
  8
0
  6
BYLAYER
 62
     7
 10
637.216792
 20
-151.097254
 30
0.0
 40
1.999997
 50
134.999999
 51
234.819471
  0
LINE
  8
0
  6
BYLAYER
 62
     7
 10
638.367342
 20
-147.118270
 30
0.0
 11
635.802577
 21
-149.683039
 31
0.0
  0
ARC
  8
0
  6
BYLAYER
 62
     7
 10
621.660426
 20
-135.540919
 30
0.0
 40
2.000003
 50
215.180628
 51
315.000072
  0
LINE
  8
0
  6
BYLAYER
 62
     7
 10
623.074641
 20
-136.955119
 30
0.0
 11
625.639417
 21
-134.390347
 31
0.0
  0
ARC
  8
0
  6
BYLAYER
 62
     7
 10
674.378840
 20
-98.378840
 30
0.0
 40
66.500000
 50
183.555513
 51
215.180628
  0
LINE
  8
0
  6
BYLAYER
 62
     7
 10
613.811852
 20
-100.378840
 30
0.0
 11
610.002986
 21
-100.378840
 31
0.0
  0
ARC
  8
0
  6
BYLAYER
 62
     7
 10
610.002986
 20
-102.378840
 30
0.0
 40
2.000004
 50
90.0
 51
183.555516
  0
ARC
  8
0
  6
BYLAYER
 62
     7
 10
674.378840
 20
-98.378840
 30
0.0
 40
66.5
 50
123.806639
 51
125.180611
  0
ARC
  8
0
  6
BYLAYER
 62
     7
 10
637.216792
 20
-45.660426
 30
0.0
 40
1.999997
 50
125.180529
 51
225.000008
  0
LINE
  8
0
  6
BYLAYER
 62
     7
 10
637.378779
 20
-48.650848
 30
0.0
 11
635.802577
 21
-47.074641
 31
0.0
  0
LINE
  8
0
  6
BYLAYER
 62
     7
 10
617.627741
 20
-67.922968
 30
0.0
 11
621.638514
 21
-70.238612
 31
0.0
  0
ARC
  8
0
  6
BYLAYER
 62
     7
 10
616.627741
 20
-69.655024
 30
0.0
 40
2.000005
 50
60.000010
 51
153.555495
  0
ARC
  8
0
  6
BYLAYER
 62
     7
 10
674.378840
 20
-98.378840
 30
0.0
 40
66.5
 50
153.55551
 51
176.444493
  0
ARC
  8
0
  6
BYLAYER
 62
     7
 10
610.002986
 20
-94.378840
 30
0.0
 40
2.000004
 50
176.444506
 51
270.0
  0
LINE
  8
0
  6
BYLAYER
 62
     7
 10
613.811852
 20
-96.378840
 30
0.0
 11
610.002986
 21
-96.378840
 31
0.0
  0
CIRCLE
  8
0
  6
BYLAYER
 62
     7
 10
674.378840
 20
-98.378840
 30
0.0
 40
50.248528
  0
CIRCLE
  8
0
  6
BYLAYER
 62
     7
 10
674.378840
 20
-98.378840
 30
0.0
 40
60.6
  0
CIRCLE
  8
0
  6
BYLAYER
 62
     7
 10
674.378840
 20
-98.378840
 30
0.0
 40
46.0
  0
LINE
  8
0
  6
BYLAYER
 62
     7
 10
675.378840
 20
-87.378840
 30
0.0
 11
683.378840
 21
-87.378840
 31
0.0
  0
LINE
  8
0
  6
BYLAYER
 62
     7
 10
675.378840
 20
-69.378840
 30
0.0
 11
675.378840
 21
-77.378840
 31
0.0
  0
LINE
  8
0
  6
BYLAYER
 62
     7
 10
675.378840
 20
-59.378840
 30
0.0
 11
675.378840
 21
-67.378840
 31
0.0
  0
LINE
  8
0
  6
BYLAYER
 62
     7
 10
675.378840
 20
-79.378840
 30
0.0
 11
675.378840
 21
-87.378840
 31
0.0
  0
LINE
  8
0
  6
BYLAYER
 62
     7
 10
683.378840
 20
-67.378840
 30
0.0
 11
683.378840
 21
-59.378840
 31
0.0
  0
LINE
  8
0
  6
BYLAYER
 62
     7
 10
685.378840
 20
-67.378840
 30
0.0
 11
685.378840
 21
-59.378840
 31
0.0
  0
LINE
  8
0
  6
BYLAYER
 62
     7
 10
675.378840
 20
-79.378840
 30
0.0
 11
683.378840
 21
-79.378840
 31
0.0
  0
LINE
  8
0
  6
BYLAYER
 62
     7
 10
675.378840
 20
-77.378840
 30
0.0
 11
683.378840
 21
-77.378840
 31
0.0
  0
LINE
  8
0
  6
BYLAYER
 62
     7
 10
675.378840
 20
-69.378840
 30
0.0
 11
683.378840
 21
-69.378840
 31
0.0
  0
LINE
  8
0
  6
BYLAYER
 62
     7
 10
685.378840
 20
-67.378840
 30
0.0
 11
693.216839
 21
-67.378840
 31
0.0
  0
LINE
  8
0
  6
BYLAYER
 62
     7
 10
675.378840
 20
-67.378840
 30
0.0
 11
683.378840
 21
-67.378840
 31
0.0
  0
LINE
  8
0
  6
BYLAYER
 62
     7
 10
685.378840
 20
-59.378840
 30
0.0
 11
693.216839
 21
-59.378840
 31
0.0
  0
LINE
  8
0
  6
BYLAYER
 62
     7
 10
675.378840
 20
-59.378840
 30
0.0
 11
683.378840
 21
-59.378840
 31
0.0
  0
LINE
  8
0
  6
BYLAYER
 62
     7
 10
693.216839
 20
-67.378840
 30
0.0
 11
693.216839
 21
-59.378840
 31
0.0
  0
LINE
  8
0
  6
BYLAYER
 62
     7
 10
683.378840
 20
-87.378840
 30
0.0
 11
683.378840
 21
-79.378840
 31
0.0
  0
LINE
  8
0
  6
BYLAYER
 62
     7
 10
683.378840
 20
-77.378840
 30
0.0
 11
683.378840
 21
-69.378840
 31
0.0
  0
LINE
  8
0
  6
BYLAYER
 62
     7
 10
685.378840
 20
-87.378840
 30
0.0
 11
693.378840
 21
-87.378840
 31
0.0
  0
LINE
  8
0
  6
BYLAYER
 62
     7
 10
685.378840
 20
-69.378840
 30
0.0
 11
685.378840
 21
-77.378840
 31
0.0
  0
LINE
  8
0
  6
BYLAYER
 62
     7
 10
685.378840
 20
-79.378840
 30
0.0
 11
685.378840
 21
-87.378840
 31
0.0
  0
LINE
  8
0
  6
BYLAYER
 62
     7
 10
685.378840
 20
-79.378840
 30
0.0
 11
693.378840
 21
-79.378840
 31
0.0
  0
LINE
  8
0
  6
BYLAYER
 62
     7
 10
685.378840
 20
-77.378840
 30
0.0
 11
693.378840
 21
-77.378840
 31
0.0
  0
LINE
  8
0
  6
BYLAYER
 62
     7
 10
685.378840
 20
-69.378840
 30
0.0
 11
693.378840
 21
-69.378840
 31
0.0
  0
LINE
  8
0
  6
BYLAYER
 62
     7
 10
693.378840
 20
-87.378840
 30
0.0
 11
693.378840
 21
-79.378840
 31
0.0
  0
LINE
  8
0
  6
BYLAYER
 62
     7
 10
693.378840
 20
-77.378840
 30
0.0
 11
693.378840
 21
-69.378840
 31
0.0
  0
LINE
  8
0
  6
BYLAYER
 62
     7
 10
695.378840
 20
-87.378840
 30
0.0
 11
703.378840
 21
-87.378840
 31
0.0
  0
LINE
  8
0
  6
BYLAYER
 62
     7
 10
695.378840
 20
-69.378840
 30
0.0
 11
695.378840
 21
-77.378840
 31
0.0
  0
LINE
  8
0
  6
BYLAYER
 62
     7
 10
695.378840
 20
-79.378840
 30
0.0
 11
695.378840
 21
-87.378840
 31
0.0
  0
LINE
  8
0
  6
BYLAYER
 62
     7
 10
695.378840
 20
-79.378840
 30
0.0
 11
703.378840
 21
-79.378840
 31
0.0
  0
LINE
  8
0
  6
BYLAYER
 62
     7
 10
695.378840
 20
-77.378840
 30
0.0
 11
703.378840
 21
-77.378840
 31
0.0
  0
LINE
  8
0
  6
BYLAYER
 62
     7
 10
695.378840
 20
-69.378840
 30
0.0
 11
703.378840
 21
-69.378840
 31
0.0
  0
LINE
  8
0
  6
BYLAYER
 62
     7
 10
703.378840
 20
-87.378840
 30
0.0
 11
703.378840
 21
-79.378840
 31
0.0
  0
LINE
  8
0
  6
BYLAYER
 62
     7
 10
703.378840
 20
-77.378840
 30
0.0
 11
703.378840
 21
-69.378840
 31
0.0
  0
LINE
  8
0
  6
BYLAYER
 62
     7
 10
685.378840
 20
-97.378840
 30
0.0
 11
693.378840
 21
-97.378840
 31
0.0
  0
LINE
  8
0
  6
BYLAYER
 62
     7
 10
685.378840
 20
-89.378840
 30
0.0
 11
685.378840
 21
-97.378840
 31
0.0
  0
LINE
  8
0
  6
BYLAYER
 62
     7
 10
685.378840
 20
-89.378840
 30
0.0
 11
693.378840
 21
-89.378840
 31
0.0
  0
LINE
  8
0
  6
BYLAYER
 62
     7
 10
693.378840
 20
-97.378840
 30
0.0
 11
693.378840
 21
-89.378840
 31
0.0
  0
LINE
  8
0
  6
BYLAYER
 62
     7
 10
695.378840
 20
-97.378840
 30
0.0
 11
703.378840
 21
-97.378840
 31
0.0
  0
LINE
  8
0
  6
BYLAYER
 62
     7
 10
695.378840
 20
-89.378840
 30
0.0
 11
695.378840
 21
-97.378840
 31
0.0
  0
LINE
  8
0
  6
BYLAYER
 62
     7
 10
695.378840
 20
-89.378840
 30
0.0
 11
703.378840
 21
-89.378840
 31
0.0
  0
LINE
  8
0
  6
BYLAYER
 62
     7
 10
703.378840
 20
-97.378840
 30
0.0
 11
703.378840
 21
-89.378840
 31
0.0
  0
LINE
  8
0
  6
BYLAYER
 62
     7
 10
705.378840
 20
-87.378840
 30
0.0
 11
713.378840
 21
-87.378840
 31
0.0
  0
LINE
  8
0
  6
BYLAYER
 62
     7
 10
705.378840
 20
-79.378840
 30
0.0
 11
705.378840
 21
-87.378840
 31
0.0
  0
LINE
  8
0
  6
BYLAYER
 62
     7
 10
705.378840
 20
-79.378840
 30
0.0
 11
713.378840
 21
-79.378840
 31
0.0
  0
LINE
  8
0
  6
BYLAYER
 62
     7
 10
713.378840
 20
-87.378840
 30
0.0
 11
713.378840
 21
-79.378840
 31
0.0
  0
LINE
  8
0
  6
BYLAYER
 62
     7
 10
705.378840
 20
-97.378840
 30
0.0
 11
713.378840
 21
-97.378840
 31
0.0
  0
LINE
  8
0
  6
BYLAYER
 62
     7
 10
705.378840
 20
-89.378840
 30
0.0
 11
705.378840
 21
-97.378840
 31
0.0
  0
LINE
  8
0
  6
BYLAYER
 62
     7
 10
705.378840
 20
-89.378840
 30
0.0
 11
713.378840
 21
-89.378840
 31
0.0
  0
LINE
  8
0
  6
BYLAYER
 62
     7
 10
713.378840
 20
-97.378840
 30
0.0
 11
713.378840
 21
-89.378840
 31
0.0
  0
LINE
  8
0
  6
BYLAYER
 62
     7
 10
675.378840
 20
-109.378840
 30
0.0
 11
683.378840
 21
-109.378840
 31
0.0
  0
LINE
  8
0
  6
BYLAYER
 62
     7
 10
675.378840
 20
-127.378840
 30
0.0
 11
675.378840
 21
-119.378840
 31
0.0
  0
LINE
  8
0
  6
BYLAYER
 62
     7
 10
675.378840
 20
-137.378840
 30
0.0
 11
675.378840
 21
-129.378840
 31
0.0
  0
LINE
  8
0
  6
BYLAYER
 62
     7
 10
675.378840
 20
-117.378840
 30
0.0
 11
675.378840
 21
-109.378840
 31
0.0
  0
LINE
  8
0
  6
BYLAYER
 62
     7
 10
683.378840
 20
-129.378840
 30
0.0
 11
683.378840
 21
-137.378840
 31
0.0
  0
LINE
  8
0
  6
BYLAYER
 62
     7
 10
685.378840
 20
-129.378840
 30
0.0
 11
685.378840
 21
-137.378840
 31
0.0
  0
LINE
  8
0
  6
BYLAYER
 62
     7
 10
675.378840
 20
-117.378840
 30
0.0
 11
683.378840
 21
-117.378840
 31
0.0
  0
LINE
  8
0
  6
BYLAYER
 62
     7
 10
675.378840
 20
-119.378840
 30
0.0
 11
683.378840
 21
-119.378840
 31
0.0
  0
LINE
  8
0
  6
BYLAYER
 62
     7
 10
675.378840
 20
-127.378840
 30
0.0
 11
683.378840
 21
-127.378840
 31
0.0
  0
LINE
  8
0
  6
BYLAYER
 62
     7
 10
685.378840
 20
-129.378840
 30
0.0
 11
693.216839
 21
-129.378840
 31
0.0
  0
LINE
  8
0
  6
BYLAYER
 62
     7
 10
675.378840
 20
-129.378840
 30
0.0
 11
683.378840
 21
-129.378840
 31
0.0
  0
LINE
  8
0
  6
BYLAYER
 62
     7
 10
685.378840
 20
-137.378840
 30
0.0
 11
693.216839
 21
-137.378840
 31
0.0
  0
LINE
  8
0
  6
BYLAYER
 62
     7
 10
675.378840
 20
-137.378840
 30
0.0
 11
683.378840
 21
-137.378840
 31
0.0
  0
LINE
  8
0
  6
BYLAYER
 62
     7
 10
693.216839
 20
-129.378840
 30
0.0
 11
693.216839
 21
-137.378840
 31
0.0
  0
LINE
  8
0
  6
BYLAYER
 62
     7
 10
683.378840
 20
-109.378840
 30
0.0
 11
683.378840
 21
-117.378840
 31
0.0
  0
LINE
  8
0
  6
BYLAYER
 62
     7
 10
683.378840
 20
-119.378840
 30
0.0
 11
683.378840
 21
-127.378840
 31
0.0
  0
LINE
  8
0
  6
BYLAYER
 62
     7
 10
685.378840
 20
-109.378840
 30
0.0
 11
693.378840
 21
-109.378840
 31
0.0
  0
LINE
  8
0
  6
BYLAYER
 62
     7
 10
685.378840
 20
-127.378840
 30
0.0
 11
685.378840
 21
-119.378840
 31
0.0
  0
LINE
  8
0
  6
BYLAYER
 62
     7
 10
685.378840
 20
-117.378840
 30
0.0
 11
685.378840
 21
-109.378840
 31
0.0
  0
LINE
  8
0
  6
BYLAYER
 62
     7
 10
685.378840
 20
-117.378840
 30
0.0
 11
693.378840
 21
-117.378840
 31
0.0
  0
LINE
  8
0
  6
BYLAYER
 62
     7
 10
685.378840
 20
-119.378840
 30
0.0
 11
693.378840
 21
-119.378840
 31
0.0
  0
LINE
  8
0
  6
BYLAYER
 62
     7
 10
685.378840
 20
-127.378840
 30
0.0
 11
693.378840
 21
-127.378840
 31
0.0
  0
LINE
  8
0
  6
BYLAYER
 62
     7
 10
693.378840
 20
-109.378840
 30
0.0
 11
693.378840
 21
-117.378840
 31
0.0
  0
LINE
  8
0
  6
BYLAYER
 62
     7
 10
693.378840
 20
-119.378840
 30
0.0
 11
693.378840
 21
-127.378840
 31
0.0
  0
LINE
  8
0
  6
BYLAYER
 62
     7
 10
695.378840
 20
-109.378840
 30
0.0
 11
703.378840
 21
-109.378840
 31
0.0
  0
LINE
  8
0
  6
BYLAYER
 62
     7
 10
695.378840
 20
-127.378840
 30
0.0
 11
695.378840
 21
-119.378840
 31
0.0
  0
LINE
  8
0
  6
BYLAYER
 62
     7
 10
695.378840
 20
-117.378840
 30
0.0
 11
695.378840
 21
-109.378840
 31
0.0
  0
LINE
  8
0
  6
BYLAYER
 62
     7
 10
695.378840
 20
-117.378840
 30
0.0
 11
703.378840
 21
-117.378840
 31
0.0
  0
LINE
  8
0
  6
BYLAYER
 62
     7
 10
695.378840
 20
-119.378840
 30
0.0
 11
703.378840
 21
-119.378840
 31
0.0
  0
LINE
  8
0
  6
BYLAYER
 62
     7
 10
695.378840
 20
-127.378840
 30
0.0
 11
703.378840
 21
-127.378840
 31
0.0
  0
LINE
  8
0
  6
BYLAYER
 62
     7
 10
703.378840
 20
-109.378840
 30
0.0
 11
703.378840
 21
-117.378840
 31
0.0
  0
LINE
  8
0
  6
BYLAYER
 62
     7
 10
703.378840
 20
-119.378840
 30
0.0
 11
703.378840
 21
-127.378840
 31
0.0
  0
LINE
  8
0
  6
BYLAYER
 62
     7
 10
685.378840
 20
-99.378840
 30
0.0
 11
693.378840
 21
-99.378840
 31
0.0
  0
LINE
  8
0
  6
BYLAYER
 62
     7
 10
685.378840
 20
-107.378840
 30
0.0
 11
685.378840
 21
-99.378840
 31
0.0
  0
LINE
  8
0
  6
BYLAYER
 62
     7
 10
685.378840
 20
-107.378840
 30
0.0
 11
693.378840
 21
-107.378840
 31
0.0
  0
LINE
  8
0
  6
BYLAYER
 62
     7
 10
693.378840
 20
-99.378840
 30
0.0
 11
693.378840
 21
-107.378840
 31
0.0
  0
LINE
  8
0
  6
BYLAYER
 62
     7
 10
695.378840
 20
-99.378840
 30
0.0
 11
703.378840
 21
-99.378840
 31
0.0
  0
LINE
  8
0
  6
BYLAYER
 62
     7
 10
695.378840
 20
-107.378840
 30
0.0
 11
695.378840
 21
-99.378840
 31
0.0
  0
LINE
  8
0
  6
BYLAYER
 62
     7
 10
695.378840
 20
-107.378840
 30
0.0
 11
703.378840
 21
-107.378840
 31
0.0
  0
LINE
  8
0
  6
BYLAYER
 62
     7
 10
703.378840
 20
-99.378840
 30
0.0
 11
703.378840
 21
-107.378840
 31
0.0
  0
LINE
  8
0
  6
BYLAYER
 62
     7
 10
705.378840
 20
-109.378840
 30
0.0
 11
713.378840
 21
-109.378840
 31
0.0
  0
LINE
  8
0
  6
BYLAYER
 62
     7
 10
705.378840
 20
-117.378840
 30
0.0
 11
705.378840
 21
-109.378840
 31
0.0
  0
LINE
  8
0
  6
BYLAYER
 62
     7
 10
705.378840
 20
-117.378840
 30
0.0
 11
713.378840
 21
-117.378840
 31
0.0
  0
LINE
  8
0
  6
BYLAYER
 62
     7
 10
713.378840
 20
-109.378840
 30
0.0
 11
713.378840
 21
-117.378840
 31
0.0
  0
LINE
  8
0
  6
BYLAYER
 62
     7
 10
705.378840
 20
-99.378840
 30
0.0
 11
713.378840
 21
-99.378840
 31
0.0
  0
LINE
  8
0
  6
BYLAYER
 62
     7
 10
705.378840
 20
-107.378840
 30
0.0
 11
705.378840
 21
-99.378840
 31
0.0
  0
LINE
  8
0
  6
BYLAYER
 62
     7
 10
705.378840
 20
-107.378840
 30
0.0
 11
713.378840
 21
-107.378840
 31
0.0
  0
LINE
  8
0
  6
BYLAYER
 62
     7
 10
713.378840
 20
-99.378840
 30
0.0
 11
713.378840
 21
-107.378840
 31
0.0
  0
LINE
  8
0
  6
BYLAYER
 62
     7
 10
673.378840
 20
-87.378840
 30
0.0
 11
665.378840
 21
-87.378840
 31
0.0
  0
LINE
  8
0
  6
BYLAYER
 62
     7
 10
673.378840
 20
-69.378840
 30
0.0
 11
673.378840
 21
-77.378840
 31
0.0
  0
LINE
  8
0
  6
BYLAYER
 62
     7
 10
673.378840
 20
-59.378840
 30
0.0
 11
673.378840
 21
-67.378840
 31
0.0
  0
LINE
  8
0
  6
BYLAYER
 62
     7
 10
673.378840
 20
-79.378840
 30
0.0
 11
673.378840
 21
-87.378840
 31
0.0
  0
LINE
  8
0
  6
BYLAYER
 62
     7
 10
665.378840
 20
-67.378840
 30
0.0
 11
665.378840
 21
-59.378840
 31
0.0
  0
LINE
  8
0
  6
BYLAYER
 62
     7
 10
663.378840
 20
-67.378840
 30
0.0
 11
663.378840
 21
-59.378840
 31
0.0
  0
LINE
  8
0
  6
BYLAYER
 62
     7
 10
673.378840
 20
-79.378840
 30
0.0
 11
665.378840
 21
-79.378840
 31
0.0
  0
LINE
  8
0
  6
BYLAYER
 62
     7
 10
673.378840
 20
-77.378840
 30
0.0
 11
665.378840
 21
-77.378840
 31
0.0
  0
LINE
  8
0
  6
BYLAYER
 62
     7
 10
673.378840
 20
-69.378840
 30
0.0
 11
665.378840
 21
-69.378840
 31
0.0
  0
LINE
  8
0
  6
BYLAYER
 62
     7
 10
663.378840
 20
-67.378840
 30
0.0
 11
655.540841
 21
-67.378840
 31
0.0
  0
LINE
  8
0
  6
BYLAYER
 62
     7
 10
673.378840
 20
-67.378840
 30
0.0
 11
665.378840
 21
-67.378840
 31
0.0
  0
LINE
  8
0
  6
BYLAYER
 62
     7
 10
663.378840
 20
-59.378840
 30
0.0
 11
655.540841
 21
-59.378840
 31
0.0
  0
LINE
  8
0
  6
BYLAYER
 62
     7
 10
673.378840
 20
-59.378840
 30
0.0
 11
665.378840
 21
-59.378840
 31
0.0
  0
LINE
  8
0
  6
BYLAYER
 62
     7
 10
655.540841
 20
-67.378840
 30
0.0
 11
655.540841
 21
-59.378840
 31
0.0
  0
LINE
  8
0
  6
BYLAYER
 62
     7
 10
665.378840
 20
-87.378840
 30
0.0
 11
665.378840
 21
-79.378840
 31
0.0
  0
LINE
  8
0
  6
BYLAYER
 62
     7
 10
665.378840
 20
-77.378840
 30
0.0
 11
665.378840
 21
-69.378840
 31
0.0
  0
LINE
  8
0
  6
BYLAYER
 62
     7
 10
663.378840
 20
-87.378840
 30
0.0
 11
655.378840
 21
-87.378840
 31
0.0
  0
LINE
  8
0
  6
BYLAYER
 62
     7
 10
663.378840
 20
-69.378840
 30
0.0
 11
663.378840
 21
-77.378840
 31
0.0
  0
LINE
  8
0
  6
BYLAYER
 62
     7
 10
663.378840
 20
-79.378840
 30
0.0
 11
663.378840
 21
-87.378840
 31
0.0
  0
LINE
  8
0
  6
BYLAYER
 62
     7
 10
663.378840
 20
-79.378840
 30
0.0
 11
655.378840
 21
-79.378840
 31
0.0
  0
LINE
  8
0
  6
BYLAYER
 62
     7
 10
663.378840
 20
-77.378840
 30
0.0
 11
655.378840
 21
-77.378840
 31
0.0
  0
LINE
  8
0
  6
BYLAYER
 62
     7
 10
663.378840
 20
-69.378840
 30
0.0
 11
655.378840
 21
-69.378840
 31
0.0
  0
LINE
  8
0
  6
BYLAYER
 62
     7
 10
655.378840
 20
-87.378840
 30
0.0
 11
655.378840
 21
-79.378840
 31
0.0
  0
LINE
  8
0
  6
BYLAYER
 62
     7
 10
655.378840
 20
-77.378840
 30
0.0
 11
655.378840
 21
-69.378840
 31
0.0
  0
LINE
  8
0
  6
BYLAYER
 62
     7
 10
653.378840
 20
-87.378840
 30
0.0
 11
645.378840
 21
-87.378840
 31
0.0
  0
LINE
  8
0
  6
BYLAYER
 62
     7
 10
653.378840
 20
-69.378840
 30
0.0
 11
653.378840
 21
-77.378840
 31
0.0
  0
LINE
  8
0
  6
BYLAYER
 62
     7
 10
653.378840
 20
-79.378840
 30
0.0
 11
653.378840
 21
-87.378840
 31
0.0
  0
LINE
  8
0
  6
BYLAYER
 62
     7
 10
653.378840
 20
-79.378840
 30
0.0
 11
645.378840
 21
-79.378840
 31
0.0
  0
LINE
  8
0
  6
BYLAYER
 62
     7
 10
653.378840
 20
-77.378840
 30
0.0
 11
645.378840
 21
-77.378840
 31
0.0
  0
LINE
  8
0
  6
BYLAYER
 62
     7
 10
653.378840
 20
-69.378840
 30
0.0
 11
645.378840
 21
-69.378840
 31
0.0
  0
LINE
  8
0
  6
BYLAYER
 62
     7
 10
645.378840
 20
-87.378840
 30
0.0
 11
645.378840
 21
-79.378840
 31
0.0
  0
LINE
  8
0
  6
BYLAYER
 62
     7
 10
645.378840
 20
-77.378840
 30
0.0
 11
645.378840
 21
-69.378840
 31
0.0
  0
LINE
  8
0
  6
BYLAYER
 62
     7
 10
663.378840
 20
-97.378840
 30
0.0
 11
655.378840
 21
-97.378840
 31
0.0
  0
LINE
  8
0
  6
BYLAYER
 62
     7
 10
663.378840
 20
-89.378840
 30
0.0
 11
663.378840
 21
-97.378840
 31
0.0
  0
LINE
  8
0
  6
BYLAYER
 62
     7
 10
663.378840
 20
-89.378840
 30
0.0
 11
655.378840
 21
-89.378840
 31
0.0
  0
LINE
  8
0
  6
BYLAYER
 62
     7
 10
655.378840
 20
-97.378840
 30
0.0
 11
655.378840
 21
-89.378840
 31
0.0
  0
LINE
  8
0
  6
BYLAYER
 62
     7
 10
653.378840
 20
-97.378840
 30
0.0
 11
645.378840
 21
-97.378840
 31
0.0
  0
LINE
  8
0
  6
BYLAYER
 62
     7
 10
653.378840
 20
-89.378840
 30
0.0
 11
653.378840
 21
-97.378840
 31
0.0
  0
LINE
  8
0
  6
BYLAYER
 62
     7
 10
653.378840
 20
-89.378840
 30
0.0
 11
645.378840
 21
-89.378840
 31
0.0
  0
LINE
  8
0
  6
BYLAYER
 62
     7
 10
645.378840
 20
-97.378840
 30
0.0
 11
645.378840
 21
-89.378840
 31
0.0
  0
LINE
  8
0
  6
BYLAYER
 62
     7
 10
643.378840
 20
-87.378840
 30
0.0
 11
635.378840
 21
-87.378840
 31
0.0
  0
LINE
  8
0
  6
BYLAYER
 62
     7
 10
643.378840
 20
-79.378840
 30
0.0
 11
643.378840
 21
-87.378840
 31
0.0
  0
LINE
  8
0
  6
BYLAYER
 62
     7
 10
643.378840
 20
-79.378840
 30
0.0
 11
635.378840
 21
-79.378840
 31
0.0
  0
LINE
  8
0
  6
BYLAYER
 62
     7
 10
635.378840
 20
-87.378840
 30
0.0
 11
635.378840
 21
-79.378840
 31
0.0
  0
LINE
  8
0
  6
BYLAYER
 62
     7
 10
643.378840
 20
-97.378840
 30
0.0
 11
635.378840
 21
-97.378840
 31
0.0
  0
LINE
  8
0
  6
BYLAYER
 62
     7
 10
643.378840
 20
-89.378840
 30
0.0
 11
643.378840
 21
-97.378840
 31
0.0
  0
LINE
  8
0
  6
BYLAYER
 62
     7
 10
643.378840
 20
-89.378840
 30
0.0
 11
635.378840
 21
-89.378840
 31
0.0
  0
LINE
  8
0
  6
BYLAYER
 62
     7
 10
635.378840
 20
-97.378840
 30
0.0
 11
635.378840
 21
-89.378840
 31
0.0
  0
LINE
  8
0
  6
BYLAYER
 62
     7
 10
673.378840
 20
-109.378840
 30
0.0
 11
665.378840
 21
-109.378840
 31
0.0
  0
LINE
  8
0
  6
BYLAYER
 62
     7
 10
673.378840
 20
-127.378840
 30
0.0
 11
673.378840
 21
-119.378840
 31
0.0
  0
LINE
  8
0
  6
BYLAYER
 62
     7
 10
673.378840
 20
-137.378840
 30
0.0
 11
673.378840
 21
-129.378840
 31
0.0
  0
LINE
  8
0
  6
BYLAYER
 62
     7
 10
673.378840
 20
-117.378840
 30
0.0
 11
673.378840
 21
-109.378840
 31
0.0
  0
LINE
  8
0
  6
BYLAYER
 62
     7
 10
665.378840
 20
-129.378840
 30
0.0
 11
665.378840
 21
-137.378840
 31
0.0
  0
LINE
  8
0
  6
BYLAYER
 62
     7
 10
663.378840
 20
-129.378840
 30
0.0
 11
663.378840
 21
-137.378840
 31
0.0
  0
LINE
  8
0
  6
BYLAYER
 62
     7
 10
673.378840
 20
-117.378840
 30
0.0
 11
665.378840
 21
-117.378840
 31
0.0
  0
LINE
  8
0
  6
BYLAYER
 62
     7
 10
673.378840
 20
-119.378840
 30
0.0
 11
665.378840
 21
-119.378840
 31
0.0
  0
LINE
  8
0
  6
BYLAYER
 62
     7
 10
673.378840
 20
-127.378840
 30
0.0
 11
665.378840
 21
-127.378840
 31
0.0
  0
LINE
  8
0
  6
BYLAYER
 62
     7
 10
663.378840
 20
-129.378840
 30
0.0
 11
655.540841
 21
-129.378840
 31
0.0
  0
LINE
  8
0
  6
BYLAYER
 62
     7
 10
673.378840
 20
-129.378840
 30
0.0
 11
665.378840
 21
-129.378840
 31
0.0
  0
LINE
  8
0
  6
BYLAYER
 62
     7
 10
663.378840
 20
-137.378840
 30
0.0
 11
655.540841
 21
-137.378840
 31
0.0
  0
LINE
  8
0
  6
BYLAYER
 62
     7
 10
673.378840
 20
-137.378840
 30
0.0
 11
665.378840
 21
-137.378840
 31
0.0
  0
LINE
  8
0
  6
BYLAYER
 62
     7
 10
655.540841
 20
-129.378840
 30
0.0
 11
655.540841
 21
-137.378840
 31
0.0
  0
LINE
  8
0
  6
BYLAYER
 62
     7
 10
665.378840
 20
-109.378840
 30
0.0
 11
665.378840
 21
-117.378840
 31
0.0
  0
LINE
  8
0
  6
BYLAYER
 62
     7
 10
665.378840
 20
-119.378840
 30
0.0
 11
665.378840
 21
-127.378840
 31
0.0
  0
LINE
  8
0
  6
BYLAYER
 62
     7
 10
663.378840
 20
-109.378840
 30
0.0
 11
655.378840
 21
-109.378840
 31
0.0
  0
LINE
  8
0
  6
BYLAYER
 62
     7
 10
663.378840
 20
-127.378840
 30
0.0
 11
663.378840
 21
-119.378840
 31
0.0
  0
LINE
  8
0
  6
BYLAYER
 62
     7
 10
663.378840
 20
-117.378840
 30
0.0
 11
663.378840
 21
-109.378840
 31
0.0
  0
LINE
  8
0
  6
BYLAYER
 62
     7
 10
663.378840
 20
-117.378840
 30
0.0
 11
655.378840
 21
-117.378840
 31
0.0
  0
LINE
  8
0
  6
BYLAYER
 62
     7
 10
663.378840
 20
-119.378840
 30
0.0
 11
655.378840
 21
-119.378840
 31
0.0
  0
LINE
  8
0
  6
BYLAYER
 62
     7
 10
663.378840
 20
-127.378840
 30
0.0
 11
655.378840
 21
-127.378840
 31
0.0
  0
LINE
  8
0
  6
BYLAYER
 62
     7
 10
655.378840
 20
-109.378840
 30
0.0
 11
655.378840
 21
-117.378840
 31
0.0
  0
LINE
  8
0
  6
BYLAYER
 62
     7
 10
655.378840
 20
-119.378840
 30
0.0
 11
655.378840
 21
-127.378840
 31
0.0
  0
LINE
  8
0
  6
BYLAYER
 62
     7
 10
653.378840
 20
-109.378840
 30
0.0
 11
645.378840
 21
-109.378840
 31
0.0
  0
LINE
  8
0
  6
BYLAYER
 62
     7
 10
653.378840
 20
-127.378840
 30
0.0
 11
653.378840
 21
-119.378840
 31
0.0
  0
LINE
  8
0
  6
BYLAYER
 62
     7
 10
653.378840
 20
-117.378840
 30
0.0
 11
653.378840
 21
-109.378840
 31
0.0
  0
LINE
  8
0
  6
BYLAYER
 62
     7
 10
653.378840
 20
-117.378840
 30
0.0
 11
645.378840
 21
-117.378840
 31
0.0
  0
LINE
  8
0
  6
BYLAYER
 62
     7
 10
653.378840
 20
-119.378840
 30
0.0
 11
645.378840
 21
-119.378840
 31
0.0
  0
LINE
  8
0
  6
BYLAYER
 62
     7
 10
653.378840
 20
-127.378840
 30
0.0
 11
645.378840
 21
-127.378840
 31
0.0
  0
LINE
  8
0
  6
BYLAYER
 62
     7
 10
645.378840
 20
-109.378840
 30
0.0
 11
645.378840
 21
-117.378840
 31
0.0
  0
LINE
  8
0
  6
BYLAYER
 62
     7
 10
645.378840
 20
-119.378840
 30
0.0
 11
645.378840
 21
-127.378840
 31
0.0
  0
LINE
  8
0
  6
BYLAYER
 62
     7
 10
663.378840
 20
-99.378840
 30
0.0
 11
655.378840
 21
-99.378840
 31
0.0
  0
LINE
  8
0
  6
BYLAYER
 62
     7
 10
663.378840
 20
-107.378840
 30
0.0
 11
663.378840
 21
-99.378840
 31
0.0
  0
LINE
  8
0
  6
BYLAYER
 62
     7
 10
663.378840
 20
-107.378840
 30
0.0
 11
655.378840
 21
-107.378840
 31
0.0
  0
LINE
  8
0
  6
BYLAYER
 62
     7
 10
655.378840
 20
-99.378840
 30
0.0
 11
655.378840
 21
-107.378840
 31
0.0
  0
LINE
  8
0
  6
BYLAYER
 62
     7
 10
653.378840
 20
-99.378840
 30
0.0
 11
645.378840
 21
-99.378840
 31
0.0
  0
LINE
  8
0
  6
BYLAYER
 62
     7
 10
653.378840
 20
-107.378840
 30
0.0
 11
653.378840
 21
-99.378840
 31
0.0
  0
LINE
  8
0
  6
BYLAYER
 62
     7
 10
653.378840
 20
-107.378840
 30
0.0
 11
645.378840
 21
-107.378840
 31
0.0
  0
LINE
  8
0
  6
BYLAYER
 62
     7
 10
645.378840
 20
-99.378840
 30
0.0
 11
645.378840
 21
-107.378840
 31
0.0
  0
LINE
  8
0
  6
BYLAYER
 62
     7
 10
643.378840
 20
-109.378840
 30
0.0
 11
635.378840
 21
-109.378840
 31
0.0
  0
LINE
  8
0
  6
BYLAYER
 62
     7
 10
643.378840
 20
-117.378840
 30
0.0
 11
643.378840
 21
-109.378840
 31
0.0
  0
LINE
  8
0
  6
BYLAYER
 62
     7
 10
643.378840
 20
-117.378840
 30
0.0
 11
635.378840
 21
-117.378840
 31
0.0
  0
LINE
  8
0
  6
BYLAYER
 62
     7
 10
635.378840
 20
-109.378840
 30
0.0
 11
635.378840
 21
-117.378840
 31
0.0
  0
LINE
  8
0
  6
BYLAYER
 62
     7
 10
643.378840
 20
-99.378840
 30
0.0
 11
635.378840
 21
-99.378840
 31
0.0
  0
LINE
  8
0
  6
BYLAYER
 62
     7
 10
643.378840
 20
-107.378840
 30
0.0
 11
643.378840
 21
-99.378840
 31
0.0
  0
LINE
  8
0
  6
BYLAYER
 62
     7
 10
643.378840
 20
-107.378840
 30
0.0
 11
635.378840
 21
-107.378840
 31
0.0
  0
LINE
  8
0
  6
BYLAYER
 62
     7
 10
635.378840
 20
-99.378840
 30
0.0
 11
635.378840
 21
-107.378840
 31
0.0
  0
LINE
  8
0
  6
BYLAYER
 62
     7
 10
640.378779
 20
-42.874995
 30
0.0
 11
640.378779
 21
-48.215548
 31
0.0
  0
LINE
  8
0
  6
BYLAYER
 62
     7
 10
708.378779
 20
-42.874934
 30
0.0
 11
708.378779
 21
-48.215465
 31
0.0
  0
CIRCLE
  8
0
  6
BYLAYER
 62
     7
 10
674.378840
 20
-98.378840
 30
0.0
 40
4.0
  0
ARC
  8
0
  6
BYLAYER
 62
     7
 10
710.128779
 20
-22.678889
 30
0.0
 40
1.500000
 50
180.000000
 51
265.219808
  0
ARC
  8
0
  6
BYLAYER
 62
     7
 10
638.628779
 20
-22.678889
 30
0.0
 40
1.500000
 50
274.780192
 51
360.000000
  0
ARC
  8
0
  6
BYLAYER
 62
     7
 10
646.624441
 20
-22.678889
 30
0.0
 40
1.500000
 50
270.0
 51
360.0
  0
LINE
  8
0
  6
BYLAYER
 62
     7
 10
708.628779
 20
-22.678889
 30
0.0
 11
708.628779
 21
-1.178889
 31
0.0
  0
LINE
  8
0
  6
BYLAYER
 62
     7
 10
707.128779
 20
0.321111
 30
0.0
 11
641.628779
 21
0.321111
 31
0.0
  0
ARC
  8
0
  6
BYLAYER
 62
     7
 10
707.128779
 20
-1.178889
 30
0.0
 40
1.500000
 50
0.0
 51
90.0
  0
ARC
  8
0
  6
BYLAYER
 62
     7
 10
641.628779
 20
-1.178889
 30
0.0
 40
1.500000
 50
90.0
 51
180.0
  0
LINE
  8
0
  6
BYLAYER
 62
     7
 10
640.128779
 20
-22.678889
 30
0.0
 11
640.128779
 21
-1.178889
 31
0.0
  0
LINE
  8
0
  6
BYLAYER
 62
     7
 10
648.124441
 20
-22.678889
 30
0.0
 11
648.124441
 21
-1.178889
 31
0.0
  0
ARC
  8
0
  6
BYLAYER
 62
     7
 10
649.624441
 20
-1.178889
 30
0.0
 40
1.500000
 50
90.0
 51
180.0
  0
ARC
  8
0
  6
BYLAYER
 62
     7
 10
699.133117
 20
-1.178889
 30
0.0
 40
1.500000
 50
0.0
 51
90.0
  0
LINE
  8
0
  6
BYLAYER
 62
     7
 10
653.785126
 20
0.321111
 30
0.0
 11
654.277673
 21
-13.783587
 31
0.0
  0
ARC
  8
0
  6
BYLAYER
 62
     7
 10
657.275845
 20
-13.678889
 30
0.0
 40
3.000000
 50
182.000000
 51
270.000000
  0
LINE
  8
0
  6
BYLAYER
 62
     7
 10
664.479885
 20
-13.783587
 30
0.0
 11
664.972432
 21
0.321111
 31
0.0
  0
ARC
  8
0
  6
BYLAYER
 62
     7
 10
661.481713
 20
-13.678889
 30
0.0
 40
3.000000
 50
270.0
 51
358.0
  0
LINE
  8
0
  6
BYLAYER
 62
     7
 10
679.479885
 20
-13.783587
 30
0.0
 11
679.972432
 21
0.321111
 31
0.0
  0
ARC
  8
0
  6
BYLAYER
 62
     7
 10
676.481713
 20
-13.678889
 30
0.0
 40
3.000000
 50
270.0
 51
358.0
  0
LINE
  8
0
  6
BYLAYER
 62
     7
 10
694.479885
 20
-13.783587
 30
0.0
 11
694.972432
 21
0.321111
 31
0.0
  0
ARC
  8
0
  6
BYLAYER
 62
     7
 10
691.481713
 20
-13.678889
 30
0.0
 40
3.000000
 50
270.0
 51
358.0
  0
LINE
  8
0
  6
BYLAYER
 62
     7
 10
683.785126
 20
0.321111
 30
0.0
 11
684.277673
 21
-13.783587
 31
0.0
  0
ARC
  8
0
  6
BYLAYER
 62
     7
 10
687.275845
 20
-13.678889
 30
0.0
 40
3.000000
 50
182.000000
 51
270.000000
  0
LINE
  8
0
  6
BYLAYER
 62
     7
 10
668.785126
 20
0.321111
 30
0.0
 11
669.277673
 21
-13.783587
 31
0.0
  0
ARC
  8
0
  6
BYLAYER
 62
     7
 10
672.275845
 20
-13.678889
 30
0.0
 40
3.000000
 50
182.000000
 51
270.000000
  0
LINE
  8
0
  6
BYLAYER
 62
     7
 10
687.275845
 20
-16.678889
 30
0.0
 11
691.481713
 21
-16.678889
 31
0.0
  0
LINE
  8
0
  6
BYLAYER
 62
     7
 10
672.275845
 20
-16.678889
 30
0.0
 11
676.481713
 21
-16.678889
 31
0.0
  0
LINE
  8
0
  6
BYLAYER
 62
     7
 10
657.275845
 20
-16.678889
 30
0.0
 11
661.481713
 21
-16.678889
 31
0.0
  0
LINE
  8
0
  6
BYLAYER
 62
     7
 10
668.820047
 20
-0.678889
 30
0.0
 11
679.937511
 21
-0.678889
 31
0.0
  0
LINE
  8
0
  6
BYLAYER
 62
     7
 10
683.820047
 20
-0.678889
 30
0.0
 11
694.937511
 21
-0.678889
 31
0.0
  0
LINE
  8
0
  6
BYLAYER
 62
     7
 10
653.820047
 20
-0.678889
 30
0.0
 11
664.937511
 21
-0.678889
 31
0.0
  0
LINE
  8
0
  6
BYLAYER
 62
     7
 10
700.633117
 20
-1.178889
 30
0.0
 11
700.633117
 21
-22.678889
 31
0.0
  0
ARC
  8
0
  6
BYLAYER
 62
     7
 10
638.878779
 20
-25.668454
 30
0.0
 40
1.5
 50
94.780192
 51
180.000000
  0
LINE
  8
0
  6
BYLAYER
 62
     7
 10
638.878779
 20
-24.178889
 30
0.0
 11
710.128779
 21
-24.178889
 31
0.0
  0
ARC
  8
0
  6
BYLAYER
 62
     7
 10
709.878779
 20
-25.668454
 30
0.0
 40
1.5
 50
0.0
 51
85.219808
  0
LINE
  8
0
  6
BYLAYER
 62
     7
 10
711.378779
 20
-33.178889
 30
0.0
 11
711.378779
 21
-25.668454
 31
0.0
  0
ARC
  8
0
  6
BYLAYER
 62
     7
 10
702.133117
 20
-22.678889
 30
0.0
 40
1.500000
 50
180.000000
 51
270.000000
  0
LINE
  8
0
  6
BYLAYER
 62
     7
 10
711.378779
 20
-31.178828
 30
0.0
 11
637.378779
 21
-31.178828
 31
0.0
  0
LINE
  8
0
  6
BYLAYER
 62
     7
 10
637.378779
 20
-25.668454
 30
0.0
 11
637.378779
 21
-33.178889
 31
0.0
  0
LINE
  8
0
  6
BYLAYER
 62
     7
 10
637.378779
 20
-33.178889
 30
0.0
 11
711.378779
 21
-33.178889
 31
0.0
  0
LINE
  8
0
  6
BYLAYER
 62
     7
 10
637.378779
 20
-373.178889
 30
0.0
 11
637.378779
 21
-378.956660
 31
0.0
  0
LINE
  8
0
  6
BYLAYER
 62
     7
 10
711.378779
 20
-373.178828
 30
0.0
 11
711.378779
 21
-378.956584
 31
0.0
  0
ARC
  8
0
  6
BYLAYER
 62
     7
 10
710.128779
 20
-362.678889
 30
0.0
 40
1.500000
 50
180.000000
 51
265.219808
  0
ARC
  8
0
  6
BYLAYER
 62
     7
 10
638.628779
 20
-362.678889
 30
0.0
 40
1.500000
 50
274.780192
 51
360.000000
  0
ARC
  8
0
  6
BYLAYER
 62
     7
 10
646.624441
 20
-362.678889
 30
0.0
 40
1.5
 50
270.0
 51
360.0
  0
LINE
  8
0
  6
BYLAYER
 62
     7
 10
708.628779
 20
-362.678889
 30
0.0
 11
708.628779
 21
-341.178889
 31
0.0
  0
LINE
  8
0
  6
BYLAYER
 62
     7
 10
707.128779
 20
-339.678889
 30
0.0
 11
641.628779
 21
-339.678889
 31
0.0
  0
ARC
  8
0
  6
BYLAYER
 62
     7
 10
707.128779
 20
-341.178889
 30
0.0
 40
1.500000
 50
0.0
 51
90.0
  0
ARC
  8
0
  6
BYLAYER
 62
     7
 10
641.628779
 20
-341.178889
 30
0.0
 40
1.500000
 50
90.0
 51
180.0
  0
LINE
  8
0
  6
BYLAYER
 62
     7
 10
640.128779
 20
-362.678889
 30
0.0
 11
640.128779
 21
-341.178889
 31
0.0
  0
LINE
  8
0
  6
BYLAYER
 62
     7
 10
648.124441
 20
-362.678889
 30
0.0
 11
648.124441
 21
-341.178889
 31
0.0
  0
ARC
  8
0
  6
BYLAYER
 62
     7
 10
649.624441
 20
-341.178889
 30
0.0
 40
1.500000
 50
90.0
 51
180.0
  0
ARC
  8
0
  6
BYLAYER
 62
     7
 10
699.133117
 20
-341.178889
 30
0.0
 40
1.500000
 50
0.0
 51
90.0
  0
LINE
  8
0
  6
BYLAYER
 62
     7
 10
653.785126
 20
-339.678889
 30
0.0
 11
654.277673
 21
-353.783587
 31
0.0
  0
ARC
  8
0
  6
BYLAYER
 62
     7
 10
657.275845
 20
-353.678889
 30
0.0
 40
3.0
 50
182.000000
 51
270.000000
  0
LINE
  8
0
  6
BYLAYER
 62
     7
 10
664.479885
 20
-353.783587
 30
0.0
 11
664.972432
 21
-339.678889
 31
0.0
  0
ARC
  8
0
  6
BYLAYER
 62
     7
 10
661.481713
 20
-353.678889
 30
0.0
 40
3.000000
 50
270.0
 51
358.0
  0
LINE
  8
0
  6
BYLAYER
 62
     7
 10
679.479885
 20
-353.783587
 30
0.0
 11
679.972432
 21
-339.678889
 31
0.0
  0
ARC
  8
0
  6
BYLAYER
 62
     7
 10
676.481713
 20
-353.678889
 30
0.0
 40
3.000000
 50
270.0
 51
358.0
  0
LINE
  8
0
  6
BYLAYER
 62
     7
 10
694.479885
 20
-353.783587
 30
0.0
 11
694.972432
 21
-339.678889
 31
0.0
  0
ARC
  8
0
  6
BYLAYER
 62
     7
 10
691.481713
 20
-353.678889
 30
0.0
 40
3.000000
 50
270.0
 51
358.0
  0
LINE
  8
0
  6
BYLAYER
 62
     7
 10
683.785126
 20
-339.678889
 30
0.0
 11
684.277673
 21
-353.783587
 31
0.0
  0
ARC
  8
0
  6
BYLAYER
 62
     7
 10
687.275845
 20
-353.678889
 30
0.0
 40
3.0
 50
182.000000
 51
270.000000
  0
LINE
  8
0
  6
BYLAYER
 62
     7
 10
668.785126
 20
-339.678889
 30
0.0
 11
669.277673
 21
-353.783587
 31
0.0
  0
ARC
  8
0
  6
BYLAYER
 62
     7
 10
672.275845
 20
-353.678889
 30
0.0
 40
3.0
 50
182.000000
 51
270.000000
  0
LINE
  8
0
  6
BYLAYER
 62
     7
 10
687.275845
 20
-356.678889
 30
0.0
 11
691.481713
 21
-356.678889
 31
0.0
  0
LINE
  8
0
  6
BYLAYER
 62
     7
 10
672.275845
 20
-356.678889
 30
0.0
 11
676.481713
 21
-356.678889
 31
0.0
  0
LINE
  8
0
  6
BYLAYER
 62
     7
 10
657.275845
 20
-356.678889
 30
0.0
 11
661.481713
 21
-356.678889
 31
0.0
  0
LINE
  8
0
  6
BYLAYER
 62
     7
 10
668.820047
 20
-340.678889
 30
0.0
 11
679.937511
 21
-340.678889
 31
0.0
  0
LINE
  8
0
  6
BYLAYER
 62
     7
 10
683.820047
 20
-340.678889
 30
0.0
 11
694.937511
 21
-340.678889
 31
0.0
  0
LINE
  8
0
  6
BYLAYER
 62
     7
 10
653.820047
 20
-340.678889
 30
0.0
 11
664.937511
 21
-340.678889
 31
0.0
  0
LINE
  8
0
  6
BYLAYER
 62
     7
 10
700.633117
 20
-341.178889
 30
0.0
 11
700.633117
 21
-362.678889
 31
0.0
  0
ARC
  8
0
  6
BYLAYER
 62
     7
 10
638.878779
 20
-365.668454
 30
0.0
 40
1.5
 50
94.780192
 51
180.000000
  0
LINE
  8
0
  6
BYLAYER
 62
     7
 10
638.878779
 20
-364.178889
 30
0.0
 11
710.128779
 21
-364.178889
 31
0.0
  0
ARC
  8
0
  6
BYLAYER
 62
     7
 10
709.878779
 20
-365.668454
 30
0.0
 40
1.5
 50
0.0
 51
85.219808
  0
LINE
  8
0
  6
BYLAYER
 62
     7
 10
711.378779
 20
-373.178889
 30
0.0
 11
711.378779
 21
-365.668454
 31
0.0
  0
ARC
  8
0
  6
BYLAYER
 62
     7
 10
702.133117
 20
-362.678889
 30
0.0
 40
1.5
 50
180.000000
 51
270.000000
  0
LINE
  8
0
  6
BYLAYER
 62
     7
 10
654.778881
 20
-371.178828
 30
0.0
 11
637.378779
 21
-371.178828
 31
0.0
  0
LINE
  8
0
  6
BYLAYER
 62
     7
 10
711.378779
 20
-371.178828
 30
0.0
 11
693.978799
 21
-371.178828
 31
0.0
  0
LINE
  8
0
  6
BYLAYER
 62
     7
 10
637.378779
 20
-365.668454
 30
0.0
 11
637.378779
 21
-373.178889
 31
0.0
  0
LINE
  8
0
  6
BYLAYER
 62
     7
 10
637.378779
 20
-373.178889
 30
0.0
 11
648.904021
 21
-373.178889
 31
0.0
  0
LINE
  8
0
  6
BYLAYER
 62
     7
 10
699.853659
 20
-373.178889
 30
0.0
 11
711.378779
 21
-373.178889
 31
0.0
  0
ARC
  8
0
  6
BYLAYER
 62
     1
 10
674.378840
 20
-438.378840
 30
0.0
 40
70.000000
 50
303.858377
 51
596.141594
  0
ARC
  8
0
  6
BYLAYER
 62
     1
 10
674.378840
 20
-438.378840
 30
0.0
 40
33.750000
 50
62.733956
 51
117.266044
  0
ARC
  8
0
  6
BYLAYER
 62
     1
 10
616.378962
 20
-462.979310
 30
0.0
 40
26.100653
 50
90.0
 51
102.634515
  0
ARC
  8
0
  6
BYLAYER
 62
     1
 10
611.290935
 20
-440.281023
 30
0.0
 40
2.839091
 50
102.634515
 51
123.765210
  0
ARC
  8
0
  6
BYLAYER
 62
     1
 10
610.342503
 20
-438.862409
 30
0.0
 40
1.132636
 50
123.765210
 51
141.819817
  0
ARC
  8
0
  6
BYLAYER
 62
     1
 10
609.735314
 20
-438.378657
 30
0.0
 40
0.356352
 50
142.613743
 51
180.000000
  0
ARC
  8
0
  6
BYLAYER
 62
     1
 10
609.735314
 20
-438.378657
 30
0.0
 40
0.356352
 50
180.000000
 51
217.386257
  0
ARC
  8
0
  6
BYLAYER
 62
     1
 10
610.342503
 20
-437.894905
 30
0.0
 40
1.132636
 50
218.180183
 51
236.234790
  0
ARC
  8
0
  6
BYLAYER
 62
     1
 10
611.290935
 20
-436.476291
 30
0.0
 40
2.839091
 50
236.234790
 51
257.365485
  0
ARC
  8
0
  6
BYLAYER
 62
     1
 10
616.378962
 20
-413.778004
 30
0.0
 40
26.100653
 50
257.365485
 51
270.000000
  0
ARC
  8
0
  6
BYLAYER
 62
     1
 10
636.958979
 20
-442.512751
 30
0.0
 40
5.635380
 50
80.605597
 51
90.538030
  0
ARC
  8
0
  6
BYLAYER
 62
     1
 10
636.958857
 20
-434.244563
 30
0.0
 40
5.635441
 50
269.461973
 51
279.395559
  0
LINE
  8
0
  6
BYLAYER
 62
     1
 10
636.958979
 20
-436.878840
 30
0.0
 11
616.496272
 21
-436.878901
 31
0.0
  0
LINE
  8
0
  6
BYLAYER
 62
     1
 10
636.958857
 20
-439.878840
 30
0.0
 11
616.496272
 21
-439.878901
 31
0.0
  0
ARC
  8
0
  6
BYLAYER
 62
     1
 10
732.378718
 20
-413.778370
 30
0.0
 40
26.100653
 50
270.0
 51
282.634515
  0
ARC
  8
0
  6
BYLAYER
 62
     1
 10
737.466745
 20
-436.476657
 30
0.0
 40
2.839091
 50
282.634515
 51
303.765210
  0
ARC
  8
0
  6
BYLAYER
 62
     1
 10
738.415177
 20
-437.895271
 30
0.0
 40
1.132636
 50
303.765210
 51
321.819817
  0
ARC
  8
0
  6
BYLAYER
 62
     1
 10
739.022366
 20
-438.379023
 30
0.0
 40
0.356352
 50
322.613743
 51
360.000000
  0
ARC
  8
0
  6
BYLAYER
 62
     1
 10
739.022366
 20
-438.379023
 30
0.0
 40
0.356352
 50
0.0
 51
37.386257
  0
ARC
  8
0
  6
BYLAYER
 62
     1
 10
738.415177
 20
-438.862775
 30
0.0
 40
1.132636
 50
38.180183
 51
56.234790
  0
ARC
  8
0
  6
BYLAYER
 62
     1
 10
737.466745
 20
-440.281389
 30
0.0
 40
2.839091
 50
56.234790
 51
77.365485
  0
ARC
  8
0
  6
BYLAYER
 62
     1
 10
732.378718
 20
-462.979676
 30
0.0
 40
26.100653
 50
77.365485
 51
90.000000
  0
ARC
  8
0
  6
BYLAYER
 62
     1
 10
711.798701
 20
-434.244929
 30
0.0
 40
5.635380
 50
260.605597
 51
270.538028
  0
ARC
  8
0
  6
BYLAYER
 62
     1
 10
711.798823
 20
-442.513117
 30
0.0
 40
5.635441
 50
89.461961
 51
99.395559
  0
LINE
  8
0
  6
BYLAYER
 62
     1
 10
711.798701
 20
-439.878840
 30
0.0
 11
732.261408
 21
-439.878779
 31
0.0
  0
LINE
  8
0
  6
BYLAYER
 62
     1
 10
711.798823
 20
-436.878840
 30
0.0
 11
732.261408
 21
-436.878779
 31
0.0
  0
ARC
  8
0
  6
BYLAYER
 62
     1
 10
682.073874
 20
-375.849081
 30
0.0
 40
26.100911
 50
329.999974
 51
342.634362
  0
ARC
  8
0
  6
BYLAYER
 62
     1
 10
704.275436
 20
-382.792009
 30
0.0
 40
2.839063
 50
342.634362
 51
363.765013
  0
ARC
  8
0
  6
BYLAYER
 62
     1
 10
705.978196
 20
-382.679956
 30
0.0
 40
1.132620
 50
3.765013
 51
21.819442
  0
ARC
  8
0
  6
BYLAYER
 62
     1
 10
706.700726
 20
-382.395998
 30
0.0
 40
0.356344
 50
22.613268
 51
59.999487
  0
ARC
  8
0
  6
BYLAYER
 62
     1
 10
706.700728
 20
-382.395995
 30
0.0
 40
0.356340
 50
59.999487
 51
97.386051
  0
ARC
  8
0
  6
BYLAYER
 62
     1
 10
706.816070
 20
-383.163691
 30
0.0
 40
1.132602
 50
98.180027
 51
116.234729
  0
ARC
  8
0
  6
BYLAYER
 62
     1
 10
707.570395
 20
-384.694340
 30
0.0
 40
2.839029
 50
116.234729
 51
137.365523
  0
ARC
  8
0
  6
BYLAYER
 62
     1
 10
724.683869
 20
-400.450001
 30
0.0
 40
26.100840
 50
137.365523
 51
149.999921
  0
ARC
  8
0
  6
BYLAYER
 62
     1
 10
692.040522
 20
-407.788172
 30
0.0
 40
1.000013
 50
176.897405
 51
216.203871
  0
ARC
  8
0
  6
BYLAYER
 62
     1
 10
689.508723
 20
-403.905329
 30
0.0
 40
5.635367
 50
307.455325
 51
330.538044
  0
ARC
  8
0
  6
BYLAYER
 62
     1
 10
696.669245
 20
-408.039332
 30
0.0
 40
5.635497
 50
149.461956
 51
176.894892
  0
LINE
  8
0
  6
BYLAYER
 62
     1
 10
694.387812
 20
-406.722285
 30
0.0
 11
704.619074
 21
-389.001032
 31
0.0
  0
LINE
  8
0
  6
BYLAYER
 62
     1
 10
691.789790
 20
-405.222193
 30
0.0
 11
702.021052
 21
-387.501032
 31
0.0
  0
ARC
  8
0
  6
BYLAYER
 62
     1
 10
624.074536
 20
-400.449347
 30
0.0
 40
26.100241
 50
29.999649
 51
42.634258
  0
ARC
  8
0
  6
BYLAYER
 62
     1
 10
641.187531
 20
-384.694247
 30
0.0
 40
2.839163
 50
42.634258
 51
63.764715
  0
ARC
  8
0
  6
BYLAYER
 62
     1
 10
641.941896
 20
-383.163555
 30
0.0
 40
1.132679
 50
63.764715
 51
81.818989
  0
ARC
  8
0
  6
BYLAYER
 62
     1
 10
642.057258
 20
-382.395810
 30
0.0
 40
0.356365
 50
82.612733
 51
119.998338
  0
ARC
  8
0
  6
BYLAYER
 62
     1
 10
642.057258
 20
-382.395784
 30
0.0
 40
0.356343
 50
120.000513
 51
157.386724
  0
ARC
  8
0
  6
BYLAYER
 62
     1
 10
642.779790
 20
-382.679743
 30
0.0
 40
1.132620
 50
158.180522
 51
176.234903
  0
ARC
  8
0
  6
BYLAYER
 62
     1
 10
644.482554
 20
-382.791799
 30
0.0
 40
2.839067
 50
176.234903
 51
197.365543
  0
ARC
  8
0
  6
BYLAYER
 62
     1
 10
666.684304
 20
-375.848852
 30
0.0
 40
26.101102
 50
197.365543
 51
209.999901
  0
ARC
  8
0
  6
BYLAYER
 62
     1
 10
656.717402
 20
-407.788050
 30
0.0
 40
1.000002
 50
323.786996
 51
363.103402
  0
ARC
  8
0
  6
BYLAYER
 62
     1
 10
652.088862
 20
-408.039240
 30
0.0
 40
5.635376
 50
3.105807
 51
30.538032
  0
ARC
  8
0
  6
BYLAYER
 62
     1
 10
659.249262
 20
-403.905055
 30
0.0
 40
5.635435
 50
209.461944
 51
232.548362
  0
LINE
  8
0
  6
BYLAYER
 62
     1
 10
656.967951
 20
-405.222285
 30
0.0
 11
646.736567
 21
-387.501093
 31
0.0
  0
LINE
  8
0
  6
BYLAYER
 62
     1
 10
654.369807
 20
-406.722193
 30
0.0
 11
644.138484
 21
-389.001093
 31
0.0
  0
ARC
  8
0
  6
BYLAYER
 62
     1
 10
674.378840
 20
-438.378840
 30
0.0
 40
47.947411
 50
121.792805
 51
178.207285
  0
ARC
  8
0
  6
BYLAYER
 62
     1
 10
674.378840
 20
-438.378840
 30
0.0
 40
47.947376
 50
61.792769
 51
118.207229
  0
ARC
  8
0
  6
BYLAYER
 62
     1
 10
674.378840
 20
-438.378840
 30
0.0
 40
47.947403
 50
1.792785
 51
58.207275
  0
ARC
  8
0
  6
BYLAYER
 62
     1
 10
674.378840
 20
-438.378840
 30
0.0
 40
47.947296
 50
324.428659
 51
358.207277
  0
ARC
  8
0
  6
BYLAYER
 62
     1
 10
674.378840
 20
-438.378840
 30
0.0
 40
47.947479
 50
181.792779
 51
215.571586
  0
LINE
  8
0
  6
BYLAYER
 62
     2
 10
625.801203
 20
-399.842097
 30
0.0
 11
627.923274
 21
-391.923090
 31
0.0
  0
LINE
  8
0
  6
BYLAYER
 62
     2
 10
627.923274
 20
-391.923090
 30
0.0
 11
635.842219
 21
-389.801203
 31
0.0
  0
LINE
  8
0
  6
BYLAYER
 62
     2
 10
635.842219
 20
-389.801203
 30
0.0
 11
641.639338
 21
-395.598322
 31
0.0
  0
LINE
  8
0
  6
BYLAYER
 62
     2
 10
641.639338
 20
-395.598322
 30
0.0
 11
639.517512
 21
-403.517329
 31
0.0
  0
LINE
  8
0
  6
BYLAYER
 62
     2
 10
639.517512
 20
-403.517329
 30
0.0
 11
631.598322
 21
-405.639216
 31
0.0
  0
LINE
  8
0
  6
BYLAYER
 62
     2
 10
631.598322
 20
-405.639216
 30
0.0
 11
625.801203
 21
-399.842097
 31
0.0
  0
LINE
  8
0
  6
BYLAYER
 62
     2
 10
722.956538
 20
-399.842097
 30
0.0
 11
720.834467
 21
-391.923090
 31
0.0
  0
LINE
  8
0
  6
BYLAYER
 62
     2
 10
720.834467
 20
-391.923090
 30
0.0
 11
712.915522
 21
-389.801203
 31
0.0
  0
LINE
  8
0
  6
BYLAYER
 62
     2
 10
712.915522
 20
-389.801203
 30
0.0
 11
707.118464
 21
-395.598322
 31
0.0
  0
LINE
  8
0
  6
BYLAYER
 62
     2
 10
707.118464
 20
-395.598322
 30
0.0
 11
709.240290
 21
-403.517329
 31
0.0
  0
LINE
  8
0
  6
BYLAYER
 62
     2
 10
709.240290
 20
-403.517329
 30
0.0
 11
717.159419
 21
-405.639216
 31
0.0
  0
LINE
  8
0
  6
BYLAYER
 62
     2
 10
717.159419
 20
-405.639216
 30
0.0
 11
722.956538
 21
-399.842097
 31
0.0
  0
LINE
  8
0
  6
BYLAYER
 62
     2
 10
635.378871
 20
-472.131373
 30
0.0
 11
631.598322
 21
-471.118403
 31
0.0
  0
LINE
  8
0
  6
BYLAYER
 62
     2
 10
631.598322
 20
-471.118403
 30
0.0
 11
625.801203
 21
-476.915522
 31
0.0
  0
LINE
  8
0
  6
BYLAYER
 62
     2
 10
722.956538
 20
-476.915522
 30
0.0
 11
720.834467
 21
-484.834528
 31
0.0
  0
LINE
  8
0
  6
BYLAYER
 62
     2
 10
720.834467
 20
-484.834528
 30
0.0
 11
713.378779
 21
-486.832286
 31
0.0
  0
LINE
  8
0
  6
BYLAYER
 62
     2
 10
713.378779
 20
-472.131405
 30
0.0
 11
717.159419
 21
-471.118403
 31
0.0
  0
LINE
  8
0
  6
BYLAYER
 62
     2
 10
717.159419
 20
-471.118403
 30
0.0
 11
722.956538
 21
-476.915522
 31
0.0
  0
LINE
  8
0
  6
BYLAYER
 62
     1
 10
189.453669
 20
-470.128932
 30
0.0
 11
189.378840
 21
-470.203791
 31
0.0
  0
LINE
  8
0
  6
BYLAYER
 62
     1
 10
189.378840
 20
-438.378840
 30
0.0
 11
189.378840
 21
-472.129054
 31
0.0
  0
LINE
  8
0
  6
BYLAYER
 62
     1
 10
189.967707
 20
-472.380580
 30
0.0
 11
198.093134
 21
-485.903590
 31
0.0
  0
ARC
  8
0
  6
BYLAYER
 62
     1
 10
196.378840
 20
-486.933680
 30
0.0
 40
1.999957
 50
0.0
 51
30.999889
  0
ARC
  8
0
  6
BYLAYER
 62
     1
 10
200.378840
 20
-505.957179
 30
0.0
 40
2.000000
 50
180.000000
 51
267.000764
  0
LINE
  8
0
  6
BYLAYER
 62
     1
 10
198.378840
 20
-438.378840
 30
0.0
 11
198.378840
 21
-501.399226
 31
0.0
  0
LINE
  8
0
  6
BYLAYER
 62
     1
 10
198.378840
 20
-501.683741
 30
0.0
 11
198.378840
 21
-505.957148
 31
0.0
  0
ARC
  8
0
  6
BYLAYER
 62
     1
 10
196.378840
 20
-501.683741
 30
0.0
 40
2.000000
 50
0.0
 51
16.193620
  0
ARC
  8
0
  6
BYLAYER
 62
     1
 10
189.539118
 20
-472.638087
 30
0.0
 40
0.499978
 50
36.734209
 51
87.012027
  0
ARC
  8
0
  6
BYLAYER
 62
     1
 10
189.539118
 20
-472.638087
 30
0.0
 40
0.499983
 50
30.998540
 51
36.734209
  0
LINE
  8
0
  6
BYLAYER
 62
     1
 10
189.985652
 20
-472.496913
 30
0.0
 11
198.299494
 21
-501.125971
 31
0.0
  0
LINE
  8
0
  6
BYLAYER
 62
     1
 10
189.378840
 20
-472.129054
 30
0.0
 11
189.531580
 21
-472.137019
 31
0.0
  0
ARC
  8
0
  6
BYLAYER
 62
     1
 10
189.505488
 20
-472.636347
 30
0.0
 40
0.499999
 50
16.192782
 51
87.008716
  0
LINE
  8
0
  6
BYLAYER
 62
     1
 10
200.274226
 20
-507.954371
 30
0.0
 11
208.378840
 21
-508.379066
 31
0.0
  0
LINE
  8
0
  6
BYLAYER
 62
     1
 10
208.378840
 20
-508.379066
 30
0.0
 11
208.378840
 21
-438.379023
 31
0.0
  0
LINE
  8
0
  6
BYLAYER
 62
     1
 10
189.453669
 20
-406.628748
 30
0.0
 11
189.378840
 21
-406.553889
 31
0.0
  0
LINE
  8
0
  6
BYLAYER
 62
     1
 10
189.378840
 20
-438.378840
 30
0.0
 11
189.378840
 21
-404.628626
 31
0.0
  0
LINE
  8
0
  6
BYLAYER
 62
     1
 10
189.967707
 20
-404.377100
 30
0.0
 11
198.093134
 21
-390.854090
 31
0.0
  0
ARC
  8
0
  6
BYLAYER
 62
     1
 10
196.378840
 20
-389.824000
 30
0.0
 40
1.999957
 50
329.000111
 51
360.000000
  0
ARC
  8
0
  6
BYLAYER
 62
     1
 10
200.378840
 20
-370.800501
 30
0.0
 40
2.000000
 50
92.999236
 51
180.000000
  0
LINE
  8
0
  6
BYLAYER
 62
     1
 10
198.378840
 20
-438.378840
 30
0.0
 11
198.378840
 21
-375.358454
 31
0.0
  0
LINE
  8
0
  6
BYLAYER
 62
     1
 10
198.378840
 20
-375.073939
 30
0.0
 11
198.378840
 21
-370.800532
 31
0.0
  0
ARC
  8
0
  6
BYLAYER
 62
     1
 10
196.378840
 20
-375.073939
 30
0.0
 40
2.000000
 50
343.806380
 51
360.000000
  0
ARC
  8
0
  6
BYLAYER
 62
     1
 10
189.539118
 20
-404.119593
 30
0.0
 40
0.499978
 50
272.987973
 51
323.265791
  0
ARC
  8
0
  6
BYLAYER
 62
     1
 10
189.539118
 20
-404.119593
 30
0.0
 40
0.499983
 50
323.265791
 51
329.001460
  0
LINE
  8
0
  6
BYLAYER
 62
     1
 10
189.985652
 20
-404.260767
 30
0.0
 11
198.299494
 21
-375.631709
 31
0.0
  0
LINE
  8
0
  6
BYLAYER
 62
     1
 10
189.378840
 20
-404.628626
 30
0.0
 11
189.531580
 21
-404.620661
 31
0.0
  0
ARC
  8
0
  6
BYLAYER
 62
     1
 10
189.505488
 20
-404.121333
 30
0.0
 40
0.499999
 50
272.991284
 51
343.807218
  0
LINE
  8
0
  6
BYLAYER
 62
     1
 10
200.274226
 20
-368.803309
 30
0.0
 11
208.378840
 21
-368.378614
 31
0.0
  0
LINE
  8
0
  6
BYLAYER
 62
     1
 10
208.378840
 20
-368.378614
 30
0.0
 11
208.378840
 21
-438.378657
 31
0.0
  0
ENDSEC
  0
EOF
