  0
SECTION
  2
HEADER
  9
$EXTMIN
 10
99.706485
 20
541.0
 30
0.0
  9
$EXTMAX
 10
749.645051
 20
0.0
 30
0.0
  0
ENDSEC
  0
SECTION
  2
TABLES
  0
ENDSEC
  0
SECTION
  2
BLOCKS
  0
ENDSEC
  0
SECTION
  2
ENTITIES
  0
LINE
  8
0
  6
BYLAYER
 62
     7
 10
245.368548
 20
-65.983546
 30
0.0
 11
247.143545
 21
-65.983546
 31
0.0
  0
ARC
  8
0
  6
BYLAYER
 62
     7
 10
250.782374
 20
-138.847095
 30
0.0
 40
0.532532
 50
90.0
 51
270.000012
  0
ARC
  8
0
  6
BYLAYER
 62
     7
 10
247.676130
 20
-138.847095
 30
0.0
 40
0.532532
 50
90.0
 51
270.000012
  0
ARC
  8
0
  6
BYLAYER
 62
     7
 10
250.782374
 20
-129.084612
 30
0.0
 40
0.532532
 50
90.0
 51
270.000012
  0
ARC
  8
0
  6
BYLAYER
 62
     7
 10
247.676130
 20
-129.084612
 30
0.0
 40
0.532532
 50
90.0
 51
270.000012
  0
ARC
  8
0
  6
BYLAYER
 62
     7
 10
250.782374
 20
-119.322128
 30
0.0
 40
0.532532
 50
90.0
 51
270.000012
  0
ARC
  8
0
  6
BYLAYER
 62
     7
 10
247.676130
 20
-119.322128
 30
0.0
 40
0.532532
 50
90.0
 51
270.000012
  0
ARC
  8
0
  6
BYLAYER
 62
     7
 10
250.782374
 20
-99.797162
 30
0.0
 40
0.532532
 50
90.0
 51
270.000012
  0
ARC
  8
0
  6
BYLAYER
 62
     7
 10
247.676130
 20
-99.797162
 30
0.0
 40
0.532532
 50
90.0
 51
270.000012
  0
ARC
  8
0
  6
BYLAYER
 62
     7
 10
250.782320
 20
-90.034679
 30
0.0
 40
0.532532
 50
90.0
 51
270.000012
  0
ARC
  8
0
  6
BYLAYER
 62
     7
 10
247.676130
 20
-90.034679
 30
0.0
 40
0.532532
 50
90.0
 51
270.000012
  0
ARC
  8
0
  6
BYLAYER
 62
     7
 10
250.782320
 20
-80.272196
 30
0.0
 40
0.532532
 50
90.0
 51
270.000012
  0
ARC
  8
0
  6
BYLAYER
 62
     7
 10
247.676130
 20
-80.272196
 30
0.0
 40
0.532532
 50
90.0
 51
270.000012
  0
LINE
  8
0
  6
BYLAYER
 62
     7
 10
247.143599
 20
-109.559699
 30
0.0
 11
247.143653
 21
-153.135853
 31
0.0
  0
ARC
  8
0
  6
BYLAYER
 62
     7
 10
250.782374
 20
-109.559645
 30
0.0
 40
0.532532
 50
90.0
 51
270.000012
  0
ARC
  8
0
  6
BYLAYER
 62
     7
 10
247.676130
 20
-109.559645
 30
0.0
 40
0.532532
 50
90.0
 51
270.000012
  0
LINE
  8
0
  6
BYLAYER
 62
     7
 10
247.143599
 20
-109.559699
 30
0.0
 11
247.143545
 21
-51.694734
 31
0.0
  0
LINE
  8
0
  6
BYLAYER
 62
     7
 10
318.143477
 20
-51.694734
 30
0.0
 11
247.143545
 21
-51.694734
 31
0.0
  0
LINE
  8
0
  6
BYLAYER
 62
     7
 10
329.902831
 20
-56.309737
 30
0.0
 11
318.143477
 21
-56.309737
 31
0.0
  0
LINE
  8
0
  6
BYLAYER
 62
     7
 10
318.143477
 20
-57.197235
 30
0.0
 11
329.902831
 21
-57.197235
 31
0.0
  0
LINE
  8
0
  6
BYLAYER
 62
     7
 10
318.143477
 20
-59.859731
 30
0.0
 11
329.902831
 21
-59.859731
 31
0.0
  0
LINE
  8
0
  6
BYLAYER
 62
     7
 10
318.143477
 20
-65.184722
 30
0.0
 11
329.902831
 21
-65.184722
 31
0.0
  0
ARC
  8
0
  6
BYLAYER
 62
     7
 10
265.337317
 20
-63.675963
 30
0.0
 40
10.206232
 50
180.000000
 51
360.000005
  0
ARC
  8
0
  6
BYLAYER
 62
     7
 10
299.949758
 20
-63.675963
 30
0.0
 40
10.206232
 50
180.000000
 51
360.000005
  0
LINE
  8
0
  6
BYLAYER
 62
     7
 10
247.143545
 20
-60.569773
 30
0.0
 11
254.243587
 21
-60.569773
 31
0.0
  0
ARC
  8
0
  6
BYLAYER
 62
     7
 10
254.243587
 20
-61.457271
 30
0.0
 40
0.887498
 50
0.0
 51
89.999992
  0
ARC
  8
0
  6
BYLAYER
 62
     7
 10
276.431048
 20
-61.457217
 30
0.0
 40
0.887498
 50
90.0
 51
180.000003
  0
LINE
  8
0
  6
BYLAYER
 62
     7
 10
276.431048
 20
-60.569719
 30
0.0
 11
288.856027
 21
-60.569719
 31
0.0
  0
ARC
  8
0
  6
BYLAYER
 62
     7
 10
288.856027
 20
-61.457217
 30
0.0
 40
0.887498
 50
0.0
 51
89.999992
  0
LINE
  8
0
  6
BYLAYER
 62
     7
 10
311.043489
 20
-60.569719
 30
0.0
 11
318.143477
 21
-60.569719
 31
0.0
  0
ARC
  8
0
  6
BYLAYER
 62
     7
 10
311.043489
 20
-61.457217
 30
0.0
 40
0.887498
 50
90.0
 51
180.000003
  0
CIRCLE
  8
0
  6
BYLAYER
 62
     7
 10
267.334189
 20
-99.794778
 30
0.0
 40
1.198123
  0
CIRCLE
  8
0
  6
BYLAYER
 62
     7
 10
316.146605
 20
-99.733460
 30
0.0
 40
1.198123
  0
LINE
  8
0
  6
BYLAYER
 62
     7
 10
247.676130
 20
-99.264684
 30
0.0
 11
264.724995
 21
-99.264684
 31
0.0
  0
LINE
  8
0
  6
BYLAYER
 62
     7
 10
247.676130
 20
-100.329694
 30
0.0
 11
264.725970
 21
-100.329694
 31
0.0
  0
LINE
  8
0
  6
BYLAYER
 62
     7
 10
269.943382
 20
-99.264684
 30
0.0
 11
291.740397
 21
-99.264684
 31
0.0
  0
LINE
  8
0
  6
BYLAYER
 62
     7
 10
269.942407
 20
-100.329694
 30
0.0
 11
291.740397
 21
-100.329694
 31
0.0
  0
LINE
  8
0
  6
BYLAYER
 62
     7
 10
313.525711
 20
-99.264630
 30
0.0
 11
291.740397
 21
-99.264684
 31
0.0
  0
LINE
  8
0
  6
BYLAYER
 62
     7
 10
313.551712
 20
-100.329640
 30
0.0
 11
291.740397
 21
-100.329694
 31
0.0
  0
LINE
  8
0
  6
BYLAYER
 62
     7
 10
329.902831
 20
-99.264630
 30
0.0
 11
318.767499
 21
-99.264630
 31
0.0
  0
LINE
  8
0
  6
BYLAYER
 62
     7
 10
329.902831
 20
-100.329640
 30
0.0
 11
318.741498
 21
-100.329640
 31
0.0
  0
LINE
  8
0
  6
BYLAYER
 62
     7
 10
329.902831
 20
-154.822173
 30
0.0
 11
291.740505
 21
-154.822122
 31
0.0
  0
LINE
  8
0
  6
BYLAYER
 62
     7
 10
329.902831
 20
-160.147164
 30
0.0
 11
291.740505
 21
-160.147112
 31
0.0
  0
LINE
  8
0
  6
BYLAYER
 62
     7
 10
329.902831
 20
-162.809659
 30
0.0
 11
291.740505
 21
-162.809608
 31
0.0
  0
LINE
  8
0
  6
BYLAYER
 62
     7
 10
247.143761
 20
-143.284696
 30
0.0
 11
249.882688
 21
-153.506583
 31
0.0
  0
ARC
  8
0
  6
BYLAYER
 62
     7
 10
251.597179
 20
-153.047179
 30
0.0
 40
1.774973
 50
195.000043
 51
270.000055
  0
LINE
  8
0
  6
BYLAYER
 62
     7
 10
247.143761
 20
-149.497185
 30
0.0
 11
248.585350
 21
-148.664884
 31
0.0
  0
LINE
  8
0
  6
BYLAYER
 62
     7
 10
247.143761
 20
-149.497185
 30
0.0
 11
249.644888
 21
-158.831573
 31
0.0
  0
ARC
  8
0
  6
BYLAYER
 62
     7
 10
251.359379
 20
-158.372170
 30
0.0
 40
1.774973
 50
195.000043
 51
270.000055
  0
ARC
  8
0
  6
BYLAYER
 62
     7
 10
251.359433
 20
-161.034665
 30
0.0
 40
1.775025
 50
195.000070
 51
270.000055
  0
LINE
  8
0
  6
BYLAYER
 62
     7
 10
247.143761
 20
-152.159680
 30
0.0
 11
249.644888
 21
-161.494069
 31
0.0
  0
LINE
  8
0
  6
BYLAYER
 62
     7
 10
251.597179
 20
-154.822176
 30
0.0
 11
291.740505
 21
-154.822122
 31
0.0
  0
LINE
  8
0
  6
BYLAYER
 62
     7
 10
251.359433
 20
-160.147167
 30
0.0
 11
291.740505
 21
-160.147112
 31
0.0
  0
LINE
  8
0
  6
BYLAYER
 62
     7
 10
251.359433
 20
-162.809662
 30
0.0
 11
291.740505
 21
-162.809608
 31
0.0
  0
LINE
  8
0
  6
BYLAYER
 62
     7
 10
247.143653
 20
-153.135853
 30
0.0
 11
247.370240
 21
-153.005036
 31
0.0
  0
ARC
  8
0
  6
BYLAYER
 62
     7
 10
267.334189
 20
-99.794778
 30
0.0
 40
2.662497
 50
11.484133
 51
168.515862
  0
ARC
  8
0
  6
BYLAYER
 62
     7
 10
316.146605
 20
-99.733460
 30
0.0
 40
2.662487
 50
10.140737
 51
169.859264
  0
ARC
  8
0
  6
BYLAYER
 62
     7
 10
316.146605
 20
-99.733460
 30
0.0
 40
2.662499
 50
192.939225
 51
347.06079
  0
ARC
  8
0
  6
BYLAYER
 62
     7
 10
267.334189
 20
-99.794778
 30
0.0
 40
2.662463
 50
191.590672
 51
348.409452
  0
LINE
  8
0
  6
BYLAYER
 62
     7
 10
247.676130
 20
-80.804782
 30
0.0
 11
329.902831
 21
-80.804681
 31
0.0
  0
LINE
  8
0
  6
BYLAYER
 62
     7
 10
247.676130
 20
-89.502201
 30
0.0
 11
329.902831
 21
-89.502151
 31
0.0
  0
LINE
  8
0
  6
BYLAYER
 62
     7
 10
247.676130
 20
-90.567265
 30
0.0
 11
329.902831
 21
-90.567164
 31
0.0
  0
LINE
  8
0
  6
BYLAYER
 62
     7
 10
255.131085
 20
-57.463528
 30
0.0
 11
255.131085
 21
-63.675963
 31
0.0
  0
LINE
  8
0
  6
BYLAYER
 62
     7
 10
253.356088
 20
-55.688531
 30
0.0
 11
247.143545
 21
-55.688531
 31
0.0
  0
ARC
  8
0
  6
BYLAYER
 62
     7
 10
253.356088
 20
-57.463528
 30
0.0
 40
1.774997
 50
0.0
 51
90.000003
  0
LINE
  8
0
  6
BYLAYER
 62
     7
 10
275.543550
 20
-57.463528
 30
0.0
 11
275.543550
 21
-63.675963
 31
0.0
  0
ARC
  8
0
  6
BYLAYER
 62
     7
 10
277.318547
 20
-57.463528
 30
0.0
 40
1.774997
 50
90.0
 51
180.000003
  0
LINE
  8
0
  6
BYLAYER
 62
     7
 10
289.743525
 20
-57.463528
 30
0.0
 11
289.743525
 21
-63.675963
 31
0.0
  0
LINE
  8
0
  6
BYLAYER
 62
     7
 10
287.968529
 20
-55.688531
 30
0.0
 11
277.318547
 21
-55.688531
 31
0.0
  0
ARC
  8
0
  6
BYLAYER
 62
     7
 10
287.968529
 20
-57.463528
 30
0.0
 40
1.774997
 50
0.0
 51
90.000003
  0
LINE
  8
0
  6
BYLAYER
 62
     7
 10
310.155990
 20
-57.463474
 30
0.0
 11
310.155990
 21
-63.675963
 31
0.0
  0
LINE
  8
0
  6
BYLAYER
 62
     7
 10
318.143477
 20
-55.688477
 30
0.0
 11
311.930987
 21
-55.688477
 31
0.0
  0
ARC
  8
0
  6
BYLAYER
 62
     7
 10
311.930987
 20
-57.463474
 30
0.0
 40
1.774997
 50
90.0
 51
180.000003
  0
LINE
  8
0
  6
BYLAYER
 62
     7
 10
329.902831
 20
-79.739718
 30
0.0
 11
247.676130
 21
-79.739718
 31
0.0
  0
LINE
  8
0
  6
BYLAYER
 62
     7
 10
318.143477
 20
-79.739718
 30
0.0
 11
318.143477
 21
-51.694734
 31
0.0
  0
LINE
  8
0
  6
BYLAYER
 62
     7
 10
247.676130
 20
-109.027167
 30
0.0
 11
329.902831
 21
-109.027167
 31
0.0
  0
LINE
  8
0
  6
BYLAYER
 62
     7
 10
247.676130
 20
-110.092177
 30
0.0
 11
329.902831
 21
-110.092177
 31
0.0
  0
LINE
  8
0
  6
BYLAYER
 62
     7
 10
247.676130
 20
-119.854660
 30
0.0
 11
329.902831
 21
-119.854607
 31
0.0
  0
LINE
  8
0
  6
BYLAYER
 62
     7
 10
247.676130
 20
-128.552134
 30
0.0
 11
329.902831
 21
-128.552083
 31
0.0
  0
LINE
  8
0
  6
BYLAYER
 62
     7
 10
247.676130
 20
-129.617198
 30
0.0
 11
329.902831
 21
-129.617097
 31
0.0
  0
LINE
  8
0
  6
BYLAYER
 62
     7
 10
247.676130
 20
-138.314671
 30
0.0
 11
329.902831
 21
-138.314570
 31
0.0
  0
LINE
  8
0
  6
BYLAYER
 62
     7
 10
247.676130
 20
-139.379681
 30
0.0
 11
329.902831
 21
-139.379580
 31
0.0
  0
LINE
  8
0
  6
BYLAYER
 62
     7
 10
247.676130
 20
-118.789651
 30
0.0
 11
329.902831
 21
-118.789597
 31
0.0
  0
LINE
  8
0
  6
BYLAYER
 62
     7
 10
328.793458
 20
-80.804673
 30
0.0
 11
328.793458
 21
-89.502147
 31
0.0
  0
LINE
  8
0
  6
BYLAYER
 62
     7
 10
254.687390
 20
-80.804782
 30
0.0
 11
254.687390
 21
-89.502201
 31
0.0
  0
LINE
  8
0
  6
BYLAYER
 62
     7
 10
328.793458
 20
-90.567157
 30
0.0
 11
328.793458
 21
-99.264630
 31
0.0
  0
LINE
  8
0
  6
BYLAYER
 62
     7
 10
254.687390
 20
-90.567265
 30
0.0
 11
254.687390
 21
-99.264630
 31
0.0
  0
LINE
  8
0
  6
BYLAYER
 62
     7
 10
328.793458
 20
-100.329694
 30
0.0
 11
328.793458
 21
-109.027167
 31
0.0
  0
LINE
  8
0
  6
BYLAYER
 62
     7
 10
254.687390
 20
-100.329694
 30
0.0
 11
254.687390
 21
-109.027167
 31
0.0
  0
LINE
  8
0
  6
BYLAYER
 62
     7
 10
254.687390
 20
-110.092177
 30
0.0
 11
254.687390
 21
-118.789651
 31
0.0
  0
LINE
  8
0
  6
BYLAYER
 62
     7
 10
328.793458
 20
-110.092177
 30
0.0
 11
328.793458
 21
-118.789597
 31
0.0
  0
LINE
  8
0
  6
BYLAYER
 62
     7
 10
254.687390
 20
-119.854660
 30
0.0
 11
254.687390
 21
-128.552134
 31
0.0
  0
LINE
  8
0
  6
BYLAYER
 62
     7
 10
328.793458
 20
-119.854606
 30
0.0
 11
328.793458
 21
-128.552080
 31
0.0
  0
LINE
  8
0
  6
BYLAYER
 62
     7
 10
254.687390
 20
-129.617144
 30
0.0
 11
254.687390
 21
-138.314671
 31
0.0
  0
LINE
  8
0
  6
BYLAYER
 62
     7
 10
328.793458
 20
-129.617089
 30
0.0
 11
328.793458
 21
-138.314563
 31
0.0
  0
LINE
  8
0
  6
BYLAYER
 62
     7
 10
329.902831
 20
-79.299587
 30
0.0
 11
328.830834
 21
-79.728992
 31
0.0
  0
LINE
  8
0
  6
BYLAYER
 62
     7
 10
254.678560
 20
-79.625476
 30
0.0
 11
247.113264
 21
-77.481321
 31
0.0
  0
LINE
  8
0
  6
BYLAYER
 62
     7
 10
254.687390
 20
-139.379627
 30
0.0
 11
254.687390
 21
-141.154624
 31
0.0
  0
LINE
  8
0
  6
BYLAYER
 62
     7
 10
328.793458
 20
-139.379573
 30
0.0
 11
328.793458
 21
-141.154570
 31
0.0
  0
LINE
  8
0
  6
BYLAYER
 62
     7
 10
328.793458
 20
-141.154570
 30
0.0
 11
254.687390
 21
-141.154624
 31
0.0
  0
LINE
  8
0
  6
BYLAYER
 62
     7
 10
328.793458
 20
-141.154570
 30
0.0
 11
329.902831
 21
-141.467823
 31
0.0
  0
LINE
  8
0
  6
BYLAYER
 62
     7
 10
254.687390
 20
-141.154624
 30
0.0
 11
247.143761
 21
-143.284696
 31
0.0
  0
LINE
  8
0
  6
BYLAYER
 62
     7
 10
245.368548
 20
-153.135907
 30
0.0
 11
247.143545
 21
-153.135907
 31
0.0
  0
LINE
  8
0
  6
BYLAYER
 62
     7
 10
329.902831
 20
-109.559726
 30
0.0
 11
329.902831
 21
-55.777319
 31
0.0
  0
LINE
  8
0
  6
BYLAYER
 62
     7
 10
329.902831
 20
-55.777319
 30
0.0
 11
336.115321
 21
-55.777319
 31
0.0
  0
LINE
  8
0
  6
BYLAYER
 62
     7
 10
329.902831
 20
-163.342134
 30
0.0
 11
329.902831
 21
-109.559726
 31
0.0
  0
LINE
  8
0
  6
BYLAYER
 62
     7
 10
221.406143
 20
-169.559727
 30
0.0
 11
221.406143
 21
-109.559727
 31
0.0
  0
LINE
  8
0
  6
BYLAYER
 62
     7
 10
221.406143
 20
-109.559727
 30
0.0
 11
221.406143
 21
-49.559727
 31
0.0
  0
LINE
  8
0
  6
BYLAYER
 62
     7
 10
229.393629
 20
-109.559727
 30
0.0
 11
229.393629
 21
-169.559727
 31
0.0
  0
LINE
  8
0
  6
BYLAYER
 62
     7
 10
231.137642
 20
-65.823885
 30
0.0
 11
245.368602
 21
-66.072302
 31
0.0
  0
LINE
  8
0
  6
BYLAYER
 62
     7
 10
229.393629
 20
-49.559727
 30
0.0
 11
229.393629
 21
-109.559727
 31
0.0
  0
ARC
  8
0
  6
BYLAYER
 62
     7
 10
231.168626
 20
-64.049158
 30
0.0
 40
1.774997
 50
180.000000
 51
268.999783
  0
LINE
  8
0
  6
BYLAYER
 62
     7
 10
243.593605
 20
-153.078137
 30
0.0
 11
243.593605
 21
-161.922137
 31
0.0
  0
LINE
  8
0
  6
BYLAYER
 62
     7
 10
245.368602
 20
-153.047152
 30
0.0
 11
243.593605
 21
-153.078137
 31
0.0
  0
LINE
  8
0
  6
BYLAYER
 62
     7
 10
243.593605
 20
-161.922137
 30
0.0
 11
229.393629
 21
-162.169993
 31
0.0
  0
LINE
  8
0
  6
BYLAYER
 62
     7
 10
245.368602
 20
-109.559727
 30
0.0
 11
245.368602
 21
-153.047152
 31
0.0
  0
LINE
  8
0
  6
BYLAYER
 62
     7
 10
245.368602
 20
-66.072302
 30
0.0
 11
245.368602
 21
-109.559727
 31
0.0
  0
LINE
  8
0
  6
BYLAYER
 62
     7
 10
247.143545
 20
-51.694734
 30
0.0
 11
318.143423
 21
-51.694734
 31
0.0
  0
LINE
  8
0
  6
BYLAYER
 62
     7
 10
318.143423
 20
-49.919737
 30
0.0
 11
247.143545
 21
-49.919737
 31
0.0
  0
LINE
  8
0
  6
BYLAYER
 62
     7
 10
379.219228
 20
-55.777319
 30
0.0
 11
388.406143
 21
-64.964234
 31
0.0
  0
LINE
  8
0
  6
BYLAYER
 62
     7
 10
336.115321
 20
-55.777319
 30
0.0
 11
379.219228
 21
-55.777319
 31
0.0
  0
LINE
  8
0
  6
BYLAYER
 62
     7
 10
388.406143
 20
-64.964234
 30
0.0
 11
388.406143
 21
-109.559726
 31
0.0
  0
LINE
  8
0
  6
BYLAYER
 62
     7
 10
388.406143
 20
-154.155218
 30
0.0
 11
379.219228
 21
-163.342134
 31
0.0
  0
LINE
  8
0
  6
BYLAYER
 62
     7
 10
379.219228
 20
-163.342134
 30
0.0
 11
329.902831
 21
-163.342134
 31
0.0
  0
LINE
  8
0
  6
BYLAYER
 62
     7
 10
388.406143
 20
-109.559726
 30
0.0
 11
388.406143
 21
-154.155218
 31
0.0
  0
LINE
  8
0
  6
BYLAYER
 62
     7
 10
379.219228
 20
-55.777319
 30
0.0
 11
379.219228
 21
-163.342134
 31
0.0
  0
LINE
  8
0
  6
BYLAYER
 62
     7
 10
318.143423
 20
-51.694734
 30
0.0
 11
318.143423
 21
-2.559727
 31
0.0
  0
LINE
  8
0
  6
BYLAYER
 62
     7
 10
315.143423
 20
0.440273
 30
0.0
 11
250.143545
 21
0.440273
 31
0.0
  0
ARC
  8
0
  6
BYLAYER
 62
     7
 10
315.143423
 20
-2.559727
 30
0.0
 40
3.000000
 50
0.0
 51
90.0
  0
ARC
  8
0
  6
BYLAYER
 62
     7
 10
250.143545
 20
-2.559727
 30
0.0
 40
3.000000
 50
90.0
 51
180.0
  0
LINE
  8
0
  6
BYLAYER
 62
     7
 10
247.143545
 20
-2.559727
 30
0.0
 11
247.143545
 21
-51.694734
 31
0.0
  0
LINE
  8
0
  6
BYLAYER
 62
     7
 10
221.406143
 20
-49.559727
 30
0.0
 11
229.393629
 21
-49.559727
 31
0.0
  0
LINE
  8
0
  6
BYLAYER
 62
     7
 10
221.406143
 20
-169.559727
 30
0.0
 11
229.393629
 21
-169.559727
 31
0.0
  0
LINE
  8
0
  6
BYLAYER
 62
     7
 10
247.143599
 20
-418.053505
 30
0.0
 11
247.143599
 21
-481.065896
 31
0.0
  0
ARC
  8
0
  6
BYLAYER
 62
     7
 10
248.474846
 20
-481.065896
 30
0.0
 40
1.331248
 50
180.000000
 51
270.000000
  0
ARC
  8
0
  6
BYLAYER
 62
     7
 10
248.474846
 20
-418.053505
 30
0.0
 40
1.331248
 50
90.0
 51
180.0
  0
LINE
  8
0
  6
BYLAYER
 62
     7
 10
316.812229
 20
-416.722257
 30
0.0
 11
248.474846
 21
-416.722257
 31
0.0
  0
ARC
  8
0
  6
BYLAYER
 62
     7
 10
316.812229
 20
-418.053505
 30
0.0
 40
1.331248
 50
0.0
 51
90.0
  0
LINE
  8
0
  6
BYLAYER
 62
     7
 10
318.143477
 20
-481.065896
 30
0.0
 11
318.143477
 21
-418.053505
 31
0.0
  0
LINE
  8
0
  6
BYLAYER
 62
     7
 10
248.474846
 20
-482.397144
 30
0.0
 11
316.812229
 21
-482.397144
 31
0.0
  0
ARC
  8
0
  6
BYLAYER
 62
     7
 10
316.812229
 20
-481.065896
 30
0.0
 40
1.331248
 50
270.0
 51
360.0
  0
LINE
  8
0
  6
BYLAYER
 62
     7
 10
247.143599
 20
-449.559700
 30
0.0
 11
247.143653
 21
-493.135854
 31
0.0
  0
LINE
  8
0
  6
BYLAYER
 62
     7
 10
329.902831
 20
-494.822174
 30
0.0
 11
291.740505
 21
-494.822123
 31
0.0
  0
LINE
  8
0
  6
BYLAYER
 62
     7
 10
329.902831
 20
-500.147165
 30
0.0
 11
291.740505
 21
-500.147114
 31
0.0
  0
LINE
  8
0
  6
BYLAYER
 62
     7
 10
329.902831
 20
-502.809660
 30
0.0
 11
291.740505
 21
-502.809609
 31
0.0
  0
LINE
  8
0
  6
BYLAYER
 62
     7
 10
247.143761
 20
-483.284697
 30
0.0
 11
249.882688
 21
-493.506584
 31
0.0
  0
ARC
  8
0
  6
BYLAYER
 62
     7
 10
251.597179
 20
-493.047180
 30
0.0
 40
1.774973
 50
195.000043
 51
270.000055
  0
LINE
  8
0
  6
BYLAYER
 62
     7
 10
247.143761
 20
-489.497186
 30
0.0
 11
248.585350
 21
-488.664885
 31
0.0
  0
LINE
  8
0
  6
BYLAYER
 62
     7
 10
247.143761
 20
-489.497186
 30
0.0
 11
249.644888
 21
-498.831575
 31
0.0
  0
ARC
  8
0
  6
BYLAYER
 62
     7
 10
251.359379
 20
-498.372171
 30
0.0
 40
1.774973
 50
195.000043
 51
270.000055
  0
ARC
  8
0
  6
BYLAYER
 62
     7
 10
251.359433
 20
-501.034666
 30
0.0
 40
1.775025
 50
195.000070
 51
270.000055
  0
LINE
  8
0
  6
BYLAYER
 62
     7
 10
247.143761
 20
-492.159681
 30
0.0
 11
249.644888
 21
-501.494070
 31
0.0
  0
LINE
  8
0
  6
BYLAYER
 62
     7
 10
251.597179
 20
-494.822177
 30
0.0
 11
291.740505
 21
-494.822123
 31
0.0
  0
LINE
  8
0
  6
BYLAYER
 62
     7
 10
251.359433
 20
-500.147168
 30
0.0
 11
291.740505
 21
-500.147114
 31
0.0
  0
LINE
  8
0
  6
BYLAYER
 62
     7
 10
251.359433
 20
-502.809663
 30
0.0
 11
291.740505
 21
-502.809609
 31
0.0
  0
LINE
  8
0
  6
BYLAYER
 62
     7
 10
247.143653
 20
-493.135854
 30
0.0
 11
247.370240
 21
-493.005037
 31
0.0
  0
LINE
  8
0
  6
BYLAYER
 62
     7
 10
318.143477
 20
-450.092178
 30
0.0
 11
329.902831
 21
-450.092178
 31
0.0
  0
LINE
  8
0
  6
BYLAYER
 62
     7
 10
318.143477
 20
-459.854616
 30
0.0
 11
329.902831
 21
-459.854608
 31
0.0
  0
LINE
  8
0
  6
BYLAYER
 62
     7
 10
318.143477
 20
-468.552092
 30
0.0
 11
329.902831
 21
-468.552084
 31
0.0
  0
LINE
  8
0
  6
BYLAYER
 62
     7
 10
318.143477
 20
-469.617112
 30
0.0
 11
329.902831
 21
-469.617098
 31
0.0
  0
LINE
  8
0
  6
BYLAYER
 62
     7
 10
318.143477
 20
-478.314586
 30
0.0
 11
329.902831
 21
-478.314571
 31
0.0
  0
LINE
  8
0
  6
BYLAYER
 62
     7
 10
318.143477
 20
-479.379595
 30
0.0
 11
329.902831
 21
-479.379581
 31
0.0
  0
LINE
  8
0
  6
BYLAYER
 62
     7
 10
318.143477
 20
-458.789606
 30
0.0
 11
329.902831
 21
-458.789598
 31
0.0
  0
LINE
  8
0
  6
BYLAYER
 62
     7
 10
328.793458
 20
-450.092178
 30
0.0
 11
328.793458
 21
-458.789598
 31
0.0
  0
LINE
  8
0
  6
BYLAYER
 62
     7
 10
328.793458
 20
-459.854607
 30
0.0
 11
328.793458
 21
-468.552081
 31
0.0
  0
LINE
  8
0
  6
BYLAYER
 62
     7
 10
328.793458
 20
-469.617091
 30
0.0
 11
328.793458
 21
-478.314564
 31
0.0
  0
LINE
  8
0
  6
BYLAYER
 62
     7
 10
328.793458
 20
-479.379574
 30
0.0
 11
328.793458
 21
-481.154571
 31
0.0
  0
LINE
  8
0
  6
BYLAYER
 62
     7
 10
328.793458
 20
-481.154571
 30
0.0
 11
318.143477
 21
-481.154579
 31
0.0
  0
LINE
  8
0
  6
BYLAYER
 62
     7
 10
328.793458
 20
-481.154571
 30
0.0
 11
329.902831
 21
-481.467825
 31
0.0
  0
LINE
  8
0
  6
BYLAYER
 62
     7
 10
250.287020
 20
-482.397144
 30
0.0
 11
247.143761
 21
-483.284697
 31
0.0
  0
LINE
  8
0
  6
BYLAYER
 62
     7
 10
245.368548
 20
-493.135908
 30
0.0
 11
247.143545
 21
-493.135908
 31
0.0
  0
LINE
  8
0
  6
BYLAYER
 62
     7
 10
329.902831
 20
-503.342135
 30
0.0
 11
329.902831
 21
-449.559728
 31
0.0
  0
LINE
  8
0
  6
BYLAYER
 62
     7
 10
247.143599
 20
-449.559755
 30
0.0
 11
247.143653
 21
-405.983601
 31
0.0
  0
LINE
  8
0
  6
BYLAYER
 62
     7
 10
329.902831
 20
-404.297281
 30
0.0
 11
291.740505
 21
-404.297332
 31
0.0
  0
LINE
  8
0
  6
BYLAYER
 62
     7
 10
329.902831
 20
-398.972290
 30
0.0
 11
291.740505
 21
-398.972342
 31
0.0
  0
LINE
  8
0
  6
BYLAYER
 62
     7
 10
329.902831
 20
-396.309795
 30
0.0
 11
291.740505
 21
-396.309846
 31
0.0
  0
LINE
  8
0
  6
BYLAYER
 62
     7
 10
247.143761
 20
-415.834758
 30
0.0
 11
249.882688
 21
-405.612871
 31
0.0
  0
ARC
  8
0
  6
BYLAYER
 62
     7
 10
251.597179
 20
-406.072275
 30
0.0
 40
1.774973
 50
90.0
 51
165.000012
  0
LINE
  8
0
  6
BYLAYER
 62
     7
 10
247.143761
 20
-409.622269
 30
0.0
 11
248.585350
 21
-410.454570
 31
0.0
  0
LINE
  8
0
  6
BYLAYER
 62
     7
 10
247.143761
 20
-409.622269
 30
0.0
 11
249.644888
 21
-400.287881
 31
0.0
  0
ARC
  8
0
  6
BYLAYER
 62
     7
 10
251.359379
 20
-400.747284
 30
0.0
 40
1.774973
 50
90.0
 51
165.000012
  0
ARC
  8
0
  6
BYLAYER
 62
     7
 10
251.359433
 20
-398.084789
 30
0.0
 40
1.775025
 50
90.0
 51
164.999985
  0
LINE
  8
0
  6
BYLAYER
 62
     7
 10
247.143761
 20
-406.959774
 30
0.0
 11
249.644888
 21
-397.625385
 31
0.0
  0
LINE
  8
0
  6
BYLAYER
 62
     7
 10
251.597179
 20
-404.297278
 30
0.0
 11
291.740505
 21
-404.297332
 31
0.0
  0
LINE
  8
0
  6
BYLAYER
 62
     7
 10
251.359433
 20
-398.972287
 30
0.0
 11
291.740505
 21
-398.972342
 31
0.0
  0
LINE
  8
0
  6
BYLAYER
 62
     7
 10
251.359433
 20
-396.309792
 30
0.0
 11
291.740505
 21
-396.309846
 31
0.0
  0
LINE
  8
0
  6
BYLAYER
 62
     7
 10
247.143653
 20
-405.983601
 30
0.0
 11
247.370240
 21
-406.114418
 31
0.0
  0
LINE
  8
0
  6
BYLAYER
 62
     7
 10
318.143477
 20
-449.027277
 30
0.0
 11
329.902831
 21
-449.027277
 31
0.0
  0
LINE
  8
0
  6
BYLAYER
 62
     7
 10
318.143477
 20
-439.264839
 30
0.0
 11
329.902831
 21
-439.264847
 31
0.0
  0
LINE
  8
0
  6
BYLAYER
 62
     7
 10
318.143477
 20
-430.567363
 30
0.0
 11
329.902831
 21
-430.567371
 31
0.0
  0
LINE
  8
0
  6
BYLAYER
 62
     7
 10
318.143477
 20
-429.502343
 30
0.0
 11
329.902831
 21
-429.502357
 31
0.0
  0
LINE
  8
0
  6
BYLAYER
 62
     7
 10
318.143477
 20
-420.804869
 30
0.0
 11
329.902831
 21
-420.804884
 31
0.0
  0
LINE
  8
0
  6
BYLAYER
 62
     7
 10
318.143477
 20
-419.739860
 30
0.0
 11
329.902831
 21
-419.739874
 31
0.0
  0
LINE
  8
0
  6
BYLAYER
 62
     7
 10
318.143477
 20
-440.329849
 30
0.0
 11
329.902831
 21
-440.329857
 31
0.0
  0
LINE
  8
0
  6
BYLAYER
 62
     7
 10
328.793458
 20
-449.027277
 30
0.0
 11
328.793458
 21
-440.329857
 31
0.0
  0
LINE
  8
0
  6
BYLAYER
 62
     7
 10
328.793458
 20
-439.264848
 30
0.0
 11
328.793458
 21
-430.567374
 31
0.0
  0
LINE
  8
0
  6
BYLAYER
 62
     7
 10
328.793458
 20
-429.502365
 30
0.0
 11
328.793458
 21
-420.804891
 31
0.0
  0
LINE
  8
0
  6
BYLAYER
 62
     7
 10
328.793458
 20
-419.739881
 30
0.0
 11
328.793458
 21
-417.964884
 31
0.0
  0
LINE
  8
0
  6
BYLAYER
 62
     7
 10
328.793458
 20
-417.964884
 30
0.0
 11
318.143477
 21
-417.964877
 31
0.0
  0
LINE
  8
0
  6
BYLAYER
 62
     7
 10
328.793458
 20
-417.964884
 30
0.0
 11
329.902831
 21
-417.651631
 31
0.0
  0
LINE
  8
0
  6
BYLAYER
 62
     7
 10
250.287020
 20
-416.722311
 30
0.0
 11
247.143761
 21
-415.834758
 31
0.0
  0
LINE
  8
0
  6
BYLAYER
 62
     7
 10
245.368548
 20
-405.983547
 30
0.0
 11
247.143545
 21
-405.983547
 31
0.0
  0
LINE
  8
0
  6
BYLAYER
 62
     7
 10
329.902831
 20
-395.777320
 30
0.0
 11
329.902831
 21
-449.559728
 31
0.0
  0
LINE
  8
0
  6
BYLAYER
 62
     7
 10
221.406143
 20
-449.559727
 30
0.0
 11
221.406143
 21
-389.559727
 31
0.0
  0
LINE
  8
0
  6
BYLAYER
 62
     7
 10
231.137642
 20
-405.823885
 30
0.0
 11
245.368602
 21
-406.072302
 31
0.0
  0
LINE
  8
0
  6
BYLAYER
 62
     7
 10
229.393629
 20
-389.559727
 30
0.0
 11
229.393629
 21
-449.559727
 31
0.0
  0
ARC
  8
0
  6
BYLAYER
 62
     7
 10
231.168626
 20
-404.049158
 30
0.0
 40
1.774997
 50
180.000000
 51
268.999783
  0
LINE
  8
0
  6
BYLAYER
 62
     7
 10
245.368602
 20
-406.072302
 30
0.0
 11
245.368602
 21
-449.559727
 31
0.0
  0
LINE
  8
0
  6
BYLAYER
 62
     7
 10
221.406143
 20
-449.559728
 30
0.0
 11
221.406143
 21
-509.559727
 31
0.0
  0
LINE
  8
0
  6
BYLAYER
 62
     7
 10
231.137642
 20
-493.295570
 30
0.0
 11
245.368602
 21
-493.047153
 31
0.0
  0
LINE
  8
0
  6
BYLAYER
 62
     7
 10
229.393629
 20
-509.559727
 30
0.0
 11
229.393629
 21
-449.559728
 31
0.0
  0
ARC
  8
0
  6
BYLAYER
 62
     7
 10
231.168626
 20
-495.070297
 30
0.0
 40
1.774997
 50
91.000217
 51
180.000000
  0
LINE
  8
0
  6
BYLAYER
 62
     7
 10
245.368602
 20
-493.047153
 30
0.0
 11
245.368602
 21
-449.559728
 31
0.0
  0
LINE
  8
0
  6
BYLAYER
 62
     7
 10
247.143599
 20
-418.053505
 30
0.0
 11
247.143599
 21
-481.065896
 31
0.0
  0
ARC
  8
0
  6
BYLAYER
 62
     7
 10
248.474846
 20
-481.065896
 30
0.0
 40
1.331248
 50
180.000000
 51
270.000000
  0
ARC
  8
0
  6
BYLAYER
 62
     7
 10
248.474846
 20
-418.053505
 30
0.0
 40
1.331248
 50
90.0
 51
180.0
  0
LINE
  8
0
  6
BYLAYER
 62
     7
 10
316.812229
 20
-416.722257
 30
0.0
 11
248.474846
 21
-416.722257
 31
0.0
  0
ARC
  8
0
  6
BYLAYER
 62
     7
 10
316.812229
 20
-418.053505
 30
0.0
 40
1.331248
 50
0.0
 51
90.0
  0
LINE
  8
0
  6
BYLAYER
 62
     7
 10
318.143477
 20
-481.065896
 30
0.0
 11
318.143477
 21
-418.053505
 31
0.0
  0
LINE
  8
0
  6
BYLAYER
 62
     7
 10
248.474846
 20
-482.397144
 30
0.0
 11
316.812229
 21
-482.397144
 31
0.0
  0
ARC
  8
0
  6
BYLAYER
 62
     7
 10
316.812229
 20
-481.065896
 30
0.0
 40
1.331248
 50
270.0
 51
360.0
  0
LINE
  8
0
  6
BYLAYER
 62
     7
 10
388.406143
 20
-494.155220
 30
0.0
 11
379.219228
 21
-503.342135
 31
0.0
  0
LINE
  8
0
  6
BYLAYER
 62
     7
 10
379.219228
 20
-503.342135
 30
0.0
 11
329.902831
 21
-503.342135
 31
0.0
  0
LINE
  8
0
  6
BYLAYER
 62
     7
 10
388.406143
 20
-449.559728
 30
0.0
 11
388.406143
 21
-494.155220
 31
0.0
  0
LINE
  8
0
  6
BYLAYER
 62
     7
 10
388.406143
 20
-404.964236
 30
0.0
 11
379.219228
 21
-395.777320
 31
0.0
  0
LINE
  8
0
  6
BYLAYER
 62
     7
 10
379.219228
 20
-395.777320
 30
0.0
 11
329.902831
 21
-395.777320
 31
0.0
  0
LINE
  8
0
  6
BYLAYER
 62
     7
 10
388.406143
 20
-449.559728
 30
0.0
 11
388.406143
 21
-404.964236
 31
0.0
  0
LINE
  8
0
  6
BYLAYER
 62
     7
 10
379.219228
 20
-503.342135
 30
0.0
 11
379.219228
 21
-395.777320
 31
0.0
  0
LINE
  8
0
  6
BYLAYER
 62
     7
 10
221.406143
 20
-509.559727
 30
0.0
 11
229.393629
 21
-509.559727
 31
0.0
  0
LINE
  8
0
  6
BYLAYER
 62
     7
 10
221.406143
 20
-389.559727
 30
0.0
 11
229.393629
 21
-389.559727
 31
0.0
  0
LINE
  8
0
  6
BYLAYER
 62
     1
 10
201.406143
 20
-174.559696
 30
0.0
 11
199.906143
 21
-173.059727
 31
0.0
  0
LINE
  8
0
  6
BYLAYER
 62
     1
 10
176.406143
 20
-199.559696
 30
0.0
 11
174.906143
 21
-198.059696
 31
0.0
  0
LINE
  8
0
  6
BYLAYER
 62
     1
 10
101.406143
 20
-174.559696
 30
0.0
 11
102.906143
 21
-173.059727
 31
0.0
  0
LINE
  8
0
  6
BYLAYER
 62
     1
 10
127.906143
 20
-198.059696
 30
0.0
 11
174.906143
 21
-198.059696
 31
0.0
  0
LINE
  8
0
  6
BYLAYER
 62
     1
 10
202.406143
 20
-143.059727
 30
0.0
 11
202.406143
 21
-81.559696
 31
0.0
  0
LINE
  8
0
  6
BYLAYER
 62
     1
 10
202.406143
 20
-143.059727
 30
0.0
 11
199.906143
 21
-143.147007
 31
0.0
  0
LINE
  8
0
  6
BYLAYER
 62
     1
 10
101.406143
 20
-174.559696
 30
0.0
 11
107.906143
 21
-174.559696
 31
0.0
  0
LINE
  8
0
  6
BYLAYER
 62
     1
 10
201.406143
 20
-174.559696
 30
0.0
 11
194.906143
 21
-174.559696
 31
0.0
  0
LINE
  8
0
  6
BYLAYER
 62
     1
 10
202.406143
 20
-81.559696
 30
0.0
 11
201.406143
 21
-81.559696
 31
0.0
  0
ARC
  8
0
  6
BYLAYER
 62
     1
 10
175.406143
 20
-99.559696
 30
0.0
 40
1.0
 50
270.0
 51
450.000005
  0
ARC
  8
0
  6
BYLAYER
 62
     1
 10
134.906174
 20
-107.559696
 30
0.0
 40
1.000000
 50
270.0
 51
450.000005
  0
ARC
  8
0
  6
BYLAYER
 62
     1
 10
167.906143
 20
-107.559696
 30
0.0
 40
1.000000
 50
90.0
 51
270.000005
  0
ARC
  8
0
  6
BYLAYER
 62
     1
 10
121.906174
 20
-115.559696
 30
0.0
 40
1.000000
 50
270.0
 51
450.000005
  0
LINE
  8
0
  6
BYLAYER
 62
     1
 10
126.406143
 20
-199.559696
 30
0.0
 11
126.406143
 21
-193.059696
 31
0.0
  0
LINE
  8
0
  6
BYLAYER
 62
     1
 10
176.406143
 20
-199.559696
 30
0.0
 11
176.406143
 21
-193.059696
 31
0.0
  0
LINE
  8
0
  6
BYLAYER
 62
     1
 10
199.906143
 20
-104.559696
 30
0.0
 11
202.406143
 21
-104.559696
 31
0.0
  0
LINE
  8
0
  6
BYLAYER
 62
     1
 10
126.406143
 20
-199.559696
 30
0.0
 11
102.906143
 21
-199.559696
 31
0.0
  0
LINE
  8
0
  6
BYLAYER
 62
     1
 10
102.906143
 20
-199.559696
 30
0.0
 11
101.406143
 21
-198.059758
 31
0.0
  0
LINE
  8
0
  6
BYLAYER
 62
     1
 10
101.406143
 20
-198.059758
 30
0.0
 11
101.406143
 21
-174.559696
 31
0.0
  0
LINE
  8
0
  6
BYLAYER
 62
     1
 10
201.406143
 20
-174.559696
 30
0.0
 11
201.406143
 21
-198.059696
 31
0.0
  0
LINE
  8
0
  6
BYLAYER
 62
     1
 10
201.406143
 20
-198.059696
 30
0.0
 11
199.906143
 21
-199.559696
 31
0.0
  0
LINE
  8
0
  6
BYLAYER
 62
     1
 10
199.906143
 20
-199.559696
 30
0.0
 11
176.406143
 21
-199.559696
 31
0.0
  0
ARC
  8
0
  6
BYLAYER
 62
     1
 10
185.906143
 20
-123.559727
 30
0.0
 40
1.000000
 50
90.0
 51
110.183422
  0
LINE
  8
0
  6
BYLAYER
 62
     1
 10
202.406143
 20
-130.438328
 30
0.0
 11
199.906143
 21
-130.438328
 31
0.0
  0
LINE
  8
0
  6
BYLAYER
 62
     1
 10
199.906143
 20
-139.241490
 30
0.0
 11
202.406143
 21
-139.241429
 31
0.0
  0
LINE
  8
0
  6
BYLAYER
 62
     1
 10
101.406174
 20
-128.434727
 30
0.0
 11
102.906174
 21
-128.434727
 31
0.0
  0
LINE
  8
0
  6
BYLAYER
 62
     1
 10
102.906143
 20
-115.789494
 30
0.0
 11
101.406174
 21
-115.789494
 31
0.0
  0
LINE
  8
0
  6
BYLAYER
 62
     1
 10
121.906174
 20
-114.559696
 30
0.0
 11
108.906143
 21
-114.559696
 31
0.0
  0
ARC
  8
0
  6
BYLAYER
 62
     1
 10
108.906143
 20
-113.559696
 30
0.0
 40
1.000000
 50
180.000000
 51
269.999996
  0
LINE
  8
0
  6
BYLAYER
 62
     1
 10
108.906143
 20
-106.559696
 30
0.0
 11
134.906174
 21
-106.559696
 31
0.0
  0
ARC
  8
0
  6
BYLAYER
 62
     1
 10
108.906143
 20
-105.559696
 30
0.0
 40
1.000000
 50
180.000000
 51
269.999996
  0
LINE
  8
0
  6
BYLAYER
 62
     1
 10
108.906143
 20
-108.559696
 30
0.0
 11
134.906174
 21
-108.559696
 31
0.0
  0
ARC
  8
0
  6
BYLAYER
 62
     1
 10
108.906143
 20
-109.559696
 30
0.0
 40
1.0
 50
90.0
 51
180.000003
  0
LINE
  8
0
  6
BYLAYER
 62
     1
 10
185.906143
 20
-122.559727
 30
0.0
 11
193.906143
 21
-122.559727
 31
0.0
  0
ARC
  8
0
  6
BYLAYER
 62
     1
 10
193.906143
 20
-121.559727
 30
0.0
 40
1.0
 50
270.0
 51
360.000003
  0
LINE
  8
0
  6
BYLAYER
 62
     1
 10
187.004598
 20
-124.559727
 30
0.0
 11
193.906143
 21
-124.559727
 31
0.0
  0
ARC
  8
0
  6
BYLAYER
 62
     1
 10
193.906143
 20
-125.559727
 30
0.0
 40
1.000000
 50
0.0
 51
90.000003
  0
LINE
  8
0
  6
BYLAYER
 62
     1
 10
202.406143
 20
-114.559696
 30
0.0
 11
199.906143
 21
-114.559696
 31
0.0
  0
LINE
  8
0
  6
BYLAYER
 62
     1
 10
107.906143
 20
-173.059727
 30
0.0
 11
102.906143
 21
-173.059727
 31
0.0
  0
LINE
  8
0
  6
BYLAYER
 62
     1
 10
127.906143
 20
-193.059758
 30
0.0
 11
127.906143
 21
-198.059696
 31
0.0
  0
LINE
  8
0
  6
BYLAYER
 62
     1
 10
174.906143
 20
-193.059849
 30
0.0
 11
174.906143
 21
-198.059696
 31
0.0
  0
LINE
  8
0
  6
BYLAYER
 62
     1
 10
127.906143
 20
-198.059696
 30
0.0
 11
126.406143
 21
-199.559696
 31
0.0
  0
LINE
  8
0
  6
BYLAYER
 62
     1
 10
194.906143
 20
-173.059727
 30
0.0
 11
199.906143
 21
-173.059727
 31
0.0
  0
LINE
  8
0
  6
BYLAYER
 62
     1
 10
107.906143
 20
-104.559696
 30
0.0
 11
102.906143
 21
-104.559696
 31
0.0
  0
LINE
  8
0
  6
BYLAYER
 62
     1
 10
101.406143
 20
-103.059696
 30
0.0
 11
102.906143
 21
-104.559696
 31
0.0
  0
LINE
  8
0
  6
BYLAYER
 62
     1
 10
101.406143
 20
-103.059696
 30
0.0
 11
107.906143
 21
-103.059696
 31
0.0
  0
LINE
  8
0
  6
BYLAYER
 62
     1
 10
194.906143
 20
-104.559696
 30
0.0
 11
199.906143
 21
-104.559696
 31
0.0
  0
LINE
  8
0
  6
BYLAYER
 62
     1
 10
201.406143
 20
-103.059696
 30
0.0
 11
199.906143
 21
-104.559696
 31
0.0
  0
LINE
  8
0
  6
BYLAYER
 62
     1
 10
201.406143
 20
-103.059696
 30
0.0
 11
194.906143
 21
-103.059696
 31
0.0
  0
LINE
  8
0
  6
BYLAYER
 62
     1
 10
201.406143
 20
-103.059696
 30
0.0
 11
201.406143
 21
-81.499638
 31
0.0
  0
LINE
  8
0
  6
BYLAYER
 62
     1
 10
201.406143
 20
-81.499638
 30
0.0
 11
201.406143
 21
-79.559696
 31
0.0
  0
LINE
  8
0
  6
BYLAYER
 62
     1
 10
201.406143
 20
-79.559696
 30
0.0
 11
199.906143
 21
-78.059696
 31
0.0
  0
LINE
  8
0
  6
BYLAYER
 62
     1
 10
199.906143
 20
-78.059696
 30
0.0
 11
176.406143
 21
-78.059696
 31
0.0
  0
LINE
  8
0
  6
BYLAYER
 62
     1
 10
176.406143
 20
-78.059696
 30
0.0
 11
176.406143
 21
-84.559696
 31
0.0
  0
LINE
  8
0
  6
BYLAYER
 62
     1
 10
176.406143
 20
-78.059696
 30
0.0
 11
174.906143
 21
-79.559696
 31
0.0
  0
LINE
  8
0
  6
BYLAYER
 62
     1
 10
174.906143
 20
-79.559696
 30
0.0
 11
174.906143
 21
-84.559696
 31
0.0
  0
LINE
  8
0
  6
BYLAYER
 62
     1
 10
127.906143
 20
-79.559696
 30
0.0
 11
174.906143
 21
-79.559696
 31
0.0
  0
LINE
  8
0
  6
BYLAYER
 62
     1
 10
127.906143
 20
-79.559696
 30
0.0
 11
127.906143
 21
-84.559696
 31
0.0
  0
LINE
  8
0
  6
BYLAYER
 62
     1
 10
126.406143
 20
-78.059696
 30
0.0
 11
126.406143
 21
-84.559696
 31
0.0
  0
LINE
  8
0
  6
BYLAYER
 62
     1
 10
127.906143
 20
-79.559696
 30
0.0
 11
126.406143
 21
-78.059696
 31
0.0
  0
LINE
  8
0
  6
BYLAYER
 62
     1
 10
102.906143
 20
-78.059696
 30
0.0
 11
126.406143
 21
-78.059696
 31
0.0
  0
LINE
  8
0
  6
BYLAYER
 62
     1
 10
101.406143
 20
-79.559696
 30
0.0
 11
102.906143
 21
-78.059696
 31
0.0
  0
LINE
  8
0
  6
BYLAYER
 62
     1
 10
102.906143
 20
-173.059727
 30
0.0
 11
102.906143
 21
-104.559696
 31
0.0
  0
LINE
  8
0
  6
BYLAYER
 62
     1
 10
199.906143
 20
-173.059727
 30
0.0
 11
199.906143
 21
-104.559696
 31
0.0
  0
LINE
  8
0
  6
BYLAYER
 62
     1
 10
107.906143
 20
-115.789494
 30
0.0
 11
115.406143
 21
-115.789494
 31
0.0
  0
ARC
  8
0
  6
BYLAYER
 62
     1
 10
115.406143
 20
-117.789494
 30
0.0
 40
2.0
 50
0.0
 51
90.000003
  0
LINE
  8
0
  6
BYLAYER
 62
     1
 10
107.906174
 20
-128.434727
 30
0.0
 11
113.380042
 21
-128.434727
 31
0.0
  0
LINE
  8
0
  6
BYLAYER
 62
     1
 10
117.406143
 20
-122.425800
 30
0.0
 11
117.406143
 21
-117.789494
 31
0.0
  0
LINE
  8
0
  6
BYLAYER
 62
     1
 10
194.906143
 20
-104.559696
 30
0.0
 11
188.406143
 21
-104.559696
 31
0.0
  0
ARC
  8
0
  6
BYLAYER
 62
     1
 10
188.406143
 20
-106.559696
 30
0.0
 40
2.000000
 50
90.0
 51
180.000003
  0
LINE
  8
0
  6
BYLAYER
 62
     1
 10
186.406143
 20
-112.559696
 30
0.0
 11
186.406143
 21
-106.559696
 31
0.0
  0
LINE
  8
0
  6
BYLAYER
 62
     1
 10
194.906143
 20
-114.559696
 30
0.0
 11
188.406143
 21
-114.559696
 31
0.0
  0
ARC
  8
0
  6
BYLAYER
 62
     1
 10
188.406143
 20
-112.559696
 30
0.0
 40
2.000000
 50
180.000000
 51
269.999996
  0
LINE
  8
0
  6
BYLAYER
 62
     1
 10
121.906174
 20
-116.559696
 30
0.0
 11
118.406143
 21
-116.559696
 31
0.0
  0
ARC
  8
0
  6
BYLAYER
 62
     1
 10
118.406143
 20
-117.559696
 30
0.0
 40
1.0
 50
90.0
 51
180.000003
  0
LINE
  8
0
  6
BYLAYER
 62
     1
 10
167.906143
 20
-108.559696
 30
0.0
 11
185.406143
 21
-108.559696
 31
0.0
  0
ARC
  8
0
  6
BYLAYER
 62
     1
 10
185.406143
 20
-109.559696
 30
0.0
 40
1.000000
 50
0.0
 51
90.000003
  0
LINE
  8
0
  6
BYLAYER
 62
     1
 10
185.577713
 20
-106.559696
 30
0.0
 11
167.906143
 21
-106.559696
 31
0.0
  0
ARC
  8
0
  6
BYLAYER
 62
     1
 10
185.577713
 20
-105.559696
 30
0.0
 40
1.000000
 50
270.0
 51
340.52826
  0
ARC
  8
0
  6
BYLAYER
 62
     1
 10
108.906143
 20
-85.559696
 30
0.0
 40
1.0
 50
90.0
 51
180.000003
  0
LINE
  8
0
  6
BYLAYER
 62
     1
 10
193.906143
 20
-84.559696
 30
0.0
 11
108.906143
 21
-84.559696
 31
0.0
  0
ARC
  8
0
  6
BYLAYER
 62
     1
 10
193.906143
 20
-85.559696
 30
0.0
 40
1.000000
 50
0.0
 51
90.000003
  0
LINE
  8
0
  6
BYLAYER
 62
     1
 10
171.559268
 20
-188.109715
 30
0.0
 11
188.956146
 21
-188.109715
 31
0.0
  0
LINE
  8
0
  6
BYLAYER
 62
     1
 10
189.956146
 20
-187.109715
 30
0.0
 11
189.956146
 21
-169.712823
 31
0.0
  0
ARC
  8
0
  6
BYLAYER
 62
     1
 10
188.956146
 20
-187.109715
 30
0.0
 40
1.000000
 50
270.0
 51
360.000003
  0
ARC
  8
0
  6
BYLAYER
 62
     1
 10
193.906143
 20
-192.059696
 30
0.0
 40
1.000000
 50
270.0
 51
360.000003
  0
LINE
  8
0
  6
BYLAYER
 62
     1
 10
113.856140
 20
-188.109715
 30
0.0
 11
131.253018
 21
-188.109715
 31
0.0
  0
ARC
  8
0
  6
BYLAYER
 62
     1
 10
113.856140
 20
-187.109715
 30
0.0
 40
1.0
 50
180.000000
 51
269.999996
  0
ARC
  8
0
  6
BYLAYER
 62
     1
 10
108.906143
 20
-192.059696
 30
0.0
 40
1.0
 50
180.000000
 51
269.999996
  0
LINE
  8
0
  6
BYLAYER
 62
     1
 10
194.613251
 20
-192.766819
 30
0.0
 11
189.663254
 21
-187.816838
 31
0.0
  0
LINE
  8
0
  6
BYLAYER
 62
     1
 10
108.199035
 20
-192.766819
 30
0.0
 11
113.149032
 21
-187.816838
 31
0.0
  0
LINE
  8
0
  6
BYLAYER
 62
     1
 10
107.906143
 20
-85.559696
 30
0.0
 11
107.906143
 21
-134.270848
 31
0.0
  0
ARC
  8
0
  6
BYLAYER
 62
     1
 10
105.906143
 20
-134.270848
 30
0.0
 40
1.999991
 50
341.426977
 51
360.0
  0
ARC
  8
0
  6
BYLAYER
 62
     1
 10
151.406143
 20
-149.559727
 30
0.0
 40
46.000008
 50
161.426644
 51
198.573352
  0
LINE
  8
0
  6
BYLAYER
 62
     1
 10
107.906143
 20
-164.848637
 30
0.0
 11
107.906143
 21
-192.059696
 31
0.0
  0
ARC
  8
0
  6
BYLAYER
 62
     1
 10
105.906143
 20
-164.848637
 30
0.0
 40
2.000001
 50
0.0
 51
18.573839
  0
ARC
  8
0
  6
BYLAYER
 62
     1
 10
136.117264
 20
-195.059727
 30
0.0
 40
2.000005
 50
71.426983
 51
90.000003
  0
ARC
  8
0
  6
BYLAYER
 62
     1
 10
151.406143
 20
-149.559727
 30
0.0
 40
45.999992
 50
251.426640
 51
288.573361
  0
ARC
  8
0
  6
BYLAYER
 62
     1
 10
166.695053
 20
-195.059727
 30
0.0
 40
2.000015
 50
90.0
 51
108.573839
  0
ARC
  8
0
  6
BYLAYER
 62
     1
 10
196.906143
 20
-164.848606
 30
0.0
 40
1.999991
 50
161.426972
 51
180.000005
  0
ARC
  8
0
  6
BYLAYER
 62
     1
 10
151.406143
 20
-149.559727
 30
0.0
 40
46.000008
 50
341.426649
 51
378.573343
  0
ARC
  8
0
  6
BYLAYER
 62
     1
 10
196.906143
 20
-134.270817
 30
0.0
 40
2.000001
 50
180.000000
 51
198.573839
  0
LINE
  8
0
  6
BYLAYER
 62
     1
 10
136.117271
 20
-193.059758
 30
0.0
 11
108.906143
 21
-193.059696
 31
0.0
  0
LINE
  8
0
  6
BYLAYER
 62
     1
 10
193.906143
 20
-193.059696
 30
0.0
 11
166.695053
 21
-193.059696
 31
0.0
  0
LINE
  8
0
  6
BYLAYER
 62
     1
 10
194.906143
 20
-85.559696
 30
0.0
 11
194.906143
 21
-134.270817
 31
0.0
  0
LINE
  8
0
  6
BYLAYER
 62
     1
 10
194.906143
 20
-192.059696
 30
0.0
 11
194.906143
 21
-164.848606
 31
0.0
  0
LINE
  8
0
  6
BYLAYER
 62
     1
 10
101.406143
 20
-133.059696
 30
0.0
 11
101.406143
 21
-79.559696
 31
0.0
  0
LINE
  8
0
  6
BYLAYER
 62
     1
 10
102.906143
 20
-133.059696
 30
0.0
 11
101.406143
 21
-133.059696
 31
0.0
  0
LINE
  8
0
  6
BYLAYER
 62
     1
 10
112.856140
 20
-187.109715
 30
0.0
 11
112.856140
 21
-169.712823
 31
0.0
  0
ARC
  8
0
  6
BYLAYER
 62
     1
 10
130.406143
 20
-99.559696
 30
0.0
 40
1.0
 50
90.0
 51
270.000005
  0
LINE
  8
0
  6
BYLAYER
 62
     1
 10
175.406143
 20
-98.559696
 30
0.0
 11
130.406143
 21
-98.559696
 31
0.0
  0
LINE
  8
0
  6
BYLAYER
 62
     1
 10
175.406143
 20
-100.559696
 30
0.0
 11
130.406143
 21
-100.559696
 31
0.0
  0
LINE
  8
0
  6
BYLAYER
 62
     1
 10
107.906143
 20
-181.159703
 30
0.0
 11
101.406143
 21
-181.159703
 31
0.0
  0
LINE
  8
0
  6
BYLAYER
 62
     1
 10
107.906143
 20
-187.959690
 30
0.0
 11
101.406143
 21
-187.959690
 31
0.0
  0
LINE
  8
0
  6
BYLAYER
 62
     1
 10
113.006141
 20
-193.059696
 30
0.0
 11
113.006141
 21
-199.559696
 31
0.0
  0
LINE
  8
0
  6
BYLAYER
 62
     1
 10
119.806145
 20
-193.059727
 30
0.0
 11
119.806145
 21
-199.559696
 31
0.0
  0
LINE
  8
0
  6
BYLAYER
 62
     1
 10
183.006149
 20
-193.059696
 30
0.0
 11
183.006149
 21
-199.559696
 31
0.0
  0
LINE
  8
0
  6
BYLAYER
 62
     1
 10
189.806137
 20
-193.059696
 30
0.0
 11
189.806137
 21
-199.559696
 31
0.0
  0
LINE
  8
0
  6
BYLAYER
 62
     1
 10
194.906143
 20
-187.959690
 30
0.0
 11
201.406143
 21
-187.959690
 31
0.0
  0
LINE
  8
0
  6
BYLAYER
 62
     1
 10
194.906143
 20
-181.159703
 30
0.0
 11
201.406143
 21
-181.159703
 31
0.0
  0
ARC
  8
0
  6
BYLAYER
 62
     1
 10
124.889633
 20
-123.043217
 30
0.0
 40
3.000004
 50
42.767120
 51
314.999992
  0
ARC
  8
0
  6
BYLAYER
 62
     1
 10
177.922653
 20
-123.043217
 30
0.0
 40
3.000015
 50
225.000010
 51
497.232885
  0
ARC
  8
0
  6
BYLAYER
 62
     1
 10
151.406143
 20
-149.559727
 30
0.0
 40
30.0
 50
0.0
 51
180.000005
  0
ARC
  8
0
  6
BYLAYER
 62
     1
 10
124.889633
 20
-176.076237
 30
0.0
 40
2.999983
 50
45.000008
 51
317.232890
  0
ARC
  8
0
  6
BYLAYER
 62
     1
 10
177.922653
 20
-176.076237
 30
0.0
 40
3.000016
 50
222.767112
 51
494.999987
  0
CIRCLE
  8
0
  6
BYLAYER
 62
     1
 10
151.406143
 20
-149.559727
 30
0.0
 40
20.0
  0
CIRCLE
  8
0
  6
BYLAYER
 62
     1
 10
124.889633
 20
-123.043217
 30
0.0
 40
2.5
  0
CIRCLE
  8
0
  6
BYLAYER
 62
     1
 10
177.922653
 20
-123.043217
 30
0.0
 40
2.5
  0
CIRCLE
  8
0
  6
BYLAYER
 62
     1
 10
177.922653
 20
-176.076237
 30
0.0
 40
2.5
  0
CIRCLE
  8
0
  6
BYLAYER
 62
     1
 10
124.889633
 20
-176.076237
 30
0.0
 40
2.5
  0
ARC
  8
0
  6
BYLAYER
 62
     1
 10
151.406143
 20
-149.559727
 30
0.0
 40
30.000000
 50
292.499983
 51
360.000000
  0
ARC
  8
0
  6
BYLAYER
 62
     1
 10
151.406143
 20
-149.559727
 30
0.0
 40
29.999998
 50
180.000005
 51
292.499983
  0
ARC
  8
0
  6
BYLAYER
 62
     1
 10
151.406143
 20
-149.559727
 30
0.0
 40
45.25
 50
83.304540
 51
96.695460
  0
ARC
  8
0
  6
BYLAYER
 62
     1
 10
156.515549
 20
-106.109104
 30
0.0
 40
1.500024
 50
33.869498
 51
83.293706
  0
ARC
  8
0
  6
BYLAYER
 62
     1
 10
146.296737
 20
-106.109104
 30
0.0
 40
1.500024
 50
97.044942
 51
146.130504
  0
ARC
  8
0
  6
BYLAYER
 62
     1
 10
128.445135
 20
-94.126944
 30
0.0
 40
20.000020
 50
265.957319
 51
326.130123
  0
ARC
  8
0
  6
BYLAYER
 62
     1
 10
107.955520
 20
-144.450321
 30
0.0
 40
1.500024
 50
123.869497
 51
173.293702
  0
ARC
  8
0
  6
BYLAYER
 62
     1
 10
146.296737
 20
-193.010350
 30
0.0
 40
1.500024
 50
213.869506
 51
263.293711
  0
ARC
  8
0
  6
BYLAYER
 62
     1
 10
194.856766
 20
-154.669133
 30
0.0
 40
1.500024
 50
303.869488
 51
353.293720
  0
ARC
  8
0
  6
BYLAYER
 62
     1
 10
107.955520
 20
-154.669133
 30
0.0
 40
1.500024
 50
186.706295
 51
236.130513
  0
ARC
  8
0
  6
BYLAYER
 62
     1
 10
156.515549
 20
-193.010350
 30
0.0
 40
1.500024
 50
276.706290
 51
326.130495
  0
ARC
  8
0
  6
BYLAYER
 62
     1
 10
194.856766
 20
-144.450321
 30
0.0
 40
1.500024
 50
6.706299
 51
56.130505
  0
ARC
  8
0
  6
BYLAYER
 62
     1
 10
95.973373
 20
-126.598728
 30
0.0
 40
20.000032
 50
303.869871
 51
364.042736
  0
ARC
  8
0
  6
BYLAYER
 62
     1
 10
117.918664
 20
-125.047715
 30
0.0
 40
2.0
 50
143.796789
 51
184.042736
  0
ARC
  8
0
  6
BYLAYER
 62
     1
 10
151.406143
 20
-149.559727
 30
0.0
 40
43.5
 50
100.784127
 51
169.215926
  0
ARC
  8
0
  6
BYLAYER
 62
     1
 10
142.892676
 20
-104.863297
 30
0.0
 40
2.0
 50
280.784127
 51
323.382976
  0
ARC
  8
0
  6
BYLAYER
 62
     1
 10
106.709705
 20
-141.046301
 30
0.0
 40
2.000000
 50
306.616911
 51
349.215926
  0
ARC
  8
0
  6
BYLAYER
 62
     1
 10
126.894147
 20
-116.072236
 30
0.0
 40
2.0
 50
85.957305
 51
126.203183
  0
ARC
  8
0
  6
BYLAYER
 62
     1
 10
151.406143
 20
-149.559727
 30
0.0
 40
45.250000
 50
173.304540
 51
186.695460
  0
ARC
  8
0
  6
BYLAYER
 62
     1
 10
95.973360
 20
-172.520735
 30
0.0
 40
20.000020
 50
355.957319
 51
416.130123
  0
ARC
  8
0
  6
BYLAYER
 62
     1
 10
128.445144
 20
-204.992497
 30
0.0
 40
20.000032
 50
33.869871
 51
94.042736
  0
ARC
  8
0
  6
BYLAYER
 62
     1
 10
126.894131
 20
-183.047206
 30
0.0
 40
2.0
 50
233.796789
 51
274.042736
  0
ARC
  8
0
  6
BYLAYER
 62
     1
 10
151.406143
 20
-149.559727
 30
0.0
 40
43.5
 50
190.784127
 51
259.215926
  0
ARC
  8
0
  6
BYLAYER
 62
     1
 10
106.709713
 20
-158.073194
 30
0.0
 40
2.0
 50
10.784127
 51
53.382976
  0
ARC
  8
0
  6
BYLAYER
 62
     1
 10
142.892717
 20
-194.256165
 30
0.0
 40
2.000000
 50
36.616911
 51
79.215926
  0
ARC
  8
0
  6
BYLAYER
 62
     1
 10
117.918652
 20
-174.071723
 30
0.0
 40
2.000000
 50
175.957305
 51
216.203183
  0
ARC
  8
0
  6
BYLAYER
 62
     1
 10
151.406143
 20
-149.559727
 30
0.0
 40
45.250000
 50
263.304540
 51
276.695460
  0
ARC
  8
0
  6
BYLAYER
 62
     1
 10
174.367151
 20
-204.992510
 30
0.0
 40
20.000020
 50
85.957319
 51
146.130123
  0
ARC
  8
0
  6
BYLAYER
 62
     1
 10
206.838913
 20
-172.520726
 30
0.0
 40
20.000032
 50
123.869871
 51
184.042736
  0
ARC
  8
0
  6
BYLAYER
 62
     1
 10
184.893622
 20
-174.071739
 30
0.0
 40
2.0
 50
323.796789
 51
364.042736
  0
ARC
  8
0
  6
BYLAYER
 62
     1
 10
151.406143
 20
-149.559727
 30
0.0
 40
43.5
 50
280.784127
 51
349.215926
  0
ARC
  8
0
  6
BYLAYER
 62
     1
 10
159.919610
 20
-194.256157
 30
0.0
 40
2.0
 50
100.784127
 51
143.382976
  0
ARC
  8
0
  6
BYLAYER
 62
     1
 10
196.102581
 20
-158.073153
 30
0.0
 40
2.000000
 50
126.616911
 51
169.215926
  0
ARC
  8
0
  6
BYLAYER
 62
     1
 10
175.918139
 20
-183.047218
 30
0.0
 40
2.0
 50
265.957305
 51
306.203183
  0
ARC
  8
0
  6
BYLAYER
 62
     1
 10
151.406143
 20
-149.559727
 30
0.0
 40
45.250000
 50
353.304540
 51
366.695460
  0
ARC
  8
0
  6
BYLAYER
 62
     1
 10
206.838926
 20
-126.598719
 30
0.0
 40
20.000020
 50
175.957319
 51
236.130123
  0
ARC
  8
0
  6
BYLAYER
 62
     1
 10
174.367142
 20
-94.126957
 30
0.0
 40
20.000032
 50
213.869871
 51
274.042736
  0
ARC
  8
0
  6
BYLAYER
 62
     1
 10
175.918155
 20
-116.072248
 30
0.0
 40
2.000000
 50
53.796789
 51
94.042736
  0
ARC
  8
0
  6
BYLAYER
 62
     1
 10
151.406143
 20
-149.559727
 30
0.0
 40
43.500000
 50
10.784127
 51
79.215926
  0
ARC
  8
0
  6
BYLAYER
 62
     1
 10
196.102573
 20
-141.046260
 30
0.0
 40
2.000000
 50
190.784127
 51
233.382976
  0
ARC
  8
0
  6
BYLAYER
 62
     1
 10
159.919569
 20
-104.863289
 30
0.0
 40
2.000000
 50
216.616911
 51
259.215926
  0
ARC
  8
0
  6
BYLAYER
 62
     1
 10
144.390579
 20
-95.164741
 30
0.0
 40
1.436863
 50
270.0
 51
308.795511
  0
ARC
  8
0
  6
BYLAYER
 62
     1
 10
144.251528
 20
-95.016651
 30
0.0
 40
1.639478
 50
309.340351
 51
360.000000
  0
ARC
  8
0
  6
BYLAYER
 62
     1
 10
144.251528
 20
-95.016651
 30
0.0
 40
1.639478
 50
0.0
 51
50.659649
  0
ARC
  8
0
  6
BYLAYER
 62
     1
 10
144.390579
 20
-94.868561
 30
0.0
 40
1.436863
 50
51.204489
 51
90.000000
  0
ARC
  8
0
  6
BYLAYER
 62
     1
 10
144.390579
 20
-94.868548
 30
0.0
 40
1.436850
 50
90.0
 51
128.795693
  0
ARC
  8
0
  6
BYLAYER
 62
     1
 10
144.529643
 20
-95.016651
 30
0.0
 40
1.639484
 50
129.340576
 51
180.000000
  0
ARC
  8
0
  6
BYLAYER
 62
     1
 10
144.529643
 20
-95.016651
 30
0.0
 40
1.639484
 50
180.000000
 51
230.659424
  0
ARC
  8
0
  6
BYLAYER
 62
     1
 10
144.390579
 20
-95.164754
 30
0.0
 40
1.436850
 50
231.204307
 51
270.0
  0
ARC
  8
0
  6
BYLAYER
 62
     1
 10
144.390579
 20
-94.595076
 30
0.0
 40
0.664873
 50
90.0
 51
140.793201
  0
ARC
  8
0
  6
BYLAYER
 62
     1
 10
144.907356
 20
-95.016651
 30
0.0
 40
1.331795
 50
140.793201
 51
180.0
  0
ARC
  8
0
  6
BYLAYER
 62
     1
 10
144.907348
 20
-95.016651
 30
0.0
 40
1.331787
 50
180.000000
 51
219.206869
  0
ARC
  8
0
  6
BYLAYER
 62
     1
 10
144.390579
 20
-95.438221
 30
0.0
 40
0.664875
 50
219.206869
 51
270.000000
  0
ARC
  8
0
  6
BYLAYER
 62
     1
 10
144.390579
 20
-95.438221
 30
0.0
 40
0.664875
 50
270.0
 51
320.793131
  0
ARC
  8
0
  6
BYLAYER
 62
     1
 10
143.873810
 20
-95.016651
 30
0.0
 40
1.331787
 50
320.793131
 51
360.000000
  0
ARC
  8
0
  6
BYLAYER
 62
     1
 10
143.873802
 20
-95.016651
 30
0.0
 40
1.331795
 50
0.0
 51
39.206799
  0
ARC
  8
0
  6
BYLAYER
 62
     1
 10
144.390579
 20
-94.595076
 30
0.0
 40
0.664873
 50
39.206799
 51
90.000000
  0
LINE
  8
0
  6
BYLAYER
 62
     1
 10
139.466659
 20
-96.495938
 30
0.0
 11
139.466659
 21
-93.495091
 31
0.0
  0
LINE
  8
0
  6
BYLAYER
 62
     1
 10
139.466659
 20
-93.495091
 30
0.0
 11
140.686722
 21
-93.495091
 31
0.0
  0
LINE
  8
0
  6
BYLAYER
 62
     1
 10
140.686722
 20
-93.495091
 30
0.0
 11
141.093880
 21
-95.058918
 31
0.0
  0
LINE
  8
0
  6
BYLAYER
 62
     1
 10
139.466659
 20
-96.495938
 30
0.0
 11
140.199264
 21
-96.495938
 31
0.0
  0
LINE
  8
0
  6
BYLAYER
 62
     1
 10
140.199264
 20
-96.495938
 30
0.0
 11
140.199264
 21
-94.763058
 31
0.0
  0
LINE
  8
0
  6
BYLAYER
 62
     1
 10
140.776886
 20
-96.495938
 30
0.0
 11
140.199264
 21
-94.763058
 31
0.0
  0
LINE
  8
0
  6
BYLAYER
 62
     1
 10
142.721100
 20
-96.495938
 30
0.0
 11
142.721100
 21
-93.495091
 31
0.0
  0
LINE
  8
0
  6
BYLAYER
 62
     1
 10
142.721100
 20
-93.495091
 30
0.0
 11
141.501037
 21
-93.495091
 31
0.0
  0
LINE
  8
0
  6
BYLAYER
 62
     1
 10
141.501037
 20
-93.495091
 30
0.0
 11
141.093880
 21
-95.058918
 31
0.0
  0
LINE
  8
0
  6
BYLAYER
 62
     1
 10
142.721100
 20
-96.495938
 30
0.0
 11
141.988495
 21
-96.495938
 31
0.0
  0
LINE
  8
0
  6
BYLAYER
 62
     1
 10
141.988495
 20
-96.495938
 30
0.0
 11
141.988495
 21
-94.763058
 31
0.0
  0
LINE
  8
0
  6
BYLAYER
 62
     1
 10
141.410873
 20
-96.495938
 30
0.0
 11
141.988495
 21
-94.763058
 31
0.0
  0
LINE
  8
0
  6
BYLAYER
 62
     1
 10
141.410873
 20
-96.495938
 30
0.0
 11
140.776886
 21
-96.495938
 31
0.0
  0
LINE
  8
0
  6
BYLAYER
 62
     1
 10
153.456520
 20
-96.495938
 30
0.0
 11
154.597679
 21
-93.495091
 31
0.0
  0
LINE
  8
0
  6
BYLAYER
 62
     1
 10
153.456520
 20
-96.495938
 30
0.0
 11
154.428627
 21
-96.495938
 31
0.0
  0
LINE
  8
0
  6
BYLAYER
 62
     1
 10
154.597679
 20
-93.495091
 30
0.0
 11
155.527519
 21
-93.495091
 31
0.0
  0
LINE
  8
0
  6
BYLAYER
 62
     1
 10
154.428627
 20
-96.495938
 30
0.0
 11
154.572715
 21
-96.073284
 31
0.0
  0
LINE
  8
0
  6
BYLAYER
 62
     1
 10
154.803245
 20
-95.397038
 30
0.0
 11
155.062599
 21
-94.636257
 31
0.0
  0
LINE
  8
0
  6
BYLAYER
 62
     1
 10
156.668693
 20
-96.495938
 30
0.0
 11
155.527519
 21
-93.495091
 31
0.0
  0
LINE
  8
0
  6
BYLAYER
 62
     1
 10
156.668693
 20
-96.495938
 30
0.0
 11
155.696586
 21
-96.495938
 31
0.0
  0
LINE
  8
0
  6
BYLAYER
 62
     1
 10
155.552498
 20
-96.073284
 30
0.0
 11
154.572715
 21
-96.073284
 31
0.0
  0
LINE
  8
0
  6
BYLAYER
 62
     1
 10
155.321953
 20
-95.397038
 30
0.0
 11
154.803245
 21
-95.397038
 31
0.0
  0
LINE
  8
0
  6
BYLAYER
 62
     1
 10
155.696586
 20
-96.495938
 30
0.0
 11
155.552498
 21
-96.073284
 31
0.0
  0
LINE
  8
0
  6
BYLAYER
 62
     1
 10
155.321953
 20
-95.397038
 30
0.0
 11
155.062599
 21
-94.636257
 31
0.0
  0
LINE
  8
0
  6
BYLAYER
 62
     1
 10
145.891006
 20
-94.234738
 30
0.0
 11
146.736313
 21
-94.234738
 31
0.0
  0
LINE
  8
0
  6
BYLAYER
 62
     1
 10
146.736313
 20
-94.234738
 30
0.0
 11
146.736313
 21
-96.495938
 31
0.0
  0
LINE
  8
0
  6
BYLAYER
 62
     1
 10
146.736313
 20
-96.495938
 30
0.0
 11
147.666160
 21
-96.495938
 31
0.0
  0
LINE
  8
0
  6
BYLAYER
 62
     1
 10
147.666160
 20
-96.495938
 30
0.0
 11
147.666160
 21
-94.234738
 31
0.0
  0
LINE
  8
0
  6
BYLAYER
 62
     1
 10
147.666160
 20
-94.234738
 30
0.0
 11
148.511467
 21
-94.234738
 31
0.0
  0
LINE
  8
0
  6
BYLAYER
 62
     1
 10
148.511467
 20
-94.234738
 30
0.0
 11
148.511467
 21
-93.495091
 31
0.0
  0
LINE
  8
0
  6
BYLAYER
 62
     1
 10
148.511467
 20
-93.495091
 30
0.0
 11
145.891006
 21
-93.495091
 31
0.0
  0
LINE
  8
0
  6
BYLAYER
 62
     1
 10
145.891006
 20
-93.495091
 30
0.0
 11
145.891006
 21
-94.234738
 31
0.0
  0
ARC
  8
0
  6
BYLAYER
 62
     1
 10
150.011886
 20
-95.164754
 30
0.0
 40
1.436850
 50
270.0
 51
308.795693
  0
ARC
  8
0
  6
BYLAYER
 62
     1
 10
149.872822
 20
-95.016651
 30
0.0
 40
1.639484
 50
309.340576
 51
360.000000
  0
ARC
  8
0
  6
BYLAYER
 62
     1
 10
149.872828
 20
-95.016651
 30
0.0
 40
1.639478
 50
0.0
 51
50.659649
  0
ARC
  8
0
  6
BYLAYER
 62
     1
 10
150.011879
 20
-94.868561
 30
0.0
 40
1.436863
 50
51.204489
 51
90.000000
  0
ARC
  8
0
  6
BYLAYER
 62
     1
 10
150.011879
 20
-94.868548
 30
0.0
 40
1.436850
 50
90.0
 51
128.795693
  0
ARC
  8
0
  6
BYLAYER
 62
     1
 10
150.150943
 20
-95.016651
 30
0.0
 40
1.639484
 50
129.340576
 51
180.000000
  0
ARC
  8
0
  6
BYLAYER
 62
     1
 10
150.150937
 20
-95.016651
 30
0.0
 40
1.639478
 50
180.000000
 51
230.659649
  0
ARC
  8
0
  6
BYLAYER
 62
     1
 10
150.011886
 20
-95.164741
 30
0.0
 40
1.436863
 50
231.204489
 51
270.0
  0
ARC
  8
0
  6
BYLAYER
 62
     1
 10
150.011879
 20
-94.595076
 30
0.0
 40
0.664873
 50
90.0
 51
140.793201
  0
ARC
  8
0
  6
BYLAYER
 62
     1
 10
150.528656
 20
-95.016651
 30
0.0
 40
1.331795
 50
140.793201
 51
180.000000
  0
ARC
  8
0
  6
BYLAYER
 62
     1
 10
150.528639
 20
-95.016651
 30
0.0
 40
1.331778
 50
180.000000
 51
219.207055
  0
ARC
  8
0
  6
BYLAYER
 62
     1
 10
150.011886
 20
-95.438211
 30
0.0
 40
0.664886
 50
219.207055
 51
270.000000
  0
ARC
  8
0
  6
BYLAYER
 62
     1
 10
150.011886
 20
-95.438221
 30
0.0
 40
0.664875
 50
270.0
 51
320.793131
  0
ARC
  8
0
  6
BYLAYER
 62
     1
 10
149.495117
 20
-95.016651
 30
0.0
 40
1.331787
 50
320.793131
 51
360.0
  0
ARC
  8
0
  6
BYLAYER
 62
     1
 10
149.495118
 20
-95.016651
 30
0.0
 40
1.331786
 50
0.0
 51
39.206985
  0
ARC
  8
0
  6
BYLAYER
 62
     1
 10
150.011879
 20
-94.595087
 30
0.0
 40
0.664884
 50
39.206985
 51
90.000000
  0
LINE
  8
0
  6
BYLAYER
 62
     1
 10
156.749687
 20
-96.495938
 30
0.0
 11
156.749687
 21
-93.495091
 31
0.0
  0
LINE
  8
0
  6
BYLAYER
 62
     1
 10
156.749687
 20
-93.495091
 30
0.0
 11
158.609359
 21
-93.495091
 31
0.0
  0
ARC
  8
0
  6
BYLAYER
 62
     1
 10
158.609359
 20
-94.340405
 30
0.0
 40
0.845305
 50
287.134650
 51
450.000006
  0
ARC
  8
0
  6
BYLAYER
 62
     1
 10
158.778427
 20
-95.819691
 30
0.0
 40
0.676247
 50
0.0
 51
83.207557
  0
LINE
  8
0
  6
BYLAYER
 62
     1
 10
159.454673
 20
-95.819691
 30
0.0
 11
159.454673
 21
-96.242344
 31
0.0
  0
ARC
  8
0
  6
BYLAYER
 62
     1
 10
160.130920
 20
-96.242344
 30
0.0
 40
0.676247
 50
180.000000
 51
202.024314
  0
LINE
  8
0
  6
BYLAYER
 62
     1
 10
158.574180
 20
-96.495938
 30
0.0
 11
159.504020
 21
-96.495938
 31
0.0
  0
ARC
  8
0
  6
BYLAYER
 62
     1
 10
159.201080
 20
-96.242344
 30
0.0
 40
0.676247
 50
180.000000
 51
202.024314
  0
LINE
  8
0
  6
BYLAYER
 62
     1
 10
158.524833
 20
-96.242344
 30
0.0
 11
158.524833
 21
-95.904225
 31
0.0
  0
LINE
  8
0
  6
BYLAYER
 62
     1
 10
156.749687
 20
-96.495938
 30
0.0
 11
157.637260
 21
-96.495938
 31
0.0
  0
LINE
  8
0
  6
BYLAYER
 62
     1
 10
157.637260
 20
-96.495938
 30
0.0
 11
157.637260
 21
-95.481571
 31
0.0
  0
LINE
  8
0
  6
BYLAYER
 62
     1
 10
158.102180
 20
-95.481571
 30
0.0
 11
157.637260
 21
-95.481571
 31
0.0
  0
ARC
  8
0
  6
BYLAYER
 62
     1
 10
158.102180
 20
-95.904225
 30
0.0
 40
0.422653
 50
0.0
 51
90.000003
  0
LINE
  8
0
  6
BYLAYER
 62
     1
 10
157.637260
 20
-94.805325
 30
0.0
 11
157.637260
 21
-94.171337
 31
0.0
  0
LINE
  8
0
  6
BYLAYER
 62
     1
 10
157.637260
 20
-94.171337
 30
0.0
 11
158.228973
 21
-94.171337
 31
0.0
  0
LINE
  8
0
  6
BYLAYER
 62
     1
 10
157.637260
 20
-94.805325
 30
0.0
 11
158.228973
 21
-94.805325
 31
0.0
  0
ARC
  8
0
  6
BYLAYER
 62
     1
 10
158.228973
 20
-94.488331
 30
0.0
 40
0.316994
 50
270.0
 51
450.000005
  0
LINE
  8
0
  6
BYLAYER
 62
     1
 10
152.716881
 20
-95.547039
 30
0.0
 11
152.167427
 21
-93.495091
 31
0.0
  0
LINE
  8
0
  6
BYLAYER
 62
     1
 10
152.167427
 20
-93.495091
 30
0.0
 11
151.279854
 21
-93.495091
 31
0.0
  0
LINE
  8
0
  6
BYLAYER
 62
     1
 10
151.279854
 20
-93.495091
 30
0.0
 11
152.209694
 21
-96.495938
 31
0.0
  0
LINE
  8
0
  6
BYLAYER
 62
     1
 10
152.716881
 20
-95.547039
 30
0.0
 11
153.266319
 21
-93.495091
 31
0.0
  0
LINE
  8
0
  6
BYLAYER
 62
     1
 10
153.266319
 20
-93.495091
 30
0.0
 11
154.153892
 21
-93.495091
 31
0.0
  0
LINE
  8
0
  6
BYLAYER
 62
     1
 10
154.153892
 20
-93.495091
 30
0.0
 11
153.224052
 21
-96.495938
 31
0.0
  0
LINE
  8
0
  6
BYLAYER
 62
     1
 10
153.224052
 20
-96.495938
 30
0.0
 11
152.209694
 21
-96.495938
 31
0.0
  0
LINE
  8
0
  6
BYLAYER
 62
     1
 10
159.585014
 20
-96.495938
 30
0.0
 11
160.472587
 21
-96.495938
 31
0.0
  0
LINE
  8
0
  6
BYLAYER
 62
     1
 10
160.472587
 20
-96.495938
 30
0.0
 11
160.472587
 21
-93.495091
 31
0.0
  0
LINE
  8
0
  6
BYLAYER
 62
     1
 10
160.472587
 20
-93.495091
 30
0.0
 11
159.585014
 21
-93.495091
 31
0.0
  0
LINE
  8
0
  6
BYLAYER
 62
     1
 10
159.585014
 20
-93.495091
 30
0.0
 11
159.585014
 21
-96.495938
 31
0.0
  0
ARC
  8
0
  6
BYLAYER
 62
     1
 10
162.142074
 20
-95.164754
 30
0.0
 40
1.436850
 50
270.0
 51
308.795693
  0
ARC
  8
0
  6
BYLAYER
 62
     1
 10
162.003010
 20
-95.016651
 30
0.0
 40
1.639484
 50
309.340576
 51
360.000000
  0
ARC
  8
0
  6
BYLAYER
 62
     1
 10
162.003010
 20
-95.016651
 30
0.0
 40
1.639484
 50
0.0
 51
50.659424
  0
ARC
  8
0
  6
BYLAYER
 62
     1
 10
162.142074
 20
-94.868548
 30
0.0
 40
1.436850
 50
51.204307
 51
90.000000
  0
ARC
  8
0
  6
BYLAYER
 62
     1
 10
162.142074
 20
-94.868548
 30
0.0
 40
1.436850
 50
90.0
 51
128.795693
  0
ARC
  8
0
  6
BYLAYER
 62
     1
 10
162.281138
 20
-95.016651
 30
0.0
 40
1.639484
 50
129.340576
 51
180.000000
  0
ARC
  8
0
  6
BYLAYER
 62
     1
 10
162.281138
 20
-95.016651
 30
0.0
 40
1.639484
 50
180.000000
 51
230.659424
  0
ARC
  8
0
  6
BYLAYER
 62
     1
 10
162.142074
 20
-95.164754
 30
0.0
 40
1.436850
 50
231.204307
 51
270.000000
  0
ARC
  8
0
  6
BYLAYER
 62
     1
 10
162.142074
 20
-94.595076
 30
0.0
 40
0.664873
 50
39.206799
 51
90.000000
  0
ARC
  8
0
  6
BYLAYER
 62
     1
 10
161.625297
 20
-95.016651
 30
0.0
 40
1.331795
 50
0.0
 51
39.206799
  0
ARC
  8
0
  6
BYLAYER
 62
     1
 10
161.625305
 20
-95.016651
 30
0.0
 40
1.331787
 50
320.793131
 51
360.0
  0
ARC
  8
0
  6
BYLAYER
 62
     1
 10
162.142074
 20
-95.438221
 30
0.0
 40
0.664875
 50
270.0
 51
320.793131
  0
ARC
  8
0
  6
BYLAYER
 62
     1
 10
162.142074
 20
-95.438221
 30
0.0
 40
0.664875
 50
219.206869
 51
270.0
  0
ARC
  8
0
  6
BYLAYER
 62
     1
 10
162.658843
 20
-95.016651
 30
0.0
 40
1.331787
 50
180.000000
 51
219.206869
  0
ARC
  8
0
  6
BYLAYER
 62
     1
 10
162.658851
 20
-95.016651
 30
0.0
 40
1.331795
 50
140.793201
 51
180.0
  0
ARC
  8
0
  6
BYLAYER
 62
     1
 10
162.142074
 20
-94.595076
 30
0.0
 40
0.664873
 50
90.0
 51
140.793201
  0
ARC
  8
0
  6
BYLAYER
 62
     1
 10
147.156143
 20
-90.059727
 30
0.0
 40
3.714997
 50
174.535650
 51
180.000000
  0
LINE
  8
0
  6
BYLAYER
 62
     1
 10
143.458027
 20
-89.705960
 30
0.0
 11
143.458027
 21
-89.705956
 31
0.0
  0
LINE
  8
0
  6
BYLAYER
 62
     1
 10
143.462069
 20
-89.665994
 30
0.0
 11
143.816621
 21
-89.516723
 31
0.0
  0
ARC
  8
0
  6
BYLAYER
 62
     1
 10
147.156158
 20
-90.059758
 30
0.0
 40
3.383391
 50
159.235383
 51
170.763998
  0
LINE
  8
0
  6
BYLAYER
 62
     1
 10
143.992521
 20
-88.860225
 30
0.0
 11
143.760122
 21
-88.553668
 31
0.0
  0
ARC
  8
0
  6
BYLAYER
 62
     1
 10
147.156143
 20
-90.059727
 30
0.0
 40
3.714993
 50
144.139514
 51
156.083795
  0
LINE
  8
0
  6
BYLAYER
 62
     1
 10
144.120911
 20
-87.917630
 30
0.0
 11
144.121132
 21
-87.917317
 31
0.0
  0
LINE
  8
0
  6
BYLAYER
 62
     1
 10
144.145342
 20
-87.883434
 30
0.0
 11
144.522805
 21
-87.935366
 31
0.0
  0
ARC
  8
0
  6
BYLAYER
 62
     1
 10
147.156143
 20
-90.059727
 30
0.0
 40
3.383370
 50
129.235643
 51
141.105976
  0
LINE
  8
0
  6
BYLAYER
 62
     1
 10
144.960800
 20
-87.485298
 30
0.0
 11
144.961166
 21
-87.484982
 31
0.0
  0
LINE
  8
0
  6
BYLAYER
 62
     1
 10
145.016123
 20
-87.439134
 30
0.0
 11
144.968126
 21
-87.057430
 31
0.0
  0
ARC
  8
0
  6
BYLAYER
 62
     1
 10
147.156143
 20
-90.059727
 30
0.0
 40
3.714997
 50
114.139607
 51
126.083853
  0
LINE
  8
0
  6
BYLAYER
 62
     1
 10
145.598869
 20
-86.686879
 30
0.0
 11
145.599121
 21
-86.686760
 31
0.0
  0
LINE
  8
0
  6
BYLAYER
 62
     1
 10
145.636853
 20
-86.669600
 30
0.0
 11
145.937767
 21
-86.903297
 31
0.0
  0
LINE
  8
0
  6
BYLAYER
 62
     1
 10
146.006569
 20
-86.877636
 30
0.0
 11
146.006950
 21
-86.877503
 31
0.0
  0
ARC
  8
0
  6
BYLAYER
 62
     1
 10
147.156143
 20
-90.059727
 30
0.0
 40
3.383369
 50
99.235601
 51
111.106038
  0
ARC
  8
0
  6
BYLAYER
 62
     1
 10
147.156143
 20
-90.059727
 30
0.0
 40
3.714997
 50
90.0
 51
96.083892
  0
LINE
  8
0
  6
BYLAYER
 62
     1
 10
146.762411
 20
-86.365653
 30
0.0
 11
146.613131
 21
-86.720217
 31
0.0
  0
LINE
  8
0
  6
BYLAYER
 62
     1
 10
150.854255
 20
-89.705960
 30
0.0
 11
150.854255
 21
-89.705956
 31
0.0
  0
LINE
  8
0
  6
BYLAYER
 62
     1
 10
150.850217
 20
-89.665994
 30
0.0
 11
150.495647
 21
-89.516719
 31
0.0
  0
ARC
  8
0
  6
BYLAYER
 62
     1
 10
147.156120
 20
-90.059758
 30
0.0
 40
3.383391
 50
9.235986
 51
20.764650
  0
LINE
  8
0
  6
BYLAYER
 62
     1
 10
150.319782
 20
-88.860190
 30
0.0
 11
150.552165
 21
-88.553669
 31
0.0
  0
ARC
  8
0
  6
BYLAYER
 62
     1
 10
147.156143
 20
-90.059727
 30
0.0
 40
3.714993
 50
23.916189
 51
35.860484
  0
LINE
  8
0
  6
BYLAYER
 62
     1
 10
150.191368
 20
-87.917630
 30
0.0
 11
150.191147
 21
-87.917317
 31
0.0
  0
LINE
  8
0
  6
BYLAYER
 62
     1
 10
150.166944
 20
-87.883434
 30
0.0
 11
149.789508
 21
-87.935361
 31
0.0
  0
ARC
  8
0
  6
BYLAYER
 62
     1
 10
147.156143
 20
-90.059727
 30
0.0
 40
3.383370
 50
38.894050
 51
50.764315
  0
LINE
  8
0
  6
BYLAYER
 62
     1
 10
149.351486
 20
-87.485298
 30
0.0
 11
149.351120
 21
-87.484982
 31
0.0
  0
LINE
  8
0
  6
BYLAYER
 62
     1
 10
149.296173
 20
-87.439072
 30
0.0
 11
149.344152
 21
-87.057424
 31
0.0
  0
ARC
  8
0
  6
BYLAYER
 62
     1
 10
147.156143
 20
-90.059727
 30
0.0
 40
3.714997
 50
53.916300
 51
65.860381
  0
LINE
  8
0
  6
BYLAYER
 62
     1
 10
148.713417
 20
-86.686879
 30
0.0
 11
148.713157
 21
-86.686760
 31
0.0
  0
LINE
  8
0
  6
BYLAYER
 62
     1
 10
148.675434
 20
-86.669601
 30
0.0
 11
148.374522
 21
-86.903287
 31
0.0
  0
LINE
  8
0
  6
BYLAYER
 62
     1
 10
148.305710
 20
-86.877636
 30
0.0
 11
148.305336
 21
-86.877503
 31
0.0
  0
ARC
  8
0
  6
BYLAYER
 62
     1
 10
147.156143
 20
-90.059727
 30
0.0
 40
3.383369
 50
68.894081
 51
80.764578
  0
ARC
  8
0
  6
BYLAYER
 62
     1
 10
147.156143
 20
-90.059727
 30
0.0
 40
3.714997
 50
84.535428
 51
90.000003
  0
LINE
  8
0
  6
BYLAYER
 62
     1
 10
147.549877
 20
-86.365653
 30
0.0
 11
147.699120
 21
-86.720157
 31
0.0
  0
ARC
  8
0
  6
BYLAYER
 62
     1
 10
147.156143
 20
-90.059727
 30
0.0
 40
3.714997
 50
180.000000
 51
186.083899
  0
LINE
  8
0
  6
BYLAYER
 62
     1
 10
143.458027
 20
-90.413491
 30
0.0
 11
143.458027
 21
-90.413498
 31
0.0
  0
LINE
  8
0
  6
BYLAYER
 62
     1
 10
143.462069
 20
-90.453460
 30
0.0
 11
143.816631
 21
-90.602736
 31
0.0
  0
ARC
  8
0
  6
BYLAYER
 62
     1
 10
147.156158
 20
-90.059696
 30
0.0
 40
3.383391
 50
189.236002
 51
200.764629
  0
LINE
  8
0
  6
BYLAYER
 62
     1
 10
143.992533
 20
-91.259214
 30
0.0
 11
143.760120
 21
-91.565783
 31
0.0
  0
ARC
  8
0
  6
BYLAYER
 62
     1
 10
147.156143
 20
-90.059727
 30
0.0
 40
3.714993
 50
203.916158
 51
215.860410
  0
LINE
  8
0
  6
BYLAYER
 62
     1
 10
144.120911
 20
-92.201821
 30
0.0
 11
144.121132
 21
-92.202133
 31
0.0
  0
LINE
  8
0
  6
BYLAYER
 62
     1
 10
144.145339
 20
-92.236016
 30
0.0
 11
144.522837
 21
-92.184085
 31
0.0
  0
ARC
  8
0
  6
BYLAYER
 62
     1
 10
147.156143
 20
-90.059727
 30
0.0
 40
3.383370
 50
218.894045
 51
230.764345
  0
LINE
  8
0
  6
BYLAYER
 62
     1
 10
144.960800
 20
-92.634152
 30
0.0
 11
144.961166
 21
-92.634468
 31
0.0
  0
LINE
  8
0
  6
BYLAYER
 62
     1
 10
145.016123
 20
-92.680320
 30
0.0
 11
144.968126
 21
-93.062024
 31
0.0
  0
ARC
  8
0
  6
BYLAYER
 62
     1
 10
147.156143
 20
-90.059727
 30
0.0
 40
3.714997
 50
233.916148
 51
245.860401
  0
LINE
  8
0
  6
BYLAYER
 62
     1
 10
145.598869
 20
-93.432572
 30
0.0
 11
145.599121
 21
-93.432694
 31
0.0
  0
LINE
  8
0
  6
BYLAYER
 62
     1
 10
145.636853
 20
-93.449854
 30
0.0
 11
145.937803
 21
-93.216124
 31
0.0
  0
LINE
  8
0
  6
BYLAYER
 62
     1
 10
146.006569
 20
-93.241814
 30
0.0
 11
146.006950
 21
-93.241951
 31
0.0
  0
LINE
  8
0
  6
BYLAYER
 62
     1
 10
150.854255
 20
-90.413491
 30
0.0
 11
150.854255
 21
-90.413498
 31
0.0
  0
LINE
  8
0
  6
BYLAYER
 62
     1
 10
150.850216
 20
-90.453460
 30
0.0
 11
150.495647
 21
-90.602735
 31
0.0
  0
LINE
  8
0
  6
BYLAYER
 62
     1
 10
150.319749
 20
-91.259222
 30
0.0
 11
150.552169
 21
-91.565786
 31
0.0
  0
LINE
  8
0
  6
BYLAYER
 62
     1
 10
150.191368
 20
-92.201821
 30
0.0
 11
150.191147
 21
-92.202133
 31
0.0
  0
LINE
  8
0
  6
BYLAYER
 62
     1
 10
150.166951
 20
-92.236017
 30
0.0
 11
149.789428
 21
-92.184083
 31
0.0
  0
LINE
  8
0
  6
BYLAYER
 62
     1
 10
149.351486
 20
-92.634152
 30
0.0
 11
149.351120
 21
-92.634468
 31
0.0
  0
LINE
  8
0
  6
BYLAYER
 62
     1
 10
149.296165
 20
-92.680318
 30
0.0
 11
149.344152
 21
-93.062030
 31
0.0
  0
LINE
  8
0
  6
BYLAYER
 62
     1
 10
148.675434
 20
-93.449854
 30
0.0
 11
148.374477
 21
-93.216127
 31
0.0
  0
ARC
  8
0
  6
BYLAYER
 62
     1
 10
147.156143
 20
-90.059727
 30
0.0
 40
3.383370
 50
309.235697
 51
321.105929
  0
ARC
  8
0
  6
BYLAYER
 62
     1
 10
147.156143
 20
-90.059727
 30
0.0
 40
3.383369
 50
248.893873
 51
270.000000
  0
ARC
  8
0
  6
BYLAYER
 62
     1
 10
147.156143
 20
-90.059727
 30
0.0
 40
3.714997
 50
294.783232
 51
306.083699
  0
LINE
  8
0
  6
BYLAYER
 62
     1
 10
148.713157
 20
-93.432694
 30
0.0
 11
148.675662
 21
-93.450338
 31
0.0
  0
ARC
  8
0
  6
BYLAYER
 62
     1
 10
147.156143
 20
-90.059727
 30
0.0
 40
3.714993
 50
324.139593
 51
336.083825
  0
ARC
  8
0
  6
BYLAYER
 62
     1
 10
147.156120
 20
-90.059696
 30
0.0
 40
3.383391
 50
339.235210
 51
350.764014
  0
ARC
  8
0
  6
BYLAYER
 62
     1
 10
147.156143
 20
-90.059727
 30
0.0
 40
3.714997
 50
353.916089
 51
360.000000
  0
ARC
  8
0
  6
BYLAYER
 62
     1
 10
147.156143
 20
-90.059727
 30
0.0
 40
3.714997
 50
0.0
 51
6.083907
  0
ARC
  8
0
  6
BYLAYER
 62
     1
 10
147.156143
 20
-90.059727
 30
0.0
 40
3.383369
 50
270.0
 51
291.106008
  0
CIRCLE
  8
0
  6
BYLAYER
 62
     1
 10
147.156143
 20
-90.059727
 30
0.0
 40
1.815040
  0
CIRCLE
  8
0
  6
BYLAYER
 62
     1
 10
147.156143
 20
-90.059727
 30
0.0
 40
2.648016
  0
LINE
  8
0
  6
BYLAYER
 62
     1
 10
151.406143
 20
-149.559727
 30
0.0
 11
148.406143
 21
-149.559727
 31
0.0
  0
LINE
  8
0
  6
BYLAYER
 62
     1
 10
151.406143
 20
-149.559727
 30
0.0
 11
151.406143
 21
-152.559727
 31
0.0
  0
LINE
  8
0
  6
BYLAYER
 62
     1
 10
151.406143
 20
-149.559727
 30
0.0
 11
154.406143
 21
-149.559727
 31
0.0
  0
LINE
  8
0
  6
BYLAYER
 62
     1
 10
151.406143
 20
-149.559727
 30
0.0
 11
151.406143
 21
-146.559727
 31
0.0
  0
ARC
  8
0
  6
BYLAYER
 62
     1
 10
184.893634
 20
-125.047731
 30
0.0
 40
2.0
 50
355.957305
 51
396.203183
  0
LINE
  8
0
  6
BYLAYER
 62
     1
 10
722.906143
 20
-539.559788
 30
0.0
 11
708.906143
 21
-539.559788
 31
0.0
  0
LINE
  8
0
  6
BYLAYER
 62
     1
 10
651.906143
 20
-539.559788
 30
0.0
 11
665.906143
 21
-539.559788
 31
0.0
  0
CIRCLE
  8
0
  6
BYLAYER
 62
     1
 10
657.406143
 20
-434.559727
 30
0.0
 40
3.250001
  0
CIRCLE
  8
0
  6
BYLAYER
 62
     1
 10
717.406143
 20
-434.559727
 30
0.0
 40
3.250001
  0
LINE
  8
0
  6
BYLAYER
 62
     1
 10
722.906143
 20
-514.559727
 30
0.0
 11
721.406143
 21
-513.059758
 31
0.0
  0
LINE
  8
0
  6
BYLAYER
 62
     1
 10
722.906143
 20
-539.559788
 30
0.0
 11
722.906143
 21
-528.924382
 31
0.0
  0
LINE
  8
0
  6
BYLAYER
 62
     1
 10
722.906143
 20
-520.195072
 30
0.0
 11
722.906143
 21
-514.559727
 31
0.0
  0
CIRCLE
  8
0
  6
BYLAYER
 62
     1
 10
687.406143
 20
-449.559727
 30
0.0
 40
20.0
  0
LINE
  8
0
  6
BYLAYER
 62
     1
 10
651.906143
 20
-539.559788
 30
0.0
 11
651.906143
 21
-528.924382
 31
0.0
  0
LINE
  8
0
  6
BYLAYER
 62
     1
 10
651.906143
 20
-520.195072
 30
0.0
 11
651.906143
 21
-514.559727
 31
0.0
  0
LINE
  8
0
  6
BYLAYER
 62
     1
 10
651.906143
 20
-514.559727
 30
0.0
 11
653.406143
 21
-513.059758
 31
0.0
  0
LINE
  8
0
  6
BYLAYER
 62
     1
 10
665.906143
 20
-514.559727
 30
0.0
 11
651.906143
 21
-514.559727
 31
0.0
  0
LINE
  8
0
  6
BYLAYER
 62
     1
 10
708.906143
 20
-513.059758
 30
0.0
 11
721.406143
 21
-513.059758
 31
0.0
  0
LINE
  8
0
  6
BYLAYER
 62
     1
 10
708.906143
 20
-514.559727
 30
0.0
 11
722.906143
 21
-514.559727
 31
0.0
  0
CIRCLE
  8
0
  6
BYLAYER
 62
     1
 10
687.406143
 20
-423.309727
 30
0.0
 40
3.0
  0
CIRCLE
  8
0
  6
BYLAYER
 62
     1
 10
664.672989
 20
-462.684758
 30
0.0
 40
3.0
  0
CIRCLE
  8
0
  6
BYLAYER
 62
     1
 10
710.139297
 20
-462.684758
 30
0.0
 40
3.0
  0
LINE
  8
0
  6
BYLAYER
 62
     1
 10
665.906143
 20
-513.059758
 30
0.0
 11
653.406143
 21
-513.059758
 31
0.0
  0
LINE
  8
0
  6
BYLAYER
 62
     1
 10
651.906143
 20
-533.059758
 30
0.0
 11
650.906143
 21
-533.059758
 31
0.0
  0
LINE
  8
0
  6
BYLAYER
 62
     1
 10
650.906143
 20
-446.059758
 30
0.0
 11
653.406143
 21
-446.059758
 31
0.0
  0
LINE
  8
0
  6
BYLAYER
 62
     1
 10
650.906143
 20
-446.059758
 30
0.0
 11
650.906143
 21
-533.059758
 31
0.0
  0
LINE
  8
0
  6
BYLAYER
 62
     1
 10
708.906143
 20
-467.787876
 30
0.0
 11
708.906143
 21
-539.559788
 31
0.0
  0
LINE
  8
0
  6
BYLAYER
 62
     1
 10
665.906143
 20
-467.787876
 30
0.0
 11
665.906143
 21
-539.559788
 31
0.0
  0
LINE
  8
0
  6
BYLAYER
 62
     1
 10
651.906143
 20
-443.059727
 30
0.0
 11
653.406143
 21
-444.559727
 31
0.0
  0
LINE
  8
0
  6
BYLAYER
 62
     1
 10
651.906143
 20
-443.059727
 30
0.0
 11
651.906143
 21
-418.059727
 31
0.0
  0
LINE
  8
0
  6
BYLAYER
 62
     1
 10
651.906143
 20
-418.059727
 30
0.0
 11
665.906143
 21
-418.059727
 31
0.0
  0
LINE
  8
0
  6
BYLAYER
 62
     1
 10
722.906143
 20
-418.059727
 30
0.0
 11
708.906143
 21
-418.059727
 31
0.0
  0
LINE
  8
0
  6
BYLAYER
 62
     1
 10
722.906143
 20
-443.059727
 30
0.0
 11
722.906143
 21
-418.059727
 31
0.0
  0
LINE
  8
0
  6
BYLAYER
 62
     1
 10
722.906143
 20
-443.059727
 30
0.0
 11
721.406143
 21
-444.559727
 31
0.0
  0
LINE
  8
0
  6
BYLAYER
 62
     1
 10
653.406143
 20
-513.059758
 30
0.0
 11
653.406143
 21
-444.559727
 31
0.0
  0
LINE
  8
0
  6
BYLAYER
 62
     1
 10
721.406143
 20
-513.059758
 30
0.0
 11
721.406143
 21
-444.559727
 31
0.0
  0
LINE
  8
0
  6
BYLAYER
 62
     1
 10
691.080368
 20
-419.559727
 30
0.0
 11
708.906143
 21
-419.559727
 31
0.0
  0
LINE
  8
0
  6
BYLAYER
 62
     1
 10
665.906143
 20
-419.559727
 30
0.0
 11
683.731918
 21
-419.559727
 31
0.0
  0
LINE
  8
0
  6
BYLAYER
 62
     1
 10
648.906174
 20
-459.559758
 30
0.0
 11
648.406174
 21
-460.059758
 31
0.0
  0
LINE
  8
0
  6
BYLAYER
 62
     1
 10
648.906174
 20
-519.559727
 30
0.0
 11
648.406174
 21
-519.059727
 31
0.0
  0
LINE
  8
0
  6
BYLAYER
 62
     1
 10
648.406174
 20
-519.059727
 30
0.0
 11
648.406174
 21
-460.059758
 31
0.0
  0
LINE
  8
0
  6
BYLAYER
 62
     1
 10
648.906174
 20
-519.559727
 30
0.0
 11
650.506149
 21
-519.559727
 31
0.0
  0
ARC
  8
0
  6
BYLAYER
 62
     1
 10
650.506149
 20
-519.959751
 30
0.0
 40
0.399994
 50
0.0
 51
90.000003
  0
LINE
  8
0
  6
BYLAYER
 62
     1
 10
650.506149
 20
-459.559758
 30
0.0
 11
648.906174
 21
-459.559758
 31
0.0
  0
ARC
  8
0
  6
BYLAYER
 62
     1
 10
650.506149
 20
-459.159764
 30
0.0
 40
0.399994
 50
270.0
 51
360.000003
  0
LINE
  8
0
  6
BYLAYER
 62
     1
 10
662.306351
 20
-443.059727
 30
0.0
 11
651.906143
 21
-443.059727
 31
0.0
  0
ARC
  8
0
  6
BYLAYER
 62
     1
 10
662.306351
 20
-445.059727
 30
0.0
 40
2.0
 50
349.835836
 51
450.0
  0
LINE
  8
0
  6
BYLAYER
 62
     1
 10
665.906143
 20
-433.128056
 30
0.0
 11
665.906143
 21
-418.059727
 31
0.0
  0
ARC
  8
0
  6
BYLAYER
 62
     1
 10
667.906143
 20
-433.128056
 30
0.0
 40
2.0
 50
180.000000
 51
319.881004
  0
ARC
  8
0
  6
BYLAYER
 62
     1
 10
687.406143
 20
-449.559727
 30
0.0
 40
23.499983
 50
106.021611
 51
139.880826
  0
ARC
  8
0
  6
BYLAYER
 62
     1
 10
680.368149
 20
-425.050206
 30
0.0
 40
2.000017
 50
286.021521
 51
373.890361
  0
ARC
  8
0
  6
BYLAYER
 62
     1
 10
687.406143
 20
-423.309727
 30
0.0
 40
5.249994
 50
346.109564
 51
553.890434
  0
ARC
  8
0
  6
BYLAYER
 62
     1
 10
694.444107
 20
-425.050206
 30
0.0
 40
1.999985
 50
166.109436
 51
253.979054
  0
ARC
  8
0
  6
BYLAYER
 62
     1
 10
687.406143
 20
-449.559727
 30
0.0
 40
23.499992
 50
40.119172
 51
73.978414
  0
LINE
  8
0
  6
BYLAYER
 62
     1
 10
708.906143
 20
-433.128056
 30
0.0
 11
708.906143
 21
-418.059727
 31
0.0
  0
ARC
  8
0
  6
BYLAYER
 62
     1
 10
706.906143
 20
-433.128056
 30
0.0
 40
2.000005
 50
220.118993
 51
359.999996
  0
LINE
  8
0
  6
BYLAYER
 62
     1
 10
712.505935
 20
-443.059727
 30
0.0
 11
722.906143
 21
-443.059727
 31
0.0
  0
ARC
  8
0
  6
BYLAYER
 62
     1
 10
712.505935
 20
-445.059727
 30
0.0
 40
1.999985
 50
90.0
 51
190.164171
  0
ARC
  8
0
  6
BYLAYER
 62
     1
 10
687.406143
 20
-449.559727
 30
0.0
 40
23.499996
 50
346.021509
 51
370.164259
  0
ARC
  8
0
  6
BYLAYER
 62
     1
 10
712.150986
 20
-455.719425
 30
0.0
 40
1.999987
 50
166.022064
 51
253.891054
  0
ARC
  8
0
  6
BYLAYER
 62
     1
 10
710.139297
 20
-462.684758
 30
0.0
 40
5.250013
 50
226.109533
 51
433.890322
  0
ARC
  8
0
  6
BYLAYER
 62
     1
 10
664.672989
 20
-462.684758
 30
0.0
 40
5.250010
 50
106.109680
 51
313.890468
  0
ARC
  8
0
  6
BYLAYER
 62
     1
 10
687.406143
 20
-449.559727
 30
0.0
 40
23.500008
 50
169.835741
 51
193.978493
  0
ARC
  8
0
  6
BYLAYER
 62
     1
 10
662.661270
 20
-455.719456
 30
0.0
 40
1.999986
 50
286.110040
 51
373.978573
  0
LINE
  8
0
  6
BYLAYER
 62
     1
 10
664.242843
 20
-444.559727
 30
0.0
 11
653.406143
 21
-444.559727
 31
0.0
  0
LINE
  8
0
  6
BYLAYER
 62
     1
 10
721.406143
 20
-444.559727
 30
0.0
 11
710.569473
 21
-444.559727
 31
0.0
  0
ARC
  8
0
  6
BYLAYER
 62
     1
 10
652.906143
 20
-520.195072
 30
0.0
 40
1.000000
 50
180.000000
 51
267.938986
  0
ARC
  8
0
  6
BYLAYER
 62
     1
 10
717.406143
 20
-524.559727
 30
0.0
 40
3.2
 50
92.061012
 51
267.938984
  0
LINE
  8
0
  6
BYLAYER
 62
     1
 10
721.942093
 20
-521.194432
 30
0.0
 11
717.291061
 21
-521.361790
 31
0.0
  0
LINE
  8
0
  6
BYLAYER
 62
     1
 10
721.942093
 20
-527.925022
 30
0.0
 11
717.291061
 21
-527.757664
 31
0.0
  0
ARC
  8
0
  6
BYLAYER
 62
     1
 10
657.406143
 20
-524.559727
 30
0.0
 40
3.200000
 50
272.061014
 51
447.938986
  0
LINE
  8
0
  6
BYLAYER
 62
     1
 10
652.870193
 20
-521.194432
 30
0.0
 11
657.521225
 21
-521.361790
 31
0.0
  0
LINE
  8
0
  6
BYLAYER
 62
     1
 10
652.870193
 20
-527.925022
 30
0.0
 11
657.521225
 21
-527.757664
 31
0.0
  0
ARC
  8
0
  6
BYLAYER
 62
     1
 10
652.906143
 20
-528.924382
 30
0.0
 40
1.000000
 50
92.061012
 51
179.999998
  0
ARC
  8
0
  6
BYLAYER
 62
     1
 10
721.906143
 20
-520.195072
 30
0.0
 40
1.000000
 50
272.061014
 51
360.000000
  0
ARC
  8
0
  6
BYLAYER
 62
     1
 10
721.906143
 20
-528.924382
 30
0.0
 40
1.0
 50
0.0
 51
87.938986
  0
LINE
  8
0
  6
BYLAYER
 62
     1
 10
722.906143
 20
-533.059758
 30
0.0
 11
723.906143
 21
-533.059758
 31
0.0
  0
LINE
  8
0
  6
BYLAYER
 62
     1
 10
723.906143
 20
-446.059758
 30
0.0
 11
721.406143
 21
-446.059758
 31
0.0
  0
LINE
  8
0
  6
BYLAYER
 62
     1
 10
723.906143
 20
-446.059758
 30
0.0
 11
723.906143
 21
-533.059758
 31
0.0
  0
LINE
  8
0
  6
BYLAYER
 62
     1
 10
725.906082
 20
-459.559758
 30
0.0
 11
726.406082
 21
-460.059758
 31
0.0
  0
LINE
  8
0
  6
BYLAYER
 62
     1
 10
725.906082
 20
-519.559727
 30
0.0
 11
726.406082
 21
-519.059727
 31
0.0
  0
LINE
  8
0
  6
BYLAYER
 62
     1
 10
726.406082
 20
-519.059727
 30
0.0
 11
726.406082
 21
-460.059758
 31
0.0
  0
LINE
  8
0
  6
BYLAYER
 62
     1
 10
725.906082
 20
-519.559727
 30
0.0
 11
724.306106
 21
-519.559727
 31
0.0
  0
ARC
  8
0
  6
BYLAYER
 62
     1
 10
724.306106
 20
-519.959751
 30
0.0
 40
0.399994
 50
90.0
 51
180.000003
  0
LINE
  8
0
  6
BYLAYER
 62
     1
 10
724.306106
 20
-459.559758
 30
0.0
 11
725.906082
 21
-459.559758
 31
0.0
  0
ARC
  8
0
  6
BYLAYER
 62
     1
 10
724.306106
 20
-459.159764
 30
0.0
 40
0.399994
 50
180.000000
 51
270.000003
  0
LINE
  8
0
  6
BYLAYER
 62
     1
 10
665.906143
 20
-537.559727
 30
0.0
 11
708.906143
 21
-537.559727
 31
0.0
  0
ARC
  8
0
  6
BYLAYER
 62
     1
 10
687.406143
 20
-449.559727
 30
0.0
 40
23.499996
 50
226.021628
 51
313.978359
  0
ARC
  8
0
  6
BYLAYER
 62
     1
 10
669.699295
 20
-467.909581
 30
0.0
 40
1.999988
 50
46.021938
 51
133.890873
  0
ARC
  8
0
  6
BYLAYER
 62
     1
 10
705.112991
 20
-467.909581
 30
0.0
 40
1.999997
 50
46.109125
 51
133.978067
  0
LINE
  8
0
  6
BYLAYER
 62
     1
 10
201.406189
 20
-414.059773
 30
0.0
 11
201.406189
 21
-428.059712
 31
0.0
  0
LINE
  8
0
  6
BYLAYER
 62
     1
 10
201.406189
 20
-485.059727
 30
0.0
 11
201.406189
 21
-471.059727
 31
0.0
  0
LINE
  8
0
  6
BYLAYER
 62
     1
 10
176.406158
 20
-414.059773
 30
0.0
 11
174.906158
 21
-415.559773
 31
0.0
  0
LINE
  8
0
  6
BYLAYER
 62
     1
 10
201.406189
 20
-414.059773
 30
0.0
 11
176.406158
 21
-414.059773
 31
0.0
  0
LINE
  8
0
  6
BYLAYER
 62
     1
 10
201.406189
 20
-485.059727
 30
0.0
 11
176.406158
 21
-485.059727
 31
0.0
  0
LINE
  8
0
  6
BYLAYER
 62
     1
 10
176.406158
 20
-485.059727
 30
0.0
 11
174.906158
 21
-483.559727
 31
0.0
  0
CIRCLE
  8
0
  6
BYLAYER
 62
     1
 10
186.406158
 20
-419.559773
 30
0.0
 40
3.250001
  0
CIRCLE
  8
0
  6
BYLAYER
 62
     1
 10
186.406158
 20
-479.559727
 30
0.0
 40
3.250001
  0
LINE
  8
0
  6
BYLAYER
 62
     1
 10
176.406158
 20
-428.059712
 30
0.0
 11
176.406158
 21
-414.059773
 31
0.0
  0
LINE
  8
0
  6
BYLAYER
 62
     1
 10
176.406158
 20
-471.059727
 30
0.0
 11
176.406158
 21
-485.059727
 31
0.0
  0
LINE
  8
0
  6
BYLAYER
 62
     1
 10
126.406128
 20
-414.059773
 30
0.0
 11
127.906128
 21
-415.559773
 31
0.0
  0
LINE
  8
0
  6
BYLAYER
 62
     1
 10
101.406128
 20
-414.059773
 30
0.0
 11
126.406128
 21
-414.059773
 31
0.0
  0
LINE
  8
0
  6
BYLAYER
 62
     1
 10
101.406128
 20
-485.059727
 30
0.0
 11
126.406128
 21
-485.059727
 31
0.0
  0
LINE
  8
0
  6
BYLAYER
 62
     1
 10
126.406128
 20
-485.059727
 30
0.0
 11
127.906128
 21
-483.559727
 31
0.0
  0
CIRCLE
  8
0
  6
BYLAYER
 62
     1
 10
116.406128
 20
-419.559773
 30
0.0
 40
3.250001
  0
CIRCLE
  8
0
  6
BYLAYER
 62
     1
 10
116.406128
 20
-479.559727
 30
0.0
 40
3.250001
  0
LINE
  8
0
  6
BYLAYER
 62
     1
 10
126.406128
 20
-428.059712
 30
0.0
 11
126.406128
 21
-414.059773
 31
0.0
  0
LINE
  8
0
  6
BYLAYER
 62
     1
 10
126.406128
 20
-471.059727
 30
0.0
 11
126.406128
 21
-485.059727
 31
0.0
  0
LINE
  8
0
  6
BYLAYER
 62
     1
 10
174.906158
 20
-415.559773
 30
0.0
 11
127.906128
 21
-415.559773
 31
0.0
  0
LINE
  8
0
  6
BYLAYER
 62
     1
 10
174.906158
 20
-483.559727
 30
0.0
 11
127.906128
 21
-483.559727
 31
0.0
  0
LINE
  8
0
  6
BYLAYER
 62
     1
 10
202.406189
 20
-483.059727
 30
0.0
 11
202.406189
 21
-416.059712
 31
0.0
  0
LINE
  8
0
  6
BYLAYER
 62
     1
 10
202.406189
 20
-483.059727
 30
0.0
 11
201.406189
 21
-483.094639
 31
0.0
  0
LINE
  8
0
  6
BYLAYER
 62
     1
 10
202.406189
 20
-416.059712
 30
0.0
 11
201.406189
 21
-416.024800
 31
0.0
  0
LINE
  8
0
  6
BYLAYER
 62
     1
 10
101.406128
 20
-485.059727
 30
0.0
 11
101.406128
 21
-414.059773
 31
0.0
  0
ARC
  8
0
  6
BYLAYER
 62
     1
 10
186.406189
 20
-429.059712
 30
0.0
 40
1.000000
 50
0.0
 51
90.000016
  0
ARC
  8
0
  6
BYLAYER
 62
     1
 10
186.406189
 20
-470.059727
 30
0.0
 40
1.0
 50
270.0
 51
359.999982
  0
LINE
  8
0
  6
BYLAYER
 62
     1
 10
201.406189
 20
-428.059712
 30
0.0
 11
101.406250
 21
-428.059712
 31
0.0
  0
LINE
  8
0
  6
BYLAYER
 62
     1
 10
201.406189
 20
-471.059727
 30
0.0
 11
101.406250
 21
-471.059727
 31
0.0
  0
ARC
  8
0
  6
BYLAYER
 62
     1
 10
116.406250
 20
-429.059712
 30
0.0
 40
1.000000
 50
90.0
 51
180.000016
  0
ARC
  8
0
  6
BYLAYER
 62
     1
 10
116.406250
 20
-470.059727
 30
0.0
 40
1.000000
 50
180.000000
 51
269.999982
  0
LINE
  8
0
  6
BYLAYER
 62
     1
 10
174.906158
 20
-471.059727
 30
0.0
 11
174.906158
 21
-483.559727
 31
0.0
  0
LINE
  8
0
  6
BYLAYER
 62
     1
 10
127.906128
 20
-471.059727
 30
0.0
 11
127.906128
 21
-483.559727
 31
0.0
  0
LINE
  8
0
  6
BYLAYER
 62
     1
 10
174.906158
 20
-428.059712
 30
0.0
 11
174.906158
 21
-415.559773
 31
0.0
  0
LINE
  8
0
  6
BYLAYER
 62
     1
 10
127.906128
 20
-428.059712
 30
0.0
 11
127.906128
 21
-415.559773
 31
0.0
  0
LINE
  8
0
  6
BYLAYER
 62
     1
 10
187.406189
 20
-466.559727
 30
0.0
 11
187.406189
 21
-470.059727
 31
0.0
  0
LINE
  8
0
  6
BYLAYER
 62
     1
 10
107.906158
 20
-413.059742
 30
0.0
 11
194.906158
 21
-413.059742
 31
0.0
  0
LINE
  8
0
  6
BYLAYER
 62
     1
 10
107.906158
 20
-413.059742
 30
0.0
 11
107.906158
 21
-414.059803
 31
0.0
  0
LINE
  8
0
  6
BYLAYER
 62
     1
 10
194.906158
 20
-413.059742
 30
0.0
 11
194.906158
 21
-414.059773
 31
0.0
  0
LINE
  8
0
  6
BYLAYER
 62
     1
 10
201.406174
 20
-417.499714
 30
0.0
 11
201.406174
 21
-415.559773
 31
0.0
  0
LINE
  8
0
  6
BYLAYER
 62
     1
 10
201.406174
 20
-481.619755
 30
0.0
 11
201.406174
 21
-483.559696
 31
0.0
  0
LINE
  8
0
  6
BYLAYER
 62
     1
 10
187.406189
 20
-456.559727
 30
0.0
 11
179.406189
 21
-456.559727
 31
0.0
  0
LINE
  8
0
  6
BYLAYER
 62
     1
 10
179.406189
 20
-458.559727
 30
0.0
 11
187.406189
 21
-458.559727
 31
0.0
  0
LINE
  8
0
  6
BYLAYER
 62
     1
 10
179.406189
 20
-440.559727
 30
0.0
 11
187.406189
 21
-440.559727
 31
0.0
  0
LINE
  8
0
  6
BYLAYER
 62
     1
 10
187.406189
 20
-442.559727
 30
0.0
 11
179.406189
 21
-442.559727
 31
0.0
  0
LINE
  8
0
  6
BYLAYER
 62
     1
 10
181.406158
 20
-411.059773
 30
0.0
 11
180.906158
 21
-410.559773
 31
0.0
  0
LINE
  8
0
  6
BYLAYER
 62
     1
 10
121.406128
 20
-411.059773
 30
0.0
 11
121.906128
 21
-410.559773
 31
0.0
  0
LINE
  8
0
  6
BYLAYER
 62
     1
 10
121.906128
 20
-410.559773
 30
0.0
 11
180.906158
 21
-410.559773
 31
0.0
  0
LINE
  8
0
  6
BYLAYER
 62
     1
 10
121.406128
 20
-412.659748
 30
0.0
 11
121.406128
 21
-411.059773
 31
0.0
  0
ARC
  8
0
  6
BYLAYER
 62
     1
 10
121.006126
 20
-412.659748
 30
0.0
 40
0.399994
 50
270.0
 51
360.000003
  0
LINE
  8
0
  6
BYLAYER
 62
     1
 10
181.406158
 20
-411.059773
 30
0.0
 11
181.406158
 21
-412.659748
 31
0.0
  0
ARC
  8
0
  6
BYLAYER
 62
     1
 10
181.806152
 20
-412.659748
 30
0.0
 40
0.399994
 50
180.000000
 51
269.999996
  0
LINE
  8
0
  6
BYLAYER
 62
     1
 10
187.406189
 20
-464.559727
 30
0.0
 11
187.406189
 21
-458.559727
 31
0.0
  0
LINE
  8
0
  6
BYLAYER
 62
     1
 10
187.406189
 20
-456.559727
 30
0.0
 11
187.406189
 21
-450.559727
 31
0.0
  0
LINE
  8
0
  6
BYLAYER
 62
     1
 10
187.406189
 20
-448.559727
 30
0.0
 11
187.406189
 21
-442.559727
 31
0.0
  0
LINE
  8
0
  6
BYLAYER
 62
     1
 10
187.406189
 20
-440.559727
 30
0.0
 11
187.406189
 21
-434.559712
 31
0.0
  0
LINE
  8
0
  6
BYLAYER
 62
     1
 10
187.406189
 20
-432.559712
 30
0.0
 11
187.406189
 21
-429.059712
 31
0.0
  0
LINE
  8
0
  6
BYLAYER
 62
     1
 10
115.406250
 20
-470.059727
 30
0.0
 11
115.406250
 21
-466.559727
 31
0.0
  0
LINE
  8
0
  6
BYLAYER
 62
     1
 10
115.406250
 20
-464.559727
 30
0.0
 11
115.406250
 21
-458.559727
 31
0.0
  0
LINE
  8
0
  6
BYLAYER
 62
     1
 10
115.406250
 20
-456.559727
 30
0.0
 11
115.406250
 21
-450.559727
 31
0.0
  0
LINE
  8
0
  6
BYLAYER
 62
     1
 10
115.406250
 20
-448.559727
 30
0.0
 11
115.406250
 21
-442.559727
 31
0.0
  0
LINE
  8
0
  6
BYLAYER
 62
     1
 10
115.406250
 20
-440.559727
 30
0.0
 11
115.406250
 21
-434.559712
 31
0.0
  0
LINE
  8
0
  6
BYLAYER
 62
     1
 10
115.406250
 20
-432.559712
 30
0.0
 11
115.406250
 21
-429.059712
 31
0.0
  0
LINE
  8
0
  6
BYLAYER
 62
     1
 10
187.406189
 20
-448.559727
 30
0.0
 11
180.181183
 21
-448.559727
 31
0.0
  0
LINE
  8
0
  6
BYLAYER
 62
     1
 10
187.406189
 20
-450.559727
 30
0.0
 11
180.181183
 21
-450.559727
 31
0.0
  0
LINE
  8
0
  6
BYLAYER
 62
     1
 10
107.906158
 20
-486.059712
 30
0.0
 11
194.906158
 21
-486.059712
 31
0.0
  0
LINE
  8
0
  6
BYLAYER
 62
     1
 10
107.906158
 20
-486.059712
 30
0.0
 11
107.906158
 21
-485.059651
 31
0.0
  0
LINE
  8
0
  6
BYLAYER
 62
     1
 10
194.906158
 20
-486.059712
 30
0.0
 11
194.906158
 21
-485.059681
 31
0.0
  0
LINE
  8
0
  6
BYLAYER
 62
     1
 10
181.406158
 20
-488.059681
 30
0.0
 11
180.906158
 21
-488.559681
 31
0.0
  0
LINE
  8
0
  6
BYLAYER
 62
     1
 10
121.406128
 20
-488.059681
 30
0.0
 11
121.906128
 21
-488.559681
 31
0.0
  0
LINE
  8
0
  6
BYLAYER
 62
     1
 10
121.906128
 20
-488.559681
 30
0.0
 11
180.906158
 21
-488.559681
 31
0.0
  0
LINE
  8
0
  6
BYLAYER
 62
     1
 10
121.406128
 20
-486.459706
 30
0.0
 11
121.406128
 21
-488.059681
 31
0.0
  0
ARC
  8
0
  6
BYLAYER
 62
     1
 10
121.006126
 20
-486.459706
 30
0.0
 40
0.399994
 50
0.0
 51
90.000003
  0
LINE
  8
0
  6
BYLAYER
 62
     1
 10
181.406158
 20
-488.059681
 30
0.0
 11
181.406158
 21
-486.459706
 31
0.0
  0
ARC
  8
0
  6
BYLAYER
 62
     1
 10
181.806152
 20
-486.459706
 30
0.0
 40
0.399994
 50
90.0
 51
179.999996
  0
LINE
  8
0
  6
BYLAYER
 62
     1
 10
131.406158
 20
-432.559712
 30
0.0
 11
115.406250
 21
-432.559712
 31
0.0
  0
LINE
  8
0
  6
BYLAYER
 62
     1
 10
131.406158
 20
-434.559712
 30
0.0
 11
115.406250
 21
-434.559712
 31
0.0
  0
LINE
  8
0
  6
BYLAYER
 62
     1
 10
131.406158
 20
-464.559727
 30
0.0
 11
115.406250
 21
-464.559727
 31
0.0
  0
LINE
  8
0
  6
BYLAYER
 62
     1
 10
131.406158
 20
-466.559727
 30
0.0
 11
115.406250
 21
-466.559727
 31
0.0
  0
LINE
  8
0
  6
BYLAYER
 62
     1
 10
187.406189
 20
-434.559712
 30
0.0
 11
166.406158
 21
-434.559712
 31
0.0
  0
LINE
  8
0
  6
BYLAYER
 62
     1
 10
187.406189
 20
-432.559712
 30
0.0
 11
166.406158
 21
-432.559712
 31
0.0
  0
LINE
  8
0
  6
BYLAYER
 62
     1
 10
187.406189
 20
-464.559727
 30
0.0
 11
166.406158
 21
-464.559727
 31
0.0
  0
LINE
  8
0
  6
BYLAYER
 62
     1
 10
187.406189
 20
-466.559727
 30
0.0
 11
166.406158
 21
-466.559727
 31
0.0
  0
LINE
  8
0
  6
BYLAYER
 62
     1
 10
128.406158
 20
-440.559727
 30
0.0
 11
115.406250
 21
-440.559727
 31
0.0
  0
LINE
  8
0
  6
BYLAYER
 62
     1
 10
128.406158
 20
-442.559727
 30
0.0
 11
115.406250
 21
-442.559727
 31
0.0
  0
LINE
  8
0
  6
BYLAYER
 62
     1
 10
128.406158
 20
-456.559727
 30
0.0
 11
115.406250
 21
-456.559727
 31
0.0
  0
LINE
  8
0
  6
BYLAYER
 62
     1
 10
128.406158
 20
-458.559727
 30
0.0
 11
115.406250
 21
-458.559727
 31
0.0
  0
LINE
  8
0
  6
BYLAYER
 62
     1
 10
115.406250
 20
-448.559727
 30
0.0
 11
131.406158
 21
-448.559727
 31
0.0
  0
LINE
  8
0
  6
BYLAYER
 62
     1
 10
131.406158
 20
-450.559727
 30
0.0
 11
115.406250
 21
-450.559727
 31
0.0
  0
ARC
  8
0
  6
BYLAYER
 62
     1
 10
131.406158
 20
-465.559727
 30
0.0
 40
1.0
 50
270.0
 51
449.999991
  0
ARC
  8
0
  6
BYLAYER
 62
     1
 10
128.406158
 20
-457.559727
 30
0.0
 40
1.0
 50
270.0
 51
449.999991
  0
ARC
  8
0
  6
BYLAYER
 62
     1
 10
131.406158
 20
-449.559727
 30
0.0
 40
1.0
 50
270.0
 51
449.999991
  0
ARC
  8
0
  6
BYLAYER
 62
     1
 10
131.406158
 20
-433.559712
 30
0.0
 40
1.000000
 50
270.0
 51
449.999991
  0
ARC
  8
0
  6
BYLAYER
 62
     1
 10
128.406158
 20
-441.559727
 30
0.0
 40
1.0
 50
270.0
 51
449.999991
  0
ARC
  8
0
  6
BYLAYER
 62
     1
 10
171.406219
 20
-449.559727
 30
0.0
 40
8.000003
 50
12.839535
 51
347.160356
  0
CIRCLE
  8
0
  6
BYLAYER
 62
     1
 10
171.406219
 20
-449.559727
 30
0.0
 40
4.25
  0
ARC
  8
0
  6
BYLAYER
 62
     1
 10
166.406158
 20
-465.559727
 30
0.0
 40
1.0
 50
90.0
 51
270.000005
  0
ARC
  8
0
  6
BYLAYER
 62
     1
 10
179.406189
 20
-457.559727
 30
0.0
 40
1.0
 50
90.0
 51
270.000005
  0
ARC
  8
0
  6
BYLAYER
 62
     1
 10
180.181183
 20
-451.559727
 30
0.0
 40
1.0
 50
90.0
 51
167.160818
  0
ARC
  8
0
  6
BYLAYER
 62
     1
 10
180.181183
 20
-447.559727
 30
0.0
 40
0.999996
 50
192.840037
 51
269.999998
  0
ARC
  8
0
  6
BYLAYER
 62
     1
 10
166.406158
 20
-433.559712
 30
0.0
 40
1.0
 50
90.0
 51
270.000005
  0
ARC
  8
0
  6
BYLAYER
 62
     1
 10
179.406189
 20
-441.559727
 30
0.0
 40
1.0
 50
90.0
 51
270.000005
  0
LINE
  8
0
  6
BYLAYER
 62
     1
 10
213.406143
 20
-52.059941
 30
0.0
 11
205.741226
 21
-73.675602
 31
0.0
  0
LINE
  8
0
  6
BYLAYER
 62
     1
 10
213.406143
 20
-51.876927
 30
0.0
 11
213.406143
 21
-109.559727
 31
0.0
  0
ARC
  8
0
  6
BYLAYER
 62
     1
 10
215.406143
 20
-51.876927
 30
0.0
 40
1.999993
 50
92.999245
 51
179.999995
  0
LINE
  8
0
  6
BYLAYER
 62
     1
 10
221.406143
 20
-49.559776
 30
0.0
 11
215.301498
 21
-49.879673
 31
0.0
  0
ARC
  8
0
  6
BYLAYER
 62
     1
 10
211.406143
 20
-67.087651
 30
0.0
 40
2.0
 50
305.999797
 51
360.000000
  0
LINE
  8
0
  6
BYLAYER
 62
     1
 10
202.954483
 20
-75.700291
 30
0.0
 11
212.581711
 21
-68.705693
 31
0.0
  0
LINE
  8
0
  6
BYLAYER
 62
     1
 10
202.406143
 20
-109.559727
 30
0.0
 11
202.406143
 21
-75.810093
 31
0.0
  0
LINE
  8
0
  6
BYLAYER
 62
     1
 10
221.406143
 20
-109.559788
 30
0.0
 11
221.406143
 21
-49.559776
 31
0.0
  0
ARC
  8
0
  6
BYLAYER
 62
     1
 10
202.660599
 20
-75.295750
 30
0.0
 40
0.500008
 50
272.992249
 51
305.999797
  0
LINE
  8
0
  6
BYLAYER
 62
     1
 10
202.406143
 20
-75.809788
 30
0.0
 11
202.686661
 21
-75.795079
 31
0.0
  0
LINE
  8
0
  6
BYLAYER
 62
     1
 10
213.406143
 20
-167.059513
 30
0.0
 11
205.741226
 21
-145.443852
 31
0.0
  0
LINE
  8
0
  6
BYLAYER
 62
     1
 10
213.406143
 20
-167.242527
 30
0.0
 11
213.406143
 21
-109.559727
 31
0.0
  0
ARC
  8
0
  6
BYLAYER
 62
     1
 10
215.406143
 20
-167.242527
 30
0.0
 40
1.999993
 50
180.000000
 51
267.000750
  0
LINE
  8
0
  6
BYLAYER
 62
     1
 10
221.406143
 20
-169.559678
 30
0.0
 11
215.301498
 21
-169.239781
 31
0.0
  0
ARC
  8
0
  6
BYLAYER
 62
     1
 10
211.406143
 20
-152.031803
 30
0.0
 40
2.0
 50
0.0
 51
54.000203
  0
LINE
  8
0
  6
BYLAYER
 62
     1
 10
202.954483
 20
-143.419163
 30
0.0
 11
212.581711
 21
-150.413761
 31
0.0
  0
LINE
  8
0
  6
BYLAYER
 62
     1
 10
202.406143
 20
-109.559727
 30
0.0
 11
202.406143
 21
-143.309361
 31
0.0
  0
LINE
  8
0
  6
BYLAYER
 62
     1
 10
221.406143
 20
-109.559666
 30
0.0
 11
221.406143
 21
-169.559678
 31
0.0
  0
ARC
  8
0
  6
BYLAYER
 62
     1
 10
202.660599
 20
-143.823704
 30
0.0
 40
0.500008
 50
54.000203
 51
87.007751
  0
LINE
  8
0
  6
BYLAYER
 62
     1
 10
202.406143
 20
-143.309666
 30
0.0
 11
202.686661
 21
-143.324375
 31
0.0
  0
LINE
  8
0
  6
BYLAYER
 62
     1
 10
202.480972
 20
-141.309544
 30
0.0
 11
202.406143
 21
-141.384404
 31
0.0
  0
LINE
  8
0
  6
BYLAYER
 62
     1
 10
651.906204
 20
-199.559788
 30
0.0
 11
665.906143
 21
-199.559788
 31
0.0
  0
LINE
  8
0
  6
BYLAYER
 62
     1
 10
722.906158
 20
-199.559788
 30
0.0
 11
708.906158
 21
-199.559788
 31
0.0
  0
LINE
  8
0
  6
BYLAYER
 62
     1
 10
651.906204
 20
-174.559727
 30
0.0
 11
653.406204
 21
-173.059758
 31
0.0
  0
LINE
  8
0
  6
BYLAYER
 62
     1
 10
651.906204
 20
-199.559788
 30
0.0
 11
651.906204
 21
-188.924382
 31
0.0
  0
LINE
  8
0
  6
BYLAYER
 62
     1
 10
651.906204
 20
-180.195072
 30
0.0
 11
651.906204
 21
-174.559727
 31
0.0
  0
LINE
  8
0
  6
BYLAYER
 62
     1
 10
722.906158
 20
-199.559788
 30
0.0
 11
722.906158
 21
-188.935429
 31
0.0
  0
LINE
  8
0
  6
BYLAYER
 62
     1
 10
722.906158
 20
-180.184025
 30
0.0
 11
722.906158
 21
-174.559727
 31
0.0
  0
LINE
  8
0
  6
BYLAYER
 62
     1
 10
722.906158
 20
-174.559727
 30
0.0
 11
721.406158
 21
-173.059758
 31
0.0
  0
LINE
  8
0
  6
BYLAYER
 62
     1
 10
665.906143
 20
-165.575341
 30
0.0
 11
665.906143
 21
-199.559788
 31
0.0
  0
LINE
  8
0
  6
BYLAYER
 62
     1
 10
708.906158
 20
-165.575475
 30
0.0
 11
708.906158
 21
-199.559788
 31
0.0
  0
LINE
  8
0
  6
BYLAYER
 62
     1
 10
665.906143
 20
-174.559727
 30
0.0
 11
651.906204
 21
-174.559727
 31
0.0
  0
LINE
  8
0
  6
BYLAYER
 62
     1
 10
708.906158
 20
-174.559727
 30
0.0
 11
722.906158
 21
-174.559727
 31
0.0
  0
LINE
  8
0
  6
BYLAYER
 62
     1
 10
708.906158
 20
-173.059758
 30
0.0
 11
721.406158
 21
-173.059758
 31
0.0
  0
LINE
  8
0
  6
BYLAYER
 62
     1
 10
665.906143
 20
-173.059758
 30
0.0
 11
653.406204
 21
-173.059758
 31
0.0
  0
LINE
  8
0
  6
BYLAYER
 62
     1
 10
722.906158
 20
-193.059758
 30
0.0
 11
723.906158
 21
-193.059758
 31
0.0
  0
LINE
  8
0
  6
BYLAYER
 62
     1
 10
723.906158
 20
-157.180815
 30
0.0
 11
723.906158
 21
-193.059758
 31
0.0
  0
LINE
  8
0
  6
BYLAYER
 62
     1
 10
653.406204
 20
-173.059758
 30
0.0
 11
653.406204
 21
-158.996532
 31
0.0
  0
LINE
  8
0
  6
BYLAYER
 62
     1
 10
721.406158
 20
-173.059758
 30
0.0
 11
721.406158
 21
-158.996732
 31
0.0
  0
LINE
  8
0
  6
BYLAYER
 62
     1
 10
725.906158
 20
-179.559727
 30
0.0
 11
726.406158
 21
-179.059727
 31
0.0
  0
LINE
  8
0
  6
BYLAYER
 62
     1
 10
726.406158
 20
-179.059727
 30
0.0
 11
726.406158
 21
-155.155984
 31
0.0
  0
LINE
  8
0
  6
BYLAYER
 62
     1
 10
725.906158
 20
-179.559727
 30
0.0
 11
724.306183
 21
-179.559727
 31
0.0
  0
ARC
  8
0
  6
BYLAYER
 62
     1
 10
724.306183
 20
-179.959751
 30
0.0
 40
0.400024
 50
90.0
 51
180.000003
  0
ARC
  8
0
  6
BYLAYER
 62
     1
 10
652.906204
 20
-180.195072
 30
0.0
 40
1.000000
 50
180.000000
 51
267.938986
  0
ARC
  8
0
  6
BYLAYER
 62
     1
 10
717.406219
 20
-184.559727
 30
0.0
 40
3.200000
 50
92.061012
 51
267.938984
  0
LINE
  8
0
  6
BYLAYER
 62
     1
 10
721.942169
 20
-181.194432
 30
0.0
 11
717.291107
 21
-181.361790
 31
0.0
  0
LINE
  8
0
  6
BYLAYER
 62
     1
 10
721.942169
 20
-187.925022
 30
0.0
 11
717.291107
 21
-187.757664
 31
0.0
  0
ARC
  8
0
  6
BYLAYER
 62
     1
 10
657.406204
 20
-184.559727
 30
0.0
 40
3.2
 50
272.061014
 51
447.938986
  0
LINE
  8
0
  6
BYLAYER
 62
     1
 10
652.870254
 20
-181.194432
 30
0.0
 11
657.521316
 21
-181.361790
 31
0.0
  0
LINE
  8
0
  6
BYLAYER
 62
     1
 10
652.870254
 20
-187.925022
 30
0.0
 11
657.521316
 21
-187.757664
 31
0.0
  0
ARC
  8
0
  6
BYLAYER
 62
     1
 10
652.906204
 20
-188.924382
 30
0.0
 40
1.000000
 50
92.061012
 51
179.999998
  0
ARC
  8
0
  6
BYLAYER
 62
     1
 10
721.906219
 20
-180.195072
 30
0.0
 40
1.0
 50
272.061014
 51
360.000000
  0
ARC
  8
0
  6
BYLAYER
 62
     1
 10
721.906219
 20
-188.924382
 30
0.0
 40
1.0
 50
0.0
 51
87.938986
  0
LINE
  8
0
  6
BYLAYER
 62
     1
 10
651.906143
 20
-193.059758
 30
0.0
 11
650.906143
 21
-193.059758
 31
0.0
  0
LINE
  8
0
  6
BYLAYER
 62
     1
 10
650.906143
 20
-157.180546
 30
0.0
 11
650.906143
 21
-193.059758
 31
0.0
  0
LINE
  8
0
  6
BYLAYER
 62
     1
 10
648.906143
 20
-179.559727
 30
0.0
 11
648.406143
 21
-179.059727
 31
0.0
  0
LINE
  8
0
  6
BYLAYER
 62
     1
 10
648.406143
 20
-179.059727
 30
0.0
 11
648.406143
 21
-155.155684
 31
0.0
  0
LINE
  8
0
  6
BYLAYER
 62
     1
 10
648.906143
 20
-179.559727
 30
0.0
 11
650.506119
 21
-179.559727
 31
0.0
  0
ARC
  8
0
  6
BYLAYER
 62
     1
 10
650.506119
 20
-179.959751
 30
0.0
 40
0.400024
 50
0.0
 51
90.000003
  0
LINE
  8
0
  6
BYLAYER
 62
     1
 10
665.906143
 20
-197.559727
 30
0.0
 11
708.906158
 21
-197.559727
 31
0.0
  0
LINE
  8
0
  6
BYLAYER
 62
     7
 10
654.568645
 20
-55.688559
 30
0.0
 11
657.231141
 21
-60.300149
 31
0.0
  0
LINE
  8
0
  6
BYLAYER
 62
     7
 10
654.568645
 20
-51.694870
 30
0.0
 11
654.568645
 21
-66.965759
 31
0.0
  0
LINE
  8
0
  6
BYLAYER
 62
     7
 10
720.243532
 20
-51.694816
 30
0.0
 11
720.243532
 21
-66.965676
 31
0.0
  0
LINE
  8
0
  6
BYLAYER
 62
     7
 10
720.243532
 20
-55.688559
 30
0.0
 11
717.581037
 21
-60.300095
 31
0.0
  0
LINE
  8
0
  6
BYLAYER
 62
     7
 10
689.181140
 20
-166.693199
 30
0.0
 11
689.181140
 21
-163.312836
 31
0.0
  0
ARC
  8
0
  6
BYLAYER
 62
     7
 10
690.956137
 20
-166.693199
 30
0.0
 40
1.775000
 50
180.000000
 51
273.555492
  0
ARC
  8
0
  6
BYLAYER
 62
     7
 10
687.406143
 20
-109.559727
 30
0.0
 40
59.018649
 50
273.555497
 51
305.180611
  0
ARC
  8
0
  6
BYLAYER
 62
     7
 10
720.387404
 20
-156.347239
 30
0.0
 40
1.774994
 50
305.180529
 51
405.000001
  0
LINE
  8
0
  6
BYLAYER
 62
     7
 10
719.366293
 20
-152.815897
 30
0.0
 11
721.642518
 21
-155.092125
 31
0.0
  0
ARC
  8
0
  6
BYLAYER
 62
     7
 10
734.193655
 20
-142.541015
 30
0.0
 40
1.775000
 50
224.999928
 51
324.819372
  0
LINE
  8
0
  6
BYLAYER
 62
     7
 10
732.938541
 20
-143.796116
 30
0.0
 11
730.662307
 21
-141.519885
 31
0.0
  0
ARC
  8
0
  6
BYLAYER
 62
     7
 10
687.406143
 20
-109.559727
 30
0.0
 40
59.018649
 50
324.819372
 51
356.444487
  0
LINE
  8
0
  6
BYLAYER
 62
     7
 10
741.159252
 20
-111.334724
 30
0.0
 11
744.539615
 21
-111.334724
 31
0.0
  0
ARC
  8
0
  6
BYLAYER
 62
     7
 10
744.539615
 20
-113.109721
 30
0.0
 40
1.775000
 50
356.444487
 51
450.000003
  0
ARC
  8
0
  6
BYLAYER
 62
     7
 10
687.406143
 20
-109.559727
 30
0.0
 40
59.018649
 50
54.819389
 51
56.193488
  0
ARC
  8
0
  6
BYLAYER
 62
     7
 10
720.387404
 20
-62.772215
 30
0.0
 40
1.774994
 50
314.999992
 51
414.819471
  0
LINE
  8
0
  6
BYLAYER
 62
     7
 10
720.243532
 20
-65.426318
 30
0.0
 11
721.642518
 21
-64.027329
 31
0.0
  0
LINE
  8
0
  6
BYLAYER
 62
     7
 10
737.772657
 20
-82.530187
 30
0.0
 11
734.845203
 21
-84.220370
 31
0.0
  0
ARC
  8
0
  6
BYLAYER
 62
     7
 10
738.660155
 20
-84.067384
 30
0.0
 40
1.775001
 50
26.444505
 51
119.999990
  0
ARC
  8
0
  6
BYLAYER
 62
     7
 10
687.406143
 20
-109.559727
 30
0.0
 40
59.018649
 50
3.555507
 51
26.44449
  0
ARC
  8
0
  6
BYLAYER
 62
     7
 10
744.539615
 20
-106.009733
 30
0.0
 40
1.775000
 50
270.0
 51
363.555494
  0
LINE
  8
0
  6
BYLAYER
 62
     7
 10
741.159252
 20
-107.784730
 30
0.0
 11
744.539615
 21
-107.784730
 31
0.0
  0
LINE
  8
0
  6
BYLAYER
 62
     7
 10
685.631146
 20
-166.693199
 30
0.0
 11
685.631146
 21
-163.312836
 31
0.0
  0
ARC
  8
0
  6
BYLAYER
 62
     7
 10
683.856149
 20
-166.693199
 30
0.0
 40
1.775000
 50
266.444508
 51
360.0
  0
ARC
  8
0
  6
BYLAYER
 62
     7
 10
687.406143
 20
-109.559727
 30
0.0
 40
59.018649
 50
234.819389
 51
266.444503
  0
ARC
  8
0
  6
BYLAYER
 62
     7
 10
654.424882
 20
-156.347239
 30
0.0
 40
1.774994
 50
134.999999
 51
234.819471
  0
LINE
  8
0
  6
BYLAYER
 62
     7
 10
655.445993
 20
-152.815897
 30
0.0
 11
653.169768
 21
-155.092125
 31
0.0
  0
ARC
  8
0
  6
BYLAYER
 62
     7
 10
640.618631
 20
-142.541015
 30
0.0
 40
1.775000
 50
215.180628
 51
315.000072
  0
LINE
  8
0
  6
BYLAYER
 62
     7
 10
641.873745
 20
-143.796116
 30
0.0
 11
644.149979
 21
-141.519885
 31
0.0
  0
ARC
  8
0
  6
BYLAYER
 62
     7
 10
687.406143
 20
-109.559727
 30
0.0
 40
59.018649
 50
183.555513
 51
215.180628
  0
LINE
  8
0
  6
BYLAYER
 62
     7
 10
633.653034
 20
-111.334724
 30
0.0
 11
630.272671
 21
-111.334724
 31
0.0
  0
ARC
  8
0
  6
BYLAYER
 62
     7
 10
630.272671
 20
-113.109721
 30
0.0
 40
1.775000
 50
90.0
 51
183.555516
  0
ARC
  8
0
  6
BYLAYER
 62
     7
 10
687.406143
 20
-109.559727
 30
0.0
 40
59.018649
 50
123.806639
 51
125.180611
  0
ARC
  8
0
  6
BYLAYER
 62
     7
 10
654.424882
 20
-62.772215
 30
0.0
 40
1.774994
 50
125.180529
 51
225.000008
  0
LINE
  8
0
  6
BYLAYER
 62
     7
 10
654.568645
 20
-65.426210
 30
0.0
 11
653.169768
 21
-64.027329
 31
0.0
  0
LINE
  8
0
  6
BYLAYER
 62
     7
 10
637.039629
 20
-82.530187
 30
0.0
 11
639.967083
 21
-84.220370
 31
0.0
  0
ARC
  8
0
  6
BYLAYER
 62
     7
 10
636.152131
 20
-84.067384
 30
0.0
 40
1.775001
 50
60.000010
 51
153.555495
  0
ARC
  8
0
  6
BYLAYER
 62
     7
 10
687.406143
 20
-109.559727
 30
0.0
 40
59.018649
 50
153.555510
 51
176.444493
  0
ARC
  8
0
  6
BYLAYER
 62
     7
 10
630.272671
 20
-106.009733
 30
0.0
 40
1.775000
 50
176.444506
 51
270.000000
  0
LINE
  8
0
  6
BYLAYER
 62
     7
 10
633.653034
 20
-107.784730
 30
0.0
 11
630.272671
 21
-107.784730
 31
0.0
  0
CIRCLE
  8
0
  6
BYLAYER
 62
     7
 10
687.406143
 20
-109.559727
 30
0.0
 40
44.595492
  0
CIRCLE
  8
0
  6
BYLAYER
 62
     7
 10
687.406143
 20
-109.559727
 30
0.0
 40
53.782408
  0
CIRCLE
  8
0
  6
BYLAYER
 62
     7
 10
687.406143
 20
-109.559727
 30
0.0
 40
40.824930
  0
LINE
  8
0
  6
BYLAYER
 62
     7
 10
688.293641
 20
-99.797244
 30
0.0
 11
695.393629
 21
-99.797244
 31
0.0
  0
LINE
  8
0
  6
BYLAYER
 62
     7
 10
688.293641
 20
-83.822271
 30
0.0
 11
688.293641
 21
-90.922259
 31
0.0
  0
LINE
  8
0
  6
BYLAYER
 62
     7
 10
688.293641
 20
-74.947287
 30
0.0
 11
688.293641
 21
-82.047274
 31
0.0
  0
LINE
  8
0
  6
BYLAYER
 62
     7
 10
688.293641
 20
-92.697256
 30
0.0
 11
688.293641
 21
-99.797244
 31
0.0
  0
LINE
  8
0
  6
BYLAYER
 62
     7
 10
695.393629
 20
-82.047274
 30
0.0
 11
695.393629
 21
-74.947287
 31
0.0
  0
LINE
  8
0
  6
BYLAYER
 62
     7
 10
697.168626
 20
-82.047274
 30
0.0
 11
697.168626
 21
-74.947287
 31
0.0
  0
LINE
  8
0
  6
BYLAYER
 62
     7
 10
688.293641
 20
-92.697256
 30
0.0
 11
695.393629
 21
-92.697256
 31
0.0
  0
LINE
  8
0
  6
BYLAYER
 62
     7
 10
688.293641
 20
-90.922259
 30
0.0
 11
695.393629
 21
-90.922259
 31
0.0
  0
LINE
  8
0
  6
BYLAYER
 62
     7
 10
688.293641
 20
-83.822271
 30
0.0
 11
695.393629
 21
-83.822271
 31
0.0
  0
LINE
  8
0
  6
BYLAYER
 62
     7
 10
697.168626
 20
-82.047274
 30
0.0
 11
704.124838
 21
-82.047274
 31
0.0
  0
LINE
  8
0
  6
BYLAYER
 62
     7
 10
688.293641
 20
-82.047274
 30
0.0
 11
695.393629
 21
-82.047274
 31
0.0
  0
LINE
  8
0
  6
BYLAYER
 62
     7
 10
697.168626
 20
-74.947287
 30
0.0
 11
704.124838
 21
-74.947287
 31
0.0
  0
LINE
  8
0
  6
BYLAYER
 62
     7
 10
688.293641
 20
-74.947287
 30
0.0
 11
695.393629
 21
-74.947287
 31
0.0
  0
LINE
  8
0
  6
BYLAYER
 62
     7
 10
704.124838
 20
-82.047274
 30
0.0
 11
704.124838
 21
-74.947287
 31
0.0
  0
LINE
  8
0
  6
BYLAYER
 62
     7
 10
695.393629
 20
-99.797244
 30
0.0
 11
695.393629
 21
-92.697256
 31
0.0
  0
LINE
  8
0
  6
BYLAYER
 62
     7
 10
695.393629
 20
-90.922259
 30
0.0
 11
695.393629
 21
-83.822271
 31
0.0
  0
LINE
  8
0
  6
BYLAYER
 62
     7
 10
697.168626
 20
-99.797244
 30
0.0
 11
704.268614
 21
-99.797244
 31
0.0
  0
LINE
  8
0
  6
BYLAYER
 62
     7
 10
697.168626
 20
-83.822271
 30
0.0
 11
697.168626
 21
-90.922259
 31
0.0
  0
LINE
  8
0
  6
BYLAYER
 62
     7
 10
697.168626
 20
-92.697256
 30
0.0
 11
697.168626
 21
-99.797244
 31
0.0
  0
LINE
  8
0
  6
BYLAYER
 62
     7
 10
697.168626
 20
-92.697256
 30
0.0
 11
704.268614
 21
-92.697256
 31
0.0
  0
LINE
  8
0
  6
BYLAYER
 62
     7
 10
697.168626
 20
-90.922259
 30
0.0
 11
704.268614
 21
-90.922259
 31
0.0
  0
LINE
  8
0
  6
BYLAYER
 62
     7
 10
697.168626
 20
-83.822271
 30
0.0
 11
704.268614
 21
-83.822271
 31
0.0
  0
LINE
  8
0
  6
BYLAYER
 62
     7
 10
704.268614
 20
-99.797244
 30
0.0
 11
704.268614
 21
-92.697256
 31
0.0
  0
LINE
  8
0
  6
BYLAYER
 62
     7
 10
704.268614
 20
-90.922259
 30
0.0
 11
704.268614
 21
-83.822271
 31
0.0
  0
LINE
  8
0
  6
BYLAYER
 62
     7
 10
706.043611
 20
-99.797244
 30
0.0
 11
713.143599
 21
-99.797244
 31
0.0
  0
LINE
  8
0
  6
BYLAYER
 62
     7
 10
706.043611
 20
-83.822271
 30
0.0
 11
706.043611
 21
-90.922259
 31
0.0
  0
LINE
  8
0
  6
BYLAYER
 62
     7
 10
706.043611
 20
-92.697256
 30
0.0
 11
706.043611
 21
-99.797244
 31
0.0
  0
LINE
  8
0
  6
BYLAYER
 62
     7
 10
706.043611
 20
-92.697256
 30
0.0
 11
713.143599
 21
-92.697256
 31
0.0
  0
LINE
  8
0
  6
BYLAYER
 62
     7
 10
706.043611
 20
-90.922259
 30
0.0
 11
713.143599
 21
-90.922259
 31
0.0
  0
LINE
  8
0
  6
BYLAYER
 62
     7
 10
706.043611
 20
-83.822271
 30
0.0
 11
713.143599
 21
-83.822271
 31
0.0
  0
LINE
  8
0
  6
BYLAYER
 62
     7
 10
713.143599
 20
-99.797244
 30
0.0
 11
713.143599
 21
-92.697256
 31
0.0
  0
LINE
  8
0
  6
BYLAYER
 62
     7
 10
713.143599
 20
-90.922259
 30
0.0
 11
713.143599
 21
-83.822271
 31
0.0
  0
LINE
  8
0
  6
BYLAYER
 62
     7
 10
697.168626
 20
-108.672229
 30
0.0
 11
704.268614
 21
-108.672229
 31
0.0
  0
LINE
  8
0
  6
BYLAYER
 62
     7
 10
697.168626
 20
-101.572241
 30
0.0
 11
697.168626
 21
-108.672229
 31
0.0
  0
LINE
  8
0
  6
BYLAYER
 62
     7
 10
697.168626
 20
-101.572241
 30
0.0
 11
704.268614
 21
-101.572241
 31
0.0
  0
LINE
  8
0
  6
BYLAYER
 62
     7
 10
704.268614
 20
-108.672229
 30
0.0
 11
704.268614
 21
-101.572241
 31
0.0
  0
LINE
  8
0
  6
BYLAYER
 62
     7
 10
706.043611
 20
-108.672229
 30
0.0
 11
713.143599
 21
-108.672229
 31
0.0
  0
LINE
  8
0
  6
BYLAYER
 62
     7
 10
706.043611
 20
-101.572241
 30
0.0
 11
706.043611
 21
-108.672229
 31
0.0
  0
LINE
  8
0
  6
BYLAYER
 62
     7
 10
706.043611
 20
-101.572241
 30
0.0
 11
713.143599
 21
-101.572241
 31
0.0
  0
LINE
  8
0
  6
BYLAYER
 62
     7
 10
713.143599
 20
-108.672229
 30
0.0
 11
713.143599
 21
-101.572241
 31
0.0
  0
LINE
  8
0
  6
BYLAYER
 62
     7
 10
714.918596
 20
-99.797244
 30
0.0
 11
722.018583
 21
-99.797244
 31
0.0
  0
LINE
  8
0
  6
BYLAYER
 62
     7
 10
714.918596
 20
-92.697256
 30
0.0
 11
714.918596
 21
-99.797244
 31
0.0
  0
LINE
  8
0
  6
BYLAYER
 62
     7
 10
714.918596
 20
-92.697256
 30
0.0
 11
722.018583
 21
-92.697256
 31
0.0
  0
LINE
  8
0
  6
BYLAYER
 62
     7
 10
722.018583
 20
-99.797244
 30
0.0
 11
722.018583
 21
-92.697256
 31
0.0
  0
LINE
  8
0
  6
BYLAYER
 62
     7
 10
714.918596
 20
-108.672229
 30
0.0
 11
722.018583
 21
-108.672229
 31
0.0
  0
LINE
  8
0
  6
BYLAYER
 62
     7
 10
714.918596
 20
-101.572241
 30
0.0
 11
714.918596
 21
-108.672229
 31
0.0
  0
LINE
  8
0
  6
BYLAYER
 62
     7
 10
714.918596
 20
-101.572241
 30
0.0
 11
722.018583
 21
-101.572241
 31
0.0
  0
LINE
  8
0
  6
BYLAYER
 62
     7
 10
722.018583
 20
-108.672229
 30
0.0
 11
722.018583
 21
-101.572241
 31
0.0
  0
LINE
  8
0
  6
BYLAYER
 62
     7
 10
688.293641
 20
-119.322210
 30
0.0
 11
695.393629
 21
-119.322210
 31
0.0
  0
LINE
  8
0
  6
BYLAYER
 62
     7
 10
688.293641
 20
-135.297183
 30
0.0
 11
688.293641
 21
-128.197195
 31
0.0
  0
LINE
  8
0
  6
BYLAYER
 62
     7
 10
688.293641
 20
-144.172167
 30
0.0
 11
688.293641
 21
-137.072180
 31
0.0
  0
LINE
  8
0
  6
BYLAYER
 62
     7
 10
688.293641
 20
-126.422198
 30
0.0
 11
688.293641
 21
-119.322210
 31
0.0
  0
LINE
  8
0
  6
BYLAYER
 62
     7
 10
695.393629
 20
-137.072180
 30
0.0
 11
695.393629
 21
-144.172167
 31
0.0
  0
LINE
  8
0
  6
BYLAYER
 62
     7
 10
697.168626
 20
-137.072180
 30
0.0
 11
697.168626
 21
-144.172167
 31
0.0
  0
LINE
  8
0
  6
BYLAYER
 62
     7
 10
688.293641
 20
-126.422198
 30
0.0
 11
695.393629
 21
-126.422198
 31
0.0
  0
LINE
  8
0
  6
BYLAYER
 62
     7
 10
688.293641
 20
-128.197195
 30
0.0
 11
695.393629
 21
-128.197195
 31
0.0
  0
LINE
  8
0
  6
BYLAYER
 62
     7
 10
688.293641
 20
-135.297183
 30
0.0
 11
695.393629
 21
-135.297183
 31
0.0
  0
LINE
  8
0
  6
BYLAYER
 62
     7
 10
697.168626
 20
-137.072180
 30
0.0
 11
704.124838
 21
-137.072180
 31
0.0
  0
LINE
  8
0
  6
BYLAYER
 62
     7
 10
688.293641
 20
-137.072180
 30
0.0
 11
695.393629
 21
-137.072180
 31
0.0
  0
LINE
  8
0
  6
BYLAYER
 62
     7
 10
697.168626
 20
-144.172167
 30
0.0
 11
704.124838
 21
-144.172167
 31
0.0
  0
LINE
  8
0
  6
BYLAYER
 62
     7
 10
688.293641
 20
-144.172167
 30
0.0
 11
695.393629
 21
-144.172167
 31
0.0
  0
LINE
  8
0
  6
BYLAYER
 62
     7
 10
704.124838
 20
-137.072180
 30
0.0
 11
704.124838
 21
-144.172167
 31
0.0
  0
LINE
  8
0
  6
BYLAYER
 62
     7
 10
695.393629
 20
-119.322210
 30
0.0
 11
695.393629
 21
-126.422198
 31
0.0
  0
LINE
  8
0
  6
BYLAYER
 62
     7
 10
695.393629
 20
-128.197195
 30
0.0
 11
695.393629
 21
-135.297183
 31
0.0
  0
LINE
  8
0
  6
BYLAYER
 62
     7
 10
697.168626
 20
-119.322210
 30
0.0
 11
704.268614
 21
-119.322210
 31
0.0
  0
LINE
  8
0
  6
BYLAYER
 62
     7
 10
697.168626
 20
-135.297183
 30
0.0
 11
697.168626
 21
-128.197195
 31
0.0
  0
LINE
  8
0
  6
BYLAYER
 62
     7
 10
697.168626
 20
-126.422198
 30
0.0
 11
697.168626
 21
-119.322210
 31
0.0
  0
LINE
  8
0
  6
BYLAYER
 62
     7
 10
697.168626
 20
-126.422198
 30
0.0
 11
704.268614
 21
-126.422198
 31
0.0
  0
LINE
  8
0
  6
BYLAYER
 62
     7
 10
697.168626
 20
-128.197195
 30
0.0
 11
704.268614
 21
-128.197195
 31
0.0
  0
LINE
  8
0
  6
BYLAYER
 62
     7
 10
697.168626
 20
-135.297183
 30
0.0
 11
704.268614
 21
-135.297183
 31
0.0
  0
LINE
  8
0
  6
BYLAYER
 62
     7
 10
704.268614
 20
-119.322210
 30
0.0
 11
704.268614
 21
-126.422198
 31
0.0
  0
LINE
  8
0
  6
BYLAYER
 62
     7
 10
704.268614
 20
-128.197195
 30
0.0
 11
704.268614
 21
-135.297183
 31
0.0
  0
LINE
  8
0
  6
BYLAYER
 62
     7
 10
706.043611
 20
-119.322210
 30
0.0
 11
713.143599
 21
-119.322210
 31
0.0
  0
LINE
  8
0
  6
BYLAYER
 62
     7
 10
706.043611
 20
-135.297183
 30
0.0
 11
706.043611
 21
-128.197195
 31
0.0
  0
LINE
  8
0
  6
BYLAYER
 62
     7
 10
706.043611
 20
-126.422198
 30
0.0
 11
706.043611
 21
-119.322210
 31
0.0
  0
LINE
  8
0
  6
BYLAYER
 62
     7
 10
706.043611
 20
-126.422198
 30
0.0
 11
713.143599
 21
-126.422198
 31
0.0
  0
LINE
  8
0
  6
BYLAYER
 62
     7
 10
706.043611
 20
-128.197195
 30
0.0
 11
713.143599
 21
-128.197195
 31
0.0
  0
LINE
  8
0
  6
BYLAYER
 62
     7
 10
706.043611
 20
-135.297183
 30
0.0
 11
713.143599
 21
-135.297183
 31
0.0
  0
LINE
  8
0
  6
BYLAYER
 62
     7
 10
713.143599
 20
-119.322210
 30
0.0
 11
713.143599
 21
-126.422198
 31
0.0
  0
LINE
  8
0
  6
BYLAYER
 62
     7
 10
713.143599
 20
-128.197195
 30
0.0
 11
713.143599
 21
-135.297183
 31
0.0
  0
LINE
  8
0
  6
BYLAYER
 62
     7
 10
697.168626
 20
-110.447225
 30
0.0
 11
704.268614
 21
-110.447225
 31
0.0
  0
LINE
  8
0
  6
BYLAYER
 62
     7
 10
697.168626
 20
-117.547213
 30
0.0
 11
697.168626
 21
-110.447225
 31
0.0
  0
LINE
  8
0
  6
BYLAYER
 62
     7
 10
697.168626
 20
-117.547213
 30
0.0
 11
704.268614
 21
-117.547213
 31
0.0
  0
LINE
  8
0
  6
BYLAYER
 62
     7
 10
704.268614
 20
-110.447225
 30
0.0
 11
704.268614
 21
-117.547213
 31
0.0
  0
LINE
  8
0
  6
BYLAYER
 62
     7
 10
706.043611
 20
-110.447225
 30
0.0
 11
713.143599
 21
-110.447225
 31
0.0
  0
LINE
  8
0
  6
BYLAYER
 62
     7
 10
706.043611
 20
-117.547213
 30
0.0
 11
706.043611
 21
-110.447225
 31
0.0
  0
LINE
  8
0
  6
BYLAYER
 62
     7
 10
706.043611
 20
-117.547213
 30
0.0
 11
713.143599
 21
-117.547213
 31
0.0
  0
LINE
  8
0
  6
BYLAYER
 62
     7
 10
713.143599
 20
-110.447225
 30
0.0
 11
713.143599
 21
-117.547213
 31
0.0
  0
LINE
  8
0
  6
BYLAYER
 62
     7
 10
714.918596
 20
-119.322210
 30
0.0
 11
722.018583
 21
-119.322210
 31
0.0
  0
LINE
  8
0
  6
BYLAYER
 62
     7
 10
714.918596
 20
-126.422198
 30
0.0
 11
714.918596
 21
-119.322210
 31
0.0
  0
LINE
  8
0
  6
BYLAYER
 62
     7
 10
714.918596
 20
-126.422198
 30
0.0
 11
722.018583
 21
-126.422198
 31
0.0
  0
LINE
  8
0
  6
BYLAYER
 62
     7
 10
722.018583
 20
-119.322210
 30
0.0
 11
722.018583
 21
-126.422198
 31
0.0
  0
LINE
  8
0
  6
BYLAYER
 62
     7
 10
714.918596
 20
-110.447225
 30
0.0
 11
722.018583
 21
-110.447225
 31
0.0
  0
LINE
  8
0
  6
BYLAYER
 62
     7
 10
714.918596
 20
-117.547213
 30
0.0
 11
714.918596
 21
-110.447225
 31
0.0
  0
LINE
  8
0
  6
BYLAYER
 62
     7
 10
714.918596
 20
-117.547213
 30
0.0
 11
722.018583
 21
-117.547213
 31
0.0
  0
LINE
  8
0
  6
BYLAYER
 62
     7
 10
722.018583
 20
-110.447225
 30
0.0
 11
722.018583
 21
-117.547213
 31
0.0
  0
LINE
  8
0
  6
BYLAYER
 62
     7
 10
686.518645
 20
-99.797244
 30
0.0
 11
679.418657
 21
-99.797244
 31
0.0
  0
LINE
  8
0
  6
BYLAYER
 62
     7
 10
686.518645
 20
-83.822271
 30
0.0
 11
686.518645
 21
-90.922259
 31
0.0
  0
LINE
  8
0
  6
BYLAYER
 62
     7
 10
686.518645
 20
-74.947287
 30
0.0
 11
686.518645
 21
-82.047274
 31
0.0
  0
LINE
  8
0
  6
BYLAYER
 62
     7
 10
686.518645
 20
-92.697256
 30
0.0
 11
686.518645
 21
-99.797244
 31
0.0
  0
LINE
  8
0
  6
BYLAYER
 62
     7
 10
679.418657
 20
-82.047274
 30
0.0
 11
679.418657
 21
-74.947287
 31
0.0
  0
LINE
  8
0
  6
BYLAYER
 62
     7
 10
677.643660
 20
-82.047274
 30
0.0
 11
677.643660
 21
-74.947287
 31
0.0
  0
LINE
  8
0
  6
BYLAYER
 62
     7
 10
686.518645
 20
-92.697256
 30
0.0
 11
679.418657
 21
-92.697256
 31
0.0
  0
LINE
  8
0
  6
BYLAYER
 62
     7
 10
686.518645
 20
-90.922259
 30
0.0
 11
679.418657
 21
-90.922259
 31
0.0
  0
LINE
  8
0
  6
BYLAYER
 62
     7
 10
686.518645
 20
-83.822271
 30
0.0
 11
679.418657
 21
-83.822271
 31
0.0
  0
LINE
  8
0
  6
BYLAYER
 62
     7
 10
677.643660
 20
-82.047274
 30
0.0
 11
670.687448
 21
-82.047274
 31
0.0
  0
LINE
  8
0
  6
BYLAYER
 62
     7
 10
686.518645
 20
-82.047274
 30
0.0
 11
679.418657
 21
-82.047274
 31
0.0
  0
LINE
  8
0
  6
BYLAYER
 62
     7
 10
677.643660
 20
-74.947287
 30
0.0
 11
670.687448
 21
-74.947287
 31
0.0
  0
LINE
  8
0
  6
BYLAYER
 62
     7
 10
686.518645
 20
-74.947287
 30
0.0
 11
679.418657
 21
-74.947287
 31
0.0
  0
LINE
  8
0
  6
BYLAYER
 62
     7
 10
670.687448
 20
-82.047274
 30
0.0
 11
670.687448
 21
-74.947287
 31
0.0
  0
LINE
  8
0
  6
BYLAYER
 62
     7
 10
679.418657
 20
-99.797244
 30
0.0
 11
679.418657
 21
-92.697256
 31
0.0
  0
LINE
  8
0
  6
BYLAYER
 62
     7
 10
679.418657
 20
-90.922259
 30
0.0
 11
679.418657
 21
-83.822271
 31
0.0
  0
LINE
  8
0
  6
BYLAYER
 62
     7
 10
677.643660
 20
-99.797244
 30
0.0
 11
670.543672
 21
-99.797244
 31
0.0
  0
LINE
  8
0
  6
BYLAYER
 62
     7
 10
677.643660
 20
-83.822271
 30
0.0
 11
677.643660
 21
-90.922259
 31
0.0
  0
LINE
  8
0
  6
BYLAYER
 62
     7
 10
677.643660
 20
-92.697256
 30
0.0
 11
677.643660
 21
-99.797244
 31
0.0
  0
LINE
  8
0
  6
BYLAYER
 62
     7
 10
677.643660
 20
-92.697256
 30
0.0
 11
670.543672
 21
-92.697256
 31
0.0
  0
LINE
  8
0
  6
BYLAYER
 62
     7
 10
677.643660
 20
-90.922259
 30
0.0
 11
670.543672
 21
-90.922259
 31
0.0
  0
LINE
  8
0
  6
BYLAYER
 62
     7
 10
677.643660
 20
-83.822271
 30
0.0
 11
670.543672
 21
-83.822271
 31
0.0
  0
LINE
  8
0
  6
BYLAYER
 62
     7
 10
670.543672
 20
-99.797244
 30
0.0
 11
670.543672
 21
-92.697256
 31
0.0
  0
LINE
  8
0
  6
BYLAYER
 62
     7
 10
670.543672
 20
-90.922259
 30
0.0
 11
670.543672
 21
-83.822271
 31
0.0
  0
LINE
  8
0
  6
BYLAYER
 62
     7
 10
668.768675
 20
-99.797244
 30
0.0
 11
661.668687
 21
-99.797244
 31
0.0
  0
LINE
  8
0
  6
BYLAYER
 62
     7
 10
668.768675
 20
-83.822271
 30
0.0
 11
668.768675
 21
-90.922259
 31
0.0
  0
LINE
  8
0
  6
BYLAYER
 62
     7
 10
668.768675
 20
-92.697256
 30
0.0
 11
668.768675
 21
-99.797244
 31
0.0
  0
LINE
  8
0
  6
BYLAYER
 62
     7
 10
668.768675
 20
-92.697256
 30
0.0
 11
661.668687
 21
-92.697256
 31
0.0
  0
LINE
  8
0
  6
BYLAYER
 62
     7
 10
668.768675
 20
-90.922259
 30
0.0
 11
661.668687
 21
-90.922259
 31
0.0
  0
LINE
  8
0
  6
BYLAYER
 62
     7
 10
668.768675
 20
-83.822271
 30
0.0
 11
661.668687
 21
-83.822271
 31
0.0
  0
LINE
  8
0
  6
BYLAYER
 62
     7
 10
661.668687
 20
-99.797244
 30
0.0
 11
661.668687
 21
-92.697256
 31
0.0
  0
LINE
  8
0
  6
BYLAYER
 62
     7
 10
661.668687
 20
-90.922259
 30
0.0
 11
661.668687
 21
-83.822271
 31
0.0
  0
LINE
  8
0
  6
BYLAYER
 62
     7
 10
677.643660
 20
-108.672229
 30
0.0
 11
670.543672
 21
-108.672229
 31
0.0
  0
LINE
  8
0
  6
BYLAYER
 62
     7
 10
677.643660
 20
-101.572241
 30
0.0
 11
677.643660
 21
-108.672229
 31
0.0
  0
LINE
  8
0
  6
BYLAYER
 62
     7
 10
677.643660
 20
-101.572241
 30
0.0
 11
670.543672
 21
-101.572241
 31
0.0
  0
LINE
  8
0
  6
BYLAYER
 62
     7
 10
670.543672
 20
-108.672229
 30
0.0
 11
670.543672
 21
-101.572241
 31
0.0
  0
LINE
  8
0
  6
BYLAYER
 62
     7
 10
668.768675
 20
-108.672229
 30
0.0
 11
661.668687
 21
-108.672229
 31
0.0
  0
LINE
  8
0
  6
BYLAYER
 62
     7
 10
668.768675
 20
-101.572241
 30
0.0
 11
668.768675
 21
-108.672229
 31
0.0
  0
LINE
  8
0
  6
BYLAYER
 62
     7
 10
668.768675
 20
-101.572241
 30
0.0
 11
661.668687
 21
-101.572241
 31
0.0
  0
LINE
  8
0
  6
BYLAYER
 62
     7
 10
661.668687
 20
-108.672229
 30
0.0
 11
661.668687
 21
-101.572241
 31
0.0
  0
LINE
  8
0
  6
BYLAYER
 62
     7
 10
659.893690
 20
-99.797244
 30
0.0
 11
652.793703
 21
-99.797244
 31
0.0
  0
LINE
  8
0
  6
BYLAYER
 62
     7
 10
659.893690
 20
-92.697256
 30
0.0
 11
659.893690
 21
-99.797244
 31
0.0
  0
LINE
  8
0
  6
BYLAYER
 62
     7
 10
659.893690
 20
-92.697256
 30
0.0
 11
652.793703
 21
-92.697256
 31
0.0
  0
LINE
  8
0
  6
BYLAYER
 62
     7
 10
652.793703
 20
-99.797244
 30
0.0
 11
652.793703
 21
-92.697256
 31
0.0
  0
LINE
  8
0
  6
BYLAYER
 62
     7
 10
659.893690
 20
-108.672229
 30
0.0
 11
652.793703
 21
-108.672229
 31
0.0
  0
LINE
  8
0
  6
BYLAYER
 62
     7
 10
659.893690
 20
-101.572241
 30
0.0
 11
659.893690
 21
-108.672229
 31
0.0
  0
LINE
  8
0
  6
BYLAYER
 62
     7
 10
659.893690
 20
-101.572241
 30
0.0
 11
652.793703
 21
-101.572241
 31
0.0
  0
LINE
  8
0
  6
BYLAYER
 62
     7
 10
652.793703
 20
-108.672229
 30
0.0
 11
652.793703
 21
-101.572241
 31
0.0
  0
LINE
  8
0
  6
BYLAYER
 62
     7
 10
686.518645
 20
-119.322210
 30
0.0
 11
679.418657
 21
-119.322210
 31
0.0
  0
LINE
  8
0
  6
BYLAYER
 62
     7
 10
686.518645
 20
-135.297183
 30
0.0
 11
686.518645
 21
-128.197195
 31
0.0
  0
LINE
  8
0
  6
BYLAYER
 62
     7
 10
686.518645
 20
-144.172167
 30
0.0
 11
686.518645
 21
-137.072180
 31
0.0
  0
LINE
  8
0
  6
BYLAYER
 62
     7
 10
686.518645
 20
-126.422198
 30
0.0
 11
686.518645
 21
-119.322210
 31
0.0
  0
LINE
  8
0
  6
BYLAYER
 62
     7
 10
679.418657
 20
-137.072180
 30
0.0
 11
679.418657
 21
-144.172167
 31
0.0
  0
LINE
  8
0
  6
BYLAYER
 62
     7
 10
677.643660
 20
-137.072180
 30
0.0
 11
677.643660
 21
-144.172167
 31
0.0
  0
LINE
  8
0
  6
BYLAYER
 62
     7
 10
686.518645
 20
-126.422198
 30
0.0
 11
679.418657
 21
-126.422198
 31
0.0
  0
LINE
  8
0
  6
BYLAYER
 62
     7
 10
686.518645
 20
-128.197195
 30
0.0
 11
679.418657
 21
-128.197195
 31
0.0
  0
LINE
  8
0
  6
BYLAYER
 62
     7
 10
686.518645
 20
-135.297183
 30
0.0
 11
679.418657
 21
-135.297183
 31
0.0
  0
LINE
  8
0
  6
BYLAYER
 62
     7
 10
677.643660
 20
-137.072180
 30
0.0
 11
670.687448
 21
-137.072180
 31
0.0
  0
LINE
  8
0
  6
BYLAYER
 62
     7
 10
686.518645
 20
-137.072180
 30
0.0
 11
679.418657
 21
-137.072180
 31
0.0
  0
LINE
  8
0
  6
BYLAYER
 62
     7
 10
677.643660
 20
-144.172167
 30
0.0
 11
670.687448
 21
-144.172167
 31
0.0
  0
LINE
  8
0
  6
BYLAYER
 62
     7
 10
686.518645
 20
-144.172167
 30
0.0
 11
679.418657
 21
-144.172167
 31
0.0
  0
LINE
  8
0
  6
BYLAYER
 62
     7
 10
670.687448
 20
-137.072180
 30
0.0
 11
670.687448
 21
-144.172167
 31
0.0
  0
LINE
  8
0
  6
BYLAYER
 62
     7
 10
679.418657
 20
-119.322210
 30
0.0
 11
679.418657
 21
-126.422198
 31
0.0
  0
LINE
  8
0
  6
BYLAYER
 62
     7
 10
679.418657
 20
-128.197195
 30
0.0
 11
679.418657
 21
-135.297183
 31
0.0
  0
LINE
  8
0
  6
BYLAYER
 62
     7
 10
677.643660
 20
-119.322210
 30
0.0
 11
670.543672
 21
-119.322210
 31
0.0
  0
LINE
  8
0
  6
BYLAYER
 62
     7
 10
677.643660
 20
-135.297183
 30
0.0
 11
677.643660
 21
-128.197195
 31
0.0
  0
LINE
  8
0
  6
BYLAYER
 62
     7
 10
677.643660
 20
-126.422198
 30
0.0
 11
677.643660
 21
-119.322210
 31
0.0
  0
LINE
  8
0
  6
BYLAYER
 62
     7
 10
677.643660
 20
-126.422198
 30
0.0
 11
670.543672
 21
-126.422198
 31
0.0
  0
LINE
  8
0
  6
BYLAYER
 62
     7
 10
677.643660
 20
-128.197195
 30
0.0
 11
670.543672
 21
-128.197195
 31
0.0
  0
LINE
  8
0
  6
BYLAYER
 62
     7
 10
677.643660
 20
-135.297183
 30
0.0
 11
670.543672
 21
-135.297183
 31
0.0
  0
LINE
  8
0
  6
BYLAYER
 62
     7
 10
670.543672
 20
-119.322210
 30
0.0
 11
670.543672
 21
-126.422198
 31
0.0
  0
LINE
  8
0
  6
BYLAYER
 62
     7
 10
670.543672
 20
-128.197195
 30
0.0
 11
670.543672
 21
-135.297183
 31
0.0
  0
LINE
  8
0
  6
BYLAYER
 62
     7
 10
668.768675
 20
-119.322210
 30
0.0
 11
661.668687
 21
-119.322210
 31
0.0
  0
LINE
  8
0
  6
BYLAYER
 62
     7
 10
668.768675
 20
-135.297183
 30
0.0
 11
668.768675
 21
-128.197195
 31
0.0
  0
LINE
  8
0
  6
BYLAYER
 62
     7
 10
668.768675
 20
-126.422198
 30
0.0
 11
668.768675
 21
-119.322210
 31
0.0
  0
LINE
  8
0
  6
BYLAYER
 62
     7
 10
668.768675
 20
-126.422198
 30
0.0
 11
661.668687
 21
-126.422198
 31
0.0
  0
LINE
  8
0
  6
BYLAYER
 62
     7
 10
668.768675
 20
-128.197195
 30
0.0
 11
661.668687
 21
-128.197195
 31
0.0
  0
LINE
  8
0
  6
BYLAYER
 62
     7
 10
668.768675
 20
-135.297183
 30
0.0
 11
661.668687
 21
-135.297183
 31
0.0
  0
LINE
  8
0
  6
BYLAYER
 62
     7
 10
661.668687
 20
-119.322210
 30
0.0
 11
661.668687
 21
-126.422198
 31
0.0
  0
LINE
  8
0
  6
BYLAYER
 62
     7
 10
661.668687
 20
-128.197195
 30
0.0
 11
661.668687
 21
-135.297183
 31
0.0
  0
LINE
  8
0
  6
BYLAYER
 62
     7
 10
677.643660
 20
-110.447225
 30
0.0
 11
670.543672
 21
-110.447225
 31
0.0
  0
LINE
  8
0
  6
BYLAYER
 62
     7
 10
677.643660
 20
-117.547213
 30
0.0
 11
677.643660
 21
-110.447225
 31
0.0
  0
LINE
  8
0
  6
BYLAYER
 62
     7
 10
677.643660
 20
-117.547213
 30
0.0
 11
670.543672
 21
-117.547213
 31
0.0
  0
LINE
  8
0
  6
BYLAYER
 62
     7
 10
670.543672
 20
-110.447225
 30
0.0
 11
670.543672
 21
-117.547213
 31
0.0
  0
LINE
  8
0
  6
BYLAYER
 62
     7
 10
668.768675
 20
-110.447225
 30
0.0
 11
661.668687
 21
-110.447225
 31
0.0
  0
LINE
  8
0
  6
BYLAYER
 62
     7
 10
668.768675
 20
-117.547213
 30
0.0
 11
668.768675
 21
-110.447225
 31
0.0
  0
LINE
  8
0
  6
BYLAYER
 62
     7
 10
668.768675
 20
-117.547213
 30
0.0
 11
661.668687
 21
-117.547213
 31
0.0
  0
LINE
  8
0
  6
BYLAYER
 62
     7
 10
661.668687
 20
-110.447225
 30
0.0
 11
661.668687
 21
-117.547213
 31
0.0
  0
LINE
  8
0
  6
BYLAYER
 62
     7
 10
659.893690
 20
-119.322210
 30
0.0
 11
652.793703
 21
-119.322210
 31
0.0
  0
LINE
  8
0
  6
BYLAYER
 62
     7
 10
659.893690
 20
-126.422198
 30
0.0
 11
659.893690
 21
-119.322210
 31
0.0
  0
LINE
  8
0
  6
BYLAYER
 62
     7
 10
659.893690
 20
-126.422198
 30
0.0
 11
652.793703
 21
-126.422198
 31
0.0
  0
LINE
  8
0
  6
BYLAYER
 62
     7
 10
652.793703
 20
-119.322210
 30
0.0
 11
652.793703
 21
-126.422198
 31
0.0
  0
LINE
  8
0
  6
BYLAYER
 62
     7
 10
659.893690
 20
-110.447225
 30
0.0
 11
652.793703
 21
-110.447225
 31
0.0
  0
LINE
  8
0
  6
BYLAYER
 62
     7
 10
659.893690
 20
-117.547213
 30
0.0
 11
659.893690
 21
-110.447225
 31
0.0
  0
LINE
  8
0
  6
BYLAYER
 62
     7
 10
659.893690
 20
-117.547213
 30
0.0
 11
652.793703
 21
-117.547213
 31
0.0
  0
LINE
  8
0
  6
BYLAYER
 62
     7
 10
652.793703
 20
-110.447225
 30
0.0
 11
652.793703
 21
-117.547213
 31
0.0
  0
LINE
  8
0
  6
BYLAYER
 62
     7
 10
657.231141
 20
-60.300149
 30
0.0
 11
657.231141
 21
-65.039882
 31
0.0
  0
LINE
  8
0
  6
BYLAYER
 62
     7
 10
717.581037
 20
-60.300095
 30
0.0
 11
717.581037
 21
-65.039809
 31
0.0
  0
CIRCLE
  8
0
  6
BYLAYER
 62
     7
 10
687.406143
 20
-109.559727
 30
0.0
 40
3.549994
  0
LINE
  8
0
  6
BYLAYER
 62
     7
 10
720.243532
 20
-49.919819
 30
0.0
 11
654.568645
 21
-49.919819
 31
0.0
  0
LINE
  8
0
  6
BYLAYER
 62
     7
 10
654.568645
 20
-51.694870
 30
0.0
 11
720.243532
 21
-51.694870
 31
0.0
  0
ARC
  8
0
  6
BYLAYER
 62
     7
 10
687.406143
 20
-109.559727
 30
0.0
 40
60.000000
 50
123.181405
 51
416.818719
  0
ARC
  8
0
  6
BYLAYER
 62
     7
 10
655.899893
 20
-0.881714
 30
0.0
 40
1.331248
 50
94.780192
 51
180.000000
  0
LINE
  8
0
  6
BYLAYER
 62
     7
 10
655.899893
 20
0.440273
 30
0.0
 11
719.134159
 21
0.440273
 31
0.0
  0
ARC
  8
0
  6
BYLAYER
 62
     7
 10
718.912285
 20
-0.881714
 30
0.0
 40
1.331248
 50
0.0
 51
85.219808
  0
LINE
  8
0
  6
BYLAYER
 62
     7
 10
720.243532
 20
-51.694870
 30
0.0
 11
720.243532
 21
-0.881714
 31
0.0
  0
LINE
  8
0
  6
BYLAYER
 62
     7
 10
654.568645
 20
-0.881714
 30
0.0
 11
654.568645
 21
-51.694870
 31
0.0
  0
LINE
  8
0
  6
BYLAYER
 62
     7
 10
654.568645
 20
-391.694870
 30
0.0
 11
654.568645
 21
-399.343208
 31
0.0
  0
LINE
  8
0
  6
BYLAYER
 62
     7
 10
720.243532
 20
-391.694816
 30
0.0
 11
720.243532
 21
-399.343138
 31
0.0
  0
LINE
  8
0
  6
BYLAYER
 62
     7
 10
680.842504
 20
-389.919819
 30
0.0
 11
654.568645
 21
-389.919819
 31
0.0
  0
LINE
  8
0
  6
BYLAYER
 62
     7
 10
720.243532
 20
-389.919819
 30
0.0
 11
693.969782
 21
-389.919819
 31
0.0
  0
LINE
  8
0
  6
BYLAYER
 62
     7
 10
654.568645
 20
-391.694870
 30
0.0
 11
671.542401
 21
-391.694870
 31
0.0
  0
LINE
  8
0
  6
BYLAYER
 62
     7
 10
703.269885
 20
-391.694870
 30
0.0
 11
720.243532
 21
-391.694870
 31
0.0
  0
ARC
  8
0
  6
BYLAYER
 62
     7
 10
655.899893
 20
-340.881714
 30
0.0
 40
1.331248
 50
94.780192
 51
180.000000
  0
LINE
  8
0
  6
BYLAYER
 62
     7
 10
655.899893
 20
-339.559727
 30
0.0
 11
719.134159
 21
-339.559727
 31
0.0
  0
ARC
  8
0
  6
BYLAYER
 62
     7
 10
718.912285
 20
-340.881714
 30
0.0
 40
1.331248
 50
0.0
 51
85.219808
  0
LINE
  8
0
  6
BYLAYER
 62
     7
 10
720.243532
 20
-391.694870
 30
0.0
 11
720.243532
 21
-340.881714
 31
0.0
  0
LINE
  8
0
  6
BYLAYER
 62
     7
 10
654.568645
 20
-340.881714
 30
0.0
 11
654.568645
 21
-391.694870
 31
0.0
  0
ARC
  8
0
  6
BYLAYER
 62
     1
 10
687.406143
 20
-449.559727
 30
0.0
 40
33.750000
 50
62.733956
 51
117.266044
  0
ARC
  8
0
  6
BYLAYER
 62
     1
 10
687.405960
 20
-449.559727
 30
0.0
 40
60.000000
 50
310.541755
 51
589.458667
  0
ARC
  8
0
  6
BYLAYER
 62
     1
 10
724.825943
 20
-445.425755
 30
0.0
 40
5.635380
 50
260.606226
 51
270.538028
  0
ARC
  8
0
  6
BYLAYER
 62
     1
 10
724.826065
 20
-453.693943
 30
0.0
 40
5.635441
 50
89.461961
 51
99.394930
  0
ARC
  8
0
  6
BYLAYER
 62
     1
 10
737.906143
 20
-424.959196
 30
0.0
 40
26.100653
 50
270.0
 51
282.634515
  0
ARC
  8
0
  6
BYLAYER
 62
     1
 10
742.994170
 20
-447.657483
 30
0.0
 40
2.839091
 50
282.634515
 51
303.765210
  0
ARC
  8
0
  6
BYLAYER
 62
     1
 10
743.942602
 20
-449.076097
 30
0.0
 40
1.132636
 50
303.765210
 51
321.819817
  0
ARC
  8
0
  6
BYLAYER
 62
     1
 10
744.549791
 20
-449.559849
 30
0.0
 40
0.356352
 50
322.613743
 51
360.000000
  0
ARC
  8
0
  6
BYLAYER
 62
     1
 10
744.549791
 20
-449.559849
 30
0.0
 40
0.356352
 50
0.0
 51
37.386257
  0
ARC
  8
0
  6
BYLAYER
 62
     1
 10
743.942602
 20
-450.043601
 30
0.0
 40
1.132636
 50
38.180183
 51
56.234790
  0
ARC
  8
0
  6
BYLAYER
 62
     1
 10
742.994170
 20
-451.462215
 30
0.0
 40
2.839091
 50
56.234790
 51
77.365485
  0
ARC
  8
0
  6
BYLAYER
 62
     1
 10
737.906143
 20
-474.160502
 30
0.0
 40
26.100653
 50
77.365485
 51
90.0
  0
LINE
  8
0
  6
BYLAYER
 62
     1
 10
724.878982
 20
-448.058750
 30
0.0
 11
737.906143
 21
-448.058750
 31
0.0
  0
LINE
  8
0
  6
BYLAYER
 62
     1
 10
724.878860
 20
-451.060887
 30
0.0
 11
737.906143
 21
-451.060887
 31
0.0
  0
ARC
  8
0
  6
BYLAYER
 62
     1
 10
705.067703
 20
-418.969059
 30
0.0
 40
1.000021
 50
176.897364
 51
216.203541
  0
ARC
  8
0
  6
BYLAYER
 62
     1
 10
702.535904
 20
-415.086247
 30
0.0
 40
5.635367
 50
307.455835
 51
330.538044
  0
ARC
  8
0
  6
BYLAYER
 62
     1
 10
709.696426
 20
-419.220219
 30
0.0
 40
5.635429
 50
149.461970
 51
176.894851
  0
LINE
  8
0
  6
BYLAYER
 62
     1
 10
713.955298
 20
-406.575520
 30
0.0
 11
713.955307
 21
-406.575505
 31
0.0
  0
ARC
  8
0
  6
BYLAYER
 62
     1
 10
691.351608
 20
-393.525224
 30
0.0
 40
26.100518
 50
329.999945
 51
342.634489
  0
ARC
  8
0
  6
BYLAYER
 62
     1
 10
713.552782
 20
-400.467976
 30
0.0
 40
2.839092
 50
342.634489
 51
363.765195
  0
ARC
  8
0
  6
BYLAYER
 62
     1
 10
715.255553
 20
-400.355917
 30
0.0
 40
1.132638
 50
3.765195
 51
21.819851
  0
ARC
  8
0
  6
BYLAYER
 62
     1
 10
715.978089
 20
-400.071952
 30
0.0
 40
0.356354
 50
22.613805
 51
60.000070
  0
ARC
  8
0
  6
BYLAYER
 62
     1
 10
715.978088
 20
-400.071953
 30
0.0
 40
0.356355
 50
60.000070
 51
97.386240
  0
ARC
  8
0
  6
BYLAYER
 62
     1
 10
716.093435
 20
-400.839674
 30
0.0
 40
1.132643
 50
98.180153
 51
116.234735
  0
ARC
  8
0
  6
BYLAYER
 62
     1
 10
716.847775
 20
-402.370351
 30
0.0
 40
2.839102
 50
116.234735
 51
137.365402
  0
ARC
  8
0
  6
BYLAYER
 62
     1
 10
733.960941
 20
-418.125796
 30
0.0
 40
26.100539
 50
137.365402
 51
149.999945
  0
LINE
  8
0
  6
BYLAYER
 62
     1
 10
711.357223
 20
-405.075505
 30
0.0
 11
711.357213
 21
-405.075522
 31
0.0
  0
LINE
  8
0
  6
BYLAYER
 62
     1
 10
704.842666
 20
-416.356816
 30
0.0
 11
711.356277
 21
-405.074955
 31
0.0
  0
LINE
  8
0
  6
BYLAYER
 62
     1
 10
707.442520
 20
-417.857975
 30
0.0
 11
713.956192
 21
-406.576023
 31
0.0
  0
ARC
  8
0
  6
BYLAYER
 62
     1
 10
669.744583
 20
-418.969059
 30
0.0
 40
1.000068
 50
323.798428
 51
363.103402
  0
ARC
  8
0
  6
BYLAYER
 62
     1
 10
665.116104
 20
-419.220219
 30
0.0
 40
5.635376
 50
3.105807
 51
30.538032
  0
ARC
  8
0
  6
BYLAYER
 62
     1
 10
672.276504
 20
-415.086033
 30
0.0
 40
5.635435
 50
209.461958
 51
232.546831
  0
ARC
  8
0
  6
BYLAYER
 62
     1
 10
640.851620
 20
-418.125652
 30
0.0
 40
26.100502
 50
30.000088
 51
42.634611
  0
ARC
  8
0
  6
BYLAYER
 62
     1
 10
657.964756
 20
-402.370227
 30
0.0
 40
2.839099
 50
42.634611
 51
63.765274
  0
ARC
  8
0
  6
BYLAYER
 62
     1
 10
658.719095
 20
-400.839551
 30
0.0
 40
1.132642
 50
63.765274
 51
81.819856
  0
ARC
  8
0
  6
BYLAYER
 62
     1
 10
658.834442
 20
-400.071831
 30
0.0
 40
0.356355
 50
82.613770
 51
119.999930
  0
ARC
  8
0
  6
BYLAYER
 62
     1
 10
658.834442
 20
-400.071830
 30
0.0
 40
0.356354
 50
119.999930
 51
157.386184
  0
ARC
  8
0
  6
BYLAYER
 62
     1
 10
659.556977
 20
-400.355795
 30
0.0
 40
1.132637
 50
158.180138
 51
176.234795
  0
ARC
  8
0
  6
BYLAYER
 62
     1
 10
661.259746
 20
-400.467854
 30
0.0
 40
2.839089
 50
176.234795
 51
197.365496
  0
ARC
  8
0
  6
BYLAYER
 62
     1
 10
683.460885
 20
-393.525119
 30
0.0
 40
26.100477
 50
197.365496
 51
210.000020
  0
LINE
  8
0
  6
BYLAYER
 62
     1
 10
667.369827
 20
-417.857792
 30
0.0
 11
660.856277
 21
-406.575932
 31
0.0
  0
LINE
  8
0
  6
BYLAYER
 62
     1
 10
669.969803
 20
-416.356816
 30
0.0
 11
663.456192
 21
-405.074864
 31
0.0
  0
ARC
  8
0
  6
BYLAYER
 62
     1
 10
649.986343
 20
-453.693699
 30
0.0
 40
5.635380
 50
80.606226
 51
90.538017
  0
ARC
  8
0
  6
BYLAYER
 62
     1
 10
649.986221
 20
-445.425511
 30
0.0
 40
5.635441
 50
269.461973
 51
279.394930
  0
ARC
  8
0
  6
BYLAYER
 62
     1
 10
636.906143
 20
-474.160258
 30
0.0
 40
26.100653
 50
90.0
 51
102.634515
  0
ARC
  8
0
  6
BYLAYER
 62
     1
 10
631.818116
 20
-451.461971
 30
0.0
 40
2.839091
 50
102.634515
 51
123.765210
  0
ARC
  8
0
  6
BYLAYER
 62
     1
 10
630.869684
 20
-450.043357
 30
0.0
 40
1.132636
 50
123.765210
 51
141.819817
  0
ARC
  8
0
  6
BYLAYER
 62
     1
 10
630.262495
 20
-449.559605
 30
0.0
 40
0.356352
 50
142.613743
 51
180.000000
  0
ARC
  8
0
  6
BYLAYER
 62
     1
 10
630.262495
 20
-449.559605
 30
0.0
 40
0.356352
 50
180.000000
 51
217.386257
  0
ARC
  8
0
  6
BYLAYER
 62
     1
 10
630.869684
 20
-449.075853
 30
0.0
 40
1.132636
 50
218.180183
 51
236.234790
  0
ARC
  8
0
  6
BYLAYER
 62
     1
 10
631.818116
 20
-447.657239
 30
0.0
 40
2.839091
 50
236.234790
 51
257.365485
  0
ARC
  8
0
  6
BYLAYER
 62
     1
 10
636.906143
 20
-424.958952
 30
0.0
 40
26.100653
 50
257.365485
 51
270.000000
  0
LINE
  8
0
  6
BYLAYER
 62
     1
 10
649.933304
 20
-451.060704
 30
0.0
 11
636.906143
 21
-451.060704
 31
0.0
  0
LINE
  8
0
  6
BYLAYER
 62
     1
 10
649.933426
 20
-448.058567
 30
0.0
 11
636.906143
 21
-448.058567
 31
0.0
  0
LINE
  8
0
  6
BYLAYER
 62
     2
 10
728.450027
 20
-415.728520
 30
0.0
 11
724.285721
 21
-419.892857
 31
0.0
  0
LINE
  8
0
  6
BYLAYER
 62
     2
 10
724.285721
 20
-419.892857
 30
0.0
 11
722.906143
 21
-419.523199
 31
0.0
  0
LINE
  8
0
  6
BYLAYER
 62
     2
 10
718.514359
 20
-418.059727
 30
0.0
 11
717.072830
 21
-412.679966
 31
0.0
  0
LINE
  8
0
  6
BYLAYER
 62
     2
 10
717.072830
 20
-412.679997
 30
0.0
 11
721.237137
 21
-408.515690
 31
0.0
  0
LINE
  8
0
  6
BYLAYER
 62
     2
 10
726.925796
 20
-410.039952
 30
0.0
 11
728.450027
 21
-415.728520
 31
0.0
  0
LINE
  8
0
  6
BYLAYER
 62
     2
 10
721.237137
 20
-408.515690
 30
0.0
 11
726.925796
 21
-410.039952
 31
0.0
  0
LINE
  8
0
  6
BYLAYER
 62
     2
 10
653.575027
 20
-408.515782
 30
0.0
 11
657.739334
 21
-412.680088
 31
0.0
  0
LINE
  8
0
  6
BYLAYER
 62
     2
 10
657.739334
 20
-412.680088
 30
0.0
 11
656.297829
 21
-418.059727
 31
0.0
  0
LINE
  8
0
  6
BYLAYER
 62
     2
 10
651.906143
 20
-419.523281
 30
0.0
 11
650.526443
 21
-419.892979
 31
0.0
  0
LINE
  8
0
  6
BYLAYER
 62
     2
 10
650.526443
 20
-419.892979
 30
0.0
 11
646.362137
 21
-415.728672
 31
0.0
  0
LINE
  8
0
  6
BYLAYER
 62
     2
 10
647.886429
 20
-410.040013
 30
0.0
 11
653.575027
 21
-408.515782
 31
0.0
  0
LINE
  8
0
  6
BYLAYER
 62
     2
 10
646.362137
 20
-415.728672
 30
0.0
 11
647.886429
 21
-410.040013
 31
0.0
  0
LINE
  8
0
  6
BYLAYER
 62
     2
 10
646.362259
 20
-483.390812
 30
0.0
 11
648.406174
 21
-481.346882
 31
0.0
  0
LINE
  8
0
  6
BYLAYER
 62
     2
 10
647.886490
 20
-489.079380
 30
0.0
 11
646.362259
 21
-483.390812
 31
0.0
  0
LINE
  8
0
  6
BYLAYER
 62
     2
 10
648.406174
 20
-489.218628
 30
0.0
 11
647.886490
 21
-489.079380
 31
0.0
  0
LINE
  8
0
  6
BYLAYER
 62
     2
 10
726.406082
 20
-481.346592
 30
0.0
 11
728.450149
 21
-483.390660
 31
0.0
  0
LINE
  8
0
  6
BYLAYER
 62
     2
 10
726.925857
 20
-489.079319
 30
0.0
 11
726.406082
 21
-489.218590
 31
0.0
  0
LINE
  8
0
  6
BYLAYER
 62
     2
 10
728.450149
 20
-483.390660
 30
0.0
 11
726.925857
 21
-489.079319
 31
0.0
  0
ARC
  8
0
  6
BYLAYER
 62
     1
 10
687.406143
 20
-449.559727
 30
0.0
 40
41.453094
 50
62.075054
 51
117.924664
  0
ARC
  8
0
  6
BYLAYER
 62
     1
 10
687.406143
 20
-449.559727
 30
0.0
 40
41.453079
 50
148.91363
 51
177.924666
  0
ARC
  8
0
  6
BYLAYER
 62
     1
 10
687.406143
 20
-449.559727
 30
0.0
 40
41.453079
 50
122.075056
 51
130.545032
  0
ARC
  8
0
  6
BYLAYER
 62
     1
 10
687.406143
 20
-449.559727
 30
0.0
 40
41.453087
 50
182.075085
 51
199.809967
  0
ARC
  8
0
  6
BYLAYER
 62
     1
 10
687.406143
 20
-449.559727
 30
0.0
 40
41.453087
 50
2.075079
 51
31.086387
  0
ARC
  8
0
  6
BYLAYER
 62
     1
 10
687.406143
 20
-449.559727
 30
0.0
 40
41.453087
 50
49.454956
 51
57.924661
  0
ARC
  8
0
  6
BYLAYER
 62
     1
 10
687.406143
 20
-449.559727
 30
0.0
 40
41.453079
 50
340.189940
 51
357.924671
  0
LINE
  8
0
  6
BYLAYER
 62
     1
 10
213.406143
 20
-392.059941
 30
0.0
 11
205.741226
 21
-413.675602
 31
0.0
  0
LINE
  8
0
  6
BYLAYER
 62
     1
 10
213.406143
 20
-391.876927
 30
0.0
 11
213.406143
 21
-449.559727
 31
0.0
  0
ARC
  8
0
  6
BYLAYER
 62
     1
 10
215.406143
 20
-391.876927
 30
0.0
 40
1.999993
 50
92.999245
 51
179.999995
  0
LINE
  8
0
  6
BYLAYER
 62
     1
 10
221.406143
 20
-389.559776
 30
0.0
 11
215.301498
 21
-389.879673
 31
0.0
  0
ARC
  8
0
  6
BYLAYER
 62
     1
 10
211.406143
 20
-407.087651
 30
0.0
 40
2.0
 50
305.999797
 51
360.0
  0
LINE
  8
0
  6
BYLAYER
 62
     1
 10
202.954483
 20
-415.700291
 30
0.0
 11
212.581711
 21
-408.705693
 31
0.0
  0
LINE
  8
0
  6
BYLAYER
 62
     1
 10
202.406143
 20
-449.559727
 30
0.0
 11
202.406143
 21
-415.810093
 31
0.0
  0
LINE
  8
0
  6
BYLAYER
 62
     1
 10
221.406143
 20
-449.559788
 30
0.0
 11
221.406143
 21
-389.559776
 31
0.0
  0
ARC
  8
0
  6
BYLAYER
 62
     1
 10
202.660599
 20
-415.295750
 30
0.0
 40
0.500008
 50
272.992249
 51
305.999797
  0
LINE
  8
0
  6
BYLAYER
 62
     1
 10
202.406143
 20
-415.809788
 30
0.0
 11
202.686661
 21
-415.795079
 31
0.0
  0
LINE
  8
0
  6
BYLAYER
 62
     1
 10
213.406143
 20
-507.059513
 30
0.0
 11
205.741226
 21
-485.443852
 31
0.0
  0
LINE
  8
0
  6
BYLAYER
 62
     1
 10
213.406143
 20
-507.242527
 30
0.0
 11
213.406143
 21
-449.559727
 31
0.0
  0
ARC
  8
0
  6
BYLAYER
 62
     1
 10
215.406143
 20
-507.242527
 30
0.0
 40
1.999993
 50
180.000000
 51
267.000750
  0
LINE
  8
0
  6
BYLAYER
 62
     1
 10
221.406143
 20
-509.559678
 30
0.0
 11
215.301498
 21
-509.239781
 31
0.0
  0
ARC
  8
0
  6
BYLAYER
 62
     1
 10
211.406143
 20
-492.031803
 30
0.0
 40
2.0
 50
0.0
 51
54.000203
  0
LINE
  8
0
  6
BYLAYER
 62
     1
 10
202.954483
 20
-483.419163
 30
0.0
 11
212.581711
 21
-490.413761
 31
0.0
  0
LINE
  8
0
  6
BYLAYER
 62
     1
 10
202.406143
 20
-449.559727
 30
0.0
 11
202.406143
 21
-483.309361
 31
0.0
  0
LINE
  8
0
  6
BYLAYER
 62
     1
 10
221.406143
 20
-449.559666
 30
0.0
 11
221.406143
 21
-509.559678
 31
0.0
  0
ARC
  8
0
  6
BYLAYER
 62
     1
 10
202.660599
 20
-483.823704
 30
0.0
 40
0.500008
 50
54.000203
 51
87.007751
  0
LINE
  8
0
  6
BYLAYER
 62
     1
 10
202.406143
 20
-483.309666
 30
0.0
 11
202.686661
 21
-483.324375
 31
0.0
  0
LINE
  8
0
  6
BYLAYER
 62
     1
 10
202.480972
 20
-481.309544
 30
0.0
 11
202.406143
 21
-481.384404
 31
0.0
  0
ENDSEC
  0
EOF
