  0
SECTION
  2
HEADER
  9
$EXTMIN
 10
94.740614
 20
487.0
 30
0.0
  9
$EXTMAX
 10
668.170648
 20
0.0
 30
0.0
  0
ENDSEC
  0
SECTION
  2
TABLES
  0
ENDSEC
  0
SECTION
  2
BLOCKS
  0
ENDSEC
  0
SECTION
  2
ENTITIES
  0
LINE
  8
0
  6
BYLAYER
 62
     7
 10
219.124512
 20
-48.882928
 30
0.0
 11
221.124512
 21
-48.882928
 31
0.0
  0
ARC
  8
0
  6
BYLAYER
 62
     7
 10
225.224609
 20
-130.982843
 30
0.0
 40
0.600037
 50
90.0
 51
270.000012
  0
ARC
  8
0
  6
BYLAYER
 62
     7
 10
221.724609
 20
-130.982843
 30
0.0
 40
0.600037
 50
90.0
 51
270.000012
  0
ARC
  8
0
  6
BYLAYER
 62
     7
 10
225.224609
 20
-119.982843
 30
0.0
 40
0.600037
 50
90.0
 51
270.000012
  0
ARC
  8
0
  6
BYLAYER
 62
     7
 10
221.724609
 20
-119.982843
 30
0.0
 40
0.600037
 50
90.0
 51
270.000012
  0
ARC
  8
0
  6
BYLAYER
 62
     7
 10
225.224609
 20
-108.982843
 30
0.0
 40
0.600037
 50
90.0
 51
270.000012
  0
ARC
  8
0
  6
BYLAYER
 62
     7
 10
221.724609
 20
-108.982843
 30
0.0
 40
0.600037
 50
90.0
 51
270.000012
  0
ARC
  8
0
  6
BYLAYER
 62
     7
 10
225.224609
 20
-86.982843
 30
0.0
 40
0.600037
 50
90.0
 51
270.000012
  0
ARC
  8
0
  6
BYLAYER
 62
     7
 10
221.724609
 20
-86.982843
 30
0.0
 40
0.600037
 50
90.0
 51
270.000012
  0
ARC
  8
0
  6
BYLAYER
 62
     7
 10
225.224548
 20
-75.982843
 30
0.0
 40
0.600037
 50
90.0
 51
270.000012
  0
ARC
  8
0
  6
BYLAYER
 62
     7
 10
221.724609
 20
-75.982843
 30
0.0
 40
0.600037
 50
90.0
 51
270.000012
  0
ARC
  8
0
  6
BYLAYER
 62
     7
 10
225.224548
 20
-64.982843
 30
0.0
 40
0.600037
 50
90.0
 51
270.000012
  0
ARC
  8
0
  6
BYLAYER
 62
     7
 10
221.724609
 20
-64.982843
 30
0.0
 40
0.600037
 50
90.0
 51
270.000012
  0
LINE
  8
0
  6
BYLAYER
 62
     7
 10
221.124573
 20
-97.982904
 30
0.0
 11
221.124634
 21
-147.082880
 31
0.0
  0
ARC
  8
0
  6
BYLAYER
 62
     7
 10
225.224609
 20
-97.982843
 30
0.0
 40
0.600037
 50
90.0
 51
270.000012
  0
ARC
  8
0
  6
BYLAYER
 62
     7
 10
221.724609
 20
-97.982843
 30
0.0
 40
0.600037
 50
90.0
 51
270.000012
  0
LINE
  8
0
  6
BYLAYER
 62
     7
 10
221.124573
 20
-97.982904
 30
0.0
 11
221.124512
 21
-32.782831
 31
0.0
  0
LINE
  8
0
  6
BYLAYER
 62
     7
 10
301.124573
 20
-32.782831
 30
0.0
 11
221.124512
 21
-32.782831
 31
0.0
  0
LINE
  8
0
  6
BYLAYER
 62
     7
 10
314.374573
 20
-37.982843
 30
0.0
 11
301.124573
 21
-37.982843
 31
0.0
  0
LINE
  8
0
  6
BYLAYER
 62
     7
 10
301.124573
 20
-38.982843
 30
0.0
 11
314.374573
 21
-38.982843
 31
0.0
  0
LINE
  8
0
  6
BYLAYER
 62
     7
 10
301.124573
 20
-41.982843
 30
0.0
 11
314.374573
 21
-41.982843
 31
0.0
  0
LINE
  8
0
  6
BYLAYER
 62
     7
 10
301.124573
 20
-47.982843
 30
0.0
 11
314.374573
 21
-47.982843
 31
0.0
  0
ARC
  8
0
  6
BYLAYER
 62
     7
 10
241.624573
 20
-46.282831
 30
0.0
 40
11.5
 50
180.000000
 51
360.000005
  0
ARC
  8
0
  6
BYLAYER
 62
     7
 10
280.624573
 20
-46.282831
 30
0.0
 40
11.500000
 50
180.000000
 51
360.000005
  0
LINE
  8
0
  6
BYLAYER
 62
     7
 10
221.124512
 20
-42.782892
 30
0.0
 11
229.124573
 21
-42.782892
 31
0.0
  0
ARC
  8
0
  6
BYLAYER
 62
     7
 10
229.124573
 20
-43.782892
 30
0.0
 40
1.0
 50
0.0
 51
89.999992
  0
ARC
  8
0
  6
BYLAYER
 62
     7
 10
254.124573
 20
-43.782831
 30
0.0
 40
1.0
 50
90.0
 51
180.000003
  0
LINE
  8
0
  6
BYLAYER
 62
     7
 10
254.124573
 20
-42.782831
 30
0.0
 11
268.124573
 21
-42.782831
 31
0.0
  0
ARC
  8
0
  6
BYLAYER
 62
     7
 10
268.124573
 20
-43.782831
 30
0.0
 40
1.000000
 50
0.0
 51
89.999992
  0
LINE
  8
0
  6
BYLAYER
 62
     7
 10
293.124573
 20
-42.782831
 30
0.0
 11
301.124573
 21
-42.782831
 31
0.0
  0
ARC
  8
0
  6
BYLAYER
 62
     7
 10
293.124573
 20
-43.782831
 30
0.0
 40
1.0
 50
90.0
 51
180.000003
  0
CIRCLE
  8
0
  6
BYLAYER
 62
     7
 10
243.874573
 20
-86.980157
 30
0.0
 40
1.350000
  0
CIRCLE
  8
0
  6
BYLAYER
 62
     7
 10
298.874573
 20
-86.911066
 30
0.0
 40
1.350000
  0
LINE
  8
0
  6
BYLAYER
 62
     7
 10
221.724609
 20
-86.382867
 30
0.0
 11
240.934631
 21
-86.382867
 31
0.0
  0
LINE
  8
0
  6
BYLAYER
 62
     7
 10
221.724609
 20
-87.582880
 30
0.0
 11
240.935730
 21
-87.582880
 31
0.0
  0
LINE
  8
0
  6
BYLAYER
 62
     7
 10
246.814514
 20
-86.382867
 30
0.0
 11
271.374573
 21
-86.382867
 31
0.0
  0
LINE
  8
0
  6
BYLAYER
 62
     7
 10
246.813415
 20
-87.582880
 30
0.0
 11
271.374573
 21
-87.582880
 31
0.0
  0
LINE
  8
0
  6
BYLAYER
 62
     7
 10
295.921448
 20
-86.382806
 30
0.0
 11
271.374573
 21
-86.382867
 31
0.0
  0
LINE
  8
0
  6
BYLAYER
 62
     7
 10
295.950745
 20
-87.582819
 30
0.0
 11
271.374573
 21
-87.582880
 31
0.0
  0
LINE
  8
0
  6
BYLAYER
 62
     7
 10
314.374573
 20
-86.382806
 30
0.0
 11
301.827698
 21
-86.382806
 31
0.0
  0
LINE
  8
0
  6
BYLAYER
 62
     7
 10
314.374573
 20
-87.582819
 30
0.0
 11
301.798401
 21
-87.582819
 31
0.0
  0
LINE
  8
0
  6
BYLAYER
 62
     7
 10
314.374573
 20
-148.982962
 30
0.0
 11
271.374695
 21
-148.982904
 31
0.0
  0
LINE
  8
0
  6
BYLAYER
 62
     7
 10
314.374573
 20
-154.982962
 30
0.0
 11
271.374695
 21
-154.982904
 31
0.0
  0
LINE
  8
0
  6
BYLAYER
 62
     7
 10
314.374573
 20
-157.982962
 30
0.0
 11
271.374695
 21
-157.982904
 31
0.0
  0
LINE
  8
0
  6
BYLAYER
 62
     7
 10
221.124756
 20
-135.982965
 30
0.0
 11
224.210876
 21
-147.500604
 31
0.0
  0
ARC
  8
0
  6
BYLAYER
 62
     7
 10
226.142700
 20
-146.982965
 30
0.0
 40
1.999973
 50
195.000043
 51
270.000055
  0
LINE
  8
0
  6
BYLAYER
 62
     7
 10
221.124756
 20
-142.982965
 30
0.0
 11
222.749084
 21
-142.045160
 31
0.0
  0
LINE
  8
0
  6
BYLAYER
 62
     7
 10
221.124756
 20
-142.982965
 30
0.0
 11
223.942932
 21
-153.500604
 31
0.0
  0
ARC
  8
0
  6
BYLAYER
 62
     7
 10
225.874756
 20
-152.982965
 30
0.0
 40
1.999973
 50
195.000043
 51
270.000055
  0
ARC
  8
0
  6
BYLAYER
 62
     7
 10
225.874817
 20
-155.982965
 30
0.0
 40
2.000032
 50
195.000070
 51
270.000055
  0
LINE
  8
0
  6
BYLAYER
 62
     7
 10
221.124756
 20
-145.982965
 30
0.0
 11
223.942932
 21
-156.500604
 31
0.0
  0
LINE
  8
0
  6
BYLAYER
 62
     7
 10
226.142700
 20
-148.982965
 30
0.0
 11
271.374695
 21
-148.982904
 31
0.0
  0
LINE
  8
0
  6
BYLAYER
 62
     7
 10
225.874817
 20
-154.982965
 30
0.0
 11
271.374695
 21
-154.982904
 31
0.0
  0
LINE
  8
0
  6
BYLAYER
 62
     7
 10
225.874817
 20
-157.982965
 30
0.0
 11
271.374695
 21
-157.982904
 31
0.0
  0
LINE
  8
0
  6
BYLAYER
 62
     7
 10
221.124634
 20
-147.082880
 30
0.0
 11
221.379944
 21
-146.935480
 31
0.0
  0
ARC
  8
0
  6
BYLAYER
 62
     7
 10
243.874573
 20
-86.980157
 30
0.0
 40
3.000002
 50
11.484133
 51
168.515862
  0
ARC
  8
0
  6
BYLAYER
 62
     7
 10
298.874573
 20
-86.911066
 30
0.0
 40
2.999990
 50
10.140737
 51
169.859264
  0
ARC
  8
0
  6
BYLAYER
 62
     7
 10
298.874573
 20
-86.911066
 30
0.0
 40
3.000004
 50
192.939225
 51
347.060790
  0
ARC
  8
0
  6
BYLAYER
 62
     7
 10
243.874573
 20
-86.980157
 30
0.0
 40
2.999964
 50
191.590672
 51
348.409452
  0
LINE
  8
0
  6
BYLAYER
 62
     7
 10
221.724609
 20
-65.582941
 30
0.0
 11
314.374573
 21
-65.582827
 31
0.0
  0
LINE
  8
0
  6
BYLAYER
 62
     7
 10
221.724609
 20
-75.382867
 30
0.0
 11
314.374573
 21
-75.382810
 31
0.0
  0
LINE
  8
0
  6
BYLAYER
 62
     7
 10
221.724609
 20
-76.582941
 30
0.0
 11
314.374573
 21
-76.582827
 31
0.0
  0
LINE
  8
0
  6
BYLAYER
 62
     7
 10
230.124573
 20
-39.282892
 30
0.0
 11
230.124573
 21
-46.282831
 31
0.0
  0
LINE
  8
0
  6
BYLAYER
 62
     7
 10
228.124573
 20
-37.282892
 30
0.0
 11
221.124512
 21
-37.282892
 31
0.0
  0
ARC
  8
0
  6
BYLAYER
 62
     7
 10
228.124573
 20
-39.282892
 30
0.0
 40
2.0
 50
0.0
 51
90.000003
  0
LINE
  8
0
  6
BYLAYER
 62
     7
 10
253.124573
 20
-39.282892
 30
0.0
 11
253.124573
 21
-46.282831
 31
0.0
  0
ARC
  8
0
  6
BYLAYER
 62
     7
 10
255.124573
 20
-39.282892
 30
0.0
 40
2.000000
 50
90.0
 51
180.000003
  0
LINE
  8
0
  6
BYLAYER
 62
     7
 10
269.124573
 20
-39.282892
 30
0.0
 11
269.124573
 21
-46.282831
 31
0.0
  0
LINE
  8
0
  6
BYLAYER
 62
     7
 10
267.124573
 20
-37.282892
 30
0.0
 11
255.124573
 21
-37.282892
 31
0.0
  0
ARC
  8
0
  6
BYLAYER
 62
     7
 10
267.124573
 20
-39.282892
 30
0.0
 40
2.000000
 50
0.0
 51
90.000003
  0
LINE
  8
0
  6
BYLAYER
 62
     7
 10
292.124573
 20
-39.282831
 30
0.0
 11
292.124573
 21
-46.282831
 31
0.0
  0
LINE
  8
0
  6
BYLAYER
 62
     7
 10
301.124573
 20
-37.282831
 30
0.0
 11
294.124573
 21
-37.282831
 31
0.0
  0
ARC
  8
0
  6
BYLAYER
 62
     7
 10
294.124573
 20
-39.282831
 30
0.0
 40
2.000000
 50
90.0
 51
180.000003
  0
LINE
  8
0
  6
BYLAYER
 62
     7
 10
314.374573
 20
-64.382867
 30
0.0
 11
221.724609
 21
-64.382867
 31
0.0
  0
LINE
  8
0
  6
BYLAYER
 62
     7
 10
301.124573
 20
-64.382867
 30
0.0
 11
301.124573
 21
-32.782831
 31
0.0
  0
LINE
  8
0
  6
BYLAYER
 62
     7
 10
221.724609
 20
-97.382867
 30
0.0
 11
314.374573
 21
-97.382867
 31
0.0
  0
LINE
  8
0
  6
BYLAYER
 62
     7
 10
221.724609
 20
-98.582880
 30
0.0
 11
314.374573
 21
-98.582880
 31
0.0
  0
LINE
  8
0
  6
BYLAYER
 62
     7
 10
221.724609
 20
-109.582880
 30
0.0
 11
314.374573
 21
-109.582820
 31
0.0
  0
LINE
  8
0
  6
BYLAYER
 62
     7
 10
221.724609
 20
-119.382867
 30
0.0
 11
314.374573
 21
-119.382810
 31
0.0
  0
LINE
  8
0
  6
BYLAYER
 62
     7
 10
221.724609
 20
-120.582941
 30
0.0
 11
314.374573
 21
-120.582827
 31
0.0
  0
LINE
  8
0
  6
BYLAYER
 62
     7
 10
221.724609
 20
-130.382928
 30
0.0
 11
314.374573
 21
-130.382814
 31
0.0
  0
LINE
  8
0
  6
BYLAYER
 62
     7
 10
221.724609
 20
-131.582941
 30
0.0
 11
314.374573
 21
-131.582827
 31
0.0
  0
LINE
  8
0
  6
BYLAYER
 62
     7
 10
221.724609
 20
-108.382867
 30
0.0
 11
314.374573
 21
-108.382806
 31
0.0
  0
LINE
  8
0
  6
BYLAYER
 62
     7
 10
313.124573
 20
-65.582819
 30
0.0
 11
313.124573
 21
-75.382806
 31
0.0
  0
LINE
  8
0
  6
BYLAYER
 62
     7
 10
229.624634
 20
-65.582941
 30
0.0
 11
229.624634
 21
-75.382867
 31
0.0
  0
LINE
  8
0
  6
BYLAYER
 62
     7
 10
313.124573
 20
-76.582819
 30
0.0
 11
313.124573
 21
-86.382806
 31
0.0
  0
LINE
  8
0
  6
BYLAYER
 62
     7
 10
229.624634
 20
-76.582941
 30
0.0
 11
229.624634
 21
-86.382806
 31
0.0
  0
LINE
  8
0
  6
BYLAYER
 62
     7
 10
313.124573
 20
-87.582880
 30
0.0
 11
313.124573
 21
-97.382867
 31
0.0
  0
LINE
  8
0
  6
BYLAYER
 62
     7
 10
229.624634
 20
-87.582880
 30
0.0
 11
229.624634
 21
-97.382867
 31
0.0
  0
LINE
  8
0
  6
BYLAYER
 62
     7
 10
229.624634
 20
-98.582880
 30
0.0
 11
229.624634
 21
-108.382867
 31
0.0
  0
LINE
  8
0
  6
BYLAYER
 62
     7
 10
313.124573
 20
-98.582880
 30
0.0
 11
313.124573
 21
-108.382806
 31
0.0
  0
LINE
  8
0
  6
BYLAYER
 62
     7
 10
229.624634
 20
-109.582880
 30
0.0
 11
229.624634
 21
-119.382867
 31
0.0
  0
LINE
  8
0
  6
BYLAYER
 62
     7
 10
313.124573
 20
-109.582819
 30
0.0
 11
313.124573
 21
-119.382806
 31
0.0
  0
LINE
  8
0
  6
BYLAYER
 62
     7
 10
229.624634
 20
-120.582880
 30
0.0
 11
229.624634
 21
-130.382928
 31
0.0
  0
LINE
  8
0
  6
BYLAYER
 62
     7
 10
313.124573
 20
-120.582819
 30
0.0
 11
313.124573
 21
-130.382806
 31
0.0
  0
LINE
  8
0
  6
BYLAYER
 62
     7
 10
314.374573
 20
-63.886944
 30
0.0
 11
313.166687
 21
-64.370782
 31
0.0
  0
LINE
  8
0
  6
BYLAYER
 62
     7
 10
229.614685
 20
-64.254144
 30
0.0
 11
221.090393
 21
-61.838190
 31
0.0
  0
LINE
  8
0
  6
BYLAYER
 62
     7
 10
229.624634
 20
-131.582880
 30
0.0
 11
229.624634
 21
-133.582880
 31
0.0
  0
LINE
  8
0
  6
BYLAYER
 62
     7
 10
313.124573
 20
-131.582819
 30
0.0
 11
313.124573
 21
-133.582819
 31
0.0
  0
LINE
  8
0
  6
BYLAYER
 62
     7
 10
313.124573
 20
-133.582819
 30
0.0
 11
229.624634
 21
-133.582880
 31
0.0
  0
LINE
  8
0
  6
BYLAYER
 62
     7
 10
313.124573
 20
-133.582819
 30
0.0
 11
314.374573
 21
-133.935782
 31
0.0
  0
LINE
  8
0
  6
BYLAYER
 62
     7
 10
229.624634
 20
-133.582880
 30
0.0
 11
221.124756
 21
-135.982965
 31
0.0
  0
LINE
  8
0
  6
BYLAYER
 62
     7
 10
219.124512
 20
-147.082941
 30
0.0
 11
221.124512
 21
-147.082941
 31
0.0
  0
LINE
  8
0
  6
BYLAYER
 62
     7
 10
314.374573
 20
-97.982934
 30
0.0
 11
314.374573
 21
-37.382934
 31
0.0
  0
LINE
  8
0
  6
BYLAYER
 62
     7
 10
370.623101
 20
-37.382934
 30
0.0
 11
380.974573
 21
-47.734406
 31
0.0
  0
LINE
  8
0
  6
BYLAYER
 62
     7
 10
314.374573
 20
-37.382934
 30
0.0
 11
321.374573
 21
-37.382934
 31
0.0
  0
LINE
  8
0
  6
BYLAYER
 62
     7
 10
321.374573
 20
-37.382934
 30
0.0
 11
370.623101
 21
-37.382934
 31
0.0
  0
LINE
  8
0
  6
BYLAYER
 62
     7
 10
380.974573
 20
-47.734406
 30
0.0
 11
380.974573
 21
-97.982934
 31
0.0
  0
LINE
  8
0
  6
BYLAYER
 62
     7
 10
314.374573
 20
-158.582934
 30
0.0
 11
314.374573
 21
-97.982934
 31
0.0
  0
LINE
  8
0
  6
BYLAYER
 62
     7
 10
380.974573
 20
-148.231463
 30
0.0
 11
370.623101
 21
-158.582934
 31
0.0
  0
LINE
  8
0
  6
BYLAYER
 62
     7
 10
370.623101
 20
-158.582934
 30
0.0
 11
314.374573
 21
-158.582934
 31
0.0
  0
LINE
  8
0
  6
BYLAYER
 62
     7
 10
380.974573
 20
-97.982934
 30
0.0
 11
380.974573
 21
-148.231463
 31
0.0
  0
LINE
  8
0
  6
BYLAYER
 62
     7
 10
192.124573
 20
-167.482935
 30
0.0
 11
192.124573
 21
-97.982935
 31
0.0
  0
LINE
  8
0
  6
BYLAYER
 62
     7
 10
192.624573
 20
-167.982935
 30
0.0
 11
192.124573
 21
-167.482935
 31
0.0
  0
LINE
  8
0
  6
BYLAYER
 62
     7
 10
192.124573
 20
-97.982935
 30
0.0
 11
192.124573
 21
-28.482935
 31
0.0
  0
LINE
  8
0
  6
BYLAYER
 62
     7
 10
192.124573
 20
-28.482935
 30
0.0
 11
192.624573
 21
-27.982935
 31
0.0
  0
LINE
  8
0
  6
BYLAYER
 62
     7
 10
201.124573
 20
-167.982935
 30
0.0
 11
192.624573
 21
-167.982935
 31
0.0
  0
LINE
  8
0
  6
BYLAYER
 62
     7
 10
201.124573
 20
-97.982935
 30
0.0
 11
201.124573
 21
-167.982935
 31
0.0
  0
LINE
  8
0
  6
BYLAYER
 62
     7
 10
203.089661
 20
-48.703028
 30
0.0
 11
219.124573
 21
-48.982935
 31
0.0
  0
LINE
  8
0
  6
BYLAYER
 62
     7
 10
201.124573
 20
-27.982935
 30
0.0
 11
201.124573
 21
-97.982935
 31
0.0
  0
ARC
  8
0
  6
BYLAYER
 62
     7
 10
203.124573
 20
-46.703333
 30
0.0
 40
2.0
 50
180.000000
 51
268.999783
  0
LINE
  8
0
  6
BYLAYER
 62
     7
 10
192.624573
 20
-27.982935
 30
0.0
 11
201.124573
 21
-27.982935
 31
0.0
  0
LINE
  8
0
  6
BYLAYER
 62
     7
 10
217.124573
 20
-147.017847
 30
0.0
 11
217.124573
 21
-156.982935
 31
0.0
  0
LINE
  8
0
  6
BYLAYER
 62
     7
 10
219.124573
 20
-146.982935
 30
0.0
 11
217.124573
 21
-147.017847
 31
0.0
  0
LINE
  8
0
  6
BYLAYER
 62
     7
 10
217.124573
 20
-156.982935
 30
0.0
 11
201.124573
 21
-157.262210
 31
0.0
  0
LINE
  8
0
  6
BYLAYER
 62
     7
 10
219.124573
 20
-97.982935
 30
0.0
 11
219.124573
 21
-146.982935
 31
0.0
  0
LINE
  8
0
  6
BYLAYER
 62
     7
 10
219.124573
 20
-48.982935
 30
0.0
 11
219.124573
 21
-97.982935
 31
0.0
  0
ARC
  8
0
  6
BYLAYER
 62
     7
 10
291.878850
 20
-22.282831
 30
0.0
 40
1.500000
 50
180.000000
 51
270.000000
  0
ARC
  8
0
  6
BYLAYER
 62
     7
 10
230.370174
 20
-22.282831
 30
0.0
 40
1.5
 50
270.0
 51
360.0
  0
ARC
  8
0
  6
BYLAYER
 62
     7
 10
222.624512
 20
-22.282831
 30
0.0
 40
1.5
 50
270.0
 51
360.0
  0
ARC
  8
0
  6
BYLAYER
 62
     7
 10
222.624512
 20
-25.282831
 30
0.0
 40
1.500000
 50
90.0
 51
180.0
  0
ARC
  8
0
  6
BYLAYER
 62
     7
 10
299.624512
 20
-22.282831
 30
0.0
 40
1.5
 50
180.000000
 51
270.000000
  0
LINE
  8
0
  6
BYLAYER
 62
     7
 10
224.124512
 20
-22.282831
 30
0.0
 11
224.124512
 21
-0.782831
 31
0.0
  0
ARC
  8
0
  6
BYLAYER
 62
     7
 10
225.624512
 20
-0.782831
 30
0.0
 40
1.5
 50
90.0
 51
180.0
  0
LINE
  8
0
  6
BYLAYER
 62
     7
 10
298.124512
 20
-22.282831
 30
0.0
 11
298.124512
 21
-0.782831
 31
0.0
  0
LINE
  8
0
  6
BYLAYER
 62
     7
 10
225.624512
 20
0.717169
 30
0.0
 11
296.624512
 21
0.717169
 31
0.0
  0
ARC
  8
0
  6
BYLAYER
 62
     7
 10
288.878850
 20
-0.782831
 30
0.0
 40
1.5
 50
0.0
 51
90.0
  0
ARC
  8
0
  6
BYLAYER
 62
     7
 10
296.624512
 20
-0.782831
 30
0.0
 40
1.5
 50
0.0
 51
90.0
  0
LINE
  8
0
  6
BYLAYER
 62
     7
 10
231.870174
 20
-22.282831
 30
0.0
 11
231.870174
 21
-0.782831
 31
0.0
  0
ARC
  8
0
  6
BYLAYER
 62
     7
 10
233.370174
 20
-0.782831
 30
0.0
 40
1.5
 50
90.0
 51
180.0
  0
LINE
  8
0
  6
BYLAYER
 62
     7
 10
290.378850
 20
-22.282831
 30
0.0
 11
290.378850
 21
-0.782831
 31
0.0
  0
ARC
  8
0
  6
BYLAYER
 62
     7
 10
299.624512
 20
-25.282831
 30
0.0
 40
1.500000
 50
0.0
 51
90.0
  0
LINE
  8
0
  6
BYLAYER
 62
     7
 10
301.124512
 20
-32.782831
 30
0.0
 11
301.124512
 21
-25.282831
 31
0.0
  0
LINE
  8
0
  6
BYLAYER
 62
     7
 10
299.624512
 20
-23.782831
 30
0.0
 11
222.624512
 21
-23.782831
 31
0.0
  0
LINE
  8
0
  6
BYLAYER
 62
     7
 10
221.124512
 20
-25.282831
 30
0.0
 11
221.124512
 21
-32.782831
 31
0.0
  0
LINE
  8
0
  6
BYLAYER
 62
     7
 10
221.124512
 20
-32.782831
 30
0.0
 11
301.124512
 21
-32.782831
 31
0.0
  0
LINE
  8
0
  6
BYLAYER
 62
     7
 10
301.124512
 20
-30.782831
 30
0.0
 11
221.124512
 21
-30.782831
 31
0.0
  0
LINE
  8
0
  6
BYLAYER
 62
     7
 10
370.623101
 20
-37.382934
 30
0.0
 11
370.623101
 21
-158.582934
 31
0.0
  0
LINE
  8
0
  6
BYLAYER
 62
     7
 10
224.124573
 20
-439.499590
 30
0.0
 11
224.124573
 21
-390.466220
 31
0.0
  0
LINE
  8
0
  6
BYLAYER
 62
     7
 10
233.586979
 20
-380.732905
 30
0.0
 11
288.662167
 21
-380.732905
 31
0.0
  0
LINE
  8
0
  6
BYLAYER
 62
     7
 10
298.124573
 20
-390.466220
 30
0.0
 11
298.124573
 21
-439.499590
 31
0.0
  0
LINE
  8
0
  6
BYLAYER
 62
     7
 10
288.662167
 20
-449.232905
 30
0.0
 11
233.586979
 21
-449.232905
 31
0.0
  0
LINE
  8
0
  6
BYLAYER
 62
     7
 10
238.229271
 20
-405.084011
 30
0.0
 11
224.124573
 21
-405.576558
 31
0.0
  0
ARC
  8
0
  6
BYLAYER
 62
     7
 10
238.124573
 20
-402.085839
 30
0.0
 40
3.0
 50
272.0
 51
360.0
  0
LINE
  8
0
  6
BYLAYER
 62
     7
 10
238.229271
 20
-420.084011
 30
0.0
 11
224.124573
 21
-420.576558
 31
0.0
  0
ARC
  8
0
  6
BYLAYER
 62
     7
 10
238.124573
 20
-417.085839
 30
0.0
 40
3.0
 50
272.000000
 51
360.000000
  0
LINE
  8
0
  6
BYLAYER
 62
     7
 10
238.229271
 20
-435.084011
 30
0.0
 11
224.124573
 21
-435.576558
 31
0.0
  0
ARC
  8
0
  6
BYLAYER
 62
     7
 10
238.124573
 20
-432.085839
 30
0.0
 40
3.0
 50
272.000000
 51
360.000000
  0
LINE
  8
0
  6
BYLAYER
 62
     7
 10
224.124573
 20
-424.389252
 30
0.0
 11
238.229271
 21
-424.881799
 31
0.0
  0
ARC
  8
0
  6
BYLAYER
 62
     7
 10
238.124573
 20
-427.879971
 30
0.0
 40
3.0
 50
0.0
 51
88.0
  0
LINE
  8
0
  6
BYLAYER
 62
     7
 10
224.124573
 20
-409.389252
 30
0.0
 11
238.229271
 21
-409.881799
 31
0.0
  0
ARC
  8
0
  6
BYLAYER
 62
     7
 10
238.124573
 20
-412.879971
 30
0.0
 40
3.0
 50
0.0
 51
88.0
  0
LINE
  8
0
  6
BYLAYER
 62
     7
 10
241.124573
 20
-427.879971
 30
0.0
 11
241.124573
 21
-432.085839
 31
0.0
  0
LINE
  8
0
  6
BYLAYER
 62
     7
 10
241.124573
 20
-412.879971
 30
0.0
 11
241.124573
 21
-417.085839
 31
0.0
  0
LINE
  8
0
  6
BYLAYER
 62
     7
 10
225.124573
 20
-409.424173
 30
0.0
 11
225.124573
 21
-420.541637
 31
0.0
  0
LINE
  8
0
  6
BYLAYER
 62
     7
 10
225.124573
 20
-424.424173
 30
0.0
 11
225.124573
 21
-435.541637
 31
0.0
  0
LINE
  8
0
  6
BYLAYER
 62
     7
 10
225.124573
 20
-394.424173
 30
0.0
 11
225.124573
 21
-405.541637
 31
0.0
  0
LINE
  8
0
  6
BYLAYER
 62
     7
 10
298.124573
 20
-394.389252
 30
0.0
 11
284.019875
 21
-394.881799
 31
0.0
  0
ARC
  8
0
  6
BYLAYER
 62
     7
 10
284.124573
 20
-397.879971
 30
0.0
 40
3.000000
 50
92.0
 51
180.0
  0
LINE
  8
0
  6
BYLAYER
 62
     7
 10
284.019875
 20
-405.084011
 30
0.0
 11
298.124573
 21
-405.576558
 31
0.0
  0
ARC
  8
0
  6
BYLAYER
 62
     7
 10
284.124573
 20
-402.085839
 30
0.0
 40
3.000000
 50
180.000000
 51
268.000000
  0
LINE
  8
0
  6
BYLAYER
 62
     7
 10
284.019875
 20
-420.084011
 30
0.0
 11
298.124573
 21
-420.576558
 31
0.0
  0
ARC
  8
0
  6
BYLAYER
 62
     7
 10
284.124573
 20
-417.085839
 30
0.0
 40
3.000000
 50
180.000000
 51
268.000000
  0
LINE
  8
0
  6
BYLAYER
 62
     7
 10
284.019875
 20
-435.084011
 30
0.0
 11
298.124573
 21
-435.576558
 31
0.0
  0
ARC
  8
0
  6
BYLAYER
 62
     7
 10
284.124573
 20
-432.085839
 30
0.0
 40
3.000000
 50
180.000000
 51
268.000000
  0
LINE
  8
0
  6
BYLAYER
 62
     7
 10
298.124573
 20
-424.389252
 30
0.0
 11
284.019875
 21
-424.881799
 31
0.0
  0
ARC
  8
0
  6
BYLAYER
 62
     7
 10
284.124573
 20
-427.879971
 30
0.0
 40
3.000000
 50
92.0
 51
180.0
  0
LINE
  8
0
  6
BYLAYER
 62
     7
 10
298.124573
 20
-409.389252
 30
0.0
 11
284.019875
 21
-409.881799
 31
0.0
  0
ARC
  8
0
  6
BYLAYER
 62
     7
 10
284.124573
 20
-412.879971
 30
0.0
 40
3.000000
 50
92.0
 51
180.0
  0
LINE
  8
0
  6
BYLAYER
 62
     7
 10
281.124573
 20
-427.879971
 30
0.0
 11
281.124573
 21
-432.085839
 31
0.0
  0
LINE
  8
0
  6
BYLAYER
 62
     7
 10
281.124573
 20
-412.879971
 30
0.0
 11
281.124573
 21
-417.085839
 31
0.0
  0
LINE
  8
0
  6
BYLAYER
 62
     7
 10
281.124573
 20
-397.879971
 30
0.0
 11
281.124573
 21
-402.085839
 31
0.0
  0
LINE
  8
0
  6
BYLAYER
 62
     7
 10
297.124573
 20
-409.424173
 30
0.0
 11
297.124573
 21
-420.541637
 31
0.0
  0
LINE
  8
0
  6
BYLAYER
 62
     7
 10
297.124573
 20
-424.424173
 30
0.0
 11
297.124573
 21
-435.541637
 31
0.0
  0
LINE
  8
0
  6
BYLAYER
 62
     7
 10
297.124573
 20
-394.424173
 30
0.0
 11
297.124573
 21
-405.541637
 31
0.0
  0
LINE
  8
0
  6
BYLAYER
 62
     7
 10
221.124573
 20
-379.482905
 30
0.0
 11
221.124573
 21
-450.482905
 31
0.0
  0
ARC
  8
0
  6
BYLAYER
 62
     7
 10
222.624573
 20
-450.482905
 30
0.0
 40
1.500000
 50
180.000000
 51
270.000000
  0
ARC
  8
0
  6
BYLAYER
 62
     7
 10
222.624573
 20
-379.482905
 30
0.0
 40
1.5
 50
90.0
 51
180.0
  0
LINE
  8
0
  6
BYLAYER
 62
     7
 10
299.624573
 20
-377.982905
 30
0.0
 11
222.624573
 21
-377.982905
 31
0.0
  0
ARC
  8
0
  6
BYLAYER
 62
     7
 10
299.624573
 20
-379.482905
 30
0.0
 40
1.5
 50
0.0
 51
90.0
  0
LINE
  8
0
  6
BYLAYER
 62
     7
 10
301.124573
 20
-450.482905
 30
0.0
 11
301.124573
 21
-379.482905
 31
0.0
  0
LINE
  8
0
  6
BYLAYER
 62
     7
 10
222.624573
 20
-451.982905
 30
0.0
 11
299.624573
 21
-451.982905
 31
0.0
  0
ARC
  8
0
  6
BYLAYER
 62
     7
 10
299.624573
 20
-450.482905
 30
0.0
 40
1.500000
 50
270.0
 51
360.0
  0
ARC
  8
0
  6
BYLAYER
 62
     7
 10
296.124573
 20
-382.982905
 30
0.0
 40
6.000000
 50
174.260830
 51
273.822554
  0
ARC
  8
0
  6
BYLAYER
 62
     7
 10
296.624573
 20
-390.466220
 30
0.0
 40
1.500000
 50
0.0
 51
93.822554
  0
ARC
  8
0
  6
BYLAYER
 62
     7
 10
288.662167
 20
-382.232905
 30
0.0
 40
1.500000
 50
354.260830
 51
450.000000
  0
ARC
  8
0
  6
BYLAYER
 62
     7
 10
296.124573
 20
-446.982905
 30
0.0
 40
6.000000
 50
86.177446
 51
185.739170
  0
ARC
  8
0
  6
BYLAYER
 62
     7
 10
296.624573
 20
-439.499590
 30
0.0
 40
1.500000
 50
266.177446
 51
360.000000
  0
ARC
  8
0
  6
BYLAYER
 62
     7
 10
288.662167
 20
-447.732905
 30
0.0
 40
1.500000
 50
270.0
 51
365.739170
  0
ARC
  8
0
  6
BYLAYER
 62
     7
 10
226.124573
 20
-446.982905
 30
0.0
 40
6.000000
 50
354.260830
 51
453.822554
  0
ARC
  8
0
  6
BYLAYER
 62
     7
 10
233.586979
 20
-447.732905
 30
0.0
 40
1.500000
 50
174.260830
 51
270.000000
  0
ARC
  8
0
  6
BYLAYER
 62
     7
 10
225.624573
 20
-439.499590
 30
0.0
 40
1.5
 50
180.000000
 51
273.822554
  0
ARC
  8
0
  6
BYLAYER
 62
     7
 10
226.124573
 20
-382.982905
 30
0.0
 40
6.000000
 50
266.177446
 51
365.739170
  0
ARC
  8
0
  6
BYLAYER
 62
     7
 10
225.624573
 20
-390.466220
 30
0.0
 40
1.500000
 50
86.177446
 51
180.0
  0
ARC
  8
0
  6
BYLAYER
 62
     7
 10
233.586979
 20
-382.232905
 30
0.0
 40
1.5
 50
90.0
 51
185.73917
  0
ARC
  8
0
  6
BYLAYER
 62
     7
 10
248.124573
 20
-387.982905
 30
0.0
 40
3.0
 50
90.0
 51
180.0
  0
ARC
  8
0
  6
BYLAYER
 62
     7
 10
274.124573
 20
-387.982905
 30
0.0
 40
3.0
 50
0.0
 51
90.0
  0
LINE
  8
0
  6
BYLAYER
 62
     7
 10
248.124573
 20
-384.982905
 30
0.0
 11
274.124573
 21
-384.982905
 31
0.0
  0
ARC
  8
0
  6
BYLAYER
 62
     7
 10
248.124573
 20
-441.982905
 30
0.0
 40
3.0
 50
180.000000
 51
270.000000
  0
ARC
  8
0
  6
BYLAYER
 62
     7
 10
274.124573
 20
-441.982905
 30
0.0
 40
3.0
 50
270.0
 51
360.0
  0
LINE
  8
0
  6
BYLAYER
 62
     7
 10
248.124573
 20
-444.982905
 30
0.0
 11
274.124573
 21
-444.982905
 31
0.0
  0
LINE
  8
0
  6
BYLAYER
 62
     7
 10
245.124573
 20
-441.982905
 30
0.0
 11
245.124573
 21
-387.982905
 31
0.0
  0
LINE
  8
0
  6
BYLAYER
 62
     7
 10
277.124573
 20
-387.982905
 30
0.0
 11
277.124573
 21
-441.982905
 31
0.0
  0
LINE
  8
0
  6
BYLAYER
 62
     7
 10
221.124573
 20
-414.982905
 30
0.0
 11
221.124634
 21
-464.082881
 31
0.0
  0
LINE
  8
0
  6
BYLAYER
 62
     7
 10
314.374573
 20
-465.982963
 30
0.0
 11
271.374695
 21
-465.982905
 31
0.0
  0
LINE
  8
0
  6
BYLAYER
 62
     7
 10
314.374573
 20
-471.982963
 30
0.0
 11
271.374695
 21
-471.982905
 31
0.0
  0
LINE
  8
0
  6
BYLAYER
 62
     7
 10
314.374573
 20
-474.982963
 30
0.0
 11
271.374695
 21
-474.982905
 31
0.0
  0
LINE
  8
0
  6
BYLAYER
 62
     7
 10
221.124756
 20
-452.982966
 30
0.0
 11
224.210876
 21
-464.500605
 31
0.0
  0
ARC
  8
0
  6
BYLAYER
 62
     7
 10
226.142700
 20
-463.982966
 30
0.0
 40
1.999973
 50
195.000043
 51
270.000055
  0
LINE
  8
0
  6
BYLAYER
 62
     7
 10
221.124756
 20
-459.982966
 30
0.0
 11
222.749084
 21
-459.045161
 31
0.0
  0
LINE
  8
0
  6
BYLAYER
 62
     7
 10
221.124756
 20
-459.982966
 30
0.0
 11
223.942932
 21
-470.500605
 31
0.0
  0
ARC
  8
0
  6
BYLAYER
 62
     7
 10
225.874756
 20
-469.982966
 30
0.0
 40
1.999973
 50
195.000043
 51
270.000055
  0
ARC
  8
0
  6
BYLAYER
 62
     7
 10
225.874817
 20
-472.982966
 30
0.0
 40
2.000032
 50
195.000070
 51
270.000055
  0
LINE
  8
0
  6
BYLAYER
 62
     7
 10
221.124756
 20
-462.982966
 30
0.0
 11
223.942932
 21
-473.500605
 31
0.0
  0
LINE
  8
0
  6
BYLAYER
 62
     7
 10
226.142700
 20
-465.982966
 30
0.0
 11
271.374695
 21
-465.982905
 31
0.0
  0
LINE
  8
0
  6
BYLAYER
 62
     7
 10
225.874817
 20
-471.982966
 30
0.0
 11
271.374695
 21
-471.982905
 31
0.0
  0
LINE
  8
0
  6
BYLAYER
 62
     7
 10
225.874817
 20
-474.982966
 30
0.0
 11
271.374695
 21
-474.982905
 31
0.0
  0
LINE
  8
0
  6
BYLAYER
 62
     7
 10
221.124634
 20
-464.082881
 30
0.0
 11
221.379944
 21
-463.935481
 31
0.0
  0
LINE
  8
0
  6
BYLAYER
 62
     7
 10
301.124573
 20
-415.582881
 30
0.0
 11
314.374573
 21
-415.582881
 31
0.0
  0
LINE
  8
0
  6
BYLAYER
 62
     7
 10
301.124573
 20
-426.582830
 30
0.0
 11
314.374573
 21
-426.582821
 31
0.0
  0
LINE
  8
0
  6
BYLAYER
 62
     7
 10
301.124573
 20
-436.382819
 30
0.0
 11
314.374573
 21
-436.382811
 31
0.0
  0
LINE
  8
0
  6
BYLAYER
 62
     7
 10
301.124573
 20
-437.582845
 30
0.0
 11
314.374573
 21
-437.582828
 31
0.0
  0
LINE
  8
0
  6
BYLAYER
 62
     7
 10
301.124573
 20
-447.382832
 30
0.0
 11
314.374573
 21
-447.382815
 31
0.0
  0
LINE
  8
0
  6
BYLAYER
 62
     7
 10
301.124573
 20
-448.582845
 30
0.0
 11
314.374573
 21
-448.582828
 31
0.0
  0
LINE
  8
0
  6
BYLAYER
 62
     7
 10
301.124573
 20
-425.382816
 30
0.0
 11
314.374573
 21
-425.382808
 31
0.0
  0
LINE
  8
0
  6
BYLAYER
 62
     7
 10
313.124573
 20
-415.582881
 30
0.0
 11
313.124573
 21
-425.382807
 31
0.0
  0
LINE
  8
0
  6
BYLAYER
 62
     7
 10
313.124573
 20
-426.582820
 30
0.0
 11
313.124573
 21
-436.382807
 31
0.0
  0
LINE
  8
0
  6
BYLAYER
 62
     7
 10
313.124573
 20
-437.582820
 30
0.0
 11
313.124573
 21
-447.382807
 31
0.0
  0
LINE
  8
0
  6
BYLAYER
 62
     7
 10
313.124573
 20
-448.582820
 30
0.0
 11
313.124573
 21
-450.582820
 31
0.0
  0
LINE
  8
0
  6
BYLAYER
 62
     7
 10
313.124573
 20
-450.582820
 30
0.0
 11
301.124573
 21
-450.582829
 31
0.0
  0
LINE
  8
0
  6
BYLAYER
 62
     7
 10
313.124573
 20
-450.582820
 30
0.0
 11
314.374573
 21
-450.935783
 31
0.0
  0
LINE
  8
0
  6
BYLAYER
 62
     7
 10
224.666462
 20
-451.982905
 30
0.0
 11
221.124756
 21
-452.982966
 31
0.0
  0
LINE
  8
0
  6
BYLAYER
 62
     7
 10
219.124512
 20
-464.082942
 30
0.0
 11
221.124512
 21
-464.082942
 31
0.0
  0
LINE
  8
0
  6
BYLAYER
 62
     7
 10
314.374573
 20
-475.582936
 30
0.0
 11
314.374573
 21
-414.982936
 31
0.0
  0
LINE
  8
0
  6
BYLAYER
 62
     7
 10
380.974573
 20
-465.231464
 30
0.0
 11
370.623101
 21
-475.582936
 31
0.0
  0
LINE
  8
0
  6
BYLAYER
 62
     7
 10
370.623101
 20
-475.582936
 30
0.0
 11
314.374573
 21
-475.582936
 31
0.0
  0
LINE
  8
0
  6
BYLAYER
 62
     7
 10
380.974573
 20
-414.982936
 30
0.0
 11
380.974573
 21
-465.231464
 31
0.0
  0
LINE
  8
0
  6
BYLAYER
 62
     7
 10
224.124573
 20
-394.389252
 30
0.0
 11
238.229271
 21
-394.881799
 31
0.0
  0
ARC
  8
0
  6
BYLAYER
 62
     7
 10
238.124573
 20
-397.879971
 30
0.0
 40
3.0
 50
0.0
 51
88.0
  0
LINE
  8
0
  6
BYLAYER
 62
     7
 10
241.124573
 20
-402.085839
 30
0.0
 11
241.124573
 21
-397.879971
 31
0.0
  0
LINE
  8
0
  6
BYLAYER
 62
     7
 10
221.124573
 20
-414.982966
 30
0.0
 11
221.124634
 21
-365.882990
 31
0.0
  0
LINE
  8
0
  6
BYLAYER
 62
     7
 10
314.374573
 20
-363.982908
 30
0.0
 11
271.374695
 21
-363.982966
 31
0.0
  0
LINE
  8
0
  6
BYLAYER
 62
     7
 10
314.374573
 20
-357.982908
 30
0.0
 11
271.374695
 21
-357.982966
 31
0.0
  0
LINE
  8
0
  6
BYLAYER
 62
     7
 10
314.374573
 20
-354.982908
 30
0.0
 11
271.374695
 21
-354.982966
 31
0.0
  0
LINE
  8
0
  6
BYLAYER
 62
     7
 10
221.124756
 20
-376.982905
 30
0.0
 11
224.210876
 21
-365.465266
 31
0.0
  0
ARC
  8
0
  6
BYLAYER
 62
     7
 10
226.142700
 20
-365.982905
 30
0.0
 40
1.999973
 50
89.999945
 51
164.999957
  0
LINE
  8
0
  6
BYLAYER
 62
     7
 10
221.124756
 20
-369.982905
 30
0.0
 11
222.749084
 21
-370.920710
 31
0.0
  0
LINE
  8
0
  6
BYLAYER
 62
     7
 10
221.124756
 20
-369.982905
 30
0.0
 11
223.942932
 21
-359.465266
 31
0.0
  0
ARC
  8
0
  6
BYLAYER
 62
     7
 10
225.874756
 20
-359.982905
 30
0.0
 40
1.999973
 50
89.999945
 51
164.999957
  0
ARC
  8
0
  6
BYLAYER
 62
     7
 10
225.874817
 20
-356.982905
 30
0.0
 40
2.000032
 50
89.999945
 51
164.999930
  0
LINE
  8
0
  6
BYLAYER
 62
     7
 10
221.124756
 20
-366.982905
 30
0.0
 11
223.942932
 21
-356.465266
 31
0.0
  0
LINE
  8
0
  6
BYLAYER
 62
     7
 10
226.142700
 20
-363.982905
 30
0.0
 11
271.374695
 21
-363.982966
 31
0.0
  0
LINE
  8
0
  6
BYLAYER
 62
     7
 10
225.874817
 20
-357.982905
 30
0.0
 11
271.374695
 21
-357.982966
 31
0.0
  0
LINE
  8
0
  6
BYLAYER
 62
     7
 10
225.874817
 20
-354.982905
 30
0.0
 11
271.374695
 21
-354.982966
 31
0.0
  0
LINE
  8
0
  6
BYLAYER
 62
     7
 10
221.124634
 20
-365.882990
 30
0.0
 11
221.379944
 21
-366.030390
 31
0.0
  0
LINE
  8
0
  6
BYLAYER
 62
     7
 10
301.124573
 20
-414.382990
 30
0.0
 11
314.374573
 21
-414.382990
 31
0.0
  0
LINE
  8
0
  6
BYLAYER
 62
     7
 10
301.124573
 20
-403.383042
 30
0.0
 11
314.374573
 21
-403.383050
 31
0.0
  0
LINE
  8
0
  6
BYLAYER
 62
     7
 10
301.124573
 20
-393.583052
 30
0.0
 11
314.374573
 21
-393.583060
 31
0.0
  0
LINE
  8
0
  6
BYLAYER
 62
     7
 10
301.124573
 20
-392.383027
 30
0.0
 11
314.374573
 21
-392.383043
 31
0.0
  0
LINE
  8
0
  6
BYLAYER
 62
     7
 10
301.124573
 20
-382.583040
 30
0.0
 11
314.374573
 21
-382.583056
 31
0.0
  0
LINE
  8
0
  6
BYLAYER
 62
     7
 10
301.124573
 20
-381.383027
 30
0.0
 11
314.374573
 21
-381.383043
 31
0.0
  0
LINE
  8
0
  6
BYLAYER
 62
     7
 10
301.124573
 20
-404.583055
 30
0.0
 11
314.374573
 21
-404.583064
 31
0.0
  0
LINE
  8
0
  6
BYLAYER
 62
     7
 10
313.124573
 20
-414.382990
 30
0.0
 11
313.124573
 21
-404.583064
 31
0.0
  0
LINE
  8
0
  6
BYLAYER
 62
     7
 10
313.124573
 20
-403.383051
 30
0.0
 11
313.124573
 21
-393.583064
 31
0.0
  0
LINE
  8
0
  6
BYLAYER
 62
     7
 10
313.124573
 20
-392.383051
 30
0.0
 11
313.124573
 21
-382.583064
 31
0.0
  0
LINE
  8
0
  6
BYLAYER
 62
     7
 10
313.124573
 20
-381.383051
 30
0.0
 11
313.124573
 21
-379.383051
 31
0.0
  0
LINE
  8
0
  6
BYLAYER
 62
     7
 10
313.124573
 20
-379.383051
 30
0.0
 11
301.124573
 21
-379.383042
 31
0.0
  0
LINE
  8
0
  6
BYLAYER
 62
     7
 10
313.124573
 20
-379.383051
 30
0.0
 11
314.374573
 21
-379.030088
 31
0.0
  0
LINE
  8
0
  6
BYLAYER
 62
     7
 10
224.666462
 20
-377.982966
 30
0.0
 11
221.124756
 21
-376.982905
 31
0.0
  0
LINE
  8
0
  6
BYLAYER
 62
     7
 10
219.124512
 20
-365.882929
 30
0.0
 11
221.124512
 21
-365.882929
 31
0.0
  0
LINE
  8
0
  6
BYLAYER
 62
     7
 10
314.374573
 20
-354.382936
 30
0.0
 11
314.374573
 21
-414.982936
 31
0.0
  0
LINE
  8
0
  6
BYLAYER
 62
     7
 10
380.974573
 20
-364.734407
 30
0.0
 11
370.623101
 21
-354.382936
 31
0.0
  0
LINE
  8
0
  6
BYLAYER
 62
     7
 10
370.623101
 20
-354.382936
 30
0.0
 11
314.374573
 21
-354.382936
 31
0.0
  0
LINE
  8
0
  6
BYLAYER
 62
     7
 10
380.974573
 20
-414.982936
 30
0.0
 11
380.974573
 21
-364.734407
 31
0.0
  0
LINE
  8
0
  6
BYLAYER
 62
     7
 10
192.124573
 20
-414.982935
 30
0.0
 11
192.124573
 21
-345.482935
 31
0.0
  0
LINE
  8
0
  6
BYLAYER
 62
     7
 10
192.124573
 20
-345.482935
 30
0.0
 11
192.624573
 21
-344.982935
 31
0.0
  0
LINE
  8
0
  6
BYLAYER
 62
     7
 10
203.089661
 20
-365.703028
 30
0.0
 11
219.124573
 21
-365.982935
 31
0.0
  0
LINE
  8
0
  6
BYLAYER
 62
     7
 10
201.124573
 20
-344.982935
 30
0.0
 11
201.124573
 21
-414.982935
 31
0.0
  0
ARC
  8
0
  6
BYLAYER
 62
     7
 10
203.124573
 20
-363.703333
 30
0.0
 40
2.0
 50
180.000000
 51
268.999783
  0
LINE
  8
0
  6
BYLAYER
 62
     7
 10
192.624573
 20
-344.982935
 30
0.0
 11
201.124573
 21
-344.982935
 31
0.0
  0
LINE
  8
0
  6
BYLAYER
 62
     7
 10
219.124573
 20
-365.982935
 30
0.0
 11
219.124573
 21
-414.982935
 31
0.0
  0
LINE
  8
0
  6
BYLAYER
 62
     7
 10
192.124573
 20
-414.982936
 30
0.0
 11
192.124573
 21
-484.482936
 31
0.0
  0
LINE
  8
0
  6
BYLAYER
 62
     7
 10
192.124573
 20
-484.482936
 30
0.0
 11
192.624573
 21
-484.982936
 31
0.0
  0
LINE
  8
0
  6
BYLAYER
 62
     7
 10
203.089661
 20
-464.262843
 30
0.0
 11
219.124573
 21
-463.982936
 31
0.0
  0
LINE
  8
0
  6
BYLAYER
 62
     7
 10
201.124573
 20
-484.982936
 30
0.0
 11
201.124573
 21
-414.982936
 31
0.0
  0
ARC
  8
0
  6
BYLAYER
 62
     7
 10
203.124573
 20
-466.262538
 30
0.0
 40
2.0
 50
91.000217
 51
180.0
  0
LINE
  8
0
  6
BYLAYER
 62
     7
 10
192.624573
 20
-484.982936
 30
0.0
 11
201.124573
 21
-484.982936
 31
0.0
  0
LINE
  8
0
  6
BYLAYER
 62
     7
 10
219.124573
 20
-463.982936
 30
0.0
 11
219.124573
 21
-414.982936
 31
0.0
  0
LINE
  8
0
  6
BYLAYER
 62
     7
 10
370.623101
 20
-475.582936
 30
0.0
 11
370.623101
 21
-354.382936
 31
0.0
  0
LINE
  8
0
  6
BYLAYER
 62
     1
 10
118.124558
 20
-71.982966
 30
0.0
 11
117.124558
 21
-70.982966
 31
0.0
  0
LINE
  8
0
  6
BYLAYER
 62
     1
 10
97.124562
 20
-90.982966
 30
0.0
 11
98.124562
 21
-91.982966
 31
0.0
  0
LINE
  8
0
  6
BYLAYER
 62
     1
 10
97.124569
 20
-147.982966
 30
0.0
 11
98.124569
 21
-146.982966
 31
0.0
  0
LINE
  8
0
  6
BYLAYER
 62
     1
 10
117.124573
 20
-167.982966
 30
0.0
 11
118.124573
 21
-166.982966
 31
0.0
  0
LINE
  8
0
  6
BYLAYER
 62
     1
 10
156.124573
 20
-166.982950
 30
0.0
 11
157.124573
 21
-167.982950
 31
0.0
  0
LINE
  8
0
  6
BYLAYER
 62
     1
 10
156.124558
 20
-71.982966
 30
0.0
 11
157.124558
 21
-70.982966
 31
0.0
  0
LINE
  8
0
  6
BYLAYER
 62
     1
 10
176.124573
 20
-91.982966
 30
0.0
 11
177.124573
 21
-90.982966
 31
0.0
  0
LINE
  8
0
  6
BYLAYER
 62
     1
 10
156.124573
 20
-166.982950
 30
0.0
 11
118.124573
 21
-166.982966
 31
0.0
  0
LINE
  8
0
  6
BYLAYER
 62
     1
 10
102.624558
 20
-80.732966
 30
0.0
 11
97.124562
 21
-80.732966
 31
0.0
  0
LINE
  8
0
  6
BYLAYER
 62
     1
 10
102.624558
 20
-86.982966
 30
0.0
 11
97.124562
 21
-86.982966
 31
0.0
  0
LINE
  8
0
  6
BYLAYER
 62
     1
 10
97.124569
 20
-151.732966
 30
0.0
 11
102.624573
 21
-151.732966
 31
0.0
  0
LINE
  8
0
  6
BYLAYER
 62
     1
 10
97.124569
 20
-158.232966
 30
0.0
 11
102.624573
 21
-158.232966
 31
0.0
  0
LINE
  8
0
  6
BYLAYER
 62
     1
 10
171.624573
 20
-158.232950
 30
0.0
 11
177.124573
 21
-158.232950
 31
0.0
  0
LINE
  8
0
  6
BYLAYER
 62
     1
 10
171.624573
 20
-151.732950
 30
0.0
 11
177.124573
 21
-151.732950
 31
0.0
  0
LINE
  8
0
  6
BYLAYER
 62
     1
 10
160.874573
 20
-167.982950
 30
0.0
 11
160.874573
 21
-162.482950
 31
0.0
  0
LINE
  8
0
  6
BYLAYER
 62
     1
 10
167.374573
 20
-167.982950
 30
0.0
 11
167.374573
 21
-162.482950
 31
0.0
  0
LINE
  8
0
  6
BYLAYER
 62
     1
 10
113.374573
 20
-167.982966
 30
0.0
 11
113.374573
 21
-162.482966
 31
0.0
  0
LINE
  8
0
  6
BYLAYER
 62
     1
 10
106.874573
 20
-167.982966
 30
0.0
 11
106.874573
 21
-162.482966
 31
0.0
  0
LINE
  8
0
  6
BYLAYER
 62
     1
 10
167.374558
 20
-70.982966
 30
0.0
 11
167.374573
 21
-76.482966
 31
0.0
  0
LINE
  8
0
  6
BYLAYER
 62
     1
 10
160.874558
 20
-70.982966
 30
0.0
 11
160.874573
 21
-76.482966
 31
0.0
  0
LINE
  8
0
  6
BYLAYER
 62
     1
 10
113.374558
 20
-70.982966
 30
0.0
 11
113.374558
 21
-76.482966
 31
0.0
  0
LINE
  8
0
  6
BYLAYER
 62
     1
 10
106.874558
 20
-70.982966
 30
0.0
 11
106.874558
 21
-76.482966
 31
0.0
  0
LINE
  8
0
  6
BYLAYER
 62
     1
 10
117.124558
 20
-70.982966
 30
0.0
 11
117.124558
 21
-76.482966
 31
0.0
  0
LINE
  8
0
  6
BYLAYER
 62
     1
 10
157.124558
 20
-70.982966
 30
0.0
 11
157.124573
 21
-76.482966
 31
0.0
  0
LINE
  8
0
  6
BYLAYER
 62
     1
 10
177.124573
 20
-90.982966
 30
0.0
 11
171.624573
 21
-90.982966
 31
0.0
  0
LINE
  8
0
  6
BYLAYER
 62
     1
 10
176.124573
 20
-91.982966
 30
0.0
 11
171.624573
 21
-91.982966
 31
0.0
  0
LINE
  8
0
  6
BYLAYER
 62
     1
 10
177.124573
 20
-147.982950
 30
0.0
 11
171.624573
 21
-147.982950
 31
0.0
  0
LINE
  8
0
  6
BYLAYER
 62
     1
 10
156.124573
 20
-166.982950
 30
0.0
 11
156.124573
 21
-162.482950
 31
0.0
  0
LINE
  8
0
  6
BYLAYER
 62
     1
 10
157.124573
 20
-167.982950
 30
0.0
 11
157.124573
 21
-162.482950
 31
0.0
  0
LINE
  8
0
  6
BYLAYER
 62
     1
 10
117.124573
 20
-167.982966
 30
0.0
 11
117.124573
 21
-162.482966
 31
0.0
  0
LINE
  8
0
  6
BYLAYER
 62
     1
 10
118.124573
 20
-166.982966
 30
0.0
 11
118.124573
 21
-162.482966
 31
0.0
  0
LINE
  8
0
  6
BYLAYER
 62
     1
 10
97.124569
 20
-147.982966
 30
0.0
 11
102.624573
 21
-147.982966
 31
0.0
  0
LINE
  8
0
  6
BYLAYER
 62
     1
 10
97.124562
 20
-90.982966
 30
0.0
 11
102.624558
 21
-90.982966
 31
0.0
  0
LINE
  8
0
  6
BYLAYER
 62
     1
 10
98.124569
 20
-146.982966
 30
0.0
 11
98.124562
 21
-117.982966
 31
0.0
  0
LINE
  8
0
  6
BYLAYER
 62
     1
 10
98.124562
 20
-91.982966
 30
0.0
 11
98.124562
 21
-117.982966
 31
0.0
  0
LINE
  8
0
  6
BYLAYER
 62
     1
 10
176.124573
 20
-124.982966
 30
0.0
 11
176.124573
 21
-146.982950
 31
0.0
  0
LINE
  8
0
  6
BYLAYER
 62
     1
 10
102.624558
 20
-103.865412
 30
0.0
 11
102.624558
 21
-115.219050
 31
0.0
  0
LINE
  8
0
  6
BYLAYER
 62
     1
 10
98.124569
 20
-146.982966
 30
0.0
 11
98.624569
 21
-146.982966
 31
0.0
  0
LINE
  8
0
  6
BYLAYER
 62
     1
 10
102.624573
 20
-146.982966
 30
0.0
 11
98.624569
 21
-146.982966
 31
0.0
  0
LINE
  8
0
  6
BYLAYER
 62
     1
 10
98.124562
 20
-91.982966
 30
0.0
 11
98.624562
 21
-91.982966
 31
0.0
  0
LINE
  8
0
  6
BYLAYER
 62
     1
 10
102.624558
 20
-91.982966
 30
0.0
 11
98.624562
 21
-91.982966
 31
0.0
  0
LINE
  8
0
  6
BYLAYER
 62
     1
 10
118.124558
 20
-71.982966
 30
0.0
 11
118.124558
 21
-73.982966
 31
0.0
  0
LINE
  8
0
  6
BYLAYER
 62
     1
 10
156.124558
 20
-73.982966
 30
0.0
 11
156.124558
 21
-71.982966
 31
0.0
  0
LINE
  8
0
  6
BYLAYER
 62
     1
 10
118.124558
 20
-76.482966
 30
0.0
 11
118.124558
 21
-73.982966
 31
0.0
  0
LINE
  8
0
  6
BYLAYER
 62
     1
 10
156.124558
 20
-73.982966
 30
0.0
 11
156.124573
 21
-76.482966
 31
0.0
  0
LINE
  8
0
  6
BYLAYER
 62
     1
 10
176.124573
 20
-146.982950
 30
0.0
 11
175.624573
 21
-146.982950
 31
0.0
  0
LINE
  8
0
  6
BYLAYER
 62
     1
 10
171.624573
 20
-146.982950
 30
0.0
 11
175.624573
 21
-146.982950
 31
0.0
  0
ARC
  8
0
  6
BYLAYER
 62
     1
 10
103.624573
 20
-142.232966
 30
0.0
 40
1.0
 50
180.000000
 51
269.999996
  0
LINE
  8
0
  6
BYLAYER
 62
     1
 10
102.624573
 20
-145.732966
 30
0.0
 11
102.624573
 21
-146.982966
 31
0.0
  0
ARC
  8
0
  6
BYLAYER
 62
     1
 10
103.624573
 20
-145.732966
 30
0.0
 40
1.000000
 50
90.0
 51
179.999996
  0
LINE
  8
0
  6
BYLAYER
 62
     1
 10
171.624573
 20
-146.982950
 30
0.0
 11
171.624573
 21
-145.732950
 31
0.0
  0
LINE
  8
0
  6
BYLAYER
 62
     1
 10
102.624558
 20
-103.732966
 30
0.0
 11
102.624558
 21
-103.865412
 31
0.0
  0
ARC
  8
0
  6
BYLAYER
 62
     1
 10
103.624558
 20
-103.732966
 30
0.0
 40
1.0
 50
90.0
 51
179.999996
  0
ARC
  8
0
  6
BYLAYER
 62
     1
 10
103.624558
 20
-100.232966
 30
0.0
 40
1.0
 50
180.000000
 51
269.999996
  0
CIRCLE
  8
0
  6
BYLAYER
 62
     1
 10
137.124573
 20
-127.982935
 30
0.0
 40
23.500000
  0
LINE
  8
0
  6
BYLAYER
 62
     1
 10
171.624573
 20
-91.998804
 30
0.0
 11
171.624573
 21
-90.982966
 31
0.0
  0
CIRCLE
  8
0
  6
BYLAYER
 62
     1
 10
137.124558
 20
-95.482966
 30
0.0
 40
2.300003
  0
CIRCLE
  8
0
  6
BYLAYER
 62
     1
 10
104.624573
 20
-127.982966
 30
0.0
 40
2.300003
  0
CIRCLE
  8
0
  6
BYLAYER
 62
     1
 10
137.124573
 20
-160.482950
 30
0.0
 40
2.300003
  0
ARC
  8
0
  6
BYLAYER
 62
     1
 10
107.124573
 20
-142.232966
 30
0.0
 40
1.0
 50
180.000000
 51
269.999996
  0
ARC
  8
0
  6
BYLAYER
 62
     1
 10
107.124573
 20
-145.732966
 30
0.0
 40
1.000000
 50
90.0
 51
179.999996
  0
ARC
  8
0
  6
BYLAYER
 62
     1
 10
137.124558
 20
-95.482966
 30
0.0
 40
3.000006
 50
67.576061
 51
374.380645
  0
ARC
  8
0
  6
BYLAYER
 62
     1
 10
104.624588
 20
-127.982966
 30
0.0
 40
3.000006
 50
157.576070
 51
464.380627
  0
ARC
  8
0
  6
BYLAYER
 62
     1
 10
137.124573
 20
-160.482935
 30
0.0
 40
3.0
 50
247.576053
 51
554.380637
  0
LINE
  8
0
  6
BYLAYER
 62
     1
 10
103.624558
 20
-76.482966
 30
0.0
 11
118.124558
 21
-76.482966
 31
0.0
  0
ARC
  8
0
  6
BYLAYER
 62
     1
 10
103.624558
 20
-77.482966
 30
0.0
 40
1.0
 50
90.0
 51
180.000003
  0
LINE
  8
0
  6
BYLAYER
 62
     1
 10
156.124573
 20
-76.482966
 30
0.0
 11
170.624573
 21
-76.482966
 31
0.0
  0
LINE
  8
0
  6
BYLAYER
 62
     1
 10
171.624573
 20
-90.982966
 30
0.0
 11
171.624573
 21
-77.482966
 31
0.0
  0
ARC
  8
0
  6
BYLAYER
 62
     1
 10
170.624573
 20
-77.482966
 30
0.0
 40
1.000000
 50
0.0
 51
90.000003
  0
LINE
  8
0
  6
BYLAYER
 62
     1
 10
102.624573
 20
-146.982966
 30
0.0
 11
102.624573
 21
-161.482966
 31
0.0
  0
ARC
  8
0
  6
BYLAYER
 62
     1
 10
103.624573
 20
-161.482966
 30
0.0
 40
1.0
 50
180.000000
 51
269.999996
  0
LINE
  8
0
  6
BYLAYER
 62
     1
 10
171.624573
 20
-161.482950
 30
0.0
 11
171.624573
 21
-146.982950
 31
0.0
  0
ARC
  8
0
  6
BYLAYER
 62
     1
 10
170.624573
 20
-161.482950
 30
0.0
 40
1.000000
 50
270.0
 51
360.000003
  0
LINE
  8
0
  6
BYLAYER
 62
     1
 10
168.124573
 20
-157.982950
 30
0.0
 11
168.124573
 21
-145.732950
 31
0.0
  0
ARC
  8
0
  6
BYLAYER
 62
     1
 10
167.124573
 20
-157.982950
 30
0.0
 40
1.000000
 50
270.0
 51
360.000003
  0
LINE
  8
0
  6
BYLAYER
 62
     1
 10
106.124573
 20
-157.982966
 30
0.0
 11
106.124573
 21
-145.732966
 31
0.0
  0
ARC
  8
0
  6
BYLAYER
 62
     1
 10
107.124573
 20
-157.982966
 30
0.0
 40
1.0
 50
180.000000
 51
269.999996
  0
LINE
  8
0
  6
BYLAYER
 62
     1
 10
102.917465
 20
-162.190073
 30
0.0
 11
106.417465
 21
-158.690073
 31
0.0
  0
LINE
  8
0
  6
BYLAYER
 62
     1
 10
171.331681
 20
-162.190058
 30
0.0
 11
167.831681
 21
-158.690058
 31
0.0
  0
LINE
  8
0
  6
BYLAYER
 62
     1
 10
103.624573
 20
-143.232966
 30
0.0
 11
109.374573
 21
-143.232966
 31
0.0
  0
LINE
  8
0
  6
BYLAYER
 62
     1
 10
109.374573
 20
-144.732966
 30
0.0
 11
103.624573
 21
-144.732966
 31
0.0
  0
ARC
  8
0
  6
BYLAYER
 62
     1
 10
109.374573
 20
-143.982966
 30
0.0
 40
0.75
 50
270.0
 51
450.000005
  0
LINE
  8
0
  6
BYLAYER
 62
     1
 10
177.124588
 20
-93.223841
 30
0.0
 11
178.124588
 21
-93.223841
 31
0.0
  0
ARC
  8
0
  6
BYLAYER
 62
     1
 10
177.124588
 20
-92.223841
 30
0.0
 40
1.000000
 50
180.000000
 51
269.999996
  0
LINE
  8
0
  6
BYLAYER
 62
     1
 10
177.124588
 20
-95.803492
 30
0.0
 11
178.124588
 21
-95.803492
 31
0.0
  0
ARC
  8
0
  6
BYLAYER
 62
     1
 10
177.124588
 20
-94.803492
 30
0.0
 40
1.000000
 50
180.000000
 51
269.999996
  0
LINE
  8
0
  6
BYLAYER
 62
     1
 10
177.124588
 20
-100.162378
 30
0.0
 11
178.124588
 21
-100.162378
 31
0.0
  0
ARC
  8
0
  6
BYLAYER
 62
     1
 10
177.124588
 20
-101.162378
 30
0.0
 40
1.000000
 50
90.0
 51
180.000009
  0
LINE
  8
0
  6
BYLAYER
 62
     1
 10
178.124588
 20
-102.742029
 30
0.0
 11
176.124588
 21
-102.811884
 31
0.0
  0
ARC
  8
0
  6
BYLAYER
 62
     1
 10
170.624588
 20
-92.223841
 30
0.0
 40
1.000000
 50
270.0
 51
359.999982
  0
LINE
  8
0
  6
BYLAYER
 62
     1
 10
170.624588
 20
-93.223841
 30
0.0
 11
164.124588
 21
-93.223841
 31
0.0
  0
ARC
  8
0
  6
BYLAYER
 62
     1
 10
161.124588
 20
-100.232935
 30
0.0
 40
1.000000
 50
270.0
 51
359.999982
  0
ARC
  8
0
  6
BYLAYER
 62
     1
 10
109.124588
 20
-104.732935
 30
0.0
 40
2.0
 50
0.0
 51
90.000016
  0
ARC
  8
0
  6
BYLAYER
 62
     1
 10
103.624588
 20
-114.479944
 30
0.0
 40
1.000000
 50
90.0
 51
180.000009
  0
LINE
  8
0
  6
BYLAYER
 62
     1
 10
176.124573
 20
-94.803492
 30
0.0
 11
176.124573
 21
-91.982966
 31
0.0
  0
LINE
  8
0
  6
BYLAYER
 62
     1
 10
176.124573
 20
-124.965509
 30
0.0
 11
176.124573
 21
-101.162378
 31
0.0
  0
LINE
  8
0
  6
BYLAYER
 62
     1
 10
171.624573
 20
-92.229365
 30
0.0
 11
171.624573
 21
-113.654963
 31
0.0
  0
LINE
  8
0
  6
BYLAYER
 62
     1
 10
117.124558
 20
-70.982966
 30
0.0
 11
100.124562
 21
-70.982966
 31
0.0
  0
LINE
  8
0
  6
BYLAYER
 62
     1
 10
100.124562
 20
-70.982966
 30
0.0
 11
97.124562
 21
-73.982966
 31
0.0
  0
LINE
  8
0
  6
BYLAYER
 62
     1
 10
177.124573
 20
-90.982966
 30
0.0
 11
177.124573
 21
-73.982966
 31
0.0
  0
LINE
  8
0
  6
BYLAYER
 62
     1
 10
177.124573
 20
-73.982966
 30
0.0
 11
174.124558
 21
-70.982966
 31
0.0
  0
LINE
  8
0
  6
BYLAYER
 62
     1
 10
157.124573
 20
-167.982950
 30
0.0
 11
174.124573
 21
-167.982950
 31
0.0
  0
LINE
  8
0
  6
BYLAYER
 62
     1
 10
174.124573
 20
-167.982950
 30
0.0
 11
177.124573
 21
-164.982950
 31
0.0
  0
LINE
  8
0
  6
BYLAYER
 62
     1
 10
177.124573
 20
-164.982950
 30
0.0
 11
177.124573
 21
-147.982950
 31
0.0
  0
LINE
  8
0
  6
BYLAYER
 62
     1
 10
117.124573
 20
-167.982966
 30
0.0
 11
100.124569
 21
-167.982966
 31
0.0
  0
LINE
  8
0
  6
BYLAYER
 62
     1
 10
100.124569
 20
-167.982966
 30
0.0
 11
97.124569
 21
-164.982966
 31
0.0
  0
LINE
  8
0
  6
BYLAYER
 62
     1
 10
97.124569
 20
-164.982966
 30
0.0
 11
97.124569
 21
-147.982966
 31
0.0
  0
LINE
  8
0
  6
BYLAYER
 62
     1
 10
157.124558
 20
-70.982966
 30
0.0
 11
178.124558
 21
-70.982966
 31
0.0
  0
LINE
  8
0
  6
BYLAYER
 62
     1
 10
97.124562
 20
-116.982966
 30
0.0
 11
97.124562
 21
-71.982966
 31
0.0
  0
LINE
  8
0
  6
BYLAYER
 62
     1
 10
156.124558
 20
-71.982966
 30
0.0
 11
118.124558
 21
-71.982966
 31
0.0
  0
LINE
  8
0
  6
BYLAYER
 62
     1
 10
99.124562
 20
-71.982966
 30
0.0
 11
97.124562
 21
-71.982966
 31
0.0
  0
LINE
  8
0
  6
BYLAYER
 62
     1
 10
177.124573
 20
-77.016260
 30
0.0
 11
178.124558
 21
-77.016260
 31
0.0
  0
LINE
  8
0
  6
BYLAYER
 62
     1
 10
176.124573
 20
-118.949579
 30
0.0
 11
178.124573
 21
-118.949579
 31
0.0
  0
LINE
  8
0
  6
BYLAYER
 62
     1
 10
178.124573
 20
-125.482935
 30
0.0
 11
176.124573
 21
-125.552790
 31
0.0
  0
LINE
  8
0
  6
BYLAYER
 62
     1
 10
178.124573
 20
-125.482935
 30
0.0
 11
178.124558
 21
-70.982966
 31
0.0
  0
LINE
  8
0
  6
BYLAYER
 62
     1
 10
97.124562
 20
-116.982966
 30
0.0
 11
98.124562
 21
-117.017878
 31
0.0
  0
LINE
  8
0
  6
BYLAYER
 62
     1
 10
156.124573
 20
-76.482966
 30
0.0
 11
155.124558
 21
-77.482966
 31
0.0
  0
LINE
  8
0
  6
BYLAYER
 62
     1
 10
119.124573
 20
-77.482966
 30
0.0
 11
155.124558
 21
-77.482966
 31
0.0
  0
LINE
  8
0
  6
BYLAYER
 62
     1
 10
118.124558
 20
-76.482966
 30
0.0
 11
119.124573
 21
-77.482966
 31
0.0
  0
ARC
  8
0
  6
BYLAYER
 62
     1
 10
172.459458
 20
-131.402796
 30
0.0
 40
1.999996
 50
284.999998
 51
354.471300
  0
ARC
  8
0
  6
BYLAYER
 62
     1
 10
137.124573
 20
-127.982935
 30
0.0
 40
37.499989
 50
354.471846
 51
365.528143
  0
ARC
  8
0
  6
BYLAYER
 62
     1
 10
172.459458
 20
-124.563044
 30
0.0
 40
1.999993
 50
5.527821
 51
74.999765
  0
ARC
  8
0
  6
BYLAYER
 62
     1
 10
137.124573
 20
-127.982935
 30
0.0
 40
37.499973
 50
84.471852
 51
95.528146
  0
ARC
  8
0
  6
BYLAYER
 62
     1
 10
137.124573
 20
-127.982935
 30
0.0
 40
37.499992
 50
174.471868
 51
185.528142
  0
ARC
  8
0
  6
BYLAYER
 62
     1
 10
137.124573
 20
-127.982935
 30
0.0
 40
37.499989
 50
264.471837
 51
275.528137
  0
ARC
  8
0
  6
BYLAYER
 62
     1
 10
133.704682
 20
-92.648035
 30
0.0
 40
1.999963
 50
95.527825
 51
164.999776
  0
ARC
  8
0
  6
BYLAYER
 62
     1
 10
101.789688
 20
-131.402826
 30
0.0
 40
1.999997
 50
185.527827
 51
254.999758
  0
ARC
  8
0
  6
BYLAYER
 62
     1
 10
140.544464
 20
-163.317820
 30
0.0
 40
1.999993
 50
275.527809
 51
344.999767
  0
LINE
  8
0
  6
BYLAYER
 62
     1
 10
131.772858
 20
-92.130396
 30
0.0
 11
129.366822
 21
-101.109705
 31
0.0
  0
LINE
  8
0
  6
BYLAYER
 62
     1
 10
101.272049
 20
-133.334650
 30
0.0
 11
110.251358
 21
-135.740686
 31
0.0
  0
LINE
  8
0
  6
BYLAYER
 62
     1
 10
142.476288
 20
-163.835459
 30
0.0
 11
144.882324
 21
-154.856150
 31
0.0
  0
ARC
  8
0
  6
BYLAYER
 62
     1
 10
109.992539
 20
-136.706598
 30
0.0
 40
0.999994
 50
17.823935
 51
74.999773
  0
ARC
  8
0
  6
BYLAYER
 62
     1
 10
145.848236
 20
-155.114969
 30
0.0
 40
0.999994
 50
107.823914
 51
164.999762
  0
ARC
  8
0
  6
BYLAYER
 62
     1
 10
98.955517
 20
-136.913996
 30
0.0
 40
12.000010
 50
2.452622
 51
13.169571
  0
ARC
  8
0
  6
BYLAYER
 62
     1
 10
146.055634
 20
-166.151987
 30
0.0
 40
12.000007
 50
92.452600
 51
103.169550
  0
ARC
  8
0
  6
BYLAYER
 62
     1
 10
137.124573
 20
-127.982935
 30
0.0
 40
27.200003
 50
76.830483
 51
103.169516
  0
ARC
  8
0
  6
BYLAYER
 62
     1
 10
137.124573
 20
-127.982935
 30
0.0
 40
27.200003
 50
166.830471
 51
193.169511
  0
ARC
  8
0
  6
BYLAYER
 62
     1
 10
137.124573
 20
-127.982935
 30
0.0
 40
27.200003
 50
256.830440
 51
283.169507
  0
ARC
  8
0
  6
BYLAYER
 62
     1
 10
98.955517
 20
-119.051874
 30
0.0
 40
12.000010
 50
346.830422
 51
357.547398
  0
ARC
  8
0
  6
BYLAYER
 62
     1
 10
128.193512
 20
-166.151987
 30
0.0
 40
12.000007
 50
76.830428
 51
87.547377
  0
ARC
  8
0
  6
BYLAYER
 62
     1
 10
109.992539
 20
-119.259272
 30
0.0
 40
0.999994
 50
285.000244
 51
342.176058
  0
ARC
  8
0
  6
BYLAYER
 62
     1
 10
128.400910
 20
-155.114969
 30
0.0
 40
0.999994
 50
15.000226
 51
72.176064
  0
LINE
  8
0
  6
BYLAYER
 62
     1
 10
144.882324
 20
-101.109705
 30
0.0
 11
142.476288
 21
-92.130396
 31
0.0
  0
LINE
  8
0
  6
BYLAYER
 62
     1
 10
110.251358
 20
-120.225184
 30
0.0
 11
101.272049
 21
-122.631220
 31
0.0
  0
LINE
  8
0
  6
BYLAYER
 62
     1
 10
129.366822
 20
-154.856150
 30
0.0
 11
131.772858
 21
-163.835459
 31
0.0
  0
ARC
  8
0
  6
BYLAYER
 62
     1
 10
140.544434
 20
-92.648035
 30
0.0
 40
1.999966
 50
15.000011
 51
84.471306
  0
ARC
  8
0
  6
BYLAYER
 62
     1
 10
101.789688
 20
-124.563074
 30
0.0
 40
2.0
 50
104.999986
 51
174.471322
  0
ARC
  8
0
  6
BYLAYER
 62
     1
 10
133.704712
 20
-163.317820
 30
0.0
 40
1.999996
 50
194.999975
 51
264.471290
  0
ARC
  8
0
  6
BYLAYER
 62
     1
 10
137.124573
 20
-127.982935
 30
0.0
 40
27.499998
 50
17.823966
 51
72.176009
  0
ARC
  8
0
  6
BYLAYER
 62
     1
 10
137.124573
 20
-127.982935
 30
0.0
 40
27.499989
 50
107.823989
 51
162.176025
  0
ARC
  8
0
  6
BYLAYER
 62
     1
 10
137.124573
 20
-127.982935
 30
0.0
 40
27.499979
 50
287.823953
 51
342.17603
  0
ARC
  8
0
  6
BYLAYER
 62
     1
 10
137.124573
 20
-127.982935
 30
0.0
 40
27.499985
 50
197.823971
 51
252.176048
  0
LINE
  8
0
  6
BYLAYER
 62
     1
 10
103.624588
 20
-113.479944
 30
0.0
 11
109.124588
 21
-113.479944
 31
0.0
  0
LINE
  8
0
  6
BYLAYER
 62
     1
 10
111.124588
 20
-111.479944
 30
0.0
 11
111.124588
 21
-104.732935
 31
0.0
  0
ARC
  8
0
  6
BYLAYER
 62
     1
 10
109.124588
 20
-111.479944
 30
0.0
 40
2.000000
 50
270.0
 51
360.000003
  0
LINE
  8
0
  6
BYLAYER
 62
     1
 10
102.624558
 20
-120.965570
 30
0.0
 11
102.624558
 21
-115.219050
 31
0.0
  0
ARC
  8
0
  6
BYLAYER
 62
     1
 10
103.624558
 20
-120.965570
 30
0.0
 40
1.0
 50
180.000000
 51
285.000211
  0
LINE
  8
0
  6
BYLAYER
 62
     1
 10
102.624573
 20
-142.232966
 30
0.0
 11
102.624573
 21
-135.000300
 31
0.0
  0
ARC
  8
0
  6
BYLAYER
 62
     1
 10
103.624573
 20
-135.000300
 30
0.0
 40
1.000016
 50
74.999794
 51
180.000005
  0
LINE
  8
0
  6
BYLAYER
 62
     1
 10
106.124573
 20
-134.679071
 30
0.0
 11
106.124573
 21
-142.232966
 31
0.0
  0
LINE
  8
0
  6
BYLAYER
 62
     1
 10
106.124619
 20
-121.286768
 30
0.0
 11
106.124619
 21
-113.479944
 31
0.0
  0
LINE
  8
0
  6
BYLAYER
 62
     1
 10
130.428421
 20
-158.982950
 30
0.0
 11
107.124573
 21
-158.983027
 31
0.0
  0
ARC
  8
0
  6
BYLAYER
 62
     1
 10
130.107208
 20
-161.482950
 30
0.0
 40
1.0
 50
270.0
 51
375.000013
  0
LINE
  8
0
  6
BYLAYER
 62
     1
 10
167.124573
 20
-158.982950
 30
0.0
 11
143.820709
 21
-158.982950
 31
0.0
  0
LINE
  8
0
  6
BYLAYER
 62
     1
 10
170.624573
 20
-162.482950
 30
0.0
 11
144.141922
 21
-162.482950
 31
0.0
  0
ARC
  8
0
  6
BYLAYER
 62
     1
 10
144.141922
 20
-161.482950
 30
0.0
 40
1.000001
 50
164.999994
 51
270.000001
  0
LINE
  8
0
  6
BYLAYER
 62
     1
 10
103.624573
 20
-162.483011
 30
0.0
 11
130.107208
 21
-162.482950
 31
0.0
  0
LINE
  8
0
  6
BYLAYER
 62
     1
 10
103.624558
 20
-101.232966
 30
0.0
 11
119.374581
 21
-101.232966
 31
0.0
  0
LINE
  8
0
  6
BYLAYER
 62
     1
 10
103.624558
 20
-102.732966
 30
0.0
 11
119.374581
 21
-102.732966
 31
0.0
  0
ARC
  8
0
  6
BYLAYER
 62
     1
 10
103.624558
 20
-92.232966
 30
0.0
 40
1.0
 50
180.000000
 51
269.999996
  0
LINE
  8
0
  6
BYLAYER
 62
     1
 10
126.874558
 20
-93.232966
 30
0.0
 11
103.624558
 21
-93.232966
 31
0.0
  0
ARC
  8
0
  6
BYLAYER
 62
     1
 10
126.874558
 20
-93.982966
 30
0.0
 40
0.750000
 50
0.0
 51
90.000003
  0
ARC
  8
0
  6
BYLAYER
 62
     1
 10
126.874558
 20
-94.020807
 30
0.0
 40
0.750001
 50
270.0
 51
360.000003
  0
LINE
  8
0
  6
BYLAYER
 62
     1
 10
127.624558
 20
-93.982966
 30
0.0
 11
127.624558
 21
-94.020807
 31
0.0
  0
LINE
  8
0
  6
BYLAYER
 62
     1
 10
126.874558
 20
-94.770807
 30
0.0
 11
103.624558
 21
-94.770807
 31
0.0
  0
ARC
  8
0
  6
BYLAYER
 62
     1
 10
103.624558
 20
-95.770807
 30
0.0
 40
1.0
 50
90.0
 51
179.999996
  0
ARC
  8
0
  6
BYLAYER
 62
     1
 10
147.374588
 20
-93.982966
 30
0.0
 40
0.750000
 50
90.0
 51
180.000003
  0
ARC
  8
0
  6
BYLAYER
 62
     1
 10
147.374588
 20
-94.020807
 30
0.0
 40
0.750001
 50
180.000000
 51
269.999996
  0
LINE
  8
0
  6
BYLAYER
 62
     1
 10
102.624558
 20
-100.232966
 30
0.0
 11
102.624558
 21
-95.770807
 31
0.0
  0
LINE
  8
0
  6
BYLAYER
 62
     1
 10
102.624558
 20
-77.482966
 30
0.0
 11
102.624558
 21
-92.232966
 31
0.0
  0
LINE
  8
0
  6
BYLAYER
 62
     1
 10
163.933762
 20
-93.232966
 30
0.0
 11
147.374588
 21
-93.232966
 31
0.0
  0
LINE
  8
0
  6
BYLAYER
 62
     1
 10
147.374588
 20
-94.770807
 30
0.0
 11
161.124588
 21
-94.770807
 31
0.0
  0
ARC
  8
0
  6
BYLAYER
 62
     1
 10
161.124588
 20
-95.770807
 30
0.0
 40
1.0
 50
0.0
 51
90.000003
  0
LINE
  8
0
  6
BYLAYER
 62
     1
 10
177.124573
 20
-147.982950
 30
0.0
 11
176.124573
 21
-146.982950
 31
0.0
  0
LINE
  8
0
  6
BYLAYER
 62
     1
 10
162.124588
 20
-100.232935
 30
0.0
 11
162.124588
 21
-95.770807
 31
0.0
  0
ARC
  8
0
  6
BYLAYER
 62
     1
 10
130.858435
 20
-85.671267
 30
0.0
 40
1.149491
 50
270.0
 51
308.795511
  0
ARC
  8
0
  6
BYLAYER
 62
     1
 10
130.747194
 20
-85.552795
 30
0.0
 40
1.311583
 50
309.340351
 51
360.0
  0
ARC
  8
0
  6
BYLAYER
 62
     1
 10
130.747194
 20
-85.552795
 30
0.0
 40
1.311583
 50
0.0
 51
50.659649
  0
ARC
  8
0
  6
BYLAYER
 62
     1
 10
130.858435
 20
-85.434323
 30
0.0
 40
1.149491
 50
51.204489
 51
90.000000
  0
ARC
  8
0
  6
BYLAYER
 62
     1
 10
130.858435
 20
-85.434313
 30
0.0
 40
1.149480
 50
90.0
 51
128.795693
  0
ARC
  8
0
  6
BYLAYER
 62
     1
 10
130.969686
 20
-85.552795
 30
0.0
 40
1.311587
 50
129.340576
 51
180.0
  0
ARC
  8
0
  6
BYLAYER
 62
     1
 10
130.969686
 20
-85.552795
 30
0.0
 40
1.311587
 50
180.000000
 51
230.659424
  0
ARC
  8
0
  6
BYLAYER
 62
     1
 10
130.858435
 20
-85.671277
 30
0.0
 40
1.149480
 50
231.204307
 51
270.000000
  0
ARC
  8
0
  6
BYLAYER
 62
     1
 10
130.858435
 20
-85.215535
 30
0.0
 40
0.531899
 50
90.0
 51
140.793201
  0
ARC
  8
0
  6
BYLAYER
 62
     1
 10
131.271857
 20
-85.552795
 30
0.0
 40
1.065436
 50
140.793201
 51
180.0
  0
ARC
  8
0
  6
BYLAYER
 62
     1
 10
131.271850
 20
-85.552795
 30
0.0
 40
1.065430
 50
180.000000
 51
219.206869
  0
ARC
  8
0
  6
BYLAYER
 62
     1
 10
130.858435
 20
-85.890051
 30
0.0
 40
0.531900
 50
219.206869
 51
270.000000
  0
ARC
  8
0
  6
BYLAYER
 62
     1
 10
130.858435
 20
-85.890051
 30
0.0
 40
0.531900
 50
270.0
 51
320.793131
  0
ARC
  8
0
  6
BYLAYER
 62
     1
 10
130.445019
 20
-85.552795
 30
0.0
 40
1.065430
 50
320.793131
 51
360.0
  0
ARC
  8
0
  6
BYLAYER
 62
     1
 10
130.445013
 20
-85.552795
 30
0.0
 40
1.065436
 50
0.0
 51
39.206799
  0
ARC
  8
0
  6
BYLAYER
 62
     1
 10
130.858435
 20
-85.215535
 30
0.0
 40
0.531899
 50
39.206799
 51
90.000000
  0
LINE
  8
0
  6
BYLAYER
 62
     1
 10
126.919299
 20
-86.736224
 30
0.0
 11
126.919299
 21
-84.335547
 31
0.0
  0
LINE
  8
0
  6
BYLAYER
 62
     1
 10
126.919299
 20
-84.335547
 30
0.0
 11
127.895349
 21
-84.335547
 31
0.0
  0
LINE
  8
0
  6
BYLAYER
 62
     1
 10
127.895349
 20
-84.335547
 30
0.0
 11
128.221075
 21
-85.586609
 31
0.0
  0
LINE
  8
0
  6
BYLAYER
 62
     1
 10
126.919299
 20
-86.736224
 30
0.0
 11
127.505383
 21
-86.736224
 31
0.0
  0
LINE
  8
0
  6
BYLAYER
 62
     1
 10
127.505383
 20
-86.736224
 30
0.0
 11
127.505383
 21
-85.349920
 31
0.0
  0
LINE
  8
0
  6
BYLAYER
 62
     1
 10
127.967480
 20
-86.736224
 30
0.0
 11
127.505383
 21
-85.349920
 31
0.0
  0
LINE
  8
0
  6
BYLAYER
 62
     1
 10
129.522851
 20
-86.736224
 30
0.0
 11
129.522851
 21
-84.335547
 31
0.0
  0
LINE
  8
0
  6
BYLAYER
 62
     1
 10
129.522851
 20
-84.335547
 30
0.0
 11
128.546802
 21
-84.335547
 31
0.0
  0
LINE
  8
0
  6
BYLAYER
 62
     1
 10
128.546802
 20
-84.335547
 30
0.0
 11
128.221075
 21
-85.586609
 31
0.0
  0
LINE
  8
0
  6
BYLAYER
 62
     1
 10
129.522851
 20
-86.736224
 30
0.0
 11
128.936767
 21
-86.736224
 31
0.0
  0
LINE
  8
0
  6
BYLAYER
 62
     1
 10
128.936767
 20
-86.736224
 30
0.0
 11
128.936767
 21
-85.349920
 31
0.0
  0
LINE
  8
0
  6
BYLAYER
 62
     1
 10
128.474670
 20
-86.736224
 30
0.0
 11
128.936767
 21
-85.349920
 31
0.0
  0
LINE
  8
0
  6
BYLAYER
 62
     1
 10
128.474670
 20
-86.736224
 30
0.0
 11
127.967480
 21
-86.736224
 31
0.0
  0
LINE
  8
0
  6
BYLAYER
 62
     1
 10
138.111187
 20
-86.736224
 30
0.0
 11
139.024115
 21
-84.335547
 31
0.0
  0
LINE
  8
0
  6
BYLAYER
 62
     1
 10
138.111187
 20
-86.736224
 30
0.0
 11
138.888873
 21
-86.736224
 31
0.0
  0
LINE
  8
0
  6
BYLAYER
 62
     1
 10
139.024115
 20
-84.335547
 30
0.0
 11
139.767987
 21
-84.335547
 31
0.0
  0
LINE
  8
0
  6
BYLAYER
 62
     1
 10
138.888873
 20
-86.736224
 30
0.0
 11
139.004144
 21
-86.398101
 31
0.0
  0
LINE
  8
0
  6
BYLAYER
 62
     1
 10
139.188568
 20
-85.857104
 30
0.0
 11
139.396051
 21
-85.248480
 31
0.0
  0
LINE
  8
0
  6
BYLAYER
 62
     1
 10
140.680926
 20
-86.736224
 30
0.0
 11
139.767987
 21
-84.335547
 31
0.0
  0
LINE
  8
0
  6
BYLAYER
 62
     1
 10
140.680926
 20
-86.736224
 30
0.0
 11
139.903241
 21
-86.736224
 31
0.0
  0
LINE
  8
0
  6
BYLAYER
 62
     1
 10
139.787970
 20
-86.398101
 30
0.0
 11
139.004144
 21
-86.398101
 31
0.0
  0
LINE
  8
0
  6
BYLAYER
 62
     1
 10
139.603534
 20
-85.857104
 30
0.0
 11
139.188568
 21
-85.857104
 31
0.0
  0
LINE
  8
0
  6
BYLAYER
 62
     1
 10
139.903241
 20
-86.736224
 30
0.0
 11
139.787970
 21
-86.398101
 31
0.0
  0
LINE
  8
0
  6
BYLAYER
 62
     1
 10
139.603534
 20
-85.857104
 30
0.0
 11
139.396051
 21
-85.248480
 31
0.0
  0
LINE
  8
0
  6
BYLAYER
 62
     1
 10
132.058777
 20
-84.927264
 30
0.0
 11
132.735022
 21
-84.927264
 31
0.0
  0
LINE
  8
0
  6
BYLAYER
 62
     1
 10
132.735022
 20
-84.927264
 30
0.0
 11
132.735022
 21
-86.736224
 31
0.0
  0
LINE
  8
0
  6
BYLAYER
 62
     1
 10
132.735022
 20
-86.736224
 30
0.0
 11
133.478900
 21
-86.736224
 31
0.0
  0
LINE
  8
0
  6
BYLAYER
 62
     1
 10
133.478900
 20
-86.736224
 30
0.0
 11
133.478900
 21
-84.927264
 31
0.0
  0
LINE
  8
0
  6
BYLAYER
 62
     1
 10
133.478900
 20
-84.927264
 30
0.0
 11
134.155145
 21
-84.927264
 31
0.0
  0
LINE
  8
0
  6
BYLAYER
 62
     1
 10
134.155145
 20
-84.927264
 30
0.0
 11
134.155145
 21
-84.335547
 31
0.0
  0
LINE
  8
0
  6
BYLAYER
 62
     1
 10
134.155145
 20
-84.335547
 30
0.0
 11
132.058777
 21
-84.335547
 31
0.0
  0
LINE
  8
0
  6
BYLAYER
 62
     1
 10
132.058777
 20
-84.335547
 30
0.0
 11
132.058777
 21
-84.927264
 31
0.0
  0
ARC
  8
0
  6
BYLAYER
 62
     1
 10
135.355481
 20
-85.671277
 30
0.0
 40
1.149480
 50
270.0
 51
308.795693
  0
ARC
  8
0
  6
BYLAYER
 62
     1
 10
135.244229
 20
-85.552795
 30
0.0
 40
1.311587
 50
309.340576
 51
360.0
  0
ARC
  8
0
  6
BYLAYER
 62
     1
 10
135.244234
 20
-85.552795
 30
0.0
 40
1.311583
 50
0.0
 51
50.659649
  0
ARC
  8
0
  6
BYLAYER
 62
     1
 10
135.355475
 20
-85.434323
 30
0.0
 40
1.149491
 50
51.204489
 51
90.000000
  0
ARC
  8
0
  6
BYLAYER
 62
     1
 10
135.355475
 20
-85.434313
 30
0.0
 40
1.149480
 50
90.0
 51
128.795693
  0
ARC
  8
0
  6
BYLAYER
 62
     1
 10
135.466726
 20
-85.552795
 30
0.0
 40
1.311587
 50
129.340576
 51
180.000000
  0
ARC
  8
0
  6
BYLAYER
 62
     1
 10
135.466721
 20
-85.552795
 30
0.0
 40
1.311583
 50
180.000000
 51
230.659649
  0
ARC
  8
0
  6
BYLAYER
 62
     1
 10
135.355481
 20
-85.671267
 30
0.0
 40
1.149491
 50
231.204489
 51
270.000000
  0
ARC
  8
0
  6
BYLAYER
 62
     1
 10
135.355475
 20
-85.215535
 30
0.0
 40
0.531899
 50
90.0
 51
140.793201
  0
ARC
  8
0
  6
BYLAYER
 62
     1
 10
135.768896
 20
-85.552795
 30
0.0
 40
1.065436
 50
140.793201
 51
180.0
  0
ARC
  8
0
  6
BYLAYER
 62
     1
 10
135.768883
 20
-85.552795
 30
0.0
 40
1.065422
 50
180.000000
 51
219.207055
  0
ARC
  8
0
  6
BYLAYER
 62
     1
 10
135.355481
 20
-85.890042
 30
0.0
 40
0.531908
 50
219.207055
 51
270.0
  0
ARC
  8
0
  6
BYLAYER
 62
     1
 10
135.355481
 20
-85.890051
 30
0.0
 40
0.531900
 50
270.0
 51
320.793131
  0
ARC
  8
0
  6
BYLAYER
 62
     1
 10
134.942065
 20
-85.552795
 30
0.0
 40
1.065430
 50
320.793131
 51
360.000000
  0
ARC
  8
0
  6
BYLAYER
 62
     1
 10
134.942066
 20
-85.552795
 30
0.0
 40
1.065429
 50
0.0
 51
39.206985
  0
ARC
  8
0
  6
BYLAYER
 62
     1
 10
135.355475
 20
-85.215543
 30
0.0
 40
0.531907
 50
39.206985
 51
90.000000
  0
LINE
  8
0
  6
BYLAYER
 62
     1
 10
140.745721
 20
-86.736224
 30
0.0
 11
140.745721
 21
-84.335547
 31
0.0
  0
LINE
  8
0
  6
BYLAYER
 62
     1
 10
140.745721
 20
-84.335547
 30
0.0
 11
142.233459
 21
-84.335547
 31
0.0
  0
ARC
  8
0
  6
BYLAYER
 62
     1
 10
142.233459
 20
-85.011798
 30
0.0
 40
0.676244
 50
287.134650
 51
450.000006
  0
ARC
  8
0
  6
BYLAYER
 62
     1
 10
142.368713
 20
-86.195227
 30
0.0
 40
0.540997
 50
0.0
 51
83.207557
  0
LINE
  8
0
  6
BYLAYER
 62
     1
 10
142.909710
 20
-86.195227
 30
0.0
 11
142.909710
 21
-86.533349
 31
0.0
  0
ARC
  8
0
  6
BYLAYER
 62
     1
 10
143.450707
 20
-86.533349
 30
0.0
 40
0.540997
 50
180.000000
 51
202.024314
  0
LINE
  8
0
  6
BYLAYER
 62
     1
 10
142.205316
 20
-86.736224
 30
0.0
 11
142.949188
 21
-86.736224
 31
0.0
  0
ARC
  8
0
  6
BYLAYER
 62
     1
 10
142.706835
 20
-86.533349
 30
0.0
 40
0.540997
 50
180.000000
 51
202.024314
  0
LINE
  8
0
  6
BYLAYER
 62
     1
 10
142.165838
 20
-86.533349
 30
0.0
 11
142.165838
 21
-86.262854
 31
0.0
  0
LINE
  8
0
  6
BYLAYER
 62
     1
 10
140.745721
 20
-86.736224
 30
0.0
 11
141.455780
 21
-86.736224
 31
0.0
  0
LINE
  8
0
  6
BYLAYER
 62
     1
 10
141.455780
 20
-86.736224
 30
0.0
 11
141.455780
 21
-85.924731
 31
0.0
  0
LINE
  8
0
  6
BYLAYER
 62
     1
 10
141.827716
 20
-85.924731
 30
0.0
 11
141.455780
 21
-85.924731
 31
0.0
  0
ARC
  8
0
  6
BYLAYER
 62
     1
 10
141.827716
 20
-86.262854
 30
0.0
 40
0.338123
 50
0.0
 51
90.000003
  0
LINE
  8
0
  6
BYLAYER
 62
     1
 10
141.455780
 20
-85.383734
 30
0.0
 11
141.455780
 21
-84.876544
 31
0.0
  0
LINE
  8
0
  6
BYLAYER
 62
     1
 10
141.455780
 20
-84.876544
 30
0.0
 11
141.929150
 21
-84.876544
 31
0.0
  0
LINE
  8
0
  6
BYLAYER
 62
     1
 10
141.455780
 20
-85.383734
 30
0.0
 11
141.929150
 21
-85.383734
 31
0.0
  0
ARC
  8
0
  6
BYLAYER
 62
     1
 10
141.929150
 20
-85.130139
 30
0.0
 40
0.253595
 50
270.0
 51
450.000005
  0
LINE
  8
0
  6
BYLAYER
 62
     1
 10
137.519476
 20
-85.977105
 30
0.0
 11
137.079913
 21
-84.335547
 31
0.0
  0
LINE
  8
0
  6
BYLAYER
 62
     1
 10
137.079913
 20
-84.335547
 30
0.0
 11
136.369854
 21
-84.335547
 31
0.0
  0
LINE
  8
0
  6
BYLAYER
 62
     1
 10
136.369854
 20
-84.335547
 30
0.0
 11
137.113726
 21
-86.736224
 31
0.0
  0
LINE
  8
0
  6
BYLAYER
 62
     1
 10
137.519476
 20
-85.977105
 30
0.0
 11
137.959027
 21
-84.335547
 31
0.0
  0
LINE
  8
0
  6
BYLAYER
 62
     1
 10
137.959027
 20
-84.335547
 30
0.0
 11
138.669085
 21
-84.335547
 31
0.0
  0
LINE
  8
0
  6
BYLAYER
 62
     1
 10
138.669085
 20
-84.335547
 30
0.0
 11
137.925213
 21
-86.736224
 31
0.0
  0
LINE
  8
0
  6
BYLAYER
 62
     1
 10
137.925213
 20
-86.736224
 30
0.0
 11
137.113726
 21
-86.736224
 31
0.0
  0
LINE
  8
0
  6
BYLAYER
 62
     1
 10
143.013983
 20
-86.736224
 30
0.0
 11
143.724041
 21
-86.736224
 31
0.0
  0
LINE
  8
0
  6
BYLAYER
 62
     1
 10
143.724041
 20
-86.736224
 30
0.0
 11
143.724041
 21
-84.335547
 31
0.0
  0
LINE
  8
0
  6
BYLAYER
 62
     1
 10
143.724041
 20
-84.335547
 30
0.0
 11
143.013983
 21
-84.335547
 31
0.0
  0
LINE
  8
0
  6
BYLAYER
 62
     1
 10
143.013983
 20
-84.335547
 30
0.0
 11
143.013983
 21
-86.736224
 31
0.0
  0
ARC
  8
0
  6
BYLAYER
 62
     1
 10
145.059631
 20
-85.671277
 30
0.0
 40
1.149480
 50
270.0
 51
308.795693
  0
ARC
  8
0
  6
BYLAYER
 62
     1
 10
144.948380
 20
-85.552795
 30
0.0
 40
1.311587
 50
309.340576
 51
360.000000
  0
ARC
  8
0
  6
BYLAYER
 62
     1
 10
144.948380
 20
-85.552795
 30
0.0
 40
1.311587
 50
0.0
 51
50.659424
  0
ARC
  8
0
  6
BYLAYER
 62
     1
 10
145.059631
 20
-85.434313
 30
0.0
 40
1.149480
 50
51.204307
 51
90.000000
  0
ARC
  8
0
  6
BYLAYER
 62
     1
 10
145.059631
 20
-85.434313
 30
0.0
 40
1.149480
 50
90.0
 51
128.795693
  0
ARC
  8
0
  6
BYLAYER
 62
     1
 10
145.170882
 20
-85.552795
 30
0.0
 40
1.311587
 50
129.340576
 51
180.0
  0
ARC
  8
0
  6
BYLAYER
 62
     1
 10
145.170882
 20
-85.552795
 30
0.0
 40
1.311587
 50
180.000000
 51
230.659424
  0
ARC
  8
0
  6
BYLAYER
 62
     1
 10
145.059631
 20
-85.671277
 30
0.0
 40
1.149480
 50
231.204307
 51
270.000000
  0
ARC
  8
0
  6
BYLAYER
 62
     1
 10
145.059631
 20
-85.215535
 30
0.0
 40
0.531899
 50
39.206799
 51
90.0
  0
ARC
  8
0
  6
BYLAYER
 62
     1
 10
144.646209
 20
-85.552795
 30
0.0
 40
1.065436
 50
0.0
 51
39.206799
  0
ARC
  8
0
  6
BYLAYER
 62
     1
 10
144.646215
 20
-85.552795
 30
0.0
 40
1.065430
 50
320.793131
 51
360.0
  0
ARC
  8
0
  6
BYLAYER
 62
     1
 10
145.059631
 20
-85.890051
 30
0.0
 40
0.531900
 50
270.0
 51
320.793131
  0
ARC
  8
0
  6
BYLAYER
 62
     1
 10
145.059631
 20
-85.890051
 30
0.0
 40
0.531900
 50
219.206869
 51
270.0
  0
ARC
  8
0
  6
BYLAYER
 62
     1
 10
145.473046
 20
-85.552795
 30
0.0
 40
1.065430
 50
180.000000
 51
219.206869
  0
ARC
  8
0
  6
BYLAYER
 62
     1
 10
145.473053
 20
-85.552795
 30
0.0
 40
1.065436
 50
140.793201
 51
180.0
  0
ARC
  8
0
  6
BYLAYER
 62
     1
 10
145.059631
 20
-85.215535
 30
0.0
 40
0.531899
 50
90.0
 51
140.793201
  0
ARC
  8
0
  6
BYLAYER
 62
     1
 10
133.070886
 20
-81.587256
 30
0.0
 40
2.971998
 50
174.535650
 51
180.000000
  0
LINE
  8
0
  6
BYLAYER
 62
     1
 10
130.112393
 20
-81.304242
 30
0.0
 11
130.112393
 21
-81.304239
 31
0.0
  0
LINE
  8
0
  6
BYLAYER
 62
     1
 10
130.115627
 20
-81.272269
 30
0.0
 11
130.399268
 21
-81.152852
 31
0.0
  0
ARC
  8
0
  6
BYLAYER
 62
     1
 10
133.070898
 20
-81.587280
 30
0.0
 40
2.706712
 50
159.235383
 51
170.763998
  0
LINE
  8
0
  6
BYLAYER
 62
     1
 10
130.539988
 20
-80.627654
 30
0.0
 11
130.354069
 21
-80.382409
 31
0.0
  0
ARC
  8
0
  6
BYLAYER
 62
     1
 10
133.070886
 20
-81.587256
 30
0.0
 40
2.971995
 50
144.139514
 51
156.083795
  0
LINE
  8
0
  6
BYLAYER
 62
     1
 10
130.642700
 20
-79.873578
 30
0.0
 11
130.642877
 21
-79.873327
 31
0.0
  0
LINE
  8
0
  6
BYLAYER
 62
     1
 10
130.662245
 20
-79.846221
 30
0.0
 11
130.964215
 21
-79.887767
 31
0.0
  0
ARC
  8
0
  6
BYLAYER
 62
     1
 10
133.070886
 20
-81.587256
 30
0.0
 40
2.706696
 50
129.235643
 51
141.105976
  0
LINE
  8
0
  6
BYLAYER
 62
     1
 10
131.314612
 20
-79.527713
 30
0.0
 11
131.314905
 21
-79.527459
 31
0.0
  0
LINE
  8
0
  6
BYLAYER
 62
     1
 10
131.358870
 20
-79.490781
 30
0.0
 11
131.320473
 21
-79.185418
 31
0.0
  0
ARC
  8
0
  6
BYLAYER
 62
     1
 10
133.070886
 20
-81.587256
 30
0.0
 40
2.971998
 50
114.139607
 51
126.083853
  0
LINE
  8
0
  6
BYLAYER
 62
     1
 10
131.825067
 20
-78.888977
 30
0.0
 11
131.825268
 21
-78.888882
 31
0.0
  0
LINE
  8
0
  6
BYLAYER
 62
     1
 10
131.855454
 20
-78.875154
 30
0.0
 11
132.096185
 21
-79.062112
 31
0.0
  0
LINE
  8
0
  6
BYLAYER
 62
     1
 10
132.151227
 20
-79.041583
 30
0.0
 11
132.151532
 21
-79.041476
 31
0.0
  0
ARC
  8
0
  6
BYLAYER
 62
     1
 10
133.070886
 20
-81.587256
 30
0.0
 40
2.706695
 50
99.235601
 51
111.106038
  0
ARC
  8
0
  6
BYLAYER
 62
     1
 10
133.070886
 20
-81.587256
 30
0.0
 40
2.971998
 50
90.0
 51
96.083892
  0
LINE
  8
0
  6
BYLAYER
 62
     1
 10
132.755900
 20
-78.631997
 30
0.0
 11
132.636476
 21
-78.915648
 31
0.0
  0
LINE
  8
0
  6
BYLAYER
 62
     1
 10
136.029376
 20
-81.304242
 30
0.0
 11
136.029376
 21
-81.304239
 31
0.0
  0
LINE
  8
0
  6
BYLAYER
 62
     1
 10
136.026145
 20
-81.272269
 30
0.0
 11
135.742489
 21
-81.152850
 31
0.0
  0
ARC
  8
0
  6
BYLAYER
 62
     1
 10
133.070868
 20
-81.587280
 30
0.0
 40
2.706712
 50
9.235986
 51
20.764650
  0
LINE
  8
0
  6
BYLAYER
 62
     1
 10
135.601797
 20
-80.627626
 30
0.0
 11
135.787703
 21
-80.382409
 31
0.0
  0
ARC
  8
0
  6
BYLAYER
 62
     1
 10
133.070886
 20
-81.587256
 30
0.0
 40
2.971995
 50
23.916189
 51
35.860484
  0
LINE
  8
0
  6
BYLAYER
 62
     1
 10
135.499066
 20
-79.873578
 30
0.0
 11
135.498889
 21
-79.873327
 31
0.0
  0
LINE
  8
0
  6
BYLAYER
 62
     1
 10
135.479527
 20
-79.846221
 30
0.0
 11
135.177578
 21
-79.887763
 31
0.0
  0
ARC
  8
0
  6
BYLAYER
 62
     1
 10
133.070886
 20
-81.587256
 30
0.0
 40
2.706696
 50
38.894050
 51
50.764315
  0
LINE
  8
0
  6
BYLAYER
 62
     1
 10
134.827160
 20
-79.527713
 30
0.0
 11
134.826867
 21
-79.527459
 31
0.0
  0
LINE
  8
0
  6
BYLAYER
 62
     1
 10
134.782910
 20
-79.490732
 30
0.0
 11
134.821293
 21
-79.185414
 31
0.0
  0
ARC
  8
0
  6
BYLAYER
 62
     1
 10
133.070886
 20
-81.587256
 30
0.0
 40
2.971998
 50
53.916300
 51
65.860381
  0
LINE
  8
0
  6
BYLAYER
 62
     1
 10
134.316705
 20
-78.888977
 30
0.0
 11
134.316497
 21
-78.888882
 31
0.0
  0
LINE
  8
0
  6
BYLAYER
 62
     1
 10
134.286319
 20
-78.875154
 30
0.0
 11
134.045589
 21
-79.062104
 31
0.0
  0
LINE
  8
0
  6
BYLAYER
 62
     1
 10
133.990539
 20
-79.041583
 30
0.0
 11
133.990240
 21
-79.041476
 31
0.0
  0
ARC
  8
0
  6
BYLAYER
 62
     1
 10
133.070886
 20
-81.587256
 30
0.0
 40
2.706695
 50
68.894081
 51
80.764578
  0
ARC
  8
0
  6
BYLAYER
 62
     1
 10
133.070886
 20
-81.587256
 30
0.0
 40
2.971998
 50
84.535428
 51
90.000003
  0
LINE
  8
0
  6
BYLAYER
 62
     1
 10
133.385873
 20
-78.631997
 30
0.0
 11
133.505268
 21
-78.915600
 31
0.0
  0
ARC
  8
0
  6
BYLAYER
 62
     1
 10
133.070886
 20
-81.587256
 30
0.0
 40
2.971998
 50
180.000000
 51
186.083899
  0
LINE
  8
0
  6
BYLAYER
 62
     1
 10
130.112393
 20
-81.870266
 30
0.0
 11
130.112393
 21
-81.870273
 31
0.0
  0
LINE
  8
0
  6
BYLAYER
 62
     1
 10
130.115627
 20
-81.902242
 30
0.0
 11
130.399277
 21
-82.021662
 31
0.0
  0
ARC
  8
0
  6
BYLAYER
 62
     1
 10
133.070898
 20
-81.587231
 30
0.0
 40
2.706712
 50
189.236002
 51
200.764629
  0
LINE
  8
0
  6
BYLAYER
 62
     1
 10
130.539998
 20
-82.546845
 30
0.0
 11
130.354068
 21
-82.792100
 31
0.0
  0
ARC
  8
0
  6
BYLAYER
 62
     1
 10
133.070886
 20
-81.587256
 30
0.0
 40
2.971995
 50
203.916158
 51
215.860410
  0
LINE
  8
0
  6
BYLAYER
 62
     1
 10
130.642700
 20
-83.300930
 30
0.0
 11
130.642877
 21
-83.301181
 31
0.0
  0
LINE
  8
0
  6
BYLAYER
 62
     1
 10
130.662243
 20
-83.328287
 30
0.0
 11
130.964241
 21
-83.286742
 31
0.0
  0
ARC
  8
0
  6
BYLAYER
 62
     1
 10
133.070886
 20
-81.587256
 30
0.0
 40
2.706696
 50
218.894045
 51
230.764345
  0
LINE
  8
0
  6
BYLAYER
 62
     1
 10
131.314612
 20
-83.646795
 30
0.0
 11
131.314905
 21
-83.647049
 31
0.0
  0
LINE
  8
0
  6
BYLAYER
 62
     1
 10
131.358870
 20
-83.683730
 30
0.0
 11
131.320473
 21
-83.989093
 31
0.0
  0
ARC
  8
0
  6
BYLAYER
 62
     1
 10
133.070886
 20
-81.587256
 30
0.0
 40
2.971998
 50
233.916148
 51
245.860401
  0
LINE
  8
0
  6
BYLAYER
 62
     1
 10
131.825067
 20
-84.285531
 30
0.0
 11
131.825268
 21
-84.285629
 31
0.0
  0
LINE
  8
0
  6
BYLAYER
 62
     1
 10
131.855454
 20
-84.299357
 30
0.0
 11
132.096214
 21
-84.112373
 31
0.0
  0
LINE
  8
0
  6
BYLAYER
 62
     1
 10
132.151227
 20
-84.132925
 30
0.0
 11
132.151532
 21
-84.133035
 31
0.0
  0
LINE
  8
0
  6
BYLAYER
 62
     1
 10
136.029376
 20
-81.870266
 30
0.0
 11
136.029376
 21
-81.870273
 31
0.0
  0
LINE
  8
0
  6
BYLAYER
 62
     1
 10
136.026144
 20
-81.902242
 30
0.0
 11
135.742489
 21
-82.021662
 31
0.0
  0
LINE
  8
0
  6
BYLAYER
 62
     1
 10
135.601771
 20
-82.546852
 30
0.0
 11
135.787706
 21
-82.792102
 31
0.0
  0
LINE
  8
0
  6
BYLAYER
 62
     1
 10
135.499066
 20
-83.300930
 30
0.0
 11
135.498889
 21
-83.301181
 31
0.0
  0
LINE
  8
0
  6
BYLAYER
 62
     1
 10
135.479532
 20
-83.328287
 30
0.0
 11
135.177514
 21
-83.286741
 31
0.0
  0
LINE
  8
0
  6
BYLAYER
 62
     1
 10
134.827160
 20
-83.646795
 30
0.0
 11
134.826867
 21
-83.647049
 31
0.0
  0
LINE
  8
0
  6
BYLAYER
 62
     1
 10
134.782904
 20
-83.683729
 30
0.0
 11
134.821293
 21
-83.989098
 31
0.0
  0
LINE
  8
0
  6
BYLAYER
 62
     1
 10
134.286318
 20
-84.299357
 30
0.0
 11
134.045553
 21
-84.112375
 31
0.0
  0
ARC
  8
0
  6
BYLAYER
 62
     1
 10
133.070886
 20
-81.587256
 30
0.0
 40
2.706696
 50
309.235697
 51
321.105929
  0
ARC
  8
0
  6
BYLAYER
 62
     1
 10
133.070886
 20
-81.587256
 30
0.0
 40
2.706695
 50
248.893873
 51
270.000000
  0
ARC
  8
0
  6
BYLAYER
 62
     1
 10
133.070886
 20
-81.587256
 30
0.0
 40
2.971998
 50
294.783232
 51
306.083699
  0
LINE
  8
0
  6
BYLAYER
 62
     1
 10
134.316497
 20
-84.285629
 30
0.0
 11
134.286501
 21
-84.299745
 31
0.0
  0
ARC
  8
0
  6
BYLAYER
 62
     1
 10
133.070886
 20
-81.587256
 30
0.0
 40
2.971995
 50
324.139593
 51
336.083825
  0
ARC
  8
0
  6
BYLAYER
 62
     1
 10
133.070868
 20
-81.587231
 30
0.0
 40
2.706712
 50
339.235210
 51
350.764014
  0
ARC
  8
0
  6
BYLAYER
 62
     1
 10
133.070886
 20
-81.587256
 30
0.0
 40
2.971998
 50
353.916089
 51
360.000000
  0
ARC
  8
0
  6
BYLAYER
 62
     1
 10
133.070886
 20
-81.587256
 30
0.0
 40
2.971998
 50
0.0
 51
6.083907
  0
ARC
  8
0
  6
BYLAYER
 62
     1
 10
133.070886
 20
-81.587256
 30
0.0
 40
2.706695
 50
270.0
 51
291.106008
  0
CIRCLE
  8
0
  6
BYLAYER
 62
     1
 10
133.070886
 20
-81.587256
 30
0.0
 40
1.452032
  0
CIRCLE
  8
0
  6
BYLAYER
 62
     1
 10
133.070886
 20
-81.587256
 30
0.0
 40
2.118413
  0
CIRCLE
  8
0
  6
BYLAYER
 62
     1
 10
137.124573
 20
-127.982935
 30
0.0
 40
17.5
  0
LINE
  8
0
  6
BYLAYER
 62
     1
 10
137.124573
 20
-127.982935
 30
0.0
 11
134.124573
 21
-127.982935
 31
0.0
  0
LINE
  8
0
  6
BYLAYER
 62
     1
 10
137.124573
 20
-127.982935
 30
0.0
 11
137.124573
 21
-130.982935
 31
0.0
  0
LINE
  8
0
  6
BYLAYER
 62
     1
 10
137.124573
 20
-127.982935
 30
0.0
 11
140.124573
 21
-127.982935
 31
0.0
  0
LINE
  8
0
  6
BYLAYER
 62
     1
 10
137.124573
 20
-127.982935
 30
0.0
 11
137.124573
 21
-124.982935
 31
0.0
  0
ARC
  8
0
  6
BYLAYER
 62
     1
 10
119.374581
 20
-101.982966
 30
0.0
 40
0.75
 50
270.0
 51
450.000005
  0
ARC
  8
0
  6
BYLAYER
 62
     1
 10
128.193512
 20
-89.813868
 30
0.0
 40
12.000007
 50
272.452612
 51
283.169589
  0
ARC
  8
0
  6
BYLAYER
 62
     1
 10
128.400910
 20
-100.850916
 30
0.0
 40
0.999965
 50
287.823953
 51
344.999767
  0
ARC
  8
0
  6
BYLAYER
 62
     1
 10
137.124573
 20
-127.982935
 30
0.0
 40
27.200003
 50
346.830476
 51
373.169511
  0
LINE
  8
0
  6
BYLAYER
 62
     1
 10
163.997788
 20
-135.740686
 30
0.0
 11
172.977097
 21
-133.334650
 31
0.0
  0
ARC
  8
0
  6
BYLAYER
 62
     1
 10
175.293625
 20
-136.913996
 30
0.0
 40
12.000007
 50
166.830417
 51
177.547380
  0
LINE
  8
0
  6
BYLAYER
 62
     1
 10
168.124573
 20
-134.679102
 30
0.0
 11
168.124573
 21
-142.232950
 31
0.0
  0
ARC
  8
0
  6
BYLAYER
 62
     1
 10
170.624573
 20
-135.000300
 30
0.0
 40
1.0
 50
0.0
 51
104.999781
  0
LINE
  8
0
  6
BYLAYER
 62
     1
 10
164.874573
 20
-143.232950
 30
0.0
 11
170.624573
 21
-143.232950
 31
0.0
  0
LINE
  8
0
  6
BYLAYER
 62
     1
 10
164.874573
 20
-144.732950
 30
0.0
 11
170.624573
 21
-144.732950
 31
0.0
  0
ARC
  8
0
  6
BYLAYER
 62
     1
 10
164.874573
 20
-143.982950
 30
0.0
 40
0.75
 50
90.0
 51
270.000005
  0
ARC
  8
0
  6
BYLAYER
 62
     1
 10
164.256607
 20
-136.706598
 30
0.0
 40
0.999994
 50
105.000239
 51
162.176053
  0
LINE
  8
0
  6
BYLAYER
 62
     1
 10
171.624573
 20
-135.000300
 30
0.0
 11
171.624573
 21
-142.232950
 31
0.0
  0
ARC
  8
0
  6
BYLAYER
 62
     1
 10
167.124573
 20
-142.232950
 30
0.0
 40
1.000000
 50
270.0
 51
360.000003
  0
ARC
  8
0
  6
BYLAYER
 62
     1
 10
167.124573
 20
-145.732950
 30
0.0
 40
1.000000
 50
0.0
 51
90.000003
  0
ARC
  8
0
  6
BYLAYER
 62
     1
 10
170.624573
 20
-142.232950
 30
0.0
 40
1.000000
 50
270.0
 51
360.000003
  0
ARC
  8
0
  6
BYLAYER
 62
     1
 10
170.624573
 20
-145.732950
 30
0.0
 40
1.000000
 50
0.0
 51
90.000003
  0
CIRCLE
  8
0
  6
BYLAYER
 62
     1
 10
169.624573
 20
-127.982935
 30
0.0
 40
2.300003
  0
ARC
  8
0
  6
BYLAYER
 62
     1
 10
169.624558
 20
-127.982935
 30
0.0
 40
3.000006
 50
337.576062
 51
644.380646
  0
LINE
  8
0
  6
BYLAYER
 62
     1
 10
154.874581
 20
-101.232966
 30
0.0
 11
161.124588
 21
-101.232966
 31
0.0
  0
LINE
  8
0
  6
BYLAYER
 62
     1
 10
154.874581
 20
-102.732966
 30
0.0
 11
163.934403
 21
-102.732966
 31
0.0
  0
ARC
  8
0
  6
BYLAYER
 62
     1
 10
146.055634
 20
-89.813868
 30
0.0
 40
12.000007
 50
256.830412
 51
267.547389
  0
ARC
  8
0
  6
BYLAYER
 62
     1
 10
145.848236
 20
-100.850916
 30
0.0
 40
0.999965
 50
195.000234
 51
252.176048
  0
ARC
  8
0
  6
BYLAYER
 62
     1
 10
154.874581
 20
-101.982966
 30
0.0
 40
0.75
 50
90.0
 51
270.000005
  0
LINE
  8
0
  6
BYLAYER
 62
     1
 10
172.977097
 20
-122.631220
 30
0.0
 11
163.997788
 21
-120.225184
 31
0.0
  0
ARC
  8
0
  6
BYLAYER
 62
     1
 10
175.293625
 20
-119.051874
 30
0.0
 40
12.000007
 50
182.452617
 51
193.169580
  0
ARC
  8
0
  6
BYLAYER
 62
     1
 10
164.256607
 20
-119.259272
 30
0.0
 40
0.999994
 50
197.823944
 51
254.999758
  0
LINE
  8
0
  6
BYLAYER
 62
     1
 10
171.624573
 20
-120.965570
 30
0.0
 11
171.624573
 21
-113.654963
 31
0.0
  0
ARC
  8
0
  6
BYLAYER
 62
     1
 10
170.624573
 20
-120.965570
 30
0.0
 40
1.000016
 50
255.000222
 51
360.000003
  0
LINE
  8
0
  6
BYLAYER
 62
     1
 10
170.624588
 20
-102.742029
 30
0.0
 11
164.124588
 21
-102.742029
 31
0.0
  0
ARC
  8
0
  6
BYLAYER
 62
     1
 10
170.624588
 20
-103.742029
 30
0.0
 40
1.0
 50
0.0
 51
90.000016
  0
CIRCLE
  8
0
  6
BYLAYER
 62
     1
 10
597.124573
 20
-414.982935
 30
0.0
 40
16.0
  0
LINE
  8
0
  6
BYLAYER
 62
     1
 10
569.124573
 20
-407.982935
 30
0.0
 11
570.124573
 21
-408.982935
 31
0.0
  0
LINE
  8
0
  6
BYLAYER
 62
     1
 10
581.124573
 20
-387.982935
 30
0.0
 11
569.124573
 21
-387.982935
 31
0.0
  0
LINE
  8
0
  6
BYLAYER
 62
     1
 10
569.124573
 20
-484.982920
 30
0.0
 11
581.124573
 21
-484.982920
 31
0.0
  0
LINE
  8
0
  6
BYLAYER
 62
     1
 10
581.124573
 20
-464.982920
 30
0.0
 11
569.124573
 21
-464.982920
 31
0.0
  0
LINE
  8
0
  6
BYLAYER
 62
     1
 10
569.124573
 20
-464.982920
 30
0.0
 11
570.124573
 21
-463.982920
 31
0.0
  0
LINE
  8
0
  6
BYLAYER
 62
     1
 10
621.624573
 20
-463.982920
 30
0.0
 11
624.124573
 21
-463.982920
 31
0.0
  0
LINE
  8
0
  6
BYLAYER
 62
     1
 10
570.124573
 20
-463.982920
 30
0.0
 11
581.124573
 21
-463.982920
 31
0.0
  0
ARC
  8
0
  6
BYLAYER
 62
     1
 10
575.124573
 20
-471.982920
 30
0.0
 40
3.25
 50
270.0
 51
360.000009
  0
ARC
  8
0
  6
BYLAYER
 62
     1
 10
575.124573
 20
-471.982920
 30
0.0
 40
3.250000
 50
0.0
 51
90.000003
  0
ARC
  8
0
  6
BYLAYER
 62
     1
 10
619.124573
 20
-471.982920
 30
0.0
 40
3.250000
 50
90.0
 51
269.999991
  0
ARC
  8
0
  6
BYLAYER
 62
     1
 10
619.124573
 20
-400.982904
 30
0.0
 40
3.250000
 50
90.0
 51
269.999991
  0
ARC
  8
0
  6
BYLAYER
 62
     1
 10
575.124573
 20
-400.982935
 30
0.0
 40
3.25
 50
270.0
 51
450.000019
  0
LINE
  8
0
  6
BYLAYER
 62
     1
 10
619.124573
 20
-397.732904
 30
0.0
 11
625.124573
 21
-397.732904
 31
0.0
  0
LINE
  8
0
  6
BYLAYER
 62
     1
 10
619.124573
 20
-404.232904
 30
0.0
 11
625.124573
 21
-404.232904
 31
0.0
  0
LINE
  8
0
  6
BYLAYER
 62
     1
 10
619.124573
 20
-468.732920
 30
0.0
 11
625.124573
 21
-468.732920
 31
0.0
  0
LINE
  8
0
  6
BYLAYER
 62
     1
 10
619.124573
 20
-475.232920
 30
0.0
 11
625.124573
 21
-475.232920
 31
0.0
  0
LINE
  8
0
  6
BYLAYER
 62
     1
 10
575.124573
 20
-475.232920
 30
0.0
 11
569.124573
 21
-475.232920
 31
0.0
  0
LINE
  8
0
  6
BYLAYER
 62
     1
 10
575.124573
 20
-468.732920
 30
0.0
 11
569.124573
 21
-468.732920
 31
0.0
  0
LINE
  8
0
  6
BYLAYER
 62
     1
 10
575.124573
 20
-404.232935
 30
0.0
 11
569.124573
 21
-404.232935
 31
0.0
  0
LINE
  8
0
  6
BYLAYER
 62
     1
 10
575.124573
 20
-397.732935
 30
0.0
 11
569.124573
 21
-397.732935
 31
0.0
  0
LINE
  8
0
  6
BYLAYER
 62
     1
 10
625.124573
 20
-404.232904
 30
0.0
 11
625.124573
 21
-387.982904
 31
0.0
  0
LINE
  8
0
  6
BYLAYER
 62
     1
 10
581.124573
 20
-401.754175
 30
0.0
 11
581.124573
 21
-387.982935
 31
0.0
  0
ARC
  8
0
  6
BYLAYER
 62
     1
 10
582.124573
 20
-401.754175
 30
0.0
 40
1.0
 50
180.000000
 51
318.590371
  0
LINE
  8
0
  6
BYLAYER
 62
     1
 10
569.124573
 20
-407.982935
 30
0.0
 11
578.045777
 21
-407.982935
 31
0.0
  0
ARC
  8
0
  6
BYLAYER
 62
     1
 10
578.045777
 20
-408.982935
 30
0.0
 40
1.0
 50
342.543216
 51
450.000000
  0
LINE
  8
0
  6
BYLAYER
 62
     1
 10
570.124573
 20
-408.982935
 30
0.0
 11
579.045777
 21
-408.982935
 31
0.0
  0
LINE
  8
0
  6
BYLAYER
 62
     1
 10
616.203339
 20
-407.982904
 30
0.0
 11
625.124573
 21
-407.982904
 31
0.0
  0
ARC
  8
0
  6
BYLAYER
 62
     1
 10
616.203339
 20
-408.982904
 30
0.0
 40
1.000006
 50
90.0
 51
197.456764
  0
LINE
  8
0
  6
BYLAYER
 62
     1
 10
581.124573
 20
-484.982920
 30
0.0
 11
581.124573
 21
-430.042414
 31
0.0
  0
LINE
  8
0
  6
BYLAYER
 62
     1
 10
624.124573
 20
-408.982904
 30
0.0
 11
615.203339
 21
-408.982935
 31
0.0
  0
CIRCLE
  8
0
  6
BYLAYER
 62
     1
 10
597.124573
 20
-393.982935
 30
0.0
 40
2.356506
  0
ARC
  8
0
  6
BYLAYER
 62
     1
 10
597.124573
 20
-414.982935
 30
0.0
 40
19.000019
 50
111.279996
 51
138.590371
  0
ARC
  8
0
  6
BYLAYER
 62
     1
 10
589.140198
 20
-394.482935
 30
0.0
 40
2.999987
 50
291.280056
 51
363.583312
  0
ARC
  8
0
  6
BYLAYER
 62
     1
 10
597.124573
 20
-393.982935
 30
0.0
 40
5.000010
 50
356.416674
 51
543.583310
  0
ARC
  8
0
  6
BYLAYER
 62
     1
 10
605.108948
 20
-394.482904
 30
0.0
 40
3.000004
 50
176.41727
 51
248.720164
  0
LINE
  8
0
  6
BYLAYER
 62
     1
 10
597.124573
 20
-388.982935
 30
0.0
 11
581.124573
 21
-388.982935
 31
0.0
  0
ARC
  8
0
  6
BYLAYER
 62
     1
 10
618.870270
 20
-418.318262
 30
0.0
 40
2.999977
 50
171.280094
 51
243.583315
  0
ARC
  8
0
  6
BYLAYER
 62
     1
 10
575.378845
 20
-418.318293
 30
0.0
 40
3.000004
 50
296.417260
 51
368.720167
  0
ARC
  8
0
  6
BYLAYER
 62
     1
 10
597.124573
 20
-414.982935
 30
0.0
 40
19.000006
 50
162.542369
 51
188.720026
  0
ARC
  8
0
  6
BYLAYER
 62
     1
 10
597.124573
 20
-414.982935
 30
0.0
 40
18.999987
 50
351.279962
 51
377.457752
  0
LINE
  8
0
  6
BYLAYER
 62
     1
 10
613.124573
 20
-401.754175
 30
0.0
 11
613.124573
 21
-387.982935
 31
0.0
  0
LINE
  8
0
  6
BYLAYER
 62
     1
 10
613.124573
 20
-484.982920
 30
0.0
 11
613.124573
 21
-430.042414
 31
0.0
  0
LINE
  8
0
  6
BYLAYER
 62
     1
 10
613.124573
 20
-387.982935
 30
0.0
 11
625.124573
 21
-387.982904
 31
0.0
  0
LINE
  8
0
  6
BYLAYER
 62
     1
 10
597.124573
 20
-388.982935
 30
0.0
 11
613.124573
 21
-388.982935
 31
0.0
  0
LINE
  8
0
  6
BYLAYER
 62
     1
 10
624.124573
 20
-463.982920
 30
0.0
 11
613.124573
 21
-463.982920
 31
0.0
  0
LINE
  8
0
  6
BYLAYER
 62
     1
 10
625.124573
 20
-464.982920
 30
0.0
 11
613.124573
 21
-464.982920
 31
0.0
  0
LINE
  8
0
  6
BYLAYER
 62
     1
 10
613.124573
 20
-484.982920
 30
0.0
 11
625.124573
 21
-484.982920
 31
0.0
  0
ARC
  8
0
  6
BYLAYER
 62
     1
 10
597.124573
 20
-414.982935
 30
0.0
 40
19.000023
 50
41.409699
 51
68.720002
  0
ARC
  8
0
  6
BYLAYER
 62
     1
 10
612.124573
 20
-401.754145
 30
0.0
 40
1.000000
 50
221.409625
 51
359.999996
  0
LINE
  8
0
  6
BYLAYER
 62
     1
 10
624.124573
 20
-463.982920
 30
0.0
 11
624.124573
 21
-408.982904
 31
0.0
  0
LINE
  8
0
  6
BYLAYER
 62
     1
 10
570.124573
 20
-408.982935
 30
0.0
 11
570.124573
 21
-463.982920
 31
0.0
  0
LINE
  8
0
  6
BYLAYER
 62
     1
 10
625.124573
 20
-482.482935
 30
0.0
 11
625.624573
 21
-482.482935
 31
0.0
  0
ARC
  8
0
  6
BYLAYER
 62
     1
 10
625.624573
 20
-481.982935
 30
0.0
 40
0.5
 50
270.0
 51
359.999982
  0
LINE
  8
0
  6
BYLAYER
 62
     1
 10
628.624573
 20
-417.482935
 30
0.0
 11
628.624573
 21
-472.482935
 31
0.0
  0
LINE
  8
0
  6
BYLAYER
 62
     1
 10
626.124573
 20
-481.982935
 30
0.0
 11
626.124573
 21
-444.982935
 31
0.0
  0
LINE
  8
0
  6
BYLAYER
 62
     1
 10
625.124573
 20
-407.482935
 30
0.0
 11
625.624573
 21
-407.482935
 31
0.0
  0
ARC
  8
0
  6
BYLAYER
 62
     1
 10
625.624573
 20
-407.982935
 30
0.0
 40
0.500000
 50
0.0
 51
89.999996
  0
LINE
  8
0
  6
BYLAYER
 62
     1
 10
625.124573
 20
-438.566919
 30
0.0
 11
625.124573
 21
-404.232904
 31
0.0
  0
LINE
  8
0
  6
BYLAYER
 62
     1
 10
625.124573
 20
-484.982920
 30
0.0
 11
625.124573
 21
-451.398951
 31
0.0
  0
LINE
  8
0
  6
BYLAYER
 62
     1
 10
626.124573
 20
-444.982935
 30
0.0
 11
626.124573
 21
-407.982935
 31
0.0
  0
LINE
  8
0
  6
BYLAYER
 62
     1
 10
569.124573
 20
-404.232904
 30
0.0
 11
569.124573
 21
-387.982904
 31
0.0
  0
LINE
  8
0
  6
BYLAYER
 62
     1
 10
569.124573
 20
-482.482935
 30
0.0
 11
568.624573
 21
-482.482935
 31
0.0
  0
ARC
  8
0
  6
BYLAYER
 62
     1
 10
568.624573
 20
-481.982935
 30
0.0
 40
0.5
 50
180.000000
 51
269.999982
  0
LINE
  8
0
  6
BYLAYER
 62
     1
 10
565.624573
 20
-417.482935
 30
0.0
 11
565.624573
 21
-472.482935
 31
0.0
  0
LINE
  8
0
  6
BYLAYER
 62
     1
 10
568.124573
 20
-481.982935
 30
0.0
 11
568.124573
 21
-444.982935
 31
0.0
  0
LINE
  8
0
  6
BYLAYER
 62
     1
 10
569.124573
 20
-407.482935
 30
0.0
 11
568.624573
 21
-407.482935
 31
0.0
  0
ARC
  8
0
  6
BYLAYER
 62
     1
 10
568.624573
 20
-407.982935
 30
0.0
 40
0.5
 50
90.0
 51
179.999996
  0
LINE
  8
0
  6
BYLAYER
 62
     1
 10
569.124573
 20
-438.566919
 30
0.0
 11
569.124573
 21
-404.232904
 31
0.0
  0
LINE
  8
0
  6
BYLAYER
 62
     1
 10
569.124573
 20
-484.982920
 30
0.0
 11
569.124573
 21
-451.398951
 31
0.0
  0
LINE
  8
0
  6
BYLAYER
 62
     1
 10
568.124573
 20
-444.982935
 30
0.0
 11
568.124573
 21
-407.982935
 31
0.0
  0
LINE
  8
0
  6
BYLAYER
 62
     1
 10
570.124573
 20
-438.566919
 30
0.0
 11
569.124573
 21
-438.566919
 31
0.0
  0
LINE
  8
0
  6
BYLAYER
 62
     1
 10
570.124573
 20
-451.398951
 30
0.0
 11
569.124573
 21
-451.398951
 31
0.0
  0
LINE
  8
0
  6
BYLAYER
 62
     1
 10
624.124573
 20
-463.982920
 30
0.0
 11
625.124573
 21
-464.982920
 31
0.0
  0
LINE
  8
0
  6
BYLAYER
 62
     1
 10
624.124573
 20
-408.982904
 30
0.0
 11
625.124573
 21
-407.982904
 31
0.0
  0
LINE
  8
0
  6
BYLAYER
 62
     1
 10
613.124573
 20
-482.982920
 30
0.0
 11
581.124573
 21
-482.982920
 31
0.0
  0
ARC
  8
0
  6
BYLAYER
 62
     1
 10
597.124573
 20
-414.982935
 30
0.0
 40
18.999992
 50
231.280068
 51
308.720070
  0
ARC
  8
0
  6
BYLAYER
 62
     1
 10
578.938050
 20
-425.482935
 30
0.0
 40
4.999998
 50
116.416681
 51
303.583330
  0
ARC
  8
0
  6
BYLAYER
 62
     1
 10
583.363251
 20
-432.147608
 30
0.0
 40
2.999989
 50
51.280060
 51
123.583308
  0
CIRCLE
  8
0
  6
BYLAYER
 62
     1
 10
578.938050
 20
-425.482935
 30
0.0
 40
2.356506
  0
LINE
  8
0
  6
BYLAYER
 62
     1
 10
624.124573
 20
-451.398951
 30
0.0
 11
625.124573
 21
-451.398951
 31
0.0
  0
ARC
  8
0
  6
BYLAYER
 62
     1
 10
615.311096
 20
-425.482935
 30
0.0
 40
4.999996
 50
236.416698
 51
423.583307
  0
ARC
  8
0
  6
BYLAYER
 62
     1
 10
610.885926
 20
-432.147608
 30
0.0
 40
3.000004
 50
56.417291
 51
128.720150
  0
CIRCLE
  8
0
  6
BYLAYER
 62
     1
 10
615.311096
 20
-425.482935
 30
0.0
 40
2.356506
  0
LINE
  8
0
  6
BYLAYER
 62
     1
 10
624.124573
 20
-438.566919
 30
0.0
 11
625.124573
 21
-438.566919
 31
0.0
  0
LINE
  8
0
  6
BYLAYER
 62
     1
 10
565.624573
 20
-417.482935
 30
0.0
 11
568.124573
 21
-417.482935
 31
0.0
  0
LINE
  8
0
  6
BYLAYER
 62
     1
 10
565.624573
 20
-472.482935
 30
0.0
 11
568.124573
 21
-472.482935
 31
0.0
  0
LINE
  8
0
  6
BYLAYER
 62
     1
 10
628.624573
 20
-472.482935
 30
0.0
 11
626.124573
 21
-472.482935
 31
0.0
  0
LINE
  8
0
  6
BYLAYER
 62
     1
 10
628.624573
 20
-417.482935
 30
0.0
 11
626.124573
 21
-417.482935
 31
0.0
  0
LINE
  8
0
  6
BYLAYER
 62
     1
 10
97.124577
 20
-386.982935
 30
0.0
 11
97.124577
 21
-442.982931
 31
0.0
  0
LINE
  8
0
  6
BYLAYER
 62
     1
 10
117.124573
 20
-386.982935
 30
0.0
 11
117.124573
 21
-398.982935
 31
0.0
  0
LINE
  8
0
  6
BYLAYER
 62
     1
 10
117.124573
 20
-430.982935
 30
0.0
 11
117.124573
 21
-442.982931
 31
0.0
  0
LINE
  8
0
  6
BYLAYER
 62
     1
 10
118.124573
 20
-441.982935
 30
0.0
 11
117.124573
 21
-442.982931
 31
0.0
  0
LINE
  8
0
  6
BYLAYER
 62
     1
 10
118.124573
 20
-387.982935
 30
0.0
 11
117.124573
 21
-386.982935
 31
0.0
  0
LINE
  8
0
  6
BYLAYER
 62
     1
 10
118.124573
 20
-441.982935
 30
0.0
 11
118.124573
 21
-430.982935
 31
0.0
  0
LINE
  8
0
  6
BYLAYER
 62
     1
 10
118.124573
 20
-387.982935
 30
0.0
 11
137.124573
 21
-387.982920
 31
0.0
  0
LINE
  8
0
  6
BYLAYER
 62
     1
 10
137.124573
 20
-398.982920
 30
0.0
 11
97.124577
 21
-398.982935
 31
0.0
  0
LINE
  8
0
  6
BYLAYER
 62
     1
 10
137.124573
 20
-430.982935
 30
0.0
 11
97.124577
 21
-430.982935
 31
0.0
  0
LINE
  8
0
  6
BYLAYER
 62
     1
 10
101.124573
 20
-398.982935
 30
0.0
 11
105.124573
 21
-398.982935
 31
0.0
  0
ARC
  8
0
  6
BYLAYER
 62
     1
 10
110.124573
 20
-392.982935
 30
0.0
 40
3.250000
 50
180.000000
 51
360.000005
  0
ARC
  8
0
  6
BYLAYER
 62
     1
 10
110.124573
 20
-436.982935
 30
0.0
 40
3.250000
 50
0.0
 51
180.000005
  0
LINE
  8
0
  6
BYLAYER
 62
     1
 10
106.874573
 20
-392.982935
 30
0.0
 11
106.874573
 21
-386.982935
 31
0.0
  0
LINE
  8
0
  6
BYLAYER
 62
     1
 10
113.374573
 20
-392.982935
 30
0.0
 11
113.374573
 21
-386.982935
 31
0.0
  0
LINE
  8
0
  6
BYLAYER
 62
     1
 10
113.374573
 20
-436.982935
 30
0.0
 11
113.374573
 21
-442.982931
 31
0.0
  0
LINE
  8
0
  6
BYLAYER
 62
     1
 10
106.874573
 20
-436.982935
 30
0.0
 11
106.874573
 21
-442.982931
 31
0.0
  0
LINE
  8
0
  6
BYLAYER
 62
     1
 10
157.124573
 20
-386.982920
 30
0.0
 11
157.124573
 21
-398.982920
 31
0.0
  0
LINE
  8
0
  6
BYLAYER
 62
     1
 10
157.124588
 20
-430.982935
 30
0.0
 11
157.124588
 21
-442.982931
 31
0.0
  0
LINE
  8
0
  6
BYLAYER
 62
     1
 10
156.124588
 20
-441.982935
 30
0.0
 11
157.124588
 21
-442.982931
 31
0.0
  0
LINE
  8
0
  6
BYLAYER
 62
     1
 10
156.124573
 20
-387.982920
 30
0.0
 11
157.124573
 21
-386.982920
 31
0.0
  0
LINE
  8
0
  6
BYLAYER
 62
     1
 10
156.124588
 20
-441.982935
 30
0.0
 11
156.124588
 21
-430.982935
 31
0.0
  0
LINE
  8
0
  6
BYLAYER
 62
     1
 10
156.124573
 20
-398.982920
 30
0.0
 11
156.124573
 21
-387.982920
 31
0.0
  0
LINE
  8
0
  6
BYLAYER
 62
     1
 10
156.124573
 20
-387.982920
 30
0.0
 11
137.124573
 21
-387.982920
 31
0.0
  0
LINE
  8
0
  6
BYLAYER
 62
     1
 10
137.124573
 20
-398.982920
 30
0.0
 11
177.124573
 21
-398.982920
 31
0.0
  0
LINE
  8
0
  6
BYLAYER
 62
     1
 10
137.124573
 20
-430.982935
 30
0.0
 11
177.124588
 21
-430.982920
 31
0.0
  0
ARC
  8
0
  6
BYLAYER
 62
     1
 10
164.124588
 20
-436.982935
 30
0.0
 40
3.25
 50
0.0
 51
180.000019
  0
LINE
  8
0
  6
BYLAYER
 62
     1
 10
167.374573
 20
-392.982920
 30
0.0
 11
167.374573
 21
-386.982920
 31
0.0
  0
LINE
  8
0
  6
BYLAYER
 62
     1
 10
160.874573
 20
-392.982920
 30
0.0
 11
160.874573
 21
-386.982920
 31
0.0
  0
LINE
  8
0
  6
BYLAYER
 62
     1
 10
160.874588
 20
-436.982935
 30
0.0
 11
160.874588
 21
-442.982931
 31
0.0
  0
LINE
  8
0
  6
BYLAYER
 62
     1
 10
167.374588
 20
-436.982935
 30
0.0
 11
167.374588
 21
-442.982931
 31
0.0
  0
LINE
  8
0
  6
BYLAYER
 62
     1
 10
118.124573
 20
-441.982935
 30
0.0
 11
156.124588
 21
-441.982935
 31
0.0
  0
LINE
  8
0
  6
BYLAYER
 62
     1
 10
111.124573
 20
-411.982935
 30
0.0
 11
111.124573
 21
-417.982920
 31
0.0
  0
ARC
  8
0
  6
BYLAYER
 62
     1
 10
112.124573
 20
-416.732950
 30
0.0
 40
1.0
 50
180.000000
 51
269.999996
  0
ARC
  8
0
  6
BYLAYER
 62
     1
 10
112.124573
 20
-413.232935
 30
0.0
 40
1.0
 50
90.0
 51
180.000003
  0
ARC
  8
0
  6
BYLAYER
 62
     1
 10
111.108872
 20
-420.232935
 30
0.0
 40
1.0
 50
90.0
 51
131.409012
  0
ARC
  8
0
  6
BYLAYER
 62
     1
 10
111.108902
 20
-409.732935
 30
0.0
 40
1.0
 50
228.590367
 51
270.000001
  0
LINE
  8
0
  6
BYLAYER
 62
     1
 10
100.124577
 20
-386.982935
 30
0.0
 11
100.124577
 21
-398.982935
 31
0.0
  0
LINE
  8
0
  6
BYLAYER
 62
     1
 10
100.124577
 20
-430.982935
 30
0.0
 11
100.124577
 21
-442.982931
 31
0.0
  0
LINE
  8
0
  6
BYLAYER
 62
     1
 10
174.124573
 20
-386.982920
 30
0.0
 11
174.124573
 21
-398.982920
 31
0.0
  0
LINE
  8
0
  6
BYLAYER
 62
     1
 10
174.124573
 20
-430.982920
 30
0.0
 11
174.124573
 21
-442.982924
 31
0.0
  0
LINE
  8
0
  6
BYLAYER
 62
     1
 10
177.124558
 20
-441.982935
 30
0.0
 11
178.124558
 21
-441.982935
 31
0.0
  0
LINE
  8
0
  6
BYLAYER
 62
     1
 10
178.124558
 20
-441.982935
 30
0.0
 11
178.124558
 21
-387.982935
 31
0.0
  0
LINE
  8
0
  6
BYLAYER
 62
     1
 10
177.124558
 20
-387.982935
 30
0.0
 11
178.124558
 21
-387.982935
 31
0.0
  0
LINE
  8
0
  6
BYLAYER
 62
     1
 10
177.124573
 20
-386.982920
 30
0.0
 11
177.124573
 21
-398.982920
 31
0.0
  0
LINE
  8
0
  6
BYLAYER
 62
     1
 10
177.124588
 20
-442.982924
 30
0.0
 11
177.124588
 21
-430.982920
 31
0.0
  0
LINE
  8
0
  6
BYLAYER
 62
     1
 10
99.624554
 20
-442.982935
 30
0.0
 11
99.624554
 21
-443.482935
 31
0.0
  0
ARC
  8
0
  6
BYLAYER
 62
     1
 10
100.124554
 20
-443.482935
 30
0.0
 40
0.500000
 50
180.000000
 51
270.000009
  0
LINE
  8
0
  6
BYLAYER
 62
     1
 10
164.624573
 20
-446.482935
 30
0.0
 11
109.624573
 21
-446.482935
 31
0.0
  0
LINE
  8
0
  6
BYLAYER
 62
     1
 10
117.124573
 20
-442.982935
 30
0.0
 11
97.124546
 21
-442.982935
 31
0.0
  0
LINE
  8
0
  6
BYLAYER
 62
     1
 10
110.783875
 20
-442.982935
 30
0.0
 11
110.783875
 21
-443.982935
 31
0.0
  0
LINE
  8
0
  6
BYLAYER
 62
     1
 10
100.124554
 20
-443.982935
 30
0.0
 11
110.744538
 21
-443.982935
 31
0.0
  0
LINE
  8
0
  6
BYLAYER
 62
     1
 10
174.624542
 20
-442.982935
 30
0.0
 11
174.624542
 21
-443.482935
 31
0.0
  0
ARC
  8
0
  6
BYLAYER
 62
     1
 10
174.124542
 20
-443.482935
 30
0.0
 40
0.5
 50
270.0
 51
360.000016
  0
LINE
  8
0
  6
BYLAYER
 62
     1
 10
163.465225
 20
-442.982935
 30
0.0
 11
163.465225
 21
-443.982935
 31
0.0
  0
LINE
  8
0
  6
BYLAYER
 62
     1
 10
174.124542
 20
-443.982935
 30
0.0
 11
163.504563
 21
-443.982935
 31
0.0
  0
LINE
  8
0
  6
BYLAYER
 62
     1
 10
177.124558
 20
-442.982935
 30
0.0
 11
157.124588
 21
-442.982935
 31
0.0
  0
LINE
  8
0
  6
BYLAYER
 62
     1
 10
99.624554
 20
-386.982935
 30
0.0
 11
99.624554
 21
-386.482935
 31
0.0
  0
ARC
  8
0
  6
BYLAYER
 62
     1
 10
100.124554
 20
-386.482935
 30
0.0
 40
0.500000
 50
90.0
 51
180.000003
  0
LINE
  8
0
  6
BYLAYER
 62
     1
 10
164.624573
 20
-383.482935
 30
0.0
 11
109.624573
 21
-383.482935
 31
0.0
  0
LINE
  8
0
  6
BYLAYER
 62
     1
 10
117.124573
 20
-386.982935
 30
0.0
 11
97.124546
 21
-386.982935
 31
0.0
  0
LINE
  8
0
  6
BYLAYER
 62
     1
 10
110.783875
 20
-386.982935
 30
0.0
 11
110.783875
 21
-385.982935
 31
0.0
  0
LINE
  8
0
  6
BYLAYER
 62
     1
 10
100.124554
 20
-385.982935
 30
0.0
 11
110.744538
 21
-385.982935
 31
0.0
  0
LINE
  8
0
  6
BYLAYER
 62
     1
 10
174.624542
 20
-386.982935
 30
0.0
 11
174.624542
 21
-386.482935
 31
0.0
  0
ARC
  8
0
  6
BYLAYER
 62
     1
 10
174.124542
 20
-386.482935
 30
0.0
 40
0.500000
 50
0.0
 51
90.000023
  0
LINE
  8
0
  6
BYLAYER
 62
     1
 10
163.465225
 20
-386.982935
 30
0.0
 11
163.465225
 21
-385.982935
 31
0.0
  0
LINE
  8
0
  6
BYLAYER
 62
     1
 10
174.124542
 20
-385.982935
 30
0.0
 11
163.504563
 21
-385.982935
 31
0.0
  0
LINE
  8
0
  6
BYLAYER
 62
     1
 10
177.124558
 20
-386.982935
 30
0.0
 11
157.124573
 21
-386.982935
 31
0.0
  0
LINE
  8
0
  6
BYLAYER
 62
     1
 10
106.624573
 20
-412.982935
 30
0.0
 11
106.624573
 21
-398.982931
 31
0.0
  0
LINE
  8
0
  6
BYLAYER
 62
     1
 10
109.124573
 20
-398.982935
 30
0.0
 11
109.124573
 21
-402.732935
 31
0.0
  0
ARC
  8
0
  6
BYLAYER
 62
     1
 10
110.124573
 20
-402.732935
 30
0.0
 40
1.0
 50
180.000000
 51
269.999996
  0
ARC
  8
0
  6
BYLAYER
 62
     1
 10
110.124573
 20
-406.232935
 30
0.0
 40
1.0
 50
90.0
 51
179.999996
  0
ARC
  8
0
  6
BYLAYER
 62
     1
 10
109.124573
 20
-411.982935
 30
0.0
 40
2.0
 50
0.0
 51
70.528868
  0
ARC
  8
0
  6
BYLAYER
 62
     1
 10
110.124573
 20
-409.154505
 30
0.0
 40
1.0
 50
180.000000
 51
250.528656
  0
LINE
  8
0
  6
BYLAYER
 62
     1
 10
109.124573
 20
-412.982935
 30
0.0
 11
109.124573
 21
-406.232935
 31
0.0
  0
ARC
  8
0
  6
BYLAYER
 62
     1
 10
108.124573
 20
-412.982935
 30
0.0
 40
1.0
 50
270.0
 51
360.000003
  0
LINE
  8
0
  6
BYLAYER
 62
     1
 10
107.624573
 20
-413.982935
 30
0.0
 11
108.124573
 21
-413.982935
 31
0.0
  0
ARC
  8
0
  6
BYLAYER
 62
     1
 10
107.624573
 20
-412.982935
 30
0.0
 40
1.0
 50
180.000000
 51
269.999996
  0
LINE
  8
0
  6
BYLAYER
 62
     1
 10
106.624573
 20
-416.982904
 30
0.0
 11
106.624573
 21
-430.982947
 31
0.0
  0
ARC
  8
0
  6
BYLAYER
 62
     1
 10
107.624573
 20
-416.982904
 30
0.0
 40
1.0
 50
90.0
 51
179.999989
  0
LINE
  8
0
  6
BYLAYER
 62
     1
 10
107.624573
 20
-415.982904
 30
0.0
 11
108.124573
 21
-415.982904
 31
0.0
  0
ARC
  8
0
  6
BYLAYER
 62
     1
 10
108.124573
 20
-416.982904
 30
0.0
 40
1.0
 50
0.0
 51
90.000003
  0
LINE
  8
0
  6
BYLAYER
 62
     1
 10
109.124573
 20
-416.982904
 30
0.0
 11
109.124573
 21
-423.732904
 31
0.0
  0
ARC
  8
0
  6
BYLAYER
 62
     1
 10
110.124573
 20
-423.732904
 30
0.0
 40
1.000000
 50
180.000000
 51
270.000009
  0
ARC
  8
0
  6
BYLAYER
 62
     1
 10
110.124573
 20
-427.232904
 30
0.0
 40
1.0
 50
90.0
 51
179.999989
  0
LINE
  8
0
  6
BYLAYER
 62
     1
 10
109.124573
 20
-430.982904
 30
0.0
 11
109.124573
 21
-427.232904
 31
0.0
  0
ARC
  8
0
  6
BYLAYER
 62
     1
 10
110.124573
 20
-420.811335
 30
0.0
 40
1.0
 50
109.471351
 51
180.000000
  0
ARC
  8
0
  6
BYLAYER
 62
     1
 10
109.124573
 20
-417.982904
 30
0.0
 40
2.000000
 50
289.471118
 51
360.000000
  0
LINE
  8
0
  6
BYLAYER
 62
     1
 10
124.624588
 20
-417.732950
 30
0.0
 11
112.124573
 21
-417.732950
 31
0.0
  0
LINE
  8
0
  6
BYLAYER
 62
     1
 10
111.108872
 20
-419.232935
 30
0.0
 11
124.624588
 21
-419.232935
 31
0.0
  0
LINE
  8
0
  6
BYLAYER
 62
     1
 10
111.108902
 20
-410.732935
 30
0.0
 11
124.624588
 21
-410.732935
 31
0.0
  0
LINE
  8
0
  6
BYLAYER
 62
     1
 10
124.624588
 20
-412.232996
 30
0.0
 11
112.124573
 21
-412.232935
 31
0.0
  0
LINE
  8
0
  6
BYLAYER
 62
     1
 10
110.124573
 20
-403.732935
 30
0.0
 11
124.624588
 21
-403.732935
 31
0.0
  0
LINE
  8
0
  6
BYLAYER
 62
     1
 10
110.124573
 20
-405.232935
 30
0.0
 11
124.624588
 21
-405.232935
 31
0.0
  0
LINE
  8
0
  6
BYLAYER
 62
     1
 10
110.124573
 20
-424.732935
 30
0.0
 11
124.624588
 21
-424.732935
 31
0.0
  0
LINE
  8
0
  6
BYLAYER
 62
     1
 10
124.624588
 20
-426.232935
 30
0.0
 11
110.124573
 21
-426.232935
 31
0.0
  0
ARC
  8
0
  6
BYLAYER
 62
     1
 10
124.624588
 20
-425.482935
 30
0.0
 40
0.75
 50
270.0
 51
450.000005
  0
ARC
  8
0
  6
BYLAYER
 62
     1
 10
124.624588
 20
-418.482935
 30
0.0
 40
0.75
 50
270.0
 51
450.000005
  0
ARC
  8
0
  6
BYLAYER
 62
     1
 10
124.624588
 20
-411.482935
 30
0.0
 40
0.75
 50
270.0
 51
450.000005
  0
ARC
  8
0
  6
BYLAYER
 62
     1
 10
124.624588
 20
-404.482935
 30
0.0
 40
0.75
 50
270.0
 51
450.000005
  0
LINE
  8
0
  6
BYLAYER
 62
     1
 10
118.124573
 20
-398.982935
 30
0.0
 11
118.124573
 21
-387.982935
 31
0.0
  0
ARC
  8
0
  6
BYLAYER
 62
     1
 10
163.140244
 20
-409.732935
 30
0.0
 40
1.0
 50
270.0
 51
311.409634
  0
LINE
  8
0
  6
BYLAYER
 62
     1
 10
167.624573
 20
-412.982935
 30
0.0
 11
167.624573
 21
-398.982931
 31
0.0
  0
ARC
  8
0
  6
BYLAYER
 62
     1
 10
165.124573
 20
-411.982935
 30
0.0
 40
2.0
 50
109.471132
 51
180.000000
  0
LINE
  8
0
  6
BYLAYER
 62
     1
 10
165.124573
 20
-412.982935
 30
0.0
 11
165.124573
 21
-406.232935
 31
0.0
  0
LINE
  8
0
  6
BYLAYER
 62
     1
 10
149.624558
 20
-417.732950
 30
0.0
 11
162.124573
 21
-417.732950
 31
0.0
  0
LINE
  8
0
  6
BYLAYER
 62
     1
 10
163.140274
 20
-419.232935
 30
0.0
 11
149.624558
 21
-419.232935
 31
0.0
  0
LINE
  8
0
  6
BYLAYER
 62
     1
 10
163.140244
 20
-410.732935
 30
0.0
 11
149.624558
 21
-410.732935
 31
0.0
  0
LINE
  8
0
  6
BYLAYER
 62
     1
 10
149.624558
 20
-412.232996
 30
0.0
 11
162.124573
 21
-412.232935
 31
0.0
  0
LINE
  8
0
  6
BYLAYER
 62
     1
 10
164.124573
 20
-424.732935
 30
0.0
 11
149.624558
 21
-424.732935
 31
0.0
  0
LINE
  8
0
  6
BYLAYER
 62
     1
 10
149.624558
 20
-426.232935
 30
0.0
 11
164.124573
 21
-426.232935
 31
0.0
  0
ARC
  8
0
  6
BYLAYER
 62
     1
 10
149.624558
 20
-425.482935
 30
0.0
 40
0.75
 50
90.0
 51
270.000005
  0
ARC
  8
0
  6
BYLAYER
 62
     1
 10
149.624558
 20
-418.482935
 30
0.0
 40
0.75
 50
90.0
 51
270.000005
  0
ARC
  8
0
  6
BYLAYER
 62
     1
 10
149.624558
 20
-411.482935
 30
0.0
 40
0.75
 50
90.0
 51
270.000005
  0
LINE
  8
0
  6
BYLAYER
 62
     1
 10
167.624573
 20
-416.982904
 30
0.0
 11
167.624573
 21
-430.982947
 31
0.0
  0
LINE
  8
0
  6
BYLAYER
 62
     1
 10
165.124573
 20
-416.982904
 30
0.0
 11
165.124573
 21
-423.732904
 31
0.0
  0
LINE
  8
0
  6
BYLAYER
 62
     1
 10
165.124573
 20
-430.982904
 30
0.0
 11
165.124573
 21
-427.232904
 31
0.0
  0
ARC
  8
0
  6
BYLAYER
 62
     1
 10
164.124573
 20
-423.732904
 30
0.0
 40
1.0
 50
270.0
 51
360.000009
  0
ARC
  8
0
  6
BYLAYER
 62
     1
 10
164.124573
 20
-427.232904
 30
0.0
 40
1.0
 50
0.0
 51
89.999989
  0
ARC
  8
0
  6
BYLAYER
 62
     1
 10
166.124573
 20
-412.982935
 30
0.0
 40
1.000000
 50
180.000000
 51
270.000003
  0
ARC
  8
0
  6
BYLAYER
 62
     1
 10
166.124573
 20
-416.982904
 30
0.0
 40
1.000000
 50
90.0
 51
180.000003
  0
LINE
  8
0
  6
BYLAYER
 62
     1
 10
163.124573
 20
-411.982935
 30
0.0
 11
163.124573
 21
-417.982920
 31
0.0
  0
ARC
  8
0
  6
BYLAYER
 62
     1
 10
165.124573
 20
-417.982904
 30
0.0
 40
2.000000
 50
180.000000
 51
250.528882
  0
ARC
  8
0
  6
BYLAYER
 62
     1
 10
163.140274
 20
-420.232935
 30
0.0
 40
1.0
 50
48.590988
 51
90.000000
  0
ARC
  8
0
  6
BYLAYER
 62
     1
 10
164.124573
 20
-420.811335
 30
0.0
 40
1.0
 50
0.0
 51
70.528649
  0
ARC
  8
0
  6
BYLAYER
 62
     1
 10
162.124573
 20
-416.732950
 30
0.0
 40
1.0
 50
270.0
 51
359.999996
  0
ARC
  8
0
  6
BYLAYER
 62
     1
 10
162.124573
 20
-413.232935
 30
0.0
 40
1.000000
 50
0.0
 51
90.000003
  0
ARC
  8
0
  6
BYLAYER
 62
     1
 10
166.624573
 20
-416.982904
 30
0.0
 40
1.0
 50
0.0
 51
89.999989
  0
ARC
  8
0
  6
BYLAYER
 62
     1
 10
166.624573
 20
-412.982935
 30
0.0
 40
1.0
 50
270.0
 51
359.999996
  0
LINE
  8
0
  6
BYLAYER
 62
     1
 10
166.624573
 20
-415.982904
 30
0.0
 11
166.124573
 21
-415.982904
 31
0.0
  0
LINE
  8
0
  6
BYLAYER
 62
     1
 10
166.624573
 20
-413.982935
 30
0.0
 11
166.124573
 21
-413.982935
 31
0.0
  0
LINE
  8
0
  6
BYLAYER
 62
     1
 10
164.124573
 20
-403.732935
 30
0.0
 11
149.624558
 21
-403.732935
 31
0.0
  0
LINE
  8
0
  6
BYLAYER
 62
     1
 10
164.124573
 20
-405.232935
 30
0.0
 11
149.624558
 21
-405.232935
 31
0.0
  0
ARC
  8
0
  6
BYLAYER
 62
     1
 10
149.624558
 20
-404.482935
 30
0.0
 40
0.75
 50
90.0
 51
270.000005
  0
LINE
  8
0
  6
BYLAYER
 62
     1
 10
165.124573
 20
-398.982935
 30
0.0
 11
165.124573
 21
-402.732935
 31
0.0
  0
ARC
  8
0
  6
BYLAYER
 62
     1
 10
164.124573
 20
-409.154505
 30
0.0
 40
1.0
 50
289.471344
 51
360.0
  0
ARC
  8
0
  6
BYLAYER
 62
     1
 10
164.124573
 20
-406.232935
 30
0.0
 40
1.000000
 50
0.0
 51
89.999996
  0
ARC
  8
0
  6
BYLAYER
 62
     1
 10
164.124573
 20
-402.732935
 30
0.0
 40
1.000000
 50
270.0
 51
359.999996
  0
ARC
  8
0
  6
BYLAYER
 62
     1
 10
164.124573
 20
-392.982920
 30
0.0
 40
3.25
 50
180.000000
 51
359.999991
  0
LINE
  8
0
  6
BYLAYER
 62
     1
 10
173.124573
 20
-398.982920
 30
0.0
 11
169.124573
 21
-398.982920
 31
0.0
  0
LINE
  8
0
  6
BYLAYER
 62
     1
 10
109.624573
 20
-446.482935
 30
0.0
 11
109.624573
 21
-443.982935
 31
0.0
  0
LINE
  8
0
  6
BYLAYER
 62
     1
 10
164.624573
 20
-446.482935
 30
0.0
 11
164.624573
 21
-443.982935
 31
0.0
  0
LINE
  8
0
  6
BYLAYER
 62
     1
 10
109.624573
 20
-383.482935
 30
0.0
 11
109.624573
 21
-385.982935
 31
0.0
  0
LINE
  8
0
  6
BYLAYER
 62
     1
 10
164.624573
 20
-383.482935
 30
0.0
 11
164.624573
 21
-385.982935
 31
0.0
  0
LINE
  8
0
  6
BYLAYER
 62
     1
 10
178.124573
 20
-97.982935
 30
0.0
 11
178.124573
 21
-125.482752
 31
0.0
  0
ARC
  8
0
  6
BYLAYER
 62
     1
 10
186.124573
 20
-165.665796
 30
0.0
 40
2.0
 50
180.000000
 51
267.000354
  0
LINE
  8
0
  6
BYLAYER
 62
     1
 10
178.124573
 20
-125.482752
 30
0.0
 11
178.270935
 21
-125.489039
 31
0.0
  0
LINE
  8
0
  6
BYLAYER
 62
     1
 10
184.056397
 20
-145.728418
 30
0.0
 11
178.732422
 21
-125.859156
 31
0.0
  0
ARC
  8
0
  6
BYLAYER
 62
     1
 10
178.249451
 20
-125.988581
 30
0.0
 40
0.500004
 50
15.000011
 51
87.543457
  0
ARC
  8
0
  6
BYLAYER
 62
     1
 10
182.124573
 20
-163.122706
 30
0.0
 40
1.999930
 50
0.0
 51
8.000163
  0
LINE
  8
0
  6
BYLAYER
 62
     1
 10
184.124573
 20
-165.665796
 30
0.0
 11
184.124573
 21
-97.982935
 31
0.0
  0
ARC
  8
0
  6
BYLAYER
 62
     1
 10
182.124573
 20
-146.246058
 30
0.0
 40
1.999973
 50
0.0
 51
15.000014
  0
LINE
  8
0
  6
BYLAYER
 62
     1
 10
184.105042
 20
-162.844385
 30
0.0
 11
179.099854
 21
-127.230433
 31
0.0
  0
LINE
  8
0
  6
BYLAYER
 62
     1
 10
192.124573
 20
-97.982874
 30
0.0
 11
192.124573
 21
-167.982947
 31
0.0
  0
LINE
  8
0
  6
BYLAYER
 62
     1
 10
192.124573
 20
-167.982947
 30
0.0
 11
186.019898
 21
-167.663050
 31
0.0
  0
LINE
  8
0
  6
BYLAYER
 62
     1
 10
178.124573
 20
-97.982935
 30
0.0
 11
178.124573
 21
-70.483118
 31
0.0
  0
ARC
  8
0
  6
BYLAYER
 62
     1
 10
186.124573
 20
-30.300074
 30
0.0
 40
2.0
 50
92.999646
 51
180.0
  0
LINE
  8
0
  6
BYLAYER
 62
     1
 10
178.124573
 20
-70.483118
 30
0.0
 11
178.270935
 21
-70.476831
 31
0.0
  0
LINE
  8
0
  6
BYLAYER
 62
     1
 10
184.056397
 20
-50.237452
 30
0.0
 11
178.732422
 21
-70.106714
 31
0.0
  0
ARC
  8
0
  6
BYLAYER
 62
     1
 10
178.249451
 20
-69.977289
 30
0.0
 40
0.500004
 50
272.456543
 51
344.999989
  0
ARC
  8
0
  6
BYLAYER
 62
     1
 10
182.124573
 20
-32.843164
 30
0.0
 40
1.999930
 50
351.999837
 51
360.000000
  0
LINE
  8
0
  6
BYLAYER
 62
     1
 10
184.124573
 20
-30.300074
 30
0.0
 11
184.124573
 21
-97.982935
 31
0.0
  0
ARC
  8
0
  6
BYLAYER
 62
     1
 10
182.124573
 20
-49.719812
 30
0.0
 40
1.999973
 50
344.999986
 51
360.000000
  0
LINE
  8
0
  6
BYLAYER
 62
     1
 10
184.105042
 20
-33.121485
 30
0.0
 11
179.099854
 21
-68.735437
 31
0.0
  0
LINE
  8
0
  6
BYLAYER
 62
     1
 10
192.124573
 20
-97.982996
 30
0.0
 11
192.124573
 21
-27.982923
 31
0.0
  0
LINE
  8
0
  6
BYLAYER
 62
     1
 10
192.124573
 20
-27.982923
 30
0.0
 11
186.019898
 21
-28.302820
 31
0.0
  0
LINE
  8
0
  6
BYLAYER
 62
     1
 10
569.124573
 20
-167.982950
 30
0.0
 11
581.124573
 21
-167.982950
 31
0.0
  0
LINE
  8
0
  6
BYLAYER
 62
     1
 10
581.124573
 20
-166.129835
 30
0.0
 11
581.124573
 21
-167.982950
 31
0.0
  0
LINE
  8
0
  6
BYLAYER
 62
     1
 10
613.124573
 20
-167.982950
 30
0.0
 11
625.124573
 21
-167.982935
 31
0.0
  0
LINE
  8
0
  6
BYLAYER
 62
     1
 10
613.124573
 20
-166.129835
 30
0.0
 11
613.124573
 21
-167.982950
 31
0.0
  0
LINE
  8
0
  6
BYLAYER
 62
     1
 10
625.124573
 20
-165.482935
 30
0.0
 11
625.624573
 21
-165.482935
 31
0.0
  0
ARC
  8
0
  6
BYLAYER
 62
     1
 10
625.624573
 20
-164.982935
 30
0.0
 40
0.5
 50
270.0
 51
359.999982
  0
LINE
  8
0
  6
BYLAYER
 62
     1
 10
626.124573
 20
-164.982935
 30
0.0
 11
626.124573
 21
-161.693217
 31
0.0
  0
LINE
  8
0
  6
BYLAYER
 62
     1
 10
625.124573
 20
-167.982920
 30
0.0
 11
625.124573
 21
-162.138995
 31
0.0
  0
LINE
  8
0
  6
BYLAYER
 62
     1
 10
569.124573
 20
-165.482935
 30
0.0
 11
568.624573
 21
-165.482935
 31
0.0
  0
ARC
  8
0
  6
BYLAYER
 62
     1
 10
568.624573
 20
-164.982935
 30
0.0
 40
0.5
 50
180.000000
 51
269.999982
  0
LINE
  8
0
  6
BYLAYER
 62
     1
 10
568.124573
 20
-164.982935
 30
0.0
 11
568.124573
 21
-161.693217
 31
0.0
  0
LINE
  8
0
  6
BYLAYER
 62
     1
 10
569.124573
 20
-167.982920
 30
0.0
 11
569.124573
 21
-162.138995
 31
0.0
  0
LINE
  8
0
  6
BYLAYER
 62
     7
 10
560.124512
 20
-37.282923
 30
0.0
 11
563.124512
 21
-42.479090
 31
0.0
  0
LINE
  8
0
  6
BYLAYER
 62
     7
 10
560.124512
 20
-32.782984
 30
0.0
 11
560.124512
 21
-49.989649
 31
0.0
  0
LINE
  8
0
  6
BYLAYER
 62
     7
 10
634.124512
 20
-32.782923
 30
0.0
 11
634.124512
 21
-49.989555
 31
0.0
  0
LINE
  8
0
  6
BYLAYER
 62
     7
 10
634.124512
 20
-37.282923
 30
0.0
 11
631.124512
 21
-42.479029
 31
0.0
  0
ARC
  8
0
  6
BYLAYER
 62
     7
 10
597.124573
 20
-97.982935
 30
0.0
 40
70.0
 50
270.0
 51
418.091076
  0
ARC
  8
0
  6
BYLAYER
 62
     7
 10
637.774567
 20
-57.332941
 30
0.0
 40
4.75
 50
354.170342
 51
455.829658
  0
ARC
  8
0
  6
BYLAYER
 62
     7
 10
637.774567
 20
-138.632929
 30
0.0
 40
4.75
 50
264.170342
 51
365.829658
  0
LINE
  8
0
  6
BYLAYER
 62
     7
 10
599.124573
 20
-162.358789
 30
0.0
 11
599.124573
 21
-158.549923
 31
0.0
  0
ARC
  8
0
  6
BYLAYER
 62
     7
 10
601.124573
 20
-162.358789
 30
0.0
 40
2.000004
 50
180.000000
 51
273.555492
  0
ARC
  8
0
  6
BYLAYER
 62
     7
 10
597.124573
 20
-97.982935
 30
0.0
 40
66.500000
 50
273.555497
 51
305.180611
  0
ARC
  8
0
  6
BYLAYER
 62
     7
 10
634.286621
 20
-150.701349
 30
0.0
 40
1.999997
 50
305.180529
 51
405.000001
  0
LINE
  8
0
  6
BYLAYER
 62
     7
 10
633.136071
 20
-146.722365
 30
0.0
 11
635.700836
 21
-149.287134
 31
0.0
  0
ARC
  8
0
  6
BYLAYER
 62
     7
 10
649.842987
 20
-135.145014
 30
0.0
 40
2.000003
 50
224.999928
 51
324.819372
  0
LINE
  8
0
  6
BYLAYER
 62
     7
 10
648.428772
 20
-136.559214
 30
0.0
 11
645.863996
 21
-133.994442
 31
0.0
  0
ARC
  8
0
  6
BYLAYER
 62
     7
 10
597.124573
 20
-97.982935
 30
0.0
 40
66.500000
 50
324.819372
 51
356.444487
  0
LINE
  8
0
  6
BYLAYER
 62
     7
 10
657.691561
 20
-99.982935
 30
0.0
 11
661.500427
 21
-99.982935
 31
0.0
  0
ARC
  8
0
  6
BYLAYER
 62
     7
 10
661.500427
 20
-101.982935
 30
0.0
 40
2.000004
 50
356.444487
 51
450.000003
  0
ARC
  8
0
  6
BYLAYER
 62
     7
 10
597.124573
 20
-97.982935
 30
0.0
 40
66.500000
 50
54.819389
 51
56.193488
  0
ARC
  8
0
  6
BYLAYER
 62
     7
 10
634.286621
 20
-45.264521
 30
0.0
 40
1.999997
 50
314.999992
 51
414.819471
  0
LINE
  8
0
  6
BYLAYER
 62
     7
 10
634.124512
 20
-48.255065
 30
0.0
 11
635.700836
 21
-46.678736
 31
0.0
  0
LINE
  8
0
  6
BYLAYER
 62
     7
 10
653.875672
 20
-67.527063
 30
0.0
 11
650.577126
 21
-69.431498
 31
0.0
  0
ARC
  8
0
  6
BYLAYER
 62
     7
 10
654.875672
 20
-69.259119
 30
0.0
 40
2.000005
 50
26.444505
 51
119.999990
  0
ARC
  8
0
  6
BYLAYER
 62
     7
 10
597.124573
 20
-97.982935
 30
0.0
 40
66.5
 50
3.555507
 51
26.444490
  0
ARC
  8
0
  6
BYLAYER
 62
     7
 10
661.500427
 20
-93.982935
 30
0.0
 40
2.000004
 50
270.0
 51
363.555494
  0
LINE
  8
0
  6
BYLAYER
 62
     7
 10
657.691561
 20
-95.982935
 30
0.0
 11
661.500427
 21
-95.982935
 31
0.0
  0
ARC
  8
0
  6
BYLAYER
 62
     7
 10
597.124573
 20
-97.982935
 30
0.0
 40
70.0
 50
121.909042
 51
270.0
  0
ARC
  8
0
  6
BYLAYER
 62
     7
 10
556.474579
 20
-57.332941
 30
0.0
 40
4.75
 50
84.170342
 51
185.829658
  0
ARC
  8
0
  6
BYLAYER
 62
     7
 10
556.474579
 20
-138.632929
 30
0.0
 40
4.75
 50
174.170342
 51
275.829658
  0
LINE
  8
0
  6
BYLAYER
 62
     7
 10
595.124573
 20
-162.358789
 30
0.0
 11
595.124573
 21
-158.549923
 31
0.0
  0
ARC
  8
0
  6
BYLAYER
 62
     7
 10
593.124573
 20
-162.358789
 30
0.0
 40
2.000004
 50
266.444508
 51
360.000000
  0
ARC
  8
0
  6
BYLAYER
 62
     7
 10
597.124573
 20
-97.982935
 30
0.0
 40
66.5
 50
234.819389
 51
266.444503
  0
ARC
  8
0
  6
BYLAYER
 62
     7
 10
559.962525
 20
-150.701349
 30
0.0
 40
1.999997
 50
134.999999
 51
234.819471
  0
LINE
  8
0
  6
BYLAYER
 62
     7
 10
561.113075
 20
-146.722365
 30
0.0
 11
558.548310
 21
-149.287134
 31
0.0
  0
ARC
  8
0
  6
BYLAYER
 62
     7
 10
544.406159
 20
-135.145014
 30
0.0
 40
2.000003
 50
215.180628
 51
315.000072
  0
LINE
  8
0
  6
BYLAYER
 62
     7
 10
545.820374
 20
-136.559214
 30
0.0
 11
548.385150
 21
-133.994442
 31
0.0
  0
ARC
  8
0
  6
BYLAYER
 62
     7
 10
597.124573
 20
-97.982935
 30
0.0
 40
66.500000
 50
183.555513
 51
215.180628
  0
LINE
  8
0
  6
BYLAYER
 62
     7
 10
536.557585
 20
-99.982935
 30
0.0
 11
532.748719
 21
-99.982935
 31
0.0
  0
ARC
  8
0
  6
BYLAYER
 62
     7
 10
532.748719
 20
-101.982935
 30
0.0
 40
2.000004
 50
90.0
 51
183.555516
  0
ARC
  8
0
  6
BYLAYER
 62
     7
 10
597.124573
 20
-97.982935
 30
0.0
 40
66.5
 50
123.806639
 51
125.180611
  0
ARC
  8
0
  6
BYLAYER
 62
     7
 10
559.962525
 20
-45.264521
 30
0.0
 40
1.999997
 50
125.180529
 51
225.000008
  0
LINE
  8
0
  6
BYLAYER
 62
     7
 10
560.124512
 20
-48.254943
 30
0.0
 11
558.548310
 21
-46.678736
 31
0.0
  0
LINE
  8
0
  6
BYLAYER
 62
     7
 10
540.373474
 20
-67.527063
 30
0.0
 11
544.384247
 21
-69.842707
 31
0.0
  0
ARC
  8
0
  6
BYLAYER
 62
     7
 10
539.373474
 20
-69.259119
 30
0.0
 40
2.000005
 50
60.000010
 51
153.555495
  0
ARC
  8
0
  6
BYLAYER
 62
     7
 10
597.124573
 20
-97.982935
 30
0.0
 40
66.5
 50
153.555510
 51
176.444493
  0
ARC
  8
0
  6
BYLAYER
 62
     7
 10
532.748719
 20
-93.982935
 30
0.0
 40
2.000004
 50
176.444506
 51
270.0
  0
LINE
  8
0
  6
BYLAYER
 62
     7
 10
536.557585
 20
-95.982935
 30
0.0
 11
532.748719
 21
-95.982935
 31
0.0
  0
CIRCLE
  8
0
  6
BYLAYER
 62
     7
 10
597.124573
 20
-97.982935
 30
0.0
 40
50.248528
  0
CIRCLE
  8
0
  6
BYLAYER
 62
     7
 10
597.124573
 20
-97.982935
 30
0.0
 40
60.6
  0
CIRCLE
  8
0
  6
BYLAYER
 62
     7
 10
597.124573
 20
-97.982935
 30
0.0
 40
46.0
  0
LINE
  8
0
  6
BYLAYER
 62
     7
 10
598.124573
 20
-86.982935
 30
0.0
 11
606.124573
 21
-86.982935
 31
0.0
  0
LINE
  8
0
  6
BYLAYER
 62
     7
 10
598.124573
 20
-68.982935
 30
0.0
 11
598.124573
 21
-76.982935
 31
0.0
  0
LINE
  8
0
  6
BYLAYER
 62
     7
 10
598.124573
 20
-58.982935
 30
0.0
 11
598.124573
 21
-66.982935
 31
0.0
  0
LINE
  8
0
  6
BYLAYER
 62
     7
 10
598.124573
 20
-78.982935
 30
0.0
 11
598.124573
 21
-86.982935
 31
0.0
  0
LINE
  8
0
  6
BYLAYER
 62
     7
 10
606.124573
 20
-66.982935
 30
0.0
 11
606.124573
 21
-58.982935
 31
0.0
  0
LINE
  8
0
  6
BYLAYER
 62
     7
 10
608.124573
 20
-66.982935
 30
0.0
 11
608.124573
 21
-58.982935
 31
0.0
  0
LINE
  8
0
  6
BYLAYER
 62
     7
 10
598.124573
 20
-78.982935
 30
0.0
 11
606.124573
 21
-78.982935
 31
0.0
  0
LINE
  8
0
  6
BYLAYER
 62
     7
 10
598.124573
 20
-76.982935
 30
0.0
 11
606.124573
 21
-76.982935
 31
0.0
  0
LINE
  8
0
  6
BYLAYER
 62
     7
 10
598.124573
 20
-68.982935
 30
0.0
 11
606.124573
 21
-68.982935
 31
0.0
  0
LINE
  8
0
  6
BYLAYER
 62
     7
 10
608.124573
 20
-66.982935
 30
0.0
 11
615.962572
 21
-66.982935
 31
0.0
  0
LINE
  8
0
  6
BYLAYER
 62
     7
 10
598.124573
 20
-66.982935
 30
0.0
 11
606.124573
 21
-66.982935
 31
0.0
  0
LINE
  8
0
  6
BYLAYER
 62
     7
 10
608.124573
 20
-58.982935
 30
0.0
 11
615.962572
 21
-58.982935
 31
0.0
  0
LINE
  8
0
  6
BYLAYER
 62
     7
 10
598.124573
 20
-58.982935
 30
0.0
 11
606.124573
 21
-58.982935
 31
0.0
  0
LINE
  8
0
  6
BYLAYER
 62
     7
 10
615.962572
 20
-66.982935
 30
0.0
 11
615.962572
 21
-58.982935
 31
0.0
  0
LINE
  8
0
  6
BYLAYER
 62
     7
 10
606.124573
 20
-86.982935
 30
0.0
 11
606.124573
 21
-78.982935
 31
0.0
  0
LINE
  8
0
  6
BYLAYER
 62
     7
 10
606.124573
 20
-76.982935
 30
0.0
 11
606.124573
 21
-68.982935
 31
0.0
  0
LINE
  8
0
  6
BYLAYER
 62
     7
 10
608.124573
 20
-86.982935
 30
0.0
 11
616.124573
 21
-86.982935
 31
0.0
  0
LINE
  8
0
  6
BYLAYER
 62
     7
 10
608.124573
 20
-68.982935
 30
0.0
 11
608.124573
 21
-76.982935
 31
0.0
  0
LINE
  8
0
  6
BYLAYER
 62
     7
 10
608.124573
 20
-78.982935
 30
0.0
 11
608.124573
 21
-86.982935
 31
0.0
  0
LINE
  8
0
  6
BYLAYER
 62
     7
 10
608.124573
 20
-78.982935
 30
0.0
 11
616.124573
 21
-78.982935
 31
0.0
  0
LINE
  8
0
  6
BYLAYER
 62
     7
 10
608.124573
 20
-76.982935
 30
0.0
 11
616.124573
 21
-76.982935
 31
0.0
  0
LINE
  8
0
  6
BYLAYER
 62
     7
 10
608.124573
 20
-68.982935
 30
0.0
 11
616.124573
 21
-68.982935
 31
0.0
  0
LINE
  8
0
  6
BYLAYER
 62
     7
 10
616.124573
 20
-86.982935
 30
0.0
 11
616.124573
 21
-78.982935
 31
0.0
  0
LINE
  8
0
  6
BYLAYER
 62
     7
 10
616.124573
 20
-76.982935
 30
0.0
 11
616.124573
 21
-68.982935
 31
0.0
  0
LINE
  8
0
  6
BYLAYER
 62
     7
 10
618.124573
 20
-86.982935
 30
0.0
 11
626.124573
 21
-86.982935
 31
0.0
  0
LINE
  8
0
  6
BYLAYER
 62
     7
 10
618.124573
 20
-68.982935
 30
0.0
 11
618.124573
 21
-76.982935
 31
0.0
  0
LINE
  8
0
  6
BYLAYER
 62
     7
 10
618.124573
 20
-78.982935
 30
0.0
 11
618.124573
 21
-86.982935
 31
0.0
  0
LINE
  8
0
  6
BYLAYER
 62
     7
 10
618.124573
 20
-78.982935
 30
0.0
 11
626.124573
 21
-78.982935
 31
0.0
  0
LINE
  8
0
  6
BYLAYER
 62
     7
 10
618.124573
 20
-76.982935
 30
0.0
 11
626.124573
 21
-76.982935
 31
0.0
  0
LINE
  8
0
  6
BYLAYER
 62
     7
 10
618.124573
 20
-68.982935
 30
0.0
 11
626.124573
 21
-68.982935
 31
0.0
  0
LINE
  8
0
  6
BYLAYER
 62
     7
 10
626.124573
 20
-86.982935
 30
0.0
 11
626.124573
 21
-78.982935
 31
0.0
  0
LINE
  8
0
  6
BYLAYER
 62
     7
 10
626.124573
 20
-76.982935
 30
0.0
 11
626.124573
 21
-68.982935
 31
0.0
  0
LINE
  8
0
  6
BYLAYER
 62
     7
 10
608.124573
 20
-96.982935
 30
0.0
 11
616.124573
 21
-96.982935
 31
0.0
  0
LINE
  8
0
  6
BYLAYER
 62
     7
 10
608.124573
 20
-88.982935
 30
0.0
 11
608.124573
 21
-96.982935
 31
0.0
  0
LINE
  8
0
  6
BYLAYER
 62
     7
 10
608.124573
 20
-88.982935
 30
0.0
 11
616.124573
 21
-88.982935
 31
0.0
  0
LINE
  8
0
  6
BYLAYER
 62
     7
 10
616.124573
 20
-96.982935
 30
0.0
 11
616.124573
 21
-88.982935
 31
0.0
  0
LINE
  8
0
  6
BYLAYER
 62
     7
 10
618.124573
 20
-96.982935
 30
0.0
 11
626.124573
 21
-96.982935
 31
0.0
  0
LINE
  8
0
  6
BYLAYER
 62
     7
 10
618.124573
 20
-88.982935
 30
0.0
 11
618.124573
 21
-96.982935
 31
0.0
  0
LINE
  8
0
  6
BYLAYER
 62
     7
 10
618.124573
 20
-88.982935
 30
0.0
 11
626.124573
 21
-88.982935
 31
0.0
  0
LINE
  8
0
  6
BYLAYER
 62
     7
 10
626.124573
 20
-96.982935
 30
0.0
 11
626.124573
 21
-88.982935
 31
0.0
  0
LINE
  8
0
  6
BYLAYER
 62
     7
 10
628.124573
 20
-86.982935
 30
0.0
 11
636.124573
 21
-86.982935
 31
0.0
  0
LINE
  8
0
  6
BYLAYER
 62
     7
 10
628.124573
 20
-78.982935
 30
0.0
 11
628.124573
 21
-86.982935
 31
0.0
  0
LINE
  8
0
  6
BYLAYER
 62
     7
 10
628.124573
 20
-78.982935
 30
0.0
 11
636.124573
 21
-78.982935
 31
0.0
  0
LINE
  8
0
  6
BYLAYER
 62
     7
 10
636.124573
 20
-86.982935
 30
0.0
 11
636.124573
 21
-78.982935
 31
0.0
  0
LINE
  8
0
  6
BYLAYER
 62
     7
 10
628.124573
 20
-96.982935
 30
0.0
 11
636.124573
 21
-96.982935
 31
0.0
  0
LINE
  8
0
  6
BYLAYER
 62
     7
 10
628.124573
 20
-88.982935
 30
0.0
 11
628.124573
 21
-96.982935
 31
0.0
  0
LINE
  8
0
  6
BYLAYER
 62
     7
 10
628.124573
 20
-88.982935
 30
0.0
 11
636.124573
 21
-88.982935
 31
0.0
  0
LINE
  8
0
  6
BYLAYER
 62
     7
 10
636.124573
 20
-96.982935
 30
0.0
 11
636.124573
 21
-88.982935
 31
0.0
  0
LINE
  8
0
  6
BYLAYER
 62
     7
 10
598.124573
 20
-108.982935
 30
0.0
 11
606.124573
 21
-108.982935
 31
0.0
  0
LINE
  8
0
  6
BYLAYER
 62
     7
 10
598.124573
 20
-126.982935
 30
0.0
 11
598.124573
 21
-118.982935
 31
0.0
  0
LINE
  8
0
  6
BYLAYER
 62
     7
 10
598.124573
 20
-136.982935
 30
0.0
 11
598.124573
 21
-128.982935
 31
0.0
  0
LINE
  8
0
  6
BYLAYER
 62
     7
 10
598.124573
 20
-116.982935
 30
0.0
 11
598.124573
 21
-108.982935
 31
0.0
  0
LINE
  8
0
  6
BYLAYER
 62
     7
 10
606.124573
 20
-128.982935
 30
0.0
 11
606.124573
 21
-136.982935
 31
0.0
  0
LINE
  8
0
  6
BYLAYER
 62
     7
 10
608.124573
 20
-128.982935
 30
0.0
 11
608.124573
 21
-136.982935
 31
0.0
  0
LINE
  8
0
  6
BYLAYER
 62
     7
 10
598.124573
 20
-116.982935
 30
0.0
 11
606.124573
 21
-116.982935
 31
0.0
  0
LINE
  8
0
  6
BYLAYER
 62
     7
 10
598.124573
 20
-118.982935
 30
0.0
 11
606.124573
 21
-118.982935
 31
0.0
  0
LINE
  8
0
  6
BYLAYER
 62
     7
 10
598.124573
 20
-126.982935
 30
0.0
 11
606.124573
 21
-126.982935
 31
0.0
  0
LINE
  8
0
  6
BYLAYER
 62
     7
 10
608.124573
 20
-128.982935
 30
0.0
 11
615.962572
 21
-128.982935
 31
0.0
  0
LINE
  8
0
  6
BYLAYER
 62
     7
 10
598.124573
 20
-128.982935
 30
0.0
 11
606.124573
 21
-128.982935
 31
0.0
  0
LINE
  8
0
  6
BYLAYER
 62
     7
 10
608.124573
 20
-136.982935
 30
0.0
 11
615.962572
 21
-136.982935
 31
0.0
  0
LINE
  8
0
  6
BYLAYER
 62
     7
 10
598.124573
 20
-136.982935
 30
0.0
 11
606.124573
 21
-136.982935
 31
0.0
  0
LINE
  8
0
  6
BYLAYER
 62
     7
 10
615.962572
 20
-128.982935
 30
0.0
 11
615.962572
 21
-136.982935
 31
0.0
  0
LINE
  8
0
  6
BYLAYER
 62
     7
 10
606.124573
 20
-108.982935
 30
0.0
 11
606.124573
 21
-116.982935
 31
0.0
  0
LINE
  8
0
  6
BYLAYER
 62
     7
 10
606.124573
 20
-118.982935
 30
0.0
 11
606.124573
 21
-126.982935
 31
0.0
  0
LINE
  8
0
  6
BYLAYER
 62
     7
 10
608.124573
 20
-108.982935
 30
0.0
 11
616.124573
 21
-108.982935
 31
0.0
  0
LINE
  8
0
  6
BYLAYER
 62
     7
 10
608.124573
 20
-126.982935
 30
0.0
 11
608.124573
 21
-118.982935
 31
0.0
  0
LINE
  8
0
  6
BYLAYER
 62
     7
 10
608.124573
 20
-116.982935
 30
0.0
 11
608.124573
 21
-108.982935
 31
0.0
  0
LINE
  8
0
  6
BYLAYER
 62
     7
 10
608.124573
 20
-116.982935
 30
0.0
 11
616.124573
 21
-116.982935
 31
0.0
  0
LINE
  8
0
  6
BYLAYER
 62
     7
 10
608.124573
 20
-118.982935
 30
0.0
 11
616.124573
 21
-118.982935
 31
0.0
  0
LINE
  8
0
  6
BYLAYER
 62
     7
 10
608.124573
 20
-126.982935
 30
0.0
 11
616.124573
 21
-126.982935
 31
0.0
  0
LINE
  8
0
  6
BYLAYER
 62
     7
 10
616.124573
 20
-108.982935
 30
0.0
 11
616.124573
 21
-116.982935
 31
0.0
  0
LINE
  8
0
  6
BYLAYER
 62
     7
 10
616.124573
 20
-118.982935
 30
0.0
 11
616.124573
 21
-126.982935
 31
0.0
  0
LINE
  8
0
  6
BYLAYER
 62
     7
 10
618.124573
 20
-108.982935
 30
0.0
 11
626.124573
 21
-108.982935
 31
0.0
  0
LINE
  8
0
  6
BYLAYER
 62
     7
 10
618.124573
 20
-126.982935
 30
0.0
 11
618.124573
 21
-118.982935
 31
0.0
  0
LINE
  8
0
  6
BYLAYER
 62
     7
 10
618.124573
 20
-116.982935
 30
0.0
 11
618.124573
 21
-108.982935
 31
0.0
  0
LINE
  8
0
  6
BYLAYER
 62
     7
 10
618.124573
 20
-116.982935
 30
0.0
 11
626.124573
 21
-116.982935
 31
0.0
  0
LINE
  8
0
  6
BYLAYER
 62
     7
 10
618.124573
 20
-118.982935
 30
0.0
 11
626.124573
 21
-118.982935
 31
0.0
  0
LINE
  8
0
  6
BYLAYER
 62
     7
 10
618.124573
 20
-126.982935
 30
0.0
 11
626.124573
 21
-126.982935
 31
0.0
  0
LINE
  8
0
  6
BYLAYER
 62
     7
 10
626.124573
 20
-108.982935
 30
0.0
 11
626.124573
 21
-116.982935
 31
0.0
  0
LINE
  8
0
  6
BYLAYER
 62
     7
 10
626.124573
 20
-118.982935
 30
0.0
 11
626.124573
 21
-126.982935
 31
0.0
  0
LINE
  8
0
  6
BYLAYER
 62
     7
 10
608.124573
 20
-98.982935
 30
0.0
 11
616.124573
 21
-98.982935
 31
0.0
  0
LINE
  8
0
  6
BYLAYER
 62
     7
 10
608.124573
 20
-106.982935
 30
0.0
 11
608.124573
 21
-98.982935
 31
0.0
  0
LINE
  8
0
  6
BYLAYER
 62
     7
 10
608.124573
 20
-106.982935
 30
0.0
 11
616.124573
 21
-106.982935
 31
0.0
  0
LINE
  8
0
  6
BYLAYER
 62
     7
 10
616.124573
 20
-98.982935
 30
0.0
 11
616.124573
 21
-106.982935
 31
0.0
  0
LINE
  8
0
  6
BYLAYER
 62
     7
 10
618.124573
 20
-98.982935
 30
0.0
 11
626.124573
 21
-98.982935
 31
0.0
  0
LINE
  8
0
  6
BYLAYER
 62
     7
 10
618.124573
 20
-106.982935
 30
0.0
 11
618.124573
 21
-98.982935
 31
0.0
  0
LINE
  8
0
  6
BYLAYER
 62
     7
 10
618.124573
 20
-106.982935
 30
0.0
 11
626.124573
 21
-106.982935
 31
0.0
  0
LINE
  8
0
  6
BYLAYER
 62
     7
 10
626.124573
 20
-98.982935
 30
0.0
 11
626.124573
 21
-106.982935
 31
0.0
  0
LINE
  8
0
  6
BYLAYER
 62
     7
 10
628.124573
 20
-108.982935
 30
0.0
 11
636.124573
 21
-108.982935
 31
0.0
  0
LINE
  8
0
  6
BYLAYER
 62
     7
 10
628.124573
 20
-116.982935
 30
0.0
 11
628.124573
 21
-108.982935
 31
0.0
  0
LINE
  8
0
  6
BYLAYER
 62
     7
 10
628.124573
 20
-116.982935
 30
0.0
 11
636.124573
 21
-116.982935
 31
0.0
  0
LINE
  8
0
  6
BYLAYER
 62
     7
 10
636.124573
 20
-108.982935
 30
0.0
 11
636.124573
 21
-116.982935
 31
0.0
  0
LINE
  8
0
  6
BYLAYER
 62
     7
 10
628.124573
 20
-98.982935
 30
0.0
 11
636.124573
 21
-98.982935
 31
0.0
  0
LINE
  8
0
  6
BYLAYER
 62
     7
 10
628.124573
 20
-106.982935
 30
0.0
 11
628.124573
 21
-98.982935
 31
0.0
  0
LINE
  8
0
  6
BYLAYER
 62
     7
 10
628.124573
 20
-106.982935
 30
0.0
 11
636.124573
 21
-106.982935
 31
0.0
  0
LINE
  8
0
  6
BYLAYER
 62
     7
 10
636.124573
 20
-98.982935
 30
0.0
 11
636.124573
 21
-106.982935
 31
0.0
  0
LINE
  8
0
  6
BYLAYER
 62
     7
 10
596.124573
 20
-86.982935
 30
0.0
 11
588.124573
 21
-86.982935
 31
0.0
  0
LINE
  8
0
  6
BYLAYER
 62
     7
 10
596.124573
 20
-68.982935
 30
0.0
 11
596.124573
 21
-76.982935
 31
0.0
  0
LINE
  8
0
  6
BYLAYER
 62
     7
 10
596.124573
 20
-58.982935
 30
0.0
 11
596.124573
 21
-66.982935
 31
0.0
  0
LINE
  8
0
  6
BYLAYER
 62
     7
 10
596.124573
 20
-78.982935
 30
0.0
 11
596.124573
 21
-86.982935
 31
0.0
  0
LINE
  8
0
  6
BYLAYER
 62
     7
 10
588.124573
 20
-66.982935
 30
0.0
 11
588.124573
 21
-58.982935
 31
0.0
  0
LINE
  8
0
  6
BYLAYER
 62
     7
 10
586.124573
 20
-66.982935
 30
0.0
 11
586.124573
 21
-58.982935
 31
0.0
  0
LINE
  8
0
  6
BYLAYER
 62
     7
 10
596.124573
 20
-78.982935
 30
0.0
 11
588.124573
 21
-78.982935
 31
0.0
  0
LINE
  8
0
  6
BYLAYER
 62
     7
 10
596.124573
 20
-76.982935
 30
0.0
 11
588.124573
 21
-76.982935
 31
0.0
  0
LINE
  8
0
  6
BYLAYER
 62
     7
 10
596.124573
 20
-68.982935
 30
0.0
 11
588.124573
 21
-68.982935
 31
0.0
  0
LINE
  8
0
  6
BYLAYER
 62
     7
 10
586.124573
 20
-66.982935
 30
0.0
 11
578.286574
 21
-66.982935
 31
0.0
  0
LINE
  8
0
  6
BYLAYER
 62
     7
 10
596.124573
 20
-66.982935
 30
0.0
 11
588.124573
 21
-66.982935
 31
0.0
  0
LINE
  8
0
  6
BYLAYER
 62
     7
 10
586.124573
 20
-58.982935
 30
0.0
 11
578.286574
 21
-58.982935
 31
0.0
  0
LINE
  8
0
  6
BYLAYER
 62
     7
 10
596.124573
 20
-58.982935
 30
0.0
 11
588.124573
 21
-58.982935
 31
0.0
  0
LINE
  8
0
  6
BYLAYER
 62
     7
 10
578.286574
 20
-66.982935
 30
0.0
 11
578.286574
 21
-58.982935
 31
0.0
  0
LINE
  8
0
  6
BYLAYER
 62
     7
 10
588.124573
 20
-86.982935
 30
0.0
 11
588.124573
 21
-78.982935
 31
0.0
  0
LINE
  8
0
  6
BYLAYER
 62
     7
 10
588.124573
 20
-76.982935
 30
0.0
 11
588.124573
 21
-68.982935
 31
0.0
  0
LINE
  8
0
  6
BYLAYER
 62
     7
 10
586.124573
 20
-86.982935
 30
0.0
 11
578.124573
 21
-86.982935
 31
0.0
  0
LINE
  8
0
  6
BYLAYER
 62
     7
 10
586.124573
 20
-68.982935
 30
0.0
 11
586.124573
 21
-76.982935
 31
0.0
  0
LINE
  8
0
  6
BYLAYER
 62
     7
 10
586.124573
 20
-78.982935
 30
0.0
 11
586.124573
 21
-86.982935
 31
0.0
  0
LINE
  8
0
  6
BYLAYER
 62
     7
 10
586.124573
 20
-78.982935
 30
0.0
 11
578.124573
 21
-78.982935
 31
0.0
  0
LINE
  8
0
  6
BYLAYER
 62
     7
 10
586.124573
 20
-76.982935
 30
0.0
 11
578.124573
 21
-76.982935
 31
0.0
  0
LINE
  8
0
  6
BYLAYER
 62
     7
 10
586.124573
 20
-68.982935
 30
0.0
 11
578.124573
 21
-68.982935
 31
0.0
  0
LINE
  8
0
  6
BYLAYER
 62
     7
 10
578.124573
 20
-86.982935
 30
0.0
 11
578.124573
 21
-78.982935
 31
0.0
  0
LINE
  8
0
  6
BYLAYER
 62
     7
 10
578.124573
 20
-76.982935
 30
0.0
 11
578.124573
 21
-68.982935
 31
0.0
  0
LINE
  8
0
  6
BYLAYER
 62
     7
 10
576.124573
 20
-86.982935
 30
0.0
 11
568.124573
 21
-86.982935
 31
0.0
  0
LINE
  8
0
  6
BYLAYER
 62
     7
 10
576.124573
 20
-68.982935
 30
0.0
 11
576.124573
 21
-76.982935
 31
0.0
  0
LINE
  8
0
  6
BYLAYER
 62
     7
 10
576.124573
 20
-78.982935
 30
0.0
 11
576.124573
 21
-86.982935
 31
0.0
  0
LINE
  8
0
  6
BYLAYER
 62
     7
 10
576.124573
 20
-78.982935
 30
0.0
 11
568.124573
 21
-78.982935
 31
0.0
  0
LINE
  8
0
  6
BYLAYER
 62
     7
 10
576.124573
 20
-76.982935
 30
0.0
 11
568.124573
 21
-76.982935
 31
0.0
  0
LINE
  8
0
  6
BYLAYER
 62
     7
 10
576.124573
 20
-68.982935
 30
0.0
 11
568.124573
 21
-68.982935
 31
0.0
  0
LINE
  8
0
  6
BYLAYER
 62
     7
 10
568.124573
 20
-86.982935
 30
0.0
 11
568.124573
 21
-78.982935
 31
0.0
  0
LINE
  8
0
  6
BYLAYER
 62
     7
 10
568.124573
 20
-76.982935
 30
0.0
 11
568.124573
 21
-68.982935
 31
0.0
  0
LINE
  8
0
  6
BYLAYER
 62
     7
 10
586.124573
 20
-96.982935
 30
0.0
 11
578.124573
 21
-96.982935
 31
0.0
  0
LINE
  8
0
  6
BYLAYER
 62
     7
 10
586.124573
 20
-88.982935
 30
0.0
 11
586.124573
 21
-96.982935
 31
0.0
  0
LINE
  8
0
  6
BYLAYER
 62
     7
 10
586.124573
 20
-88.982935
 30
0.0
 11
578.124573
 21
-88.982935
 31
0.0
  0
LINE
  8
0
  6
BYLAYER
 62
     7
 10
578.124573
 20
-96.982935
 30
0.0
 11
578.124573
 21
-88.982935
 31
0.0
  0
LINE
  8
0
  6
BYLAYER
 62
     7
 10
576.124573
 20
-96.982935
 30
0.0
 11
568.124573
 21
-96.982935
 31
0.0
  0
LINE
  8
0
  6
BYLAYER
 62
     7
 10
576.124573
 20
-88.982935
 30
0.0
 11
576.124573
 21
-96.982935
 31
0.0
  0
LINE
  8
0
  6
BYLAYER
 62
     7
 10
576.124573
 20
-88.982935
 30
0.0
 11
568.124573
 21
-88.982935
 31
0.0
  0
LINE
  8
0
  6
BYLAYER
 62
     7
 10
568.124573
 20
-96.982935
 30
0.0
 11
568.124573
 21
-88.982935
 31
0.0
  0
LINE
  8
0
  6
BYLAYER
 62
     7
 10
566.124573
 20
-86.982935
 30
0.0
 11
558.124573
 21
-86.982935
 31
0.0
  0
LINE
  8
0
  6
BYLAYER
 62
     7
 10
566.124573
 20
-78.982935
 30
0.0
 11
566.124573
 21
-86.982935
 31
0.0
  0
LINE
  8
0
  6
BYLAYER
 62
     7
 10
566.124573
 20
-78.982935
 30
0.0
 11
558.124573
 21
-78.982935
 31
0.0
  0
LINE
  8
0
  6
BYLAYER
 62
     7
 10
558.124573
 20
-86.982935
 30
0.0
 11
558.124573
 21
-78.982935
 31
0.0
  0
LINE
  8
0
  6
BYLAYER
 62
     7
 10
566.124573
 20
-96.982935
 30
0.0
 11
558.124573
 21
-96.982935
 31
0.0
  0
LINE
  8
0
  6
BYLAYER
 62
     7
 10
566.124573
 20
-88.982935
 30
0.0
 11
566.124573
 21
-96.982935
 31
0.0
  0
LINE
  8
0
  6
BYLAYER
 62
     7
 10
566.124573
 20
-88.982935
 30
0.0
 11
558.124573
 21
-88.982935
 31
0.0
  0
LINE
  8
0
  6
BYLAYER
 62
     7
 10
558.124573
 20
-96.982935
 30
0.0
 11
558.124573
 21
-88.982935
 31
0.0
  0
LINE
  8
0
  6
BYLAYER
 62
     7
 10
596.124573
 20
-108.982935
 30
0.0
 11
588.124573
 21
-108.982935
 31
0.0
  0
LINE
  8
0
  6
BYLAYER
 62
     7
 10
596.124573
 20
-126.982935
 30
0.0
 11
596.124573
 21
-118.982935
 31
0.0
  0
LINE
  8
0
  6
BYLAYER
 62
     7
 10
596.124573
 20
-136.982935
 30
0.0
 11
596.124573
 21
-128.982935
 31
0.0
  0
LINE
  8
0
  6
BYLAYER
 62
     7
 10
596.124573
 20
-116.982935
 30
0.0
 11
596.124573
 21
-108.982935
 31
0.0
  0
LINE
  8
0
  6
BYLAYER
 62
     7
 10
588.124573
 20
-128.982935
 30
0.0
 11
588.124573
 21
-136.982935
 31
0.0
  0
LINE
  8
0
  6
BYLAYER
 62
     7
 10
586.124573
 20
-128.982935
 30
0.0
 11
586.124573
 21
-136.982935
 31
0.0
  0
LINE
  8
0
  6
BYLAYER
 62
     7
 10
596.124573
 20
-116.982935
 30
0.0
 11
588.124573
 21
-116.982935
 31
0.0
  0
LINE
  8
0
  6
BYLAYER
 62
     7
 10
596.124573
 20
-118.982935
 30
0.0
 11
588.124573
 21
-118.982935
 31
0.0
  0
LINE
  8
0
  6
BYLAYER
 62
     7
 10
596.124573
 20
-126.982935
 30
0.0
 11
588.124573
 21
-126.982935
 31
0.0
  0
LINE
  8
0
  6
BYLAYER
 62
     7
 10
586.124573
 20
-128.982935
 30
0.0
 11
578.286574
 21
-128.982935
 31
0.0
  0
LINE
  8
0
  6
BYLAYER
 62
     7
 10
596.124573
 20
-128.982935
 30
0.0
 11
588.124573
 21
-128.982935
 31
0.0
  0
LINE
  8
0
  6
BYLAYER
 62
     7
 10
586.124573
 20
-136.982935
 30
0.0
 11
578.286574
 21
-136.982935
 31
0.0
  0
LINE
  8
0
  6
BYLAYER
 62
     7
 10
596.124573
 20
-136.982935
 30
0.0
 11
588.124573
 21
-136.982935
 31
0.0
  0
LINE
  8
0
  6
BYLAYER
 62
     7
 10
578.286574
 20
-128.982935
 30
0.0
 11
578.286574
 21
-136.982935
 31
0.0
  0
LINE
  8
0
  6
BYLAYER
 62
     7
 10
588.124573
 20
-108.982935
 30
0.0
 11
588.124573
 21
-116.982935
 31
0.0
  0
LINE
  8
0
  6
BYLAYER
 62
     7
 10
588.124573
 20
-118.982935
 30
0.0
 11
588.124573
 21
-126.982935
 31
0.0
  0
LINE
  8
0
  6
BYLAYER
 62
     7
 10
586.124573
 20
-108.982935
 30
0.0
 11
578.124573
 21
-108.982935
 31
0.0
  0
LINE
  8
0
  6
BYLAYER
 62
     7
 10
586.124573
 20
-126.982935
 30
0.0
 11
586.124573
 21
-118.982935
 31
0.0
  0
LINE
  8
0
  6
BYLAYER
 62
     7
 10
586.124573
 20
-116.982935
 30
0.0
 11
586.124573
 21
-108.982935
 31
0.0
  0
LINE
  8
0
  6
BYLAYER
 62
     7
 10
586.124573
 20
-116.982935
 30
0.0
 11
578.124573
 21
-116.982935
 31
0.0
  0
LINE
  8
0
  6
BYLAYER
 62
     7
 10
586.124573
 20
-118.982935
 30
0.0
 11
578.124573
 21
-118.982935
 31
0.0
  0
LINE
  8
0
  6
BYLAYER
 62
     7
 10
586.124573
 20
-126.982935
 30
0.0
 11
578.124573
 21
-126.982935
 31
0.0
  0
LINE
  8
0
  6
BYLAYER
 62
     7
 10
578.124573
 20
-108.982935
 30
0.0
 11
578.124573
 21
-116.982935
 31
0.0
  0
LINE
  8
0
  6
BYLAYER
 62
     7
 10
578.124573
 20
-118.982935
 30
0.0
 11
578.124573
 21
-126.982935
 31
0.0
  0
LINE
  8
0
  6
BYLAYER
 62
     7
 10
576.124573
 20
-108.982935
 30
0.0
 11
568.124573
 21
-108.982935
 31
0.0
  0
LINE
  8
0
  6
BYLAYER
 62
     7
 10
576.124573
 20
-126.982935
 30
0.0
 11
576.124573
 21
-118.982935
 31
0.0
  0
LINE
  8
0
  6
BYLAYER
 62
     7
 10
576.124573
 20
-116.982935
 30
0.0
 11
576.124573
 21
-108.982935
 31
0.0
  0
LINE
  8
0
  6
BYLAYER
 62
     7
 10
576.124573
 20
-116.982935
 30
0.0
 11
568.124573
 21
-116.982935
 31
0.0
  0
LINE
  8
0
  6
BYLAYER
 62
     7
 10
576.124573
 20
-118.982935
 30
0.0
 11
568.124573
 21
-118.982935
 31
0.0
  0
LINE
  8
0
  6
BYLAYER
 62
     7
 10
576.124573
 20
-126.982935
 30
0.0
 11
568.124573
 21
-126.982935
 31
0.0
  0
LINE
  8
0
  6
BYLAYER
 62
     7
 10
568.124573
 20
-108.982935
 30
0.0
 11
568.124573
 21
-116.982935
 31
0.0
  0
LINE
  8
0
  6
BYLAYER
 62
     7
 10
568.124573
 20
-118.982935
 30
0.0
 11
568.124573
 21
-126.982935
 31
0.0
  0
LINE
  8
0
  6
BYLAYER
 62
     7
 10
586.124573
 20
-98.982935
 30
0.0
 11
578.124573
 21
-98.982935
 31
0.0
  0
LINE
  8
0
  6
BYLAYER
 62
     7
 10
586.124573
 20
-106.982935
 30
0.0
 11
586.124573
 21
-98.982935
 31
0.0
  0
LINE
  8
0
  6
BYLAYER
 62
     7
 10
586.124573
 20
-106.982935
 30
0.0
 11
578.124573
 21
-106.982935
 31
0.0
  0
LINE
  8
0
  6
BYLAYER
 62
     7
 10
578.124573
 20
-98.982935
 30
0.0
 11
578.124573
 21
-106.982935
 31
0.0
  0
LINE
  8
0
  6
BYLAYER
 62
     7
 10
576.124573
 20
-98.982935
 30
0.0
 11
568.124573
 21
-98.982935
 31
0.0
  0
LINE
  8
0
  6
BYLAYER
 62
     7
 10
576.124573
 20
-106.982935
 30
0.0
 11
576.124573
 21
-98.982935
 31
0.0
  0
LINE
  8
0
  6
BYLAYER
 62
     7
 10
576.124573
 20
-106.982935
 30
0.0
 11
568.124573
 21
-106.982935
 31
0.0
  0
LINE
  8
0
  6
BYLAYER
 62
     7
 10
568.124573
 20
-98.982935
 30
0.0
 11
568.124573
 21
-106.982935
 31
0.0
  0
LINE
  8
0
  6
BYLAYER
 62
     7
 10
566.124573
 20
-108.982935
 30
0.0
 11
558.124573
 21
-108.982935
 31
0.0
  0
LINE
  8
0
  6
BYLAYER
 62
     7
 10
566.124573
 20
-116.982935
 30
0.0
 11
566.124573
 21
-108.982935
 31
0.0
  0
LINE
  8
0
  6
BYLAYER
 62
     7
 10
566.124573
 20
-116.982935
 30
0.0
 11
558.124573
 21
-116.982935
 31
0.0
  0
LINE
  8
0
  6
BYLAYER
 62
     7
 10
558.124573
 20
-108.982935
 30
0.0
 11
558.124573
 21
-116.982935
 31
0.0
  0
LINE
  8
0
  6
BYLAYER
 62
     7
 10
566.124573
 20
-98.982935
 30
0.0
 11
558.124573
 21
-98.982935
 31
0.0
  0
LINE
  8
0
  6
BYLAYER
 62
     7
 10
566.124573
 20
-106.982935
 30
0.0
 11
566.124573
 21
-98.982935
 31
0.0
  0
LINE
  8
0
  6
BYLAYER
 62
     7
 10
566.124573
 20
-106.982935
 30
0.0
 11
558.124573
 21
-106.982935
 31
0.0
  0
LINE
  8
0
  6
BYLAYER
 62
     7
 10
558.124573
 20
-98.982935
 30
0.0
 11
558.124573
 21
-106.982935
 31
0.0
  0
LINE
  8
0
  6
BYLAYER
 62
     7
 10
563.124512
 20
-42.479090
 30
0.0
 11
563.124512
 21
-47.819643
 31
0.0
  0
LINE
  8
0
  6
BYLAYER
 62
     7
 10
631.124512
 20
-42.479029
 30
0.0
 11
631.124512
 21
-47.819560
 31
0.0
  0
CIRCLE
  8
0
  6
BYLAYER
 62
     7
 10
597.124573
 20
-97.982935
 30
0.0
 40
4.0
  0
ARC
  8
0
  6
BYLAYER
 62
     7
 10
632.874512
 20
-22.282984
 30
0.0
 40
1.500000
 50
180.000000
 51
265.219808
  0
ARC
  8
0
  6
BYLAYER
 62
     7
 10
561.374512
 20
-22.282984
 30
0.0
 40
1.5
 50
274.780192
 51
360.0
  0
ARC
  8
0
  6
BYLAYER
 62
     7
 10
569.370174
 20
-22.282984
 30
0.0
 40
1.5
 50
270.0
 51
360.0
  0
LINE
  8
0
  6
BYLAYER
 62
     7
 10
631.374512
 20
-22.282984
 30
0.0
 11
631.374512
 21
-0.782984
 31
0.0
  0
LINE
  8
0
  6
BYLAYER
 62
     7
 10
629.874512
 20
0.717016
 30
0.0
 11
564.374512
 21
0.717016
 31
0.0
  0
ARC
  8
0
  6
BYLAYER
 62
     7
 10
629.874512
 20
-0.782984
 30
0.0
 40
1.5
 50
0.0
 51
90.0
  0
ARC
  8
0
  6
BYLAYER
 62
     7
 10
564.374512
 20
-0.782984
 30
0.0
 40
1.5
 50
90.0
 51
180.0
  0
LINE
  8
0
  6
BYLAYER
 62
     7
 10
562.874512
 20
-22.282984
 30
0.0
 11
562.874512
 21
-0.782984
 31
0.0
  0
LINE
  8
0
  6
BYLAYER
 62
     7
 10
570.870174
 20
-22.282984
 30
0.0
 11
570.870174
 21
-0.782984
 31
0.0
  0
ARC
  8
0
  6
BYLAYER
 62
     7
 10
572.370174
 20
-0.782984
 30
0.0
 40
1.5
 50
90.0
 51
180.0
  0
ARC
  8
0
  6
BYLAYER
 62
     7
 10
621.878850
 20
-0.782984
 30
0.0
 40
1.5
 50
0.0
 51
90.0
  0
LINE
  8
0
  6
BYLAYER
 62
     7
 10
576.530859
 20
0.717016
 30
0.0
 11
577.023406
 21
-13.387682
 31
0.0
  0
ARC
  8
0
  6
BYLAYER
 62
     7
 10
580.021578
 20
-13.282984
 30
0.0
 40
3.000000
 50
182.000000
 51
270.000000
  0
LINE
  8
0
  6
BYLAYER
 62
     7
 10
587.225618
 20
-13.387682
 30
0.0
 11
587.718165
 21
0.717016
 31
0.0
  0
ARC
  8
0
  6
BYLAYER
 62
     7
 10
584.227446
 20
-13.282984
 30
0.0
 40
3.000000
 50
270.0
 51
358.0
  0
LINE
  8
0
  6
BYLAYER
 62
     7
 10
602.225618
 20
-13.387682
 30
0.0
 11
602.718165
 21
0.717016
 31
0.0
  0
ARC
  8
0
  6
BYLAYER
 62
     7
 10
599.227446
 20
-13.282984
 30
0.0
 40
3.000000
 50
270.0
 51
358.0
  0
LINE
  8
0
  6
BYLAYER
 62
     7
 10
617.225618
 20
-13.387682
 30
0.0
 11
617.718165
 21
0.717016
 31
0.0
  0
ARC
  8
0
  6
BYLAYER
 62
     7
 10
614.227446
 20
-13.282984
 30
0.0
 40
3.000000
 50
270.0
 51
358.0
  0
LINE
  8
0
  6
BYLAYER
 62
     7
 10
606.530859
 20
0.717016
 30
0.0
 11
607.023406
 21
-13.387682
 31
0.0
  0
ARC
  8
0
  6
BYLAYER
 62
     7
 10
610.021578
 20
-13.282984
 30
0.0
 40
3.000000
 50
182.000000
 51
270.000000
  0
LINE
  8
0
  6
BYLAYER
 62
     7
 10
591.530859
 20
0.717016
 30
0.0
 11
592.023406
 21
-13.387682
 31
0.0
  0
ARC
  8
0
  6
BYLAYER
 62
     7
 10
595.021578
 20
-13.282984
 30
0.0
 40
3.000000
 50
182.000000
 51
270.000000
  0
LINE
  8
0
  6
BYLAYER
 62
     7
 10
610.021578
 20
-16.282984
 30
0.0
 11
614.227446
 21
-16.282984
 31
0.0
  0
LINE
  8
0
  6
BYLAYER
 62
     7
 10
595.021578
 20
-16.282984
 30
0.0
 11
599.227446
 21
-16.282984
 31
0.0
  0
LINE
  8
0
  6
BYLAYER
 62
     7
 10
580.021578
 20
-16.282984
 30
0.0
 11
584.227446
 21
-16.282984
 31
0.0
  0
LINE
  8
0
  6
BYLAYER
 62
     7
 10
591.565780
 20
-0.282984
 30
0.0
 11
602.683244
 21
-0.282984
 31
0.0
  0
LINE
  8
0
  6
BYLAYER
 62
     7
 10
606.565780
 20
-0.282984
 30
0.0
 11
617.683244
 21
-0.282984
 31
0.0
  0
LINE
  8
0
  6
BYLAYER
 62
     7
 10
576.565780
 20
-0.282984
 30
0.0
 11
587.683244
 21
-0.282984
 31
0.0
  0
LINE
  8
0
  6
BYLAYER
 62
     7
 10
623.378850
 20
-0.782984
 30
0.0
 11
623.378850
 21
-22.282984
 31
0.0
  0
ARC
  8
0
  6
BYLAYER
 62
     7
 10
561.624512
 20
-25.272549
 30
0.0
 40
1.500000
 50
94.780192
 51
180.000000
  0
LINE
  8
0
  6
BYLAYER
 62
     7
 10
561.624512
 20
-23.782984
 30
0.0
 11
632.874512
 21
-23.782984
 31
0.0
  0
ARC
  8
0
  6
BYLAYER
 62
     7
 10
632.624512
 20
-25.272549
 30
0.0
 40
1.500000
 50
0.0
 51
85.219808
  0
LINE
  8
0
  6
BYLAYER
 62
     7
 10
634.124512
 20
-32.782984
 30
0.0
 11
634.124512
 21
-25.272549
 31
0.0
  0
ARC
  8
0
  6
BYLAYER
 62
     7
 10
624.878850
 20
-22.282984
 30
0.0
 40
1.5
 50
180.000000
 51
270.000000
  0
LINE
  8
0
  6
BYLAYER
 62
     7
 10
634.124512
 20
-30.782923
 30
0.0
 11
560.124512
 21
-30.782923
 31
0.0
  0
LINE
  8
0
  6
BYLAYER
 62
     7
 10
560.124512
 20
-25.272549
 30
0.0
 11
560.124512
 21
-32.782984
 31
0.0
  0
LINE
  8
0
  6
BYLAYER
 62
     7
 10
560.124512
 20
-32.782984
 30
0.0
 11
634.124512
 21
-32.782984
 31
0.0
  0
LINE
  8
0
  6
BYLAYER
 62
     7
 10
560.124512
 20
-349.782984
 30
0.0
 11
560.124512
 21
-355.560755
 31
0.0
  0
LINE
  8
0
  6
BYLAYER
 62
     7
 10
634.124512
 20
-349.782923
 30
0.0
 11
634.124512
 21
-355.560679
 31
0.0
  0
ARC
  8
0
  6
BYLAYER
 62
     7
 10
632.874512
 20
-339.282984
 30
0.0
 40
1.500000
 50
180.000000
 51
265.219808
  0
ARC
  8
0
  6
BYLAYER
 62
     7
 10
561.374512
 20
-339.282984
 30
0.0
 40
1.500000
 50
274.780192
 51
360.000000
  0
ARC
  8
0
  6
BYLAYER
 62
     7
 10
569.370174
 20
-339.282984
 30
0.0
 40
1.5
 50
270.0
 51
360.0
  0
LINE
  8
0
  6
BYLAYER
 62
     7
 10
631.374512
 20
-339.282984
 30
0.0
 11
631.374512
 21
-317.782984
 31
0.0
  0
LINE
  8
0
  6
BYLAYER
 62
     7
 10
629.874512
 20
-316.282984
 30
0.0
 11
564.374512
 21
-316.282984
 31
0.0
  0
ARC
  8
0
  6
BYLAYER
 62
     7
 10
629.874512
 20
-317.782984
 30
0.0
 40
1.5
 50
0.0
 51
90.0
  0
ARC
  8
0
  6
BYLAYER
 62
     7
 10
564.374512
 20
-317.782984
 30
0.0
 40
1.5
 50
90.0
 51
180.0
  0
LINE
  8
0
  6
BYLAYER
 62
     7
 10
562.874512
 20
-339.282984
 30
0.0
 11
562.874512
 21
-317.782984
 31
0.0
  0
LINE
  8
0
  6
BYLAYER
 62
     7
 10
570.870174
 20
-339.282984
 30
0.0
 11
570.870174
 21
-317.782984
 31
0.0
  0
ARC
  8
0
  6
BYLAYER
 62
     7
 10
572.370174
 20
-317.782984
 30
0.0
 40
1.5
 50
90.0
 51
180.0
  0
ARC
  8
0
  6
BYLAYER
 62
     7
 10
621.878850
 20
-317.782984
 30
0.0
 40
1.5
 50
0.0
 51
90.0
  0
LINE
  8
0
  6
BYLAYER
 62
     7
 10
576.530859
 20
-316.282984
 30
0.0
 11
577.023406
 21
-330.387682
 31
0.0
  0
ARC
  8
0
  6
BYLAYER
 62
     7
 10
580.021578
 20
-330.282984
 30
0.0
 40
3.000000
 50
182.0
 51
270.0
  0
LINE
  8
0
  6
BYLAYER
 62
     7
 10
587.225618
 20
-330.387682
 30
0.0
 11
587.718165
 21
-316.282984
 31
0.0
  0
ARC
  8
0
  6
BYLAYER
 62
     7
 10
584.227446
 20
-330.282984
 30
0.0
 40
3.000000
 50
270.0
 51
358.0
  0
LINE
  8
0
  6
BYLAYER
 62
     7
 10
602.225618
 20
-330.387682
 30
0.0
 11
602.718165
 21
-316.282984
 31
0.0
  0
ARC
  8
0
  6
BYLAYER
 62
     7
 10
599.227446
 20
-330.282984
 30
0.0
 40
3.000000
 50
270.0
 51
358.0
  0
LINE
  8
0
  6
BYLAYER
 62
     7
 10
617.225618
 20
-330.387682
 30
0.0
 11
617.718165
 21
-316.282984
 31
0.0
  0
ARC
  8
0
  6
BYLAYER
 62
     7
 10
614.227446
 20
-330.282984
 30
0.0
 40
3.000000
 50
270.0
 51
358.0
  0
LINE
  8
0
  6
BYLAYER
 62
     7
 10
606.530859
 20
-316.282984
 30
0.0
 11
607.023406
 21
-330.387682
 31
0.0
  0
ARC
  8
0
  6
BYLAYER
 62
     7
 10
610.021578
 20
-330.282984
 30
0.0
 40
3.000000
 50
182.0
 51
270.0
  0
LINE
  8
0
  6
BYLAYER
 62
     7
 10
591.530859
 20
-316.282984
 30
0.0
 11
592.023406
 21
-330.387682
 31
0.0
  0
ARC
  8
0
  6
BYLAYER
 62
     7
 10
595.021578
 20
-330.282984
 30
0.0
 40
3.000000
 50
182.0
 51
270.0
  0
LINE
  8
0
  6
BYLAYER
 62
     7
 10
610.021578
 20
-333.282984
 30
0.0
 11
614.227446
 21
-333.282984
 31
0.0
  0
LINE
  8
0
  6
BYLAYER
 62
     7
 10
595.021578
 20
-333.282984
 30
0.0
 11
599.227446
 21
-333.282984
 31
0.0
  0
LINE
  8
0
  6
BYLAYER
 62
     7
 10
580.021578
 20
-333.282984
 30
0.0
 11
584.227446
 21
-333.282984
 31
0.0
  0
LINE
  8
0
  6
BYLAYER
 62
     7
 10
591.565780
 20
-317.282984
 30
0.0
 11
602.683244
 21
-317.282984
 31
0.0
  0
LINE
  8
0
  6
BYLAYER
 62
     7
 10
606.565780
 20
-317.282984
 30
0.0
 11
617.683244
 21
-317.282984
 31
0.0
  0
LINE
  8
0
  6
BYLAYER
 62
     7
 10
576.565780
 20
-317.282984
 30
0.0
 11
587.683244
 21
-317.282984
 31
0.0
  0
LINE
  8
0
  6
BYLAYER
 62
     7
 10
623.378850
 20
-317.782984
 30
0.0
 11
623.378850
 21
-339.282984
 31
0.0
  0
ARC
  8
0
  6
BYLAYER
 62
     7
 10
561.624512
 20
-342.272549
 30
0.0
 40
1.500000
 50
94.780192
 51
180.000000
  0
LINE
  8
0
  6
BYLAYER
 62
     7
 10
561.624512
 20
-340.782984
 30
0.0
 11
632.874512
 21
-340.782984
 31
0.0
  0
ARC
  8
0
  6
BYLAYER
 62
     7
 10
632.624512
 20
-342.272549
 30
0.0
 40
1.500000
 50
0.0
 51
85.219808
  0
LINE
  8
0
  6
BYLAYER
 62
     7
 10
634.124512
 20
-349.782984
 30
0.0
 11
634.124512
 21
-342.272549
 31
0.0
  0
ARC
  8
0
  6
BYLAYER
 62
     7
 10
624.878850
 20
-339.282984
 30
0.0
 40
1.5
 50
180.000000
 51
270.000000
  0
LINE
  8
0
  6
BYLAYER
 62
     7
 10
577.524614
 20
-347.782923
 30
0.0
 11
560.124512
 21
-347.782923
 31
0.0
  0
LINE
  8
0
  6
BYLAYER
 62
     7
 10
634.124512
 20
-347.782923
 30
0.0
 11
616.724532
 21
-347.782923
 31
0.0
  0
LINE
  8
0
  6
BYLAYER
 62
     7
 10
560.124512
 20
-342.272549
 30
0.0
 11
560.124512
 21
-349.782984
 31
0.0
  0
LINE
  8
0
  6
BYLAYER
 62
     7
 10
560.124512
 20
-349.782984
 30
0.0
 11
571.649754
 21
-349.782984
 31
0.0
  0
LINE
  8
0
  6
BYLAYER
 62
     7
 10
622.599392
 20
-349.782984
 30
0.0
 11
634.124512
 21
-349.782984
 31
0.0
  0
ARC
  8
0
  6
BYLAYER
 62
     1
 10
597.124573
 20
-414.982935
 30
0.0
 40
70.0
 50
294.474343
 51
605.525657
  0
ARC
  8
0
  6
BYLAYER
 62
     1
 10
597.124573
 20
-414.982935
 30
0.0
 40
70.0
 50
256.787020
 51
283.21298
  0
ARC
  8
0
  6
BYLAYER
 62
     1
 10
565.539978
 20
-419.116968
 30
0.0
 40
5.635380
 50
62.700800
 51
90.538030
  0
ARC
  8
0
  6
BYLAYER
 62
     1
 10
565.539856
 20
-410.848780
 30
0.0
 40
5.635472
 50
269.461973
 51
297.300116
  0
ARC
  8
0
  6
BYLAYER
 62
     1
 10
539.124573
 20
-439.583527
 30
0.0
 40
26.100653
 50
90.0
 51
102.634515
  0
ARC
  8
0
  6
BYLAYER
 62
     1
 10
534.036546
 20
-416.885240
 30
0.0
 40
2.839091
 50
102.634515
 51
123.765210
  0
ARC
  8
0
  6
BYLAYER
 62
     1
 10
533.088114
 20
-415.466626
 30
0.0
 40
1.132636
 50
123.765210
 51
141.819817
  0
ARC
  8
0
  6
BYLAYER
 62
     1
 10
532.480925
 20
-414.982874
 30
0.0
 40
0.356352
 50
142.613743
 51
180.000000
  0
ARC
  8
0
  6
BYLAYER
 62
     1
 10
532.480925
 20
-414.982874
 30
0.0
 40
0.356352
 50
180.000000
 51
217.386257
  0
ARC
  8
0
  6
BYLAYER
 62
     1
 10
533.088114
 20
-414.499122
 30
0.0
 40
1.132636
 50
218.180183
 51
236.234790
  0
ARC
  8
0
  6
BYLAYER
 62
     1
 10
534.036546
 20
-413.080508
 30
0.0
 40
2.839091
 50
236.234790
 51
257.365485
  0
ARC
  8
0
  6
BYLAYER
 62
     1
 10
539.124573
 20
-390.382221
 30
0.0
 40
26.100653
 50
257.365485
 51
270.0
  0
LINE
  8
0
  6
BYLAYER
 62
     1
 10
565.539978
 20
-413.483057
 30
0.0
 11
539.241883
 21
-413.483088
 31
0.0
  0
LINE
  8
0
  6
BYLAYER
 62
     1
 10
565.539856
 20
-416.483057
 30
0.0
 11
539.241883
 21
-416.483088
 31
0.0
  0
ARC
  8
0
  6
BYLAYER
 62
     1
 10
578.886152
 20
-472.975728
 30
0.0
 40
14.648284
 50
154.868214
 51
171.487327
  0
ARC
  8
0
  6
BYLAYER
 62
     1
 10
564.854860
 20
-470.875565
 30
0.0
 40
0.460688
 50
171.487327
 51
239.999487
  0
ARC
  8
0
  6
BYLAYER
 62
     1
 10
564.818111
 20
-470.939214
 30
0.0
 40
0.387192
 50
239.999487
 51
289.916734
  0
ARC
  8
0
  6
BYLAYER
 62
     1
 10
564.102141
 20
-468.963171
 30
0.0
 40
2.488943
 50
289.916734
 51
307.710947
  0
ARC
  8
0
  6
BYLAYER
 62
     1
 10
630.146665
 20
-468.963614
 30
0.0
 40
2.488507
 50
232.291210
 51
250.085460
  0
ARC
  8
0
  6
BYLAYER
 62
     1
 10
629.430916
 20
-470.939281
 30
0.0
 40
0.387186
 50
250.085460
 51
300.000513
  0
ARC
  8
0
  6
BYLAYER
 62
     1
 10
629.394166
 20
-470.875628
 30
0.0
 40
0.460685
 50
300.000513
 51
368.512090
  0
ARC
  8
0
  6
BYLAYER
 62
     1
 10
615.363764
 20
-472.975513
 30
0.0
 40
14.647358
 50
8.512090
 51
25.131165
  0
ARC
  8
0
  6
BYLAYER
 62
     1
 10
628.709168
 20
-410.848902
 30
0.0
 40
5.635380
 50
243.105830
 51
270.538028
  0
ARC
  8
0
  6
BYLAYER
 62
     1
 10
628.709290
 20
-419.117090
 30
0.0
 40
5.635472
 50
89.461961
 51
116.894904
  0
ARC
  8
0
  6
BYLAYER
 62
     1
 10
626.612427
 20
-414.982935
 30
0.0
 40
1.000024
 50
116.897417
 51
243.103399
  0
ARC
  8
0
  6
BYLAYER
 62
     1
 10
655.124573
 20
-390.382343
 30
0.0
 40
26.100653
 50
270.0
 51
282.634515
  0
ARC
  8
0
  6
BYLAYER
 62
     1
 10
660.212600
 20
-413.080630
 30
0.0
 40
2.839091
 50
282.634515
 51
303.765210
  0
ARC
  8
0
  6
BYLAYER
 62
     1
 10
661.161032
 20
-414.499244
 30
0.0
 40
1.132636
 50
303.765210
 51
321.819817
  0
ARC
  8
0
  6
BYLAYER
 62
     1
 10
661.768221
 20
-414.982996
 30
0.0
 40
0.356352
 50
322.613743
 51
360.000000
  0
ARC
  8
0
  6
BYLAYER
 62
     1
 10
661.768221
 20
-414.982996
 30
0.0
 40
0.356352
 50
0.0
 51
37.386257
  0
ARC
  8
0
  6
BYLAYER
 62
     1
 10
661.161032
 20
-415.466748
 30
0.0
 40
1.132636
 50
38.180183
 51
56.234790
  0
ARC
  8
0
  6
BYLAYER
 62
     1
 10
660.212600
 20
-416.885362
 30
0.0
 40
2.839091
 50
56.234790
 51
77.365485
  0
ARC
  8
0
  6
BYLAYER
 62
     1
 10
655.124573
 20
-439.583649
 30
0.0
 40
26.100653
 50
77.365485
 51
90.0
  0
LINE
  8
0
  6
BYLAYER
 62
     1
 10
628.709168
 20
-416.482813
 30
0.0
 11
655.007263
 21
-416.482782
 31
0.0
  0
LINE
  8
0
  6
BYLAYER
 62
     1
 10
628.709290
 20
-413.482813
 30
0.0
 11
655.007263
 21
-413.482782
 31
0.0
  0
ARC
  8
0
  6
BYLAYER
 62
     1
 10
616.497193
 20
-389.696833
 30
0.0
 40
5.635445
 50
149.461956
 51
172.722220
  0
ARC
  8
0
  6
BYLAYER
 62
     1
 10
604.819601
 20
-352.453021
 30
0.0
 40
26.100918
 50
329.999968
 51
342.634359
  0
ARC
  8
0
  6
BYLAYER
 62
     1
 10
627.021169
 20
-359.395951
 30
0.0
 40
2.839063
 50
342.634359
 51
363.765011
  0
ARC
  8
0
  6
BYLAYER
 62
     1
 10
628.723929
 20
-359.283899
 30
0.0
 40
1.132620
 50
3.765011
 51
21.819440
  0
ARC
  8
0
  6
BYLAYER
 62
     1
 10
629.446459
 20
-358.999941
 30
0.0
 40
0.356344
 50
22.613266
 51
59.999487
  0
ARC
  8
0
  6
BYLAYER
 62
     1
 10
629.446461
 20
-358.999938
 30
0.0
 40
0.356341
 50
59.999487
 51
97.386059
  0
ARC
  8
0
  6
BYLAYER
 62
     1
 10
629.561803
 20
-359.767634
 30
0.0
 40
1.132603
 50
98.180034
 51
116.234736
  0
ARC
  8
0
  6
BYLAYER
 62
     1
 10
630.316129
 20
-361.298284
 30
0.0
 40
2.839031
 50
116.234736
 51
137.365533
  0
ARC
  8
0
  6
BYLAYER
 62
     1
 10
647.429624
 20
-377.053959
 30
0.0
 40
26.100867
 50
137.365533
 51
149.999945
  0
LINE
  8
0
  6
BYLAYER
 62
     1
 10
624.825623
 20
-364.003504
 30
0.0
 11
624.825614
 21
-364.003518
 31
0.0
  0
LINE
  8
0
  6
BYLAYER
 62
     1
 10
614.444961
 20
-387.982932
 30
0.0
 11
627.364807
 21
-365.604975
 31
0.0
  0
LINE
  8
0
  6
BYLAYER
 62
     1
 10
611.617798
 20
-386.879694
 30
0.0
 11
624.766724
 21
-364.104975
 31
0.0
  0
ARC
  8
0
  6
BYLAYER
 62
     1
 10
577.752075
 20
-389.696894
 30
0.0
 40
5.635429
 50
7.278425
 51
30.538032
  0
ARC
  8
0
  6
BYLAYER
 62
     1
 10
546.820086
 20
-377.053412
 30
0.0
 40
26.100241
 50
29.999649
 51
42.634258
  0
ARC
  8
0
  6
BYLAYER
 62
     1
 10
563.933081
 20
-361.298312
 30
0.0
 40
2.839163
 50
42.634258
 51
63.764715
  0
ARC
  8
0
  6
BYLAYER
 62
     1
 10
564.687446
 20
-359.767619
 30
0.0
 40
1.132679
 50
63.764715
 51
81.818989
  0
ARC
  8
0
  6
BYLAYER
 62
     1
 10
564.802808
 20
-358.999874
 30
0.0
 40
0.356365
 50
82.612733
 51
119.998338
  0
ARC
  8
0
  6
BYLAYER
 62
     1
 10
564.802808
 20
-358.999848
 30
0.0
 40
0.356343
 50
120.000513
 51
157.386724
  0
ARC
  8
0
  6
BYLAYER
 62
     1
 10
565.525339
 20
-359.283807
 30
0.0
 40
1.132620
 50
158.180522
 51
176.234903
  0
ARC
  8
0
  6
BYLAYER
 62
     1
 10
567.228104
 20
-359.395863
 30
0.0
 40
2.839067
 50
176.234903
 51
197.365543
  0
ARC
  8
0
  6
BYLAYER
 62
     1
 10
589.429854
 20
-352.452917
 30
0.0
 40
26.101102
 50
197.365543
 51
209.999901
  0
LINE
  8
0
  6
BYLAYER
 62
     1
 10
582.631226
 20
-386.879938
 30
0.0
 11
569.482117
 21
-364.105127
 31
0.0
  0
LINE
  8
0
  6
BYLAYER
 62
     1
 10
579.803941
 20
-387.982935
 30
0.0
 11
566.884033
 21
-365.605127
 31
0.0
  0
ARC
  8
0
  6
BYLAYER
 62
     1
 10
597.124573
 20
-414.982935
 30
0.0
 40
47.947392
 50
1.792935
 51
58.207439
  0
ARC
  8
0
  6
BYLAYER
 62
     1
 10
597.124573
 20
-414.982935
 30
0.0
 40
47.947353
 50
311.069238
 51
358.207441
  0
ARC
  8
0
  6
BYLAYER
 62
     1
 10
597.124573
 20
-414.982935
 30
0.0
 40
47.947483
 50
181.792889
 51
228.930897
  0
ARC
  8
0
  6
BYLAYER
 62
     1
 10
597.124573
 20
-414.982935
 30
0.0
 40
47.947392
 50
121.792901
 51
178.207395
  0
ARC
  8
0
  6
BYLAYER
 62
     1
 10
597.124573
 20
-414.982935
 30
0.0
 40
47.947380
 50
61.792605
 51
118.207065
  0
LINE
  8
0
  6
BYLAYER
 62
     1
 10
178.124573
 20
-414.982935
 30
0.0
 11
178.124573
 21
-442.482752
 31
0.0
  0
ARC
  8
0
  6
BYLAYER
 62
     1
 10
186.124573
 20
-482.665796
 30
0.0
 40
2.000000
 50
180.000000
 51
267.000354
  0
LINE
  8
0
  6
BYLAYER
 62
     1
 10
178.124573
 20
-442.482752
 30
0.0
 11
178.270935
 21
-442.489039
 31
0.0
  0
LINE
  8
0
  6
BYLAYER
 62
     1
 10
184.056397
 20
-462.728418
 30
0.0
 11
178.732422
 21
-442.859156
 31
0.0
  0
ARC
  8
0
  6
BYLAYER
 62
     1
 10
178.249451
 20
-442.988581
 30
0.0
 40
0.500004
 50
15.000011
 51
87.543457
  0
ARC
  8
0
  6
BYLAYER
 62
     1
 10
182.124573
 20
-480.122706
 30
0.0
 40
1.999930
 50
0.0
 51
8.000163
  0
LINE
  8
0
  6
BYLAYER
 62
     1
 10
184.124573
 20
-482.665796
 30
0.0
 11
184.124573
 21
-414.982935
 31
0.0
  0
ARC
  8
0
  6
BYLAYER
 62
     1
 10
182.124573
 20
-463.246058
 30
0.0
 40
1.999973
 50
0.0
 51
15.000014
  0
LINE
  8
0
  6
BYLAYER
 62
     1
 10
184.105042
 20
-479.844385
 30
0.0
 11
179.099854
 21
-444.230433
 31
0.0
  0
LINE
  8
0
  6
BYLAYER
 62
     1
 10
192.124573
 20
-414.982874
 30
0.0
 11
192.124573
 21
-484.982947
 31
0.0
  0
LINE
  8
0
  6
BYLAYER
 62
     1
 10
192.124573
 20
-484.982947
 30
0.0
 11
186.019898
 21
-484.663050
 31
0.0
  0
LINE
  8
0
  6
BYLAYER
 62
     1
 10
178.124573
 20
-414.982935
 30
0.0
 11
178.124573
 21
-387.483118
 31
0.0
  0
ARC
  8
0
  6
BYLAYER
 62
     1
 10
186.124573
 20
-347.300074
 30
0.0
 40
2.000000
 50
92.999646
 51
180.0
  0
LINE
  8
0
  6
BYLAYER
 62
     1
 10
178.124573
 20
-387.483118
 30
0.0
 11
178.270935
 21
-387.476831
 31
0.0
  0
LINE
  8
0
  6
BYLAYER
 62
     1
 10
184.056397
 20
-367.237452
 30
0.0
 11
178.732422
 21
-387.106714
 31
0.0
  0
ARC
  8
0
  6
BYLAYER
 62
     1
 10
178.249451
 20
-386.977289
 30
0.0
 40
0.500004
 50
272.456543
 51
344.999989
  0
ARC
  8
0
  6
BYLAYER
 62
     1
 10
182.124573
 20
-349.843164
 30
0.0
 40
1.999930
 50
351.999837
 51
360.000000
  0
LINE
  8
0
  6
BYLAYER
 62
     1
 10
184.124573
 20
-347.300074
 30
0.0
 11
184.124573
 21
-414.982935
 31
0.0
  0
ARC
  8
0
  6
BYLAYER
 62
     1
 10
182.124573
 20
-366.719812
 30
0.0
 40
1.999973
 50
344.999986
 51
360.000000
  0
LINE
  8
0
  6
BYLAYER
 62
     1
 10
184.105042
 20
-350.121485
 30
0.0
 11
179.099854
 21
-385.735437
 31
0.0
  0
LINE
  8
0
  6
BYLAYER
 62
     1
 10
192.124573
 20
-414.982996
 30
0.0
 11
192.124573
 21
-344.982923
 31
0.0
  0
LINE
  8
0
  6
BYLAYER
 62
     1
 10
192.124573
 20
-344.982923
 30
0.0
 11
186.019898
 21
-345.302820
 31
0.0
  0
ENDSEC
  0
EOF
