  0
SECTION
  2
HEADER
  9
$EXTMIN
 10
99.726962
 20
487.0
 30
0.0
  9
$EXTMAX
 10
664.846416
 20
0.0
 30
0.0
  0
ENDSEC
  0
SECTION
  2
TABLES
  0
ENDSEC
  0
SECTION
  2
BLOCKS
  0
ENDSEC
  0
SECTION
  2
ENTITIES
  0
LINE
  8
0
  6
BYLAYER
 62
     7
 10
224.110861
 20
-48.882928
 30
0.0
 11
226.110861
 21
-48.882928
 31
0.0
  0
ARC
  8
0
  6
BYLAYER
 62
     7
 10
230.210958
 20
-130.982843
 30
0.0
 40
0.600037
 50
90.0
 51
270.000012
  0
ARC
  8
0
  6
BYLAYER
 62
     7
 10
226.710958
 20
-130.982843
 30
0.0
 40
0.600037
 50
90.0
 51
270.000012
  0
ARC
  8
0
  6
BYLAYER
 62
     7
 10
230.210958
 20
-119.982843
 30
0.0
 40
0.600037
 50
90.0
 51
270.000012
  0
ARC
  8
0
  6
BYLAYER
 62
     7
 10
226.710958
 20
-119.982843
 30
0.0
 40
0.600037
 50
90.0
 51
270.000012
  0
ARC
  8
0
  6
BYLAYER
 62
     7
 10
230.210958
 20
-108.982843
 30
0.0
 40
0.600037
 50
90.0
 51
270.000012
  0
ARC
  8
0
  6
BYLAYER
 62
     7
 10
226.710958
 20
-108.982843
 30
0.0
 40
0.600037
 50
90.0
 51
270.000012
  0
ARC
  8
0
  6
BYLAYER
 62
     7
 10
230.210958
 20
-86.982843
 30
0.0
 40
0.600037
 50
90.0
 51
270.000012
  0
ARC
  8
0
  6
BYLAYER
 62
     7
 10
226.710958
 20
-86.982843
 30
0.0
 40
0.600037
 50
90.0
 51
270.000012
  0
ARC
  8
0
  6
BYLAYER
 62
     7
 10
230.210897
 20
-75.982843
 30
0.0
 40
0.600037
 50
90.0
 51
270.000012
  0
ARC
  8
0
  6
BYLAYER
 62
     7
 10
226.710958
 20
-75.982843
 30
0.0
 40
0.600037
 50
90.0
 51
270.000012
  0
ARC
  8
0
  6
BYLAYER
 62
     7
 10
230.210897
 20
-64.982843
 30
0.0
 40
0.600037
 50
90.0
 51
270.000012
  0
ARC
  8
0
  6
BYLAYER
 62
     7
 10
226.710958
 20
-64.982843
 30
0.0
 40
0.600037
 50
90.0
 51
270.000012
  0
LINE
  8
0
  6
BYLAYER
 62
     7
 10
226.110922
 20
-97.982904
 30
0.0
 11
226.110983
 21
-147.082880
 31
0.0
  0
ARC
  8
0
  6
BYLAYER
 62
     7
 10
230.210958
 20
-97.982843
 30
0.0
 40
0.600037
 50
90.0
 51
270.000012
  0
ARC
  8
0
  6
BYLAYER
 62
     7
 10
226.710958
 20
-97.982843
 30
0.0
 40
0.600037
 50
90.0
 51
270.000012
  0
LINE
  8
0
  6
BYLAYER
 62
     7
 10
226.110922
 20
-97.982904
 30
0.0
 11
226.110861
 21
-32.782831
 31
0.0
  0
LINE
  8
0
  6
BYLAYER
 62
     7
 10
306.110922
 20
-32.782831
 30
0.0
 11
226.110861
 21
-32.782831
 31
0.0
  0
LINE
  8
0
  6
BYLAYER
 62
     7
 10
319.360922
 20
-37.982843
 30
0.0
 11
306.110922
 21
-37.982843
 31
0.0
  0
LINE
  8
0
  6
BYLAYER
 62
     7
 10
306.110922
 20
-38.982843
 30
0.0
 11
319.360922
 21
-38.982843
 31
0.0
  0
LINE
  8
0
  6
BYLAYER
 62
     7
 10
306.110922
 20
-41.982843
 30
0.0
 11
319.360922
 21
-41.982843
 31
0.0
  0
LINE
  8
0
  6
BYLAYER
 62
     7
 10
306.110922
 20
-47.982843
 30
0.0
 11
319.360922
 21
-47.982843
 31
0.0
  0
ARC
  8
0
  6
BYLAYER
 62
     7
 10
246.610922
 20
-46.282831
 30
0.0
 40
11.500000
 50
180.000000
 51
360.000005
  0
ARC
  8
0
  6
BYLAYER
 62
     7
 10
285.610922
 20
-46.282831
 30
0.0
 40
11.500000
 50
180.000000
 51
360.000005
  0
LINE
  8
0
  6
BYLAYER
 62
     7
 10
226.110861
 20
-42.782892
 30
0.0
 11
234.110922
 21
-42.782892
 31
0.0
  0
ARC
  8
0
  6
BYLAYER
 62
     7
 10
234.110922
 20
-43.782892
 30
0.0
 40
1.0
 50
0.0
 51
89.999992
  0
ARC
  8
0
  6
BYLAYER
 62
     7
 10
259.110922
 20
-43.782831
 30
0.0
 40
1.0
 50
90.0
 51
180.000003
  0
LINE
  8
0
  6
BYLAYER
 62
     7
 10
259.110922
 20
-42.782831
 30
0.0
 11
273.110922
 21
-42.782831
 31
0.0
  0
ARC
  8
0
  6
BYLAYER
 62
     7
 10
273.110922
 20
-43.782831
 30
0.0
 40
1.000000
 50
0.0
 51
89.999992
  0
LINE
  8
0
  6
BYLAYER
 62
     7
 10
298.110922
 20
-42.782831
 30
0.0
 11
306.110922
 21
-42.782831
 31
0.0
  0
ARC
  8
0
  6
BYLAYER
 62
     7
 10
298.110922
 20
-43.782831
 30
0.0
 40
1.0
 50
90.0
 51
180.000003
  0
CIRCLE
  8
0
  6
BYLAYER
 62
     7
 10
248.860922
 20
-86.980157
 30
0.0
 40
1.350000
  0
CIRCLE
  8
0
  6
BYLAYER
 62
     7
 10
303.860922
 20
-86.911066
 30
0.0
 40
1.350000
  0
LINE
  8
0
  6
BYLAYER
 62
     7
 10
226.710958
 20
-86.382867
 30
0.0
 11
245.920980
 21
-86.382867
 31
0.0
  0
LINE
  8
0
  6
BYLAYER
 62
     7
 10
226.710958
 20
-87.582880
 30
0.0
 11
245.922079
 21
-87.582880
 31
0.0
  0
LINE
  8
0
  6
BYLAYER
 62
     7
 10
251.800863
 20
-86.382867
 30
0.0
 11
276.360922
 21
-86.382867
 31
0.0
  0
LINE
  8
0
  6
BYLAYER
 62
     7
 10
251.799764
 20
-87.582880
 30
0.0
 11
276.360922
 21
-87.582880
 31
0.0
  0
LINE
  8
0
  6
BYLAYER
 62
     7
 10
300.907797
 20
-86.382806
 30
0.0
 11
276.360922
 21
-86.382867
 31
0.0
  0
LINE
  8
0
  6
BYLAYER
 62
     7
 10
300.937094
 20
-87.582819
 30
0.0
 11
276.360922
 21
-87.582880
 31
0.0
  0
LINE
  8
0
  6
BYLAYER
 62
     7
 10
319.360922
 20
-86.382806
 30
0.0
 11
306.814047
 21
-86.382806
 31
0.0
  0
LINE
  8
0
  6
BYLAYER
 62
     7
 10
319.360922
 20
-87.582819
 30
0.0
 11
306.784750
 21
-87.582819
 31
0.0
  0
LINE
  8
0
  6
BYLAYER
 62
     7
 10
319.360922
 20
-148.982962
 30
0.0
 11
276.361044
 21
-148.982904
 31
0.0
  0
LINE
  8
0
  6
BYLAYER
 62
     7
 10
319.360922
 20
-154.982962
 30
0.0
 11
276.361044
 21
-154.982904
 31
0.0
  0
LINE
  8
0
  6
BYLAYER
 62
     7
 10
319.360922
 20
-157.982962
 30
0.0
 11
276.361044
 21
-157.982904
 31
0.0
  0
LINE
  8
0
  6
BYLAYER
 62
     7
 10
226.111105
 20
-135.982965
 30
0.0
 11
229.197225
 21
-147.500604
 31
0.0
  0
ARC
  8
0
  6
BYLAYER
 62
     7
 10
231.129049
 20
-146.982965
 30
0.0
 40
1.999973
 50
195.000043
 51
270.000055
  0
LINE
  8
0
  6
BYLAYER
 62
     7
 10
226.111105
 20
-142.982965
 30
0.0
 11
227.735433
 21
-142.045160
 31
0.0
  0
LINE
  8
0
  6
BYLAYER
 62
     7
 10
226.111105
 20
-142.982965
 30
0.0
 11
228.929281
 21
-153.500604
 31
0.0
  0
ARC
  8
0
  6
BYLAYER
 62
     7
 10
230.861105
 20
-152.982965
 30
0.0
 40
1.999973
 50
195.000043
 51
270.000055
  0
ARC
  8
0
  6
BYLAYER
 62
     7
 10
230.861166
 20
-155.982965
 30
0.0
 40
2.000032
 50
195.000070
 51
270.000055
  0
LINE
  8
0
  6
BYLAYER
 62
     7
 10
226.111105
 20
-145.982965
 30
0.0
 11
228.929281
 21
-156.500604
 31
0.0
  0
LINE
  8
0
  6
BYLAYER
 62
     7
 10
231.129049
 20
-148.982965
 30
0.0
 11
276.361044
 21
-148.982904
 31
0.0
  0
LINE
  8
0
  6
BYLAYER
 62
     7
 10
230.861166
 20
-154.982965
 30
0.0
 11
276.361044
 21
-154.982904
 31
0.0
  0
LINE
  8
0
  6
BYLAYER
 62
     7
 10
230.861166
 20
-157.982965
 30
0.0
 11
276.361044
 21
-157.982904
 31
0.0
  0
LINE
  8
0
  6
BYLAYER
 62
     7
 10
226.110983
 20
-147.082880
 30
0.0
 11
226.366293
 21
-146.935480
 31
0.0
  0
ARC
  8
0
  6
BYLAYER
 62
     7
 10
248.860922
 20
-86.980157
 30
0.0
 40
3.000002
 50
11.484133
 51
168.515862
  0
ARC
  8
0
  6
BYLAYER
 62
     7
 10
303.860922
 20
-86.911066
 30
0.0
 40
2.999990
 50
10.140737
 51
169.859264
  0
ARC
  8
0
  6
BYLAYER
 62
     7
 10
303.860922
 20
-86.911066
 30
0.0
 40
3.000004
 50
192.939225
 51
347.060790
  0
ARC
  8
0
  6
BYLAYER
 62
     7
 10
248.860922
 20
-86.980157
 30
0.0
 40
2.999964
 50
191.590672
 51
348.409452
  0
LINE
  8
0
  6
BYLAYER
 62
     7
 10
226.710958
 20
-65.582941
 30
0.0
 11
319.360922
 21
-65.582827
 31
0.0
  0
LINE
  8
0
  6
BYLAYER
 62
     7
 10
226.710958
 20
-75.382867
 30
0.0
 11
319.360922
 21
-75.382810
 31
0.0
  0
LINE
  8
0
  6
BYLAYER
 62
     7
 10
226.710958
 20
-76.582941
 30
0.0
 11
319.360922
 21
-76.582827
 31
0.0
  0
LINE
  8
0
  6
BYLAYER
 62
     7
 10
235.110922
 20
-39.282892
 30
0.0
 11
235.110922
 21
-46.282831
 31
0.0
  0
LINE
  8
0
  6
BYLAYER
 62
     7
 10
233.110922
 20
-37.282892
 30
0.0
 11
226.110861
 21
-37.282892
 31
0.0
  0
ARC
  8
0
  6
BYLAYER
 62
     7
 10
233.110922
 20
-39.282892
 30
0.0
 40
2.0
 50
0.0
 51
90.000003
  0
LINE
  8
0
  6
BYLAYER
 62
     7
 10
258.110922
 20
-39.282892
 30
0.0
 11
258.110922
 21
-46.282831
 31
0.0
  0
ARC
  8
0
  6
BYLAYER
 62
     7
 10
260.110922
 20
-39.282892
 30
0.0
 40
2.000000
 50
90.0
 51
180.000003
  0
LINE
  8
0
  6
BYLAYER
 62
     7
 10
274.110922
 20
-39.282892
 30
0.0
 11
274.110922
 21
-46.282831
 31
0.0
  0
LINE
  8
0
  6
BYLAYER
 62
     7
 10
272.110922
 20
-37.282892
 30
0.0
 11
260.110922
 21
-37.282892
 31
0.0
  0
ARC
  8
0
  6
BYLAYER
 62
     7
 10
272.110922
 20
-39.282892
 30
0.0
 40
2.000000
 50
0.0
 51
90.000003
  0
LINE
  8
0
  6
BYLAYER
 62
     7
 10
297.110922
 20
-39.282831
 30
0.0
 11
297.110922
 21
-46.282831
 31
0.0
  0
LINE
  8
0
  6
BYLAYER
 62
     7
 10
306.110922
 20
-37.282831
 30
0.0
 11
299.110922
 21
-37.282831
 31
0.0
  0
ARC
  8
0
  6
BYLAYER
 62
     7
 10
299.110922
 20
-39.282831
 30
0.0
 40
2.000000
 50
90.0
 51
180.000003
  0
LINE
  8
0
  6
BYLAYER
 62
     7
 10
319.360922
 20
-64.382867
 30
0.0
 11
226.710958
 21
-64.382867
 31
0.0
  0
LINE
  8
0
  6
BYLAYER
 62
     7
 10
306.110922
 20
-64.382867
 30
0.0
 11
306.110922
 21
-32.782831
 31
0.0
  0
LINE
  8
0
  6
BYLAYER
 62
     7
 10
226.710958
 20
-97.382867
 30
0.0
 11
319.360922
 21
-97.382867
 31
0.0
  0
LINE
  8
0
  6
BYLAYER
 62
     7
 10
226.710958
 20
-98.582880
 30
0.0
 11
319.360922
 21
-98.582880
 31
0.0
  0
LINE
  8
0
  6
BYLAYER
 62
     7
 10
226.710958
 20
-109.582880
 30
0.0
 11
319.360922
 21
-109.582820
 31
0.0
  0
LINE
  8
0
  6
BYLAYER
 62
     7
 10
226.710958
 20
-119.382867
 30
0.0
 11
319.360922
 21
-119.382810
 31
0.0
  0
LINE
  8
0
  6
BYLAYER
 62
     7
 10
226.710958
 20
-120.582941
 30
0.0
 11
319.360922
 21
-120.582827
 31
0.0
  0
LINE
  8
0
  6
BYLAYER
 62
     7
 10
226.710958
 20
-130.382928
 30
0.0
 11
319.360922
 21
-130.382814
 31
0.0
  0
LINE
  8
0
  6
BYLAYER
 62
     7
 10
226.710958
 20
-131.582941
 30
0.0
 11
319.360922
 21
-131.582827
 31
0.0
  0
LINE
  8
0
  6
BYLAYER
 62
     7
 10
226.710958
 20
-108.382867
 30
0.0
 11
319.360922
 21
-108.382806
 31
0.0
  0
LINE
  8
0
  6
BYLAYER
 62
     7
 10
318.110922
 20
-65.582819
 30
0.0
 11
318.110922
 21
-75.382806
 31
0.0
  0
LINE
  8
0
  6
BYLAYER
 62
     7
 10
234.610983
 20
-65.582941
 30
0.0
 11
234.610983
 21
-75.382867
 31
0.0
  0
LINE
  8
0
  6
BYLAYER
 62
     7
 10
318.110922
 20
-76.582819
 30
0.0
 11
318.110922
 21
-86.382806
 31
0.0
  0
LINE
  8
0
  6
BYLAYER
 62
     7
 10
234.610983
 20
-76.582941
 30
0.0
 11
234.610983
 21
-86.382806
 31
0.0
  0
LINE
  8
0
  6
BYLAYER
 62
     7
 10
318.110922
 20
-87.582880
 30
0.0
 11
318.110922
 21
-97.382867
 31
0.0
  0
LINE
  8
0
  6
BYLAYER
 62
     7
 10
234.610983
 20
-87.582880
 30
0.0
 11
234.610983
 21
-97.382867
 31
0.0
  0
LINE
  8
0
  6
BYLAYER
 62
     7
 10
234.610983
 20
-98.582880
 30
0.0
 11
234.610983
 21
-108.382867
 31
0.0
  0
LINE
  8
0
  6
BYLAYER
 62
     7
 10
318.110922
 20
-98.582880
 30
0.0
 11
318.110922
 21
-108.382806
 31
0.0
  0
LINE
  8
0
  6
BYLAYER
 62
     7
 10
234.610983
 20
-109.582880
 30
0.0
 11
234.610983
 21
-119.382867
 31
0.0
  0
LINE
  8
0
  6
BYLAYER
 62
     7
 10
318.110922
 20
-109.582819
 30
0.0
 11
318.110922
 21
-119.382806
 31
0.0
  0
LINE
  8
0
  6
BYLAYER
 62
     7
 10
234.610983
 20
-120.582880
 30
0.0
 11
234.610983
 21
-130.382928
 31
0.0
  0
LINE
  8
0
  6
BYLAYER
 62
     7
 10
318.110922
 20
-120.582819
 30
0.0
 11
318.110922
 21
-130.382806
 31
0.0
  0
LINE
  8
0
  6
BYLAYER
 62
     7
 10
319.360922
 20
-63.886944
 30
0.0
 11
318.153036
 21
-64.370782
 31
0.0
  0
LINE
  8
0
  6
BYLAYER
 62
     7
 10
234.601034
 20
-64.254144
 30
0.0
 11
226.076742
 21
-61.838190
 31
0.0
  0
LINE
  8
0
  6
BYLAYER
 62
     7
 10
234.610983
 20
-131.582880
 30
0.0
 11
234.610983
 21
-133.582880
 31
0.0
  0
LINE
  8
0
  6
BYLAYER
 62
     7
 10
318.110922
 20
-131.582819
 30
0.0
 11
318.110922
 21
-133.582819
 31
0.0
  0
LINE
  8
0
  6
BYLAYER
 62
     7
 10
318.110922
 20
-133.582819
 30
0.0
 11
234.610983
 21
-133.582880
 31
0.0
  0
LINE
  8
0
  6
BYLAYER
 62
     7
 10
318.110922
 20
-133.582819
 30
0.0
 11
319.360922
 21
-133.935782
 31
0.0
  0
LINE
  8
0
  6
BYLAYER
 62
     7
 10
234.610983
 20
-133.582880
 30
0.0
 11
226.111105
 21
-135.982965
 31
0.0
  0
LINE
  8
0
  6
BYLAYER
 62
     7
 10
224.110861
 20
-147.082941
 30
0.0
 11
226.110861
 21
-147.082941
 31
0.0
  0
LINE
  8
0
  6
BYLAYER
 62
     7
 10
224.110922
 20
-97.982935
 30
0.0
 11
224.110861
 21
-48.882929
 31
0.0
  0
LINE
  8
0
  6
BYLAYER
 62
     7
 10
224.110922
 20
-97.982934
 30
0.0
 11
224.110861
 21
-147.082940
 31
0.0
  0
LINE
  8
0
  6
BYLAYER
 62
     7
 10
319.360922
 20
-97.982934
 30
0.0
 11
319.360922
 21
-37.382934
 31
0.0
  0
LINE
  8
0
  6
BYLAYER
 62
     7
 10
375.609450
 20
-37.382934
 30
0.0
 11
385.960922
 21
-47.734406
 31
0.0
  0
LINE
  8
0
  6
BYLAYER
 62
     7
 10
319.360922
 20
-37.382934
 30
0.0
 11
326.360922
 21
-37.382934
 31
0.0
  0
LINE
  8
0
  6
BYLAYER
 62
     7
 10
326.360922
 20
-37.382934
 30
0.0
 11
375.609450
 21
-37.382934
 31
0.0
  0
LINE
  8
0
  6
BYLAYER
 62
     7
 10
385.960922
 20
-47.734406
 30
0.0
 11
385.960922
 21
-97.982934
 31
0.0
  0
LINE
  8
0
  6
BYLAYER
 62
     7
 10
319.360922
 20
-158.582934
 30
0.0
 11
319.360922
 21
-97.982934
 31
0.0
  0
LINE
  8
0
  6
BYLAYER
 62
     7
 10
385.960922
 20
-148.231463
 30
0.0
 11
375.609450
 21
-158.582934
 31
0.0
  0
LINE
  8
0
  6
BYLAYER
 62
     7
 10
375.609450
 20
-158.582934
 30
0.0
 11
319.360922
 21
-158.582934
 31
0.0
  0
LINE
  8
0
  6
BYLAYER
 62
     7
 10
385.960922
 20
-97.982934
 30
0.0
 11
385.960922
 21
-148.231463
 31
0.0
  0
LINE
  8
0
  6
BYLAYER
 62
     7
 10
197.110922
 20
-52.912664
 30
0.0
 11
214.680502
 21
-50.443415
 31
0.0
  0
ARC
  8
0
  6
BYLAYER
 62
     7
 10
214.610922
 20
-49.948298
 30
0.0
 40
0.500000
 50
278.000037
 51
360.000000
  0
LINE
  8
0
  6
BYLAYER
 62
     7
 10
215.110922
 20
-97.982935
 30
0.0
 11
215.110922
 21
-39.113916
 31
0.0
  0
ARC
  8
0
  6
BYLAYER
 62
     7
 10
215.610922
 20
-39.113916
 30
0.0
 40
0.500000
 50
90.999985
 51
180.000000
  0
LINE
  8
0
  6
BYLAYER
 62
     7
 10
215.602194
 20
-38.614008
 30
0.0
 11
222.602194
 21
-38.491816
 31
0.0
  0
ARC
  8
0
  6
BYLAYER
 62
     7
 10
222.610922
 20
-38.991724
 30
0.0
 40
0.500000
 50
0.0
 51
90.99999
  0
LINE
  8
0
  6
BYLAYER
 62
     7
 10
223.110922
 20
-38.991724
 30
0.0
 11
223.110922
 21
-97.982935
 31
0.0
  0
ARC
  8
0
  6
BYLAYER
 62
     7
 10
223.610922
 20
-48.180262
 30
0.0
 40
0.500000
 50
180.000000
 51
268.000034
  0
LINE
  8
0
  6
BYLAYER
 62
     7
 10
223.593466
 20
-48.679956
 30
0.0
 11
224.110922
 21
-48.698022
 31
0.0
  0
LINE
  8
0
  6
BYLAYER
 62
     7
 10
224.110922
 20
-48.698022
 30
0.0
 11
224.110922
 21
-97.982935
 31
0.0
  0
LINE
  8
0
  6
BYLAYER
 62
     7
 10
197.110922
 20
-97.982935
 30
0.0
 11
197.110922
 21
-52.982935
 31
0.0
  0
LINE
  8
0
  6
BYLAYER
 62
     7
 10
197.110922
 20
-143.053206
 30
0.0
 11
214.680502
 21
-145.522455
 31
0.0
  0
ARC
  8
0
  6
BYLAYER
 62
     7
 10
214.610922
 20
-146.017572
 30
0.0
 40
0.500000
 50
0.0
 51
81.999963
  0
LINE
  8
0
  6
BYLAYER
 62
     7
 10
215.110922
 20
-97.982935
 30
0.0
 11
215.110922
 21
-156.851954
 31
0.0
  0
ARC
  8
0
  6
BYLAYER
 62
     7
 10
215.610922
 20
-156.851954
 30
0.0
 40
0.5
 50
180.000000
 51
269.000015
  0
LINE
  8
0
  6
BYLAYER
 62
     7
 10
215.602194
 20
-157.351862
 30
0.0
 11
222.602194
 21
-157.474054
 31
0.0
  0
ARC
  8
0
  6
BYLAYER
 62
     7
 10
222.610922
 20
-156.974146
 30
0.0
 40
0.500000
 50
269.000010
 51
360.000000
  0
LINE
  8
0
  6
BYLAYER
 62
     7
 10
223.110922
 20
-156.974146
 30
0.0
 11
223.110922
 21
-97.982935
 31
0.0
  0
ARC
  8
0
  6
BYLAYER
 62
     7
 10
223.610922
 20
-147.785608
 30
0.0
 40
0.500000
 50
91.999966
 51
180.000000
  0
LINE
  8
0
  6
BYLAYER
 62
     7
 10
223.593466
 20
-147.285914
 30
0.0
 11
224.110922
 21
-147.267848
 31
0.0
  0
LINE
  8
0
  6
BYLAYER
 62
     7
 10
224.110922
 20
-147.267848
 30
0.0
 11
224.110922
 21
-97.982935
 31
0.0
  0
LINE
  8
0
  6
BYLAYER
 62
     7
 10
197.110922
 20
-97.982935
 30
0.0
 11
197.110922
 21
-142.982935
 31
0.0
  0
ARC
  8
0
  6
BYLAYER
 62
     7
 10
296.865199
 20
-22.282831
 30
0.0
 40
1.500000
 50
180.000000
 51
270.000000
  0
ARC
  8
0
  6
BYLAYER
 62
     7
 10
235.356523
 20
-22.282831
 30
0.0
 40
1.5
 50
270.0
 51
360.0
  0
ARC
  8
0
  6
BYLAYER
 62
     7
 10
227.610861
 20
-22.282831
 30
0.0
 40
1.5
 50
270.0
 51
360.0
  0
ARC
  8
0
  6
BYLAYER
 62
     7
 10
227.610861
 20
-25.282831
 30
0.0
 40
1.500000
 50
90.0
 51
180.0
  0
ARC
  8
0
  6
BYLAYER
 62
     7
 10
304.610861
 20
-22.282831
 30
0.0
 40
1.5
 50
180.000000
 51
270.000000
  0
LINE
  8
0
  6
BYLAYER
 62
     7
 10
229.110861
 20
-22.282831
 30
0.0
 11
229.110861
 21
-0.782831
 31
0.0
  0
ARC
  8
0
  6
BYLAYER
 62
     7
 10
230.610861
 20
-0.782831
 30
0.0
 40
1.5
 50
90.0
 51
180.0
  0
LINE
  8
0
  6
BYLAYER
 62
     7
 10
303.110861
 20
-22.282831
 30
0.0
 11
303.110861
 21
-0.782831
 31
0.0
  0
LINE
  8
0
  6
BYLAYER
 62
     7
 10
230.610861
 20
0.717169
 30
0.0
 11
301.610861
 21
0.717169
 31
0.0
  0
ARC
  8
0
  6
BYLAYER
 62
     7
 10
293.865199
 20
-0.782831
 30
0.0
 40
1.5
 50
0.0
 51
90.0
  0
ARC
  8
0
  6
BYLAYER
 62
     7
 10
301.610861
 20
-0.782831
 30
0.0
 40
1.5
 50
0.0
 51
90.0
  0
LINE
  8
0
  6
BYLAYER
 62
     7
 10
236.856523
 20
-22.282831
 30
0.0
 11
236.856523
 21
-0.782831
 31
0.0
  0
ARC
  8
0
  6
BYLAYER
 62
     7
 10
238.356523
 20
-0.782831
 30
0.0
 40
1.5
 50
90.0
 51
180.0
  0
LINE
  8
0
  6
BYLAYER
 62
     7
 10
295.365199
 20
-22.282831
 30
0.0
 11
295.365199
 21
-0.782831
 31
0.0
  0
ARC
  8
0
  6
BYLAYER
 62
     7
 10
304.610861
 20
-25.282831
 30
0.0
 40
1.500000
 50
0.0
 51
90.0
  0
LINE
  8
0
  6
BYLAYER
 62
     7
 10
306.110861
 20
-32.782831
 30
0.0
 11
306.110861
 21
-25.282831
 31
0.0
  0
LINE
  8
0
  6
BYLAYER
 62
     7
 10
304.610861
 20
-23.782831
 30
0.0
 11
227.610861
 21
-23.782831
 31
0.0
  0
LINE
  8
0
  6
BYLAYER
 62
     7
 10
226.110861
 20
-25.282831
 30
0.0
 11
226.110861
 21
-32.782831
 31
0.0
  0
LINE
  8
0
  6
BYLAYER
 62
     7
 10
226.110861
 20
-32.782831
 30
0.0
 11
306.110861
 21
-32.782831
 31
0.0
  0
LINE
  8
0
  6
BYLAYER
 62
     7
 10
306.110861
 20
-30.782831
 30
0.0
 11
226.110861
 21
-30.782831
 31
0.0
  0
LINE
  8
0
  6
BYLAYER
 62
     7
 10
375.609450
 20
-37.382934
 30
0.0
 11
375.609450
 21
-158.582934
 31
0.0
  0
LINE
  8
0
  6
BYLAYER
 62
     7
 10
229.110922
 20
-439.499590
 30
0.0
 11
229.110922
 21
-390.466220
 31
0.0
  0
LINE
  8
0
  6
BYLAYER
 62
     7
 10
238.573328
 20
-380.732905
 30
0.0
 11
293.648516
 21
-380.732905
 31
0.0
  0
LINE
  8
0
  6
BYLAYER
 62
     7
 10
303.110922
 20
-390.466220
 30
0.0
 11
303.110922
 21
-439.499590
 31
0.0
  0
LINE
  8
0
  6
BYLAYER
 62
     7
 10
293.648516
 20
-449.232905
 30
0.0
 11
238.573328
 21
-449.232905
 31
0.0
  0
LINE
  8
0
  6
BYLAYER
 62
     7
 10
243.215620
 20
-405.084011
 30
0.0
 11
229.110922
 21
-405.576558
 31
0.0
  0
ARC
  8
0
  6
BYLAYER
 62
     7
 10
243.110922
 20
-402.085839
 30
0.0
 40
3.0
 50
272.0
 51
360.0
  0
LINE
  8
0
  6
BYLAYER
 62
     7
 10
243.215620
 20
-420.084011
 30
0.0
 11
229.110922
 21
-420.576558
 31
0.0
  0
ARC
  8
0
  6
BYLAYER
 62
     7
 10
243.110922
 20
-417.085839
 30
0.0
 40
3.0
 50
272.0
 51
360.0
  0
LINE
  8
0
  6
BYLAYER
 62
     7
 10
243.215620
 20
-435.084011
 30
0.0
 11
229.110922
 21
-435.576558
 31
0.0
  0
ARC
  8
0
  6
BYLAYER
 62
     7
 10
243.110922
 20
-432.085839
 30
0.0
 40
3.0
 50
272.000000
 51
360.000000
  0
LINE
  8
0
  6
BYLAYER
 62
     7
 10
229.110922
 20
-424.389252
 30
0.0
 11
243.215620
 21
-424.881799
 31
0.0
  0
ARC
  8
0
  6
BYLAYER
 62
     7
 10
243.110922
 20
-427.879971
 30
0.0
 40
3.0
 50
0.0
 51
88.0
  0
LINE
  8
0
  6
BYLAYER
 62
     7
 10
229.110922
 20
-409.389252
 30
0.0
 11
243.215620
 21
-409.881799
 31
0.0
  0
ARC
  8
0
  6
BYLAYER
 62
     7
 10
243.110922
 20
-412.879971
 30
0.0
 40
3.0
 50
0.0
 51
88.0
  0
LINE
  8
0
  6
BYLAYER
 62
     7
 10
246.110922
 20
-427.879971
 30
0.0
 11
246.110922
 21
-432.085839
 31
0.0
  0
LINE
  8
0
  6
BYLAYER
 62
     7
 10
246.110922
 20
-412.879971
 30
0.0
 11
246.110922
 21
-417.085839
 31
0.0
  0
LINE
  8
0
  6
BYLAYER
 62
     7
 10
230.110922
 20
-409.424173
 30
0.0
 11
230.110922
 21
-420.541637
 31
0.0
  0
LINE
  8
0
  6
BYLAYER
 62
     7
 10
230.110922
 20
-424.424173
 30
0.0
 11
230.110922
 21
-435.541637
 31
0.0
  0
LINE
  8
0
  6
BYLAYER
 62
     7
 10
230.110922
 20
-394.424173
 30
0.0
 11
230.110922
 21
-405.541637
 31
0.0
  0
LINE
  8
0
  6
BYLAYER
 62
     7
 10
303.110922
 20
-394.389252
 30
0.0
 11
289.006224
 21
-394.881799
 31
0.0
  0
ARC
  8
0
  6
BYLAYER
 62
     7
 10
289.110922
 20
-397.879971
 30
0.0
 40
3.000000
 50
92.0
 51
180.0
  0
LINE
  8
0
  6
BYLAYER
 62
     7
 10
289.006224
 20
-405.084011
 30
0.0
 11
303.110922
 21
-405.576558
 31
0.0
  0
ARC
  8
0
  6
BYLAYER
 62
     7
 10
289.110922
 20
-402.085839
 30
0.0
 40
3.000000
 50
180.000000
 51
268.000000
  0
LINE
  8
0
  6
BYLAYER
 62
     7
 10
289.006224
 20
-420.084011
 30
0.0
 11
303.110922
 21
-420.576558
 31
0.0
  0
ARC
  8
0
  6
BYLAYER
 62
     7
 10
289.110922
 20
-417.085839
 30
0.0
 40
3.000000
 50
180.000000
 51
268.000000
  0
LINE
  8
0
  6
BYLAYER
 62
     7
 10
289.006224
 20
-435.084011
 30
0.0
 11
303.110922
 21
-435.576558
 31
0.0
  0
ARC
  8
0
  6
BYLAYER
 62
     7
 10
289.110922
 20
-432.085839
 30
0.0
 40
3.000000
 50
180.000000
 51
268.000000
  0
LINE
  8
0
  6
BYLAYER
 62
     7
 10
303.110922
 20
-424.389252
 30
0.0
 11
289.006224
 21
-424.881799
 31
0.0
  0
ARC
  8
0
  6
BYLAYER
 62
     7
 10
289.110922
 20
-427.879971
 30
0.0
 40
3.000000
 50
92.0
 51
180.0
  0
LINE
  8
0
  6
BYLAYER
 62
     7
 10
303.110922
 20
-409.389252
 30
0.0
 11
289.006224
 21
-409.881799
 31
0.0
  0
ARC
  8
0
  6
BYLAYER
 62
     7
 10
289.110922
 20
-412.879971
 30
0.0
 40
3.000000
 50
92.0
 51
180.0
  0
LINE
  8
0
  6
BYLAYER
 62
     7
 10
286.110922
 20
-427.879971
 30
0.0
 11
286.110922
 21
-432.085839
 31
0.0
  0
LINE
  8
0
  6
BYLAYER
 62
     7
 10
286.110922
 20
-412.879971
 30
0.0
 11
286.110922
 21
-417.085839
 31
0.0
  0
LINE
  8
0
  6
BYLAYER
 62
     7
 10
286.110922
 20
-397.879971
 30
0.0
 11
286.110922
 21
-402.085839
 31
0.0
  0
LINE
  8
0
  6
BYLAYER
 62
     7
 10
302.110922
 20
-409.424173
 30
0.0
 11
302.110922
 21
-420.541637
 31
0.0
  0
LINE
  8
0
  6
BYLAYER
 62
     7
 10
302.110922
 20
-424.424173
 30
0.0
 11
302.110922
 21
-435.541637
 31
0.0
  0
LINE
  8
0
  6
BYLAYER
 62
     7
 10
302.110922
 20
-394.424173
 30
0.0
 11
302.110922
 21
-405.541637
 31
0.0
  0
LINE
  8
0
  6
BYLAYER
 62
     7
 10
226.110922
 20
-379.482905
 30
0.0
 11
226.110922
 21
-450.482905
 31
0.0
  0
ARC
  8
0
  6
BYLAYER
 62
     7
 10
227.610922
 20
-450.482905
 30
0.0
 40
1.500000
 50
180.000000
 51
270.000000
  0
ARC
  8
0
  6
BYLAYER
 62
     7
 10
227.610922
 20
-379.482905
 30
0.0
 40
1.5
 50
90.0
 51
180.0
  0
LINE
  8
0
  6
BYLAYER
 62
     7
 10
304.610922
 20
-377.982905
 30
0.0
 11
227.610922
 21
-377.982905
 31
0.0
  0
ARC
  8
0
  6
BYLAYER
 62
     7
 10
304.610922
 20
-379.482905
 30
0.0
 40
1.5
 50
0.0
 51
90.0
  0
LINE
  8
0
  6
BYLAYER
 62
     7
 10
306.110922
 20
-450.482905
 30
0.0
 11
306.110922
 21
-379.482905
 31
0.0
  0
LINE
  8
0
  6
BYLAYER
 62
     7
 10
227.610922
 20
-451.982905
 30
0.0
 11
304.610922
 21
-451.982905
 31
0.0
  0
ARC
  8
0
  6
BYLAYER
 62
     7
 10
304.610922
 20
-450.482905
 30
0.0
 40
1.500000
 50
270.0
 51
360.0
  0
ARC
  8
0
  6
BYLAYER
 62
     7
 10
301.110922
 20
-382.982905
 30
0.0
 40
6.000000
 50
174.260830
 51
273.822554
  0
ARC
  8
0
  6
BYLAYER
 62
     7
 10
301.610922
 20
-390.466220
 30
0.0
 40
1.500000
 50
0.0
 51
93.822554
  0
ARC
  8
0
  6
BYLAYER
 62
     7
 10
293.648516
 20
-382.232905
 30
0.0
 40
1.500000
 50
354.260830
 51
450.000000
  0
ARC
  8
0
  6
BYLAYER
 62
     7
 10
301.110922
 20
-446.982905
 30
0.0
 40
6.000000
 50
86.177446
 51
185.739170
  0
ARC
  8
0
  6
BYLAYER
 62
     7
 10
301.610922
 20
-439.499590
 30
0.0
 40
1.500000
 50
266.177446
 51
360.000000
  0
ARC
  8
0
  6
BYLAYER
 62
     7
 10
293.648516
 20
-447.732905
 30
0.0
 40
1.500000
 50
270.0
 51
365.739170
  0
ARC
  8
0
  6
BYLAYER
 62
     7
 10
231.110922
 20
-446.982905
 30
0.0
 40
6.000000
 50
354.260830
 51
453.822554
  0
ARC
  8
0
  6
BYLAYER
 62
     7
 10
238.573328
 20
-447.732905
 30
0.0
 40
1.500000
 50
174.260830
 51
270.000000
  0
ARC
  8
0
  6
BYLAYER
 62
     7
 10
230.610922
 20
-439.499590
 30
0.0
 40
1.5
 50
180.000000
 51
273.822554
  0
ARC
  8
0
  6
BYLAYER
 62
     7
 10
231.110922
 20
-382.982905
 30
0.0
 40
6.000000
 50
266.177446
 51
365.739170
  0
ARC
  8
0
  6
BYLAYER
 62
     7
 10
230.610922
 20
-390.466220
 30
0.0
 40
1.500000
 50
86.177446
 51
180.0
  0
ARC
  8
0
  6
BYLAYER
 62
     7
 10
238.573328
 20
-382.232905
 30
0.0
 40
1.5
 50
90.0
 51
185.73917
  0
ARC
  8
0
  6
BYLAYER
 62
     7
 10
253.110922
 20
-387.982905
 30
0.0
 40
3.0
 50
90.0
 51
180.0
  0
ARC
  8
0
  6
BYLAYER
 62
     7
 10
279.110922
 20
-387.982905
 30
0.0
 40
3.0
 50
0.0
 51
90.0
  0
LINE
  8
0
  6
BYLAYER
 62
     7
 10
253.110922
 20
-384.982905
 30
0.0
 11
279.110922
 21
-384.982905
 31
0.0
  0
ARC
  8
0
  6
BYLAYER
 62
     7
 10
253.110922
 20
-441.982905
 30
0.0
 40
3.0
 50
180.000000
 51
270.000000
  0
ARC
  8
0
  6
BYLAYER
 62
     7
 10
279.110922
 20
-441.982905
 30
0.0
 40
3.0
 50
270.0
 51
360.0
  0
LINE
  8
0
  6
BYLAYER
 62
     7
 10
253.110922
 20
-444.982905
 30
0.0
 11
279.110922
 21
-444.982905
 31
0.0
  0
LINE
  8
0
  6
BYLAYER
 62
     7
 10
250.110922
 20
-441.982905
 30
0.0
 11
250.110922
 21
-387.982905
 31
0.0
  0
LINE
  8
0
  6
BYLAYER
 62
     7
 10
282.110922
 20
-387.982905
 30
0.0
 11
282.110922
 21
-441.982905
 31
0.0
  0
LINE
  8
0
  6
BYLAYER
 62
     7
 10
226.110922
 20
-414.982905
 30
0.0
 11
226.110983
 21
-464.082881
 31
0.0
  0
LINE
  8
0
  6
BYLAYER
 62
     7
 10
319.360922
 20
-465.982963
 30
0.0
 11
276.361044
 21
-465.982905
 31
0.0
  0
LINE
  8
0
  6
BYLAYER
 62
     7
 10
319.360922
 20
-471.982963
 30
0.0
 11
276.361044
 21
-471.982905
 31
0.0
  0
LINE
  8
0
  6
BYLAYER
 62
     7
 10
319.360922
 20
-474.982963
 30
0.0
 11
276.361044
 21
-474.982905
 31
0.0
  0
LINE
  8
0
  6
BYLAYER
 62
     7
 10
226.111105
 20
-452.982966
 30
0.0
 11
229.197225
 21
-464.500605
 31
0.0
  0
ARC
  8
0
  6
BYLAYER
 62
     7
 10
231.129049
 20
-463.982966
 30
0.0
 40
1.999973
 50
195.000043
 51
270.000055
  0
LINE
  8
0
  6
BYLAYER
 62
     7
 10
226.111105
 20
-459.982966
 30
0.0
 11
227.735433
 21
-459.045161
 31
0.0
  0
LINE
  8
0
  6
BYLAYER
 62
     7
 10
226.111105
 20
-459.982966
 30
0.0
 11
228.929281
 21
-470.500605
 31
0.0
  0
ARC
  8
0
  6
BYLAYER
 62
     7
 10
230.861105
 20
-469.982966
 30
0.0
 40
1.999973
 50
195.000043
 51
270.000055
  0
ARC
  8
0
  6
BYLAYER
 62
     7
 10
230.861166
 20
-472.982966
 30
0.0
 40
2.000032
 50
195.000070
 51
270.000055
  0
LINE
  8
0
  6
BYLAYER
 62
     7
 10
226.111105
 20
-462.982966
 30
0.0
 11
228.929281
 21
-473.500605
 31
0.0
  0
LINE
  8
0
  6
BYLAYER
 62
     7
 10
231.129049
 20
-465.982966
 30
0.0
 11
276.361044
 21
-465.982905
 31
0.0
  0
LINE
  8
0
  6
BYLAYER
 62
     7
 10
230.861166
 20
-471.982966
 30
0.0
 11
276.361044
 21
-471.982905
 31
0.0
  0
LINE
  8
0
  6
BYLAYER
 62
     7
 10
230.861166
 20
-474.982966
 30
0.0
 11
276.361044
 21
-474.982905
 31
0.0
  0
LINE
  8
0
  6
BYLAYER
 62
     7
 10
226.110983
 20
-464.082881
 30
0.0
 11
226.366293
 21
-463.935481
 31
0.0
  0
LINE
  8
0
  6
BYLAYER
 62
     7
 10
306.110922
 20
-415.582881
 30
0.0
 11
319.360922
 21
-415.582881
 31
0.0
  0
LINE
  8
0
  6
BYLAYER
 62
     7
 10
306.110922
 20
-426.582830
 30
0.0
 11
319.360922
 21
-426.582821
 31
0.0
  0
LINE
  8
0
  6
BYLAYER
 62
     7
 10
306.110922
 20
-436.382819
 30
0.0
 11
319.360922
 21
-436.382811
 31
0.0
  0
LINE
  8
0
  6
BYLAYER
 62
     7
 10
306.110922
 20
-437.582845
 30
0.0
 11
319.360922
 21
-437.582828
 31
0.0
  0
LINE
  8
0
  6
BYLAYER
 62
     7
 10
306.110922
 20
-447.382832
 30
0.0
 11
319.360922
 21
-447.382815
 31
0.0
  0
LINE
  8
0
  6
BYLAYER
 62
     7
 10
306.110922
 20
-448.582845
 30
0.0
 11
319.360922
 21
-448.582828
 31
0.0
  0
LINE
  8
0
  6
BYLAYER
 62
     7
 10
306.110922
 20
-425.382816
 30
0.0
 11
319.360922
 21
-425.382808
 31
0.0
  0
LINE
  8
0
  6
BYLAYER
 62
     7
 10
318.110922
 20
-415.582881
 30
0.0
 11
318.110922
 21
-425.382807
 31
0.0
  0
LINE
  8
0
  6
BYLAYER
 62
     7
 10
318.110922
 20
-426.582820
 30
0.0
 11
318.110922
 21
-436.382807
 31
0.0
  0
LINE
  8
0
  6
BYLAYER
 62
     7
 10
318.110922
 20
-437.582820
 30
0.0
 11
318.110922
 21
-447.382807
 31
0.0
  0
LINE
  8
0
  6
BYLAYER
 62
     7
 10
318.110922
 20
-448.582820
 30
0.0
 11
318.110922
 21
-450.582820
 31
0.0
  0
LINE
  8
0
  6
BYLAYER
 62
     7
 10
318.110922
 20
-450.582820
 30
0.0
 11
306.110922
 21
-450.582829
 31
0.0
  0
LINE
  8
0
  6
BYLAYER
 62
     7
 10
318.110922
 20
-450.582820
 30
0.0
 11
319.360922
 21
-450.935783
 31
0.0
  0
LINE
  8
0
  6
BYLAYER
 62
     7
 10
229.652811
 20
-451.982905
 30
0.0
 11
226.111105
 21
-452.982966
 31
0.0
  0
LINE
  8
0
  6
BYLAYER
 62
     7
 10
224.110861
 20
-464.082942
 30
0.0
 11
226.110861
 21
-464.082942
 31
0.0
  0
LINE
  8
0
  6
BYLAYER
 62
     7
 10
224.110922
 20
-414.982935
 30
0.0
 11
224.110861
 21
-464.082941
 31
0.0
  0
LINE
  8
0
  6
BYLAYER
 62
     7
 10
319.360922
 20
-475.582936
 30
0.0
 11
319.360922
 21
-414.982936
 31
0.0
  0
LINE
  8
0
  6
BYLAYER
 62
     7
 10
385.960922
 20
-465.231464
 30
0.0
 11
375.609450
 21
-475.582936
 31
0.0
  0
LINE
  8
0
  6
BYLAYER
 62
     7
 10
375.609450
 20
-475.582936
 30
0.0
 11
319.360922
 21
-475.582936
 31
0.0
  0
LINE
  8
0
  6
BYLAYER
 62
     7
 10
385.960922
 20
-414.982936
 30
0.0
 11
385.960922
 21
-465.231464
 31
0.0
  0
LINE
  8
0
  6
BYLAYER
 62
     7
 10
229.110922
 20
-394.389252
 30
0.0
 11
243.215620
 21
-394.881799
 31
0.0
  0
ARC
  8
0
  6
BYLAYER
 62
     7
 10
243.110922
 20
-397.879971
 30
0.0
 40
3.0
 50
0.0
 51
88.0
  0
LINE
  8
0
  6
BYLAYER
 62
     7
 10
246.110922
 20
-402.085839
 30
0.0
 11
246.110922
 21
-397.879971
 31
0.0
  0
LINE
  8
0
  6
BYLAYER
 62
     7
 10
226.110922
 20
-414.982966
 30
0.0
 11
226.110983
 21
-365.882990
 31
0.0
  0
LINE
  8
0
  6
BYLAYER
 62
     7
 10
319.360922
 20
-363.982908
 30
0.0
 11
276.361044
 21
-363.982966
 31
0.0
  0
LINE
  8
0
  6
BYLAYER
 62
     7
 10
319.360922
 20
-357.982908
 30
0.0
 11
276.361044
 21
-357.982966
 31
0.0
  0
LINE
  8
0
  6
BYLAYER
 62
     7
 10
319.360922
 20
-354.982908
 30
0.0
 11
276.361044
 21
-354.982966
 31
0.0
  0
LINE
  8
0
  6
BYLAYER
 62
     7
 10
226.111105
 20
-376.982905
 30
0.0
 11
229.197225
 21
-365.465266
 31
0.0
  0
ARC
  8
0
  6
BYLAYER
 62
     7
 10
231.129049
 20
-365.982905
 30
0.0
 40
1.999973
 50
89.999945
 51
164.999957
  0
LINE
  8
0
  6
BYLAYER
 62
     7
 10
226.111105
 20
-369.982905
 30
0.0
 11
227.735433
 21
-370.920710
 31
0.0
  0
LINE
  8
0
  6
BYLAYER
 62
     7
 10
226.111105
 20
-369.982905
 30
0.0
 11
228.929281
 21
-359.465266
 31
0.0
  0
ARC
  8
0
  6
BYLAYER
 62
     7
 10
230.861105
 20
-359.982905
 30
0.0
 40
1.999973
 50
89.999945
 51
164.999957
  0
ARC
  8
0
  6
BYLAYER
 62
     7
 10
230.861166
 20
-356.982905
 30
0.0
 40
2.000032
 50
89.999945
 51
164.999930
  0
LINE
  8
0
  6
BYLAYER
 62
     7
 10
226.111105
 20
-366.982905
 30
0.0
 11
228.929281
 21
-356.465266
 31
0.0
  0
LINE
  8
0
  6
BYLAYER
 62
     7
 10
231.129049
 20
-363.982905
 30
0.0
 11
276.361044
 21
-363.982966
 31
0.0
  0
LINE
  8
0
  6
BYLAYER
 62
     7
 10
230.861166
 20
-357.982905
 30
0.0
 11
276.361044
 21
-357.982966
 31
0.0
  0
LINE
  8
0
  6
BYLAYER
 62
     7
 10
230.861166
 20
-354.982905
 30
0.0
 11
276.361044
 21
-354.982966
 31
0.0
  0
LINE
  8
0
  6
BYLAYER
 62
     7
 10
226.110983
 20
-365.882990
 30
0.0
 11
226.366293
 21
-366.030390
 31
0.0
  0
LINE
  8
0
  6
BYLAYER
 62
     7
 10
306.110922
 20
-414.382990
 30
0.0
 11
319.360922
 21
-414.382990
 31
0.0
  0
LINE
  8
0
  6
BYLAYER
 62
     7
 10
306.110922
 20
-403.383042
 30
0.0
 11
319.360922
 21
-403.383050
 31
0.0
  0
LINE
  8
0
  6
BYLAYER
 62
     7
 10
306.110922
 20
-393.583052
 30
0.0
 11
319.360922
 21
-393.583060
 31
0.0
  0
LINE
  8
0
  6
BYLAYER
 62
     7
 10
306.110922
 20
-392.383027
 30
0.0
 11
319.360922
 21
-392.383043
 31
0.0
  0
LINE
  8
0
  6
BYLAYER
 62
     7
 10
306.110922
 20
-382.583040
 30
0.0
 11
319.360922
 21
-382.583056
 31
0.0
  0
LINE
  8
0
  6
BYLAYER
 62
     7
 10
306.110922
 20
-381.383027
 30
0.0
 11
319.360922
 21
-381.383043
 31
0.0
  0
LINE
  8
0
  6
BYLAYER
 62
     7
 10
306.110922
 20
-404.583055
 30
0.0
 11
319.360922
 21
-404.583064
 31
0.0
  0
LINE
  8
0
  6
BYLAYER
 62
     7
 10
318.110922
 20
-414.382990
 30
0.0
 11
318.110922
 21
-404.583064
 31
0.0
  0
LINE
  8
0
  6
BYLAYER
 62
     7
 10
318.110922
 20
-403.383051
 30
0.0
 11
318.110922
 21
-393.583064
 31
0.0
  0
LINE
  8
0
  6
BYLAYER
 62
     7
 10
318.110922
 20
-392.383051
 30
0.0
 11
318.110922
 21
-382.583064
 31
0.0
  0
LINE
  8
0
  6
BYLAYER
 62
     7
 10
318.110922
 20
-381.383051
 30
0.0
 11
318.110922
 21
-379.383051
 31
0.0
  0
LINE
  8
0
  6
BYLAYER
 62
     7
 10
318.110922
 20
-379.383051
 30
0.0
 11
306.110922
 21
-379.383042
 31
0.0
  0
LINE
  8
0
  6
BYLAYER
 62
     7
 10
318.110922
 20
-379.383051
 30
0.0
 11
319.360922
 21
-379.030088
 31
0.0
  0
LINE
  8
0
  6
BYLAYER
 62
     7
 10
229.652811
 20
-377.982966
 30
0.0
 11
226.111105
 21
-376.982905
 31
0.0
  0
LINE
  8
0
  6
BYLAYER
 62
     7
 10
224.110861
 20
-365.882929
 30
0.0
 11
226.110861
 21
-365.882929
 31
0.0
  0
LINE
  8
0
  6
BYLAYER
 62
     7
 10
224.110922
 20
-414.982936
 30
0.0
 11
224.110861
 21
-365.882930
 31
0.0
  0
LINE
  8
0
  6
BYLAYER
 62
     7
 10
319.360922
 20
-354.382936
 30
0.0
 11
319.360922
 21
-414.982936
 31
0.0
  0
LINE
  8
0
  6
BYLAYER
 62
     7
 10
385.960922
 20
-364.734407
 30
0.0
 11
375.609450
 21
-354.382936
 31
0.0
  0
LINE
  8
0
  6
BYLAYER
 62
     7
 10
375.609450
 20
-354.382936
 30
0.0
 11
319.360922
 21
-354.382936
 31
0.0
  0
LINE
  8
0
  6
BYLAYER
 62
     7
 10
385.960922
 20
-414.982936
 30
0.0
 11
385.960922
 21
-364.734407
 31
0.0
  0
LINE
  8
0
  6
BYLAYER
 62
     7
 10
197.110922
 20
-369.912664
 30
0.0
 11
214.680502
 21
-367.443415
 31
0.0
  0
ARC
  8
0
  6
BYLAYER
 62
     7
 10
214.610922
 20
-366.948298
 30
0.0
 40
0.500000
 50
278.000037
 51
360.000000
  0
LINE
  8
0
  6
BYLAYER
 62
     7
 10
215.110922
 20
-414.982935
 30
0.0
 11
215.110922
 21
-356.113916
 31
0.0
  0
ARC
  8
0
  6
BYLAYER
 62
     7
 10
215.610922
 20
-356.113916
 30
0.0
 40
0.500000
 50
90.999985
 51
180.000000
  0
LINE
  8
0
  6
BYLAYER
 62
     7
 10
215.602194
 20
-355.614008
 30
0.0
 11
222.602194
 21
-355.491816
 31
0.0
  0
ARC
  8
0
  6
BYLAYER
 62
     7
 10
222.610922
 20
-355.991724
 30
0.0
 40
0.5
 50
0.0
 51
90.99999
  0
LINE
  8
0
  6
BYLAYER
 62
     7
 10
223.110922
 20
-355.991724
 30
0.0
 11
223.110922
 21
-414.982935
 31
0.0
  0
ARC
  8
0
  6
BYLAYER
 62
     7
 10
223.610922
 20
-365.180262
 30
0.0
 40
0.500000
 50
180.000000
 51
268.000034
  0
LINE
  8
0
  6
BYLAYER
 62
     7
 10
223.593466
 20
-365.679956
 30
0.0
 11
224.110922
 21
-365.698022
 31
0.0
  0
LINE
  8
0
  6
BYLAYER
 62
     7
 10
224.110922
 20
-365.698022
 30
0.0
 11
224.110922
 21
-414.982935
 31
0.0
  0
LINE
  8
0
  6
BYLAYER
 62
     7
 10
197.110922
 20
-414.982935
 30
0.0
 11
197.110922
 21
-369.982935
 31
0.0
  0
LINE
  8
0
  6
BYLAYER
 62
     7
 10
197.110922
 20
-460.053206
 30
0.0
 11
214.680502
 21
-462.522455
 31
0.0
  0
ARC
  8
0
  6
BYLAYER
 62
     7
 10
214.610922
 20
-463.017572
 30
0.0
 40
0.500000
 50
0.0
 51
81.999963
  0
LINE
  8
0
  6
BYLAYER
 62
     7
 10
215.110922
 20
-414.982935
 30
0.0
 11
215.110922
 21
-473.851954
 31
0.0
  0
ARC
  8
0
  6
BYLAYER
 62
     7
 10
215.610922
 20
-473.851954
 30
0.0
 40
0.5
 50
180.000000
 51
269.000015
  0
LINE
  8
0
  6
BYLAYER
 62
     7
 10
215.602194
 20
-474.351862
 30
0.0
 11
222.602194
 21
-474.474054
 31
0.0
  0
ARC
  8
0
  6
BYLAYER
 62
     7
 10
222.610922
 20
-473.974146
 30
0.0
 40
0.500000
 50
269.000010
 51
360.000000
  0
LINE
  8
0
  6
BYLAYER
 62
     7
 10
223.110922
 20
-473.974146
 30
0.0
 11
223.110922
 21
-414.982935
 31
0.0
  0
ARC
  8
0
  6
BYLAYER
 62
     7
 10
223.610922
 20
-464.785608
 30
0.0
 40
0.5
 50
91.999966
 51
180.000000
  0
LINE
  8
0
  6
BYLAYER
 62
     7
 10
223.593466
 20
-464.285914
 30
0.0
 11
224.110922
 21
-464.267848
 31
0.0
  0
LINE
  8
0
  6
BYLAYER
 62
     7
 10
224.110922
 20
-464.267848
 30
0.0
 11
224.110922
 21
-414.982935
 31
0.0
  0
LINE
  8
0
  6
BYLAYER
 62
     7
 10
197.110922
 20
-414.982935
 30
0.0
 11
197.110922
 21
-459.982935
 31
0.0
  0
LINE
  8
0
  6
BYLAYER
 62
     7
 10
375.609450
 20
-475.582936
 30
0.0
 11
375.609450
 21
-354.382936
 31
0.0
  0
LINE
  8
0
  6
BYLAYER
 62
     1
 10
123.110907
 20
-71.982966
 30
0.0
 11
122.110907
 21
-70.982966
 31
0.0
  0
LINE
  8
0
  6
BYLAYER
 62
     1
 10
102.110911
 20
-90.982966
 30
0.0
 11
103.110911
 21
-91.982966
 31
0.0
  0
LINE
  8
0
  6
BYLAYER
 62
     1
 10
102.110918
 20
-147.982966
 30
0.0
 11
103.110918
 21
-146.982966
 31
0.0
  0
LINE
  8
0
  6
BYLAYER
 62
     1
 10
122.110922
 20
-167.982966
 30
0.0
 11
123.110922
 21
-166.982966
 31
0.0
  0
LINE
  8
0
  6
BYLAYER
 62
     1
 10
161.110922
 20
-166.982950
 30
0.0
 11
162.110922
 21
-167.982950
 31
0.0
  0
LINE
  8
0
  6
BYLAYER
 62
     1
 10
161.110907
 20
-71.982966
 30
0.0
 11
162.110907
 21
-70.982966
 31
0.0
  0
LINE
  8
0
  6
BYLAYER
 62
     1
 10
181.110922
 20
-91.982966
 30
0.0
 11
182.110922
 21
-90.982966
 31
0.0
  0
LINE
  8
0
  6
BYLAYER
 62
     1
 10
161.110922
 20
-166.982950
 30
0.0
 11
123.110922
 21
-166.982966
 31
0.0
  0
LINE
  8
0
  6
BYLAYER
 62
     1
 10
107.610907
 20
-80.732966
 30
0.0
 11
102.110911
 21
-80.732966
 31
0.0
  0
LINE
  8
0
  6
BYLAYER
 62
     1
 10
107.610907
 20
-86.982966
 30
0.0
 11
102.110911
 21
-86.982966
 31
0.0
  0
LINE
  8
0
  6
BYLAYER
 62
     1
 10
102.110918
 20
-151.732966
 30
0.0
 11
107.610922
 21
-151.732966
 31
0.0
  0
LINE
  8
0
  6
BYLAYER
 62
     1
 10
102.110918
 20
-158.232966
 30
0.0
 11
107.610922
 21
-158.232966
 31
0.0
  0
LINE
  8
0
  6
BYLAYER
 62
     1
 10
176.610922
 20
-158.232950
 30
0.0
 11
182.110922
 21
-158.232950
 31
0.0
  0
LINE
  8
0
  6
BYLAYER
 62
     1
 10
176.610922
 20
-151.732950
 30
0.0
 11
182.110922
 21
-151.732950
 31
0.0
  0
LINE
  8
0
  6
BYLAYER
 62
     1
 10
165.860922
 20
-167.982950
 30
0.0
 11
165.860922
 21
-162.482950
 31
0.0
  0
LINE
  8
0
  6
BYLAYER
 62
     1
 10
172.360922
 20
-167.982950
 30
0.0
 11
172.360922
 21
-162.482950
 31
0.0
  0
LINE
  8
0
  6
BYLAYER
 62
     1
 10
118.360922
 20
-167.982966
 30
0.0
 11
118.360922
 21
-162.482966
 31
0.0
  0
LINE
  8
0
  6
BYLAYER
 62
     1
 10
111.860922
 20
-167.982966
 30
0.0
 11
111.860922
 21
-162.482966
 31
0.0
  0
LINE
  8
0
  6
BYLAYER
 62
     1
 10
172.360907
 20
-70.982966
 30
0.0
 11
172.360922
 21
-76.482966
 31
0.0
  0
LINE
  8
0
  6
BYLAYER
 62
     1
 10
165.860907
 20
-70.982966
 30
0.0
 11
165.860922
 21
-76.482966
 31
0.0
  0
LINE
  8
0
  6
BYLAYER
 62
     1
 10
118.360907
 20
-70.982966
 30
0.0
 11
118.360907
 21
-76.482966
 31
0.0
  0
LINE
  8
0
  6
BYLAYER
 62
     1
 10
111.860907
 20
-70.982966
 30
0.0
 11
111.860907
 21
-76.482966
 31
0.0
  0
LINE
  8
0
  6
BYLAYER
 62
     1
 10
122.110907
 20
-70.982966
 30
0.0
 11
122.110907
 21
-76.482966
 31
0.0
  0
LINE
  8
0
  6
BYLAYER
 62
     1
 10
162.110907
 20
-70.982966
 30
0.0
 11
162.110922
 21
-76.482966
 31
0.0
  0
LINE
  8
0
  6
BYLAYER
 62
     1
 10
182.110922
 20
-90.982966
 30
0.0
 11
176.610922
 21
-90.982966
 31
0.0
  0
LINE
  8
0
  6
BYLAYER
 62
     1
 10
181.110922
 20
-91.982966
 30
0.0
 11
176.610922
 21
-91.982966
 31
0.0
  0
LINE
  8
0
  6
BYLAYER
 62
     1
 10
182.110922
 20
-147.982950
 30
0.0
 11
176.610922
 21
-147.982950
 31
0.0
  0
LINE
  8
0
  6
BYLAYER
 62
     1
 10
161.110922
 20
-166.982950
 30
0.0
 11
161.110922
 21
-162.482950
 31
0.0
  0
LINE
  8
0
  6
BYLAYER
 62
     1
 10
162.110922
 20
-167.982950
 30
0.0
 11
162.110922
 21
-162.482950
 31
0.0
  0
LINE
  8
0
  6
BYLAYER
 62
     1
 10
122.110922
 20
-167.982966
 30
0.0
 11
122.110922
 21
-162.482966
 31
0.0
  0
LINE
  8
0
  6
BYLAYER
 62
     1
 10
123.110922
 20
-166.982966
 30
0.0
 11
123.110922
 21
-162.482966
 31
0.0
  0
LINE
  8
0
  6
BYLAYER
 62
     1
 10
102.110918
 20
-147.982966
 30
0.0
 11
107.610922
 21
-147.982966
 31
0.0
  0
LINE
  8
0
  6
BYLAYER
 62
     1
 10
102.110911
 20
-90.982966
 30
0.0
 11
107.610907
 21
-90.982966
 31
0.0
  0
LINE
  8
0
  6
BYLAYER
 62
     1
 10
103.110918
 20
-146.982966
 30
0.0
 11
103.110911
 21
-117.982966
 31
0.0
  0
LINE
  8
0
  6
BYLAYER
 62
     1
 10
103.110911
 20
-91.982966
 30
0.0
 11
103.110911
 21
-117.982966
 31
0.0
  0
LINE
  8
0
  6
BYLAYER
 62
     1
 10
181.110922
 20
-124.982966
 30
0.0
 11
181.110922
 21
-146.982950
 31
0.0
  0
LINE
  8
0
  6
BYLAYER
 62
     1
 10
107.610907
 20
-103.865412
 30
0.0
 11
107.610907
 21
-115.219050
 31
0.0
  0
LINE
  8
0
  6
BYLAYER
 62
     1
 10
103.110918
 20
-146.982966
 30
0.0
 11
103.610918
 21
-146.982966
 31
0.0
  0
LINE
  8
0
  6
BYLAYER
 62
     1
 10
107.610922
 20
-146.982966
 30
0.0
 11
103.610918
 21
-146.982966
 31
0.0
  0
LINE
  8
0
  6
BYLAYER
 62
     1
 10
103.110911
 20
-91.982966
 30
0.0
 11
103.610911
 21
-91.982966
 31
0.0
  0
LINE
  8
0
  6
BYLAYER
 62
     1
 10
107.610907
 20
-91.982966
 30
0.0
 11
103.610911
 21
-91.982966
 31
0.0
  0
LINE
  8
0
  6
BYLAYER
 62
     1
 10
123.110907
 20
-71.982966
 30
0.0
 11
123.110907
 21
-73.982966
 31
0.0
  0
LINE
  8
0
  6
BYLAYER
 62
     1
 10
161.110907
 20
-73.982966
 30
0.0
 11
161.110907
 21
-71.982966
 31
0.0
  0
LINE
  8
0
  6
BYLAYER
 62
     1
 10
123.110907
 20
-76.482966
 30
0.0
 11
123.110907
 21
-73.982966
 31
0.0
  0
LINE
  8
0
  6
BYLAYER
 62
     1
 10
161.110907
 20
-73.982966
 30
0.0
 11
161.110922
 21
-76.482966
 31
0.0
  0
LINE
  8
0
  6
BYLAYER
 62
     1
 10
181.110922
 20
-146.982950
 30
0.0
 11
180.610922
 21
-146.982950
 31
0.0
  0
LINE
  8
0
  6
BYLAYER
 62
     1
 10
176.610922
 20
-146.982950
 30
0.0
 11
180.610922
 21
-146.982950
 31
0.0
  0
ARC
  8
0
  6
BYLAYER
 62
     1
 10
108.610922
 20
-142.232966
 30
0.0
 40
1.0
 50
180.000000
 51
269.999996
  0
LINE
  8
0
  6
BYLAYER
 62
     1
 10
107.610922
 20
-145.732966
 30
0.0
 11
107.610922
 21
-146.982966
 31
0.0
  0
ARC
  8
0
  6
BYLAYER
 62
     1
 10
108.610922
 20
-145.732966
 30
0.0
 40
1.000000
 50
90.0
 51
179.999996
  0
LINE
  8
0
  6
BYLAYER
 62
     1
 10
176.610922
 20
-146.982950
 30
0.0
 11
176.610922
 21
-145.732950
 31
0.0
  0
LINE
  8
0
  6
BYLAYER
 62
     1
 10
107.610907
 20
-103.732966
 30
0.0
 11
107.610907
 21
-103.865412
 31
0.0
  0
ARC
  8
0
  6
BYLAYER
 62
     1
 10
108.610907
 20
-103.732966
 30
0.0
 40
1.0
 50
90.0
 51
179.999996
  0
ARC
  8
0
  6
BYLAYER
 62
     1
 10
108.610907
 20
-100.232966
 30
0.0
 40
1.0
 50
180.000000
 51
269.999996
  0
CIRCLE
  8
0
  6
BYLAYER
 62
     1
 10
142.110922
 20
-127.982935
 30
0.0
 40
23.500000
  0
LINE
  8
0
  6
BYLAYER
 62
     1
 10
176.610922
 20
-91.998804
 30
0.0
 11
176.610922
 21
-90.982966
 31
0.0
  0
CIRCLE
  8
0
  6
BYLAYER
 62
     1
 10
142.110907
 20
-95.482966
 30
0.0
 40
2.300003
  0
CIRCLE
  8
0
  6
BYLAYER
 62
     1
 10
109.610922
 20
-127.982966
 30
0.0
 40
2.300003
  0
CIRCLE
  8
0
  6
BYLAYER
 62
     1
 10
142.110922
 20
-160.482950
 30
0.0
 40
2.300003
  0
ARC
  8
0
  6
BYLAYER
 62
     1
 10
112.110922
 20
-142.232966
 30
0.0
 40
1.0
 50
180.000000
 51
269.999996
  0
ARC
  8
0
  6
BYLAYER
 62
     1
 10
112.110922
 20
-145.732966
 30
0.0
 40
1.000000
 50
90.0
 51
179.999996
  0
ARC
  8
0
  6
BYLAYER
 62
     1
 10
142.110907
 20
-95.482966
 30
0.0
 40
3.000006
 50
67.576061
 51
374.380645
  0
ARC
  8
0
  6
BYLAYER
 62
     1
 10
109.610937
 20
-127.982966
 30
0.0
 40
3.000006
 50
157.576070
 51
464.380627
  0
ARC
  8
0
  6
BYLAYER
 62
     1
 10
142.110922
 20
-160.482935
 30
0.0
 40
3.0
 50
247.576053
 51
554.380637
  0
LINE
  8
0
  6
BYLAYER
 62
     1
 10
108.610907
 20
-76.482966
 30
0.0
 11
123.110907
 21
-76.482966
 31
0.0
  0
ARC
  8
0
  6
BYLAYER
 62
     1
 10
108.610907
 20
-77.482966
 30
0.0
 40
1.0
 50
90.0
 51
180.000003
  0
LINE
  8
0
  6
BYLAYER
 62
     1
 10
161.110922
 20
-76.482966
 30
0.0
 11
175.610922
 21
-76.482966
 31
0.0
  0
LINE
  8
0
  6
BYLAYER
 62
     1
 10
176.610922
 20
-90.982966
 30
0.0
 11
176.610922
 21
-77.482966
 31
0.0
  0
ARC
  8
0
  6
BYLAYER
 62
     1
 10
175.610922
 20
-77.482966
 30
0.0
 40
1.000000
 50
0.0
 51
90.000003
  0
LINE
  8
0
  6
BYLAYER
 62
     1
 10
107.610922
 20
-146.982966
 30
0.0
 11
107.610922
 21
-161.482966
 31
0.0
  0
ARC
  8
0
  6
BYLAYER
 62
     1
 10
108.610922
 20
-161.482966
 30
0.0
 40
1.0
 50
180.000000
 51
269.999996
  0
LINE
  8
0
  6
BYLAYER
 62
     1
 10
176.610922
 20
-161.482950
 30
0.0
 11
176.610922
 21
-146.982950
 31
0.0
  0
ARC
  8
0
  6
BYLAYER
 62
     1
 10
175.610922
 20
-161.482950
 30
0.0
 40
1.000000
 50
270.0
 51
360.000003
  0
LINE
  8
0
  6
BYLAYER
 62
     1
 10
173.110922
 20
-157.982950
 30
0.0
 11
173.110922
 21
-145.732950
 31
0.0
  0
ARC
  8
0
  6
BYLAYER
 62
     1
 10
172.110922
 20
-157.982950
 30
0.0
 40
1.000000
 50
270.0
 51
360.000003
  0
LINE
  8
0
  6
BYLAYER
 62
     1
 10
111.110922
 20
-157.982966
 30
0.0
 11
111.110922
 21
-145.732966
 31
0.0
  0
ARC
  8
0
  6
BYLAYER
 62
     1
 10
112.110922
 20
-157.982966
 30
0.0
 40
1.0
 50
180.000000
 51
269.999996
  0
LINE
  8
0
  6
BYLAYER
 62
     1
 10
107.903814
 20
-162.190073
 30
0.0
 11
111.403814
 21
-158.690073
 31
0.0
  0
LINE
  8
0
  6
BYLAYER
 62
     1
 10
176.318030
 20
-162.190058
 30
0.0
 11
172.818030
 21
-158.690058
 31
0.0
  0
LINE
  8
0
  6
BYLAYER
 62
     1
 10
108.610922
 20
-143.232966
 30
0.0
 11
114.360922
 21
-143.232966
 31
0.0
  0
LINE
  8
0
  6
BYLAYER
 62
     1
 10
114.360922
 20
-144.732966
 30
0.0
 11
108.610922
 21
-144.732966
 31
0.0
  0
ARC
  8
0
  6
BYLAYER
 62
     1
 10
114.360922
 20
-143.982966
 30
0.0
 40
0.75
 50
270.0
 51
450.000005
  0
LINE
  8
0
  6
BYLAYER
 62
     1
 10
182.110937
 20
-93.223841
 30
0.0
 11
183.110937
 21
-93.223841
 31
0.0
  0
ARC
  8
0
  6
BYLAYER
 62
     1
 10
182.110937
 20
-92.223841
 30
0.0
 40
1.000000
 50
180.000000
 51
269.999996
  0
LINE
  8
0
  6
BYLAYER
 62
     1
 10
182.110937
 20
-95.803492
 30
0.0
 11
183.110937
 21
-95.803492
 31
0.0
  0
ARC
  8
0
  6
BYLAYER
 62
     1
 10
182.110937
 20
-94.803492
 30
0.0
 40
1.000000
 50
180.000000
 51
269.999996
  0
LINE
  8
0
  6
BYLAYER
 62
     1
 10
182.110937
 20
-100.162378
 30
0.0
 11
183.110937
 21
-100.162378
 31
0.0
  0
ARC
  8
0
  6
BYLAYER
 62
     1
 10
182.110937
 20
-101.162378
 30
0.0
 40
1.000000
 50
90.0
 51
180.000009
  0
LINE
  8
0
  6
BYLAYER
 62
     1
 10
183.110937
 20
-102.742029
 30
0.0
 11
181.110937
 21
-102.811884
 31
0.0
  0
ARC
  8
0
  6
BYLAYER
 62
     1
 10
175.610937
 20
-92.223841
 30
0.0
 40
1.000000
 50
270.0
 51
359.999982
  0
LINE
  8
0
  6
BYLAYER
 62
     1
 10
175.610937
 20
-93.223841
 30
0.0
 11
169.110937
 21
-93.223841
 31
0.0
  0
ARC
  8
0
  6
BYLAYER
 62
     1
 10
166.110937
 20
-100.232935
 30
0.0
 40
1.000000
 50
270.0
 51
359.999982
  0
ARC
  8
0
  6
BYLAYER
 62
     1
 10
114.110937
 20
-104.732935
 30
0.0
 40
2.0
 50
0.0
 51
90.000016
  0
ARC
  8
0
  6
BYLAYER
 62
     1
 10
108.610937
 20
-114.479944
 30
0.0
 40
1.000000
 50
90.0
 51
180.000009
  0
LINE
  8
0
  6
BYLAYER
 62
     1
 10
181.110922
 20
-94.803492
 30
0.0
 11
181.110922
 21
-91.982966
 31
0.0
  0
LINE
  8
0
  6
BYLAYER
 62
     1
 10
181.110922
 20
-124.965509
 30
0.0
 11
181.110922
 21
-101.162378
 31
0.0
  0
LINE
  8
0
  6
BYLAYER
 62
     1
 10
176.610922
 20
-92.229365
 30
0.0
 11
176.610922
 21
-113.654963
 31
0.0
  0
LINE
  8
0
  6
BYLAYER
 62
     1
 10
122.110907
 20
-70.982966
 30
0.0
 11
105.110911
 21
-70.982966
 31
0.0
  0
LINE
  8
0
  6
BYLAYER
 62
     1
 10
105.110911
 20
-70.982966
 30
0.0
 11
102.110911
 21
-73.982966
 31
0.0
  0
LINE
  8
0
  6
BYLAYER
 62
     1
 10
182.110922
 20
-90.982966
 30
0.0
 11
182.110922
 21
-73.982966
 31
0.0
  0
LINE
  8
0
  6
BYLAYER
 62
     1
 10
182.110922
 20
-73.982966
 30
0.0
 11
179.110907
 21
-70.982966
 31
0.0
  0
LINE
  8
0
  6
BYLAYER
 62
     1
 10
162.110922
 20
-167.982950
 30
0.0
 11
179.110922
 21
-167.982950
 31
0.0
  0
LINE
  8
0
  6
BYLAYER
 62
     1
 10
179.110922
 20
-167.982950
 30
0.0
 11
182.110922
 21
-164.982950
 31
0.0
  0
LINE
  8
0
  6
BYLAYER
 62
     1
 10
182.110922
 20
-164.982950
 30
0.0
 11
182.110922
 21
-147.982950
 31
0.0
  0
LINE
  8
0
  6
BYLAYER
 62
     1
 10
122.110922
 20
-167.982966
 30
0.0
 11
105.110918
 21
-167.982966
 31
0.0
  0
LINE
  8
0
  6
BYLAYER
 62
     1
 10
105.110918
 20
-167.982966
 30
0.0
 11
102.110918
 21
-164.982966
 31
0.0
  0
LINE
  8
0
  6
BYLAYER
 62
     1
 10
102.110918
 20
-164.982966
 30
0.0
 11
102.110918
 21
-147.982966
 31
0.0
  0
LINE
  8
0
  6
BYLAYER
 62
     1
 10
162.110907
 20
-70.982966
 30
0.0
 11
183.110907
 21
-70.982966
 31
0.0
  0
LINE
  8
0
  6
BYLAYER
 62
     1
 10
102.110911
 20
-116.982966
 30
0.0
 11
102.110911
 21
-71.982966
 31
0.0
  0
LINE
  8
0
  6
BYLAYER
 62
     1
 10
161.110907
 20
-71.982966
 30
0.0
 11
123.110907
 21
-71.982966
 31
0.0
  0
LINE
  8
0
  6
BYLAYER
 62
     1
 10
104.110911
 20
-71.982966
 30
0.0
 11
102.110911
 21
-71.982966
 31
0.0
  0
LINE
  8
0
  6
BYLAYER
 62
     1
 10
182.110922
 20
-77.016260
 30
0.0
 11
183.110907
 21
-77.016260
 31
0.0
  0
LINE
  8
0
  6
BYLAYER
 62
     1
 10
181.110922
 20
-118.949579
 30
0.0
 11
183.110922
 21
-118.949579
 31
0.0
  0
LINE
  8
0
  6
BYLAYER
 62
     1
 10
183.110922
 20
-125.482935
 30
0.0
 11
181.110922
 21
-125.552790
 31
0.0
  0
LINE
  8
0
  6
BYLAYER
 62
     1
 10
183.110922
 20
-125.482935
 30
0.0
 11
183.110907
 21
-70.982966
 31
0.0
  0
LINE
  8
0
  6
BYLAYER
 62
     1
 10
102.110911
 20
-116.982966
 30
0.0
 11
103.110911
 21
-117.017878
 31
0.0
  0
LINE
  8
0
  6
BYLAYER
 62
     1
 10
161.110922
 20
-76.482966
 30
0.0
 11
160.110907
 21
-77.482966
 31
0.0
  0
LINE
  8
0
  6
BYLAYER
 62
     1
 10
124.110922
 20
-77.482966
 30
0.0
 11
160.110907
 21
-77.482966
 31
0.0
  0
LINE
  8
0
  6
BYLAYER
 62
     1
 10
123.110907
 20
-76.482966
 30
0.0
 11
124.110922
 21
-77.482966
 31
0.0
  0
ARC
  8
0
  6
BYLAYER
 62
     1
 10
177.445807
 20
-131.402796
 30
0.0
 40
1.999996
 50
284.999998
 51
354.471300
  0
ARC
  8
0
  6
BYLAYER
 62
     1
 10
142.110922
 20
-127.982935
 30
0.0
 40
37.499989
 50
354.471846
 51
365.528143
  0
ARC
  8
0
  6
BYLAYER
 62
     1
 10
177.445807
 20
-124.563044
 30
0.0
 40
1.999993
 50
5.527821
 51
74.999765
  0
ARC
  8
0
  6
BYLAYER
 62
     1
 10
142.110922
 20
-127.982935
 30
0.0
 40
37.499973
 50
84.471852
 51
95.528146
  0
ARC
  8
0
  6
BYLAYER
 62
     1
 10
142.110922
 20
-127.982935
 30
0.0
 40
37.499992
 50
174.471868
 51
185.528142
  0
ARC
  8
0
  6
BYLAYER
 62
     1
 10
142.110922
 20
-127.982935
 30
0.0
 40
37.499989
 50
264.471837
 51
275.528137
  0
ARC
  8
0
  6
BYLAYER
 62
     1
 10
138.691031
 20
-92.648035
 30
0.0
 40
1.999963
 50
95.527825
 51
164.999776
  0
ARC
  8
0
  6
BYLAYER
 62
     1
 10
106.776037
 20
-131.402826
 30
0.0
 40
1.999997
 50
185.527827
 51
254.999758
  0
ARC
  8
0
  6
BYLAYER
 62
     1
 10
145.530813
 20
-163.317820
 30
0.0
 40
1.999993
 50
275.527809
 51
344.999767
  0
LINE
  8
0
  6
BYLAYER
 62
     1
 10
136.759207
 20
-92.130396
 30
0.0
 11
134.353171
 21
-101.109705
 31
0.0
  0
LINE
  8
0
  6
BYLAYER
 62
     1
 10
106.258398
 20
-133.334650
 30
0.0
 11
115.237707
 21
-135.740686
 31
0.0
  0
LINE
  8
0
  6
BYLAYER
 62
     1
 10
147.462637
 20
-163.835459
 30
0.0
 11
149.868673
 21
-154.856150
 31
0.0
  0
ARC
  8
0
  6
BYLAYER
 62
     1
 10
114.978888
 20
-136.706598
 30
0.0
 40
0.999994
 50
17.823935
 51
74.999773
  0
ARC
  8
0
  6
BYLAYER
 62
     1
 10
150.834585
 20
-155.114969
 30
0.0
 40
0.999994
 50
107.823914
 51
164.999762
  0
ARC
  8
0
  6
BYLAYER
 62
     1
 10
103.941866
 20
-136.913996
 30
0.0
 40
12.000010
 50
2.452622
 51
13.169571
  0
ARC
  8
0
  6
BYLAYER
 62
     1
 10
151.041983
 20
-166.151987
 30
0.0
 40
12.000007
 50
92.452600
 51
103.169550
  0
ARC
  8
0
  6
BYLAYER
 62
     1
 10
142.110922
 20
-127.982935
 30
0.0
 40
27.200003
 50
76.830483
 51
103.169516
  0
ARC
  8
0
  6
BYLAYER
 62
     1
 10
142.110922
 20
-127.982935
 30
0.0
 40
27.200003
 50
166.830471
 51
193.169511
  0
ARC
  8
0
  6
BYLAYER
 62
     1
 10
142.110922
 20
-127.982935
 30
0.0
 40
27.200003
 50
256.830440
 51
283.169507
  0
ARC
  8
0
  6
BYLAYER
 62
     1
 10
103.941866
 20
-119.051874
 30
0.0
 40
12.000010
 50
346.830422
 51
357.547398
  0
ARC
  8
0
  6
BYLAYER
 62
     1
 10
133.179861
 20
-166.151987
 30
0.0
 40
12.000007
 50
76.830428
 51
87.547377
  0
ARC
  8
0
  6
BYLAYER
 62
     1
 10
114.978888
 20
-119.259272
 30
0.0
 40
0.999994
 50
285.000244
 51
342.176058
  0
ARC
  8
0
  6
BYLAYER
 62
     1
 10
133.387259
 20
-155.114969
 30
0.0
 40
0.999994
 50
15.000226
 51
72.176064
  0
LINE
  8
0
  6
BYLAYER
 62
     1
 10
149.868673
 20
-101.109705
 30
0.0
 11
147.462637
 21
-92.130396
 31
0.0
  0
LINE
  8
0
  6
BYLAYER
 62
     1
 10
115.237707
 20
-120.225184
 30
0.0
 11
106.258398
 21
-122.631220
 31
0.0
  0
LINE
  8
0
  6
BYLAYER
 62
     1
 10
134.353171
 20
-154.856150
 30
0.0
 11
136.759207
 21
-163.835459
 31
0.0
  0
ARC
  8
0
  6
BYLAYER
 62
     1
 10
145.530783
 20
-92.648035
 30
0.0
 40
1.999966
 50
15.000011
 51
84.471306
  0
ARC
  8
0
  6
BYLAYER
 62
     1
 10
106.776037
 20
-124.563074
 30
0.0
 40
2.000000
 50
104.999986
 51
174.471322
  0
ARC
  8
0
  6
BYLAYER
 62
     1
 10
138.691061
 20
-163.317820
 30
0.0
 40
1.999996
 50
194.999975
 51
264.471290
  0
ARC
  8
0
  6
BYLAYER
 62
     1
 10
142.110922
 20
-127.982935
 30
0.0
 40
27.499998
 50
17.823966
 51
72.176009
  0
ARC
  8
0
  6
BYLAYER
 62
     1
 10
142.110922
 20
-127.982935
 30
0.0
 40
27.499989
 50
107.823989
 51
162.176025
  0
ARC
  8
0
  6
BYLAYER
 62
     1
 10
142.110922
 20
-127.982935
 30
0.0
 40
27.499979
 50
287.823953
 51
342.17603
  0
ARC
  8
0
  6
BYLAYER
 62
     1
 10
142.110922
 20
-127.982935
 30
0.0
 40
27.499985
 50
197.823971
 51
252.176048
  0
LINE
  8
0
  6
BYLAYER
 62
     1
 10
108.610937
 20
-113.479944
 30
0.0
 11
114.110937
 21
-113.479944
 31
0.0
  0
LINE
  8
0
  6
BYLAYER
 62
     1
 10
116.110937
 20
-111.479944
 30
0.0
 11
116.110937
 21
-104.732935
 31
0.0
  0
ARC
  8
0
  6
BYLAYER
 62
     1
 10
114.110937
 20
-111.479944
 30
0.0
 40
2.0
 50
270.0
 51
360.000003
  0
LINE
  8
0
  6
BYLAYER
 62
     1
 10
107.610907
 20
-120.965570
 30
0.0
 11
107.610907
 21
-115.219050
 31
0.0
  0
ARC
  8
0
  6
BYLAYER
 62
     1
 10
108.610907
 20
-120.965570
 30
0.0
 40
1.0
 50
180.000000
 51
285.000211
  0
LINE
  8
0
  6
BYLAYER
 62
     1
 10
107.610922
 20
-142.232966
 30
0.0
 11
107.610922
 21
-135.000300
 31
0.0
  0
ARC
  8
0
  6
BYLAYER
 62
     1
 10
108.610922
 20
-135.000300
 30
0.0
 40
1.000016
 50
74.999794
 51
180.000005
  0
LINE
  8
0
  6
BYLAYER
 62
     1
 10
111.110922
 20
-134.679071
 30
0.0
 11
111.110922
 21
-142.232966
 31
0.0
  0
LINE
  8
0
  6
BYLAYER
 62
     1
 10
111.110968
 20
-121.286768
 30
0.0
 11
111.110968
 21
-113.479944
 31
0.0
  0
LINE
  8
0
  6
BYLAYER
 62
     1
 10
135.414770
 20
-158.982950
 30
0.0
 11
112.110922
 21
-158.983027
 31
0.0
  0
ARC
  8
0
  6
BYLAYER
 62
     1
 10
135.093557
 20
-161.482950
 30
0.0
 40
1.0
 50
270.0
 51
375.000013
  0
LINE
  8
0
  6
BYLAYER
 62
     1
 10
172.110922
 20
-158.982950
 30
0.0
 11
148.807058
 21
-158.982950
 31
0.0
  0
LINE
  8
0
  6
BYLAYER
 62
     1
 10
175.610922
 20
-162.482950
 30
0.0
 11
149.128271
 21
-162.482950
 31
0.0
  0
ARC
  8
0
  6
BYLAYER
 62
     1
 10
149.128271
 20
-161.482950
 30
0.0
 40
1.000001
 50
164.999994
 51
270.000001
  0
LINE
  8
0
  6
BYLAYER
 62
     1
 10
108.610922
 20
-162.483011
 30
0.0
 11
135.093557
 21
-162.482950
 31
0.0
  0
LINE
  8
0
  6
BYLAYER
 62
     1
 10
108.610907
 20
-101.232966
 30
0.0
 11
124.360930
 21
-101.232966
 31
0.0
  0
LINE
  8
0
  6
BYLAYER
 62
     1
 10
108.610907
 20
-102.732966
 30
0.0
 11
124.360930
 21
-102.732966
 31
0.0
  0
ARC
  8
0
  6
BYLAYER
 62
     1
 10
108.610907
 20
-92.232966
 30
0.0
 40
1.0
 50
180.000000
 51
269.999996
  0
LINE
  8
0
  6
BYLAYER
 62
     1
 10
131.860907
 20
-93.232966
 30
0.0
 11
108.610907
 21
-93.232966
 31
0.0
  0
ARC
  8
0
  6
BYLAYER
 62
     1
 10
131.860907
 20
-93.982966
 30
0.0
 40
0.750000
 50
0.0
 51
90.000003
  0
ARC
  8
0
  6
BYLAYER
 62
     1
 10
131.860907
 20
-94.020807
 30
0.0
 40
0.750001
 50
270.0
 51
360.000003
  0
LINE
  8
0
  6
BYLAYER
 62
     1
 10
132.610907
 20
-93.982966
 30
0.0
 11
132.610907
 21
-94.020807
 31
0.0
  0
LINE
  8
0
  6
BYLAYER
 62
     1
 10
131.860907
 20
-94.770807
 30
0.0
 11
108.610907
 21
-94.770807
 31
0.0
  0
ARC
  8
0
  6
BYLAYER
 62
     1
 10
108.610907
 20
-95.770807
 30
0.0
 40
1.0
 50
90.0
 51
179.999996
  0
ARC
  8
0
  6
BYLAYER
 62
     1
 10
152.360937
 20
-93.982966
 30
0.0
 40
0.750000
 50
90.0
 51
180.000003
  0
ARC
  8
0
  6
BYLAYER
 62
     1
 10
152.360937
 20
-94.020807
 30
0.0
 40
0.750001
 50
180.000000
 51
269.999996
  0
LINE
  8
0
  6
BYLAYER
 62
     1
 10
107.610907
 20
-100.232966
 30
0.0
 11
107.610907
 21
-95.770807
 31
0.0
  0
LINE
  8
0
  6
BYLAYER
 62
     1
 10
107.610907
 20
-77.482966
 30
0.0
 11
107.610907
 21
-92.232966
 31
0.0
  0
LINE
  8
0
  6
BYLAYER
 62
     1
 10
168.920111
 20
-93.232966
 30
0.0
 11
152.360937
 21
-93.232966
 31
0.0
  0
LINE
  8
0
  6
BYLAYER
 62
     1
 10
152.360937
 20
-94.770807
 30
0.0
 11
166.110937
 21
-94.770807
 31
0.0
  0
ARC
  8
0
  6
BYLAYER
 62
     1
 10
166.110937
 20
-95.770807
 30
0.0
 40
1.0
 50
0.0
 51
90.000003
  0
LINE
  8
0
  6
BYLAYER
 62
     1
 10
182.110922
 20
-147.982950
 30
0.0
 11
181.110922
 21
-146.982950
 31
0.0
  0
LINE
  8
0
  6
BYLAYER
 62
     1
 10
167.110937
 20
-100.232935
 30
0.0
 11
167.110937
 21
-95.770807
 31
0.0
  0
ARC
  8
0
  6
BYLAYER
 62
     1
 10
135.844784
 20
-85.671267
 30
0.0
 40
1.149491
 50
270.0
 51
308.795511
  0
ARC
  8
0
  6
BYLAYER
 62
     1
 10
135.733543
 20
-85.552795
 30
0.0
 40
1.311583
 50
309.340351
 51
360.0
  0
ARC
  8
0
  6
BYLAYER
 62
     1
 10
135.733543
 20
-85.552795
 30
0.0
 40
1.311583
 50
0.0
 51
50.659649
  0
ARC
  8
0
  6
BYLAYER
 62
     1
 10
135.844784
 20
-85.434323
 30
0.0
 40
1.149491
 50
51.204489
 51
90.000000
  0
ARC
  8
0
  6
BYLAYER
 62
     1
 10
135.844784
 20
-85.434313
 30
0.0
 40
1.149480
 50
90.0
 51
128.795693
  0
ARC
  8
0
  6
BYLAYER
 62
     1
 10
135.956035
 20
-85.552795
 30
0.0
 40
1.311587
 50
129.340576
 51
180.0
  0
ARC
  8
0
  6
BYLAYER
 62
     1
 10
135.956035
 20
-85.552795
 30
0.0
 40
1.311587
 50
180.000000
 51
230.659424
  0
ARC
  8
0
  6
BYLAYER
 62
     1
 10
135.844784
 20
-85.671277
 30
0.0
 40
1.149480
 50
231.204307
 51
270.000000
  0
ARC
  8
0
  6
BYLAYER
 62
     1
 10
135.844784
 20
-85.215535
 30
0.0
 40
0.531899
 50
90.0
 51
140.793201
  0
ARC
  8
0
  6
BYLAYER
 62
     1
 10
136.258206
 20
-85.552795
 30
0.0
 40
1.065436
 50
140.793201
 51
180.0
  0
ARC
  8
0
  6
BYLAYER
 62
     1
 10
136.258199
 20
-85.552795
 30
0.0
 40
1.065430
 50
180.000000
 51
219.206869
  0
ARC
  8
0
  6
BYLAYER
 62
     1
 10
135.844784
 20
-85.890051
 30
0.0
 40
0.531900
 50
219.206869
 51
270.000000
  0
ARC
  8
0
  6
BYLAYER
 62
     1
 10
135.844784
 20
-85.890051
 30
0.0
 40
0.531900
 50
270.0
 51
320.793131
  0
ARC
  8
0
  6
BYLAYER
 62
     1
 10
135.431368
 20
-85.552795
 30
0.0
 40
1.065430
 50
320.793131
 51
360.0
  0
ARC
  8
0
  6
BYLAYER
 62
     1
 10
135.431362
 20
-85.552795
 30
0.0
 40
1.065436
 50
0.0
 51
39.206799
  0
ARC
  8
0
  6
BYLAYER
 62
     1
 10
135.844784
 20
-85.215535
 30
0.0
 40
0.531899
 50
39.206799
 51
90.000000
  0
LINE
  8
0
  6
BYLAYER
 62
     1
 10
131.905648
 20
-86.736224
 30
0.0
 11
131.905648
 21
-84.335547
 31
0.0
  0
LINE
  8
0
  6
BYLAYER
 62
     1
 10
131.905648
 20
-84.335547
 30
0.0
 11
132.881698
 21
-84.335547
 31
0.0
  0
LINE
  8
0
  6
BYLAYER
 62
     1
 10
132.881698
 20
-84.335547
 30
0.0
 11
133.207424
 21
-85.586609
 31
0.0
  0
LINE
  8
0
  6
BYLAYER
 62
     1
 10
131.905648
 20
-86.736224
 30
0.0
 11
132.491732
 21
-86.736224
 31
0.0
  0
LINE
  8
0
  6
BYLAYER
 62
     1
 10
132.491732
 20
-86.736224
 30
0.0
 11
132.491732
 21
-85.349920
 31
0.0
  0
LINE
  8
0
  6
BYLAYER
 62
     1
 10
132.953829
 20
-86.736224
 30
0.0
 11
132.491732
 21
-85.349920
 31
0.0
  0
LINE
  8
0
  6
BYLAYER
 62
     1
 10
134.509200
 20
-86.736224
 30
0.0
 11
134.509200
 21
-84.335547
 31
0.0
  0
LINE
  8
0
  6
BYLAYER
 62
     1
 10
134.509200
 20
-84.335547
 30
0.0
 11
133.533151
 21
-84.335547
 31
0.0
  0
LINE
  8
0
  6
BYLAYER
 62
     1
 10
133.533151
 20
-84.335547
 30
0.0
 11
133.207424
 21
-85.586609
 31
0.0
  0
LINE
  8
0
  6
BYLAYER
 62
     1
 10
134.509200
 20
-86.736224
 30
0.0
 11
133.923116
 21
-86.736224
 31
0.0
  0
LINE
  8
0
  6
BYLAYER
 62
     1
 10
133.923116
 20
-86.736224
 30
0.0
 11
133.923116
 21
-85.349920
 31
0.0
  0
LINE
  8
0
  6
BYLAYER
 62
     1
 10
133.461019
 20
-86.736224
 30
0.0
 11
133.923116
 21
-85.349920
 31
0.0
  0
LINE
  8
0
  6
BYLAYER
 62
     1
 10
133.461019
 20
-86.736224
 30
0.0
 11
132.953829
 21
-86.736224
 31
0.0
  0
LINE
  8
0
  6
BYLAYER
 62
     1
 10
143.097536
 20
-86.736224
 30
0.0
 11
144.010464
 21
-84.335547
 31
0.0
  0
LINE
  8
0
  6
BYLAYER
 62
     1
 10
143.097536
 20
-86.736224
 30
0.0
 11
143.875222
 21
-86.736224
 31
0.0
  0
LINE
  8
0
  6
BYLAYER
 62
     1
 10
144.010464
 20
-84.335547
 30
0.0
 11
144.754336
 21
-84.335547
 31
0.0
  0
LINE
  8
0
  6
BYLAYER
 62
     1
 10
143.875222
 20
-86.736224
 30
0.0
 11
143.990493
 21
-86.398101
 31
0.0
  0
LINE
  8
0
  6
BYLAYER
 62
     1
 10
144.174917
 20
-85.857104
 30
0.0
 11
144.382400
 21
-85.248480
 31
0.0
  0
LINE
  8
0
  6
BYLAYER
 62
     1
 10
145.667275
 20
-86.736224
 30
0.0
 11
144.754336
 21
-84.335547
 31
0.0
  0
LINE
  8
0
  6
BYLAYER
 62
     1
 10
145.667275
 20
-86.736224
 30
0.0
 11
144.889590
 21
-86.736224
 31
0.0
  0
LINE
  8
0
  6
BYLAYER
 62
     1
 10
144.774319
 20
-86.398101
 30
0.0
 11
143.990493
 21
-86.398101
 31
0.0
  0
LINE
  8
0
  6
BYLAYER
 62
     1
 10
144.589883
 20
-85.857104
 30
0.0
 11
144.174917
 21
-85.857104
 31
0.0
  0
LINE
  8
0
  6
BYLAYER
 62
     1
 10
144.889590
 20
-86.736224
 30
0.0
 11
144.774319
 21
-86.398101
 31
0.0
  0
LINE
  8
0
  6
BYLAYER
 62
     1
 10
144.589883
 20
-85.857104
 30
0.0
 11
144.382400
 21
-85.248480
 31
0.0
  0
LINE
  8
0
  6
BYLAYER
 62
     1
 10
137.045126
 20
-84.927264
 30
0.0
 11
137.721371
 21
-84.927264
 31
0.0
  0
LINE
  8
0
  6
BYLAYER
 62
     1
 10
137.721371
 20
-84.927264
 30
0.0
 11
137.721371
 21
-86.736224
 31
0.0
  0
LINE
  8
0
  6
BYLAYER
 62
     1
 10
137.721371
 20
-86.736224
 30
0.0
 11
138.465249
 21
-86.736224
 31
0.0
  0
LINE
  8
0
  6
BYLAYER
 62
     1
 10
138.465249
 20
-86.736224
 30
0.0
 11
138.465249
 21
-84.927264
 31
0.0
  0
LINE
  8
0
  6
BYLAYER
 62
     1
 10
138.465249
 20
-84.927264
 30
0.0
 11
139.141494
 21
-84.927264
 31
0.0
  0
LINE
  8
0
  6
BYLAYER
 62
     1
 10
139.141494
 20
-84.927264
 30
0.0
 11
139.141494
 21
-84.335547
 31
0.0
  0
LINE
  8
0
  6
BYLAYER
 62
     1
 10
139.141494
 20
-84.335547
 30
0.0
 11
137.045126
 21
-84.335547
 31
0.0
  0
LINE
  8
0
  6
BYLAYER
 62
     1
 10
137.045126
 20
-84.335547
 30
0.0
 11
137.045126
 21
-84.927264
 31
0.0
  0
ARC
  8
0
  6
BYLAYER
 62
     1
 10
140.341830
 20
-85.671277
 30
0.0
 40
1.149480
 50
270.0
 51
308.795693
  0
ARC
  8
0
  6
BYLAYER
 62
     1
 10
140.230578
 20
-85.552795
 30
0.0
 40
1.311587
 50
309.340576
 51
360.0
  0
ARC
  8
0
  6
BYLAYER
 62
     1
 10
140.230583
 20
-85.552795
 30
0.0
 40
1.311583
 50
0.0
 51
50.659649
  0
ARC
  8
0
  6
BYLAYER
 62
     1
 10
140.341824
 20
-85.434323
 30
0.0
 40
1.149491
 50
51.204489
 51
90.000000
  0
ARC
  8
0
  6
BYLAYER
 62
     1
 10
140.341824
 20
-85.434313
 30
0.0
 40
1.149480
 50
90.0
 51
128.795693
  0
ARC
  8
0
  6
BYLAYER
 62
     1
 10
140.453075
 20
-85.552795
 30
0.0
 40
1.311587
 50
129.340576
 51
180.000000
  0
ARC
  8
0
  6
BYLAYER
 62
     1
 10
140.453070
 20
-85.552795
 30
0.0
 40
1.311583
 50
180.000000
 51
230.659649
  0
ARC
  8
0
  6
BYLAYER
 62
     1
 10
140.341830
 20
-85.671267
 30
0.0
 40
1.149491
 50
231.204489
 51
270.000000
  0
ARC
  8
0
  6
BYLAYER
 62
     1
 10
140.341824
 20
-85.215535
 30
0.0
 40
0.531899
 50
90.0
 51
140.793201
  0
ARC
  8
0
  6
BYLAYER
 62
     1
 10
140.755245
 20
-85.552795
 30
0.0
 40
1.065436
 50
140.793201
 51
180.0
  0
ARC
  8
0
  6
BYLAYER
 62
     1
 10
140.755232
 20
-85.552795
 30
0.0
 40
1.065422
 50
180.000000
 51
219.207055
  0
ARC
  8
0
  6
BYLAYER
 62
     1
 10
140.341830
 20
-85.890042
 30
0.0
 40
0.531908
 50
219.207055
 51
270.0
  0
ARC
  8
0
  6
BYLAYER
 62
     1
 10
140.341830
 20
-85.890051
 30
0.0
 40
0.531900
 50
270.0
 51
320.793131
  0
ARC
  8
0
  6
BYLAYER
 62
     1
 10
139.928414
 20
-85.552795
 30
0.0
 40
1.065430
 50
320.793131
 51
360.000000
  0
ARC
  8
0
  6
BYLAYER
 62
     1
 10
139.928415
 20
-85.552795
 30
0.0
 40
1.065429
 50
0.0
 51
39.206985
  0
ARC
  8
0
  6
BYLAYER
 62
     1
 10
140.341824
 20
-85.215543
 30
0.0
 40
0.531907
 50
39.206985
 51
90.000000
  0
LINE
  8
0
  6
BYLAYER
 62
     1
 10
145.732070
 20
-86.736224
 30
0.0
 11
145.732070
 21
-84.335547
 31
0.0
  0
LINE
  8
0
  6
BYLAYER
 62
     1
 10
145.732070
 20
-84.335547
 30
0.0
 11
147.219808
 21
-84.335547
 31
0.0
  0
ARC
  8
0
  6
BYLAYER
 62
     1
 10
147.219808
 20
-85.011798
 30
0.0
 40
0.676244
 50
287.134650
 51
450.000006
  0
ARC
  8
0
  6
BYLAYER
 62
     1
 10
147.355062
 20
-86.195227
 30
0.0
 40
0.540997
 50
0.0
 51
83.207557
  0
LINE
  8
0
  6
BYLAYER
 62
     1
 10
147.896059
 20
-86.195227
 30
0.0
 11
147.896059
 21
-86.533349
 31
0.0
  0
ARC
  8
0
  6
BYLAYER
 62
     1
 10
148.437056
 20
-86.533349
 30
0.0
 40
0.540997
 50
180.000000
 51
202.024314
  0
LINE
  8
0
  6
BYLAYER
 62
     1
 10
147.191665
 20
-86.736224
 30
0.0
 11
147.935537
 21
-86.736224
 31
0.0
  0
ARC
  8
0
  6
BYLAYER
 62
     1
 10
147.693184
 20
-86.533349
 30
0.0
 40
0.540997
 50
180.000000
 51
202.024314
  0
LINE
  8
0
  6
BYLAYER
 62
     1
 10
147.152187
 20
-86.533349
 30
0.0
 11
147.152187
 21
-86.262854
 31
0.0
  0
LINE
  8
0
  6
BYLAYER
 62
     1
 10
145.732070
 20
-86.736224
 30
0.0
 11
146.442129
 21
-86.736224
 31
0.0
  0
LINE
  8
0
  6
BYLAYER
 62
     1
 10
146.442129
 20
-86.736224
 30
0.0
 11
146.442129
 21
-85.924731
 31
0.0
  0
LINE
  8
0
  6
BYLAYER
 62
     1
 10
146.814065
 20
-85.924731
 30
0.0
 11
146.442129
 21
-85.924731
 31
0.0
  0
ARC
  8
0
  6
BYLAYER
 62
     1
 10
146.814065
 20
-86.262854
 30
0.0
 40
0.338123
 50
0.0
 51
90.000003
  0
LINE
  8
0
  6
BYLAYER
 62
     1
 10
146.442129
 20
-85.383734
 30
0.0
 11
146.442129
 21
-84.876544
 31
0.0
  0
LINE
  8
0
  6
BYLAYER
 62
     1
 10
146.442129
 20
-84.876544
 30
0.0
 11
146.915499
 21
-84.876544
 31
0.0
  0
LINE
  8
0
  6
BYLAYER
 62
     1
 10
146.442129
 20
-85.383734
 30
0.0
 11
146.915499
 21
-85.383734
 31
0.0
  0
ARC
  8
0
  6
BYLAYER
 62
     1
 10
146.915499
 20
-85.130139
 30
0.0
 40
0.253595
 50
270.0
 51
450.000005
  0
LINE
  8
0
  6
BYLAYER
 62
     1
 10
142.505825
 20
-85.977105
 30
0.0
 11
142.066262
 21
-84.335547
 31
0.0
  0
LINE
  8
0
  6
BYLAYER
 62
     1
 10
142.066262
 20
-84.335547
 30
0.0
 11
141.356203
 21
-84.335547
 31
0.0
  0
LINE
  8
0
  6
BYLAYER
 62
     1
 10
141.356203
 20
-84.335547
 30
0.0
 11
142.100075
 21
-86.736224
 31
0.0
  0
LINE
  8
0
  6
BYLAYER
 62
     1
 10
142.505825
 20
-85.977105
 30
0.0
 11
142.945376
 21
-84.335547
 31
0.0
  0
LINE
  8
0
  6
BYLAYER
 62
     1
 10
142.945376
 20
-84.335547
 30
0.0
 11
143.655434
 21
-84.335547
 31
0.0
  0
LINE
  8
0
  6
BYLAYER
 62
     1
 10
143.655434
 20
-84.335547
 30
0.0
 11
142.911562
 21
-86.736224
 31
0.0
  0
LINE
  8
0
  6
BYLAYER
 62
     1
 10
142.911562
 20
-86.736224
 30
0.0
 11
142.100075
 21
-86.736224
 31
0.0
  0
LINE
  8
0
  6
BYLAYER
 62
     1
 10
148.000332
 20
-86.736224
 30
0.0
 11
148.710390
 21
-86.736224
 31
0.0
  0
LINE
  8
0
  6
BYLAYER
 62
     1
 10
148.710390
 20
-86.736224
 30
0.0
 11
148.710390
 21
-84.335547
 31
0.0
  0
LINE
  8
0
  6
BYLAYER
 62
     1
 10
148.710390
 20
-84.335547
 30
0.0
 11
148.000332
 21
-84.335547
 31
0.0
  0
LINE
  8
0
  6
BYLAYER
 62
     1
 10
148.000332
 20
-84.335547
 30
0.0
 11
148.000332
 21
-86.736224
 31
0.0
  0
ARC
  8
0
  6
BYLAYER
 62
     1
 10
150.045980
 20
-85.671277
 30
0.0
 40
1.149480
 50
270.0
 51
308.795693
  0
ARC
  8
0
  6
BYLAYER
 62
     1
 10
149.934729
 20
-85.552795
 30
0.0
 40
1.311587
 50
309.340576
 51
360.000000
  0
ARC
  8
0
  6
BYLAYER
 62
     1
 10
149.934729
 20
-85.552795
 30
0.0
 40
1.311587
 50
0.0
 51
50.659424
  0
ARC
  8
0
  6
BYLAYER
 62
     1
 10
150.045980
 20
-85.434313
 30
0.0
 40
1.149480
 50
51.204307
 51
90.000000
  0
ARC
  8
0
  6
BYLAYER
 62
     1
 10
150.045980
 20
-85.434313
 30
0.0
 40
1.149480
 50
90.0
 51
128.795693
  0
ARC
  8
0
  6
BYLAYER
 62
     1
 10
150.157231
 20
-85.552795
 30
0.0
 40
1.311587
 50
129.340576
 51
180.0
  0
ARC
  8
0
  6
BYLAYER
 62
     1
 10
150.157231
 20
-85.552795
 30
0.0
 40
1.311587
 50
180.000000
 51
230.659424
  0
ARC
  8
0
  6
BYLAYER
 62
     1
 10
150.045980
 20
-85.671277
 30
0.0
 40
1.149480
 50
231.204307
 51
270.000000
  0
ARC
  8
0
  6
BYLAYER
 62
     1
 10
150.045980
 20
-85.215535
 30
0.0
 40
0.531899
 50
39.206799
 51
90.0
  0
ARC
  8
0
  6
BYLAYER
 62
     1
 10
149.632558
 20
-85.552795
 30
0.0
 40
1.065436
 50
0.0
 51
39.206799
  0
ARC
  8
0
  6
BYLAYER
 62
     1
 10
149.632564
 20
-85.552795
 30
0.0
 40
1.065430
 50
320.793131
 51
360.0
  0
ARC
  8
0
  6
BYLAYER
 62
     1
 10
150.045980
 20
-85.890051
 30
0.0
 40
0.531900
 50
270.0
 51
320.793131
  0
ARC
  8
0
  6
BYLAYER
 62
     1
 10
150.045980
 20
-85.890051
 30
0.0
 40
0.531900
 50
219.206869
 51
270.0
  0
ARC
  8
0
  6
BYLAYER
 62
     1
 10
150.459395
 20
-85.552795
 30
0.0
 40
1.065430
 50
180.000000
 51
219.206869
  0
ARC
  8
0
  6
BYLAYER
 62
     1
 10
150.459402
 20
-85.552795
 30
0.0
 40
1.065436
 50
140.793201
 51
180.0
  0
ARC
  8
0
  6
BYLAYER
 62
     1
 10
150.045980
 20
-85.215535
 30
0.0
 40
0.531899
 50
90.0
 51
140.793201
  0
ARC
  8
0
  6
BYLAYER
 62
     1
 10
138.057235
 20
-81.587256
 30
0.0
 40
2.971998
 50
174.535650
 51
180.000000
  0
LINE
  8
0
  6
BYLAYER
 62
     1
 10
135.098742
 20
-81.304242
 30
0.0
 11
135.098742
 21
-81.304239
 31
0.0
  0
LINE
  8
0
  6
BYLAYER
 62
     1
 10
135.101976
 20
-81.272269
 30
0.0
 11
135.385617
 21
-81.152852
 31
0.0
  0
ARC
  8
0
  6
BYLAYER
 62
     1
 10
138.057247
 20
-81.587280
 30
0.0
 40
2.706712
 50
159.235383
 51
170.763998
  0
LINE
  8
0
  6
BYLAYER
 62
     1
 10
135.526337
 20
-80.627654
 30
0.0
 11
135.340418
 21
-80.382409
 31
0.0
  0
ARC
  8
0
  6
BYLAYER
 62
     1
 10
138.057235
 20
-81.587256
 30
0.0
 40
2.971995
 50
144.139514
 51
156.083795
  0
LINE
  8
0
  6
BYLAYER
 62
     1
 10
135.629049
 20
-79.873578
 30
0.0
 11
135.629226
 21
-79.873327
 31
0.0
  0
LINE
  8
0
  6
BYLAYER
 62
     1
 10
135.648594
 20
-79.846221
 30
0.0
 11
135.950564
 21
-79.887767
 31
0.0
  0
ARC
  8
0
  6
BYLAYER
 62
     1
 10
138.057235
 20
-81.587256
 30
0.0
 40
2.706696
 50
129.235643
 51
141.105976
  0
LINE
  8
0
  6
BYLAYER
 62
     1
 10
136.300961
 20
-79.527713
 30
0.0
 11
136.301254
 21
-79.527459
 31
0.0
  0
LINE
  8
0
  6
BYLAYER
 62
     1
 10
136.345219
 20
-79.490781
 30
0.0
 11
136.306822
 21
-79.185418
 31
0.0
  0
ARC
  8
0
  6
BYLAYER
 62
     1
 10
138.057235
 20
-81.587256
 30
0.0
 40
2.971998
 50
114.139607
 51
126.083853
  0
LINE
  8
0
  6
BYLAYER
 62
     1
 10
136.811416
 20
-78.888977
 30
0.0
 11
136.811617
 21
-78.888882
 31
0.0
  0
LINE
  8
0
  6
BYLAYER
 62
     1
 10
136.841803
 20
-78.875154
 30
0.0
 11
137.082534
 21
-79.062112
 31
0.0
  0
LINE
  8
0
  6
BYLAYER
 62
     1
 10
137.137576
 20
-79.041583
 30
0.0
 11
137.137881
 21
-79.041476
 31
0.0
  0
ARC
  8
0
  6
BYLAYER
 62
     1
 10
138.057235
 20
-81.587256
 30
0.0
 40
2.706695
 50
99.235601
 51
111.106038
  0
ARC
  8
0
  6
BYLAYER
 62
     1
 10
138.057235
 20
-81.587256
 30
0.0
 40
2.971998
 50
90.0
 51
96.083892
  0
LINE
  8
0
  6
BYLAYER
 62
     1
 10
137.742249
 20
-78.631997
 30
0.0
 11
137.622825
 21
-78.915648
 31
0.0
  0
LINE
  8
0
  6
BYLAYER
 62
     1
 10
141.015725
 20
-81.304242
 30
0.0
 11
141.015725
 21
-81.304239
 31
0.0
  0
LINE
  8
0
  6
BYLAYER
 62
     1
 10
141.012494
 20
-81.272269
 30
0.0
 11
140.728838
 21
-81.152850
 31
0.0
  0
ARC
  8
0
  6
BYLAYER
 62
     1
 10
138.057217
 20
-81.587280
 30
0.0
 40
2.706712
 50
9.235986
 51
20.764650
  0
LINE
  8
0
  6
BYLAYER
 62
     1
 10
140.588146
 20
-80.627626
 30
0.0
 11
140.774052
 21
-80.382409
 31
0.0
  0
ARC
  8
0
  6
BYLAYER
 62
     1
 10
138.057235
 20
-81.587256
 30
0.0
 40
2.971995
 50
23.916189
 51
35.860484
  0
LINE
  8
0
  6
BYLAYER
 62
     1
 10
140.485415
 20
-79.873578
 30
0.0
 11
140.485238
 21
-79.873327
 31
0.0
  0
LINE
  8
0
  6
BYLAYER
 62
     1
 10
140.465876
 20
-79.846221
 30
0.0
 11
140.163927
 21
-79.887763
 31
0.0
  0
ARC
  8
0
  6
BYLAYER
 62
     1
 10
138.057235
 20
-81.587256
 30
0.0
 40
2.706696
 50
38.894050
 51
50.764315
  0
LINE
  8
0
  6
BYLAYER
 62
     1
 10
139.813509
 20
-79.527713
 30
0.0
 11
139.813216
 21
-79.527459
 31
0.0
  0
LINE
  8
0
  6
BYLAYER
 62
     1
 10
139.769259
 20
-79.490732
 30
0.0
 11
139.807642
 21
-79.185414
 31
0.0
  0
ARC
  8
0
  6
BYLAYER
 62
     1
 10
138.057235
 20
-81.587256
 30
0.0
 40
2.971998
 50
53.916300
 51
65.860381
  0
LINE
  8
0
  6
BYLAYER
 62
     1
 10
139.303054
 20
-78.888977
 30
0.0
 11
139.302846
 21
-78.888882
 31
0.0
  0
LINE
  8
0
  6
BYLAYER
 62
     1
 10
139.272668
 20
-78.875154
 30
0.0
 11
139.031938
 21
-79.062104
 31
0.0
  0
LINE
  8
0
  6
BYLAYER
 62
     1
 10
138.976888
 20
-79.041583
 30
0.0
 11
138.976589
 21
-79.041476
 31
0.0
  0
ARC
  8
0
  6
BYLAYER
 62
     1
 10
138.057235
 20
-81.587256
 30
0.0
 40
2.706695
 50
68.894081
 51
80.764578
  0
ARC
  8
0
  6
BYLAYER
 62
     1
 10
138.057235
 20
-81.587256
 30
0.0
 40
2.971998
 50
84.535428
 51
90.000003
  0
LINE
  8
0
  6
BYLAYER
 62
     1
 10
138.372222
 20
-78.631997
 30
0.0
 11
138.491617
 21
-78.915600
 31
0.0
  0
ARC
  8
0
  6
BYLAYER
 62
     1
 10
138.057235
 20
-81.587256
 30
0.0
 40
2.971998
 50
180.000000
 51
186.083899
  0
LINE
  8
0
  6
BYLAYER
 62
     1
 10
135.098742
 20
-81.870266
 30
0.0
 11
135.098742
 21
-81.870273
 31
0.0
  0
LINE
  8
0
  6
BYLAYER
 62
     1
 10
135.101976
 20
-81.902242
 30
0.0
 11
135.385626
 21
-82.021662
 31
0.0
  0
ARC
  8
0
  6
BYLAYER
 62
     1
 10
138.057247
 20
-81.587231
 30
0.0
 40
2.706712
 50
189.236002
 51
200.764629
  0
LINE
  8
0
  6
BYLAYER
 62
     1
 10
135.526347
 20
-82.546845
 30
0.0
 11
135.340417
 21
-82.792100
 31
0.0
  0
ARC
  8
0
  6
BYLAYER
 62
     1
 10
138.057235
 20
-81.587256
 30
0.0
 40
2.971995
 50
203.916158
 51
215.860410
  0
LINE
  8
0
  6
BYLAYER
 62
     1
 10
135.629049
 20
-83.300930
 30
0.0
 11
135.629226
 21
-83.301181
 31
0.0
  0
LINE
  8
0
  6
BYLAYER
 62
     1
 10
135.648592
 20
-83.328287
 30
0.0
 11
135.950590
 21
-83.286742
 31
0.0
  0
ARC
  8
0
  6
BYLAYER
 62
     1
 10
138.057235
 20
-81.587256
 30
0.0
 40
2.706696
 50
218.894045
 51
230.764345
  0
LINE
  8
0
  6
BYLAYER
 62
     1
 10
136.300961
 20
-83.646795
 30
0.0
 11
136.301254
 21
-83.647049
 31
0.0
  0
LINE
  8
0
  6
BYLAYER
 62
     1
 10
136.345219
 20
-83.683730
 30
0.0
 11
136.306822
 21
-83.989093
 31
0.0
  0
ARC
  8
0
  6
BYLAYER
 62
     1
 10
138.057235
 20
-81.587256
 30
0.0
 40
2.971998
 50
233.916148
 51
245.860401
  0
LINE
  8
0
  6
BYLAYER
 62
     1
 10
136.811416
 20
-84.285531
 30
0.0
 11
136.811617
 21
-84.285629
 31
0.0
  0
LINE
  8
0
  6
BYLAYER
 62
     1
 10
136.841803
 20
-84.299357
 30
0.0
 11
137.082563
 21
-84.112373
 31
0.0
  0
LINE
  8
0
  6
BYLAYER
 62
     1
 10
137.137576
 20
-84.132925
 30
0.0
 11
137.137881
 21
-84.133035
 31
0.0
  0
LINE
  8
0
  6
BYLAYER
 62
     1
 10
141.015725
 20
-81.870266
 30
0.0
 11
141.015725
 21
-81.870273
 31
0.0
  0
LINE
  8
0
  6
BYLAYER
 62
     1
 10
141.012493
 20
-81.902242
 30
0.0
 11
140.728838
 21
-82.021662
 31
0.0
  0
LINE
  8
0
  6
BYLAYER
 62
     1
 10
140.588120
 20
-82.546852
 30
0.0
 11
140.774055
 21
-82.792102
 31
0.0
  0
LINE
  8
0
  6
BYLAYER
 62
     1
 10
140.485415
 20
-83.300930
 30
0.0
 11
140.485238
 21
-83.301181
 31
0.0
  0
LINE
  8
0
  6
BYLAYER
 62
     1
 10
140.465881
 20
-83.328287
 30
0.0
 11
140.163863
 21
-83.286741
 31
0.0
  0
LINE
  8
0
  6
BYLAYER
 62
     1
 10
139.813509
 20
-83.646795
 30
0.0
 11
139.813216
 21
-83.647049
 31
0.0
  0
LINE
  8
0
  6
BYLAYER
 62
     1
 10
139.769253
 20
-83.683729
 30
0.0
 11
139.807642
 21
-83.989098
 31
0.0
  0
LINE
  8
0
  6
BYLAYER
 62
     1
 10
139.272667
 20
-84.299357
 30
0.0
 11
139.031902
 21
-84.112375
 31
0.0
  0
ARC
  8
0
  6
BYLAYER
 62
     1
 10
138.057235
 20
-81.587256
 30
0.0
 40
2.706696
 50
309.235697
 51
321.105929
  0
ARC
  8
0
  6
BYLAYER
 62
     1
 10
138.057235
 20
-81.587256
 30
0.0
 40
2.706695
 50
248.893873
 51
270.000000
  0
ARC
  8
0
  6
BYLAYER
 62
     1
 10
138.057235
 20
-81.587256
 30
0.0
 40
2.971998
 50
294.783232
 51
306.083699
  0
LINE
  8
0
  6
BYLAYER
 62
     1
 10
139.302846
 20
-84.285629
 30
0.0
 11
139.272850
 21
-84.299745
 31
0.0
  0
ARC
  8
0
  6
BYLAYER
 62
     1
 10
138.057235
 20
-81.587256
 30
0.0
 40
2.971995
 50
324.139593
 51
336.083825
  0
ARC
  8
0
  6
BYLAYER
 62
     1
 10
138.057217
 20
-81.587231
 30
0.0
 40
2.706712
 50
339.235210
 51
350.764014
  0
ARC
  8
0
  6
BYLAYER
 62
     1
 10
138.057235
 20
-81.587256
 30
0.0
 40
2.971998
 50
353.916089
 51
360.000000
  0
ARC
  8
0
  6
BYLAYER
 62
     1
 10
138.057235
 20
-81.587256
 30
0.0
 40
2.971998
 50
0.0
 51
6.083907
  0
ARC
  8
0
  6
BYLAYER
 62
     1
 10
138.057235
 20
-81.587256
 30
0.0
 40
2.706695
 50
270.0
 51
291.106008
  0
CIRCLE
  8
0
  6
BYLAYER
 62
     1
 10
138.057235
 20
-81.587256
 30
0.0
 40
1.452032
  0
CIRCLE
  8
0
  6
BYLAYER
 62
     1
 10
138.057235
 20
-81.587256
 30
0.0
 40
2.118413
  0
CIRCLE
  8
0
  6
BYLAYER
 62
     1
 10
142.110922
 20
-127.982935
 30
0.0
 40
17.5
  0
LINE
  8
0
  6
BYLAYER
 62
     1
 10
142.110922
 20
-127.982935
 30
0.0
 11
139.110922
 21
-127.982935
 31
0.0
  0
LINE
  8
0
  6
BYLAYER
 62
     1
 10
142.110922
 20
-127.982935
 30
0.0
 11
142.110922
 21
-130.982935
 31
0.0
  0
LINE
  8
0
  6
BYLAYER
 62
     1
 10
142.110922
 20
-127.982935
 30
0.0
 11
145.110922
 21
-127.982935
 31
0.0
  0
LINE
  8
0
  6
BYLAYER
 62
     1
 10
142.110922
 20
-127.982935
 30
0.0
 11
142.110922
 21
-124.982935
 31
0.0
  0
ARC
  8
0
  6
BYLAYER
 62
     1
 10
124.360930
 20
-101.982966
 30
0.0
 40
0.75
 50
270.0
 51
450.000005
  0
ARC
  8
0
  6
BYLAYER
 62
     1
 10
133.179861
 20
-89.813868
 30
0.0
 40
12.000007
 50
272.452612
 51
283.169589
  0
ARC
  8
0
  6
BYLAYER
 62
     1
 10
133.387259
 20
-100.850916
 30
0.0
 40
0.999965
 50
287.823953
 51
344.999767
  0
ARC
  8
0
  6
BYLAYER
 62
     1
 10
142.110922
 20
-127.982935
 30
0.0
 40
27.200003
 50
346.830476
 51
373.169511
  0
LINE
  8
0
  6
BYLAYER
 62
     1
 10
168.984137
 20
-135.740686
 30
0.0
 11
177.963446
 21
-133.334650
 31
0.0
  0
ARC
  8
0
  6
BYLAYER
 62
     1
 10
180.279974
 20
-136.913996
 30
0.0
 40
12.000007
 50
166.830417
 51
177.547380
  0
LINE
  8
0
  6
BYLAYER
 62
     1
 10
173.110922
 20
-134.679102
 30
0.0
 11
173.110922
 21
-142.232950
 31
0.0
  0
ARC
  8
0
  6
BYLAYER
 62
     1
 10
175.610922
 20
-135.000300
 30
0.0
 40
1.0
 50
0.0
 51
104.999781
  0
LINE
  8
0
  6
BYLAYER
 62
     1
 10
169.860922
 20
-143.232950
 30
0.0
 11
175.610922
 21
-143.232950
 31
0.0
  0
LINE
  8
0
  6
BYLAYER
 62
     1
 10
169.860922
 20
-144.732950
 30
0.0
 11
175.610922
 21
-144.732950
 31
0.0
  0
ARC
  8
0
  6
BYLAYER
 62
     1
 10
169.860922
 20
-143.982950
 30
0.0
 40
0.75
 50
90.0
 51
270.000005
  0
ARC
  8
0
  6
BYLAYER
 62
     1
 10
169.242956
 20
-136.706598
 30
0.0
 40
0.999994
 50
105.000239
 51
162.176053
  0
LINE
  8
0
  6
BYLAYER
 62
     1
 10
176.610922
 20
-135.000300
 30
0.0
 11
176.610922
 21
-142.232950
 31
0.0
  0
ARC
  8
0
  6
BYLAYER
 62
     1
 10
172.110922
 20
-142.232950
 30
0.0
 40
1.000000
 50
270.0
 51
360.000003
  0
ARC
  8
0
  6
BYLAYER
 62
     1
 10
172.110922
 20
-145.732950
 30
0.0
 40
1.000000
 50
0.0
 51
90.000003
  0
ARC
  8
0
  6
BYLAYER
 62
     1
 10
175.610922
 20
-142.232950
 30
0.0
 40
1.000000
 50
270.0
 51
360.000003
  0
ARC
  8
0
  6
BYLAYER
 62
     1
 10
175.610922
 20
-145.732950
 30
0.0
 40
1.000000
 50
0.0
 51
90.000003
  0
CIRCLE
  8
0
  6
BYLAYER
 62
     1
 10
174.610922
 20
-127.982935
 30
0.0
 40
2.300003
  0
ARC
  8
0
  6
BYLAYER
 62
     1
 10
174.610907
 20
-127.982935
 30
0.0
 40
3.000006
 50
337.576062
 51
644.380646
  0
LINE
  8
0
  6
BYLAYER
 62
     1
 10
159.860930
 20
-101.232966
 30
0.0
 11
166.110937
 21
-101.232966
 31
0.0
  0
LINE
  8
0
  6
BYLAYER
 62
     1
 10
159.860930
 20
-102.732966
 30
0.0
 11
168.920752
 21
-102.732966
 31
0.0
  0
ARC
  8
0
  6
BYLAYER
 62
     1
 10
151.041983
 20
-89.813868
 30
0.0
 40
12.000007
 50
256.830412
 51
267.547389
  0
ARC
  8
0
  6
BYLAYER
 62
     1
 10
150.834585
 20
-100.850916
 30
0.0
 40
0.999965
 50
195.000234
 51
252.176048
  0
ARC
  8
0
  6
BYLAYER
 62
     1
 10
159.860930
 20
-101.982966
 30
0.0
 40
0.75
 50
90.0
 51
270.000005
  0
LINE
  8
0
  6
BYLAYER
 62
     1
 10
177.963446
 20
-122.631220
 30
0.0
 11
168.984137
 21
-120.225184
 31
0.0
  0
ARC
  8
0
  6
BYLAYER
 62
     1
 10
180.279974
 20
-119.051874
 30
0.0
 40
12.000007
 50
182.452617
 51
193.169580
  0
ARC
  8
0
  6
BYLAYER
 62
     1
 10
169.242956
 20
-119.259272
 30
0.0
 40
0.999994
 50
197.823944
 51
254.999758
  0
LINE
  8
0
  6
BYLAYER
 62
     1
 10
176.610922
 20
-120.965570
 30
0.0
 11
176.610922
 21
-113.654963
 31
0.0
  0
ARC
  8
0
  6
BYLAYER
 62
     1
 10
175.610922
 20
-120.965570
 30
0.0
 40
1.000016
 50
255.000222
 51
360.000003
  0
LINE
  8
0
  6
BYLAYER
 62
     1
 10
175.610937
 20
-102.742029
 30
0.0
 11
169.110937
 21
-102.742029
 31
0.0
  0
ARC
  8
0
  6
BYLAYER
 62
     1
 10
175.610937
 20
-103.742029
 30
0.0
 40
1.0
 50
0.0
 51
90.000016
  0
CIRCLE
  8
0
  6
BYLAYER
 62
     1
 10
602.110922
 20
-414.982935
 30
0.0
 40
16.0
  0
LINE
  8
0
  6
BYLAYER
 62
     1
 10
574.110922
 20
-407.982935
 30
0.0
 11
575.110922
 21
-408.982935
 31
0.0
  0
LINE
  8
0
  6
BYLAYER
 62
     1
 10
586.110922
 20
-387.982935
 30
0.0
 11
574.110922
 21
-387.982935
 31
0.0
  0
LINE
  8
0
  6
BYLAYER
 62
     1
 10
574.110922
 20
-484.982920
 30
0.0
 11
586.110922
 21
-484.982920
 31
0.0
  0
LINE
  8
0
  6
BYLAYER
 62
     1
 10
586.110922
 20
-464.982920
 30
0.0
 11
574.110922
 21
-464.982920
 31
0.0
  0
LINE
  8
0
  6
BYLAYER
 62
     1
 10
574.110922
 20
-464.982920
 30
0.0
 11
575.110922
 21
-463.982920
 31
0.0
  0
LINE
  8
0
  6
BYLAYER
 62
     1
 10
626.610922
 20
-463.982920
 30
0.0
 11
629.110922
 21
-463.982920
 31
0.0
  0
LINE
  8
0
  6
BYLAYER
 62
     1
 10
575.110922
 20
-463.982920
 30
0.0
 11
586.110922
 21
-463.982920
 31
0.0
  0
ARC
  8
0
  6
BYLAYER
 62
     1
 10
580.110922
 20
-471.982920
 30
0.0
 40
3.25
 50
270.0
 51
360.000009
  0
ARC
  8
0
  6
BYLAYER
 62
     1
 10
580.110922
 20
-471.982920
 30
0.0
 40
3.250000
 50
0.0
 51
90.000003
  0
ARC
  8
0
  6
BYLAYER
 62
     1
 10
624.110922
 20
-471.982920
 30
0.0
 40
3.250000
 50
90.0
 51
269.999991
  0
ARC
  8
0
  6
BYLAYER
 62
     1
 10
624.110922
 20
-400.982904
 30
0.0
 40
3.250000
 50
90.0
 51
269.999991
  0
ARC
  8
0
  6
BYLAYER
 62
     1
 10
580.110922
 20
-400.982935
 30
0.0
 40
3.25
 50
270.0
 51
450.000019
  0
LINE
  8
0
  6
BYLAYER
 62
     1
 10
624.110922
 20
-397.732904
 30
0.0
 11
630.110922
 21
-397.732904
 31
0.0
  0
LINE
  8
0
  6
BYLAYER
 62
     1
 10
624.110922
 20
-404.232904
 30
0.0
 11
630.110922
 21
-404.232904
 31
0.0
  0
LINE
  8
0
  6
BYLAYER
 62
     1
 10
624.110922
 20
-468.732920
 30
0.0
 11
630.110922
 21
-468.732920
 31
0.0
  0
LINE
  8
0
  6
BYLAYER
 62
     1
 10
624.110922
 20
-475.232920
 30
0.0
 11
630.110922
 21
-475.232920
 31
0.0
  0
LINE
  8
0
  6
BYLAYER
 62
     1
 10
580.110922
 20
-475.232920
 30
0.0
 11
574.110922
 21
-475.232920
 31
0.0
  0
LINE
  8
0
  6
BYLAYER
 62
     1
 10
580.110922
 20
-468.732920
 30
0.0
 11
574.110922
 21
-468.732920
 31
0.0
  0
LINE
  8
0
  6
BYLAYER
 62
     1
 10
580.110922
 20
-404.232935
 30
0.0
 11
574.110922
 21
-404.232935
 31
0.0
  0
LINE
  8
0
  6
BYLAYER
 62
     1
 10
580.110922
 20
-397.732935
 30
0.0
 11
574.110922
 21
-397.732935
 31
0.0
  0
LINE
  8
0
  6
BYLAYER
 62
     1
 10
630.110922
 20
-404.232904
 30
0.0
 11
630.110922
 21
-387.982904
 31
0.0
  0
LINE
  8
0
  6
BYLAYER
 62
     1
 10
586.110922
 20
-401.754175
 30
0.0
 11
586.110922
 21
-387.982935
 31
0.0
  0
ARC
  8
0
  6
BYLAYER
 62
     1
 10
587.110922
 20
-401.754175
 30
0.0
 40
1.0
 50
180.000000
 51
318.590371
  0
LINE
  8
0
  6
BYLAYER
 62
     1
 10
574.110922
 20
-407.982935
 30
0.0
 11
583.032126
 21
-407.982935
 31
0.0
  0
ARC
  8
0
  6
BYLAYER
 62
     1
 10
583.032126
 20
-408.982935
 30
0.0
 40
1.0
 50
342.543216
 51
450.000000
  0
LINE
  8
0
  6
BYLAYER
 62
     1
 10
575.110922
 20
-408.982935
 30
0.0
 11
584.032126
 21
-408.982935
 31
0.0
  0
LINE
  8
0
  6
BYLAYER
 62
     1
 10
621.189688
 20
-407.982904
 30
0.0
 11
630.110922
 21
-407.982904
 31
0.0
  0
ARC
  8
0
  6
BYLAYER
 62
     1
 10
621.189688
 20
-408.982904
 30
0.0
 40
1.000006
 50
90.0
 51
197.456764
  0
LINE
  8
0
  6
BYLAYER
 62
     1
 10
586.110922
 20
-484.982920
 30
0.0
 11
586.110922
 21
-430.042414
 31
0.0
  0
LINE
  8
0
  6
BYLAYER
 62
     1
 10
629.110922
 20
-408.982904
 30
0.0
 11
620.189688
 21
-408.982935
 31
0.0
  0
CIRCLE
  8
0
  6
BYLAYER
 62
     1
 10
602.110922
 20
-393.982935
 30
0.0
 40
2.356506
  0
ARC
  8
0
  6
BYLAYER
 62
     1
 10
602.110922
 20
-414.982935
 30
0.0
 40
19.000019
 50
111.279996
 51
138.590371
  0
ARC
  8
0
  6
BYLAYER
 62
     1
 10
594.126547
 20
-394.482935
 30
0.0
 40
2.999987
 50
291.280056
 51
363.583312
  0
ARC
  8
0
  6
BYLAYER
 62
     1
 10
602.110922
 20
-393.982935
 30
0.0
 40
5.000010
 50
356.416674
 51
543.583310
  0
ARC
  8
0
  6
BYLAYER
 62
     1
 10
610.095297
 20
-394.482904
 30
0.0
 40
3.000004
 50
176.41727
 51
248.720164
  0
LINE
  8
0
  6
BYLAYER
 62
     1
 10
602.110922
 20
-388.982935
 30
0.0
 11
586.110922
 21
-388.982935
 31
0.0
  0
ARC
  8
0
  6
BYLAYER
 62
     1
 10
623.856619
 20
-418.318262
 30
0.0
 40
2.999977
 50
171.280094
 51
243.583315
  0
ARC
  8
0
  6
BYLAYER
 62
     1
 10
580.365194
 20
-418.318293
 30
0.0
 40
3.000004
 50
296.417260
 51
368.720167
  0
ARC
  8
0
  6
BYLAYER
 62
     1
 10
602.110922
 20
-414.982935
 30
0.0
 40
19.000006
 50
162.542369
 51
188.720026
  0
ARC
  8
0
  6
BYLAYER
 62
     1
 10
602.110922
 20
-414.982935
 30
0.0
 40
18.999987
 50
351.279962
 51
377.457752
  0
LINE
  8
0
  6
BYLAYER
 62
     1
 10
618.110922
 20
-401.754175
 30
0.0
 11
618.110922
 21
-387.982935
 31
0.0
  0
LINE
  8
0
  6
BYLAYER
 62
     1
 10
618.110922
 20
-484.982920
 30
0.0
 11
618.110922
 21
-430.042414
 31
0.0
  0
LINE
  8
0
  6
BYLAYER
 62
     1
 10
618.110922
 20
-387.982935
 30
0.0
 11
630.110922
 21
-387.982904
 31
0.0
  0
LINE
  8
0
  6
BYLAYER
 62
     1
 10
602.110922
 20
-388.982935
 30
0.0
 11
618.110922
 21
-388.982935
 31
0.0
  0
LINE
  8
0
  6
BYLAYER
 62
     1
 10
629.110922
 20
-463.982920
 30
0.0
 11
618.110922
 21
-463.982920
 31
0.0
  0
LINE
  8
0
  6
BYLAYER
 62
     1
 10
630.110922
 20
-464.982920
 30
0.0
 11
618.110922
 21
-464.982920
 31
0.0
  0
LINE
  8
0
  6
BYLAYER
 62
     1
 10
618.110922
 20
-484.982920
 30
0.0
 11
630.110922
 21
-484.982920
 31
0.0
  0
ARC
  8
0
  6
BYLAYER
 62
     1
 10
602.110922
 20
-414.982935
 30
0.0
 40
19.000023
 50
41.409699
 51
68.720002
  0
ARC
  8
0
  6
BYLAYER
 62
     1
 10
617.110922
 20
-401.754145
 30
0.0
 40
1.000000
 50
221.409625
 51
359.999996
  0
LINE
  8
0
  6
BYLAYER
 62
     1
 10
629.110922
 20
-463.982920
 30
0.0
 11
629.110922
 21
-408.982904
 31
0.0
  0
LINE
  8
0
  6
BYLAYER
 62
     1
 10
575.110922
 20
-408.982935
 30
0.0
 11
575.110922
 21
-463.982920
 31
0.0
  0
LINE
  8
0
  6
BYLAYER
 62
     1
 10
630.110922
 20
-482.482935
 30
0.0
 11
630.610922
 21
-482.482935
 31
0.0
  0
ARC
  8
0
  6
BYLAYER
 62
     1
 10
630.610922
 20
-481.982935
 30
0.0
 40
0.5
 50
270.0
 51
359.999982
  0
LINE
  8
0
  6
BYLAYER
 62
     1
 10
633.610922
 20
-417.482935
 30
0.0
 11
633.610922
 21
-472.482935
 31
0.0
  0
LINE
  8
0
  6
BYLAYER
 62
     1
 10
631.110922
 20
-481.982935
 30
0.0
 11
631.110922
 21
-444.982935
 31
0.0
  0
LINE
  8
0
  6
BYLAYER
 62
     1
 10
630.110922
 20
-407.482935
 30
0.0
 11
630.610922
 21
-407.482935
 31
0.0
  0
ARC
  8
0
  6
BYLAYER
 62
     1
 10
630.610922
 20
-407.982935
 30
0.0
 40
0.500000
 50
0.0
 51
89.999996
  0
LINE
  8
0
  6
BYLAYER
 62
     1
 10
630.110922
 20
-438.566919
 30
0.0
 11
630.110922
 21
-404.232904
 31
0.0
  0
LINE
  8
0
  6
BYLAYER
 62
     1
 10
630.110922
 20
-484.982920
 30
0.0
 11
630.110922
 21
-451.398951
 31
0.0
  0
LINE
  8
0
  6
BYLAYER
 62
     1
 10
631.110922
 20
-444.982935
 30
0.0
 11
631.110922
 21
-407.982935
 31
0.0
  0
LINE
  8
0
  6
BYLAYER
 62
     1
 10
574.110922
 20
-404.232904
 30
0.0
 11
574.110922
 21
-387.982904
 31
0.0
  0
LINE
  8
0
  6
BYLAYER
 62
     1
 10
574.110922
 20
-482.482935
 30
0.0
 11
573.610922
 21
-482.482935
 31
0.0
  0
ARC
  8
0
  6
BYLAYER
 62
     1
 10
573.610922
 20
-481.982935
 30
0.0
 40
0.5
 50
180.000000
 51
269.999982
  0
LINE
  8
0
  6
BYLAYER
 62
     1
 10
570.610922
 20
-417.482935
 30
0.0
 11
570.610922
 21
-472.482935
 31
0.0
  0
LINE
  8
0
  6
BYLAYER
 62
     1
 10
573.110922
 20
-481.982935
 30
0.0
 11
573.110922
 21
-444.982935
 31
0.0
  0
LINE
  8
0
  6
BYLAYER
 62
     1
 10
574.110922
 20
-407.482935
 30
0.0
 11
573.610922
 21
-407.482935
 31
0.0
  0
ARC
  8
0
  6
BYLAYER
 62
     1
 10
573.610922
 20
-407.982935
 30
0.0
 40
0.5
 50
90.0
 51
179.999996
  0
LINE
  8
0
  6
BYLAYER
 62
     1
 10
574.110922
 20
-438.566919
 30
0.0
 11
574.110922
 21
-404.232904
 31
0.0
  0
LINE
  8
0
  6
BYLAYER
 62
     1
 10
574.110922
 20
-484.982920
 30
0.0
 11
574.110922
 21
-451.398951
 31
0.0
  0
LINE
  8
0
  6
BYLAYER
 62
     1
 10
573.110922
 20
-444.982935
 30
0.0
 11
573.110922
 21
-407.982935
 31
0.0
  0
LINE
  8
0
  6
BYLAYER
 62
     1
 10
575.110922
 20
-438.566919
 30
0.0
 11
574.110922
 21
-438.566919
 31
0.0
  0
LINE
  8
0
  6
BYLAYER
 62
     1
 10
575.110922
 20
-451.398951
 30
0.0
 11
574.110922
 21
-451.398951
 31
0.0
  0
LINE
  8
0
  6
BYLAYER
 62
     1
 10
629.110922
 20
-463.982920
 30
0.0
 11
630.110922
 21
-464.982920
 31
0.0
  0
LINE
  8
0
  6
BYLAYER
 62
     1
 10
629.110922
 20
-408.982904
 30
0.0
 11
630.110922
 21
-407.982904
 31
0.0
  0
LINE
  8
0
  6
BYLAYER
 62
     1
 10
618.110922
 20
-482.982920
 30
0.0
 11
586.110922
 21
-482.982920
 31
0.0
  0
ARC
  8
0
  6
BYLAYER
 62
     1
 10
602.110922
 20
-414.982935
 30
0.0
 40
18.999992
 50
231.280068
 51
308.720070
  0
ARC
  8
0
  6
BYLAYER
 62
     1
 10
583.924399
 20
-425.482935
 30
0.0
 40
4.999998
 50
116.416681
 51
303.583330
  0
ARC
  8
0
  6
BYLAYER
 62
     1
 10
588.349600
 20
-432.147608
 30
0.0
 40
2.999989
 50
51.280060
 51
123.583308
  0
CIRCLE
  8
0
  6
BYLAYER
 62
     1
 10
583.924399
 20
-425.482935
 30
0.0
 40
2.356506
  0
LINE
  8
0
  6
BYLAYER
 62
     1
 10
629.110922
 20
-451.398951
 30
0.0
 11
630.110922
 21
-451.398951
 31
0.0
  0
ARC
  8
0
  6
BYLAYER
 62
     1
 10
620.297445
 20
-425.482935
 30
0.0
 40
4.999996
 50
236.416698
 51
423.583307
  0
ARC
  8
0
  6
BYLAYER
 62
     1
 10
615.872275
 20
-432.147608
 30
0.0
 40
3.000004
 50
56.417291
 51
128.720150
  0
CIRCLE
  8
0
  6
BYLAYER
 62
     1
 10
620.297445
 20
-425.482935
 30
0.0
 40
2.356506
  0
LINE
  8
0
  6
BYLAYER
 62
     1
 10
629.110922
 20
-438.566919
 30
0.0
 11
630.110922
 21
-438.566919
 31
0.0
  0
LINE
  8
0
  6
BYLAYER
 62
     1
 10
570.610922
 20
-417.482935
 30
0.0
 11
573.110922
 21
-417.482935
 31
0.0
  0
LINE
  8
0
  6
BYLAYER
 62
     1
 10
570.610922
 20
-472.482935
 30
0.0
 11
573.110922
 21
-472.482935
 31
0.0
  0
LINE
  8
0
  6
BYLAYER
 62
     1
 10
633.610922
 20
-472.482935
 30
0.0
 11
631.110922
 21
-472.482935
 31
0.0
  0
LINE
  8
0
  6
BYLAYER
 62
     1
 10
633.610922
 20
-417.482935
 30
0.0
 11
631.110922
 21
-417.482935
 31
0.0
  0
LINE
  8
0
  6
BYLAYER
 62
     1
 10
102.110926
 20
-386.982935
 30
0.0
 11
102.110926
 21
-442.982931
 31
0.0
  0
LINE
  8
0
  6
BYLAYER
 62
     1
 10
122.110922
 20
-386.982935
 30
0.0
 11
122.110922
 21
-398.982935
 31
0.0
  0
LINE
  8
0
  6
BYLAYER
 62
     1
 10
122.110922
 20
-430.982935
 30
0.0
 11
122.110922
 21
-442.982931
 31
0.0
  0
LINE
  8
0
  6
BYLAYER
 62
     1
 10
123.110922
 20
-441.982935
 30
0.0
 11
122.110922
 21
-442.982931
 31
0.0
  0
LINE
  8
0
  6
BYLAYER
 62
     1
 10
123.110922
 20
-387.982935
 30
0.0
 11
122.110922
 21
-386.982935
 31
0.0
  0
LINE
  8
0
  6
BYLAYER
 62
     1
 10
123.110922
 20
-441.982935
 30
0.0
 11
123.110922
 21
-430.982935
 31
0.0
  0
LINE
  8
0
  6
BYLAYER
 62
     1
 10
123.110922
 20
-387.982935
 30
0.0
 11
142.110922
 21
-387.982920
 31
0.0
  0
LINE
  8
0
  6
BYLAYER
 62
     1
 10
142.110922
 20
-398.982920
 30
0.0
 11
102.110926
 21
-398.982935
 31
0.0
  0
LINE
  8
0
  6
BYLAYER
 62
     1
 10
142.110922
 20
-430.982935
 30
0.0
 11
102.110926
 21
-430.982935
 31
0.0
  0
LINE
  8
0
  6
BYLAYER
 62
     1
 10
106.110922
 20
-398.982935
 30
0.0
 11
110.110922
 21
-398.982935
 31
0.0
  0
ARC
  8
0
  6
BYLAYER
 62
     1
 10
115.110922
 20
-392.982935
 30
0.0
 40
3.250000
 50
180.000000
 51
360.000005
  0
ARC
  8
0
  6
BYLAYER
 62
     1
 10
115.110922
 20
-436.982935
 30
0.0
 40
3.250000
 50
0.0
 51
180.000005
  0
LINE
  8
0
  6
BYLAYER
 62
     1
 10
111.860922
 20
-392.982935
 30
0.0
 11
111.860922
 21
-386.982935
 31
0.0
  0
LINE
  8
0
  6
BYLAYER
 62
     1
 10
118.360922
 20
-392.982935
 30
0.0
 11
118.360922
 21
-386.982935
 31
0.0
  0
LINE
  8
0
  6
BYLAYER
 62
     1
 10
118.360922
 20
-436.982935
 30
0.0
 11
118.360922
 21
-442.982931
 31
0.0
  0
LINE
  8
0
  6
BYLAYER
 62
     1
 10
111.860922
 20
-436.982935
 30
0.0
 11
111.860922
 21
-442.982931
 31
0.0
  0
LINE
  8
0
  6
BYLAYER
 62
     1
 10
162.110922
 20
-386.982920
 30
0.0
 11
162.110922
 21
-398.982920
 31
0.0
  0
LINE
  8
0
  6
BYLAYER
 62
     1
 10
162.110937
 20
-430.982935
 30
0.0
 11
162.110937
 21
-442.982931
 31
0.0
  0
LINE
  8
0
  6
BYLAYER
 62
     1
 10
161.110937
 20
-441.982935
 30
0.0
 11
162.110937
 21
-442.982931
 31
0.0
  0
LINE
  8
0
  6
BYLAYER
 62
     1
 10
161.110922
 20
-387.982920
 30
0.0
 11
162.110922
 21
-386.982920
 31
0.0
  0
LINE
  8
0
  6
BYLAYER
 62
     1
 10
161.110937
 20
-441.982935
 30
0.0
 11
161.110937
 21
-430.982935
 31
0.0
  0
LINE
  8
0
  6
BYLAYER
 62
     1
 10
161.110922
 20
-398.982920
 30
0.0
 11
161.110922
 21
-387.982920
 31
0.0
  0
LINE
  8
0
  6
BYLAYER
 62
     1
 10
161.110922
 20
-387.982920
 30
0.0
 11
142.110922
 21
-387.982920
 31
0.0
  0
LINE
  8
0
  6
BYLAYER
 62
     1
 10
142.110922
 20
-398.982920
 30
0.0
 11
182.110922
 21
-398.982920
 31
0.0
  0
LINE
  8
0
  6
BYLAYER
 62
     1
 10
142.110922
 20
-430.982935
 30
0.0
 11
182.110937
 21
-430.982920
 31
0.0
  0
ARC
  8
0
  6
BYLAYER
 62
     1
 10
169.110937
 20
-436.982935
 30
0.0
 40
3.25
 50
0.0
 51
180.000019
  0
LINE
  8
0
  6
BYLAYER
 62
     1
 10
172.360922
 20
-392.982920
 30
0.0
 11
172.360922
 21
-386.982920
 31
0.0
  0
LINE
  8
0
  6
BYLAYER
 62
     1
 10
165.860922
 20
-392.982920
 30
0.0
 11
165.860922
 21
-386.982920
 31
0.0
  0
LINE
  8
0
  6
BYLAYER
 62
     1
 10
165.860937
 20
-436.982935
 30
0.0
 11
165.860937
 21
-442.982931
 31
0.0
  0
LINE
  8
0
  6
BYLAYER
 62
     1
 10
172.360937
 20
-436.982935
 30
0.0
 11
172.360937
 21
-442.982931
 31
0.0
  0
LINE
  8
0
  6
BYLAYER
 62
     1
 10
123.110922
 20
-441.982935
 30
0.0
 11
161.110937
 21
-441.982935
 31
0.0
  0
LINE
  8
0
  6
BYLAYER
 62
     1
 10
116.110922
 20
-411.982935
 30
0.0
 11
116.110922
 21
-417.982920
 31
0.0
  0
ARC
  8
0
  6
BYLAYER
 62
     1
 10
117.110922
 20
-416.732950
 30
0.0
 40
1.0
 50
180.000000
 51
269.999996
  0
ARC
  8
0
  6
BYLAYER
 62
     1
 10
117.110922
 20
-413.232935
 30
0.0
 40
1.0
 50
90.0
 51
180.000003
  0
ARC
  8
0
  6
BYLAYER
 62
     1
 10
116.095221
 20
-420.232935
 30
0.0
 40
1.0
 50
90.0
 51
131.409012
  0
ARC
  8
0
  6
BYLAYER
 62
     1
 10
116.095251
 20
-409.732935
 30
0.0
 40
1.0
 50
228.590367
 51
270.000001
  0
LINE
  8
0
  6
BYLAYER
 62
     1
 10
105.110926
 20
-386.982935
 30
0.0
 11
105.110926
 21
-398.982935
 31
0.0
  0
LINE
  8
0
  6
BYLAYER
 62
     1
 10
105.110926
 20
-430.982935
 30
0.0
 11
105.110926
 21
-442.982931
 31
0.0
  0
LINE
  8
0
  6
BYLAYER
 62
     1
 10
179.110922
 20
-386.982920
 30
0.0
 11
179.110922
 21
-398.982920
 31
0.0
  0
LINE
  8
0
  6
BYLAYER
 62
     1
 10
179.110922
 20
-430.982920
 30
0.0
 11
179.110922
 21
-442.982924
 31
0.0
  0
LINE
  8
0
  6
BYLAYER
 62
     1
 10
182.110907
 20
-441.982935
 30
0.0
 11
183.110907
 21
-441.982935
 31
0.0
  0
LINE
  8
0
  6
BYLAYER
 62
     1
 10
183.110907
 20
-441.982935
 30
0.0
 11
183.110907
 21
-387.982935
 31
0.0
  0
LINE
  8
0
  6
BYLAYER
 62
     1
 10
182.110907
 20
-387.982935
 30
0.0
 11
183.110907
 21
-387.982935
 31
0.0
  0
LINE
  8
0
  6
BYLAYER
 62
     1
 10
182.110922
 20
-386.982920
 30
0.0
 11
182.110922
 21
-398.982920
 31
0.0
  0
LINE
  8
0
  6
BYLAYER
 62
     1
 10
182.110937
 20
-442.982924
 30
0.0
 11
182.110937
 21
-430.982920
 31
0.0
  0
LINE
  8
0
  6
BYLAYER
 62
     1
 10
104.610903
 20
-442.982935
 30
0.0
 11
104.610903
 21
-443.482935
 31
0.0
  0
ARC
  8
0
  6
BYLAYER
 62
     1
 10
105.110903
 20
-443.482935
 30
0.0
 40
0.500000
 50
180.000000
 51
270.000009
  0
LINE
  8
0
  6
BYLAYER
 62
     1
 10
169.610922
 20
-446.482935
 30
0.0
 11
114.610922
 21
-446.482935
 31
0.0
  0
LINE
  8
0
  6
BYLAYER
 62
     1
 10
122.110922
 20
-442.982935
 30
0.0
 11
102.110895
 21
-442.982935
 31
0.0
  0
LINE
  8
0
  6
BYLAYER
 62
     1
 10
115.770224
 20
-442.982935
 30
0.0
 11
115.770224
 21
-443.982935
 31
0.0
  0
LINE
  8
0
  6
BYLAYER
 62
     1
 10
105.110903
 20
-443.982935
 30
0.0
 11
115.730887
 21
-443.982935
 31
0.0
  0
LINE
  8
0
  6
BYLAYER
 62
     1
 10
179.610891
 20
-442.982935
 30
0.0
 11
179.610891
 21
-443.482935
 31
0.0
  0
ARC
  8
0
  6
BYLAYER
 62
     1
 10
179.110891
 20
-443.482935
 30
0.0
 40
0.5
 50
270.0
 51
360.000016
  0
LINE
  8
0
  6
BYLAYER
 62
     1
 10
168.451574
 20
-442.982935
 30
0.0
 11
168.451574
 21
-443.982935
 31
0.0
  0
LINE
  8
0
  6
BYLAYER
 62
     1
 10
179.110891
 20
-443.982935
 30
0.0
 11
168.490912
 21
-443.982935
 31
0.0
  0
LINE
  8
0
  6
BYLAYER
 62
     1
 10
182.110907
 20
-442.982935
 30
0.0
 11
162.110937
 21
-442.982935
 31
0.0
  0
LINE
  8
0
  6
BYLAYER
 62
     1
 10
104.610903
 20
-386.982935
 30
0.0
 11
104.610903
 21
-386.482935
 31
0.0
  0
ARC
  8
0
  6
BYLAYER
 62
     1
 10
105.110903
 20
-386.482935
 30
0.0
 40
0.500000
 50
90.0
 51
180.000003
  0
LINE
  8
0
  6
BYLAYER
 62
     1
 10
169.610922
 20
-383.482935
 30
0.0
 11
114.610922
 21
-383.482935
 31
0.0
  0
LINE
  8
0
  6
BYLAYER
 62
     1
 10
122.110922
 20
-386.982935
 30
0.0
 11
102.110895
 21
-386.982935
 31
0.0
  0
LINE
  8
0
  6
BYLAYER
 62
     1
 10
115.770224
 20
-386.982935
 30
0.0
 11
115.770224
 21
-385.982935
 31
0.0
  0
LINE
  8
0
  6
BYLAYER
 62
     1
 10
105.110903
 20
-385.982935
 30
0.0
 11
115.730887
 21
-385.982935
 31
0.0
  0
LINE
  8
0
  6
BYLAYER
 62
     1
 10
179.610891
 20
-386.982935
 30
0.0
 11
179.610891
 21
-386.482935
 31
0.0
  0
ARC
  8
0
  6
BYLAYER
 62
     1
 10
179.110891
 20
-386.482935
 30
0.0
 40
0.500000
 50
0.0
 51
90.000023
  0
LINE
  8
0
  6
BYLAYER
 62
     1
 10
168.451574
 20
-386.982935
 30
0.0
 11
168.451574
 21
-385.982935
 31
0.0
  0
LINE
  8
0
  6
BYLAYER
 62
     1
 10
179.110891
 20
-385.982935
 30
0.0
 11
168.490912
 21
-385.982935
 31
0.0
  0
LINE
  8
0
  6
BYLAYER
 62
     1
 10
182.110907
 20
-386.982935
 30
0.0
 11
162.110922
 21
-386.982935
 31
0.0
  0
LINE
  8
0
  6
BYLAYER
 62
     1
 10
111.610922
 20
-412.982935
 30
0.0
 11
111.610922
 21
-398.982931
 31
0.0
  0
LINE
  8
0
  6
BYLAYER
 62
     1
 10
114.110922
 20
-398.982935
 30
0.0
 11
114.110922
 21
-402.732935
 31
0.0
  0
ARC
  8
0
  6
BYLAYER
 62
     1
 10
115.110922
 20
-402.732935
 30
0.0
 40
1.0
 50
180.000000
 51
269.999996
  0
ARC
  8
0
  6
BYLAYER
 62
     1
 10
115.110922
 20
-406.232935
 30
0.0
 40
1.0
 50
90.0
 51
179.999996
  0
ARC
  8
0
  6
BYLAYER
 62
     1
 10
114.110922
 20
-411.982935
 30
0.0
 40
2.0
 50
0.0
 51
70.528868
  0
ARC
  8
0
  6
BYLAYER
 62
     1
 10
115.110922
 20
-409.154505
 30
0.0
 40
1.0
 50
180.000000
 51
250.528656
  0
LINE
  8
0
  6
BYLAYER
 62
     1
 10
114.110922
 20
-412.982935
 30
0.0
 11
114.110922
 21
-406.232935
 31
0.0
  0
ARC
  8
0
  6
BYLAYER
 62
     1
 10
113.110922
 20
-412.982935
 30
0.0
 40
1.0
 50
270.0
 51
360.000003
  0
LINE
  8
0
  6
BYLAYER
 62
     1
 10
112.610922
 20
-413.982935
 30
0.0
 11
113.110922
 21
-413.982935
 31
0.0
  0
ARC
  8
0
  6
BYLAYER
 62
     1
 10
112.610922
 20
-412.982935
 30
0.0
 40
1.0
 50
180.000000
 51
269.999996
  0
LINE
  8
0
  6
BYLAYER
 62
     1
 10
111.610922
 20
-416.982904
 30
0.0
 11
111.610922
 21
-430.982947
 31
0.0
  0
ARC
  8
0
  6
BYLAYER
 62
     1
 10
112.610922
 20
-416.982904
 30
0.0
 40
1.0
 50
90.0
 51
179.999989
  0
LINE
  8
0
  6
BYLAYER
 62
     1
 10
112.610922
 20
-415.982904
 30
0.0
 11
113.110922
 21
-415.982904
 31
0.0
  0
ARC
  8
0
  6
BYLAYER
 62
     1
 10
113.110922
 20
-416.982904
 30
0.0
 40
1.0
 50
0.0
 51
90.000003
  0
LINE
  8
0
  6
BYLAYER
 62
     1
 10
114.110922
 20
-416.982904
 30
0.0
 11
114.110922
 21
-423.732904
 31
0.0
  0
ARC
  8
0
  6
BYLAYER
 62
     1
 10
115.110922
 20
-423.732904
 30
0.0
 40
1.000000
 50
180.000000
 51
270.000009
  0
ARC
  8
0
  6
BYLAYER
 62
     1
 10
115.110922
 20
-427.232904
 30
0.0
 40
1.0
 50
90.0
 51
179.999989
  0
LINE
  8
0
  6
BYLAYER
 62
     1
 10
114.110922
 20
-430.982904
 30
0.0
 11
114.110922
 21
-427.232904
 31
0.0
  0
ARC
  8
0
  6
BYLAYER
 62
     1
 10
115.110922
 20
-420.811335
 30
0.0
 40
1.0
 50
109.471351
 51
180.000000
  0
ARC
  8
0
  6
BYLAYER
 62
     1
 10
114.110922
 20
-417.982904
 30
0.0
 40
2.000000
 50
289.471118
 51
360.000000
  0
LINE
  8
0
  6
BYLAYER
 62
     1
 10
129.610937
 20
-417.732950
 30
0.0
 11
117.110922
 21
-417.732950
 31
0.0
  0
LINE
  8
0
  6
BYLAYER
 62
     1
 10
116.095221
 20
-419.232935
 30
0.0
 11
129.610937
 21
-419.232935
 31
0.0
  0
LINE
  8
0
  6
BYLAYER
 62
     1
 10
116.095251
 20
-410.732935
 30
0.0
 11
129.610937
 21
-410.732935
 31
0.0
  0
LINE
  8
0
  6
BYLAYER
 62
     1
 10
129.610937
 20
-412.232996
 30
0.0
 11
117.110922
 21
-412.232935
 31
0.0
  0
LINE
  8
0
  6
BYLAYER
 62
     1
 10
115.110922
 20
-403.732935
 30
0.0
 11
129.610937
 21
-403.732935
 31
0.0
  0
LINE
  8
0
  6
BYLAYER
 62
     1
 10
115.110922
 20
-405.232935
 30
0.0
 11
129.610937
 21
-405.232935
 31
0.0
  0
LINE
  8
0
  6
BYLAYER
 62
     1
 10
115.110922
 20
-424.732935
 30
0.0
 11
129.610937
 21
-424.732935
 31
0.0
  0
LINE
  8
0
  6
BYLAYER
 62
     1
 10
129.610937
 20
-426.232935
 30
0.0
 11
115.110922
 21
-426.232935
 31
0.0
  0
ARC
  8
0
  6
BYLAYER
 62
     1
 10
129.610937
 20
-425.482935
 30
0.0
 40
0.75
 50
270.0
 51
450.000005
  0
ARC
  8
0
  6
BYLAYER
 62
     1
 10
129.610937
 20
-418.482935
 30
0.0
 40
0.75
 50
270.0
 51
450.000005
  0
ARC
  8
0
  6
BYLAYER
 62
     1
 10
129.610937
 20
-411.482935
 30
0.0
 40
0.75
 50
270.0
 51
450.000005
  0
ARC
  8
0
  6
BYLAYER
 62
     1
 10
129.610937
 20
-404.482935
 30
0.0
 40
0.75
 50
270.0
 51
450.000005
  0
LINE
  8
0
  6
BYLAYER
 62
     1
 10
123.110922
 20
-398.982935
 30
0.0
 11
123.110922
 21
-387.982935
 31
0.0
  0
ARC
  8
0
  6
BYLAYER
 62
     1
 10
168.126593
 20
-409.732935
 30
0.0
 40
1.0
 50
270.0
 51
311.409634
  0
LINE
  8
0
  6
BYLAYER
 62
     1
 10
172.610922
 20
-412.982935
 30
0.0
 11
172.610922
 21
-398.982931
 31
0.0
  0
ARC
  8
0
  6
BYLAYER
 62
     1
 10
170.110922
 20
-411.982935
 30
0.0
 40
2.0
 50
109.471132
 51
180.000000
  0
LINE
  8
0
  6
BYLAYER
 62
     1
 10
170.110922
 20
-412.982935
 30
0.0
 11
170.110922
 21
-406.232935
 31
0.0
  0
LINE
  8
0
  6
BYLAYER
 62
     1
 10
154.610907
 20
-417.732950
 30
0.0
 11
167.110922
 21
-417.732950
 31
0.0
  0
LINE
  8
0
  6
BYLAYER
 62
     1
 10
168.126623
 20
-419.232935
 30
0.0
 11
154.610907
 21
-419.232935
 31
0.0
  0
LINE
  8
0
  6
BYLAYER
 62
     1
 10
168.126593
 20
-410.732935
 30
0.0
 11
154.610907
 21
-410.732935
 31
0.0
  0
LINE
  8
0
  6
BYLAYER
 62
     1
 10
154.610907
 20
-412.232996
 30
0.0
 11
167.110922
 21
-412.232935
 31
0.0
  0
LINE
  8
0
  6
BYLAYER
 62
     1
 10
169.110922
 20
-424.732935
 30
0.0
 11
154.610907
 21
-424.732935
 31
0.0
  0
LINE
  8
0
  6
BYLAYER
 62
     1
 10
154.610907
 20
-426.232935
 30
0.0
 11
169.110922
 21
-426.232935
 31
0.0
  0
ARC
  8
0
  6
BYLAYER
 62
     1
 10
154.610907
 20
-425.482935
 30
0.0
 40
0.75
 50
90.0
 51
270.000005
  0
ARC
  8
0
  6
BYLAYER
 62
     1
 10
154.610907
 20
-418.482935
 30
0.0
 40
0.75
 50
90.0
 51
270.000005
  0
ARC
  8
0
  6
BYLAYER
 62
     1
 10
154.610907
 20
-411.482935
 30
0.0
 40
0.75
 50
90.0
 51
270.000005
  0
LINE
  8
0
  6
BYLAYER
 62
     1
 10
172.610922
 20
-416.982904
 30
0.0
 11
172.610922
 21
-430.982947
 31
0.0
  0
LINE
  8
0
  6
BYLAYER
 62
     1
 10
170.110922
 20
-416.982904
 30
0.0
 11
170.110922
 21
-423.732904
 31
0.0
  0
LINE
  8
0
  6
BYLAYER
 62
     1
 10
170.110922
 20
-430.982904
 30
0.0
 11
170.110922
 21
-427.232904
 31
0.0
  0
ARC
  8
0
  6
BYLAYER
 62
     1
 10
169.110922
 20
-423.732904
 30
0.0
 40
1.0
 50
270.0
 51
360.000009
  0
ARC
  8
0
  6
BYLAYER
 62
     1
 10
169.110922
 20
-427.232904
 30
0.0
 40
1.0
 50
0.0
 51
89.999989
  0
ARC
  8
0
  6
BYLAYER
 62
     1
 10
171.110922
 20
-412.982935
 30
0.0
 40
1.000000
 50
180.000000
 51
270.000003
  0
ARC
  8
0
  6
BYLAYER
 62
     1
 10
171.110922
 20
-416.982904
 30
0.0
 40
1.000000
 50
90.0
 51
180.000003
  0
LINE
  8
0
  6
BYLAYER
 62
     1
 10
168.110922
 20
-411.982935
 30
0.0
 11
168.110922
 21
-417.982920
 31
0.0
  0
ARC
  8
0
  6
BYLAYER
 62
     1
 10
170.110922
 20
-417.982904
 30
0.0
 40
2.000000
 50
180.000000
 51
250.528882
  0
ARC
  8
0
  6
BYLAYER
 62
     1
 10
168.126623
 20
-420.232935
 30
0.0
 40
1.0
 50
48.590988
 51
90.000000
  0
ARC
  8
0
  6
BYLAYER
 62
     1
 10
169.110922
 20
-420.811335
 30
0.0
 40
1.0
 50
0.0
 51
70.528649
  0
ARC
  8
0
  6
BYLAYER
 62
     1
 10
167.110922
 20
-416.732950
 30
0.0
 40
1.0
 50
270.0
 51
359.999996
  0
ARC
  8
0
  6
BYLAYER
 62
     1
 10
167.110922
 20
-413.232935
 30
0.0
 40
1.000000
 50
0.0
 51
90.000003
  0
ARC
  8
0
  6
BYLAYER
 62
     1
 10
171.610922
 20
-416.982904
 30
0.0
 40
1.0
 50
0.0
 51
89.999989
  0
ARC
  8
0
  6
BYLAYER
 62
     1
 10
171.610922
 20
-412.982935
 30
0.0
 40
1.0
 50
270.0
 51
359.999996
  0
LINE
  8
0
  6
BYLAYER
 62
     1
 10
171.610922
 20
-415.982904
 30
0.0
 11
171.110922
 21
-415.982904
 31
0.0
  0
LINE
  8
0
  6
BYLAYER
 62
     1
 10
171.610922
 20
-413.982935
 30
0.0
 11
171.110922
 21
-413.982935
 31
0.0
  0
LINE
  8
0
  6
BYLAYER
 62
     1
 10
169.110922
 20
-403.732935
 30
0.0
 11
154.610907
 21
-403.732935
 31
0.0
  0
LINE
  8
0
  6
BYLAYER
 62
     1
 10
169.110922
 20
-405.232935
 30
0.0
 11
154.610907
 21
-405.232935
 31
0.0
  0
ARC
  8
0
  6
BYLAYER
 62
     1
 10
154.610907
 20
-404.482935
 30
0.0
 40
0.75
 50
90.0
 51
270.000005
  0
LINE
  8
0
  6
BYLAYER
 62
     1
 10
170.110922
 20
-398.982935
 30
0.0
 11
170.110922
 21
-402.732935
 31
0.0
  0
ARC
  8
0
  6
BYLAYER
 62
     1
 10
169.110922
 20
-409.154505
 30
0.0
 40
1.0
 50
289.471344
 51
360.000000
  0
ARC
  8
0
  6
BYLAYER
 62
     1
 10
169.110922
 20
-406.232935
 30
0.0
 40
1.000000
 50
0.0
 51
89.999996
  0
ARC
  8
0
  6
BYLAYER
 62
     1
 10
169.110922
 20
-402.732935
 30
0.0
 40
1.000000
 50
270.0
 51
359.999996
  0
ARC
  8
0
  6
BYLAYER
 62
     1
 10
169.110922
 20
-392.982920
 30
0.0
 40
3.25
 50
180.000000
 51
359.999991
  0
LINE
  8
0
  6
BYLAYER
 62
     1
 10
178.110922
 20
-398.982920
 30
0.0
 11
174.110922
 21
-398.982920
 31
0.0
  0
LINE
  8
0
  6
BYLAYER
 62
     1
 10
114.610922
 20
-446.482935
 30
0.0
 11
114.610922
 21
-443.982935
 31
0.0
  0
LINE
  8
0
  6
BYLAYER
 62
     1
 10
169.610922
 20
-446.482935
 30
0.0
 11
169.610922
 21
-443.982935
 31
0.0
  0
LINE
  8
0
  6
BYLAYER
 62
     1
 10
114.610922
 20
-383.482935
 30
0.0
 11
114.610922
 21
-385.982935
 31
0.0
  0
LINE
  8
0
  6
BYLAYER
 62
     1
 10
169.610922
 20
-383.482935
 30
0.0
 11
169.610922
 21
-385.982935
 31
0.0
  0
ARC
  8
0
  6
BYLAYER
 62
     1
 10
193.110922
 20
-140.770563
 30
0.0
 40
2.0
 50
180.000000
 51
266.999903
  0
LINE
  8
0
  6
BYLAYER
 62
     1
 10
197.110922
 20
-142.982935
 30
0.0
 11
193.006247
 21
-142.767817
 31
0.0
  0
LINE
  8
0
  6
BYLAYER
 62
     1
 10
197.110922
 20
-142.982935
 30
0.0
 11
197.110922
 21
-97.982935
 31
0.0
  0
LINE
  8
0
  6
BYLAYER
 62
     1
 10
183.110922
 20
-125.482935
 30
0.0
 11
183.110922
 21
-97.982935
 31
0.0
  0
LINE
  8
0
  6
BYLAYER
 62
     1
 10
183.110922
 20
-125.482935
 30
0.0
 11
190.533529
 21
-128.944147
 31
0.0
  0
LINE
  8
0
  6
BYLAYER
 62
     1
 10
191.110922
 20
-97.982935
 30
0.0
 11
191.110922
 21
-140.770563
 31
0.0
  0
ARC
  8
0
  6
BYLAYER
 62
     1
 10
190.110922
 20
-129.850458
 30
0.0
 40
0.999998
 50
0.0
 51
65.000643
  0
ARC
  8
0
  6
BYLAYER
 62
     1
 10
193.110922
 20
-55.195307
 30
0.0
 40
2.0
 50
93.000097
 51
180.000000
  0
LINE
  8
0
  6
BYLAYER
 62
     1
 10
197.110922
 20
-52.982935
 30
0.0
 11
193.006247
 21
-53.198053
 31
0.0
  0
LINE
  8
0
  6
BYLAYER
 62
     1
 10
197.110922
 20
-52.982935
 30
0.0
 11
197.110922
 21
-97.982935
 31
0.0
  0
LINE
  8
0
  6
BYLAYER
 62
     1
 10
183.110922
 20
-70.482935
 30
0.0
 11
183.110922
 21
-97.982935
 31
0.0
  0
LINE
  8
0
  6
BYLAYER
 62
     1
 10
183.110922
 20
-70.482935
 30
0.0
 11
190.533529
 21
-67.021723
 31
0.0
  0
LINE
  8
0
  6
BYLAYER
 62
     1
 10
191.110922
 20
-97.982935
 30
0.0
 11
191.110922
 21
-55.195307
 31
0.0
  0
ARC
  8
0
  6
BYLAYER
 62
     1
 10
190.110922
 20
-66.115412
 30
0.0
 40
0.999998
 50
294.999357
 51
360.0
  0
LINE
  8
0
  6
BYLAYER
 62
     7
 10
565.110861
 20
-37.282923
 30
0.0
 11
568.110861
 21
-42.479090
 31
0.0
  0
LINE
  8
0
  6
BYLAYER
 62
     7
 10
565.110861
 20
-32.782984
 30
0.0
 11
565.110861
 21
-49.989649
 31
0.0
  0
LINE
  8
0
  6
BYLAYER
 62
     7
 10
639.110861
 20
-32.782923
 30
0.0
 11
639.110861
 21
-49.989555
 31
0.0
  0
LINE
  8
0
  6
BYLAYER
 62
     7
 10
639.110861
 20
-37.282923
 30
0.0
 11
636.110861
 21
-42.479029
 31
0.0
  0
CIRCLE
  8
0
  6
BYLAYER
 62
     7
 10
602.110922
 20
-97.982935
 30
0.0
 40
50.248528
  0
CIRCLE
  8
0
  6
BYLAYER
 62
     7
 10
602.110922
 20
-97.982935
 30
0.0
 40
60.6
  0
CIRCLE
  8
0
  6
BYLAYER
 62
     7
 10
602.110922
 20
-97.982935
 30
0.0
 40
46.0
  0
LINE
  8
0
  6
BYLAYER
 62
     7
 10
603.110922
 20
-86.982935
 30
0.0
 11
611.110922
 21
-86.982935
 31
0.0
  0
LINE
  8
0
  6
BYLAYER
 62
     7
 10
603.110922
 20
-68.982935
 30
0.0
 11
603.110922
 21
-76.982935
 31
0.0
  0
LINE
  8
0
  6
BYLAYER
 62
     7
 10
603.110922
 20
-58.982935
 30
0.0
 11
603.110922
 21
-66.982935
 31
0.0
  0
LINE
  8
0
  6
BYLAYER
 62
     7
 10
603.110922
 20
-78.982935
 30
0.0
 11
603.110922
 21
-86.982935
 31
0.0
  0
LINE
  8
0
  6
BYLAYER
 62
     7
 10
611.110922
 20
-66.982935
 30
0.0
 11
611.110922
 21
-58.982935
 31
0.0
  0
LINE
  8
0
  6
BYLAYER
 62
     7
 10
613.110922
 20
-66.982935
 30
0.0
 11
613.110922
 21
-58.982935
 31
0.0
  0
LINE
  8
0
  6
BYLAYER
 62
     7
 10
603.110922
 20
-78.982935
 30
0.0
 11
611.110922
 21
-78.982935
 31
0.0
  0
LINE
  8
0
  6
BYLAYER
 62
     7
 10
603.110922
 20
-76.982935
 30
0.0
 11
611.110922
 21
-76.982935
 31
0.0
  0
LINE
  8
0
  6
BYLAYER
 62
     7
 10
603.110922
 20
-68.982935
 30
0.0
 11
611.110922
 21
-68.982935
 31
0.0
  0
LINE
  8
0
  6
BYLAYER
 62
     7
 10
613.110922
 20
-66.982935
 30
0.0
 11
620.948921
 21
-66.982935
 31
0.0
  0
LINE
  8
0
  6
BYLAYER
 62
     7
 10
603.110922
 20
-66.982935
 30
0.0
 11
611.110922
 21
-66.982935
 31
0.0
  0
LINE
  8
0
  6
BYLAYER
 62
     7
 10
613.110922
 20
-58.982935
 30
0.0
 11
620.948921
 21
-58.982935
 31
0.0
  0
LINE
  8
0
  6
BYLAYER
 62
     7
 10
603.110922
 20
-58.982935
 30
0.0
 11
611.110922
 21
-58.982935
 31
0.0
  0
LINE
  8
0
  6
BYLAYER
 62
     7
 10
620.948921
 20
-66.982935
 30
0.0
 11
620.948921
 21
-58.982935
 31
0.0
  0
LINE
  8
0
  6
BYLAYER
 62
     7
 10
611.110922
 20
-86.982935
 30
0.0
 11
611.110922
 21
-78.982935
 31
0.0
  0
LINE
  8
0
  6
BYLAYER
 62
     7
 10
611.110922
 20
-76.982935
 30
0.0
 11
611.110922
 21
-68.982935
 31
0.0
  0
LINE
  8
0
  6
BYLAYER
 62
     7
 10
613.110922
 20
-86.982935
 30
0.0
 11
621.110922
 21
-86.982935
 31
0.0
  0
LINE
  8
0
  6
BYLAYER
 62
     7
 10
613.110922
 20
-68.982935
 30
0.0
 11
613.110922
 21
-76.982935
 31
0.0
  0
LINE
  8
0
  6
BYLAYER
 62
     7
 10
613.110922
 20
-78.982935
 30
0.0
 11
613.110922
 21
-86.982935
 31
0.0
  0
LINE
  8
0
  6
BYLAYER
 62
     7
 10
613.110922
 20
-78.982935
 30
0.0
 11
621.110922
 21
-78.982935
 31
0.0
  0
LINE
  8
0
  6
BYLAYER
 62
     7
 10
613.110922
 20
-76.982935
 30
0.0
 11
621.110922
 21
-76.982935
 31
0.0
  0
LINE
  8
0
  6
BYLAYER
 62
     7
 10
613.110922
 20
-68.982935
 30
0.0
 11
621.110922
 21
-68.982935
 31
0.0
  0
LINE
  8
0
  6
BYLAYER
 62
     7
 10
621.110922
 20
-86.982935
 30
0.0
 11
621.110922
 21
-78.982935
 31
0.0
  0
LINE
  8
0
  6
BYLAYER
 62
     7
 10
621.110922
 20
-76.982935
 30
0.0
 11
621.110922
 21
-68.982935
 31
0.0
  0
LINE
  8
0
  6
BYLAYER
 62
     7
 10
623.110922
 20
-86.982935
 30
0.0
 11
631.110922
 21
-86.982935
 31
0.0
  0
LINE
  8
0
  6
BYLAYER
 62
     7
 10
623.110922
 20
-68.982935
 30
0.0
 11
623.110922
 21
-76.982935
 31
0.0
  0
LINE
  8
0
  6
BYLAYER
 62
     7
 10
623.110922
 20
-78.982935
 30
0.0
 11
623.110922
 21
-86.982935
 31
0.0
  0
LINE
  8
0
  6
BYLAYER
 62
     7
 10
623.110922
 20
-78.982935
 30
0.0
 11
631.110922
 21
-78.982935
 31
0.0
  0
LINE
  8
0
  6
BYLAYER
 62
     7
 10
623.110922
 20
-76.982935
 30
0.0
 11
631.110922
 21
-76.982935
 31
0.0
  0
LINE
  8
0
  6
BYLAYER
 62
     7
 10
623.110922
 20
-68.982935
 30
0.0
 11
631.110922
 21
-68.982935
 31
0.0
  0
LINE
  8
0
  6
BYLAYER
 62
     7
 10
631.110922
 20
-86.982935
 30
0.0
 11
631.110922
 21
-78.982935
 31
0.0
  0
LINE
  8
0
  6
BYLAYER
 62
     7
 10
631.110922
 20
-76.982935
 30
0.0
 11
631.110922
 21
-68.982935
 31
0.0
  0
LINE
  8
0
  6
BYLAYER
 62
     7
 10
613.110922
 20
-96.982935
 30
0.0
 11
621.110922
 21
-96.982935
 31
0.0
  0
LINE
  8
0
  6
BYLAYER
 62
     7
 10
613.110922
 20
-88.982935
 30
0.0
 11
613.110922
 21
-96.982935
 31
0.0
  0
LINE
  8
0
  6
BYLAYER
 62
     7
 10
613.110922
 20
-88.982935
 30
0.0
 11
621.110922
 21
-88.982935
 31
0.0
  0
LINE
  8
0
  6
BYLAYER
 62
     7
 10
621.110922
 20
-96.982935
 30
0.0
 11
621.110922
 21
-88.982935
 31
0.0
  0
LINE
  8
0
  6
BYLAYER
 62
     7
 10
623.110922
 20
-96.982935
 30
0.0
 11
631.110922
 21
-96.982935
 31
0.0
  0
LINE
  8
0
  6
BYLAYER
 62
     7
 10
623.110922
 20
-88.982935
 30
0.0
 11
623.110922
 21
-96.982935
 31
0.0
  0
LINE
  8
0
  6
BYLAYER
 62
     7
 10
623.110922
 20
-88.982935
 30
0.0
 11
631.110922
 21
-88.982935
 31
0.0
  0
LINE
  8
0
  6
BYLAYER
 62
     7
 10
631.110922
 20
-96.982935
 30
0.0
 11
631.110922
 21
-88.982935
 31
0.0
  0
LINE
  8
0
  6
BYLAYER
 62
     7
 10
633.110922
 20
-86.982935
 30
0.0
 11
641.110922
 21
-86.982935
 31
0.0
  0
LINE
  8
0
  6
BYLAYER
 62
     7
 10
633.110922
 20
-78.982935
 30
0.0
 11
633.110922
 21
-86.982935
 31
0.0
  0
LINE
  8
0
  6
BYLAYER
 62
     7
 10
633.110922
 20
-78.982935
 30
0.0
 11
641.110922
 21
-78.982935
 31
0.0
  0
LINE
  8
0
  6
BYLAYER
 62
     7
 10
641.110922
 20
-86.982935
 30
0.0
 11
641.110922
 21
-78.982935
 31
0.0
  0
LINE
  8
0
  6
BYLAYER
 62
     7
 10
633.110922
 20
-96.982935
 30
0.0
 11
641.110922
 21
-96.982935
 31
0.0
  0
LINE
  8
0
  6
BYLAYER
 62
     7
 10
633.110922
 20
-88.982935
 30
0.0
 11
633.110922
 21
-96.982935
 31
0.0
  0
LINE
  8
0
  6
BYLAYER
 62
     7
 10
633.110922
 20
-88.982935
 30
0.0
 11
641.110922
 21
-88.982935
 31
0.0
  0
LINE
  8
0
  6
BYLAYER
 62
     7
 10
641.110922
 20
-96.982935
 30
0.0
 11
641.110922
 21
-88.982935
 31
0.0
  0
LINE
  8
0
  6
BYLAYER
 62
     7
 10
603.110922
 20
-108.982935
 30
0.0
 11
611.110922
 21
-108.982935
 31
0.0
  0
LINE
  8
0
  6
BYLAYER
 62
     7
 10
603.110922
 20
-126.982935
 30
0.0
 11
603.110922
 21
-118.982935
 31
0.0
  0
LINE
  8
0
  6
BYLAYER
 62
     7
 10
603.110922
 20
-136.982935
 30
0.0
 11
603.110922
 21
-128.982935
 31
0.0
  0
LINE
  8
0
  6
BYLAYER
 62
     7
 10
603.110922
 20
-116.982935
 30
0.0
 11
603.110922
 21
-108.982935
 31
0.0
  0
LINE
  8
0
  6
BYLAYER
 62
     7
 10
611.110922
 20
-128.982935
 30
0.0
 11
611.110922
 21
-136.982935
 31
0.0
  0
LINE
  8
0
  6
BYLAYER
 62
     7
 10
613.110922
 20
-128.982935
 30
0.0
 11
613.110922
 21
-136.982935
 31
0.0
  0
LINE
  8
0
  6
BYLAYER
 62
     7
 10
603.110922
 20
-116.982935
 30
0.0
 11
611.110922
 21
-116.982935
 31
0.0
  0
LINE
  8
0
  6
BYLAYER
 62
     7
 10
603.110922
 20
-118.982935
 30
0.0
 11
611.110922
 21
-118.982935
 31
0.0
  0
LINE
  8
0
  6
BYLAYER
 62
     7
 10
603.110922
 20
-126.982935
 30
0.0
 11
611.110922
 21
-126.982935
 31
0.0
  0
LINE
  8
0
  6
BYLAYER
 62
     7
 10
613.110922
 20
-128.982935
 30
0.0
 11
620.948921
 21
-128.982935
 31
0.0
  0
LINE
  8
0
  6
BYLAYER
 62
     7
 10
603.110922
 20
-128.982935
 30
0.0
 11
611.110922
 21
-128.982935
 31
0.0
  0
LINE
  8
0
  6
BYLAYER
 62
     7
 10
613.110922
 20
-136.982935
 30
0.0
 11
620.948921
 21
-136.982935
 31
0.0
  0
LINE
  8
0
  6
BYLAYER
 62
     7
 10
603.110922
 20
-136.982935
 30
0.0
 11
611.110922
 21
-136.982935
 31
0.0
  0
LINE
  8
0
  6
BYLAYER
 62
     7
 10
620.948921
 20
-128.982935
 30
0.0
 11
620.948921
 21
-136.982935
 31
0.0
  0
LINE
  8
0
  6
BYLAYER
 62
     7
 10
611.110922
 20
-108.982935
 30
0.0
 11
611.110922
 21
-116.982935
 31
0.0
  0
LINE
  8
0
  6
BYLAYER
 62
     7
 10
611.110922
 20
-118.982935
 30
0.0
 11
611.110922
 21
-126.982935
 31
0.0
  0
LINE
  8
0
  6
BYLAYER
 62
     7
 10
613.110922
 20
-108.982935
 30
0.0
 11
621.110922
 21
-108.982935
 31
0.0
  0
LINE
  8
0
  6
BYLAYER
 62
     7
 10
613.110922
 20
-126.982935
 30
0.0
 11
613.110922
 21
-118.982935
 31
0.0
  0
LINE
  8
0
  6
BYLAYER
 62
     7
 10
613.110922
 20
-116.982935
 30
0.0
 11
613.110922
 21
-108.982935
 31
0.0
  0
LINE
  8
0
  6
BYLAYER
 62
     7
 10
613.110922
 20
-116.982935
 30
0.0
 11
621.110922
 21
-116.982935
 31
0.0
  0
LINE
  8
0
  6
BYLAYER
 62
     7
 10
613.110922
 20
-118.982935
 30
0.0
 11
621.110922
 21
-118.982935
 31
0.0
  0
LINE
  8
0
  6
BYLAYER
 62
     7
 10
613.110922
 20
-126.982935
 30
0.0
 11
621.110922
 21
-126.982935
 31
0.0
  0
LINE
  8
0
  6
BYLAYER
 62
     7
 10
621.110922
 20
-108.982935
 30
0.0
 11
621.110922
 21
-116.982935
 31
0.0
  0
LINE
  8
0
  6
BYLAYER
 62
     7
 10
621.110922
 20
-118.982935
 30
0.0
 11
621.110922
 21
-126.982935
 31
0.0
  0
LINE
  8
0
  6
BYLAYER
 62
     7
 10
623.110922
 20
-108.982935
 30
0.0
 11
631.110922
 21
-108.982935
 31
0.0
  0
LINE
  8
0
  6
BYLAYER
 62
     7
 10
623.110922
 20
-126.982935
 30
0.0
 11
623.110922
 21
-118.982935
 31
0.0
  0
LINE
  8
0
  6
BYLAYER
 62
     7
 10
623.110922
 20
-116.982935
 30
0.0
 11
623.110922
 21
-108.982935
 31
0.0
  0
LINE
  8
0
  6
BYLAYER
 62
     7
 10
623.110922
 20
-116.982935
 30
0.0
 11
631.110922
 21
-116.982935
 31
0.0
  0
LINE
  8
0
  6
BYLAYER
 62
     7
 10
623.110922
 20
-118.982935
 30
0.0
 11
631.110922
 21
-118.982935
 31
0.0
  0
LINE
  8
0
  6
BYLAYER
 62
     7
 10
623.110922
 20
-126.982935
 30
0.0
 11
631.110922
 21
-126.982935
 31
0.0
  0
LINE
  8
0
  6
BYLAYER
 62
     7
 10
631.110922
 20
-108.982935
 30
0.0
 11
631.110922
 21
-116.982935
 31
0.0
  0
LINE
  8
0
  6
BYLAYER
 62
     7
 10
631.110922
 20
-118.982935
 30
0.0
 11
631.110922
 21
-126.982935
 31
0.0
  0
LINE
  8
0
  6
BYLAYER
 62
     7
 10
613.110922
 20
-98.982935
 30
0.0
 11
621.110922
 21
-98.982935
 31
0.0
  0
LINE
  8
0
  6
BYLAYER
 62
     7
 10
613.110922
 20
-106.982935
 30
0.0
 11
613.110922
 21
-98.982935
 31
0.0
  0
LINE
  8
0
  6
BYLAYER
 62
     7
 10
613.110922
 20
-106.982935
 30
0.0
 11
621.110922
 21
-106.982935
 31
0.0
  0
LINE
  8
0
  6
BYLAYER
 62
     7
 10
621.110922
 20
-98.982935
 30
0.0
 11
621.110922
 21
-106.982935
 31
0.0
  0
LINE
  8
0
  6
BYLAYER
 62
     7
 10
623.110922
 20
-98.982935
 30
0.0
 11
631.110922
 21
-98.982935
 31
0.0
  0
LINE
  8
0
  6
BYLAYER
 62
     7
 10
623.110922
 20
-106.982935
 30
0.0
 11
623.110922
 21
-98.982935
 31
0.0
  0
LINE
  8
0
  6
BYLAYER
 62
     7
 10
623.110922
 20
-106.982935
 30
0.0
 11
631.110922
 21
-106.982935
 31
0.0
  0
LINE
  8
0
  6
BYLAYER
 62
     7
 10
631.110922
 20
-98.982935
 30
0.0
 11
631.110922
 21
-106.982935
 31
0.0
  0
LINE
  8
0
  6
BYLAYER
 62
     7
 10
633.110922
 20
-108.982935
 30
0.0
 11
641.110922
 21
-108.982935
 31
0.0
  0
LINE
  8
0
  6
BYLAYER
 62
     7
 10
633.110922
 20
-116.982935
 30
0.0
 11
633.110922
 21
-108.982935
 31
0.0
  0
LINE
  8
0
  6
BYLAYER
 62
     7
 10
633.110922
 20
-116.982935
 30
0.0
 11
641.110922
 21
-116.982935
 31
0.0
  0
LINE
  8
0
  6
BYLAYER
 62
     7
 10
641.110922
 20
-108.982935
 30
0.0
 11
641.110922
 21
-116.982935
 31
0.0
  0
LINE
  8
0
  6
BYLAYER
 62
     7
 10
633.110922
 20
-98.982935
 30
0.0
 11
641.110922
 21
-98.982935
 31
0.0
  0
LINE
  8
0
  6
BYLAYER
 62
     7
 10
633.110922
 20
-106.982935
 30
0.0
 11
633.110922
 21
-98.982935
 31
0.0
  0
LINE
  8
0
  6
BYLAYER
 62
     7
 10
633.110922
 20
-106.982935
 30
0.0
 11
641.110922
 21
-106.982935
 31
0.0
  0
LINE
  8
0
  6
BYLAYER
 62
     7
 10
641.110922
 20
-98.982935
 30
0.0
 11
641.110922
 21
-106.982935
 31
0.0
  0
LINE
  8
0
  6
BYLAYER
 62
     7
 10
601.110922
 20
-86.982935
 30
0.0
 11
593.110922
 21
-86.982935
 31
0.0
  0
LINE
  8
0
  6
BYLAYER
 62
     7
 10
601.110922
 20
-68.982935
 30
0.0
 11
601.110922
 21
-76.982935
 31
0.0
  0
LINE
  8
0
  6
BYLAYER
 62
     7
 10
601.110922
 20
-58.982935
 30
0.0
 11
601.110922
 21
-66.982935
 31
0.0
  0
LINE
  8
0
  6
BYLAYER
 62
     7
 10
601.110922
 20
-78.982935
 30
0.0
 11
601.110922
 21
-86.982935
 31
0.0
  0
LINE
  8
0
  6
BYLAYER
 62
     7
 10
593.110922
 20
-66.982935
 30
0.0
 11
593.110922
 21
-58.982935
 31
0.0
  0
LINE
  8
0
  6
BYLAYER
 62
     7
 10
591.110922
 20
-66.982935
 30
0.0
 11
591.110922
 21
-58.982935
 31
0.0
  0
LINE
  8
0
  6
BYLAYER
 62
     7
 10
601.110922
 20
-78.982935
 30
0.0
 11
593.110922
 21
-78.982935
 31
0.0
  0
LINE
  8
0
  6
BYLAYER
 62
     7
 10
601.110922
 20
-76.982935
 30
0.0
 11
593.110922
 21
-76.982935
 31
0.0
  0
LINE
  8
0
  6
BYLAYER
 62
     7
 10
601.110922
 20
-68.982935
 30
0.0
 11
593.110922
 21
-68.982935
 31
0.0
  0
LINE
  8
0
  6
BYLAYER
 62
     7
 10
591.110922
 20
-66.982935
 30
0.0
 11
583.272923
 21
-66.982935
 31
0.0
  0
LINE
  8
0
  6
BYLAYER
 62
     7
 10
601.110922
 20
-66.982935
 30
0.0
 11
593.110922
 21
-66.982935
 31
0.0
  0
LINE
  8
0
  6
BYLAYER
 62
     7
 10
591.110922
 20
-58.982935
 30
0.0
 11
583.272923
 21
-58.982935
 31
0.0
  0
LINE
  8
0
  6
BYLAYER
 62
     7
 10
601.110922
 20
-58.982935
 30
0.0
 11
593.110922
 21
-58.982935
 31
0.0
  0
LINE
  8
0
  6
BYLAYER
 62
     7
 10
583.272923
 20
-66.982935
 30
0.0
 11
583.272923
 21
-58.982935
 31
0.0
  0
LINE
  8
0
  6
BYLAYER
 62
     7
 10
593.110922
 20
-86.982935
 30
0.0
 11
593.110922
 21
-78.982935
 31
0.0
  0
LINE
  8
0
  6
BYLAYER
 62
     7
 10
593.110922
 20
-76.982935
 30
0.0
 11
593.110922
 21
-68.982935
 31
0.0
  0
LINE
  8
0
  6
BYLAYER
 62
     7
 10
591.110922
 20
-86.982935
 30
0.0
 11
583.110922
 21
-86.982935
 31
0.0
  0
LINE
  8
0
  6
BYLAYER
 62
     7
 10
591.110922
 20
-68.982935
 30
0.0
 11
591.110922
 21
-76.982935
 31
0.0
  0
LINE
  8
0
  6
BYLAYER
 62
     7
 10
591.110922
 20
-78.982935
 30
0.0
 11
591.110922
 21
-86.982935
 31
0.0
  0
LINE
  8
0
  6
BYLAYER
 62
     7
 10
591.110922
 20
-78.982935
 30
0.0
 11
583.110922
 21
-78.982935
 31
0.0
  0
LINE
  8
0
  6
BYLAYER
 62
     7
 10
591.110922
 20
-76.982935
 30
0.0
 11
583.110922
 21
-76.982935
 31
0.0
  0
LINE
  8
0
  6
BYLAYER
 62
     7
 10
591.110922
 20
-68.982935
 30
0.0
 11
583.110922
 21
-68.982935
 31
0.0
  0
LINE
  8
0
  6
BYLAYER
 62
     7
 10
583.110922
 20
-86.982935
 30
0.0
 11
583.110922
 21
-78.982935
 31
0.0
  0
LINE
  8
0
  6
BYLAYER
 62
     7
 10
583.110922
 20
-76.982935
 30
0.0
 11
583.110922
 21
-68.982935
 31
0.0
  0
LINE
  8
0
  6
BYLAYER
 62
     7
 10
581.110922
 20
-86.982935
 30
0.0
 11
573.110922
 21
-86.982935
 31
0.0
  0
LINE
  8
0
  6
BYLAYER
 62
     7
 10
581.110922
 20
-68.982935
 30
0.0
 11
581.110922
 21
-76.982935
 31
0.0
  0
LINE
  8
0
  6
BYLAYER
 62
     7
 10
581.110922
 20
-78.982935
 30
0.0
 11
581.110922
 21
-86.982935
 31
0.0
  0
LINE
  8
0
  6
BYLAYER
 62
     7
 10
581.110922
 20
-78.982935
 30
0.0
 11
573.110922
 21
-78.982935
 31
0.0
  0
LINE
  8
0
  6
BYLAYER
 62
     7
 10
581.110922
 20
-76.982935
 30
0.0
 11
573.110922
 21
-76.982935
 31
0.0
  0
LINE
  8
0
  6
BYLAYER
 62
     7
 10
581.110922
 20
-68.982935
 30
0.0
 11
573.110922
 21
-68.982935
 31
0.0
  0
LINE
  8
0
  6
BYLAYER
 62
     7
 10
573.110922
 20
-86.982935
 30
0.0
 11
573.110922
 21
-78.982935
 31
0.0
  0
LINE
  8
0
  6
BYLAYER
 62
     7
 10
573.110922
 20
-76.982935
 30
0.0
 11
573.110922
 21
-68.982935
 31
0.0
  0
LINE
  8
0
  6
BYLAYER
 62
     7
 10
591.110922
 20
-96.982935
 30
0.0
 11
583.110922
 21
-96.982935
 31
0.0
  0
LINE
  8
0
  6
BYLAYER
 62
     7
 10
591.110922
 20
-88.982935
 30
0.0
 11
591.110922
 21
-96.982935
 31
0.0
  0
LINE
  8
0
  6
BYLAYER
 62
     7
 10
591.110922
 20
-88.982935
 30
0.0
 11
583.110922
 21
-88.982935
 31
0.0
  0
LINE
  8
0
  6
BYLAYER
 62
     7
 10
583.110922
 20
-96.982935
 30
0.0
 11
583.110922
 21
-88.982935
 31
0.0
  0
LINE
  8
0
  6
BYLAYER
 62
     7
 10
581.110922
 20
-96.982935
 30
0.0
 11
573.110922
 21
-96.982935
 31
0.0
  0
LINE
  8
0
  6
BYLAYER
 62
     7
 10
581.110922
 20
-88.982935
 30
0.0
 11
581.110922
 21
-96.982935
 31
0.0
  0
LINE
  8
0
  6
BYLAYER
 62
     7
 10
581.110922
 20
-88.982935
 30
0.0
 11
573.110922
 21
-88.982935
 31
0.0
  0
LINE
  8
0
  6
BYLAYER
 62
     7
 10
573.110922
 20
-96.982935
 30
0.0
 11
573.110922
 21
-88.982935
 31
0.0
  0
LINE
  8
0
  6
BYLAYER
 62
     7
 10
571.110922
 20
-86.982935
 30
0.0
 11
563.110922
 21
-86.982935
 31
0.0
  0
LINE
  8
0
  6
BYLAYER
 62
     7
 10
571.110922
 20
-78.982935
 30
0.0
 11
571.110922
 21
-86.982935
 31
0.0
  0
LINE
  8
0
  6
BYLAYER
 62
     7
 10
571.110922
 20
-78.982935
 30
0.0
 11
563.110922
 21
-78.982935
 31
0.0
  0
LINE
  8
0
  6
BYLAYER
 62
     7
 10
563.110922
 20
-86.982935
 30
0.0
 11
563.110922
 21
-78.982935
 31
0.0
  0
LINE
  8
0
  6
BYLAYER
 62
     7
 10
571.110922
 20
-96.982935
 30
0.0
 11
563.110922
 21
-96.982935
 31
0.0
  0
LINE
  8
0
  6
BYLAYER
 62
     7
 10
571.110922
 20
-88.982935
 30
0.0
 11
571.110922
 21
-96.982935
 31
0.0
  0
LINE
  8
0
  6
BYLAYER
 62
     7
 10
571.110922
 20
-88.982935
 30
0.0
 11
563.110922
 21
-88.982935
 31
0.0
  0
LINE
  8
0
  6
BYLAYER
 62
     7
 10
563.110922
 20
-96.982935
 30
0.0
 11
563.110922
 21
-88.982935
 31
0.0
  0
LINE
  8
0
  6
BYLAYER
 62
     7
 10
601.110922
 20
-108.982935
 30
0.0
 11
593.110922
 21
-108.982935
 31
0.0
  0
LINE
  8
0
  6
BYLAYER
 62
     7
 10
601.110922
 20
-126.982935
 30
0.0
 11
601.110922
 21
-118.982935
 31
0.0
  0
LINE
  8
0
  6
BYLAYER
 62
     7
 10
601.110922
 20
-136.982935
 30
0.0
 11
601.110922
 21
-128.982935
 31
0.0
  0
LINE
  8
0
  6
BYLAYER
 62
     7
 10
601.110922
 20
-116.982935
 30
0.0
 11
601.110922
 21
-108.982935
 31
0.0
  0
LINE
  8
0
  6
BYLAYER
 62
     7
 10
593.110922
 20
-128.982935
 30
0.0
 11
593.110922
 21
-136.982935
 31
0.0
  0
LINE
  8
0
  6
BYLAYER
 62
     7
 10
591.110922
 20
-128.982935
 30
0.0
 11
591.110922
 21
-136.982935
 31
0.0
  0
LINE
  8
0
  6
BYLAYER
 62
     7
 10
601.110922
 20
-116.982935
 30
0.0
 11
593.110922
 21
-116.982935
 31
0.0
  0
LINE
  8
0
  6
BYLAYER
 62
     7
 10
601.110922
 20
-118.982935
 30
0.0
 11
593.110922
 21
-118.982935
 31
0.0
  0
LINE
  8
0
  6
BYLAYER
 62
     7
 10
601.110922
 20
-126.982935
 30
0.0
 11
593.110922
 21
-126.982935
 31
0.0
  0
LINE
  8
0
  6
BYLAYER
 62
     7
 10
591.110922
 20
-128.982935
 30
0.0
 11
583.272923
 21
-128.982935
 31
0.0
  0
LINE
  8
0
  6
BYLAYER
 62
     7
 10
601.110922
 20
-128.982935
 30
0.0
 11
593.110922
 21
-128.982935
 31
0.0
  0
LINE
  8
0
  6
BYLAYER
 62
     7
 10
591.110922
 20
-136.982935
 30
0.0
 11
583.272923
 21
-136.982935
 31
0.0
  0
LINE
  8
0
  6
BYLAYER
 62
     7
 10
601.110922
 20
-136.982935
 30
0.0
 11
593.110922
 21
-136.982935
 31
0.0
  0
LINE
  8
0
  6
BYLAYER
 62
     7
 10
583.272923
 20
-128.982935
 30
0.0
 11
583.272923
 21
-136.982935
 31
0.0
  0
LINE
  8
0
  6
BYLAYER
 62
     7
 10
593.110922
 20
-108.982935
 30
0.0
 11
593.110922
 21
-116.982935
 31
0.0
  0
LINE
  8
0
  6
BYLAYER
 62
     7
 10
593.110922
 20
-118.982935
 30
0.0
 11
593.110922
 21
-126.982935
 31
0.0
  0
LINE
  8
0
  6
BYLAYER
 62
     7
 10
591.110922
 20
-108.982935
 30
0.0
 11
583.110922
 21
-108.982935
 31
0.0
  0
LINE
  8
0
  6
BYLAYER
 62
     7
 10
591.110922
 20
-126.982935
 30
0.0
 11
591.110922
 21
-118.982935
 31
0.0
  0
LINE
  8
0
  6
BYLAYER
 62
     7
 10
591.110922
 20
-116.982935
 30
0.0
 11
591.110922
 21
-108.982935
 31
0.0
  0
LINE
  8
0
  6
BYLAYER
 62
     7
 10
591.110922
 20
-116.982935
 30
0.0
 11
583.110922
 21
-116.982935
 31
0.0
  0
LINE
  8
0
  6
BYLAYER
 62
     7
 10
591.110922
 20
-118.982935
 30
0.0
 11
583.110922
 21
-118.982935
 31
0.0
  0
LINE
  8
0
  6
BYLAYER
 62
     7
 10
591.110922
 20
-126.982935
 30
0.0
 11
583.110922
 21
-126.982935
 31
0.0
  0
LINE
  8
0
  6
BYLAYER
 62
     7
 10
583.110922
 20
-108.982935
 30
0.0
 11
583.110922
 21
-116.982935
 31
0.0
  0
LINE
  8
0
  6
BYLAYER
 62
     7
 10
583.110922
 20
-118.982935
 30
0.0
 11
583.110922
 21
-126.982935
 31
0.0
  0
LINE
  8
0
  6
BYLAYER
 62
     7
 10
581.110922
 20
-108.982935
 30
0.0
 11
573.110922
 21
-108.982935
 31
0.0
  0
LINE
  8
0
  6
BYLAYER
 62
     7
 10
581.110922
 20
-126.982935
 30
0.0
 11
581.110922
 21
-118.982935
 31
0.0
  0
LINE
  8
0
  6
BYLAYER
 62
     7
 10
581.110922
 20
-116.982935
 30
0.0
 11
581.110922
 21
-108.982935
 31
0.0
  0
LINE
  8
0
  6
BYLAYER
 62
     7
 10
581.110922
 20
-116.982935
 30
0.0
 11
573.110922
 21
-116.982935
 31
0.0
  0
LINE
  8
0
  6
BYLAYER
 62
     7
 10
581.110922
 20
-118.982935
 30
0.0
 11
573.110922
 21
-118.982935
 31
0.0
  0
LINE
  8
0
  6
BYLAYER
 62
     7
 10
581.110922
 20
-126.982935
 30
0.0
 11
573.110922
 21
-126.982935
 31
0.0
  0
LINE
  8
0
  6
BYLAYER
 62
     7
 10
573.110922
 20
-108.982935
 30
0.0
 11
573.110922
 21
-116.982935
 31
0.0
  0
LINE
  8
0
  6
BYLAYER
 62
     7
 10
573.110922
 20
-118.982935
 30
0.0
 11
573.110922
 21
-126.982935
 31
0.0
  0
LINE
  8
0
  6
BYLAYER
 62
     7
 10
591.110922
 20
-98.982935
 30
0.0
 11
583.110922
 21
-98.982935
 31
0.0
  0
LINE
  8
0
  6
BYLAYER
 62
     7
 10
591.110922
 20
-106.982935
 30
0.0
 11
591.110922
 21
-98.982935
 31
0.0
  0
LINE
  8
0
  6
BYLAYER
 62
     7
 10
591.110922
 20
-106.982935
 30
0.0
 11
583.110922
 21
-106.982935
 31
0.0
  0
LINE
  8
0
  6
BYLAYER
 62
     7
 10
583.110922
 20
-98.982935
 30
0.0
 11
583.110922
 21
-106.982935
 31
0.0
  0
LINE
  8
0
  6
BYLAYER
 62
     7
 10
581.110922
 20
-98.982935
 30
0.0
 11
573.110922
 21
-98.982935
 31
0.0
  0
LINE
  8
0
  6
BYLAYER
 62
     7
 10
581.110922
 20
-106.982935
 30
0.0
 11
581.110922
 21
-98.982935
 31
0.0
  0
LINE
  8
0
  6
BYLAYER
 62
     7
 10
581.110922
 20
-106.982935
 30
0.0
 11
573.110922
 21
-106.982935
 31
0.0
  0
LINE
  8
0
  6
BYLAYER
 62
     7
 10
573.110922
 20
-98.982935
 30
0.0
 11
573.110922
 21
-106.982935
 31
0.0
  0
LINE
  8
0
  6
BYLAYER
 62
     7
 10
571.110922
 20
-108.982935
 30
0.0
 11
563.110922
 21
-108.982935
 31
0.0
  0
LINE
  8
0
  6
BYLAYER
 62
     7
 10
571.110922
 20
-116.982935
 30
0.0
 11
571.110922
 21
-108.982935
 31
0.0
  0
LINE
  8
0
  6
BYLAYER
 62
     7
 10
571.110922
 20
-116.982935
 30
0.0
 11
563.110922
 21
-116.982935
 31
0.0
  0
LINE
  8
0
  6
BYLAYER
 62
     7
 10
563.110922
 20
-108.982935
 30
0.0
 11
563.110922
 21
-116.982935
 31
0.0
  0
LINE
  8
0
  6
BYLAYER
 62
     7
 10
571.110922
 20
-98.982935
 30
0.0
 11
563.110922
 21
-98.982935
 31
0.0
  0
LINE
  8
0
  6
BYLAYER
 62
     7
 10
571.110922
 20
-106.982935
 30
0.0
 11
571.110922
 21
-98.982935
 31
0.0
  0
LINE
  8
0
  6
BYLAYER
 62
     7
 10
571.110922
 20
-106.982935
 30
0.0
 11
563.110922
 21
-106.982935
 31
0.0
  0
LINE
  8
0
  6
BYLAYER
 62
     7
 10
563.110922
 20
-98.982935
 30
0.0
 11
563.110922
 21
-106.982935
 31
0.0
  0
LINE
  8
0
  6
BYLAYER
 62
     7
 10
568.110861
 20
-42.479090
 30
0.0
 11
568.110861
 21
-47.819643
 31
0.0
  0
LINE
  8
0
  6
BYLAYER
 62
     7
 10
636.110861
 20
-42.479029
 30
0.0
 11
636.110861
 21
-47.819560
 31
0.0
  0
CIRCLE
  8
0
  6
BYLAYER
 62
     7
 10
602.110922
 20
-97.982935
 30
0.0
 40
4.0
  0
ARC
  8
0
  6
BYLAYER
 62
     7
 10
637.860861
 20
-22.282984
 30
0.0
 40
1.500000
 50
180.000000
 51
265.219808
  0
ARC
  8
0
  6
BYLAYER
 62
     7
 10
566.360861
 20
-22.282984
 30
0.0
 40
1.5
 50
274.780192
 51
360.0
  0
ARC
  8
0
  6
BYLAYER
 62
     7
 10
574.356523
 20
-22.282984
 30
0.0
 40
1.5
 50
270.0
 51
360.0
  0
LINE
  8
0
  6
BYLAYER
 62
     7
 10
636.360861
 20
-22.282984
 30
0.0
 11
636.360861
 21
-0.782984
 31
0.0
  0
LINE
  8
0
  6
BYLAYER
 62
     7
 10
634.860861
 20
0.717016
 30
0.0
 11
569.360861
 21
0.717016
 31
0.0
  0
ARC
  8
0
  6
BYLAYER
 62
     7
 10
634.860861
 20
-0.782984
 30
0.0
 40
1.5
 50
0.0
 51
90.0
  0
ARC
  8
0
  6
BYLAYER
 62
     7
 10
569.360861
 20
-0.782984
 30
0.0
 40
1.5
 50
90.0
 51
180.0
  0
LINE
  8
0
  6
BYLAYER
 62
     7
 10
567.860861
 20
-22.282984
 30
0.0
 11
567.860861
 21
-0.782984
 31
0.0
  0
LINE
  8
0
  6
BYLAYER
 62
     7
 10
575.856523
 20
-22.282984
 30
0.0
 11
575.856523
 21
-0.782984
 31
0.0
  0
ARC
  8
0
  6
BYLAYER
 62
     7
 10
577.356523
 20
-0.782984
 30
0.0
 40
1.5
 50
90.0
 51
180.0
  0
ARC
  8
0
  6
BYLAYER
 62
     7
 10
626.865199
 20
-0.782984
 30
0.0
 40
1.5
 50
0.0
 51
90.0
  0
LINE
  8
0
  6
BYLAYER
 62
     7
 10
581.517208
 20
0.717016
 30
0.0
 11
582.009755
 21
-13.387682
 31
0.0
  0
ARC
  8
0
  6
BYLAYER
 62
     7
 10
585.007927
 20
-13.282984
 30
0.0
 40
3.000000
 50
182.000000
 51
270.000000
  0
LINE
  8
0
  6
BYLAYER
 62
     7
 10
592.211967
 20
-13.387682
 30
0.0
 11
592.704514
 21
0.717016
 31
0.0
  0
ARC
  8
0
  6
BYLAYER
 62
     7
 10
589.213795
 20
-13.282984
 30
0.0
 40
3.000000
 50
270.0
 51
358.0
  0
LINE
  8
0
  6
BYLAYER
 62
     7
 10
607.211967
 20
-13.387682
 30
0.0
 11
607.704514
 21
0.717016
 31
0.0
  0
ARC
  8
0
  6
BYLAYER
 62
     7
 10
604.213795
 20
-13.282984
 30
0.0
 40
3.000000
 50
270.0
 51
358.0
  0
LINE
  8
0
  6
BYLAYER
 62
     7
 10
622.211967
 20
-13.387682
 30
0.0
 11
622.704514
 21
0.717016
 31
0.0
  0
ARC
  8
0
  6
BYLAYER
 62
     7
 10
619.213795
 20
-13.282984
 30
0.0
 40
3.000000
 50
270.0
 51
358.0
  0
LINE
  8
0
  6
BYLAYER
 62
     7
 10
611.517208
 20
0.717016
 30
0.0
 11
612.009755
 21
-13.387682
 31
0.0
  0
ARC
  8
0
  6
BYLAYER
 62
     7
 10
615.007927
 20
-13.282984
 30
0.0
 40
3.000000
 50
182.000000
 51
270.000000
  0
LINE
  8
0
  6
BYLAYER
 62
     7
 10
596.517208
 20
0.717016
 30
0.0
 11
597.009755
 21
-13.387682
 31
0.0
  0
ARC
  8
0
  6
BYLAYER
 62
     7
 10
600.007927
 20
-13.282984
 30
0.0
 40
3.000000
 50
182.000000
 51
270.000000
  0
LINE
  8
0
  6
BYLAYER
 62
     7
 10
615.007927
 20
-16.282984
 30
0.0
 11
619.213795
 21
-16.282984
 31
0.0
  0
LINE
  8
0
  6
BYLAYER
 62
     7
 10
600.007927
 20
-16.282984
 30
0.0
 11
604.213795
 21
-16.282984
 31
0.0
  0
LINE
  8
0
  6
BYLAYER
 62
     7
 10
585.007927
 20
-16.282984
 30
0.0
 11
589.213795
 21
-16.282984
 31
0.0
  0
LINE
  8
0
  6
BYLAYER
 62
     7
 10
596.552129
 20
-0.282984
 30
0.0
 11
607.669593
 21
-0.282984
 31
0.0
  0
LINE
  8
0
  6
BYLAYER
 62
     7
 10
611.552129
 20
-0.282984
 30
0.0
 11
622.669593
 21
-0.282984
 31
0.0
  0
LINE
  8
0
  6
BYLAYER
 62
     7
 10
581.552129
 20
-0.282984
 30
0.0
 11
592.669593
 21
-0.282984
 31
0.0
  0
LINE
  8
0
  6
BYLAYER
 62
     7
 10
628.365199
 20
-0.782984
 30
0.0
 11
628.365199
 21
-22.282984
 31
0.0
  0
ARC
  8
0
  6
BYLAYER
 62
     7
 10
566.610861
 20
-25.272549
 30
0.0
 40
1.500000
 50
94.780192
 51
180.000000
  0
LINE
  8
0
  6
BYLAYER
 62
     7
 10
566.610861
 20
-23.782984
 30
0.0
 11
637.860861
 21
-23.782984
 31
0.0
  0
ARC
  8
0
  6
BYLAYER
 62
     7
 10
637.610861
 20
-25.272549
 30
0.0
 40
1.500000
 50
0.0
 51
85.219808
  0
LINE
  8
0
  6
BYLAYER
 62
     7
 10
639.110861
 20
-32.782984
 30
0.0
 11
639.110861
 21
-25.272549
 31
0.0
  0
ARC
  8
0
  6
BYLAYER
 62
     7
 10
629.865199
 20
-22.282984
 30
0.0
 40
1.5
 50
180.000000
 51
270.000000
  0
LINE
  8
0
  6
BYLAYER
 62
     7
 10
639.110861
 20
-30.782923
 30
0.0
 11
565.110861
 21
-30.782923
 31
0.0
  0
LINE
  8
0
  6
BYLAYER
 62
     7
 10
565.110861
 20
-25.272549
 30
0.0
 11
565.110861
 21
-32.782984
 31
0.0
  0
LINE
  8
0
  6
BYLAYER
 62
     7
 10
565.110861
 20
-32.782984
 30
0.0
 11
639.110861
 21
-32.782984
 31
0.0
  0
LINE
  8
0
  6
BYLAYER
 62
     1
 10
574.110922
 20
-167.982950
 30
0.0
 11
586.110922
 21
-167.982950
 31
0.0
  0
ARC
  8
0
  6
BYLAYER
 62
     1
 10
580.110922
 20
-154.982950
 30
0.0
 40
3.250000
 50
270.0
 51
349.223746
  0
ARC
  8
0
  6
BYLAYER
 62
     1
 10
624.110922
 20
-154.982935
 30
0.0
 40
3.250000
 50
190.776508
 51
269.999991
  0
LINE
  8
0
  6
BYLAYER
 62
     1
 10
580.110922
 20
-158.232950
 30
0.0
 11
574.110922
 21
-158.232950
 31
0.0
  0
LINE
  8
0
  6
BYLAYER
 62
     1
 10
624.110922
 20
-158.232935
 30
0.0
 11
630.110922
 21
-158.232935
 31
0.0
  0
LINE
  8
0
  6
BYLAYER
 62
     1
 10
586.110922
 20
-156.432571
 30
0.0
 11
586.110922
 21
-167.982950
 31
0.0
  0
LINE
  8
0
  6
BYLAYER
 62
     1
 10
618.110922
 20
-167.982950
 30
0.0
 11
630.110922
 21
-167.982935
 31
0.0
  0
LINE
  8
0
  6
BYLAYER
 62
     1
 10
618.110922
 20
-156.432571
 30
0.0
 11
618.110922
 21
-167.982950
 31
0.0
  0
LINE
  8
0
  6
BYLAYER
 62
     1
 10
630.110922
 20
-165.482935
 30
0.0
 11
630.610922
 21
-165.482935
 31
0.0
  0
ARC
  8
0
  6
BYLAYER
 62
     1
 10
630.610922
 20
-164.982935
 30
0.0
 40
0.5
 50
270.0
 51
359.999982
  0
ARC
  8
0
  6
BYLAYER
 62
     1
 10
632.610922
 20
-154.182917
 30
0.0
 40
1.000000
 50
270.0
 51
359.999982
  0
LINE
  8
0
  6
BYLAYER
 62
     1
 10
631.110922
 20
-155.182917
 30
0.0
 11
632.610922
 21
-155.182917
 31
0.0
  0
LINE
  8
0
  6
BYLAYER
 62
     1
 10
633.610922
 20
-149.752714
 30
0.0
 11
633.610922
 21
-154.182917
 31
0.0
  0
LINE
  8
0
  6
BYLAYER
 62
     1
 10
631.110922
 20
-164.982935
 30
0.0
 11
631.110922
 21
-155.182917
 31
0.0
  0
LINE
  8
0
  6
BYLAYER
 62
     1
 10
630.110922
 20
-167.982920
 30
0.0
 11
630.110922
 21
-151.726400
 31
0.0
  0
LINE
  8
0
  6
BYLAYER
 62
     1
 10
574.110922
 20
-165.482935
 30
0.0
 11
573.610922
 21
-165.482935
 31
0.0
  0
ARC
  8
0
  6
BYLAYER
 62
     1
 10
573.610922
 20
-164.982935
 30
0.0
 40
0.5
 50
180.000000
 51
269.999982
  0
ARC
  8
0
  6
BYLAYER
 62
     1
 10
571.610922
 20
-154.182917
 30
0.0
 40
1.0
 50
180.000000
 51
269.999982
  0
LINE
  8
0
  6
BYLAYER
 62
     1
 10
573.110922
 20
-155.182917
 30
0.0
 11
571.610922
 21
-155.182917
 31
0.0
  0
LINE
  8
0
  6
BYLAYER
 62
     1
 10
570.610922
 20
-149.752714
 30
0.0
 11
570.610922
 21
-154.182917
 31
0.0
  0
LINE
  8
0
  6
BYLAYER
 62
     1
 10
573.110922
 20
-164.982935
 30
0.0
 11
573.110922
 21
-155.182917
 31
0.0
  0
LINE
  8
0
  6
BYLAYER
 62
     1
 10
574.110922
 20
-167.982920
 30
0.0
 11
574.110922
 21
-151.726400
 31
0.0
  0
LINE
  8
0
  6
BYLAYER
 62
     1
 10
586.110922
 20
-165.982920
 30
0.0
 11
618.110922
 21
-165.982920
 31
0.0
  0
LINE
  8
0
  6
BYLAYER
 62
     7
 10
568.110861
 20
-379.559656
 30
0.0
 11
568.110861
 21
-359.479090
 31
0.0
  0
LINE
  8
0
  6
BYLAYER
 62
     7
 10
565.110861
 20
-354.282923
 30
0.0
 11
568.110861
 21
-359.479090
 31
0.0
  0
LINE
  8
0
  6
BYLAYER
 62
     7
 10
565.110861
 20
-349.782984
 30
0.0
 11
565.110861
 21
-373.282923
 31
0.0
  0
LINE
  8
0
  6
BYLAYER
 62
     7
 10
565.110861
 20
-373.282923
 30
0.0
 11
568.110861
 21
-375.014978
 31
0.0
  0
LINE
  8
0
  6
BYLAYER
 62
     7
 10
639.110861
 20
-349.782923
 30
0.0
 11
639.110861
 21
-373.282923
 31
0.0
  0
LINE
  8
0
  6
BYLAYER
 62
     7
 10
639.110861
 20
-354.282923
 30
0.0
 11
636.110861
 21
-359.479029
 31
0.0
  0
LINE
  8
0
  6
BYLAYER
 62
     7
 10
639.110861
 20
-373.282923
 30
0.0
 11
636.110861
 21
-375.014978
 31
0.0
  0
ARC
  8
0
  6
BYLAYER
 62
     7
 10
543.275900
 20
-421.982935
 30
0.0
 40
0.500024
 50
90.0
 51
186.785003
  0
ARC
  8
0
  6
BYLAYER
 62
     7
 10
602.110922
 20
-414.982935
 30
0.0
 40
59.75
 50
186.785006
 51
193.667528
  0
ARC
  8
0
  6
BYLAYER
 62
     7
 10
544.538717
 20
-428.982935
 30
0.0
 40
0.500003
 50
193.667500
 51
270.000001
  0
LINE
  8
0
  6
BYLAYER
 62
     7
 10
553.397177
 20
-421.129511
 30
0.0
 11
543.275900
 21
-421.482935
 31
0.0
  0
LINE
  8
0
  6
BYLAYER
 62
     7
 10
555.318807
 20
-429.859400
 30
0.0
 11
544.538717
 21
-429.482935
 31
0.0
  0
ARC
  8
0
  6
BYLAYER
 62
     7
 10
660.945883
 20
-421.982935
 30
0.0
 40
0.500024
 50
353.214982
 51
449.999996
  0
ARC
  8
0
  6
BYLAYER
 62
     7
 10
602.110922
 20
-414.982935
 30
0.0
 40
59.749939
 50
346.332474
 51
353.214982
  0
ARC
  8
0
  6
BYLAYER
 62
     7
 10
659.683065
 20
-428.982935
 30
0.0
 40
0.500003
 50
270.0
 51
346.3325
  0
LINE
  8
0
  6
BYLAYER
 62
     7
 10
650.824667
 20
-421.129511
 30
0.0
 11
660.945883
 21
-421.482935
 31
0.0
  0
LINE
  8
0
  6
BYLAYER
 62
     7
 10
648.902975
 20
-429.859400
 30
0.0
 11
659.683065
 21
-429.482935
 31
0.0
  0
LINE
  8
0
  6
BYLAYER
 62
     7
 10
560.946622
 20
-382.578271
 30
0.0
 11
565.358541
 21
-382.424219
 31
0.0
  0
LINE
  8
0
  6
BYLAYER
 62
     7
 10
547.734396
 20
-393.358362
 30
0.0
 11
551.168050
 21
-393.238454
 31
0.0
  0
LINE
  8
0
  6
BYLAYER
 62
     7
 10
547.734396
 20
-394.607599
 30
0.0
 11
552.710966
 21
-394.781378
 31
0.0
  0
ARC
  8
0
  6
BYLAYER
 62
     7
 10
547.756201
 20
-393.982965
 30
0.0
 40
0.624999
 50
92.000025
 51
267.999985
  0
LINE
  8
0
  6
BYLAYER
 62
     7
 10
544.839071
 20
-403.858362
 30
0.0
 11
554.366415
 21
-403.525660
 31
0.0
  0
LINE
  8
0
  6
BYLAYER
 62
     7
 10
544.839071
 20
-405.107599
 30
0.0
 11
553.950033
 21
-405.425745
 31
0.0
  0
ARC
  8
0
  6
BYLAYER
 62
     7
 10
544.860891
 20
-404.482965
 30
0.0
 40
0.625000
 50
92.000025
 51
267.999985
  0
LINE
  8
0
  6
BYLAYER
 62
     7
 10
543.905294
 20
-414.358332
 30
0.0
 11
553.019979
 21
-414.040064
 31
0.0
  0
LINE
  8
0
  6
BYLAYER
 62
     7
 10
543.905294
 20
-415.607599
 30
0.0
 11
553.019979
 21
-415.925867
 31
0.0
  0
ARC
  8
0
  6
BYLAYER
 62
     7
 10
543.927114
 20
-414.982965
 30
0.0
 40
0.625000
 50
92.000025
 51
267.999985
  0
LINE
  8
0
  6
BYLAYER
 62
     7
 10
547.734396
 20
-435.358332
 30
0.0
 11
557.287557
 21
-435.024744
 31
0.0
  0
LINE
  8
0
  6
BYLAYER
 62
     7
 10
547.734396
 20
-436.607569
 30
0.0
 11
558.210653
 21
-436.973413
 31
0.0
  0
ARC
  8
0
  6
BYLAYER
 62
     7
 10
547.756201
 20
-435.982965
 30
0.0
 40
0.625001
 50
92.000018
 51
267.999985
  0
LINE
  8
0
  6
BYLAYER
 62
     7
 10
552.927572
 20
-445.858332
 30
0.0
 11
563.634115
 21
-445.484461
 31
0.0
  0
LINE
  8
0
  6
BYLAYER
 62
     7
 10
552.927572
 20
-447.107569
 30
0.0
 11
565.358480
 21
-447.541651
 31
0.0
  0
ARC
  8
0
  6
BYLAYER
 62
     7
 10
552.949392
 20
-446.482965
 30
0.0
 40
0.624999
 50
92.000025
 51
267.999985
  0
LINE
  8
0
  6
BYLAYER
 62
     7
 10
544.839071
 20
-424.858332
 30
0.0
 11
553.950033
 21
-424.540186
 31
0.0
  0
LINE
  8
0
  6
BYLAYER
 62
     7
 10
544.839071
 20
-426.107569
 30
0.0
 11
554.366354
 21
-426.440271
 31
0.0
  0
ARC
  8
0
  6
BYLAYER
 62
     7
 10
544.860891
 20
-425.482965
 30
0.0
 40
0.625000
 50
92.000025
 51
267.999985
  0
LINE
  8
0
  6
BYLAYER
 62
     7
 10
651.294271
 20
-447.107508
 30
0.0
 11
638.863363
 21
-447.541590
 31
0.0
  0
LINE
  8
0
  6
BYLAYER
 62
     7
 10
651.294271
 20
-445.858271
 30
0.0
 11
640.587789
 21
-445.484400
 31
0.0
  0
ARC
  8
0
  6
BYLAYER
 62
     7
 10
651.272451
 20
-446.482904
 30
0.0
 40
0.625001
 50
272.000017
 51
447.999973
  0
LINE
  8
0
  6
BYLAYER
 62
     7
 10
656.487448
 20
-436.607508
 30
0.0
 11
646.011129
 21
-436.973352
 31
0.0
  0
LINE
  8
0
  6
BYLAYER
 62
     7
 10
656.487448
 20
-435.358271
 30
0.0
 11
646.934286
 21
-435.024683
 31
0.0
  0
ARC
  8
0
  6
BYLAYER
 62
     7
 10
656.465627
 20
-435.982904
 30
0.0
 40
0.624999
 50
272.000017
 51
447.999980
  0
LINE
  8
0
  6
BYLAYER
 62
     7
 10
660.316488
 20
-415.607538
 30
0.0
 11
651.201864
 21
-415.925806
 31
0.0
  0
LINE
  8
0
  6
BYLAYER
 62
     7
 10
660.316488
 20
-414.358271
 30
0.0
 11
651.201864
 21
-414.040003
 31
0.0
  0
ARC
  8
0
  6
BYLAYER
 62
     7
 10
660.294668
 20
-414.982904
 30
0.0
 40
0.625000
 50
272.000017
 51
447.999980
  0
LINE
  8
0
  6
BYLAYER
 62
     7
 10
659.382711
 20
-426.107569
 30
0.0
 11
649.855429
 21
-426.440271
 31
0.0
  0
LINE
  8
0
  6
BYLAYER
 62
     7
 10
659.382711
 20
-424.858332
 30
0.0
 11
650.271749
 21
-424.540186
 31
0.0
  0
ARC
  8
0
  6
BYLAYER
 62
     7
 10
659.360891
 20
-425.482965
 30
0.0
 40
0.624999
 50
272.000017
 51
447.999980
  0
LINE
  8
0
  6
BYLAYER
 62
     7
 10
659.382711
 20
-405.107538
 30
0.0
 11
650.271749
 21
-405.425684
 31
0.0
  0
LINE
  8
0
  6
BYLAYER
 62
     7
 10
659.382711
 20
-403.858301
 30
0.0
 11
649.855429
 21
-403.525598
 31
0.0
  0
ARC
  8
0
  6
BYLAYER
 62
     7
 10
659.360891
 20
-404.482904
 30
0.0
 40
0.625
 50
272.000017
 51
447.999973
  0
LINE
  8
0
  6
BYLAYER
 62
     7
 10
656.487387
 20
-394.607538
 30
0.0
 11
651.510961
 21
-394.781312
 31
0.0
  0
LINE
  8
0
  6
BYLAYER
 62
     7
 10
656.487387
 20
-393.358301
 30
0.0
 11
653.053878
 21
-393.238398
 31
0.0
  0
ARC
  8
0
  6
BYLAYER
 62
     7
 10
656.465597
 20
-393.982904
 30
0.0
 40
0.625001
 50
272.000017
 51
447.999973
  0
LINE
  8
0
  6
BYLAYER
 62
     7
 10
643.275186
 20
-382.578280
 30
0.0
 11
638.863302
 21
-382.424219
 31
0.0
  0
LINE
  8
0
  6
BYLAYER
 62
     7
 10
636.110861
 20
-359.479029
 30
0.0
 11
636.110861
 21
-379.559595
 31
0.0
  0
LINE
  8
0
  6
BYLAYER
 62
     7
 10
660.010092
 20
-406.999811
 30
0.0
 11
650.610494
 21
-407.328089
 31
0.0
  0
ARC
  8
0
  6
BYLAYER
 62
     7
 10
659.992636
 20
-406.500116
 30
0.0
 40
0.500000
 50
272.000290
 51
368.337508
  0
ARC
  8
0
  6
BYLAYER
 62
     7
 10
602.110922
 20
-414.982935
 30
0.0
 40
59.0
 50
8.337584
 51
12.355621
  0
LINE
  8
0
  6
BYLAYER
 62
     7
 10
649.357260
 20
-401.619226
 30
0.0
 11
659.273397
 21
-401.965479
 31
0.0
  0
ARC
  8
0
  6
BYLAYER
 62
     7
 10
659.255972
 20
-402.465174
 30
0.0
 40
0.499999
 50
12.355582
 51
88.000150
  0
LINE
  8
0
  6
BYLAYER
 62
     7
 10
554.936117
 20
-401.368677
 30
0.0
 11
545.003759
 21
-401.715509
 31
0.0
  0
ARC
  8
0
  6
BYLAYER
 62
     7
 10
545.021200
 20
-402.215204
 30
0.0
 40
0.499999
 50
91.999848
 51
167.393689
  0
ARC
  8
0
  6
BYLAYER
 62
     7
 10
602.110922
 20
-414.982935
 30
0.0
 40
59.0
 50
167.393634
 51
171.909865
  0
LINE
  8
0
  6
BYLAYER
 62
     7
 10
544.175665
 20
-407.249872
 30
0.0
 11
553.572470
 21
-407.578028
 31
0.0
  0
ARC
  8
0
  6
BYLAYER
 62
     7
 10
544.193121
 20
-406.750177
 30
0.0
 40
0.500002
 50
171.909946
 51
267.999711
  0
ARC
  8
0
  6
BYLAYER
 62
     7
 10
550.464499
 20
-389.706507
 30
0.0
 40
2.000001
 50
153.922274
 51
224.999982
  0
ARC
  8
0
  6
BYLAYER
 62
     7
 10
602.110922
 20
-414.982935
 30
0.0
 40
59.500000
 50
146.077720
 51
153.922274
  0
ARC
  8
0
  6
BYLAYER
 62
     7
 10
554.397665
 20
-382.894037
 30
0.0
 40
1.999999
 50
75.000067
 51
146.077720
  0
LINE
  8
0
  6
BYLAYER
 62
     7
 10
563.046133
 20
-383.140833
 30
0.0
 11
554.915304
 21
-380.962183
 31
0.0
  0
ARC
  8
0
  6
BYLAYER
 62
     7
 10
563.563772
 20
-381.208979
 30
0.0
 40
1.999999
 50
255.000031
 51
318.776075
  0
LINE
  8
0
  6
BYLAYER
 62
     7
 10
549.050314
 20
-391.120707
 30
0.0
 11
555.002463
 21
-397.072886
 31
0.0
  0
ARC
  8
0
  6
BYLAYER
 62
     7
 10
553.588247
 20
-398.487101
 30
0.0
 40
2.000002
 50
341.223957
 51
404.999974
  0
ARC
  8
0
  6
BYLAYER
 62
     7
 10
649.824179
 20
-382.894037
 30
0.0
 40
1.999999
 50
33.922268
 51
104.999952
  0
ARC
  8
0
  6
BYLAYER
 62
     7
 10
602.110922
 20
-414.982935
 30
0.0
 40
59.500000
 50
26.077712
 51
33.922268
  0
ARC
  8
0
  6
BYLAYER
 62
     7
 10
653.757345
 20
-389.706507
 30
0.0
 40
2.000001
 50
315.000046
 51
386.077712
  0
LINE
  8
0
  6
BYLAYER
 62
     7
 10
649.219381
 20
-397.072886
 30
0.0
 11
655.171560
 21
-391.120722
 31
0.0
  0
ARC
  8
0
  6
BYLAYER
 62
     7
 10
650.633597
 20
-398.487101
 30
0.0
 40
2.000001
 50
135.000028
 51
198.776045
  0
LINE
  8
0
  6
BYLAYER
 62
     7
 10
649.306540
 20
-380.962183
 30
0.0
 11
641.175711
 21
-383.140833
 31
0.0
  0
ARC
  8
0
  6
BYLAYER
 62
     7
 10
640.658072
 20
-381.208979
 30
0.0
 40
1.999995
 50
221.223953
 51
284.999970
  0
ARC
  8
0
  6
BYLAYER
 62
     7
 10
602.110922
 20
-414.982935
 30
0.0
 40
49.250011
 50
309.761534
 51
378.776045
  0
ARC
  8
0
  6
BYLAYER
 62
     7
 10
602.110922
 20
-414.982935
 30
0.0
 40
49.250004
 50
41.223941
 51
138.776057
  0
ARC
  8
0
  6
BYLAYER
 62
     7
 10
602.110922
 20
-414.982935
 30
0.0
 40
49.25
 50
161.223952
 51
230.238455
  0
ARC
  8
0
  6
BYLAYER
 62
     7
 10
602.110922
 20
-414.982935
 30
0.0
 40
45.0
 50
314.427004
 51
405.572996
  0
ARC
  8
0
  6
BYLAYER
 62
     7
 10
602.110922
 20
-414.982935
 30
0.0
 40
47.800003
 50
311.22333
 51
588.77667
  0
ARC
  8
0
  6
BYLAYER
 62
     7
 10
602.110922
 20
-414.982935
 30
0.0
 40
60.6
 50
301.31897
 51
412.369991
  0
ARC
  8
0
  6
BYLAYER
 62
     7
 10
602.110922
 20
-414.982935
 30
0.0
 40
60.600000
 50
127.630155
 51
238.68103
  0
ARC
  8
0
  6
BYLAYER
 62
     7
 10
637.860861
 20
-339.282984
 30
0.0
 40
1.500000
 50
180.000000
 51
265.219808
  0
ARC
  8
0
  6
BYLAYER
 62
     7
 10
566.360861
 20
-339.282984
 30
0.0
 40
1.500000
 50
274.780192
 51
360.000000
  0
ARC
  8
0
  6
BYLAYER
 62
     7
 10
574.356523
 20
-339.282984
 30
0.0
 40
1.5
 50
270.0
 51
360.0
  0
LINE
  8
0
  6
BYLAYER
 62
     7
 10
636.360861
 20
-339.282984
 30
0.0
 11
636.360861
 21
-317.782984
 31
0.0
  0
LINE
  8
0
  6
BYLAYER
 62
     7
 10
634.860861
 20
-316.282984
 30
0.0
 11
569.360861
 21
-316.282984
 31
0.0
  0
ARC
  8
0
  6
BYLAYER
 62
     7
 10
634.860861
 20
-317.782984
 30
0.0
 40
1.5
 50
0.0
 51
90.0
  0
ARC
  8
0
  6
BYLAYER
 62
     7
 10
569.360861
 20
-317.782984
 30
0.0
 40
1.5
 50
90.0
 51
180.0
  0
LINE
  8
0
  6
BYLAYER
 62
     7
 10
567.860861
 20
-339.282984
 30
0.0
 11
567.860861
 21
-317.782984
 31
0.0
  0
LINE
  8
0
  6
BYLAYER
 62
     7
 10
575.856523
 20
-339.282984
 30
0.0
 11
575.856523
 21
-317.782984
 31
0.0
  0
ARC
  8
0
  6
BYLAYER
 62
     7
 10
577.356523
 20
-317.782984
 30
0.0
 40
1.5
 50
90.0
 51
180.0
  0
ARC
  8
0
  6
BYLAYER
 62
     7
 10
626.865199
 20
-317.782984
 30
0.0
 40
1.5
 50
0.0
 51
90.0
  0
LINE
  8
0
  6
BYLAYER
 62
     7
 10
581.517208
 20
-316.282984
 30
0.0
 11
582.009755
 21
-330.387682
 31
0.0
  0
ARC
  8
0
  6
BYLAYER
 62
     7
 10
585.007927
 20
-330.282984
 30
0.0
 40
3.000000
 50
182.0
 51
270.0
  0
LINE
  8
0
  6
BYLAYER
 62
     7
 10
592.211967
 20
-330.387682
 30
0.0
 11
592.704514
 21
-316.282984
 31
0.0
  0
ARC
  8
0
  6
BYLAYER
 62
     7
 10
589.213795
 20
-330.282984
 30
0.0
 40
3.000000
 50
270.0
 51
358.0
  0
LINE
  8
0
  6
BYLAYER
 62
     7
 10
607.211967
 20
-330.387682
 30
0.0
 11
607.704514
 21
-316.282984
 31
0.0
  0
ARC
  8
0
  6
BYLAYER
 62
     7
 10
604.213795
 20
-330.282984
 30
0.0
 40
3.000000
 50
270.0
 51
358.0
  0
LINE
  8
0
  6
BYLAYER
 62
     7
 10
622.211967
 20
-330.387682
 30
0.0
 11
622.704514
 21
-316.282984
 31
0.0
  0
ARC
  8
0
  6
BYLAYER
 62
     7
 10
619.213795
 20
-330.282984
 30
0.0
 40
3.000000
 50
270.0
 51
358.0
  0
LINE
  8
0
  6
BYLAYER
 62
     7
 10
611.517208
 20
-316.282984
 30
0.0
 11
612.009755
 21
-330.387682
 31
0.0
  0
ARC
  8
0
  6
BYLAYER
 62
     7
 10
615.007927
 20
-330.282984
 30
0.0
 40
3.000000
 50
182.0
 51
270.0
  0
LINE
  8
0
  6
BYLAYER
 62
     7
 10
596.517208
 20
-316.282984
 30
0.0
 11
597.009755
 21
-330.387682
 31
0.0
  0
ARC
  8
0
  6
BYLAYER
 62
     7
 10
600.007927
 20
-330.282984
 30
0.0
 40
3.000000
 50
182.0
 51
270.0
  0
LINE
  8
0
  6
BYLAYER
 62
     7
 10
615.007927
 20
-333.282984
 30
0.0
 11
619.213795
 21
-333.282984
 31
0.0
  0
LINE
  8
0
  6
BYLAYER
 62
     7
 10
600.007927
 20
-333.282984
 30
0.0
 11
604.213795
 21
-333.282984
 31
0.0
  0
LINE
  8
0
  6
BYLAYER
 62
     7
 10
585.007927
 20
-333.282984
 30
0.0
 11
589.213795
 21
-333.282984
 31
0.0
  0
LINE
  8
0
  6
BYLAYER
 62
     7
 10
596.552129
 20
-317.282984
 30
0.0
 11
607.669593
 21
-317.282984
 31
0.0
  0
LINE
  8
0
  6
BYLAYER
 62
     7
 10
611.552129
 20
-317.282984
 30
0.0
 11
622.669593
 21
-317.282984
 31
0.0
  0
LINE
  8
0
  6
BYLAYER
 62
     7
 10
581.552129
 20
-317.282984
 30
0.0
 11
592.669593
 21
-317.282984
 31
0.0
  0
LINE
  8
0
  6
BYLAYER
 62
     7
 10
628.365199
 20
-317.782984
 30
0.0
 11
628.365199
 21
-339.282984
 31
0.0
  0
ARC
  8
0
  6
BYLAYER
 62
     7
 10
566.610861
 20
-342.272549
 30
0.0
 40
1.500000
 50
94.780192
 51
180.000000
  0
LINE
  8
0
  6
BYLAYER
 62
     7
 10
566.610861
 20
-340.782984
 30
0.0
 11
637.860861
 21
-340.782984
 31
0.0
  0
ARC
  8
0
  6
BYLAYER
 62
     7
 10
637.610861
 20
-342.272549
 30
0.0
 40
1.500000
 50
0.0
 51
85.219808
  0
LINE
  8
0
  6
BYLAYER
 62
     7
 10
639.110861
 20
-349.782984
 30
0.0
 11
639.110861
 21
-342.272549
 31
0.0
  0
ARC
  8
0
  6
BYLAYER
 62
     7
 10
629.865199
 20
-339.282984
 30
0.0
 40
1.5
 50
180.000000
 51
270.000000
  0
LINE
  8
0
  6
BYLAYER
 62
     7
 10
639.110861
 20
-347.782923
 30
0.0
 11
565.110861
 21
-347.782923
 31
0.0
  0
LINE
  8
0
  6
BYLAYER
 62
     7
 10
565.110861
 20
-342.272549
 30
0.0
 11
565.110861
 21
-349.782984
 31
0.0
  0
LINE
  8
0
  6
BYLAYER
 62
     7
 10
565.110861
 20
-349.782984
 30
0.0
 11
639.110861
 21
-349.782984
 31
0.0
  0
ARC
  8
0
  6
BYLAYER
 62
     1
 10
193.110922
 20
-457.770563
 30
0.0
 40
2.0
 50
180.000000
 51
266.999903
  0
LINE
  8
0
  6
BYLAYER
 62
     1
 10
197.110922
 20
-459.982935
 30
0.0
 11
193.006247
 21
-459.767817
 31
0.0
  0
LINE
  8
0
  6
BYLAYER
 62
     1
 10
197.110922
 20
-459.982935
 30
0.0
 11
197.110922
 21
-414.982935
 31
0.0
  0
LINE
  8
0
  6
BYLAYER
 62
     1
 10
183.110922
 20
-442.482935
 30
0.0
 11
183.110922
 21
-414.982935
 31
0.0
  0
LINE
  8
0
  6
BYLAYER
 62
     1
 10
183.110922
 20
-442.482935
 30
0.0
 11
190.533529
 21
-445.944147
 31
0.0
  0
LINE
  8
0
  6
BYLAYER
 62
     1
 10
191.110922
 20
-414.982935
 30
0.0
 11
191.110922
 21
-457.770563
 31
0.0
  0
ARC
  8
0
  6
BYLAYER
 62
     1
 10
190.110922
 20
-446.850458
 30
0.0
 40
0.999998
 50
0.0
 51
65.000643
  0
ARC
  8
0
  6
BYLAYER
 62
     1
 10
193.110922
 20
-372.195307
 30
0.0
 40
2.0
 50
93.000097
 51
180.000000
  0
LINE
  8
0
  6
BYLAYER
 62
     1
 10
197.110922
 20
-369.982935
 30
0.0
 11
193.006247
 21
-370.198053
 31
0.0
  0
LINE
  8
0
  6
BYLAYER
 62
     1
 10
197.110922
 20
-369.982935
 30
0.0
 11
197.110922
 21
-414.982935
 31
0.0
  0
LINE
  8
0
  6
BYLAYER
 62
     1
 10
183.110922
 20
-387.482935
 30
0.0
 11
183.110922
 21
-414.982935
 31
0.0
  0
LINE
  8
0
  6
BYLAYER
 62
     1
 10
183.110922
 20
-387.482935
 30
0.0
 11
190.533529
 21
-384.021723
 31
0.0
  0
LINE
  8
0
  6
BYLAYER
 62
     1
 10
191.110922
 20
-414.982935
 30
0.0
 11
191.110922
 21
-372.195307
 31
0.0
  0
ARC
  8
0
  6
BYLAYER
 62
     1
 10
190.110922
 20
-383.115412
 30
0.0
 40
0.999998
 50
294.999357
 51
360.0
  0
ENDSEC
  0
EOF
