  0
SECTION
  2
HEADER
  9
$EXTMIN
 10
108.778157
 20
498.0
 30
0.0
  9
$EXTMAX
 10
673.064846
 20
0.0
 30
0.0
  0
ENDSEC
  0
SECTION
  2
TABLES
  0
ENDSEC
  0
SECTION
  2
BLOCKS
  0
ENDSEC
  0
SECTION
  2
ENTITIES
  0
LINE
  8
0
  6
BYLAYER
 62
     7
 10
230.232030
 20
-65.795833
 30
0.0
 11
232.007027
 21
-65.795833
 31
0.0
  0
ARC
  8
0
  6
BYLAYER
 62
     7
 10
235.645856
 20
-138.659382
 30
0.0
 40
0.532532
 50
90.0
 51
270.000012
  0
ARC
  8
0
  6
BYLAYER
 62
     7
 10
232.539612
 20
-138.659382
 30
0.0
 40
0.532532
 50
90.0
 51
270.000012
  0
ARC
  8
0
  6
BYLAYER
 62
     7
 10
235.645856
 20
-128.896899
 30
0.0
 40
0.532532
 50
90.0
 51
270.000012
  0
ARC
  8
0
  6
BYLAYER
 62
     7
 10
232.539612
 20
-128.896899
 30
0.0
 40
0.532532
 50
90.0
 51
270.000012
  0
ARC
  8
0
  6
BYLAYER
 62
     7
 10
235.645856
 20
-119.134415
 30
0.0
 40
0.532532
 50
90.0
 51
270.000012
  0
ARC
  8
0
  6
BYLAYER
 62
     7
 10
232.539612
 20
-119.134415
 30
0.0
 40
0.532532
 50
90.0
 51
270.000012
  0
ARC
  8
0
  6
BYLAYER
 62
     7
 10
235.645856
 20
-99.609449
 30
0.0
 40
0.532532
 50
90.0
 51
270.000012
  0
ARC
  8
0
  6
BYLAYER
 62
     7
 10
232.539612
 20
-99.609449
 30
0.0
 40
0.532532
 50
90.0
 51
270.000012
  0
ARC
  8
0
  6
BYLAYER
 62
     7
 10
235.645802
 20
-89.846966
 30
0.0
 40
0.532532
 50
90.0
 51
270.000012
  0
ARC
  8
0
  6
BYLAYER
 62
     7
 10
232.539612
 20
-89.846966
 30
0.0
 40
0.532532
 50
90.0
 51
270.000012
  0
ARC
  8
0
  6
BYLAYER
 62
     7
 10
235.645802
 20
-80.084483
 30
0.0
 40
0.532532
 50
90.0
 51
270.000012
  0
ARC
  8
0
  6
BYLAYER
 62
     7
 10
232.539612
 20
-80.084483
 30
0.0
 40
0.532532
 50
90.0
 51
270.000012
  0
LINE
  8
0
  6
BYLAYER
 62
     7
 10
232.007081
 20
-109.371986
 30
0.0
 11
232.007135
 21
-152.948140
 31
0.0
  0
ARC
  8
0
  6
BYLAYER
 62
     7
 10
235.645856
 20
-109.371932
 30
0.0
 40
0.532532
 50
90.0
 51
270.000012
  0
ARC
  8
0
  6
BYLAYER
 62
     7
 10
232.539612
 20
-109.371932
 30
0.0
 40
0.532532
 50
90.0
 51
270.000012
  0
LINE
  8
0
  6
BYLAYER
 62
     7
 10
232.007081
 20
-109.371986
 30
0.0
 11
232.007027
 21
-51.507021
 31
0.0
  0
LINE
  8
0
  6
BYLAYER
 62
     7
 10
303.006959
 20
-51.507021
 30
0.0
 11
232.007027
 21
-51.507021
 31
0.0
  0
LINE
  8
0
  6
BYLAYER
 62
     7
 10
314.766313
 20
-56.122024
 30
0.0
 11
303.006959
 21
-56.122024
 31
0.0
  0
LINE
  8
0
  6
BYLAYER
 62
     7
 10
303.006959
 20
-57.009522
 30
0.0
 11
314.766313
 21
-57.009522
 31
0.0
  0
LINE
  8
0
  6
BYLAYER
 62
     7
 10
303.006959
 20
-59.672018
 30
0.0
 11
314.766313
 21
-59.672018
 31
0.0
  0
LINE
  8
0
  6
BYLAYER
 62
     7
 10
303.006959
 20
-64.997009
 30
0.0
 11
314.766313
 21
-64.997009
 31
0.0
  0
ARC
  8
0
  6
BYLAYER
 62
     7
 10
250.200799
 20
-63.488250
 30
0.0
 40
10.206232
 50
180.000000
 51
360.000005
  0
ARC
  8
0
  6
BYLAYER
 62
     7
 10
284.813240
 20
-63.488250
 30
0.0
 40
10.206232
 50
180.000000
 51
360.000005
  0
LINE
  8
0
  6
BYLAYER
 62
     7
 10
232.007027
 20
-60.382060
 30
0.0
 11
239.107069
 21
-60.382060
 31
0.0
  0
ARC
  8
0
  6
BYLAYER
 62
     7
 10
239.107069
 20
-61.269558
 30
0.0
 40
0.887498
 50
0.0
 51
89.999992
  0
ARC
  8
0
  6
BYLAYER
 62
     7
 10
261.294530
 20
-61.269504
 30
0.0
 40
0.887498
 50
90.0
 51
180.000003
  0
LINE
  8
0
  6
BYLAYER
 62
     7
 10
261.294530
 20
-60.382006
 30
0.0
 11
273.719509
 21
-60.382006
 31
0.0
  0
ARC
  8
0
  6
BYLAYER
 62
     7
 10
273.719509
 20
-61.269504
 30
0.0
 40
0.887498
 50
0.0
 51
89.999992
  0
LINE
  8
0
  6
BYLAYER
 62
     7
 10
295.906971
 20
-60.382006
 30
0.0
 11
303.006959
 21
-60.382006
 31
0.0
  0
ARC
  8
0
  6
BYLAYER
 62
     7
 10
295.906971
 20
-61.269504
 30
0.0
 40
0.887498
 50
90.0
 51
180.000003
  0
CIRCLE
  8
0
  6
BYLAYER
 62
     7
 10
252.197671
 20
-99.607065
 30
0.0
 40
1.198123
  0
CIRCLE
  8
0
  6
BYLAYER
 62
     7
 10
301.010087
 20
-99.545747
 30
0.0
 40
1.198123
  0
LINE
  8
0
  6
BYLAYER
 62
     7
 10
232.539612
 20
-99.076971
 30
0.0
 11
249.588477
 21
-99.076971
 31
0.0
  0
LINE
  8
0
  6
BYLAYER
 62
     7
 10
232.539612
 20
-100.141981
 30
0.0
 11
249.589452
 21
-100.141981
 31
0.0
  0
LINE
  8
0
  6
BYLAYER
 62
     7
 10
254.806864
 20
-99.076971
 30
0.0
 11
276.603879
 21
-99.076971
 31
0.0
  0
LINE
  8
0
  6
BYLAYER
 62
     7
 10
254.805889
 20
-100.141981
 30
0.0
 11
276.603879
 21
-100.141981
 31
0.0
  0
LINE
  8
0
  6
BYLAYER
 62
     7
 10
298.389193
 20
-99.076917
 30
0.0
 11
276.603879
 21
-99.076971
 31
0.0
  0
LINE
  8
0
  6
BYLAYER
 62
     7
 10
298.415194
 20
-100.141927
 30
0.0
 11
276.603879
 21
-100.141981
 31
0.0
  0
LINE
  8
0
  6
BYLAYER
 62
     7
 10
314.766313
 20
-99.076917
 30
0.0
 11
303.630981
 21
-99.076917
 31
0.0
  0
LINE
  8
0
  6
BYLAYER
 62
     7
 10
314.766313
 20
-100.141927
 30
0.0
 11
303.604980
 21
-100.141927
 31
0.0
  0
LINE
  8
0
  6
BYLAYER
 62
     7
 10
314.766313
 20
-154.634460
 30
0.0
 11
276.603987
 21
-154.634409
 31
0.0
  0
LINE
  8
0
  6
BYLAYER
 62
     7
 10
314.766313
 20
-159.959451
 30
0.0
 11
276.603987
 21
-159.959399
 31
0.0
  0
LINE
  8
0
  6
BYLAYER
 62
     7
 10
314.766313
 20
-162.621946
 30
0.0
 11
276.603987
 21
-162.621895
 31
0.0
  0
LINE
  8
0
  6
BYLAYER
 62
     7
 10
232.007243
 20
-143.096983
 30
0.0
 11
234.746170
 21
-153.318870
 31
0.0
  0
ARC
  8
0
  6
BYLAYER
 62
     7
 10
236.460661
 20
-152.859466
 30
0.0
 40
1.774973
 50
195.000043
 51
270.000055
  0
LINE
  8
0
  6
BYLAYER
 62
     7
 10
232.007243
 20
-149.309472
 30
0.0
 11
233.448832
 21
-148.477171
 31
0.0
  0
LINE
  8
0
  6
BYLAYER
 62
     7
 10
232.007243
 20
-149.309472
 30
0.0
 11
234.508370
 21
-158.643860
 31
0.0
  0
ARC
  8
0
  6
BYLAYER
 62
     7
 10
236.222861
 20
-158.184457
 30
0.0
 40
1.774973
 50
195.000043
 51
270.000055
  0
ARC
  8
0
  6
BYLAYER
 62
     7
 10
236.222915
 20
-160.846952
 30
0.0
 40
1.775025
 50
195.000070
 51
270.000055
  0
LINE
  8
0
  6
BYLAYER
 62
     7
 10
232.007243
 20
-151.971967
 30
0.0
 11
234.508370
 21
-161.306356
 31
0.0
  0
LINE
  8
0
  6
BYLAYER
 62
     7
 10
236.460661
 20
-154.634463
 30
0.0
 11
276.603987
 21
-154.634409
 31
0.0
  0
LINE
  8
0
  6
BYLAYER
 62
     7
 10
236.222915
 20
-159.959454
 30
0.0
 11
276.603987
 21
-159.959399
 31
0.0
  0
LINE
  8
0
  6
BYLAYER
 62
     7
 10
236.222915
 20
-162.621949
 30
0.0
 11
276.603987
 21
-162.621895
 31
0.0
  0
LINE
  8
0
  6
BYLAYER
 62
     7
 10
232.007135
 20
-152.948140
 30
0.0
 11
232.233722
 21
-152.817323
 31
0.0
  0
ARC
  8
0
  6
BYLAYER
 62
     7
 10
252.197671
 20
-99.607065
 30
0.0
 40
2.662497
 50
11.484133
 51
168.515862
  0
ARC
  8
0
  6
BYLAYER
 62
     7
 10
301.010087
 20
-99.545747
 30
0.0
 40
2.662487
 50
10.140737
 51
169.859264
  0
ARC
  8
0
  6
BYLAYER
 62
     7
 10
301.010087
 20
-99.545747
 30
0.0
 40
2.662499
 50
192.939225
 51
347.060790
  0
ARC
  8
0
  6
BYLAYER
 62
     7
 10
252.197671
 20
-99.607065
 30
0.0
 40
2.662463
 50
191.590672
 51
348.409452
  0
LINE
  8
0
  6
BYLAYER
 62
     7
 10
232.539612
 20
-80.617069
 30
0.0
 11
314.766313
 21
-80.616968
 31
0.0
  0
LINE
  8
0
  6
BYLAYER
 62
     7
 10
232.539612
 20
-89.314488
 30
0.0
 11
314.766313
 21
-89.314438
 31
0.0
  0
LINE
  8
0
  6
BYLAYER
 62
     7
 10
232.539612
 20
-90.379552
 30
0.0
 11
314.766313
 21
-90.379451
 31
0.0
  0
LINE
  8
0
  6
BYLAYER
 62
     7
 10
239.994567
 20
-57.275815
 30
0.0
 11
239.994567
 21
-63.488250
 31
0.0
  0
LINE
  8
0
  6
BYLAYER
 62
     7
 10
238.219570
 20
-55.500818
 30
0.0
 11
232.007027
 21
-55.500818
 31
0.0
  0
ARC
  8
0
  6
BYLAYER
 62
     7
 10
238.219570
 20
-57.275815
 30
0.0
 40
1.774997
 50
0.0
 51
90.000003
  0
LINE
  8
0
  6
BYLAYER
 62
     7
 10
260.407032
 20
-57.275815
 30
0.0
 11
260.407032
 21
-63.488250
 31
0.0
  0
ARC
  8
0
  6
BYLAYER
 62
     7
 10
262.182029
 20
-57.275815
 30
0.0
 40
1.774997
 50
90.0
 51
180.000003
  0
LINE
  8
0
  6
BYLAYER
 62
     7
 10
274.607007
 20
-57.275815
 30
0.0
 11
274.607007
 21
-63.488250
 31
0.0
  0
LINE
  8
0
  6
BYLAYER
 62
     7
 10
272.832011
 20
-55.500818
 30
0.0
 11
262.182029
 21
-55.500818
 31
0.0
  0
ARC
  8
0
  6
BYLAYER
 62
     7
 10
272.832011
 20
-57.275815
 30
0.0
 40
1.774997
 50
0.0
 51
90.000003
  0
LINE
  8
0
  6
BYLAYER
 62
     7
 10
295.019472
 20
-57.275761
 30
0.0
 11
295.019472
 21
-63.488250
 31
0.0
  0
LINE
  8
0
  6
BYLAYER
 62
     7
 10
303.006959
 20
-55.500764
 30
0.0
 11
296.794469
 21
-55.500764
 31
0.0
  0
ARC
  8
0
  6
BYLAYER
 62
     7
 10
296.794469
 20
-57.275761
 30
0.0
 40
1.774997
 50
90.0
 51
180.000003
  0
LINE
  8
0
  6
BYLAYER
 62
     7
 10
314.766313
 20
-79.552005
 30
0.0
 11
232.539612
 21
-79.552005
 31
0.0
  0
LINE
  8
0
  6
BYLAYER
 62
     7
 10
303.006959
 20
-79.552005
 30
0.0
 11
303.006959
 21
-51.507021
 31
0.0
  0
LINE
  8
0
  6
BYLAYER
 62
     7
 10
232.539612
 20
-108.839454
 30
0.0
 11
314.766313
 21
-108.839454
 31
0.0
  0
LINE
  8
0
  6
BYLAYER
 62
     7
 10
232.539612
 20
-109.904464
 30
0.0
 11
314.766313
 21
-109.904464
 31
0.0
  0
LINE
  8
0
  6
BYLAYER
 62
     7
 10
232.539612
 20
-119.666947
 30
0.0
 11
314.766313
 21
-119.666894
 31
0.0
  0
LINE
  8
0
  6
BYLAYER
 62
     7
 10
232.539612
 20
-128.364421
 30
0.0
 11
314.766313
 21
-128.364370
 31
0.0
  0
LINE
  8
0
  6
BYLAYER
 62
     7
 10
232.539612
 20
-129.429485
 30
0.0
 11
314.766313
 21
-129.429384
 31
0.0
  0
LINE
  8
0
  6
BYLAYER
 62
     7
 10
232.539612
 20
-138.126958
 30
0.0
 11
314.766313
 21
-138.126857
 31
0.0
  0
LINE
  8
0
  6
BYLAYER
 62
     7
 10
232.539612
 20
-139.191968
 30
0.0
 11
314.766313
 21
-139.191867
 31
0.0
  0
LINE
  8
0
  6
BYLAYER
 62
     7
 10
232.539612
 20
-118.601938
 30
0.0
 11
314.766313
 21
-118.601884
 31
0.0
  0
LINE
  8
0
  6
BYLAYER
 62
     7
 10
313.656940
 20
-80.616960
 30
0.0
 11
313.656940
 21
-89.314434
 31
0.0
  0
LINE
  8
0
  6
BYLAYER
 62
     7
 10
239.550872
 20
-80.617069
 30
0.0
 11
239.550872
 21
-89.314488
 31
0.0
  0
LINE
  8
0
  6
BYLAYER
 62
     7
 10
313.656940
 20
-90.379444
 30
0.0
 11
313.656940
 21
-99.076917
 31
0.0
  0
LINE
  8
0
  6
BYLAYER
 62
     7
 10
239.550872
 20
-90.379552
 30
0.0
 11
239.550872
 21
-99.076917
 31
0.0
  0
LINE
  8
0
  6
BYLAYER
 62
     7
 10
313.656940
 20
-100.141981
 30
0.0
 11
313.656940
 21
-108.839454
 31
0.0
  0
LINE
  8
0
  6
BYLAYER
 62
     7
 10
239.550872
 20
-100.141981
 30
0.0
 11
239.550872
 21
-108.839454
 31
0.0
  0
LINE
  8
0
  6
BYLAYER
 62
     7
 10
239.550872
 20
-109.904464
 30
0.0
 11
239.550872
 21
-118.601938
 31
0.0
  0
LINE
  8
0
  6
BYLAYER
 62
     7
 10
313.656940
 20
-109.904464
 30
0.0
 11
313.656940
 21
-118.601884
 31
0.0
  0
LINE
  8
0
  6
BYLAYER
 62
     7
 10
239.550872
 20
-119.666947
 30
0.0
 11
239.550872
 21
-128.364421
 31
0.0
  0
LINE
  8
0
  6
BYLAYER
 62
     7
 10
313.656940
 20
-119.666893
 30
0.0
 11
313.656940
 21
-128.364367
 31
0.0
  0
LINE
  8
0
  6
BYLAYER
 62
     7
 10
239.550872
 20
-129.429431
 30
0.0
 11
239.550872
 21
-138.126958
 31
0.0
  0
LINE
  8
0
  6
BYLAYER
 62
     7
 10
313.656940
 20
-129.429376
 30
0.0
 11
313.656940
 21
-138.126850
 31
0.0
  0
LINE
  8
0
  6
BYLAYER
 62
     7
 10
314.766313
 20
-79.111874
 30
0.0
 11
313.694316
 21
-79.541279
 31
0.0
  0
LINE
  8
0
  6
BYLAYER
 62
     7
 10
239.542042
 20
-79.437763
 30
0.0
 11
231.976746
 21
-77.293608
 31
0.0
  0
LINE
  8
0
  6
BYLAYER
 62
     7
 10
239.550872
 20
-139.191914
 30
0.0
 11
239.550872
 21
-140.966911
 31
0.0
  0
LINE
  8
0
  6
BYLAYER
 62
     7
 10
313.656940
 20
-139.191860
 30
0.0
 11
313.656940
 21
-140.966857
 31
0.0
  0
LINE
  8
0
  6
BYLAYER
 62
     7
 10
313.656940
 20
-140.966857
 30
0.0
 11
239.550872
 21
-140.966911
 31
0.0
  0
LINE
  8
0
  6
BYLAYER
 62
     7
 10
313.656940
 20
-140.966857
 30
0.0
 11
314.766313
 21
-141.280110
 31
0.0
  0
LINE
  8
0
  6
BYLAYER
 62
     7
 10
239.550872
 20
-140.966911
 30
0.0
 11
232.007243
 21
-143.096983
 31
0.0
  0
LINE
  8
0
  6
BYLAYER
 62
     7
 10
230.232030
 20
-152.948194
 30
0.0
 11
232.007027
 21
-152.948194
 31
0.0
  0
LINE
  8
0
  6
BYLAYER
 62
     7
 10
314.766313
 20
-109.372013
 30
0.0
 11
314.766313
 21
-55.589606
 31
0.0
  0
LINE
  8
0
  6
BYLAYER
 62
     7
 10
314.766313
 20
-55.589606
 30
0.0
 11
320.978803
 21
-55.589606
 31
0.0
  0
LINE
  8
0
  6
BYLAYER
 62
     7
 10
314.766313
 20
-163.154421
 30
0.0
 11
314.766313
 21
-109.372013
 31
0.0
  0
LINE
  8
0
  6
BYLAYER
 62
     7
 10
206.269625
 20
-169.372014
 30
0.0
 11
206.269625
 21
-109.372014
 31
0.0
  0
LINE
  8
0
  6
BYLAYER
 62
     7
 10
206.269625
 20
-109.372014
 30
0.0
 11
206.269625
 21
-49.372014
 31
0.0
  0
LINE
  8
0
  6
BYLAYER
 62
     7
 10
214.257111
 20
-109.372014
 30
0.0
 11
214.257111
 21
-169.372014
 31
0.0
  0
LINE
  8
0
  6
BYLAYER
 62
     7
 10
216.001124
 20
-65.636172
 30
0.0
 11
230.232084
 21
-65.884589
 31
0.0
  0
LINE
  8
0
  6
BYLAYER
 62
     7
 10
214.257111
 20
-49.372014
 30
0.0
 11
214.257111
 21
-109.372014
 31
0.0
  0
ARC
  8
0
  6
BYLAYER
 62
     7
 10
216.032108
 20
-63.861445
 30
0.0
 40
1.774997
 50
180.000000
 51
268.999783
  0
LINE
  8
0
  6
BYLAYER
 62
     7
 10
228.457087
 20
-152.890424
 30
0.0
 11
228.457087
 21
-161.734424
 31
0.0
  0
LINE
  8
0
  6
BYLAYER
 62
     7
 10
230.232084
 20
-152.859439
 30
0.0
 11
228.457087
 21
-152.890424
 31
0.0
  0
LINE
  8
0
  6
BYLAYER
 62
     7
 10
228.457087
 20
-161.734424
 30
0.0
 11
214.257111
 21
-161.982280
 31
0.0
  0
LINE
  8
0
  6
BYLAYER
 62
     7
 10
230.232084
 20
-109.372014
 30
0.0
 11
230.232084
 21
-152.859439
 31
0.0
  0
LINE
  8
0
  6
BYLAYER
 62
     7
 10
230.232084
 20
-65.884589
 30
0.0
 11
230.232084
 21
-109.372014
 31
0.0
  0
LINE
  8
0
  6
BYLAYER
 62
     7
 10
232.007027
 20
-51.507021
 30
0.0
 11
303.006905
 21
-51.507021
 31
0.0
  0
LINE
  8
0
  6
BYLAYER
 62
     7
 10
303.006905
 20
-49.732024
 30
0.0
 11
232.007027
 21
-49.732024
 31
0.0
  0
LINE
  8
0
  6
BYLAYER
 62
     7
 10
364.082710
 20
-55.589606
 30
0.0
 11
373.269625
 21
-64.776521
 31
0.0
  0
LINE
  8
0
  6
BYLAYER
 62
     7
 10
320.978803
 20
-55.589606
 30
0.0
 11
364.082710
 21
-55.589606
 31
0.0
  0
LINE
  8
0
  6
BYLAYER
 62
     7
 10
373.269625
 20
-64.776521
 30
0.0
 11
373.269625
 21
-109.372013
 31
0.0
  0
LINE
  8
0
  6
BYLAYER
 62
     7
 10
373.269625
 20
-153.967505
 30
0.0
 11
364.082710
 21
-163.154421
 31
0.0
  0
LINE
  8
0
  6
BYLAYER
 62
     7
 10
364.082710
 20
-163.154421
 30
0.0
 11
314.766313
 21
-163.154421
 31
0.0
  0
LINE
  8
0
  6
BYLAYER
 62
     7
 10
373.269625
 20
-109.372013
 30
0.0
 11
373.269625
 21
-153.967505
 31
0.0
  0
LINE
  8
0
  6
BYLAYER
 62
     7
 10
364.082710
 20
-55.589606
 30
0.0
 11
364.082710
 21
-163.154421
 31
0.0
  0
LINE
  8
0
  6
BYLAYER
 62
     7
 10
303.006905
 20
-51.507021
 30
0.0
 11
303.006905
 21
-2.372014
 31
0.0
  0
LINE
  8
0
  6
BYLAYER
 62
     7
 10
300.006905
 20
0.627986
 30
0.0
 11
235.007027
 21
0.627986
 31
0.0
  0
ARC
  8
0
  6
BYLAYER
 62
     7
 10
300.006905
 20
-2.372014
 30
0.0
 40
3.0
 50
0.0
 51
90.0
  0
ARC
  8
0
  6
BYLAYER
 62
     7
 10
235.007027
 20
-2.372014
 30
0.0
 40
3.0
 50
90.0
 51
180.0
  0
LINE
  8
0
  6
BYLAYER
 62
     7
 10
232.007027
 20
-2.372014
 30
0.0
 11
232.007027
 21
-51.507021
 31
0.0
  0
LINE
  8
0
  6
BYLAYER
 62
     7
 10
206.269625
 20
-49.372014
 30
0.0
 11
214.257111
 21
-49.372014
 31
0.0
  0
LINE
  8
0
  6
BYLAYER
 62
     7
 10
206.269625
 20
-169.372014
 30
0.0
 11
214.257111
 21
-169.372014
 31
0.0
  0
LINE
  8
0
  6
BYLAYER
 62
     7
 10
232.007081
 20
-394.865792
 30
0.0
 11
232.007081
 21
-457.878183
 31
0.0
  0
ARC
  8
0
  6
BYLAYER
 62
     7
 10
233.338328
 20
-457.878183
 30
0.0
 40
1.331248
 50
180.000000
 51
270.000000
  0
ARC
  8
0
  6
BYLAYER
 62
     7
 10
233.338328
 20
-394.865792
 30
0.0
 40
1.331248
 50
90.0
 51
180.0
  0
LINE
  8
0
  6
BYLAYER
 62
     7
 10
301.675711
 20
-393.534544
 30
0.0
 11
233.338328
 21
-393.534544
 31
0.0
  0
ARC
  8
0
  6
BYLAYER
 62
     7
 10
301.675711
 20
-394.865792
 30
0.0
 40
1.331248
 50
0.0
 51
90.0
  0
LINE
  8
0
  6
BYLAYER
 62
     7
 10
303.006959
 20
-457.878183
 30
0.0
 11
303.006959
 21
-394.865792
 31
0.0
  0
LINE
  8
0
  6
BYLAYER
 62
     7
 10
233.338328
 20
-459.209431
 30
0.0
 11
301.675711
 21
-459.209431
 31
0.0
  0
ARC
  8
0
  6
BYLAYER
 62
     7
 10
301.675711
 20
-457.878183
 30
0.0
 40
1.331248
 50
270.0
 51
360.0
  0
LINE
  8
0
  6
BYLAYER
 62
     7
 10
232.007081
 20
-426.371987
 30
0.0
 11
232.007135
 21
-469.948141
 31
0.0
  0
LINE
  8
0
  6
BYLAYER
 62
     7
 10
314.766313
 20
-471.634461
 30
0.0
 11
276.603987
 21
-471.634410
 31
0.0
  0
LINE
  8
0
  6
BYLAYER
 62
     7
 10
314.766313
 20
-476.959452
 30
0.0
 11
276.603987
 21
-476.959401
 31
0.0
  0
LINE
  8
0
  6
BYLAYER
 62
     7
 10
314.766313
 20
-479.621947
 30
0.0
 11
276.603987
 21
-479.621896
 31
0.0
  0
LINE
  8
0
  6
BYLAYER
 62
     7
 10
232.007243
 20
-460.096984
 30
0.0
 11
234.746170
 21
-470.318871
 31
0.0
  0
ARC
  8
0
  6
BYLAYER
 62
     7
 10
236.460661
 20
-469.859467
 30
0.0
 40
1.774973
 50
195.000043
 51
270.000055
  0
LINE
  8
0
  6
BYLAYER
 62
     7
 10
232.007243
 20
-466.309473
 30
0.0
 11
233.448832
 21
-465.477172
 31
0.0
  0
LINE
  8
0
  6
BYLAYER
 62
     7
 10
232.007243
 20
-466.309473
 30
0.0
 11
234.508370
 21
-475.643862
 31
0.0
  0
ARC
  8
0
  6
BYLAYER
 62
     7
 10
236.222861
 20
-475.184458
 30
0.0
 40
1.774973
 50
195.000043
 51
270.000055
  0
ARC
  8
0
  6
BYLAYER
 62
     7
 10
236.222915
 20
-477.846953
 30
0.0
 40
1.775025
 50
195.000070
 51
270.000055
  0
LINE
  8
0
  6
BYLAYER
 62
     7
 10
232.007243
 20
-468.971968
 30
0.0
 11
234.508370
 21
-478.306357
 31
0.0
  0
LINE
  8
0
  6
BYLAYER
 62
     7
 10
236.460661
 20
-471.634464
 30
0.0
 11
276.603987
 21
-471.634410
 31
0.0
  0
LINE
  8
0
  6
BYLAYER
 62
     7
 10
236.222915
 20
-476.959455
 30
0.0
 11
276.603987
 21
-476.959401
 31
0.0
  0
LINE
  8
0
  6
BYLAYER
 62
     7
 10
236.222915
 20
-479.621950
 30
0.0
 11
276.603987
 21
-479.621896
 31
0.0
  0
LINE
  8
0
  6
BYLAYER
 62
     7
 10
232.007135
 20
-469.948141
 30
0.0
 11
232.233722
 21
-469.817324
 31
0.0
  0
LINE
  8
0
  6
BYLAYER
 62
     7
 10
303.006959
 20
-426.904465
 30
0.0
 11
314.766313
 21
-426.904465
 31
0.0
  0
LINE
  8
0
  6
BYLAYER
 62
     7
 10
303.006959
 20
-436.666903
 30
0.0
 11
314.766313
 21
-436.666895
 31
0.0
  0
LINE
  8
0
  6
BYLAYER
 62
     7
 10
303.006959
 20
-445.364379
 30
0.0
 11
314.766313
 21
-445.364371
 31
0.0
  0
LINE
  8
0
  6
BYLAYER
 62
     7
 10
303.006959
 20
-446.429399
 30
0.0
 11
314.766313
 21
-446.429385
 31
0.0
  0
LINE
  8
0
  6
BYLAYER
 62
     7
 10
303.006959
 20
-455.126873
 30
0.0
 11
314.766313
 21
-455.126858
 31
0.0
  0
LINE
  8
0
  6
BYLAYER
 62
     7
 10
303.006959
 20
-456.191882
 30
0.0
 11
314.766313
 21
-456.191868
 31
0.0
  0
LINE
  8
0
  6
BYLAYER
 62
     7
 10
303.006959
 20
-435.601893
 30
0.0
 11
314.766313
 21
-435.601885
 31
0.0
  0
LINE
  8
0
  6
BYLAYER
 62
     7
 10
313.656940
 20
-426.904465
 30
0.0
 11
313.656940
 21
-435.601885
 31
0.0
  0
LINE
  8
0
  6
BYLAYER
 62
     7
 10
313.656940
 20
-436.666894
 30
0.0
 11
313.656940
 21
-445.364368
 31
0.0
  0
LINE
  8
0
  6
BYLAYER
 62
     7
 10
313.656940
 20
-446.429378
 30
0.0
 11
313.656940
 21
-455.126851
 31
0.0
  0
LINE
  8
0
  6
BYLAYER
 62
     7
 10
313.656940
 20
-456.191861
 30
0.0
 11
313.656940
 21
-457.966858
 31
0.0
  0
LINE
  8
0
  6
BYLAYER
 62
     7
 10
313.656940
 20
-457.966858
 30
0.0
 11
303.006959
 21
-457.966866
 31
0.0
  0
LINE
  8
0
  6
BYLAYER
 62
     7
 10
313.656940
 20
-457.966858
 30
0.0
 11
314.766313
 21
-458.280112
 31
0.0
  0
LINE
  8
0
  6
BYLAYER
 62
     7
 10
235.150502
 20
-459.209431
 30
0.0
 11
232.007243
 21
-460.096984
 31
0.0
  0
LINE
  8
0
  6
BYLAYER
 62
     7
 10
230.232030
 20
-469.948195
 30
0.0
 11
232.007027
 21
-469.948195
 31
0.0
  0
LINE
  8
0
  6
BYLAYER
 62
     7
 10
314.766313
 20
-480.154422
 30
0.0
 11
314.766313
 21
-426.372015
 31
0.0
  0
LINE
  8
0
  6
BYLAYER
 62
     7
 10
232.007081
 20
-426.372042
 30
0.0
 11
232.007135
 21
-382.795888
 31
0.0
  0
LINE
  8
0
  6
BYLAYER
 62
     7
 10
314.766313
 20
-381.109568
 30
0.0
 11
276.603987
 21
-381.109619
 31
0.0
  0
LINE
  8
0
  6
BYLAYER
 62
     7
 10
314.766313
 20
-375.784577
 30
0.0
 11
276.603987
 21
-375.784629
 31
0.0
  0
LINE
  8
0
  6
BYLAYER
 62
     7
 10
314.766313
 20
-373.122082
 30
0.0
 11
276.603987
 21
-373.122133
 31
0.0
  0
LINE
  8
0
  6
BYLAYER
 62
     7
 10
232.007243
 20
-392.647045
 30
0.0
 11
234.746170
 21
-382.425158
 31
0.0
  0
ARC
  8
0
  6
BYLAYER
 62
     7
 10
236.460661
 20
-382.884562
 30
0.0
 40
1.774973
 50
89.999945
 51
164.999957
  0
LINE
  8
0
  6
BYLAYER
 62
     7
 10
232.007243
 20
-386.434556
 30
0.0
 11
233.448832
 21
-387.266857
 31
0.0
  0
LINE
  8
0
  6
BYLAYER
 62
     7
 10
232.007243
 20
-386.434556
 30
0.0
 11
234.508370
 21
-377.100168
 31
0.0
  0
ARC
  8
0
  6
BYLAYER
 62
     7
 10
236.222861
 20
-377.559571
 30
0.0
 40
1.774973
 50
89.999945
 51
164.999957
  0
ARC
  8
0
  6
BYLAYER
 62
     7
 10
236.222915
 20
-374.897076
 30
0.0
 40
1.775025
 50
89.999945
 51
164.999930
  0
LINE
  8
0
  6
BYLAYER
 62
     7
 10
232.007243
 20
-383.772061
 30
0.0
 11
234.508370
 21
-374.437672
 31
0.0
  0
LINE
  8
0
  6
BYLAYER
 62
     7
 10
236.460661
 20
-381.109565
 30
0.0
 11
276.603987
 21
-381.109619
 31
0.0
  0
LINE
  8
0
  6
BYLAYER
 62
     7
 10
236.222915
 20
-375.784574
 30
0.0
 11
276.603987
 21
-375.784629
 31
0.0
  0
LINE
  8
0
  6
BYLAYER
 62
     7
 10
236.222915
 20
-373.122079
 30
0.0
 11
276.603987
 21
-373.122133
 31
0.0
  0
LINE
  8
0
  6
BYLAYER
 62
     7
 10
232.007135
 20
-382.795888
 30
0.0
 11
232.233722
 21
-382.926705
 31
0.0
  0
LINE
  8
0
  6
BYLAYER
 62
     7
 10
303.006959
 20
-425.839564
 30
0.0
 11
314.766313
 21
-425.839564
 31
0.0
  0
LINE
  8
0
  6
BYLAYER
 62
     7
 10
303.006959
 20
-416.077126
 30
0.0
 11
314.766313
 21
-416.077134
 31
0.0
  0
LINE
  8
0
  6
BYLAYER
 62
     7
 10
303.006959
 20
-407.379650
 30
0.0
 11
314.766313
 21
-407.379658
 31
0.0
  0
LINE
  8
0
  6
BYLAYER
 62
     7
 10
303.006959
 20
-406.314630
 30
0.0
 11
314.766313
 21
-406.314644
 31
0.0
  0
LINE
  8
0
  6
BYLAYER
 62
     7
 10
303.006959
 20
-397.617156
 30
0.0
 11
314.766313
 21
-397.617171
 31
0.0
  0
LINE
  8
0
  6
BYLAYER
 62
     7
 10
303.006959
 20
-396.552147
 30
0.0
 11
314.766313
 21
-396.552161
 31
0.0
  0
LINE
  8
0
  6
BYLAYER
 62
     7
 10
303.006959
 20
-417.142136
 30
0.0
 11
314.766313
 21
-417.142144
 31
0.0
  0
LINE
  8
0
  6
BYLAYER
 62
     7
 10
313.656940
 20
-425.839564
 30
0.0
 11
313.656940
 21
-417.142144
 31
0.0
  0
LINE
  8
0
  6
BYLAYER
 62
     7
 10
313.656940
 20
-416.077135
 30
0.0
 11
313.656940
 21
-407.379661
 31
0.0
  0
LINE
  8
0
  6
BYLAYER
 62
     7
 10
313.656940
 20
-406.314652
 30
0.0
 11
313.656940
 21
-397.617178
 31
0.0
  0
LINE
  8
0
  6
BYLAYER
 62
     7
 10
313.656940
 20
-396.552168
 30
0.0
 11
313.656940
 21
-394.777171
 31
0.0
  0
LINE
  8
0
  6
BYLAYER
 62
     7
 10
313.656940
 20
-394.777171
 30
0.0
 11
303.006959
 21
-394.777164
 31
0.0
  0
LINE
  8
0
  6
BYLAYER
 62
     7
 10
313.656940
 20
-394.777171
 30
0.0
 11
314.766313
 21
-394.463918
 31
0.0
  0
LINE
  8
0
  6
BYLAYER
 62
     7
 10
235.150502
 20
-393.534598
 30
0.0
 11
232.007243
 21
-392.647045
 31
0.0
  0
LINE
  8
0
  6
BYLAYER
 62
     7
 10
230.232030
 20
-382.795834
 30
0.0
 11
232.007027
 21
-382.795834
 31
0.0
  0
LINE
  8
0
  6
BYLAYER
 62
     7
 10
314.766313
 20
-372.589607
 30
0.0
 11
314.766313
 21
-426.372015
 31
0.0
  0
LINE
  8
0
  6
BYLAYER
 62
     7
 10
206.269625
 20
-426.372014
 30
0.0
 11
206.269625
 21
-366.372014
 31
0.0
  0
LINE
  8
0
  6
BYLAYER
 62
     7
 10
216.001124
 20
-382.636172
 30
0.0
 11
230.232084
 21
-382.884589
 31
0.0
  0
LINE
  8
0
  6
BYLAYER
 62
     7
 10
214.257111
 20
-366.372014
 30
0.0
 11
214.257111
 21
-426.372014
 31
0.0
  0
ARC
  8
0
  6
BYLAYER
 62
     7
 10
216.032108
 20
-380.861445
 30
0.0
 40
1.774997
 50
180.000000
 51
268.999783
  0
LINE
  8
0
  6
BYLAYER
 62
     7
 10
230.232084
 20
-382.884589
 30
0.0
 11
230.232084
 21
-426.372014
 31
0.0
  0
LINE
  8
0
  6
BYLAYER
 62
     7
 10
206.269625
 20
-426.372015
 30
0.0
 11
206.269625
 21
-486.372014
 31
0.0
  0
LINE
  8
0
  6
BYLAYER
 62
     7
 10
216.001124
 20
-470.107857
 30
0.0
 11
230.232084
 21
-469.859440
 31
0.0
  0
LINE
  8
0
  6
BYLAYER
 62
     7
 10
214.257111
 20
-486.372014
 30
0.0
 11
214.257111
 21
-426.372015
 31
0.0
  0
ARC
  8
0
  6
BYLAYER
 62
     7
 10
216.032108
 20
-471.882584
 30
0.0
 40
1.774997
 50
91.000217
 51
180.000000
  0
LINE
  8
0
  6
BYLAYER
 62
     7
 10
230.232084
 20
-469.859440
 30
0.0
 11
230.232084
 21
-426.372015
 31
0.0
  0
LINE
  8
0
  6
BYLAYER
 62
     7
 10
232.007081
 20
-394.865792
 30
0.0
 11
232.007081
 21
-457.878183
 31
0.0
  0
ARC
  8
0
  6
BYLAYER
 62
     7
 10
233.338328
 20
-457.878183
 30
0.0
 40
1.331248
 50
180.000000
 51
270.000000
  0
ARC
  8
0
  6
BYLAYER
 62
     7
 10
233.338328
 20
-394.865792
 30
0.0
 40
1.331248
 50
90.0
 51
180.0
  0
LINE
  8
0
  6
BYLAYER
 62
     7
 10
301.675711
 20
-393.534544
 30
0.0
 11
233.338328
 21
-393.534544
 31
0.0
  0
ARC
  8
0
  6
BYLAYER
 62
     7
 10
301.675711
 20
-394.865792
 30
0.0
 40
1.331248
 50
0.0
 51
90.0
  0
LINE
  8
0
  6
BYLAYER
 62
     7
 10
303.006959
 20
-457.878183
 30
0.0
 11
303.006959
 21
-394.865792
 31
0.0
  0
LINE
  8
0
  6
BYLAYER
 62
     7
 10
233.338328
 20
-459.209431
 30
0.0
 11
301.675711
 21
-459.209431
 31
0.0
  0
ARC
  8
0
  6
BYLAYER
 62
     7
 10
301.675711
 20
-457.878183
 30
0.0
 40
1.331248
 50
270.0
 51
360.0
  0
LINE
  8
0
  6
BYLAYER
 62
     7
 10
373.269625
 20
-470.967507
 30
0.0
 11
364.082710
 21
-480.154422
 31
0.0
  0
LINE
  8
0
  6
BYLAYER
 62
     7
 10
364.082710
 20
-480.154422
 30
0.0
 11
314.766313
 21
-480.154422
 31
0.0
  0
LINE
  8
0
  6
BYLAYER
 62
     7
 10
373.269625
 20
-426.372015
 30
0.0
 11
373.269625
 21
-470.967507
 31
0.0
  0
LINE
  8
0
  6
BYLAYER
 62
     7
 10
373.269625
 20
-381.776523
 30
0.0
 11
364.082710
 21
-372.589607
 31
0.0
  0
LINE
  8
0
  6
BYLAYER
 62
     7
 10
364.082710
 20
-372.589607
 30
0.0
 11
314.766313
 21
-372.589607
 31
0.0
  0
LINE
  8
0
  6
BYLAYER
 62
     7
 10
373.269625
 20
-426.372015
 30
0.0
 11
373.269625
 21
-381.776523
 31
0.0
  0
LINE
  8
0
  6
BYLAYER
 62
     7
 10
364.082710
 20
-480.154422
 30
0.0
 11
364.082710
 21
-372.589607
 31
0.0
  0
LINE
  8
0
  6
BYLAYER
 62
     7
 10
206.269625
 20
-486.372014
 30
0.0
 11
214.257111
 21
-486.372014
 31
0.0
  0
LINE
  8
0
  6
BYLAYER
 62
     7
 10
206.269625
 20
-366.372014
 30
0.0
 11
214.257111
 21
-366.372014
 31
0.0
  0
LINE
  8
0
  6
BYLAYER
 62
     1
 10
132.269610
 20
-83.372045
 30
0.0
 11
131.269610
 21
-82.372045
 31
0.0
  0
LINE
  8
0
  6
BYLAYER
 62
     1
 10
111.269614
 20
-102.372045
 30
0.0
 11
112.269614
 21
-103.372045
 31
0.0
  0
LINE
  8
0
  6
BYLAYER
 62
     1
 10
111.269621
 20
-159.372045
 30
0.0
 11
112.269621
 21
-158.372045
 31
0.0
  0
LINE
  8
0
  6
BYLAYER
 62
     1
 10
131.269625
 20
-179.372045
 30
0.0
 11
132.269625
 21
-178.372045
 31
0.0
  0
LINE
  8
0
  6
BYLAYER
 62
     1
 10
170.269625
 20
-178.372029
 30
0.0
 11
171.269625
 21
-179.372029
 31
0.0
  0
LINE
  8
0
  6
BYLAYER
 62
     1
 10
170.269610
 20
-83.372045
 30
0.0
 11
171.269610
 21
-82.372045
 31
0.0
  0
LINE
  8
0
  6
BYLAYER
 62
     1
 10
190.269625
 20
-103.372045
 30
0.0
 11
191.269625
 21
-102.372045
 31
0.0
  0
LINE
  8
0
  6
BYLAYER
 62
     1
 10
170.269625
 20
-178.372029
 30
0.0
 11
132.269625
 21
-178.372045
 31
0.0
  0
LINE
  8
0
  6
BYLAYER
 62
     1
 10
116.769610
 20
-92.122045
 30
0.0
 11
111.269614
 21
-92.122045
 31
0.0
  0
LINE
  8
0
  6
BYLAYER
 62
     1
 10
116.769610
 20
-98.372045
 30
0.0
 11
111.269614
 21
-98.372045
 31
0.0
  0
LINE
  8
0
  6
BYLAYER
 62
     1
 10
111.269621
 20
-163.122045
 30
0.0
 11
116.769625
 21
-163.122045
 31
0.0
  0
LINE
  8
0
  6
BYLAYER
 62
     1
 10
111.269621
 20
-169.622045
 30
0.0
 11
116.769625
 21
-169.622045
 31
0.0
  0
LINE
  8
0
  6
BYLAYER
 62
     1
 10
185.769625
 20
-169.622029
 30
0.0
 11
191.269625
 21
-169.622029
 31
0.0
  0
LINE
  8
0
  6
BYLAYER
 62
     1
 10
185.769625
 20
-163.122029
 30
0.0
 11
191.269625
 21
-163.122029
 31
0.0
  0
LINE
  8
0
  6
BYLAYER
 62
     1
 10
175.019625
 20
-179.372029
 30
0.0
 11
175.019625
 21
-173.872029
 31
0.0
  0
LINE
  8
0
  6
BYLAYER
 62
     1
 10
181.519625
 20
-179.372029
 30
0.0
 11
181.519625
 21
-173.872029
 31
0.0
  0
LINE
  8
0
  6
BYLAYER
 62
     1
 10
127.519625
 20
-179.372045
 30
0.0
 11
127.519625
 21
-173.872045
 31
0.0
  0
LINE
  8
0
  6
BYLAYER
 62
     1
 10
121.019625
 20
-179.372045
 30
0.0
 11
121.019625
 21
-173.872045
 31
0.0
  0
LINE
  8
0
  6
BYLAYER
 62
     1
 10
181.519610
 20
-82.372045
 30
0.0
 11
181.519625
 21
-87.872045
 31
0.0
  0
LINE
  8
0
  6
BYLAYER
 62
     1
 10
175.019610
 20
-82.372045
 30
0.0
 11
175.019625
 21
-87.872045
 31
0.0
  0
LINE
  8
0
  6
BYLAYER
 62
     1
 10
127.519610
 20
-82.372045
 30
0.0
 11
127.519610
 21
-87.872045
 31
0.0
  0
LINE
  8
0
  6
BYLAYER
 62
     1
 10
121.019610
 20
-82.372045
 30
0.0
 11
121.019610
 21
-87.872045
 31
0.0
  0
LINE
  8
0
  6
BYLAYER
 62
     1
 10
131.269610
 20
-82.372045
 30
0.0
 11
131.269610
 21
-87.872045
 31
0.0
  0
LINE
  8
0
  6
BYLAYER
 62
     1
 10
171.269610
 20
-82.372045
 30
0.0
 11
171.269625
 21
-87.872045
 31
0.0
  0
LINE
  8
0
  6
BYLAYER
 62
     1
 10
191.269625
 20
-102.372045
 30
0.0
 11
185.769625
 21
-102.372045
 31
0.0
  0
LINE
  8
0
  6
BYLAYER
 62
     1
 10
190.269625
 20
-103.372045
 30
0.0
 11
185.769625
 21
-103.372045
 31
0.0
  0
LINE
  8
0
  6
BYLAYER
 62
     1
 10
191.269625
 20
-159.372029
 30
0.0
 11
185.769625
 21
-159.372029
 31
0.0
  0
LINE
  8
0
  6
BYLAYER
 62
     1
 10
170.269625
 20
-178.372029
 30
0.0
 11
170.269625
 21
-173.872029
 31
0.0
  0
LINE
  8
0
  6
BYLAYER
 62
     1
 10
171.269625
 20
-179.372029
 30
0.0
 11
171.269625
 21
-173.872029
 31
0.0
  0
LINE
  8
0
  6
BYLAYER
 62
     1
 10
131.269625
 20
-179.372045
 30
0.0
 11
131.269625
 21
-173.872045
 31
0.0
  0
LINE
  8
0
  6
BYLAYER
 62
     1
 10
132.269625
 20
-178.372045
 30
0.0
 11
132.269625
 21
-173.872045
 31
0.0
  0
LINE
  8
0
  6
BYLAYER
 62
     1
 10
111.269621
 20
-159.372045
 30
0.0
 11
116.769625
 21
-159.372045
 31
0.0
  0
LINE
  8
0
  6
BYLAYER
 62
     1
 10
111.269614
 20
-102.372045
 30
0.0
 11
116.769610
 21
-102.372045
 31
0.0
  0
LINE
  8
0
  6
BYLAYER
 62
     1
 10
112.269621
 20
-158.372045
 30
0.0
 11
112.269614
 21
-129.372045
 31
0.0
  0
LINE
  8
0
  6
BYLAYER
 62
     1
 10
112.269614
 20
-103.372045
 30
0.0
 11
112.269614
 21
-129.372045
 31
0.0
  0
LINE
  8
0
  6
BYLAYER
 62
     1
 10
190.269625
 20
-136.372045
 30
0.0
 11
190.269625
 21
-158.372029
 31
0.0
  0
LINE
  8
0
  6
BYLAYER
 62
     1
 10
116.769610
 20
-115.254491
 30
0.0
 11
116.769610
 21
-126.608129
 31
0.0
  0
LINE
  8
0
  6
BYLAYER
 62
     1
 10
112.269621
 20
-158.372045
 30
0.0
 11
112.769621
 21
-158.372045
 31
0.0
  0
LINE
  8
0
  6
BYLAYER
 62
     1
 10
116.769625
 20
-158.372045
 30
0.0
 11
112.769621
 21
-158.372045
 31
0.0
  0
LINE
  8
0
  6
BYLAYER
 62
     1
 10
112.269614
 20
-103.372045
 30
0.0
 11
112.769614
 21
-103.372045
 31
0.0
  0
LINE
  8
0
  6
BYLAYER
 62
     1
 10
116.769610
 20
-103.372045
 30
0.0
 11
112.769614
 21
-103.372045
 31
0.0
  0
LINE
  8
0
  6
BYLAYER
 62
     1
 10
132.269610
 20
-83.372045
 30
0.0
 11
132.269610
 21
-85.372045
 31
0.0
  0
LINE
  8
0
  6
BYLAYER
 62
     1
 10
170.269610
 20
-85.372045
 30
0.0
 11
170.269610
 21
-83.372045
 31
0.0
  0
LINE
  8
0
  6
BYLAYER
 62
     1
 10
132.269610
 20
-87.872045
 30
0.0
 11
132.269610
 21
-85.372045
 31
0.0
  0
LINE
  8
0
  6
BYLAYER
 62
     1
 10
170.269610
 20
-85.372045
 30
0.0
 11
170.269625
 21
-87.872045
 31
0.0
  0
LINE
  8
0
  6
BYLAYER
 62
     1
 10
190.269625
 20
-158.372029
 30
0.0
 11
189.769625
 21
-158.372029
 31
0.0
  0
LINE
  8
0
  6
BYLAYER
 62
     1
 10
185.769625
 20
-158.372029
 30
0.0
 11
189.769625
 21
-158.372029
 31
0.0
  0
ARC
  8
0
  6
BYLAYER
 62
     1
 10
117.769625
 20
-153.622045
 30
0.0
 40
1.0
 50
180.000000
 51
269.999996
  0
LINE
  8
0
  6
BYLAYER
 62
     1
 10
116.769625
 20
-157.122045
 30
0.0
 11
116.769625
 21
-158.372045
 31
0.0
  0
ARC
  8
0
  6
BYLAYER
 62
     1
 10
117.769625
 20
-157.122045
 30
0.0
 40
1.000000
 50
90.0
 51
179.999996
  0
LINE
  8
0
  6
BYLAYER
 62
     1
 10
185.769625
 20
-158.372029
 30
0.0
 11
185.769625
 21
-157.122029
 31
0.0
  0
LINE
  8
0
  6
BYLAYER
 62
     1
 10
116.769610
 20
-115.122045
 30
0.0
 11
116.769610
 21
-115.254491
 31
0.0
  0
ARC
  8
0
  6
BYLAYER
 62
     1
 10
117.769610
 20
-115.122045
 30
0.0
 40
1.0
 50
90.0
 51
179.999996
  0
ARC
  8
0
  6
BYLAYER
 62
     1
 10
117.769610
 20
-111.622045
 30
0.0
 40
1.0
 50
180.000000
 51
269.999996
  0
CIRCLE
  8
0
  6
BYLAYER
 62
     1
 10
151.269625
 20
-139.372014
 30
0.0
 40
23.5
  0
LINE
  8
0
  6
BYLAYER
 62
     1
 10
185.769625
 20
-103.387883
 30
0.0
 11
185.769625
 21
-102.372045
 31
0.0
  0
CIRCLE
  8
0
  6
BYLAYER
 62
     1
 10
151.269610
 20
-106.872045
 30
0.0
 40
2.300003
  0
CIRCLE
  8
0
  6
BYLAYER
 62
     1
 10
118.769625
 20
-139.372045
 30
0.0
 40
2.300003
  0
CIRCLE
  8
0
  6
BYLAYER
 62
     1
 10
151.269625
 20
-171.872029
 30
0.0
 40
2.300003
  0
ARC
  8
0
  6
BYLAYER
 62
     1
 10
121.269625
 20
-153.622045
 30
0.0
 40
1.0
 50
180.000000
 51
269.999996
  0
ARC
  8
0
  6
BYLAYER
 62
     1
 10
121.269625
 20
-157.122045
 30
0.0
 40
1.000000
 50
90.0
 51
179.999996
  0
ARC
  8
0
  6
BYLAYER
 62
     1
 10
151.269610
 20
-106.872045
 30
0.0
 40
3.000006
 50
67.576061
 51
374.380645
  0
ARC
  8
0
  6
BYLAYER
 62
     1
 10
118.769640
 20
-139.372045
 30
0.0
 40
3.000006
 50
157.576070
 51
464.380627
  0
ARC
  8
0
  6
BYLAYER
 62
     1
 10
151.269625
 20
-171.872014
 30
0.0
 40
3.0
 50
247.576053
 51
554.380637
  0
LINE
  8
0
  6
BYLAYER
 62
     1
 10
117.769610
 20
-87.872045
 30
0.0
 11
132.269610
 21
-87.872045
 31
0.0
  0
ARC
  8
0
  6
BYLAYER
 62
     1
 10
117.769610
 20
-88.872045
 30
0.0
 40
1.0
 50
90.0
 51
180.000003
  0
LINE
  8
0
  6
BYLAYER
 62
     1
 10
170.269625
 20
-87.872045
 30
0.0
 11
184.769625
 21
-87.872045
 31
0.0
  0
LINE
  8
0
  6
BYLAYER
 62
     1
 10
185.769625
 20
-102.372045
 30
0.0
 11
185.769625
 21
-88.872045
 31
0.0
  0
ARC
  8
0
  6
BYLAYER
 62
     1
 10
184.769625
 20
-88.872045
 30
0.0
 40
1.000000
 50
0.0
 51
90.000003
  0
LINE
  8
0
  6
BYLAYER
 62
     1
 10
116.769625
 20
-158.372045
 30
0.0
 11
116.769625
 21
-172.872045
 31
0.0
  0
ARC
  8
0
  6
BYLAYER
 62
     1
 10
117.769625
 20
-172.872045
 30
0.0
 40
1.0
 50
180.000000
 51
269.999996
  0
LINE
  8
0
  6
BYLAYER
 62
     1
 10
185.769625
 20
-172.872029
 30
0.0
 11
185.769625
 21
-158.372029
 31
0.0
  0
ARC
  8
0
  6
BYLAYER
 62
     1
 10
184.769625
 20
-172.872029
 30
0.0
 40
1.000000
 50
270.0
 51
360.000003
  0
LINE
  8
0
  6
BYLAYER
 62
     1
 10
182.269625
 20
-169.372029
 30
0.0
 11
182.269625
 21
-157.122029
 31
0.0
  0
ARC
  8
0
  6
BYLAYER
 62
     1
 10
181.269625
 20
-169.372029
 30
0.0
 40
1.000000
 50
270.0
 51
360.000003
  0
LINE
  8
0
  6
BYLAYER
 62
     1
 10
120.269625
 20
-169.372045
 30
0.0
 11
120.269625
 21
-157.122045
 31
0.0
  0
ARC
  8
0
  6
BYLAYER
 62
     1
 10
121.269625
 20
-169.372045
 30
0.0
 40
1.000000
 50
180.000000
 51
269.999996
  0
LINE
  8
0
  6
BYLAYER
 62
     1
 10
117.062517
 20
-173.579152
 30
0.0
 11
120.562517
 21
-170.079152
 31
0.0
  0
LINE
  8
0
  6
BYLAYER
 62
     1
 10
185.476733
 20
-173.579137
 30
0.0
 11
181.976733
 21
-170.079137
 31
0.0
  0
LINE
  8
0
  6
BYLAYER
 62
     1
 10
117.769625
 20
-154.622045
 30
0.0
 11
123.519625
 21
-154.622045
 31
0.0
  0
LINE
  8
0
  6
BYLAYER
 62
     1
 10
123.519625
 20
-156.122045
 30
0.0
 11
117.769625
 21
-156.122045
 31
0.0
  0
ARC
  8
0
  6
BYLAYER
 62
     1
 10
123.519625
 20
-155.372045
 30
0.0
 40
0.75
 50
270.0
 51
450.000005
  0
LINE
  8
0
  6
BYLAYER
 62
     1
 10
191.269640
 20
-104.612920
 30
0.0
 11
192.269640
 21
-104.612920
 31
0.0
  0
ARC
  8
0
  6
BYLAYER
 62
     1
 10
191.269640
 20
-103.612920
 30
0.0
 40
1.000000
 50
180.000000
 51
269.999996
  0
LINE
  8
0
  6
BYLAYER
 62
     1
 10
191.269640
 20
-107.192571
 30
0.0
 11
192.269640
 21
-107.192571
 31
0.0
  0
ARC
  8
0
  6
BYLAYER
 62
     1
 10
191.269640
 20
-106.192571
 30
0.0
 40
1.000000
 50
180.000000
 51
269.999996
  0
LINE
  8
0
  6
BYLAYER
 62
     1
 10
191.269640
 20
-111.551457
 30
0.0
 11
192.269640
 21
-111.551457
 31
0.0
  0
ARC
  8
0
  6
BYLAYER
 62
     1
 10
191.269640
 20
-112.551457
 30
0.0
 40
1.0
 50
90.0
 51
180.000009
  0
LINE
  8
0
  6
BYLAYER
 62
     1
 10
192.269640
 20
-114.131108
 30
0.0
 11
190.269640
 21
-114.200963
 31
0.0
  0
ARC
  8
0
  6
BYLAYER
 62
     1
 10
184.769640
 20
-103.612920
 30
0.0
 40
1.000000
 50
270.0
 51
359.999982
  0
LINE
  8
0
  6
BYLAYER
 62
     1
 10
184.769640
 20
-104.612920
 30
0.0
 11
178.269640
 21
-104.612920
 31
0.0
  0
ARC
  8
0
  6
BYLAYER
 62
     1
 10
175.269640
 20
-111.622014
 30
0.0
 40
1.000000
 50
270.0
 51
359.999982
  0
ARC
  8
0
  6
BYLAYER
 62
     1
 10
123.269640
 20
-116.122014
 30
0.0
 40
2.000000
 50
0.0
 51
90.000016
  0
ARC
  8
0
  6
BYLAYER
 62
     1
 10
117.769640
 20
-125.869023
 30
0.0
 40
1.0
 50
90.0
 51
180.000009
  0
LINE
  8
0
  6
BYLAYER
 62
     1
 10
190.269625
 20
-106.192571
 30
0.0
 11
190.269625
 21
-103.372045
 31
0.0
  0
LINE
  8
0
  6
BYLAYER
 62
     1
 10
190.269625
 20
-136.354588
 30
0.0
 11
190.269625
 21
-112.551457
 31
0.0
  0
LINE
  8
0
  6
BYLAYER
 62
     1
 10
185.769625
 20
-103.618444
 30
0.0
 11
185.769625
 21
-125.044042
 31
0.0
  0
LINE
  8
0
  6
BYLAYER
 62
     1
 10
131.269610
 20
-82.372045
 30
0.0
 11
114.269614
 21
-82.372045
 31
0.0
  0
LINE
  8
0
  6
BYLAYER
 62
     1
 10
114.269614
 20
-82.372045
 30
0.0
 11
111.269614
 21
-85.372045
 31
0.0
  0
LINE
  8
0
  6
BYLAYER
 62
     1
 10
191.269625
 20
-102.372045
 30
0.0
 11
191.269625
 21
-85.372045
 31
0.0
  0
LINE
  8
0
  6
BYLAYER
 62
     1
 10
191.269625
 20
-85.372045
 30
0.0
 11
188.269610
 21
-82.372045
 31
0.0
  0
LINE
  8
0
  6
BYLAYER
 62
     1
 10
171.269625
 20
-179.372029
 30
0.0
 11
188.269625
 21
-179.372029
 31
0.0
  0
LINE
  8
0
  6
BYLAYER
 62
     1
 10
188.269625
 20
-179.372029
 30
0.0
 11
191.269625
 21
-176.372029
 31
0.0
  0
LINE
  8
0
  6
BYLAYER
 62
     1
 10
191.269625
 20
-176.372029
 30
0.0
 11
191.269625
 21
-159.372029
 31
0.0
  0
LINE
  8
0
  6
BYLAYER
 62
     1
 10
131.269625
 20
-179.372045
 30
0.0
 11
114.269621
 21
-179.372045
 31
0.0
  0
LINE
  8
0
  6
BYLAYER
 62
     1
 10
114.269621
 20
-179.372045
 30
0.0
 11
111.269621
 21
-176.372045
 31
0.0
  0
LINE
  8
0
  6
BYLAYER
 62
     1
 10
111.269621
 20
-176.372045
 30
0.0
 11
111.269621
 21
-159.372045
 31
0.0
  0
LINE
  8
0
  6
BYLAYER
 62
     1
 10
171.269610
 20
-82.372045
 30
0.0
 11
192.269610
 21
-82.372045
 31
0.0
  0
LINE
  8
0
  6
BYLAYER
 62
     1
 10
111.269614
 20
-128.372045
 30
0.0
 11
111.269614
 21
-83.372045
 31
0.0
  0
LINE
  8
0
  6
BYLAYER
 62
     1
 10
170.269610
 20
-83.372045
 30
0.0
 11
132.269610
 21
-83.372045
 31
0.0
  0
LINE
  8
0
  6
BYLAYER
 62
     1
 10
113.269614
 20
-83.372045
 30
0.0
 11
111.269614
 21
-83.372045
 31
0.0
  0
LINE
  8
0
  6
BYLAYER
 62
     1
 10
191.269625
 20
-88.405339
 30
0.0
 11
192.269610
 21
-88.405339
 31
0.0
  0
LINE
  8
0
  6
BYLAYER
 62
     1
 10
190.269625
 20
-130.338658
 30
0.0
 11
192.269625
 21
-130.338658
 31
0.0
  0
LINE
  8
0
  6
BYLAYER
 62
     1
 10
192.269625
 20
-136.872014
 30
0.0
 11
190.269625
 21
-136.941869
 31
0.0
  0
LINE
  8
0
  6
BYLAYER
 62
     1
 10
192.269625
 20
-136.872014
 30
0.0
 11
192.269610
 21
-82.372045
 31
0.0
  0
LINE
  8
0
  6
BYLAYER
 62
     1
 10
111.269614
 20
-128.372045
 30
0.0
 11
112.269614
 21
-128.406957
 31
0.0
  0
LINE
  8
0
  6
BYLAYER
 62
     1
 10
170.269625
 20
-87.872045
 30
0.0
 11
169.269610
 21
-88.872045
 31
0.0
  0
LINE
  8
0
  6
BYLAYER
 62
     1
 10
133.269625
 20
-88.872045
 30
0.0
 11
169.269610
 21
-88.872045
 31
0.0
  0
LINE
  8
0
  6
BYLAYER
 62
     1
 10
132.269610
 20
-87.872045
 30
0.0
 11
133.269625
 21
-88.872045
 31
0.0
  0
ARC
  8
0
  6
BYLAYER
 62
     1
 10
186.604510
 20
-142.791875
 30
0.0
 40
1.999996
 50
284.999998
 51
354.471300
  0
ARC
  8
0
  6
BYLAYER
 62
     1
 10
151.269625
 20
-139.372014
 30
0.0
 40
37.499989
 50
354.471846
 51
365.528143
  0
ARC
  8
0
  6
BYLAYER
 62
     1
 10
186.604510
 20
-135.952123
 30
0.0
 40
1.999993
 50
5.527821
 51
74.999765
  0
ARC
  8
0
  6
BYLAYER
 62
     1
 10
151.269625
 20
-139.372014
 30
0.0
 40
37.499973
 50
84.471852
 51
95.528146
  0
ARC
  8
0
  6
BYLAYER
 62
     1
 10
151.269625
 20
-139.372014
 30
0.0
 40
37.499992
 50
174.471868
 51
185.528142
  0
ARC
  8
0
  6
BYLAYER
 62
     1
 10
151.269625
 20
-139.372014
 30
0.0
 40
37.499989
 50
264.471837
 51
275.528137
  0
ARC
  8
0
  6
BYLAYER
 62
     1
 10
147.849734
 20
-104.037114
 30
0.0
 40
1.999963
 50
95.527825
 51
164.999776
  0
ARC
  8
0
  6
BYLAYER
 62
     1
 10
115.934740
 20
-142.791905
 30
0.0
 40
1.999997
 50
185.527827
 51
254.999758
  0
ARC
  8
0
  6
BYLAYER
 62
     1
 10
154.689516
 20
-174.706899
 30
0.0
 40
1.999993
 50
275.527809
 51
344.999767
  0
LINE
  8
0
  6
BYLAYER
 62
     1
 10
145.917910
 20
-103.519475
 30
0.0
 11
143.511874
 21
-112.498784
 31
0.0
  0
LINE
  8
0
  6
BYLAYER
 62
     1
 10
115.417101
 20
-144.723729
 30
0.0
 11
124.396410
 21
-147.129765
 31
0.0
  0
LINE
  8
0
  6
BYLAYER
 62
     1
 10
156.621340
 20
-175.224538
 30
0.0
 11
159.027376
 21
-166.245229
 31
0.0
  0
ARC
  8
0
  6
BYLAYER
 62
     1
 10
124.137591
 20
-148.095677
 30
0.0
 40
0.999994
 50
17.823935
 51
74.999773
  0
ARC
  8
0
  6
BYLAYER
 62
     1
 10
159.993288
 20
-166.504048
 30
0.0
 40
0.999994
 50
107.823914
 51
164.999762
  0
ARC
  8
0
  6
BYLAYER
 62
     1
 10
113.100569
 20
-148.303075
 30
0.0
 40
12.000010
 50
2.452622
 51
13.169571
  0
ARC
  8
0
  6
BYLAYER
 62
     1
 10
160.200686
 20
-177.541066
 30
0.0
 40
12.000007
 50
92.452600
 51
103.169550
  0
ARC
  8
0
  6
BYLAYER
 62
     1
 10
151.269625
 20
-139.372014
 30
0.0
 40
27.200003
 50
76.830483
 51
103.169516
  0
ARC
  8
0
  6
BYLAYER
 62
     1
 10
151.269625
 20
-139.372014
 30
0.0
 40
27.200003
 50
166.830471
 51
193.169511
  0
ARC
  8
0
  6
BYLAYER
 62
     1
 10
151.269625
 20
-139.372014
 30
0.0
 40
27.200003
 50
256.83044
 51
283.169507
  0
ARC
  8
0
  6
BYLAYER
 62
     1
 10
113.100569
 20
-130.440953
 30
0.0
 40
12.000010
 50
346.830422
 51
357.547398
  0
ARC
  8
0
  6
BYLAYER
 62
     1
 10
142.338564
 20
-177.541066
 30
0.0
 40
12.000007
 50
76.830428
 51
87.547377
  0
ARC
  8
0
  6
BYLAYER
 62
     1
 10
124.137591
 20
-130.648351
 30
0.0
 40
0.999994
 50
285.000244
 51
342.176058
  0
ARC
  8
0
  6
BYLAYER
 62
     1
 10
142.545962
 20
-166.504048
 30
0.0
 40
0.999994
 50
15.000226
 51
72.176064
  0
LINE
  8
0
  6
BYLAYER
 62
     1
 10
159.027376
 20
-112.498784
 30
0.0
 11
156.621340
 21
-103.519475
 31
0.0
  0
LINE
  8
0
  6
BYLAYER
 62
     1
 10
124.396410
 20
-131.614263
 30
0.0
 11
115.417101
 21
-134.020299
 31
0.0
  0
LINE
  8
0
  6
BYLAYER
 62
     1
 10
143.511874
 20
-166.245229
 30
0.0
 11
145.917910
 21
-175.224538
 31
0.0
  0
ARC
  8
0
  6
BYLAYER
 62
     1
 10
154.689486
 20
-104.037114
 30
0.0
 40
1.999966
 50
15.000011
 51
84.471306
  0
ARC
  8
0
  6
BYLAYER
 62
     1
 10
115.934740
 20
-135.952153
 30
0.0
 40
2.0
 50
104.999986
 51
174.471322
  0
ARC
  8
0
  6
BYLAYER
 62
     1
 10
147.849764
 20
-174.706899
 30
0.0
 40
1.999996
 50
194.999975
 51
264.471290
  0
ARC
  8
0
  6
BYLAYER
 62
     1
 10
151.269625
 20
-139.372014
 30
0.0
 40
27.499998
 50
17.823966
 51
72.176009
  0
ARC
  8
0
  6
BYLAYER
 62
     1
 10
151.269625
 20
-139.372014
 30
0.0
 40
27.499989
 50
107.823989
 51
162.176025
  0
ARC
  8
0
  6
BYLAYER
 62
     1
 10
151.269625
 20
-139.372014
 30
0.0
 40
27.499979
 50
287.823953
 51
342.17603
  0
ARC
  8
0
  6
BYLAYER
 62
     1
 10
151.269625
 20
-139.372014
 30
0.0
 40
27.499985
 50
197.823971
 51
252.176048
  0
LINE
  8
0
  6
BYLAYER
 62
     1
 10
117.769640
 20
-124.869023
 30
0.0
 11
123.269640
 21
-124.869023
 31
0.0
  0
LINE
  8
0
  6
BYLAYER
 62
     1
 10
125.269640
 20
-122.869023
 30
0.0
 11
125.269640
 21
-116.122014
 31
0.0
  0
ARC
  8
0
  6
BYLAYER
 62
     1
 10
123.269640
 20
-122.869023
 30
0.0
 40
2.000000
 50
270.0
 51
360.000003
  0
LINE
  8
0
  6
BYLAYER
 62
     1
 10
116.769610
 20
-132.354649
 30
0.0
 11
116.769610
 21
-126.608129
 31
0.0
  0
ARC
  8
0
  6
BYLAYER
 62
     1
 10
117.769610
 20
-132.354649
 30
0.0
 40
1.0
 50
180.000000
 51
285.000211
  0
LINE
  8
0
  6
BYLAYER
 62
     1
 10
116.769625
 20
-153.622045
 30
0.0
 11
116.769625
 21
-146.389379
 31
0.0
  0
ARC
  8
0
  6
BYLAYER
 62
     1
 10
117.769625
 20
-146.389379
 30
0.0
 40
1.000016
 50
74.999794
 51
180.000005
  0
LINE
  8
0
  6
BYLAYER
 62
     1
 10
120.269625
 20
-146.068150
 30
0.0
 11
120.269625
 21
-153.622045
 31
0.0
  0
LINE
  8
0
  6
BYLAYER
 62
     1
 10
120.269671
 20
-132.675847
 30
0.0
 11
120.269671
 21
-124.869023
 31
0.0
  0
LINE
  8
0
  6
BYLAYER
 62
     1
 10
144.573473
 20
-170.372029
 30
0.0
 11
121.269625
 21
-170.372106
 31
0.0
  0
ARC
  8
0
  6
BYLAYER
 62
     1
 10
144.252260
 20
-172.872029
 30
0.0
 40
1.0
 50
270.0
 51
375.000013
  0
LINE
  8
0
  6
BYLAYER
 62
     1
 10
181.269625
 20
-170.372029
 30
0.0
 11
157.965761
 21
-170.372029
 31
0.0
  0
LINE
  8
0
  6
BYLAYER
 62
     1
 10
184.769625
 20
-173.872029
 30
0.0
 11
158.286974
 21
-173.872029
 31
0.0
  0
ARC
  8
0
  6
BYLAYER
 62
     1
 10
158.286974
 20
-172.872029
 30
0.0
 40
1.000001
 50
164.999994
 51
270.000001
  0
LINE
  8
0
  6
BYLAYER
 62
     1
 10
117.769625
 20
-173.872090
 30
0.0
 11
144.252260
 21
-173.872029
 31
0.0
  0
LINE
  8
0
  6
BYLAYER
 62
     1
 10
117.769610
 20
-112.622045
 30
0.0
 11
133.519633
 21
-112.622045
 31
0.0
  0
LINE
  8
0
  6
BYLAYER
 62
     1
 10
117.769610
 20
-114.122045
 30
0.0
 11
133.519633
 21
-114.122045
 31
0.0
  0
ARC
  8
0
  6
BYLAYER
 62
     1
 10
117.769610
 20
-103.622045
 30
0.0
 40
1.0
 50
180.000000
 51
269.999996
  0
LINE
  8
0
  6
BYLAYER
 62
     1
 10
141.019610
 20
-104.622045
 30
0.0
 11
117.769610
 21
-104.622045
 31
0.0
  0
ARC
  8
0
  6
BYLAYER
 62
     1
 10
141.019610
 20
-105.372045
 30
0.0
 40
0.750000
 50
0.0
 51
90.000003
  0
ARC
  8
0
  6
BYLAYER
 62
     1
 10
141.019610
 20
-105.409886
 30
0.0
 40
0.750001
 50
270.0
 51
360.000003
  0
LINE
  8
0
  6
BYLAYER
 62
     1
 10
141.769610
 20
-105.372045
 30
0.0
 11
141.769610
 21
-105.409886
 31
0.0
  0
LINE
  8
0
  6
BYLAYER
 62
     1
 10
141.019610
 20
-106.159886
 30
0.0
 11
117.769610
 21
-106.159886
 31
0.0
  0
ARC
  8
0
  6
BYLAYER
 62
     1
 10
117.769610
 20
-107.159886
 30
0.0
 40
1.0
 50
90.0
 51
179.999996
  0
ARC
  8
0
  6
BYLAYER
 62
     1
 10
161.519640
 20
-105.372045
 30
0.0
 40
0.750000
 50
90.0
 51
180.000003
  0
ARC
  8
0
  6
BYLAYER
 62
     1
 10
161.519640
 20
-105.409886
 30
0.0
 40
0.750001
 50
180.000000
 51
269.999996
  0
LINE
  8
0
  6
BYLAYER
 62
     1
 10
116.769610
 20
-111.622045
 30
0.0
 11
116.769610
 21
-107.159886
 31
0.0
  0
LINE
  8
0
  6
BYLAYER
 62
     1
 10
116.769610
 20
-88.872045
 30
0.0
 11
116.769610
 21
-103.622045
 31
0.0
  0
LINE
  8
0
  6
BYLAYER
 62
     1
 10
178.078814
 20
-104.622045
 30
0.0
 11
161.519640
 21
-104.622045
 31
0.0
  0
LINE
  8
0
  6
BYLAYER
 62
     1
 10
161.519640
 20
-106.159886
 30
0.0
 11
175.269640
 21
-106.159886
 31
0.0
  0
ARC
  8
0
  6
BYLAYER
 62
     1
 10
175.269640
 20
-107.159886
 30
0.0
 40
1.000000
 50
0.0
 51
90.000003
  0
LINE
  8
0
  6
BYLAYER
 62
     1
 10
191.269625
 20
-159.372029
 30
0.0
 11
190.269625
 21
-158.372029
 31
0.0
  0
LINE
  8
0
  6
BYLAYER
 62
     1
 10
176.269640
 20
-111.622014
 30
0.0
 11
176.269640
 21
-107.159886
 31
0.0
  0
ARC
  8
0
  6
BYLAYER
 62
     1
 10
145.003487
 20
-97.060346
 30
0.0
 40
1.149491
 50
270.0
 51
308.795511
  0
ARC
  8
0
  6
BYLAYER
 62
     1
 10
144.892246
 20
-96.941874
 30
0.0
 40
1.311583
 50
309.340351
 51
360.0
  0
ARC
  8
0
  6
BYLAYER
 62
     1
 10
144.892246
 20
-96.941874
 30
0.0
 40
1.311583
 50
0.0
 51
50.659649
  0
ARC
  8
0
  6
BYLAYER
 62
     1
 10
145.003487
 20
-96.823402
 30
0.0
 40
1.149491
 50
51.204489
 51
90.000000
  0
ARC
  8
0
  6
BYLAYER
 62
     1
 10
145.003487
 20
-96.823392
 30
0.0
 40
1.149480
 50
90.0
 51
128.795693
  0
ARC
  8
0
  6
BYLAYER
 62
     1
 10
145.114738
 20
-96.941874
 30
0.0
 40
1.311587
 50
129.340576
 51
180.0
  0
ARC
  8
0
  6
BYLAYER
 62
     1
 10
145.114738
 20
-96.941874
 30
0.0
 40
1.311587
 50
180.000000
 51
230.659424
  0
ARC
  8
0
  6
BYLAYER
 62
     1
 10
145.003487
 20
-97.060356
 30
0.0
 40
1.149480
 50
231.204307
 51
270.000000
  0
ARC
  8
0
  6
BYLAYER
 62
     1
 10
145.003487
 20
-96.604614
 30
0.0
 40
0.531899
 50
90.0
 51
140.793201
  0
ARC
  8
0
  6
BYLAYER
 62
     1
 10
145.416909
 20
-96.941874
 30
0.0
 40
1.065436
 50
140.793201
 51
180.000000
  0
ARC
  8
0
  6
BYLAYER
 62
     1
 10
145.416902
 20
-96.941874
 30
0.0
 40
1.065430
 50
180.000000
 51
219.206869
  0
ARC
  8
0
  6
BYLAYER
 62
     1
 10
145.003487
 20
-97.279130
 30
0.0
 40
0.531900
 50
219.206869
 51
270.000000
  0
ARC
  8
0
  6
BYLAYER
 62
     1
 10
145.003487
 20
-97.279130
 30
0.0
 40
0.531900
 50
270.0
 51
320.793131
  0
ARC
  8
0
  6
BYLAYER
 62
     1
 10
144.590071
 20
-96.941874
 30
0.0
 40
1.065430
 50
320.793131
 51
360.000000
  0
ARC
  8
0
  6
BYLAYER
 62
     1
 10
144.590065
 20
-96.941874
 30
0.0
 40
1.065436
 50
0.0
 51
39.206799
  0
ARC
  8
0
  6
BYLAYER
 62
     1
 10
145.003487
 20
-96.604614
 30
0.0
 40
0.531899
 50
39.206799
 51
90.000000
  0
LINE
  8
0
  6
BYLAYER
 62
     1
 10
141.064351
 20
-98.125303
 30
0.0
 11
141.064351
 21
-95.724626
 31
0.0
  0
LINE
  8
0
  6
BYLAYER
 62
     1
 10
141.064351
 20
-95.724626
 30
0.0
 11
142.040401
 21
-95.724626
 31
0.0
  0
LINE
  8
0
  6
BYLAYER
 62
     1
 10
142.040401
 20
-95.724626
 30
0.0
 11
142.366127
 21
-96.975688
 31
0.0
  0
LINE
  8
0
  6
BYLAYER
 62
     1
 10
141.064351
 20
-98.125303
 30
0.0
 11
141.650435
 21
-98.125303
 31
0.0
  0
LINE
  8
0
  6
BYLAYER
 62
     1
 10
141.650435
 20
-98.125303
 30
0.0
 11
141.650435
 21
-96.738999
 31
0.0
  0
LINE
  8
0
  6
BYLAYER
 62
     1
 10
142.112532
 20
-98.125303
 30
0.0
 11
141.650435
 21
-96.738999
 31
0.0
  0
LINE
  8
0
  6
BYLAYER
 62
     1
 10
143.667903
 20
-98.125303
 30
0.0
 11
143.667903
 21
-95.724626
 31
0.0
  0
LINE
  8
0
  6
BYLAYER
 62
     1
 10
143.667903
 20
-95.724626
 30
0.0
 11
142.691854
 21
-95.724626
 31
0.0
  0
LINE
  8
0
  6
BYLAYER
 62
     1
 10
142.691854
 20
-95.724626
 30
0.0
 11
142.366127
 21
-96.975688
 31
0.0
  0
LINE
  8
0
  6
BYLAYER
 62
     1
 10
143.667903
 20
-98.125303
 30
0.0
 11
143.081819
 21
-98.125303
 31
0.0
  0
LINE
  8
0
  6
BYLAYER
 62
     1
 10
143.081819
 20
-98.125303
 30
0.0
 11
143.081819
 21
-96.738999
 31
0.0
  0
LINE
  8
0
  6
BYLAYER
 62
     1
 10
142.619722
 20
-98.125303
 30
0.0
 11
143.081819
 21
-96.738999
 31
0.0
  0
LINE
  8
0
  6
BYLAYER
 62
     1
 10
142.619722
 20
-98.125303
 30
0.0
 11
142.112532
 21
-98.125303
 31
0.0
  0
LINE
  8
0
  6
BYLAYER
 62
     1
 10
152.256239
 20
-98.125303
 30
0.0
 11
153.169167
 21
-95.724626
 31
0.0
  0
LINE
  8
0
  6
BYLAYER
 62
     1
 10
152.256239
 20
-98.125303
 30
0.0
 11
153.033925
 21
-98.125303
 31
0.0
  0
LINE
  8
0
  6
BYLAYER
 62
     1
 10
153.169167
 20
-95.724626
 30
0.0
 11
153.913039
 21
-95.724626
 31
0.0
  0
LINE
  8
0
  6
BYLAYER
 62
     1
 10
153.033925
 20
-98.125303
 30
0.0
 11
153.149196
 21
-97.787180
 31
0.0
  0
LINE
  8
0
  6
BYLAYER
 62
     1
 10
153.333620
 20
-97.246183
 30
0.0
 11
153.541103
 21
-96.637559
 31
0.0
  0
LINE
  8
0
  6
BYLAYER
 62
     1
 10
154.825978
 20
-98.125303
 30
0.0
 11
153.913039
 21
-95.724626
 31
0.0
  0
LINE
  8
0
  6
BYLAYER
 62
     1
 10
154.825978
 20
-98.125303
 30
0.0
 11
154.048293
 21
-98.125303
 31
0.0
  0
LINE
  8
0
  6
BYLAYER
 62
     1
 10
153.933022
 20
-97.787180
 30
0.0
 11
153.149196
 21
-97.787180
 31
0.0
  0
LINE
  8
0
  6
BYLAYER
 62
     1
 10
153.748586
 20
-97.246183
 30
0.0
 11
153.333620
 21
-97.246183
 31
0.0
  0
LINE
  8
0
  6
BYLAYER
 62
     1
 10
154.048293
 20
-98.125303
 30
0.0
 11
153.933022
 21
-97.787180
 31
0.0
  0
LINE
  8
0
  6
BYLAYER
 62
     1
 10
153.748586
 20
-97.246183
 30
0.0
 11
153.541103
 21
-96.637559
 31
0.0
  0
LINE
  8
0
  6
BYLAYER
 62
     1
 10
146.203829
 20
-96.316343
 30
0.0
 11
146.880074
 21
-96.316343
 31
0.0
  0
LINE
  8
0
  6
BYLAYER
 62
     1
 10
146.880074
 20
-96.316343
 30
0.0
 11
146.880074
 21
-98.125303
 31
0.0
  0
LINE
  8
0
  6
BYLAYER
 62
     1
 10
146.880074
 20
-98.125303
 30
0.0
 11
147.623952
 21
-98.125303
 31
0.0
  0
LINE
  8
0
  6
BYLAYER
 62
     1
 10
147.623952
 20
-98.125303
 30
0.0
 11
147.623952
 21
-96.316343
 31
0.0
  0
LINE
  8
0
  6
BYLAYER
 62
     1
 10
147.623952
 20
-96.316343
 30
0.0
 11
148.300197
 21
-96.316343
 31
0.0
  0
LINE
  8
0
  6
BYLAYER
 62
     1
 10
148.300197
 20
-96.316343
 30
0.0
 11
148.300197
 21
-95.724626
 31
0.0
  0
LINE
  8
0
  6
BYLAYER
 62
     1
 10
148.300197
 20
-95.724626
 30
0.0
 11
146.203829
 21
-95.724626
 31
0.0
  0
LINE
  8
0
  6
BYLAYER
 62
     1
 10
146.203829
 20
-95.724626
 30
0.0
 11
146.203829
 21
-96.316343
 31
0.0
  0
ARC
  8
0
  6
BYLAYER
 62
     1
 10
149.500533
 20
-97.060356
 30
0.0
 40
1.149480
 50
270.0
 51
308.795693
  0
ARC
  8
0
  6
BYLAYER
 62
     1
 10
149.389281
 20
-96.941874
 30
0.0
 40
1.311587
 50
309.340576
 51
360.0
  0
ARC
  8
0
  6
BYLAYER
 62
     1
 10
149.389286
 20
-96.941874
 30
0.0
 40
1.311583
 50
0.0
 51
50.659649
  0
ARC
  8
0
  6
BYLAYER
 62
     1
 10
149.500527
 20
-96.823402
 30
0.0
 40
1.149491
 50
51.204489
 51
90.000000
  0
ARC
  8
0
  6
BYLAYER
 62
     1
 10
149.500527
 20
-96.823392
 30
0.0
 40
1.149480
 50
90.0
 51
128.795693
  0
ARC
  8
0
  6
BYLAYER
 62
     1
 10
149.611778
 20
-96.941874
 30
0.0
 40
1.311587
 50
129.340576
 51
180.0
  0
ARC
  8
0
  6
BYLAYER
 62
     1
 10
149.611773
 20
-96.941874
 30
0.0
 40
1.311583
 50
180.000000
 51
230.659649
  0
ARC
  8
0
  6
BYLAYER
 62
     1
 10
149.500533
 20
-97.060346
 30
0.0
 40
1.149491
 50
231.204489
 51
270.000000
  0
ARC
  8
0
  6
BYLAYER
 62
     1
 10
149.500527
 20
-96.604614
 30
0.0
 40
0.531899
 50
90.0
 51
140.793201
  0
ARC
  8
0
  6
BYLAYER
 62
     1
 10
149.913948
 20
-96.941874
 30
0.0
 40
1.065436
 50
140.793201
 51
180.000000
  0
ARC
  8
0
  6
BYLAYER
 62
     1
 10
149.913935
 20
-96.941874
 30
0.0
 40
1.065422
 50
180.000000
 51
219.207055
  0
ARC
  8
0
  6
BYLAYER
 62
     1
 10
149.500533
 20
-97.279121
 30
0.0
 40
0.531908
 50
219.207055
 51
270.000000
  0
ARC
  8
0
  6
BYLAYER
 62
     1
 10
149.500533
 20
-97.279130
 30
0.0
 40
0.531900
 50
270.0
 51
320.793131
  0
ARC
  8
0
  6
BYLAYER
 62
     1
 10
149.087117
 20
-96.941874
 30
0.0
 40
1.065430
 50
320.793131
 51
360.000000
  0
ARC
  8
0
  6
BYLAYER
 62
     1
 10
149.087118
 20
-96.941874
 30
0.0
 40
1.065429
 50
0.0
 51
39.206985
  0
ARC
  8
0
  6
BYLAYER
 62
     1
 10
149.500527
 20
-96.604622
 30
0.0
 40
0.531907
 50
39.206985
 51
90.000000
  0
LINE
  8
0
  6
BYLAYER
 62
     1
 10
154.890773
 20
-98.125303
 30
0.0
 11
154.890773
 21
-95.724626
 31
0.0
  0
LINE
  8
0
  6
BYLAYER
 62
     1
 10
154.890773
 20
-95.724626
 30
0.0
 11
156.378511
 21
-95.724626
 31
0.0
  0
ARC
  8
0
  6
BYLAYER
 62
     1
 10
156.378511
 20
-96.400877
 30
0.0
 40
0.676244
 50
287.134650
 51
450.000006
  0
ARC
  8
0
  6
BYLAYER
 62
     1
 10
156.513765
 20
-97.584306
 30
0.0
 40
0.540997
 50
0.0
 51
83.207557
  0
LINE
  8
0
  6
BYLAYER
 62
     1
 10
157.054762
 20
-97.584306
 30
0.0
 11
157.054762
 21
-97.922428
 31
0.0
  0
ARC
  8
0
  6
BYLAYER
 62
     1
 10
157.595759
 20
-97.922428
 30
0.0
 40
0.540997
 50
180.000000
 51
202.024314
  0
LINE
  8
0
  6
BYLAYER
 62
     1
 10
156.350368
 20
-98.125303
 30
0.0
 11
157.094240
 21
-98.125303
 31
0.0
  0
ARC
  8
0
  6
BYLAYER
 62
     1
 10
156.851887
 20
-97.922428
 30
0.0
 40
0.540997
 50
180.000000
 51
202.024314
  0
LINE
  8
0
  6
BYLAYER
 62
     1
 10
156.310890
 20
-97.922428
 30
0.0
 11
156.310890
 21
-97.651933
 31
0.0
  0
LINE
  8
0
  6
BYLAYER
 62
     1
 10
154.890773
 20
-98.125303
 30
0.0
 11
155.600832
 21
-98.125303
 31
0.0
  0
LINE
  8
0
  6
BYLAYER
 62
     1
 10
155.600832
 20
-98.125303
 30
0.0
 11
155.600832
 21
-97.313810
 31
0.0
  0
LINE
  8
0
  6
BYLAYER
 62
     1
 10
155.972768
 20
-97.313810
 30
0.0
 11
155.600832
 21
-97.313810
 31
0.0
  0
ARC
  8
0
  6
BYLAYER
 62
     1
 10
155.972768
 20
-97.651933
 30
0.0
 40
0.338123
 50
0.0
 51
90.000003
  0
LINE
  8
0
  6
BYLAYER
 62
     1
 10
155.600832
 20
-96.772813
 30
0.0
 11
155.600832
 21
-96.265623
 31
0.0
  0
LINE
  8
0
  6
BYLAYER
 62
     1
 10
155.600832
 20
-96.265623
 30
0.0
 11
156.074202
 21
-96.265623
 31
0.0
  0
LINE
  8
0
  6
BYLAYER
 62
     1
 10
155.600832
 20
-96.772813
 30
0.0
 11
156.074202
 21
-96.772813
 31
0.0
  0
ARC
  8
0
  6
BYLAYER
 62
     1
 10
156.074202
 20
-96.519218
 30
0.0
 40
0.253595
 50
270.0
 51
450.000005
  0
LINE
  8
0
  6
BYLAYER
 62
     1
 10
151.664528
 20
-97.366184
 30
0.0
 11
151.224965
 21
-95.724626
 31
0.0
  0
LINE
  8
0
  6
BYLAYER
 62
     1
 10
151.224965
 20
-95.724626
 30
0.0
 11
150.514906
 21
-95.724626
 31
0.0
  0
LINE
  8
0
  6
BYLAYER
 62
     1
 10
150.514906
 20
-95.724626
 30
0.0
 11
151.258778
 21
-98.125303
 31
0.0
  0
LINE
  8
0
  6
BYLAYER
 62
     1
 10
151.664528
 20
-97.366184
 30
0.0
 11
152.104079
 21
-95.724626
 31
0.0
  0
LINE
  8
0
  6
BYLAYER
 62
     1
 10
152.104079
 20
-95.724626
 30
0.0
 11
152.814137
 21
-95.724626
 31
0.0
  0
LINE
  8
0
  6
BYLAYER
 62
     1
 10
152.814137
 20
-95.724626
 30
0.0
 11
152.070265
 21
-98.125303
 31
0.0
  0
LINE
  8
0
  6
BYLAYER
 62
     1
 10
152.070265
 20
-98.125303
 30
0.0
 11
151.258778
 21
-98.125303
 31
0.0
  0
LINE
  8
0
  6
BYLAYER
 62
     1
 10
157.159035
 20
-98.125303
 30
0.0
 11
157.869093
 21
-98.125303
 31
0.0
  0
LINE
  8
0
  6
BYLAYER
 62
     1
 10
157.869093
 20
-98.125303
 30
0.0
 11
157.869093
 21
-95.724626
 31
0.0
  0
LINE
  8
0
  6
BYLAYER
 62
     1
 10
157.869093
 20
-95.724626
 30
0.0
 11
157.159035
 21
-95.724626
 31
0.0
  0
LINE
  8
0
  6
BYLAYER
 62
     1
 10
157.159035
 20
-95.724626
 30
0.0
 11
157.159035
 21
-98.125303
 31
0.0
  0
ARC
  8
0
  6
BYLAYER
 62
     1
 10
159.204683
 20
-97.060356
 30
0.0
 40
1.149480
 50
270.0
 51
308.795693
  0
ARC
  8
0
  6
BYLAYER
 62
     1
 10
159.093432
 20
-96.941874
 30
0.0
 40
1.311587
 50
309.340576
 51
360.0
  0
ARC
  8
0
  6
BYLAYER
 62
     1
 10
159.093432
 20
-96.941874
 30
0.0
 40
1.311587
 50
0.0
 51
50.659424
  0
ARC
  8
0
  6
BYLAYER
 62
     1
 10
159.204683
 20
-96.823392
 30
0.0
 40
1.149480
 50
51.204307
 51
90.000000
  0
ARC
  8
0
  6
BYLAYER
 62
     1
 10
159.204683
 20
-96.823392
 30
0.0
 40
1.149480
 50
90.0
 51
128.795693
  0
ARC
  8
0
  6
BYLAYER
 62
     1
 10
159.315934
 20
-96.941874
 30
0.0
 40
1.311587
 50
129.340576
 51
180.0
  0
ARC
  8
0
  6
BYLAYER
 62
     1
 10
159.315934
 20
-96.941874
 30
0.0
 40
1.311587
 50
180.000000
 51
230.659424
  0
ARC
  8
0
  6
BYLAYER
 62
     1
 10
159.204683
 20
-97.060356
 30
0.0
 40
1.149480
 50
231.204307
 51
270.000000
  0
ARC
  8
0
  6
BYLAYER
 62
     1
 10
159.204683
 20
-96.604614
 30
0.0
 40
0.531899
 50
39.206799
 51
90.000000
  0
ARC
  8
0
  6
BYLAYER
 62
     1
 10
158.791261
 20
-96.941874
 30
0.0
 40
1.065436
 50
0.0
 51
39.206799
  0
ARC
  8
0
  6
BYLAYER
 62
     1
 10
158.791267
 20
-96.941874
 30
0.0
 40
1.065430
 50
320.793131
 51
360.0
  0
ARC
  8
0
  6
BYLAYER
 62
     1
 10
159.204683
 20
-97.279130
 30
0.0
 40
0.531900
 50
270.0
 51
320.793131
  0
ARC
  8
0
  6
BYLAYER
 62
     1
 10
159.204683
 20
-97.279130
 30
0.0
 40
0.531900
 50
219.206869
 51
270.000000
  0
ARC
  8
0
  6
BYLAYER
 62
     1
 10
159.618098
 20
-96.941874
 30
0.0
 40
1.065430
 50
180.000000
 51
219.206869
  0
ARC
  8
0
  6
BYLAYER
 62
     1
 10
159.618105
 20
-96.941874
 30
0.0
 40
1.065436
 50
140.793201
 51
180.000000
  0
ARC
  8
0
  6
BYLAYER
 62
     1
 10
159.204683
 20
-96.604614
 30
0.0
 40
0.531899
 50
90.0
 51
140.793201
  0
ARC
  8
0
  6
BYLAYER
 62
     1
 10
147.215938
 20
-92.976335
 30
0.0
 40
2.971998
 50
174.535650
 51
180.000000
  0
LINE
  8
0
  6
BYLAYER
 62
     1
 10
144.257445
 20
-92.693321
 30
0.0
 11
144.257445
 21
-92.693318
 31
0.0
  0
LINE
  8
0
  6
BYLAYER
 62
     1
 10
144.260679
 20
-92.661348
 30
0.0
 11
144.544320
 21
-92.541931
 31
0.0
  0
ARC
  8
0
  6
BYLAYER
 62
     1
 10
147.215950
 20
-92.976359
 30
0.0
 40
2.706712
 50
159.235383
 51
170.763998
  0
LINE
  8
0
  6
BYLAYER
 62
     1
 10
144.685040
 20
-92.016733
 30
0.0
 11
144.499121
 21
-91.771488
 31
0.0
  0
ARC
  8
0
  6
BYLAYER
 62
     1
 10
147.215938
 20
-92.976335
 30
0.0
 40
2.971995
 50
144.139514
 51
156.083795
  0
LINE
  8
0
  6
BYLAYER
 62
     1
 10
144.787752
 20
-91.262657
 30
0.0
 11
144.787929
 21
-91.262406
 31
0.0
  0
LINE
  8
0
  6
BYLAYER
 62
     1
 10
144.807297
 20
-91.235300
 30
0.0
 11
145.109267
 21
-91.276846
 31
0.0
  0
ARC
  8
0
  6
BYLAYER
 62
     1
 10
147.215938
 20
-92.976335
 30
0.0
 40
2.706696
 50
129.235643
 51
141.105976
  0
LINE
  8
0
  6
BYLAYER
 62
     1
 10
145.459664
 20
-90.916792
 30
0.0
 11
145.459957
 21
-90.916538
 31
0.0
  0
LINE
  8
0
  6
BYLAYER
 62
     1
 10
145.503922
 20
-90.879860
 30
0.0
 11
145.465525
 21
-90.574497
 31
0.0
  0
ARC
  8
0
  6
BYLAYER
 62
     1
 10
147.215938
 20
-92.976335
 30
0.0
 40
2.971998
 50
114.139607
 51
126.083853
  0
LINE
  8
0
  6
BYLAYER
 62
     1
 10
145.970119
 20
-90.278056
 30
0.0
 11
145.970320
 21
-90.277961
 31
0.0
  0
LINE
  8
0
  6
BYLAYER
 62
     1
 10
146.000506
 20
-90.264233
 30
0.0
 11
146.241237
 21
-90.451191
 31
0.0
  0
LINE
  8
0
  6
BYLAYER
 62
     1
 10
146.296279
 20
-90.430662
 30
0.0
 11
146.296584
 21
-90.430555
 31
0.0
  0
ARC
  8
0
  6
BYLAYER
 62
     1
 10
147.215938
 20
-92.976335
 30
0.0
 40
2.706695
 50
99.235601
 51
111.106038
  0
ARC
  8
0
  6
BYLAYER
 62
     1
 10
147.215938
 20
-92.976335
 30
0.0
 40
2.971998
 50
90.0
 51
96.083892
  0
LINE
  8
0
  6
BYLAYER
 62
     1
 10
146.900952
 20
-90.021076
 30
0.0
 11
146.781528
 21
-90.304727
 31
0.0
  0
LINE
  8
0
  6
BYLAYER
 62
     1
 10
150.174428
 20
-92.693321
 30
0.0
 11
150.174428
 21
-92.693318
 31
0.0
  0
LINE
  8
0
  6
BYLAYER
 62
     1
 10
150.171197
 20
-92.661348
 30
0.0
 11
149.887541
 21
-92.541929
 31
0.0
  0
ARC
  8
0
  6
BYLAYER
 62
     1
 10
147.215920
 20
-92.976359
 30
0.0
 40
2.706712
 50
9.235986
 51
20.764650
  0
LINE
  8
0
  6
BYLAYER
 62
     1
 10
149.746849
 20
-92.016705
 30
0.0
 11
149.932755
 21
-91.771488
 31
0.0
  0
ARC
  8
0
  6
BYLAYER
 62
     1
 10
147.215938
 20
-92.976335
 30
0.0
 40
2.971995
 50
23.916189
 51
35.860484
  0
LINE
  8
0
  6
BYLAYER
 62
     1
 10
149.644118
 20
-91.262657
 30
0.0
 11
149.643941
 21
-91.262406
 31
0.0
  0
LINE
  8
0
  6
BYLAYER
 62
     1
 10
149.624579
 20
-91.235300
 30
0.0
 11
149.322630
 21
-91.276842
 31
0.0
  0
ARC
  8
0
  6
BYLAYER
 62
     1
 10
147.215938
 20
-92.976335
 30
0.0
 40
2.706696
 50
38.894050
 51
50.764315
  0
LINE
  8
0
  6
BYLAYER
 62
     1
 10
148.972212
 20
-90.916792
 30
0.0
 11
148.971919
 21
-90.916538
 31
0.0
  0
LINE
  8
0
  6
BYLAYER
 62
     1
 10
148.927962
 20
-90.879811
 30
0.0
 11
148.966345
 21
-90.574493
 31
0.0
  0
ARC
  8
0
  6
BYLAYER
 62
     1
 10
147.215938
 20
-92.976335
 30
0.0
 40
2.971998
 50
53.916300
 51
65.860381
  0
LINE
  8
0
  6
BYLAYER
 62
     1
 10
148.461757
 20
-90.278056
 30
0.0
 11
148.461549
 21
-90.277961
 31
0.0
  0
LINE
  8
0
  6
BYLAYER
 62
     1
 10
148.431371
 20
-90.264233
 30
0.0
 11
148.190641
 21
-90.451183
 31
0.0
  0
LINE
  8
0
  6
BYLAYER
 62
     1
 10
148.135591
 20
-90.430662
 30
0.0
 11
148.135292
 21
-90.430555
 31
0.0
  0
ARC
  8
0
  6
BYLAYER
 62
     1
 10
147.215938
 20
-92.976335
 30
0.0
 40
2.706695
 50
68.894081
 51
80.764578
  0
ARC
  8
0
  6
BYLAYER
 62
     1
 10
147.215938
 20
-92.976335
 30
0.0
 40
2.971998
 50
84.535428
 51
90.000003
  0
LINE
  8
0
  6
BYLAYER
 62
     1
 10
147.530925
 20
-90.021076
 30
0.0
 11
147.650320
 21
-90.304679
 31
0.0
  0
ARC
  8
0
  6
BYLAYER
 62
     1
 10
147.215938
 20
-92.976335
 30
0.0
 40
2.971998
 50
180.000000
 51
186.083899
  0
LINE
  8
0
  6
BYLAYER
 62
     1
 10
144.257445
 20
-93.259345
 30
0.0
 11
144.257445
 21
-93.259352
 31
0.0
  0
LINE
  8
0
  6
BYLAYER
 62
     1
 10
144.260679
 20
-93.291321
 30
0.0
 11
144.544329
 21
-93.410741
 31
0.0
  0
ARC
  8
0
  6
BYLAYER
 62
     1
 10
147.215950
 20
-92.976310
 30
0.0
 40
2.706712
 50
189.236002
 51
200.764629
  0
LINE
  8
0
  6
BYLAYER
 62
     1
 10
144.685050
 20
-93.935924
 30
0.0
 11
144.499120
 21
-94.181179
 31
0.0
  0
ARC
  8
0
  6
BYLAYER
 62
     1
 10
147.215938
 20
-92.976335
 30
0.0
 40
2.971995
 50
203.916158
 51
215.860410
  0
LINE
  8
0
  6
BYLAYER
 62
     1
 10
144.787752
 20
-94.690009
 30
0.0
 11
144.787929
 21
-94.690260
 31
0.0
  0
LINE
  8
0
  6
BYLAYER
 62
     1
 10
144.807295
 20
-94.717366
 30
0.0
 11
145.109293
 21
-94.675821
 31
0.0
  0
ARC
  8
0
  6
BYLAYER
 62
     1
 10
147.215938
 20
-92.976335
 30
0.0
 40
2.706696
 50
218.894045
 51
230.764345
  0
LINE
  8
0
  6
BYLAYER
 62
     1
 10
145.459664
 20
-95.035874
 30
0.0
 11
145.459957
 21
-95.036128
 31
0.0
  0
LINE
  8
0
  6
BYLAYER
 62
     1
 10
145.503922
 20
-95.072809
 30
0.0
 11
145.465525
 21
-95.378172
 31
0.0
  0
ARC
  8
0
  6
BYLAYER
 62
     1
 10
147.215938
 20
-92.976335
 30
0.0
 40
2.971998
 50
233.916148
 51
245.860401
  0
LINE
  8
0
  6
BYLAYER
 62
     1
 10
145.970119
 20
-95.674610
 30
0.0
 11
145.970320
 21
-95.674708
 31
0.0
  0
LINE
  8
0
  6
BYLAYER
 62
     1
 10
146.000506
 20
-95.688436
 30
0.0
 11
146.241266
 21
-95.501452
 31
0.0
  0
LINE
  8
0
  6
BYLAYER
 62
     1
 10
146.296279
 20
-95.522004
 30
0.0
 11
146.296584
 21
-95.522114
 31
0.0
  0
LINE
  8
0
  6
BYLAYER
 62
     1
 10
150.174428
 20
-93.259345
 30
0.0
 11
150.174428
 21
-93.259352
 31
0.0
  0
LINE
  8
0
  6
BYLAYER
 62
     1
 10
150.171196
 20
-93.291321
 30
0.0
 11
149.887541
 21
-93.410741
 31
0.0
  0
LINE
  8
0
  6
BYLAYER
 62
     1
 10
149.746823
 20
-93.935931
 30
0.0
 11
149.932758
 21
-94.181181
 31
0.0
  0
LINE
  8
0
  6
BYLAYER
 62
     1
 10
149.644118
 20
-94.690009
 30
0.0
 11
149.643941
 21
-94.690260
 31
0.0
  0
LINE
  8
0
  6
BYLAYER
 62
     1
 10
149.624584
 20
-94.717366
 30
0.0
 11
149.322566
 21
-94.675820
 31
0.0
  0
LINE
  8
0
  6
BYLAYER
 62
     1
 10
148.972212
 20
-95.035874
 30
0.0
 11
148.971919
 21
-95.036128
 31
0.0
  0
LINE
  8
0
  6
BYLAYER
 62
     1
 10
148.927956
 20
-95.072808
 30
0.0
 11
148.966345
 21
-95.378177
 31
0.0
  0
LINE
  8
0
  6
BYLAYER
 62
     1
 10
148.431370
 20
-95.688436
 30
0.0
 11
148.190605
 21
-95.501454
 31
0.0
  0
ARC
  8
0
  6
BYLAYER
 62
     1
 10
147.215938
 20
-92.976335
 30
0.0
 40
2.706696
 50
309.235697
 51
321.105929
  0
ARC
  8
0
  6
BYLAYER
 62
     1
 10
147.215938
 20
-92.976335
 30
0.0
 40
2.706695
 50
248.893873
 51
270.000000
  0
ARC
  8
0
  6
BYLAYER
 62
     1
 10
147.215938
 20
-92.976335
 30
0.0
 40
2.971998
 50
294.783232
 51
306.083699
  0
LINE
  8
0
  6
BYLAYER
 62
     1
 10
148.461549
 20
-95.674708
 30
0.0
 11
148.431553
 21
-95.688824
 31
0.0
  0
ARC
  8
0
  6
BYLAYER
 62
     1
 10
147.215938
 20
-92.976335
 30
0.0
 40
2.971995
 50
324.139593
 51
336.083825
  0
ARC
  8
0
  6
BYLAYER
 62
     1
 10
147.215920
 20
-92.976310
 30
0.0
 40
2.706712
 50
339.235210
 51
350.764014
  0
ARC
  8
0
  6
BYLAYER
 62
     1
 10
147.215938
 20
-92.976335
 30
0.0
 40
2.971998
 50
353.916089
 51
360.000000
  0
ARC
  8
0
  6
BYLAYER
 62
     1
 10
147.215938
 20
-92.976335
 30
0.0
 40
2.971998
 50
0.0
 51
6.083907
  0
ARC
  8
0
  6
BYLAYER
 62
     1
 10
147.215938
 20
-92.976335
 30
0.0
 40
2.706695
 50
270.0
 51
291.106008
  0
CIRCLE
  8
0
  6
BYLAYER
 62
     1
 10
147.215938
 20
-92.976335
 30
0.0
 40
1.452032
  0
CIRCLE
  8
0
  6
BYLAYER
 62
     1
 10
147.215938
 20
-92.976335
 30
0.0
 40
2.118413
  0
CIRCLE
  8
0
  6
BYLAYER
 62
     1
 10
151.269625
 20
-139.372014
 30
0.0
 40
17.5
  0
LINE
  8
0
  6
BYLAYER
 62
     1
 10
151.269625
 20
-139.372014
 30
0.0
 11
148.269625
 21
-139.372014
 31
0.0
  0
LINE
  8
0
  6
BYLAYER
 62
     1
 10
151.269625
 20
-139.372014
 30
0.0
 11
151.269625
 21
-142.372014
 31
0.0
  0
LINE
  8
0
  6
BYLAYER
 62
     1
 10
151.269625
 20
-139.372014
 30
0.0
 11
154.269625
 21
-139.372014
 31
0.0
  0
LINE
  8
0
  6
BYLAYER
 62
     1
 10
151.269625
 20
-139.372014
 30
0.0
 11
151.269625
 21
-136.372014
 31
0.0
  0
ARC
  8
0
  6
BYLAYER
 62
     1
 10
133.519633
 20
-113.372045
 30
0.0
 40
0.75
 50
270.0
 51
450.000005
  0
ARC
  8
0
  6
BYLAYER
 62
     1
 10
142.338564
 20
-101.202947
 30
0.0
 40
12.000007
 50
272.452612
 51
283.169589
  0
ARC
  8
0
  6
BYLAYER
 62
     1
 10
142.545962
 20
-112.239995
 30
0.0
 40
0.999965
 50
287.823953
 51
344.999767
  0
ARC
  8
0
  6
BYLAYER
 62
     1
 10
151.269625
 20
-139.372014
 30
0.0
 40
27.200003
 50
346.830476
 51
373.169511
  0
LINE
  8
0
  6
BYLAYER
 62
     1
 10
178.142840
 20
-147.129765
 30
0.0
 11
187.122149
 21
-144.723729
 31
0.0
  0
ARC
  8
0
  6
BYLAYER
 62
     1
 10
189.438677
 20
-148.303075
 30
0.0
 40
12.000007
 50
166.830417
 51
177.547380
  0
LINE
  8
0
  6
BYLAYER
 62
     1
 10
182.269625
 20
-146.068181
 30
0.0
 11
182.269625
 21
-153.622029
 31
0.0
  0
ARC
  8
0
  6
BYLAYER
 62
     1
 10
184.769625
 20
-146.389379
 30
0.0
 40
1.0
 50
0.0
 51
104.999781
  0
LINE
  8
0
  6
BYLAYER
 62
     1
 10
179.019625
 20
-154.622029
 30
0.0
 11
184.769625
 21
-154.622029
 31
0.0
  0
LINE
  8
0
  6
BYLAYER
 62
     1
 10
179.019625
 20
-156.122029
 30
0.0
 11
184.769625
 21
-156.122029
 31
0.0
  0
ARC
  8
0
  6
BYLAYER
 62
     1
 10
179.019625
 20
-155.372029
 30
0.0
 40
0.75
 50
90.0
 51
270.000005
  0
ARC
  8
0
  6
BYLAYER
 62
     1
 10
178.401659
 20
-148.095677
 30
0.0
 40
0.999994
 50
105.000239
 51
162.176053
  0
LINE
  8
0
  6
BYLAYER
 62
     1
 10
185.769625
 20
-146.389379
 30
0.0
 11
185.769625
 21
-153.622029
 31
0.0
  0
ARC
  8
0
  6
BYLAYER
 62
     1
 10
181.269625
 20
-153.622029
 30
0.0
 40
1.000000
 50
270.0
 51
360.000003
  0
ARC
  8
0
  6
BYLAYER
 62
     1
 10
181.269625
 20
-157.122029
 30
0.0
 40
1.000000
 50
0.0
 51
90.000003
  0
ARC
  8
0
  6
BYLAYER
 62
     1
 10
184.769625
 20
-153.622029
 30
0.0
 40
1.000000
 50
270.0
 51
360.000003
  0
ARC
  8
0
  6
BYLAYER
 62
     1
 10
184.769625
 20
-157.122029
 30
0.0
 40
1.000000
 50
0.0
 51
90.000003
  0
CIRCLE
  8
0
  6
BYLAYER
 62
     1
 10
183.769625
 20
-139.372014
 30
0.0
 40
2.300003
  0
ARC
  8
0
  6
BYLAYER
 62
     1
 10
183.769610
 20
-139.372014
 30
0.0
 40
3.000006
 50
337.576062
 51
644.380646
  0
LINE
  8
0
  6
BYLAYER
 62
     1
 10
169.019633
 20
-112.622045
 30
0.0
 11
175.269640
 21
-112.622045
 31
0.0
  0
LINE
  8
0
  6
BYLAYER
 62
     1
 10
169.019633
 20
-114.122045
 30
0.0
 11
178.079455
 21
-114.122045
 31
0.0
  0
ARC
  8
0
  6
BYLAYER
 62
     1
 10
160.200686
 20
-101.202947
 30
0.0
 40
12.000007
 50
256.830412
 51
267.547389
  0
ARC
  8
0
  6
BYLAYER
 62
     1
 10
159.993288
 20
-112.239995
 30
0.0
 40
0.999965
 50
195.000234
 51
252.176048
  0
ARC
  8
0
  6
BYLAYER
 62
     1
 10
169.019633
 20
-113.372045
 30
0.0
 40
0.75
 50
90.0
 51
270.000005
  0
LINE
  8
0
  6
BYLAYER
 62
     1
 10
187.122149
 20
-134.020299
 30
0.0
 11
178.142840
 21
-131.614263
 31
0.0
  0
ARC
  8
0
  6
BYLAYER
 62
     1
 10
189.438677
 20
-130.440953
 30
0.0
 40
12.000007
 50
182.452617
 51
193.169580
  0
ARC
  8
0
  6
BYLAYER
 62
     1
 10
178.401659
 20
-130.648351
 30
0.0
 40
0.999994
 50
197.823944
 51
254.999758
  0
LINE
  8
0
  6
BYLAYER
 62
     1
 10
185.769625
 20
-132.354649
 30
0.0
 11
185.769625
 21
-125.044042
 31
0.0
  0
ARC
  8
0
  6
BYLAYER
 62
     1
 10
184.769625
 20
-132.354649
 30
0.0
 40
1.000016
 50
255.000222
 51
360.000003
  0
LINE
  8
0
  6
BYLAYER
 62
     1
 10
184.769640
 20
-114.131108
 30
0.0
 11
178.269640
 21
-114.131108
 31
0.0
  0
ARC
  8
0
  6
BYLAYER
 62
     1
 10
184.769640
 20
-115.131108
 30
0.0
 40
1.000000
 50
0.0
 51
90.000016
  0
CIRCLE
  8
0
  6
BYLAYER
 62
     1
 10
611.269625
 20
-426.372014
 30
0.0
 40
16.0
  0
LINE
  8
0
  6
BYLAYER
 62
     1
 10
583.269625
 20
-419.372014
 30
0.0
 11
584.269625
 21
-420.372014
 31
0.0
  0
LINE
  8
0
  6
BYLAYER
 62
     1
 10
595.269625
 20
-399.372014
 30
0.0
 11
583.269625
 21
-399.372014
 31
0.0
  0
LINE
  8
0
  6
BYLAYER
 62
     1
 10
583.269625
 20
-496.371999
 30
0.0
 11
595.269625
 21
-496.371999
 31
0.0
  0
LINE
  8
0
  6
BYLAYER
 62
     1
 10
595.269625
 20
-476.371999
 30
0.0
 11
583.269625
 21
-476.371999
 31
0.0
  0
LINE
  8
0
  6
BYLAYER
 62
     1
 10
583.269625
 20
-476.371999
 30
0.0
 11
584.269625
 21
-475.371999
 31
0.0
  0
LINE
  8
0
  6
BYLAYER
 62
     1
 10
635.769625
 20
-475.371999
 30
0.0
 11
638.269625
 21
-475.371999
 31
0.0
  0
LINE
  8
0
  6
BYLAYER
 62
     1
 10
584.269625
 20
-475.371999
 30
0.0
 11
595.269625
 21
-475.371999
 31
0.0
  0
ARC
  8
0
  6
BYLAYER
 62
     1
 10
589.269625
 20
-483.371999
 30
0.0
 40
3.25
 50
270.0
 51
360.000009
  0
ARC
  8
0
  6
BYLAYER
 62
     1
 10
589.269625
 20
-483.371999
 30
0.0
 40
3.25
 50
0.0
 51
90.000003
  0
ARC
  8
0
  6
BYLAYER
 62
     1
 10
633.269625
 20
-483.371999
 30
0.0
 40
3.25
 50
90.0
 51
269.999991
  0
ARC
  8
0
  6
BYLAYER
 62
     1
 10
633.269625
 20
-412.371983
 30
0.0
 40
3.250000
 50
90.0
 51
269.999991
  0
ARC
  8
0
  6
BYLAYER
 62
     1
 10
589.269625
 20
-412.372014
 30
0.0
 40
3.25
 50
270.0
 51
450.000019
  0
LINE
  8
0
  6
BYLAYER
 62
     1
 10
633.269625
 20
-409.121983
 30
0.0
 11
639.269625
 21
-409.121983
 31
0.0
  0
LINE
  8
0
  6
BYLAYER
 62
     1
 10
633.269625
 20
-415.621983
 30
0.0
 11
639.269625
 21
-415.621983
 31
0.0
  0
LINE
  8
0
  6
BYLAYER
 62
     1
 10
633.269625
 20
-480.121999
 30
0.0
 11
639.269625
 21
-480.121999
 31
0.0
  0
LINE
  8
0
  6
BYLAYER
 62
     1
 10
633.269625
 20
-486.621999
 30
0.0
 11
639.269625
 21
-486.621999
 31
0.0
  0
LINE
  8
0
  6
BYLAYER
 62
     1
 10
589.269625
 20
-486.621999
 30
0.0
 11
583.269625
 21
-486.621999
 31
0.0
  0
LINE
  8
0
  6
BYLAYER
 62
     1
 10
589.269625
 20
-480.121999
 30
0.0
 11
583.269625
 21
-480.121999
 31
0.0
  0
LINE
  8
0
  6
BYLAYER
 62
     1
 10
589.269625
 20
-415.622014
 30
0.0
 11
583.269625
 21
-415.622014
 31
0.0
  0
LINE
  8
0
  6
BYLAYER
 62
     1
 10
589.269625
 20
-409.122014
 30
0.0
 11
583.269625
 21
-409.122014
 31
0.0
  0
LINE
  8
0
  6
BYLAYER
 62
     1
 10
639.269625
 20
-415.621983
 30
0.0
 11
639.269625
 21
-399.371983
 31
0.0
  0
LINE
  8
0
  6
BYLAYER
 62
     1
 10
595.269625
 20
-413.143254
 30
0.0
 11
595.269625
 21
-399.372014
 31
0.0
  0
ARC
  8
0
  6
BYLAYER
 62
     1
 10
596.269625
 20
-413.143254
 30
0.0
 40
1.0
 50
180.000000
 51
318.590371
  0
LINE
  8
0
  6
BYLAYER
 62
     1
 10
583.269625
 20
-419.372014
 30
0.0
 11
592.190829
 21
-419.372014
 31
0.0
  0
ARC
  8
0
  6
BYLAYER
 62
     1
 10
592.190829
 20
-420.372014
 30
0.0
 40
1.0
 50
342.543216
 51
450.000000
  0
LINE
  8
0
  6
BYLAYER
 62
     1
 10
584.269625
 20
-420.372014
 30
0.0
 11
593.190829
 21
-420.372014
 31
0.0
  0
LINE
  8
0
  6
BYLAYER
 62
     1
 10
630.348391
 20
-419.371983
 30
0.0
 11
639.269625
 21
-419.371983
 31
0.0
  0
ARC
  8
0
  6
BYLAYER
 62
     1
 10
630.348391
 20
-420.371983
 30
0.0
 40
1.000006
 50
90.0
 51
197.456764
  0
LINE
  8
0
  6
BYLAYER
 62
     1
 10
595.269625
 20
-496.371999
 30
0.0
 11
595.269625
 21
-441.431493
 31
0.0
  0
LINE
  8
0
  6
BYLAYER
 62
     1
 10
638.269625
 20
-420.371983
 30
0.0
 11
629.348391
 21
-420.372014
 31
0.0
  0
CIRCLE
  8
0
  6
BYLAYER
 62
     1
 10
611.269625
 20
-405.372014
 30
0.0
 40
2.356506
  0
ARC
  8
0
  6
BYLAYER
 62
     1
 10
611.269625
 20
-426.372014
 30
0.0
 40
19.000019
 50
111.279996
 51
138.590371
  0
ARC
  8
0
  6
BYLAYER
 62
     1
 10
603.285250
 20
-405.872014
 30
0.0
 40
2.999987
 50
291.280056
 51
363.583312
  0
ARC
  8
0
  6
BYLAYER
 62
     1
 10
611.269625
 20
-405.372014
 30
0.0
 40
5.000010
 50
356.416674
 51
543.583310
  0
ARC
  8
0
  6
BYLAYER
 62
     1
 10
619.254000
 20
-405.871983
 30
0.0
 40
3.000004
 50
176.41727
 51
248.720164
  0
LINE
  8
0
  6
BYLAYER
 62
     1
 10
611.269625
 20
-400.372014
 30
0.0
 11
595.269625
 21
-400.372014
 31
0.0
  0
ARC
  8
0
  6
BYLAYER
 62
     1
 10
633.015322
 20
-429.707341
 30
0.0
 40
2.999977
 50
171.280094
 51
243.583315
  0
ARC
  8
0
  6
BYLAYER
 62
     1
 10
589.523897
 20
-429.707372
 30
0.0
 40
3.000004
 50
296.417260
 51
368.720167
  0
ARC
  8
0
  6
BYLAYER
 62
     1
 10
611.269625
 20
-426.372014
 30
0.0
 40
19.000006
 50
162.542369
 51
188.720026
  0
ARC
  8
0
  6
BYLAYER
 62
     1
 10
611.269625
 20
-426.372014
 30
0.0
 40
18.999987
 50
351.279962
 51
377.457752
  0
LINE
  8
0
  6
BYLAYER
 62
     1
 10
627.269625
 20
-413.143254
 30
0.0
 11
627.269625
 21
-399.372014
 31
0.0
  0
LINE
  8
0
  6
BYLAYER
 62
     1
 10
627.269625
 20
-496.371999
 30
0.0
 11
627.269625
 21
-441.431493
 31
0.0
  0
LINE
  8
0
  6
BYLAYER
 62
     1
 10
627.269625
 20
-399.372014
 30
0.0
 11
639.269625
 21
-399.371983
 31
0.0
  0
LINE
  8
0
  6
BYLAYER
 62
     1
 10
611.269625
 20
-400.372014
 30
0.0
 11
627.269625
 21
-400.372014
 31
0.0
  0
LINE
  8
0
  6
BYLAYER
 62
     1
 10
638.269625
 20
-475.371999
 30
0.0
 11
627.269625
 21
-475.371999
 31
0.0
  0
LINE
  8
0
  6
BYLAYER
 62
     1
 10
639.269625
 20
-476.371999
 30
0.0
 11
627.269625
 21
-476.371999
 31
0.0
  0
LINE
  8
0
  6
BYLAYER
 62
     1
 10
627.269625
 20
-496.371999
 30
0.0
 11
639.269625
 21
-496.371999
 31
0.0
  0
ARC
  8
0
  6
BYLAYER
 62
     1
 10
611.269625
 20
-426.372014
 30
0.0
 40
19.000023
 50
41.409699
 51
68.720002
  0
ARC
  8
0
  6
BYLAYER
 62
     1
 10
626.269625
 20
-413.143224
 30
0.0
 40
1.0
 50
221.409625
 51
359.999996
  0
LINE
  8
0
  6
BYLAYER
 62
     1
 10
638.269625
 20
-475.371999
 30
0.0
 11
638.269625
 21
-420.371983
 31
0.0
  0
LINE
  8
0
  6
BYLAYER
 62
     1
 10
584.269625
 20
-420.372014
 30
0.0
 11
584.269625
 21
-475.371999
 31
0.0
  0
LINE
  8
0
  6
BYLAYER
 62
     1
 10
639.269625
 20
-493.872014
 30
0.0
 11
639.769625
 21
-493.872014
 31
0.0
  0
ARC
  8
0
  6
BYLAYER
 62
     1
 10
639.769625
 20
-493.372014
 30
0.0
 40
0.5
 50
270.0
 51
359.999982
  0
LINE
  8
0
  6
BYLAYER
 62
     1
 10
642.769625
 20
-428.872014
 30
0.0
 11
642.769625
 21
-483.872014
 31
0.0
  0
LINE
  8
0
  6
BYLAYER
 62
     1
 10
640.269625
 20
-493.372014
 30
0.0
 11
640.269625
 21
-456.372014
 31
0.0
  0
LINE
  8
0
  6
BYLAYER
 62
     1
 10
639.269625
 20
-418.872014
 30
0.0
 11
639.769625
 21
-418.872014
 31
0.0
  0
ARC
  8
0
  6
BYLAYER
 62
     1
 10
639.769625
 20
-419.372014
 30
0.0
 40
0.500000
 50
0.0
 51
89.999996
  0
LINE
  8
0
  6
BYLAYER
 62
     1
 10
639.269625
 20
-449.955998
 30
0.0
 11
639.269625
 21
-415.621983
 31
0.0
  0
LINE
  8
0
  6
BYLAYER
 62
     1
 10
639.269625
 20
-496.371999
 30
0.0
 11
639.269625
 21
-462.788030
 31
0.0
  0
LINE
  8
0
  6
BYLAYER
 62
     1
 10
640.269625
 20
-456.372014
 30
0.0
 11
640.269625
 21
-419.372014
 31
0.0
  0
LINE
  8
0
  6
BYLAYER
 62
     1
 10
583.269625
 20
-415.621983
 30
0.0
 11
583.269625
 21
-399.371983
 31
0.0
  0
LINE
  8
0
  6
BYLAYER
 62
     1
 10
583.269625
 20
-493.872014
 30
0.0
 11
582.769625
 21
-493.872014
 31
0.0
  0
ARC
  8
0
  6
BYLAYER
 62
     1
 10
582.769625
 20
-493.372014
 30
0.0
 40
0.500000
 50
180.000000
 51
269.999982
  0
LINE
  8
0
  6
BYLAYER
 62
     1
 10
579.769625
 20
-428.872014
 30
0.0
 11
579.769625
 21
-483.872014
 31
0.0
  0
LINE
  8
0
  6
BYLAYER
 62
     1
 10
582.269625
 20
-493.372014
 30
0.0
 11
582.269625
 21
-456.372014
 31
0.0
  0
LINE
  8
0
  6
BYLAYER
 62
     1
 10
583.269625
 20
-418.872014
 30
0.0
 11
582.769625
 21
-418.872014
 31
0.0
  0
ARC
  8
0
  6
BYLAYER
 62
     1
 10
582.769625
 20
-419.372014
 30
0.0
 40
0.500000
 50
90.0
 51
179.999996
  0
LINE
  8
0
  6
BYLAYER
 62
     1
 10
583.269625
 20
-449.955998
 30
0.0
 11
583.269625
 21
-415.621983
 31
0.0
  0
LINE
  8
0
  6
BYLAYER
 62
     1
 10
583.269625
 20
-496.371999
 30
0.0
 11
583.269625
 21
-462.788030
 31
0.0
  0
LINE
  8
0
  6
BYLAYER
 62
     1
 10
582.269625
 20
-456.372014
 30
0.0
 11
582.269625
 21
-419.372014
 31
0.0
  0
LINE
  8
0
  6
BYLAYER
 62
     1
 10
584.269625
 20
-449.955998
 30
0.0
 11
583.269625
 21
-449.955998
 31
0.0
  0
LINE
  8
0
  6
BYLAYER
 62
     1
 10
584.269625
 20
-462.788030
 30
0.0
 11
583.269625
 21
-462.788030
 31
0.0
  0
LINE
  8
0
  6
BYLAYER
 62
     1
 10
638.269625
 20
-475.371999
 30
0.0
 11
639.269625
 21
-476.371999
 31
0.0
  0
LINE
  8
0
  6
BYLAYER
 62
     1
 10
638.269625
 20
-420.371983
 30
0.0
 11
639.269625
 21
-419.371983
 31
0.0
  0
LINE
  8
0
  6
BYLAYER
 62
     1
 10
627.269625
 20
-494.371999
 30
0.0
 11
595.269625
 21
-494.371999
 31
0.0
  0
ARC
  8
0
  6
BYLAYER
 62
     1
 10
611.269625
 20
-426.372014
 30
0.0
 40
18.999992
 50
231.280068
 51
308.720070
  0
ARC
  8
0
  6
BYLAYER
 62
     1
 10
593.083102
 20
-436.872014
 30
0.0
 40
4.999998
 50
116.416681
 51
303.583330
  0
ARC
  8
0
  6
BYLAYER
 62
     1
 10
597.508303
 20
-443.536687
 30
0.0
 40
2.999989
 50
51.280060
 51
123.583308
  0
CIRCLE
  8
0
  6
BYLAYER
 62
     1
 10
593.083102
 20
-436.872014
 30
0.0
 40
2.356506
  0
LINE
  8
0
  6
BYLAYER
 62
     1
 10
638.269625
 20
-462.788030
 30
0.0
 11
639.269625
 21
-462.788030
 31
0.0
  0
ARC
  8
0
  6
BYLAYER
 62
     1
 10
629.456148
 20
-436.872014
 30
0.0
 40
4.999996
 50
236.416698
 51
423.583307
  0
ARC
  8
0
  6
BYLAYER
 62
     1
 10
625.030978
 20
-443.536687
 30
0.0
 40
3.000004
 50
56.417291
 51
128.720150
  0
CIRCLE
  8
0
  6
BYLAYER
 62
     1
 10
629.456148
 20
-436.872014
 30
0.0
 40
2.356506
  0
LINE
  8
0
  6
BYLAYER
 62
     1
 10
638.269625
 20
-449.955998
 30
0.0
 11
639.269625
 21
-449.955998
 31
0.0
  0
LINE
  8
0
  6
BYLAYER
 62
     1
 10
579.769625
 20
-428.872014
 30
0.0
 11
582.269625
 21
-428.872014
 31
0.0
  0
LINE
  8
0
  6
BYLAYER
 62
     1
 10
579.769625
 20
-483.872014
 30
0.0
 11
582.269625
 21
-483.872014
 31
0.0
  0
LINE
  8
0
  6
BYLAYER
 62
     1
 10
642.769625
 20
-483.872014
 30
0.0
 11
640.269625
 21
-483.872014
 31
0.0
  0
LINE
  8
0
  6
BYLAYER
 62
     1
 10
642.769625
 20
-428.872014
 30
0.0
 11
640.269625
 21
-428.872014
 31
0.0
  0
LINE
  8
0
  6
BYLAYER
 62
     1
 10
111.269629
 20
-398.372014
 30
0.0
 11
111.269629
 21
-454.372010
 31
0.0
  0
LINE
  8
0
  6
BYLAYER
 62
     1
 10
131.269625
 20
-398.372014
 30
0.0
 11
131.269625
 21
-410.372014
 31
0.0
  0
LINE
  8
0
  6
BYLAYER
 62
     1
 10
131.269625
 20
-442.372014
 30
0.0
 11
131.269625
 21
-454.372010
 31
0.0
  0
LINE
  8
0
  6
BYLAYER
 62
     1
 10
132.269625
 20
-453.372014
 30
0.0
 11
131.269625
 21
-454.372010
 31
0.0
  0
LINE
  8
0
  6
BYLAYER
 62
     1
 10
132.269625
 20
-399.372014
 30
0.0
 11
131.269625
 21
-398.372014
 31
0.0
  0
LINE
  8
0
  6
BYLAYER
 62
     1
 10
132.269625
 20
-453.372014
 30
0.0
 11
132.269625
 21
-442.372014
 31
0.0
  0
LINE
  8
0
  6
BYLAYER
 62
     1
 10
132.269625
 20
-399.372014
 30
0.0
 11
151.269625
 21
-399.371999
 31
0.0
  0
LINE
  8
0
  6
BYLAYER
 62
     1
 10
151.269625
 20
-410.371999
 30
0.0
 11
111.269629
 21
-410.372014
 31
0.0
  0
LINE
  8
0
  6
BYLAYER
 62
     1
 10
151.269625
 20
-442.372014
 30
0.0
 11
111.269629
 21
-442.372014
 31
0.0
  0
LINE
  8
0
  6
BYLAYER
 62
     1
 10
115.269625
 20
-410.372014
 30
0.0
 11
119.269625
 21
-410.372014
 31
0.0
  0
ARC
  8
0
  6
BYLAYER
 62
     1
 10
124.269625
 20
-404.372014
 30
0.0
 40
3.250000
 50
180.000000
 51
360.000005
  0
ARC
  8
0
  6
BYLAYER
 62
     1
 10
124.269625
 20
-448.372014
 30
0.0
 40
3.250000
 50
0.0
 51
180.000005
  0
LINE
  8
0
  6
BYLAYER
 62
     1
 10
121.019625
 20
-404.372014
 30
0.0
 11
121.019625
 21
-398.372014
 31
0.0
  0
LINE
  8
0
  6
BYLAYER
 62
     1
 10
127.519625
 20
-404.372014
 30
0.0
 11
127.519625
 21
-398.372014
 31
0.0
  0
LINE
  8
0
  6
BYLAYER
 62
     1
 10
127.519625
 20
-448.372014
 30
0.0
 11
127.519625
 21
-454.372010
 31
0.0
  0
LINE
  8
0
  6
BYLAYER
 62
     1
 10
121.019625
 20
-448.372014
 30
0.0
 11
121.019625
 21
-454.372010
 31
0.0
  0
LINE
  8
0
  6
BYLAYER
 62
     1
 10
171.269625
 20
-398.371999
 30
0.0
 11
171.269625
 21
-410.371999
 31
0.0
  0
LINE
  8
0
  6
BYLAYER
 62
     1
 10
171.269640
 20
-442.372014
 30
0.0
 11
171.269640
 21
-454.372010
 31
0.0
  0
LINE
  8
0
  6
BYLAYER
 62
     1
 10
170.269640
 20
-453.372014
 30
0.0
 11
171.269640
 21
-454.372010
 31
0.0
  0
LINE
  8
0
  6
BYLAYER
 62
     1
 10
170.269625
 20
-399.371999
 30
0.0
 11
171.269625
 21
-398.371999
 31
0.0
  0
LINE
  8
0
  6
BYLAYER
 62
     1
 10
170.269640
 20
-453.372014
 30
0.0
 11
170.269640
 21
-442.372014
 31
0.0
  0
LINE
  8
0
  6
BYLAYER
 62
     1
 10
170.269625
 20
-410.371999
 30
0.0
 11
170.269625
 21
-399.371999
 31
0.0
  0
LINE
  8
0
  6
BYLAYER
 62
     1
 10
170.269625
 20
-399.371999
 30
0.0
 11
151.269625
 21
-399.371999
 31
0.0
  0
LINE
  8
0
  6
BYLAYER
 62
     1
 10
151.269625
 20
-410.371999
 30
0.0
 11
191.269625
 21
-410.371999
 31
0.0
  0
LINE
  8
0
  6
BYLAYER
 62
     1
 10
151.269625
 20
-442.372014
 30
0.0
 11
191.269640
 21
-442.371999
 31
0.0
  0
ARC
  8
0
  6
BYLAYER
 62
     1
 10
178.269640
 20
-448.372014
 30
0.0
 40
3.25
 50
0.0
 51
180.000019
  0
LINE
  8
0
  6
BYLAYER
 62
     1
 10
181.519625
 20
-404.371999
 30
0.0
 11
181.519625
 21
-398.371999
 31
0.0
  0
LINE
  8
0
  6
BYLAYER
 62
     1
 10
175.019625
 20
-404.371999
 30
0.0
 11
175.019625
 21
-398.371999
 31
0.0
  0
LINE
  8
0
  6
BYLAYER
 62
     1
 10
175.019640
 20
-448.372014
 30
0.0
 11
175.019640
 21
-454.372010
 31
0.0
  0
LINE
  8
0
  6
BYLAYER
 62
     1
 10
181.519640
 20
-448.372014
 30
0.0
 11
181.519640
 21
-454.372010
 31
0.0
  0
LINE
  8
0
  6
BYLAYER
 62
     1
 10
132.269625
 20
-453.372014
 30
0.0
 11
170.269640
 21
-453.372014
 31
0.0
  0
LINE
  8
0
  6
BYLAYER
 62
     1
 10
125.269625
 20
-423.372014
 30
0.0
 11
125.269625
 21
-429.371999
 31
0.0
  0
ARC
  8
0
  6
BYLAYER
 62
     1
 10
126.269625
 20
-428.122029
 30
0.0
 40
1.0
 50
180.000000
 51
269.999996
  0
ARC
  8
0
  6
BYLAYER
 62
     1
 10
126.269625
 20
-424.622014
 30
0.0
 40
1.0
 50
90.0
 51
180.000003
  0
ARC
  8
0
  6
BYLAYER
 62
     1
 10
125.253924
 20
-431.622014
 30
0.0
 40
1.0
 50
90.0
 51
131.409012
  0
ARC
  8
0
  6
BYLAYER
 62
     1
 10
125.253954
 20
-421.122014
 30
0.0
 40
1.0
 50
228.590367
 51
270.000001
  0
LINE
  8
0
  6
BYLAYER
 62
     1
 10
114.269629
 20
-398.372014
 30
0.0
 11
114.269629
 21
-410.372014
 31
0.0
  0
LINE
  8
0
  6
BYLAYER
 62
     1
 10
114.269629
 20
-442.372014
 30
0.0
 11
114.269629
 21
-454.372010
 31
0.0
  0
LINE
  8
0
  6
BYLAYER
 62
     1
 10
188.269625
 20
-398.371999
 30
0.0
 11
188.269625
 21
-410.371999
 31
0.0
  0
LINE
  8
0
  6
BYLAYER
 62
     1
 10
188.269625
 20
-442.371999
 30
0.0
 11
188.269625
 21
-454.372003
 31
0.0
  0
LINE
  8
0
  6
BYLAYER
 62
     1
 10
191.269610
 20
-453.372014
 30
0.0
 11
192.269610
 21
-453.372014
 31
0.0
  0
LINE
  8
0
  6
BYLAYER
 62
     1
 10
192.269610
 20
-453.372014
 30
0.0
 11
192.269610
 21
-399.372014
 31
0.0
  0
LINE
  8
0
  6
BYLAYER
 62
     1
 10
191.269610
 20
-399.372014
 30
0.0
 11
192.269610
 21
-399.372014
 31
0.0
  0
LINE
  8
0
  6
BYLAYER
 62
     1
 10
191.269625
 20
-398.371999
 30
0.0
 11
191.269625
 21
-410.371999
 31
0.0
  0
LINE
  8
0
  6
BYLAYER
 62
     1
 10
191.269640
 20
-454.372003
 30
0.0
 11
191.269640
 21
-442.371999
 31
0.0
  0
LINE
  8
0
  6
BYLAYER
 62
     1
 10
113.769606
 20
-454.372014
 30
0.0
 11
113.769606
 21
-454.872014
 31
0.0
  0
ARC
  8
0
  6
BYLAYER
 62
     1
 10
114.269606
 20
-454.872014
 30
0.0
 40
0.500000
 50
180.000000
 51
270.000009
  0
LINE
  8
0
  6
BYLAYER
 62
     1
 10
178.769625
 20
-457.872014
 30
0.0
 11
123.769625
 21
-457.872014
 31
0.0
  0
LINE
  8
0
  6
BYLAYER
 62
     1
 10
131.269625
 20
-454.372014
 30
0.0
 11
111.269598
 21
-454.372014
 31
0.0
  0
LINE
  8
0
  6
BYLAYER
 62
     1
 10
124.928927
 20
-454.372014
 30
0.0
 11
124.928927
 21
-455.372014
 31
0.0
  0
LINE
  8
0
  6
BYLAYER
 62
     1
 10
114.269606
 20
-455.372014
 30
0.0
 11
124.889590
 21
-455.372014
 31
0.0
  0
LINE
  8
0
  6
BYLAYER
 62
     1
 10
188.769594
 20
-454.372014
 30
0.0
 11
188.769594
 21
-454.872014
 31
0.0
  0
ARC
  8
0
  6
BYLAYER
 62
     1
 10
188.269594
 20
-454.872014
 30
0.0
 40
0.5
 50
270.0
 51
360.000016
  0
LINE
  8
0
  6
BYLAYER
 62
     1
 10
177.610277
 20
-454.372014
 30
0.0
 11
177.610277
 21
-455.372014
 31
0.0
  0
LINE
  8
0
  6
BYLAYER
 62
     1
 10
188.269594
 20
-455.372014
 30
0.0
 11
177.649615
 21
-455.372014
 31
0.0
  0
LINE
  8
0
  6
BYLAYER
 62
     1
 10
191.269610
 20
-454.372014
 30
0.0
 11
171.269640
 21
-454.372014
 31
0.0
  0
LINE
  8
0
  6
BYLAYER
 62
     1
 10
113.769606
 20
-398.372014
 30
0.0
 11
113.769606
 21
-397.872014
 31
0.0
  0
ARC
  8
0
  6
BYLAYER
 62
     1
 10
114.269606
 20
-397.872014
 30
0.0
 40
0.500000
 50
90.0
 51
180.000003
  0
LINE
  8
0
  6
BYLAYER
 62
     1
 10
178.769625
 20
-394.872014
 30
0.0
 11
123.769625
 21
-394.872014
 31
0.0
  0
LINE
  8
0
  6
BYLAYER
 62
     1
 10
131.269625
 20
-398.372014
 30
0.0
 11
111.269598
 21
-398.372014
 31
0.0
  0
LINE
  8
0
  6
BYLAYER
 62
     1
 10
124.928927
 20
-398.372014
 30
0.0
 11
124.928927
 21
-397.372014
 31
0.0
  0
LINE
  8
0
  6
BYLAYER
 62
     1
 10
114.269606
 20
-397.372014
 30
0.0
 11
124.889590
 21
-397.372014
 31
0.0
  0
LINE
  8
0
  6
BYLAYER
 62
     1
 10
188.769594
 20
-398.372014
 30
0.0
 11
188.769594
 21
-397.872014
 31
0.0
  0
ARC
  8
0
  6
BYLAYER
 62
     1
 10
188.269594
 20
-397.872014
 30
0.0
 40
0.500000
 50
0.0
 51
90.000023
  0
LINE
  8
0
  6
BYLAYER
 62
     1
 10
177.610277
 20
-398.372014
 30
0.0
 11
177.610277
 21
-397.372014
 31
0.0
  0
LINE
  8
0
  6
BYLAYER
 62
     1
 10
188.269594
 20
-397.372014
 30
0.0
 11
177.649615
 21
-397.372014
 31
0.0
  0
LINE
  8
0
  6
BYLAYER
 62
     1
 10
191.269610
 20
-398.372014
 30
0.0
 11
171.269625
 21
-398.372014
 31
0.0
  0
LINE
  8
0
  6
BYLAYER
 62
     1
 10
120.769625
 20
-424.372014
 30
0.0
 11
120.769625
 21
-410.372010
 31
0.0
  0
LINE
  8
0
  6
BYLAYER
 62
     1
 10
123.269625
 20
-410.372014
 30
0.0
 11
123.269625
 21
-414.122014
 31
0.0
  0
ARC
  8
0
  6
BYLAYER
 62
     1
 10
124.269625
 20
-414.122014
 30
0.0
 40
1.0
 50
180.000000
 51
269.999996
  0
ARC
  8
0
  6
BYLAYER
 62
     1
 10
124.269625
 20
-417.622014
 30
0.0
 40
1.0
 50
90.0
 51
179.999996
  0
ARC
  8
0
  6
BYLAYER
 62
     1
 10
123.269625
 20
-423.372014
 30
0.0
 40
2.0
 50
0.0
 51
70.528868
  0
ARC
  8
0
  6
BYLAYER
 62
     1
 10
124.269625
 20
-420.543584
 30
0.0
 40
1.0
 50
180.000000
 51
250.528656
  0
LINE
  8
0
  6
BYLAYER
 62
     1
 10
123.269625
 20
-424.372014
 30
0.0
 11
123.269625
 21
-417.622014
 31
0.0
  0
ARC
  8
0
  6
BYLAYER
 62
     1
 10
122.269625
 20
-424.372014
 30
0.0
 40
1.0
 50
270.0
 51
360.000003
  0
LINE
  8
0
  6
BYLAYER
 62
     1
 10
121.769625
 20
-425.372014
 30
0.0
 11
122.269625
 21
-425.372014
 31
0.0
  0
ARC
  8
0
  6
BYLAYER
 62
     1
 10
121.769625
 20
-424.372014
 30
0.0
 40
1.0
 50
180.000000
 51
269.999996
  0
LINE
  8
0
  6
BYLAYER
 62
     1
 10
120.769625
 20
-428.371983
 30
0.0
 11
120.769625
 21
-442.372026
 31
0.0
  0
ARC
  8
0
  6
BYLAYER
 62
     1
 10
121.769625
 20
-428.371983
 30
0.0
 40
1.000000
 50
90.0
 51
179.999989
  0
LINE
  8
0
  6
BYLAYER
 62
     1
 10
121.769625
 20
-427.371983
 30
0.0
 11
122.269625
 21
-427.371983
 31
0.0
  0
ARC
  8
0
  6
BYLAYER
 62
     1
 10
122.269625
 20
-428.371983
 30
0.0
 40
1.0
 50
0.0
 51
90.000003
  0
LINE
  8
0
  6
BYLAYER
 62
     1
 10
123.269625
 20
-428.371983
 30
0.0
 11
123.269625
 21
-435.121983
 31
0.0
  0
ARC
  8
0
  6
BYLAYER
 62
     1
 10
124.269625
 20
-435.121983
 30
0.0
 40
1.0
 50
180.000000
 51
270.000009
  0
ARC
  8
0
  6
BYLAYER
 62
     1
 10
124.269625
 20
-438.621983
 30
0.0
 40
1.000000
 50
90.0
 51
179.999989
  0
LINE
  8
0
  6
BYLAYER
 62
     1
 10
123.269625
 20
-442.371983
 30
0.0
 11
123.269625
 21
-438.621983
 31
0.0
  0
ARC
  8
0
  6
BYLAYER
 62
     1
 10
124.269625
 20
-432.200414
 30
0.0
 40
1.0
 50
109.471351
 51
180.000000
  0
ARC
  8
0
  6
BYLAYER
 62
     1
 10
123.269625
 20
-429.371983
 30
0.0
 40
2.000000
 50
289.471118
 51
360.000000
  0
LINE
  8
0
  6
BYLAYER
 62
     1
 10
138.769640
 20
-429.122029
 30
0.0
 11
126.269625
 21
-429.122029
 31
0.0
  0
LINE
  8
0
  6
BYLAYER
 62
     1
 10
125.253924
 20
-430.622014
 30
0.0
 11
138.769640
 21
-430.622014
 31
0.0
  0
LINE
  8
0
  6
BYLAYER
 62
     1
 10
125.253954
 20
-422.122014
 30
0.0
 11
138.769640
 21
-422.122014
 31
0.0
  0
LINE
  8
0
  6
BYLAYER
 62
     1
 10
138.769640
 20
-423.622075
 30
0.0
 11
126.269625
 21
-423.622014
 31
0.0
  0
LINE
  8
0
  6
BYLAYER
 62
     1
 10
124.269625
 20
-415.122014
 30
0.0
 11
138.769640
 21
-415.122014
 31
0.0
  0
LINE
  8
0
  6
BYLAYER
 62
     1
 10
124.269625
 20
-416.622014
 30
0.0
 11
138.769640
 21
-416.622014
 31
0.0
  0
LINE
  8
0
  6
BYLAYER
 62
     1
 10
124.269625
 20
-436.122014
 30
0.0
 11
138.769640
 21
-436.122014
 31
0.0
  0
LINE
  8
0
  6
BYLAYER
 62
     1
 10
138.769640
 20
-437.622014
 30
0.0
 11
124.269625
 21
-437.622014
 31
0.0
  0
ARC
  8
0
  6
BYLAYER
 62
     1
 10
138.769640
 20
-436.872014
 30
0.0
 40
0.75
 50
270.0
 51
450.000005
  0
ARC
  8
0
  6
BYLAYER
 62
     1
 10
138.769640
 20
-429.872014
 30
0.0
 40
0.75
 50
270.0
 51
450.000005
  0
ARC
  8
0
  6
BYLAYER
 62
     1
 10
138.769640
 20
-422.872014
 30
0.0
 40
0.75
 50
270.0
 51
450.000005
  0
ARC
  8
0
  6
BYLAYER
 62
     1
 10
138.769640
 20
-415.872014
 30
0.0
 40
0.75
 50
270.0
 51
450.000005
  0
LINE
  8
0
  6
BYLAYER
 62
     1
 10
132.269625
 20
-410.372014
 30
0.0
 11
132.269625
 21
-399.372014
 31
0.0
  0
ARC
  8
0
  6
BYLAYER
 62
     1
 10
177.285296
 20
-421.122014
 30
0.0
 40
1.0
 50
270.0
 51
311.409634
  0
LINE
  8
0
  6
BYLAYER
 62
     1
 10
181.769625
 20
-424.372014
 30
0.0
 11
181.769625
 21
-410.372010
 31
0.0
  0
ARC
  8
0
  6
BYLAYER
 62
     1
 10
179.269625
 20
-423.372014
 30
0.0
 40
2.0
 50
109.471132
 51
180.0
  0
LINE
  8
0
  6
BYLAYER
 62
     1
 10
179.269625
 20
-424.372014
 30
0.0
 11
179.269625
 21
-417.622014
 31
0.0
  0
LINE
  8
0
  6
BYLAYER
 62
     1
 10
163.769610
 20
-429.122029
 30
0.0
 11
176.269625
 21
-429.122029
 31
0.0
  0
LINE
  8
0
  6
BYLAYER
 62
     1
 10
177.285326
 20
-430.622014
 30
0.0
 11
163.769610
 21
-430.622014
 31
0.0
  0
LINE
  8
0
  6
BYLAYER
 62
     1
 10
177.285296
 20
-422.122014
 30
0.0
 11
163.769610
 21
-422.122014
 31
0.0
  0
LINE
  8
0
  6
BYLAYER
 62
     1
 10
163.769610
 20
-423.622075
 30
0.0
 11
176.269625
 21
-423.622014
 31
0.0
  0
LINE
  8
0
  6
BYLAYER
 62
     1
 10
178.269625
 20
-436.122014
 30
0.0
 11
163.769610
 21
-436.122014
 31
0.0
  0
LINE
  8
0
  6
BYLAYER
 62
     1
 10
163.769610
 20
-437.622014
 30
0.0
 11
178.269625
 21
-437.622014
 31
0.0
  0
ARC
  8
0
  6
BYLAYER
 62
     1
 10
163.769610
 20
-436.872014
 30
0.0
 40
0.75
 50
90.0
 51
270.000005
  0
ARC
  8
0
  6
BYLAYER
 62
     1
 10
163.769610
 20
-429.872014
 30
0.0
 40
0.75
 50
90.0
 51
270.000005
  0
ARC
  8
0
  6
BYLAYER
 62
     1
 10
163.769610
 20
-422.872014
 30
0.0
 40
0.75
 50
90.0
 51
270.000005
  0
LINE
  8
0
  6
BYLAYER
 62
     1
 10
181.769625
 20
-428.371983
 30
0.0
 11
181.769625
 21
-442.372026
 31
0.0
  0
LINE
  8
0
  6
BYLAYER
 62
     1
 10
179.269625
 20
-428.371983
 30
0.0
 11
179.269625
 21
-435.121983
 31
0.0
  0
LINE
  8
0
  6
BYLAYER
 62
     1
 10
179.269625
 20
-442.371983
 30
0.0
 11
179.269625
 21
-438.621983
 31
0.0
  0
ARC
  8
0
  6
BYLAYER
 62
     1
 10
178.269625
 20
-435.121983
 30
0.0
 40
1.0
 50
270.0
 51
360.000009
  0
ARC
  8
0
  6
BYLAYER
 62
     1
 10
178.269625
 20
-438.621983
 30
0.0
 40
1.000000
 50
0.0
 51
89.999989
  0
ARC
  8
0
  6
BYLAYER
 62
     1
 10
180.269625
 20
-424.372014
 30
0.0
 40
1.0
 50
180.000000
 51
270.000003
  0
ARC
  8
0
  6
BYLAYER
 62
     1
 10
180.269625
 20
-428.371983
 30
0.0
 40
1.000000
 50
90.0
 51
180.000003
  0
LINE
  8
0
  6
BYLAYER
 62
     1
 10
177.269625
 20
-423.372014
 30
0.0
 11
177.269625
 21
-429.371999
 31
0.0
  0
ARC
  8
0
  6
BYLAYER
 62
     1
 10
179.269625
 20
-429.371983
 30
0.0
 40
2.000000
 50
180.000000
 51
250.528882
  0
ARC
  8
0
  6
BYLAYER
 62
     1
 10
177.285326
 20
-431.622014
 30
0.0
 40
1.0
 50
48.590988
 51
90.000000
  0
ARC
  8
0
  6
BYLAYER
 62
     1
 10
178.269625
 20
-432.200414
 30
0.0
 40
1.0
 50
0.0
 51
70.528649
  0
ARC
  8
0
  6
BYLAYER
 62
     1
 10
176.269625
 20
-428.122029
 30
0.0
 40
1.0
 50
270.0
 51
359.999996
  0
ARC
  8
0
  6
BYLAYER
 62
     1
 10
176.269625
 20
-424.622014
 30
0.0
 40
1.000000
 50
0.0
 51
90.000003
  0
ARC
  8
0
  6
BYLAYER
 62
     1
 10
180.769625
 20
-428.371983
 30
0.0
 40
1.0
 50
0.0
 51
89.999989
  0
ARC
  8
0
  6
BYLAYER
 62
     1
 10
180.769625
 20
-424.372014
 30
0.0
 40
1.0
 50
270.0
 51
359.999996
  0
LINE
  8
0
  6
BYLAYER
 62
     1
 10
180.769625
 20
-427.371983
 30
0.0
 11
180.269625
 21
-427.371983
 31
0.0
  0
LINE
  8
0
  6
BYLAYER
 62
     1
 10
180.769625
 20
-425.372014
 30
0.0
 11
180.269625
 21
-425.372014
 31
0.0
  0
LINE
  8
0
  6
BYLAYER
 62
     1
 10
178.269625
 20
-415.122014
 30
0.0
 11
163.769610
 21
-415.122014
 31
0.0
  0
LINE
  8
0
  6
BYLAYER
 62
     1
 10
178.269625
 20
-416.622014
 30
0.0
 11
163.769610
 21
-416.622014
 31
0.0
  0
ARC
  8
0
  6
BYLAYER
 62
     1
 10
163.769610
 20
-415.872014
 30
0.0
 40
0.75
 50
90.0
 51
270.000005
  0
LINE
  8
0
  6
BYLAYER
 62
     1
 10
179.269625
 20
-410.372014
 30
0.0
 11
179.269625
 21
-414.122014
 31
0.0
  0
ARC
  8
0
  6
BYLAYER
 62
     1
 10
178.269625
 20
-420.543584
 30
0.0
 40
1.0
 50
289.471344
 51
360.0
  0
ARC
  8
0
  6
BYLAYER
 62
     1
 10
178.269625
 20
-417.622014
 30
0.0
 40
1.000000
 50
0.0
 51
89.999996
  0
ARC
  8
0
  6
BYLAYER
 62
     1
 10
178.269625
 20
-414.122014
 30
0.0
 40
1.0
 50
270.0
 51
359.999996
  0
ARC
  8
0
  6
BYLAYER
 62
     1
 10
178.269625
 20
-404.371999
 30
0.0
 40
3.25
 50
180.000000
 51
359.999991
  0
LINE
  8
0
  6
BYLAYER
 62
     1
 10
187.269625
 20
-410.371999
 30
0.0
 11
183.269625
 21
-410.371999
 31
0.0
  0
LINE
  8
0
  6
BYLAYER
 62
     1
 10
123.769625
 20
-457.872014
 30
0.0
 11
123.769625
 21
-455.372014
 31
0.0
  0
LINE
  8
0
  6
BYLAYER
 62
     1
 10
178.769625
 20
-457.872014
 30
0.0
 11
178.769625
 21
-455.372014
 31
0.0
  0
LINE
  8
0
  6
BYLAYER
 62
     1
 10
123.769625
 20
-394.872014
 30
0.0
 11
123.769625
 21
-397.372014
 31
0.0
  0
LINE
  8
0
  6
BYLAYER
 62
     1
 10
178.769625
 20
-394.872014
 30
0.0
 11
178.769625
 21
-397.372014
 31
0.0
  0
LINE
  8
0
  6
BYLAYER
 62
     1
 10
192.269625
 20
-136.873967
 30
0.0
 11
192.269625
 21
-109.372014
 31
0.0
  0
LINE
  8
0
  6
BYLAYER
 62
     1
 10
192.269442
 20
-136.871953
 30
0.0
 11
192.415804
 21
-136.878240
 31
0.0
  0
ARC
  8
0
  6
BYLAYER
 62
     1
 10
192.394381
 20
-137.377751
 30
0.0
 40
0.499971
 50
15.000011
 51
87.543457
  0
ARC
  8
0
  6
BYLAYER
 62
     1
 10
200.269442
 20
-167.054997
 30
0.0
 40
2.000054
 50
180.000000
 51
267.000341
  0
LINE
  8
0
  6
BYLAYER
 62
     1
 10
198.096529
 20
-148.950871
 30
0.0
 11
192.853457
 21
-137.174748
 31
0.0
  0
LINE
  8
0
  6
BYLAYER
 62
     1
 10
198.249972
 20
-164.233586
 30
0.0
 11
193.007571
 21
-137.520940
 31
0.0
  0
LINE
  8
0
  6
BYLAYER
 62
     1
 10
198.269442
 20
-167.054997
 30
0.0
 11
198.269442
 21
-109.372014
 31
0.0
  0
ARC
  8
0
  6
BYLAYER
 62
     1
 10
196.269442
 20
-149.764348
 30
0.0
 40
2.0
 50
0.0
 51
24.000038
  0
LINE
  8
0
  6
BYLAYER
 62
     1
 10
200.164797
 20
-169.052312
 30
0.0
 11
206.269442
 21
-169.372144
 31
0.0
  0
LINE
  8
0
  6
BYLAYER
 62
     1
 10
206.269442
 20
-169.372144
 30
0.0
 11
206.269442
 21
-109.372197
 31
0.0
  0
LINE
  8
0
  6
BYLAYER
 62
     1
 10
192.269625
 20
-128.272160
 30
0.0
 11
192.269625
 21
-136.872319
 31
0.0
  0
LINE
  8
0
  6
BYLAYER
 62
     1
 10
192.269625
 20
-81.870061
 30
0.0
 11
192.269625
 21
-109.372014
 31
0.0
  0
LINE
  8
0
  6
BYLAYER
 62
     1
 10
192.269442
 20
-81.872075
 30
0.0
 11
192.415804
 21
-81.865788
 31
0.0
  0
ARC
  8
0
  6
BYLAYER
 62
     1
 10
192.394381
 20
-81.366277
 30
0.0
 40
0.499971
 50
272.456543
 51
344.999989
  0
ARC
  8
0
  6
BYLAYER
 62
     1
 10
200.269442
 20
-51.689031
 30
0.0
 40
2.000054
 50
92.999654
 51
179.999995
  0
LINE
  8
0
  6
BYLAYER
 62
     1
 10
198.096529
 20
-69.793157
 30
0.0
 11
192.853457
 21
-81.569280
 31
0.0
  0
LINE
  8
0
  6
BYLAYER
 62
     1
 10
198.249972
 20
-54.510442
 30
0.0
 11
193.007571
 21
-81.223088
 31
0.0
  0
LINE
  8
0
  6
BYLAYER
 62
     1
 10
198.269442
 20
-51.689031
 30
0.0
 11
198.269442
 21
-109.372014
 31
0.0
  0
ARC
  8
0
  6
BYLAYER
 62
     1
 10
196.269442
 20
-68.979680
 30
0.0
 40
2.0
 50
335.999962
 51
360.000000
  0
LINE
  8
0
  6
BYLAYER
 62
     1
 10
200.164797
 20
-49.691716
 30
0.0
 11
206.269442
 21
-49.371884
 31
0.0
  0
LINE
  8
0
  6
BYLAYER
 62
     1
 10
206.269442
 20
-49.371884
 30
0.0
 11
206.269442
 21
-109.371831
 31
0.0
  0
LINE
  8
0
  6
BYLAYER
 62
     1
 10
192.269625
 20
-90.471868
 30
0.0
 11
192.269625
 21
-81.871709
 31
0.0
  0
LINE
  8
0
  6
BYLAYER
 62
     1
 10
583.269625
 20
-179.372029
 30
0.0
 11
595.269625
 21
-179.372029
 31
0.0
  0
ARC
  8
0
  6
BYLAYER
 62
     1
 10
589.269625
 20
-166.372029
 30
0.0
 40
3.250000
 50
270.0
 51
360.087282
  0
ARC
  8
0
  6
BYLAYER
 62
     1
 10
633.269625
 20
-166.372014
 30
0.0
 40
3.25
 50
179.912987
 51
269.999991
  0
LINE
  8
0
  6
BYLAYER
 62
     1
 10
584.606244
 20
-163.122029
 30
0.0
 11
583.269625
 21
-163.122029
 31
0.0
  0
LINE
  8
0
  6
BYLAYER
 62
     1
 10
589.269625
 20
-169.622029
 30
0.0
 11
583.269625
 21
-169.622029
 31
0.0
  0
LINE
  8
0
  6
BYLAYER
 62
     1
 10
633.269625
 20
-169.622014
 30
0.0
 11
639.269625
 21
-169.622014
 31
0.0
  0
LINE
  8
0
  6
BYLAYER
 62
     1
 10
637.933036
 20
-163.122014
 30
0.0
 11
639.269625
 21
-163.122014
 31
0.0
  0
LINE
  8
0
  6
BYLAYER
 62
     1
 10
595.269625
 20
-167.199343
 30
0.0
 11
595.269625
 21
-179.372029
 31
0.0
  0
LINE
  8
0
  6
BYLAYER
 62
     1
 10
627.269625
 20
-179.372029
 30
0.0
 11
639.269625
 21
-179.372014
 31
0.0
  0
LINE
  8
0
  6
BYLAYER
 62
     1
 10
627.269625
 20
-167.199343
 30
0.0
 11
627.269625
 21
-179.372029
 31
0.0
  0
LINE
  8
0
  6
BYLAYER
 62
     1
 10
639.269625
 20
-176.872014
 30
0.0
 11
639.769625
 21
-176.872014
 31
0.0
  0
ARC
  8
0
  6
BYLAYER
 62
     1
 10
639.769625
 20
-176.372014
 30
0.0
 40
0.5
 50
270.0
 51
359.999982
  0
ARC
  8
0
  6
BYLAYER
 62
     1
 10
641.769625
 20
-165.571996
 30
0.0
 40
1.0
 50
270.0
 51
359.999982
  0
LINE
  8
0
  6
BYLAYER
 62
     1
 10
640.469637
 20
-166.571996
 30
0.0
 11
641.769625
 21
-166.571996
 31
0.0
  0
ARC
  8
0
  6
BYLAYER
 62
     1
 10
640.469637
 20
-166.771993
 30
0.0
 40
0.199997
 50
90.0
 51
179.999996
  0
LINE
  8
0
  6
BYLAYER
 62
     1
 10
642.769625
 20
-160.438148
 30
0.0
 11
642.769625
 21
-165.571996
 31
0.0
  0
LINE
  8
0
  6
BYLAYER
 62
     1
 10
640.269625
 20
-176.372014
 30
0.0
 11
640.269625
 21
-166.571996
 31
0.0
  0
LINE
  8
0
  6
BYLAYER
 62
     1
 10
639.269625
 20
-179.371999
 30
0.0
 11
639.269625
 21
-162.438011
 31
0.0
  0
LINE
  8
0
  6
BYLAYER
 62
     1
 10
583.269625
 20
-176.872014
 30
0.0
 11
582.769625
 21
-176.872014
 31
0.0
  0
ARC
  8
0
  6
BYLAYER
 62
     1
 10
582.769625
 20
-176.372014
 30
0.0
 40
0.500000
 50
180.000000
 51
269.999982
  0
ARC
  8
0
  6
BYLAYER
 62
     1
 10
580.769625
 20
-165.571996
 30
0.0
 40
1.0
 50
180.000000
 51
269.999982
  0
LINE
  8
0
  6
BYLAYER
 62
     1
 10
582.269625
 20
-166.571996
 30
0.0
 11
580.769625
 21
-166.571996
 31
0.0
  0
LINE
  8
0
  6
BYLAYER
 62
     1
 10
579.769625
 20
-160.438148
 30
0.0
 11
579.769625
 21
-165.571996
 31
0.0
  0
LINE
  8
0
  6
BYLAYER
 62
     1
 10
582.269625
 20
-176.372014
 30
0.0
 11
582.269625
 21
-166.571996
 31
0.0
  0
LINE
  8
0
  6
BYLAYER
 62
     1
 10
583.269625
 20
-179.371999
 30
0.0
 11
583.269625
 21
-162.438011
 31
0.0
  0
LINE
  8
0
  6
BYLAYER
 62
     1
 10
595.269625
 20
-177.371999
 30
0.0
 11
627.269625
 21
-177.371999
 31
0.0
  0
LINE
  8
0
  6
BYLAYER
 62
     7
 10
578.432127
 20
-55.500846
 30
0.0
 11
581.094623
 21
-60.112436
 31
0.0
  0
LINE
  8
0
  6
BYLAYER
 62
     7
 10
578.432127
 20
-51.507157
 30
0.0
 11
578.432127
 21
-66.778046
 31
0.0
  0
LINE
  8
0
  6
BYLAYER
 62
     7
 10
644.107014
 20
-51.507103
 30
0.0
 11
644.107014
 21
-66.777963
 31
0.0
  0
LINE
  8
0
  6
BYLAYER
 62
     7
 10
644.107014
 20
-55.500846
 30
0.0
 11
641.444519
 21
-60.112382
 31
0.0
  0
LINE
  8
0
  6
BYLAYER
 62
     7
 10
613.044622
 20
-166.505486
 30
0.0
 11
613.044622
 21
-163.125123
 31
0.0
  0
ARC
  8
0
  6
BYLAYER
 62
     7
 10
614.819619
 20
-166.505486
 30
0.0
 40
1.775000
 50
180.000000
 51
273.555492
  0
ARC
  8
0
  6
BYLAYER
 62
     7
 10
611.269625
 20
-109.372014
 30
0.0
 40
59.018649
 50
273.555497
 51
305.180611
  0
ARC
  8
0
  6
BYLAYER
 62
     7
 10
644.250886
 20
-156.159526
 30
0.0
 40
1.774994
 50
305.180529
 51
405.000001
  0
LINE
  8
0
  6
BYLAYER
 62
     7
 10
643.229775
 20
-152.628184
 30
0.0
 11
645.506000
 21
-154.904412
 31
0.0
  0
ARC
  8
0
  6
BYLAYER
 62
     7
 10
658.057137
 20
-142.353302
 30
0.0
 40
1.775000
 50
224.999928
 51
324.819372
  0
LINE
  8
0
  6
BYLAYER
 62
     7
 10
656.802023
 20
-143.608403
 30
0.0
 11
654.525789
 21
-141.332172
 31
0.0
  0
ARC
  8
0
  6
BYLAYER
 62
     7
 10
611.269625
 20
-109.372014
 30
0.0
 40
59.018649
 50
324.819372
 51
356.444487
  0
LINE
  8
0
  6
BYLAYER
 62
     7
 10
665.022734
 20
-111.147011
 30
0.0
 11
668.403097
 21
-111.147011
 31
0.0
  0
ARC
  8
0
  6
BYLAYER
 62
     7
 10
668.403097
 20
-112.922008
 30
0.0
 40
1.775000
 50
356.444487
 51
450.000003
  0
ARC
  8
0
  6
BYLAYER
 62
     7
 10
611.269625
 20
-109.372014
 30
0.0
 40
59.018649
 50
54.819389
 51
56.193488
  0
ARC
  8
0
  6
BYLAYER
 62
     7
 10
644.250886
 20
-62.584502
 30
0.0
 40
1.774994
 50
314.999992
 51
414.819471
  0
LINE
  8
0
  6
BYLAYER
 62
     7
 10
644.107014
 20
-65.238605
 30
0.0
 11
645.506000
 21
-63.839616
 31
0.0
  0
LINE
  8
0
  6
BYLAYER
 62
     7
 10
661.636139
 20
-82.342474
 30
0.0
 11
658.708685
 21
-84.032657
 31
0.0
  0
ARC
  8
0
  6
BYLAYER
 62
     7
 10
662.523637
 20
-83.879671
 30
0.0
 40
1.775001
 50
26.444505
 51
119.999990
  0
ARC
  8
0
  6
BYLAYER
 62
     7
 10
611.269625
 20
-109.372014
 30
0.0
 40
59.018649
 50
3.555507
 51
26.444490
  0
ARC
  8
0
  6
BYLAYER
 62
     7
 10
668.403097
 20
-105.822020
 30
0.0
 40
1.775000
 50
270.0
 51
363.555494
  0
LINE
  8
0
  6
BYLAYER
 62
     7
 10
665.022734
 20
-107.597017
 30
0.0
 11
668.403097
 21
-107.597017
 31
0.0
  0
LINE
  8
0
  6
BYLAYER
 62
     7
 10
609.494628
 20
-166.505486
 30
0.0
 11
609.494628
 21
-163.125123
 31
0.0
  0
ARC
  8
0
  6
BYLAYER
 62
     7
 10
607.719631
 20
-166.505486
 30
0.0
 40
1.775000
 50
266.444508
 51
360.0
  0
ARC
  8
0
  6
BYLAYER
 62
     7
 10
611.269625
 20
-109.372014
 30
0.0
 40
59.018649
 50
234.819389
 51
266.444503
  0
ARC
  8
0
  6
BYLAYER
 62
     7
 10
578.288364
 20
-156.159526
 30
0.0
 40
1.774994
 50
134.999999
 51
234.819471
  0
LINE
  8
0
  6
BYLAYER
 62
     7
 10
579.309475
 20
-152.628184
 30
0.0
 11
577.033250
 21
-154.904412
 31
0.0
  0
ARC
  8
0
  6
BYLAYER
 62
     7
 10
564.482113
 20
-142.353302
 30
0.0
 40
1.775000
 50
215.180628
 51
315.000072
  0
LINE
  8
0
  6
BYLAYER
 62
     7
 10
565.737227
 20
-143.608403
 30
0.0
 11
568.013461
 21
-141.332172
 31
0.0
  0
ARC
  8
0
  6
BYLAYER
 62
     7
 10
611.269625
 20
-109.372014
 30
0.0
 40
59.018649
 50
183.555513
 51
215.180628
  0
LINE
  8
0
  6
BYLAYER
 62
     7
 10
557.516516
 20
-111.147011
 30
0.0
 11
554.136153
 21
-111.147011
 31
0.0
  0
ARC
  8
0
  6
BYLAYER
 62
     7
 10
554.136153
 20
-112.922008
 30
0.0
 40
1.775000
 50
90.0
 51
183.555516
  0
ARC
  8
0
  6
BYLAYER
 62
     7
 10
611.269625
 20
-109.372014
 30
0.0
 40
59.018649
 50
123.806639
 51
125.180611
  0
ARC
  8
0
  6
BYLAYER
 62
     7
 10
578.288364
 20
-62.584502
 30
0.0
 40
1.774994
 50
125.180529
 51
225.000008
  0
LINE
  8
0
  6
BYLAYER
 62
     7
 10
578.432127
 20
-65.238497
 30
0.0
 11
577.033250
 21
-63.839616
 31
0.0
  0
LINE
  8
0
  6
BYLAYER
 62
     7
 10
560.903111
 20
-82.342474
 30
0.0
 11
563.830565
 21
-84.032657
 31
0.0
  0
ARC
  8
0
  6
BYLAYER
 62
     7
 10
560.015613
 20
-83.879671
 30
0.0
 40
1.775001
 50
60.000010
 51
153.555495
  0
ARC
  8
0
  6
BYLAYER
 62
     7
 10
611.269625
 20
-109.372014
 30
0.0
 40
59.018649
 50
153.555510
 51
176.444493
  0
ARC
  8
0
  6
BYLAYER
 62
     7
 10
554.136153
 20
-105.822020
 30
0.0
 40
1.775000
 50
176.444506
 51
270.000000
  0
LINE
  8
0
  6
BYLAYER
 62
     7
 10
557.516516
 20
-107.597017
 30
0.0
 11
554.136153
 21
-107.597017
 31
0.0
  0
CIRCLE
  8
0
  6
BYLAYER
 62
     7
 10
611.269625
 20
-109.372014
 30
0.0
 40
44.595492
  0
CIRCLE
  8
0
  6
BYLAYER
 62
     7
 10
611.269625
 20
-109.372014
 30
0.0
 40
53.782408
  0
CIRCLE
  8
0
  6
BYLAYER
 62
     7
 10
611.269625
 20
-109.372014
 30
0.0
 40
40.824930
  0
LINE
  8
0
  6
BYLAYER
 62
     7
 10
612.157123
 20
-99.609531
 30
0.0
 11
619.257111
 21
-99.609531
 31
0.0
  0
LINE
  8
0
  6
BYLAYER
 62
     7
 10
612.157123
 20
-83.634558
 30
0.0
 11
612.157123
 21
-90.734546
 31
0.0
  0
LINE
  8
0
  6
BYLAYER
 62
     7
 10
612.157123
 20
-74.759574
 30
0.0
 11
612.157123
 21
-81.859561
 31
0.0
  0
LINE
  8
0
  6
BYLAYER
 62
     7
 10
612.157123
 20
-92.509543
 30
0.0
 11
612.157123
 21
-99.609531
 31
0.0
  0
LINE
  8
0
  6
BYLAYER
 62
     7
 10
619.257111
 20
-81.859561
 30
0.0
 11
619.257111
 21
-74.759574
 31
0.0
  0
LINE
  8
0
  6
BYLAYER
 62
     7
 10
621.032108
 20
-81.859561
 30
0.0
 11
621.032108
 21
-74.759574
 31
0.0
  0
LINE
  8
0
  6
BYLAYER
 62
     7
 10
612.157123
 20
-92.509543
 30
0.0
 11
619.257111
 21
-92.509543
 31
0.0
  0
LINE
  8
0
  6
BYLAYER
 62
     7
 10
612.157123
 20
-90.734546
 30
0.0
 11
619.257111
 21
-90.734546
 31
0.0
  0
LINE
  8
0
  6
BYLAYER
 62
     7
 10
612.157123
 20
-83.634558
 30
0.0
 11
619.257111
 21
-83.634558
 31
0.0
  0
LINE
  8
0
  6
BYLAYER
 62
     7
 10
621.032108
 20
-81.859561
 30
0.0
 11
627.988320
 21
-81.859561
 31
0.0
  0
LINE
  8
0
  6
BYLAYER
 62
     7
 10
612.157123
 20
-81.859561
 30
0.0
 11
619.257111
 21
-81.859561
 31
0.0
  0
LINE
  8
0
  6
BYLAYER
 62
     7
 10
621.032108
 20
-74.759574
 30
0.0
 11
627.988320
 21
-74.759574
 31
0.0
  0
LINE
  8
0
  6
BYLAYER
 62
     7
 10
612.157123
 20
-74.759574
 30
0.0
 11
619.257111
 21
-74.759574
 31
0.0
  0
LINE
  8
0
  6
BYLAYER
 62
     7
 10
627.988320
 20
-81.859561
 30
0.0
 11
627.988320
 21
-74.759574
 31
0.0
  0
LINE
  8
0
  6
BYLAYER
 62
     7
 10
619.257111
 20
-99.609531
 30
0.0
 11
619.257111
 21
-92.509543
 31
0.0
  0
LINE
  8
0
  6
BYLAYER
 62
     7
 10
619.257111
 20
-90.734546
 30
0.0
 11
619.257111
 21
-83.634558
 31
0.0
  0
LINE
  8
0
  6
BYLAYER
 62
     7
 10
621.032108
 20
-99.609531
 30
0.0
 11
628.132096
 21
-99.609531
 31
0.0
  0
LINE
  8
0
  6
BYLAYER
 62
     7
 10
621.032108
 20
-83.634558
 30
0.0
 11
621.032108
 21
-90.734546
 31
0.0
  0
LINE
  8
0
  6
BYLAYER
 62
     7
 10
621.032108
 20
-92.509543
 30
0.0
 11
621.032108
 21
-99.609531
 31
0.0
  0
LINE
  8
0
  6
BYLAYER
 62
     7
 10
621.032108
 20
-92.509543
 30
0.0
 11
628.132096
 21
-92.509543
 31
0.0
  0
LINE
  8
0
  6
BYLAYER
 62
     7
 10
621.032108
 20
-90.734546
 30
0.0
 11
628.132096
 21
-90.734546
 31
0.0
  0
LINE
  8
0
  6
BYLAYER
 62
     7
 10
621.032108
 20
-83.634558
 30
0.0
 11
628.132096
 21
-83.634558
 31
0.0
  0
LINE
  8
0
  6
BYLAYER
 62
     7
 10
628.132096
 20
-99.609531
 30
0.0
 11
628.132096
 21
-92.509543
 31
0.0
  0
LINE
  8
0
  6
BYLAYER
 62
     7
 10
628.132096
 20
-90.734546
 30
0.0
 11
628.132096
 21
-83.634558
 31
0.0
  0
LINE
  8
0
  6
BYLAYER
 62
     7
 10
629.907093
 20
-99.609531
 30
0.0
 11
637.007081
 21
-99.609531
 31
0.0
  0
LINE
  8
0
  6
BYLAYER
 62
     7
 10
629.907093
 20
-83.634558
 30
0.0
 11
629.907093
 21
-90.734546
 31
0.0
  0
LINE
  8
0
  6
BYLAYER
 62
     7
 10
629.907093
 20
-92.509543
 30
0.0
 11
629.907093
 21
-99.609531
 31
0.0
  0
LINE
  8
0
  6
BYLAYER
 62
     7
 10
629.907093
 20
-92.509543
 30
0.0
 11
637.007081
 21
-92.509543
 31
0.0
  0
LINE
  8
0
  6
BYLAYER
 62
     7
 10
629.907093
 20
-90.734546
 30
0.0
 11
637.007081
 21
-90.734546
 31
0.0
  0
LINE
  8
0
  6
BYLAYER
 62
     7
 10
629.907093
 20
-83.634558
 30
0.0
 11
637.007081
 21
-83.634558
 31
0.0
  0
LINE
  8
0
  6
BYLAYER
 62
     7
 10
637.007081
 20
-99.609531
 30
0.0
 11
637.007081
 21
-92.509543
 31
0.0
  0
LINE
  8
0
  6
BYLAYER
 62
     7
 10
637.007081
 20
-90.734546
 30
0.0
 11
637.007081
 21
-83.634558
 31
0.0
  0
LINE
  8
0
  6
BYLAYER
 62
     7
 10
621.032108
 20
-108.484516
 30
0.0
 11
628.132096
 21
-108.484516
 31
0.0
  0
LINE
  8
0
  6
BYLAYER
 62
     7
 10
621.032108
 20
-101.384528
 30
0.0
 11
621.032108
 21
-108.484516
 31
0.0
  0
LINE
  8
0
  6
BYLAYER
 62
     7
 10
621.032108
 20
-101.384528
 30
0.0
 11
628.132096
 21
-101.384528
 31
0.0
  0
LINE
  8
0
  6
BYLAYER
 62
     7
 10
628.132096
 20
-108.484516
 30
0.0
 11
628.132096
 21
-101.384528
 31
0.0
  0
LINE
  8
0
  6
BYLAYER
 62
     7
 10
629.907093
 20
-108.484516
 30
0.0
 11
637.007081
 21
-108.484516
 31
0.0
  0
LINE
  8
0
  6
BYLAYER
 62
     7
 10
629.907093
 20
-101.384528
 30
0.0
 11
629.907093
 21
-108.484516
 31
0.0
  0
LINE
  8
0
  6
BYLAYER
 62
     7
 10
629.907093
 20
-101.384528
 30
0.0
 11
637.007081
 21
-101.384528
 31
0.0
  0
LINE
  8
0
  6
BYLAYER
 62
     7
 10
637.007081
 20
-108.484516
 30
0.0
 11
637.007081
 21
-101.384528
 31
0.0
  0
LINE
  8
0
  6
BYLAYER
 62
     7
 10
638.782078
 20
-99.609531
 30
0.0
 11
645.882065
 21
-99.609531
 31
0.0
  0
LINE
  8
0
  6
BYLAYER
 62
     7
 10
638.782078
 20
-92.509543
 30
0.0
 11
638.782078
 21
-99.609531
 31
0.0
  0
LINE
  8
0
  6
BYLAYER
 62
     7
 10
638.782078
 20
-92.509543
 30
0.0
 11
645.882065
 21
-92.509543
 31
0.0
  0
LINE
  8
0
  6
BYLAYER
 62
     7
 10
645.882065
 20
-99.609531
 30
0.0
 11
645.882065
 21
-92.509543
 31
0.0
  0
LINE
  8
0
  6
BYLAYER
 62
     7
 10
638.782078
 20
-108.484516
 30
0.0
 11
645.882065
 21
-108.484516
 31
0.0
  0
LINE
  8
0
  6
BYLAYER
 62
     7
 10
638.782078
 20
-101.384528
 30
0.0
 11
638.782078
 21
-108.484516
 31
0.0
  0
LINE
  8
0
  6
BYLAYER
 62
     7
 10
638.782078
 20
-101.384528
 30
0.0
 11
645.882065
 21
-101.384528
 31
0.0
  0
LINE
  8
0
  6
BYLAYER
 62
     7
 10
645.882065
 20
-108.484516
 30
0.0
 11
645.882065
 21
-101.384528
 31
0.0
  0
LINE
  8
0
  6
BYLAYER
 62
     7
 10
612.157123
 20
-119.134497
 30
0.0
 11
619.257111
 21
-119.134497
 31
0.0
  0
LINE
  8
0
  6
BYLAYER
 62
     7
 10
612.157123
 20
-135.109470
 30
0.0
 11
612.157123
 21
-128.009482
 31
0.0
  0
LINE
  8
0
  6
BYLAYER
 62
     7
 10
612.157123
 20
-143.984454
 30
0.0
 11
612.157123
 21
-136.884467
 31
0.0
  0
LINE
  8
0
  6
BYLAYER
 62
     7
 10
612.157123
 20
-126.234485
 30
0.0
 11
612.157123
 21
-119.134497
 31
0.0
  0
LINE
  8
0
  6
BYLAYER
 62
     7
 10
619.257111
 20
-136.884467
 30
0.0
 11
619.257111
 21
-143.984454
 31
0.0
  0
LINE
  8
0
  6
BYLAYER
 62
     7
 10
621.032108
 20
-136.884467
 30
0.0
 11
621.032108
 21
-143.984454
 31
0.0
  0
LINE
  8
0
  6
BYLAYER
 62
     7
 10
612.157123
 20
-126.234485
 30
0.0
 11
619.257111
 21
-126.234485
 31
0.0
  0
LINE
  8
0
  6
BYLAYER
 62
     7
 10
612.157123
 20
-128.009482
 30
0.0
 11
619.257111
 21
-128.009482
 31
0.0
  0
LINE
  8
0
  6
BYLAYER
 62
     7
 10
612.157123
 20
-135.109470
 30
0.0
 11
619.257111
 21
-135.109470
 31
0.0
  0
LINE
  8
0
  6
BYLAYER
 62
     7
 10
621.032108
 20
-136.884467
 30
0.0
 11
627.988320
 21
-136.884467
 31
0.0
  0
LINE
  8
0
  6
BYLAYER
 62
     7
 10
612.157123
 20
-136.884467
 30
0.0
 11
619.257111
 21
-136.884467
 31
0.0
  0
LINE
  8
0
  6
BYLAYER
 62
     7
 10
621.032108
 20
-143.984454
 30
0.0
 11
627.988320
 21
-143.984454
 31
0.0
  0
LINE
  8
0
  6
BYLAYER
 62
     7
 10
612.157123
 20
-143.984454
 30
0.0
 11
619.257111
 21
-143.984454
 31
0.0
  0
LINE
  8
0
  6
BYLAYER
 62
     7
 10
627.988320
 20
-136.884467
 30
0.0
 11
627.988320
 21
-143.984454
 31
0.0
  0
LINE
  8
0
  6
BYLAYER
 62
     7
 10
619.257111
 20
-119.134497
 30
0.0
 11
619.257111
 21
-126.234485
 31
0.0
  0
LINE
  8
0
  6
BYLAYER
 62
     7
 10
619.257111
 20
-128.009482
 30
0.0
 11
619.257111
 21
-135.109470
 31
0.0
  0
LINE
  8
0
  6
BYLAYER
 62
     7
 10
621.032108
 20
-119.134497
 30
0.0
 11
628.132096
 21
-119.134497
 31
0.0
  0
LINE
  8
0
  6
BYLAYER
 62
     7
 10
621.032108
 20
-135.109470
 30
0.0
 11
621.032108
 21
-128.009482
 31
0.0
  0
LINE
  8
0
  6
BYLAYER
 62
     7
 10
621.032108
 20
-126.234485
 30
0.0
 11
621.032108
 21
-119.134497
 31
0.0
  0
LINE
  8
0
  6
BYLAYER
 62
     7
 10
621.032108
 20
-126.234485
 30
0.0
 11
628.132096
 21
-126.234485
 31
0.0
  0
LINE
  8
0
  6
BYLAYER
 62
     7
 10
621.032108
 20
-128.009482
 30
0.0
 11
628.132096
 21
-128.009482
 31
0.0
  0
LINE
  8
0
  6
BYLAYER
 62
     7
 10
621.032108
 20
-135.109470
 30
0.0
 11
628.132096
 21
-135.109470
 31
0.0
  0
LINE
  8
0
  6
BYLAYER
 62
     7
 10
628.132096
 20
-119.134497
 30
0.0
 11
628.132096
 21
-126.234485
 31
0.0
  0
LINE
  8
0
  6
BYLAYER
 62
     7
 10
628.132096
 20
-128.009482
 30
0.0
 11
628.132096
 21
-135.109470
 31
0.0
  0
LINE
  8
0
  6
BYLAYER
 62
     7
 10
629.907093
 20
-119.134497
 30
0.0
 11
637.007081
 21
-119.134497
 31
0.0
  0
LINE
  8
0
  6
BYLAYER
 62
     7
 10
629.907093
 20
-135.109470
 30
0.0
 11
629.907093
 21
-128.009482
 31
0.0
  0
LINE
  8
0
  6
BYLAYER
 62
     7
 10
629.907093
 20
-126.234485
 30
0.0
 11
629.907093
 21
-119.134497
 31
0.0
  0
LINE
  8
0
  6
BYLAYER
 62
     7
 10
629.907093
 20
-126.234485
 30
0.0
 11
637.007081
 21
-126.234485
 31
0.0
  0
LINE
  8
0
  6
BYLAYER
 62
     7
 10
629.907093
 20
-128.009482
 30
0.0
 11
637.007081
 21
-128.009482
 31
0.0
  0
LINE
  8
0
  6
BYLAYER
 62
     7
 10
629.907093
 20
-135.109470
 30
0.0
 11
637.007081
 21
-135.109470
 31
0.0
  0
LINE
  8
0
  6
BYLAYER
 62
     7
 10
637.007081
 20
-119.134497
 30
0.0
 11
637.007081
 21
-126.234485
 31
0.0
  0
LINE
  8
0
  6
BYLAYER
 62
     7
 10
637.007081
 20
-128.009482
 30
0.0
 11
637.007081
 21
-135.109470
 31
0.0
  0
LINE
  8
0
  6
BYLAYER
 62
     7
 10
621.032108
 20
-110.259512
 30
0.0
 11
628.132096
 21
-110.259512
 31
0.0
  0
LINE
  8
0
  6
BYLAYER
 62
     7
 10
621.032108
 20
-117.359500
 30
0.0
 11
621.032108
 21
-110.259512
 31
0.0
  0
LINE
  8
0
  6
BYLAYER
 62
     7
 10
621.032108
 20
-117.359500
 30
0.0
 11
628.132096
 21
-117.359500
 31
0.0
  0
LINE
  8
0
  6
BYLAYER
 62
     7
 10
628.132096
 20
-110.259512
 30
0.0
 11
628.132096
 21
-117.359500
 31
0.0
  0
LINE
  8
0
  6
BYLAYER
 62
     7
 10
629.907093
 20
-110.259512
 30
0.0
 11
637.007081
 21
-110.259512
 31
0.0
  0
LINE
  8
0
  6
BYLAYER
 62
     7
 10
629.907093
 20
-117.359500
 30
0.0
 11
629.907093
 21
-110.259512
 31
0.0
  0
LINE
  8
0
  6
BYLAYER
 62
     7
 10
629.907093
 20
-117.359500
 30
0.0
 11
637.007081
 21
-117.359500
 31
0.0
  0
LINE
  8
0
  6
BYLAYER
 62
     7
 10
637.007081
 20
-110.259512
 30
0.0
 11
637.007081
 21
-117.359500
 31
0.0
  0
LINE
  8
0
  6
BYLAYER
 62
     7
 10
638.782078
 20
-119.134497
 30
0.0
 11
645.882065
 21
-119.134497
 31
0.0
  0
LINE
  8
0
  6
BYLAYER
 62
     7
 10
638.782078
 20
-126.234485
 30
0.0
 11
638.782078
 21
-119.134497
 31
0.0
  0
LINE
  8
0
  6
BYLAYER
 62
     7
 10
638.782078
 20
-126.234485
 30
0.0
 11
645.882065
 21
-126.234485
 31
0.0
  0
LINE
  8
0
  6
BYLAYER
 62
     7
 10
645.882065
 20
-119.134497
 30
0.0
 11
645.882065
 21
-126.234485
 31
0.0
  0
LINE
  8
0
  6
BYLAYER
 62
     7
 10
638.782078
 20
-110.259512
 30
0.0
 11
645.882065
 21
-110.259512
 31
0.0
  0
LINE
  8
0
  6
BYLAYER
 62
     7
 10
638.782078
 20
-117.359500
 30
0.0
 11
638.782078
 21
-110.259512
 31
0.0
  0
LINE
  8
0
  6
BYLAYER
 62
     7
 10
638.782078
 20
-117.359500
 30
0.0
 11
645.882065
 21
-117.359500
 31
0.0
  0
LINE
  8
0
  6
BYLAYER
 62
     7
 10
645.882065
 20
-110.259512
 30
0.0
 11
645.882065
 21
-117.359500
 31
0.0
  0
LINE
  8
0
  6
BYLAYER
 62
     7
 10
610.382127
 20
-99.609531
 30
0.0
 11
603.282139
 21
-99.609531
 31
0.0
  0
LINE
  8
0
  6
BYLAYER
 62
     7
 10
610.382127
 20
-83.634558
 30
0.0
 11
610.382127
 21
-90.734546
 31
0.0
  0
LINE
  8
0
  6
BYLAYER
 62
     7
 10
610.382127
 20
-74.759574
 30
0.0
 11
610.382127
 21
-81.859561
 31
0.0
  0
LINE
  8
0
  6
BYLAYER
 62
     7
 10
610.382127
 20
-92.509543
 30
0.0
 11
610.382127
 21
-99.609531
 31
0.0
  0
LINE
  8
0
  6
BYLAYER
 62
     7
 10
603.282139
 20
-81.859561
 30
0.0
 11
603.282139
 21
-74.759574
 31
0.0
  0
LINE
  8
0
  6
BYLAYER
 62
     7
 10
601.507142
 20
-81.859561
 30
0.0
 11
601.507142
 21
-74.759574
 31
0.0
  0
LINE
  8
0
  6
BYLAYER
 62
     7
 10
610.382127
 20
-92.509543
 30
0.0
 11
603.282139
 21
-92.509543
 31
0.0
  0
LINE
  8
0
  6
BYLAYER
 62
     7
 10
610.382127
 20
-90.734546
 30
0.0
 11
603.282139
 21
-90.734546
 31
0.0
  0
LINE
  8
0
  6
BYLAYER
 62
     7
 10
610.382127
 20
-83.634558
 30
0.0
 11
603.282139
 21
-83.634558
 31
0.0
  0
LINE
  8
0
  6
BYLAYER
 62
     7
 10
601.507142
 20
-81.859561
 30
0.0
 11
594.550930
 21
-81.859561
 31
0.0
  0
LINE
  8
0
  6
BYLAYER
 62
     7
 10
610.382127
 20
-81.859561
 30
0.0
 11
603.282139
 21
-81.859561
 31
0.0
  0
LINE
  8
0
  6
BYLAYER
 62
     7
 10
601.507142
 20
-74.759574
 30
0.0
 11
594.550930
 21
-74.759574
 31
0.0
  0
LINE
  8
0
  6
BYLAYER
 62
     7
 10
610.382127
 20
-74.759574
 30
0.0
 11
603.282139
 21
-74.759574
 31
0.0
  0
LINE
  8
0
  6
BYLAYER
 62
     7
 10
594.550930
 20
-81.859561
 30
0.0
 11
594.550930
 21
-74.759574
 31
0.0
  0
LINE
  8
0
  6
BYLAYER
 62
     7
 10
603.282139
 20
-99.609531
 30
0.0
 11
603.282139
 21
-92.509543
 31
0.0
  0
LINE
  8
0
  6
BYLAYER
 62
     7
 10
603.282139
 20
-90.734546
 30
0.0
 11
603.282139
 21
-83.634558
 31
0.0
  0
LINE
  8
0
  6
BYLAYER
 62
     7
 10
601.507142
 20
-99.609531
 30
0.0
 11
594.407154
 21
-99.609531
 31
0.0
  0
LINE
  8
0
  6
BYLAYER
 62
     7
 10
601.507142
 20
-83.634558
 30
0.0
 11
601.507142
 21
-90.734546
 31
0.0
  0
LINE
  8
0
  6
BYLAYER
 62
     7
 10
601.507142
 20
-92.509543
 30
0.0
 11
601.507142
 21
-99.609531
 31
0.0
  0
LINE
  8
0
  6
BYLAYER
 62
     7
 10
601.507142
 20
-92.509543
 30
0.0
 11
594.407154
 21
-92.509543
 31
0.0
  0
LINE
  8
0
  6
BYLAYER
 62
     7
 10
601.507142
 20
-90.734546
 30
0.0
 11
594.407154
 21
-90.734546
 31
0.0
  0
LINE
  8
0
  6
BYLAYER
 62
     7
 10
601.507142
 20
-83.634558
 30
0.0
 11
594.407154
 21
-83.634558
 31
0.0
  0
LINE
  8
0
  6
BYLAYER
 62
     7
 10
594.407154
 20
-99.609531
 30
0.0
 11
594.407154
 21
-92.509543
 31
0.0
  0
LINE
  8
0
  6
BYLAYER
 62
     7
 10
594.407154
 20
-90.734546
 30
0.0
 11
594.407154
 21
-83.634558
 31
0.0
  0
LINE
  8
0
  6
BYLAYER
 62
     7
 10
592.632157
 20
-99.609531
 30
0.0
 11
585.532169
 21
-99.609531
 31
0.0
  0
LINE
  8
0
  6
BYLAYER
 62
     7
 10
592.632157
 20
-83.634558
 30
0.0
 11
592.632157
 21
-90.734546
 31
0.0
  0
LINE
  8
0
  6
BYLAYER
 62
     7
 10
592.632157
 20
-92.509543
 30
0.0
 11
592.632157
 21
-99.609531
 31
0.0
  0
LINE
  8
0
  6
BYLAYER
 62
     7
 10
592.632157
 20
-92.509543
 30
0.0
 11
585.532169
 21
-92.509543
 31
0.0
  0
LINE
  8
0
  6
BYLAYER
 62
     7
 10
592.632157
 20
-90.734546
 30
0.0
 11
585.532169
 21
-90.734546
 31
0.0
  0
LINE
  8
0
  6
BYLAYER
 62
     7
 10
592.632157
 20
-83.634558
 30
0.0
 11
585.532169
 21
-83.634558
 31
0.0
  0
LINE
  8
0
  6
BYLAYER
 62
     7
 10
585.532169
 20
-99.609531
 30
0.0
 11
585.532169
 21
-92.509543
 31
0.0
  0
LINE
  8
0
  6
BYLAYER
 62
     7
 10
585.532169
 20
-90.734546
 30
0.0
 11
585.532169
 21
-83.634558
 31
0.0
  0
LINE
  8
0
  6
BYLAYER
 62
     7
 10
601.507142
 20
-108.484516
 30
0.0
 11
594.407154
 21
-108.484516
 31
0.0
  0
LINE
  8
0
  6
BYLAYER
 62
     7
 10
601.507142
 20
-101.384528
 30
0.0
 11
601.507142
 21
-108.484516
 31
0.0
  0
LINE
  8
0
  6
BYLAYER
 62
     7
 10
601.507142
 20
-101.384528
 30
0.0
 11
594.407154
 21
-101.384528
 31
0.0
  0
LINE
  8
0
  6
BYLAYER
 62
     7
 10
594.407154
 20
-108.484516
 30
0.0
 11
594.407154
 21
-101.384528
 31
0.0
  0
LINE
  8
0
  6
BYLAYER
 62
     7
 10
592.632157
 20
-108.484516
 30
0.0
 11
585.532169
 21
-108.484516
 31
0.0
  0
LINE
  8
0
  6
BYLAYER
 62
     7
 10
592.632157
 20
-101.384528
 30
0.0
 11
592.632157
 21
-108.484516
 31
0.0
  0
LINE
  8
0
  6
BYLAYER
 62
     7
 10
592.632157
 20
-101.384528
 30
0.0
 11
585.532169
 21
-101.384528
 31
0.0
  0
LINE
  8
0
  6
BYLAYER
 62
     7
 10
585.532169
 20
-108.484516
 30
0.0
 11
585.532169
 21
-101.384528
 31
0.0
  0
LINE
  8
0
  6
BYLAYER
 62
     7
 10
583.757172
 20
-99.609531
 30
0.0
 11
576.657185
 21
-99.609531
 31
0.0
  0
LINE
  8
0
  6
BYLAYER
 62
     7
 10
583.757172
 20
-92.509543
 30
0.0
 11
583.757172
 21
-99.609531
 31
0.0
  0
LINE
  8
0
  6
BYLAYER
 62
     7
 10
583.757172
 20
-92.509543
 30
0.0
 11
576.657185
 21
-92.509543
 31
0.0
  0
LINE
  8
0
  6
BYLAYER
 62
     7
 10
576.657185
 20
-99.609531
 30
0.0
 11
576.657185
 21
-92.509543
 31
0.0
  0
LINE
  8
0
  6
BYLAYER
 62
     7
 10
583.757172
 20
-108.484516
 30
0.0
 11
576.657185
 21
-108.484516
 31
0.0
  0
LINE
  8
0
  6
BYLAYER
 62
     7
 10
583.757172
 20
-101.384528
 30
0.0
 11
583.757172
 21
-108.484516
 31
0.0
  0
LINE
  8
0
  6
BYLAYER
 62
     7
 10
583.757172
 20
-101.384528
 30
0.0
 11
576.657185
 21
-101.384528
 31
0.0
  0
LINE
  8
0
  6
BYLAYER
 62
     7
 10
576.657185
 20
-108.484516
 30
0.0
 11
576.657185
 21
-101.384528
 31
0.0
  0
LINE
  8
0
  6
BYLAYER
 62
     7
 10
610.382127
 20
-119.134497
 30
0.0
 11
603.282139
 21
-119.134497
 31
0.0
  0
LINE
  8
0
  6
BYLAYER
 62
     7
 10
610.382127
 20
-135.109470
 30
0.0
 11
610.382127
 21
-128.009482
 31
0.0
  0
LINE
  8
0
  6
BYLAYER
 62
     7
 10
610.382127
 20
-143.984454
 30
0.0
 11
610.382127
 21
-136.884467
 31
0.0
  0
LINE
  8
0
  6
BYLAYER
 62
     7
 10
610.382127
 20
-126.234485
 30
0.0
 11
610.382127
 21
-119.134497
 31
0.0
  0
LINE
  8
0
  6
BYLAYER
 62
     7
 10
603.282139
 20
-136.884467
 30
0.0
 11
603.282139
 21
-143.984454
 31
0.0
  0
LINE
  8
0
  6
BYLAYER
 62
     7
 10
601.507142
 20
-136.884467
 30
0.0
 11
601.507142
 21
-143.984454
 31
0.0
  0
LINE
  8
0
  6
BYLAYER
 62
     7
 10
610.382127
 20
-126.234485
 30
0.0
 11
603.282139
 21
-126.234485
 31
0.0
  0
LINE
  8
0
  6
BYLAYER
 62
     7
 10
610.382127
 20
-128.009482
 30
0.0
 11
603.282139
 21
-128.009482
 31
0.0
  0
LINE
  8
0
  6
BYLAYER
 62
     7
 10
610.382127
 20
-135.109470
 30
0.0
 11
603.282139
 21
-135.109470
 31
0.0
  0
LINE
  8
0
  6
BYLAYER
 62
     7
 10
601.507142
 20
-136.884467
 30
0.0
 11
594.550930
 21
-136.884467
 31
0.0
  0
LINE
  8
0
  6
BYLAYER
 62
     7
 10
610.382127
 20
-136.884467
 30
0.0
 11
603.282139
 21
-136.884467
 31
0.0
  0
LINE
  8
0
  6
BYLAYER
 62
     7
 10
601.507142
 20
-143.984454
 30
0.0
 11
594.550930
 21
-143.984454
 31
0.0
  0
LINE
  8
0
  6
BYLAYER
 62
     7
 10
610.382127
 20
-143.984454
 30
0.0
 11
603.282139
 21
-143.984454
 31
0.0
  0
LINE
  8
0
  6
BYLAYER
 62
     7
 10
594.550930
 20
-136.884467
 30
0.0
 11
594.550930
 21
-143.984454
 31
0.0
  0
LINE
  8
0
  6
BYLAYER
 62
     7
 10
603.282139
 20
-119.134497
 30
0.0
 11
603.282139
 21
-126.234485
 31
0.0
  0
LINE
  8
0
  6
BYLAYER
 62
     7
 10
603.282139
 20
-128.009482
 30
0.0
 11
603.282139
 21
-135.109470
 31
0.0
  0
LINE
  8
0
  6
BYLAYER
 62
     7
 10
601.507142
 20
-119.134497
 30
0.0
 11
594.407154
 21
-119.134497
 31
0.0
  0
LINE
  8
0
  6
BYLAYER
 62
     7
 10
601.507142
 20
-135.109470
 30
0.0
 11
601.507142
 21
-128.009482
 31
0.0
  0
LINE
  8
0
  6
BYLAYER
 62
     7
 10
601.507142
 20
-126.234485
 30
0.0
 11
601.507142
 21
-119.134497
 31
0.0
  0
LINE
  8
0
  6
BYLAYER
 62
     7
 10
601.507142
 20
-126.234485
 30
0.0
 11
594.407154
 21
-126.234485
 31
0.0
  0
LINE
  8
0
  6
BYLAYER
 62
     7
 10
601.507142
 20
-128.009482
 30
0.0
 11
594.407154
 21
-128.009482
 31
0.0
  0
LINE
  8
0
  6
BYLAYER
 62
     7
 10
601.507142
 20
-135.109470
 30
0.0
 11
594.407154
 21
-135.109470
 31
0.0
  0
LINE
  8
0
  6
BYLAYER
 62
     7
 10
594.407154
 20
-119.134497
 30
0.0
 11
594.407154
 21
-126.234485
 31
0.0
  0
LINE
  8
0
  6
BYLAYER
 62
     7
 10
594.407154
 20
-128.009482
 30
0.0
 11
594.407154
 21
-135.109470
 31
0.0
  0
LINE
  8
0
  6
BYLAYER
 62
     7
 10
592.632157
 20
-119.134497
 30
0.0
 11
585.532169
 21
-119.134497
 31
0.0
  0
LINE
  8
0
  6
BYLAYER
 62
     7
 10
592.632157
 20
-135.109470
 30
0.0
 11
592.632157
 21
-128.009482
 31
0.0
  0
LINE
  8
0
  6
BYLAYER
 62
     7
 10
592.632157
 20
-126.234485
 30
0.0
 11
592.632157
 21
-119.134497
 31
0.0
  0
LINE
  8
0
  6
BYLAYER
 62
     7
 10
592.632157
 20
-126.234485
 30
0.0
 11
585.532169
 21
-126.234485
 31
0.0
  0
LINE
  8
0
  6
BYLAYER
 62
     7
 10
592.632157
 20
-128.009482
 30
0.0
 11
585.532169
 21
-128.009482
 31
0.0
  0
LINE
  8
0
  6
BYLAYER
 62
     7
 10
592.632157
 20
-135.109470
 30
0.0
 11
585.532169
 21
-135.109470
 31
0.0
  0
LINE
  8
0
  6
BYLAYER
 62
     7
 10
585.532169
 20
-119.134497
 30
0.0
 11
585.532169
 21
-126.234485
 31
0.0
  0
LINE
  8
0
  6
BYLAYER
 62
     7
 10
585.532169
 20
-128.009482
 30
0.0
 11
585.532169
 21
-135.109470
 31
0.0
  0
LINE
  8
0
  6
BYLAYER
 62
     7
 10
601.507142
 20
-110.259512
 30
0.0
 11
594.407154
 21
-110.259512
 31
0.0
  0
LINE
  8
0
  6
BYLAYER
 62
     7
 10
601.507142
 20
-117.359500
 30
0.0
 11
601.507142
 21
-110.259512
 31
0.0
  0
LINE
  8
0
  6
BYLAYER
 62
     7
 10
601.507142
 20
-117.359500
 30
0.0
 11
594.407154
 21
-117.359500
 31
0.0
  0
LINE
  8
0
  6
BYLAYER
 62
     7
 10
594.407154
 20
-110.259512
 30
0.0
 11
594.407154
 21
-117.359500
 31
0.0
  0
LINE
  8
0
  6
BYLAYER
 62
     7
 10
592.632157
 20
-110.259512
 30
0.0
 11
585.532169
 21
-110.259512
 31
0.0
  0
LINE
  8
0
  6
BYLAYER
 62
     7
 10
592.632157
 20
-117.359500
 30
0.0
 11
592.632157
 21
-110.259512
 31
0.0
  0
LINE
  8
0
  6
BYLAYER
 62
     7
 10
592.632157
 20
-117.359500
 30
0.0
 11
585.532169
 21
-117.359500
 31
0.0
  0
LINE
  8
0
  6
BYLAYER
 62
     7
 10
585.532169
 20
-110.259512
 30
0.0
 11
585.532169
 21
-117.359500
 31
0.0
  0
LINE
  8
0
  6
BYLAYER
 62
     7
 10
583.757172
 20
-119.134497
 30
0.0
 11
576.657185
 21
-119.134497
 31
0.0
  0
LINE
  8
0
  6
BYLAYER
 62
     7
 10
583.757172
 20
-126.234485
 30
0.0
 11
583.757172
 21
-119.134497
 31
0.0
  0
LINE
  8
0
  6
BYLAYER
 62
     7
 10
583.757172
 20
-126.234485
 30
0.0
 11
576.657185
 21
-126.234485
 31
0.0
  0
LINE
  8
0
  6
BYLAYER
 62
     7
 10
576.657185
 20
-119.134497
 30
0.0
 11
576.657185
 21
-126.234485
 31
0.0
  0
LINE
  8
0
  6
BYLAYER
 62
     7
 10
583.757172
 20
-110.259512
 30
0.0
 11
576.657185
 21
-110.259512
 31
0.0
  0
LINE
  8
0
  6
BYLAYER
 62
     7
 10
583.757172
 20
-117.359500
 30
0.0
 11
583.757172
 21
-110.259512
 31
0.0
  0
LINE
  8
0
  6
BYLAYER
 62
     7
 10
583.757172
 20
-117.359500
 30
0.0
 11
576.657185
 21
-117.359500
 31
0.0
  0
LINE
  8
0
  6
BYLAYER
 62
     7
 10
576.657185
 20
-110.259512
 30
0.0
 11
576.657185
 21
-117.359500
 31
0.0
  0
LINE
  8
0
  6
BYLAYER
 62
     7
 10
581.094623
 20
-60.112436
 30
0.0
 11
581.094623
 21
-64.852169
 31
0.0
  0
LINE
  8
0
  6
BYLAYER
 62
     7
 10
641.444519
 20
-60.112382
 30
0.0
 11
641.444519
 21
-64.852096
 31
0.0
  0
CIRCLE
  8
0
  6
BYLAYER
 62
     7
 10
611.269625
 20
-109.372014
 30
0.0
 40
3.549994
  0
LINE
  8
0
  6
BYLAYER
 62
     7
 10
644.107014
 20
-49.732106
 30
0.0
 11
578.432127
 21
-49.732106
 31
0.0
  0
LINE
  8
0
  6
BYLAYER
 62
     7
 10
578.432127
 20
-51.507157
 30
0.0
 11
644.107014
 21
-51.507157
 31
0.0
  0
ARC
  8
0
  6
BYLAYER
 62
     7
 10
611.269625
 20
-109.372014
 30
0.0
 40
60.0
 50
123.181405
 51
416.818719
  0
ARC
  8
0
  6
BYLAYER
 62
     7
 10
579.763375
 20
-0.694001
 30
0.0
 40
1.331248
 50
94.780192
 51
180.000000
  0
LINE
  8
0
  6
BYLAYER
 62
     7
 10
579.763375
 20
0.627986
 30
0.0
 11
642.997641
 21
0.627986
 31
0.0
  0
ARC
  8
0
  6
BYLAYER
 62
     7
 10
642.775767
 20
-0.694001
 30
0.0
 40
1.331248
 50
0.0
 51
85.219808
  0
LINE
  8
0
  6
BYLAYER
 62
     7
 10
644.107014
 20
-51.507157
 30
0.0
 11
644.107014
 21
-0.694001
 31
0.0
  0
LINE
  8
0
  6
BYLAYER
 62
     7
 10
578.432127
 20
-0.694001
 30
0.0
 11
578.432127
 21
-51.507157
 31
0.0
  0
LINE
  8
0
  6
BYLAYER
 62
     7
 10
578.432127
 20
-368.507157
 30
0.0
 11
578.432127
 21
-376.155495
 31
0.0
  0
LINE
  8
0
  6
BYLAYER
 62
     7
 10
644.107014
 20
-368.507103
 30
0.0
 11
644.107014
 21
-376.155425
 31
0.0
  0
LINE
  8
0
  6
BYLAYER
 62
     7
 10
604.705986
 20
-366.732106
 30
0.0
 11
578.432127
 21
-366.732106
 31
0.0
  0
LINE
  8
0
  6
BYLAYER
 62
     7
 10
644.107014
 20
-366.732106
 30
0.0
 11
617.833264
 21
-366.732106
 31
0.0
  0
LINE
  8
0
  6
BYLAYER
 62
     7
 10
578.432127
 20
-368.507157
 30
0.0
 11
595.405883
 21
-368.507157
 31
0.0
  0
LINE
  8
0
  6
BYLAYER
 62
     7
 10
627.133367
 20
-368.507157
 30
0.0
 11
644.107014
 21
-368.507157
 31
0.0
  0
ARC
  8
0
  6
BYLAYER
 62
     7
 10
611.269625
 20
-426.372014
 30
0.0
 40
60.000000
 50
301.668243
 51
598.331757
  0
ARC
  8
0
  6
BYLAYER
 62
     7
 10
579.763375
 20
-317.694001
 30
0.0
 40
1.331248
 50
94.780192
 51
180.000000
  0
LINE
  8
0
  6
BYLAYER
 62
     7
 10
579.763375
 20
-316.372014
 30
0.0
 11
642.997641
 21
-316.372014
 31
0.0
  0
ARC
  8
0
  6
BYLAYER
 62
     7
 10
642.775767
 20
-317.694001
 30
0.0
 40
1.331248
 50
0.0
 51
85.219808
  0
LINE
  8
0
  6
BYLAYER
 62
     7
 10
644.107014
 20
-368.507157
 30
0.0
 11
644.107014
 21
-317.694001
 31
0.0
  0
LINE
  8
0
  6
BYLAYER
 62
     7
 10
578.432127
 20
-317.694001
 30
0.0
 11
578.432127
 21
-368.507157
 31
0.0
  0
ARC
  8
0
  6
BYLAYER
 62
     1
 10
611.269625
 20
-426.372014
 30
0.0
 40
60.000000
 50
301.668243
 51
598.331757
  0
ARC
  8
0
  6
BYLAYER
 62
     1
 10
611.269869
 20
-426.372014
 30
0.0
 40
40.000092
 50
182.150340
 51
218.047108
  0
ARC
  8
0
  6
BYLAYER
 62
     1
 10
611.269869
 20
-426.372014
 30
0.0
 40
39.999973
 50
2.150519
 51
57.850998
  0
ARC
  8
0
  6
BYLAYER
 62
     1
 10
611.269869
 20
-426.372014
 30
0.0
 40
40.000000
 50
321.951925
 51
357.851041
  0
ARC
  8
0
  6
BYLAYER
 62
     1
 10
611.269869
 20
-426.372014
 30
0.0
 40
39.999973
 50
122.148999
 51
177.849479
  0
ARC
  8
0
  6
BYLAYER
 62
     1
 10
642.866427
 20
-430.506474
 30
0.0
 40
5.635441
 50
89.461961
 51
117.438635
  0
ARC
  8
0
  6
BYLAYER
 62
     1
 10
642.866305
 20
-422.238286
 30
0.0
 40
5.635380
 50
242.562442
 51
270.538028
  0
ARC
  8
0
  6
BYLAYER
 62
     1
 10
661.769625
 20
-401.771666
 30
0.0
 40
26.100653
 50
270.0
 51
282.634515
  0
ARC
  8
0
  6
BYLAYER
 62
     1
 10
666.857652
 20
-424.469953
 30
0.0
 40
2.839091
 50
282.634515
 51
303.765210
  0
ARC
  8
0
  6
BYLAYER
 62
     1
 10
667.806084
 20
-425.888567
 30
0.0
 40
1.132636
 50
303.765210
 51
321.819817
  0
ARC
  8
0
  6
BYLAYER
 62
     1
 10
668.413273
 20
-426.372319
 30
0.0
 40
0.356352
 50
322.613743
 51
360.000000
  0
ARC
  8
0
  6
BYLAYER
 62
     1
 10
668.413273
 20
-426.372319
 30
0.0
 40
0.356352
 50
0.0
 51
37.386257
  0
ARC
  8
0
  6
BYLAYER
 62
     1
 10
667.806084
 20
-426.856071
 30
0.0
 40
1.132636
 50
38.180183
 51
56.234790
  0
ARC
  8
0
  6
BYLAYER
 62
     1
 10
666.857652
 20
-428.274685
 30
0.0
 40
2.839091
 50
56.234790
 51
77.365485
  0
ARC
  8
0
  6
BYLAYER
 62
     1
 10
661.769625
 20
-450.972972
 30
0.0
 40
26.100653
 50
77.365485
 51
90.0
  0
LINE
  8
0
  6
BYLAYER
 62
     1
 10
642.919405
 20
-424.871037
 30
0.0
 11
661.769625
 21
-424.871037
 31
0.0
  0
LINE
  8
0
  6
BYLAYER
 62
     1
 10
642.919405
 20
-427.872991
 30
0.0
 11
661.769625
 21
-427.872991
 31
0.0
  0
ARC
  8
0
  6
BYLAYER
 62
     1
 10
611.269869
 20
-426.372014
 30
0.0
 40
40.000023
 50
62.149005
 51
117.849600
  0
ARC
  8
0
  6
BYLAYER
 62
     1
 10
630.648531
 20
-401.075627
 30
0.0
 40
5.635429
 50
149.461970
 51
172.827600
  0
ARC
  8
0
  6
BYLAYER
 62
     1
 10
615.215243
 20
-370.337617
 30
0.0
 40
26.100484
 50
329.999974
 51
342.634501
  0
ARC
  8
0
  6
BYLAYER
 62
     1
 10
637.416388
 20
-377.280355
 30
0.0
 40
2.839090
 50
342.634501
 51
363.765203
  0
ARC
  8
0
  6
BYLAYER
 62
     1
 10
639.119157
 20
-377.168296
 30
0.0
 40
1.132637
 50
3.765203
 51
21.819860
  0
ARC
  8
0
  6
BYLAYER
 62
     1
 10
639.841693
 20
-376.884330
 30
0.0
 40
0.356354
 50
22.613815
 51
60.000070
  0
ARC
  8
0
  6
BYLAYER
 62
     1
 10
639.841692
 20
-376.884331
 30
0.0
 40
0.356355
 50
60.000070
 51
97.386216
  0
ARC
  8
0
  6
BYLAYER
 62
     1
 10
639.957039
 20
-377.652051
 30
0.0
 40
1.132641
 50
98.180131
 51
116.234713
  0
ARC
  8
0
  6
BYLAYER
 62
     1
 10
640.711376
 20
-379.182725
 30
0.0
 40
2.839095
 50
116.234713
 51
137.365371
  0
ARC
  8
0
  6
BYLAYER
 62
     1
 10
657.824472
 20
-394.938123
 30
0.0
 40
26.100450
 50
137.365371
 51
149.999869
  0
LINE
  8
0
  6
BYLAYER
 62
     1
 10
625.794649
 20
-398.211980
 30
0.0
 11
635.219698
 21
-381.887212
 31
0.0
  0
LINE
  8
0
  6
BYLAYER
 62
     1
 10
628.591227
 20
-399.372011
 30
0.0
 11
637.819552
 21
-383.388188
 31
0.0
  0
ARC
  8
0
  6
BYLAYER
 62
     1
 10
591.891451
 20
-401.075383
 30
0.0
 40
5.635324
 50
7.170033
 51
30.538032
  0
LINE
  8
0
  6
BYLAYER
 62
     1
 10
593.948024
 20
-399.372014
 30
0.0
 11
584.719698
 21
-383.388249
 31
0.0
  0
LINE
  8
0
  6
BYLAYER
 62
     1
 10
596.744601
 20
-398.211980
 30
0.0
 11
587.319552
 21
-381.887273
 31
0.0
  0
ARC
  8
0
  6
BYLAYER
 62
     1
 10
581.769747
 20
-426.371709
 30
0.0
 40
1.000024
 50
296.897364
 51
423.103387
  0
ARC
  8
0
  6
BYLAYER
 62
     1
 10
579.672823
 20
-422.237554
 30
0.0
 40
5.635441
 50
269.461973
 51
296.894854
  0
ARC
  8
0
  6
BYLAYER
 62
     1
 10
579.672945
 20
-430.505742
 30
0.0
 40
5.635380
 50
63.105791
 51
90.538017
  0
ARC
  8
0
  6
BYLAYER
 62
     1
 10
560.769625
 20
-450.972362
 30
0.0
 40
26.100653
 50
90.0
 51
102.634515
  0
ARC
  8
0
  6
BYLAYER
 62
     1
 10
555.681598
 20
-428.274075
 30
0.0
 40
2.839091
 50
102.634515
 51
123.765210
  0
ARC
  8
0
  6
BYLAYER
 62
     1
 10
554.733166
 20
-426.855461
 30
0.0
 40
1.132636
 50
123.765210
 51
141.819817
  0
ARC
  8
0
  6
BYLAYER
 62
     1
 10
554.125977
 20
-426.371709
 30
0.0
 40
0.356352
 50
142.613743
 51
180.000000
  0
ARC
  8
0
  6
BYLAYER
 62
     1
 10
554.125977
 20
-426.371709
 30
0.0
 40
0.356352
 50
180.000000
 51
217.386257
  0
ARC
  8
0
  6
BYLAYER
 62
     1
 10
554.733166
 20
-425.887957
 30
0.0
 40
1.132636
 50
218.180183
 51
236.234790
  0
ARC
  8
0
  6
BYLAYER
 62
     1
 10
555.681598
 20
-424.469343
 30
0.0
 40
2.839091
 50
236.234790
 51
257.365485
  0
ARC
  8
0
  6
BYLAYER
 62
     1
 10
560.769625
 20
-401.771056
 30
0.0
 40
26.100653
 50
257.365485
 51
270.0
  0
LINE
  8
0
  6
BYLAYER
 62
     1
 10
579.619845
 20
-427.872991
 30
0.0
 11
560.769625
 21
-427.872991
 31
0.0
  0
LINE
  8
0
  6
BYLAYER
 62
     1
 10
579.619845
 20
-424.871037
 30
0.0
 11
560.769625
 21
-424.871037
 31
0.0
  0
LINE
  8
0
  6
BYLAYER
 62
     2
 10
640.936800
 20
-389.492253
 30
0.0
 11
645.100924
 21
-385.328160
 31
0.0
  0
LINE
  8
0
  6
BYLAYER
 62
     2
 10
642.460970
 20
-395.180608
 30
0.0
 11
640.936800
 21
-389.492284
 31
0.0
  0
LINE
  8
0
  6
BYLAYER
 62
     2
 10
648.149264
 20
-396.704808
 30
0.0
 11
642.460970
 21
-395.180608
 31
0.0
  0
LINE
  8
0
  6
BYLAYER
 62
     2
 10
652.313387
 20
-392.540715
 30
0.0
 11
648.149264
 21
-396.704808
 31
0.0
  0
LINE
  8
0
  6
BYLAYER
 62
     2
 10
645.100924
 20
-385.328160
 30
0.0
 11
650.789217
 21
-386.852361
 31
0.0
  0
LINE
  8
0
  6
BYLAYER
 62
     2
 10
650.789217
 20
-386.852361
 30
0.0
 11
652.313387
 21
-392.540685
 31
0.0
  0
ARC
  8
0
  6
BYLAYER
 62
     1
 10
564.714778
 20
-394.938123
 30
0.0
 40
26.100450
 50
30.000131
 51
42.634629
  0
ARC
  8
0
  6
BYLAYER
 62
     1
 10
581.827874
 20
-379.182725
 30
0.0
 40
2.839095
 50
42.634629
 51
63.765287
  0
ARC
  8
0
  6
BYLAYER
 62
     1
 10
582.582211
 20
-377.652051
 30
0.0
 40
1.132641
 50
63.765287
 51
81.819869
  0
ARC
  8
0
  6
BYLAYER
 62
     1
 10
582.697558
 20
-376.884331
 30
0.0
 40
0.356355
 50
82.613784
 51
119.999930
  0
ARC
  8
0
  6
BYLAYER
 62
     1
 10
582.697557
 20
-376.884330
 30
0.0
 40
0.356354
 50
119.999930
 51
157.386185
  0
ARC
  8
0
  6
BYLAYER
 62
     1
 10
583.420093
 20
-377.168296
 30
0.0
 40
1.132637
 50
158.180140
 51
176.234797
  0
ARC
  8
0
  6
BYLAYER
 62
     1
 10
585.122862
 20
-377.280355
 30
0.0
 40
2.839090
 50
176.234797
 51
197.365499
  0
ARC
  8
0
  6
BYLAYER
 62
     1
 10
607.324007
 20
-370.337617
 30
0.0
 40
26.100484
 50
197.365499
 51
210.000026
  0
LINE
  8
0
  6
BYLAYER
 62
     2
 10
574.390108
 20
-396.705083
 30
0.0
 11
570.225985
 21
-392.540959
 31
0.0
  0
LINE
  8
0
  6
BYLAYER
 62
     2
 10
580.078463
 20
-395.180913
 30
0.0
 11
574.390169
 21
-396.705083
 31
0.0
  0
LINE
  8
0
  6
BYLAYER
 62
     2
 10
581.602633
 20
-389.492619
 30
0.0
 11
580.078463
 21
-395.180913
 31
0.0
  0
LINE
  8
0
  6
BYLAYER
 62
     2
 10
577.438570
 20
-385.328496
 30
0.0
 11
581.602633
 21
-389.492619
 31
0.0
  0
LINE
  8
0
  6
BYLAYER
 62
     2
 10
570.225985
 20
-392.540959
 30
0.0
 11
571.750216
 21
-386.852666
 31
0.0
  0
LINE
  8
0
  6
BYLAYER
 62
     2
 10
571.750216
 20
-386.852666
 30
0.0
 11
577.438509
 21
-385.328496
 31
0.0
  0
LINE
  8
0
  6
BYLAYER
 62
     2
 10
579.769625
 20
-465.085074
 30
0.0
 11
577.438814
 21
-467.415868
 31
0.0
  0
LINE
  8
0
  6
BYLAYER
 62
     2
 10
574.390475
 20
-456.039220
 30
0.0
 11
579.769625
 21
-457.480584
 31
0.0
  0
LINE
  8
0
  6
BYLAYER
 62
     2
 10
570.226351
 20
-460.203313
 30
0.0
 11
574.390475
 21
-456.039220
 31
0.0
  0
LINE
  8
0
  6
BYLAYER
 62
     2
 10
577.438814
 20
-467.415868
 30
0.0
 11
571.750521
 21
-465.891667
 31
0.0
  0
LINE
  8
0
  6
BYLAYER
 62
     2
 10
571.750521
 20
-465.891667
 30
0.0
 11
570.226351
 21
-460.203343
 31
0.0
  0
LINE
  8
0
  6
BYLAYER
 62
     2
 10
648.149630
 20
-456.038945
 30
0.0
 11
652.313753
 21
-460.203069
 31
0.0
  0
LINE
  8
0
  6
BYLAYER
 62
     2
 10
642.769625
 20
-457.480493
 30
0.0
 11
648.149569
 21
-456.038945
 31
0.0
  0
LINE
  8
0
  6
BYLAYER
 62
     2
 10
645.101168
 20
-467.415532
 30
0.0
 11
642.769625
 21
-465.083989
 31
0.0
  0
LINE
  8
0
  6
BYLAYER
 62
     2
 10
652.313753
 20
-460.203069
 30
0.0
 11
650.789522
 21
-465.891362
 31
0.0
  0
LINE
  8
0
  6
BYLAYER
 62
     2
 10
650.789522
 20
-465.891362
 30
0.0
 11
645.101229
 21
-467.415532
 31
0.0
  0
LINE
  8
0
  6
BYLAYER
 62
     1
 10
192.269625
 20
-453.873967
 30
0.0
 11
192.269625
 21
-426.372014
 31
0.0
  0
LINE
  8
0
  6
BYLAYER
 62
     1
 10
192.269442
 20
-453.871953
 30
0.0
 11
192.415804
 21
-453.878240
 31
0.0
  0
ARC
  8
0
  6
BYLAYER
 62
     1
 10
192.394381
 20
-454.377751
 30
0.0
 40
0.499971
 50
15.000011
 51
87.543457
  0
ARC
  8
0
  6
BYLAYER
 62
     1
 10
200.269442
 20
-484.054997
 30
0.0
 40
2.000054
 50
180.000000
 51
267.000341
  0
LINE
  8
0
  6
BYLAYER
 62
     1
 10
198.096529
 20
-465.950871
 30
0.0
 11
192.853457
 21
-454.174748
 31
0.0
  0
LINE
  8
0
  6
BYLAYER
 62
     1
 10
198.249972
 20
-481.233586
 30
0.0
 11
193.007571
 21
-454.520940
 31
0.0
  0
LINE
  8
0
  6
BYLAYER
 62
     1
 10
198.269442
 20
-484.054997
 30
0.0
 11
198.269442
 21
-426.372014
 31
0.0
  0
ARC
  8
0
  6
BYLAYER
 62
     1
 10
196.269442
 20
-466.764348
 30
0.0
 40
2.0
 50
0.0
 51
24.000038
  0
LINE
  8
0
  6
BYLAYER
 62
     1
 10
200.164797
 20
-486.052312
 30
0.0
 11
206.269442
 21
-486.372144
 31
0.0
  0
LINE
  8
0
  6
BYLAYER
 62
     1
 10
206.269442
 20
-486.372144
 30
0.0
 11
206.269442
 21
-426.372197
 31
0.0
  0
LINE
  8
0
  6
BYLAYER
 62
     1
 10
192.269625
 20
-445.272160
 30
0.0
 11
192.269625
 21
-453.872319
 31
0.0
  0
LINE
  8
0
  6
BYLAYER
 62
     1
 10
192.269625
 20
-398.870061
 30
0.0
 11
192.269625
 21
-426.372014
 31
0.0
  0
LINE
  8
0
  6
BYLAYER
 62
     1
 10
192.269442
 20
-398.872075
 30
0.0
 11
192.415804
 21
-398.865788
 31
0.0
  0
ARC
  8
0
  6
BYLAYER
 62
     1
 10
192.394381
 20
-398.366277
 30
0.0
 40
0.499971
 50
272.456543
 51
344.999989
  0
ARC
  8
0
  6
BYLAYER
 62
     1
 10
200.269442
 20
-368.689031
 30
0.0
 40
2.000054
 50
92.999654
 51
179.999995
  0
LINE
  8
0
  6
BYLAYER
 62
     1
 10
198.096529
 20
-386.793157
 30
0.0
 11
192.853457
 21
-398.569280
 31
0.0
  0
LINE
  8
0
  6
BYLAYER
 62
     1
 10
198.249972
 20
-371.510442
 30
0.0
 11
193.007571
 21
-398.223088
 31
0.0
  0
LINE
  8
0
  6
BYLAYER
 62
     1
 10
198.269442
 20
-368.689031
 30
0.0
 11
198.269442
 21
-426.372014
 31
0.0
  0
ARC
  8
0
  6
BYLAYER
 62
     1
 10
196.269442
 20
-385.979680
 30
0.0
 40
2.000000
 50
335.999962
 51
360.0
  0
LINE
  8
0
  6
BYLAYER
 62
     1
 10
200.164797
 20
-366.691716
 30
0.0
 11
206.269442
 21
-366.371884
 31
0.0
  0
LINE
  8
0
  6
BYLAYER
 62
     1
 10
206.269442
 20
-366.371884
 30
0.0
 11
206.269442
 21
-426.371831
 31
0.0
  0
LINE
  8
0
  6
BYLAYER
 62
     1
 10
192.269625
 20
-407.471868
 30
0.0
 11
192.269625
 21
-398.871709
 31
0.0
  0
ENDSEC
  0
EOF
