  0
SECTION
  2
HEADER
  9
$EXTMIN
 10
112.177474
 20
498.0
 30
0.0
  9
$EXTMAX
 10
671.365188
 20
0.0
 30
0.0
  0
ENDSEC
  0
SECTION
  2
TABLES
  0
ENDSEC
  0
SECTION
  2
BLOCKS
  0
ENDSEC
  0
SECTION
  2
ENTITIES
  0
LINE
  8
0
  6
BYLAYER
 62
     7
 10
232.781518
 20
-65.795833
 30
0.0
 11
234.556515
 21
-65.795833
 31
0.0
  0
ARC
  8
0
  6
BYLAYER
 62
     7
 10
238.195344
 20
-138.659382
 30
0.0
 40
0.532532
 50
90.0
 51
270.000012
  0
ARC
  8
0
  6
BYLAYER
 62
     7
 10
235.089100
 20
-138.659382
 30
0.0
 40
0.532532
 50
90.0
 51
270.000012
  0
ARC
  8
0
  6
BYLAYER
 62
     7
 10
238.195344
 20
-128.896899
 30
0.0
 40
0.532532
 50
90.0
 51
270.000012
  0
ARC
  8
0
  6
BYLAYER
 62
     7
 10
235.089100
 20
-128.896899
 30
0.0
 40
0.532532
 50
90.0
 51
270.000012
  0
ARC
  8
0
  6
BYLAYER
 62
     7
 10
238.195344
 20
-119.134415
 30
0.0
 40
0.532532
 50
90.0
 51
270.000012
  0
ARC
  8
0
  6
BYLAYER
 62
     7
 10
235.089100
 20
-119.134415
 30
0.0
 40
0.532532
 50
90.0
 51
270.000012
  0
ARC
  8
0
  6
BYLAYER
 62
     7
 10
238.195344
 20
-99.609449
 30
0.0
 40
0.532532
 50
90.0
 51
270.000012
  0
ARC
  8
0
  6
BYLAYER
 62
     7
 10
235.089100
 20
-99.609449
 30
0.0
 40
0.532532
 50
90.0
 51
270.000012
  0
ARC
  8
0
  6
BYLAYER
 62
     7
 10
238.195290
 20
-89.846966
 30
0.0
 40
0.532532
 50
90.0
 51
270.000012
  0
ARC
  8
0
  6
BYLAYER
 62
     7
 10
235.089100
 20
-89.846966
 30
0.0
 40
0.532532
 50
90.0
 51
270.000012
  0
ARC
  8
0
  6
BYLAYER
 62
     7
 10
238.195290
 20
-80.084483
 30
0.0
 40
0.532532
 50
90.0
 51
270.000012
  0
ARC
  8
0
  6
BYLAYER
 62
     7
 10
235.089100
 20
-80.084483
 30
0.0
 40
0.532532
 50
90.0
 51
270.000012
  0
LINE
  8
0
  6
BYLAYER
 62
     7
 10
234.556569
 20
-109.371986
 30
0.0
 11
234.556623
 21
-152.948140
 31
0.0
  0
ARC
  8
0
  6
BYLAYER
 62
     7
 10
238.195344
 20
-109.371932
 30
0.0
 40
0.532532
 50
90.0
 51
270.000012
  0
ARC
  8
0
  6
BYLAYER
 62
     7
 10
235.089100
 20
-109.371932
 30
0.0
 40
0.532532
 50
90.0
 51
270.000012
  0
LINE
  8
0
  6
BYLAYER
 62
     7
 10
234.556569
 20
-109.371986
 30
0.0
 11
234.556515
 21
-51.507021
 31
0.0
  0
LINE
  8
0
  6
BYLAYER
 62
     7
 10
305.556447
 20
-51.507021
 30
0.0
 11
234.556515
 21
-51.507021
 31
0.0
  0
LINE
  8
0
  6
BYLAYER
 62
     7
 10
317.315801
 20
-56.122024
 30
0.0
 11
305.556447
 21
-56.122024
 31
0.0
  0
LINE
  8
0
  6
BYLAYER
 62
     7
 10
305.556447
 20
-57.009522
 30
0.0
 11
317.315801
 21
-57.009522
 31
0.0
  0
LINE
  8
0
  6
BYLAYER
 62
     7
 10
305.556447
 20
-59.672018
 30
0.0
 11
317.315801
 21
-59.672018
 31
0.0
  0
LINE
  8
0
  6
BYLAYER
 62
     7
 10
305.556447
 20
-64.997009
 30
0.0
 11
317.315801
 21
-64.997009
 31
0.0
  0
ARC
  8
0
  6
BYLAYER
 62
     7
 10
252.750287
 20
-63.488250
 30
0.0
 40
10.206232
 50
180.000000
 51
360.000005
  0
ARC
  8
0
  6
BYLAYER
 62
     7
 10
287.362728
 20
-63.488250
 30
0.0
 40
10.206232
 50
180.000000
 51
360.000005
  0
LINE
  8
0
  6
BYLAYER
 62
     7
 10
234.556515
 20
-60.382060
 30
0.0
 11
241.656557
 21
-60.382060
 31
0.0
  0
ARC
  8
0
  6
BYLAYER
 62
     7
 10
241.656557
 20
-61.269558
 30
0.0
 40
0.887498
 50
0.0
 51
89.999992
  0
ARC
  8
0
  6
BYLAYER
 62
     7
 10
263.844018
 20
-61.269504
 30
0.0
 40
0.887498
 50
90.0
 51
180.000003
  0
LINE
  8
0
  6
BYLAYER
 62
     7
 10
263.844018
 20
-60.382006
 30
0.0
 11
276.268997
 21
-60.382006
 31
0.0
  0
ARC
  8
0
  6
BYLAYER
 62
     7
 10
276.268997
 20
-61.269504
 30
0.0
 40
0.887498
 50
0.0
 51
89.999992
  0
LINE
  8
0
  6
BYLAYER
 62
     7
 10
298.456459
 20
-60.382006
 30
0.0
 11
305.556447
 21
-60.382006
 31
0.0
  0
ARC
  8
0
  6
BYLAYER
 62
     7
 10
298.456459
 20
-61.269504
 30
0.0
 40
0.887498
 50
90.0
 51
180.000003
  0
CIRCLE
  8
0
  6
BYLAYER
 62
     7
 10
254.747159
 20
-99.607065
 30
0.0
 40
1.198123
  0
CIRCLE
  8
0
  6
BYLAYER
 62
     7
 10
303.559575
 20
-99.545747
 30
0.0
 40
1.198123
  0
LINE
  8
0
  6
BYLAYER
 62
     7
 10
235.089100
 20
-99.076971
 30
0.0
 11
252.137965
 21
-99.076971
 31
0.0
  0
LINE
  8
0
  6
BYLAYER
 62
     7
 10
235.089100
 20
-100.141981
 30
0.0
 11
252.138940
 21
-100.141981
 31
0.0
  0
LINE
  8
0
  6
BYLAYER
 62
     7
 10
257.356352
 20
-99.076971
 30
0.0
 11
279.153367
 21
-99.076971
 31
0.0
  0
LINE
  8
0
  6
BYLAYER
 62
     7
 10
257.355377
 20
-100.141981
 30
0.0
 11
279.153367
 21
-100.141981
 31
0.0
  0
LINE
  8
0
  6
BYLAYER
 62
     7
 10
300.938681
 20
-99.076917
 30
0.0
 11
279.153367
 21
-99.076971
 31
0.0
  0
LINE
  8
0
  6
BYLAYER
 62
     7
 10
300.964682
 20
-100.141927
 30
0.0
 11
279.153367
 21
-100.141981
 31
0.0
  0
LINE
  8
0
  6
BYLAYER
 62
     7
 10
317.315801
 20
-99.076917
 30
0.0
 11
306.180469
 21
-99.076917
 31
0.0
  0
LINE
  8
0
  6
BYLAYER
 62
     7
 10
317.315801
 20
-100.141927
 30
0.0
 11
306.154468
 21
-100.141927
 31
0.0
  0
LINE
  8
0
  6
BYLAYER
 62
     7
 10
317.315801
 20
-154.634460
 30
0.0
 11
279.153475
 21
-154.634409
 31
0.0
  0
LINE
  8
0
  6
BYLAYER
 62
     7
 10
317.315801
 20
-159.959451
 30
0.0
 11
279.153475
 21
-159.959399
 31
0.0
  0
LINE
  8
0
  6
BYLAYER
 62
     7
 10
317.315801
 20
-162.621946
 30
0.0
 11
279.153475
 21
-162.621895
 31
0.0
  0
LINE
  8
0
  6
BYLAYER
 62
     7
 10
234.556731
 20
-143.096983
 30
0.0
 11
237.295658
 21
-153.318870
 31
0.0
  0
ARC
  8
0
  6
BYLAYER
 62
     7
 10
239.010149
 20
-152.859466
 30
0.0
 40
1.774973
 50
195.000043
 51
270.000055
  0
LINE
  8
0
  6
BYLAYER
 62
     7
 10
234.556731
 20
-149.309472
 30
0.0
 11
235.998320
 21
-148.477171
 31
0.0
  0
LINE
  8
0
  6
BYLAYER
 62
     7
 10
234.556731
 20
-149.309472
 30
0.0
 11
237.057858
 21
-158.643860
 31
0.0
  0
ARC
  8
0
  6
BYLAYER
 62
     7
 10
238.772349
 20
-158.184457
 30
0.0
 40
1.774973
 50
195.000043
 51
270.000055
  0
ARC
  8
0
  6
BYLAYER
 62
     7
 10
238.772403
 20
-160.846952
 30
0.0
 40
1.775025
 50
195.000070
 51
270.000055
  0
LINE
  8
0
  6
BYLAYER
 62
     7
 10
234.556731
 20
-151.971967
 30
0.0
 11
237.057858
 21
-161.306356
 31
0.0
  0
LINE
  8
0
  6
BYLAYER
 62
     7
 10
239.010149
 20
-154.634463
 30
0.0
 11
279.153475
 21
-154.634409
 31
0.0
  0
LINE
  8
0
  6
BYLAYER
 62
     7
 10
238.772403
 20
-159.959454
 30
0.0
 11
279.153475
 21
-159.959399
 31
0.0
  0
LINE
  8
0
  6
BYLAYER
 62
     7
 10
238.772403
 20
-162.621949
 30
0.0
 11
279.153475
 21
-162.621895
 31
0.0
  0
LINE
  8
0
  6
BYLAYER
 62
     7
 10
234.556623
 20
-152.948140
 30
0.0
 11
234.783210
 21
-152.817323
 31
0.0
  0
ARC
  8
0
  6
BYLAYER
 62
     7
 10
254.747159
 20
-99.607065
 30
0.0
 40
2.662497
 50
11.484133
 51
168.515862
  0
ARC
  8
0
  6
BYLAYER
 62
     7
 10
303.559575
 20
-99.545747
 30
0.0
 40
2.662487
 50
10.140737
 51
169.859264
  0
ARC
  8
0
  6
BYLAYER
 62
     7
 10
303.559575
 20
-99.545747
 30
0.0
 40
2.662499
 50
192.939225
 51
347.06079
  0
ARC
  8
0
  6
BYLAYER
 62
     7
 10
254.747159
 20
-99.607065
 30
0.0
 40
2.662463
 50
191.590672
 51
348.409452
  0
LINE
  8
0
  6
BYLAYER
 62
     7
 10
235.089100
 20
-80.617069
 30
0.0
 11
317.315801
 21
-80.616968
 31
0.0
  0
LINE
  8
0
  6
BYLAYER
 62
     7
 10
235.089100
 20
-89.314488
 30
0.0
 11
317.315801
 21
-89.314438
 31
0.0
  0
LINE
  8
0
  6
BYLAYER
 62
     7
 10
235.089100
 20
-90.379552
 30
0.0
 11
317.315801
 21
-90.379451
 31
0.0
  0
LINE
  8
0
  6
BYLAYER
 62
     7
 10
242.544055
 20
-57.275815
 30
0.0
 11
242.544055
 21
-63.488250
 31
0.0
  0
LINE
  8
0
  6
BYLAYER
 62
     7
 10
240.769058
 20
-55.500818
 30
0.0
 11
234.556515
 21
-55.500818
 31
0.0
  0
ARC
  8
0
  6
BYLAYER
 62
     7
 10
240.769058
 20
-57.275815
 30
0.0
 40
1.774997
 50
0.0
 51
90.000003
  0
LINE
  8
0
  6
BYLAYER
 62
     7
 10
262.956520
 20
-57.275815
 30
0.0
 11
262.956520
 21
-63.488250
 31
0.0
  0
ARC
  8
0
  6
BYLAYER
 62
     7
 10
264.731517
 20
-57.275815
 30
0.0
 40
1.774997
 50
90.0
 51
180.000003
  0
LINE
  8
0
  6
BYLAYER
 62
     7
 10
277.156495
 20
-57.275815
 30
0.0
 11
277.156495
 21
-63.488250
 31
0.0
  0
LINE
  8
0
  6
BYLAYER
 62
     7
 10
275.381499
 20
-55.500818
 30
0.0
 11
264.731517
 21
-55.500818
 31
0.0
  0
ARC
  8
0
  6
BYLAYER
 62
     7
 10
275.381499
 20
-57.275815
 30
0.0
 40
1.774997
 50
0.0
 51
90.000003
  0
LINE
  8
0
  6
BYLAYER
 62
     7
 10
297.568960
 20
-57.275761
 30
0.0
 11
297.568960
 21
-63.488250
 31
0.0
  0
LINE
  8
0
  6
BYLAYER
 62
     7
 10
305.556447
 20
-55.500764
 30
0.0
 11
299.343957
 21
-55.500764
 31
0.0
  0
ARC
  8
0
  6
BYLAYER
 62
     7
 10
299.343957
 20
-57.275761
 30
0.0
 40
1.774997
 50
90.0
 51
180.000003
  0
LINE
  8
0
  6
BYLAYER
 62
     7
 10
317.315801
 20
-79.552005
 30
0.0
 11
235.089100
 21
-79.552005
 31
0.0
  0
LINE
  8
0
  6
BYLAYER
 62
     7
 10
305.556447
 20
-79.552005
 30
0.0
 11
305.556447
 21
-51.507021
 31
0.0
  0
LINE
  8
0
  6
BYLAYER
 62
     7
 10
235.089100
 20
-108.839454
 30
0.0
 11
317.315801
 21
-108.839454
 31
0.0
  0
LINE
  8
0
  6
BYLAYER
 62
     7
 10
235.089100
 20
-109.904464
 30
0.0
 11
317.315801
 21
-109.904464
 31
0.0
  0
LINE
  8
0
  6
BYLAYER
 62
     7
 10
235.089100
 20
-119.666947
 30
0.0
 11
317.315801
 21
-119.666894
 31
0.0
  0
LINE
  8
0
  6
BYLAYER
 62
     7
 10
235.089100
 20
-128.364421
 30
0.0
 11
317.315801
 21
-128.364370
 31
0.0
  0
LINE
  8
0
  6
BYLAYER
 62
     7
 10
235.089100
 20
-129.429485
 30
0.0
 11
317.315801
 21
-129.429384
 31
0.0
  0
LINE
  8
0
  6
BYLAYER
 62
     7
 10
235.089100
 20
-138.126958
 30
0.0
 11
317.315801
 21
-138.126857
 31
0.0
  0
LINE
  8
0
  6
BYLAYER
 62
     7
 10
235.089100
 20
-139.191968
 30
0.0
 11
317.315801
 21
-139.191867
 31
0.0
  0
LINE
  8
0
  6
BYLAYER
 62
     7
 10
235.089100
 20
-118.601938
 30
0.0
 11
317.315801
 21
-118.601884
 31
0.0
  0
LINE
  8
0
  6
BYLAYER
 62
     7
 10
316.206428
 20
-80.616960
 30
0.0
 11
316.206428
 21
-89.314434
 31
0.0
  0
LINE
  8
0
  6
BYLAYER
 62
     7
 10
242.100360
 20
-80.617069
 30
0.0
 11
242.100360
 21
-89.314488
 31
0.0
  0
LINE
  8
0
  6
BYLAYER
 62
     7
 10
316.206428
 20
-90.379444
 30
0.0
 11
316.206428
 21
-99.076917
 31
0.0
  0
LINE
  8
0
  6
BYLAYER
 62
     7
 10
242.100360
 20
-90.379552
 30
0.0
 11
242.100360
 21
-99.076917
 31
0.0
  0
LINE
  8
0
  6
BYLAYER
 62
     7
 10
316.206428
 20
-100.141981
 30
0.0
 11
316.206428
 21
-108.839454
 31
0.0
  0
LINE
  8
0
  6
BYLAYER
 62
     7
 10
242.100360
 20
-100.141981
 30
0.0
 11
242.100360
 21
-108.839454
 31
0.0
  0
LINE
  8
0
  6
BYLAYER
 62
     7
 10
242.100360
 20
-109.904464
 30
0.0
 11
242.100360
 21
-118.601938
 31
0.0
  0
LINE
  8
0
  6
BYLAYER
 62
     7
 10
316.206428
 20
-109.904464
 30
0.0
 11
316.206428
 21
-118.601884
 31
0.0
  0
LINE
  8
0
  6
BYLAYER
 62
     7
 10
242.100360
 20
-119.666947
 30
0.0
 11
242.100360
 21
-128.364421
 31
0.0
  0
LINE
  8
0
  6
BYLAYER
 62
     7
 10
316.206428
 20
-119.666893
 30
0.0
 11
316.206428
 21
-128.364367
 31
0.0
  0
LINE
  8
0
  6
BYLAYER
 62
     7
 10
242.100360
 20
-129.429431
 30
0.0
 11
242.100360
 21
-138.126958
 31
0.0
  0
LINE
  8
0
  6
BYLAYER
 62
     7
 10
316.206428
 20
-129.429376
 30
0.0
 11
316.206428
 21
-138.126850
 31
0.0
  0
LINE
  8
0
  6
BYLAYER
 62
     7
 10
317.315801
 20
-79.111874
 30
0.0
 11
316.243804
 21
-79.541279
 31
0.0
  0
LINE
  8
0
  6
BYLAYER
 62
     7
 10
242.091530
 20
-79.437763
 30
0.0
 11
234.526234
 21
-77.293608
 31
0.0
  0
LINE
  8
0
  6
BYLAYER
 62
     7
 10
242.100360
 20
-139.191914
 30
0.0
 11
242.100360
 21
-140.966911
 31
0.0
  0
LINE
  8
0
  6
BYLAYER
 62
     7
 10
316.206428
 20
-139.191860
 30
0.0
 11
316.206428
 21
-140.966857
 31
0.0
  0
LINE
  8
0
  6
BYLAYER
 62
     7
 10
316.206428
 20
-140.966857
 30
0.0
 11
242.100360
 21
-140.966911
 31
0.0
  0
LINE
  8
0
  6
BYLAYER
 62
     7
 10
316.206428
 20
-140.966857
 30
0.0
 11
317.315801
 21
-141.280110
 31
0.0
  0
LINE
  8
0
  6
BYLAYER
 62
     7
 10
242.100360
 20
-140.966911
 30
0.0
 11
234.556731
 21
-143.096983
 31
0.0
  0
LINE
  8
0
  6
BYLAYER
 62
     7
 10
232.781518
 20
-152.948194
 30
0.0
 11
234.556515
 21
-152.948194
 31
0.0
  0
LINE
  8
0
  6
BYLAYER
 62
     7
 10
232.781572
 20
-109.372014
 30
0.0
 11
232.781518
 21
-65.795833
 31
0.0
  0
LINE
  8
0
  6
BYLAYER
 62
     7
 10
232.781572
 20
-109.372013
 30
0.0
 11
232.781518
 21
-152.948194
 31
0.0
  0
LINE
  8
0
  6
BYLAYER
 62
     7
 10
317.315801
 20
-109.372013
 30
0.0
 11
317.315801
 21
-54.372014
 31
0.0
  0
LINE
  8
0
  6
BYLAYER
 62
     7
 10
317.315801
 20
-54.372014
 30
0.0
 11
323.528291
 21
-54.372014
 31
0.0
  0
LINE
  8
0
  6
BYLAYER
 62
     7
 10
317.315801
 20
-164.372014
 30
0.0
 11
317.315801
 21
-109.372013
 31
0.0
  0
LINE
  8
0
  6
BYLAYER
 62
     7
 10
208.819113
 20
-69.372218
 30
0.0
 11
224.412088
 21
-67.180763
 31
0.0
  0
ARC
  8
0
  6
BYLAYER
 62
     7
 10
224.350336
 20
-66.741347
 30
0.0
 40
0.443749
 50
278.000037
 51
360.000000
  0
LINE
  8
0
  6
BYLAYER
 62
     7
 10
224.794086
 20
-109.372014
 30
0.0
 11
224.794086
 21
-57.125849
 31
0.0
  0
ARC
  8
0
  6
BYLAYER
 62
     7
 10
225.237835
 20
-57.125849
 30
0.0
 40
0.443749
 50
90.999985
 51
180.000000
  0
LINE
  8
0
  6
BYLAYER
 62
     7
 10
225.230089
 20
-56.682182
 30
0.0
 11
231.442578
 21
-56.573737
 31
0.0
  0
ARC
  8
0
  6
BYLAYER
 62
     7
 10
231.450324
 20
-57.017404
 30
0.0
 40
0.443749
 50
0.0
 51
90.99999
  0
LINE
  8
0
  6
BYLAYER
 62
     7
 10
231.894073
 20
-57.017404
 30
0.0
 11
231.894073
 21
-109.372014
 31
0.0
  0
ARC
  8
0
  6
BYLAYER
 62
     7
 10
232.337823
 20
-65.172218
 30
0.0
 40
0.443749
 50
180.000000
 51
268.000034
  0
LINE
  8
0
  6
BYLAYER
 62
     7
 10
232.322330
 20
-65.615695
 30
0.0
 11
232.781572
 21
-65.631729
 31
0.0
  0
LINE
  8
0
  6
BYLAYER
 62
     7
 10
232.781572
 20
-65.631729
 30
0.0
 11
232.781572
 21
-109.372014
 31
0.0
  0
LINE
  8
0
  6
BYLAYER
 62
     7
 10
208.819113
 20
-109.372014
 30
0.0
 11
208.819113
 21
-69.434583
 31
0.0
  0
LINE
  8
0
  6
BYLAYER
 62
     7
 10
208.819113
 20
-149.371810
 30
0.0
 11
224.412088
 21
-151.563265
 31
0.0
  0
ARC
  8
0
  6
BYLAYER
 62
     7
 10
224.350336
 20
-152.002681
 30
0.0
 40
0.443749
 50
0.0
 51
81.999963
  0
LINE
  8
0
  6
BYLAYER
 62
     7
 10
224.794086
 20
-109.372014
 30
0.0
 11
224.794086
 21
-161.618179
 31
0.0
  0
ARC
  8
0
  6
BYLAYER
 62
     7
 10
225.237835
 20
-161.618179
 30
0.0
 40
0.443749
 50
180.000000
 51
269.000015
  0
LINE
  8
0
  6
BYLAYER
 62
     7
 10
225.230089
 20
-162.061846
 30
0.0
 11
231.442578
 21
-162.170291
 31
0.0
  0
ARC
  8
0
  6
BYLAYER
 62
     7
 10
231.450324
 20
-161.726624
 30
0.0
 40
0.443749
 50
269.000010
 51
360.000000
  0
LINE
  8
0
  6
BYLAYER
 62
     7
 10
231.894073
 20
-161.726624
 30
0.0
 11
231.894073
 21
-109.372014
 31
0.0
  0
ARC
  8
0
  6
BYLAYER
 62
     7
 10
232.337823
 20
-153.571810
 30
0.0
 40
0.443749
 50
91.999966
 51
180.000000
  0
LINE
  8
0
  6
BYLAYER
 62
     7
 10
232.322330
 20
-153.128333
 30
0.0
 11
232.781572
 21
-153.112299
 31
0.0
  0
LINE
  8
0
  6
BYLAYER
 62
     7
 10
232.781572
 20
-153.112299
 30
0.0
 11
232.781572
 21
-109.372014
 31
0.0
  0
LINE
  8
0
  6
BYLAYER
 62
     7
 10
208.819113
 20
-109.372014
 30
0.0
 11
208.819113
 21
-149.309445
 31
0.0
  0
LINE
  8
0
  6
BYLAYER
 62
     7
 10
234.556515
 20
-51.507021
 30
0.0
 11
305.556393
 21
-51.507021
 31
0.0
  0
LINE
  8
0
  6
BYLAYER
 62
     7
 10
305.556393
 20
-49.732024
 30
0.0
 11
234.556515
 21
-49.732024
 31
0.0
  0
LINE
  8
0
  6
BYLAYER
 62
     7
 10
366.632198
 20
-54.372014
 30
0.0
 11
375.819113
 21
-63.558929
 31
0.0
  0
LINE
  8
0
  6
BYLAYER
 62
     7
 10
323.528291
 20
-54.372014
 30
0.0
 11
366.632198
 21
-54.372014
 31
0.0
  0
LINE
  8
0
  6
BYLAYER
 62
     7
 10
375.819113
 20
-63.558929
 30
0.0
 11
375.819113
 21
-109.372013
 31
0.0
  0
LINE
  8
0
  6
BYLAYER
 62
     7
 10
375.819113
 20
-155.185099
 30
0.0
 11
366.632198
 21
-164.372014
 31
0.0
  0
LINE
  8
0
  6
BYLAYER
 62
     7
 10
366.632198
 20
-164.372014
 30
0.0
 11
317.315801
 21
-164.372014
 31
0.0
  0
LINE
  8
0
  6
BYLAYER
 62
     7
 10
375.819113
 20
-109.372013
 30
0.0
 11
375.819113
 21
-155.185099
 31
0.0
  0
LINE
  8
0
  6
BYLAYER
 62
     7
 10
366.632198
 20
-54.372014
 30
0.0
 11
366.632198
 21
-164.372014
 31
0.0
  0
LINE
  8
0
  6
BYLAYER
 62
     7
 10
305.556393
 20
-51.507021
 30
0.0
 11
305.556393
 21
-2.372014
 31
0.0
  0
LINE
  8
0
  6
BYLAYER
 62
     7
 10
302.556393
 20
0.627986
 30
0.0
 11
237.556515
 21
0.627986
 31
0.0
  0
ARC
  8
0
  6
BYLAYER
 62
     7
 10
302.556393
 20
-2.372014
 30
0.0
 40
3.0
 50
0.0
 51
90.0
  0
ARC
  8
0
  6
BYLAYER
 62
     7
 10
237.556515
 20
-2.372014
 30
0.0
 40
3.0
 50
90.0
 51
180.0
  0
LINE
  8
0
  6
BYLAYER
 62
     7
 10
234.556515
 20
-2.372014
 30
0.0
 11
234.556515
 21
-51.507021
 31
0.0
  0
LINE
  8
0
  6
BYLAYER
 62
     7
 10
234.556569
 20
-394.865792
 30
0.0
 11
234.556569
 21
-457.878183
 31
0.0
  0
ARC
  8
0
  6
BYLAYER
 62
     7
 10
235.887816
 20
-457.878183
 30
0.0
 40
1.331248
 50
180.000000
 51
270.000000
  0
ARC
  8
0
  6
BYLAYER
 62
     7
 10
235.887816
 20
-394.865792
 30
0.0
 40
1.331248
 50
90.0
 51
180.0
  0
LINE
  8
0
  6
BYLAYER
 62
     7
 10
304.225199
 20
-393.534544
 30
0.0
 11
235.887816
 21
-393.534544
 31
0.0
  0
ARC
  8
0
  6
BYLAYER
 62
     7
 10
304.225199
 20
-394.865792
 30
0.0
 40
1.331248
 50
0.0
 51
90.0
  0
LINE
  8
0
  6
BYLAYER
 62
     7
 10
305.556447
 20
-457.878183
 30
0.0
 11
305.556447
 21
-394.865792
 31
0.0
  0
LINE
  8
0
  6
BYLAYER
 62
     7
 10
235.887816
 20
-459.209431
 30
0.0
 11
304.225199
 21
-459.209431
 31
0.0
  0
ARC
  8
0
  6
BYLAYER
 62
     7
 10
304.225199
 20
-457.878183
 30
0.0
 40
1.331248
 50
270.0
 51
360.0
  0
LINE
  8
0
  6
BYLAYER
 62
     7
 10
234.556569
 20
-426.371987
 30
0.0
 11
234.556623
 21
-469.948141
 31
0.0
  0
LINE
  8
0
  6
BYLAYER
 62
     7
 10
317.315801
 20
-471.634461
 30
0.0
 11
279.153475
 21
-471.634410
 31
0.0
  0
LINE
  8
0
  6
BYLAYER
 62
     7
 10
317.315801
 20
-476.959452
 30
0.0
 11
279.153475
 21
-476.959401
 31
0.0
  0
LINE
  8
0
  6
BYLAYER
 62
     7
 10
317.315801
 20
-479.621947
 30
0.0
 11
279.153475
 21
-479.621896
 31
0.0
  0
LINE
  8
0
  6
BYLAYER
 62
     7
 10
234.556731
 20
-460.096984
 30
0.0
 11
237.295658
 21
-470.318871
 31
0.0
  0
ARC
  8
0
  6
BYLAYER
 62
     7
 10
239.010149
 20
-469.859467
 30
0.0
 40
1.774973
 50
195.000043
 51
270.000055
  0
LINE
  8
0
  6
BYLAYER
 62
     7
 10
234.556731
 20
-466.309473
 30
0.0
 11
235.998320
 21
-465.477172
 31
0.0
  0
LINE
  8
0
  6
BYLAYER
 62
     7
 10
234.556731
 20
-466.309473
 30
0.0
 11
237.057858
 21
-475.643862
 31
0.0
  0
ARC
  8
0
  6
BYLAYER
 62
     7
 10
238.772349
 20
-475.184458
 30
0.0
 40
1.774973
 50
195.000043
 51
270.000055
  0
ARC
  8
0
  6
BYLAYER
 62
     7
 10
238.772403
 20
-477.846953
 30
0.0
 40
1.775025
 50
195.000070
 51
270.000055
  0
LINE
  8
0
  6
BYLAYER
 62
     7
 10
234.556731
 20
-468.971968
 30
0.0
 11
237.057858
 21
-478.306357
 31
0.0
  0
LINE
  8
0
  6
BYLAYER
 62
     7
 10
239.010149
 20
-471.634464
 30
0.0
 11
279.153475
 21
-471.634410
 31
0.0
  0
LINE
  8
0
  6
BYLAYER
 62
     7
 10
238.772403
 20
-476.959455
 30
0.0
 11
279.153475
 21
-476.959401
 31
0.0
  0
LINE
  8
0
  6
BYLAYER
 62
     7
 10
238.772403
 20
-479.621950
 30
0.0
 11
279.153475
 21
-479.621896
 31
0.0
  0
LINE
  8
0
  6
BYLAYER
 62
     7
 10
234.556623
 20
-469.948141
 30
0.0
 11
234.783210
 21
-469.817324
 31
0.0
  0
LINE
  8
0
  6
BYLAYER
 62
     7
 10
305.556447
 20
-426.904465
 30
0.0
 11
317.315801
 21
-426.904465
 31
0.0
  0
LINE
  8
0
  6
BYLAYER
 62
     7
 10
305.556447
 20
-436.666903
 30
0.0
 11
317.315801
 21
-436.666895
 31
0.0
  0
LINE
  8
0
  6
BYLAYER
 62
     7
 10
305.556447
 20
-445.364379
 30
0.0
 11
317.315801
 21
-445.364371
 31
0.0
  0
LINE
  8
0
  6
BYLAYER
 62
     7
 10
305.556447
 20
-446.429399
 30
0.0
 11
317.315801
 21
-446.429385
 31
0.0
  0
LINE
  8
0
  6
BYLAYER
 62
     7
 10
305.556447
 20
-455.126873
 30
0.0
 11
317.315801
 21
-455.126858
 31
0.0
  0
LINE
  8
0
  6
BYLAYER
 62
     7
 10
305.556447
 20
-456.191882
 30
0.0
 11
317.315801
 21
-456.191868
 31
0.0
  0
LINE
  8
0
  6
BYLAYER
 62
     7
 10
305.556447
 20
-435.601893
 30
0.0
 11
317.315801
 21
-435.601885
 31
0.0
  0
LINE
  8
0
  6
BYLAYER
 62
     7
 10
316.206428
 20
-426.904465
 30
0.0
 11
316.206428
 21
-435.601885
 31
0.0
  0
LINE
  8
0
  6
BYLAYER
 62
     7
 10
316.206428
 20
-436.666894
 30
0.0
 11
316.206428
 21
-445.364368
 31
0.0
  0
LINE
  8
0
  6
BYLAYER
 62
     7
 10
316.206428
 20
-446.429378
 30
0.0
 11
316.206428
 21
-455.126851
 31
0.0
  0
LINE
  8
0
  6
BYLAYER
 62
     7
 10
316.206428
 20
-456.191861
 30
0.0
 11
316.206428
 21
-457.966858
 31
0.0
  0
LINE
  8
0
  6
BYLAYER
 62
     7
 10
316.206428
 20
-457.966858
 30
0.0
 11
305.556447
 21
-457.966866
 31
0.0
  0
LINE
  8
0
  6
BYLAYER
 62
     7
 10
316.206428
 20
-457.966858
 30
0.0
 11
317.315801
 21
-458.280112
 31
0.0
  0
LINE
  8
0
  6
BYLAYER
 62
     7
 10
237.699990
 20
-459.209431
 30
0.0
 11
234.556731
 21
-460.096984
 31
0.0
  0
LINE
  8
0
  6
BYLAYER
 62
     7
 10
232.781518
 20
-469.948195
 30
0.0
 11
234.556515
 21
-469.948195
 31
0.0
  0
LINE
  8
0
  6
BYLAYER
 62
     7
 10
232.781572
 20
-426.372014
 30
0.0
 11
232.781518
 21
-469.948195
 31
0.0
  0
LINE
  8
0
  6
BYLAYER
 62
     7
 10
317.315801
 20
-481.372015
 30
0.0
 11
317.315801
 21
-426.372015
 31
0.0
  0
LINE
  8
0
  6
BYLAYER
 62
     7
 10
234.556569
 20
-426.372042
 30
0.0
 11
234.556623
 21
-382.795888
 31
0.0
  0
LINE
  8
0
  6
BYLAYER
 62
     7
 10
317.315801
 20
-381.109568
 30
0.0
 11
279.153475
 21
-381.109619
 31
0.0
  0
LINE
  8
0
  6
BYLAYER
 62
     7
 10
317.315801
 20
-375.784577
 30
0.0
 11
279.153475
 21
-375.784629
 31
0.0
  0
LINE
  8
0
  6
BYLAYER
 62
     7
 10
317.315801
 20
-373.122082
 30
0.0
 11
279.153475
 21
-373.122133
 31
0.0
  0
LINE
  8
0
  6
BYLAYER
 62
     7
 10
234.556731
 20
-392.647045
 30
0.0
 11
237.295658
 21
-382.425158
 31
0.0
  0
ARC
  8
0
  6
BYLAYER
 62
     7
 10
239.010149
 20
-382.884562
 30
0.0
 40
1.774973
 50
89.999945
 51
164.999957
  0
LINE
  8
0
  6
BYLAYER
 62
     7
 10
234.556731
 20
-386.434556
 30
0.0
 11
235.998320
 21
-387.266857
 31
0.0
  0
LINE
  8
0
  6
BYLAYER
 62
     7
 10
234.556731
 20
-386.434556
 30
0.0
 11
237.057858
 21
-377.100168
 31
0.0
  0
ARC
  8
0
  6
BYLAYER
 62
     7
 10
238.772349
 20
-377.559571
 30
0.0
 40
1.774973
 50
89.999945
 51
164.999957
  0
ARC
  8
0
  6
BYLAYER
 62
     7
 10
238.772403
 20
-374.897076
 30
0.0
 40
1.775025
 50
89.999945
 51
164.999930
  0
LINE
  8
0
  6
BYLAYER
 62
     7
 10
234.556731
 20
-383.772061
 30
0.0
 11
237.057858
 21
-374.437672
 31
0.0
  0
LINE
  8
0
  6
BYLAYER
 62
     7
 10
239.010149
 20
-381.109565
 30
0.0
 11
279.153475
 21
-381.109619
 31
0.0
  0
LINE
  8
0
  6
BYLAYER
 62
     7
 10
238.772403
 20
-375.784574
 30
0.0
 11
279.153475
 21
-375.784629
 31
0.0
  0
LINE
  8
0
  6
BYLAYER
 62
     7
 10
238.772403
 20
-373.122079
 30
0.0
 11
279.153475
 21
-373.122133
 31
0.0
  0
LINE
  8
0
  6
BYLAYER
 62
     7
 10
234.556623
 20
-382.795888
 30
0.0
 11
234.783210
 21
-382.926705
 31
0.0
  0
LINE
  8
0
  6
BYLAYER
 62
     7
 10
305.556447
 20
-425.839564
 30
0.0
 11
317.315801
 21
-425.839564
 31
0.0
  0
LINE
  8
0
  6
BYLAYER
 62
     7
 10
305.556447
 20
-416.077126
 30
0.0
 11
317.315801
 21
-416.077134
 31
0.0
  0
LINE
  8
0
  6
BYLAYER
 62
     7
 10
305.556447
 20
-407.379650
 30
0.0
 11
317.315801
 21
-407.379658
 31
0.0
  0
LINE
  8
0
  6
BYLAYER
 62
     7
 10
305.556447
 20
-406.314630
 30
0.0
 11
317.315801
 21
-406.314644
 31
0.0
  0
LINE
  8
0
  6
BYLAYER
 62
     7
 10
305.556447
 20
-397.617156
 30
0.0
 11
317.315801
 21
-397.617171
 31
0.0
  0
LINE
  8
0
  6
BYLAYER
 62
     7
 10
305.556447
 20
-396.552147
 30
0.0
 11
317.315801
 21
-396.552161
 31
0.0
  0
LINE
  8
0
  6
BYLAYER
 62
     7
 10
305.556447
 20
-417.142136
 30
0.0
 11
317.315801
 21
-417.142144
 31
0.0
  0
LINE
  8
0
  6
BYLAYER
 62
     7
 10
316.206428
 20
-425.839564
 30
0.0
 11
316.206428
 21
-417.142144
 31
0.0
  0
LINE
  8
0
  6
BYLAYER
 62
     7
 10
316.206428
 20
-416.077135
 30
0.0
 11
316.206428
 21
-407.379661
 31
0.0
  0
LINE
  8
0
  6
BYLAYER
 62
     7
 10
316.206428
 20
-406.314652
 30
0.0
 11
316.206428
 21
-397.617178
 31
0.0
  0
LINE
  8
0
  6
BYLAYER
 62
     7
 10
316.206428
 20
-396.552168
 30
0.0
 11
316.206428
 21
-394.777171
 31
0.0
  0
LINE
  8
0
  6
BYLAYER
 62
     7
 10
316.206428
 20
-394.777171
 30
0.0
 11
305.556447
 21
-394.777164
 31
0.0
  0
LINE
  8
0
  6
BYLAYER
 62
     7
 10
316.206428
 20
-394.777171
 30
0.0
 11
317.315801
 21
-394.463918
 31
0.0
  0
LINE
  8
0
  6
BYLAYER
 62
     7
 10
237.699990
 20
-393.534598
 30
0.0
 11
234.556731
 21
-392.647045
 31
0.0
  0
LINE
  8
0
  6
BYLAYER
 62
     7
 10
232.781518
 20
-382.795834
 30
0.0
 11
234.556515
 21
-382.795834
 31
0.0
  0
LINE
  8
0
  6
BYLAYER
 62
     7
 10
232.781572
 20
-426.372015
 30
0.0
 11
232.781518
 21
-382.795834
 31
0.0
  0
LINE
  8
0
  6
BYLAYER
 62
     7
 10
317.315801
 20
-371.372015
 30
0.0
 11
317.315801
 21
-426.372015
 31
0.0
  0
LINE
  8
0
  6
BYLAYER
 62
     7
 10
208.819113
 20
-386.372218
 30
0.0
 11
224.412088
 21
-384.180763
 31
0.0
  0
ARC
  8
0
  6
BYLAYER
 62
     7
 10
224.350336
 20
-383.741347
 30
0.0
 40
0.443749
 50
278.000037
 51
360.0
  0
LINE
  8
0
  6
BYLAYER
 62
     7
 10
224.794086
 20
-426.372014
 30
0.0
 11
224.794086
 21
-374.125849
 31
0.0
  0
ARC
  8
0
  6
BYLAYER
 62
     7
 10
225.237835
 20
-374.125849
 30
0.0
 40
0.443749
 50
90.999985
 51
180.000000
  0
LINE
  8
0
  6
BYLAYER
 62
     7
 10
225.230089
 20
-373.682182
 30
0.0
 11
231.442578
 21
-373.573737
 31
0.0
  0
ARC
  8
0
  6
BYLAYER
 62
     7
 10
231.450324
 20
-374.017404
 30
0.0
 40
0.443749
 50
0.0
 51
90.99999
  0
LINE
  8
0
  6
BYLAYER
 62
     7
 10
231.894073
 20
-374.017404
 30
0.0
 11
231.894073
 21
-426.372014
 31
0.0
  0
ARC
  8
0
  6
BYLAYER
 62
     7
 10
232.337823
 20
-382.172218
 30
0.0
 40
0.443749
 50
180.000000
 51
268.000034
  0
LINE
  8
0
  6
BYLAYER
 62
     7
 10
232.322330
 20
-382.615695
 30
0.0
 11
232.781572
 21
-382.631729
 31
0.0
  0
LINE
  8
0
  6
BYLAYER
 62
     7
 10
232.781572
 20
-382.631729
 30
0.0
 11
232.781572
 21
-426.372014
 31
0.0
  0
LINE
  8
0
  6
BYLAYER
 62
     7
 10
208.819113
 20
-426.372014
 30
0.0
 11
208.819113
 21
-386.434583
 31
0.0
  0
LINE
  8
0
  6
BYLAYER
 62
     7
 10
208.819113
 20
-466.371810
 30
0.0
 11
224.412088
 21
-468.563265
 31
0.0
  0
ARC
  8
0
  6
BYLAYER
 62
     7
 10
224.350336
 20
-469.002681
 30
0.0
 40
0.443749
 50
0.0
 51
81.999963
  0
LINE
  8
0
  6
BYLAYER
 62
     7
 10
224.794086
 20
-426.372014
 30
0.0
 11
224.794086
 21
-478.618179
 31
0.0
  0
ARC
  8
0
  6
BYLAYER
 62
     7
 10
225.237835
 20
-478.618179
 30
0.0
 40
0.443749
 50
180.000000
 51
269.000015
  0
LINE
  8
0
  6
BYLAYER
 62
     7
 10
225.230089
 20
-479.061846
 30
0.0
 11
231.442578
 21
-479.170291
 31
0.0
  0
ARC
  8
0
  6
BYLAYER
 62
     7
 10
231.450324
 20
-478.726624
 30
0.0
 40
0.443749
 50
269.000010
 51
360.000000
  0
LINE
  8
0
  6
BYLAYER
 62
     7
 10
231.894073
 20
-478.726624
 30
0.0
 11
231.894073
 21
-426.372014
 31
0.0
  0
ARC
  8
0
  6
BYLAYER
 62
     7
 10
232.337823
 20
-470.571810
 30
0.0
 40
0.443749
 50
91.999966
 51
180.000000
  0
LINE
  8
0
  6
BYLAYER
 62
     7
 10
232.322330
 20
-470.128333
 30
0.0
 11
232.781572
 21
-470.112299
 31
0.0
  0
LINE
  8
0
  6
BYLAYER
 62
     7
 10
232.781572
 20
-470.112299
 30
0.0
 11
232.781572
 21
-426.372014
 31
0.0
  0
LINE
  8
0
  6
BYLAYER
 62
     7
 10
208.819113
 20
-426.372014
 30
0.0
 11
208.819113
 21
-466.309445
 31
0.0
  0
LINE
  8
0
  6
BYLAYER
 62
     7
 10
375.819113
 20
-472.185099
 30
0.0
 11
366.632198
 21
-481.372015
 31
0.0
  0
LINE
  8
0
  6
BYLAYER
 62
     7
 10
366.632198
 20
-481.372015
 30
0.0
 11
317.315801
 21
-481.372015
 31
0.0
  0
LINE
  8
0
  6
BYLAYER
 62
     7
 10
375.819113
 20
-426.372015
 30
0.0
 11
375.819113
 21
-472.185099
 31
0.0
  0
LINE
  8
0
  6
BYLAYER
 62
     7
 10
375.819113
 20
-380.558930
 30
0.0
 11
366.632198
 21
-371.372015
 31
0.0
  0
LINE
  8
0
  6
BYLAYER
 62
     7
 10
366.632198
 20
-371.372015
 30
0.0
 11
317.315801
 21
-371.372015
 31
0.0
  0
LINE
  8
0
  6
BYLAYER
 62
     7
 10
375.819113
 20
-426.372015
 30
0.0
 11
375.819113
 21
-380.558930
 31
0.0
  0
LINE
  8
0
  6
BYLAYER
 62
     7
 10
366.632198
 20
-481.372015
 30
0.0
 11
366.632198
 21
-371.372015
 31
0.0
  0
LINE
  8
0
  6
BYLAYER
 62
     1
 10
134.819098
 20
-83.372045
 30
0.0
 11
133.819098
 21
-82.372045
 31
0.0
  0
LINE
  8
0
  6
BYLAYER
 62
     1
 10
113.819102
 20
-102.372045
 30
0.0
 11
114.819102
 21
-103.372045
 31
0.0
  0
LINE
  8
0
  6
BYLAYER
 62
     1
 10
113.819109
 20
-159.372045
 30
0.0
 11
114.819109
 21
-158.372045
 31
0.0
  0
LINE
  8
0
  6
BYLAYER
 62
     1
 10
133.819113
 20
-179.372045
 30
0.0
 11
134.819113
 21
-178.372045
 31
0.0
  0
LINE
  8
0
  6
BYLAYER
 62
     1
 10
172.819113
 20
-178.372029
 30
0.0
 11
173.819113
 21
-179.372029
 31
0.0
  0
LINE
  8
0
  6
BYLAYER
 62
     1
 10
172.819098
 20
-83.372045
 30
0.0
 11
173.819098
 21
-82.372045
 31
0.0
  0
LINE
  8
0
  6
BYLAYER
 62
     1
 10
192.819113
 20
-103.372045
 30
0.0
 11
193.819113
 21
-102.372045
 31
0.0
  0
LINE
  8
0
  6
BYLAYER
 62
     1
 10
172.819113
 20
-178.372029
 30
0.0
 11
134.819113
 21
-178.372045
 31
0.0
  0
LINE
  8
0
  6
BYLAYER
 62
     1
 10
119.319098
 20
-92.122045
 30
0.0
 11
113.819102
 21
-92.122045
 31
0.0
  0
LINE
  8
0
  6
BYLAYER
 62
     1
 10
119.319098
 20
-98.372045
 30
0.0
 11
113.819102
 21
-98.372045
 31
0.0
  0
LINE
  8
0
  6
BYLAYER
 62
     1
 10
113.819109
 20
-163.122045
 30
0.0
 11
119.319113
 21
-163.122045
 31
0.0
  0
LINE
  8
0
  6
BYLAYER
 62
     1
 10
113.819109
 20
-169.622045
 30
0.0
 11
119.319113
 21
-169.622045
 31
0.0
  0
LINE
  8
0
  6
BYLAYER
 62
     1
 10
188.319113
 20
-169.622029
 30
0.0
 11
193.819113
 21
-169.622029
 31
0.0
  0
LINE
  8
0
  6
BYLAYER
 62
     1
 10
188.319113
 20
-163.122029
 30
0.0
 11
193.819113
 21
-163.122029
 31
0.0
  0
LINE
  8
0
  6
BYLAYER
 62
     1
 10
177.569113
 20
-179.372029
 30
0.0
 11
177.569113
 21
-173.872029
 31
0.0
  0
LINE
  8
0
  6
BYLAYER
 62
     1
 10
184.069113
 20
-179.372029
 30
0.0
 11
184.069113
 21
-173.872029
 31
0.0
  0
LINE
  8
0
  6
BYLAYER
 62
     1
 10
130.069113
 20
-179.372045
 30
0.0
 11
130.069113
 21
-173.872045
 31
0.0
  0
LINE
  8
0
  6
BYLAYER
 62
     1
 10
123.569113
 20
-179.372045
 30
0.0
 11
123.569113
 21
-173.872045
 31
0.0
  0
LINE
  8
0
  6
BYLAYER
 62
     1
 10
184.069098
 20
-82.372045
 30
0.0
 11
184.069113
 21
-87.872045
 31
0.0
  0
LINE
  8
0
  6
BYLAYER
 62
     1
 10
177.569098
 20
-82.372045
 30
0.0
 11
177.569113
 21
-87.872045
 31
0.0
  0
LINE
  8
0
  6
BYLAYER
 62
     1
 10
130.069098
 20
-82.372045
 30
0.0
 11
130.069098
 21
-87.872045
 31
0.0
  0
LINE
  8
0
  6
BYLAYER
 62
     1
 10
123.569098
 20
-82.372045
 30
0.0
 11
123.569098
 21
-87.872045
 31
0.0
  0
LINE
  8
0
  6
BYLAYER
 62
     1
 10
133.819098
 20
-82.372045
 30
0.0
 11
133.819098
 21
-87.872045
 31
0.0
  0
LINE
  8
0
  6
BYLAYER
 62
     1
 10
173.819098
 20
-82.372045
 30
0.0
 11
173.819113
 21
-87.872045
 31
0.0
  0
LINE
  8
0
  6
BYLAYER
 62
     1
 10
193.819113
 20
-102.372045
 30
0.0
 11
188.319113
 21
-102.372045
 31
0.0
  0
LINE
  8
0
  6
BYLAYER
 62
     1
 10
192.819113
 20
-103.372045
 30
0.0
 11
188.319113
 21
-103.372045
 31
0.0
  0
LINE
  8
0
  6
BYLAYER
 62
     1
 10
193.819113
 20
-159.372029
 30
0.0
 11
188.319113
 21
-159.372029
 31
0.0
  0
LINE
  8
0
  6
BYLAYER
 62
     1
 10
172.819113
 20
-178.372029
 30
0.0
 11
172.819113
 21
-173.872029
 31
0.0
  0
LINE
  8
0
  6
BYLAYER
 62
     1
 10
173.819113
 20
-179.372029
 30
0.0
 11
173.819113
 21
-173.872029
 31
0.0
  0
LINE
  8
0
  6
BYLAYER
 62
     1
 10
133.819113
 20
-179.372045
 30
0.0
 11
133.819113
 21
-173.872045
 31
0.0
  0
LINE
  8
0
  6
BYLAYER
 62
     1
 10
134.819113
 20
-178.372045
 30
0.0
 11
134.819113
 21
-173.872045
 31
0.0
  0
LINE
  8
0
  6
BYLAYER
 62
     1
 10
113.819109
 20
-159.372045
 30
0.0
 11
119.319113
 21
-159.372045
 31
0.0
  0
LINE
  8
0
  6
BYLAYER
 62
     1
 10
113.819102
 20
-102.372045
 30
0.0
 11
119.319098
 21
-102.372045
 31
0.0
  0
LINE
  8
0
  6
BYLAYER
 62
     1
 10
114.819109
 20
-158.372045
 30
0.0
 11
114.819102
 21
-129.372045
 31
0.0
  0
LINE
  8
0
  6
BYLAYER
 62
     1
 10
114.819102
 20
-103.372045
 30
0.0
 11
114.819102
 21
-129.372045
 31
0.0
  0
LINE
  8
0
  6
BYLAYER
 62
     1
 10
192.819113
 20
-136.372045
 30
0.0
 11
192.819113
 21
-158.372029
 31
0.0
  0
LINE
  8
0
  6
BYLAYER
 62
     1
 10
119.319098
 20
-115.254491
 30
0.0
 11
119.319098
 21
-126.608129
 31
0.0
  0
LINE
  8
0
  6
BYLAYER
 62
     1
 10
114.819109
 20
-158.372045
 30
0.0
 11
115.319109
 21
-158.372045
 31
0.0
  0
LINE
  8
0
  6
BYLAYER
 62
     1
 10
119.319113
 20
-158.372045
 30
0.0
 11
115.319109
 21
-158.372045
 31
0.0
  0
LINE
  8
0
  6
BYLAYER
 62
     1
 10
114.819102
 20
-103.372045
 30
0.0
 11
115.319102
 21
-103.372045
 31
0.0
  0
LINE
  8
0
  6
BYLAYER
 62
     1
 10
119.319098
 20
-103.372045
 30
0.0
 11
115.319102
 21
-103.372045
 31
0.0
  0
LINE
  8
0
  6
BYLAYER
 62
     1
 10
134.819098
 20
-83.372045
 30
0.0
 11
134.819098
 21
-85.372045
 31
0.0
  0
LINE
  8
0
  6
BYLAYER
 62
     1
 10
172.819098
 20
-85.372045
 30
0.0
 11
172.819098
 21
-83.372045
 31
0.0
  0
LINE
  8
0
  6
BYLAYER
 62
     1
 10
134.819098
 20
-87.872045
 30
0.0
 11
134.819098
 21
-85.372045
 31
0.0
  0
LINE
  8
0
  6
BYLAYER
 62
     1
 10
172.819098
 20
-85.372045
 30
0.0
 11
172.819113
 21
-87.872045
 31
0.0
  0
LINE
  8
0
  6
BYLAYER
 62
     1
 10
192.819113
 20
-158.372029
 30
0.0
 11
192.319113
 21
-158.372029
 31
0.0
  0
LINE
  8
0
  6
BYLAYER
 62
     1
 10
188.319113
 20
-158.372029
 30
0.0
 11
192.319113
 21
-158.372029
 31
0.0
  0
ARC
  8
0
  6
BYLAYER
 62
     1
 10
120.319113
 20
-153.622045
 30
0.0
 40
1.0
 50
180.000000
 51
269.999996
  0
LINE
  8
0
  6
BYLAYER
 62
     1
 10
119.319113
 20
-157.122045
 30
0.0
 11
119.319113
 21
-158.372045
 31
0.0
  0
ARC
  8
0
  6
BYLAYER
 62
     1
 10
120.319113
 20
-157.122045
 30
0.0
 40
1.000000
 50
90.0
 51
179.999996
  0
LINE
  8
0
  6
BYLAYER
 62
     1
 10
188.319113
 20
-158.372029
 30
0.0
 11
188.319113
 21
-157.122029
 31
0.0
  0
LINE
  8
0
  6
BYLAYER
 62
     1
 10
119.319098
 20
-115.122045
 30
0.0
 11
119.319098
 21
-115.254491
 31
0.0
  0
ARC
  8
0
  6
BYLAYER
 62
     1
 10
120.319098
 20
-115.122045
 30
0.0
 40
1.0
 50
90.0
 51
179.999996
  0
ARC
  8
0
  6
BYLAYER
 62
     1
 10
120.319098
 20
-111.622045
 30
0.0
 40
1.0
 50
180.000000
 51
269.999996
  0
CIRCLE
  8
0
  6
BYLAYER
 62
     1
 10
153.819113
 20
-139.372014
 30
0.0
 40
23.5
  0
LINE
  8
0
  6
BYLAYER
 62
     1
 10
188.319113
 20
-103.387883
 30
0.0
 11
188.319113
 21
-102.372045
 31
0.0
  0
CIRCLE
  8
0
  6
BYLAYER
 62
     1
 10
153.819098
 20
-106.872045
 30
0.0
 40
2.300003
  0
CIRCLE
  8
0
  6
BYLAYER
 62
     1
 10
121.319113
 20
-139.372045
 30
0.0
 40
2.300003
  0
CIRCLE
  8
0
  6
BYLAYER
 62
     1
 10
153.819113
 20
-171.872029
 30
0.0
 40
2.300003
  0
ARC
  8
0
  6
BYLAYER
 62
     1
 10
123.819113
 20
-153.622045
 30
0.0
 40
1.0
 50
180.000000
 51
269.999996
  0
ARC
  8
0
  6
BYLAYER
 62
     1
 10
123.819113
 20
-157.122045
 30
0.0
 40
1.000000
 50
90.0
 51
179.999996
  0
ARC
  8
0
  6
BYLAYER
 62
     1
 10
153.819098
 20
-106.872045
 30
0.0
 40
3.000006
 50
67.576061
 51
374.380645
  0
ARC
  8
0
  6
BYLAYER
 62
     1
 10
121.319128
 20
-139.372045
 30
0.0
 40
3.000006
 50
157.576070
 51
464.380627
  0
ARC
  8
0
  6
BYLAYER
 62
     1
 10
153.819113
 20
-171.872014
 30
0.0
 40
3.0
 50
247.576053
 51
554.380637
  0
LINE
  8
0
  6
BYLAYER
 62
     1
 10
120.319098
 20
-87.872045
 30
0.0
 11
134.819098
 21
-87.872045
 31
0.0
  0
ARC
  8
0
  6
BYLAYER
 62
     1
 10
120.319098
 20
-88.872045
 30
0.0
 40
1.0
 50
90.0
 51
180.000003
  0
LINE
  8
0
  6
BYLAYER
 62
     1
 10
172.819113
 20
-87.872045
 30
0.0
 11
187.319113
 21
-87.872045
 31
0.0
  0
LINE
  8
0
  6
BYLAYER
 62
     1
 10
188.319113
 20
-102.372045
 30
0.0
 11
188.319113
 21
-88.872045
 31
0.0
  0
ARC
  8
0
  6
BYLAYER
 62
     1
 10
187.319113
 20
-88.872045
 30
0.0
 40
1.000000
 50
0.0
 51
90.000003
  0
LINE
  8
0
  6
BYLAYER
 62
     1
 10
119.319113
 20
-158.372045
 30
0.0
 11
119.319113
 21
-172.872045
 31
0.0
  0
ARC
  8
0
  6
BYLAYER
 62
     1
 10
120.319113
 20
-172.872045
 30
0.0
 40
1.0
 50
180.000000
 51
269.999996
  0
LINE
  8
0
  6
BYLAYER
 62
     1
 10
188.319113
 20
-172.872029
 30
0.0
 11
188.319113
 21
-158.372029
 31
0.0
  0
ARC
  8
0
  6
BYLAYER
 62
     1
 10
187.319113
 20
-172.872029
 30
0.0
 40
1.000000
 50
270.0
 51
360.000003
  0
LINE
  8
0
  6
BYLAYER
 62
     1
 10
184.819113
 20
-169.372029
 30
0.0
 11
184.819113
 21
-157.122029
 31
0.0
  0
ARC
  8
0
  6
BYLAYER
 62
     1
 10
183.819113
 20
-169.372029
 30
0.0
 40
1.000000
 50
270.0
 51
360.000003
  0
LINE
  8
0
  6
BYLAYER
 62
     1
 10
122.819113
 20
-169.372045
 30
0.0
 11
122.819113
 21
-157.122045
 31
0.0
  0
ARC
  8
0
  6
BYLAYER
 62
     1
 10
123.819113
 20
-169.372045
 30
0.0
 40
1.000000
 50
180.000000
 51
269.999996
  0
LINE
  8
0
  6
BYLAYER
 62
     1
 10
119.612005
 20
-173.579152
 30
0.0
 11
123.112005
 21
-170.079152
 31
0.0
  0
LINE
  8
0
  6
BYLAYER
 62
     1
 10
188.026221
 20
-173.579137
 30
0.0
 11
184.526221
 21
-170.079137
 31
0.0
  0
LINE
  8
0
  6
BYLAYER
 62
     1
 10
120.319113
 20
-154.622045
 30
0.0
 11
126.069113
 21
-154.622045
 31
0.0
  0
LINE
  8
0
  6
BYLAYER
 62
     1
 10
126.069113
 20
-156.122045
 30
0.0
 11
120.319113
 21
-156.122045
 31
0.0
  0
ARC
  8
0
  6
BYLAYER
 62
     1
 10
126.069113
 20
-155.372045
 30
0.0
 40
0.75
 50
270.0
 51
450.000005
  0
LINE
  8
0
  6
BYLAYER
 62
     1
 10
193.819128
 20
-104.612920
 30
0.0
 11
194.819128
 21
-104.612920
 31
0.0
  0
ARC
  8
0
  6
BYLAYER
 62
     1
 10
193.819128
 20
-103.612920
 30
0.0
 40
1.000000
 50
180.000000
 51
269.999996
  0
LINE
  8
0
  6
BYLAYER
 62
     1
 10
193.819128
 20
-107.192571
 30
0.0
 11
194.819128
 21
-107.192571
 31
0.0
  0
ARC
  8
0
  6
BYLAYER
 62
     1
 10
193.819128
 20
-106.192571
 30
0.0
 40
1.000000
 50
180.000000
 51
269.999996
  0
LINE
  8
0
  6
BYLAYER
 62
     1
 10
193.819128
 20
-111.551457
 30
0.0
 11
194.819128
 21
-111.551457
 31
0.0
  0
ARC
  8
0
  6
BYLAYER
 62
     1
 10
193.819128
 20
-112.551457
 30
0.0
 40
1.0
 50
90.0
 51
180.000009
  0
LINE
  8
0
  6
BYLAYER
 62
     1
 10
194.819128
 20
-114.131108
 30
0.0
 11
192.819128
 21
-114.200963
 31
0.0
  0
ARC
  8
0
  6
BYLAYER
 62
     1
 10
187.319128
 20
-103.612920
 30
0.0
 40
1.000000
 50
270.0
 51
359.999982
  0
LINE
  8
0
  6
BYLAYER
 62
     1
 10
187.319128
 20
-104.612920
 30
0.0
 11
180.819128
 21
-104.612920
 31
0.0
  0
ARC
  8
0
  6
BYLAYER
 62
     1
 10
177.819128
 20
-111.622014
 30
0.0
 40
1.000000
 50
270.0
 51
359.999982
  0
ARC
  8
0
  6
BYLAYER
 62
     1
 10
125.819128
 20
-116.122014
 30
0.0
 40
2.000000
 50
0.0
 51
90.000016
  0
ARC
  8
0
  6
BYLAYER
 62
     1
 10
120.319128
 20
-125.869023
 30
0.0
 40
1.0
 50
90.0
 51
180.000009
  0
LINE
  8
0
  6
BYLAYER
 62
     1
 10
192.819113
 20
-106.192571
 30
0.0
 11
192.819113
 21
-103.372045
 31
0.0
  0
LINE
  8
0
  6
BYLAYER
 62
     1
 10
192.819113
 20
-136.354588
 30
0.0
 11
192.819113
 21
-112.551457
 31
0.0
  0
LINE
  8
0
  6
BYLAYER
 62
     1
 10
188.319113
 20
-103.618444
 30
0.0
 11
188.319113
 21
-125.044042
 31
0.0
  0
LINE
  8
0
  6
BYLAYER
 62
     1
 10
133.819098
 20
-82.372045
 30
0.0
 11
116.819102
 21
-82.372045
 31
0.0
  0
LINE
  8
0
  6
BYLAYER
 62
     1
 10
116.819102
 20
-82.372045
 30
0.0
 11
113.819102
 21
-85.372045
 31
0.0
  0
LINE
  8
0
  6
BYLAYER
 62
     1
 10
193.819113
 20
-102.372045
 30
0.0
 11
193.819113
 21
-85.372045
 31
0.0
  0
LINE
  8
0
  6
BYLAYER
 62
     1
 10
193.819113
 20
-85.372045
 30
0.0
 11
190.819098
 21
-82.372045
 31
0.0
  0
LINE
  8
0
  6
BYLAYER
 62
     1
 10
173.819113
 20
-179.372029
 30
0.0
 11
190.819113
 21
-179.372029
 31
0.0
  0
LINE
  8
0
  6
BYLAYER
 62
     1
 10
190.819113
 20
-179.372029
 30
0.0
 11
193.819113
 21
-176.372029
 31
0.0
  0
LINE
  8
0
  6
BYLAYER
 62
     1
 10
193.819113
 20
-176.372029
 30
0.0
 11
193.819113
 21
-159.372029
 31
0.0
  0
LINE
  8
0
  6
BYLAYER
 62
     1
 10
133.819113
 20
-179.372045
 30
0.0
 11
116.819109
 21
-179.372045
 31
0.0
  0
LINE
  8
0
  6
BYLAYER
 62
     1
 10
116.819109
 20
-179.372045
 30
0.0
 11
113.819109
 21
-176.372045
 31
0.0
  0
LINE
  8
0
  6
BYLAYER
 62
     1
 10
113.819109
 20
-176.372045
 30
0.0
 11
113.819109
 21
-159.372045
 31
0.0
  0
LINE
  8
0
  6
BYLAYER
 62
     1
 10
173.819098
 20
-82.372045
 30
0.0
 11
194.819098
 21
-82.372045
 31
0.0
  0
LINE
  8
0
  6
BYLAYER
 62
     1
 10
113.819102
 20
-128.372045
 30
0.0
 11
113.819102
 21
-83.372045
 31
0.0
  0
LINE
  8
0
  6
BYLAYER
 62
     1
 10
172.819098
 20
-83.372045
 30
0.0
 11
134.819098
 21
-83.372045
 31
0.0
  0
LINE
  8
0
  6
BYLAYER
 62
     1
 10
115.819102
 20
-83.372045
 30
0.0
 11
113.819102
 21
-83.372045
 31
0.0
  0
LINE
  8
0
  6
BYLAYER
 62
     1
 10
193.819113
 20
-88.405339
 30
0.0
 11
194.819098
 21
-88.405339
 31
0.0
  0
LINE
  8
0
  6
BYLAYER
 62
     1
 10
192.819113
 20
-130.338658
 30
0.0
 11
194.819113
 21
-130.338658
 31
0.0
  0
LINE
  8
0
  6
BYLAYER
 62
     1
 10
194.819113
 20
-136.872014
 30
0.0
 11
192.819113
 21
-136.941869
 31
0.0
  0
LINE
  8
0
  6
BYLAYER
 62
     1
 10
194.819113
 20
-136.872014
 30
0.0
 11
194.819098
 21
-82.372045
 31
0.0
  0
LINE
  8
0
  6
BYLAYER
 62
     1
 10
113.819102
 20
-128.372045
 30
0.0
 11
114.819102
 21
-128.406957
 31
0.0
  0
LINE
  8
0
  6
BYLAYER
 62
     1
 10
172.819113
 20
-87.872045
 30
0.0
 11
171.819098
 21
-88.872045
 31
0.0
  0
LINE
  8
0
  6
BYLAYER
 62
     1
 10
135.819113
 20
-88.872045
 30
0.0
 11
171.819098
 21
-88.872045
 31
0.0
  0
LINE
  8
0
  6
BYLAYER
 62
     1
 10
134.819098
 20
-87.872045
 30
0.0
 11
135.819113
 21
-88.872045
 31
0.0
  0
ARC
  8
0
  6
BYLAYER
 62
     1
 10
189.153998
 20
-142.791875
 30
0.0
 40
1.999996
 50
284.999998
 51
354.471300
  0
ARC
  8
0
  6
BYLAYER
 62
     1
 10
153.819113
 20
-139.372014
 30
0.0
 40
37.499989
 50
354.471846
 51
365.528143
  0
ARC
  8
0
  6
BYLAYER
 62
     1
 10
189.153998
 20
-135.952123
 30
0.0
 40
1.999993
 50
5.527821
 51
74.999765
  0
ARC
  8
0
  6
BYLAYER
 62
     1
 10
153.819113
 20
-139.372014
 30
0.0
 40
37.499973
 50
84.471852
 51
95.528146
  0
ARC
  8
0
  6
BYLAYER
 62
     1
 10
153.819113
 20
-139.372014
 30
0.0
 40
37.499992
 50
174.471868
 51
185.528142
  0
ARC
  8
0
  6
BYLAYER
 62
     1
 10
153.819113
 20
-139.372014
 30
0.0
 40
37.499989
 50
264.471837
 51
275.528137
  0
ARC
  8
0
  6
BYLAYER
 62
     1
 10
150.399222
 20
-104.037114
 30
0.0
 40
1.999963
 50
95.527825
 51
164.999776
  0
ARC
  8
0
  6
BYLAYER
 62
     1
 10
118.484228
 20
-142.791905
 30
0.0
 40
1.999997
 50
185.527827
 51
254.999758
  0
ARC
  8
0
  6
BYLAYER
 62
     1
 10
157.239004
 20
-174.706899
 30
0.0
 40
1.999993
 50
275.527809
 51
344.999767
  0
LINE
  8
0
  6
BYLAYER
 62
     1
 10
148.467398
 20
-103.519475
 30
0.0
 11
146.061362
 21
-112.498784
 31
0.0
  0
LINE
  8
0
  6
BYLAYER
 62
     1
 10
117.966589
 20
-144.723729
 30
0.0
 11
126.945898
 21
-147.129765
 31
0.0
  0
LINE
  8
0
  6
BYLAYER
 62
     1
 10
159.170828
 20
-175.224538
 30
0.0
 11
161.576864
 21
-166.245229
 31
0.0
  0
ARC
  8
0
  6
BYLAYER
 62
     1
 10
126.687079
 20
-148.095677
 30
0.0
 40
0.999994
 50
17.823935
 51
74.999773
  0
ARC
  8
0
  6
BYLAYER
 62
     1
 10
162.542776
 20
-166.504048
 30
0.0
 40
0.999994
 50
107.823914
 51
164.999762
  0
ARC
  8
0
  6
BYLAYER
 62
     1
 10
115.650057
 20
-148.303075
 30
0.0
 40
12.000010
 50
2.452622
 51
13.169571
  0
ARC
  8
0
  6
BYLAYER
 62
     1
 10
162.750174
 20
-177.541066
 30
0.0
 40
12.000007
 50
92.452600
 51
103.169550
  0
ARC
  8
0
  6
BYLAYER
 62
     1
 10
153.819113
 20
-139.372014
 30
0.0
 40
27.200003
 50
76.830483
 51
103.169516
  0
ARC
  8
0
  6
BYLAYER
 62
     1
 10
153.819113
 20
-139.372014
 30
0.0
 40
27.200003
 50
166.830471
 51
193.169511
  0
ARC
  8
0
  6
BYLAYER
 62
     1
 10
153.819113
 20
-139.372014
 30
0.0
 40
27.200003
 50
256.830440
 51
283.169507
  0
ARC
  8
0
  6
BYLAYER
 62
     1
 10
115.650057
 20
-130.440953
 30
0.0
 40
12.000010
 50
346.830422
 51
357.547398
  0
ARC
  8
0
  6
BYLAYER
 62
     1
 10
144.888052
 20
-177.541066
 30
0.0
 40
12.000007
 50
76.830428
 51
87.547377
  0
ARC
  8
0
  6
BYLAYER
 62
     1
 10
126.687079
 20
-130.648351
 30
0.0
 40
0.999994
 50
285.000244
 51
342.176058
  0
ARC
  8
0
  6
BYLAYER
 62
     1
 10
145.095450
 20
-166.504048
 30
0.0
 40
0.999994
 50
15.000226
 51
72.176064
  0
LINE
  8
0
  6
BYLAYER
 62
     1
 10
161.576864
 20
-112.498784
 30
0.0
 11
159.170828
 21
-103.519475
 31
0.0
  0
LINE
  8
0
  6
BYLAYER
 62
     1
 10
126.945898
 20
-131.614263
 30
0.0
 11
117.966589
 21
-134.020299
 31
0.0
  0
LINE
  8
0
  6
BYLAYER
 62
     1
 10
146.061362
 20
-166.245229
 30
0.0
 11
148.467398
 21
-175.224538
 31
0.0
  0
ARC
  8
0
  6
BYLAYER
 62
     1
 10
157.238974
 20
-104.037114
 30
0.0
 40
1.999966
 50
15.000011
 51
84.471306
  0
ARC
  8
0
  6
BYLAYER
 62
     1
 10
118.484228
 20
-135.952153
 30
0.0
 40
2.0
 50
104.999986
 51
174.471322
  0
ARC
  8
0
  6
BYLAYER
 62
     1
 10
150.399252
 20
-174.706899
 30
0.0
 40
1.999996
 50
194.999975
 51
264.471290
  0
ARC
  8
0
  6
BYLAYER
 62
     1
 10
153.819113
 20
-139.372014
 30
0.0
 40
27.499998
 50
17.823966
 51
72.176009
  0
ARC
  8
0
  6
BYLAYER
 62
     1
 10
153.819113
 20
-139.372014
 30
0.0
 40
27.499989
 50
107.823989
 51
162.176025
  0
ARC
  8
0
  6
BYLAYER
 62
     1
 10
153.819113
 20
-139.372014
 30
0.0
 40
27.499979
 50
287.823953
 51
342.176030
  0
ARC
  8
0
  6
BYLAYER
 62
     1
 10
153.819113
 20
-139.372014
 30
0.0
 40
27.499985
 50
197.823971
 51
252.176048
  0
LINE
  8
0
  6
BYLAYER
 62
     1
 10
120.319128
 20
-124.869023
 30
0.0
 11
125.819128
 21
-124.869023
 31
0.0
  0
LINE
  8
0
  6
BYLAYER
 62
     1
 10
127.819128
 20
-122.869023
 30
0.0
 11
127.819128
 21
-116.122014
 31
0.0
  0
ARC
  8
0
  6
BYLAYER
 62
     1
 10
125.819128
 20
-122.869023
 30
0.0
 40
2.000000
 50
270.0
 51
360.000003
  0
LINE
  8
0
  6
BYLAYER
 62
     1
 10
119.319098
 20
-132.354649
 30
0.0
 11
119.319098
 21
-126.608129
 31
0.0
  0
ARC
  8
0
  6
BYLAYER
 62
     1
 10
120.319098
 20
-132.354649
 30
0.0
 40
1.0
 50
180.000000
 51
285.000211
  0
LINE
  8
0
  6
BYLAYER
 62
     1
 10
119.319113
 20
-153.622045
 30
0.0
 11
119.319113
 21
-146.389379
 31
0.0
  0
ARC
  8
0
  6
BYLAYER
 62
     1
 10
120.319113
 20
-146.389379
 30
0.0
 40
1.000016
 50
74.999794
 51
180.000005
  0
LINE
  8
0
  6
BYLAYER
 62
     1
 10
122.819113
 20
-146.068150
 30
0.0
 11
122.819113
 21
-153.622045
 31
0.0
  0
LINE
  8
0
  6
BYLAYER
 62
     1
 10
122.819159
 20
-132.675847
 30
0.0
 11
122.819159
 21
-124.869023
 31
0.0
  0
LINE
  8
0
  6
BYLAYER
 62
     1
 10
147.122961
 20
-170.372029
 30
0.0
 11
123.819113
 21
-170.372106
 31
0.0
  0
ARC
  8
0
  6
BYLAYER
 62
     1
 10
146.801748
 20
-172.872029
 30
0.0
 40
1.0
 50
270.0
 51
375.000013
  0
LINE
  8
0
  6
BYLAYER
 62
     1
 10
183.819113
 20
-170.372029
 30
0.0
 11
160.515249
 21
-170.372029
 31
0.0
  0
LINE
  8
0
  6
BYLAYER
 62
     1
 10
187.319113
 20
-173.872029
 30
0.0
 11
160.836462
 21
-173.872029
 31
0.0
  0
ARC
  8
0
  6
BYLAYER
 62
     1
 10
160.836462
 20
-172.872029
 30
0.0
 40
1.000001
 50
164.999994
 51
270.000001
  0
LINE
  8
0
  6
BYLAYER
 62
     1
 10
120.319113
 20
-173.872090
 30
0.0
 11
146.801748
 21
-173.872029
 31
0.0
  0
LINE
  8
0
  6
BYLAYER
 62
     1
 10
120.319098
 20
-112.622045
 30
0.0
 11
136.069121
 21
-112.622045
 31
0.0
  0
LINE
  8
0
  6
BYLAYER
 62
     1
 10
120.319098
 20
-114.122045
 30
0.0
 11
136.069121
 21
-114.122045
 31
0.0
  0
ARC
  8
0
  6
BYLAYER
 62
     1
 10
120.319098
 20
-103.622045
 30
0.0
 40
1.0
 50
180.000000
 51
269.999996
  0
LINE
  8
0
  6
BYLAYER
 62
     1
 10
143.569098
 20
-104.622045
 30
0.0
 11
120.319098
 21
-104.622045
 31
0.0
  0
ARC
  8
0
  6
BYLAYER
 62
     1
 10
143.569098
 20
-105.372045
 30
0.0
 40
0.750000
 50
0.0
 51
90.000003
  0
ARC
  8
0
  6
BYLAYER
 62
     1
 10
143.569098
 20
-105.409886
 30
0.0
 40
0.750001
 50
270.0
 51
360.000003
  0
LINE
  8
0
  6
BYLAYER
 62
     1
 10
144.319098
 20
-105.372045
 30
0.0
 11
144.319098
 21
-105.409886
 31
0.0
  0
LINE
  8
0
  6
BYLAYER
 62
     1
 10
143.569098
 20
-106.159886
 30
0.0
 11
120.319098
 21
-106.159886
 31
0.0
  0
ARC
  8
0
  6
BYLAYER
 62
     1
 10
120.319098
 20
-107.159886
 30
0.0
 40
1.0
 50
90.0
 51
179.999996
  0
ARC
  8
0
  6
BYLAYER
 62
     1
 10
164.069128
 20
-105.372045
 30
0.0
 40
0.750000
 50
90.0
 51
180.000003
  0
ARC
  8
0
  6
BYLAYER
 62
     1
 10
164.069128
 20
-105.409886
 30
0.0
 40
0.750001
 50
180.000000
 51
269.999996
  0
LINE
  8
0
  6
BYLAYER
 62
     1
 10
119.319098
 20
-111.622045
 30
0.0
 11
119.319098
 21
-107.159886
 31
0.0
  0
LINE
  8
0
  6
BYLAYER
 62
     1
 10
119.319098
 20
-88.872045
 30
0.0
 11
119.319098
 21
-103.622045
 31
0.0
  0
LINE
  8
0
  6
BYLAYER
 62
     1
 10
180.628302
 20
-104.622045
 30
0.0
 11
164.069128
 21
-104.622045
 31
0.0
  0
LINE
  8
0
  6
BYLAYER
 62
     1
 10
164.069128
 20
-106.159886
 30
0.0
 11
177.819128
 21
-106.159886
 31
0.0
  0
ARC
  8
0
  6
BYLAYER
 62
     1
 10
177.819128
 20
-107.159886
 30
0.0
 40
1.000000
 50
0.0
 51
90.000003
  0
LINE
  8
0
  6
BYLAYER
 62
     1
 10
193.819113
 20
-159.372029
 30
0.0
 11
192.819113
 21
-158.372029
 31
0.0
  0
LINE
  8
0
  6
BYLAYER
 62
     1
 10
178.819128
 20
-111.622014
 30
0.0
 11
178.819128
 21
-107.159886
 31
0.0
  0
ARC
  8
0
  6
BYLAYER
 62
     1
 10
147.552975
 20
-97.060346
 30
0.0
 40
1.149491
 50
270.0
 51
308.795511
  0
ARC
  8
0
  6
BYLAYER
 62
     1
 10
147.441734
 20
-96.941874
 30
0.0
 40
1.311583
 50
309.340351
 51
360.000000
  0
ARC
  8
0
  6
BYLAYER
 62
     1
 10
147.441734
 20
-96.941874
 30
0.0
 40
1.311583
 50
0.0
 51
50.659649
  0
ARC
  8
0
  6
BYLAYER
 62
     1
 10
147.552975
 20
-96.823402
 30
0.0
 40
1.149491
 50
51.204489
 51
90.000000
  0
ARC
  8
0
  6
BYLAYER
 62
     1
 10
147.552975
 20
-96.823392
 30
0.0
 40
1.149480
 50
90.0
 51
128.795693
  0
ARC
  8
0
  6
BYLAYER
 62
     1
 10
147.664226
 20
-96.941874
 30
0.0
 40
1.311587
 50
129.340576
 51
180.0
  0
ARC
  8
0
  6
BYLAYER
 62
     1
 10
147.664226
 20
-96.941874
 30
0.0
 40
1.311587
 50
180.000000
 51
230.659424
  0
ARC
  8
0
  6
BYLAYER
 62
     1
 10
147.552975
 20
-97.060356
 30
0.0
 40
1.149480
 50
231.204307
 51
270.000000
  0
ARC
  8
0
  6
BYLAYER
 62
     1
 10
147.552975
 20
-96.604614
 30
0.0
 40
0.531899
 50
90.0
 51
140.793201
  0
ARC
  8
0
  6
BYLAYER
 62
     1
 10
147.966397
 20
-96.941874
 30
0.0
 40
1.065436
 50
140.793201
 51
180.000000
  0
ARC
  8
0
  6
BYLAYER
 62
     1
 10
147.966390
 20
-96.941874
 30
0.0
 40
1.065430
 50
180.000000
 51
219.206869
  0
ARC
  8
0
  6
BYLAYER
 62
     1
 10
147.552975
 20
-97.279130
 30
0.0
 40
0.531900
 50
219.206869
 51
270.000000
  0
ARC
  8
0
  6
BYLAYER
 62
     1
 10
147.552975
 20
-97.279130
 30
0.0
 40
0.531900
 50
270.0
 51
320.793131
  0
ARC
  8
0
  6
BYLAYER
 62
     1
 10
147.139559
 20
-96.941874
 30
0.0
 40
1.065430
 50
320.793131
 51
360.0
  0
ARC
  8
0
  6
BYLAYER
 62
     1
 10
147.139553
 20
-96.941874
 30
0.0
 40
1.065436
 50
0.0
 51
39.206799
  0
ARC
  8
0
  6
BYLAYER
 62
     1
 10
147.552975
 20
-96.604614
 30
0.0
 40
0.531899
 50
39.206799
 51
90.000000
  0
LINE
  8
0
  6
BYLAYER
 62
     1
 10
143.613839
 20
-98.125303
 30
0.0
 11
143.613839
 21
-95.724626
 31
0.0
  0
LINE
  8
0
  6
BYLAYER
 62
     1
 10
143.613839
 20
-95.724626
 30
0.0
 11
144.589889
 21
-95.724626
 31
0.0
  0
LINE
  8
0
  6
BYLAYER
 62
     1
 10
144.589889
 20
-95.724626
 30
0.0
 11
144.915615
 21
-96.975688
 31
0.0
  0
LINE
  8
0
  6
BYLAYER
 62
     1
 10
143.613839
 20
-98.125303
 30
0.0
 11
144.199923
 21
-98.125303
 31
0.0
  0
LINE
  8
0
  6
BYLAYER
 62
     1
 10
144.199923
 20
-98.125303
 30
0.0
 11
144.199923
 21
-96.738999
 31
0.0
  0
LINE
  8
0
  6
BYLAYER
 62
     1
 10
144.662020
 20
-98.125303
 30
0.0
 11
144.199923
 21
-96.738999
 31
0.0
  0
LINE
  8
0
  6
BYLAYER
 62
     1
 10
146.217391
 20
-98.125303
 30
0.0
 11
146.217391
 21
-95.724626
 31
0.0
  0
LINE
  8
0
  6
BYLAYER
 62
     1
 10
146.217391
 20
-95.724626
 30
0.0
 11
145.241342
 21
-95.724626
 31
0.0
  0
LINE
  8
0
  6
BYLAYER
 62
     1
 10
145.241342
 20
-95.724626
 30
0.0
 11
144.915615
 21
-96.975688
 31
0.0
  0
LINE
  8
0
  6
BYLAYER
 62
     1
 10
146.217391
 20
-98.125303
 30
0.0
 11
145.631307
 21
-98.125303
 31
0.0
  0
LINE
  8
0
  6
BYLAYER
 62
     1
 10
145.631307
 20
-98.125303
 30
0.0
 11
145.631307
 21
-96.738999
 31
0.0
  0
LINE
  8
0
  6
BYLAYER
 62
     1
 10
145.169210
 20
-98.125303
 30
0.0
 11
145.631307
 21
-96.738999
 31
0.0
  0
LINE
  8
0
  6
BYLAYER
 62
     1
 10
145.169210
 20
-98.125303
 30
0.0
 11
144.662020
 21
-98.125303
 31
0.0
  0
LINE
  8
0
  6
BYLAYER
 62
     1
 10
154.805727
 20
-98.125303
 30
0.0
 11
155.718655
 21
-95.724626
 31
0.0
  0
LINE
  8
0
  6
BYLAYER
 62
     1
 10
154.805727
 20
-98.125303
 30
0.0
 11
155.583413
 21
-98.125303
 31
0.0
  0
LINE
  8
0
  6
BYLAYER
 62
     1
 10
155.718655
 20
-95.724626
 30
0.0
 11
156.462527
 21
-95.724626
 31
0.0
  0
LINE
  8
0
  6
BYLAYER
 62
     1
 10
155.583413
 20
-98.125303
 30
0.0
 11
155.698684
 21
-97.787180
 31
0.0
  0
LINE
  8
0
  6
BYLAYER
 62
     1
 10
155.883108
 20
-97.246183
 30
0.0
 11
156.090591
 21
-96.637559
 31
0.0
  0
LINE
  8
0
  6
BYLAYER
 62
     1
 10
157.375466
 20
-98.125303
 30
0.0
 11
156.462527
 21
-95.724626
 31
0.0
  0
LINE
  8
0
  6
BYLAYER
 62
     1
 10
157.375466
 20
-98.125303
 30
0.0
 11
156.597781
 21
-98.125303
 31
0.0
  0
LINE
  8
0
  6
BYLAYER
 62
     1
 10
156.482510
 20
-97.787180
 30
0.0
 11
155.698684
 21
-97.787180
 31
0.0
  0
LINE
  8
0
  6
BYLAYER
 62
     1
 10
156.298074
 20
-97.246183
 30
0.0
 11
155.883108
 21
-97.246183
 31
0.0
  0
LINE
  8
0
  6
BYLAYER
 62
     1
 10
156.597781
 20
-98.125303
 30
0.0
 11
156.482510
 21
-97.787180
 31
0.0
  0
LINE
  8
0
  6
BYLAYER
 62
     1
 10
156.298074
 20
-97.246183
 30
0.0
 11
156.090591
 21
-96.637559
 31
0.0
  0
LINE
  8
0
  6
BYLAYER
 62
     1
 10
148.753317
 20
-96.316343
 30
0.0
 11
149.429562
 21
-96.316343
 31
0.0
  0
LINE
  8
0
  6
BYLAYER
 62
     1
 10
149.429562
 20
-96.316343
 30
0.0
 11
149.429562
 21
-98.125303
 31
0.0
  0
LINE
  8
0
  6
BYLAYER
 62
     1
 10
149.429562
 20
-98.125303
 30
0.0
 11
150.173440
 21
-98.125303
 31
0.0
  0
LINE
  8
0
  6
BYLAYER
 62
     1
 10
150.173440
 20
-98.125303
 30
0.0
 11
150.173440
 21
-96.316343
 31
0.0
  0
LINE
  8
0
  6
BYLAYER
 62
     1
 10
150.173440
 20
-96.316343
 30
0.0
 11
150.849685
 21
-96.316343
 31
0.0
  0
LINE
  8
0
  6
BYLAYER
 62
     1
 10
150.849685
 20
-96.316343
 30
0.0
 11
150.849685
 21
-95.724626
 31
0.0
  0
LINE
  8
0
  6
BYLAYER
 62
     1
 10
150.849685
 20
-95.724626
 30
0.0
 11
148.753317
 21
-95.724626
 31
0.0
  0
LINE
  8
0
  6
BYLAYER
 62
     1
 10
148.753317
 20
-95.724626
 30
0.0
 11
148.753317
 21
-96.316343
 31
0.0
  0
ARC
  8
0
  6
BYLAYER
 62
     1
 10
152.050021
 20
-97.060356
 30
0.0
 40
1.149480
 50
270.0
 51
308.795693
  0
ARC
  8
0
  6
BYLAYER
 62
     1
 10
151.938769
 20
-96.941874
 30
0.0
 40
1.311587
 50
309.340576
 51
360.0
  0
ARC
  8
0
  6
BYLAYER
 62
     1
 10
151.938774
 20
-96.941874
 30
0.0
 40
1.311583
 50
0.0
 51
50.659649
  0
ARC
  8
0
  6
BYLAYER
 62
     1
 10
152.050015
 20
-96.823402
 30
0.0
 40
1.149491
 50
51.204489
 51
90.000000
  0
ARC
  8
0
  6
BYLAYER
 62
     1
 10
152.050015
 20
-96.823392
 30
0.0
 40
1.149480
 50
90.0
 51
128.795693
  0
ARC
  8
0
  6
BYLAYER
 62
     1
 10
152.161266
 20
-96.941874
 30
0.0
 40
1.311587
 50
129.340576
 51
180.0
  0
ARC
  8
0
  6
BYLAYER
 62
     1
 10
152.161261
 20
-96.941874
 30
0.0
 40
1.311583
 50
180.000000
 51
230.659649
  0
ARC
  8
0
  6
BYLAYER
 62
     1
 10
152.050021
 20
-97.060346
 30
0.0
 40
1.149491
 50
231.204489
 51
270.000000
  0
ARC
  8
0
  6
BYLAYER
 62
     1
 10
152.050015
 20
-96.604614
 30
0.0
 40
0.531899
 50
90.0
 51
140.793201
  0
ARC
  8
0
  6
BYLAYER
 62
     1
 10
152.463436
 20
-96.941874
 30
0.0
 40
1.065436
 50
140.793201
 51
180.000000
  0
ARC
  8
0
  6
BYLAYER
 62
     1
 10
152.463423
 20
-96.941874
 30
0.0
 40
1.065422
 50
180.000000
 51
219.207055
  0
ARC
  8
0
  6
BYLAYER
 62
     1
 10
152.050021
 20
-97.279121
 30
0.0
 40
0.531908
 50
219.207055
 51
270.000000
  0
ARC
  8
0
  6
BYLAYER
 62
     1
 10
152.050021
 20
-97.279130
 30
0.0
 40
0.531900
 50
270.0
 51
320.793131
  0
ARC
  8
0
  6
BYLAYER
 62
     1
 10
151.636605
 20
-96.941874
 30
0.0
 40
1.065430
 50
320.793131
 51
360.0
  0
ARC
  8
0
  6
BYLAYER
 62
     1
 10
151.636606
 20
-96.941874
 30
0.0
 40
1.065429
 50
0.0
 51
39.206985
  0
ARC
  8
0
  6
BYLAYER
 62
     1
 10
152.050015
 20
-96.604622
 30
0.0
 40
0.531907
 50
39.206985
 51
90.000000
  0
LINE
  8
0
  6
BYLAYER
 62
     1
 10
157.440261
 20
-98.125303
 30
0.0
 11
157.440261
 21
-95.724626
 31
0.0
  0
LINE
  8
0
  6
BYLAYER
 62
     1
 10
157.440261
 20
-95.724626
 30
0.0
 11
158.927999
 21
-95.724626
 31
0.0
  0
ARC
  8
0
  6
BYLAYER
 62
     1
 10
158.927999
 20
-96.400877
 30
0.0
 40
0.676244
 50
287.134650
 51
450.000006
  0
ARC
  8
0
  6
BYLAYER
 62
     1
 10
159.063253
 20
-97.584306
 30
0.0
 40
0.540997
 50
0.0
 51
83.207557
  0
LINE
  8
0
  6
BYLAYER
 62
     1
 10
159.604250
 20
-97.584306
 30
0.0
 11
159.604250
 21
-97.922428
 31
0.0
  0
ARC
  8
0
  6
BYLAYER
 62
     1
 10
160.145247
 20
-97.922428
 30
0.0
 40
0.540997
 50
180.000000
 51
202.024314
  0
LINE
  8
0
  6
BYLAYER
 62
     1
 10
158.899856
 20
-98.125303
 30
0.0
 11
159.643728
 21
-98.125303
 31
0.0
  0
ARC
  8
0
  6
BYLAYER
 62
     1
 10
159.401375
 20
-97.922428
 30
0.0
 40
0.540997
 50
180.000000
 51
202.024314
  0
LINE
  8
0
  6
BYLAYER
 62
     1
 10
158.860378
 20
-97.922428
 30
0.0
 11
158.860378
 21
-97.651933
 31
0.0
  0
LINE
  8
0
  6
BYLAYER
 62
     1
 10
157.440261
 20
-98.125303
 30
0.0
 11
158.150320
 21
-98.125303
 31
0.0
  0
LINE
  8
0
  6
BYLAYER
 62
     1
 10
158.150320
 20
-98.125303
 30
0.0
 11
158.150320
 21
-97.313810
 31
0.0
  0
LINE
  8
0
  6
BYLAYER
 62
     1
 10
158.522256
 20
-97.313810
 30
0.0
 11
158.150320
 21
-97.313810
 31
0.0
  0
ARC
  8
0
  6
BYLAYER
 62
     1
 10
158.522256
 20
-97.651933
 30
0.0
 40
0.338123
 50
0.0
 51
90.000003
  0
LINE
  8
0
  6
BYLAYER
 62
     1
 10
158.150320
 20
-96.772813
 30
0.0
 11
158.150320
 21
-96.265623
 31
0.0
  0
LINE
  8
0
  6
BYLAYER
 62
     1
 10
158.150320
 20
-96.265623
 30
0.0
 11
158.623690
 21
-96.265623
 31
0.0
  0
LINE
  8
0
  6
BYLAYER
 62
     1
 10
158.150320
 20
-96.772813
 30
0.0
 11
158.623690
 21
-96.772813
 31
0.0
  0
ARC
  8
0
  6
BYLAYER
 62
     1
 10
158.623690
 20
-96.519218
 30
0.0
 40
0.253595
 50
270.0
 51
450.000005
  0
LINE
  8
0
  6
BYLAYER
 62
     1
 10
154.214016
 20
-97.366184
 30
0.0
 11
153.774453
 21
-95.724626
 31
0.0
  0
LINE
  8
0
  6
BYLAYER
 62
     1
 10
153.774453
 20
-95.724626
 30
0.0
 11
153.064394
 21
-95.724626
 31
0.0
  0
LINE
  8
0
  6
BYLAYER
 62
     1
 10
153.064394
 20
-95.724626
 30
0.0
 11
153.808266
 21
-98.125303
 31
0.0
  0
LINE
  8
0
  6
BYLAYER
 62
     1
 10
154.214016
 20
-97.366184
 30
0.0
 11
154.653567
 21
-95.724626
 31
0.0
  0
LINE
  8
0
  6
BYLAYER
 62
     1
 10
154.653567
 20
-95.724626
 30
0.0
 11
155.363625
 21
-95.724626
 31
0.0
  0
LINE
  8
0
  6
BYLAYER
 62
     1
 10
155.363625
 20
-95.724626
 30
0.0
 11
154.619753
 21
-98.125303
 31
0.0
  0
LINE
  8
0
  6
BYLAYER
 62
     1
 10
154.619753
 20
-98.125303
 30
0.0
 11
153.808266
 21
-98.125303
 31
0.0
  0
LINE
  8
0
  6
BYLAYER
 62
     1
 10
159.708523
 20
-98.125303
 30
0.0
 11
160.418581
 21
-98.125303
 31
0.0
  0
LINE
  8
0
  6
BYLAYER
 62
     1
 10
160.418581
 20
-98.125303
 30
0.0
 11
160.418581
 21
-95.724626
 31
0.0
  0
LINE
  8
0
  6
BYLAYER
 62
     1
 10
160.418581
 20
-95.724626
 30
0.0
 11
159.708523
 21
-95.724626
 31
0.0
  0
LINE
  8
0
  6
BYLAYER
 62
     1
 10
159.708523
 20
-95.724626
 30
0.0
 11
159.708523
 21
-98.125303
 31
0.0
  0
ARC
  8
0
  6
BYLAYER
 62
     1
 10
161.754171
 20
-97.060356
 30
0.0
 40
1.149480
 50
270.0
 51
308.795693
  0
ARC
  8
0
  6
BYLAYER
 62
     1
 10
161.642920
 20
-96.941874
 30
0.0
 40
1.311587
 50
309.340576
 51
360.0
  0
ARC
  8
0
  6
BYLAYER
 62
     1
 10
161.642920
 20
-96.941874
 30
0.0
 40
1.311587
 50
0.0
 51
50.659424
  0
ARC
  8
0
  6
BYLAYER
 62
     1
 10
161.754171
 20
-96.823392
 30
0.0
 40
1.149480
 50
51.204307
 51
90.000000
  0
ARC
  8
0
  6
BYLAYER
 62
     1
 10
161.754171
 20
-96.823392
 30
0.0
 40
1.149480
 50
90.0
 51
128.795693
  0
ARC
  8
0
  6
BYLAYER
 62
     1
 10
161.865422
 20
-96.941874
 30
0.0
 40
1.311587
 50
129.340576
 51
180.0
  0
ARC
  8
0
  6
BYLAYER
 62
     1
 10
161.865422
 20
-96.941874
 30
0.0
 40
1.311587
 50
180.000000
 51
230.659424
  0
ARC
  8
0
  6
BYLAYER
 62
     1
 10
161.754171
 20
-97.060356
 30
0.0
 40
1.149480
 50
231.204307
 51
270.000000
  0
ARC
  8
0
  6
BYLAYER
 62
     1
 10
161.754171
 20
-96.604614
 30
0.0
 40
0.531899
 50
39.206799
 51
90.000000
  0
ARC
  8
0
  6
BYLAYER
 62
     1
 10
161.340749
 20
-96.941874
 30
0.0
 40
1.065436
 50
0.0
 51
39.206799
  0
ARC
  8
0
  6
BYLAYER
 62
     1
 10
161.340755
 20
-96.941874
 30
0.0
 40
1.065430
 50
320.793131
 51
360.000000
  0
ARC
  8
0
  6
BYLAYER
 62
     1
 10
161.754171
 20
-97.279130
 30
0.0
 40
0.531900
 50
270.0
 51
320.793131
  0
ARC
  8
0
  6
BYLAYER
 62
     1
 10
161.754171
 20
-97.279130
 30
0.0
 40
0.531900
 50
219.206869
 51
270.0
  0
ARC
  8
0
  6
BYLAYER
 62
     1
 10
162.167586
 20
-96.941874
 30
0.0
 40
1.065430
 50
180.000000
 51
219.206869
  0
ARC
  8
0
  6
BYLAYER
 62
     1
 10
162.167593
 20
-96.941874
 30
0.0
 40
1.065436
 50
140.793201
 51
180.000000
  0
ARC
  8
0
  6
BYLAYER
 62
     1
 10
161.754171
 20
-96.604614
 30
0.0
 40
0.531899
 50
90.0
 51
140.793201
  0
ARC
  8
0
  6
BYLAYER
 62
     1
 10
149.765426
 20
-92.976335
 30
0.0
 40
2.971998
 50
174.535650
 51
180.000000
  0
LINE
  8
0
  6
BYLAYER
 62
     1
 10
146.806933
 20
-92.693321
 30
0.0
 11
146.806933
 21
-92.693318
 31
0.0
  0
LINE
  8
0
  6
BYLAYER
 62
     1
 10
146.810167
 20
-92.661348
 30
0.0
 11
147.093808
 21
-92.541931
 31
0.0
  0
ARC
  8
0
  6
BYLAYER
 62
     1
 10
149.765438
 20
-92.976359
 30
0.0
 40
2.706712
 50
159.235383
 51
170.763998
  0
LINE
  8
0
  6
BYLAYER
 62
     1
 10
147.234528
 20
-92.016733
 30
0.0
 11
147.048609
 21
-91.771488
 31
0.0
  0
ARC
  8
0
  6
BYLAYER
 62
     1
 10
149.765426
 20
-92.976335
 30
0.0
 40
2.971995
 50
144.139514
 51
156.083795
  0
LINE
  8
0
  6
BYLAYER
 62
     1
 10
147.337240
 20
-91.262657
 30
0.0
 11
147.337417
 21
-91.262406
 31
0.0
  0
LINE
  8
0
  6
BYLAYER
 62
     1
 10
147.356785
 20
-91.235300
 30
0.0
 11
147.658755
 21
-91.276846
 31
0.0
  0
ARC
  8
0
  6
BYLAYER
 62
     1
 10
149.765426
 20
-92.976335
 30
0.0
 40
2.706696
 50
129.235643
 51
141.105976
  0
LINE
  8
0
  6
BYLAYER
 62
     1
 10
148.009152
 20
-90.916792
 30
0.0
 11
148.009445
 21
-90.916538
 31
0.0
  0
LINE
  8
0
  6
BYLAYER
 62
     1
 10
148.053410
 20
-90.879860
 30
0.0
 11
148.015013
 21
-90.574497
 31
0.0
  0
ARC
  8
0
  6
BYLAYER
 62
     1
 10
149.765426
 20
-92.976335
 30
0.0
 40
2.971998
 50
114.139607
 51
126.083853
  0
LINE
  8
0
  6
BYLAYER
 62
     1
 10
148.519607
 20
-90.278056
 30
0.0
 11
148.519808
 21
-90.277961
 31
0.0
  0
LINE
  8
0
  6
BYLAYER
 62
     1
 10
148.549994
 20
-90.264233
 30
0.0
 11
148.790725
 21
-90.451191
 31
0.0
  0
LINE
  8
0
  6
BYLAYER
 62
     1
 10
148.845767
 20
-90.430662
 30
0.0
 11
148.846072
 21
-90.430555
 31
0.0
  0
ARC
  8
0
  6
BYLAYER
 62
     1
 10
149.765426
 20
-92.976335
 30
0.0
 40
2.706695
 50
99.235601
 51
111.106038
  0
ARC
  8
0
  6
BYLAYER
 62
     1
 10
149.765426
 20
-92.976335
 30
0.0
 40
2.971998
 50
90.0
 51
96.083892
  0
LINE
  8
0
  6
BYLAYER
 62
     1
 10
149.450440
 20
-90.021076
 30
0.0
 11
149.331016
 21
-90.304727
 31
0.0
  0
LINE
  8
0
  6
BYLAYER
 62
     1
 10
152.723916
 20
-92.693321
 30
0.0
 11
152.723916
 21
-92.693318
 31
0.0
  0
LINE
  8
0
  6
BYLAYER
 62
     1
 10
152.720685
 20
-92.661348
 30
0.0
 11
152.437029
 21
-92.541929
 31
0.0
  0
ARC
  8
0
  6
BYLAYER
 62
     1
 10
149.765408
 20
-92.976359
 30
0.0
 40
2.706712
 50
9.235986
 51
20.764650
  0
LINE
  8
0
  6
BYLAYER
 62
     1
 10
152.296337
 20
-92.016705
 30
0.0
 11
152.482243
 21
-91.771488
 31
0.0
  0
ARC
  8
0
  6
BYLAYER
 62
     1
 10
149.765426
 20
-92.976335
 30
0.0
 40
2.971995
 50
23.916189
 51
35.860484
  0
LINE
  8
0
  6
BYLAYER
 62
     1
 10
152.193606
 20
-91.262657
 30
0.0
 11
152.193429
 21
-91.262406
 31
0.0
  0
LINE
  8
0
  6
BYLAYER
 62
     1
 10
152.174067
 20
-91.235300
 30
0.0
 11
151.872118
 21
-91.276842
 31
0.0
  0
ARC
  8
0
  6
BYLAYER
 62
     1
 10
149.765426
 20
-92.976335
 30
0.0
 40
2.706696
 50
38.894050
 51
50.764315
  0
LINE
  8
0
  6
BYLAYER
 62
     1
 10
151.521700
 20
-90.916792
 30
0.0
 11
151.521407
 21
-90.916538
 31
0.0
  0
LINE
  8
0
  6
BYLAYER
 62
     1
 10
151.477450
 20
-90.879811
 30
0.0
 11
151.515833
 21
-90.574493
 31
0.0
  0
ARC
  8
0
  6
BYLAYER
 62
     1
 10
149.765426
 20
-92.976335
 30
0.0
 40
2.971998
 50
53.916300
 51
65.860381
  0
LINE
  8
0
  6
BYLAYER
 62
     1
 10
151.011245
 20
-90.278056
 30
0.0
 11
151.011037
 21
-90.277961
 31
0.0
  0
LINE
  8
0
  6
BYLAYER
 62
     1
 10
150.980859
 20
-90.264233
 30
0.0
 11
150.740129
 21
-90.451183
 31
0.0
  0
LINE
  8
0
  6
BYLAYER
 62
     1
 10
150.685079
 20
-90.430662
 30
0.0
 11
150.684780
 21
-90.430555
 31
0.0
  0
ARC
  8
0
  6
BYLAYER
 62
     1
 10
149.765426
 20
-92.976335
 30
0.0
 40
2.706695
 50
68.894081
 51
80.764578
  0
ARC
  8
0
  6
BYLAYER
 62
     1
 10
149.765426
 20
-92.976335
 30
0.0
 40
2.971998
 50
84.535428
 51
90.000003
  0
LINE
  8
0
  6
BYLAYER
 62
     1
 10
150.080413
 20
-90.021076
 30
0.0
 11
150.199808
 21
-90.304679
 31
0.0
  0
ARC
  8
0
  6
BYLAYER
 62
     1
 10
149.765426
 20
-92.976335
 30
0.0
 40
2.971998
 50
180.000000
 51
186.083899
  0
LINE
  8
0
  6
BYLAYER
 62
     1
 10
146.806933
 20
-93.259345
 30
0.0
 11
146.806933
 21
-93.259352
 31
0.0
  0
LINE
  8
0
  6
BYLAYER
 62
     1
 10
146.810167
 20
-93.291321
 30
0.0
 11
147.093817
 21
-93.410741
 31
0.0
  0
ARC
  8
0
  6
BYLAYER
 62
     1
 10
149.765438
 20
-92.976310
 30
0.0
 40
2.706712
 50
189.236002
 51
200.764629
  0
LINE
  8
0
  6
BYLAYER
 62
     1
 10
147.234538
 20
-93.935924
 30
0.0
 11
147.048608
 21
-94.181179
 31
0.0
  0
ARC
  8
0
  6
BYLAYER
 62
     1
 10
149.765426
 20
-92.976335
 30
0.0
 40
2.971995
 50
203.916158
 51
215.860410
  0
LINE
  8
0
  6
BYLAYER
 62
     1
 10
147.337240
 20
-94.690009
 30
0.0
 11
147.337417
 21
-94.690260
 31
0.0
  0
LINE
  8
0
  6
BYLAYER
 62
     1
 10
147.356783
 20
-94.717366
 30
0.0
 11
147.658781
 21
-94.675821
 31
0.0
  0
ARC
  8
0
  6
BYLAYER
 62
     1
 10
149.765426
 20
-92.976335
 30
0.0
 40
2.706696
 50
218.894045
 51
230.764345
  0
LINE
  8
0
  6
BYLAYER
 62
     1
 10
148.009152
 20
-95.035874
 30
0.0
 11
148.009445
 21
-95.036128
 31
0.0
  0
LINE
  8
0
  6
BYLAYER
 62
     1
 10
148.053410
 20
-95.072809
 30
0.0
 11
148.015013
 21
-95.378172
 31
0.0
  0
ARC
  8
0
  6
BYLAYER
 62
     1
 10
149.765426
 20
-92.976335
 30
0.0
 40
2.971998
 50
233.916148
 51
245.860401
  0
LINE
  8
0
  6
BYLAYER
 62
     1
 10
148.519607
 20
-95.674610
 30
0.0
 11
148.519808
 21
-95.674708
 31
0.0
  0
LINE
  8
0
  6
BYLAYER
 62
     1
 10
148.549994
 20
-95.688436
 30
0.0
 11
148.790754
 21
-95.501452
 31
0.0
  0
LINE
  8
0
  6
BYLAYER
 62
     1
 10
148.845767
 20
-95.522004
 30
0.0
 11
148.846072
 21
-95.522114
 31
0.0
  0
LINE
  8
0
  6
BYLAYER
 62
     1
 10
152.723916
 20
-93.259345
 30
0.0
 11
152.723916
 21
-93.259352
 31
0.0
  0
LINE
  8
0
  6
BYLAYER
 62
     1
 10
152.720684
 20
-93.291321
 30
0.0
 11
152.437029
 21
-93.410741
 31
0.0
  0
LINE
  8
0
  6
BYLAYER
 62
     1
 10
152.296311
 20
-93.935931
 30
0.0
 11
152.482246
 21
-94.181181
 31
0.0
  0
LINE
  8
0
  6
BYLAYER
 62
     1
 10
152.193606
 20
-94.690009
 30
0.0
 11
152.193429
 21
-94.690260
 31
0.0
  0
LINE
  8
0
  6
BYLAYER
 62
     1
 10
152.174072
 20
-94.717366
 30
0.0
 11
151.872054
 21
-94.675820
 31
0.0
  0
LINE
  8
0
  6
BYLAYER
 62
     1
 10
151.521700
 20
-95.035874
 30
0.0
 11
151.521407
 21
-95.036128
 31
0.0
  0
LINE
  8
0
  6
BYLAYER
 62
     1
 10
151.477444
 20
-95.072808
 30
0.0
 11
151.515833
 21
-95.378177
 31
0.0
  0
LINE
  8
0
  6
BYLAYER
 62
     1
 10
150.980858
 20
-95.688436
 30
0.0
 11
150.740093
 21
-95.501454
 31
0.0
  0
ARC
  8
0
  6
BYLAYER
 62
     1
 10
149.765426
 20
-92.976335
 30
0.0
 40
2.706696
 50
309.235697
 51
321.105929
  0
ARC
  8
0
  6
BYLAYER
 62
     1
 10
149.765426
 20
-92.976335
 30
0.0
 40
2.706695
 50
248.893873
 51
270.000000
  0
ARC
  8
0
  6
BYLAYER
 62
     1
 10
149.765426
 20
-92.976335
 30
0.0
 40
2.971998
 50
294.783232
 51
306.083699
  0
LINE
  8
0
  6
BYLAYER
 62
     1
 10
151.011037
 20
-95.674708
 30
0.0
 11
150.981041
 21
-95.688824
 31
0.0
  0
ARC
  8
0
  6
BYLAYER
 62
     1
 10
149.765426
 20
-92.976335
 30
0.0
 40
2.971995
 50
324.139593
 51
336.083825
  0
ARC
  8
0
  6
BYLAYER
 62
     1
 10
149.765408
 20
-92.976310
 30
0.0
 40
2.706712
 50
339.235210
 51
350.764014
  0
ARC
  8
0
  6
BYLAYER
 62
     1
 10
149.765426
 20
-92.976335
 30
0.0
 40
2.971998
 50
353.916089
 51
360.000000
  0
ARC
  8
0
  6
BYLAYER
 62
     1
 10
149.765426
 20
-92.976335
 30
0.0
 40
2.971998
 50
0.0
 51
6.083907
  0
ARC
  8
0
  6
BYLAYER
 62
     1
 10
149.765426
 20
-92.976335
 30
0.0
 40
2.706695
 50
270.0
 51
291.106008
  0
CIRCLE
  8
0
  6
BYLAYER
 62
     1
 10
149.765426
 20
-92.976335
 30
0.0
 40
1.452032
  0
CIRCLE
  8
0
  6
BYLAYER
 62
     1
 10
149.765426
 20
-92.976335
 30
0.0
 40
2.118413
  0
CIRCLE
  8
0
  6
BYLAYER
 62
     1
 10
153.819113
 20
-139.372014
 30
0.0
 40
17.500000
  0
LINE
  8
0
  6
BYLAYER
 62
     1
 10
153.819113
 20
-139.372014
 30
0.0
 11
150.819113
 21
-139.372014
 31
0.0
  0
LINE
  8
0
  6
BYLAYER
 62
     1
 10
153.819113
 20
-139.372014
 30
0.0
 11
153.819113
 21
-142.372014
 31
0.0
  0
LINE
  8
0
  6
BYLAYER
 62
     1
 10
153.819113
 20
-139.372014
 30
0.0
 11
156.819113
 21
-139.372014
 31
0.0
  0
LINE
  8
0
  6
BYLAYER
 62
     1
 10
153.819113
 20
-139.372014
 30
0.0
 11
153.819113
 21
-136.372014
 31
0.0
  0
ARC
  8
0
  6
BYLAYER
 62
     1
 10
136.069121
 20
-113.372045
 30
0.0
 40
0.75
 50
270.0
 51
450.000005
  0
ARC
  8
0
  6
BYLAYER
 62
     1
 10
144.888052
 20
-101.202947
 30
0.0
 40
12.000007
 50
272.452612
 51
283.169589
  0
ARC
  8
0
  6
BYLAYER
 62
     1
 10
145.095450
 20
-112.239995
 30
0.0
 40
0.999965
 50
287.823953
 51
344.999767
  0
ARC
  8
0
  6
BYLAYER
 62
     1
 10
153.819113
 20
-139.372014
 30
0.0
 40
27.200003
 50
346.830476
 51
373.169511
  0
LINE
  8
0
  6
BYLAYER
 62
     1
 10
180.692328
 20
-147.129765
 30
0.0
 11
189.671637
 21
-144.723729
 31
0.0
  0
ARC
  8
0
  6
BYLAYER
 62
     1
 10
191.988165
 20
-148.303075
 30
0.0
 40
12.000007
 50
166.830417
 51
177.547380
  0
LINE
  8
0
  6
BYLAYER
 62
     1
 10
184.819113
 20
-146.068181
 30
0.0
 11
184.819113
 21
-153.622029
 31
0.0
  0
ARC
  8
0
  6
BYLAYER
 62
     1
 10
187.319113
 20
-146.389379
 30
0.0
 40
1.0
 50
0.0
 51
104.999781
  0
LINE
  8
0
  6
BYLAYER
 62
     1
 10
181.569113
 20
-154.622029
 30
0.0
 11
187.319113
 21
-154.622029
 31
0.0
  0
LINE
  8
0
  6
BYLAYER
 62
     1
 10
181.569113
 20
-156.122029
 30
0.0
 11
187.319113
 21
-156.122029
 31
0.0
  0
ARC
  8
0
  6
BYLAYER
 62
     1
 10
181.569113
 20
-155.372029
 30
0.0
 40
0.75
 50
90.0
 51
270.000005
  0
ARC
  8
0
  6
BYLAYER
 62
     1
 10
180.951147
 20
-148.095677
 30
0.0
 40
0.999994
 50
105.000239
 51
162.176053
  0
LINE
  8
0
  6
BYLAYER
 62
     1
 10
188.319113
 20
-146.389379
 30
0.0
 11
188.319113
 21
-153.622029
 31
0.0
  0
ARC
  8
0
  6
BYLAYER
 62
     1
 10
183.819113
 20
-153.622029
 30
0.0
 40
1.000000
 50
270.0
 51
360.000003
  0
ARC
  8
0
  6
BYLAYER
 62
     1
 10
183.819113
 20
-157.122029
 30
0.0
 40
1.000000
 50
0.0
 51
90.000003
  0
ARC
  8
0
  6
BYLAYER
 62
     1
 10
187.319113
 20
-153.622029
 30
0.0
 40
1.000000
 50
270.0
 51
360.000003
  0
ARC
  8
0
  6
BYLAYER
 62
     1
 10
187.319113
 20
-157.122029
 30
0.0
 40
1.000000
 50
0.0
 51
90.000003
  0
CIRCLE
  8
0
  6
BYLAYER
 62
     1
 10
186.319113
 20
-139.372014
 30
0.0
 40
2.300003
  0
ARC
  8
0
  6
BYLAYER
 62
     1
 10
186.319098
 20
-139.372014
 30
0.0
 40
3.000006
 50
337.576062
 51
644.380646
  0
LINE
  8
0
  6
BYLAYER
 62
     1
 10
171.569121
 20
-112.622045
 30
0.0
 11
177.819128
 21
-112.622045
 31
0.0
  0
LINE
  8
0
  6
BYLAYER
 62
     1
 10
171.569121
 20
-114.122045
 30
0.0
 11
180.628943
 21
-114.122045
 31
0.0
  0
ARC
  8
0
  6
BYLAYER
 62
     1
 10
162.750174
 20
-101.202947
 30
0.0
 40
12.000007
 50
256.830412
 51
267.547389
  0
ARC
  8
0
  6
BYLAYER
 62
     1
 10
162.542776
 20
-112.239995
 30
0.0
 40
0.999965
 50
195.000234
 51
252.176048
  0
ARC
  8
0
  6
BYLAYER
 62
     1
 10
171.569121
 20
-113.372045
 30
0.0
 40
0.75
 50
90.0
 51
270.000005
  0
LINE
  8
0
  6
BYLAYER
 62
     1
 10
189.671637
 20
-134.020299
 30
0.0
 11
180.692328
 21
-131.614263
 31
0.0
  0
ARC
  8
0
  6
BYLAYER
 62
     1
 10
191.988165
 20
-130.440953
 30
0.0
 40
12.000007
 50
182.452617
 51
193.169580
  0
ARC
  8
0
  6
BYLAYER
 62
     1
 10
180.951147
 20
-130.648351
 30
0.0
 40
0.999994
 50
197.823944
 51
254.999758
  0
LINE
  8
0
  6
BYLAYER
 62
     1
 10
188.319113
 20
-132.354649
 30
0.0
 11
188.319113
 21
-125.044042
 31
0.0
  0
ARC
  8
0
  6
BYLAYER
 62
     1
 10
187.319113
 20
-132.354649
 30
0.0
 40
1.000016
 50
255.000222
 51
360.000003
  0
LINE
  8
0
  6
BYLAYER
 62
     1
 10
187.319128
 20
-114.131108
 30
0.0
 11
180.819128
 21
-114.131108
 31
0.0
  0
ARC
  8
0
  6
BYLAYER
 62
     1
 10
187.319128
 20
-115.131108
 30
0.0
 40
1.000000
 50
0.0
 51
90.000016
  0
CIRCLE
  8
0
  6
BYLAYER
 62
     1
 10
613.819113
 20
-426.372014
 30
0.0
 40
16.0
  0
LINE
  8
0
  6
BYLAYER
 62
     1
 10
585.819113
 20
-419.372014
 30
0.0
 11
586.819113
 21
-420.372014
 31
0.0
  0
LINE
  8
0
  6
BYLAYER
 62
     1
 10
597.819113
 20
-399.372014
 30
0.0
 11
585.819113
 21
-399.372014
 31
0.0
  0
LINE
  8
0
  6
BYLAYER
 62
     1
 10
585.819113
 20
-496.371999
 30
0.0
 11
597.819113
 21
-496.371999
 31
0.0
  0
LINE
  8
0
  6
BYLAYER
 62
     1
 10
597.819113
 20
-476.371999
 30
0.0
 11
585.819113
 21
-476.371999
 31
0.0
  0
LINE
  8
0
  6
BYLAYER
 62
     1
 10
585.819113
 20
-476.371999
 30
0.0
 11
586.819113
 21
-475.371999
 31
0.0
  0
LINE
  8
0
  6
BYLAYER
 62
     1
 10
638.319113
 20
-475.371999
 30
0.0
 11
640.819113
 21
-475.371999
 31
0.0
  0
LINE
  8
0
  6
BYLAYER
 62
     1
 10
586.819113
 20
-475.371999
 30
0.0
 11
597.819113
 21
-475.371999
 31
0.0
  0
ARC
  8
0
  6
BYLAYER
 62
     1
 10
591.819113
 20
-483.371999
 30
0.0
 40
3.25
 50
270.0
 51
360.000009
  0
ARC
  8
0
  6
BYLAYER
 62
     1
 10
591.819113
 20
-483.371999
 30
0.0
 40
3.25
 50
0.0
 51
90.000003
  0
ARC
  8
0
  6
BYLAYER
 62
     1
 10
635.819113
 20
-483.371999
 30
0.0
 40
3.25
 50
90.0
 51
269.999991
  0
ARC
  8
0
  6
BYLAYER
 62
     1
 10
635.819113
 20
-412.371983
 30
0.0
 40
3.250000
 50
90.0
 51
269.999991
  0
ARC
  8
0
  6
BYLAYER
 62
     1
 10
591.819113
 20
-412.372014
 30
0.0
 40
3.25
 50
270.0
 51
450.000019
  0
LINE
  8
0
  6
BYLAYER
 62
     1
 10
635.819113
 20
-409.121983
 30
0.0
 11
641.819113
 21
-409.121983
 31
0.0
  0
LINE
  8
0
  6
BYLAYER
 62
     1
 10
635.819113
 20
-415.621983
 30
0.0
 11
641.819113
 21
-415.621983
 31
0.0
  0
LINE
  8
0
  6
BYLAYER
 62
     1
 10
635.819113
 20
-480.121999
 30
0.0
 11
641.819113
 21
-480.121999
 31
0.0
  0
LINE
  8
0
  6
BYLAYER
 62
     1
 10
635.819113
 20
-486.621999
 30
0.0
 11
641.819113
 21
-486.621999
 31
0.0
  0
LINE
  8
0
  6
BYLAYER
 62
     1
 10
591.819113
 20
-486.621999
 30
0.0
 11
585.819113
 21
-486.621999
 31
0.0
  0
LINE
  8
0
  6
BYLAYER
 62
     1
 10
591.819113
 20
-480.121999
 30
0.0
 11
585.819113
 21
-480.121999
 31
0.0
  0
LINE
  8
0
  6
BYLAYER
 62
     1
 10
591.819113
 20
-415.622014
 30
0.0
 11
585.819113
 21
-415.622014
 31
0.0
  0
LINE
  8
0
  6
BYLAYER
 62
     1
 10
591.819113
 20
-409.122014
 30
0.0
 11
585.819113
 21
-409.122014
 31
0.0
  0
LINE
  8
0
  6
BYLAYER
 62
     1
 10
641.819113
 20
-415.621983
 30
0.0
 11
641.819113
 21
-399.371983
 31
0.0
  0
LINE
  8
0
  6
BYLAYER
 62
     1
 10
597.819113
 20
-413.143254
 30
0.0
 11
597.819113
 21
-399.372014
 31
0.0
  0
ARC
  8
0
  6
BYLAYER
 62
     1
 10
598.819113
 20
-413.143254
 30
0.0
 40
1.0
 50
180.000000
 51
318.590371
  0
LINE
  8
0
  6
BYLAYER
 62
     1
 10
585.819113
 20
-419.372014
 30
0.0
 11
594.740317
 21
-419.372014
 31
0.0
  0
ARC
  8
0
  6
BYLAYER
 62
     1
 10
594.740317
 20
-420.372014
 30
0.0
 40
1.0
 50
342.543216
 51
450.000000
  0
LINE
  8
0
  6
BYLAYER
 62
     1
 10
586.819113
 20
-420.372014
 30
0.0
 11
595.740317
 21
-420.372014
 31
0.0
  0
LINE
  8
0
  6
BYLAYER
 62
     1
 10
632.897879
 20
-419.371983
 30
0.0
 11
641.819113
 21
-419.371983
 31
0.0
  0
ARC
  8
0
  6
BYLAYER
 62
     1
 10
632.897879
 20
-420.371983
 30
0.0
 40
1.000006
 50
90.0
 51
197.456764
  0
LINE
  8
0
  6
BYLAYER
 62
     1
 10
597.819113
 20
-496.371999
 30
0.0
 11
597.819113
 21
-441.431493
 31
0.0
  0
LINE
  8
0
  6
BYLAYER
 62
     1
 10
640.819113
 20
-420.371983
 30
0.0
 11
631.897879
 21
-420.372014
 31
0.0
  0
CIRCLE
  8
0
  6
BYLAYER
 62
     1
 10
613.819113
 20
-405.372014
 30
0.0
 40
2.356506
  0
ARC
  8
0
  6
BYLAYER
 62
     1
 10
613.819113
 20
-426.372014
 30
0.0
 40
19.000019
 50
111.279996
 51
138.590371
  0
ARC
  8
0
  6
BYLAYER
 62
     1
 10
605.834738
 20
-405.872014
 30
0.0
 40
2.999987
 50
291.280056
 51
363.583312
  0
ARC
  8
0
  6
BYLAYER
 62
     1
 10
613.819113
 20
-405.372014
 30
0.0
 40
5.000010
 50
356.416674
 51
543.583310
  0
ARC
  8
0
  6
BYLAYER
 62
     1
 10
621.803488
 20
-405.871983
 30
0.0
 40
3.000004
 50
176.41727
 51
248.720164
  0
LINE
  8
0
  6
BYLAYER
 62
     1
 10
613.819113
 20
-400.372014
 30
0.0
 11
597.819113
 21
-400.372014
 31
0.0
  0
ARC
  8
0
  6
BYLAYER
 62
     1
 10
635.564810
 20
-429.707341
 30
0.0
 40
2.999977
 50
171.280094
 51
243.583315
  0
ARC
  8
0
  6
BYLAYER
 62
     1
 10
592.073385
 20
-429.707372
 30
0.0
 40
3.000004
 50
296.417260
 51
368.720167
  0
ARC
  8
0
  6
BYLAYER
 62
     1
 10
613.819113
 20
-426.372014
 30
0.0
 40
19.000006
 50
162.542369
 51
188.720026
  0
ARC
  8
0
  6
BYLAYER
 62
     1
 10
613.819113
 20
-426.372014
 30
0.0
 40
18.999987
 50
351.279962
 51
377.457752
  0
LINE
  8
0
  6
BYLAYER
 62
     1
 10
629.819113
 20
-413.143254
 30
0.0
 11
629.819113
 21
-399.372014
 31
0.0
  0
LINE
  8
0
  6
BYLAYER
 62
     1
 10
629.819113
 20
-496.371999
 30
0.0
 11
629.819113
 21
-441.431493
 31
0.0
  0
LINE
  8
0
  6
BYLAYER
 62
     1
 10
629.819113
 20
-399.372014
 30
0.0
 11
641.819113
 21
-399.371983
 31
0.0
  0
LINE
  8
0
  6
BYLAYER
 62
     1
 10
613.819113
 20
-400.372014
 30
0.0
 11
629.819113
 21
-400.372014
 31
0.0
  0
LINE
  8
0
  6
BYLAYER
 62
     1
 10
640.819113
 20
-475.371999
 30
0.0
 11
629.819113
 21
-475.371999
 31
0.0
  0
LINE
  8
0
  6
BYLAYER
 62
     1
 10
641.819113
 20
-476.371999
 30
0.0
 11
629.819113
 21
-476.371999
 31
0.0
  0
LINE
  8
0
  6
BYLAYER
 62
     1
 10
629.819113
 20
-496.371999
 30
0.0
 11
641.819113
 21
-496.371999
 31
0.0
  0
ARC
  8
0
  6
BYLAYER
 62
     1
 10
613.819113
 20
-426.372014
 30
0.0
 40
19.000023
 50
41.409699
 51
68.720002
  0
ARC
  8
0
  6
BYLAYER
 62
     1
 10
628.819113
 20
-413.143224
 30
0.0
 40
1.0
 50
221.409625
 51
359.999996
  0
LINE
  8
0
  6
BYLAYER
 62
     1
 10
640.819113
 20
-475.371999
 30
0.0
 11
640.819113
 21
-420.371983
 31
0.0
  0
LINE
  8
0
  6
BYLAYER
 62
     1
 10
586.819113
 20
-420.372014
 30
0.0
 11
586.819113
 21
-475.371999
 31
0.0
  0
LINE
  8
0
  6
BYLAYER
 62
     1
 10
641.819113
 20
-493.872014
 30
0.0
 11
642.319113
 21
-493.872014
 31
0.0
  0
ARC
  8
0
  6
BYLAYER
 62
     1
 10
642.319113
 20
-493.372014
 30
0.0
 40
0.5
 50
270.0
 51
359.999982
  0
LINE
  8
0
  6
BYLAYER
 62
     1
 10
645.319113
 20
-428.872014
 30
0.0
 11
645.319113
 21
-483.872014
 31
0.0
  0
LINE
  8
0
  6
BYLAYER
 62
     1
 10
642.819113
 20
-493.372014
 30
0.0
 11
642.819113
 21
-456.372014
 31
0.0
  0
LINE
  8
0
  6
BYLAYER
 62
     1
 10
641.819113
 20
-418.872014
 30
0.0
 11
642.319113
 21
-418.872014
 31
0.0
  0
ARC
  8
0
  6
BYLAYER
 62
     1
 10
642.319113
 20
-419.372014
 30
0.0
 40
0.500000
 50
0.0
 51
89.999996
  0
LINE
  8
0
  6
BYLAYER
 62
     1
 10
641.819113
 20
-449.955998
 30
0.0
 11
641.819113
 21
-415.621983
 31
0.0
  0
LINE
  8
0
  6
BYLAYER
 62
     1
 10
641.819113
 20
-496.371999
 30
0.0
 11
641.819113
 21
-462.788030
 31
0.0
  0
LINE
  8
0
  6
BYLAYER
 62
     1
 10
642.819113
 20
-456.372014
 30
0.0
 11
642.819113
 21
-419.372014
 31
0.0
  0
LINE
  8
0
  6
BYLAYER
 62
     1
 10
585.819113
 20
-415.621983
 30
0.0
 11
585.819113
 21
-399.371983
 31
0.0
  0
LINE
  8
0
  6
BYLAYER
 62
     1
 10
585.819113
 20
-493.872014
 30
0.0
 11
585.319113
 21
-493.872014
 31
0.0
  0
ARC
  8
0
  6
BYLAYER
 62
     1
 10
585.319113
 20
-493.372014
 30
0.0
 40
0.500000
 50
180.000000
 51
269.999982
  0
LINE
  8
0
  6
BYLAYER
 62
     1
 10
582.319113
 20
-428.872014
 30
0.0
 11
582.319113
 21
-483.872014
 31
0.0
  0
LINE
  8
0
  6
BYLAYER
 62
     1
 10
584.819113
 20
-493.372014
 30
0.0
 11
584.819113
 21
-456.372014
 31
0.0
  0
LINE
  8
0
  6
BYLAYER
 62
     1
 10
585.819113
 20
-418.872014
 30
0.0
 11
585.319113
 21
-418.872014
 31
0.0
  0
ARC
  8
0
  6
BYLAYER
 62
     1
 10
585.319113
 20
-419.372014
 30
0.0
 40
0.500000
 50
90.0
 51
179.999996
  0
LINE
  8
0
  6
BYLAYER
 62
     1
 10
585.819113
 20
-449.955998
 30
0.0
 11
585.819113
 21
-415.621983
 31
0.0
  0
LINE
  8
0
  6
BYLAYER
 62
     1
 10
585.819113
 20
-496.371999
 30
0.0
 11
585.819113
 21
-462.788030
 31
0.0
  0
LINE
  8
0
  6
BYLAYER
 62
     1
 10
584.819113
 20
-456.372014
 30
0.0
 11
584.819113
 21
-419.372014
 31
0.0
  0
LINE
  8
0
  6
BYLAYER
 62
     1
 10
586.819113
 20
-449.955998
 30
0.0
 11
585.819113
 21
-449.955998
 31
0.0
  0
LINE
  8
0
  6
BYLAYER
 62
     1
 10
586.819113
 20
-462.788030
 30
0.0
 11
585.819113
 21
-462.788030
 31
0.0
  0
LINE
  8
0
  6
BYLAYER
 62
     1
 10
640.819113
 20
-475.371999
 30
0.0
 11
641.819113
 21
-476.371999
 31
0.0
  0
LINE
  8
0
  6
BYLAYER
 62
     1
 10
640.819113
 20
-420.371983
 30
0.0
 11
641.819113
 21
-419.371983
 31
0.0
  0
LINE
  8
0
  6
BYLAYER
 62
     1
 10
629.819113
 20
-494.371999
 30
0.0
 11
597.819113
 21
-494.371999
 31
0.0
  0
ARC
  8
0
  6
BYLAYER
 62
     1
 10
613.819113
 20
-426.372014
 30
0.0
 40
18.999992
 50
231.280068
 51
308.720070
  0
ARC
  8
0
  6
BYLAYER
 62
     1
 10
595.632590
 20
-436.872014
 30
0.0
 40
4.999998
 50
116.416681
 51
303.583330
  0
ARC
  8
0
  6
BYLAYER
 62
     1
 10
600.057791
 20
-443.536687
 30
0.0
 40
2.999989
 50
51.280060
 51
123.583308
  0
CIRCLE
  8
0
  6
BYLAYER
 62
     1
 10
595.632590
 20
-436.872014
 30
0.0
 40
2.356506
  0
LINE
  8
0
  6
BYLAYER
 62
     1
 10
640.819113
 20
-462.788030
 30
0.0
 11
641.819113
 21
-462.788030
 31
0.0
  0
ARC
  8
0
  6
BYLAYER
 62
     1
 10
632.005636
 20
-436.872014
 30
0.0
 40
4.999996
 50
236.416698
 51
423.583307
  0
ARC
  8
0
  6
BYLAYER
 62
     1
 10
627.580466
 20
-443.536687
 30
0.0
 40
3.000004
 50
56.417291
 51
128.720150
  0
CIRCLE
  8
0
  6
BYLAYER
 62
     1
 10
632.005636
 20
-436.872014
 30
0.0
 40
2.356506
  0
LINE
  8
0
  6
BYLAYER
 62
     1
 10
640.819113
 20
-449.955998
 30
0.0
 11
641.819113
 21
-449.955998
 31
0.0
  0
LINE
  8
0
  6
BYLAYER
 62
     1
 10
582.319113
 20
-428.872014
 30
0.0
 11
584.819113
 21
-428.872014
 31
0.0
  0
LINE
  8
0
  6
BYLAYER
 62
     1
 10
582.319113
 20
-483.872014
 30
0.0
 11
584.819113
 21
-483.872014
 31
0.0
  0
LINE
  8
0
  6
BYLAYER
 62
     1
 10
645.319113
 20
-483.872014
 30
0.0
 11
642.819113
 21
-483.872014
 31
0.0
  0
LINE
  8
0
  6
BYLAYER
 62
     1
 10
645.319113
 20
-428.872014
 30
0.0
 11
642.819113
 21
-428.872014
 31
0.0
  0
LINE
  8
0
  6
BYLAYER
 62
     1
 10
113.819117
 20
-398.372014
 30
0.0
 11
113.819117
 21
-454.372010
 31
0.0
  0
LINE
  8
0
  6
BYLAYER
 62
     1
 10
133.819113
 20
-398.372014
 30
0.0
 11
133.819113
 21
-410.372014
 31
0.0
  0
LINE
  8
0
  6
BYLAYER
 62
     1
 10
133.819113
 20
-442.372014
 30
0.0
 11
133.819113
 21
-454.372010
 31
0.0
  0
LINE
  8
0
  6
BYLAYER
 62
     1
 10
134.819113
 20
-453.372014
 30
0.0
 11
133.819113
 21
-454.372010
 31
0.0
  0
LINE
  8
0
  6
BYLAYER
 62
     1
 10
134.819113
 20
-399.372014
 30
0.0
 11
133.819113
 21
-398.372014
 31
0.0
  0
LINE
  8
0
  6
BYLAYER
 62
     1
 10
134.819113
 20
-453.372014
 30
0.0
 11
134.819113
 21
-442.372014
 31
0.0
  0
LINE
  8
0
  6
BYLAYER
 62
     1
 10
134.819113
 20
-399.372014
 30
0.0
 11
153.819113
 21
-399.371999
 31
0.0
  0
LINE
  8
0
  6
BYLAYER
 62
     1
 10
153.819113
 20
-410.371999
 30
0.0
 11
113.819117
 21
-410.372014
 31
0.0
  0
LINE
  8
0
  6
BYLAYER
 62
     1
 10
153.819113
 20
-442.372014
 30
0.0
 11
113.819117
 21
-442.372014
 31
0.0
  0
LINE
  8
0
  6
BYLAYER
 62
     1
 10
117.819113
 20
-410.372014
 30
0.0
 11
121.819113
 21
-410.372014
 31
0.0
  0
ARC
  8
0
  6
BYLAYER
 62
     1
 10
126.819113
 20
-404.372014
 30
0.0
 40
3.250000
 50
180.000000
 51
360.000005
  0
ARC
  8
0
  6
BYLAYER
 62
     1
 10
126.819113
 20
-448.372014
 30
0.0
 40
3.250000
 50
0.0
 51
180.000005
  0
LINE
  8
0
  6
BYLAYER
 62
     1
 10
123.569113
 20
-404.372014
 30
0.0
 11
123.569113
 21
-398.372014
 31
0.0
  0
LINE
  8
0
  6
BYLAYER
 62
     1
 10
130.069113
 20
-404.372014
 30
0.0
 11
130.069113
 21
-398.372014
 31
0.0
  0
LINE
  8
0
  6
BYLAYER
 62
     1
 10
130.069113
 20
-448.372014
 30
0.0
 11
130.069113
 21
-454.372010
 31
0.0
  0
LINE
  8
0
  6
BYLAYER
 62
     1
 10
123.569113
 20
-448.372014
 30
0.0
 11
123.569113
 21
-454.372010
 31
0.0
  0
LINE
  8
0
  6
BYLAYER
 62
     1
 10
173.819113
 20
-398.371999
 30
0.0
 11
173.819113
 21
-410.371999
 31
0.0
  0
LINE
  8
0
  6
BYLAYER
 62
     1
 10
173.819128
 20
-442.372014
 30
0.0
 11
173.819128
 21
-454.372010
 31
0.0
  0
LINE
  8
0
  6
BYLAYER
 62
     1
 10
172.819128
 20
-453.372014
 30
0.0
 11
173.819128
 21
-454.372010
 31
0.0
  0
LINE
  8
0
  6
BYLAYER
 62
     1
 10
172.819113
 20
-399.371999
 30
0.0
 11
173.819113
 21
-398.371999
 31
0.0
  0
LINE
  8
0
  6
BYLAYER
 62
     1
 10
172.819128
 20
-453.372014
 30
0.0
 11
172.819128
 21
-442.372014
 31
0.0
  0
LINE
  8
0
  6
BYLAYER
 62
     1
 10
172.819113
 20
-410.371999
 30
0.0
 11
172.819113
 21
-399.371999
 31
0.0
  0
LINE
  8
0
  6
BYLAYER
 62
     1
 10
172.819113
 20
-399.371999
 30
0.0
 11
153.819113
 21
-399.371999
 31
0.0
  0
LINE
  8
0
  6
BYLAYER
 62
     1
 10
153.819113
 20
-410.371999
 30
0.0
 11
193.819113
 21
-410.371999
 31
0.0
  0
LINE
  8
0
  6
BYLAYER
 62
     1
 10
153.819113
 20
-442.372014
 30
0.0
 11
193.819128
 21
-442.371999
 31
0.0
  0
ARC
  8
0
  6
BYLAYER
 62
     1
 10
180.819128
 20
-448.372014
 30
0.0
 40
3.25
 50
0.0
 51
180.000019
  0
LINE
  8
0
  6
BYLAYER
 62
     1
 10
184.069113
 20
-404.371999
 30
0.0
 11
184.069113
 21
-398.371999
 31
0.0
  0
LINE
  8
0
  6
BYLAYER
 62
     1
 10
177.569113
 20
-404.371999
 30
0.0
 11
177.569113
 21
-398.371999
 31
0.0
  0
LINE
  8
0
  6
BYLAYER
 62
     1
 10
177.569128
 20
-448.372014
 30
0.0
 11
177.569128
 21
-454.372010
 31
0.0
  0
LINE
  8
0
  6
BYLAYER
 62
     1
 10
184.069128
 20
-448.372014
 30
0.0
 11
184.069128
 21
-454.372010
 31
0.0
  0
LINE
  8
0
  6
BYLAYER
 62
     1
 10
134.819113
 20
-453.372014
 30
0.0
 11
172.819128
 21
-453.372014
 31
0.0
  0
LINE
  8
0
  6
BYLAYER
 62
     1
 10
127.819113
 20
-423.372014
 30
0.0
 11
127.819113
 21
-429.371999
 31
0.0
  0
ARC
  8
0
  6
BYLAYER
 62
     1
 10
128.819113
 20
-428.122029
 30
0.0
 40
1.0
 50
180.000000
 51
269.999996
  0
ARC
  8
0
  6
BYLAYER
 62
     1
 10
128.819113
 20
-424.622014
 30
0.0
 40
1.0
 50
90.0
 51
180.000003
  0
ARC
  8
0
  6
BYLAYER
 62
     1
 10
127.803412
 20
-431.622014
 30
0.0
 40
1.0
 50
90.0
 51
131.409012
  0
ARC
  8
0
  6
BYLAYER
 62
     1
 10
127.803442
 20
-421.122014
 30
0.0
 40
1.0
 50
228.590367
 51
270.000001
  0
LINE
  8
0
  6
BYLAYER
 62
     1
 10
116.819117
 20
-398.372014
 30
0.0
 11
116.819117
 21
-410.372014
 31
0.0
  0
LINE
  8
0
  6
BYLAYER
 62
     1
 10
116.819117
 20
-442.372014
 30
0.0
 11
116.819117
 21
-454.372010
 31
0.0
  0
LINE
  8
0
  6
BYLAYER
 62
     1
 10
190.819113
 20
-398.371999
 30
0.0
 11
190.819113
 21
-410.371999
 31
0.0
  0
LINE
  8
0
  6
BYLAYER
 62
     1
 10
190.819113
 20
-442.371999
 30
0.0
 11
190.819113
 21
-454.372003
 31
0.0
  0
LINE
  8
0
  6
BYLAYER
 62
     1
 10
193.819098
 20
-453.372014
 30
0.0
 11
194.819098
 21
-453.372014
 31
0.0
  0
LINE
  8
0
  6
BYLAYER
 62
     1
 10
194.819098
 20
-453.372014
 30
0.0
 11
194.819098
 21
-399.372014
 31
0.0
  0
LINE
  8
0
  6
BYLAYER
 62
     1
 10
193.819098
 20
-399.372014
 30
0.0
 11
194.819098
 21
-399.372014
 31
0.0
  0
LINE
  8
0
  6
BYLAYER
 62
     1
 10
193.819113
 20
-398.371999
 30
0.0
 11
193.819113
 21
-410.371999
 31
0.0
  0
LINE
  8
0
  6
BYLAYER
 62
     1
 10
193.819128
 20
-454.372003
 30
0.0
 11
193.819128
 21
-442.371999
 31
0.0
  0
LINE
  8
0
  6
BYLAYER
 62
     1
 10
116.319094
 20
-454.372014
 30
0.0
 11
116.319094
 21
-454.872014
 31
0.0
  0
ARC
  8
0
  6
BYLAYER
 62
     1
 10
116.819094
 20
-454.872014
 30
0.0
 40
0.500000
 50
180.000000
 51
270.000009
  0
LINE
  8
0
  6
BYLAYER
 62
     1
 10
181.319113
 20
-457.872014
 30
0.0
 11
126.319113
 21
-457.872014
 31
0.0
  0
LINE
  8
0
  6
BYLAYER
 62
     1
 10
133.819113
 20
-454.372014
 30
0.0
 11
113.819086
 21
-454.372014
 31
0.0
  0
LINE
  8
0
  6
BYLAYER
 62
     1
 10
127.478415
 20
-454.372014
 30
0.0
 11
127.478415
 21
-455.372014
 31
0.0
  0
LINE
  8
0
  6
BYLAYER
 62
     1
 10
116.819094
 20
-455.372014
 30
0.0
 11
127.439078
 21
-455.372014
 31
0.0
  0
LINE
  8
0
  6
BYLAYER
 62
     1
 10
191.319082
 20
-454.372014
 30
0.0
 11
191.319082
 21
-454.872014
 31
0.0
  0
ARC
  8
0
  6
BYLAYER
 62
     1
 10
190.819082
 20
-454.872014
 30
0.0
 40
0.5
 50
270.0
 51
360.000016
  0
LINE
  8
0
  6
BYLAYER
 62
     1
 10
180.159765
 20
-454.372014
 30
0.0
 11
180.159765
 21
-455.372014
 31
0.0
  0
LINE
  8
0
  6
BYLAYER
 62
     1
 10
190.819082
 20
-455.372014
 30
0.0
 11
180.199103
 21
-455.372014
 31
0.0
  0
LINE
  8
0
  6
BYLAYER
 62
     1
 10
193.819098
 20
-454.372014
 30
0.0
 11
173.819128
 21
-454.372014
 31
0.0
  0
LINE
  8
0
  6
BYLAYER
 62
     1
 10
116.319094
 20
-398.372014
 30
0.0
 11
116.319094
 21
-397.872014
 31
0.0
  0
ARC
  8
0
  6
BYLAYER
 62
     1
 10
116.819094
 20
-397.872014
 30
0.0
 40
0.500000
 50
90.0
 51
180.000003
  0
LINE
  8
0
  6
BYLAYER
 62
     1
 10
181.319113
 20
-394.872014
 30
0.0
 11
126.319113
 21
-394.872014
 31
0.0
  0
LINE
  8
0
  6
BYLAYER
 62
     1
 10
133.819113
 20
-398.372014
 30
0.0
 11
113.819086
 21
-398.372014
 31
0.0
  0
LINE
  8
0
  6
BYLAYER
 62
     1
 10
127.478415
 20
-398.372014
 30
0.0
 11
127.478415
 21
-397.372014
 31
0.0
  0
LINE
  8
0
  6
BYLAYER
 62
     1
 10
116.819094
 20
-397.372014
 30
0.0
 11
127.439078
 21
-397.372014
 31
0.0
  0
LINE
  8
0
  6
BYLAYER
 62
     1
 10
191.319082
 20
-398.372014
 30
0.0
 11
191.319082
 21
-397.872014
 31
0.0
  0
ARC
  8
0
  6
BYLAYER
 62
     1
 10
190.819082
 20
-397.872014
 30
0.0
 40
0.500000
 50
0.0
 51
90.000023
  0
LINE
  8
0
  6
BYLAYER
 62
     1
 10
180.159765
 20
-398.372014
 30
0.0
 11
180.159765
 21
-397.372014
 31
0.0
  0
LINE
  8
0
  6
BYLAYER
 62
     1
 10
190.819082
 20
-397.372014
 30
0.0
 11
180.199103
 21
-397.372014
 31
0.0
  0
LINE
  8
0
  6
BYLAYER
 62
     1
 10
193.819098
 20
-398.372014
 30
0.0
 11
173.819113
 21
-398.372014
 31
0.0
  0
LINE
  8
0
  6
BYLAYER
 62
     1
 10
123.319113
 20
-424.372014
 30
0.0
 11
123.319113
 21
-410.372010
 31
0.0
  0
LINE
  8
0
  6
BYLAYER
 62
     1
 10
125.819113
 20
-410.372014
 30
0.0
 11
125.819113
 21
-414.122014
 31
0.0
  0
ARC
  8
0
  6
BYLAYER
 62
     1
 10
126.819113
 20
-414.122014
 30
0.0
 40
1.0
 50
180.000000
 51
269.999996
  0
ARC
  8
0
  6
BYLAYER
 62
     1
 10
126.819113
 20
-417.622014
 30
0.0
 40
1.0
 50
90.0
 51
179.999996
  0
ARC
  8
0
  6
BYLAYER
 62
     1
 10
125.819113
 20
-423.372014
 30
0.0
 40
2.0
 50
0.0
 51
70.528868
  0
ARC
  8
0
  6
BYLAYER
 62
     1
 10
126.819113
 20
-420.543584
 30
0.0
 40
1.0
 50
180.000000
 51
250.528656
  0
LINE
  8
0
  6
BYLAYER
 62
     1
 10
125.819113
 20
-424.372014
 30
0.0
 11
125.819113
 21
-417.622014
 31
0.0
  0
ARC
  8
0
  6
BYLAYER
 62
     1
 10
124.819113
 20
-424.372014
 30
0.0
 40
1.0
 50
270.0
 51
360.000003
  0
LINE
  8
0
  6
BYLAYER
 62
     1
 10
124.319113
 20
-425.372014
 30
0.0
 11
124.819113
 21
-425.372014
 31
0.0
  0
ARC
  8
0
  6
BYLAYER
 62
     1
 10
124.319113
 20
-424.372014
 30
0.0
 40
1.0
 50
180.000000
 51
269.999996
  0
LINE
  8
0
  6
BYLAYER
 62
     1
 10
123.319113
 20
-428.371983
 30
0.0
 11
123.319113
 21
-442.372026
 31
0.0
  0
ARC
  8
0
  6
BYLAYER
 62
     1
 10
124.319113
 20
-428.371983
 30
0.0
 40
1.000000
 50
90.0
 51
179.999989
  0
LINE
  8
0
  6
BYLAYER
 62
     1
 10
124.319113
 20
-427.371983
 30
0.0
 11
124.819113
 21
-427.371983
 31
0.0
  0
ARC
  8
0
  6
BYLAYER
 62
     1
 10
124.819113
 20
-428.371983
 30
0.0
 40
1.0
 50
0.0
 51
90.000003
  0
LINE
  8
0
  6
BYLAYER
 62
     1
 10
125.819113
 20
-428.371983
 30
0.0
 11
125.819113
 21
-435.121983
 31
0.0
  0
ARC
  8
0
  6
BYLAYER
 62
     1
 10
126.819113
 20
-435.121983
 30
0.0
 40
1.0
 50
180.000000
 51
270.000009
  0
ARC
  8
0
  6
BYLAYER
 62
     1
 10
126.819113
 20
-438.621983
 30
0.0
 40
1.000000
 50
90.0
 51
179.999989
  0
LINE
  8
0
  6
BYLAYER
 62
     1
 10
125.819113
 20
-442.371983
 30
0.0
 11
125.819113
 21
-438.621983
 31
0.0
  0
ARC
  8
0
  6
BYLAYER
 62
     1
 10
126.819113
 20
-432.200414
 30
0.0
 40
1.0
 50
109.471351
 51
180.000000
  0
ARC
  8
0
  6
BYLAYER
 62
     1
 10
125.819113
 20
-429.371983
 30
0.0
 40
2.000000
 50
289.471118
 51
360.000000
  0
LINE
  8
0
  6
BYLAYER
 62
     1
 10
141.319128
 20
-429.122029
 30
0.0
 11
128.819113
 21
-429.122029
 31
0.0
  0
LINE
  8
0
  6
BYLAYER
 62
     1
 10
127.803412
 20
-430.622014
 30
0.0
 11
141.319128
 21
-430.622014
 31
0.0
  0
LINE
  8
0
  6
BYLAYER
 62
     1
 10
127.803442
 20
-422.122014
 30
0.0
 11
141.319128
 21
-422.122014
 31
0.0
  0
LINE
  8
0
  6
BYLAYER
 62
     1
 10
141.319128
 20
-423.622075
 30
0.0
 11
128.819113
 21
-423.622014
 31
0.0
  0
LINE
  8
0
  6
BYLAYER
 62
     1
 10
126.819113
 20
-415.122014
 30
0.0
 11
141.319128
 21
-415.122014
 31
0.0
  0
LINE
  8
0
  6
BYLAYER
 62
     1
 10
126.819113
 20
-416.622014
 30
0.0
 11
141.319128
 21
-416.622014
 31
0.0
  0
LINE
  8
0
  6
BYLAYER
 62
     1
 10
126.819113
 20
-436.122014
 30
0.0
 11
141.319128
 21
-436.122014
 31
0.0
  0
LINE
  8
0
  6
BYLAYER
 62
     1
 10
141.319128
 20
-437.622014
 30
0.0
 11
126.819113
 21
-437.622014
 31
0.0
  0
ARC
  8
0
  6
BYLAYER
 62
     1
 10
141.319128
 20
-436.872014
 30
0.0
 40
0.75
 50
270.0
 51
450.000005
  0
ARC
  8
0
  6
BYLAYER
 62
     1
 10
141.319128
 20
-429.872014
 30
0.0
 40
0.75
 50
270.0
 51
450.000005
  0
ARC
  8
0
  6
BYLAYER
 62
     1
 10
141.319128
 20
-422.872014
 30
0.0
 40
0.75
 50
270.0
 51
450.000005
  0
ARC
  8
0
  6
BYLAYER
 62
     1
 10
141.319128
 20
-415.872014
 30
0.0
 40
0.75
 50
270.0
 51
450.000005
  0
LINE
  8
0
  6
BYLAYER
 62
     1
 10
134.819113
 20
-410.372014
 30
0.0
 11
134.819113
 21
-399.372014
 31
0.0
  0
ARC
  8
0
  6
BYLAYER
 62
     1
 10
179.834784
 20
-421.122014
 30
0.0
 40
1.0
 50
270.0
 51
311.409634
  0
LINE
  8
0
  6
BYLAYER
 62
     1
 10
184.319113
 20
-424.372014
 30
0.0
 11
184.319113
 21
-410.372010
 31
0.0
  0
ARC
  8
0
  6
BYLAYER
 62
     1
 10
181.819113
 20
-423.372014
 30
0.0
 40
2.0
 50
109.471132
 51
180.0
  0
LINE
  8
0
  6
BYLAYER
 62
     1
 10
181.819113
 20
-424.372014
 30
0.0
 11
181.819113
 21
-417.622014
 31
0.0
  0
LINE
  8
0
  6
BYLAYER
 62
     1
 10
166.319098
 20
-429.122029
 30
0.0
 11
178.819113
 21
-429.122029
 31
0.0
  0
LINE
  8
0
  6
BYLAYER
 62
     1
 10
179.834814
 20
-430.622014
 30
0.0
 11
166.319098
 21
-430.622014
 31
0.0
  0
LINE
  8
0
  6
BYLAYER
 62
     1
 10
179.834784
 20
-422.122014
 30
0.0
 11
166.319098
 21
-422.122014
 31
0.0
  0
LINE
  8
0
  6
BYLAYER
 62
     1
 10
166.319098
 20
-423.622075
 30
0.0
 11
178.819113
 21
-423.622014
 31
0.0
  0
LINE
  8
0
  6
BYLAYER
 62
     1
 10
180.819113
 20
-436.122014
 30
0.0
 11
166.319098
 21
-436.122014
 31
0.0
  0
LINE
  8
0
  6
BYLAYER
 62
     1
 10
166.319098
 20
-437.622014
 30
0.0
 11
180.819113
 21
-437.622014
 31
0.0
  0
ARC
  8
0
  6
BYLAYER
 62
     1
 10
166.319098
 20
-436.872014
 30
0.0
 40
0.75
 50
90.0
 51
270.000005
  0
ARC
  8
0
  6
BYLAYER
 62
     1
 10
166.319098
 20
-429.872014
 30
0.0
 40
0.75
 50
90.0
 51
270.000005
  0
ARC
  8
0
  6
BYLAYER
 62
     1
 10
166.319098
 20
-422.872014
 30
0.0
 40
0.75
 50
90.0
 51
270.000005
  0
LINE
  8
0
  6
BYLAYER
 62
     1
 10
184.319113
 20
-428.371983
 30
0.0
 11
184.319113
 21
-442.372026
 31
0.0
  0
LINE
  8
0
  6
BYLAYER
 62
     1
 10
181.819113
 20
-428.371983
 30
0.0
 11
181.819113
 21
-435.121983
 31
0.0
  0
LINE
  8
0
  6
BYLAYER
 62
     1
 10
181.819113
 20
-442.371983
 30
0.0
 11
181.819113
 21
-438.621983
 31
0.0
  0
ARC
  8
0
  6
BYLAYER
 62
     1
 10
180.819113
 20
-435.121983
 30
0.0
 40
1.0
 50
270.0
 51
360.000009
  0
ARC
  8
0
  6
BYLAYER
 62
     1
 10
180.819113
 20
-438.621983
 30
0.0
 40
1.000000
 50
0.0
 51
89.999989
  0
ARC
  8
0
  6
BYLAYER
 62
     1
 10
182.819113
 20
-424.372014
 30
0.0
 40
1.0
 50
180.000000
 51
270.000003
  0
ARC
  8
0
  6
BYLAYER
 62
     1
 10
182.819113
 20
-428.371983
 30
0.0
 40
1.000000
 50
90.0
 51
180.000003
  0
LINE
  8
0
  6
BYLAYER
 62
     1
 10
179.819113
 20
-423.372014
 30
0.0
 11
179.819113
 21
-429.371999
 31
0.0
  0
ARC
  8
0
  6
BYLAYER
 62
     1
 10
181.819113
 20
-429.371983
 30
0.0
 40
2.000000
 50
180.000000
 51
250.528882
  0
ARC
  8
0
  6
BYLAYER
 62
     1
 10
179.834814
 20
-431.622014
 30
0.0
 40
1.0
 50
48.590988
 51
90.000000
  0
ARC
  8
0
  6
BYLAYER
 62
     1
 10
180.819113
 20
-432.200414
 30
0.0
 40
1.0
 50
0.0
 51
70.528649
  0
ARC
  8
0
  6
BYLAYER
 62
     1
 10
178.819113
 20
-428.122029
 30
0.0
 40
1.0
 50
270.0
 51
359.999996
  0
ARC
  8
0
  6
BYLAYER
 62
     1
 10
178.819113
 20
-424.622014
 30
0.0
 40
1.000000
 50
0.0
 51
90.000003
  0
ARC
  8
0
  6
BYLAYER
 62
     1
 10
183.319113
 20
-428.371983
 30
0.0
 40
1.0
 50
0.0
 51
89.999989
  0
ARC
  8
0
  6
BYLAYER
 62
     1
 10
183.319113
 20
-424.372014
 30
0.0
 40
1.0
 50
270.0
 51
359.999996
  0
LINE
  8
0
  6
BYLAYER
 62
     1
 10
183.319113
 20
-427.371983
 30
0.0
 11
182.819113
 21
-427.371983
 31
0.0
  0
LINE
  8
0
  6
BYLAYER
 62
     1
 10
183.319113
 20
-425.372014
 30
0.0
 11
182.819113
 21
-425.372014
 31
0.0
  0
LINE
  8
0
  6
BYLAYER
 62
     1
 10
180.819113
 20
-415.122014
 30
0.0
 11
166.319098
 21
-415.122014
 31
0.0
  0
LINE
  8
0
  6
BYLAYER
 62
     1
 10
180.819113
 20
-416.622014
 30
0.0
 11
166.319098
 21
-416.622014
 31
0.0
  0
ARC
  8
0
  6
BYLAYER
 62
     1
 10
166.319098
 20
-415.872014
 30
0.0
 40
0.75
 50
90.0
 51
270.000005
  0
LINE
  8
0
  6
BYLAYER
 62
     1
 10
181.819113
 20
-410.372014
 30
0.0
 11
181.819113
 21
-414.122014
 31
0.0
  0
ARC
  8
0
  6
BYLAYER
 62
     1
 10
180.819113
 20
-420.543584
 30
0.0
 40
1.0
 50
289.471344
 51
360.000000
  0
ARC
  8
0
  6
BYLAYER
 62
     1
 10
180.819113
 20
-417.622014
 30
0.0
 40
1.000000
 50
0.0
 51
89.999996
  0
ARC
  8
0
  6
BYLAYER
 62
     1
 10
180.819113
 20
-414.122014
 30
0.0
 40
1.0
 50
270.0
 51
359.999996
  0
ARC
  8
0
  6
BYLAYER
 62
     1
 10
180.819113
 20
-404.371999
 30
0.0
 40
3.25
 50
180.000000
 51
359.999991
  0
LINE
  8
0
  6
BYLAYER
 62
     1
 10
189.819113
 20
-410.371999
 30
0.0
 11
185.819113
 21
-410.371999
 31
0.0
  0
LINE
  8
0
  6
BYLAYER
 62
     1
 10
126.319113
 20
-457.872014
 30
0.0
 11
126.319113
 21
-455.372014
 31
0.0
  0
LINE
  8
0
  6
BYLAYER
 62
     1
 10
181.319113
 20
-457.872014
 30
0.0
 11
181.319113
 21
-455.372014
 31
0.0
  0
LINE
  8
0
  6
BYLAYER
 62
     1
 10
126.319113
 20
-394.872014
 30
0.0
 11
126.319113
 21
-397.372014
 31
0.0
  0
LINE
  8
0
  6
BYLAYER
 62
     1
 10
181.319113
 20
-394.872014
 30
0.0
 11
181.319113
 21
-397.372014
 31
0.0
  0
ARC
  8
0
  6
BYLAYER
 62
     1
 10
204.819113
 20
-147.159642
 30
0.0
 40
2.0
 50
180.000000
 51
266.999903
  0
LINE
  8
0
  6
BYLAYER
 62
     1
 10
194.819113
 20
-109.372014
 30
0.0
 11
194.819113
 21
-135.372014
 31
0.0
  0
LINE
  8
0
  6
BYLAYER
 62
     1
 10
194.819113
 20
-135.372014
 30
0.0
 11
200.923788
 21
-135.691930
 31
0.0
  0
LINE
  8
0
  6
BYLAYER
 62
     1
 10
202.819113
 20
-147.159642
 30
0.0
 11
202.819113
 21
-109.372014
 31
0.0
  0
ARC
  8
0
  6
BYLAYER
 62
     1
 10
200.819113
 20
-137.689183
 30
0.0
 40
1.999995
 50
0.0
 51
86.999897
  0
LINE
  8
0
  6
BYLAYER
 62
     1
 10
208.819113
 20
-149.372014
 30
0.0
 11
204.714438
 21
-149.156896
 31
0.0
  0
LINE
  8
0
  6
BYLAYER
 62
     1
 10
208.819113
 20
-149.372014
 30
0.0
 11
208.819113
 21
-109.372014
 31
0.0
  0
ARC
  8
0
  6
BYLAYER
 62
     1
 10
204.819113
 20
-71.584386
 30
0.0
 40
2.0
 50
93.000097
 51
180.000000
  0
LINE
  8
0
  6
BYLAYER
 62
     1
 10
202.819113
 20
-71.584386
 30
0.0
 11
202.819113
 21
-109.372014
 31
0.0
  0
ARC
  8
0
  6
BYLAYER
 62
     1
 10
200.819113
 20
-81.054845
 30
0.0
 40
1.999995
 50
273.000093
 51
359.999990
  0
LINE
  8
0
  6
BYLAYER
 62
     1
 10
208.819113
 20
-69.372014
 30
0.0
 11
204.714438
 21
-69.587132
 31
0.0
  0
LINE
  8
0
  6
BYLAYER
 62
     1
 10
208.819113
 20
-69.372014
 30
0.0
 11
208.819113
 21
-109.372014
 31
0.0
  0
LINE
  8
0
  6
BYLAYER
 62
     1
 10
194.819113
 20
-83.372014
 30
0.0
 11
200.923788
 21
-83.052098
 31
0.0
  0
LINE
  8
0
  6
BYLAYER
 62
     1
 10
194.819113
 20
-109.372014
 30
0.0
 11
194.819113
 21
-83.372014
 31
0.0
  0
LINE
  8
0
  6
BYLAYER
 62
     1
 10
585.819113
 20
-179.372029
 30
0.0
 11
597.819113
 21
-179.372029
 31
0.0
  0
LINE
  8
0
  6
BYLAYER
 62
     1
 10
589.730765
 20
-159.372029
 30
0.0
 11
585.819113
 21
-159.372029
 31
0.0
  0
LINE
  8
0
  6
BYLAYER
 62
     1
 10
641.819113
 20
-159.372014
 30
0.0
 11
640.819113
 21
-158.372014
 31
0.0
  0
LINE
  8
0
  6
BYLAYER
 62
     1
 10
640.819113
 20
-157.861704
 30
0.0
 11
640.819113
 21
-158.372014
 31
0.0
  0
LINE
  8
0
  6
BYLAYER
 62
     1
 10
585.819113
 20
-159.372029
 30
0.0
 11
586.819113
 21
-158.372029
 31
0.0
  0
LINE
  8
0
  6
BYLAYER
 62
     1
 10
639.881538
 20
-158.372014
 30
0.0
 11
640.819113
 21
-158.372014
 31
0.0
  0
LINE
  8
0
  6
BYLAYER
 62
     1
 10
586.819113
 20
-158.372029
 30
0.0
 11
587.756716
 21
-158.372029
 31
0.0
  0
ARC
  8
0
  6
BYLAYER
 62
     1
 10
591.819113
 20
-166.372029
 30
0.0
 40
3.25
 50
270.0
 51
450.000019
  0
ARC
  8
0
  6
BYLAYER
 62
     1
 10
635.819113
 20
-166.372014
 30
0.0
 40
3.25
 50
90.0
 51
269.999991
  0
LINE
  8
0
  6
BYLAYER
 62
     1
 10
591.819113
 20
-163.122029
 30
0.0
 11
585.819113
 21
-163.122029
 31
0.0
  0
LINE
  8
0
  6
BYLAYER
 62
     1
 10
591.819113
 20
-169.622029
 30
0.0
 11
585.819113
 21
-169.622029
 31
0.0
  0
LINE
  8
0
  6
BYLAYER
 62
     1
 10
635.819113
 20
-169.622014
 30
0.0
 11
641.819113
 21
-169.622014
 31
0.0
  0
LINE
  8
0
  6
BYLAYER
 62
     1
 10
635.819113
 20
-163.122014
 30
0.0
 11
641.819113
 21
-163.122014
 31
0.0
  0
LINE
  8
0
  6
BYLAYER
 62
     1
 10
597.819113
 20
-162.515687
 30
0.0
 11
597.819113
 21
-179.372029
 31
0.0
  0
LINE
  8
0
  6
BYLAYER
 62
     1
 10
641.819113
 20
-159.372014
 30
0.0
 11
637.907482
 21
-159.372019
 31
0.0
  0
LINE
  8
0
  6
BYLAYER
 62
     1
 10
629.819113
 20
-179.372029
 30
0.0
 11
641.819113
 21
-179.372014
 31
0.0
  0
LINE
  8
0
  6
BYLAYER
 62
     1
 10
629.819113
 20
-162.515687
 30
0.0
 11
629.819113
 21
-179.372029
 31
0.0
  0
LINE
  8
0
  6
BYLAYER
 62
     1
 10
586.819113
 20
-157.861704
 30
0.0
 11
586.819113
 21
-158.372029
 31
0.0
  0
LINE
  8
0
  6
BYLAYER
 62
     1
 10
641.819113
 20
-176.872014
 30
0.0
 11
642.319113
 21
-176.872014
 31
0.0
  0
ARC
  8
0
  6
BYLAYER
 62
     1
 10
642.319113
 20
-176.372014
 30
0.0
 40
0.5
 50
270.0
 51
359.999982
  0
ARC
  8
0
  6
BYLAYER
 62
     1
 10
644.319113
 20
-165.571996
 30
0.0
 40
1.0
 50
270.0
 51
359.999982
  0
LINE
  8
0
  6
BYLAYER
 62
     1
 10
642.819113
 20
-166.571996
 30
0.0
 11
644.319113
 21
-166.571996
 31
0.0
  0
LINE
  8
0
  6
BYLAYER
 62
     1
 10
645.319113
 20
-155.066653
 30
0.0
 11
645.319113
 21
-165.571996
 31
0.0
  0
LINE
  8
0
  6
BYLAYER
 62
     1
 10
642.819113
 20
-176.372014
 30
0.0
 11
642.819113
 21
-166.571996
 31
0.0
  0
LINE
  8
0
  6
BYLAYER
 62
     1
 10
641.819113
 20
-179.371999
 30
0.0
 11
641.819113
 21
-157.291217
 31
0.0
  0
LINE
  8
0
  6
BYLAYER
 62
     1
 10
585.819113
 20
-176.872014
 30
0.0
 11
585.319113
 21
-176.872014
 31
0.0
  0
ARC
  8
0
  6
BYLAYER
 62
     1
 10
585.319113
 20
-176.372014
 30
0.0
 40
0.500000
 50
180.000000
 51
269.999982
  0
ARC
  8
0
  6
BYLAYER
 62
     1
 10
583.319113
 20
-165.571996
 30
0.0
 40
1.0
 50
180.000000
 51
269.999982
  0
LINE
  8
0
  6
BYLAYER
 62
     1
 10
584.819113
 20
-166.571996
 30
0.0
 11
583.319113
 21
-166.571996
 31
0.0
  0
LINE
  8
0
  6
BYLAYER
 62
     1
 10
582.319113
 20
-155.066653
 30
0.0
 11
582.319113
 21
-165.571996
 31
0.0
  0
LINE
  8
0
  6
BYLAYER
 62
     1
 10
584.819113
 20
-176.372014
 30
0.0
 11
584.819113
 21
-166.571996
 31
0.0
  0
LINE
  8
0
  6
BYLAYER
 62
     1
 10
585.819113
 20
-179.371999
 30
0.0
 11
585.819113
 21
-157.291217
 31
0.0
  0
LINE
  8
0
  6
BYLAYER
 62
     1
 10
597.819113
 20
-177.371999
 30
0.0
 11
629.819113
 21
-177.371999
 31
0.0
  0
LINE
  8
0
  6
BYLAYER
 62
     7
 10
580.981615
 20
-55.500846
 30
0.0
 11
583.644111
 21
-60.112436
 31
0.0
  0
LINE
  8
0
  6
BYLAYER
 62
     7
 10
580.981615
 20
-51.507157
 30
0.0
 11
580.981615
 21
-65.250605
 31
0.0
  0
LINE
  8
0
  6
BYLAYER
 62
     7
 10
646.656502
 20
-51.507103
 30
0.0
 11
646.656502
 21
-65.250524
 31
0.0
  0
LINE
  8
0
  6
BYLAYER
 62
     7
 10
646.656502
 20
-55.500846
 30
0.0
 11
643.994007
 21
-60.112382
 31
0.0
  0
CIRCLE
  8
0
  6
BYLAYER
 62
     7
 10
613.819113
 20
-109.372014
 30
0.0
 40
44.595492
  0
CIRCLE
  8
0
  6
BYLAYER
 62
     7
 10
613.819113
 20
-109.372014
 30
0.0
 40
40.824930
  0
LINE
  8
0
  6
BYLAYER
 62
     7
 10
614.706611
 20
-99.609531
 30
0.0
 11
621.806599
 21
-99.609531
 31
0.0
  0
LINE
  8
0
  6
BYLAYER
 62
     7
 10
614.706611
 20
-83.634558
 30
0.0
 11
614.706611
 21
-90.734546
 31
0.0
  0
LINE
  8
0
  6
BYLAYER
 62
     7
 10
614.706611
 20
-74.759574
 30
0.0
 11
614.706611
 21
-81.859561
 31
0.0
  0
LINE
  8
0
  6
BYLAYER
 62
     7
 10
614.706611
 20
-92.509543
 30
0.0
 11
614.706611
 21
-99.609531
 31
0.0
  0
LINE
  8
0
  6
BYLAYER
 62
     7
 10
621.806599
 20
-81.859561
 30
0.0
 11
621.806599
 21
-74.759574
 31
0.0
  0
LINE
  8
0
  6
BYLAYER
 62
     7
 10
623.581596
 20
-81.859561
 30
0.0
 11
623.581596
 21
-74.759574
 31
0.0
  0
LINE
  8
0
  6
BYLAYER
 62
     7
 10
614.706611
 20
-92.509543
 30
0.0
 11
621.806599
 21
-92.509543
 31
0.0
  0
LINE
  8
0
  6
BYLAYER
 62
     7
 10
614.706611
 20
-90.734546
 30
0.0
 11
621.806599
 21
-90.734546
 31
0.0
  0
LINE
  8
0
  6
BYLAYER
 62
     7
 10
614.706611
 20
-83.634558
 30
0.0
 11
621.806599
 21
-83.634558
 31
0.0
  0
LINE
  8
0
  6
BYLAYER
 62
     7
 10
623.581596
 20
-81.859561
 30
0.0
 11
630.537808
 21
-81.859561
 31
0.0
  0
LINE
  8
0
  6
BYLAYER
 62
     7
 10
614.706611
 20
-81.859561
 30
0.0
 11
621.806599
 21
-81.859561
 31
0.0
  0
LINE
  8
0
  6
BYLAYER
 62
     7
 10
623.581596
 20
-74.759574
 30
0.0
 11
630.537808
 21
-74.759574
 31
0.0
  0
LINE
  8
0
  6
BYLAYER
 62
     7
 10
614.706611
 20
-74.759574
 30
0.0
 11
621.806599
 21
-74.759574
 31
0.0
  0
LINE
  8
0
  6
BYLAYER
 62
     7
 10
630.537808
 20
-81.859561
 30
0.0
 11
630.537808
 21
-74.759574
 31
0.0
  0
LINE
  8
0
  6
BYLAYER
 62
     7
 10
621.806599
 20
-99.609531
 30
0.0
 11
621.806599
 21
-92.509543
 31
0.0
  0
LINE
  8
0
  6
BYLAYER
 62
     7
 10
621.806599
 20
-90.734546
 30
0.0
 11
621.806599
 21
-83.634558
 31
0.0
  0
LINE
  8
0
  6
BYLAYER
 62
     7
 10
623.581596
 20
-99.609531
 30
0.0
 11
630.681584
 21
-99.609531
 31
0.0
  0
LINE
  8
0
  6
BYLAYER
 62
     7
 10
623.581596
 20
-83.634558
 30
0.0
 11
623.581596
 21
-90.734546
 31
0.0
  0
LINE
  8
0
  6
BYLAYER
 62
     7
 10
623.581596
 20
-92.509543
 30
0.0
 11
623.581596
 21
-99.609531
 31
0.0
  0
LINE
  8
0
  6
BYLAYER
 62
     7
 10
623.581596
 20
-92.509543
 30
0.0
 11
630.681584
 21
-92.509543
 31
0.0
  0
LINE
  8
0
  6
BYLAYER
 62
     7
 10
623.581596
 20
-90.734546
 30
0.0
 11
630.681584
 21
-90.734546
 31
0.0
  0
LINE
  8
0
  6
BYLAYER
 62
     7
 10
623.581596
 20
-83.634558
 30
0.0
 11
630.681584
 21
-83.634558
 31
0.0
  0
LINE
  8
0
  6
BYLAYER
 62
     7
 10
630.681584
 20
-99.609531
 30
0.0
 11
630.681584
 21
-92.509543
 31
0.0
  0
LINE
  8
0
  6
BYLAYER
 62
     7
 10
630.681584
 20
-90.734546
 30
0.0
 11
630.681584
 21
-83.634558
 31
0.0
  0
LINE
  8
0
  6
BYLAYER
 62
     7
 10
632.456581
 20
-99.609531
 30
0.0
 11
639.556569
 21
-99.609531
 31
0.0
  0
LINE
  8
0
  6
BYLAYER
 62
     7
 10
632.456581
 20
-83.634558
 30
0.0
 11
632.456581
 21
-90.734546
 31
0.0
  0
LINE
  8
0
  6
BYLAYER
 62
     7
 10
632.456581
 20
-92.509543
 30
0.0
 11
632.456581
 21
-99.609531
 31
0.0
  0
LINE
  8
0
  6
BYLAYER
 62
     7
 10
632.456581
 20
-92.509543
 30
0.0
 11
639.556569
 21
-92.509543
 31
0.0
  0
LINE
  8
0
  6
BYLAYER
 62
     7
 10
632.456581
 20
-90.734546
 30
0.0
 11
639.556569
 21
-90.734546
 31
0.0
  0
LINE
  8
0
  6
BYLAYER
 62
     7
 10
632.456581
 20
-83.634558
 30
0.0
 11
639.556569
 21
-83.634558
 31
0.0
  0
LINE
  8
0
  6
BYLAYER
 62
     7
 10
639.556569
 20
-99.609531
 30
0.0
 11
639.556569
 21
-92.509543
 31
0.0
  0
LINE
  8
0
  6
BYLAYER
 62
     7
 10
639.556569
 20
-90.734546
 30
0.0
 11
639.556569
 21
-83.634558
 31
0.0
  0
LINE
  8
0
  6
BYLAYER
 62
     7
 10
623.581596
 20
-108.484516
 30
0.0
 11
630.681584
 21
-108.484516
 31
0.0
  0
LINE
  8
0
  6
BYLAYER
 62
     7
 10
623.581596
 20
-101.384528
 30
0.0
 11
623.581596
 21
-108.484516
 31
0.0
  0
LINE
  8
0
  6
BYLAYER
 62
     7
 10
623.581596
 20
-101.384528
 30
0.0
 11
630.681584
 21
-101.384528
 31
0.0
  0
LINE
  8
0
  6
BYLAYER
 62
     7
 10
630.681584
 20
-108.484516
 30
0.0
 11
630.681584
 21
-101.384528
 31
0.0
  0
LINE
  8
0
  6
BYLAYER
 62
     7
 10
632.456581
 20
-108.484516
 30
0.0
 11
639.556569
 21
-108.484516
 31
0.0
  0
LINE
  8
0
  6
BYLAYER
 62
     7
 10
632.456581
 20
-101.384528
 30
0.0
 11
632.456581
 21
-108.484516
 31
0.0
  0
LINE
  8
0
  6
BYLAYER
 62
     7
 10
632.456581
 20
-101.384528
 30
0.0
 11
639.556569
 21
-101.384528
 31
0.0
  0
LINE
  8
0
  6
BYLAYER
 62
     7
 10
639.556569
 20
-108.484516
 30
0.0
 11
639.556569
 21
-101.384528
 31
0.0
  0
LINE
  8
0
  6
BYLAYER
 62
     7
 10
641.331566
 20
-99.609531
 30
0.0
 11
648.431553
 21
-99.609531
 31
0.0
  0
LINE
  8
0
  6
BYLAYER
 62
     7
 10
641.331566
 20
-92.509543
 30
0.0
 11
641.331566
 21
-99.609531
 31
0.0
  0
LINE
  8
0
  6
BYLAYER
 62
     7
 10
641.331566
 20
-92.509543
 30
0.0
 11
648.431553
 21
-92.509543
 31
0.0
  0
LINE
  8
0
  6
BYLAYER
 62
     7
 10
648.431553
 20
-99.609531
 30
0.0
 11
648.431553
 21
-92.509543
 31
0.0
  0
LINE
  8
0
  6
BYLAYER
 62
     7
 10
641.331566
 20
-108.484516
 30
0.0
 11
648.431553
 21
-108.484516
 31
0.0
  0
LINE
  8
0
  6
BYLAYER
 62
     7
 10
641.331566
 20
-101.384528
 30
0.0
 11
641.331566
 21
-108.484516
 31
0.0
  0
LINE
  8
0
  6
BYLAYER
 62
     7
 10
641.331566
 20
-101.384528
 30
0.0
 11
648.431553
 21
-101.384528
 31
0.0
  0
LINE
  8
0
  6
BYLAYER
 62
     7
 10
648.431553
 20
-108.484516
 30
0.0
 11
648.431553
 21
-101.384528
 31
0.0
  0
LINE
  8
0
  6
BYLAYER
 62
     7
 10
614.706611
 20
-119.134497
 30
0.0
 11
621.806599
 21
-119.134497
 31
0.0
  0
LINE
  8
0
  6
BYLAYER
 62
     7
 10
614.706611
 20
-135.109470
 30
0.0
 11
614.706611
 21
-128.009482
 31
0.0
  0
LINE
  8
0
  6
BYLAYER
 62
     7
 10
614.706611
 20
-143.984454
 30
0.0
 11
614.706611
 21
-136.884467
 31
0.0
  0
LINE
  8
0
  6
BYLAYER
 62
     7
 10
614.706611
 20
-126.234485
 30
0.0
 11
614.706611
 21
-119.134497
 31
0.0
  0
LINE
  8
0
  6
BYLAYER
 62
     7
 10
621.806599
 20
-136.884467
 30
0.0
 11
621.806599
 21
-143.984454
 31
0.0
  0
LINE
  8
0
  6
BYLAYER
 62
     7
 10
623.581596
 20
-136.884467
 30
0.0
 11
623.581596
 21
-143.984454
 31
0.0
  0
LINE
  8
0
  6
BYLAYER
 62
     7
 10
614.706611
 20
-126.234485
 30
0.0
 11
621.806599
 21
-126.234485
 31
0.0
  0
LINE
  8
0
  6
BYLAYER
 62
     7
 10
614.706611
 20
-128.009482
 30
0.0
 11
621.806599
 21
-128.009482
 31
0.0
  0
LINE
  8
0
  6
BYLAYER
 62
     7
 10
614.706611
 20
-135.109470
 30
0.0
 11
621.806599
 21
-135.109470
 31
0.0
  0
LINE
  8
0
  6
BYLAYER
 62
     7
 10
623.581596
 20
-136.884467
 30
0.0
 11
630.537808
 21
-136.884467
 31
0.0
  0
LINE
  8
0
  6
BYLAYER
 62
     7
 10
614.706611
 20
-136.884467
 30
0.0
 11
621.806599
 21
-136.884467
 31
0.0
  0
LINE
  8
0
  6
BYLAYER
 62
     7
 10
623.581596
 20
-143.984454
 30
0.0
 11
630.537808
 21
-143.984454
 31
0.0
  0
LINE
  8
0
  6
BYLAYER
 62
     7
 10
614.706611
 20
-143.984454
 30
0.0
 11
621.806599
 21
-143.984454
 31
0.0
  0
LINE
  8
0
  6
BYLAYER
 62
     7
 10
630.537808
 20
-136.884467
 30
0.0
 11
630.537808
 21
-143.984454
 31
0.0
  0
LINE
  8
0
  6
BYLAYER
 62
     7
 10
621.806599
 20
-119.134497
 30
0.0
 11
621.806599
 21
-126.234485
 31
0.0
  0
LINE
  8
0
  6
BYLAYER
 62
     7
 10
621.806599
 20
-128.009482
 30
0.0
 11
621.806599
 21
-135.109470
 31
0.0
  0
LINE
  8
0
  6
BYLAYER
 62
     7
 10
623.581596
 20
-119.134497
 30
0.0
 11
630.681584
 21
-119.134497
 31
0.0
  0
LINE
  8
0
  6
BYLAYER
 62
     7
 10
623.581596
 20
-135.109470
 30
0.0
 11
623.581596
 21
-128.009482
 31
0.0
  0
LINE
  8
0
  6
BYLAYER
 62
     7
 10
623.581596
 20
-126.234485
 30
0.0
 11
623.581596
 21
-119.134497
 31
0.0
  0
LINE
  8
0
  6
BYLAYER
 62
     7
 10
623.581596
 20
-126.234485
 30
0.0
 11
630.681584
 21
-126.234485
 31
0.0
  0
LINE
  8
0
  6
BYLAYER
 62
     7
 10
623.581596
 20
-128.009482
 30
0.0
 11
630.681584
 21
-128.009482
 31
0.0
  0
LINE
  8
0
  6
BYLAYER
 62
     7
 10
623.581596
 20
-135.109470
 30
0.0
 11
630.681584
 21
-135.109470
 31
0.0
  0
LINE
  8
0
  6
BYLAYER
 62
     7
 10
630.681584
 20
-119.134497
 30
0.0
 11
630.681584
 21
-126.234485
 31
0.0
  0
LINE
  8
0
  6
BYLAYER
 62
     7
 10
630.681584
 20
-128.009482
 30
0.0
 11
630.681584
 21
-135.109470
 31
0.0
  0
LINE
  8
0
  6
BYLAYER
 62
     7
 10
632.456581
 20
-119.134497
 30
0.0
 11
639.556569
 21
-119.134497
 31
0.0
  0
LINE
  8
0
  6
BYLAYER
 62
     7
 10
632.456581
 20
-135.109470
 30
0.0
 11
632.456581
 21
-128.009482
 31
0.0
  0
LINE
  8
0
  6
BYLAYER
 62
     7
 10
632.456581
 20
-126.234485
 30
0.0
 11
632.456581
 21
-119.134497
 31
0.0
  0
LINE
  8
0
  6
BYLAYER
 62
     7
 10
632.456581
 20
-126.234485
 30
0.0
 11
639.556569
 21
-126.234485
 31
0.0
  0
LINE
  8
0
  6
BYLAYER
 62
     7
 10
632.456581
 20
-128.009482
 30
0.0
 11
639.556569
 21
-128.009482
 31
0.0
  0
LINE
  8
0
  6
BYLAYER
 62
     7
 10
632.456581
 20
-135.109470
 30
0.0
 11
639.556569
 21
-135.109470
 31
0.0
  0
LINE
  8
0
  6
BYLAYER
 62
     7
 10
639.556569
 20
-119.134497
 30
0.0
 11
639.556569
 21
-126.234485
 31
0.0
  0
LINE
  8
0
  6
BYLAYER
 62
     7
 10
639.556569
 20
-128.009482
 30
0.0
 11
639.556569
 21
-135.109470
 31
0.0
  0
LINE
  8
0
  6
BYLAYER
 62
     7
 10
623.581596
 20
-110.259512
 30
0.0
 11
630.681584
 21
-110.259512
 31
0.0
  0
LINE
  8
0
  6
BYLAYER
 62
     7
 10
623.581596
 20
-117.359500
 30
0.0
 11
623.581596
 21
-110.259512
 31
0.0
  0
LINE
  8
0
  6
BYLAYER
 62
     7
 10
623.581596
 20
-117.359500
 30
0.0
 11
630.681584
 21
-117.359500
 31
0.0
  0
LINE
  8
0
  6
BYLAYER
 62
     7
 10
630.681584
 20
-110.259512
 30
0.0
 11
630.681584
 21
-117.359500
 31
0.0
  0
LINE
  8
0
  6
BYLAYER
 62
     7
 10
632.456581
 20
-110.259512
 30
0.0
 11
639.556569
 21
-110.259512
 31
0.0
  0
LINE
  8
0
  6
BYLAYER
 62
     7
 10
632.456581
 20
-117.359500
 30
0.0
 11
632.456581
 21
-110.259512
 31
0.0
  0
LINE
  8
0
  6
BYLAYER
 62
     7
 10
632.456581
 20
-117.359500
 30
0.0
 11
639.556569
 21
-117.359500
 31
0.0
  0
LINE
  8
0
  6
BYLAYER
 62
     7
 10
639.556569
 20
-110.259512
 30
0.0
 11
639.556569
 21
-117.359500
 31
0.0
  0
LINE
  8
0
  6
BYLAYER
 62
     7
 10
641.331566
 20
-119.134497
 30
0.0
 11
648.431553
 21
-119.134497
 31
0.0
  0
LINE
  8
0
  6
BYLAYER
 62
     7
 10
641.331566
 20
-126.234485
 30
0.0
 11
641.331566
 21
-119.134497
 31
0.0
  0
LINE
  8
0
  6
BYLAYER
 62
     7
 10
641.331566
 20
-126.234485
 30
0.0
 11
648.431553
 21
-126.234485
 31
0.0
  0
LINE
  8
0
  6
BYLAYER
 62
     7
 10
648.431553
 20
-119.134497
 30
0.0
 11
648.431553
 21
-126.234485
 31
0.0
  0
LINE
  8
0
  6
BYLAYER
 62
     7
 10
641.331566
 20
-110.259512
 30
0.0
 11
648.431553
 21
-110.259512
 31
0.0
  0
LINE
  8
0
  6
BYLAYER
 62
     7
 10
641.331566
 20
-117.359500
 30
0.0
 11
641.331566
 21
-110.259512
 31
0.0
  0
LINE
  8
0
  6
BYLAYER
 62
     7
 10
641.331566
 20
-117.359500
 30
0.0
 11
648.431553
 21
-117.359500
 31
0.0
  0
LINE
  8
0
  6
BYLAYER
 62
     7
 10
648.431553
 20
-110.259512
 30
0.0
 11
648.431553
 21
-117.359500
 31
0.0
  0
LINE
  8
0
  6
BYLAYER
 62
     7
 10
612.931615
 20
-99.609531
 30
0.0
 11
605.831627
 21
-99.609531
 31
0.0
  0
LINE
  8
0
  6
BYLAYER
 62
     7
 10
612.931615
 20
-83.634558
 30
0.0
 11
612.931615
 21
-90.734546
 31
0.0
  0
LINE
  8
0
  6
BYLAYER
 62
     7
 10
612.931615
 20
-74.759574
 30
0.0
 11
612.931615
 21
-81.859561
 31
0.0
  0
LINE
  8
0
  6
BYLAYER
 62
     7
 10
612.931615
 20
-92.509543
 30
0.0
 11
612.931615
 21
-99.609531
 31
0.0
  0
LINE
  8
0
  6
BYLAYER
 62
     7
 10
605.831627
 20
-81.859561
 30
0.0
 11
605.831627
 21
-74.759574
 31
0.0
  0
LINE
  8
0
  6
BYLAYER
 62
     7
 10
604.056630
 20
-81.859561
 30
0.0
 11
604.056630
 21
-74.759574
 31
0.0
  0
LINE
  8
0
  6
BYLAYER
 62
     7
 10
612.931615
 20
-92.509543
 30
0.0
 11
605.831627
 21
-92.509543
 31
0.0
  0
LINE
  8
0
  6
BYLAYER
 62
     7
 10
612.931615
 20
-90.734546
 30
0.0
 11
605.831627
 21
-90.734546
 31
0.0
  0
LINE
  8
0
  6
BYLAYER
 62
     7
 10
612.931615
 20
-83.634558
 30
0.0
 11
605.831627
 21
-83.634558
 31
0.0
  0
LINE
  8
0
  6
BYLAYER
 62
     7
 10
604.056630
 20
-81.859561
 30
0.0
 11
597.100418
 21
-81.859561
 31
0.0
  0
LINE
  8
0
  6
BYLAYER
 62
     7
 10
612.931615
 20
-81.859561
 30
0.0
 11
605.831627
 21
-81.859561
 31
0.0
  0
LINE
  8
0
  6
BYLAYER
 62
     7
 10
604.056630
 20
-74.759574
 30
0.0
 11
597.100418
 21
-74.759574
 31
0.0
  0
LINE
  8
0
  6
BYLAYER
 62
     7
 10
612.931615
 20
-74.759574
 30
0.0
 11
605.831627
 21
-74.759574
 31
0.0
  0
LINE
  8
0
  6
BYLAYER
 62
     7
 10
597.100418
 20
-81.859561
 30
0.0
 11
597.100418
 21
-74.759574
 31
0.0
  0
LINE
  8
0
  6
BYLAYER
 62
     7
 10
605.831627
 20
-99.609531
 30
0.0
 11
605.831627
 21
-92.509543
 31
0.0
  0
LINE
  8
0
  6
BYLAYER
 62
     7
 10
605.831627
 20
-90.734546
 30
0.0
 11
605.831627
 21
-83.634558
 31
0.0
  0
LINE
  8
0
  6
BYLAYER
 62
     7
 10
604.056630
 20
-99.609531
 30
0.0
 11
596.956642
 21
-99.609531
 31
0.0
  0
LINE
  8
0
  6
BYLAYER
 62
     7
 10
604.056630
 20
-83.634558
 30
0.0
 11
604.056630
 21
-90.734546
 31
0.0
  0
LINE
  8
0
  6
BYLAYER
 62
     7
 10
604.056630
 20
-92.509543
 30
0.0
 11
604.056630
 21
-99.609531
 31
0.0
  0
LINE
  8
0
  6
BYLAYER
 62
     7
 10
604.056630
 20
-92.509543
 30
0.0
 11
596.956642
 21
-92.509543
 31
0.0
  0
LINE
  8
0
  6
BYLAYER
 62
     7
 10
604.056630
 20
-90.734546
 30
0.0
 11
596.956642
 21
-90.734546
 31
0.0
  0
LINE
  8
0
  6
BYLAYER
 62
     7
 10
604.056630
 20
-83.634558
 30
0.0
 11
596.956642
 21
-83.634558
 31
0.0
  0
LINE
  8
0
  6
BYLAYER
 62
     7
 10
596.956642
 20
-99.609531
 30
0.0
 11
596.956642
 21
-92.509543
 31
0.0
  0
LINE
  8
0
  6
BYLAYER
 62
     7
 10
596.956642
 20
-90.734546
 30
0.0
 11
596.956642
 21
-83.634558
 31
0.0
  0
LINE
  8
0
  6
BYLAYER
 62
     7
 10
595.181645
 20
-99.609531
 30
0.0
 11
588.081657
 21
-99.609531
 31
0.0
  0
LINE
  8
0
  6
BYLAYER
 62
     7
 10
595.181645
 20
-83.634558
 30
0.0
 11
595.181645
 21
-90.734546
 31
0.0
  0
LINE
  8
0
  6
BYLAYER
 62
     7
 10
595.181645
 20
-92.509543
 30
0.0
 11
595.181645
 21
-99.609531
 31
0.0
  0
LINE
  8
0
  6
BYLAYER
 62
     7
 10
595.181645
 20
-92.509543
 30
0.0
 11
588.081657
 21
-92.509543
 31
0.0
  0
LINE
  8
0
  6
BYLAYER
 62
     7
 10
595.181645
 20
-90.734546
 30
0.0
 11
588.081657
 21
-90.734546
 31
0.0
  0
LINE
  8
0
  6
BYLAYER
 62
     7
 10
595.181645
 20
-83.634558
 30
0.0
 11
588.081657
 21
-83.634558
 31
0.0
  0
LINE
  8
0
  6
BYLAYER
 62
     7
 10
588.081657
 20
-99.609531
 30
0.0
 11
588.081657
 21
-92.509543
 31
0.0
  0
LINE
  8
0
  6
BYLAYER
 62
     7
 10
588.081657
 20
-90.734546
 30
0.0
 11
588.081657
 21
-83.634558
 31
0.0
  0
LINE
  8
0
  6
BYLAYER
 62
     7
 10
604.056630
 20
-108.484516
 30
0.0
 11
596.956642
 21
-108.484516
 31
0.0
  0
LINE
  8
0
  6
BYLAYER
 62
     7
 10
604.056630
 20
-101.384528
 30
0.0
 11
604.056630
 21
-108.484516
 31
0.0
  0
LINE
  8
0
  6
BYLAYER
 62
     7
 10
604.056630
 20
-101.384528
 30
0.0
 11
596.956642
 21
-101.384528
 31
0.0
  0
LINE
  8
0
  6
BYLAYER
 62
     7
 10
596.956642
 20
-108.484516
 30
0.0
 11
596.956642
 21
-101.384528
 31
0.0
  0
LINE
  8
0
  6
BYLAYER
 62
     7
 10
595.181645
 20
-108.484516
 30
0.0
 11
588.081657
 21
-108.484516
 31
0.0
  0
LINE
  8
0
  6
BYLAYER
 62
     7
 10
595.181645
 20
-101.384528
 30
0.0
 11
595.181645
 21
-108.484516
 31
0.0
  0
LINE
  8
0
  6
BYLAYER
 62
     7
 10
595.181645
 20
-101.384528
 30
0.0
 11
588.081657
 21
-101.384528
 31
0.0
  0
LINE
  8
0
  6
BYLAYER
 62
     7
 10
588.081657
 20
-108.484516
 30
0.0
 11
588.081657
 21
-101.384528
 31
0.0
  0
LINE
  8
0
  6
BYLAYER
 62
     7
 10
586.306660
 20
-99.609531
 30
0.0
 11
579.206673
 21
-99.609531
 31
0.0
  0
LINE
  8
0
  6
BYLAYER
 62
     7
 10
586.306660
 20
-92.509543
 30
0.0
 11
586.306660
 21
-99.609531
 31
0.0
  0
LINE
  8
0
  6
BYLAYER
 62
     7
 10
586.306660
 20
-92.509543
 30
0.0
 11
579.206673
 21
-92.509543
 31
0.0
  0
LINE
  8
0
  6
BYLAYER
 62
     7
 10
579.206673
 20
-99.609531
 30
0.0
 11
579.206673
 21
-92.509543
 31
0.0
  0
LINE
  8
0
  6
BYLAYER
 62
     7
 10
586.306660
 20
-108.484516
 30
0.0
 11
579.206673
 21
-108.484516
 31
0.0
  0
LINE
  8
0
  6
BYLAYER
 62
     7
 10
586.306660
 20
-101.384528
 30
0.0
 11
586.306660
 21
-108.484516
 31
0.0
  0
LINE
  8
0
  6
BYLAYER
 62
     7
 10
586.306660
 20
-101.384528
 30
0.0
 11
579.206673
 21
-101.384528
 31
0.0
  0
LINE
  8
0
  6
BYLAYER
 62
     7
 10
579.206673
 20
-108.484516
 30
0.0
 11
579.206673
 21
-101.384528
 31
0.0
  0
LINE
  8
0
  6
BYLAYER
 62
     7
 10
612.931615
 20
-119.134497
 30
0.0
 11
605.831627
 21
-119.134497
 31
0.0
  0
LINE
  8
0
  6
BYLAYER
 62
     7
 10
612.931615
 20
-135.109470
 30
0.0
 11
612.931615
 21
-128.009482
 31
0.0
  0
LINE
  8
0
  6
BYLAYER
 62
     7
 10
612.931615
 20
-143.984454
 30
0.0
 11
612.931615
 21
-136.884467
 31
0.0
  0
LINE
  8
0
  6
BYLAYER
 62
     7
 10
612.931615
 20
-126.234485
 30
0.0
 11
612.931615
 21
-119.134497
 31
0.0
  0
LINE
  8
0
  6
BYLAYER
 62
     7
 10
605.831627
 20
-136.884467
 30
0.0
 11
605.831627
 21
-143.984454
 31
0.0
  0
LINE
  8
0
  6
BYLAYER
 62
     7
 10
604.056630
 20
-136.884467
 30
0.0
 11
604.056630
 21
-143.984454
 31
0.0
  0
LINE
  8
0
  6
BYLAYER
 62
     7
 10
612.931615
 20
-126.234485
 30
0.0
 11
605.831627
 21
-126.234485
 31
0.0
  0
LINE
  8
0
  6
BYLAYER
 62
     7
 10
612.931615
 20
-128.009482
 30
0.0
 11
605.831627
 21
-128.009482
 31
0.0
  0
LINE
  8
0
  6
BYLAYER
 62
     7
 10
612.931615
 20
-135.109470
 30
0.0
 11
605.831627
 21
-135.109470
 31
0.0
  0
LINE
  8
0
  6
BYLAYER
 62
     7
 10
604.056630
 20
-136.884467
 30
0.0
 11
597.100418
 21
-136.884467
 31
0.0
  0
LINE
  8
0
  6
BYLAYER
 62
     7
 10
612.931615
 20
-136.884467
 30
0.0
 11
605.831627
 21
-136.884467
 31
0.0
  0
LINE
  8
0
  6
BYLAYER
 62
     7
 10
604.056630
 20
-143.984454
 30
0.0
 11
597.100418
 21
-143.984454
 31
0.0
  0
LINE
  8
0
  6
BYLAYER
 62
     7
 10
612.931615
 20
-143.984454
 30
0.0
 11
605.831627
 21
-143.984454
 31
0.0
  0
LINE
  8
0
  6
BYLAYER
 62
     7
 10
597.100418
 20
-136.884467
 30
0.0
 11
597.100418
 21
-143.984454
 31
0.0
  0
LINE
  8
0
  6
BYLAYER
 62
     7
 10
605.831627
 20
-119.134497
 30
0.0
 11
605.831627
 21
-126.234485
 31
0.0
  0
LINE
  8
0
  6
BYLAYER
 62
     7
 10
605.831627
 20
-128.009482
 30
0.0
 11
605.831627
 21
-135.109470
 31
0.0
  0
LINE
  8
0
  6
BYLAYER
 62
     7
 10
604.056630
 20
-119.134497
 30
0.0
 11
596.956642
 21
-119.134497
 31
0.0
  0
LINE
  8
0
  6
BYLAYER
 62
     7
 10
604.056630
 20
-135.109470
 30
0.0
 11
604.056630
 21
-128.009482
 31
0.0
  0
LINE
  8
0
  6
BYLAYER
 62
     7
 10
604.056630
 20
-126.234485
 30
0.0
 11
604.056630
 21
-119.134497
 31
0.0
  0
LINE
  8
0
  6
BYLAYER
 62
     7
 10
604.056630
 20
-126.234485
 30
0.0
 11
596.956642
 21
-126.234485
 31
0.0
  0
LINE
  8
0
  6
BYLAYER
 62
     7
 10
604.056630
 20
-128.009482
 30
0.0
 11
596.956642
 21
-128.009482
 31
0.0
  0
LINE
  8
0
  6
BYLAYER
 62
     7
 10
604.056630
 20
-135.109470
 30
0.0
 11
596.956642
 21
-135.109470
 31
0.0
  0
LINE
  8
0
  6
BYLAYER
 62
     7
 10
596.956642
 20
-119.134497
 30
0.0
 11
596.956642
 21
-126.234485
 31
0.0
  0
LINE
  8
0
  6
BYLAYER
 62
     7
 10
596.956642
 20
-128.009482
 30
0.0
 11
596.956642
 21
-135.109470
 31
0.0
  0
LINE
  8
0
  6
BYLAYER
 62
     7
 10
595.181645
 20
-119.134497
 30
0.0
 11
588.081657
 21
-119.134497
 31
0.0
  0
LINE
  8
0
  6
BYLAYER
 62
     7
 10
595.181645
 20
-135.109470
 30
0.0
 11
595.181645
 21
-128.009482
 31
0.0
  0
LINE
  8
0
  6
BYLAYER
 62
     7
 10
595.181645
 20
-126.234485
 30
0.0
 11
595.181645
 21
-119.134497
 31
0.0
  0
LINE
  8
0
  6
BYLAYER
 62
     7
 10
595.181645
 20
-126.234485
 30
0.0
 11
588.081657
 21
-126.234485
 31
0.0
  0
LINE
  8
0
  6
BYLAYER
 62
     7
 10
595.181645
 20
-128.009482
 30
0.0
 11
588.081657
 21
-128.009482
 31
0.0
  0
LINE
  8
0
  6
BYLAYER
 62
     7
 10
595.181645
 20
-135.109470
 30
0.0
 11
588.081657
 21
-135.109470
 31
0.0
  0
LINE
  8
0
  6
BYLAYER
 62
     7
 10
588.081657
 20
-119.134497
 30
0.0
 11
588.081657
 21
-126.234485
 31
0.0
  0
LINE
  8
0
  6
BYLAYER
 62
     7
 10
588.081657
 20
-128.009482
 30
0.0
 11
588.081657
 21
-135.109470
 31
0.0
  0
LINE
  8
0
  6
BYLAYER
 62
     7
 10
604.056630
 20
-110.259512
 30
0.0
 11
596.956642
 21
-110.259512
 31
0.0
  0
LINE
  8
0
  6
BYLAYER
 62
     7
 10
604.056630
 20
-117.359500
 30
0.0
 11
604.056630
 21
-110.259512
 31
0.0
  0
LINE
  8
0
  6
BYLAYER
 62
     7
 10
604.056630
 20
-117.359500
 30
0.0
 11
596.956642
 21
-117.359500
 31
0.0
  0
LINE
  8
0
  6
BYLAYER
 62
     7
 10
596.956642
 20
-110.259512
 30
0.0
 11
596.956642
 21
-117.359500
 31
0.0
  0
LINE
  8
0
  6
BYLAYER
 62
     7
 10
595.181645
 20
-110.259512
 30
0.0
 11
588.081657
 21
-110.259512
 31
0.0
  0
LINE
  8
0
  6
BYLAYER
 62
     7
 10
595.181645
 20
-117.359500
 30
0.0
 11
595.181645
 21
-110.259512
 31
0.0
  0
LINE
  8
0
  6
BYLAYER
 62
     7
 10
595.181645
 20
-117.359500
 30
0.0
 11
588.081657
 21
-117.359500
 31
0.0
  0
LINE
  8
0
  6
BYLAYER
 62
     7
 10
588.081657
 20
-110.259512
 30
0.0
 11
588.081657
 21
-117.359500
 31
0.0
  0
LINE
  8
0
  6
BYLAYER
 62
     7
 10
586.306660
 20
-119.134497
 30
0.0
 11
579.206673
 21
-119.134497
 31
0.0
  0
LINE
  8
0
  6
BYLAYER
 62
     7
 10
586.306660
 20
-126.234485
 30
0.0
 11
586.306660
 21
-119.134497
 31
0.0
  0
LINE
  8
0
  6
BYLAYER
 62
     7
 10
586.306660
 20
-126.234485
 30
0.0
 11
579.206673
 21
-126.234485
 31
0.0
  0
LINE
  8
0
  6
BYLAYER
 62
     7
 10
579.206673
 20
-119.134497
 30
0.0
 11
579.206673
 21
-126.234485
 31
0.0
  0
LINE
  8
0
  6
BYLAYER
 62
     7
 10
586.306660
 20
-110.259512
 30
0.0
 11
579.206673
 21
-110.259512
 31
0.0
  0
LINE
  8
0
  6
BYLAYER
 62
     7
 10
586.306660
 20
-117.359500
 30
0.0
 11
586.306660
 21
-110.259512
 31
0.0
  0
LINE
  8
0
  6
BYLAYER
 62
     7
 10
586.306660
 20
-117.359500
 30
0.0
 11
579.206673
 21
-117.359500
 31
0.0
  0
LINE
  8
0
  6
BYLAYER
 62
     7
 10
579.206673
 20
-110.259512
 30
0.0
 11
579.206673
 21
-117.359500
 31
0.0
  0
LINE
  8
0
  6
BYLAYER
 62
     7
 10
583.644111
 20
-60.112436
 30
0.0
 11
583.644111
 21
-63.388656
 31
0.0
  0
LINE
  8
0
  6
BYLAYER
 62
     7
 10
643.994007
 20
-60.112382
 30
0.0
 11
643.994007
 21
-63.388585
 31
0.0
  0
CIRCLE
  8
0
  6
BYLAYER
 62
     7
 10
613.819113
 20
-109.372014
 30
0.0
 40
3.549994
  0
LINE
  8
0
  6
BYLAYER
 62
     7
 10
646.656502
 20
-49.732106
 30
0.0
 11
580.981615
 21
-49.732106
 31
0.0
  0
LINE
  8
0
  6
BYLAYER
 62
     7
 10
580.981615
 20
-51.507157
 30
0.0
 11
646.656502
 21
-51.507157
 31
0.0
  0
CIRCLE
  8
0
  6
BYLAYER
 62
     7
 10
613.819113
 20
-109.372014
 30
0.0
 40
55.0
  0
ARC
  8
0
  6
BYLAYER
 62
     7
 10
582.312863
 20
-0.694001
 30
0.0
 40
1.331248
 50
94.780192
 51
180.000000
  0
LINE
  8
0
  6
BYLAYER
 62
     7
 10
582.312863
 20
0.627986
 30
0.0
 11
645.547129
 21
0.627986
 31
0.0
  0
ARC
  8
0
  6
BYLAYER
 62
     7
 10
645.325255
 20
-0.694001
 30
0.0
 40
1.331248
 50
0.0
 51
85.219808
  0
LINE
  8
0
  6
BYLAYER
 62
     7
 10
646.656502
 20
-51.507157
 30
0.0
 11
646.656502
 21
-0.694001
 31
0.0
  0
LINE
  8
0
  6
BYLAYER
 62
     7
 10
580.981615
 20
-0.694001
 30
0.0
 11
580.981615
 21
-51.507157
 31
0.0
  0
ARC
  8
0
  6
BYLAYER
 62
     1
 10
613.819113
 20
-426.372014
 30
0.0
 40
39.999969
 50
321.952551
 51
578.047461
  0
LINE
  8
0
  6
BYLAYER
 62
     7
 10
583.644111
 20
-394.933908
 30
0.0
 11
583.644111
 21
-377.112436
 31
0.0
  0
LINE
  8
0
  6
BYLAYER
 62
     7
 10
580.981615
 20
-372.500846
 30
0.0
 11
583.644111
 21
-377.112436
 31
0.0
  0
LINE
  8
0
  6
BYLAYER
 62
     7
 10
580.981615
 20
-368.507157
 30
0.0
 11
580.981615
 21
-389.363317
 31
0.0
  0
LINE
  8
0
  6
BYLAYER
 62
     7
 10
580.981615
 20
-389.363317
 30
0.0
 11
583.644111
 21
-390.900513
 31
0.0
  0
LINE
  8
0
  6
BYLAYER
 62
     7
 10
646.656502
 20
-368.507103
 30
0.0
 11
646.656502
 21
-389.363317
 31
0.0
  0
LINE
  8
0
  6
BYLAYER
 62
     7
 10
646.656502
 20
-372.500846
 30
0.0
 11
643.994007
 21
-377.112382
 31
0.0
  0
LINE
  8
0
  6
BYLAYER
 62
     7
 10
646.656502
 20
-389.363317
 30
0.0
 11
643.994007
 21
-390.900513
 31
0.0
  0
ARC
  8
0
  6
BYLAYER
 62
     7
 10
561.603121
 20
-432.584503
 30
0.0
 40
0.443771
 50
90.0
 51
186.785003
  0
ARC
  8
0
  6
BYLAYER
 62
     7
 10
613.819113
 20
-426.372014
 30
0.0
 40
53.028034
 50
186.785006
 51
193.667528
  0
ARC
  8
0
  6
BYLAYER
 62
     7
 10
562.723869
 20
-438.796993
 30
0.0
 40
0.443752
 50
193.667500
 51
270.000001
  0
LINE
  8
0
  6
BYLAYER
 62
     7
 10
570.585739
 20
-431.827091
 30
0.0
 11
561.603121
 21
-432.140754
 31
0.0
  0
LINE
  8
0
  6
BYLAYER
 62
     7
 10
572.291182
 20
-439.574854
 30
0.0
 11
562.723869
 21
-439.240742
 31
0.0
  0
ARC
  8
0
  6
BYLAYER
 62
     7
 10
666.035051
 20
-432.584503
 30
0.0
 40
0.443771
 50
353.214982
 51
449.999996
  0
ARC
  8
0
  6
BYLAYER
 62
     7
 10
613.819113
 20
-426.372014
 30
0.0
 40
53.027980
 50
346.332474
 51
353.214982
  0
ARC
  8
0
  6
BYLAYER
 62
     7
 10
664.914302
 20
-438.796993
 30
0.0
 40
0.443752
 50
270.0
 51
346.3325
  0
LINE
  8
0
  6
BYLAYER
 62
     7
 10
657.052487
 20
-431.827091
 30
0.0
 11
666.035051
 21
-432.140754
 31
0.0
  0
LINE
  8
0
  6
BYLAYER
 62
     7
 10
655.346989
 20
-439.574854
 30
0.0
 11
664.914302
 21
-439.240742
 31
0.0
  0
LINE
  8
0
  6
BYLAYER
 62
     7
 10
577.285860
 20
-397.612924
 30
0.0
 11
581.201431
 21
-397.476203
 31
0.0
  0
LINE
  8
0
  6
BYLAYER
 62
     7
 10
565.560029
 20
-407.180238
 30
0.0
 11
568.607392
 21
-407.073820
 31
0.0
  0
LINE
  8
0
  6
BYLAYER
 62
     7
 10
565.560029
 20
-408.288934
 30
0.0
 11
569.976728
 21
-408.443163
 31
0.0
  0
ARC
  8
0
  6
BYLAYER
 62
     7
 10
565.579381
 20
-407.734573
 30
0.0
 40
0.554686
 50
92.000025
 51
267.999985
  0
LINE
  8
0
  6
BYLAYER
 62
     7
 10
562.990433
 20
-416.498972
 30
0.0
 11
571.445936
 21
-416.203700
 31
0.0
  0
LINE
  8
0
  6
BYLAYER
 62
     7
 10
562.990433
 20
-417.607668
 30
0.0
 11
571.076398
 21
-417.890022
 31
0.0
  0
ARC
  8
0
  6
BYLAYER
 62
     7
 10
563.009798
 20
-417.053307
 30
0.0
 40
0.554687
 50
92.000025
 51
267.999985
  0
LINE
  8
0
  6
BYLAYER
 62
     7
 10
562.161707
 20
-425.817680
 30
0.0
 11
570.250976
 21
-425.535217
 31
0.0
  0
LINE
  8
0
  6
BYLAYER
 62
     7
 10
562.161707
 20
-426.926402
 30
0.0
 11
570.250976
 21
-427.208865
 31
0.0
  0
ARC
  8
0
  6
BYLAYER
 62
     7
 10
562.181072
 20
-426.372041
 30
0.0
 40
0.554687
 50
92.000025
 51
267.999985
  0
LINE
  8
0
  6
BYLAYER
 62
     7
 10
565.560029
 20
-444.455148
 30
0.0
 11
574.038445
 21
-444.159089
 31
0.0
  0
LINE
  8
0
  6
BYLAYER
 62
     7
 10
565.560029
 20
-445.563844
 30
0.0
 11
574.857691
 21
-445.888530
 31
0.0
  0
ARC
  8
0
  6
BYLAYER
 62
     7
 10
565.579381
 20
-445.009509
 30
0.0
 40
0.554687
 50
92.000018
 51
267.999985
  0
LINE
  8
0
  6
BYLAYER
 62
     7
 10
570.168965
 20
-453.773882
 30
0.0
 11
579.671006
 21
-453.442072
 31
0.0
  0
LINE
  8
0
  6
BYLAYER
 62
     7
 10
570.168965
 20
-454.882578
 30
0.0
 11
581.201377
 21
-455.267825
 31
0.0
  0
ARC
  8
0
  6
BYLAYER
 62
     7
 10
570.188330
 20
-454.328243
 30
0.0
 40
0.554686
 50
92.000025
 51
267.999985
  0
LINE
  8
0
  6
BYLAYER
 62
     7
 10
562.990433
 20
-435.136414
 30
0.0
 11
571.076398
 21
-434.854060
 31
0.0
  0
LINE
  8
0
  6
BYLAYER
 62
     7
 10
562.990433
 20
-436.245110
 30
0.0
 11
571.445882
 21
-436.540382
 31
0.0
  0
ARC
  8
0
  6
BYLAYER
 62
     7
 10
563.009798
 20
-435.690775
 30
0.0
 40
0.554687
 50
92.000025
 51
267.999985
  0
LINE
  8
0
  6
BYLAYER
 62
     7
 10
657.469260
 20
-454.882524
 30
0.0
 11
646.436848
 21
-455.267771
 31
0.0
  0
LINE
  8
0
  6
BYLAYER
 62
     7
 10
657.469260
 20
-453.773828
 30
0.0
 11
647.967274
 21
-453.442018
 31
0.0
  0
ARC
  8
0
  6
BYLAYER
 62
     7
 10
657.449895
 20
-454.328188
 30
0.0
 40
0.554687
 50
272.000017
 51
447.999973
  0
LINE
  8
0
  6
BYLAYER
 62
     7
 10
662.078197
 20
-445.563790
 30
0.0
 11
652.780480
 21
-445.888476
 31
0.0
  0
LINE
  8
0
  6
BYLAYER
 62
     7
 10
662.078197
 20
-444.455094
 30
0.0
 11
653.599780
 21
-444.159035
 31
0.0
  0
ARC
  8
0
  6
BYLAYER
 62
     7
 10
662.058831
 20
-445.009454
 30
0.0
 40
0.554686
 50
272.000017
 51
447.999980
  0
LINE
  8
0
  6
BYLAYER
 62
     7
 10
665.476464
 20
-426.926348
 30
0.0
 11
657.387249
 21
-427.208811
 31
0.0
  0
LINE
  8
0
  6
BYLAYER
 62
     7
 10
665.476464
 20
-425.817626
 30
0.0
 11
657.387249
 21
-425.535163
 31
0.0
  0
ARC
  8
0
  6
BYLAYER
 62
     7
 10
665.457099
 20
-426.371986
 30
0.0
 40
0.554687
 50
272.000017
 51
447.999980
  0
LINE
  8
0
  6
BYLAYER
 62
     7
 10
664.647738
 20
-436.245110
 30
0.0
 11
656.192290
 21
-436.540382
 31
0.0
  0
LINE
  8
0
  6
BYLAYER
 62
     7
 10
664.647738
 20
-435.136414
 30
0.0
 11
656.561773
 21
-434.854060
 31
0.0
  0
ARC
  8
0
  6
BYLAYER
 62
     7
 10
664.628373
 20
-435.690775
 30
0.0
 40
0.554686
 50
272.000017
 51
447.999980
  0
LINE
  8
0
  6
BYLAYER
 62
     7
 10
664.647738
 20
-417.607614
 30
0.0
 11
656.561773
 21
-417.889968
 31
0.0
  0
LINE
  8
0
  6
BYLAYER
 62
     7
 10
664.647738
 20
-416.498918
 30
0.0
 11
656.192290
 21
-416.203645
 31
0.0
  0
ARC
  8
0
  6
BYLAYER
 62
     7
 10
664.628373
 20
-417.053253
 30
0.0
 40
0.554687
 50
272.000017
 51
447.999973
  0
LINE
  8
0
  6
BYLAYER
 62
     7
 10
662.078143
 20
-408.288880
 30
0.0
 11
657.661572
 21
-408.443104
 31
0.0
  0
LINE
  8
0
  6
BYLAYER
 62
     7
 10
662.078143
 20
-407.180184
 30
0.0
 11
659.030909
 21
-407.073771
 31
0.0
  0
ARC
  8
0
  6
BYLAYER
 62
     7
 10
662.058804
 20
-407.734519
 30
0.0
 40
0.554687
 50
272.000017
 51
447.999973
  0
LINE
  8
0
  6
BYLAYER
 62
     7
 10
650.352335
 20
-397.612932
 30
0.0
 11
646.436794
 21
-397.476203
 31
0.0
  0
LINE
  8
0
  6
BYLAYER
 62
     7
 10
643.994007
 20
-377.112382
 30
0.0
 11
643.994007
 21
-394.933854
 31
0.0
  0
LINE
  8
0
  6
BYLAYER
 62
     7
 10
665.204538
 20
-419.287004
 30
0.0
 11
656.862409
 21
-419.578350
 31
0.0
  0
ARC
  8
0
  6
BYLAYER
 62
     7
 10
665.189046
 20
-418.843525
 30
0.0
 40
0.443749
 50
272.000290
 51
368.337508
  0
ARC
  8
0
  6
BYLAYER
 62
     7
 10
613.819113
 20
-426.372014
 30
0.0
 40
52.362410
 50
8.337584
 51
12.355621
  0
LINE
  8
0
  6
BYLAYER
 62
     7
 10
655.750166
 20
-414.511743
 30
0.0
 11
664.550722
 21
-414.819042
 31
0.0
  0
ARC
  8
0
  6
BYLAYER
 62
     7
 10
664.535258
 20
-415.262520
 30
0.0
 40
0.443748
 50
12.355582
 51
88.000150
  0
LINE
  8
0
  6
BYLAYER
 62
     7
 10
571.951546
 20
-414.289381
 30
0.0
 11
563.136593
 21
-414.597194
 31
0.0
  0
ARC
  8
0
  6
BYLAYER
 62
     7
 10
563.152072
 20
-415.040672
 30
0.0
 40
0.443748
 50
91.999848
 51
167.393689
  0
ARC
  8
0
  6
BYLAYER
 62
     7
 10
613.819113
 20
-426.372014
 30
0.0
 40
52.362410
 50
167.393634
 51
171.909865
  0
LINE
  8
0
  6
BYLAYER
 62
     7
 10
562.401661
 20
-419.508932
 30
0.0
 11
570.741311
 21
-419.800170
 31
0.0
  0
ARC
  8
0
  6
BYLAYER
 62
     7
 10
562.417153
 20
-419.065454
 30
0.0
 40
0.443751
 50
171.909946
 51
267.999711
  0
ARC
  8
0
  6
BYLAYER
 62
     7
 10
567.982991
 20
-403.939223
 30
0.0
 40
1.774998
 50
153.922274
 51
224.999982
  0
ARC
  8
0
  6
BYLAYER
 62
     7
 10
613.819113
 20
-426.372014
 30
0.0
 40
52.806159
 50
146.077720
 51
153.922274
  0
ARC
  8
0
  6
BYLAYER
 62
     7
 10
571.473670
 20
-397.893166
 30
0.0
 40
1.774996
 50
75.000067
 51
146.077720
  0
LINE
  8
0
  6
BYLAYER
 62
     7
 10
571.933074
 20
-396.178649
 30
0.0
 11
579.149172
 21
-398.112197
 31
0.0
  0
ARC
  8
0
  6
BYLAYER
 62
     7
 10
579.608576
 20
-396.397680
 30
0.0
 40
1.774996
 50
255.000031
 51
318.776075
  0
LINE
  8
0
  6
BYLAYER
 62
     7
 10
566.727904
 20
-405.194323
 30
0.0
 11
572.010428
 21
-410.476873
 31
0.0
  0
ARC
  8
0
  6
BYLAYER
 62
     7
 10
570.755313
 20
-411.731986
 30
0.0
 40
1.774999
 50
341.223957
 51
404.999974
  0
ARC
  8
0
  6
BYLAYER
 62
     7
 10
656.164556
 20
-397.893166
 30
0.0
 40
1.774996
 50
33.922268
 51
104.999952
  0
ARC
  8
0
  6
BYLAYER
 62
     7
 10
613.819113
 20
-426.372014
 30
0.0
 40
52.806159
 50
26.077712
 51
33.922268
  0
ARC
  8
0
  6
BYLAYER
 62
     7
 10
659.655235
 20
-403.939223
 30
0.0
 40
1.774998
 50
315.000046
 51
386.077712
  0
LINE
  8
0
  6
BYLAYER
 62
     7
 10
660.910348
 20
-405.194336
 30
0.0
 11
655.627798
 21
-410.476873
 31
0.0
  0
ARC
  8
0
  6
BYLAYER
 62
     7
 10
656.882913
 20
-411.731986
 30
0.0
 40
1.774998
 50
135.000028
 51
198.776045
  0
LINE
  8
0
  6
BYLAYER
 62
     7
 10
655.705152
 20
-396.178649
 30
0.0
 11
648.489054
 21
-398.112197
 31
0.0
  0
ARC
  8
0
  6
BYLAYER
 62
     7
 10
648.029650
 20
-396.397680
 30
0.0
 40
1.774993
 50
221.223953
 51
284.999970
  0
ARC
  8
0
  6
BYLAYER
 62
     7
 10
613.819113
 20
-426.372014
 30
0.0
 40
43.70931
 50
316.109847
 51
378.776045
  0
ARC
  8
0
  6
BYLAYER
 62
     7
 10
613.819113
 20
-426.372014
 30
0.0
 40
43.709303
 50
41.223941
 51
138.776057
  0
ARC
  8
0
  6
BYLAYER
 62
     7
 10
613.819113
 20
-426.372014
 30
0.0
 40
43.709300
 50
161.223952
 51
223.890140
  0
ARC
  8
0
  6
BYLAYER
 62
     7
 10
613.819113
 20
-426.372014
 30
0.0
 40
53.782408
 50
305.851989
 51
412.369991
  0
ARC
  8
0
  6
BYLAYER
 62
     7
 10
613.819113
 20
-426.372014
 30
0.0
 40
53.782408
 50
127.630155
 51
234.148011
  0
LINE
  8
0
  6
BYLAYER
 62
     7
 10
646.656502
 20
-366.732106
 30
0.0
 11
580.981615
 21
-366.732106
 31
0.0
  0
LINE
  8
0
  6
BYLAYER
 62
     7
 10
580.981615
 20
-368.507157
 30
0.0
 11
646.656502
 21
-368.507157
 31
0.0
  0
ARC
  8
0
  6
BYLAYER
 62
     7
 10
613.819113
 20
-426.372014
 30
0.0
 40
40.0
 50
321.952493
 51
578.047507
  0
ARC
  8
0
  6
BYLAYER
 62
     7
 10
582.312863
 20
-317.694001
 30
0.0
 40
1.331248
 50
94.780192
 51
180.000000
  0
LINE
  8
0
  6
BYLAYER
 62
     7
 10
582.312863
 20
-316.372014
 30
0.0
 11
645.547129
 21
-316.372014
 31
0.0
  0
ARC
  8
0
  6
BYLAYER
 62
     7
 10
645.325255
 20
-317.694001
 30
0.0
 40
1.331248
 50
0.0
 51
85.219808
  0
LINE
  8
0
  6
BYLAYER
 62
     7
 10
646.656502
 20
-368.507157
 30
0.0
 11
646.656502
 21
-317.694001
 31
0.0
  0
LINE
  8
0
  6
BYLAYER
 62
     7
 10
580.981615
 20
-317.694001
 30
0.0
 11
580.981615
 21
-368.507157
 31
0.0
  0
ARC
  8
0
  6
BYLAYER
 62
     1
 10
204.819113
 20
-464.159642
 30
0.0
 40
2.000000
 50
180.000000
 51
266.999903
  0
LINE
  8
0
  6
BYLAYER
 62
     1
 10
194.819113
 20
-426.372014
 30
0.0
 11
194.819113
 21
-452.372014
 31
0.0
  0
LINE
  8
0
  6
BYLAYER
 62
     1
 10
194.819113
 20
-452.372014
 30
0.0
 11
200.923788
 21
-452.691930
 31
0.0
  0
LINE
  8
0
  6
BYLAYER
 62
     1
 10
202.819113
 20
-464.159642
 30
0.0
 11
202.819113
 21
-426.372014
 31
0.0
  0
ARC
  8
0
  6
BYLAYER
 62
     1
 10
200.819113
 20
-454.689183
 30
0.0
 40
1.999995
 50
0.0
 51
86.999897
  0
LINE
  8
0
  6
BYLAYER
 62
     1
 10
208.819113
 20
-466.372014
 30
0.0
 11
204.714438
 21
-466.156896
 31
0.0
  0
LINE
  8
0
  6
BYLAYER
 62
     1
 10
208.819113
 20
-466.372014
 30
0.0
 11
208.819113
 21
-426.372014
 31
0.0
  0
ARC
  8
0
  6
BYLAYER
 62
     1
 10
204.819113
 20
-388.584386
 30
0.0
 40
2.0
 50
93.000097
 51
180.000000
  0
LINE
  8
0
  6
BYLAYER
 62
     1
 10
202.819113
 20
-388.584386
 30
0.0
 11
202.819113
 21
-426.372014
 31
0.0
  0
ARC
  8
0
  6
BYLAYER
 62
     1
 10
200.819113
 20
-398.054845
 30
0.0
 40
1.999995
 50
273.000093
 51
359.999990
  0
LINE
  8
0
  6
BYLAYER
 62
     1
 10
208.819113
 20
-386.372014
 30
0.0
 11
204.714438
 21
-386.587132
 31
0.0
  0
LINE
  8
0
  6
BYLAYER
 62
     1
 10
208.819113
 20
-386.372014
 30
0.0
 11
208.819113
 21
-426.372014
 31
0.0
  0
LINE
  8
0
  6
BYLAYER
 62
     1
 10
194.819113
 20
-400.372014
 30
0.0
 11
200.923788
 21
-400.052098
 31
0.0
  0
LINE
  8
0
  6
BYLAYER
 62
     1
 10
194.819113
 20
-426.372014
 30
0.0
 11
194.819113
 21
-400.372014
 31
0.0
  0
ENDSEC
  0
EOF
