  0
SECTION
  2
HEADER
  9
$EXTMIN
 10
110.757679
 20
427.0
 30
0.0
  9
$EXTMAX
 10
559.617747
 20
0.0
 30
0.0
  0
ENDSEC
  0
SECTION
  2
TABLES
  0
ENDSEC
  0
SECTION
  2
BLOCKS
  0
ENDSEC
  0
SECTION
  2
ENTITIES
  0
LINE
  8
0
  6
BYLAYER
 62
     7
 10
216.882200
 20
-66.227573
 30
0.0
 11
218.657197
 21
-66.227573
 31
0.0
  0
ARC
  8
0
  6
BYLAYER
 62
     7
 10
222.296026
 20
-139.091122
 30
0.0
 40
0.532532
 50
90.0
 51
270.000012
  0
ARC
  8
0
  6
BYLAYER
 62
     7
 10
219.189782
 20
-139.091122
 30
0.0
 40
0.532532
 50
90.0
 51
270.000012
  0
ARC
  8
0
  6
BYLAYER
 62
     7
 10
222.296026
 20
-129.328639
 30
0.0
 40
0.532532
 50
90.0
 51
270.000012
  0
ARC
  8
0
  6
BYLAYER
 62
     7
 10
219.189782
 20
-129.328639
 30
0.0
 40
0.532532
 50
90.0
 51
270.000012
  0
ARC
  8
0
  6
BYLAYER
 62
     7
 10
222.296026
 20
-119.566155
 30
0.0
 40
0.532532
 50
90.0
 51
270.000012
  0
ARC
  8
0
  6
BYLAYER
 62
     7
 10
219.189782
 20
-119.566155
 30
0.0
 40
0.532532
 50
90.0
 51
270.000012
  0
ARC
  8
0
  6
BYLAYER
 62
     7
 10
222.296026
 20
-100.041189
 30
0.0
 40
0.532532
 50
90.0
 51
270.000012
  0
ARC
  8
0
  6
BYLAYER
 62
     7
 10
219.189782
 20
-100.041189
 30
0.0
 40
0.532532
 50
90.0
 51
270.000012
  0
ARC
  8
0
  6
BYLAYER
 62
     7
 10
222.295972
 20
-90.278706
 30
0.0
 40
0.532532
 50
90.0
 51
270.000012
  0
ARC
  8
0
  6
BYLAYER
 62
     7
 10
219.189782
 20
-90.278706
 30
0.0
 40
0.532532
 50
90.0
 51
270.000012
  0
ARC
  8
0
  6
BYLAYER
 62
     7
 10
222.295972
 20
-80.516223
 30
0.0
 40
0.532532
 50
90.0
 51
270.000012
  0
ARC
  8
0
  6
BYLAYER
 62
     7
 10
219.189782
 20
-80.516223
 30
0.0
 40
0.532532
 50
90.0
 51
270.000012
  0
LINE
  8
0
  6
BYLAYER
 62
     7
 10
218.657251
 20
-109.803726
 30
0.0
 11
218.657305
 21
-153.379880
 31
0.0
  0
ARC
  8
0
  6
BYLAYER
 62
     7
 10
222.296026
 20
-109.803672
 30
0.0
 40
0.532532
 50
90.0
 51
270.000012
  0
ARC
  8
0
  6
BYLAYER
 62
     7
 10
219.189782
 20
-109.803672
 30
0.0
 40
0.532532
 50
90.0
 51
270.000012
  0
LINE
  8
0
  6
BYLAYER
 62
     7
 10
218.657251
 20
-109.803726
 30
0.0
 11
218.657197
 21
-51.938761
 31
0.0
  0
LINE
  8
0
  6
BYLAYER
 62
     7
 10
289.657129
 20
-51.938761
 30
0.0
 11
218.657197
 21
-51.938761
 31
0.0
  0
LINE
  8
0
  6
BYLAYER
 62
     7
 10
301.416483
 20
-56.553764
 30
0.0
 11
289.657129
 21
-56.553764
 31
0.0
  0
LINE
  8
0
  6
BYLAYER
 62
     7
 10
289.657129
 20
-57.441262
 30
0.0
 11
301.416483
 21
-57.441262
 31
0.0
  0
LINE
  8
0
  6
BYLAYER
 62
     7
 10
289.657129
 20
-60.103758
 30
0.0
 11
301.416483
 21
-60.103758
 31
0.0
  0
LINE
  8
0
  6
BYLAYER
 62
     7
 10
289.657129
 20
-65.428749
 30
0.0
 11
301.416483
 21
-65.428749
 31
0.0
  0
ARC
  8
0
  6
BYLAYER
 62
     7
 10
236.850969
 20
-63.919990
 30
0.0
 40
10.206232
 50
180.000000
 51
360.000005
  0
ARC
  8
0
  6
BYLAYER
 62
     7
 10
271.463410
 20
-63.919990
 30
0.0
 40
10.206232
 50
180.000000
 51
360.000005
  0
LINE
  8
0
  6
BYLAYER
 62
     7
 10
218.657197
 20
-60.813800
 30
0.0
 11
225.757239
 21
-60.813800
 31
0.0
  0
ARC
  8
0
  6
BYLAYER
 62
     7
 10
225.757239
 20
-61.701298
 30
0.0
 40
0.887498
 50
0.0
 51
89.999992
  0
ARC
  8
0
  6
BYLAYER
 62
     7
 10
247.944700
 20
-61.701244
 30
0.0
 40
0.887498
 50
90.0
 51
180.000003
  0
LINE
  8
0
  6
BYLAYER
 62
     7
 10
247.944700
 20
-60.813746
 30
0.0
 11
260.369679
 21
-60.813746
 31
0.0
  0
ARC
  8
0
  6
BYLAYER
 62
     7
 10
260.369679
 20
-61.701244
 30
0.0
 40
0.887498
 50
0.0
 51
89.999992
  0
LINE
  8
0
  6
BYLAYER
 62
     7
 10
282.557141
 20
-60.813746
 30
0.0
 11
289.657129
 21
-60.813746
 31
0.0
  0
ARC
  8
0
  6
BYLAYER
 62
     7
 10
282.557141
 20
-61.701244
 30
0.0
 40
0.887498
 50
90.0
 51
180.000003
  0
CIRCLE
  8
0
  6
BYLAYER
 62
     7
 10
238.847841
 20
-100.038805
 30
0.0
 40
1.198123
  0
CIRCLE
  8
0
  6
BYLAYER
 62
     7
 10
287.660257
 20
-99.977487
 30
0.0
 40
1.198123
  0
LINE
  8
0
  6
BYLAYER
 62
     7
 10
219.189782
 20
-99.508711
 30
0.0
 11
236.238647
 21
-99.508711
 31
0.0
  0
LINE
  8
0
  6
BYLAYER
 62
     7
 10
219.189782
 20
-100.573721
 30
0.0
 11
236.239622
 21
-100.573721
 31
0.0
  0
LINE
  8
0
  6
BYLAYER
 62
     7
 10
241.457034
 20
-99.508711
 30
0.0
 11
263.254049
 21
-99.508711
 31
0.0
  0
LINE
  8
0
  6
BYLAYER
 62
     7
 10
241.456059
 20
-100.573721
 30
0.0
 11
263.254049
 21
-100.573721
 31
0.0
  0
LINE
  8
0
  6
BYLAYER
 62
     7
 10
285.039363
 20
-99.508657
 30
0.0
 11
263.254049
 21
-99.508711
 31
0.0
  0
LINE
  8
0
  6
BYLAYER
 62
     7
 10
285.065364
 20
-100.573667
 30
0.0
 11
263.254049
 21
-100.573721
 31
0.0
  0
LINE
  8
0
  6
BYLAYER
 62
     7
 10
301.416483
 20
-99.508657
 30
0.0
 11
290.281151
 21
-99.508657
 31
0.0
  0
LINE
  8
0
  6
BYLAYER
 62
     7
 10
301.416483
 20
-100.573667
 30
0.0
 11
290.255150
 21
-100.573667
 31
0.0
  0
LINE
  8
0
  6
BYLAYER
 62
     7
 10
301.416483
 20
-155.066200
 30
0.0
 11
263.254157
 21
-155.066149
 31
0.0
  0
LINE
  8
0
  6
BYLAYER
 62
     7
 10
301.416483
 20
-160.391191
 30
0.0
 11
263.254157
 21
-160.391139
 31
0.0
  0
LINE
  8
0
  6
BYLAYER
 62
     7
 10
301.416483
 20
-163.053686
 30
0.0
 11
263.254157
 21
-163.053635
 31
0.0
  0
LINE
  8
0
  6
BYLAYER
 62
     7
 10
218.657413
 20
-143.528723
 30
0.0
 11
221.396340
 21
-153.750610
 31
0.0
  0
ARC
  8
0
  6
BYLAYER
 62
     7
 10
223.110831
 20
-153.291206
 30
0.0
 40
1.774973
 50
195.000043
 51
270.000055
  0
LINE
  8
0
  6
BYLAYER
 62
     7
 10
218.657413
 20
-149.741212
 30
0.0
 11
220.099002
 21
-148.908911
 31
0.0
  0
LINE
  8
0
  6
BYLAYER
 62
     7
 10
218.657413
 20
-149.741212
 30
0.0
 11
221.158540
 21
-159.075600
 31
0.0
  0
ARC
  8
0
  6
BYLAYER
 62
     7
 10
222.873031
 20
-158.616197
 30
0.0
 40
1.774973
 50
195.000043
 51
270.000055
  0
ARC
  8
0
  6
BYLAYER
 62
     7
 10
222.873085
 20
-161.278692
 30
0.0
 40
1.775025
 50
195.000070
 51
270.000055
  0
LINE
  8
0
  6
BYLAYER
 62
     7
 10
218.657413
 20
-152.403707
 30
0.0
 11
221.158540
 21
-161.738096
 31
0.0
  0
LINE
  8
0
  6
BYLAYER
 62
     7
 10
223.110831
 20
-155.066203
 30
0.0
 11
263.254157
 21
-155.066149
 31
0.0
  0
LINE
  8
0
  6
BYLAYER
 62
     7
 10
222.873085
 20
-160.391194
 30
0.0
 11
263.254157
 21
-160.391139
 31
0.0
  0
LINE
  8
0
  6
BYLAYER
 62
     7
 10
222.873085
 20
-163.053689
 30
0.0
 11
263.254157
 21
-163.053635
 31
0.0
  0
LINE
  8
0
  6
BYLAYER
 62
     7
 10
218.657305
 20
-153.379880
 30
0.0
 11
218.883892
 21
-153.249063
 31
0.0
  0
ARC
  8
0
  6
BYLAYER
 62
     7
 10
238.847841
 20
-100.038805
 30
0.0
 40
2.662497
 50
11.484133
 51
168.515862
  0
ARC
  8
0
  6
BYLAYER
 62
     7
 10
287.660257
 20
-99.977487
 30
0.0
 40
2.662487
 50
10.140737
 51
169.859264
  0
ARC
  8
0
  6
BYLAYER
 62
     7
 10
287.660257
 20
-99.977487
 30
0.0
 40
2.662499
 50
192.939225
 51
347.06079
  0
ARC
  8
0
  6
BYLAYER
 62
     7
 10
238.847841
 20
-100.038805
 30
0.0
 40
2.662463
 50
191.590672
 51
348.409452
  0
LINE
  8
0
  6
BYLAYER
 62
     7
 10
219.189782
 20
-81.048809
 30
0.0
 11
301.416483
 21
-81.048708
 31
0.0
  0
LINE
  8
0
  6
BYLAYER
 62
     7
 10
219.189782
 20
-89.746228
 30
0.0
 11
301.416483
 21
-89.746178
 31
0.0
  0
LINE
  8
0
  6
BYLAYER
 62
     7
 10
219.189782
 20
-90.811292
 30
0.0
 11
301.416483
 21
-90.811191
 31
0.0
  0
LINE
  8
0
  6
BYLAYER
 62
     7
 10
226.644737
 20
-57.707555
 30
0.0
 11
226.644737
 21
-63.919990
 31
0.0
  0
LINE
  8
0
  6
BYLAYER
 62
     7
 10
224.869740
 20
-55.932558
 30
0.0
 11
218.657197
 21
-55.932558
 31
0.0
  0
ARC
  8
0
  6
BYLAYER
 62
     7
 10
224.869740
 20
-57.707555
 30
0.0
 40
1.774997
 50
0.0
 51
90.000003
  0
LINE
  8
0
  6
BYLAYER
 62
     7
 10
247.057202
 20
-57.707555
 30
0.0
 11
247.057202
 21
-63.919990
 31
0.0
  0
ARC
  8
0
  6
BYLAYER
 62
     7
 10
248.832199
 20
-57.707555
 30
0.0
 40
1.774997
 50
90.0
 51
180.000003
  0
LINE
  8
0
  6
BYLAYER
 62
     7
 10
261.257177
 20
-57.707555
 30
0.0
 11
261.257177
 21
-63.919990
 31
0.0
  0
LINE
  8
0
  6
BYLAYER
 62
     7
 10
259.482181
 20
-55.932558
 30
0.0
 11
248.832199
 21
-55.932558
 31
0.0
  0
ARC
  8
0
  6
BYLAYER
 62
     7
 10
259.482181
 20
-57.707555
 30
0.0
 40
1.774997
 50
0.0
 51
90.000003
  0
LINE
  8
0
  6
BYLAYER
 62
     7
 10
281.669642
 20
-57.707501
 30
0.0
 11
281.669642
 21
-63.919990
 31
0.0
  0
LINE
  8
0
  6
BYLAYER
 62
     7
 10
289.657129
 20
-55.932504
 30
0.0
 11
283.444639
 21
-55.932504
 31
0.0
  0
ARC
  8
0
  6
BYLAYER
 62
     7
 10
283.444639
 20
-57.707501
 30
0.0
 40
1.774997
 50
90.0
 51
180.000003
  0
LINE
  8
0
  6
BYLAYER
 62
     7
 10
301.416483
 20
-79.983745
 30
0.0
 11
219.189782
 21
-79.983745
 31
0.0
  0
LINE
  8
0
  6
BYLAYER
 62
     7
 10
289.657129
 20
-79.983745
 30
0.0
 11
289.657129
 21
-51.938761
 31
0.0
  0
LINE
  8
0
  6
BYLAYER
 62
     7
 10
219.189782
 20
-109.271194
 30
0.0
 11
301.416483
 21
-109.271194
 31
0.0
  0
LINE
  8
0
  6
BYLAYER
 62
     7
 10
219.189782
 20
-110.336204
 30
0.0
 11
301.416483
 21
-110.336204
 31
0.0
  0
LINE
  8
0
  6
BYLAYER
 62
     7
 10
219.189782
 20
-120.098687
 30
0.0
 11
301.416483
 21
-120.098634
 31
0.0
  0
LINE
  8
0
  6
BYLAYER
 62
     7
 10
219.189782
 20
-128.796161
 30
0.0
 11
301.416483
 21
-128.796110
 31
0.0
  0
LINE
  8
0
  6
BYLAYER
 62
     7
 10
219.189782
 20
-129.861225
 30
0.0
 11
301.416483
 21
-129.861124
 31
0.0
  0
LINE
  8
0
  6
BYLAYER
 62
     7
 10
219.189782
 20
-138.558698
 30
0.0
 11
301.416483
 21
-138.558597
 31
0.0
  0
LINE
  8
0
  6
BYLAYER
 62
     7
 10
219.189782
 20
-139.623708
 30
0.0
 11
301.416483
 21
-139.623607
 31
0.0
  0
LINE
  8
0
  6
BYLAYER
 62
     7
 10
219.189782
 20
-119.033678
 30
0.0
 11
301.416483
 21
-119.033624
 31
0.0
  0
LINE
  8
0
  6
BYLAYER
 62
     7
 10
300.307110
 20
-81.048700
 30
0.0
 11
300.307110
 21
-89.746174
 31
0.0
  0
LINE
  8
0
  6
BYLAYER
 62
     7
 10
226.201042
 20
-81.048809
 30
0.0
 11
226.201042
 21
-89.746228
 31
0.0
  0
LINE
  8
0
  6
BYLAYER
 62
     7
 10
300.307110
 20
-90.811184
 30
0.0
 11
300.307110
 21
-99.508657
 31
0.0
  0
LINE
  8
0
  6
BYLAYER
 62
     7
 10
226.201042
 20
-90.811292
 30
0.0
 11
226.201042
 21
-99.508657
 31
0.0
  0
LINE
  8
0
  6
BYLAYER
 62
     7
 10
300.307110
 20
-100.573721
 30
0.0
 11
300.307110
 21
-109.271194
 31
0.0
  0
LINE
  8
0
  6
BYLAYER
 62
     7
 10
226.201042
 20
-100.573721
 30
0.0
 11
226.201042
 21
-109.271194
 31
0.0
  0
LINE
  8
0
  6
BYLAYER
 62
     7
 10
226.201042
 20
-110.336204
 30
0.0
 11
226.201042
 21
-119.033678
 31
0.0
  0
LINE
  8
0
  6
BYLAYER
 62
     7
 10
300.307110
 20
-110.336204
 30
0.0
 11
300.307110
 21
-119.033624
 31
0.0
  0
LINE
  8
0
  6
BYLAYER
 62
     7
 10
226.201042
 20
-120.098687
 30
0.0
 11
226.201042
 21
-128.796161
 31
0.0
  0
LINE
  8
0
  6
BYLAYER
 62
     7
 10
300.307110
 20
-120.098633
 30
0.0
 11
300.307110
 21
-128.796107
 31
0.0
  0
LINE
  8
0
  6
BYLAYER
 62
     7
 10
226.201042
 20
-129.861171
 30
0.0
 11
226.201042
 21
-138.558698
 31
0.0
  0
LINE
  8
0
  6
BYLAYER
 62
     7
 10
300.307110
 20
-129.861116
 30
0.0
 11
300.307110
 21
-138.558590
 31
0.0
  0
LINE
  8
0
  6
BYLAYER
 62
     7
 10
301.416483
 20
-79.543614
 30
0.0
 11
300.344486
 21
-79.973019
 31
0.0
  0
LINE
  8
0
  6
BYLAYER
 62
     7
 10
226.192212
 20
-79.869503
 30
0.0
 11
218.626916
 21
-77.725348
 31
0.0
  0
LINE
  8
0
  6
BYLAYER
 62
     7
 10
226.201042
 20
-139.623654
 30
0.0
 11
226.201042
 21
-141.398651
 31
0.0
  0
LINE
  8
0
  6
BYLAYER
 62
     7
 10
300.307110
 20
-139.623600
 30
0.0
 11
300.307110
 21
-141.398597
 31
0.0
  0
LINE
  8
0
  6
BYLAYER
 62
     7
 10
300.307110
 20
-141.398597
 30
0.0
 11
226.201042
 21
-141.398651
 31
0.0
  0
LINE
  8
0
  6
BYLAYER
 62
     7
 10
300.307110
 20
-141.398597
 30
0.0
 11
301.416483
 21
-141.711850
 31
0.0
  0
LINE
  8
0
  6
BYLAYER
 62
     7
 10
226.201042
 20
-141.398651
 30
0.0
 11
218.657413
 21
-143.528723
 31
0.0
  0
LINE
  8
0
  6
BYLAYER
 62
     7
 10
216.882200
 20
-153.379934
 30
0.0
 11
218.657197
 21
-153.379934
 31
0.0
  0
LINE
  8
0
  6
BYLAYER
 62
     7
 10
216.882254
 20
-109.803754
 30
0.0
 11
216.882200
 21
-66.227573
 31
0.0
  0
LINE
  8
0
  6
BYLAYER
 62
     7
 10
216.882254
 20
-109.803753
 30
0.0
 11
216.882200
 21
-153.379934
 31
0.0
  0
LINE
  8
0
  6
BYLAYER
 62
     7
 10
301.416483
 20
-109.803753
 30
0.0
 11
301.416483
 21
-54.803754
 31
0.0
  0
LINE
  8
0
  6
BYLAYER
 62
     7
 10
301.416483
 20
-54.803754
 30
0.0
 11
307.628973
 21
-54.803754
 31
0.0
  0
LINE
  8
0
  6
BYLAYER
 62
     7
 10
301.416483
 20
-164.803754
 30
0.0
 11
301.416483
 21
-109.803753
 31
0.0
  0
LINE
  8
0
  6
BYLAYER
 62
     7
 10
192.919795
 20
-69.803958
 30
0.0
 11
208.512770
 21
-67.612503
 31
0.0
  0
ARC
  8
0
  6
BYLAYER
 62
     7
 10
208.451018
 20
-67.173087
 30
0.0
 40
0.443749
 50
278.000037
 51
360.000000
  0
LINE
  8
0
  6
BYLAYER
 62
     7
 10
208.894768
 20
-109.803754
 30
0.0
 11
208.894768
 21
-57.557589
 31
0.0
  0
ARC
  8
0
  6
BYLAYER
 62
     7
 10
209.338517
 20
-57.557589
 30
0.0
 40
0.443749
 50
90.999985
 51
180.000000
  0
LINE
  8
0
  6
BYLAYER
 62
     7
 10
209.330771
 20
-57.113922
 30
0.0
 11
215.543260
 21
-57.005477
 31
0.0
  0
ARC
  8
0
  6
BYLAYER
 62
     7
 10
215.551006
 20
-57.449144
 30
0.0
 40
0.443749
 50
0.0
 51
90.99999
  0
LINE
  8
0
  6
BYLAYER
 62
     7
 10
215.994755
 20
-57.449144
 30
0.0
 11
215.994755
 21
-109.803754
 31
0.0
  0
ARC
  8
0
  6
BYLAYER
 62
     7
 10
216.438505
 20
-65.603958
 30
0.0
 40
0.443749
 50
180.000000
 51
268.000034
  0
LINE
  8
0
  6
BYLAYER
 62
     7
 10
216.423012
 20
-66.047435
 30
0.0
 11
216.882254
 21
-66.063469
 31
0.0
  0
LINE
  8
0
  6
BYLAYER
 62
     7
 10
216.882254
 20
-66.063469
 30
0.0
 11
216.882254
 21
-109.803754
 31
0.0
  0
LINE
  8
0
  6
BYLAYER
 62
     7
 10
192.919795
 20
-109.803754
 30
0.0
 11
192.919795
 21
-69.866323
 31
0.0
  0
LINE
  8
0
  6
BYLAYER
 62
     7
 10
192.919795
 20
-149.803550
 30
0.0
 11
208.512770
 21
-151.995005
 31
0.0
  0
ARC
  8
0
  6
BYLAYER
 62
     7
 10
208.451018
 20
-152.434421
 30
0.0
 40
0.443749
 50
0.0
 51
81.999963
  0
LINE
  8
0
  6
BYLAYER
 62
     7
 10
208.894768
 20
-109.803754
 30
0.0
 11
208.894768
 21
-162.049919
 31
0.0
  0
ARC
  8
0
  6
BYLAYER
 62
     7
 10
209.338517
 20
-162.049919
 30
0.0
 40
0.443749
 50
180.000000
 51
269.000015
  0
LINE
  8
0
  6
BYLAYER
 62
     7
 10
209.330771
 20
-162.493586
 30
0.0
 11
215.543260
 21
-162.602031
 31
0.0
  0
ARC
  8
0
  6
BYLAYER
 62
     7
 10
215.551006
 20
-162.158364
 30
0.0
 40
0.443749
 50
269.000010
 51
360.000000
  0
LINE
  8
0
  6
BYLAYER
 62
     7
 10
215.994755
 20
-162.158364
 30
0.0
 11
215.994755
 21
-109.803754
 31
0.0
  0
ARC
  8
0
  6
BYLAYER
 62
     7
 10
216.438505
 20
-154.003550
 30
0.0
 40
0.443749
 50
91.999966
 51
180.000000
  0
LINE
  8
0
  6
BYLAYER
 62
     7
 10
216.423012
 20
-153.560073
 30
0.0
 11
216.882254
 21
-153.544039
 31
0.0
  0
LINE
  8
0
  6
BYLAYER
 62
     7
 10
216.882254
 20
-153.544039
 30
0.0
 11
216.882254
 21
-109.803754
 31
0.0
  0
LINE
  8
0
  6
BYLAYER
 62
     7
 10
192.919795
 20
-109.803754
 30
0.0
 11
192.919795
 21
-149.741185
 31
0.0
  0
LINE
  8
0
  6
BYLAYER
 62
     7
 10
218.657197
 20
-51.938761
 30
0.0
 11
289.657075
 21
-51.938761
 31
0.0
  0
LINE
  8
0
  6
BYLAYER
 62
     7
 10
289.657075
 20
-50.163764
 30
0.0
 11
218.657197
 21
-50.163764
 31
0.0
  0
LINE
  8
0
  6
BYLAYER
 62
     7
 10
350.732880
 20
-54.803754
 30
0.0
 11
359.919795
 21
-63.990669
 31
0.0
  0
LINE
  8
0
  6
BYLAYER
 62
     7
 10
307.628973
 20
-54.803754
 30
0.0
 11
350.732880
 21
-54.803754
 31
0.0
  0
LINE
  8
0
  6
BYLAYER
 62
     7
 10
359.919795
 20
-63.990669
 30
0.0
 11
359.919795
 21
-109.803753
 31
0.0
  0
LINE
  8
0
  6
BYLAYER
 62
     7
 10
359.919795
 20
-155.616839
 30
0.0
 11
350.732880
 21
-164.803754
 31
0.0
  0
LINE
  8
0
  6
BYLAYER
 62
     7
 10
350.732880
 20
-164.803754
 30
0.0
 11
301.416483
 21
-164.803754
 31
0.0
  0
LINE
  8
0
  6
BYLAYER
 62
     7
 10
359.919795
 20
-109.803753
 30
0.0
 11
359.919795
 21
-155.616839
 31
0.0
  0
LINE
  8
0
  6
BYLAYER
 62
     7
 10
350.732880
 20
-54.803754
 30
0.0
 11
350.732880
 21
-164.803754
 31
0.0
  0
LINE
  8
0
  6
BYLAYER
 62
     7
 10
289.657075
 20
-51.938761
 30
0.0
 11
289.657075
 21
-2.803754
 31
0.0
  0
LINE
  8
0
  6
BYLAYER
 62
     7
 10
286.657075
 20
0.196246
 30
0.0
 11
221.657197
 21
0.196246
 31
0.0
  0
ARC
  8
0
  6
BYLAYER
 62
     7
 10
286.657075
 20
-2.803754
 30
0.0
 40
3.0
 50
0.0
 51
90.0
  0
ARC
  8
0
  6
BYLAYER
 62
     7
 10
221.657197
 20
-2.803754
 30
0.0
 40
3.000000
 50
90.0
 51
180.0
  0
LINE
  8
0
  6
BYLAYER
 62
     7
 10
218.657197
 20
-2.803754
 30
0.0
 11
218.657197
 21
-51.938761
 31
0.0
  0
LINE
  8
0
  6
BYLAYER
 62
     7
 10
218.657251
 20
-333.297532
 30
0.0
 11
218.657251
 21
-396.309923
 31
0.0
  0
ARC
  8
0
  6
BYLAYER
 62
     7
 10
219.988498
 20
-396.309923
 30
0.0
 40
1.331248
 50
180.000000
 51
270.000000
  0
ARC
  8
0
  6
BYLAYER
 62
     7
 10
219.988498
 20
-333.297532
 30
0.0
 40
1.331248
 50
90.0
 51
180.0
  0
LINE
  8
0
  6
BYLAYER
 62
     7
 10
288.325881
 20
-331.966284
 30
0.0
 11
219.988498
 21
-331.966284
 31
0.0
  0
ARC
  8
0
  6
BYLAYER
 62
     7
 10
288.325881
 20
-333.297532
 30
0.0
 40
1.331248
 50
0.0
 51
90.0
  0
LINE
  8
0
  6
BYLAYER
 62
     7
 10
289.657129
 20
-396.309923
 30
0.0
 11
289.657129
 21
-333.297532
 31
0.0
  0
LINE
  8
0
  6
BYLAYER
 62
     7
 10
219.988498
 20
-397.641171
 30
0.0
 11
288.325881
 21
-397.641171
 31
0.0
  0
ARC
  8
0
  6
BYLAYER
 62
     7
 10
288.325881
 20
-396.309923
 30
0.0
 40
1.331248
 50
270.0
 51
360.0
  0
LINE
  8
0
  6
BYLAYER
 62
     7
 10
218.657251
 20
-364.803727
 30
0.0
 11
218.657305
 21
-408.379881
 31
0.0
  0
LINE
  8
0
  6
BYLAYER
 62
     7
 10
301.416483
 20
-410.066201
 30
0.0
 11
263.254157
 21
-410.066150
 31
0.0
  0
LINE
  8
0
  6
BYLAYER
 62
     7
 10
301.416483
 20
-415.391192
 30
0.0
 11
263.254157
 21
-415.391141
 31
0.0
  0
LINE
  8
0
  6
BYLAYER
 62
     7
 10
301.416483
 20
-418.053687
 30
0.0
 11
263.254157
 21
-418.053636
 31
0.0
  0
LINE
  8
0
  6
BYLAYER
 62
     7
 10
218.657413
 20
-398.528724
 30
0.0
 11
221.396340
 21
-408.750611
 31
0.0
  0
ARC
  8
0
  6
BYLAYER
 62
     7
 10
223.110831
 20
-408.291207
 30
0.0
 40
1.774973
 50
195.000043
 51
270.000055
  0
LINE
  8
0
  6
BYLAYER
 62
     7
 10
218.657413
 20
-404.741213
 30
0.0
 11
220.099002
 21
-403.908912
 31
0.0
  0
LINE
  8
0
  6
BYLAYER
 62
     7
 10
218.657413
 20
-404.741213
 30
0.0
 11
221.158540
 21
-414.075602
 31
0.0
  0
ARC
  8
0
  6
BYLAYER
 62
     7
 10
222.873031
 20
-413.616198
 30
0.0
 40
1.774973
 50
195.000043
 51
270.000055
  0
ARC
  8
0
  6
BYLAYER
 62
     7
 10
222.873085
 20
-416.278693
 30
0.0
 40
1.775025
 50
195.000070
 51
270.000055
  0
LINE
  8
0
  6
BYLAYER
 62
     7
 10
218.657413
 20
-407.403708
 30
0.0
 11
221.158540
 21
-416.738097
 31
0.0
  0
LINE
  8
0
  6
BYLAYER
 62
     7
 10
223.110831
 20
-410.066204
 30
0.0
 11
263.254157
 21
-410.066150
 31
0.0
  0
LINE
  8
0
  6
BYLAYER
 62
     7
 10
222.873085
 20
-415.391195
 30
0.0
 11
263.254157
 21
-415.391141
 31
0.0
  0
LINE
  8
0
  6
BYLAYER
 62
     7
 10
222.873085
 20
-418.053690
 30
0.0
 11
263.254157
 21
-418.053636
 31
0.0
  0
LINE
  8
0
  6
BYLAYER
 62
     7
 10
218.657305
 20
-408.379881
 30
0.0
 11
218.883892
 21
-408.249064
 31
0.0
  0
LINE
  8
0
  6
BYLAYER
 62
     7
 10
289.657129
 20
-365.336205
 30
0.0
 11
301.416483
 21
-365.336205
 31
0.0
  0
LINE
  8
0
  6
BYLAYER
 62
     7
 10
289.657129
 20
-375.098643
 30
0.0
 11
301.416483
 21
-375.098635
 31
0.0
  0
LINE
  8
0
  6
BYLAYER
 62
     7
 10
289.657129
 20
-383.796119
 30
0.0
 11
301.416483
 21
-383.796111
 31
0.0
  0
LINE
  8
0
  6
BYLAYER
 62
     7
 10
289.657129
 20
-384.861139
 30
0.0
 11
301.416483
 21
-384.861125
 31
0.0
  0
LINE
  8
0
  6
BYLAYER
 62
     7
 10
289.657129
 20
-393.558613
 30
0.0
 11
301.416483
 21
-393.558598
 31
0.0
  0
LINE
  8
0
  6
BYLAYER
 62
     7
 10
289.657129
 20
-394.623622
 30
0.0
 11
301.416483
 21
-394.623608
 31
0.0
  0
LINE
  8
0
  6
BYLAYER
 62
     7
 10
289.657129
 20
-374.033633
 30
0.0
 11
301.416483
 21
-374.033625
 31
0.0
  0
LINE
  8
0
  6
BYLAYER
 62
     7
 10
300.307110
 20
-365.336205
 30
0.0
 11
300.307110
 21
-374.033625
 31
0.0
  0
LINE
  8
0
  6
BYLAYER
 62
     7
 10
300.307110
 20
-375.098634
 30
0.0
 11
300.307110
 21
-383.796108
 31
0.0
  0
LINE
  8
0
  6
BYLAYER
 62
     7
 10
300.307110
 20
-384.861118
 30
0.0
 11
300.307110
 21
-393.558591
 31
0.0
  0
LINE
  8
0
  6
BYLAYER
 62
     7
 10
300.307110
 20
-394.623601
 30
0.0
 11
300.307110
 21
-396.398598
 31
0.0
  0
LINE
  8
0
  6
BYLAYER
 62
     7
 10
300.307110
 20
-396.398598
 30
0.0
 11
289.657129
 21
-396.398606
 31
0.0
  0
LINE
  8
0
  6
BYLAYER
 62
     7
 10
300.307110
 20
-396.398598
 30
0.0
 11
301.416483
 21
-396.711852
 31
0.0
  0
LINE
  8
0
  6
BYLAYER
 62
     7
 10
221.800672
 20
-397.641171
 30
0.0
 11
218.657413
 21
-398.528724
 31
0.0
  0
LINE
  8
0
  6
BYLAYER
 62
     7
 10
216.882200
 20
-408.379935
 30
0.0
 11
218.657197
 21
-408.379935
 31
0.0
  0
LINE
  8
0
  6
BYLAYER
 62
     7
 10
216.882254
 20
-364.803754
 30
0.0
 11
216.882200
 21
-408.379935
 31
0.0
  0
LINE
  8
0
  6
BYLAYER
 62
     7
 10
301.416483
 20
-419.803755
 30
0.0
 11
301.416483
 21
-364.803755
 31
0.0
  0
LINE
  8
0
  6
BYLAYER
 62
     7
 10
218.657251
 20
-364.803782
 30
0.0
 11
218.657305
 21
-321.227628
 31
0.0
  0
LINE
  8
0
  6
BYLAYER
 62
     7
 10
301.416483
 20
-319.541308
 30
0.0
 11
263.254157
 21
-319.541359
 31
0.0
  0
LINE
  8
0
  6
BYLAYER
 62
     7
 10
301.416483
 20
-314.216317
 30
0.0
 11
263.254157
 21
-314.216369
 31
0.0
  0
LINE
  8
0
  6
BYLAYER
 62
     7
 10
301.416483
 20
-311.553822
 30
0.0
 11
263.254157
 21
-311.553873
 31
0.0
  0
LINE
  8
0
  6
BYLAYER
 62
     7
 10
218.657413
 20
-331.078785
 30
0.0
 11
221.396340
 21
-320.856898
 31
0.0
  0
ARC
  8
0
  6
BYLAYER
 62
     7
 10
223.110831
 20
-321.316302
 30
0.0
 40
1.774973
 50
89.999945
 51
164.999957
  0
LINE
  8
0
  6
BYLAYER
 62
     7
 10
218.657413
 20
-324.866296
 30
0.0
 11
220.099002
 21
-325.698597
 31
0.0
  0
LINE
  8
0
  6
BYLAYER
 62
     7
 10
218.657413
 20
-324.866296
 30
0.0
 11
221.158540
 21
-315.531908
 31
0.0
  0
ARC
  8
0
  6
BYLAYER
 62
     7
 10
222.873031
 20
-315.991311
 30
0.0
 40
1.774973
 50
89.999945
 51
164.999957
  0
ARC
  8
0
  6
BYLAYER
 62
     7
 10
222.873085
 20
-313.328816
 30
0.0
 40
1.775025
 50
89.999945
 51
164.999930
  0
LINE
  8
0
  6
BYLAYER
 62
     7
 10
218.657413
 20
-322.203801
 30
0.0
 11
221.158540
 21
-312.869412
 31
0.0
  0
LINE
  8
0
  6
BYLAYER
 62
     7
 10
223.110831
 20
-319.541305
 30
0.0
 11
263.254157
 21
-319.541359
 31
0.0
  0
LINE
  8
0
  6
BYLAYER
 62
     7
 10
222.873085
 20
-314.216314
 30
0.0
 11
263.254157
 21
-314.216369
 31
0.0
  0
LINE
  8
0
  6
BYLAYER
 62
     7
 10
222.873085
 20
-311.553819
 30
0.0
 11
263.254157
 21
-311.553873
 31
0.0
  0
LINE
  8
0
  6
BYLAYER
 62
     7
 10
218.657305
 20
-321.227628
 30
0.0
 11
218.883892
 21
-321.358445
 31
0.0
  0
LINE
  8
0
  6
BYLAYER
 62
     7
 10
289.657129
 20
-364.271304
 30
0.0
 11
301.416483
 21
-364.271304
 31
0.0
  0
LINE
  8
0
  6
BYLAYER
 62
     7
 10
289.657129
 20
-354.508866
 30
0.0
 11
301.416483
 21
-354.508874
 31
0.0
  0
LINE
  8
0
  6
BYLAYER
 62
     7
 10
289.657129
 20
-345.811390
 30
0.0
 11
301.416483
 21
-345.811398
 31
0.0
  0
LINE
  8
0
  6
BYLAYER
 62
     7
 10
289.657129
 20
-344.746370
 30
0.0
 11
301.416483
 21
-344.746384
 31
0.0
  0
LINE
  8
0
  6
BYLAYER
 62
     7
 10
289.657129
 20
-336.048896
 30
0.0
 11
301.416483
 21
-336.048911
 31
0.0
  0
LINE
  8
0
  6
BYLAYER
 62
     7
 10
289.657129
 20
-334.983887
 30
0.0
 11
301.416483
 21
-334.983901
 31
0.0
  0
LINE
  8
0
  6
BYLAYER
 62
     7
 10
289.657129
 20
-355.573876
 30
0.0
 11
301.416483
 21
-355.573884
 31
0.0
  0
LINE
  8
0
  6
BYLAYER
 62
     7
 10
300.307110
 20
-364.271304
 30
0.0
 11
300.307110
 21
-355.573884
 31
0.0
  0
LINE
  8
0
  6
BYLAYER
 62
     7
 10
300.307110
 20
-354.508875
 30
0.0
 11
300.307110
 21
-345.811401
 31
0.0
  0
LINE
  8
0
  6
BYLAYER
 62
     7
 10
300.307110
 20
-344.746392
 30
0.0
 11
300.307110
 21
-336.048918
 31
0.0
  0
LINE
  8
0
  6
BYLAYER
 62
     7
 10
300.307110
 20
-334.983908
 30
0.0
 11
300.307110
 21
-333.208911
 31
0.0
  0
LINE
  8
0
  6
BYLAYER
 62
     7
 10
300.307110
 20
-333.208911
 30
0.0
 11
289.657129
 21
-333.208904
 31
0.0
  0
LINE
  8
0
  6
BYLAYER
 62
     7
 10
300.307110
 20
-333.208911
 30
0.0
 11
301.416483
 21
-332.895658
 31
0.0
  0
LINE
  8
0
  6
BYLAYER
 62
     7
 10
221.800672
 20
-331.966338
 30
0.0
 11
218.657413
 21
-331.078785
 31
0.0
  0
LINE
  8
0
  6
BYLAYER
 62
     7
 10
216.882200
 20
-321.227574
 30
0.0
 11
218.657197
 21
-321.227574
 31
0.0
  0
LINE
  8
0
  6
BYLAYER
 62
     7
 10
216.882254
 20
-364.803755
 30
0.0
 11
216.882200
 21
-321.227574
 31
0.0
  0
LINE
  8
0
  6
BYLAYER
 62
     7
 10
301.416483
 20
-309.803755
 30
0.0
 11
301.416483
 21
-364.803755
 31
0.0
  0
LINE
  8
0
  6
BYLAYER
 62
     7
 10
192.919795
 20
-324.803958
 30
0.0
 11
208.512770
 21
-322.612503
 31
0.0
  0
ARC
  8
0
  6
BYLAYER
 62
     7
 10
208.451018
 20
-322.173087
 30
0.0
 40
0.443749
 50
278.000037
 51
360.000000
  0
LINE
  8
0
  6
BYLAYER
 62
     7
 10
208.894768
 20
-364.803754
 30
0.0
 11
208.894768
 21
-312.557589
 31
0.0
  0
ARC
  8
0
  6
BYLAYER
 62
     7
 10
209.338517
 20
-312.557589
 30
0.0
 40
0.443749
 50
90.999985
 51
180.000000
  0
LINE
  8
0
  6
BYLAYER
 62
     7
 10
209.330771
 20
-312.113922
 30
0.0
 11
215.543260
 21
-312.005477
 31
0.0
  0
ARC
  8
0
  6
BYLAYER
 62
     7
 10
215.551006
 20
-312.449144
 30
0.0
 40
0.443749
 50
0.0
 51
90.99999
  0
LINE
  8
0
  6
BYLAYER
 62
     7
 10
215.994755
 20
-312.449144
 30
0.0
 11
215.994755
 21
-364.803754
 31
0.0
  0
ARC
  8
0
  6
BYLAYER
 62
     7
 10
216.438505
 20
-320.603958
 30
0.0
 40
0.443749
 50
180.000000
 51
268.000034
  0
LINE
  8
0
  6
BYLAYER
 62
     7
 10
216.423012
 20
-321.047435
 30
0.0
 11
216.882254
 21
-321.063469
 31
0.0
  0
LINE
  8
0
  6
BYLAYER
 62
     7
 10
216.882254
 20
-321.063469
 30
0.0
 11
216.882254
 21
-364.803754
 31
0.0
  0
LINE
  8
0
  6
BYLAYER
 62
     7
 10
192.919795
 20
-364.803754
 30
0.0
 11
192.919795
 21
-324.866323
 31
0.0
  0
LINE
  8
0
  6
BYLAYER
 62
     7
 10
192.919795
 20
-404.803550
 30
0.0
 11
208.512770
 21
-406.995005
 31
0.0
  0
ARC
  8
0
  6
BYLAYER
 62
     7
 10
208.451018
 20
-407.434421
 30
0.0
 40
0.443749
 50
0.0
 51
81.999963
  0
LINE
  8
0
  6
BYLAYER
 62
     7
 10
208.894768
 20
-364.803754
 30
0.0
 11
208.894768
 21
-417.049919
 31
0.0
  0
ARC
  8
0
  6
BYLAYER
 62
     7
 10
209.338517
 20
-417.049919
 30
0.0
 40
0.443749
 50
180.000000
 51
269.000015
  0
LINE
  8
0
  6
BYLAYER
 62
     7
 10
209.330771
 20
-417.493586
 30
0.0
 11
215.543260
 21
-417.602031
 31
0.0
  0
ARC
  8
0
  6
BYLAYER
 62
     7
 10
215.551006
 20
-417.158364
 30
0.0
 40
0.443749
 50
269.000010
 51
360.000000
  0
LINE
  8
0
  6
BYLAYER
 62
     7
 10
215.994755
 20
-417.158364
 30
0.0
 11
215.994755
 21
-364.803754
 31
0.0
  0
ARC
  8
0
  6
BYLAYER
 62
     7
 10
216.438505
 20
-409.003550
 30
0.0
 40
0.443749
 50
91.999966
 51
180.000000
  0
LINE
  8
0
  6
BYLAYER
 62
     7
 10
216.423012
 20
-408.560073
 30
0.0
 11
216.882254
 21
-408.544039
 31
0.0
  0
LINE
  8
0
  6
BYLAYER
 62
     7
 10
216.882254
 20
-408.544039
 30
0.0
 11
216.882254
 21
-364.803754
 31
0.0
  0
LINE
  8
0
  6
BYLAYER
 62
     7
 10
192.919795
 20
-364.803754
 30
0.0
 11
192.919795
 21
-404.741185
 31
0.0
  0
LINE
  8
0
  6
BYLAYER
 62
     7
 10
359.919795
 20
-410.616839
 30
0.0
 11
350.732880
 21
-419.803755
 31
0.0
  0
LINE
  8
0
  6
BYLAYER
 62
     7
 10
350.732880
 20
-419.803755
 30
0.0
 11
301.416483
 21
-419.803755
 31
0.0
  0
LINE
  8
0
  6
BYLAYER
 62
     7
 10
359.919795
 20
-364.803755
 30
0.0
 11
359.919795
 21
-410.616839
 31
0.0
  0
LINE
  8
0
  6
BYLAYER
 62
     7
 10
359.919795
 20
-318.990670
 30
0.0
 11
350.732880
 21
-309.803755
 31
0.0
  0
LINE
  8
0
  6
BYLAYER
 62
     7
 10
350.732880
 20
-309.803755
 30
0.0
 11
301.416483
 21
-309.803755
 31
0.0
  0
LINE
  8
0
  6
BYLAYER
 62
     7
 10
359.919795
 20
-364.803755
 30
0.0
 11
359.919795
 21
-318.990670
 31
0.0
  0
LINE
  8
0
  6
BYLAYER
 62
     7
 10
350.732880
 20
-419.803755
 30
0.0
 11
350.732880
 21
-309.803755
 31
0.0
  0
CIRCLE
  8
0
  6
BYLAYER
 62
     1
 10
147.919734
 20
-162.303754
 30
0.0
 40
3.25
  0
CIRCLE
  8
0
  6
BYLAYER
 62
     1
 10
120.837581
 20
-130.028363
 30
0.0
 40
3.25
  0
LINE
  8
0
  6
BYLAYER
 62
     1
 10
132.919917
 20
-168.803510
 30
0.0
 11
131.919917
 21
-169.803510
 31
0.0
  0
LINE
  8
0
  6
BYLAYER
 62
     1
 10
113.919734
 20
-149.803754
 30
0.0
 11
112.919734
 21
-150.803754
 31
0.0
  0
LINE
  8
0
  6
BYLAYER
 62
     1
 10
162.925654
 20
-168.803754
 30
0.0
 11
163.925471
 21
-169.803510
 31
0.0
  0
LINE
  8
0
  6
BYLAYER
 62
     1
 10
132.919856
 20
-168.803754
 30
0.0
 11
162.925715
 21
-168.803754
 31
0.0
  0
LINE
  8
0
  6
BYLAYER
 62
     1
 10
112.919734
 20
-150.803754
 30
0.0
 11
117.919734
 21
-150.803754
 31
0.0
  0
LINE
  8
0
  6
BYLAYER
 62
     1
 10
131.919734
 20
-169.803754
 30
0.0
 11
131.919734
 21
-164.803754
 31
0.0
  0
LINE
  8
0
  6
BYLAYER
 62
     1
 10
132.919734
 20
-168.803754
 30
0.0
 11
132.919734
 21
-164.803754
 31
0.0
  0
LINE
  8
0
  6
BYLAYER
 62
     1
 10
163.919734
 20
-169.803510
 30
0.0
 11
163.919734
 21
-164.803510
 31
0.0
  0
LINE
  8
0
  6
BYLAYER
 62
     1
 10
162.919734
 20
-168.803510
 30
0.0
 11
162.919734
 21
-164.803510
 31
0.0
  0
ARC
  8
0
  6
BYLAYER
 62
     1
 10
118.919734
 20
-163.803754
 30
0.0
 40
1.0
 50
180.000000
 51
269.999996
  0
ARC
  8
0
  6
BYLAYER
 62
     1
 10
176.919795
 20
-163.803510
 30
0.0
 40
1.0
 50
270.0
 51
360.000050
  0
CIRCLE
  8
0
  6
BYLAYER
 62
     1
 10
147.919795
 20
-134.803754
 30
0.0
 40
21.0
  0
LINE
  8
0
  6
BYLAYER
 62
     1
 10
143.237117
 20
-164.803754
 30
0.0
 11
118.919734
 21
-164.803754
 31
0.0
  0
LINE
  8
0
  6
BYLAYER
 62
     1
 10
176.919795
 20
-164.803510
 30
0.0
 11
152.602351
 21
-164.803754
 31
0.0
  0
LINE
  8
0
  6
BYLAYER
 62
     1
 10
117.919917
 20
-154.053754
 30
0.0
 11
112.919734
 21
-154.053754
 31
0.0
  0
LINE
  8
0
  6
BYLAYER
 62
     1
 10
117.919917
 20
-160.553754
 30
0.0
 11
112.919734
 21
-160.553754
 31
0.0
  0
LINE
  8
0
  6
BYLAYER
 62
     1
 10
177.919795
 20
-163.803510
 30
0.0
 11
177.919795
 21
-149.553754
 31
0.0
  0
ARC
  8
0
  6
BYLAYER
 62
     1
 10
188.925746
 20
-70.803754
 30
0.0
 40
1.000000
 50
90.0
 51
179.999941
  0
ARC
  8
0
  6
BYLAYER
 62
     1
 10
188.925654
 20
-148.803754
 30
0.0
 40
1.000000
 50
179.999868
 51
269.999864
  0
LINE
  8
0
  6
BYLAYER
 62
     1
 10
113.919856
 20
-126.303754
 30
0.0
 11
113.919795
 21
-149.803754
 31
0.0
  0
ARC
  8
0
  6
BYLAYER
 62
     1
 10
112.919856
 20
-126.303754
 30
0.0
 40
1.000000
 50
0.0
 51
90.000016
  0
CIRCLE
  8
0
  6
BYLAYER
 62
     1
 10
147.919795
 20
-134.803754
 30
0.0
 40
18.5
  0
LINE
  8
0
  6
BYLAYER
 62
     1
 10
117.919856
 20
-149.803754
 30
0.0
 11
113.919734
 21
-149.803754
 31
0.0
  0
ARC
  8
0
  6
BYLAYER
 62
     1
 10
118.919673
 20
-113.553754
 30
0.0
 40
1.000000
 50
90.0
 51
179.999962
  0
ARC
  8
0
  6
BYLAYER
 62
     1
 10
118.919673
 20
-119.553754
 30
0.0
 40
1.000000
 50
90.0
 51
179.999962
  0
ARC
  8
0
  6
BYLAYER
 62
     1
 10
118.919673
 20
-116.053754
 30
0.0
 40
1.0
 50
180.000000
 51
269.999982
  0
LINE
  8
0
  6
BYLAYER
 62
     1
 10
125.777522
 20
-117.053754
 30
0.0
 11
118.919673
 21
-117.053754
 31
0.0
  0
LINE
  8
0
  6
BYLAYER
 62
     1
 10
118.919673
 20
-118.553754
 30
0.0
 11
125.777522
 21
-118.553754
 31
0.0
  0
LINE
  8
0
  6
BYLAYER
 62
     1
 10
117.919902
 20
-109.803754
 30
0.0
 11
117.919902
 21
-110.053754
 31
0.0
  0
ARC
  8
0
  6
BYLAYER
 62
     1
 10
118.919902
 20
-110.053754
 30
0.0
 40
1.000000
 50
180.000000
 51
269.999996
  0
ARC
  8
0
  6
BYLAYER
 62
     1
 10
118.919612
 20
-146.053754
 30
0.0
 40
1.0
 50
180.000000
 51
270.000050
  0
ARC
  8
0
  6
BYLAYER
 62
     1
 10
118.919612
 20
-149.553754
 30
0.0
 40
1.0
 50
90.0
 51
180.000009
  0
ARC
  8
0
  6
BYLAYER
 62
     1
 10
123.221583
 20
-147.903608
 30
0.0
 40
0.650146
 50
270.0
 51
360.000009
  0
LINE
  8
0
  6
BYLAYER
 62
     1
 10
123.871547
 20
-147.703656
 30
0.0
 11
123.871547
 21
-147.903608
 31
0.0
  0
ARC
  8
0
  6
BYLAYER
 62
     1
 10
123.221583
 20
-147.703656
 30
0.0
 40
0.649963
 50
0.0
 51
89.999934
  0
LINE
  8
0
  6
BYLAYER
 62
     1
 10
123.221583
 20
-148.553754
 30
0.0
 11
118.919612
 21
-148.553754
 31
0.0
  0
LINE
  8
0
  6
BYLAYER
 62
     1
 10
118.919612
 20
-147.053754
 30
0.0
 11
123.221583
 21
-147.053754
 31
0.0
  0
LINE
  8
0
  6
BYLAYER
 62
     1
 10
117.919734
 20
-149.553754
 30
0.0
 11
117.919734
 21
-149.753217
 31
0.0
  0
LINE
  8
0
  6
BYLAYER
 62
     1
 10
117.919734
 20
-163.803754
 30
0.0
 11
117.919734
 21
-149.553754
 31
0.0
  0
LINE
  8
0
  6
BYLAYER
 62
     1
 10
117.919734
 20
-153.526166
 30
0.0
 11
117.919734
 21
-149.553754
 31
0.0
  0
LINE
  8
0
  6
BYLAYER
 62
     1
 10
117.919673
 20
-122.202436
 30
0.0
 11
117.919673
 21
-119.553754
 31
0.0
  0
LINE
  8
0
  6
BYLAYER
 62
     1
 10
117.919673
 20
-113.553754
 30
0.0
 11
117.919673
 21
-116.053754
 31
0.0
  0
LINE
  8
0
  6
BYLAYER
 62
     1
 10
187.925746
 20
-70.803754
 30
0.0
 11
187.925746
 21
-80.868207
 31
0.0
  0
ARC
  8
0
  6
BYLAYER
 62
     1
 10
186.925746
 20
-80.868207
 30
0.0
 40
0.999934
 50
299.999175
 51
360.000003
  0
LINE
  8
0
  6
BYLAYER
 62
     1
 10
187.925715
 20
-138.739179
 30
0.0
 11
187.925654
 21
-148.803754
 31
0.0
  0
ARC
  8
0
  6
BYLAYER
 62
     1
 10
186.925715
 20
-138.739179
 30
0.0
 40
1.000040
 50
0.0
 51
60.000446
  0
LINE
  8
0
  6
BYLAYER
 62
     1
 10
185.425654
 20
-136.718427
 30
0.0
 11
187.425685
 21
-137.873090
 31
0.0
  0
ARC
  8
0
  6
BYLAYER
 62
     1
 10
185.925654
 20
-135.852338
 30
0.0
 40
1.000055
 50
180.000000
 51
240.000056
  0
LINE
  8
0
  6
BYLAYER
 62
     1
 10
185.425654
 20
-82.888959
 30
0.0
 11
187.425715
 21
-81.734174
 31
0.0
  0
ARC
  8
0
  6
BYLAYER
 62
     1
 10
185.925654
 20
-83.754926
 30
0.0
 40
1.000000
 50
119.999165
 51
180.000000
  0
LINE
  8
0
  6
BYLAYER
 62
     1
 10
187.925746
 20
-80.868207
 30
0.0
 11
187.925746
 21
-138.739179
 31
0.0
  0
LINE
  8
0
  6
BYLAYER
 62
     1
 10
184.925654
 20
-91.803754
 30
0.0
 11
184.925654
 21
-83.754926
 31
0.0
  0
ARC
  8
0
  6
BYLAYER
 62
     1
 10
184.425654
 20
-91.803754
 30
0.0
 40
0.500000
 50
270.0
 51
360.000003
  0
LINE
  8
0
  6
BYLAYER
 62
     1
 10
184.425654
 20
-127.303754
 30
0.0
 11
182.419795
 21
-127.303754
 31
0.0
  0
LINE
  8
0
  6
BYLAYER
 62
     1
 10
184.925654
 20
-135.852338
 30
0.0
 11
184.925654
 21
-127.803754
 31
0.0
  0
ARC
  8
0
  6
BYLAYER
 62
     1
 10
184.425654
 20
-127.803754
 30
0.0
 40
0.5
 50
0.0
 51
90.000003
  0
LINE
  8
0
  6
BYLAYER
 62
     1
 10
184.925654
 20
-127.803754
 30
0.0
 11
184.925654
 21
-91.803754
 31
0.0
  0
LINE
  8
0
  6
BYLAYER
 62
     1
 10
118.919673
 20
-112.553754
 30
0.0
 11
132.609889
 21
-112.553754
 31
0.0
  0
LINE
  8
0
  6
BYLAYER
 62
     1
 10
132.610255
 20
-111.053754
 30
0.0
 11
118.919673
 21
-111.053754
 31
0.0
  0
LINE
  8
0
  6
BYLAYER
 62
     1
 10
191.425868
 20
-149.803754
 30
0.0
 11
191.425868
 21
-69.803754
 31
0.0
  0
LINE
  8
0
  6
BYLAYER
 62
     1
 10
191.425868
 20
-149.803754
 30
0.0
 11
188.925654
 21
-149.803754
 31
0.0
  0
LINE
  8
0
  6
BYLAYER
 62
     1
 10
192.925654
 20
-148.803754
 30
0.0
 11
191.425868
 21
-148.803754
 31
0.0
  0
LINE
  8
0
  6
BYLAYER
 62
     1
 10
192.925776
 20
-109.803754
 30
0.0
 11
192.925654
 21
-148.803754
 31
0.0
  0
LINE
  8
0
  6
BYLAYER
 62
     1
 10
192.925868
 20
-70.803754
 30
0.0
 11
192.925776
 21
-109.803754
 31
0.0
  0
LINE
  8
0
  6
BYLAYER
 62
     1
 10
192.925746
 20
-70.803754
 30
0.0
 11
191.425868
 21
-70.803754
 31
0.0
  0
LINE
  8
0
  6
BYLAYER
 62
     1
 10
191.425868
 20
-69.803754
 30
0.0
 11
188.925746
 21
-69.803754
 31
0.0
  0
LINE
  8
0
  6
BYLAYER
 62
     1
 10
131.919917
 20
-169.803510
 30
0.0
 11
115.919734
 21
-169.803723
 31
0.0
  0
LINE
  8
0
  6
BYLAYER
 62
     1
 10
115.919734
 20
-169.803723
 30
0.0
 11
112.919734
 21
-166.803785
 31
0.0
  0
LINE
  8
0
  6
BYLAYER
 62
     1
 10
112.919734
 20
-166.803785
 30
0.0
 11
112.919734
 21
-150.803754
 31
0.0
  0
LINE
  8
0
  6
BYLAYER
 62
     1
 10
163.925471
 20
-169.803510
 30
0.0
 11
179.919795
 21
-169.803510
 31
0.0
  0
LINE
  8
0
  6
BYLAYER
 62
     1
 10
179.919795
 20
-169.803510
 30
0.0
 11
182.919795
 21
-166.803510
 31
0.0
  0
LINE
  8
0
  6
BYLAYER
 62
     1
 10
182.919795
 20
-166.803510
 30
0.0
 11
182.919795
 21
-150.803510
 31
0.0
  0
LINE
  8
0
  6
BYLAYER
 62
     1
 10
191.425899
 20
-80.188062
 30
0.0
 11
192.925868
 21
-80.188062
 31
0.0
  0
LINE
  8
0
  6
BYLAYER
 62
     1
 10
191.425899
 20
-84.426038
 30
0.0
 11
192.925868
 21
-84.426038
 31
0.0
  0
LINE
  8
0
  6
BYLAYER
 62
     1
 10
187.926021
 20
-79.479108
 30
0.0
 11
191.425899
 21
-79.479108
 31
0.0
  0
LINE
  8
0
  6
BYLAYER
 62
     1
 10
187.926021
 20
-83.954450
 30
0.0
 11
191.425899
 21
-83.954450
 31
0.0
  0
LINE
  8
0
  6
BYLAYER
 62
     1
 10
191.425899
 20
-135.180982
 30
0.0
 11
192.925868
 21
-135.180982
 31
0.0
  0
LINE
  8
0
  6
BYLAYER
 62
     1
 10
191.425899
 20
-139.418958
 30
0.0
 11
192.925868
 21
-139.418958
 31
0.0
  0
LINE
  8
0
  6
BYLAYER
 62
     1
 10
187.926021
 20
-135.652570
 30
0.0
 11
191.425899
 21
-135.652570
 31
0.0
  0
LINE
  8
0
  6
BYLAYER
 62
     1
 10
187.926021
 20
-140.127912
 30
0.0
 11
191.425899
 21
-140.127912
 31
0.0
  0
ARC
  8
0
  6
BYLAYER
 62
     1
 10
147.919795
 20
-134.803754
 30
0.0
 40
32.500015
 50
265.439620
 51
274.560299
  0
ARC
  8
0
  6
BYLAYER
 62
     1
 10
147.919795
 20
-134.803754
 30
0.0
 40
32.500023
 50
165.439626
 51
174.560306
  0
ARC
  8
0
  6
BYLAYER
 62
     1
 10
145.494777
 20
-165.207227
 30
0.0
 40
1.999986
 50
194.999934
 51
265.439101
  0
ARC
  8
0
  6
BYLAYER
 62
     1
 10
118.399325
 20
-127.136060
 30
0.0
 40
1.999992
 50
94.999940
 51
165.439107
  0
ARC
  8
0
  6
BYLAYER
 62
     1
 10
150.344790
 20
-165.207227
 30
0.0
 40
2.000017
 50
274.560573
 51
345.000095
  0
ARC
  8
0
  6
BYLAYER
 62
     1
 10
117.557132
 20
-131.912397
 30
0.0
 40
2.000006
 50
174.560565
 51
245.000115
  0
LINE
  8
0
  6
BYLAYER
 62
     1
 10
152.276660
 20
-165.724866
 30
0.0
 11
154.823898
 21
-156.218372
 31
0.0
  0
LINE
  8
0
  6
BYLAYER
 62
     1
 10
141.015658
 20
-156.218361
 30
0.0
 11
143.562915
 21
-165.724866
 31
0.0
  0
LINE
  8
0
  6
BYLAYER
 62
     1
 10
118.225001
 20
-125.143689
 30
0.0
 11
128.029399
 21
-124.285930
 31
0.0
  0
LINE
  8
0
  6
BYLAYER
 62
     1
 10
125.631632
 20
-137.884384
 30
0.0
 11
116.711879
 21
-133.725049
 31
0.0
  0
LINE
  8
0
  6
BYLAYER
 62
     1
 10
117.919673
 20
-125.194440
 30
0.0
 11
117.919673
 21
-122.202436
 31
0.0
  0
LINE
  8
0
  6
BYLAYER
 62
     1
 10
117.919734
 20
-134.288282
 30
0.0
 11
117.919734
 21
-146.053754
 31
0.0
  0
LINE
  8
0
  6
BYLAYER
 62
     1
 10
167.419795
 20
-164.803754
 30
0.0
 11
167.419795
 21
-169.803510
 31
0.0
  0
LINE
  8
0
  6
BYLAYER
 62
     1
 10
173.419795
 20
-164.803754
 30
0.0
 11
173.419795
 21
-169.803510
 31
0.0
  0
LINE
  8
0
  6
BYLAYER
 62
     1
 10
128.419795
 20
-164.803754
 30
0.0
 11
128.419795
 21
-169.803510
 31
0.0
  0
LINE
  8
0
  6
BYLAYER
 62
     1
 10
122.419795
 20
-164.803754
 30
0.0
 11
122.419795
 21
-169.803510
 31
0.0
  0
LINE
  8
0
  6
BYLAYER
 62
     1
 10
131.919856
 20
-86.803754
 30
0.0
 11
115.919673
 21
-86.803754
 31
0.0
  0
LINE
  8
0
  6
BYLAYER
 62
     1
 10
115.919673
 20
-86.803754
 30
0.0
 11
112.919673
 21
-89.803754
 31
0.0
  0
LINE
  8
0
  6
BYLAYER
 62
     1
 10
122.419734
 20
-86.803754
 30
0.0
 11
122.419734
 21
-91.803754
 31
0.0
  0
LINE
  8
0
  6
BYLAYER
 62
     1
 10
128.419734
 20
-86.803754
 30
0.0
 11
128.419734
 21
-91.803754
 31
0.0
  0
LINE
  8
0
  6
BYLAYER
 62
     1
 10
118.919673
 20
-91.803754
 30
0.0
 11
132.919673
 21
-91.803754
 31
0.0
  0
ARC
  8
0
  6
BYLAYER
 62
     1
 10
118.919673
 20
-92.803754
 30
0.0
 40
1.000000
 50
90.0
 51
179.999921
  0
LINE
  8
0
  6
BYLAYER
 62
     1
 10
117.919856
 20
-96.053754
 30
0.0
 11
112.919673
 21
-96.053754
 31
0.0
  0
LINE
  8
0
  6
BYLAYER
 62
     1
 10
117.919856
 20
-102.553754
 30
0.0
 11
112.919673
 21
-102.553754
 31
0.0
  0
LINE
  8
0
  6
BYLAYER
 62
     1
 10
132.919856
 20
-87.803754
 30
0.0
 11
131.919856
 21
-86.803754
 31
0.0
  0
LINE
  8
0
  6
BYLAYER
 62
     1
 10
131.919673
 20
-86.803754
 30
0.0
 11
131.919673
 21
-91.803754
 31
0.0
  0
LINE
  8
0
  6
BYLAYER
 62
     1
 10
132.919673
 20
-91.803754
 30
0.0
 11
132.919673
 21
-87.803754
 31
0.0
  0
LINE
  8
0
  6
BYLAYER
 62
     1
 10
132.919673
 20
-91.803754
 30
0.0
 11
133.489192
 21
-92.790082
 31
0.0
  0
LINE
  8
0
  6
BYLAYER
 62
     1
 10
162.919856
 20
-87.803754
 30
0.0
 11
132.919856
 21
-87.803754
 31
0.0
  0
LINE
  8
0
  6
BYLAYER
 62
     1
 10
133.489192
 20
-92.790082
 30
0.0
 11
162.350215
 21
-92.790082
 31
0.0
  0
LINE
  8
0
  6
BYLAYER
 62
     1
 10
162.919856
 20
-87.803754
 30
0.0
 11
163.919856
 21
-86.803754
 31
0.0
  0
LINE
  8
0
  6
BYLAYER
 62
     1
 10
162.919673
 20
-91.803754
 30
0.0
 11
162.350215
 21
-92.790082
 31
0.0
  0
LINE
  8
0
  6
BYLAYER
 62
     1
 10
163.919673
 20
-86.803754
 30
0.0
 11
163.919673
 21
-91.803754
 31
0.0
  0
LINE
  8
0
  6
BYLAYER
 62
     1
 10
163.919856
 20
-86.803754
 30
0.0
 11
179.919826
 21
-86.803754
 31
0.0
  0
LINE
  8
0
  6
BYLAYER
 62
     1
 10
167.419734
 20
-86.803754
 30
0.0
 11
167.419734
 21
-91.803754
 31
0.0
  0
LINE
  8
0
  6
BYLAYER
 62
     1
 10
173.419734
 20
-86.803754
 30
0.0
 11
173.419734
 21
-91.803754
 31
0.0
  0
LINE
  8
0
  6
BYLAYER
 62
     1
 10
162.919673
 20
-91.803754
 30
0.0
 11
176.919642
 21
-91.803754
 31
0.0
  0
ARC
  8
0
  6
BYLAYER
 62
     1
 10
176.919642
 20
-92.803754
 30
0.0
 40
1.0
 50
0.0
 51
90.000030
  0
LINE
  8
0
  6
BYLAYER
 62
     1
 10
179.919826
 20
-86.803754
 30
0.0
 11
182.919826
 21
-89.803754
 31
0.0
  0
LINE
  8
0
  6
BYLAYER
 62
     1
 10
112.919673
 20
-105.803510
 30
0.0
 11
117.919673
 21
-105.803510
 31
0.0
  0
LINE
  8
0
  6
BYLAYER
 62
     1
 10
113.919856
 20
-106.803754
 30
0.0
 11
112.919673
 21
-105.803510
 31
0.0
  0
LINE
  8
0
  6
BYLAYER
 62
     1
 10
113.919673
 20
-106.803754
 30
0.0
 11
117.919856
 21
-106.803754
 31
0.0
  0
LINE
  8
0
  6
BYLAYER
 62
     1
 10
182.919642
 20
-105.803754
 30
0.0
 11
177.919642
 21
-105.803754
 31
0.0
  0
LINE
  8
0
  6
BYLAYER
 62
     1
 10
181.919581
 20
-106.803754
 30
0.0
 11
182.919826
 21
-105.803510
 31
0.0
  0
LINE
  8
0
  6
BYLAYER
 62
     1
 10
181.919642
 20
-106.803754
 30
0.0
 11
177.919642
 21
-106.803754
 31
0.0
  0
LINE
  8
0
  6
BYLAYER
 62
     1
 10
112.919673
 20
-125.303754
 30
0.0
 11
112.919673
 21
-89.803754
 31
0.0
  0
LINE
  8
0
  6
BYLAYER
 62
     1
 10
117.919673
 20
-109.803754
 30
0.0
 11
117.919673
 21
-92.803754
 31
0.0
  0
LINE
  8
0
  6
BYLAYER
 62
     1
 10
113.919856
 20
-106.803754
 30
0.0
 11
113.919856
 21
-126.303754
 31
0.0
  0
LINE
  8
0
  6
BYLAYER
 62
     1
 10
177.919642
 20
-109.803754
 30
0.0
 11
177.919642
 21
-92.803754
 31
0.0
  0
LINE
  8
0
  6
BYLAYER
 62
     1
 10
182.919826
 20
-92.303754
 30
0.0
 11
184.425654
 21
-92.303754
 31
0.0
  0
LINE
  8
0
  6
BYLAYER
 62
     1
 10
182.919826
 20
-89.803754
 30
0.0
 11
182.919826
 21
-105.803510
 31
0.0
  0
LINE
  8
0
  6
BYLAYER
 62
     1
 10
181.919795
 20
-127.803754
 30
0.0
 11
181.919688
 21
-106.803632
 31
0.0
  0
LINE
  8
0
  6
BYLAYER
 62
     1
 10
162.919673
 20
-91.803754
 30
0.0
 11
162.919673
 21
-87.803754
 31
0.0
  0
LINE
  8
0
  6
BYLAYER
 62
     1
 10
122.906306
 20
-158.803754
 30
0.0
 11
122.906306
 21
-148.553754
 31
0.0
  0
ARC
  8
0
  6
BYLAYER
 62
     1
 10
123.906306
 20
-158.803754
 30
0.0
 40
1.0
 50
180.000000
 51
269.999996
  0
LINE
  8
0
  6
BYLAYER
 62
     1
 10
172.933284
 20
-148.553754
 30
0.0
 11
172.933284
 21
-158.803754
 31
0.0
  0
ARC
  8
0
  6
BYLAYER
 62
     1
 10
171.933284
 20
-158.803754
 30
0.0
 40
1.000000
 50
270.0
 51
360.000003
  0
LINE
  8
0
  6
BYLAYER
 62
     1
 10
177.633601
 20
-164.503949
 30
0.0
 11
172.640384
 21
-159.510877
 31
0.0
  0
LINE
  8
0
  6
BYLAYER
 62
     1
 10
123.199206
 20
-159.510877
 30
0.0
 11
118.205867
 21
-164.503949
 31
0.0
  0
LINE
  8
0
  6
BYLAYER
 62
     1
 10
122.906306
 20
-137.679059
 30
0.0
 11
122.906306
 21
-147.053754
 31
0.0
  0
ARC
  8
0
  6
BYLAYER
 62
     1
 10
115.202620
 20
-144.055036
 30
0.0
 40
9.999981
 50
15.788985
 51
65.000088
  0
LINE
  8
0
  6
BYLAYER
 62
     1
 10
141.403453
 20
-159.803754
 30
0.0
 11
123.906306
 21
-159.803754
 31
0.0
  0
ARC
  8
0
  6
BYLAYER
 62
     1
 10
147.919795
 20
-134.803754
 30
0.0
 40
24.000011
 50
195.789025
 51
244.210900
  0
ARC
  8
0
  6
BYLAYER
 62
     1
 10
133.127772
 20
-165.417401
 30
0.0
 40
9.999999
 50
15.000033
 51
64.210914
  0
LINE
  8
0
  6
BYLAYER
 62
     1
 10
171.933284
 20
-159.803754
 30
0.0
 11
154.436130
 21
-159.803754
 31
0.0
  0
ARC
  8
0
  6
BYLAYER
 62
     1
 10
162.711795
 20
-165.417432
 30
0.0
 40
10.000010
 50
115.789041
 51
165.000145
  0
ARC
  8
0
  6
BYLAYER
 62
     1
 10
147.919795
 20
-134.803754
 30
0.0
 40
23.999998
 50
295.789019
 51
344.210962
  0
ARC
  8
0
  6
BYLAYER
 62
     1
 10
120.339926
 20
-114.920331
 30
0.0
 40
9.999981
 50
274.999643
 51
324.210746
  0
CIRCLE
  8
0
  6
BYLAYER
 62
     1
 10
147.919795
 20
-134.803754
 30
0.0
 40
22.500055
  0
ARC
  8
0
  6
BYLAYER
 62
     1
 10
124.916639
 20
-101.303518
 30
0.0
 40
1.149491
 50
270.0
 51
308.795511
  0
ARC
  8
0
  6
BYLAYER
 62
     1
 10
124.805398
 20
-101.185046
 30
0.0
 40
1.311583
 50
309.340351
 51
360.0
  0
ARC
  8
0
  6
BYLAYER
 62
     1
 10
124.805398
 20
-101.185046
 30
0.0
 40
1.311583
 50
0.0
 51
50.659649
  0
ARC
  8
0
  6
BYLAYER
 62
     1
 10
124.916639
 20
-101.066574
 30
0.0
 40
1.149491
 50
51.204489
 51
90.000000
  0
ARC
  8
0
  6
BYLAYER
 62
     1
 10
124.916639
 20
-101.066564
 30
0.0
 40
1.149480
 50
90.0
 51
128.795693
  0
ARC
  8
0
  6
BYLAYER
 62
     1
 10
125.027890
 20
-101.185046
 30
0.0
 40
1.311587
 50
129.340576
 51
180.000000
  0
ARC
  8
0
  6
BYLAYER
 62
     1
 10
125.027890
 20
-101.185046
 30
0.0
 40
1.311587
 50
180.000000
 51
230.659424
  0
ARC
  8
0
  6
BYLAYER
 62
     1
 10
124.916639
 20
-101.303528
 30
0.0
 40
1.149480
 50
231.204307
 51
270.000000
  0
ARC
  8
0
  6
BYLAYER
 62
     1
 10
124.916639
 20
-100.847786
 30
0.0
 40
0.531899
 50
90.0
 51
140.793201
  0
ARC
  8
0
  6
BYLAYER
 62
     1
 10
125.330061
 20
-101.185046
 30
0.0
 40
1.065436
 50
140.793201
 51
180.000000
  0
ARC
  8
0
  6
BYLAYER
 62
     1
 10
125.330055
 20
-101.185046
 30
0.0
 40
1.065430
 50
180.000000
 51
219.206869
  0
ARC
  8
0
  6
BYLAYER
 62
     1
 10
124.916639
 20
-101.522302
 30
0.0
 40
0.531900
 50
219.206869
 51
270.000000
  0
ARC
  8
0
  6
BYLAYER
 62
     1
 10
124.916639
 20
-101.522302
 30
0.0
 40
0.531900
 50
270.0
 51
320.793131
  0
ARC
  8
0
  6
BYLAYER
 62
     1
 10
124.503224
 20
-101.185046
 30
0.0
 40
1.065430
 50
320.793131
 51
360.000000
  0
ARC
  8
0
  6
BYLAYER
 62
     1
 10
124.503217
 20
-101.185046
 30
0.0
 40
1.065436
 50
0.0
 51
39.206799
  0
ARC
  8
0
  6
BYLAYER
 62
     1
 10
124.916639
 20
-100.847786
 30
0.0
 40
0.531899
 50
39.206799
 51
90.000000
  0
LINE
  8
0
  6
BYLAYER
 62
     1
 10
120.977504
 20
-102.368475
 30
0.0
 11
120.977504
 21
-99.967798
 31
0.0
  0
LINE
  8
0
  6
BYLAYER
 62
     1
 10
120.977504
 20
-99.967798
 30
0.0
 11
121.953553
 21
-99.967798
 31
0.0
  0
LINE
  8
0
  6
BYLAYER
 62
     1
 10
121.953553
 20
-99.967798
 30
0.0
 11
122.279280
 21
-101.218860
 31
0.0
  0
LINE
  8
0
  6
BYLAYER
 62
     1
 10
120.977504
 20
-102.368475
 30
0.0
 11
121.563588
 21
-102.368475
 31
0.0
  0
LINE
  8
0
  6
BYLAYER
 62
     1
 10
121.563588
 20
-102.368475
 30
0.0
 11
121.563588
 21
-100.982171
 31
0.0
  0
LINE
  8
0
  6
BYLAYER
 62
     1
 10
122.025685
 20
-102.368475
 30
0.0
 11
121.563588
 21
-100.982171
 31
0.0
  0
LINE
  8
0
  6
BYLAYER
 62
     1
 10
123.581056
 20
-102.368475
 30
0.0
 11
123.581056
 21
-99.967798
 31
0.0
  0
LINE
  8
0
  6
BYLAYER
 62
     1
 10
123.581056
 20
-99.967798
 30
0.0
 11
122.605006
 21
-99.967798
 31
0.0
  0
LINE
  8
0
  6
BYLAYER
 62
     1
 10
122.605006
 20
-99.967798
 30
0.0
 11
122.279280
 21
-101.218860
 31
0.0
  0
LINE
  8
0
  6
BYLAYER
 62
     1
 10
123.581056
 20
-102.368475
 30
0.0
 11
122.994972
 21
-102.368475
 31
0.0
  0
LINE
  8
0
  6
BYLAYER
 62
     1
 10
122.994972
 20
-102.368475
 30
0.0
 11
122.994972
 21
-100.982171
 31
0.0
  0
LINE
  8
0
  6
BYLAYER
 62
     1
 10
122.532875
 20
-102.368475
 30
0.0
 11
122.994972
 21
-100.982171
 31
0.0
  0
LINE
  8
0
  6
BYLAYER
 62
     1
 10
122.532875
 20
-102.368475
 30
0.0
 11
122.025685
 21
-102.368475
 31
0.0
  0
LINE
  8
0
  6
BYLAYER
 62
     1
 10
132.169392
 20
-102.368475
 30
0.0
 11
133.082319
 21
-99.967798
 31
0.0
  0
LINE
  8
0
  6
BYLAYER
 62
     1
 10
132.169392
 20
-102.368475
 30
0.0
 11
132.947077
 21
-102.368475
 31
0.0
  0
LINE
  8
0
  6
BYLAYER
 62
     1
 10
133.082319
 20
-99.967798
 30
0.0
 11
133.826191
 21
-99.967798
 31
0.0
  0
LINE
  8
0
  6
BYLAYER
 62
     1
 10
132.947077
 20
-102.368475
 30
0.0
 11
133.062348
 21
-102.030352
 31
0.0
  0
LINE
  8
0
  6
BYLAYER
 62
     1
 10
133.246772
 20
-101.489355
 30
0.0
 11
133.454255
 21
-100.880731
 31
0.0
  0
LINE
  8
0
  6
BYLAYER
 62
     1
 10
134.739130
 20
-102.368475
 30
0.0
 11
133.826191
 21
-99.967798
 31
0.0
  0
LINE
  8
0
  6
BYLAYER
 62
     1
 10
134.739130
 20
-102.368475
 30
0.0
 11
133.961445
 21
-102.368475
 31
0.0
  0
LINE
  8
0
  6
BYLAYER
 62
     1
 10
133.846174
 20
-102.030352
 30
0.0
 11
133.062348
 21
-102.030352
 31
0.0
  0
LINE
  8
0
  6
BYLAYER
 62
     1
 10
133.661738
 20
-101.489355
 30
0.0
 11
133.246772
 21
-101.489355
 31
0.0
  0
LINE
  8
0
  6
BYLAYER
 62
     1
 10
133.961445
 20
-102.368475
 30
0.0
 11
133.846174
 21
-102.030352
 31
0.0
  0
LINE
  8
0
  6
BYLAYER
 62
     1
 10
133.661738
 20
-101.489355
 30
0.0
 11
133.454255
 21
-100.880731
 31
0.0
  0
LINE
  8
0
  6
BYLAYER
 62
     1
 10
126.116981
 20
-100.559515
 30
0.0
 11
126.793226
 21
-100.559515
 31
0.0
  0
LINE
  8
0
  6
BYLAYER
 62
     1
 10
126.793226
 20
-100.559515
 30
0.0
 11
126.793226
 21
-102.368475
 31
0.0
  0
LINE
  8
0
  6
BYLAYER
 62
     1
 10
126.793226
 20
-102.368475
 30
0.0
 11
127.537104
 21
-102.368475
 31
0.0
  0
LINE
  8
0
  6
BYLAYER
 62
     1
 10
127.537104
 20
-102.368475
 30
0.0
 11
127.537104
 21
-100.559515
 31
0.0
  0
LINE
  8
0
  6
BYLAYER
 62
     1
 10
127.537104
 20
-100.559515
 30
0.0
 11
128.213349
 21
-100.559515
 31
0.0
  0
LINE
  8
0
  6
BYLAYER
 62
     1
 10
128.213349
 20
-100.559515
 30
0.0
 11
128.213349
 21
-99.967798
 31
0.0
  0
LINE
  8
0
  6
BYLAYER
 62
     1
 10
128.213349
 20
-99.967798
 30
0.0
 11
126.116981
 21
-99.967798
 31
0.0
  0
LINE
  8
0
  6
BYLAYER
 62
     1
 10
126.116981
 20
-99.967798
 30
0.0
 11
126.116981
 21
-100.559515
 31
0.0
  0
ARC
  8
0
  6
BYLAYER
 62
     1
 10
129.413685
 20
-101.303528
 30
0.0
 40
1.149480
 50
270.0
 51
308.795693
  0
ARC
  8
0
  6
BYLAYER
 62
     1
 10
129.302434
 20
-101.185046
 30
0.0
 40
1.311587
 50
309.340576
 51
360.000000
  0
ARC
  8
0
  6
BYLAYER
 62
     1
 10
129.302438
 20
-101.185046
 30
0.0
 40
1.311583
 50
0.0
 51
50.659649
  0
ARC
  8
0
  6
BYLAYER
 62
     1
 10
129.413679
 20
-101.066574
 30
0.0
 40
1.149491
 50
51.204489
 51
90.000000
  0
ARC
  8
0
  6
BYLAYER
 62
     1
 10
129.413679
 20
-101.066564
 30
0.0
 40
1.149480
 50
90.0
 51
128.795693
  0
ARC
  8
0
  6
BYLAYER
 62
     1
 10
129.524930
 20
-101.185046
 30
0.0
 40
1.311587
 50
129.340576
 51
180.000000
  0
ARC
  8
0
  6
BYLAYER
 62
     1
 10
129.524926
 20
-101.185046
 30
0.0
 40
1.311583
 50
180.000000
 51
230.659649
  0
ARC
  8
0
  6
BYLAYER
 62
     1
 10
129.413685
 20
-101.303518
 30
0.0
 40
1.149491
 50
231.204489
 51
270.0
  0
ARC
  8
0
  6
BYLAYER
 62
     1
 10
129.413679
 20
-100.847786
 30
0.0
 40
0.531899
 50
90.0
 51
140.793201
  0
ARC
  8
0
  6
BYLAYER
 62
     1
 10
129.827101
 20
-101.185046
 30
0.0
 40
1.065436
 50
140.793201
 51
180.000000
  0
ARC
  8
0
  6
BYLAYER
 62
     1
 10
129.827087
 20
-101.185046
 30
0.0
 40
1.065422
 50
180.000000
 51
219.207055
  0
ARC
  8
0
  6
BYLAYER
 62
     1
 10
129.413685
 20
-101.522293
 30
0.0
 40
0.531908
 50
219.207055
 51
270.000000
  0
ARC
  8
0
  6
BYLAYER
 62
     1
 10
129.413685
 20
-101.522302
 30
0.0
 40
0.531900
 50
270.0
 51
320.793131
  0
ARC
  8
0
  6
BYLAYER
 62
     1
 10
129.000270
 20
-101.185046
 30
0.0
 40
1.065430
 50
320.793131
 51
360.000000
  0
ARC
  8
0
  6
BYLAYER
 62
     1
 10
129.000270
 20
-101.185046
 30
0.0
 40
1.065429
 50
0.0
 51
39.206985
  0
ARC
  8
0
  6
BYLAYER
 62
     1
 10
129.413679
 20
-100.847794
 30
0.0
 40
0.531907
 50
39.206985
 51
90.000000
  0
LINE
  8
0
  6
BYLAYER
 62
     1
 10
134.803925
 20
-102.368475
 30
0.0
 11
134.803925
 21
-99.967798
 31
0.0
  0
LINE
  8
0
  6
BYLAYER
 62
     1
 10
134.803925
 20
-99.967798
 30
0.0
 11
136.291663
 21
-99.967798
 31
0.0
  0
ARC
  8
0
  6
BYLAYER
 62
     1
 10
136.291663
 20
-100.644049
 30
0.0
 40
0.676244
 50
287.134650
 51
450.000006
  0
ARC
  8
0
  6
BYLAYER
 62
     1
 10
136.426917
 20
-101.827478
 30
0.0
 40
0.540997
 50
0.0
 51
83.207557
  0
LINE
  8
0
  6
BYLAYER
 62
     1
 10
136.967915
 20
-101.827478
 30
0.0
 11
136.967915
 21
-102.165600
 31
0.0
  0
ARC
  8
0
  6
BYLAYER
 62
     1
 10
137.508912
 20
-102.165600
 30
0.0
 40
0.540997
 50
180.000000
 51
202.024314
  0
LINE
  8
0
  6
BYLAYER
 62
     1
 10
136.263520
 20
-102.368475
 30
0.0
 11
137.007392
 21
-102.368475
 31
0.0
  0
ARC
  8
0
  6
BYLAYER
 62
     1
 10
136.765040
 20
-102.165600
 30
0.0
 40
0.540997
 50
180.000000
 51
202.024314
  0
LINE
  8
0
  6
BYLAYER
 62
     1
 10
136.224043
 20
-102.165600
 30
0.0
 11
136.224043
 21
-101.895105
 31
0.0
  0
LINE
  8
0
  6
BYLAYER
 62
     1
 10
134.803925
 20
-102.368475
 30
0.0
 11
135.513984
 21
-102.368475
 31
0.0
  0
LINE
  8
0
  6
BYLAYER
 62
     1
 10
135.513984
 20
-102.368475
 30
0.0
 11
135.513984
 21
-101.556982
 31
0.0
  0
LINE
  8
0
  6
BYLAYER
 62
     1
 10
135.885920
 20
-101.556982
 30
0.0
 11
135.513984
 21
-101.556982
 31
0.0
  0
ARC
  8
0
  6
BYLAYER
 62
     1
 10
135.885920
 20
-101.895105
 30
0.0
 40
0.338123
 50
0.0
 51
90.000003
  0
LINE
  8
0
  6
BYLAYER
 62
     1
 10
135.513984
 20
-101.015985
 30
0.0
 11
135.513984
 21
-100.508795
 31
0.0
  0
LINE
  8
0
  6
BYLAYER
 62
     1
 10
135.513984
 20
-100.508795
 30
0.0
 11
135.987354
 21
-100.508795
 31
0.0
  0
LINE
  8
0
  6
BYLAYER
 62
     1
 10
135.513984
 20
-101.015985
 30
0.0
 11
135.987354
 21
-101.015985
 31
0.0
  0
ARC
  8
0
  6
BYLAYER
 62
     1
 10
135.987354
 20
-100.762390
 30
0.0
 40
0.253595
 50
270.0
 51
450.000005
  0
LINE
  8
0
  6
BYLAYER
 62
     1
 10
131.577680
 20
-101.609356
 30
0.0
 11
131.138117
 21
-99.967798
 31
0.0
  0
LINE
  8
0
  6
BYLAYER
 62
     1
 10
131.138117
 20
-99.967798
 30
0.0
 11
130.428059
 21
-99.967798
 31
0.0
  0
LINE
  8
0
  6
BYLAYER
 62
     1
 10
130.428059
 20
-99.967798
 30
0.0
 11
131.171931
 21
-102.368475
 31
0.0
  0
LINE
  8
0
  6
BYLAYER
 62
     1
 10
131.577680
 20
-101.609356
 30
0.0
 11
132.017231
 21
-99.967798
 31
0.0
  0
LINE
  8
0
  6
BYLAYER
 62
     1
 10
132.017231
 20
-99.967798
 30
0.0
 11
132.727290
 21
-99.967798
 31
0.0
  0
LINE
  8
0
  6
BYLAYER
 62
     1
 10
132.727290
 20
-99.967798
 30
0.0
 11
131.983418
 21
-102.368475
 31
0.0
  0
LINE
  8
0
  6
BYLAYER
 62
     1
 10
131.983418
 20
-102.368475
 30
0.0
 11
131.171931
 21
-102.368475
 31
0.0
  0
LINE
  8
0
  6
BYLAYER
 62
     1
 10
137.072187
 20
-102.368475
 30
0.0
 11
137.782246
 21
-102.368475
 31
0.0
  0
LINE
  8
0
  6
BYLAYER
 62
     1
 10
137.782246
 20
-102.368475
 30
0.0
 11
137.782246
 21
-99.967798
 31
0.0
  0
LINE
  8
0
  6
BYLAYER
 62
     1
 10
137.782246
 20
-99.967798
 30
0.0
 11
137.072187
 21
-99.967798
 31
0.0
  0
LINE
  8
0
  6
BYLAYER
 62
     1
 10
137.072187
 20
-99.967798
 30
0.0
 11
137.072187
 21
-102.368475
 31
0.0
  0
ARC
  8
0
  6
BYLAYER
 62
     1
 10
139.117835
 20
-101.303528
 30
0.0
 40
1.149480
 50
270.0
 51
308.795693
  0
ARC
  8
0
  6
BYLAYER
 62
     1
 10
139.006584
 20
-101.185046
 30
0.0
 40
1.311587
 50
309.340576
 51
360.000000
  0
ARC
  8
0
  6
BYLAYER
 62
     1
 10
139.006584
 20
-101.185046
 30
0.0
 40
1.311587
 50
0.0
 51
50.659424
  0
ARC
  8
0
  6
BYLAYER
 62
     1
 10
139.117835
 20
-101.066564
 30
0.0
 40
1.149480
 50
51.204307
 51
90.000000
  0
ARC
  8
0
  6
BYLAYER
 62
     1
 10
139.117835
 20
-101.066564
 30
0.0
 40
1.149480
 50
90.0
 51
128.795693
  0
ARC
  8
0
  6
BYLAYER
 62
     1
 10
139.229086
 20
-101.185046
 30
0.0
 40
1.311587
 50
129.340576
 51
180.000000
  0
ARC
  8
0
  6
BYLAYER
 62
     1
 10
139.229086
 20
-101.185046
 30
0.0
 40
1.311587
 50
180.000000
 51
230.659424
  0
ARC
  8
0
  6
BYLAYER
 62
     1
 10
139.117835
 20
-101.303528
 30
0.0
 40
1.149480
 50
231.204307
 51
270.000000
  0
ARC
  8
0
  6
BYLAYER
 62
     1
 10
139.117835
 20
-100.847786
 30
0.0
 40
0.531899
 50
39.206799
 51
90.0
  0
ARC
  8
0
  6
BYLAYER
 62
     1
 10
138.704413
 20
-101.185046
 30
0.0
 40
1.065436
 50
0.0
 51
39.206799
  0
ARC
  8
0
  6
BYLAYER
 62
     1
 10
138.704420
 20
-101.185046
 30
0.0
 40
1.065430
 50
320.793131
 51
360.000000
  0
ARC
  8
0
  6
BYLAYER
 62
     1
 10
139.117835
 20
-101.522302
 30
0.0
 40
0.531900
 50
270.0
 51
320.793131
  0
ARC
  8
0
  6
BYLAYER
 62
     1
 10
139.117835
 20
-101.522302
 30
0.0
 40
0.531900
 50
219.206869
 51
270.000000
  0
ARC
  8
0
  6
BYLAYER
 62
     1
 10
139.531251
 20
-101.185046
 30
0.0
 40
1.065430
 50
180.000000
 51
219.206869
  0
ARC
  8
0
  6
BYLAYER
 62
     1
 10
139.531257
 20
-101.185046
 30
0.0
 40
1.065436
 50
140.793201
 51
180.000000
  0
ARC
  8
0
  6
BYLAYER
 62
     1
 10
139.117835
 20
-100.847786
 30
0.0
 40
0.531899
 50
90.0
 51
140.793201
  0
ARC
  8
0
  6
BYLAYER
 62
     1
 10
127.129090
 20
-97.219507
 30
0.0
 40
2.971998
 50
174.535650
 51
180.0
  0
LINE
  8
0
  6
BYLAYER
 62
     1
 10
124.170597
 20
-96.936493
 30
0.0
 11
124.170597
 21
-96.936490
 31
0.0
  0
LINE
  8
0
  6
BYLAYER
 62
     1
 10
124.173831
 20
-96.904520
 30
0.0
 11
124.457472
 21
-96.785103
 31
0.0
  0
ARC
  8
0
  6
BYLAYER
 62
     1
 10
127.129103
 20
-97.219531
 30
0.0
 40
2.706712
 50
159.235383
 51
170.763998
  0
LINE
  8
0
  6
BYLAYER
 62
     1
 10
124.598193
 20
-96.259905
 30
0.0
 11
124.412273
 21
-96.014660
 31
0.0
  0
ARC
  8
0
  6
BYLAYER
 62
     1
 10
127.129090
 20
-97.219507
 30
0.0
 40
2.971995
 50
144.139514
 51
156.083795
  0
LINE
  8
0
  6
BYLAYER
 62
     1
 10
124.700904
 20
-95.505829
 30
0.0
 11
124.701081
 21
-95.505578
 31
0.0
  0
LINE
  8
0
  6
BYLAYER
 62
     1
 10
124.720450
 20
-95.478472
 30
0.0
 11
125.022420
 21
-95.520018
 31
0.0
  0
ARC
  8
0
  6
BYLAYER
 62
     1
 10
127.129090
 20
-97.219507
 30
0.0
 40
2.706696
 50
129.235643
 51
141.105976
  0
LINE
  8
0
  6
BYLAYER
 62
     1
 10
125.372816
 20
-95.159964
 30
0.0
 11
125.373109
 21
-95.159710
 31
0.0
  0
LINE
  8
0
  6
BYLAYER
 62
     1
 10
125.417074
 20
-95.123032
 30
0.0
 11
125.378677
 21
-94.817669
 31
0.0
  0
ARC
  8
0
  6
BYLAYER
 62
     1
 10
127.129090
 20
-97.219507
 30
0.0
 40
2.971998
 50
114.139607
 51
126.083853
  0
LINE
  8
0
  6
BYLAYER
 62
     1
 10
125.883271
 20
-94.521228
 30
0.0
 11
125.883473
 21
-94.521133
 31
0.0
  0
LINE
  8
0
  6
BYLAYER
 62
     1
 10
125.913658
 20
-94.507405
 30
0.0
 11
126.154390
 21
-94.694363
 31
0.0
  0
LINE
  8
0
  6
BYLAYER
 62
     1
 10
126.209431
 20
-94.673834
 30
0.0
 11
126.209736
 21
-94.673727
 31
0.0
  0
ARC
  8
0
  6
BYLAYER
 62
     1
 10
127.129090
 20
-97.219507
 30
0.0
 40
2.706695
 50
99.235601
 51
111.106038
  0
ARC
  8
0
  6
BYLAYER
 62
     1
 10
127.129090
 20
-97.219507
 30
0.0
 40
2.971998
 50
90.0
 51
96.083892
  0
LINE
  8
0
  6
BYLAYER
 62
     1
 10
126.814104
 20
-94.264248
 30
0.0
 11
126.694681
 21
-94.547899
 31
0.0
  0
LINE
  8
0
  6
BYLAYER
 62
     1
 10
130.087580
 20
-96.936493
 30
0.0
 11
130.087580
 21
-96.936490
 31
0.0
  0
LINE
  8
0
  6
BYLAYER
 62
     1
 10
130.084349
 20
-96.904520
 30
0.0
 11
129.800694
 21
-96.785101
 31
0.0
  0
ARC
  8
0
  6
BYLAYER
 62
     1
 10
127.129072
 20
-97.219531
 30
0.0
 40
2.706712
 50
9.235986
 51
20.764650
  0
LINE
  8
0
  6
BYLAYER
 62
     1
 10
129.660002
 20
-96.259877
 30
0.0
 11
129.845908
 21
-96.014660
 31
0.0
  0
ARC
  8
0
  6
BYLAYER
 62
     1
 10
127.129090
 20
-97.219507
 30
0.0
 40
2.971995
 50
23.916189
 51
35.860484
  0
LINE
  8
0
  6
BYLAYER
 62
     1
 10
129.557270
 20
-95.505829
 30
0.0
 11
129.557093
 21
-95.505578
 31
0.0
  0
LINE
  8
0
  6
BYLAYER
 62
     1
 10
129.537731
 20
-95.478472
 30
0.0
 11
129.235782
 21
-95.520014
 31
0.0
  0
ARC
  8
0
  6
BYLAYER
 62
     1
 10
127.129090
 20
-97.219507
 30
0.0
 40
2.706696
 50
38.894050
 51
50.764315
  0
LINE
  8
0
  6
BYLAYER
 62
     1
 10
128.885365
 20
-95.159964
 30
0.0
 11
128.885072
 21
-95.159710
 31
0.0
  0
LINE
  8
0
  6
BYLAYER
 62
     1
 10
128.841114
 20
-95.122983
 30
0.0
 11
128.879497
 21
-94.817665
 31
0.0
  0
ARC
  8
0
  6
BYLAYER
 62
     1
 10
127.129090
 20
-97.219507
 30
0.0
 40
2.971998
 50
53.916300
 51
65.860381
  0
LINE
  8
0
  6
BYLAYER
 62
     1
 10
128.374909
 20
-94.521228
 30
0.0
 11
128.374702
 21
-94.521133
 31
0.0
  0
LINE
  8
0
  6
BYLAYER
 62
     1
 10
128.344523
 20
-94.507405
 30
0.0
 11
128.103794
 21
-94.694355
 31
0.0
  0
LINE
  8
0
  6
BYLAYER
 62
     1
 10
128.048744
 20
-94.673834
 30
0.0
 11
128.048445
 21
-94.673727
 31
0.0
  0
ARC
  8
0
  6
BYLAYER
 62
     1
 10
127.129090
 20
-97.219507
 30
0.0
 40
2.706695
 50
68.894081
 51
80.764578
  0
ARC
  8
0
  6
BYLAYER
 62
     1
 10
127.129090
 20
-97.219507
 30
0.0
 40
2.971998
 50
84.535428
 51
90.000003
  0
LINE
  8
0
  6
BYLAYER
 62
     1
 10
127.444077
 20
-94.264248
 30
0.0
 11
127.563472
 21
-94.547851
 31
0.0
  0
ARC
  8
0
  6
BYLAYER
 62
     1
 10
127.129090
 20
-97.219507
 30
0.0
 40
2.971998
 50
180.000000
 51
186.083899
  0
LINE
  8
0
  6
BYLAYER
 62
     1
 10
124.170597
 20
-97.502517
 30
0.0
 11
124.170597
 21
-97.502524
 31
0.0
  0
LINE
  8
0
  6
BYLAYER
 62
     1
 10
124.173831
 20
-97.534493
 30
0.0
 11
124.457481
 21
-97.653913
 31
0.0
  0
ARC
  8
0
  6
BYLAYER
 62
     1
 10
127.129103
 20
-97.219482
 30
0.0
 40
2.706712
 50
189.236002
 51
200.764629
  0
LINE
  8
0
  6
BYLAYER
 62
     1
 10
124.598203
 20
-98.179096
 30
0.0
 11
124.412272
 21
-98.424351
 31
0.0
  0
ARC
  8
0
  6
BYLAYER
 62
     1
 10
127.129090
 20
-97.219507
 30
0.0
 40
2.971995
 50
203.916158
 51
215.860410
  0
LINE
  8
0
  6
BYLAYER
 62
     1
 10
124.700904
 20
-98.933181
 30
0.0
 11
124.701081
 21
-98.933432
 31
0.0
  0
LINE
  8
0
  6
BYLAYER
 62
     1
 10
124.720447
 20
-98.960538
 30
0.0
 11
125.022446
 21
-98.918993
 31
0.0
  0
ARC
  8
0
  6
BYLAYER
 62
     1
 10
127.129090
 20
-97.219507
 30
0.0
 40
2.706696
 50
218.894045
 51
230.764345
  0
LINE
  8
0
  6
BYLAYER
 62
     1
 10
125.372816
 20
-99.279046
 30
0.0
 11
125.373109
 21
-99.279300
 31
0.0
  0
LINE
  8
0
  6
BYLAYER
 62
     1
 10
125.417074
 20
-99.315981
 30
0.0
 11
125.378677
 21
-99.621344
 31
0.0
  0
ARC
  8
0
  6
BYLAYER
 62
     1
 10
127.129090
 20
-97.219507
 30
0.0
 40
2.971998
 50
233.916148
 51
245.860401
  0
LINE
  8
0
  6
BYLAYER
 62
     1
 10
125.883271
 20
-99.917782
 30
0.0
 11
125.883473
 21
-99.917880
 31
0.0
  0
LINE
  8
0
  6
BYLAYER
 62
     1
 10
125.913658
 20
-99.931608
 30
0.0
 11
126.154418
 21
-99.744624
 31
0.0
  0
LINE
  8
0
  6
BYLAYER
 62
     1
 10
126.209431
 20
-99.765176
 30
0.0
 11
126.209736
 21
-99.765286
 31
0.0
  0
LINE
  8
0
  6
BYLAYER
 62
     1
 10
130.087580
 20
-97.502517
 30
0.0
 11
130.087580
 21
-97.502524
 31
0.0
  0
LINE
  8
0
  6
BYLAYER
 62
     1
 10
130.084349
 20
-97.534493
 30
0.0
 11
129.800694
 21
-97.653913
 31
0.0
  0
LINE
  8
0
  6
BYLAYER
 62
     1
 10
129.659975
 20
-98.179103
 30
0.0
 11
129.845911
 21
-98.424353
 31
0.0
  0
LINE
  8
0
  6
BYLAYER
 62
     1
 10
129.557270
 20
-98.933181
 30
0.0
 11
129.557093
 21
-98.933432
 31
0.0
  0
LINE
  8
0
  6
BYLAYER
 62
     1
 10
129.537737
 20
-98.960538
 30
0.0
 11
129.235719
 21
-98.918992
 31
0.0
  0
LINE
  8
0
  6
BYLAYER
 62
     1
 10
128.885365
 20
-99.279046
 30
0.0
 11
128.885072
 21
-99.279300
 31
0.0
  0
LINE
  8
0
  6
BYLAYER
 62
     1
 10
128.841108
 20
-99.315980
 30
0.0
 11
128.879497
 21
-99.621349
 31
0.0
  0
LINE
  8
0
  6
BYLAYER
 62
     1
 10
128.344523
 20
-99.931608
 30
0.0
 11
128.103757
 21
-99.744626
 31
0.0
  0
ARC
  8
0
  6
BYLAYER
 62
     1
 10
127.129090
 20
-97.219507
 30
0.0
 40
2.706696
 50
309.235697
 51
321.105929
  0
ARC
  8
0
  6
BYLAYER
 62
     1
 10
127.129090
 20
-97.219507
 30
0.0
 40
2.706695
 50
248.893873
 51
270.000000
  0
ARC
  8
0
  6
BYLAYER
 62
     1
 10
127.129090
 20
-97.219507
 30
0.0
 40
2.971998
 50
294.783232
 51
306.083699
  0
LINE
  8
0
  6
BYLAYER
 62
     1
 10
128.374702
 20
-99.917880
 30
0.0
 11
128.344706
 21
-99.931996
 31
0.0
  0
ARC
  8
0
  6
BYLAYER
 62
     1
 10
127.129090
 20
-97.219507
 30
0.0
 40
2.971995
 50
324.139593
 51
336.083825
  0
ARC
  8
0
  6
BYLAYER
 62
     1
 10
127.129072
 20
-97.219482
 30
0.0
 40
2.706712
 50
339.23521
 51
350.764014
  0
ARC
  8
0
  6
BYLAYER
 62
     1
 10
127.129090
 20
-97.219507
 30
0.0
 40
2.971998
 50
353.916089
 51
360.000000
  0
ARC
  8
0
  6
BYLAYER
 62
     1
 10
127.129090
 20
-97.219507
 30
0.0
 40
2.971998
 50
0.0
 51
6.083907
  0
ARC
  8
0
  6
BYLAYER
 62
     1
 10
127.129090
 20
-97.219507
 30
0.0
 40
2.706695
 50
270.0
 51
291.106008
  0
CIRCLE
  8
0
  6
BYLAYER
 62
     1
 10
127.129090
 20
-97.219507
 30
0.0
 40
1.452032
  0
CIRCLE
  8
0
  6
BYLAYER
 62
     1
 10
127.129090
 20
-97.219507
 30
0.0
 40
2.118413
  0
ARC
  8
0
  6
BYLAYER
 62
     1
 10
147.919795
 20
-134.803754
 30
0.0
 40
23.999998
 50
35.789006
 51
144.210985
  0
LINE
  8
0
  6
BYLAYER
 62
     1
 10
147.919795
 20
-134.803754
 30
0.0
 11
144.919795
 21
-134.803754
 31
0.0
  0
LINE
  8
0
  6
BYLAYER
 62
     1
 10
147.919795
 20
-134.803754
 30
0.0
 11
147.919795
 21
-137.803754
 31
0.0
  0
LINE
  8
0
  6
BYLAYER
 62
     1
 10
147.919795
 20
-134.803754
 30
0.0
 11
150.919795
 21
-134.803754
 31
0.0
  0
LINE
  8
0
  6
BYLAYER
 62
     1
 10
147.919795
 20
-134.803754
 30
0.0
 11
147.919795
 21
-131.803754
 31
0.0
  0
ARC
  8
0
  6
BYLAYER
 62
     1
 10
125.777522
 20
-117.703656
 30
0.0
 40
0.649902
 50
0.0
 51
90.000023
  0
ARC
  8
0
  6
BYLAYER
 62
     1
 10
125.777522
 20
-117.903608
 30
0.0
 40
0.650024
 50
270.0
 51
360.000037
  0
LINE
  8
0
  6
BYLAYER
 62
     1
 10
126.427546
 20
-117.903608
 30
0.0
 11
126.427546
 21
-117.703656
 31
0.0
  0
ARC
  8
0
  6
BYLAYER
 62
     1
 10
132.520122
 20
-111.903608
 30
0.0
 40
0.650024
 50
284.012759
 51
360.0
  0
ARC
  8
0
  6
BYLAYER
 62
     1
 10
132.520122
 20
-111.703656
 30
0.0
 40
0.649957
 50
0.0
 51
75.987248
  0
LINE
  8
0
  6
BYLAYER
 62
     1
 10
133.170146
 20
-111.903608
 30
0.0
 11
133.170146
 21
-111.703656
 31
0.0
  0
CIRCLE
  8
0
  6
BYLAYER
 62
     1
 10
175.002070
 20
-130.028363
 30
0.0
 40
3.25
  0
LINE
  8
0
  6
BYLAYER
 62
     1
 10
181.919795
 20
-129.303754
 30
0.0
 11
181.919795
 21
-149.803510
 31
0.0
  0
ARC
  8
0
  6
BYLAYER
 62
     1
 10
147.919795
 20
-134.803754
 30
0.0
 40
32.500023
 50
5.439632
 51
14.560309
  0
LINE
  8
0
  6
BYLAYER
 62
     1
 10
177.919795
 20
-146.053754
 30
0.0
 11
177.919795
 21
-134.288312
 31
0.0
  0
LINE
  8
0
  6
BYLAYER
 62
     1
 10
172.933284
 20
-147.053754
 30
0.0
 11
172.933284
 21
-137.679059
 31
0.0
  0
LINE
  8
0
  6
BYLAYER
 62
     1
 10
172.493953
 20
-148.553754
 30
0.0
 11
176.919856
 21
-148.553754
 31
0.0
  0
LINE
  8
0
  6
BYLAYER
 62
     1
 10
176.919856
 20
-147.053754
 30
0.0
 11
172.493953
 21
-147.053754
 31
0.0
  0
ARC
  8
0
  6
BYLAYER
 62
     1
 10
172.493953
 20
-147.703656
 30
0.0
 40
0.649963
 50
90.0
 51
179.999934
  0
ARC
  8
0
  6
BYLAYER
 62
     1
 10
172.493953
 20
-147.903608
 30
0.0
 40
0.650146
 50
180.000000
 51
270.000009
  0
LINE
  8
0
  6
BYLAYER
 62
     1
 10
171.843989
 20
-147.703656
 30
0.0
 11
171.843989
 21
-147.903608
 31
0.0
  0
ARC
  8
0
  6
BYLAYER
 62
     1
 10
176.919856
 20
-146.053754
 30
0.0
 40
1.0
 50
270.0
 51
360.000050
  0
LINE
  8
0
  6
BYLAYER
 62
     1
 10
182.919795
 20
-150.803510
 30
0.0
 11
177.919795
 21
-150.803510
 31
0.0
  0
LINE
  8
0
  6
BYLAYER
 62
     1
 10
181.919795
 20
-149.803510
 30
0.0
 11
177.919795
 21
-149.803510
 31
0.0
  0
ARC
  8
0
  6
BYLAYER
 62
     1
 10
176.919856
 20
-149.553754
 30
0.0
 40
1.000000
 50
0.0
 51
90.000003
  0
LINE
  8
0
  6
BYLAYER
 62
     1
 10
177.919734
 20
-149.553754
 30
0.0
 11
177.919734
 21
-149.753217
 31
0.0
  0
LINE
  8
0
  6
BYLAYER
 62
     1
 10
181.919795
 20
-149.803510
 30
0.0
 11
182.919795
 21
-150.803510
 31
0.0
  0
LINE
  8
0
  6
BYLAYER
 62
     1
 10
170.207958
 20
-137.884384
 30
0.0
 11
179.127711
 21
-133.725049
 31
0.0
  0
ARC
  8
0
  6
BYLAYER
 62
     1
 10
180.636973
 20
-144.055036
 30
0.0
 40
9.999994
 50
114.999909
 51
164.210875
  0
ARC
  8
0
  6
BYLAYER
 62
     1
 10
178.282466
 20
-131.912427
 30
0.0
 40
1.999995
 50
294.999942
 51
365.439109
  0
LINE
  8
0
  6
BYLAYER
 62
     1
 10
176.919551
 20
-111.053754
 30
0.0
 11
163.619136
 21
-111.053754
 31
0.0
  0
LINE
  8
0
  6
BYLAYER
 62
     1
 10
163.619136
 20
-112.553754
 30
0.0
 11
176.919795
 21
-112.553754
 31
0.0
  0
LINE
  8
0
  6
BYLAYER
 62
     1
 10
177.614589
 20
-125.143689
 30
0.0
 11
167.810191
 21
-124.285930
 31
0.0
  0
ARC
  8
0
  6
BYLAYER
 62
     1
 10
175.499774
 20
-114.920484
 30
0.0
 40
9.999997
 50
215.789035
 51
265.000084
  0
ARC
  8
0
  6
BYLAYER
 62
     1
 10
163.619136
 20
-111.703656
 30
0.0
 40
0.649902
 50
90.0
 51
180.000023
  0
ARC
  8
0
  6
BYLAYER
 62
     1
 10
163.619136
 20
-111.903608
 30
0.0
 40
0.650024
 50
180.000000
 51
270.000037
  0
LINE
  8
0
  6
BYLAYER
 62
     1
 10
162.969111
 20
-111.903608
 30
0.0
 11
162.969111
 21
-111.703656
 31
0.0
  0
ARC
  8
0
  6
BYLAYER
 62
     1
 10
176.919795
 20
-119.553754
 30
0.0
 40
1.000000
 50
0.0
 51
89.999962
  0
LINE
  8
0
  6
BYLAYER
 62
     1
 10
177.919734
 20
-119.553754
 30
0.0
 11
177.919734
 21
-125.194410
 31
0.0
  0
ARC
  8
0
  6
BYLAYER
 62
     1
 10
177.440265
 20
-127.136090
 30
0.0
 40
2.000011
 50
14.560570
 51
85.000106
  0
ARC
  8
0
  6
BYLAYER
 62
     1
 10
182.419795
 20
-127.803754
 30
0.0
 40
0.500000
 50
90.0
 51
180.000003
  0
LINE
  8
0
  6
BYLAYER
 62
     1
 10
181.919795
 20
-129.303754
 30
0.0
 11
181.919795
 21
-127.803754
 31
0.0
  0
LINE
  8
0
  6
BYLAYER
 62
     1
 10
176.919795
 20
-117.053754
 30
0.0
 11
170.062190
 21
-117.053754
 31
0.0
  0
LINE
  8
0
  6
BYLAYER
 62
     1
 10
170.062190
 20
-118.553754
 30
0.0
 11
176.919795
 21
-118.553754
 31
0.0
  0
ARC
  8
0
  6
BYLAYER
 62
     1
 10
170.062190
 20
-117.703656
 30
0.0
 40
0.649902
 50
90.0
 51
180.000023
  0
ARC
  8
0
  6
BYLAYER
 62
     1
 10
170.062190
 20
-117.903608
 30
0.0
 40
0.650024
 50
180.000000
 51
270.000037
  0
LINE
  8
0
  6
BYLAYER
 62
     1
 10
169.412166
 20
-117.903608
 30
0.0
 11
169.412166
 21
-117.703656
 31
0.0
  0
ARC
  8
0
  6
BYLAYER
 62
     1
 10
176.919795
 20
-113.553754
 30
0.0
 40
1.000000
 50
0.0
 51
89.999962
  0
ARC
  8
0
  6
BYLAYER
 62
     1
 10
176.919795
 20
-116.053754
 30
0.0
 40
1.000000
 50
270.0
 51
359.999982
  0
LINE
  8
0
  6
BYLAYER
 62
     1
 10
177.919795
 20
-116.053754
 30
0.0
 11
177.919795
 21
-113.803754
 31
0.0
  0
ARC
  8
0
  6
BYLAYER
 62
     1
 10
176.919551
 20
-110.053754
 30
0.0
 40
1.0
 50
270.0
 51
360.000003
  0
LINE
  8
0
  6
BYLAYER
 62
     1
 10
177.919551
 20
-109.803754
 30
0.0
 11
177.919551
 21
-110.053754
 31
0.0
  0
LINE
  8
0
  6
BYLAYER
 62
     1
 10
481.919859
 20
-160.636840
 30
0.0
 11
481.919917
 21
-169.803998
 31
0.0
  0
LINE
  8
0
  6
BYLAYER
 62
     1
 10
481.919917
 20
-169.803998
 30
0.0
 11
491.919673
 21
-169.803998
 31
0.0
  0
LINE
  8
0
  6
BYLAYER
 62
     1
 10
523.919859
 20
-160.636788
 30
0.0
 11
523.919917
 21
-169.803998
 31
0.0
  0
LINE
  8
0
  6
BYLAYER
 62
     1
 10
523.919917
 20
-169.803998
 30
0.0
 11
513.920161
 21
-169.803998
 31
0.0
  0
LINE
  8
0
  6
BYLAYER
 62
     1
 10
513.920161
 20
-163.692454
 30
0.0
 11
513.920161
 21
-169.803754
 31
0.0
  0
LINE
  8
0
  6
BYLAYER
 62
     1
 10
491.919638
 20
-163.692496
 30
0.0
 11
491.919673
 21
-169.803754
 31
0.0
  0
LINE
  8
0
  6
BYLAYER
 62
     1
 10
525.425654
 20
-159.988277
 30
0.0
 11
525.425654
 21
-167.804486
 31
0.0
  0
ARC
  8
0
  6
BYLAYER
 62
     1
 10
524.425654
 20
-167.804486
 30
0.0
 40
1.0
 50
270.0
 51
359.999982
  0
LINE
  8
0
  6
BYLAYER
 62
     1
 10
524.425654
 20
-168.804486
 30
0.0
 11
523.925654
 21
-168.804486
 31
0.0
  0
LINE
  8
0
  6
BYLAYER
 62
     1
 10
480.413936
 20
-159.988277
 30
0.0
 11
480.413936
 21
-167.804486
 31
0.0
  0
ARC
  8
0
  6
BYLAYER
 62
     1
 10
481.413936
 20
-167.804486
 30
0.0
 40
1.000000
 50
180.000000
 51
269.999982
  0
LINE
  8
0
  6
BYLAYER
 62
     1
 10
481.413936
 20
-168.804486
 30
0.0
 11
481.913936
 21
-168.804486
 31
0.0
  0
LINE
  8
0
  6
BYLAYER
 62
     1
 10
513.919917
 20
-169.278516
 30
0.0
 11
491.919670
 21
-169.278516
 31
0.0
  0
LINE
  8
0
  6
BYLAYER
 62
     7
 10
470.082297
 20
-55.932586
 30
0.0
 11
472.744793
 21
-60.544176
 31
0.0
  0
LINE
  8
0
  6
BYLAYER
 62
     7
 10
470.082297
 20
-51.938897
 30
0.0
 11
470.082297
 21
-65.682345
 31
0.0
  0
LINE
  8
0
  6
BYLAYER
 62
     7
 10
535.757184
 20
-51.938843
 30
0.0
 11
535.757184
 21
-65.682264
 31
0.0
  0
LINE
  8
0
  6
BYLAYER
 62
     7
 10
535.757184
 20
-55.932586
 30
0.0
 11
533.094689
 21
-60.544122
 31
0.0
  0
CIRCLE
  8
0
  6
BYLAYER
 62
     7
 10
502.919795
 20
-109.803754
 30
0.0
 40
44.595492
  0
CIRCLE
  8
0
  6
BYLAYER
 62
     7
 10
502.919795
 20
-109.803754
 30
0.0
 40
40.824930
  0
LINE
  8
0
  6
BYLAYER
 62
     7
 10
503.807293
 20
-100.041271
 30
0.0
 11
510.907281
 21
-100.041271
 31
0.0
  0
LINE
  8
0
  6
BYLAYER
 62
     7
 10
503.807293
 20
-84.066298
 30
0.0
 11
503.807293
 21
-91.166286
 31
0.0
  0
LINE
  8
0
  6
BYLAYER
 62
     7
 10
503.807293
 20
-75.191314
 30
0.0
 11
503.807293
 21
-82.291301
 31
0.0
  0
LINE
  8
0
  6
BYLAYER
 62
     7
 10
503.807293
 20
-92.941283
 30
0.0
 11
503.807293
 21
-100.041271
 31
0.0
  0
LINE
  8
0
  6
BYLAYER
 62
     7
 10
510.907281
 20
-82.291301
 30
0.0
 11
510.907281
 21
-75.191314
 31
0.0
  0
LINE
  8
0
  6
BYLAYER
 62
     7
 10
512.682278
 20
-82.291301
 30
0.0
 11
512.682278
 21
-75.191314
 31
0.0
  0
LINE
  8
0
  6
BYLAYER
 62
     7
 10
503.807293
 20
-92.941283
 30
0.0
 11
510.907281
 21
-92.941283
 31
0.0
  0
LINE
  8
0
  6
BYLAYER
 62
     7
 10
503.807293
 20
-91.166286
 30
0.0
 11
510.907281
 21
-91.166286
 31
0.0
  0
LINE
  8
0
  6
BYLAYER
 62
     7
 10
503.807293
 20
-84.066298
 30
0.0
 11
510.907281
 21
-84.066298
 31
0.0
  0
LINE
  8
0
  6
BYLAYER
 62
     7
 10
512.682278
 20
-82.291301
 30
0.0
 11
519.638490
 21
-82.291301
 31
0.0
  0
LINE
  8
0
  6
BYLAYER
 62
     7
 10
503.807293
 20
-82.291301
 30
0.0
 11
510.907281
 21
-82.291301
 31
0.0
  0
LINE
  8
0
  6
BYLAYER
 62
     7
 10
512.682278
 20
-75.191314
 30
0.0
 11
519.638490
 21
-75.191314
 31
0.0
  0
LINE
  8
0
  6
BYLAYER
 62
     7
 10
503.807293
 20
-75.191314
 30
0.0
 11
510.907281
 21
-75.191314
 31
0.0
  0
LINE
  8
0
  6
BYLAYER
 62
     7
 10
519.638490
 20
-82.291301
 30
0.0
 11
519.638490
 21
-75.191314
 31
0.0
  0
LINE
  8
0
  6
BYLAYER
 62
     7
 10
510.907281
 20
-100.041271
 30
0.0
 11
510.907281
 21
-92.941283
 31
0.0
  0
LINE
  8
0
  6
BYLAYER
 62
     7
 10
510.907281
 20
-91.166286
 30
0.0
 11
510.907281
 21
-84.066298
 31
0.0
  0
LINE
  8
0
  6
BYLAYER
 62
     7
 10
512.682278
 20
-100.041271
 30
0.0
 11
519.782266
 21
-100.041271
 31
0.0
  0
LINE
  8
0
  6
BYLAYER
 62
     7
 10
512.682278
 20
-84.066298
 30
0.0
 11
512.682278
 21
-91.166286
 31
0.0
  0
LINE
  8
0
  6
BYLAYER
 62
     7
 10
512.682278
 20
-92.941283
 30
0.0
 11
512.682278
 21
-100.041271
 31
0.0
  0
LINE
  8
0
  6
BYLAYER
 62
     7
 10
512.682278
 20
-92.941283
 30
0.0
 11
519.782266
 21
-92.941283
 31
0.0
  0
LINE
  8
0
  6
BYLAYER
 62
     7
 10
512.682278
 20
-91.166286
 30
0.0
 11
519.782266
 21
-91.166286
 31
0.0
  0
LINE
  8
0
  6
BYLAYER
 62
     7
 10
512.682278
 20
-84.066298
 30
0.0
 11
519.782266
 21
-84.066298
 31
0.0
  0
LINE
  8
0
  6
BYLAYER
 62
     7
 10
519.782266
 20
-100.041271
 30
0.0
 11
519.782266
 21
-92.941283
 31
0.0
  0
LINE
  8
0
  6
BYLAYER
 62
     7
 10
519.782266
 20
-91.166286
 30
0.0
 11
519.782266
 21
-84.066298
 31
0.0
  0
LINE
  8
0
  6
BYLAYER
 62
     7
 10
521.557263
 20
-100.041271
 30
0.0
 11
528.657251
 21
-100.041271
 31
0.0
  0
LINE
  8
0
  6
BYLAYER
 62
     7
 10
521.557263
 20
-84.066298
 30
0.0
 11
521.557263
 21
-91.166286
 31
0.0
  0
LINE
  8
0
  6
BYLAYER
 62
     7
 10
521.557263
 20
-92.941283
 30
0.0
 11
521.557263
 21
-100.041271
 31
0.0
  0
LINE
  8
0
  6
BYLAYER
 62
     7
 10
521.557263
 20
-92.941283
 30
0.0
 11
528.657251
 21
-92.941283
 31
0.0
  0
LINE
  8
0
  6
BYLAYER
 62
     7
 10
521.557263
 20
-91.166286
 30
0.0
 11
528.657251
 21
-91.166286
 31
0.0
  0
LINE
  8
0
  6
BYLAYER
 62
     7
 10
521.557263
 20
-84.066298
 30
0.0
 11
528.657251
 21
-84.066298
 31
0.0
  0
LINE
  8
0
  6
BYLAYER
 62
     7
 10
528.657251
 20
-100.041271
 30
0.0
 11
528.657251
 21
-92.941283
 31
0.0
  0
LINE
  8
0
  6
BYLAYER
 62
     7
 10
528.657251
 20
-91.166286
 30
0.0
 11
528.657251
 21
-84.066298
 31
0.0
  0
LINE
  8
0
  6
BYLAYER
 62
     7
 10
512.682278
 20
-108.916256
 30
0.0
 11
519.782266
 21
-108.916256
 31
0.0
  0
LINE
  8
0
  6
BYLAYER
 62
     7
 10
512.682278
 20
-101.816268
 30
0.0
 11
512.682278
 21
-108.916256
 31
0.0
  0
LINE
  8
0
  6
BYLAYER
 62
     7
 10
512.682278
 20
-101.816268
 30
0.0
 11
519.782266
 21
-101.816268
 31
0.0
  0
LINE
  8
0
  6
BYLAYER
 62
     7
 10
519.782266
 20
-108.916256
 30
0.0
 11
519.782266
 21
-101.816268
 31
0.0
  0
LINE
  8
0
  6
BYLAYER
 62
     7
 10
521.557263
 20
-108.916256
 30
0.0
 11
528.657251
 21
-108.916256
 31
0.0
  0
LINE
  8
0
  6
BYLAYER
 62
     7
 10
521.557263
 20
-101.816268
 30
0.0
 11
521.557263
 21
-108.916256
 31
0.0
  0
LINE
  8
0
  6
BYLAYER
 62
     7
 10
521.557263
 20
-101.816268
 30
0.0
 11
528.657251
 21
-101.816268
 31
0.0
  0
LINE
  8
0
  6
BYLAYER
 62
     7
 10
528.657251
 20
-108.916256
 30
0.0
 11
528.657251
 21
-101.816268
 31
0.0
  0
LINE
  8
0
  6
BYLAYER
 62
     7
 10
530.432248
 20
-100.041271
 30
0.0
 11
537.532235
 21
-100.041271
 31
0.0
  0
LINE
  8
0
  6
BYLAYER
 62
     7
 10
530.432248
 20
-92.941283
 30
0.0
 11
530.432248
 21
-100.041271
 31
0.0
  0
LINE
  8
0
  6
BYLAYER
 62
     7
 10
530.432248
 20
-92.941283
 30
0.0
 11
537.532235
 21
-92.941283
 31
0.0
  0
LINE
  8
0
  6
BYLAYER
 62
     7
 10
537.532235
 20
-100.041271
 30
0.0
 11
537.532235
 21
-92.941283
 31
0.0
  0
LINE
  8
0
  6
BYLAYER
 62
     7
 10
530.432248
 20
-108.916256
 30
0.0
 11
537.532235
 21
-108.916256
 31
0.0
  0
LINE
  8
0
  6
BYLAYER
 62
     7
 10
530.432248
 20
-101.816268
 30
0.0
 11
530.432248
 21
-108.916256
 31
0.0
  0
LINE
  8
0
  6
BYLAYER
 62
     7
 10
530.432248
 20
-101.816268
 30
0.0
 11
537.532235
 21
-101.816268
 31
0.0
  0
LINE
  8
0
  6
BYLAYER
 62
     7
 10
537.532235
 20
-108.916256
 30
0.0
 11
537.532235
 21
-101.816268
 31
0.0
  0
LINE
  8
0
  6
BYLAYER
 62
     7
 10
503.807293
 20
-119.566237
 30
0.0
 11
510.907281
 21
-119.566237
 31
0.0
  0
LINE
  8
0
  6
BYLAYER
 62
     7
 10
503.807293
 20
-135.541210
 30
0.0
 11
503.807293
 21
-128.441222
 31
0.0
  0
LINE
  8
0
  6
BYLAYER
 62
     7
 10
503.807293
 20
-144.416194
 30
0.0
 11
503.807293
 21
-137.316207
 31
0.0
  0
LINE
  8
0
  6
BYLAYER
 62
     7
 10
503.807293
 20
-126.666225
 30
0.0
 11
503.807293
 21
-119.566237
 31
0.0
  0
LINE
  8
0
  6
BYLAYER
 62
     7
 10
510.907281
 20
-137.316207
 30
0.0
 11
510.907281
 21
-144.416194
 31
0.0
  0
LINE
  8
0
  6
BYLAYER
 62
     7
 10
512.682278
 20
-137.316207
 30
0.0
 11
512.682278
 21
-144.416194
 31
0.0
  0
LINE
  8
0
  6
BYLAYER
 62
     7
 10
503.807293
 20
-126.666225
 30
0.0
 11
510.907281
 21
-126.666225
 31
0.0
  0
LINE
  8
0
  6
BYLAYER
 62
     7
 10
503.807293
 20
-128.441222
 30
0.0
 11
510.907281
 21
-128.441222
 31
0.0
  0
LINE
  8
0
  6
BYLAYER
 62
     7
 10
503.807293
 20
-135.541210
 30
0.0
 11
510.907281
 21
-135.541210
 31
0.0
  0
LINE
  8
0
  6
BYLAYER
 62
     7
 10
512.682278
 20
-137.316207
 30
0.0
 11
519.638490
 21
-137.316207
 31
0.0
  0
LINE
  8
0
  6
BYLAYER
 62
     7
 10
503.807293
 20
-137.316207
 30
0.0
 11
510.907281
 21
-137.316207
 31
0.0
  0
LINE
  8
0
  6
BYLAYER
 62
     7
 10
512.682278
 20
-144.416194
 30
0.0
 11
519.638490
 21
-144.416194
 31
0.0
  0
LINE
  8
0
  6
BYLAYER
 62
     7
 10
503.807293
 20
-144.416194
 30
0.0
 11
510.907281
 21
-144.416194
 31
0.0
  0
LINE
  8
0
  6
BYLAYER
 62
     7
 10
519.638490
 20
-137.316207
 30
0.0
 11
519.638490
 21
-144.416194
 31
0.0
  0
LINE
  8
0
  6
BYLAYER
 62
     7
 10
510.907281
 20
-119.566237
 30
0.0
 11
510.907281
 21
-126.666225
 31
0.0
  0
LINE
  8
0
  6
BYLAYER
 62
     7
 10
510.907281
 20
-128.441222
 30
0.0
 11
510.907281
 21
-135.541210
 31
0.0
  0
LINE
  8
0
  6
BYLAYER
 62
     7
 10
512.682278
 20
-119.566237
 30
0.0
 11
519.782266
 21
-119.566237
 31
0.0
  0
LINE
  8
0
  6
BYLAYER
 62
     7
 10
512.682278
 20
-135.541210
 30
0.0
 11
512.682278
 21
-128.441222
 31
0.0
  0
LINE
  8
0
  6
BYLAYER
 62
     7
 10
512.682278
 20
-126.666225
 30
0.0
 11
512.682278
 21
-119.566237
 31
0.0
  0
LINE
  8
0
  6
BYLAYER
 62
     7
 10
512.682278
 20
-126.666225
 30
0.0
 11
519.782266
 21
-126.666225
 31
0.0
  0
LINE
  8
0
  6
BYLAYER
 62
     7
 10
512.682278
 20
-128.441222
 30
0.0
 11
519.782266
 21
-128.441222
 31
0.0
  0
LINE
  8
0
  6
BYLAYER
 62
     7
 10
512.682278
 20
-135.541210
 30
0.0
 11
519.782266
 21
-135.541210
 31
0.0
  0
LINE
  8
0
  6
BYLAYER
 62
     7
 10
519.782266
 20
-119.566237
 30
0.0
 11
519.782266
 21
-126.666225
 31
0.0
  0
LINE
  8
0
  6
BYLAYER
 62
     7
 10
519.782266
 20
-128.441222
 30
0.0
 11
519.782266
 21
-135.541210
 31
0.0
  0
LINE
  8
0
  6
BYLAYER
 62
     7
 10
521.557263
 20
-119.566237
 30
0.0
 11
528.657251
 21
-119.566237
 31
0.0
  0
LINE
  8
0
  6
BYLAYER
 62
     7
 10
521.557263
 20
-135.541210
 30
0.0
 11
521.557263
 21
-128.441222
 31
0.0
  0
LINE
  8
0
  6
BYLAYER
 62
     7
 10
521.557263
 20
-126.666225
 30
0.0
 11
521.557263
 21
-119.566237
 31
0.0
  0
LINE
  8
0
  6
BYLAYER
 62
     7
 10
521.557263
 20
-126.666225
 30
0.0
 11
528.657251
 21
-126.666225
 31
0.0
  0
LINE
  8
0
  6
BYLAYER
 62
     7
 10
521.557263
 20
-128.441222
 30
0.0
 11
528.657251
 21
-128.441222
 31
0.0
  0
LINE
  8
0
  6
BYLAYER
 62
     7
 10
521.557263
 20
-135.541210
 30
0.0
 11
528.657251
 21
-135.541210
 31
0.0
  0
LINE
  8
0
  6
BYLAYER
 62
     7
 10
528.657251
 20
-119.566237
 30
0.0
 11
528.657251
 21
-126.666225
 31
0.0
  0
LINE
  8
0
  6
BYLAYER
 62
     7
 10
528.657251
 20
-128.441222
 30
0.0
 11
528.657251
 21
-135.541210
 31
0.0
  0
LINE
  8
0
  6
BYLAYER
 62
     7
 10
512.682278
 20
-110.691252
 30
0.0
 11
519.782266
 21
-110.691252
 31
0.0
  0
LINE
  8
0
  6
BYLAYER
 62
     7
 10
512.682278
 20
-117.791240
 30
0.0
 11
512.682278
 21
-110.691252
 31
0.0
  0
LINE
  8
0
  6
BYLAYER
 62
     7
 10
512.682278
 20
-117.791240
 30
0.0
 11
519.782266
 21
-117.791240
 31
0.0
  0
LINE
  8
0
  6
BYLAYER
 62
     7
 10
519.782266
 20
-110.691252
 30
0.0
 11
519.782266
 21
-117.791240
 31
0.0
  0
LINE
  8
0
  6
BYLAYER
 62
     7
 10
521.557263
 20
-110.691252
 30
0.0
 11
528.657251
 21
-110.691252
 31
0.0
  0
LINE
  8
0
  6
BYLAYER
 62
     7
 10
521.557263
 20
-117.791240
 30
0.0
 11
521.557263
 21
-110.691252
 31
0.0
  0
LINE
  8
0
  6
BYLAYER
 62
     7
 10
521.557263
 20
-117.791240
 30
0.0
 11
528.657251
 21
-117.791240
 31
0.0
  0
LINE
  8
0
  6
BYLAYER
 62
     7
 10
528.657251
 20
-110.691252
 30
0.0
 11
528.657251
 21
-117.791240
 31
0.0
  0
LINE
  8
0
  6
BYLAYER
 62
     7
 10
530.432248
 20
-119.566237
 30
0.0
 11
537.532235
 21
-119.566237
 31
0.0
  0
LINE
  8
0
  6
BYLAYER
 62
     7
 10
530.432248
 20
-126.666225
 30
0.0
 11
530.432248
 21
-119.566237
 31
0.0
  0
LINE
  8
0
  6
BYLAYER
 62
     7
 10
530.432248
 20
-126.666225
 30
0.0
 11
537.532235
 21
-126.666225
 31
0.0
  0
LINE
  8
0
  6
BYLAYER
 62
     7
 10
537.532235
 20
-119.566237
 30
0.0
 11
537.532235
 21
-126.666225
 31
0.0
  0
LINE
  8
0
  6
BYLAYER
 62
     7
 10
530.432248
 20
-110.691252
 30
0.0
 11
537.532235
 21
-110.691252
 31
0.0
  0
LINE
  8
0
  6
BYLAYER
 62
     7
 10
530.432248
 20
-117.791240
 30
0.0
 11
530.432248
 21
-110.691252
 31
0.0
  0
LINE
  8
0
  6
BYLAYER
 62
     7
 10
530.432248
 20
-117.791240
 30
0.0
 11
537.532235
 21
-117.791240
 31
0.0
  0
LINE
  8
0
  6
BYLAYER
 62
     7
 10
537.532235
 20
-110.691252
 30
0.0
 11
537.532235
 21
-117.791240
 31
0.0
  0
LINE
  8
0
  6
BYLAYER
 62
     7
 10
502.032297
 20
-100.041271
 30
0.0
 11
494.932309
 21
-100.041271
 31
0.0
  0
LINE
  8
0
  6
BYLAYER
 62
     7
 10
502.032297
 20
-84.066298
 30
0.0
 11
502.032297
 21
-91.166286
 31
0.0
  0
LINE
  8
0
  6
BYLAYER
 62
     7
 10
502.032297
 20
-75.191314
 30
0.0
 11
502.032297
 21
-82.291301
 31
0.0
  0
LINE
  8
0
  6
BYLAYER
 62
     7
 10
502.032297
 20
-92.941283
 30
0.0
 11
502.032297
 21
-100.041271
 31
0.0
  0
LINE
  8
0
  6
BYLAYER
 62
     7
 10
494.932309
 20
-82.291301
 30
0.0
 11
494.932309
 21
-75.191314
 31
0.0
  0
LINE
  8
0
  6
BYLAYER
 62
     7
 10
493.157312
 20
-82.291301
 30
0.0
 11
493.157312
 21
-75.191314
 31
0.0
  0
LINE
  8
0
  6
BYLAYER
 62
     7
 10
502.032297
 20
-92.941283
 30
0.0
 11
494.932309
 21
-92.941283
 31
0.0
  0
LINE
  8
0
  6
BYLAYER
 62
     7
 10
502.032297
 20
-91.166286
 30
0.0
 11
494.932309
 21
-91.166286
 31
0.0
  0
LINE
  8
0
  6
BYLAYER
 62
     7
 10
502.032297
 20
-84.066298
 30
0.0
 11
494.932309
 21
-84.066298
 31
0.0
  0
LINE
  8
0
  6
BYLAYER
 62
     7
 10
493.157312
 20
-82.291301
 30
0.0
 11
486.201100
 21
-82.291301
 31
0.0
  0
LINE
  8
0
  6
BYLAYER
 62
     7
 10
502.032297
 20
-82.291301
 30
0.0
 11
494.932309
 21
-82.291301
 31
0.0
  0
LINE
  8
0
  6
BYLAYER
 62
     7
 10
493.157312
 20
-75.191314
 30
0.0
 11
486.201100
 21
-75.191314
 31
0.0
  0
LINE
  8
0
  6
BYLAYER
 62
     7
 10
502.032297
 20
-75.191314
 30
0.0
 11
494.932309
 21
-75.191314
 31
0.0
  0
LINE
  8
0
  6
BYLAYER
 62
     7
 10
486.201100
 20
-82.291301
 30
0.0
 11
486.201100
 21
-75.191314
 31
0.0
  0
LINE
  8
0
  6
BYLAYER
 62
     7
 10
494.932309
 20
-100.041271
 30
0.0
 11
494.932309
 21
-92.941283
 31
0.0
  0
LINE
  8
0
  6
BYLAYER
 62
     7
 10
494.932309
 20
-91.166286
 30
0.0
 11
494.932309
 21
-84.066298
 31
0.0
  0
LINE
  8
0
  6
BYLAYER
 62
     7
 10
493.157312
 20
-100.041271
 30
0.0
 11
486.057324
 21
-100.041271
 31
0.0
  0
LINE
  8
0
  6
BYLAYER
 62
     7
 10
493.157312
 20
-84.066298
 30
0.0
 11
493.157312
 21
-91.166286
 31
0.0
  0
LINE
  8
0
  6
BYLAYER
 62
     7
 10
493.157312
 20
-92.941283
 30
0.0
 11
493.157312
 21
-100.041271
 31
0.0
  0
LINE
  8
0
  6
BYLAYER
 62
     7
 10
493.157312
 20
-92.941283
 30
0.0
 11
486.057324
 21
-92.941283
 31
0.0
  0
LINE
  8
0
  6
BYLAYER
 62
     7
 10
493.157312
 20
-91.166286
 30
0.0
 11
486.057324
 21
-91.166286
 31
0.0
  0
LINE
  8
0
  6
BYLAYER
 62
     7
 10
493.157312
 20
-84.066298
 30
0.0
 11
486.057324
 21
-84.066298
 31
0.0
  0
LINE
  8
0
  6
BYLAYER
 62
     7
 10
486.057324
 20
-100.041271
 30
0.0
 11
486.057324
 21
-92.941283
 31
0.0
  0
LINE
  8
0
  6
BYLAYER
 62
     7
 10
486.057324
 20
-91.166286
 30
0.0
 11
486.057324
 21
-84.066298
 31
0.0
  0
LINE
  8
0
  6
BYLAYER
 62
     7
 10
484.282327
 20
-100.041271
 30
0.0
 11
477.182339
 21
-100.041271
 31
0.0
  0
LINE
  8
0
  6
BYLAYER
 62
     7
 10
484.282327
 20
-84.066298
 30
0.0
 11
484.282327
 21
-91.166286
 31
0.0
  0
LINE
  8
0
  6
BYLAYER
 62
     7
 10
484.282327
 20
-92.941283
 30
0.0
 11
484.282327
 21
-100.041271
 31
0.0
  0
LINE
  8
0
  6
BYLAYER
 62
     7
 10
484.282327
 20
-92.941283
 30
0.0
 11
477.182339
 21
-92.941283
 31
0.0
  0
LINE
  8
0
  6
BYLAYER
 62
     7
 10
484.282327
 20
-91.166286
 30
0.0
 11
477.182339
 21
-91.166286
 31
0.0
  0
LINE
  8
0
  6
BYLAYER
 62
     7
 10
484.282327
 20
-84.066298
 30
0.0
 11
477.182339
 21
-84.066298
 31
0.0
  0
LINE
  8
0
  6
BYLAYER
 62
     7
 10
477.182339
 20
-100.041271
 30
0.0
 11
477.182339
 21
-92.941283
 31
0.0
  0
LINE
  8
0
  6
BYLAYER
 62
     7
 10
477.182339
 20
-91.166286
 30
0.0
 11
477.182339
 21
-84.066298
 31
0.0
  0
LINE
  8
0
  6
BYLAYER
 62
     7
 10
493.157312
 20
-108.916256
 30
0.0
 11
486.057324
 21
-108.916256
 31
0.0
  0
LINE
  8
0
  6
BYLAYER
 62
     7
 10
493.157312
 20
-101.816268
 30
0.0
 11
493.157312
 21
-108.916256
 31
0.0
  0
LINE
  8
0
  6
BYLAYER
 62
     7
 10
493.157312
 20
-101.816268
 30
0.0
 11
486.057324
 21
-101.816268
 31
0.0
  0
LINE
  8
0
  6
BYLAYER
 62
     7
 10
486.057324
 20
-108.916256
 30
0.0
 11
486.057324
 21
-101.816268
 31
0.0
  0
LINE
  8
0
  6
BYLAYER
 62
     7
 10
484.282327
 20
-108.916256
 30
0.0
 11
477.182339
 21
-108.916256
 31
0.0
  0
LINE
  8
0
  6
BYLAYER
 62
     7
 10
484.282327
 20
-101.816268
 30
0.0
 11
484.282327
 21
-108.916256
 31
0.0
  0
LINE
  8
0
  6
BYLAYER
 62
     7
 10
484.282327
 20
-101.816268
 30
0.0
 11
477.182339
 21
-101.816268
 31
0.0
  0
LINE
  8
0
  6
BYLAYER
 62
     7
 10
477.182339
 20
-108.916256
 30
0.0
 11
477.182339
 21
-101.816268
 31
0.0
  0
LINE
  8
0
  6
BYLAYER
 62
     7
 10
475.407342
 20
-100.041271
 30
0.0
 11
468.307355
 21
-100.041271
 31
0.0
  0
LINE
  8
0
  6
BYLAYER
 62
     7
 10
475.407342
 20
-92.941283
 30
0.0
 11
475.407342
 21
-100.041271
 31
0.0
  0
LINE
  8
0
  6
BYLAYER
 62
     7
 10
475.407342
 20
-92.941283
 30
0.0
 11
468.307355
 21
-92.941283
 31
0.0
  0
LINE
  8
0
  6
BYLAYER
 62
     7
 10
468.307355
 20
-100.041271
 30
0.0
 11
468.307355
 21
-92.941283
 31
0.0
  0
LINE
  8
0
  6
BYLAYER
 62
     7
 10
475.407342
 20
-108.916256
 30
0.0
 11
468.307355
 21
-108.916256
 31
0.0
  0
LINE
  8
0
  6
BYLAYER
 62
     7
 10
475.407342
 20
-101.816268
 30
0.0
 11
475.407342
 21
-108.916256
 31
0.0
  0
LINE
  8
0
  6
BYLAYER
 62
     7
 10
475.407342
 20
-101.816268
 30
0.0
 11
468.307355
 21
-101.816268
 31
0.0
  0
LINE
  8
0
  6
BYLAYER
 62
     7
 10
468.307355
 20
-108.916256
 30
0.0
 11
468.307355
 21
-101.816268
 31
0.0
  0
LINE
  8
0
  6
BYLAYER
 62
     7
 10
502.032297
 20
-119.566237
 30
0.0
 11
494.932309
 21
-119.566237
 31
0.0
  0
LINE
  8
0
  6
BYLAYER
 62
     7
 10
502.032297
 20
-135.541210
 30
0.0
 11
502.032297
 21
-128.441222
 31
0.0
  0
LINE
  8
0
  6
BYLAYER
 62
     7
 10
502.032297
 20
-144.416194
 30
0.0
 11
502.032297
 21
-137.316207
 31
0.0
  0
LINE
  8
0
  6
BYLAYER
 62
     7
 10
502.032297
 20
-126.666225
 30
0.0
 11
502.032297
 21
-119.566237
 31
0.0
  0
LINE
  8
0
  6
BYLAYER
 62
     7
 10
494.932309
 20
-137.316207
 30
0.0
 11
494.932309
 21
-144.416194
 31
0.0
  0
LINE
  8
0
  6
BYLAYER
 62
     7
 10
493.157312
 20
-137.316207
 30
0.0
 11
493.157312
 21
-144.416194
 31
0.0
  0
LINE
  8
0
  6
BYLAYER
 62
     7
 10
502.032297
 20
-126.666225
 30
0.0
 11
494.932309
 21
-126.666225
 31
0.0
  0
LINE
  8
0
  6
BYLAYER
 62
     7
 10
502.032297
 20
-128.441222
 30
0.0
 11
494.932309
 21
-128.441222
 31
0.0
  0
LINE
  8
0
  6
BYLAYER
 62
     7
 10
502.032297
 20
-135.541210
 30
0.0
 11
494.932309
 21
-135.541210
 31
0.0
  0
LINE
  8
0
  6
BYLAYER
 62
     7
 10
493.157312
 20
-137.316207
 30
0.0
 11
486.201100
 21
-137.316207
 31
0.0
  0
LINE
  8
0
  6
BYLAYER
 62
     7
 10
502.032297
 20
-137.316207
 30
0.0
 11
494.932309
 21
-137.316207
 31
0.0
  0
LINE
  8
0
  6
BYLAYER
 62
     7
 10
493.157312
 20
-144.416194
 30
0.0
 11
486.201100
 21
-144.416194
 31
0.0
  0
LINE
  8
0
  6
BYLAYER
 62
     7
 10
502.032297
 20
-144.416194
 30
0.0
 11
494.932309
 21
-144.416194
 31
0.0
  0
LINE
  8
0
  6
BYLAYER
 62
     7
 10
486.201100
 20
-137.316207
 30
0.0
 11
486.201100
 21
-144.416194
 31
0.0
  0
LINE
  8
0
  6
BYLAYER
 62
     7
 10
494.932309
 20
-119.566237
 30
0.0
 11
494.932309
 21
-126.666225
 31
0.0
  0
LINE
  8
0
  6
BYLAYER
 62
     7
 10
494.932309
 20
-128.441222
 30
0.0
 11
494.932309
 21
-135.541210
 31
0.0
  0
LINE
  8
0
  6
BYLAYER
 62
     7
 10
493.157312
 20
-119.566237
 30
0.0
 11
486.057324
 21
-119.566237
 31
0.0
  0
LINE
  8
0
  6
BYLAYER
 62
     7
 10
493.157312
 20
-135.541210
 30
0.0
 11
493.157312
 21
-128.441222
 31
0.0
  0
LINE
  8
0
  6
BYLAYER
 62
     7
 10
493.157312
 20
-126.666225
 30
0.0
 11
493.157312
 21
-119.566237
 31
0.0
  0
LINE
  8
0
  6
BYLAYER
 62
     7
 10
493.157312
 20
-126.666225
 30
0.0
 11
486.057324
 21
-126.666225
 31
0.0
  0
LINE
  8
0
  6
BYLAYER
 62
     7
 10
493.157312
 20
-128.441222
 30
0.0
 11
486.057324
 21
-128.441222
 31
0.0
  0
LINE
  8
0
  6
BYLAYER
 62
     7
 10
493.157312
 20
-135.541210
 30
0.0
 11
486.057324
 21
-135.541210
 31
0.0
  0
LINE
  8
0
  6
BYLAYER
 62
     7
 10
486.057324
 20
-119.566237
 30
0.0
 11
486.057324
 21
-126.666225
 31
0.0
  0
LINE
  8
0
  6
BYLAYER
 62
     7
 10
486.057324
 20
-128.441222
 30
0.0
 11
486.057324
 21
-135.541210
 31
0.0
  0
LINE
  8
0
  6
BYLAYER
 62
     7
 10
484.282327
 20
-119.566237
 30
0.0
 11
477.182339
 21
-119.566237
 31
0.0
  0
LINE
  8
0
  6
BYLAYER
 62
     7
 10
484.282327
 20
-135.541210
 30
0.0
 11
484.282327
 21
-128.441222
 31
0.0
  0
LINE
  8
0
  6
BYLAYER
 62
     7
 10
484.282327
 20
-126.666225
 30
0.0
 11
484.282327
 21
-119.566237
 31
0.0
  0
LINE
  8
0
  6
BYLAYER
 62
     7
 10
484.282327
 20
-126.666225
 30
0.0
 11
477.182339
 21
-126.666225
 31
0.0
  0
LINE
  8
0
  6
BYLAYER
 62
     7
 10
484.282327
 20
-128.441222
 30
0.0
 11
477.182339
 21
-128.441222
 31
0.0
  0
LINE
  8
0
  6
BYLAYER
 62
     7
 10
484.282327
 20
-135.541210
 30
0.0
 11
477.182339
 21
-135.541210
 31
0.0
  0
LINE
  8
0
  6
BYLAYER
 62
     7
 10
477.182339
 20
-119.566237
 30
0.0
 11
477.182339
 21
-126.666225
 31
0.0
  0
LINE
  8
0
  6
BYLAYER
 62
     7
 10
477.182339
 20
-128.441222
 30
0.0
 11
477.182339
 21
-135.541210
 31
0.0
  0
LINE
  8
0
  6
BYLAYER
 62
     7
 10
493.157312
 20
-110.691252
 30
0.0
 11
486.057324
 21
-110.691252
 31
0.0
  0
LINE
  8
0
  6
BYLAYER
 62
     7
 10
493.157312
 20
-117.791240
 30
0.0
 11
493.157312
 21
-110.691252
 31
0.0
  0
LINE
  8
0
  6
BYLAYER
 62
     7
 10
493.157312
 20
-117.791240
 30
0.0
 11
486.057324
 21
-117.791240
 31
0.0
  0
LINE
  8
0
  6
BYLAYER
 62
     7
 10
486.057324
 20
-110.691252
 30
0.0
 11
486.057324
 21
-117.791240
 31
0.0
  0
LINE
  8
0
  6
BYLAYER
 62
     7
 10
484.282327
 20
-110.691252
 30
0.0
 11
477.182339
 21
-110.691252
 31
0.0
  0
LINE
  8
0
  6
BYLAYER
 62
     7
 10
484.282327
 20
-117.791240
 30
0.0
 11
484.282327
 21
-110.691252
 31
0.0
  0
LINE
  8
0
  6
BYLAYER
 62
     7
 10
484.282327
 20
-117.791240
 30
0.0
 11
477.182339
 21
-117.791240
 31
0.0
  0
LINE
  8
0
  6
BYLAYER
 62
     7
 10
477.182339
 20
-110.691252
 30
0.0
 11
477.182339
 21
-117.791240
 31
0.0
  0
LINE
  8
0
  6
BYLAYER
 62
     7
 10
475.407342
 20
-119.566237
 30
0.0
 11
468.307355
 21
-119.566237
 31
0.0
  0
LINE
  8
0
  6
BYLAYER
 62
     7
 10
475.407342
 20
-126.666225
 30
0.0
 11
475.407342
 21
-119.566237
 31
0.0
  0
LINE
  8
0
  6
BYLAYER
 62
     7
 10
475.407342
 20
-126.666225
 30
0.0
 11
468.307355
 21
-126.666225
 31
0.0
  0
LINE
  8
0
  6
BYLAYER
 62
     7
 10
468.307355
 20
-119.566237
 30
0.0
 11
468.307355
 21
-126.666225
 31
0.0
  0
LINE
  8
0
  6
BYLAYER
 62
     7
 10
475.407342
 20
-110.691252
 30
0.0
 11
468.307355
 21
-110.691252
 31
0.0
  0
LINE
  8
0
  6
BYLAYER
 62
     7
 10
475.407342
 20
-117.791240
 30
0.0
 11
475.407342
 21
-110.691252
 31
0.0
  0
LINE
  8
0
  6
BYLAYER
 62
     7
 10
475.407342
 20
-117.791240
 30
0.0
 11
468.307355
 21
-117.791240
 31
0.0
  0
LINE
  8
0
  6
BYLAYER
 62
     7
 10
468.307355
 20
-110.691252
 30
0.0
 11
468.307355
 21
-117.791240
 31
0.0
  0
LINE
  8
0
  6
BYLAYER
 62
     7
 10
472.744793
 20
-60.544176
 30
0.0
 11
472.744793
 21
-63.820396
 31
0.0
  0
LINE
  8
0
  6
BYLAYER
 62
     7
 10
533.094689
 20
-60.544122
 30
0.0
 11
533.094689
 21
-63.820325
 31
0.0
  0
CIRCLE
  8
0
  6
BYLAYER
 62
     7
 10
502.919795
 20
-109.803754
 30
0.0
 40
3.549994
  0
LINE
  8
0
  6
BYLAYER
 62
     7
 10
535.757184
 20
-50.163846
 30
0.0
 11
470.082297
 21
-50.163846
 31
0.0
  0
LINE
  8
0
  6
BYLAYER
 62
     7
 10
470.082297
 20
-51.938897
 30
0.0
 11
535.757184
 21
-51.938897
 31
0.0
  0
CIRCLE
  8
0
  6
BYLAYER
 62
     7
 10
502.919795
 20
-109.803754
 30
0.0
 40
55.0
  0
ARC
  8
0
  6
BYLAYER
 62
     7
 10
471.413545
 20
-1.125741
 30
0.0
 40
1.331248
 50
94.780192
 51
180.000000
  0
LINE
  8
0
  6
BYLAYER
 62
     7
 10
471.413545
 20
0.196246
 30
0.0
 11
534.647811
 21
0.196246
 31
0.0
  0
ARC
  8
0
  6
BYLAYER
 62
     7
 10
534.425937
 20
-1.125741
 30
0.0
 40
1.331248
 50
0.0
 51
85.219808
  0
LINE
  8
0
  6
BYLAYER
 62
     7
 10
535.757184
 20
-51.938897
 30
0.0
 11
535.757184
 21
-1.125741
 31
0.0
  0
LINE
  8
0
  6
BYLAYER
 62
     7
 10
470.082297
 20
-1.125741
 30
0.0
 11
470.082297
 21
-51.938897
 31
0.0
  0
ARC
  8
0
  6
BYLAYER
 62
     1
 10
481.413966
 20
-423.803998
 30
0.0
 40
1.0
 50
180.000000
 51
269.999996
  0
ARC
  8
0
  6
BYLAYER
 62
     1
 10
502.919795
 20
-365.803754
 30
0.0
 40
26.045042
 50
343.714489
 51
396.264647
  0
ARC
  8
0
  6
BYLAYER
 62
     1
 10
502.919795
 20
-365.803754
 30
0.0
 40
26.045057
 50
143.735621
 51
196.285444
  0
ARC
  8
0
  6
BYLAYER
 62
     1
 10
472.626399
 20
-340.455365
 30
0.0
 40
0.499973
 50
44.998782
 51
140.079585
  0
ARC
  8
0
  6
BYLAYER
 62
     1
 10
477.571467
 20
-335.510297
 30
0.0
 40
0.499990
 50
129.919296
 51
224.999996
  0
ARC
  8
0
  6
BYLAYER
 62
     1
 10
533.213191
 20
-340.455365
 30
0.0
 40
0.499973
 50
39.920437
 51
135.001233
  0
ARC
  8
0
  6
BYLAYER
 62
     1
 10
528.268123
 20
-335.510297
 30
0.0
 40
0.499990
 50
315.000019
 51
410.080726
  0
ARC
  8
0
  6
BYLAYER
 62
     1
 10
502.919795
 20
-365.803754
 30
0.0
 40
39.999821
 50
50.078773
 51
129.921253
  0
ARC
  8
0
  6
BYLAYER
 62
     1
 10
472.626430
 20
-391.152143
 30
0.0
 40
0.499926
 50
219.920412
 51
315.001248
  0
ARC
  8
0
  6
BYLAYER
 62
     1
 10
477.571559
 20
-396.097211
 30
0.0
 40
0.499990
 50
135.000000
 51
230.080714
  0
ARC
  8
0
  6
BYLAYER
 62
     1
 10
502.919795
 20
-365.803754
 30
0.0
 40
39.999615
 50
230.078747
 51
231.317498
  0
ARC
  8
0
  6
BYLAYER
 62
     1
 10
502.919795
 20
-365.803754
 30
0.0
 40
39.999729
 50
140.078751
 51
219.921245
  0
ARC
  8
0
  6
BYLAYER
 62
     1
 10
502.919795
 20
-365.803754
 30
0.0
 40
39.999729
 50
320.078756
 51
399.921270
  0
ARC
  8
0
  6
BYLAYER
 62
     1
 10
502.919795
 20
-365.803754
 30
0.0
 40
28.357920
 50
331.834304
 51
402.223427
  0
ARC
  8
0
  6
BYLAYER
 62
     1
 10
502.919795
 20
-365.803754
 30
0.0
 40
28.357965
 50
137.776814
 51
208.165697
  0
LINE
  8
0
  6
BYLAYER
 62
     1
 10
481.413966
 20
-424.803998
 30
0.0
 11
481.913966
 21
-424.803998
 31
0.0
  0
LINE
  8
0
  6
BYLAYER
 62
     1
 10
481.919826
 20
-425.803998
 30
0.0
 11
491.919581
 21
-425.803998
 31
0.0
  0
LINE
  8
0
  6
BYLAYER
 62
     1
 10
513.920192
 20
-425.803754
 30
0.0
 11
523.919856
 21
-425.803754
 31
0.0
  0
LINE
  8
0
  6
BYLAYER
 62
     1
 10
477.919764
 20
-390.301313
 30
0.0
 11
477.919764
 21
-380.927777
 31
0.0
  0
LINE
  8
0
  6
BYLAYER
 62
     1
 10
477.919764
 20
-390.301313
 30
0.0
 11
477.919826
 21
-406.803998
 31
0.0
  0
CIRCLE
  8
0
  6
BYLAYER
 62
     1
 10
502.919795
 20
-365.803754
 30
0.0
 40
14.0
  0
ARC
  8
0
  6
BYLAYER
 62
     1
 10
492.919795
 20
-351.442334
 30
0.0
 40
1.0
 50
180.000000
 51
304.848905
  0
ARC
  8
0
  6
BYLAYER
 62
     1
 10
502.919795
 20
-365.803754
 30
0.0
 40
16.499996
 50
55.149106
 51
124.849943
  0
ARC
  8
0
  6
BYLAYER
 62
     1
 10
512.920039
 20
-351.442517
 30
0.0
 40
1.000000
 50
235.149374
 51
360.000000
  0
LINE
  8
0
  6
BYLAYER
 62
     1
 10
477.919764
 20
-380.927777
 30
0.0
 11
477.919703
 21
-369.303998
 31
0.0
  0
LINE
  8
0
  6
BYLAYER
 62
     1
 10
481.413875
 20
-368.303998
 30
0.0
 11
478.919703
 21
-368.303998
 31
0.0
  0
ARC
  8
0
  6
BYLAYER
 62
     1
 10
478.919703
 20
-369.303998
 30
0.0
 40
1.0
 50
90.0
 51
180.000003
  0
ARC
  8
0
  6
BYLAYER
 62
     1
 10
478.919948
 20
-412.004254
 30
0.0
 40
1.0
 50
180.001753
 51
270.000000
  0
ARC
  8
0
  6
BYLAYER
 62
     1
 10
478.919917
 20
-411.021588
 30
0.0
 40
1.0
 50
180.001754
 51
269.000662
  0
LINE
  8
0
  6
BYLAYER
 62
     1
 10
477.919826
 20
-412.004254
 30
0.0
 11
477.919826
 21
-406.803998
 31
0.0
  0
LINE
  8
0
  6
BYLAYER
 62
     1
 10
478.902476
 20
-412.021436
 30
0.0
 11
480.217433
 21
-412.044385
 31
0.0
  0
ARC
  8
0
  6
BYLAYER
 62
     1
 10
480.213939
 20
-412.244336
 30
0.0
 40
0.199982
 50
0.0
 51
88.998827
  0
LINE
  8
0
  6
BYLAYER
 62
     1
 10
480.217433
 20
-412.044385
 30
0.0
 11
481.413875
 21
-412.044385
 31
0.0
  0
LINE
  8
0
  6
BYLAYER
 62
     1
 10
478.919948
 20
-413.004254
 30
0.0
 11
480.213939
 21
-413.004254
 31
0.0
  0
ARC
  8
0
  6
BYLAYER
 62
     1
 10
480.213939
 20
-413.204267
 30
0.0
 40
0.200012
 50
0.0
 51
90.000003
  0
LINE
  8
0
  6
BYLAYER
 62
     1
 10
480.413966
 20
-412.244336
 30
0.0
 11
480.413966
 21
-423.803998
 31
0.0
  0
ARC
  8
0
  6
BYLAYER
 62
     1
 10
526.919673
 20
-411.021588
 30
0.0
 40
0.999999
 50
270.999339
 51
359.998234
  0
LINE
  8
0
  6
BYLAYER
 62
     1
 10
526.937098
 20
-412.021436
 30
0.0
 11
525.622157
 21
-412.044385
 31
0.0
  0
LINE
  8
0
  6
BYLAYER
 62
     1
 10
525.622157
 20
-412.044385
 30
0.0
 11
524.425715
 21
-412.044385
 31
0.0
  0
ARC
  8
0
  6
BYLAYER
 62
     1
 10
526.919642
 20
-412.004254
 30
0.0
 40
1.000000
 50
270.0
 51
359.998233
  0
LINE
  8
0
  6
BYLAYER
 62
     1
 10
526.919642
 20
-413.004254
 30
0.0
 11
525.625636
 21
-413.004254
 31
0.0
  0
LINE
  8
0
  6
BYLAYER
 62
     1
 10
525.425624
 20
-412.244336
 30
0.0
 11
525.425624
 21
-423.803998
 31
0.0
  0
ARC
  8
0
  6
BYLAYER
 62
     1
 10
524.425624
 20
-423.803998
 30
0.0
 40
1.000000
 50
270.0
 51
359.999982
  0
LINE
  8
0
  6
BYLAYER
 62
     1
 10
524.425624
 20
-424.803998
 30
0.0
 11
523.925624
 21
-424.803998
 31
0.0
  0
ARC
  8
0
  6
BYLAYER
 62
     1
 10
525.625636
 20
-413.204267
 30
0.0
 40
0.200012
 50
90.0
 51
180.000009
  0
ARC
  8
0
  6
BYLAYER
 62
     1
 10
525.625636
 20
-412.244336
 30
0.0
 40
0.199981
 50
91.001172
 51
180.000005
  0
LINE
  8
0
  6
BYLAYER
 62
     1
 10
527.919887
 20
-369.303998
 30
0.0
 11
527.919826
 21
-412.004254
 31
0.0
  0
ARC
  8
0
  6
BYLAYER
 62
     1
 10
485.919734
 20
-413.303998
 30
0.0
 40
3.000000
 50
270.0
 51
450.000005
  0
LINE
  8
0
  6
BYLAYER
 62
     1
 10
481.919795
 20
-416.303998
 30
0.0
 11
485.919734
 21
-416.303998
 31
0.0
  0
LINE
  8
0
  6
BYLAYER
 62
     1
 10
481.919795
 20
-410.303998
 30
0.0
 11
485.919734
 21
-410.303998
 31
0.0
  0
ARC
  8
0
  6
BYLAYER
 62
     1
 10
519.919795
 20
-413.303998
 30
0.0
 40
3.0
 50
90.0
 51
269.999991
  0
LINE
  8
0
  6
BYLAYER
 62
     1
 10
523.919734
 20
-416.303998
 30
0.0
 11
519.919795
 21
-416.303998
 31
0.0
  0
LINE
  8
0
  6
BYLAYER
 62
     1
 10
523.919734
 20
-410.303998
 30
0.0
 11
519.919795
 21
-410.303998
 31
0.0
  0
LINE
  8
0
  6
BYLAYER
 62
     1
 10
481.919826
 20
-410.303998
 30
0.0
 11
481.919826
 21
-406.803998
 31
0.0
  0
LINE
  8
0
  6
BYLAYER
 62
     1
 10
523.919795
 20
-410.303998
 30
0.0
 11
523.919795
 21
-406.803998
 31
0.0
  0
LINE
  8
0
  6
BYLAYER
 62
     1
 10
523.919856
 20
-425.803998
 30
0.0
 11
523.919795
 21
-416.303998
 31
0.0
  0
LINE
  8
0
  6
BYLAYER
 62
     1
 10
481.919826
 20
-425.803998
 30
0.0
 11
481.919826
 21
-416.303998
 31
0.0
  0
LINE
  8
0
  6
BYLAYER
 62
     1
 10
513.919917
 20
-425.278516
 30
0.0
 11
491.919581
 21
-425.278516
 31
0.0
  0
LINE
  8
0
  6
BYLAYER
 62
     1
 10
477.819758
 20
-344.941571
 30
0.0
 11
472.979793
 21
-340.101606
 31
0.0
  0
LINE
  8
0
  6
BYLAYER
 62
     1
 10
482.057734
 20
-340.703595
 30
0.0
 11
477.217830
 21
-335.863568
 31
0.0
  0
LINE
  8
0
  6
BYLAYER
 62
     1
 10
477.819819
 20
-386.665509
 30
0.0
 11
472.979793
 21
-391.505414
 31
0.0
  0
LINE
  8
0
  6
BYLAYER
 62
     1
 10
477.919734
 20
-395.041547
 30
0.0
 11
477.217830
 21
-395.743451
 31
0.0
  0
LINE
  8
0
  6
BYLAYER
 62
     1
 10
523.781672
 20
-340.703534
 30
0.0
 11
528.621638
 21
-335.863568
 31
0.0
  0
LINE
  8
0
  6
BYLAYER
 62
     1
 10
528.019649
 20
-344.941510
 30
0.0
 11
532.859675
 21
-340.101606
 31
0.0
  0
LINE
  8
0
  6
BYLAYER
 62
     1
 10
481.919795
 20
-342.803998
 30
0.0
 11
491.919795
 21
-342.803998
 31
0.0
  0
LINE
  8
0
  6
BYLAYER
 62
     1
 10
481.919795
 20
-361.803754
 30
0.0
 11
481.919795
 21
-342.803998
 31
0.0
  0
LINE
  8
0
  6
BYLAYER
 62
     1
 10
481.919795
 20
-361.803754
 30
0.0
 11
482.919856
 21
-362.803754
 31
0.0
  0
LINE
  8
0
  6
BYLAYER
 62
     1
 10
481.919795
 20
-352.303998
 30
0.0
 11
485.919734
 21
-352.303998
 31
0.0
  0
ARC
  8
0
  6
BYLAYER
 62
     1
 10
485.919734
 20
-355.303998
 30
0.0
 40
3.0
 50
270.0
 51
450.000005
  0
LINE
  8
0
  6
BYLAYER
 62
     1
 10
481.919795
 20
-358.303998
 30
0.0
 11
485.919734
 21
-358.303998
 31
0.0
  0
LINE
  8
0
  6
BYLAYER
 62
     1
 10
523.919734
 20
-342.803998
 30
0.0
 11
513.919734
 21
-342.803998
 31
0.0
  0
LINE
  8
0
  6
BYLAYER
 62
     1
 10
523.919734
 20
-361.803754
 30
0.0
 11
523.919734
 21
-342.803998
 31
0.0
  0
LINE
  8
0
  6
BYLAYER
 62
     1
 10
523.919734
 20
-352.303998
 30
0.0
 11
519.919795
 21
-352.303998
 31
0.0
  0
ARC
  8
0
  6
BYLAYER
 62
     1
 10
519.919795
 20
-355.303998
 30
0.0
 40
3.0
 50
90.0
 51
270.000005
  0
LINE
  8
0
  6
BYLAYER
 62
     1
 10
523.919734
 20
-358.303998
 30
0.0
 11
519.919795
 21
-358.303998
 31
0.0
  0
LINE
  8
0
  6
BYLAYER
 62
     1
 10
523.919734
 20
-361.803754
 30
0.0
 11
522.919673
 21
-362.803754
 31
0.0
  0
ARC
  8
0
  6
BYLAYER
 62
     1
 10
479.938777
 20
-342.822553
 30
0.0
 40
2.996746
 50
0.354755
 51
45.000000
  0
ARC
  8
0
  6
BYLAYER
 62
     1
 10
502.919795
 20
-365.803754
 30
0.0
 40
28.357912
 50
54.198893
 51
125.801105
  0
ARC
  8
0
  6
BYLAYER
 62
     1
 10
502.919795
 20
-365.803754
 30
0.0
 40
26.044968
 50
62.016007
 51
117.984018
  0
ARC
  8
0
  6
BYLAYER
 62
     1
 10
525.900691
 20
-342.822553
 30
0.0
 40
2.996745
 50
135.000000
 51
179.645245
  0
LINE
  8
0
  6
BYLAYER
 62
     1
 10
491.919795
 20
-351.442334
 30
0.0
 11
491.919795
 21
-342.803998
 31
0.0
  0
LINE
  8
0
  6
BYLAYER
 62
     1
 10
513.920039
 20
-351.442517
 30
0.0
 11
513.920039
 21
-342.803998
 31
0.0
  0
ARC
  8
0
  6
BYLAYER
 62
     1
 10
479.938777
 20
-342.822553
 30
0.0
 40
2.996745
 50
224.999996
 51
311.380511
  0
LINE
  8
0
  6
BYLAYER
 62
     1
 10
482.919906
 20
-390.803754
 30
0.0
 11
482.919856
 21
-362.803754
 31
0.0
  0
LINE
  8
0
  6
BYLAYER
 62
     1
 10
522.919673
 20
-379.927777
 30
0.0
 11
522.919673
 21
-362.803754
 31
0.0
  0
ARC
  8
0
  6
BYLAYER
 62
     1
 10
525.900691
 20
-342.822553
 30
0.0
 40
2.996727
 50
228.620761
 51
314.999992
  0
LINE
  8
0
  6
BYLAYER
 62
     1
 10
481.919795
 20
-361.803754
 30
0.0
 11
485.678859
 21
-361.803754
 31
0.0
  0
ARC
  8
0
  6
BYLAYER
 62
     1
 10
485.678859
 20
-362.803754
 30
0.0
 40
1.000000
 50
350.129780
 51
450.000000
  0
LINE
  8
0
  6
BYLAYER
 62
     1
 10
523.919734
 20
-361.803754
 30
0.0
 11
520.160731
 21
-361.803754
 31
0.0
  0
ARC
  8
0
  6
BYLAYER
 62
     1
 10
520.160731
 20
-362.803754
 30
0.0
 40
1.000000
 50
90.0
 51
189.870227
  0
LINE
  8
0
  6
BYLAYER
 62
     1
 10
486.678859
 20
-362.803754
 30
0.0
 11
482.919856
 21
-362.803754
 31
0.0
  0
LINE
  8
0
  6
BYLAYER
 62
     1
 10
519.160731
 20
-362.803754
 30
0.0
 11
522.919673
 21
-362.803754
 31
0.0
  0
ARC
  8
0
  6
BYLAYER
 62
     1
 10
502.919795
 20
-365.803754
 30
0.0
 40
16.500011
 50
170.129084
 51
369.870917
  0
LINE
  8
0
  6
BYLAYER
 62
     1
 10
523.919826
 20
-418.829694
 30
0.0
 11
524.425715
 21
-418.829694
 31
0.0
  0
LINE
  8
0
  6
BYLAYER
 62
     1
 10
481.919764
 20
-418.829694
 30
0.0
 11
481.413875
 21
-418.829694
 31
0.0
  0
LINE
  8
0
  6
BYLAYER
 62
     1
 10
513.920039
 20
-343.803998
 30
0.0
 11
491.919795
 21
-343.803998
 31
0.0
  0
LINE
  8
0
  6
BYLAYER
 62
     1
 10
491.919581
 20
-425.803754
 30
0.0
 11
491.919581
 21
-390.803754
 31
0.0
  0
LINE
  8
0
  6
BYLAYER
 62
     1
 10
481.413875
 20
-418.829694
 30
0.0
 11
481.413875
 21
-380.882917
 31
0.0
  0
LINE
  8
0
  6
BYLAYER
 62
     1
 10
513.920192
 20
-425.803754
 30
0.0
 11
513.920102
 21
-390.803754
 31
0.0
  0
LINE
  8
0
  6
BYLAYER
 62
     1
 10
524.425715
 20
-418.829694
 30
0.0
 11
524.425715
 21
-380.882917
 31
0.0
  0
LINE
  8
0
  6
BYLAYER
 62
     1
 10
491.919581
 20
-378.101941
 30
0.0
 11
491.919581
 21
-390.803754
 31
0.0
  0
LINE
  8
0
  6
BYLAYER
 62
     1
 10
482.919948
 20
-405.803754
 30
0.0
 11
482.919948
 21
-390.803754
 31
0.0
  0
LINE
  8
0
  6
BYLAYER
 62
     1
 10
481.919826
 20
-406.803998
 30
0.0
 11
491.919581
 21
-406.803998
 31
0.0
  0
LINE
  8
0
  6
BYLAYER
 62
     1
 10
482.919948
 20
-405.803754
 30
0.0
 11
491.919581
 21
-405.803754
 31
0.0
  0
LINE
  8
0
  6
BYLAYER
 62
     1
 10
482.919948
 20
-405.803754
 30
0.0
 11
481.919826
 21
-406.803998
 31
0.0
  0
LINE
  8
0
  6
BYLAYER
 62
     1
 10
481.413875
 20
-380.882917
 30
0.0
 11
481.413875
 21
-368.303998
 31
0.0
  0
LINE
  8
0
  6
BYLAYER
 62
     1
 10
482.919887
 20
-379.927777
 30
0.0
 11
482.919887
 21
-382.025787
 31
0.0
  0
LINE
  8
0
  6
BYLAYER
 62
     1
 10
481.419795
 20
-368.303754
 30
0.0
 11
482.919856
 21
-368.251386
 31
0.0
  0
LINE
  8
0
  6
BYLAYER
 62
     1
 10
522.919673
 20
-379.927777
 30
0.0
 11
522.919673
 21
-390.803754
 31
0.0
  0
LINE
  8
0
  6
BYLAYER
 62
     1
 10
513.920070
 20
-378.101880
 30
0.0
 11
513.920102
 21
-390.803754
 31
0.0
  0
LINE
  8
0
  6
BYLAYER
 62
     1
 10
522.919673
 20
-405.803754
 30
0.0
 11
522.919673
 21
-390.803754
 31
0.0
  0
LINE
  8
0
  6
BYLAYER
 62
     1
 10
523.919795
 20
-406.803998
 30
0.0
 11
513.920070
 21
-406.803998
 31
0.0
  0
LINE
  8
0
  6
BYLAYER
 62
     1
 10
522.919673
 20
-405.803754
 30
0.0
 11
513.920131
 21
-405.803754
 31
0.0
  0
LINE
  8
0
  6
BYLAYER
 62
     1
 10
523.919795
 20
-406.803998
 30
0.0
 11
522.919673
 21
-405.803754
 31
0.0
  0
LINE
  8
0
  6
BYLAYER
 62
     1
 10
528.019710
 20
-386.665448
 30
0.0
 11
532.859675
 21
-391.505414
 31
0.0
  0
ARC
  8
0
  6
BYLAYER
 62
     1
 10
528.268123
 20
-396.097211
 30
0.0
 40
0.499990
 50
309.919287
 51
405.000001
  0
ARC
  8
0
  6
BYLAYER
 62
     1
 10
502.919795
 20
-365.803754
 30
0.0
 40
39.999702
 50
308.682504
 51
309.921309
  0
LINE
  8
0
  6
BYLAYER
 62
     1
 10
527.919978
 20
-395.041761
 30
0.0
 11
528.621638
 21
-395.743451
 31
0.0
  0
ARC
  8
0
  6
BYLAYER
 62
     1
 10
533.213191
 20
-391.152143
 30
0.0
 40
0.499973
 50
224.998767
 51
320.079576
  0
LINE
  8
0
  6
BYLAYER
 62
     1
 10
523.943171
 20
-366.787610
 30
0.0
 11
522.919734
 21
-366.751874
 31
0.0
  0
LINE
  8
0
  6
BYLAYER
 62
     1
 10
524.425715
 20
-367.287305
 30
0.0
 11
524.425715
 21
-380.882917
 31
0.0
  0
ARC
  8
0
  6
BYLAYER
 62
     1
 10
526.919887
 20
-369.303998
 30
0.0
 40
1.0
 50
0.0
 51
90.000016
  0
LINE
  8
0
  6
BYLAYER
 62
     1
 10
524.925715
 20
-368.303998
 30
0.0
 11
526.919887
 21
-368.303998
 31
0.0
  0
ARC
  8
0
  6
BYLAYER
 62
     1
 10
524.925715
 20
-367.803998
 30
0.0
 40
0.500000
 50
180.000000
 51
269.999996
  0
ARC
  8
0
  6
BYLAYER
 62
     1
 10
523.925715
 20
-367.287305
 30
0.0
 40
0.500000
 50
0.0
 51
87.999276
  0
LINE
  8
0
  6
BYLAYER
 62
     7
 10
472.744793
 20
-334.365648
 30
0.0
 11
472.744793
 21
-316.544176
 31
0.0
  0
LINE
  8
0
  6
BYLAYER
 62
     7
 10
470.082297
 20
-311.932586
 30
0.0
 11
472.744793
 21
-316.544176
 31
0.0
  0
LINE
  8
0
  6
BYLAYER
 62
     7
 10
470.082297
 20
-307.938897
 30
0.0
 11
470.082297
 21
-328.795057
 31
0.0
  0
LINE
  8
0
  6
BYLAYER
 62
     7
 10
470.082297
 20
-328.795057
 30
0.0
 11
472.744793
 21
-330.332253
 31
0.0
  0
LINE
  8
0
  6
BYLAYER
 62
     7
 10
535.757184
 20
-307.938843
 30
0.0
 11
535.757184
 21
-328.795057
 31
0.0
  0
LINE
  8
0
  6
BYLAYER
 62
     7
 10
535.757184
 20
-311.932586
 30
0.0
 11
533.094689
 21
-316.544122
 31
0.0
  0
LINE
  8
0
  6
BYLAYER
 62
     7
 10
535.757184
 20
-328.795057
 30
0.0
 11
533.094689
 21
-330.332253
 31
0.0
  0
ARC
  8
0
  6
BYLAYER
 62
     7
 10
450.703803
 20
-372.016243
 30
0.0
 40
0.443771
 50
90.0
 51
186.785003
  0
ARC
  8
0
  6
BYLAYER
 62
     7
 10
502.919795
 20
-365.803754
 30
0.0
 40
53.028034
 50
186.785006
 51
193.667528
  0
ARC
  8
0
  6
BYLAYER
 62
     7
 10
451.824551
 20
-378.228733
 30
0.0
 40
0.443752
 50
193.667500
 51
270.000001
  0
LINE
  8
0
  6
BYLAYER
 62
     7
 10
459.686420
 20
-371.258831
 30
0.0
 11
450.703803
 21
-371.572494
 31
0.0
  0
LINE
  8
0
  6
BYLAYER
 62
     7
 10
461.391864
 20
-379.006594
 30
0.0
 11
451.824551
 21
-378.672482
 31
0.0
  0
ARC
  8
0
  6
BYLAYER
 62
     7
 10
555.135733
 20
-372.016243
 30
0.0
 40
0.443771
 50
353.214982
 51
449.999996
  0
ARC
  8
0
  6
BYLAYER
 62
     7
 10
502.919795
 20
-365.803754
 30
0.0
 40
53.027980
 50
346.332474
 51
353.214982
  0
ARC
  8
0
  6
BYLAYER
 62
     7
 10
554.014984
 20
-378.228733
 30
0.0
 40
0.443752
 50
270.0
 51
346.3325
  0
LINE
  8
0
  6
BYLAYER
 62
     7
 10
546.153169
 20
-371.258831
 30
0.0
 11
555.135733
 21
-371.572494
 31
0.0
  0
LINE
  8
0
  6
BYLAYER
 62
     7
 10
544.447670
 20
-379.006594
 30
0.0
 11
554.014984
 21
-378.672482
 31
0.0
  0
LINE
  8
0
  6
BYLAYER
 62
     7
 10
466.386542
 20
-337.044664
 30
0.0
 11
470.302113
 21
-336.907943
 31
0.0
  0
LINE
  8
0
  6
BYLAYER
 62
     7
 10
454.660711
 20
-346.611979
 30
0.0
 11
457.708074
 21
-346.505561
 31
0.0
  0
LINE
  8
0
  6
BYLAYER
 62
     7
 10
454.660711
 20
-347.720675
 30
0.0
 11
459.077409
 21
-347.874903
 31
0.0
  0
ARC
  8
0
  6
BYLAYER
 62
     7
 10
454.680063
 20
-347.166313
 30
0.0
 40
0.554686
 50
92.000025
 51
267.999985
  0
LINE
  8
0
  6
BYLAYER
 62
     7
 10
452.091114
 20
-355.930713
 30
0.0
 11
460.546618
 21
-355.635440
 31
0.0
  0
LINE
  8
0
  6
BYLAYER
 62
     7
 10
452.091114
 20
-357.039408
 30
0.0
 11
460.177079
 21
-357.321763
 31
0.0
  0
ARC
  8
0
  6
BYLAYER
 62
     7
 10
452.110480
 20
-356.485047
 30
0.0
 40
0.554687
 50
92.000025
 51
267.999985
  0
LINE
  8
0
  6
BYLAYER
 62
     7
 10
451.262389
 20
-365.249420
 30
0.0
 11
459.351658
 21
-364.966958
 31
0.0
  0
LINE
  8
0
  6
BYLAYER
 62
     7
 10
451.262389
 20
-366.358142
 30
0.0
 11
459.351658
 21
-366.640605
 31
0.0
  0
ARC
  8
0
  6
BYLAYER
 62
     7
 10
451.281754
 20
-365.803781
 30
0.0
 40
0.554687
 50
92.000025
 51
267.999985
  0
LINE
  8
0
  6
BYLAYER
 62
     7
 10
454.660711
 20
-383.886888
 30
0.0
 11
463.139127
 21
-383.590829
 31
0.0
  0
LINE
  8
0
  6
BYLAYER
 62
     7
 10
454.660711
 20
-384.995584
 30
0.0
 11
463.958373
 21
-385.320270
 31
0.0
  0
ARC
  8
0
  6
BYLAYER
 62
     7
 10
454.680063
 20
-384.441249
 30
0.0
 40
0.554687
 50
92.000018
 51
267.999985
  0
LINE
  8
0
  6
BYLAYER
 62
     7
 10
459.269647
 20
-393.205622
 30
0.0
 11
468.771687
 21
-392.873812
 31
0.0
  0
LINE
  8
0
  6
BYLAYER
 62
     7
 10
459.269647
 20
-394.314318
 30
0.0
 11
470.302059
 21
-394.699565
 31
0.0
  0
ARC
  8
0
  6
BYLAYER
 62
     7
 10
459.289012
 20
-393.759983
 30
0.0
 40
0.554686
 50
92.000025
 51
267.999985
  0
LINE
  8
0
  6
BYLAYER
 62
     7
 10
452.091114
 20
-374.568154
 30
0.0
 11
460.177079
 21
-374.285800
 31
0.0
  0
LINE
  8
0
  6
BYLAYER
 62
     7
 10
452.091114
 20
-375.676850
 30
0.0
 11
460.546564
 21
-375.972122
 31
0.0
  0
ARC
  8
0
  6
BYLAYER
 62
     7
 10
452.110480
 20
-375.122515
 30
0.0
 40
0.554687
 50
92.000025
 51
267.999985
  0
LINE
  8
0
  6
BYLAYER
 62
     7
 10
476.765579
 20
-410.838641
 30
0.0
 11
476.400361
 21
-400.381256
 31
0.0
  0
ARC
  8
0
  6
BYLAYER
 62
     7
 10
477.404186
 20
-410.816351
 30
0.0
 40
0.639000
 50
182.000281
 51
323.798811
  0
LINE
  8
0
  6
BYLAYER
 62
     7
 10
529.073956
 20
-410.838641
 30
0.0
 11
529.433158
 21
-400.553507
 31
0.0
  0
ARC
  8
0
  6
BYLAYER
 62
     7
 10
528.435348
 20
-410.816351
 30
0.0
 40
0.638998
 50
216.218909
 51
357.999721
  0
LINE
  8
0
  6
BYLAYER
 62
     7
 10
546.569942
 20
-394.314264
 30
0.0
 11
535.537530
 21
-394.699511
 31
0.0
  0
LINE
  8
0
  6
BYLAYER
 62
     7
 10
546.569942
 20
-393.205568
 30
0.0
 11
537.067956
 21
-392.873758
 31
0.0
  0
ARC
  8
0
  6
BYLAYER
 62
     7
 10
546.550577
 20
-393.759929
 30
0.0
 40
0.554687
 50
272.000017
 51
447.999973
  0
LINE
  8
0
  6
BYLAYER
 62
     7
 10
551.178879
 20
-384.995530
 30
0.0
 11
541.881162
 21
-385.320216
 31
0.0
  0
LINE
  8
0
  6
BYLAYER
 62
     7
 10
551.178879
 20
-383.886834
 30
0.0
 11
542.700462
 21
-383.590775
 31
0.0
  0
ARC
  8
0
  6
BYLAYER
 62
     7
 10
551.159513
 20
-384.441195
 30
0.0
 40
0.554686
 50
272.000017
 51
447.999980
  0
LINE
  8
0
  6
BYLAYER
 62
     7
 10
554.577146
 20
-366.358088
 30
0.0
 11
546.487931
 21
-366.640551
 31
0.0
  0
LINE
  8
0
  6
BYLAYER
 62
     7
 10
554.577146
 20
-365.249366
 30
0.0
 11
546.487931
 21
-364.966903
 31
0.0
  0
ARC
  8
0
  6
BYLAYER
 62
     7
 10
554.557781
 20
-365.803727
 30
0.0
 40
0.554687
 50
272.000017
 51
447.999980
  0
LINE
  8
0
  6
BYLAYER
 62
     7
 10
553.748420
 20
-375.676850
 30
0.0
 11
545.292972
 21
-375.972122
 31
0.0
  0
LINE
  8
0
  6
BYLAYER
 62
     7
 10
553.748420
 20
-374.568154
 30
0.0
 11
545.662455
 21
-374.285800
 31
0.0
  0
ARC
  8
0
  6
BYLAYER
 62
     7
 10
553.729055
 20
-375.122515
 30
0.0
 40
0.554686
 50
272.000017
 51
447.999980
  0
LINE
  8
0
  6
BYLAYER
 62
     7
 10
553.748420
 20
-357.039354
 30
0.0
 11
545.662455
 21
-357.321708
 31
0.0
  0
LINE
  8
0
  6
BYLAYER
 62
     7
 10
553.748420
 20
-355.930658
 30
0.0
 11
545.292972
 21
-355.635385
 31
0.0
  0
ARC
  8
0
  6
BYLAYER
 62
     7
 10
553.729055
 20
-356.484993
 30
0.0
 40
0.554687
 50
272.000017
 51
447.999973
  0
LINE
  8
0
  6
BYLAYER
 62
     7
 10
551.178825
 20
-347.720620
 30
0.0
 11
546.762254
 21
-347.874844
 31
0.0
  0
LINE
  8
0
  6
BYLAYER
 62
     7
 10
551.178825
 20
-346.611924
 30
0.0
 11
548.131591
 21
-346.505511
 31
0.0
  0
ARC
  8
0
  6
BYLAYER
 62
     7
 10
551.159486
 20
-347.166259
 30
0.0
 40
0.554687
 50
272.000017
 51
447.999973
  0
LINE
  8
0
  6
BYLAYER
 62
     7
 10
539.453016
 20
-337.044672
 30
0.0
 11
535.537476
 21
-336.907943
 31
0.0
  0
LINE
  8
0
  6
BYLAYER
 62
     7
 10
533.094689
 20
-316.544122
 30
0.0
 11
533.094689
 21
-334.365594
 31
0.0
  0
LINE
  8
0
  6
BYLAYER
 62
     7
 10
554.305220
 20
-358.718744
 30
0.0
 11
545.963091
 21
-359.010090
 31
0.0
  0
ARC
  8
0
  6
BYLAYER
 62
     7
 10
554.289728
 20
-358.275265
 30
0.0
 40
0.443749
 50
272.000290
 51
368.337508
  0
ARC
  8
0
  6
BYLAYER
 62
     7
 10
502.919795
 20
-365.803754
 30
0.0
 40
52.362410
 50
8.337584
 51
12.355621
  0
LINE
  8
0
  6
BYLAYER
 62
     7
 10
544.850848
 20
-353.943483
 30
0.0
 11
553.651404
 21
-354.250782
 31
0.0
  0
ARC
  8
0
  6
BYLAYER
 62
     7
 10
553.635940
 20
-354.694260
 30
0.0
 40
0.443748
 50
12.355582
 51
88.000150
  0
LINE
  8
0
  6
BYLAYER
 62
     7
 10
461.052227
 20
-353.721121
 30
0.0
 11
452.237275
 21
-354.028934
 31
0.0
  0
ARC
  8
0
  6
BYLAYER
 62
     7
 10
452.252754
 20
-354.472412
 30
0.0
 40
0.443748
 50
91.999848
 51
167.393689
  0
ARC
  8
0
  6
BYLAYER
 62
     7
 10
502.919795
 20
-365.803754
 30
0.0
 40
52.36241
 50
167.393634
 51
171.909865
  0
LINE
  8
0
  6
BYLAYER
 62
     7
 10
451.502343
 20
-358.940673
 30
0.0
 11
459.841993
 21
-359.231910
 31
0.0
  0
ARC
  8
0
  6
BYLAYER
 62
     7
 10
451.517835
 20
-358.497194
 30
0.0
 40
0.443751
 50
171.909946
 51
267.999711
  0
ARC
  8
0
  6
BYLAYER
 62
     7
 10
457.083673
 20
-343.370963
 30
0.0
 40
1.774998
 50
153.922274
 51
224.999982
  0
ARC
  8
0
  6
BYLAYER
 62
     7
 10
502.919795
 20
-365.803754
 30
0.0
 40
52.806159
 50
146.077720
 51
153.922274
  0
ARC
  8
0
  6
BYLAYER
 62
     7
 10
460.574352
 20
-337.324906
 30
0.0
 40
1.774996
 50
75.000067
 51
146.077720
  0
LINE
  8
0
  6
BYLAYER
 62
     7
 10
461.033756
 20
-335.610389
 30
0.0
 11
468.249854
 21
-337.543937
 31
0.0
  0
ARC
  8
0
  6
BYLAYER
 62
     7
 10
468.709258
 20
-335.829420
 30
0.0
 40
1.774996
 50
255.000031
 51
318.776075
  0
LINE
  8
0
  6
BYLAYER
 62
     7
 10
455.828586
 20
-344.626063
 30
0.0
 11
461.111109
 21
-349.908613
 31
0.0
  0
ARC
  8
0
  6
BYLAYER
 62
     7
 10
459.855995
 20
-351.163727
 30
0.0
 40
1.774999
 50
341.223957
 51
404.999974
  0
ARC
  8
0
  6
BYLAYER
 62
     7
 10
545.265238
 20
-337.324906
 30
0.0
 40
1.774996
 50
33.922268
 51
104.999952
  0
ARC
  8
0
  6
BYLAYER
 62
     7
 10
502.919795
 20
-365.803754
 30
0.0
 40
52.806159
 50
26.077712
 51
33.922268
  0
ARC
  8
0
  6
BYLAYER
 62
     7
 10
548.755916
 20
-343.370963
 30
0.0
 40
1.774998
 50
315.000046
 51
386.077712
  0
LINE
  8
0
  6
BYLAYER
 62
     7
 10
550.011030
 20
-344.626076
 30
0.0
 11
544.728480
 21
-349.908613
 31
0.0
  0
ARC
  8
0
  6
BYLAYER
 62
     7
 10
545.983595
 20
-351.163727
 30
0.0
 40
1.774998
 50
135.000028
 51
198.776045
  0
LINE
  8
0
  6
BYLAYER
 62
     7
 10
544.805834
 20
-335.610389
 30
0.0
 11
537.589735
 21
-337.543937
 31
0.0
  0
ARC
  8
0
  6
BYLAYER
 62
     7
 10
537.130332
 20
-335.829420
 30
0.0
 40
1.774993
 50
221.223953
 51
284.999970
  0
ARC
  8
0
  6
BYLAYER
 62
     7
 10
502.919795
 20
-365.803754
 30
0.0
 40
43.709310
 50
304.887126
 51
378.776045
  0
ARC
  8
0
  6
BYLAYER
 62
     7
 10
502.919795
 20
-365.803754
 30
0.0
 40
43.709303
 50
41.223941
 51
138.776057
  0
ARC
  8
0
  6
BYLAYER
 62
     7
 10
502.919795
 20
-365.803754
 30
0.0
 40
43.709300
 50
161.223952
 51
235.112957
  0
ARC
  8
0
  6
BYLAYER
 62
     7
 10
502.919795
 20
-365.803754
 30
0.0
 40
53.782408
 50
294.737449
 51
412.369991
  0
ARC
  8
0
  6
BYLAYER
 62
     7
 10
502.919795
 20
-365.803754
 30
0.0
 40
53.782408
 50
127.630155
 51
245.262551
  0
LINE
  8
0
  6
BYLAYER
 62
     7
 10
535.757184
 20
-306.163846
 30
0.0
 11
470.082297
 21
-306.163846
 31
0.0
  0
LINE
  8
0
  6
BYLAYER
 62
     7
 10
470.082297
 20
-307.938897
 30
0.0
 11
535.757184
 21
-307.938897
 31
0.0
  0
ARC
  8
0
  6
BYLAYER
 62
     7
 10
502.919795
 20
-365.803754
 30
0.0
 40
40.0
 50
308.682284
 51
591.317802
  0
ARC
  8
0
  6
BYLAYER
 62
     7
 10
471.413545
 20
-257.125741
 30
0.0
 40
1.331248
 50
94.780192
 51
180.000000
  0
LINE
  8
0
  6
BYLAYER
 62
     7
 10
471.413545
 20
-255.803754
 30
0.0
 11
534.647811
 21
-255.803754
 31
0.0
  0
ARC
  8
0
  6
BYLAYER
 62
     7
 10
534.425937
 20
-257.125741
 30
0.0
 40
1.331248
 50
0.0
 51
85.219808
  0
LINE
  8
0
  6
BYLAYER
 62
     7
 10
535.757184
 20
-307.938897
 30
0.0
 11
535.757184
 21
-257.125741
 31
0.0
  0
LINE
  8
0
  6
BYLAYER
 62
     7
 10
470.082297
 20
-257.125741
 30
0.0
 11
470.082297
 21
-307.938897
 31
0.0
  0
LINE
  8
0
  6
BYLAYER
 62
     1
 10
112.919795
 20
-343.803815
 30
0.0
 11
112.919795
 21
-385.803693
 31
0.0
  0
ARC
  8
0
  6
BYLAYER
 62
     1
 10
188.919795
 20
-403.803693
 30
0.0
 40
1.000000
 50
180.000128
 51
270.000137
  0
ARC
  8
0
  6
BYLAYER
 62
     1
 10
188.919673
 20
-325.803815
 30
0.0
 40
1.0
 50
90.000125
 51
180.000128
  0
ARC
  8
0
  6
BYLAYER
 62
     1
 10
184.419795
 20
-382.803693
 30
0.0
 40
0.5
 50
0.0
 51
90.000003
  0
LINE
  8
0
  6
BYLAYER
 62
     1
 10
184.419795
 20
-382.303693
 30
0.0
 11
183.419673
 21
-382.303693
 31
0.0
  0
LINE
  8
0
  6
BYLAYER
 62
     1
 10
184.419795
 20
-347.303693
 30
0.0
 11
183.419673
 21
-347.303693
 31
0.0
  0
ARC
  8
0
  6
BYLAYER
 62
     1
 10
184.419795
 20
-346.803693
 30
0.0
 40
0.500000
 50
270.0
 51
360.000003
  0
LINE
  8
0
  6
BYLAYER
 62
     1
 10
184.919795
 20
-382.803693
 30
0.0
 11
184.919795
 21
-346.803693
 31
0.0
  0
LINE
  8
0
  6
BYLAYER
 62
     1
 10
184.919795
 20
-338.754987
 30
0.0
 11
184.919795
 21
-346.803693
 31
0.0
  0
ARC
  8
0
  6
BYLAYER
 62
     1
 10
185.919795
 20
-338.754987
 30
0.0
 40
1.000000
 50
120.000299
 51
180.0
  0
LINE
  8
0
  6
BYLAYER
 62
     1
 10
184.919795
 20
-390.852399
 30
0.0
 11
184.919795
 21
-382.803693
 31
0.0
  0
ARC
  8
0
  6
BYLAYER
 62
     1
 10
185.919795
 20
-390.852399
 30
0.0
 40
1.000000
 50
180.000000
 51
239.999455
  0
LINE
  8
0
  6
BYLAYER
 62
     1
 10
185.419795
 20
-391.718366
 30
0.0
 11
187.419795
 21
-392.873151
 31
0.0
  0
LINE
  8
0
  6
BYLAYER
 62
     1
 10
187.919795
 20
-403.803693
 30
0.0
 11
187.919795
 21
-393.739118
 31
0.0
  0
ARC
  8
0
  6
BYLAYER
 62
     1
 10
186.919795
 20
-393.739118
 30
0.0
 40
0.999949
 50
0.0
 51
59.999476
  0
LINE
  8
0
  6
BYLAYER
 62
     1
 10
185.419795
 20
-337.889020
 30
0.0
 11
187.419673
 21
-336.734357
 31
0.0
  0
LINE
  8
0
  6
BYLAYER
 62
     1
 10
187.919673
 20
-335.868268
 30
0.0
 11
187.919673
 21
-325.803815
 31
0.0
  0
ARC
  8
0
  6
BYLAYER
 62
     1
 10
186.919673
 20
-335.868268
 30
0.0
 40
1.000055
 50
300.000323
 51
360.000003
  0
LINE
  8
0
  6
BYLAYER
 62
     1
 10
187.919673
 20
-335.868268
 30
0.0
 11
187.919673
 21
-393.739118
 31
0.0
  0
LINE
  8
0
  6
BYLAYER
 62
     1
 10
115.542964
 20
-343.297834
 30
0.0
 11
115.542964
 21
-343.797834
 31
0.0
  0
ARC
  8
0
  6
BYLAYER
 62
     1
 10
116.542964
 20
-343.297834
 30
0.0
 40
1.0
 50
90.0
 51
180.000003
  0
LINE
  8
0
  6
BYLAYER
 62
     1
 10
191.419673
 20
-324.803693
 30
0.0
 11
191.419673
 21
-404.803693
 31
0.0
  0
LINE
  8
0
  6
BYLAYER
 62
     1
 10
192.919795
 20
-403.803693
 30
0.0
 11
191.419673
 21
-403.803693
 31
0.0
  0
LINE
  8
0
  6
BYLAYER
 62
     1
 10
191.419673
 20
-404.803693
 30
0.0
 11
188.919795
 21
-404.803693
 31
0.0
  0
LINE
  8
0
  6
BYLAYER
 62
     1
 10
192.919703
 20
-325.803693
 30
0.0
 11
191.419673
 21
-325.803739
 31
0.0
  0
LINE
  8
0
  6
BYLAYER
 62
     1
 10
191.419673
 20
-324.803739
 30
0.0
 11
188.919673
 21
-324.803815
 31
0.0
  0
LINE
  8
0
  6
BYLAYER
 62
     1
 10
192.919673
 20
-325.803693
 30
0.0
 11
192.919917
 21
-403.803693
 31
0.0
  0
LINE
  8
0
  6
BYLAYER
 62
     1
 10
182.919673
 20
-375.803693
 30
0.0
 11
182.919673
 21
-385.803693
 31
0.0
  0
LINE
  8
0
  6
BYLAYER
 62
     1
 10
191.419673
 20
-390.651693
 30
0.0
 11
187.919673
 21
-390.651693
 31
0.0
  0
LINE
  8
0
  6
BYLAYER
 62
     1
 10
191.419673
 20
-395.127690
 30
0.0
 11
187.919673
 21
-395.127690
 31
0.0
  0
LINE
  8
0
  6
BYLAYER
 62
     1
 10
192.919871
 20
-390.180692
 30
0.0
 11
191.419673
 21
-390.180692
 31
0.0
  0
LINE
  8
0
  6
BYLAYER
 62
     1
 10
192.919887
 20
-394.418691
 30
0.0
 11
191.419673
 21
-394.418691
 31
0.0
  0
LINE
  8
0
  6
BYLAYER
 62
     1
 10
192.919871
 20
-339.426694
 30
0.0
 11
191.419673
 21
-339.426694
 31
0.0
  0
LINE
  8
0
  6
BYLAYER
 62
     1
 10
192.919887
 20
-335.188703
 30
0.0
 11
191.419673
 21
-335.188703
 31
0.0
  0
LINE
  8
0
  6
BYLAYER
 62
     1
 10
191.419673
 20
-338.955701
 30
0.0
 11
187.919673
 21
-338.955701
 31
0.0
  0
LINE
  8
0
  6
BYLAYER
 62
     1
 10
191.419673
 20
-334.479688
 30
0.0
 11
187.919673
 21
-334.479688
 31
0.0
  0
LINE
  8
0
  6
BYLAYER
 62
     1
 10
116.542964
 20
-342.297834
 30
0.0
 11
128.080337
 21
-342.297834
 31
0.0
  0
LINE
  8
0
  6
BYLAYER
 62
     1
 10
115.542964
 20
-386.309674
 30
0.0
 11
115.542964
 21
-385.809674
 31
0.0
  0
ARC
  8
0
  6
BYLAYER
 62
     1
 10
116.542964
 20
-386.309674
 30
0.0
 40
1.0
 50
180.000000
 51
270.000009
  0
LINE
  8
0
  6
BYLAYER
 62
     1
 10
116.542964
 20
-387.309674
 30
0.0
 11
128.080337
 21
-387.309674
 31
0.0
  0
LINE
  8
0
  6
BYLAYER
 62
     1
 10
125.719790
 20
-388.803815
 30
0.0
 11
125.719790
 21
-387.509671
 31
0.0
  0
ARC
  8
0
  6
BYLAYER
 62
     1
 10
126.719790
 20
-388.803815
 30
0.0
 40
1.0
 50
180.000000
 51
270.000009
  0
ARC
  8
0
  6
BYLAYER
 62
     1
 10
129.280337
 20
-388.803815
 30
0.0
 40
1.0
 50
180.000000
 51
270.000009
  0
LINE
  8
0
  6
BYLAYER
 62
     1
 10
128.280337
 20
-386.309674
 30
0.0
 11
128.280337
 21
-388.803815
 31
0.0
  0
ARC
  8
0
  6
BYLAYER
 62
     1
 10
166.559131
 20
-388.803815
 30
0.0
 40
1.0
 50
270.0
 51
360.000016
  0
LINE
  8
0
  6
BYLAYER
 62
     1
 10
167.559131
 20
-386.309674
 30
0.0
 11
167.559131
 21
-388.803815
 31
0.0
  0
ARC
  8
0
  6
BYLAYER
 62
     1
 10
169.119678
 20
-388.803815
 30
0.0
 40
1.0
 50
270.0
 51
360.000016
  0
LINE
  8
0
  6
BYLAYER
 62
     1
 10
170.119678
 20
-388.803815
 30
0.0
 11
170.119678
 21
-387.509671
 31
0.0
  0
ARC
  8
0
  6
BYLAYER
 62
     1
 10
179.296504
 20
-386.309674
 30
0.0
 40
1.000000
 50
270.0
 51
360.000016
  0
LINE
  8
0
  6
BYLAYER
 62
     1
 10
180.296504
 20
-386.309674
 30
0.0
 11
180.296504
 21
-385.809674
 31
0.0
  0
LINE
  8
0
  6
BYLAYER
 62
     1
 10
167.759128
 20
-387.309674
 30
0.0
 11
179.296504
 21
-387.309674
 31
0.0
  0
ARC
  8
0
  6
BYLAYER
 62
     1
 10
125.519790
 20
-387.509671
 30
0.0
 40
0.199997
 50
0.0
 51
90.000003
  0
ARC
  8
0
  6
BYLAYER
 62
     1
 10
128.080337
 20
-387.509671
 30
0.0
 40
0.199997
 50
0.0
 51
90.000003
  0
ARC
  8
0
  6
BYLAYER
 62
     1
 10
167.759128
 20
-387.509671
 30
0.0
 40
0.199997
 50
90.0
 51
179.999989
  0
ARC
  8
0
  6
BYLAYER
 62
     1
 10
170.319674
 20
-387.509671
 30
0.0
 40
0.199997
 50
90.0
 51
179.999989
  0
LINE
  8
0
  6
BYLAYER
 62
     1
 10
169.119678
 20
-389.803815
 30
0.0
 11
126.719790
 21
-389.803815
 31
0.0
  0
ARC
  8
0
  6
BYLAYER
 62
     1
 10
170.419673
 20
-381.803815
 30
0.0
 40
3.0
 50
0.0
 51
180.000005
  0
LINE
  8
0
  6
BYLAYER
 62
     1
 10
167.419673
 20
-385.803693
 30
0.0
 11
167.419673
 21
-381.803815
 31
0.0
  0
LINE
  8
0
  6
BYLAYER
 62
     1
 10
173.419673
 20
-385.803693
 30
0.0
 11
173.419673
 21
-381.803815
 31
0.0
  0
LINE
  8
0
  6
BYLAYER
 62
     1
 10
182.919673
 20
-385.803693
 30
0.0
 11
173.419673
 21
-385.803693
 31
0.0
  0
ARC
  8
0
  6
BYLAYER
 62
     1
 10
125.419795
 20
-347.803693
 30
0.0
 40
3.0
 50
180.000000
 51
360.000005
  0
LINE
  8
0
  6
BYLAYER
 62
     1
 10
122.419795
 20
-343.803815
 30
0.0
 11
122.419795
 21
-347.803693
 31
0.0
  0
LINE
  8
0
  6
BYLAYER
 62
     1
 10
128.419795
 20
-385.803693
 30
0.0
 11
128.419795
 21
-381.803815
 31
0.0
  0
ARC
  8
0
  6
BYLAYER
 62
     1
 10
125.419795
 20
-381.803815
 30
0.0
 40
3.0
 50
0.0
 51
180.000019
  0
LINE
  8
0
  6
BYLAYER
 62
     1
 10
122.419795
 20
-385.803693
 30
0.0
 11
122.419795
 21
-381.803815
 31
0.0
  0
LINE
  8
0
  6
BYLAYER
 62
     1
 10
122.919795
 20
-343.297834
 30
0.0
 11
122.815162
 21
-349.292279
 31
0.0
  0
LINE
  8
0
  6
BYLAYER
 62
     1
 10
112.919795
 20
-343.803815
 30
0.0
 11
122.419795
 21
-343.803815
 31
0.0
  0
LINE
  8
0
  6
BYLAYER
 62
     1
 10
112.919795
 20
-385.803693
 30
0.0
 11
122.419795
 21
-385.803693
 31
0.0
  0
LINE
  8
0
  6
BYLAYER
 62
     1
 10
163.919673
 20
-375.803693
 30
0.0
 11
163.919673
 21
-385.803693
 31
0.0
  0
LINE
  8
0
  6
BYLAYER
 62
     1
 10
162.919673
 20
-384.803693
 30
0.0
 11
162.919673
 21
-375.803693
 31
0.0
  0
LINE
  8
0
  6
BYLAYER
 62
     1
 10
163.919673
 20
-385.803693
 30
0.0
 11
162.919673
 21
-384.803693
 31
0.0
  0
LINE
  8
0
  6
BYLAYER
 62
     1
 10
131.919795
 20
-375.803693
 30
0.0
 11
131.919795
 21
-385.803693
 31
0.0
  0
LINE
  8
0
  6
BYLAYER
 62
     1
 10
132.919795
 20
-384.803693
 30
0.0
 11
132.919795
 21
-375.803693
 31
0.0
  0
LINE
  8
0
  6
BYLAYER
 62
     1
 10
131.919795
 20
-385.803693
 30
0.0
 11
132.919795
 21
-384.803693
 31
0.0
  0
LINE
  8
0
  6
BYLAYER
 62
     1
 10
128.419795
 20
-385.803693
 30
0.0
 11
131.919795
 21
-385.803693
 31
0.0
  0
LINE
  8
0
  6
BYLAYER
 62
     1
 10
167.419673
 20
-385.803693
 30
0.0
 11
163.919673
 21
-385.803693
 31
0.0
  0
ARC
  8
0
  6
BYLAYER
 62
     1
 10
123.919795
 20
-356.803693
 30
0.0
 40
1.000000
 50
180.000000
 51
270.000037
  0
ARC
  8
0
  6
BYLAYER
 62
     1
 10
123.919795
 20
-360.303693
 30
0.0
 40
1.0
 50
90.0
 51
180.000003
  0
ARC
  8
0
  6
BYLAYER
 62
     1
 10
123.919795
 20
-372.803693
 30
0.0
 40
1.0
 50
90.0
 51
180.000003
  0
ARC
  8
0
  6
BYLAYER
 62
     1
 10
123.919795
 20
-369.303693
 30
0.0
 40
1.000000
 50
180.000000
 51
270.000037
  0
LINE
  8
0
  6
BYLAYER
 62
     1
 10
122.919795
 20
-353.803815
 30
0.0
 11
122.919795
 21
-356.803693
 31
0.0
  0
LINE
  8
0
  6
BYLAYER
 62
     1
 10
122.919795
 20
-369.303693
 30
0.0
 11
122.919795
 21
-360.303693
 31
0.0
  0
LINE
  8
0
  6
BYLAYER
 62
     1
 10
122.919795
 20
-372.803693
 30
0.0
 11
122.919795
 21
-375.803815
 31
0.0
  0
LINE
  8
0
  6
BYLAYER
 62
     1
 10
121.211364
 20
-385.803693
 30
0.0
 11
121.211364
 21
-386.309674
 31
0.0
  0
LINE
  8
0
  6
BYLAYER
 62
     1
 10
174.628230
 20
-385.803693
 30
0.0
 11
174.628230
 21
-386.309674
 31
0.0
  0
LINE
  8
0
  6
BYLAYER
 62
     1
 10
122.919795
 20
-343.297834
 30
0.0
 11
147.919795
 21
-343.297834
 31
0.0
  0
LINE
  8
0
  6
BYLAYER
 62
     1
 10
112.919795
 20
-353.803815
 30
0.0
 11
147.919795
 21
-353.803815
 31
0.0
  0
LINE
  8
0
  6
BYLAYER
 62
     1
 10
121.211364
 20
-386.309674
 30
0.0
 11
147.919795
 21
-386.309674
 31
0.0
  0
LINE
  8
0
  6
BYLAYER
 62
     1
 10
132.919795
 20
-384.803693
 30
0.0
 11
147.919795
 21
-384.803693
 31
0.0
  0
LINE
  8
0
  6
BYLAYER
 62
     1
 10
112.919795
 20
-375.803693
 30
0.0
 11
147.919795
 21
-375.803693
 31
0.0
  0
LINE
  8
0
  6
BYLAYER
 62
     1
 10
162.919673
 20
-384.803693
 30
0.0
 11
147.919795
 21
-384.803693
 31
0.0
  0
LINE
  8
0
  6
BYLAYER
 62
     1
 10
174.628230
 20
-386.309674
 30
0.0
 11
147.919795
 21
-386.309674
 31
0.0
  0
LINE
  8
0
  6
BYLAYER
 62
     1
 10
147.919795
 20
-339.803693
 30
0.0
 11
163.919795
 21
-339.803693
 31
0.0
  0
LINE
  8
0
  6
BYLAYER
 62
     1
 10
176.670161
 20
-375.803693
 30
0.0
 11
147.919795
 21
-375.803693
 31
0.0
  0
ARC
  8
0
  6
BYLAYER
 62
     1
 10
154.419734
 20
-358.303693
 30
0.0
 40
0.500000
 50
90.0
 51
180.000009
  0
ARC
  8
0
  6
BYLAYER
 62
     1
 10
154.419734
 20
-358.803693
 30
0.0
 40
0.5
 50
180.000000
 51
269.999996
  0
ARC
  8
0
  6
BYLAYER
 62
     1
 10
154.419734
 20
-371.303693
 30
0.0
 40
0.5
 50
180.000000
 51
270.000009
  0
ARC
  8
0
  6
BYLAYER
 62
     1
 10
154.419734
 20
-370.803693
 30
0.0
 40
0.500000
 50
90.0
 51
179.999989
  0
LINE
  8
0
  6
BYLAYER
 62
     1
 10
162.919673
 20
-344.803815
 30
0.0
 11
147.919795
 21
-344.803815
 31
0.0
  0
LINE
  8
0
  6
BYLAYER
 62
     1
 10
172.919673
 20
-343.297834
 30
0.0
 11
147.919795
 21
-343.297834
 31
0.0
  0
LINE
  8
0
  6
BYLAYER
 62
     1
 10
176.670161
 20
-353.803815
 30
0.0
 11
147.919795
 21
-353.803815
 31
0.0
  0
LINE
  8
0
  6
BYLAYER
 62
     1
 10
123.919795
 20
-371.803693
 30
0.0
 11
141.419734
 21
-371.803693
 31
0.0
  0
LINE
  8
0
  6
BYLAYER
 62
     1
 10
123.919795
 20
-370.303693
 30
0.0
 11
141.419734
 21
-370.303693
 31
0.0
  0
ARC
  8
0
  6
BYLAYER
 62
     1
 10
141.419734
 20
-371.303693
 30
0.0
 40
0.500000
 50
270.0
 51
360.000003
  0
ARC
  8
0
  6
BYLAYER
 62
     1
 10
141.419734
 20
-370.803693
 30
0.0
 40
0.5
 50
0.0
 51
90.000003
  0
LINE
  8
0
  6
BYLAYER
 62
     1
 10
141.919734
 20
-370.803693
 30
0.0
 11
141.919734
 21
-371.303693
 31
0.0
  0
LINE
  8
0
  6
BYLAYER
 62
     1
 10
153.919734
 20
-370.803693
 30
0.0
 11
153.919734
 21
-371.303693
 31
0.0
  0
LINE
  8
0
  6
BYLAYER
 62
     1
 10
126.719790
 20
-339.803693
 30
0.0
 11
147.919795
 21
-339.803693
 31
0.0
  0
LINE
  8
0
  6
BYLAYER
 62
     1
 10
123.919795
 20
-357.803693
 30
0.0
 11
141.419734
 21
-357.803693
 31
0.0
  0
LINE
  8
0
  6
BYLAYER
 62
     1
 10
123.919795
 20
-359.303693
 30
0.0
 11
141.419734
 21
-359.303693
 31
0.0
  0
LINE
  8
0
  6
BYLAYER
 62
     1
 10
132.919795
 20
-344.803815
 30
0.0
 11
147.919795
 21
-344.803815
 31
0.0
  0
LINE
  8
0
  6
BYLAYER
 62
     1
 10
131.919795
 20
-343.803815
 30
0.0
 11
131.919795
 21
-353.803815
 31
0.0
  0
LINE
  8
0
  6
BYLAYER
 62
     1
 10
132.919795
 20
-344.803815
 30
0.0
 11
132.919795
 21
-353.803815
 31
0.0
  0
LINE
  8
0
  6
BYLAYER
 62
     1
 10
128.419795
 20
-343.803815
 30
0.0
 11
131.919795
 21
-343.803815
 31
0.0
  0
LINE
  8
0
  6
BYLAYER
 62
     1
 10
128.419795
 20
-343.803815
 30
0.0
 11
128.419795
 21
-347.803693
 31
0.0
  0
ARC
  8
0
  6
BYLAYER
 62
     1
 10
126.719790
 20
-340.803693
 30
0.0
 40
1.0
 50
90.0
 51
180.000003
  0
LINE
  8
0
  6
BYLAYER
 62
     1
 10
125.719790
 20
-340.803693
 30
0.0
 11
125.719790
 21
-342.097837
 31
0.0
  0
ARC
  8
0
  6
BYLAYER
 62
     1
 10
125.519790
 20
-342.097837
 30
0.0
 40
0.199997
 50
270.0
 51
360.000003
  0
ARC
  8
0
  6
BYLAYER
 62
     1
 10
129.280337
 20
-340.803693
 30
0.0
 40
1.0
 50
90.0
 51
180.000003
  0
LINE
  8
0
  6
BYLAYER
 62
     1
 10
128.280337
 20
-343.297834
 30
0.0
 11
128.280337
 21
-340.803693
 31
0.0
  0
ARC
  8
0
  6
BYLAYER
 62
     1
 10
128.080337
 20
-342.097837
 30
0.0
 40
0.199997
 50
270.0
 51
360.000003
  0
LINE
  8
0
  6
BYLAYER
 62
     1
 10
131.919795
 20
-343.803815
 30
0.0
 11
132.919795
 21
-344.803815
 31
0.0
  0
ARC
  8
0
  6
BYLAYER
 62
     1
 10
141.419734
 20
-358.803693
 30
0.0
 40
0.500000
 50
270.0
 51
360.000003
  0
ARC
  8
0
  6
BYLAYER
 62
     1
 10
141.419734
 20
-358.303693
 30
0.0
 40
0.5
 50
0.0
 51
90.000003
  0
LINE
  8
0
  6
BYLAYER
 62
     1
 10
141.919734
 20
-358.803693
 30
0.0
 11
141.919734
 21
-358.303693
 31
0.0
  0
LINE
  8
0
  6
BYLAYER
 62
     1
 10
153.919734
 20
-359.053693
 30
0.0
 11
153.919734
 21
-358.553693
 31
0.0
  0
LINE
  8
0
  6
BYLAYER
 62
     1
 10
153.919734
 20
-358.803693
 30
0.0
 11
153.919734
 21
-358.303693
 31
0.0
  0
LINE
  8
0
  6
BYLAYER
 62
     1
 10
182.419795
 20
-354.303815
 30
0.0
 11
182.419795
 21
-375.303693
 31
0.0
  0
LINE
  8
0
  6
BYLAYER
 62
     1
 10
172.919673
 20
-369.303693
 30
0.0
 11
172.919673
 21
-360.303693
 31
0.0
  0
LINE
  8
0
  6
BYLAYER
 62
     1
 10
171.919673
 20
-371.803693
 30
0.0
 11
154.419734
 21
-371.803693
 31
0.0
  0
LINE
  8
0
  6
BYLAYER
 62
     1
 10
171.919673
 20
-370.303693
 30
0.0
 11
154.419734
 21
-370.303693
 31
0.0
  0
ARC
  8
0
  6
BYLAYER
 62
     1
 10
171.919673
 20
-372.803693
 30
0.0
 40
1.0
 50
0.0
 51
89.999968
  0
LINE
  8
0
  6
BYLAYER
 62
     1
 10
172.919673
 20
-372.803693
 30
0.0
 11
172.919673
 21
-375.803815
 31
0.0
  0
ARC
  8
0
  6
BYLAYER
 62
     1
 10
183.419673
 20
-382.803693
 30
0.0
 40
0.500000
 50
90.0
 51
180.000003
  0
LINE
  8
0
  6
BYLAYER
 62
     1
 10
182.419795
 20
-375.803693
 30
0.0
 11
179.420161
 21
-375.803693
 31
0.0
  0
LINE
  8
0
  6
BYLAYER
 62
     1
 10
178.670161
 20
-375.803693
 30
0.0
 11
176.670161
 21
-375.803693
 31
0.0
  0
LINE
  8
0
  6
BYLAYER
 62
     1
 10
178.670161
 20
-375.803693
 30
0.0
 11
179.420161
 21
-375.803693
 31
0.0
  0
ARC
  8
0
  6
BYLAYER
 62
     1
 10
182.919795
 20
-375.303693
 30
0.0
 40
0.500000
 50
180.000000
 51
269.999996
  0
LINE
  8
0
  6
BYLAYER
 62
     1
 10
182.919673
 20
-375.803693
 30
0.0
 11
182.419795
 21
-375.803693
 31
0.0
  0
ARC
  8
0
  6
BYLAYER
 62
     1
 10
171.919673
 20
-369.303693
 30
0.0
 40
1.0
 50
270.0
 51
360.000009
  0
LINE
  8
0
  6
BYLAYER
 62
     1
 10
163.919795
 20
-339.803693
 30
0.0
 11
169.434566
 21
-339.803693
 31
0.0
  0
LINE
  8
0
  6
BYLAYER
 62
     1
 10
167.759128
 20
-342.297834
 30
0.0
 11
179.296504
 21
-342.297834
 31
0.0
  0
ARC
  8
0
  6
BYLAYER
 62
     1
 10
170.419673
 20
-347.803693
 30
0.0
 40
3.0
 50
180.000000
 51
360.000005
  0
LINE
  8
0
  6
BYLAYER
 62
     1
 10
171.919673
 20
-357.803693
 30
0.0
 11
154.419734
 21
-357.803693
 31
0.0
  0
LINE
  8
0
  6
BYLAYER
 62
     1
 10
171.919673
 20
-359.303693
 30
0.0
 11
154.419734
 21
-359.303693
 31
0.0
  0
LINE
  8
0
  6
BYLAYER
 62
     1
 10
163.919673
 20
-343.803815
 30
0.0
 11
163.919673
 21
-353.803815
 31
0.0
  0
LINE
  8
0
  6
BYLAYER
 62
     1
 10
162.919673
 20
-344.803815
 30
0.0
 11
162.919673
 21
-353.803815
 31
0.0
  0
LINE
  8
0
  6
BYLAYER
 62
     1
 10
167.419673
 20
-343.803815
 30
0.0
 11
163.919673
 21
-343.803815
 31
0.0
  0
LINE
  8
0
  6
BYLAYER
 62
     1
 10
163.919673
 20
-343.803815
 30
0.0
 11
162.919673
 21
-344.803815
 31
0.0
  0
LINE
  8
0
  6
BYLAYER
 62
     1
 10
167.419673
 20
-343.803815
 30
0.0
 11
167.419673
 21
-347.803693
 31
0.0
  0
ARC
  8
0
  6
BYLAYER
 62
     1
 10
166.559131
 20
-340.803693
 30
0.0
 40
1.000000
 50
0.0
 51
90.000016
  0
LINE
  8
0
  6
BYLAYER
 62
     1
 10
167.559131
 20
-343.297834
 30
0.0
 11
167.559131
 21
-340.803693
 31
0.0
  0
ARC
  8
0
  6
BYLAYER
 62
     1
 10
167.759128
 20
-342.097837
 30
0.0
 40
0.199997
 50
180.000000
 51
269.999996
  0
LINE
  8
0
  6
BYLAYER
 62
     1
 10
182.919673
 20
-343.803815
 30
0.0
 11
182.919673
 21
-353.803815
 31
0.0
  0
LINE
  8
0
  6
BYLAYER
 62
     1
 10
173.024302
 20
-349.292279
 30
0.0
 11
172.919673
 21
-343.297834
 31
0.0
  0
LINE
  8
0
  6
BYLAYER
 62
     1
 10
172.919673
 20
-353.803815
 30
0.0
 11
172.919673
 21
-356.803693
 31
0.0
  0
ARC
  8
0
  6
BYLAYER
 62
     1
 10
171.919673
 20
-356.803693
 30
0.0
 40
1.0
 50
270.0
 51
360.000009
  0
ARC
  8
0
  6
BYLAYER
 62
     1
 10
171.919673
 20
-360.303693
 30
0.0
 40
1.0
 50
0.0
 51
89.999968
  0
LINE
  8
0
  6
BYLAYER
 62
     1
 10
182.419795
 20
-353.803815
 30
0.0
 11
179.420161
 21
-353.803815
 31
0.0
  0
LINE
  8
0
  6
BYLAYER
 62
     1
 10
178.670161
 20
-353.803815
 30
0.0
 11
176.670161
 21
-353.803815
 31
0.0
  0
LINE
  8
0
  6
BYLAYER
 62
     1
 10
178.670161
 20
-353.803815
 30
0.0
 11
179.420161
 21
-353.803815
 31
0.0
  0
ARC
  8
0
  6
BYLAYER
 62
     1
 10
182.919795
 20
-354.303815
 30
0.0
 40
0.500000
 50
90.0
 51
180.000003
  0
LINE
  8
0
  6
BYLAYER
 62
     1
 10
182.919673
 20
-353.803815
 30
0.0
 11
182.419795
 21
-353.803815
 31
0.0
  0
LINE
  8
0
  6
BYLAYER
 62
     1
 10
182.919673
 20
-343.803815
 30
0.0
 11
173.419673
 21
-343.803815
 31
0.0
  0
LINE
  8
0
  6
BYLAYER
 62
     1
 10
173.419673
 20
-343.803815
 30
0.0
 11
173.419673
 21
-347.803693
 31
0.0
  0
ARC
  8
0
  6
BYLAYER
 62
     1
 10
169.119678
 20
-340.803693
 30
0.0
 40
1.000000
 50
0.0
 51
90.000016
  0
LINE
  8
0
  6
BYLAYER
 62
     1
 10
170.119678
 20
-340.803693
 30
0.0
 11
170.119678
 21
-342.097837
 31
0.0
  0
ARC
  8
0
  6
BYLAYER
 62
     1
 10
170.319674
 20
-342.097837
 30
0.0
 40
0.199997
 50
180.000000
 51
269.999996
  0
LINE
  8
0
  6
BYLAYER
 62
     1
 10
180.296504
 20
-343.297834
 30
0.0
 11
180.296504
 21
-343.797834
 31
0.0
  0
ARC
  8
0
  6
BYLAYER
 62
     1
 10
183.419673
 20
-346.803693
 30
0.0
 40
0.5
 50
180.000000
 51
269.999996
  0
ARC
  8
0
  6
BYLAYER
 62
     1
 10
179.296504
 20
-343.297834
 30
0.0
 40
1.000000
 50
0.0
 51
90.000016
  0
ENDSEC
  0
EOF
