  0
SECTION
  2
HEADER
  9
$EXTMIN
 10
263.283276
 20
989.0
 30
0.0
  9
$EXTMAX
 10
1289.412969
 20
0.0
 30
0.0
  0
ENDSEC
  0
SECTION
  2
TABLES
  0
ENDSEC
  0
SECTION
  2
BLOCKS
  0
ENDSEC
  0
SECTION
  2
ENTITIES
  0
LINE
  8
0
  6
BYLAYER
 62
     7
 10
688.177474
 20
-215.526451
 30
0.0
 11
688.177474
 21
-227.776451
 31
0.0
  0
LINE
  8
0
  6
BYLAYER
 62
     7
 10
690.677474
 20
-215.526451
 30
0.0
 11
688.177474
 21
-215.526451
 31
0.0
  0
LINE
  8
0
  6
BYLAYER
 62
     7
 10
688.177474
 20
-227.776451
 30
0.0
 11
665.677474
 21
-228.169190
 31
0.0
  0
LINE
  8
0
  6
BYLAYER
 62
     7
 10
665.677474
 20
-242.276451
 30
0.0
 11
653.677474
 21
-242.276451
 31
0.0
  0
LINE
  8
0
  6
BYLAYER
 62
     7
 10
665.677474
 20
-42.276451
 30
0.0
 11
653.677474
 21
-42.276451
 31
0.0
  0
LINE
  8
0
  6
BYLAYER
 62
     7
 10
665.677474
 20
-42.276451
 30
0.0
 11
665.677474
 21
-142.276451
 31
0.0
  0
ARC
  8
0
  6
BYLAYER
 62
     7
 10
666.677474
 20
-68.793754
 30
0.0
 40
1.0
 50
180.000000
 51
269.000000
  0
LINE
  8
0
  6
BYLAYER
 62
     7
 10
665.677474
 20
-142.276451
 30
0.0
 11
665.677474
 21
-242.276451
 31
0.0
  0
LINE
  8
0
  6
BYLAYER
 62
     7
 10
666.660022
 20
-69.793601
 30
0.0
 11
690.677474
 21
-70.212828
 31
0.0
  0
LINE
  8
0
  6
BYLAYER
 62
     7
 10
690.677474
 20
-70.212828
 30
0.0
 11
690.677474
 21
-215.526451
 31
0.0
  0
LINE
  8
0
  6
BYLAYER
 62
     7
 10
653.677474
 20
-142.276451
 30
0.0
 11
653.677474
 21
-242.276451
 31
0.0
  0
LINE
  8
0
  6
BYLAYER
 62
     7
 10
653.677474
 20
-42.276451
 30
0.0
 11
653.677474
 21
-142.276451
 31
0.0
  0
LINE
  8
0
  6
BYLAYER
 62
     7
 10
770.177443
 20
-135.876416
 30
0.0
 11
812.677564
 21
-135.876390
 31
0.0
  0
LINE
  8
0
  6
BYLAYER
 62
     7
 10
770.177443
 20
-137.476422
 30
0.0
 11
812.677564
 21
-137.476396
 31
0.0
  0
LINE
  8
0
  6
BYLAYER
 62
     7
 10
770.177443
 20
-113.476392
 30
0.0
 11
812.677564
 21
-113.476392
 31
0.0
  0
LINE
  8
0
  6
BYLAYER
 62
     7
 10
770.177443
 20
-115.076367
 30
0.0
 11
812.677564
 21
-115.076367
 31
0.0
  0
LINE
  8
0
  6
BYLAYER
 62
     7
 10
770.177443
 20
-102.276441
 30
0.0
 11
812.677564
 21
-102.276336
 31
0.0
  0
LINE
  8
0
  6
BYLAYER
 62
     7
 10
770.177443
 20
-103.876416
 30
0.0
 11
812.677564
 21
-103.876416
 31
0.0
  0
LINE
  8
0
  6
BYLAYER
 62
     7
 10
770.177443
 20
-91.076367
 30
0.0
 11
812.677564
 21
-91.076367
 31
0.0
  0
LINE
  8
0
  6
BYLAYER
 62
     7
 10
770.177443
 20
-92.676343
 30
0.0
 11
812.677564
 21
-92.676343
 31
0.0
  0
LINE
  8
0
  6
BYLAYER
 62
     7
 10
770.177443
 20
-135.876416
 30
0.0
 11
694.977431
 21
-135.876416
 31
0.0
  0
LINE
  8
0
  6
BYLAYER
 62
     7
 10
770.177443
 20
-137.476422
 30
0.0
 11
694.977431
 21
-137.476422
 31
0.0
  0
ARC
  8
0
  6
BYLAYER
 62
     7
 10
698.977431
 20
-91.876416
 30
0.0
 40
0.799927
 50
90.0
 51
270.000012
  0
ARC
  8
0
  6
BYLAYER
 62
     7
 10
694.977431
 20
-136.676404
 30
0.0
 40
0.800018
 50
90.0
 51
270.000012
  0
ARC
  8
0
  6
BYLAYER
 62
     7
 10
698.977431
 20
-136.676404
 30
0.0
 40
0.800018
 50
90.0
 51
270.000012
  0
ARC
  8
0
  6
BYLAYER
 62
     7
 10
694.977431
 20
-125.476422
 30
0.0
 40
0.799988
 50
90.0
 51
270.000012
  0
ARC
  8
0
  6
BYLAYER
 62
     7
 10
698.977431
 20
-125.476422
 30
0.0
 40
0.799988
 50
90.0
 51
270.000012
  0
ARC
  8
0
  6
BYLAYER
 62
     7
 10
694.977431
 20
-114.276441
 30
0.0
 40
0.799927
 50
90.0
 51
270.000012
  0
ARC
  8
0
  6
BYLAYER
 62
     7
 10
698.977431
 20
-114.276441
 30
0.0
 40
0.799927
 50
90.0
 51
270.000012
  0
LINE
  8
0
  6
BYLAYER
 62
     7
 10
770.177443
 20
-113.476392
 30
0.0
 11
694.977431
 21
-113.476392
 31
0.0
  0
LINE
  8
0
  6
BYLAYER
 62
     7
 10
770.177443
 20
-115.076367
 30
0.0
 11
694.977431
 21
-115.076367
 31
0.0
  0
ARC
  8
0
  6
BYLAYER
 62
     7
 10
694.977431
 20
-103.076367
 30
0.0
 40
0.800049
 50
90.0
 51
270.000012
  0
ARC
  8
0
  6
BYLAYER
 62
     7
 10
698.977431
 20
-103.076367
 30
0.0
 40
0.800049
 50
90.0
 51
270.000012
  0
LINE
  8
0
  6
BYLAYER
 62
     7
 10
770.177443
 20
-102.276441
 30
0.0
 11
694.977431
 21
-102.276441
 31
0.0
  0
LINE
  8
0
  6
BYLAYER
 62
     7
 10
770.177443
 20
-103.876416
 30
0.0
 11
694.977431
 21
-103.876416
 31
0.0
  0
ARC
  8
0
  6
BYLAYER
 62
     7
 10
694.977431
 20
-91.876416
 30
0.0
 40
0.799927
 50
90.0
 51
270.000012
  0
LINE
  8
0
  6
BYLAYER
 62
     7
 10
770.177443
 20
-91.076367
 30
0.0
 11
694.977431
 21
-91.076367
 31
0.0
  0
LINE
  8
0
  6
BYLAYER
 62
     7
 10
770.177443
 20
-92.676343
 30
0.0
 11
694.977431
 21
-92.676343
 31
0.0
  0
LINE
  8
0
  6
BYLAYER
 62
     7
 10
792.177504
 20
-46.276410
 30
0.0
 11
792.177504
 21
-91.076367
 31
0.0
  0
LINE
  8
0
  6
BYLAYER
 62
     7
 10
694.177443
 20
-69.526441
 30
0.0
 11
690.677443
 21
-69.526441
 31
0.0
  0
ARC
  8
0
  6
BYLAYER
 62
     7
 10
723.677443
 20
-60.276410
 30
0.0
 40
13.000000
 50
180.000019
 51
360.000018
  0
ARC
  8
0
  6
BYLAYER
 62
     7
 10
762.677443
 20
-60.276410
 30
0.0
 40
12.999985
 50
180.000019
 51
360.000018
  0
LINE
  8
0
  6
BYLAYER
 62
     7
 10
699.677443
 20
-92.676343
 30
0.0
 11
699.677443
 21
-102.276441
 31
0.0
  0
LINE
  8
0
  6
BYLAYER
 62
     7
 10
699.677443
 20
-103.876416
 30
0.0
 11
699.677443
 21
-113.476392
 31
0.0
  0
LINE
  8
0
  6
BYLAYER
 62
     7
 10
699.677443
 20
-115.076367
 30
0.0
 11
699.677443
 21
-124.676404
 31
0.0
  0
LINE
  8
0
  6
BYLAYER
 62
     7
 10
699.677443
 20
-126.276410
 30
0.0
 11
699.677443
 21
-135.876416
 31
0.0
  0
LINE
  8
0
  6
BYLAYER
 62
     7
 10
699.677443
 20
-137.476422
 30
0.0
 11
699.677504
 21
-147.076398
 31
0.0
  0
LINE
  8
0
  6
BYLAYER
 62
     7
 10
694.177443
 20
-51.776410
 30
0.0
 11
708.677443
 21
-51.776410
 31
0.0
  0
LINE
  8
0
  6
BYLAYER
 62
     7
 10
710.677443
 20
-60.276410
 30
0.0
 11
710.677443
 21
-53.776410
 31
0.0
  0
ARC
  8
0
  6
BYLAYER
 62
     7
 10
708.677443
 20
-53.776410
 30
0.0
 40
2.0
 50
0.0
 51
90.000003
  0
LINE
  8
0
  6
BYLAYER
 62
     7
 10
736.677443
 20
-60.276410
 30
0.0
 11
736.677443
 21
-53.776410
 31
0.0
  0
ARC
  8
0
  6
BYLAYER
 62
     7
 10
738.677443
 20
-53.776410
 30
0.0
 40
2.0
 50
90.0
 51
180.000003
  0
LINE
  8
0
  6
BYLAYER
 62
     7
 10
738.677443
 20
-51.776410
 30
0.0
 11
747.677443
 21
-51.776410
 31
0.0
  0
LINE
  8
0
  6
BYLAYER
 62
     7
 10
749.677443
 20
-60.276410
 30
0.0
 11
749.677443
 21
-53.776410
 31
0.0
  0
ARC
  8
0
  6
BYLAYER
 62
     7
 10
747.677443
 20
-53.776410
 30
0.0
 40
2.0
 50
0.0
 51
90.000003
  0
LINE
  8
0
  6
BYLAYER
 62
     7
 10
775.677443
 20
-60.276410
 30
0.0
 11
775.677443
 21
-53.776410
 31
0.0
  0
LINE
  8
0
  6
BYLAYER
 62
     7
 10
777.677504
 20
-51.776410
 30
0.0
 11
792.177504
 21
-51.776410
 31
0.0
  0
ARC
  8
0
  6
BYLAYER
 62
     7
 10
777.677504
 20
-53.776410
 30
0.0
 40
2.000061
 50
90.0
 51
180.000003
  0
LINE
  8
0
  6
BYLAYER
 62
     7
 10
694.177443
 20
-57.776410
 30
0.0
 11
710.677443
 21
-57.776410
 31
0.0
  0
LINE
  8
0
  6
BYLAYER
 62
     7
 10
736.677443
 20
-57.776410
 30
0.0
 11
749.677443
 21
-57.776410
 31
0.0
  0
LINE
  8
0
  6
BYLAYER
 62
     7
 10
775.677443
 20
-57.776410
 30
0.0
 11
792.177504
 21
-57.776410
 31
0.0
  0
LINE
  8
0
  6
BYLAYER
 62
     7
 10
770.177443
 20
-147.076428
 30
0.0
 11
812.677564
 21
-147.076402
 31
0.0
  0
LINE
  8
0
  6
BYLAYER
 62
     7
 10
770.177443
 20
-148.676434
 30
0.0
 11
812.677564
 21
-148.676408
 31
0.0
  0
LINE
  8
0
  6
BYLAYER
 62
     7
 10
770.177443
 20
-147.076428
 30
0.0
 11
694.977431
 21
-147.076428
 31
0.0
  0
LINE
  8
0
  6
BYLAYER
 62
     7
 10
770.177443
 20
-148.676434
 30
0.0
 11
694.977431
 21
-148.676434
 31
0.0
  0
ARC
  8
0
  6
BYLAYER
 62
     7
 10
694.977431
 20
-147.876416
 30
0.0
 40
0.800018
 50
90.0
 51
270.000012
  0
ARC
  8
0
  6
BYLAYER
 62
     7
 10
698.977431
 20
-147.876416
 30
0.0
 40
0.800018
 50
90.0
 51
270.000012
  0
LINE
  8
0
  6
BYLAYER
 62
     7
 10
770.177443
 20
-158.276410
 30
0.0
 11
812.677564
 21
-158.276383
 31
0.0
  0
LINE
  8
0
  6
BYLAYER
 62
     7
 10
770.177443
 20
-159.876416
 30
0.0
 11
812.677564
 21
-159.876390
 31
0.0
  0
LINE
  8
0
  6
BYLAYER
 62
     7
 10
770.177443
 20
-158.276410
 30
0.0
 11
694.977431
 21
-158.276410
 31
0.0
  0
LINE
  8
0
  6
BYLAYER
 62
     7
 10
770.177443
 20
-159.876416
 30
0.0
 11
694.977431
 21
-159.876416
 31
0.0
  0
ARC
  8
0
  6
BYLAYER
 62
     7
 10
694.977431
 20
-159.076398
 30
0.0
 40
0.800018
 50
90.0
 51
270.000012
  0
ARC
  8
0
  6
BYLAYER
 62
     7
 10
698.977431
 20
-159.076398
 30
0.0
 40
0.800018
 50
90.0
 51
270.000012
  0
LINE
  8
0
  6
BYLAYER
 62
     7
 10
770.177443
 20
-169.476422
 30
0.0
 11
694.977431
 21
-169.476422
 31
0.0
  0
LINE
  8
0
  6
BYLAYER
 62
     7
 10
770.177443
 20
-171.076428
 30
0.0
 11
694.977431
 21
-171.076428
 31
0.0
  0
ARC
  8
0
  6
BYLAYER
 62
     7
 10
694.977431
 20
-170.276410
 30
0.0
 40
0.800018
 50
90.0
 51
270.000012
  0
ARC
  8
0
  6
BYLAYER
 62
     7
 10
698.977431
 20
-170.276410
 30
0.0
 40
0.800018
 50
90.0
 51
270.000012
  0
LINE
  8
0
  6
BYLAYER
 62
     7
 10
770.177443
 20
-180.676404
 30
0.0
 11
812.677564
 21
-180.676377
 31
0.0
  0
LINE
  8
0
  6
BYLAYER
 62
     7
 10
770.177443
 20
-182.276410
 30
0.0
 11
812.677564
 21
-182.276383
 31
0.0
  0
LINE
  8
0
  6
BYLAYER
 62
     7
 10
770.177443
 20
-180.676404
 30
0.0
 11
694.977431
 21
-180.676404
 31
0.0
  0
LINE
  8
0
  6
BYLAYER
 62
     7
 10
770.177443
 20
-182.276410
 30
0.0
 11
694.977431
 21
-182.276410
 31
0.0
  0
ARC
  8
0
  6
BYLAYER
 62
     7
 10
694.977431
 20
-181.476392
 30
0.0
 40
0.800018
 50
90.0
 51
270.000012
  0
ARC
  8
0
  6
BYLAYER
 62
     7
 10
698.977431
 20
-181.476392
 30
0.0
 40
0.800018
 50
90.0
 51
270.000012
  0
LINE
  8
0
  6
BYLAYER
 62
     7
 10
770.177443
 20
-191.876416
 30
0.0
 11
812.677564
 21
-191.876390
 31
0.0
  0
LINE
  8
0
  6
BYLAYER
 62
     7
 10
770.177443
 20
-191.876416
 30
0.0
 11
694.977431
 21
-191.876416
 31
0.0
  0
ARC
  8
0
  6
BYLAYER
 62
     7
 10
694.977431
 20
-192.676404
 30
0.0
 40
0.800018
 50
90.0
 51
270.000012
  0
ARC
  8
0
  6
BYLAYER
 62
     7
 10
698.977431
 20
-192.676404
 30
0.0
 40
0.800018
 50
90.0
 51
270.000012
  0
LINE
  8
0
  6
BYLAYER
 62
     7
 10
694.177443
 20
-46.276410
 30
0.0
 11
694.177504
 21
-215.026410
 31
0.0
  0
LINE
  8
0
  6
BYLAYER
 62
     7
 10
770.177443
 20
-169.476422
 30
0.0
 11
812.677564
 21
-169.476392
 31
0.0
  0
LINE
  8
0
  6
BYLAYER
 62
     7
 10
770.177443
 20
-171.076428
 30
0.0
 11
812.677564
 21
-171.076398
 31
0.0
  0
LINE
  8
0
  6
BYLAYER
 62
     7
 10
699.677443
 20
-148.676404
 30
0.0
 11
699.677504
 21
-158.276410
 31
0.0
  0
LINE
  8
0
  6
BYLAYER
 62
     7
 10
699.677443
 20
-159.876416
 30
0.0
 11
699.677504
 21
-169.476392
 31
0.0
  0
LINE
  8
0
  6
BYLAYER
 62
     7
 10
699.677443
 20
-171.076428
 30
0.0
 11
699.677504
 21
-180.676404
 31
0.0
  0
LINE
  8
0
  6
BYLAYER
 62
     7
 10
699.677443
 20
-182.276410
 30
0.0
 11
699.677504
 21
-191.876386
 31
0.0
  0
ARC
  8
0
  6
BYLAYER
 62
     7
 10
730.177443
 20
-125.476422
 30
0.0
 40
3.000015
 50
13.212986
 51
166.787045
  0
ARC
  8
0
  6
BYLAYER
 62
     7
 10
785.177504
 20
-125.476392
 30
0.0
 40
3.000015
 50
13.213048
 51
166.786990
  0
ARC
  8
0
  6
BYLAYER
 62
     7
 10
785.177504
 20
-125.476392
 30
0.0
 40
3.000008
 50
193.212979
 51
346.787064
  0
ARC
  8
0
  6
BYLAYER
 62
     7
 10
730.177443
 20
-125.476422
 30
0.0
 40
3.000008
 50
193.212979
 51
346.787064
  0
LINE
  8
0
  6
BYLAYER
 62
     7
 10
782.286147
 20
-124.676373
 30
0.0
 11
757.677443
 21
-124.676404
 31
0.0
  0
LINE
  8
0
  6
BYLAYER
 62
     7
 10
782.286147
 20
-126.276379
 30
0.0
 11
757.677443
 21
-126.276410
 31
0.0
  0
LINE
  8
0
  6
BYLAYER
 62
     7
 10
694.977431
 20
-124.676404
 30
0.0
 11
727.286086
 21
-124.676404
 31
0.0
  0
LINE
  8
0
  6
BYLAYER
 62
     7
 10
694.977431
 20
-126.276410
 30
0.0
 11
727.286086
 21
-126.276410
 31
0.0
  0
LINE
  8
0
  6
BYLAYER
 62
     7
 10
757.677443
 20
-124.676404
 30
0.0
 11
733.068831
 21
-124.676404
 31
0.0
  0
LINE
  8
0
  6
BYLAYER
 62
     7
 10
733.068831
 20
-126.276410
 30
0.0
 11
757.677443
 21
-126.276410
 31
0.0
  0
LINE
  8
0
  6
BYLAYER
 62
     7
 10
788.068861
 20
-124.676373
 30
0.0
 11
812.677564
 21
-124.676373
 31
0.0
  0
LINE
  8
0
  6
BYLAYER
 62
     7
 10
788.068861
 20
-126.276379
 30
0.0
 11
812.677564
 21
-126.276379
 31
0.0
  0
LINE
  8
0
  6
BYLAYER
 62
     7
 10
812.677564
 20
-193.476392
 30
0.0
 11
694.977431
 21
-193.476392
 31
0.0
  0
LINE
  8
0
  6
BYLAYER
 62
     7
 10
699.677504
 20
-195.217633
 30
0.0
 11
694.177504
 21
-198.057202
 31
0.0
  0
LINE
  8
0
  6
BYLAYER
 62
     7
 10
694.177504
 20
-198.057202
 30
0.0
 11
697.679518
 21
-206.990247
 31
0.0
  0
ARC
  8
0
  6
BYLAYER
 62
     7
 10
699.541548
 20
-206.260266
 30
0.0
 40
2.000007
 50
201.406501
 51
270.000001
  0
LINE
  8
0
  6
BYLAYER
 62
     7
 10
694.177504
 20
-215.026441
 30
0.0
 11
690.677504
 21
-215.026441
 31
0.0
  0
LINE
  8
0
  6
BYLAYER
 62
     7
 10
694.177504
 20
-202.726544
 30
0.0
 11
697.770674
 21
-215.668103
 31
0.0
  0
ARC
  8
0
  6
BYLAYER
 62
     7
 10
699.697768
 20
-215.133038
 30
0.0
 40
2.000010
 50
195.517184
 51
270.000001
  0
LINE
  8
0
  6
BYLAYER
 62
     7
 10
694.177504
 20
-208.895337
 30
0.0
 11
697.745192
 21
-220.585706
 31
0.0
  0
ARC
  8
0
  6
BYLAYER
 62
     7
 10
699.658095
 20
-220.001935
 30
0.0
 40
1.999996
 50
196.971318
 51
270.000001
  0
LINE
  8
0
  6
BYLAYER
 62
     7
 10
694.177504
 20
-212.763165
 30
0.0
 11
697.728712
 21
-223.706311
 31
0.0
  0
ARC
  8
0
  6
BYLAYER
 62
     7
 10
699.631056
 20
-223.088971
 30
0.0
 40
2.000005
 50
197.979057
 51
270.000001
  0
ARC
  8
0
  6
BYLAYER
 62
     7
 10
699.066847
 20
-224.590100
 30
0.0
 40
2.000005
 50
197.979057
 51
270.000001
  0
LINE
  8
0
  6
BYLAYER
 62
     7
 10
697.164504
 20
-225.207440
 30
0.0
 11
693.860609
 21
-215.026441
 31
0.0
  0
LINE
  8
0
  6
BYLAYER
 62
     7
 10
699.677504
 20
-195.217633
 30
0.0
 11
812.677564
 21
-195.217633
 31
0.0
  0
LINE
  8
0
  6
BYLAYER
 62
     7
 10
699.541548
 20
-208.260266
 30
0.0
 11
812.677564
 21
-208.260266
 31
0.0
  0
LINE
  8
0
  6
BYLAYER
 62
     7
 10
699.697768
 20
-217.133038
 30
0.0
 11
812.677564
 21
-217.133038
 31
0.0
  0
LINE
  8
0
  6
BYLAYER
 62
     7
 10
699.658095
 20
-222.001935
 30
0.0
 11
812.677564
 21
-222.001935
 31
0.0
  0
LINE
  8
0
  6
BYLAYER
 62
     7
 10
699.631056
 20
-225.088971
 30
0.0
 11
812.677564
 21
-225.088971
 31
0.0
  0
LINE
  8
0
  6
BYLAYER
 62
     7
 10
699.066847
 20
-226.590100
 30
0.0
 11
812.677564
 21
-226.590100
 31
0.0
  0
LINE
  8
0
  6
BYLAYER
 62
     7
 10
792.177504
 20
-70.721326
 30
0.0
 11
812.677564
 21
-70.721326
 31
0.0
  0
LINE
  8
0
  6
BYLAYER
 62
     7
 10
792.177504
 20
-61.264264
 30
0.0
 11
812.677564
 21
-61.264264
 31
0.0
  0
LINE
  8
0
  6
BYLAYER
 62
     7
 10
792.177504
 20
-62.765424
 30
0.0
 11
812.677564
 21
-62.765424
 31
0.0
  0
LINE
  8
0
  6
BYLAYER
 62
     7
 10
812.677564
 20
-65.852429
 30
0.0
 11
792.177504
 21
-65.852429
 31
0.0
  0
LINE
  8
0
  6
BYLAYER
 62
     7
 10
690.677504
 20
-215.026441
 30
0.0
 11
690.677443
 21
-69.526438
 31
0.0
  0
LINE
  8
0
  6
BYLAYER
 62
     7
 10
786.677443
 20
-35.776410
 30
0.0
 11
786.677443
 21
-14.276410
 31
0.0
  0
ARC
  8
0
  6
BYLAYER
 62
     7
 10
788.177443
 20
-35.776410
 30
0.0
 40
1.5
 50
180.000000
 51
270.000000
  0
ARC
  8
0
  6
BYLAYER
 62
     7
 10
785.177443
 20
-14.276410
 30
0.0
 40
1.5
 50
0.0
 51
90.0
  0
LINE
  8
0
  6
BYLAYER
 62
     7
 10
699.677443
 20
-35.776410
 30
0.0
 11
699.677443
 21
-14.276410
 31
0.0
  0
ARC
  8
0
  6
BYLAYER
 62
     7
 10
698.177443
 20
-35.776410
 30
0.0
 40
1.5
 50
270.0
 51
360.0
  0
ARC
  8
0
  6
BYLAYER
 62
     7
 10
701.177443
 20
-14.276410
 30
0.0
 40
1.5
 50
90.0
 51
180.0
  0
LINE
  8
0
  6
BYLAYER
 62
     7
 10
701.177443
 20
-12.776410
 30
0.0
 11
785.177443
 21
-12.776410
 31
0.0
  0
LINE
  8
0
  6
BYLAYER
 62
     7
 10
705.049684
 20
-35.776410
 30
0.0
 11
705.049684
 21
-14.276410
 31
0.0
  0
ARC
  8
0
  6
BYLAYER
 62
     7
 10
703.549684
 20
-35.776410
 30
0.0
 40
1.5
 50
270.0
 51
360.0
  0
ARC
  8
0
  6
BYLAYER
 62
     7
 10
706.549684
 20
-14.276410
 30
0.0
 40
1.5
 50
90.0
 51
180.0
  0
LINE
  8
0
  6
BYLAYER
 62
     7
 10
781.305203
 20
-35.776410
 30
0.0
 11
781.305203
 21
-14.276410
 31
0.0
  0
ARC
  8
0
  6
BYLAYER
 62
     7
 10
782.805203
 20
-35.776410
 30
0.0
 40
1.5
 50
180.000000
 51
270.000000
  0
ARC
  8
0
  6
BYLAYER
 62
     7
 10
779.805203
 20
-14.276410
 30
0.0
 40
1.500000
 50
0.0
 51
90.0
  0
LINE
  8
0
  6
BYLAYER
 62
     7
 10
743.177443
 20
-37.276410
 30
0.0
 11
790.677443
 21
-37.276410
 31
0.0
  0
ARC
  8
0
  6
BYLAYER
 62
     7
 10
790.677443
 20
-38.776410
 30
0.0
 40
1.5
 50
0.0
 51
90.0
  0
LINE
  8
0
  6
BYLAYER
 62
     7
 10
792.177443
 20
-46.276410
 30
0.0
 11
792.177443
 21
-38.776410
 31
0.0
  0
LINE
  8
0
  6
BYLAYER
 62
     7
 10
695.677443
 20
-37.276410
 30
0.0
 11
743.177443
 21
-37.276410
 31
0.0
  0
ARC
  8
0
  6
BYLAYER
 62
     7
 10
695.677443
 20
-38.776410
 30
0.0
 40
1.5
 50
90.0
 51
180.0
  0
LINE
  8
0
  6
BYLAYER
 62
     7
 10
694.177443
 20
-44.276410
 30
0.0
 11
694.177443
 21
-38.776410
 31
0.0
  0
LINE
  8
0
  6
BYLAYER
 62
     7
 10
792.177443
 20
-44.276410
 30
0.0
 11
694.177443
 21
-44.276410
 31
0.0
  0
LINE
  8
0
  6
BYLAYER
 62
     7
 10
812.677564
 20
-142.276410
 30
0.0
 11
812.677564
 21
-228.826410
 31
0.0
  0
LINE
  8
0
  6
BYLAYER
 62
     7
 10
902.677564
 20
-70.276410
 30
0.0
 11
902.677564
 21
-214.276410
 31
0.0
  0
LINE
  8
0
  6
BYLAYER
 62
     7
 10
812.677564
 20
-55.726410
 30
0.0
 11
888.127564
 21
-55.726410
 31
0.0
  0
LINE
  8
0
  6
BYLAYER
 62
     7
 10
902.677564
 20
-70.276410
 30
0.0
 11
888.127564
 21
-55.726410
 31
0.0
  0
LINE
  8
0
  6
BYLAYER
 62
     7
 10
902.677564
 20
-214.276410
 30
0.0
 11
888.127564
 21
-228.826410
 31
0.0
  0
LINE
  8
0
  6
BYLAYER
 62
     7
 10
812.677564
 20
-228.826410
 30
0.0
 11
888.127564
 21
-228.826410
 31
0.0
  0
LINE
  8
0
  6
BYLAYER
 62
     7
 10
812.677564
 20
-55.726410
 30
0.0
 11
812.677564
 21
-142.276410
 31
0.0
  0
LINE
  8
0
  6
BYLAYER
 62
     7
 10
694.177443
 20
-44.276410
 30
0.0
 11
694.177443
 21
-46.276410
 31
0.0
  0
LINE
  8
0
  6
BYLAYER
 62
     7
 10
694.177443
 20
-46.276410
 30
0.0
 11
792.177443
 21
-46.276410
 31
0.0
  0
LINE
  8
0
  6
BYLAYER
 62
     7
 10
888.127564
 20
-228.826410
 30
0.0
 11
888.127564
 21
-55.726410
 31
0.0
  0
LINE
  8
0
  6
BYLAYER
 62
     7
 10
665.677474
 20
-739.276451
 30
0.0
 11
653.677474
 21
-739.276451
 31
0.0
  0
LINE
  8
0
  6
BYLAYER
 62
     7
 10
665.677474
 20
-739.276451
 30
0.0
 11
665.677474
 21
-839.276451
 31
0.0
  0
ARC
  8
0
  6
BYLAYER
 62
     7
 10
666.677474
 20
-765.793754
 30
0.0
 40
1.000000
 50
180.000000
 51
269.000000
  0
LINE
  8
0
  6
BYLAYER
 62
     7
 10
666.660022
 20
-766.793601
 30
0.0
 11
690.677474
 21
-767.212828
 31
0.0
  0
LINE
  8
0
  6
BYLAYER
 62
     7
 10
690.677474
 20
-767.212828
 30
0.0
 11
690.677474
 21
-839.276451
 31
0.0
  0
LINE
  8
0
  6
BYLAYER
 62
     7
 10
653.677474
 20
-739.276451
 30
0.0
 11
653.677474
 21
-839.276451
 31
0.0
  0
LINE
  8
0
  6
BYLAYER
 62
     7
 10
665.677474
 20
-939.276451
 30
0.0
 11
653.677474
 21
-939.276451
 31
0.0
  0
LINE
  8
0
  6
BYLAYER
 62
     7
 10
665.677474
 20
-939.276451
 30
0.0
 11
665.677474
 21
-839.276451
 31
0.0
  0
ARC
  8
0
  6
BYLAYER
 62
     7
 10
666.677474
 20
-912.759148
 30
0.0
 40
1.0
 50
91.000000
 51
180.000000
  0
LINE
  8
0
  6
BYLAYER
 62
     7
 10
666.660022
 20
-911.759301
 30
0.0
 11
690.677474
 21
-911.340074
 31
0.0
  0
LINE
  8
0
  6
BYLAYER
 62
     7
 10
690.677474
 20
-911.340074
 30
0.0
 11
690.677474
 21
-839.276451
 31
0.0
  0
LINE
  8
0
  6
BYLAYER
 62
     7
 10
653.677474
 20
-939.276451
 30
0.0
 11
653.677474
 21
-839.276451
 31
0.0
  0
LINE
  8
0
  6
BYLAYER
 62
     7
 10
707.025947
 20
-882.776449
 30
0.0
 11
743.177478
 21
-882.776449
 31
0.0
  0
ARC
  8
0
  6
BYLAYER
 62
     7
 10
707.025947
 20
-881.276449
 30
0.0
 40
1.500000
 50
191.536959
 51
270.000000
  0
LINE
  8
0
  6
BYLAYER
 62
     7
 10
699.677478
 20
-839.276449
 30
0.0
 11
699.677478
 21
-875.427980
 31
0.0
  0
LINE
  8
0
  6
BYLAYER
 62
     7
 10
743.177478
 20
-882.776449
 30
0.0
 11
779.329009
 21
-882.776449
 31
0.0
  0
LINE
  8
0
  6
BYLAYER
 62
     7
 10
786.677478
 20
-875.427980
 30
0.0
 11
786.677478
 21
-839.276449
 31
0.0
  0
LINE
  8
0
  6
BYLAYER
 62
     7
 10
713.782177
 20
-851.877555
 30
0.0
 11
699.677478
 21
-852.370102
 31
0.0
  0
ARC
  8
0
  6
BYLAYER
 62
     7
 10
713.677478
 20
-848.879383
 30
0.0
 40
3.0
 50
272.000000
 51
360.000000
  0
LINE
  8
0
  6
BYLAYER
 62
     7
 10
713.782177
 20
-866.877555
 30
0.0
 11
699.677478
 21
-867.370102
 31
0.0
  0
ARC
  8
0
  6
BYLAYER
 62
     7
 10
713.677478
 20
-863.879383
 30
0.0
 40
3.0
 50
272.000000
 51
360.000000
  0
LINE
  8
0
  6
BYLAYER
 62
     7
 10
699.677478
 20
-856.182796
 30
0.0
 11
713.782177
 21
-856.675343
 31
0.0
  0
ARC
  8
0
  6
BYLAYER
 62
     7
 10
713.677478
 20
-859.673516
 30
0.0
 40
3.0
 50
0.0
 51
88.0
  0
LINE
  8
0
  6
BYLAYER
 62
     7
 10
699.677478
 20
-841.182796
 30
0.0
 11
713.782177
 21
-841.675343
 31
0.0
  0
ARC
  8
0
  6
BYLAYER
 62
     7
 10
713.677478
 20
-844.673516
 30
0.0
 40
3.0
 50
0.0
 51
88.0
  0
LINE
  8
0
  6
BYLAYER
 62
     7
 10
716.677478
 20
-859.673516
 30
0.0
 11
716.677478
 21
-863.879383
 31
0.0
  0
LINE
  8
0
  6
BYLAYER
 62
     7
 10
716.677478
 20
-844.673516
 30
0.0
 11
716.677478
 21
-848.879383
 31
0.0
  0
LINE
  8
0
  6
BYLAYER
 62
     7
 10
700.677478
 20
-841.217717
 30
0.0
 11
700.677478
 21
-852.335181
 31
0.0
  0
LINE
  8
0
  6
BYLAYER
 62
     7
 10
700.677478
 20
-856.217717
 30
0.0
 11
700.677478
 21
-867.335181
 31
0.0
  0
LINE
  8
0
  6
BYLAYER
 62
     7
 10
772.572780
 20
-851.877555
 30
0.0
 11
786.677478
 21
-852.370102
 31
0.0
  0
ARC
  8
0
  6
BYLAYER
 62
     7
 10
772.677478
 20
-848.879383
 30
0.0
 40
3.0
 50
180.000000
 51
268.000000
  0
LINE
  8
0
  6
BYLAYER
 62
     7
 10
772.572780
 20
-866.877555
 30
0.0
 11
786.677478
 21
-867.370102
 31
0.0
  0
ARC
  8
0
  6
BYLAYER
 62
     7
 10
772.677478
 20
-863.879383
 30
0.0
 40
3.0
 50
180.000000
 51
268.000000
  0
LINE
  8
0
  6
BYLAYER
 62
     7
 10
786.677478
 20
-856.182796
 30
0.0
 11
772.572780
 21
-856.675343
 31
0.0
  0
ARC
  8
0
  6
BYLAYER
 62
     7
 10
772.677478
 20
-859.673516
 30
0.0
 40
3.0
 50
92.000000
 51
180.000000
  0
LINE
  8
0
  6
BYLAYER
 62
     7
 10
786.677478
 20
-841.182796
 30
0.0
 11
772.572780
 21
-841.675343
 31
0.0
  0
ARC
  8
0
  6
BYLAYER
 62
     7
 10
772.677478
 20
-844.673516
 30
0.0
 40
3.0
 50
92.000000
 51
180.000000
  0
LINE
  8
0
  6
BYLAYER
 62
     7
 10
769.677478
 20
-859.673516
 30
0.0
 11
769.677478
 21
-863.879383
 31
0.0
  0
LINE
  8
0
  6
BYLAYER
 62
     7
 10
769.677478
 20
-844.673516
 30
0.0
 11
769.677478
 21
-848.879383
 31
0.0
  0
LINE
  8
0
  6
BYLAYER
 62
     7
 10
785.677478
 20
-841.217717
 30
0.0
 11
785.677478
 21
-852.335181
 31
0.0
  0
LINE
  8
0
  6
BYLAYER
 62
     7
 10
785.677478
 20
-856.217717
 30
0.0
 11
785.677478
 21
-867.335181
 31
0.0
  0
LINE
  8
0
  6
BYLAYER
 62
     7
 10
730.177478
 20
-869.276449
 30
0.0
 11
756.177478
 21
-869.276449
 31
0.0
  0
ARC
  8
0
  6
BYLAYER
 62
     7
 10
756.177478
 20
-866.276449
 30
0.0
 40
3.0
 50
270.0
 51
360.0
  0
ARC
  8
0
  6
BYLAYER
 62
     7
 10
730.177478
 20
-866.276449
 30
0.0
 40
3.0
 50
180.000000
 51
270.000000
  0
LINE
  8
0
  6
BYLAYER
 62
     7
 10
727.177478
 20
-839.276449
 30
0.0
 11
727.177478
 21
-866.276449
 31
0.0
  0
LINE
  8
0
  6
BYLAYER
 62
     7
 10
759.177478
 20
-866.276449
 30
0.0
 11
759.177478
 21
-839.276449
 31
0.0
  0
ARC
  8
0
  6
BYLAYER
 62
     7
 10
699.677478
 20
-882.776449
 30
0.0
 40
6.0
 50
11.536959
 51
78.463041
  0
ARC
  8
0
  6
BYLAYER
 62
     7
 10
701.177478
 20
-875.427980
 30
0.0
 40
1.5
 50
180.000000
 51
258.463041
  0
ARC
  8
0
  6
BYLAYER
 62
     7
 10
786.677478
 20
-882.776449
 30
0.0
 40
6.0
 50
101.536959
 51
168.463041
  0
ARC
  8
0
  6
BYLAYER
 62
     7
 10
785.177478
 20
-875.427980
 30
0.0
 40
1.500000
 50
281.536959
 51
360.000000
  0
ARC
  8
0
  6
BYLAYER
 62
     7
 10
779.329009
 20
-881.276449
 30
0.0
 40
1.5
 50
270.0
 51
348.463041
  0
LINE
  8
0
  6
BYLAYER
 62
     7
 10
694.177478
 20
-839.276449
 30
0.0
 11
694.177478
 21
-886.776449
 31
0.0
  0
LINE
  8
0
  6
BYLAYER
 62
     7
 10
695.677478
 20
-888.276449
 30
0.0
 11
790.677478
 21
-888.276449
 31
0.0
  0
ARC
  8
0
  6
BYLAYER
 62
     7
 10
695.677478
 20
-886.776449
 30
0.0
 40
1.5
 50
180.000000
 51
270.000000
  0
LINE
  8
0
  6
BYLAYER
 62
     7
 10
792.177478
 20
-886.776449
 30
0.0
 11
792.177478
 21
-839.276449
 31
0.0
  0
ARC
  8
0
  6
BYLAYER
 62
     7
 10
790.677478
 20
-886.776449
 30
0.0
 40
1.5
 50
270.0
 51
360.0
  0
LINE
  8
0
  6
BYLAYER
 62
     7
 10
792.177478
 20
-844.076414
 30
0.0
 11
812.677564
 21
-844.076402
 31
0.0
  0
LINE
  8
0
  6
BYLAYER
 62
     7
 10
792.177478
 20
-845.676420
 30
0.0
 11
812.677564
 21
-845.676408
 31
0.0
  0
LINE
  8
0
  6
BYLAYER
 62
     7
 10
792.177478
 20
-855.276396
 30
0.0
 11
812.677564
 21
-855.276383
 31
0.0
  0
LINE
  8
0
  6
BYLAYER
 62
     7
 10
792.177478
 20
-856.876402
 30
0.0
 11
812.677564
 21
-856.876390
 31
0.0
  0
LINE
  8
0
  6
BYLAYER
 62
     7
 10
792.177478
 20
-877.676390
 30
0.0
 11
812.677564
 21
-877.676377
 31
0.0
  0
LINE
  8
0
  6
BYLAYER
 62
     7
 10
792.177478
 20
-879.276396
 30
0.0
 11
812.677564
 21
-879.276383
 31
0.0
  0
LINE
  8
0
  6
BYLAYER
 62
     7
 10
770.177443
 20
-888.876416
 30
0.0
 11
812.677564
 21
-888.876390
 31
0.0
  0
LINE
  8
0
  6
BYLAYER
 62
     7
 10
770.177443
 20
-888.876416
 30
0.0
 11
694.977431
 21
-888.876416
 31
0.0
  0
ARC
  8
0
  6
BYLAYER
 62
     7
 10
694.977431
 20
-889.676404
 30
0.0
 40
0.800018
 50
90.0
 51
270.000012
  0
ARC
  8
0
  6
BYLAYER
 62
     7
 10
698.977431
 20
-889.676404
 30
0.0
 40
0.800018
 50
90.0
 51
270.000012
  0
LINE
  8
0
  6
BYLAYER
 62
     7
 10
694.177478
 20
-839.276449
 30
0.0
 11
694.177504
 21
-912.026410
 31
0.0
  0
LINE
  8
0
  6
BYLAYER
 62
     7
 10
792.177478
 20
-866.476406
 30
0.0
 11
812.677564
 21
-866.476392
 31
0.0
  0
LINE
  8
0
  6
BYLAYER
 62
     7
 10
792.177478
 20
-868.076412
 30
0.0
 11
812.677564
 21
-868.076398
 31
0.0
  0
LINE
  8
0
  6
BYLAYER
 62
     7
 10
699.677501
 20
-888.276449
 30
0.0
 11
699.677504
 21
-888.876386
 31
0.0
  0
LINE
  8
0
  6
BYLAYER
 62
     7
 10
812.677564
 20
-890.476392
 30
0.0
 11
694.977431
 21
-890.476392
 31
0.0
  0
LINE
  8
0
  6
BYLAYER
 62
     7
 10
699.677504
 20
-892.217633
 30
0.0
 11
694.177504
 21
-895.057202
 31
0.0
  0
LINE
  8
0
  6
BYLAYER
 62
     7
 10
694.177504
 20
-895.057202
 30
0.0
 11
697.679518
 21
-903.990247
 31
0.0
  0
ARC
  8
0
  6
BYLAYER
 62
     7
 10
699.541548
 20
-903.260266
 30
0.0
 40
2.000007
 50
201.406501
 51
270.000001
  0
LINE
  8
0
  6
BYLAYER
 62
     7
 10
694.177504
 20
-912.026441
 30
0.0
 11
690.677504
 21
-912.026441
 31
0.0
  0
LINE
  8
0
  6
BYLAYER
 62
     7
 10
694.177504
 20
-899.726544
 30
0.0
 11
697.770674
 21
-912.668103
 31
0.0
  0
ARC
  8
0
  6
BYLAYER
 62
     7
 10
699.697768
 20
-912.133038
 30
0.0
 40
2.000010
 50
195.517184
 51
270.000001
  0
LINE
  8
0
  6
BYLAYER
 62
     7
 10
694.177504
 20
-905.895337
 30
0.0
 11
697.745192
 21
-917.585706
 31
0.0
  0
ARC
  8
0
  6
BYLAYER
 62
     7
 10
699.658095
 20
-917.001935
 30
0.0
 40
1.999996
 50
196.971318
 51
270.000001
  0
LINE
  8
0
  6
BYLAYER
 62
     7
 10
694.177504
 20
-909.763165
 30
0.0
 11
697.728712
 21
-920.706311
 31
0.0
  0
ARC
  8
0
  6
BYLAYER
 62
     7
 10
699.631056
 20
-920.088971
 30
0.0
 40
2.000005
 50
197.979057
 51
270.000001
  0
ARC
  8
0
  6
BYLAYER
 62
     7
 10
699.066847
 20
-921.590100
 30
0.0
 40
2.000005
 50
197.979057
 51
270.000001
  0
LINE
  8
0
  6
BYLAYER
 62
     7
 10
697.164504
 20
-922.207440
 30
0.0
 11
693.860609
 21
-912.026441
 31
0.0
  0
LINE
  8
0
  6
BYLAYER
 62
     7
 10
699.677504
 20
-892.217633
 30
0.0
 11
812.677564
 21
-892.217633
 31
0.0
  0
LINE
  8
0
  6
BYLAYER
 62
     7
 10
699.541548
 20
-905.260266
 30
0.0
 11
812.677564
 21
-905.260266
 31
0.0
  0
LINE
  8
0
  6
BYLAYER
 62
     7
 10
699.697768
 20
-914.133038
 30
0.0
 11
812.677564
 21
-914.133038
 31
0.0
  0
LINE
  8
0
  6
BYLAYER
 62
     7
 10
699.658095
 20
-919.001935
 30
0.0
 11
812.677564
 21
-919.001935
 31
0.0
  0
LINE
  8
0
  6
BYLAYER
 62
     7
 10
699.631056
 20
-922.088971
 30
0.0
 11
812.677564
 21
-922.088971
 31
0.0
  0
LINE
  8
0
  6
BYLAYER
 62
     7
 10
699.066847
 20
-923.590100
 30
0.0
 11
812.677564
 21
-923.590100
 31
0.0
  0
LINE
  8
0
  6
BYLAYER
 62
     7
 10
690.677504
 20
-912.026441
 30
0.0
 11
690.677474
 21
-839.276451
 31
0.0
  0
LINE
  8
0
  6
BYLAYER
 62
     7
 10
812.677564
 20
-839.276410
 30
0.0
 11
812.677564
 21
-925.826410
 31
0.0
  0
LINE
  8
0
  6
BYLAYER
 62
     7
 10
902.677564
 20
-839.276341
 30
0.0
 11
902.677564
 21
-911.276410
 31
0.0
  0
LINE
  8
0
  6
BYLAYER
 62
     7
 10
902.677564
 20
-911.276410
 30
0.0
 11
888.127564
 21
-925.826410
 31
0.0
  0
LINE
  8
0
  6
BYLAYER
 62
     7
 10
812.677564
 20
-925.826410
 30
0.0
 11
888.127564
 21
-925.826410
 31
0.0
  0
LINE
  8
0
  6
BYLAYER
 62
     7
 10
707.025902
 20
-795.776436
 30
0.0
 11
743.177433
 21
-795.776398
 31
0.0
  0
ARC
  8
0
  6
BYLAYER
 62
     7
 10
707.025904
 20
-797.276436
 30
0.0
 40
1.500000
 50
90.0
 51
168.463041
  0
LINE
  8
0
  6
BYLAYER
 62
     7
 10
699.677478
 20
-839.276443
 30
0.0
 11
699.677441
 21
-803.124913
 31
0.0
  0
LINE
  8
0
  6
BYLAYER
 62
     7
 10
743.177433
 20
-795.776398
 30
0.0
 11
779.328964
 21
-795.776360
 31
0.0
  0
LINE
  8
0
  6
BYLAYER
 62
     7
 10
786.677441
 20
-803.124822
 30
0.0
 11
786.677478
 21
-839.276353
 31
0.0
  0
LINE
  8
0
  6
BYLAYER
 62
     7
 10
713.782164
 20
-826.675323
 30
0.0
 11
699.677465
 21
-826.182790
 31
0.0
  0
ARC
  8
0
  6
BYLAYER
 62
     7
 10
713.677468
 20
-829.673495
 30
0.0
 40
3.0
 50
0.0
 51
88.0
  0
LINE
  8
0
  6
BYLAYER
 62
     7
 10
713.782148
 20
-811.675323
 30
0.0
 11
699.677449
 21
-811.182790
 31
0.0
  0
ARC
  8
0
  6
BYLAYER
 62
     7
 10
713.677453
 20
-814.673495
 30
0.0
 40
3.0
 50
0.0
 51
88.0
  0
LINE
  8
0
  6
BYLAYER
 62
     7
 10
699.677461
 20
-822.370097
 30
0.0
 11
713.782159
 21
-821.877535
 31
0.0
  0
ARC
  8
0
  6
BYLAYER
 62
     7
 10
713.677457
 20
-818.879363
 30
0.0
 40
3.000000
 50
272.000060
 51
360.000060
  0
LINE
  8
0
  6
BYLAYER
 62
     7
 10
699.677476
 20
-837.370097
 30
0.0
 11
713.782174
 21
-836.877535
 31
0.0
  0
ARC
  8
0
  6
BYLAYER
 62
     7
 10
713.677473
 20
-833.879363
 30
0.0
 40
3.000000
 50
272.000060
 51
360.000060
  0
LINE
  8
0
  6
BYLAYER
 62
     7
 10
716.677457
 20
-818.879359
 30
0.0
 11
716.677453
 21
-814.673492
 31
0.0
  0
LINE
  8
0
  6
BYLAYER
 62
     7
 10
716.677473
 20
-833.879359
 30
0.0
 11
716.677468
 21
-829.673492
 31
0.0
  0
LINE
  8
0
  6
BYLAYER
 62
     7
 10
700.677476
 20
-837.335175
 30
0.0
 11
700.677465
 21
-826.217710
 31
0.0
  0
LINE
  8
0
  6
BYLAYER
 62
     7
 10
700.677461
 20
-822.335175
 30
0.0
 11
700.677449
 21
-811.217710
 31
0.0
  0
LINE
  8
0
  6
BYLAYER
 62
     7
 10
772.572767
 20
-826.675261
 30
0.0
 11
786.677465
 21
-826.182700
 31
0.0
  0
ARC
  8
0
  6
BYLAYER
 62
     7
 10
772.677468
 20
-829.673434
 30
0.0
 40
3.000000
 50
92.000060
 51
180.000060
  0
LINE
  8
0
  6
BYLAYER
 62
     7
 10
772.572751
 20
-811.675261
 30
0.0
 11
786.677449
 21
-811.182700
 31
0.0
  0
ARC
  8
0
  6
BYLAYER
 62
     7
 10
772.677453
 20
-814.673434
 30
0.0
 40
3.000000
 50
92.000060
 51
180.000060
  0
LINE
  8
0
  6
BYLAYER
 62
     7
 10
786.677461
 20
-822.370006
 30
0.0
 11
772.572762
 21
-821.877474
 31
0.0
  0
ARC
  8
0
  6
BYLAYER
 62
     7
 10
772.677457
 20
-818.879301
 30
0.0
 40
3.0
 50
180.000000
 51
268.000000
  0
LINE
  8
0
  6
BYLAYER
 62
     7
 10
786.677476
 20
-837.370006
 30
0.0
 11
772.572777
 21
-836.877474
 31
0.0
  0
ARC
  8
0
  6
BYLAYER
 62
     7
 10
772.677473
 20
-833.879301
 30
0.0
 40
3.0
 50
180.000000
 51
268.000000
  0
LINE
  8
0
  6
BYLAYER
 62
     7
 10
769.677457
 20
-818.879304
 30
0.0
 11
769.677453
 21
-814.673437
 31
0.0
  0
LINE
  8
0
  6
BYLAYER
 62
     7
 10
769.677473
 20
-833.879304
 30
0.0
 11
769.677468
 21
-829.673437
 31
0.0
  0
LINE
  8
0
  6
BYLAYER
 62
     7
 10
785.677476
 20
-837.335086
 30
0.0
 11
785.677465
 21
-826.217622
 31
0.0
  0
LINE
  8
0
  6
BYLAYER
 62
     7
 10
785.677461
 20
-822.335086
 30
0.0
 11
785.677449
 21
-811.217622
 31
0.0
  0
LINE
  8
0
  6
BYLAYER
 62
     7
 10
730.177447
 20
-809.276412
 30
0.0
 11
756.177447
 21
-809.276385
 31
0.0
  0
ARC
  8
0
  6
BYLAYER
 62
     7
 10
756.177450
 20
-812.276385
 30
0.0
 40
3.0
 50
0.0
 51
90.0
  0
ARC
  8
0
  6
BYLAYER
 62
     7
 10
730.177450
 20
-812.276412
 30
0.0
 40
3.0
 50
90.0
 51
180.000000
  0
LINE
  8
0
  6
BYLAYER
 62
     7
 10
727.177478
 20
-839.276415
 30
0.0
 11
727.177450
 21
-812.276415
 31
0.0
  0
LINE
  8
0
  6
BYLAYER
 62
     7
 10
759.177450
 20
-812.276381
 30
0.0
 11
759.177478
 21
-839.276381
 31
0.0
  0
ARC
  8
0
  6
BYLAYER
 62
     7
 10
699.677433
 20
-795.776443
 30
0.0
 40
6.000000
 50
281.537019
 51
348.463101
  0
ARC
  8
0
  6
BYLAYER
 62
     7
 10
701.177441
 20
-803.124911
 30
0.0
 40
1.5
 50
101.537019
 51
180.000060
  0
ARC
  8
0
  6
BYLAYER
 62
     7
 10
786.677433
 20
-795.776353
 30
0.0
 40
6.000000
 50
191.537019
 51
258.463101
  0
ARC
  8
0
  6
BYLAYER
 62
     7
 10
785.177441
 20
-803.124824
 30
0.0
 40
1.5
 50
0.0
 51
78.463041
  0
ARC
  8
0
  6
BYLAYER
 62
     7
 10
779.328965
 20
-797.276360
 30
0.0
 40
1.5
 50
11.537019
 51
90.000060
  0
LINE
  8
0
  6
BYLAYER
 62
     7
 10
694.177478
 20
-839.276449
 30
0.0
 11
694.177429
 21
-791.776449
 31
0.0
  0
LINE
  8
0
  6
BYLAYER
 62
     7
 10
695.677427
 20
-790.276448
 30
0.0
 11
790.677427
 21
-790.276349
 31
0.0
  0
ARC
  8
0
  6
BYLAYER
 62
     7
 10
695.677429
 20
-791.776448
 30
0.0
 40
1.5
 50
90.0
 51
180.000000
  0
LINE
  8
0
  6
BYLAYER
 62
     7
 10
792.177429
 20
-791.776347
 30
0.0
 11
792.177478
 21
-839.276347
 31
0.0
  0
ARC
  8
0
  6
BYLAYER
 62
     7
 10
790.677429
 20
-791.776349
 30
0.0
 40
1.5
 50
0.0
 51
90.0
  0
LINE
  8
0
  6
BYLAYER
 62
     7
 10
792.177473
 20
-834.476382
 30
0.0
 11
812.677559
 21
-834.476373
 31
0.0
  0
LINE
  8
0
  6
BYLAYER
 62
     7
 10
792.177472
 20
-832.876376
 30
0.0
 11
812.677557
 21
-832.876367
 31
0.0
  0
LINE
  8
0
  6
BYLAYER
 62
     7
 10
792.177462
 20
-823.276400
 30
0.0
 11
812.677547
 21
-823.276392
 31
0.0
  0
LINE
  8
0
  6
BYLAYER
 62
     7
 10
792.177460
 20
-821.676394
 30
0.0
 11
812.677546
 21
-821.676385
 31
0.0
  0
LINE
  8
0
  6
BYLAYER
 62
     7
 10
792.177438
 20
-800.876406
 30
0.0
 11
812.677524
 21
-800.876398
 31
0.0
  0
LINE
  8
0
  6
BYLAYER
 62
     7
 10
792.177437
 20
-799.276400
 30
0.0
 11
812.677522
 21
-799.276392
 31
0.0
  0
LINE
  8
0
  6
BYLAYER
 62
     7
 10
770.177392
 20
-789.676404
 30
0.0
 11
812.677512
 21
-789.676385
 31
0.0
  0
LINE
  8
0
  6
BYLAYER
 62
     7
 10
770.177392
 20
-789.676404
 30
0.0
 11
694.977380
 21
-789.676482
 31
0.0
  0
ARC
  8
0
  6
BYLAYER
 62
     7
 10
694.977379
 20
-788.876494
 30
0.0
 40
0.800018
 50
90.0
 51
270.000012
  0
ARC
  8
0
  6
BYLAYER
 62
     7
 10
698.977379
 20
-788.876490
 30
0.0
 40
0.800018
 50
90.0
 51
270.000012
  0
LINE
  8
0
  6
BYLAYER
 62
     7
 10
694.177478
 20
-839.276449
 30
0.0
 11
694.177429
 21
-766.526489
 31
0.0
  0
LINE
  8
0
  6
BYLAYER
 62
     7
 10
792.177450
 20
-812.076390
 30
0.0
 11
812.677536
 21
-812.076383
 31
0.0
  0
LINE
  8
0
  6
BYLAYER
 62
     7
 10
792.177448
 20
-810.476384
 30
0.0
 11
812.677534
 21
-810.476377
 31
0.0
  0
LINE
  8
0
  6
BYLAYER
 62
     7
 10
699.677450
 20
-790.276443
 30
0.0
 11
699.677453
 21
-789.676507
 31
0.0
  0
LINE
  8
0
  6
BYLAYER
 62
     7
 10
812.677511
 20
-788.076383
 30
0.0
 11
694.977378
 21
-788.076506
 31
0.0
  0
LINE
  8
0
  6
BYLAYER
 62
     7
 10
699.677449
 20
-786.335260
 30
0.0
 11
694.177446
 21
-783.495697
 31
0.0
  0
LINE
  8
0
  6
BYLAYER
 62
     7
 10
694.177446
 20
-783.495697
 30
0.0
 11
697.679451
 21
-774.562648
 31
0.0
  0
ARC
  8
0
  6
BYLAYER
 62
     7
 10
699.541482
 20
-775.292627
 30
0.0
 40
2.000007
 50
90.0
 51
158.593500
  0
LINE
  8
0
  6
BYLAYER
 62
     7
 10
694.177429
 20
-766.526458
 30
0.0
 11
690.677429
 21
-766.526461
 31
0.0
  0
LINE
  8
0
  6
BYLAYER
 62
     7
 10
694.177442
 20
-778.826355
 30
0.0
 11
697.770598
 21
-765.884792
 31
0.0
  0
ARC
  8
0
  6
BYLAYER
 62
     7
 10
699.697693
 20
-766.419855
 30
0.0
 40
2.000010
 50
90.0
 51
164.482817
  0
LINE
  8
0
  6
BYLAYER
 62
     7
 10
694.177435
 20
-772.657562
 30
0.0
 11
697.745111
 21
-760.967189
 31
0.0
  0
ARC
  8
0
  6
BYLAYER
 62
     7
 10
699.658015
 20
-761.550958
 30
0.0
 40
1.999996
 50
90.0
 51
163.028683
  0
LINE
  8
0
  6
BYLAYER
 62
     7
 10
694.177431
 20
-768.789734
 30
0.0
 11
697.728628
 21
-757.846584
 31
0.0
  0
ARC
  8
0
  6
BYLAYER
 62
     7
 10
699.630972
 20
-758.463922
 30
0.0
 40
2.000005
 50
90.0
 51
162.020944
  0
ARC
  8
0
  6
BYLAYER
 62
     7
 10
699.066762
 20
-756.962794
 30
0.0
 40
2.000005
 50
90.0
 51
162.020944
  0
LINE
  8
0
  6
BYLAYER
 62
     7
 10
697.164418
 20
-756.345456
 30
0.0
 11
693.860534
 21
-766.526458
 31
0.0
  0
LINE
  8
0
  6
BYLAYER
 62
     7
 10
699.677449
 20
-786.335260
 30
0.0
 11
812.677509
 21
-786.335142
 31
0.0
  0
LINE
  8
0
  6
BYLAYER
 62
     7
 10
699.541480
 20
-773.292627
 30
0.0
 11
812.677495
 21
-773.292509
 31
0.0
  0
LINE
  8
0
  6
BYLAYER
 62
     7
 10
699.697690
 20
-764.419855
 30
0.0
 11
812.677486
 21
-764.419737
 31
0.0
  0
LINE
  8
0
  6
BYLAYER
 62
     7
 10
699.658012
 20
-759.550958
 30
0.0
 11
812.677481
 21
-759.550840
 31
0.0
  0
LINE
  8
0
  6
BYLAYER
 62
     7
 10
699.630970
 20
-756.463922
 30
0.0
 11
812.677478
 21
-756.463804
 31
0.0
  0
LINE
  8
0
  6
BYLAYER
 62
     7
 10
699.066760
 20
-754.962794
 30
0.0
 11
812.677476
 21
-754.962675
 31
0.0
  0
LINE
  8
0
  6
BYLAYER
 62
     7
 10
690.677429
 20
-766.526461
 30
0.0
 11
690.677474
 21
-839.276451
 31
0.0
  0
LINE
  8
0
  6
BYLAYER
 62
     7
 10
812.677564
 20
-839.276365
 30
0.0
 11
812.677474
 21
-752.726365
 31
0.0
  0
LINE
  8
0
  6
BYLAYER
 62
     7
 10
902.677564
 20
-839.276341
 30
0.0
 11
902.677489
 21
-767.276272
 31
0.0
  0
LINE
  8
0
  6
BYLAYER
 62
     7
 10
902.677489
 20
-767.276272
 30
0.0
 11
888.127474
 21
-752.726287
 31
0.0
  0
LINE
  8
0
  6
BYLAYER
 62
     7
 10
812.677474
 20
-752.726365
 30
0.0
 11
888.127474
 21
-752.726287
 31
0.0
  0
LINE
  8
0
  6
BYLAYER
 62
     7
 10
888.127564
 20
-925.826410
 30
0.0
 11
888.127474
 21
-752.726287
 31
0.0
  0
LINE
  8
0
  6
BYLAYER
 62
     1
 10
560.177413
 20
-133.276451
 30
0.0
 11
560.020370
 21
-133.284691
 31
0.0
  0
ARC
  8
0
  6
BYLAYER
 62
     1
 10
560.177413
 20
-136.280540
 30
0.0
 40
2.999963
 50
93.000102
 51
180.000005
  0
ARC
  8
0
  6
BYLAYER
 62
     1
 10
560.177413
 20
-280.971763
 30
0.0
 40
3.000025
 50
180.000000
 51
225.000005
  0
ARC
  8
0
  6
BYLAYER
 62
     1
 10
544.177474
 20
-40.276451
 30
0.0
 40
3.0
 50
0.0
 51
90.000016
  0
ARC
  8
0
  6
BYLAYER
 62
     1
 10
286.177352
 20
-40.276451
 30
0.0
 40
3.000000
 50
90.0
 51
180.000009
  0
ARC
  8
0
  6
BYLAYER
 62
     1
 10
286.177352
 20
-338.276482
 30
0.0
 40
3.000000
 50
180.000000
 51
269.999996
  0
ARC
  8
0
  6
BYLAYER
 62
     1
 10
544.177474
 20
-338.276482
 30
0.0
 40
3.0
 50
270.0
 51
359.999982
  0
LINE
  8
0
  6
BYLAYER
 62
     1
 10
560.177413
 20
-90.570640
 30
0.0
 11
557.194503
 21
-92.570885
 31
0.0
  0
LINE
  8
0
  6
BYLAYER
 62
     1
 10
283.177352
 20
-89.276451
 30
0.0
 11
267.677352
 21
-89.276451
 31
0.0
  0
ARC
  8
0
  6
BYLAYER
 62
     1
 10
492.177474
 20
-47.276451
 30
0.0
 40
10.000000
 50
90.0
 51
180.000009
  0
ARC
  8
0
  6
BYLAYER
 62
     1
 10
338.177474
 20
-47.276451
 30
0.0
 40
10.000000
 50
0.0
 51
90.000023
  0
ARC
  8
0
  6
BYLAYER
 62
     1
 10
492.177474
 20
-331.276482
 30
0.0
 40
10.0
 50
180.000000
 51
270.000003
  0
ARC
  8
0
  6
BYLAYER
 62
     1
 10
537.177474
 20
-286.276390
 30
0.0
 40
10.0
 50
0.0
 51
89.999989
  0
ARC
  8
0
  6
BYLAYER
 62
     1
 10
338.177474
 20
-331.276482
 30
0.0
 40
10.0
 50
270.0
 51
360.000009
  0
ARC
  8
0
  6
BYLAYER
 62
     1
 10
293.177474
 20
-286.276390
 30
0.0
 40
10.000122
 50
90.283095
 51
180.0
  0
LINE
  8
0
  6
BYLAYER
 62
     1
 10
532.090102
 20
-276.276390
 30
0.0
 11
537.177474
 21
-276.276390
 31
0.0
  0
LINE
  8
0
  6
BYLAYER
 62
     1
 10
482.177474
 20
-326.189011
 30
0.0
 11
482.177474
 21
-331.276482
 31
0.0
  0
LINE
  8
0
  6
BYLAYER
 62
     1
 10
348.177474
 20
-331.276482
 30
0.0
 11
348.177474
 21
-326.188988
 31
0.0
  0
LINE
  8
0
  6
BYLAYER
 62
     1
 10
298.264808
 20
-276.276390
 30
0.0
 11
293.177474
 21
-276.276390
 31
0.0
  0
LINE
  8
0
  6
BYLAYER
 62
     1
 10
348.177474
 20
-92.363754
 30
0.0
 11
348.177474
 21
-47.276451
 31
0.0
  0
ARC
  8
0
  6
BYLAYER
 62
     1
 10
286.177352
 20
-99.776451
 30
0.0
 40
3.000000
 50
180.000000
 51
269.999996
  0
ARC
  8
0
  6
BYLAYER
 62
     1
 10
286.177352
 20
-111.776451
 30
0.0
 40
3.000000
 50
180.000000
 51
269.999996
  0
ARC
  8
0
  6
BYLAYER
 62
     1
 10
286.177352
 20
-123.776451
 30
0.0
 40
3.000000
 50
180.000000
 51
269.999996
  0
ARC
  8
0
  6
BYLAYER
 62
     1
 10
286.177352
 20
-110.776451
 30
0.0
 40
3.000000
 50
90.0
 51
180.000003
  0
ARC
  8
0
  6
BYLAYER
 62
     1
 10
286.177352
 20
-122.776451
 30
0.0
 40
3.000000
 50
90.0
 51
180.000003
  0
ARC
  8
0
  6
BYLAYER
 62
     1
 10
286.177352
 20
-134.776451
 30
0.0
 40
3.000000
 50
90.0
 51
180.000003
  0
LINE
  8
0
  6
BYLAYER
 62
     1
 10
286.177352
 20
-102.776451
 30
0.0
 11
321.677474
 21
-102.776451
 31
0.0
  0
LINE
  8
0
  6
BYLAYER
 62
     1
 10
286.177352
 20
-107.776451
 30
0.0
 11
321.677474
 21
-107.776451
 31
0.0
  0
ARC
  8
0
  6
BYLAYER
 62
     1
 10
321.677474
 20
-105.276451
 30
0.0
 40
2.500000
 50
270.0
 51
450.000005
  0
LINE
  8
0
  6
BYLAYER
 62
     1
 10
286.177352
 20
-114.776451
 30
0.0
 11
309.677474
 21
-114.776451
 31
0.0
  0
LINE
  8
0
  6
BYLAYER
 62
     1
 10
286.177352
 20
-119.776451
 30
0.0
 11
309.677474
 21
-119.776451
 31
0.0
  0
ARC
  8
0
  6
BYLAYER
 62
     1
 10
309.677474
 20
-117.276451
 30
0.0
 40
2.500000
 50
270.0
 51
450.000005
  0
LINE
  8
0
  6
BYLAYER
 62
     1
 10
286.177352
 20
-126.776451
 30
0.0
 11
299.677474
 21
-126.776451
 31
0.0
  0
LINE
  8
0
  6
BYLAYER
 62
     1
 10
286.177352
 20
-131.776451
 30
0.0
 11
299.677474
 21
-131.776451
 31
0.0
  0
ARC
  8
0
  6
BYLAYER
 62
     1
 10
299.677474
 20
-129.276451
 30
0.0
 40
2.5
 50
270.0
 51
450.000005
  0
ARC
  8
0
  6
BYLAYER
 62
     1
 10
544.177474
 20
-110.776451
 30
0.0
 40
3.0
 50
0.0
 51
90.000016
  0
ARC
  8
0
  6
BYLAYER
 62
     1
 10
544.177474
 20
-122.776451
 30
0.0
 40
3.0
 50
0.0
 51
90.000016
  0
ARC
  8
0
  6
BYLAYER
 62
     1
 10
544.177474
 20
-134.776451
 30
0.0
 40
3.0
 50
0.0
 51
90.000016
  0
ARC
  8
0
  6
BYLAYER
 62
     1
 10
544.177474
 20
-99.776451
 30
0.0
 40
3.0
 50
270.0
 51
359.999982
  0
ARC
  8
0
  6
BYLAYER
 62
     1
 10
544.177474
 20
-111.776451
 30
0.0
 40
3.0
 50
270.0
 51
359.999982
  0
ARC
  8
0
  6
BYLAYER
 62
     1
 10
544.177474
 20
-123.776451
 30
0.0
 40
3.0
 50
270.0
 51
359.999982
  0
LINE
  8
0
  6
BYLAYER
 62
     1
 10
544.177474
 20
-102.776451
 30
0.0
 11
508.677474
 21
-102.776451
 31
0.0
  0
LINE
  8
0
  6
BYLAYER
 62
     1
 10
544.177474
 20
-107.776451
 30
0.0
 11
508.677474
 21
-107.776451
 31
0.0
  0
ARC
  8
0
  6
BYLAYER
 62
     1
 10
508.677474
 20
-105.276451
 30
0.0
 40
2.5
 50
90.0
 51
269.999991
  0
LINE
  8
0
  6
BYLAYER
 62
     1
 10
544.177474
 20
-114.776451
 30
0.0
 11
520.677474
 21
-114.776451
 31
0.0
  0
LINE
  8
0
  6
BYLAYER
 62
     1
 10
544.177474
 20
-119.776451
 30
0.0
 11
520.677474
 21
-119.776451
 31
0.0
  0
ARC
  8
0
  6
BYLAYER
 62
     1
 10
520.677474
 20
-117.276451
 30
0.0
 40
2.500000
 50
90.0
 51
269.999991
  0
LINE
  8
0
  6
BYLAYER
 62
     1
 10
544.177474
 20
-126.776451
 30
0.0
 11
530.677474
 21
-126.776451
 31
0.0
  0
LINE
  8
0
  6
BYLAYER
 62
     1
 10
544.177474
 20
-131.776451
 30
0.0
 11
530.677474
 21
-131.776451
 31
0.0
  0
ARC
  8
0
  6
BYLAYER
 62
     1
 10
530.677474
 20
-129.276451
 30
0.0
 40
2.5
 50
90.0
 51
269.999991
  0
ARC
  8
0
  6
BYLAYER
 62
     1
 10
350.177474
 20
-71.276451
 30
0.0
 40
2.000000
 50
180.000000
 51
270.000009
  0
LINE
  8
0
  6
BYLAYER
 62
     1
 10
286.177352
 20
-37.276451
 30
0.0
 11
338.177474
 21
-37.276451
 31
0.0
  0
LINE
  8
0
  6
BYLAYER
 62
     1
 10
482.177474
 20
-92.363716
 30
0.0
 11
482.177474
 21
-47.276451
 31
0.0
  0
LINE
  8
0
  6
BYLAYER
 62
     1
 10
460.177474
 20
-77.276451
 30
0.0
 11
472.177474
 21
-77.276451
 31
0.0
  0
ARC
  8
0
  6
BYLAYER
 62
     1
 10
472.177474
 20
-67.276451
 30
0.0
 40
10.0
 50
270.0
 51
360.000003
  0
LINE
  8
0
  6
BYLAYER
 62
     1
 10
350.177474
 20
-73.276451
 30
0.0
 11
447.215987
 21
-73.276451
 31
0.0
  0
ARC
  8
0
  6
BYLAYER
 62
     1
 10
460.177474
 20
-57.276451
 30
0.0
 40
19.999994
 50
235.698818
 51
270.000001
  0
ARC
  8
0
  6
BYLAYER
 62
     1
 10
270.177352
 20
-280.971764
 30
0.0
 40
3.000002
 50
314.999992
 51
345.522495
  0
ARC
  8
0
  6
BYLAYER
 62
     1
 10
271.503280
 20
-95.160057
 30
0.0
 40
2.999953
 50
11.543804
 51
55.016575
  0
ARC
  8
0
  6
BYLAYER
 62
     1
 10
558.865279
 20
-95.062523
 30
0.0
 40
2.999959
 50
123.843966
 51
169.087289
  0
LINE
  8
0
  6
BYLAYER
 62
     1
 10
267.677352
 20
-289.276451
 30
0.0
 11
283.177352
 21
-289.276451
 31
0.0
  0
LINE
  8
0
  6
BYLAYER
 62
     1
 10
558.056075
 20
-283.093101
 30
0.0
 11
559.738051
 21
-284.775047
 31
0.0
  0
ARC
  8
0
  6
BYLAYER
 62
     1
 10
558.677413
 20
-285.835716
 30
0.0
 40
1.499991
 50
0.0
 51
45.000824
  0
LINE
  8
0
  6
BYLAYER
 62
     1
 10
557.471419
 20
-289.276451
 30
0.0
 11
547.177474
 21
-289.276451
 31
0.0
  0
ARC
  8
0
  6
BYLAYER
 62
     1
 10
555.971419
 20
-289.697716
 30
0.0
 40
1.500007
 50
0.0
 51
31.372982
  0
LINE
  8
0
  6
BYLAYER
 62
     1
 10
338.177474
 20
-37.276451
 30
0.0
 11
544.177474
 21
-37.276451
 31
0.0
  0
LINE
  8
0
  6
BYLAYER
 62
     1
 10
286.177352
 20
-341.276482
 30
0.0
 11
374.015166
 21
-341.276482
 31
0.0
  0
LINE
  8
0
  6
BYLAYER
 62
     1
 10
456.339858
 20
-341.276482
 30
0.0
 11
544.177474
 21
-341.276482
 31
0.0
  0
LINE
  8
0
  6
BYLAYER
 62
     1
 10
547.177474
 20
-250.438896
 30
0.0
 11
547.177474
 21
-338.276482
 31
0.0
  0
ARC
  8
0
  6
BYLAYER
 62
     1
 10
550.177474
 20
-250.438896
 30
0.0
 40
2.999983
 50
167.456267
 51
180.000005
  0
ARC
  8
0
  6
BYLAYER
 62
     1
 10
365.177474
 20
-209.276451
 30
0.0
 40
186.524017
 50
347.45604
 51
372.54397
  0
ARC
  8
0
  6
BYLAYER
 62
     1
 10
550.177474
 20
-168.113914
 30
0.0
 40
2.999996
 50
180.000000
 51
192.544858
  0
LINE
  8
0
  6
BYLAYER
 62
     1
 10
283.177352
 20
-250.438438
 30
0.0
 11
283.177352
 21
-338.276482
 31
0.0
  0
ARC
  8
0
  6
BYLAYER
 62
     1
 10
280.177352
 20
-250.438438
 30
0.0
 40
3.000005
 50
0.0
 51
12.544233
  0
ARC
  8
0
  6
BYLAYER
 62
     1
 10
465.177474
 20
-209.276451
 30
0.0
 40
186.524017
 50
167.456185
 51
192.543811
  0
ARC
  8
0
  6
BYLAYER
 62
     1
 10
280.177352
 20
-168.114464
 30
0.0
 40
2.999998
 50
347.456340
 51
360.000000
  0
ARC
  8
0
  6
BYLAYER
 62
     1
 10
343.482154
 20
-354.276390
 30
0.0
 40
3.000025
 50
90.0
 51
134.999998
  0
ARC
  8
0
  6
BYLAYER
 62
     1
 10
374.015029
 20
-344.276451
 30
0.0
 40
2.999983
 50
77.456264
 51
90.000003
  0
ARC
  8
0
  6
BYLAYER
 62
     1
 10
415.177474
 20
-159.276451
 30
0.0
 40
186.524017
 50
257.456030
 51
282.543971
  0
LINE
  8
0
  6
BYLAYER
 62
     1
 10
335.177466
 20
-341.276451
 30
0.0
 11
335.177466
 21
-356.776482
 31
0.0
  0
ARC
  8
0
  6
BYLAYER
 62
     1
 10
486.872786
 20
-354.276390
 30
0.0
 40
3.000025
 50
45.000001
 51
89.999996
  0
ARC
  8
0
  6
BYLAYER
 62
     1
 10
456.339919
 20
-344.276451
 30
0.0
 40
2.999983
 50
90.0
 51
102.543738
  0
LINE
  8
0
  6
BYLAYER
 62
     1
 10
495.177474
 20
-341.276451
 30
0.0
 11
495.177474
 21
-356.776482
 31
0.0
  0
LINE
  8
0
  6
BYLAYER
 62
     1
 10
486.872848
 20
-27.276512
 30
0.0
 11
343.482162
 21
-27.276512
 31
0.0
  0
ARC
  8
0
  6
BYLAYER
 62
     1
 10
486.872787
 20
-24.276573
 30
0.0
 40
3.000025
 50
270.0
 51
315.000018
  0
ARC
  8
0
  6
BYLAYER
 62
     1
 10
343.482162
 20
-24.276573
 30
0.0
 40
3.000025
 50
224.999982
 51
270.000001
  0
LINE
  8
0
  6
BYLAYER
 62
     1
 10
283.177352
 20
-40.276451
 30
0.0
 11
283.177352
 21
-99.776451
 31
0.0
  0
LINE
  8
0
  6
BYLAYER
 62
     1
 10
283.177352
 20
-110.776451
 30
0.0
 11
283.177352
 21
-111.776451
 31
0.0
  0
LINE
  8
0
  6
BYLAYER
 62
     1
 10
283.177352
 20
-122.776451
 30
0.0
 11
283.177352
 21
-123.776451
 31
0.0
  0
LINE
  8
0
  6
BYLAYER
 62
     1
 10
283.177352
 20
-134.776451
 30
0.0
 11
283.177352
 21
-168.114464
 31
0.0
  0
LINE
  8
0
  6
BYLAYER
 62
     1
 10
547.177474
 20
-40.276451
 30
0.0
 11
547.177474
 21
-99.776451
 31
0.0
  0
LINE
  8
0
  6
BYLAYER
 62
     1
 10
547.177474
 20
-110.776451
 30
0.0
 11
547.177474
 21
-111.776451
 31
0.0
  0
LINE
  8
0
  6
BYLAYER
 62
     1
 10
547.177474
 20
-122.776451
 30
0.0
 11
547.177474
 21
-123.776451
 31
0.0
  0
LINE
  8
0
  6
BYLAYER
 62
     1
 10
547.177474
 20
-134.776451
 30
0.0
 11
547.177474
 21
-168.113914
 31
0.0
  0
LINE
  8
0
  6
BYLAYER
 62
     1
 10
560.177413
 20
-26.776451
 30
0.0
 11
555.177413
 21
-21.776451
 31
0.0
  0
LINE
  8
0
  6
BYLAYER
 62
     1
 10
560.177413
 20
-351.776482
 30
0.0
 11
560.177413
 21
-285.835716
 31
0.0
  0
LINE
  8
0
  6
BYLAYER
 62
     1
 10
560.177413
 20
-351.776482
 30
0.0
 11
555.177413
 21
-356.776482
 31
0.0
  0
LINE
  8
0
  6
BYLAYER
 62
     1
 10
273.177352
 20
-237.275566
 30
0.0
 11
273.177352
 21
-281.484001
 31
0.0
  0
ARC
  8
0
  6
BYLAYER
 62
     1
 10
465.177474
 20
-209.276451
 30
0.0
 40
194.000000
 50
171.828640
 51
188.170974
  0
ARC
  8
0
  6
BYLAYER
 62
     1
 10
387.177047
 20
-354.276390
 30
0.0
 40
3.000000
 50
81.828840
 51
90.000000
  0
ARC
  8
0
  6
BYLAYER
 62
     1
 10
415.177474
 20
-159.276451
 30
0.0
 40
194.000000
 50
261.828636
 51
278.170983
  0
ARC
  8
0
  6
BYLAYER
 62
     1
 10
443.177901
 20
-354.276390
 30
0.0
 40
3.0
 50
90.0
 51
98.171167
  0
ARC
  8
0
  6
BYLAYER
 62
     1
 10
365.177474
 20
-209.276451
 30
0.0
 40
194.0
 50
351.828645
 51
368.170965
  0
LINE
  8
0
  6
BYLAYER
 62
     1
 10
343.482154
 20
-351.276390
 30
0.0
 11
387.177047
 21
-351.276390
 31
0.0
  0
LINE
  8
0
  6
BYLAYER
 62
     1
 10
486.872786
 20
-351.276390
 30
0.0
 11
443.177901
 21
-351.276390
 31
0.0
  0
LINE
  8
0
  6
BYLAYER
 62
     1
 10
557.177413
 20
-181.276024
 30
0.0
 11
557.177413
 21
-136.280540
 31
0.0
  0
LINE
  8
0
  6
BYLAYER
 62
     1
 10
557.177413
 20
-280.971763
 30
0.0
 11
557.177413
 21
-237.276878
 31
0.0
  0
LINE
  8
0
  6
BYLAYER
 62
     1
 10
341.360824
 20
-26.397911
 30
0.0
 11
336.739493
 21
-21.776451
 31
0.0
  0
LINE
  8
0
  6
BYLAYER
 62
     1
 10
335.177474
 20
-21.776451
 30
0.0
 11
335.177474
 21
-37.276451
 31
0.0
  0
LINE
  8
0
  6
BYLAYER
 62
     1
 10
267.677352
 20
-130.776451
 30
0.0
 11
267.677352
 21
-26.776451
 31
0.0
  0
LINE
  8
0
  6
BYLAYER
 62
     1
 10
560.177413
 20
-133.276451
 30
0.0
 11
560.177413
 21
-26.776451
 31
0.0
  0
LINE
  8
0
  6
BYLAYER
 62
     1
 10
495.177474
 20
-21.776451
 30
0.0
 11
495.177474
 21
-37.276451
 31
0.0
  0
LINE
  8
0
  6
BYLAYER
 62
     1
 10
488.994124
 20
-26.397911
 30
0.0
 11
493.615462
 21
-21.776451
 31
0.0
  0
LINE
  8
0
  6
BYLAYER
 62
     1
 10
555.177413
 20
-21.776451
 30
0.0
 11
493.615462
 21
-21.776451
 31
0.0
  0
LINE
  8
0
  6
BYLAYER
 62
     1
 10
341.360816
 20
-352.155052
 30
0.0
 11
336.739470
 21
-356.776482
 31
0.0
  0
LINE
  8
0
  6
BYLAYER
 62
     1
 10
493.615493
 20
-356.776482
 30
0.0
 11
555.177413
 21
-356.776482
 31
0.0
  0
LINE
  8
0
  6
BYLAYER
 62
     1
 10
488.994124
 20
-352.155052
 30
0.0
 11
493.615493
 21
-356.776482
 31
0.0
  0
LINE
  8
0
  6
BYLAYER
 62
     1
 10
557.471419
 20
-289.697716
 30
0.0
 11
557.471419
 21
-354.482475
 31
0.0
  0
LINE
  8
0
  6
BYLAYER
 62
     1
 10
336.739470
 20
-356.776482
 30
0.0
 11
272.677352
 21
-356.776420
 31
0.0
  0
LINE
  8
0
  6
BYLAYER
 62
     1
 10
267.677352
 20
-351.776420
 30
0.0
 11
272.677352
 21
-356.776420
 31
0.0
  0
LINE
  8
0
  6
BYLAYER
 62
     1
 10
267.677352
 20
-287.714317
 30
0.0
 11
272.298690
 21
-283.093101
 31
0.0
  0
LINE
  8
0
  6
BYLAYER
 62
     1
 10
267.677352
 20
-287.714317
 30
0.0
 11
267.677352
 21
-351.776420
 31
0.0
  0
LINE
  8
0
  6
BYLAYER
 62
     1
 10
267.677352
 20
-130.776451
 30
0.0
 11
270.334792
 21
-130.915916
 31
0.0
  0
ARC
  8
0
  6
BYLAYER
 62
     1
 10
270.177535
 20
-133.911827
 30
0.0
 40
3.0
 50
0.0
 51
86.995416
  0
LINE
  8
0
  6
BYLAYER
 62
     1
 10
273.177535
 20
-181.276024
 30
0.0
 11
273.177535
 21
-133.777977
 31
0.0
  0
LINE
  8
0
  6
BYLAYER
 62
     1
 10
267.677352
 20
-89.276451
 30
0.0
 11
273.223250
 21
-92.702171
 31
0.0
  0
LINE
  8
0
  6
BYLAYER
 62
     1
 10
272.677367
 20
-21.776451
 30
0.0
 11
336.739493
 21
-21.776451
 31
0.0
  0
LINE
  8
0
  6
BYLAYER
 62
     1
 10
267.677352
 20
-26.776451
 30
0.0
 11
272.677367
 21
-21.776451
 31
0.0
  0
ARC
  8
0
  6
BYLAYER
 62
     1
 10
447.215987
 20
-76.276451
 30
0.0
 40
3.0
 50
55.698957
 51
90.000000
  0
CIRCLE
  8
0
  6
BYLAYER
 62
     1
 10
415.177474
 20
-209.276451
 30
0.0
 40
45.0
  0
ARC
  8
0
  6
BYLAYER
 62
     1
 10
415.177474
 20
-101.776451
 30
0.0
 40
6.000077
 50
353.66
 51
636.340001
  0
CIRCLE
  8
0
  6
BYLAYER
 62
     1
 10
415.177474
 20
-101.776451
 30
0.0
 40
5.4
  0
ARC
  8
0
  6
BYLAYER
 62
     1
 10
339.163497
 20
-133.262535
 30
0.0
 40
5.999946
 50
38.659991
 51
321.339992
  0
CIRCLE
  8
0
  6
BYLAYER
 62
     1
 10
339.163497
 20
-133.262535
 30
0.0
 40
5.400000
  0
ARC
  8
0
  6
BYLAYER
 62
     1
 10
307.677474
 20
-209.276451
 30
0.0
 40
6.000016
 50
83.660009
 51
366.340010
  0
CIRCLE
  8
0
  6
BYLAYER
 62
     1
 10
307.677474
 20
-209.276451
 30
0.0
 40
5.400000
  0
ARC
  8
0
  6
BYLAYER
 62
     1
 10
339.163497
 20
-285.290367
 30
0.0
 40
6.000069
 50
128.660028
 51
411.340001
  0
CIRCLE
  8
0
  6
BYLAYER
 62
     1
 10
339.163497
 20
-285.290367
 30
0.0
 40
5.400000
  0
ARC
  8
0
  6
BYLAYER
 62
     1
 10
415.177474
 20
-316.776451
 30
0.0
 40
6.000077
 50
173.660015
 51
456.340016
  0
CIRCLE
  8
0
  6
BYLAYER
 62
     1
 10
415.177474
 20
-316.776451
 30
0.0
 40
5.4
  0
ARC
  8
0
  6
BYLAYER
 62
     1
 10
491.191451
 20
-285.290367
 30
0.0
 40
6.000021
 50
218.660013
 51
501.340041
  0
CIRCLE
  8
0
  6
BYLAYER
 62
     1
 10
491.191451
 20
-285.290367
 30
0.0
 40
5.4
  0
ARC
  8
0
  6
BYLAYER
 62
     1
 10
522.677474
 20
-209.276451
 30
0.0
 40
6.000016
 50
263.659977
 51
546.340005
  0
CIRCLE
  8
0
  6
BYLAYER
 62
     1
 10
522.677474
 20
-209.276451
 30
0.0
 40
5.400000
  0
ARC
  8
0
  6
BYLAYER
 62
     1
 10
491.191451
 20
-133.262535
 30
0.0
 40
5.999879
 50
308.659982
 51
591.339955
  0
CIRCLE
  8
0
  6
BYLAYER
 62
     1
 10
491.191451
 20
-133.262535
 30
0.0
 40
5.4
  0
ARC
  8
0
  6
BYLAYER
 62
     1
 10
338.640731
 20
-24.500572
 30
0.0
 40
87.500099
 50
269.435199
 51
315.564848
  0
ARC
  8
0
  6
BYLAYER
 62
     1
 10
403.261641
 20
-87.859703
 30
0.0
 40
2.999941
 50
95.605388
 51
135.564229
  0
ARC
  8
0
  6
BYLAYER
 62
     1
 10
337.748580
 20
-114.996178
 30
0.0
 40
2.999902
 50
89.434634
 51
129.395133
  0
ARC
  8
0
  6
BYLAYER
 62
     1
 10
230.401534
 20
-132.739830
 30
0.0
 40
87.5
 50
314.435190
 51
360.564839
  0
ARC
  8
0
  6
BYLAYER
 62
     1
 10
320.897140
 20
-131.847740
 30
0.0
 40
3.000035
 50
140.605386
 51
180.564233
  0
ARC
  8
0
  6
BYLAYER
 62
     1
 10
293.760787
 20
-197.360680
 30
0.0
 40
2.999997
 50
134.434638
 51
174.395138
  0
ARC
  8
0
  6
BYLAYER
 62
     1
 10
293.760787
 20
-221.192222
 30
0.0
 40
2.999996
 50
185.605391
 51
225.564238
  0
ARC
  8
0
  6
BYLAYER
 62
     1
 10
337.748702
 20
-303.556724
 30
0.0
 40
2.999996
 50
230.605382
 51
270.564229
  0
ARC
  8
0
  6
BYLAYER
 62
     1
 10
492.606368
 20
-303.556724
 30
0.0
 40
2.999902
 50
269.434625
 51
309.395138
  0
ARC
  8
0
  6
BYLAYER
 62
     1
 10
509.457808
 20
-286.705162
 30
0.0
 40
3.000035
 50
320.605391
 51
360.564238
  0
ARC
  8
0
  6
BYLAYER
 62
     1
 10
536.594161
 20
-221.192222
 30
0.0
 40
2.999997
 50
314.434643
 51
354.395129
  0
ARC
  8
0
  6
BYLAYER
 62
     1
 10
491.714156
 20
-24.500572
 30
0.0
 40
87.499954
 50
224.435194
 51
270.564803
  0
ARC
  8
0
  6
BYLAYER
 62
     1
 10
492.606307
 20
-114.996178
 30
0.0
 40
2.999957
 50
50.605374
 51
90.564217
  0
ARC
  8
0
  6
BYLAYER
 62
     1
 10
427.093245
 20
-87.859703
 30
0.0
 40
2.999997
 50
44.434626
 51
84.395108
  0
ARC
  8
0
  6
BYLAYER
 62
     1
 10
415.177474
 20
-209.276451
 30
0.0
 40
125.000000
 50
90.000003
 51
95.605061
  0
ARC
  8
0
  6
BYLAYER
 62
     1
 10
415.177474
 20
-209.276451
 30
0.0
 40
125.0
 50
84.394938
 51
89.999996
  0
ARC
  8
0
  6
BYLAYER
 62
     1
 10
415.177474
 20
-209.276451
 30
0.0
 40
125.000069
 50
135.0
 51
140.605058
  0
ARC
  8
0
  6
BYLAYER
 62
     1
 10
415.177474
 20
-209.276451
 30
0.0
 40
125.000000
 50
180.000005
 51
185.605063
  0
ARC
  8
0
  6
BYLAYER
 62
     1
 10
415.177474
 20
-209.276451
 30
0.0
 40
124.999985
 50
225.000010
 51
230.605054
  0
ARC
  8
0
  6
BYLAYER
 62
     1
 10
415.177474
 20
-209.276451
 30
0.0
 40
124.999901
 50
315.000019
 51
320.605063
  0
ARC
  8
0
  6
BYLAYER
 62
     1
 10
415.177474
 20
-209.276451
 30
0.0
 40
125.0
 50
0.000010
 51
5.605054
  0
ARC
  8
0
  6
BYLAYER
 62
     1
 10
415.177474
 20
-209.276451
 30
0.0
 40
125.000069
 50
45.000001
 51
50.605046
  0
ARC
  8
0
  6
BYLAYER
 62
     1
 10
415.177474
 20
-209.276451
 30
0.0
 40
125.000069
 50
129.394942
 51
135.000000
  0
ARC
  8
0
  6
BYLAYER
 62
     1
 10
415.177474
 20
-209.276451
 30
0.0
 40
125.0
 50
174.394947
 51
179.999991
  0
ARC
  8
0
  6
BYLAYER
 62
     1
 10
415.177474
 20
-209.276451
 30
0.0
 40
124.999901
 50
309.394947
 51
315.000019
  0
ARC
  8
0
  6
BYLAYER
 62
     1
 10
415.177474
 20
-209.276451
 30
0.0
 40
125.0
 50
354.394938
 51
359.999983
  0
ARC
  8
0
  6
BYLAYER
 62
     1
 10
415.177474
 20
-209.276451
 30
0.0
 40
125.000069
 50
39.394929
 51
45.000001
  0
ARC
  8
0
  6
BYLAYER
 62
     1
 10
536.594161
 20
-197.360680
 30
0.0
 40
2.999997
 50
5.604860
 51
45.565363
  0
ARC
  8
0
  6
BYLAYER
 62
     1
 10
509.457808
 20
-131.847740
 30
0.0
 40
3.000035
 50
359.435755
 51
399.394615
  0
ARC
  8
0
  6
BYLAYER
 62
     1
 10
415.177474
 20
-209.276451
 30
0.0
 40
125.0
 50
264.394956
 51
270.000001
  0
ARC
  8
0
  6
BYLAYER
 62
     1
 10
338.640853
 20
-394.052330
 30
0.0
 40
87.500038
 50
44.435257
 51
90.564852
  0
ARC
  8
0
  6
BYLAYER
 62
     1
 10
403.261641
 20
-330.693077
 30
0.0
 40
3.000057
 50
224.435303
 51
264.394956
  0
ARC
  8
0
  6
BYLAYER
 62
     1
 10
415.177474
 20
-209.276451
 30
0.0
 40
125.0
 50
270.0
 51
275.605071
  0
ARC
  8
0
  6
BYLAYER
 62
     1
 10
491.714217
 20
-394.052330
 30
0.0
 40
87.500099
 50
89.435187
 51
135.564843
  0
ARC
  8
0
  6
BYLAYER
 62
     1
 10
427.093307
 20
-330.693077
 30
0.0
 40
3.000063
 50
275.605072
 51
315.564739
  0
ARC
  8
0
  6
BYLAYER
 62
     1
 10
415.177474
 20
-209.276451
 30
0.0
 40
124.999985
 50
219.394938
 51
224.999996
  0
ARC
  8
0
  6
BYLAYER
 62
     1
 10
230.401534
 20
-285.813072
 30
0.0
 40
87.5
 50
359.435154
 51
405.564824
  0
ARC
  8
0
  6
BYLAYER
 62
     1
 10
320.897140
 20
-286.705162
 30
0.0
 40
3.000035
 50
179.435217
 51
219.394938
  0
ARC
  8
0
  6
BYLAYER
 62
     1
 10
415.177474
 20
-209.276451
 30
0.0
 40
84.000099
 50
22.500098
 51
90.000003
  0
ARC
  8
0
  6
BYLAYER
 62
     1
 10
415.177474
 20
-209.276451
 30
0.0
 40
84.000122
 50
90.000003
 51
382.500094
  0
ARC
  8
0
  6
BYLAYER
 62
     1
 10
527.955428
 20
-176.972496
 30
0.0
 40
3.000030
 50
158.015894
 51
211.564508
  0
ARC
  8
0
  6
BYLAYER
 62
     1
 10
510.337020
 20
-169.859947
 30
0.0
 40
15.999915
 50
338.015707
 51
426.984024
  0
ARC
  8
0
  6
BYLAYER
 62
     1
 10
517.765792
 20
-152.372398
 30
0.0
 40
3.000043
 50
193.434891
 51
246.983711
  0
LINE
  8
0
  6
BYLAYER
 62
     1
 10
383.967513
 20
-78.276451
 30
0.0
 11
446.387496
 21
-78.276451
 31
0.0
  0
ARC
  8
0
  6
BYLAYER
 62
     1
 10
383.967513
 20
-81.276451
 30
0.0
 40
3.000000
 50
90.0
 51
103.703477
  0
ARC
  8
0
  6
BYLAYER
 62
     1
 10
446.387496
 20
-81.276451
 30
0.0
 40
3.000000
 50
76.296516
 51
90.000000
  0
LINE
  8
0
  6
BYLAYER
 62
     1
 10
300.477706
 20
-138.714195
 30
0.0
 11
344.615279
 21
-94.576500
 31
0.0
  0
LINE
  8
0
  6
BYLAYER
 62
     1
 10
284.177474
 20
-240.486412
 30
0.0
 11
284.177474
 21
-178.066368
 31
0.0
  0
LINE
  8
0
  6
BYLAYER
 62
     1
 10
344.615279
 20
-323.976158
 30
0.0
 11
300.477645
 21
-279.838585
 31
0.0
  0
LINE
  8
0
  6
BYLAYER
 62
     1
 10
446.387435
 20
-340.276451
 30
0.0
 11
383.967452
 21
-340.276451
 31
0.0
  0
LINE
  8
0
  6
BYLAYER
 62
     1
 10
529.877242
 20
-279.838585
 30
0.0
 11
485.739669
 21
-323.976158
 31
0.0
  0
LINE
  8
0
  6
BYLAYER
 62
     1
 10
546.177474
 20
-178.066490
 30
0.0
 11
546.177474
 21
-240.486412
 31
0.0
  0
LINE
  8
0
  6
BYLAYER
 62
     1
 10
485.739730
 20
-94.576622
 30
0.0
 11
529.877303
 21
-138.714195
 31
0.0
  0
ARC
  8
0
  6
BYLAYER
 62
     1
 10
287.177474
 20
-178.066490
 30
0.0
 40
3.0
 50
166.296510
 51
180.0
  0
ARC
  8
0
  6
BYLAYER
 62
     1
 10
415.177474
 20
-209.276451
 30
0.0
 40
134.749969
 50
148.702944
 51
166.297061
  0
ARC
  8
0
  6
BYLAYER
 62
     1
 10
302.598983
 20
-140.835533
 30
0.0
 40
2.999925
 50
134.999181
 51
148.702780
  0
ARC
  8
0
  6
BYLAYER
 62
     1
 10
415.177474
 20
-209.276451
 30
0.0
 40
134.750061
 50
103.702940
 51
121.297138
  0
ARC
  8
0
  6
BYLAYER
 62
     1
 10
346.736495
 20
-96.698082
 30
0.0
 40
3.000025
 50
121.297603
 51
135.000000
  0
ARC
  8
0
  6
BYLAYER
 62
     1
 10
287.177474
 20
-240.486412
 30
0.0
 40
3.000008
 50
180.000000
 51
193.702903
  0
ARC
  8
0
  6
BYLAYER
 62
     1
 10
415.177474
 20
-209.276451
 30
0.0
 40
134.750000
 50
193.702935
 51
211.297093
  0
ARC
  8
0
  6
BYLAYER
 62
     1
 10
302.599044
 20
-277.717369
 30
0.0
 40
3.000025
 50
211.297107
 51
224.999996
  0
ARC
  8
0
  6
BYLAYER
 62
     1
 10
415.177474
 20
-209.276451
 30
0.0
 40
134.749924
 50
238.702954
 51
256.297002
  0
ARC
  8
0
  6
BYLAYER
 62
     1
 10
383.967391
 20
-337.276451
 30
0.0
 40
2.999949
 50
256.296510
 51
270.000001
  0
ARC
  8
0
  6
BYLAYER
 62
     1
 10
446.387496
 20
-337.276451
 30
0.0
 40
3.0
 50
270.0
 51
283.702343
  0
ARC
  8
0
  6
BYLAYER
 62
     1
 10
415.177474
 20
-209.276451
 30
0.0
 40
134.749939
 50
283.702945
 51
301.297075
  0
ARC
  8
0
  6
BYLAYER
 62
     1
 10
483.618392
 20
-321.854820
 30
0.0
 40
3.000009
 50
301.296911
 51
315.000402
  0
ARC
  8
0
  6
BYLAYER
 62
     1
 10
527.756026
 20
-277.717125
 30
0.0
 40
2.999982
 50
314.999582
 51
328.702772
  0
ARC
  8
0
  6
BYLAYER
 62
     1
 10
415.177474
 20
-209.276451
 30
0.0
 40
134.749969
 50
328.702990
 51
346.297066
  0
ARC
  8
0
  6
BYLAYER
 62
     1
 10
543.177474
 20
-240.486412
 30
0.0
 40
2.999979
 50
346.297093
 51
360.000000
  0
ARC
  8
0
  6
BYLAYER
 62
     1
 10
543.177474
 20
-178.066490
 30
0.0
 40
3.0
 50
0.0
 51
13.703481
  0
ARC
  8
0
  6
BYLAYER
 62
     1
 10
415.177474
 20
-209.276451
 30
0.0
 40
134.750000
 50
13.702938
 51
31.297053
  0
ARC
  8
0
  6
BYLAYER
 62
     1
 10
527.755965
 20
-140.835533
 30
0.0
 40
2.999925
 50
31.297218
 51
45.000824
  0
ARC
  8
0
  6
BYLAYER
 62
     1
 10
415.177474
 20
-209.276451
 30
0.0
 40
134.750092
 50
58.702901
 51
76.297038
  0
CIRCLE
  8
0
  6
BYLAYER
 62
     1
 10
415.177474
 20
-209.276451
 30
0.0
 40
90.000053
  0
ARC
  8
0
  6
BYLAYER
 62
     1
 10
599.953414
 20
-285.813072
 30
0.0
 40
87.5
 50
134.435212
 51
180.564889
  0
ARC
  8
0
  6
BYLAYER
 62
     1
 10
599.953414
 20
-132.739830
 30
0.0
 40
87.500000
 50
202.499864
 51
225.564825
  0
ARC
  8
0
  6
BYLAYER
 62
     1
 10
599.953414
 20
-132.739830
 30
0.0
 40
87.500008
 50
179.435189
 51
202.499864
  0
ARC
  8
0
  6
BYLAYER
 62
     1
 10
395.064975
 20
-64.636672
 30
0.0
 40
4.041492
 50
270.0
 51
316.109984
  0
ARC
  8
0
  6
BYLAYER
 62
     1
 10
394.652934
 20
-64.240295
 30
0.0
 40
4.613237
 50
316.109984
 51
360.000000
  0
ARC
  8
0
  6
BYLAYER
 62
     1
 10
394.652934
 20
-64.240295
 30
0.0
 40
4.613237
 50
0.0
 51
43.890016
  0
ARC
  8
0
  6
BYLAYER
 62
     1
 10
395.064975
 20
-63.843917
 30
0.0
 40
4.041492
 50
43.890016
 51
90.000000
  0
ARC
  8
0
  6
BYLAYER
 62
     1
 10
395.064975
 20
-63.843882
 30
0.0
 40
4.041457
 50
90.0
 51
136.110087
  0
ARC
  8
0
  6
BYLAYER
 62
     1
 10
395.477054
 20
-64.240295
 30
0.0
 40
4.613254
 50
136.110087
 51
180.0
  0
ARC
  8
0
  6
BYLAYER
 62
     1
 10
395.477054
 20
-64.240295
 30
0.0
 40
4.613254
 50
180.000000
 51
223.889913
  0
ARC
  8
0
  6
BYLAYER
 62
     1
 10
395.064975
 20
-64.636707
 30
0.0
 40
4.041457
 50
223.889913
 51
270.000000
  0
ARC
  8
0
  6
BYLAYER
 62
     1
 10
395.064975
 20
-63.059884
 30
0.0
 40
1.861645
 50
90.0
 51
140.793201
  0
ARC
  8
0
  6
BYLAYER
 62
     1
 10
396.511952
 20
-64.240295
 30
0.0
 40
3.729026
 50
140.793201
 51
180.000000
  0
ARC
  8
0
  6
BYLAYER
 62
     1
 10
396.511929
 20
-64.240295
 30
0.0
 40
3.729004
 50
180.000000
 51
219.206869
  0
ARC
  8
0
  6
BYLAYER
 62
     1
 10
395.064975
 20
-65.420691
 30
0.0
 40
1.861650
 50
219.206869
 51
270.0
  0
ARC
  8
0
  6
BYLAYER
 62
     1
 10
395.064975
 20
-65.420691
 30
0.0
 40
1.861650
 50
270.0
 51
320.793131
  0
ARC
  8
0
  6
BYLAYER
 62
     1
 10
393.618021
 20
-64.240295
 30
0.0
 40
3.729004
 50
320.793131
 51
360.0
  0
ARC
  8
0
  6
BYLAYER
 62
     1
 10
393.617999
 20
-64.240295
 30
0.0
 40
3.729026
 50
0.0
 51
39.206799
  0
ARC
  8
0
  6
BYLAYER
 62
     1
 10
395.064975
 20
-63.059884
 30
0.0
 40
1.861645
 50
39.206799
 51
90.0
  0
LINE
  8
0
  6
BYLAYER
 62
     1
 10
381.278000
 20
-68.382296
 30
0.0
 11
381.278000
 21
-59.979925
 31
0.0
  0
LINE
  8
0
  6
BYLAYER
 62
     1
 10
381.278000
 20
-59.979925
 30
0.0
 11
384.694174
 21
-59.979925
 31
0.0
  0
LINE
  8
0
  6
BYLAYER
 62
     1
 10
384.694174
 20
-59.979925
 30
0.0
 11
385.834217
 21
-64.358642
 31
0.0
  0
LINE
  8
0
  6
BYLAYER
 62
     1
 10
381.278000
 20
-68.382296
 30
0.0
 11
383.329294
 21
-68.382296
 31
0.0
  0
LINE
  8
0
  6
BYLAYER
 62
     1
 10
383.329294
 20
-68.382296
 30
0.0
 11
383.329294
 21
-63.530233
 31
0.0
  0
LINE
  8
0
  6
BYLAYER
 62
     1
 10
384.946634
 20
-68.382296
 30
0.0
 11
383.329294
 21
-63.530233
 31
0.0
  0
LINE
  8
0
  6
BYLAYER
 62
     1
 10
390.390433
 20
-68.382296
 30
0.0
 11
390.390433
 21
-59.979925
 31
0.0
  0
LINE
  8
0
  6
BYLAYER
 62
     1
 10
390.390433
 20
-59.979925
 30
0.0
 11
386.974259
 21
-59.979925
 31
0.0
  0
LINE
  8
0
  6
BYLAYER
 62
     1
 10
386.974259
 20
-59.979925
 30
0.0
 11
385.834217
 21
-64.358642
 31
0.0
  0
LINE
  8
0
  6
BYLAYER
 62
     1
 10
390.390433
 20
-68.382296
 30
0.0
 11
388.339139
 21
-68.382296
 31
0.0
  0
LINE
  8
0
  6
BYLAYER
 62
     1
 10
388.339139
 20
-68.382296
 30
0.0
 11
388.339139
 21
-63.530233
 31
0.0
  0
LINE
  8
0
  6
BYLAYER
 62
     1
 10
386.721799
 20
-68.382296
 30
0.0
 11
388.339139
 21
-63.530233
 31
0.0
  0
LINE
  8
0
  6
BYLAYER
 62
     1
 10
386.721799
 20
-68.382296
 30
0.0
 11
384.946634
 21
-68.382296
 31
0.0
  0
LINE
  8
0
  6
BYLAYER
 62
     1
 10
420.449610
 20
-68.382296
 30
0.0
 11
423.644855
 21
-59.979925
 31
0.0
  0
LINE
  8
0
  6
BYLAYER
 62
     1
 10
420.449610
 20
-68.382296
 30
0.0
 11
423.171509
 21
-68.382296
 31
0.0
  0
LINE
  8
0
  6
BYLAYER
 62
     1
 10
423.644855
 20
-59.979925
 30
0.0
 11
426.248407
 21
-59.979925
 31
0.0
  0
LINE
  8
0
  6
BYLAYER
 62
     1
 10
423.171509
 20
-68.382296
 30
0.0
 11
423.574958
 21
-67.198867
 31
0.0
  0
LINE
  8
0
  6
BYLAYER
 62
     1
 10
424.220441
 20
-65.305377
 30
0.0
 11
424.946631
 21
-63.175192
 31
0.0
  0
LINE
  8
0
  6
BYLAYER
 62
     1
 10
429.443696
 20
-68.382296
 30
0.0
 11
426.248407
 21
-59.979925
 31
0.0
  0
LINE
  8
0
  6
BYLAYER
 62
     1
 10
429.443696
 20
-68.382296
 30
0.0
 11
426.721796
 21
-68.382296
 31
0.0
  0
LINE
  8
0
  6
BYLAYER
 62
     1
 10
426.318348
 20
-67.198867
 30
0.0
 11
423.574958
 21
-67.198867
 31
0.0
  0
LINE
  8
0
  6
BYLAYER
 62
     1
 10
425.672821
 20
-65.305377
 30
0.0
 11
424.220441
 21
-65.305377
 31
0.0
  0
LINE
  8
0
  6
BYLAYER
 62
     1
 10
426.721796
 20
-68.382296
 30
0.0
 11
426.318348
 21
-67.198867
 31
0.0
  0
LINE
  8
0
  6
BYLAYER
 62
     1
 10
425.672821
 20
-65.305377
 30
0.0
 11
424.946631
 21
-63.175192
 31
0.0
  0
LINE
  8
0
  6
BYLAYER
 62
     1
 10
399.266172
 20
-62.050936
 30
0.0
 11
401.633030
 21
-62.050936
 31
0.0
  0
LINE
  8
0
  6
BYLAYER
 62
     1
 10
401.633030
 20
-62.050936
 30
0.0
 11
401.633030
 21
-68.382296
 31
0.0
  0
LINE
  8
0
  6
BYLAYER
 62
     1
 10
401.633030
 20
-68.382296
 30
0.0
 11
404.236603
 21
-68.382296
 31
0.0
  0
LINE
  8
0
  6
BYLAYER
 62
     1
 10
404.236603
 20
-68.382296
 30
0.0
 11
404.236603
 21
-62.050936
 31
0.0
  0
LINE
  8
0
  6
BYLAYER
 62
     1
 10
404.236603
 20
-62.050936
 30
0.0
 11
406.603461
 21
-62.050936
 31
0.0
  0
LINE
  8
0
  6
BYLAYER
 62
     1
 10
406.603461
 20
-62.050936
 30
0.0
 11
406.603461
 21
-59.979925
 31
0.0
  0
LINE
  8
0
  6
BYLAYER
 62
     1
 10
406.603461
 20
-59.979925
 30
0.0
 11
399.266172
 21
-59.979925
 31
0.0
  0
LINE
  8
0
  6
BYLAYER
 62
     1
 10
399.266172
 20
-59.979925
 30
0.0
 11
399.266172
 21
-62.050936
 31
0.0
  0
ARC
  8
0
  6
BYLAYER
 62
     1
 10
410.804636
 20
-64.636707
 30
0.0
 40
4.041457
 50
270.0
 51
316.110087
  0
ARC
  8
0
  6
BYLAYER
 62
     1
 10
410.392557
 20
-64.240295
 30
0.0
 40
4.613254
 50
316.110087
 51
360.0
  0
ARC
  8
0
  6
BYLAYER
 62
     1
 10
410.392574
 20
-64.240295
 30
0.0
 40
4.613237
 50
0.0
 51
43.890016
  0
ARC
  8
0
  6
BYLAYER
 62
     1
 10
410.804615
 20
-63.843917
 30
0.0
 40
4.041492
 50
43.890016
 51
90.000000
  0
ARC
  8
0
  6
BYLAYER
 62
     1
 10
410.804615
 20
-63.843882
 30
0.0
 40
4.041457
 50
90.0
 51
136.110087
  0
ARC
  8
0
  6
BYLAYER
 62
     1
 10
411.216693
 20
-64.240295
 30
0.0
 40
4.613254
 50
136.110087
 51
180.0
  0
ARC
  8
0
  6
BYLAYER
 62
     1
 10
411.216677
 20
-64.240295
 30
0.0
 40
4.613237
 50
180.000000
 51
223.890016
  0
ARC
  8
0
  6
BYLAYER
 62
     1
 10
410.804636
 20
-64.636672
 30
0.0
 40
4.041492
 50
223.890016
 51
270.000000
  0
ARC
  8
0
  6
BYLAYER
 62
     1
 10
410.804615
 20
-63.059884
 30
0.0
 40
1.861645
 50
90.0
 51
140.793201
  0
ARC
  8
0
  6
BYLAYER
 62
     1
 10
412.251591
 20
-64.240295
 30
0.0
 40
3.729026
 50
140.793201
 51
180.000000
  0
ARC
  8
0
  6
BYLAYER
 62
     1
 10
412.251544
 20
-64.240295
 30
0.0
 40
3.728979
 50
180.000000
 51
219.207055
  0
ARC
  8
0
  6
BYLAYER
 62
     1
 10
410.804636
 20
-65.420661
 30
0.0
 40
1.861680
 50
219.207055
 51
270.000000
  0
ARC
  8
0
  6
BYLAYER
 62
     1
 10
410.804636
 20
-65.420691
 30
0.0
 40
1.861650
 50
270.0
 51
320.793131
  0
ARC
  8
0
  6
BYLAYER
 62
     1
 10
409.357682
 20
-64.240295
 30
0.0
 40
3.729004
 50
320.793131
 51
360.0
  0
ARC
  8
0
  6
BYLAYER
 62
     1
 10
409.357684
 20
-64.240295
 30
0.0
 40
3.729001
 50
0.0
 51
39.206985
  0
ARC
  8
0
  6
BYLAYER
 62
     1
 10
410.804615
 20
-63.059914
 30
0.0
 40
1.861675
 50
39.206985
 51
90.0
  0
LINE
  8
0
  6
BYLAYER
 62
     1
 10
429.670478
 20
-68.382296
 30
0.0
 11
429.670478
 21
-59.979925
 31
0.0
  0
LINE
  8
0
  6
BYLAYER
 62
     1
 10
429.670478
 20
-59.979925
 30
0.0
 11
434.877561
 21
-59.979925
 31
0.0
  0
ARC
  8
0
  6
BYLAYER
 62
     1
 10
434.877561
 20
-62.346804
 30
0.0
 40
2.366854
 50
287.134650
 51
450.000006
  0
ARC
  8
0
  6
BYLAYER
 62
     1
 10
435.350950
 20
-66.488806
 30
0.0
 40
1.893491
 50
0.0
 51
83.207557
  0
LINE
  8
0
  6
BYLAYER
 62
     1
 10
437.244440
 20
-66.488806
 30
0.0
 11
437.244440
 21
-67.672235
 31
0.0
  0
ARC
  8
0
  6
BYLAYER
 62
     1
 10
439.137931
 20
-67.672235
 30
0.0
 40
1.893491
 50
180.000000
 51
202.024314
  0
LINE
  8
0
  6
BYLAYER
 62
     1
 10
434.779059
 20
-68.382296
 30
0.0
 11
437.382612
 21
-68.382296
 31
0.0
  0
ARC
  8
0
  6
BYLAYER
 62
     1
 10
436.534379
 20
-67.672235
 30
0.0
 40
1.893491
 50
180.000000
 51
202.024314
  0
LINE
  8
0
  6
BYLAYER
 62
     1
 10
434.640888
 20
-67.672235
 30
0.0
 11
434.640888
 21
-66.725500
 31
0.0
  0
LINE
  8
0
  6
BYLAYER
 62
     1
 10
429.670478
 20
-68.382296
 30
0.0
 11
432.155683
 21
-68.382296
 31
0.0
  0
LINE
  8
0
  6
BYLAYER
 62
     1
 10
432.155683
 20
-68.382296
 30
0.0
 11
432.155683
 21
-65.542071
 31
0.0
  0
LINE
  8
0
  6
BYLAYER
 62
     1
 10
433.457459
 20
-65.542071
 30
0.0
 11
432.155683
 21
-65.542071
 31
0.0
  0
ARC
  8
0
  6
BYLAYER
 62
     1
 10
433.457459
 20
-66.725500
 30
0.0
 40
1.183429
 50
0.0
 51
90.000003
  0
LINE
  8
0
  6
BYLAYER
 62
     1
 10
432.155683
 20
-63.648580
 30
0.0
 11
432.155683
 21
-61.873416
 31
0.0
  0
LINE
  8
0
  6
BYLAYER
 62
     1
 10
432.155683
 20
-61.873416
 30
0.0
 11
433.812479
 21
-61.873416
 31
0.0
  0
LINE
  8
0
  6
BYLAYER
 62
     1
 10
432.155683
 20
-63.648580
 30
0.0
 11
433.812479
 21
-63.648580
 31
0.0
  0
ARC
  8
0
  6
BYLAYER
 62
     1
 10
433.812479
 20
-62.760998
 30
0.0
 40
0.887582
 50
270.0
 51
450.000005
  0
LINE
  8
0
  6
BYLAYER
 62
     1
 10
418.378620
 20
-65.725381
 30
0.0
 11
416.840149
 21
-59.979925
 31
0.0
  0
LINE
  8
0
  6
BYLAYER
 62
     1
 10
416.840149
 20
-59.979925
 30
0.0
 11
414.354944
 21
-59.979925
 31
0.0
  0
LINE
  8
0
  6
BYLAYER
 62
     1
 10
414.354944
 20
-59.979925
 30
0.0
 11
416.958496
 21
-68.382296
 31
0.0
  0
LINE
  8
0
  6
BYLAYER
 62
     1
 10
418.378620
 20
-65.725381
 30
0.0
 11
419.917048
 21
-59.979925
 31
0.0
  0
LINE
  8
0
  6
BYLAYER
 62
     1
 10
419.917048
 20
-59.979925
 30
0.0
 11
422.402253
 21
-59.979925
 31
0.0
  0
LINE
  8
0
  6
BYLAYER
 62
     1
 10
422.402253
 20
-59.979925
 30
0.0
 11
419.798700
 21
-68.382296
 31
0.0
  0
LINE
  8
0
  6
BYLAYER
 62
     1
 10
419.798700
 20
-68.382296
 30
0.0
 11
416.958496
 21
-68.382296
 31
0.0
  0
LINE
  8
0
  6
BYLAYER
 62
     1
 10
437.609394
 20
-68.382296
 30
0.0
 11
440.094599
 21
-68.382296
 31
0.0
  0
LINE
  8
0
  6
BYLAYER
 62
     1
 10
440.094599
 20
-68.382296
 30
0.0
 11
440.094599
 21
-59.979925
 31
0.0
  0
LINE
  8
0
  6
BYLAYER
 62
     1
 10
440.094599
 20
-59.979925
 30
0.0
 11
437.609394
 21
-59.979925
 31
0.0
  0
LINE
  8
0
  6
BYLAYER
 62
     1
 10
437.609394
 20
-59.979925
 30
0.0
 11
437.609394
 21
-68.382296
 31
0.0
  0
ARC
  8
0
  6
BYLAYER
 62
     1
 10
444.769163
 20
-64.636707
 30
0.0
 40
4.041457
 50
270.0
 51
316.110087
  0
ARC
  8
0
  6
BYLAYER
 62
     1
 10
444.357084
 20
-64.240295
 30
0.0
 40
4.613254
 50
316.110087
 51
360.0
  0
ARC
  8
0
  6
BYLAYER
 62
     1
 10
444.357084
 20
-64.240295
 30
0.0
 40
4.613254
 50
0.0
 51
43.889913
  0
ARC
  8
0
  6
BYLAYER
 62
     1
 10
444.769163
 20
-63.843882
 30
0.0
 40
4.041457
 50
43.889913
 51
90.0
  0
ARC
  8
0
  6
BYLAYER
 62
     1
 10
444.769163
 20
-63.843882
 30
0.0
 40
4.041457
 50
90.0
 51
136.110087
  0
ARC
  8
0
  6
BYLAYER
 62
     1
 10
445.181241
 20
-64.240295
 30
0.0
 40
4.613254
 50
136.110087
 51
180.0
  0
ARC
  8
0
  6
BYLAYER
 62
     1
 10
445.181241
 20
-64.240295
 30
0.0
 40
4.613254
 50
180.000000
 51
223.889913
  0
ARC
  8
0
  6
BYLAYER
 62
     1
 10
444.769163
 20
-64.636707
 30
0.0
 40
4.041457
 50
223.889913
 51
270.000000
  0
ARC
  8
0
  6
BYLAYER
 62
     1
 10
444.769163
 20
-63.059884
 30
0.0
 40
1.861645
 50
39.206799
 51
90.000000
  0
ARC
  8
0
  6
BYLAYER
 62
     1
 10
443.322186
 20
-64.240295
 30
0.0
 40
3.729026
 50
0.0
 51
39.206799
  0
ARC
  8
0
  6
BYLAYER
 62
     1
 10
443.322208
 20
-64.240295
 30
0.0
 40
3.729004
 50
320.793131
 51
360.000000
  0
ARC
  8
0
  6
BYLAYER
 62
     1
 10
444.769163
 20
-65.420691
 30
0.0
 40
1.861650
 50
270.0
 51
320.793131
  0
ARC
  8
0
  6
BYLAYER
 62
     1
 10
444.769163
 20
-65.420691
 30
0.0
 40
1.861650
 50
219.206869
 51
270.000000
  0
ARC
  8
0
  6
BYLAYER
 62
     1
 10
446.216117
 20
-64.240295
 30
0.0
 40
3.729004
 50
180.000000
 51
219.206869
  0
ARC
  8
0
  6
BYLAYER
 62
     1
 10
446.216139
 20
-64.240295
 30
0.0
 40
3.729026
 50
140.793201
 51
180.000000
  0
ARC
  8
0
  6
BYLAYER
 62
     1
 10
444.769163
 20
-63.059884
 30
0.0
 40
1.861645
 50
90.0
 51
140.793201
  0
ARC
  8
0
  6
BYLAYER
 62
     1
 10
402.808554
 20
-50.360906
 30
0.0
 40
10.401993
 50
174.535650
 51
180.000000
  0
LINE
  8
0
  6
BYLAYER
 62
     1
 10
392.453829
 20
-49.370358
 30
0.0
 11
392.453829
 21
-49.370347
 31
0.0
  0
LINE
  8
0
  6
BYLAYER
 62
     1
 10
392.465148
 20
-49.258455
 30
0.0
 11
393.457891
 21
-48.840495
 31
0.0
  0
ARC
  8
0
  6
BYLAYER
 62
     1
 10
402.808597
 20
-50.360992
 30
0.0
 40
9.473494
 50
159.235383
 51
170.763998
  0
LINE
  8
0
  6
BYLAYER
 62
     1
 10
393.950413
 20
-47.002301
 30
0.0
 11
393.299694
 21
-46.143942
 31
0.0
  0
ARC
  8
0
  6
BYLAYER
 62
     1
 10
402.808554
 20
-50.360906
 30
0.0
 40
10.401981
 50
144.139514
 51
156.083795
  0
LINE
  8
0
  6
BYLAYER
 62
     1
 10
394.309903
 20
-44.363033
 30
0.0
 11
394.310523
 21
-44.362158
 31
0.0
  0
LINE
  8
0
  6
BYLAYER
 62
     1
 10
394.378312
 20
-44.267285
 30
0.0
 11
395.435207
 21
-44.412695
 31
0.0
  0
ARC
  8
0
  6
BYLAYER
 62
     1
 10
402.808554
 20
-50.360906
 30
0.0
 40
9.473437
 50
129.235643
 51
141.105976
  0
LINE
  8
0
  6
BYLAYER
 62
     1
 10
396.661594
 20
-43.152506
 30
0.0
 11
396.662619
 21
-43.151620
 31
0.0
  0
LINE
  8
0
  6
BYLAYER
 62
     1
 10
396.816499
 20
-43.023245
 30
0.0
 11
396.682108
 21
-41.954475
 31
0.0
  0
ARC
  8
0
  6
BYLAYER
 62
     1
 10
402.808554
 20
-50.360906
 30
0.0
 40
10.401992
 50
114.139607
 51
126.083853
  0
LINE
  8
0
  6
BYLAYER
 62
     1
 10
398.448188
 20
-40.916931
 30
0.0
 11
398.448893
 21
-40.916599
 31
0.0
  0
LINE
  8
0
  6
BYLAYER
 62
     1
 10
398.554542
 20
-40.868551
 30
0.0
 11
399.397102
 21
-41.522903
 31
0.0
  0
LINE
  8
0
  6
BYLAYER
 62
     1
 10
399.589746
 20
-41.451052
 30
0.0
 11
399.590815
 21
-41.450678
 31
0.0
  0
ARC
  8
0
  6
BYLAYER
 62
     1
 10
402.808554
 20
-50.360906
 30
0.0
 40
9.473434
 50
99.235601
 51
111.106038
  0
ARC
  8
0
  6
BYLAYER
 62
     1
 10
402.808554
 20
-50.360906
 30
0.0
 40
10.401993
 50
90.0
 51
96.083892
  0
LINE
  8
0
  6
BYLAYER
 62
     1
 10
401.706104
 20
-40.017500
 30
0.0
 11
401.288120
 21
-41.010279
 31
0.0
  0
LINE
  8
0
  6
BYLAYER
 62
     1
 10
413.163269
 20
-49.370358
 30
0.0
 11
413.163269
 21
-49.370347
 31
0.0
  0
LINE
  8
0
  6
BYLAYER
 62
     1
 10
413.151961
 20
-49.258453
 30
0.0
 11
412.159167
 21
-48.840485
 31
0.0
  0
ARC
  8
0
  6
BYLAYER
 62
     1
 10
402.808490
 20
-50.360992
 30
0.0
 40
9.473494
 50
9.235986
 51
20.764650
  0
LINE
  8
0
  6
BYLAYER
 62
     1
 10
411.666744
 20
-47.002202
 30
0.0
 11
412.317416
 21
-46.143944
 31
0.0
  0
ARC
  8
0
  6
BYLAYER
 62
     1
 10
402.808554
 20
-50.360906
 30
0.0
 40
10.401981
 50
23.916189
 51
35.860484
  0
LINE
  8
0
  6
BYLAYER
 62
     1
 10
411.307184
 20
-44.363033
 30
0.0
 11
411.306565
 21
-44.362158
 31
0.0
  0
LINE
  8
0
  6
BYLAYER
 62
     1
 10
411.238797
 20
-44.267285
 30
0.0
 11
410.181976
 21
-44.412681
 31
0.0
  0
ARC
  8
0
  6
BYLAYER
 62
     1
 10
402.808554
 20
-50.360906
 30
0.0
 40
9.473437
 50
38.894050
 51
50.764315
  0
LINE
  8
0
  6
BYLAYER
 62
     1
 10
408.955515
 20
-43.152506
 30
0.0
 11
408.954489
 21
-43.151620
 31
0.0
  0
LINE
  8
0
  6
BYLAYER
 62
     1
 10
408.800638
 20
-43.023073
 30
0.0
 11
408.934979
 21
-41.954459
 31
0.0
  0
ARC
  8
0
  6
BYLAYER
 62
     1
 10
402.808554
 20
-50.360906
 30
0.0
 40
10.401992
 50
53.916300
 51
65.860381
  0
LINE
  8
0
  6
BYLAYER
 62
     1
 10
407.168921
 20
-40.916931
 30
0.0
 11
407.168195
 21
-40.916599
 31
0.0
  0
LINE
  8
0
  6
BYLAYER
 62
     1
 10
407.062569
 20
-40.868552
 30
0.0
 11
406.220017
 21
-41.522874
 31
0.0
  0
LINE
  8
0
  6
BYLAYER
 62
     1
 10
406.027341
 20
-41.451052
 30
0.0
 11
406.026294
 21
-41.450678
 31
0.0
  0
ARC
  8
0
  6
BYLAYER
 62
     1
 10
402.808554
 20
-50.360906
 30
0.0
 40
9.473434
 50
68.894081
 51
80.764578
  0
ARC
  8
0
  6
BYLAYER
 62
     1
 10
402.808554
 20
-50.360906
 30
0.0
 40
10.401993
 50
84.535428
 51
90.000003
  0
LINE
  8
0
  6
BYLAYER
 62
     1
 10
403.911008
 20
-40.017500
 30
0.0
 11
404.328890
 21
-41.010110
 31
0.0
  0
ARC
  8
0
  6
BYLAYER
 62
     1
 10
402.808554
 20
-50.360906
 30
0.0
 40
10.401993
 50
180.000000
 51
186.083899
  0
LINE
  8
0
  6
BYLAYER
 62
     1
 10
392.453829
 20
-51.351444
 30
0.0
 11
392.453829
 21
-51.351466
 31
0.0
  0
LINE
  8
0
  6
BYLAYER
 62
     1
 10
392.465148
 20
-51.463358
 30
0.0
 11
393.457921
 21
-51.881330
 31
0.0
  0
ARC
  8
0
  6
BYLAYER
 62
     1
 10
402.808597
 20
-50.360821
 30
0.0
 40
9.473494
 50
189.236002
 51
200.764629
  0
LINE
  8
0
  6
BYLAYER
 62
     1
 10
393.950447
 20
-53.719469
 30
0.0
 11
393.299691
 21
-54.577863
 31
0.0
  0
ARC
  8
0
  6
BYLAYER
 62
     1
 10
402.808554
 20
-50.360906
 30
0.0
 40
10.401981
 50
203.916158
 51
215.860410
  0
LINE
  8
0
  6
BYLAYER
 62
     1
 10
394.309903
 20
-56.358769
 30
0.0
 11
394.310523
 21
-56.359645
 31
0.0
  0
LINE
  8
0
  6
BYLAYER
 62
     1
 10
394.378304
 20
-56.454517
 30
0.0
 11
395.435299
 21
-56.309109
 31
0.0
  0
ARC
  8
0
  6
BYLAYER
 62
     1
 10
402.808554
 20
-50.360906
 30
0.0
 40
9.473437
 50
218.894045
 51
230.764345
  0
LINE
  8
0
  6
BYLAYER
 62
     1
 10
396.661594
 20
-57.569296
 30
0.0
 11
396.662619
 21
-57.570182
 31
0.0
  0
LINE
  8
0
  6
BYLAYER
 62
     1
 10
396.816497
 20
-57.698567
 30
0.0
 11
396.682108
 21
-58.767338
 31
0.0
  0
ARC
  8
0
  6
BYLAYER
 62
     1
 10
402.808554
 20
-50.360906
 30
0.0
 40
10.401992
 50
233.916148
 51
245.860401
  0
LINE
  8
0
  6
BYLAYER
 62
     1
 10
398.448188
 20
-59.804872
 30
0.0
 11
398.448893
 21
-59.805213
 31
0.0
  0
LINE
  8
0
  6
BYLAYER
 62
     1
 10
398.554543
 20
-59.853262
 30
0.0
 11
399.397202
 21
-59.198818
 31
0.0
  0
LINE
  8
0
  6
BYLAYER
 62
     1
 10
399.589746
 20
-59.270750
 30
0.0
 11
399.590815
 21
-59.271134
 31
0.0
  0
LINE
  8
0
  6
BYLAYER
 62
     1
 10
413.163269
 20
-51.351444
 30
0.0
 11
413.163269
 21
-51.351466
 31
0.0
  0
LINE
  8
0
  6
BYLAYER
 62
     1
 10
413.151960
 20
-51.463360
 30
0.0
 11
412.159167
 21
-51.881328
 31
0.0
  0
LINE
  8
0
  6
BYLAYER
 62
     1
 10
411.666653
 20
-53.719493
 30
0.0
 11
412.317426
 21
-54.577870
 31
0.0
  0
LINE
  8
0
  6
BYLAYER
 62
     1
 10
411.307184
 20
-56.358769
 30
0.0
 11
411.306565
 21
-56.359645
 31
0.0
  0
LINE
  8
0
  6
BYLAYER
 62
     1
 10
411.238817
 20
-56.454518
 30
0.0
 11
410.181753
 21
-56.309105
 31
0.0
  0
LINE
  8
0
  6
BYLAYER
 62
     1
 10
408.955515
 20
-57.569296
 30
0.0
 11
408.954489
 21
-57.570182
 31
0.0
  0
LINE
  8
0
  6
BYLAYER
 62
     1
 10
408.800617
 20
-57.698563
 30
0.0
 11
408.934979
 21
-58.767354
 31
0.0
  0
LINE
  8
0
  6
BYLAYER
 62
     1
 10
407.062568
 20
-59.853261
 30
0.0
 11
406.219888
 21
-59.198825
 31
0.0
  0
ARC
  8
0
  6
BYLAYER
 62
     1
 10
402.808554
 20
-50.360906
 30
0.0
 40
9.473437
 50
309.235697
 51
321.105929
  0
ARC
  8
0
  6
BYLAYER
 62
     1
 10
402.808554
 20
-50.360906
 30
0.0
 40
9.473434
 50
248.893873
 51
270.000000
  0
ARC
  8
0
  6
BYLAYER
 62
     1
 10
402.808554
 20
-50.360906
 30
0.0
 40
10.401992
 50
294.783232
 51
306.083699
  0
LINE
  8
0
  6
BYLAYER
 62
     1
 10
407.168195
 20
-59.805213
 30
0.0
 11
407.063209
 21
-59.854618
 31
0.0
  0
ARC
  8
0
  6
BYLAYER
 62
     1
 10
402.808554
 20
-50.360906
 30
0.0
 40
10.401981
 50
324.139593
 51
336.083825
  0
ARC
  8
0
  6
BYLAYER
 62
     1
 10
402.808490
 20
-50.360821
 30
0.0
 40
9.473494
 50
339.235210
 51
350.764014
  0
ARC
  8
0
  6
BYLAYER
 62
     1
 10
402.808554
 20
-50.360906
 30
0.0
 40
10.401993
 50
353.916089
 51
360.0
  0
ARC
  8
0
  6
BYLAYER
 62
     1
 10
402.808554
 20
-50.360906
 30
0.0
 40
10.401993
 50
0.0
 51
6.083907
  0
ARC
  8
0
  6
BYLAYER
 62
     1
 10
402.808554
 20
-50.360906
 30
0.0
 40
9.473434
 50
270.0
 51
291.106008
  0
CIRCLE
  8
0
  6
BYLAYER
 62
     1
 10
402.808554
 20
-50.360906
 30
0.0
 40
5.082113
  0
CIRCLE
  8
0
  6
BYLAYER
 62
     1
 10
402.808554
 20
-50.360906
 30
0.0
 40
7.414445
  0
LINE
  8
0
  6
BYLAYER
 62
     1
 10
274.442550
 20
-94.559715
 30
0.0
 11
273.177535
 21
-133.911827
 31
0.0
  0
LINE
  8
0
  6
BYLAYER
 62
     1
 10
555.919569
 20
-94.494591
 30
0.0
 11
557.177450
 21
-136.280541
 31
0.0
  0
LINE
  8
0
  6
BYLAYER
 62
     1
 10
415.177474
 20
-209.276451
 30
0.0
 11
422.177474
 21
-209.276451
 31
0.0
  0
LINE
  8
0
  6
BYLAYER
 62
     1
 10
415.177474
 20
-209.276451
 30
0.0
 11
415.177474
 21
-216.276451
 31
0.0
  0
LINE
  8
0
  6
BYLAYER
 62
     1
 10
415.177474
 20
-209.276451
 30
0.0
 11
408.177474
 21
-209.276451
 31
0.0
  0
LINE
  8
0
  6
BYLAYER
 62
     1
 10
597.677528
 20
-167.276451
 30
0.0
 11
597.677528
 21
-155.427245
 31
0.0
  0
ARC
  8
0
  6
BYLAYER
 62
     1
 10
596.677528
 20
-155.427245
 30
0.0
 40
1.000000
 50
0.0
 51
90.0
  0
ARC
  8
0
  6
BYLAYER
 62
     1
 10
596.677528
 20
-160.276451
 30
0.0
 40
1.000000
 50
0.0
 51
90.0
  0
ARC
  8
0
  6
BYLAYER
 62
     1
 10
643.677520
 20
-240.276451
 30
0.0
 40
2.0
 50
180.000000
 51
270.000000
  0
LINE
  8
0
  6
BYLAYER
 62
     1
 10
653.677520
 20
-42.276451
 30
0.0
 11
653.677520
 21
-242.276451
 31
0.0
  0
LINE
  8
0
  6
BYLAYER
 62
     1
 10
596.677520
 20
0.723549
 30
0.0
 11
596.677520
 21
-159.276451
 31
0.0
  0
ARC
  8
0
  6
BYLAYER
 62
     1
 10
604.677520
 20
-1.276451
 30
0.0
 40
2.0
 50
0.0
 51
90.0
  0
ARC
  8
0
  6
BYLAYER
 62
     1
 10
608.677520
 20
-22.276451
 30
0.0
 40
2.000000
 50
180.000000
 51
270.000000
  0
LINE
  8
0
  6
BYLAYER
 62
     1
 10
596.677520
 20
0.723549
 30
0.0
 11
604.677520
 21
0.723549
 31
0.0
  0
LINE
  8
0
  6
BYLAYER
 62
     1
 10
608.677520
 20
-24.276451
 30
0.0
 11
640.177520
 21
-24.276451
 31
0.0
  0
LINE
  8
0
  6
BYLAYER
 62
     1
 10
653.677520
 20
-42.276451
 30
0.0
 11
647.177520
 21
-42.276451
 31
0.0
  0
ARC
  8
0
  6
BYLAYER
 62
     1
 10
647.177520
 20
-40.276451
 30
0.0
 40
2.000000
 50
180.000000
 51
270.000000
  0
LINE
  8
0
  6
BYLAYER
 62
     1
 10
602.677528
 20
-172.276451
 30
0.0
 11
634.849093
 21
-172.276451
 31
0.0
  0
ARC
  8
0
  6
BYLAYER
 62
     1
 10
602.677528
 20
-167.276451
 30
0.0
 40
5.000000
 50
180.000000
 51
270.000000
  0
LINE
  8
0
  6
BYLAYER
 62
     1
 10
653.677520
 20
-242.276451
 30
0.0
 11
643.677520
 21
-242.276451
 31
0.0
  0
LINE
  8
0
  6
BYLAYER
 62
     1
 10
640.584051
 20
-177.182982
 30
0.0
 11
636.263307
 21
-172.862237
 31
0.0
  0
ARC
  8
0
  6
BYLAYER
 62
     1
 10
639.169837
 20
-178.597195
 30
0.0
 40
2.000000
 50
29.759132
 51
44.999999
  0
ARC
  8
0
  6
BYLAYER
 62
     1
 10
634.849093
 20
-174.276451
 30
0.0
 40
2.000000
 50
44.999999
 51
90.000000
  0
LINE
  8
0
  6
BYLAYER
 62
     1
 10
645.177520
 20
-53.419308
 30
0.0
 11
645.177520
 21
-29.276451
 31
0.0
  0
ARC
  8
0
  6
BYLAYER
 62
     1
 10
647.177520
 20
-53.419308
 30
0.0
 40
2.000000
 50
180.000000
 51
270.000000
  0
ARC
  8
0
  6
BYLAYER
 62
     1
 10
640.177520
 20
-29.276451
 30
0.0
 40
5.000000
 50
0.0
 51
90.0
  0
LINE
  8
0
  6
BYLAYER
 62
     1
 10
607.074718
 20
-173.758813
 30
0.0
 11
617.491964
 21
-212.636506
 31
0.0
  0
ARC
  8
0
  6
BYLAYER
 62
     1
 10
605.142866
 20
-174.276451
 30
0.0
 40
2.0
 50
15.000000
 51
90.000000
  0
LINE
  8
0
  6
BYLAYER
 62
     1
 10
640.677520
 20
-226.699101
 30
0.0
 11
618.423816
 21
-213.850919
 31
0.0
  0
ARC
  8
0
  6
BYLAYER
 62
     1
 10
619.423816
 20
-212.118868
 30
0.0
 40
2.000000
 50
195.000000
 51
240.000001
  0
ARC
  8
0
  6
BYLAYER
 62
     1
 10
639.677520
 20
-228.431152
 30
0.0
 40
2.0
 50
0.0
 51
60.000001
  0
LINE
  8
0
  6
BYLAYER
 62
     1
 10
606.677520
 20
-1.276451
 30
0.0
 11
606.677520
 21
-152.427245
 31
0.0
  0
ARC
  8
0
  6
BYLAYER
 62
     1
 10
604.677520
 20
-152.427245
 30
0.0
 40
2.0
 50
270.0
 51
360.0
  0
LINE
  8
0
  6
BYLAYER
 62
     1
 10
641.677520
 20
-240.276451
 30
0.0
 11
641.677520
 21
-179.219430
 31
0.0
  0
LINE
  8
0
  6
BYLAYER
 62
     1
 10
641.677520
 20
-73.511469
 30
0.0
 11
641.677520
 21
-57.419308
 31
0.0
  0
LINE
  8
0
  6
BYLAYER
 62
     1
 10
641.677520
 20
-145.121507
 30
0.0
 11
641.677520
 21
-94.908887
 31
0.0
  0
ARC
  8
0
  6
BYLAYER
 62
     1
 10
640.677520
 20
-145.121507
 30
0.0
 40
1.0
 50
333.446708
 51
360.0
  0
ARC
  8
0
  6
BYLAYER
 62
     1
 10
643.677520
 20
-57.419308
 30
0.0
 40
2.0
 50
90.0
 51
180.0
  0
LINE
  8
0
  6
BYLAYER
 62
     1
 10
639.189520
 20
-111.026451
 30
0.0
 11
608.817520
 21
-111.026451
 31
0.0
  0
ARC
  8
0
  6
BYLAYER
 62
     1
 10
608.817520
 20
-113.026451
 30
0.0
 40
2.000000
 50
90.0
 51
180.0
  0
ARC
  8
0
  6
BYLAYER
 62
     1
 10
639.189520
 20
-113.026451
 30
0.0
 40
2.000000
 50
0.0
 51
90.0
  0
LINE
  8
0
  6
BYLAYER
 62
     1
 10
639.189520
 20
-107.526451
 30
0.0
 11
608.817520
 21
-107.526451
 31
0.0
  0
ARC
  8
0
  6
BYLAYER
 62
     1
 10
608.817520
 20
-105.526451
 30
0.0
 40
2.0
 50
180.000000
 51
270.000000
  0
ARC
  8
0
  6
BYLAYER
 62
     1
 10
639.189520
 20
-105.526451
 30
0.0
 40
2.0
 50
270.0
 51
360.0
  0
LINE
  8
0
  6
BYLAYER
 62
     1
 10
640.718520
 20
-147.512411
 30
0.0
 11
640.718520
 21
-177.010753
 31
0.0
  0
LINE
  8
0
  6
BYLAYER
 62
     1
 10
641.572039
 20
-145.568537
 30
0.0
 11
640.824001
 21
-147.065381
 31
0.0
  0
ARC
  8
0
  6
BYLAYER
 62
     1
 10
641.718520
 20
-147.512411
 30
0.0
 40
1.0
 50
153.446708
 51
180.000000
  0
LINE
  8
0
  6
BYLAYER
 62
     1
 10
641.545640
 20
-178.723075
 30
0.0
 11
640.850400
 21
-177.507108
 31
0.0
  0
ARC
  8
0
  6
BYLAYER
 62
     1
 10
640.677520
 20
-179.219430
 30
0.0
 40
1.0
 50
0.0
 51
29.759132
  0
ARC
  8
0
  6
BYLAYER
 62
     1
 10
641.718520
 20
-177.010753
 30
0.0
 40
1.0
 50
180.000000
 51
209.759132
  0
LINE
  8
0
  6
BYLAYER
 62
     1
 10
653.677520
 20
-77.804526
 30
0.0
 11
645.150651
 21
-77.804526
 31
0.0
  0
LINE
  8
0
  6
BYLAYER
 62
     1
 10
645.083663
 20
-94.908887
 30
0.0
 11
641.677520
 21
-94.908887
 31
0.0
  0
LINE
  8
0
  6
BYLAYER
 62
     1
 10
645.083663
 20
-73.511469
 30
0.0
 11
641.677520
 21
-73.511469
 31
0.0
  0
LINE
  8
0
  6
BYLAYER
 62
     1
 10
653.677520
 20
-90.391604
 30
0.0
 11
645.150651
 21
-90.391604
 31
0.0
  0
LINE
  8
0
  6
BYLAYER
 62
     1
 10
641.189113
 20
-75.992587
 30
0.0
 11
634.256580
 21
-75.992587
 31
0.0
  0
LINE
  8
0
  6
BYLAYER
 62
     1
 10
641.189113
 20
-90.928157
 30
0.0
 11
634.256580
 21
-90.928157
 31
0.0
  0
LINE
  8
0
  6
BYLAYER
 62
     1
 10
645.083663
 20
-73.511469
 30
0.0
 11
645.150651
 21
-77.804526
 31
0.0
  0
LINE
  8
0
  6
BYLAYER
 62
     1
 10
645.150651
 20
-90.391604
 30
0.0
 11
645.083663
 21
-94.908887
 31
0.0
  0
LINE
  8
0
  6
BYLAYER
 62
     1
 10
641.219824
 20
-93.870566
 30
0.0
 11
641.189113
 21
-90.928157
 31
0.0
  0
LINE
  8
0
  6
BYLAYER
 62
     1
 10
641.219824
 20
-74.009717
 30
0.0
 11
641.189113
 21
-75.992587
 31
0.0
  0
LINE
  8
0
  6
BYLAYER
 62
     1
 10
641.677520
 20
-73.511469
 30
0.0
 11
641.219824
 21
-74.009717
 31
0.0
  0
LINE
  8
0
  6
BYLAYER
 62
     1
 10
641.677520
 20
-94.908887
 30
0.0
 11
641.219824
 21
-93.870566
 31
0.0
  0
LINE
  8
0
  6
BYLAYER
 62
     1
 10
584.677520
 20
-79.276451
 30
0.0
 11
584.677520
 21
-158.856899
 31
0.0
  0
LINE
  8
0
  6
BYLAYER
 62
     1
 10
596.677520
 20
-79.276451
 30
0.0
 11
596.677520
 21
0.723564
 31
0.0
  0
LINE
  8
0
  6
BYLAYER
 62
     1
 10
584.677520
 20
0.304514
 30
0.0
 11
584.677520
 21
-79.276451
 31
0.0
  0
LINE
  8
0
  6
BYLAYER
 62
     1
 10
596.677520
 20
-159.276436
 30
0.0
 11
596.677520
 21
-79.276451
 31
0.0
  0
LINE
  8
0
  6
BYLAYER
 62
     1
 10
596.677520
 20
0.723564
 30
0.0
 11
584.677520
 21
0.304514
 31
0.0
  0
LINE
  8
0
  6
BYLAYER
 62
     1
 10
584.677520
 20
-158.856899
 30
0.0
 11
596.677520
 21
-159.275948
 31
0.0
  0
LINE
  8
0
  6
BYLAYER
 62
     1
 10
574.697998
 20
-14.324547
 30
0.0
 11
568.419708
 21
-26.626243
 31
0.0
  0
LINE
  8
0
  6
BYLAYER
 62
     1
 10
574.697998
 20
-79.276451
 30
0.0
 11
574.697998
 21
-1.697349
 31
0.0
  0
LINE
  8
0
  6
BYLAYER
 62
     1
 10
584.677520
 20
0.723535
 30
0.0
 11
584.677520
 21
-79.276451
 31
0.0
  0
LINE
  8
0
  6
BYLAYER
 62
     1
 10
576.593322
 20
0.299843
 30
0.0
 11
584.677520
 21
0.723535
 31
0.0
  0
ARC
  8
0
  6
BYLAYER
 62
     1
 10
573.697998
 20
-22.148857
 30
0.0
 40
0.999972
 50
302.000007
 51
360.000000
  0
LINE
  8
0
  6
BYLAYER
 62
     1
 10
560.177490
 20
-31.776573
 30
0.0
 11
574.227905
 21
-22.996879
 31
0.0
  0
LINE
  8
0
  6
BYLAYER
 62
     1
 10
560.177520
 20
-31.776573
 30
0.0
 11
560.177413
 21
-79.276451
 31
0.0
  0
ARC
  8
0
  6
BYLAYER
 62
     1
 10
576.697998
 20
-1.697349
 30
0.0
 40
1.999969
 50
93.000028
 51
180.000000
  0
LINE
  8
0
  6
BYLAYER
 62
     1
 10
574.697998
 20
-144.228355
 30
0.0
 11
568.419708
 21
-131.926659
 31
0.0
  0
LINE
  8
0
  6
BYLAYER
 62
     1
 10
574.697998
 20
-79.276451
 30
0.0
 11
574.697998
 21
-156.855553
 31
0.0
  0
LINE
  8
0
  6
BYLAYER
 62
     1
 10
584.677520
 20
-159.276437
 30
0.0
 11
584.677520
 21
-79.276451
 31
0.0
  0
LINE
  8
0
  6
BYLAYER
 62
     1
 10
576.593322
 20
-158.852745
 30
0.0
 11
584.677520
 21
-159.276437
 31
0.0
  0
ARC
  8
0
  6
BYLAYER
 62
     1
 10
573.697998
 20
-136.404045
 30
0.0
 40
0.999972
 50
0.0
 51
57.999993
  0
LINE
  8
0
  6
BYLAYER
 62
     1
 10
560.177490
 20
-126.776329
 30
0.0
 11
574.227905
 21
-135.556023
 31
0.0
  0
LINE
  8
0
  6
BYLAYER
 62
     1
 10
560.177520
 20
-126.776329
 30
0.0
 11
560.177413
 21
-79.276451
 31
0.0
  0
ARC
  8
0
  6
BYLAYER
 62
     1
 10
576.697998
 20
-156.855553
 30
0.0
 40
1.999969
 50
180.000000
 51
266.999972
  0
LINE
  8
0
  6
BYLAYER
 62
     1
 10
415.177474
 20
-209.276451
 30
0.0
 11
415.177474
 21
-201.841773
 31
0.0
  0
ARC
  8
0
  6
BYLAYER
 62
     1
 10
1185.177474
 20
-79.276146
 30
0.0
 40
80.000000
 50
357.902096
 51
542.097904
  0
ARC
  8
0
  6
BYLAYER
 62
     1
 10
1185.177474
 20
-142.276146
 30
0.0
 40
100.0
 50
119.340652
 51
420.659492
  0
LINE
  8
0
  6
BYLAYER
 62
     7
 10
1141.677367
 20
-35.776177
 30
0.0
 11
1141.677367
 21
-14.276177
 31
0.0
  0
ARC
  8
0
  6
BYLAYER
 62
     7
 10
1140.177367
 20
-35.776177
 30
0.0
 40
1.5
 50
270.0
 51
360.0
  0
ARC
  8
0
  6
BYLAYER
 62
     7
 10
1143.177367
 20
-14.276177
 30
0.0
 40
1.5
 50
90.0
 51
180.0
  0
LINE
  8
0
  6
BYLAYER
 62
     7
 10
1185.177367
 20
-12.776177
 30
0.0
 11
1143.177367
 21
-12.776177
 31
0.0
  0
LINE
  8
0
  6
BYLAYER
 62
     7
 10
1147.049608
 20
-35.776177
 30
0.0
 11
1147.049608
 21
-14.276177
 31
0.0
  0
ARC
  8
0
  6
BYLAYER
 62
     7
 10
1145.549608
 20
-35.776177
 30
0.0
 40
1.5
 50
270.0
 51
360.0
  0
ARC
  8
0
  6
BYLAYER
 62
     7
 10
1148.549608
 20
-14.276177
 30
0.0
 40
1.5
 50
90.0
 51
180.0
  0
LINE
  8
0
  6
BYLAYER
 62
     7
 10
1172.083714
 20
-12.776177
 30
0.0
 11
1172.576261
 21
-26.880875
 31
0.0
  0
ARC
  8
0
  6
BYLAYER
 62
     7
 10
1175.574433
 20
-26.776177
 30
0.0
 40
3.000000
 50
182.0
 51
270.0
  0
LINE
  8
0
  6
BYLAYER
 62
     7
 10
1182.778473
 20
-26.880875
 30
0.0
 11
1183.271020
 21
-12.776177
 31
0.0
  0
ARC
  8
0
  6
BYLAYER
 62
     7
 10
1179.780301
 20
-26.776177
 30
0.0
 40
3.0
 50
270.0
 51
358.0
  0
LINE
  8
0
  6
BYLAYER
 62
     7
 10
1175.574433
 20
-29.776177
 30
0.0
 11
1179.780301
 21
-29.776177
 31
0.0
  0
LINE
  8
0
  6
BYLAYER
 62
     7
 10
1157.083714
 20
-12.776177
 30
0.0
 11
1157.576261
 21
-26.880875
 31
0.0
  0
ARC
  8
0
  6
BYLAYER
 62
     7
 10
1160.574433
 20
-26.776177
 30
0.0
 40
3.000000
 50
182.0
 51
270.0
  0
LINE
  8
0
  6
BYLAYER
 62
     7
 10
1167.778473
 20
-26.880875
 30
0.0
 11
1168.271020
 21
-12.776177
 31
0.0
  0
ARC
  8
0
  6
BYLAYER
 62
     7
 10
1164.780301
 20
-26.776177
 30
0.0
 40
3.0
 50
270.0
 51
358.0
  0
LINE
  8
0
  6
BYLAYER
 62
     7
 10
1160.574433
 20
-29.776177
 30
0.0
 11
1164.780301
 21
-29.776177
 31
0.0
  0
LINE
  8
0
  6
BYLAYER
 62
     7
 10
1157.118635
 20
-13.776177
 30
0.0
 11
1168.236099
 21
-13.776177
 31
0.0
  0
LINE
  8
0
  6
BYLAYER
 62
     7
 10
1172.118635
 20
-13.776177
 30
0.0
 11
1183.236099
 21
-13.776177
 31
0.0
  0
LINE
  8
0
  6
BYLAYER
 62
     7
 10
1185.177367
 20
-37.276177
 30
0.0
 11
1137.677367
 21
-37.276177
 31
0.0
  0
ARC
  8
0
  6
BYLAYER
 62
     7
 10
1137.677367
 20
-38.776177
 30
0.0
 40
1.5
 50
90.0
 51
180.0
  0
LINE
  8
0
  6
BYLAYER
 62
     7
 10
1136.177367
 20
-44.276177
 30
0.0
 11
1136.177367
 21
-38.776177
 31
0.0
  0
LINE
  8
0
  6
BYLAYER
 62
     7
 10
1136.177367
 20
-44.276177
 30
0.0
 11
1185.177367
 21
-44.276177
 31
0.0
  0
LINE
  8
0
  6
BYLAYER
 62
     7
 10
1228.677367
 20
-35.776177
 30
0.0
 11
1228.677367
 21
-14.276177
 31
0.0
  0
ARC
  8
0
  6
BYLAYER
 62
     7
 10
1230.177367
 20
-35.776177
 30
0.0
 40
1.500000
 50
180.000000
 51
270.000000
  0
ARC
  8
0
  6
BYLAYER
 62
     7
 10
1227.177367
 20
-14.276177
 30
0.0
 40
1.5
 50
0.0
 51
90.0
  0
LINE
  8
0
  6
BYLAYER
 62
     7
 10
1185.177367
 20
-12.776177
 30
0.0
 11
1227.177367
 21
-12.776177
 31
0.0
  0
LINE
  8
0
  6
BYLAYER
 62
     7
 10
1223.305126
 20
-35.776177
 30
0.0
 11
1223.305126
 21
-14.276177
 31
0.0
  0
ARC
  8
0
  6
BYLAYER
 62
     7
 10
1224.805126
 20
-35.776177
 30
0.0
 40
1.5
 50
180.000000
 51
270.000000
  0
ARC
  8
0
  6
BYLAYER
 62
     7
 10
1221.805126
 20
-14.276177
 30
0.0
 40
1.5
 50
0.0
 51
90.0
  0
LINE
  8
0
  6
BYLAYER
 62
     7
 10
1198.271020
 20
-12.776177
 30
0.0
 11
1197.778473
 21
-26.880875
 31
0.0
  0
ARC
  8
0
  6
BYLAYER
 62
     7
 10
1194.780301
 20
-26.776177
 30
0.0
 40
3.0
 50
270.0
 51
358.0
  0
LINE
  8
0
  6
BYLAYER
 62
     7
 10
1187.576261
 20
-26.880875
 30
0.0
 11
1187.083714
 21
-12.776177
 31
0.0
  0
ARC
  8
0
  6
BYLAYER
 62
     7
 10
1190.574433
 20
-26.776177
 30
0.0
 40
3.000000
 50
182.0
 51
270.0
  0
LINE
  8
0
  6
BYLAYER
 62
     7
 10
1194.780301
 20
-29.776177
 30
0.0
 11
1190.574433
 21
-29.776177
 31
0.0
  0
LINE
  8
0
  6
BYLAYER
 62
     7
 10
1213.271020
 20
-12.776177
 30
0.0
 11
1212.778473
 21
-26.880875
 31
0.0
  0
ARC
  8
0
  6
BYLAYER
 62
     7
 10
1209.780301
 20
-26.776177
 30
0.0
 40
3.0
 50
270.0
 51
358.0
  0
LINE
  8
0
  6
BYLAYER
 62
     7
 10
1202.576261
 20
-26.880875
 30
0.0
 11
1202.083714
 21
-12.776177
 31
0.0
  0
ARC
  8
0
  6
BYLAYER
 62
     7
 10
1205.574433
 20
-26.776177
 30
0.0
 40
3.000000
 50
182.0
 51
270.0
  0
LINE
  8
0
  6
BYLAYER
 62
     7
 10
1209.780301
 20
-29.776177
 30
0.0
 11
1205.574433
 21
-29.776177
 31
0.0
  0
LINE
  8
0
  6
BYLAYER
 62
     7
 10
1213.236099
 20
-13.776177
 30
0.0
 11
1202.118635
 21
-13.776177
 31
0.0
  0
LINE
  8
0
  6
BYLAYER
 62
     7
 10
1198.236099
 20
-13.776177
 30
0.0
 11
1187.118635
 21
-13.776177
 31
0.0
  0
LINE
  8
0
  6
BYLAYER
 62
     7
 10
1185.177367
 20
-37.276177
 30
0.0
 11
1232.677367
 21
-37.276177
 31
0.0
  0
ARC
  8
0
  6
BYLAYER
 62
     7
 10
1232.677367
 20
-38.776177
 30
0.0
 40
1.5
 50
0.0
 51
90.0
  0
LINE
  8
0
  6
BYLAYER
 62
     7
 10
1234.177367
 20
-46.276177
 30
0.0
 11
1234.177367
 21
-38.776177
 31
0.0
  0
LINE
  8
0
  6
BYLAYER
 62
     7
 10
1234.177367
 20
-44.276177
 30
0.0
 11
1185.177367
 21
-44.276177
 31
0.0
  0
LINE
  8
0
  6
BYLAYER
 62
     7
 10
1136.177367
 20
-46.276177
 30
0.0
 11
1185.177351
 21
-46.276177
 31
0.0
  0
LINE
  8
0
  6
BYLAYER
 62
     7
 10
1136.177367
 20
-51.776177
 30
0.0
 11
1139.177367
 21
-56.972344
 31
0.0
  0
LINE
  8
0
  6
BYLAYER
 62
     7
 10
1234.177351
 20
-46.276055
 30
0.0
 11
1185.177351
 21
-46.276177
 31
0.0
  0
LINE
  8
0
  6
BYLAYER
 62
     7
 10
1234.177351
 20
-51.776055
 30
0.0
 11
1231.177351
 21
-56.972222
 31
0.0
  0
LINE
  8
0
  6
BYLAYER
 62
     7
 10
1139.177367
 20
-56.972344
 30
0.0
 11
1139.177367
 21
-68.962580
 31
0.0
  0
LINE
  8
0
  6
BYLAYER
 62
     7
 10
1136.177367
 20
-46.276177
 30
0.0
 11
1136.177367
 21
-70.932763
 31
0.0
  0
LINE
  8
0
  6
BYLAYER
 62
     7
 10
1234.177351
 20
-46.276055
 30
0.0
 11
1234.177380
 21
-70.932625
 31
0.0
  0
LINE
  8
0
  6
BYLAYER
 62
     7
 10
1231.177351
 20
-56.972222
 30
0.0
 11
1231.177362
 21
-68.962443
 31
0.0
  0
LINE
  8
0
  6
BYLAYER
 62
     7
 10
1136.177367
 20
-44.276177
 30
0.0
 11
1136.177367
 21
-46.276177
 31
0.0
  0
LINE
  8
0
  6
BYLAYER
 62
     7
 10
1136.177367
 20
-46.276177
 30
0.0
 11
1234.177367
 21
-46.276177
 31
0.0
  0
LINE
  8
0
  6
BYLAYER
 62
     7
 10
1186.177474
 20
-113.276146
 30
0.0
 11
1186.177474
 21
-121.276146
 31
0.0
  0
LINE
  8
0
  6
BYLAYER
 62
     7
 10
1186.177474
 20
-103.276146
 30
0.0
 11
1186.177474
 21
-111.276146
 31
0.0
  0
LINE
  8
0
  6
BYLAYER
 62
     7
 10
1194.177474
 20
-111.276146
 30
0.0
 11
1194.177474
 21
-103.276146
 31
0.0
  0
LINE
  8
0
  6
BYLAYER
 62
     7
 10
1196.177474
 20
-111.276146
 30
0.0
 11
1196.177474
 21
-103.276146
 31
0.0
  0
LINE
  8
0
  6
BYLAYER
 62
     7
 10
1186.177474
 20
-121.276146
 30
0.0
 11
1194.177474
 21
-121.276146
 31
0.0
  0
LINE
  8
0
  6
BYLAYER
 62
     7
 10
1186.177474
 20
-113.276146
 30
0.0
 11
1194.177474
 21
-113.276146
 31
0.0
  0
LINE
  8
0
  6
BYLAYER
 62
     7
 10
1196.177474
 20
-111.276146
 30
0.0
 11
1204.015473
 21
-111.276146
 31
0.0
  0
LINE
  8
0
  6
BYLAYER
 62
     7
 10
1186.177474
 20
-111.276146
 30
0.0
 11
1194.177474
 21
-111.276146
 31
0.0
  0
LINE
  8
0
  6
BYLAYER
 62
     7
 10
1196.177474
 20
-103.276146
 30
0.0
 11
1204.015473
 21
-103.276146
 31
0.0
  0
LINE
  8
0
  6
BYLAYER
 62
     7
 10
1186.177474
 20
-103.276146
 30
0.0
 11
1194.177474
 21
-103.276146
 31
0.0
  0
LINE
  8
0
  6
BYLAYER
 62
     7
 10
1204.015473
 20
-111.276146
 30
0.0
 11
1204.015473
 21
-103.276146
 31
0.0
  0
LINE
  8
0
  6
BYLAYER
 62
     7
 10
1194.177474
 20
-121.276146
 30
0.0
 11
1194.177474
 21
-113.276146
 31
0.0
  0
LINE
  8
0
  6
BYLAYER
 62
     7
 10
1196.177474
 20
-113.276146
 30
0.0
 11
1196.177474
 21
-121.276146
 31
0.0
  0
LINE
  8
0
  6
BYLAYER
 62
     7
 10
1196.177474
 20
-121.276146
 30
0.0
 11
1204.177474
 21
-121.276146
 31
0.0
  0
LINE
  8
0
  6
BYLAYER
 62
     7
 10
1196.177474
 20
-113.276146
 30
0.0
 11
1204.177474
 21
-113.276146
 31
0.0
  0
LINE
  8
0
  6
BYLAYER
 62
     7
 10
1204.177474
 20
-121.276146
 30
0.0
 11
1204.177474
 21
-113.276146
 31
0.0
  0
LINE
  8
0
  6
BYLAYER
 62
     7
 10
1206.177474
 20
-131.276146
 30
0.0
 11
1214.177474
 21
-131.276146
 31
0.0
  0
LINE
  8
0
  6
BYLAYER
 62
     7
 10
1206.177474
 20
-113.276146
 30
0.0
 11
1206.177474
 21
-121.276146
 31
0.0
  0
LINE
  8
0
  6
BYLAYER
 62
     7
 10
1206.177474
 20
-123.276146
 30
0.0
 11
1206.177474
 21
-131.276146
 31
0.0
  0
LINE
  8
0
  6
BYLAYER
 62
     7
 10
1206.177474
 20
-123.276146
 30
0.0
 11
1214.177474
 21
-123.276146
 31
0.0
  0
LINE
  8
0
  6
BYLAYER
 62
     7
 10
1206.177474
 20
-121.276146
 30
0.0
 11
1214.177474
 21
-121.276146
 31
0.0
  0
LINE
  8
0
  6
BYLAYER
 62
     7
 10
1206.177474
 20
-113.276146
 30
0.0
 11
1214.177474
 21
-113.276146
 31
0.0
  0
LINE
  8
0
  6
BYLAYER
 62
     7
 10
1214.177474
 20
-131.276146
 30
0.0
 11
1214.177474
 21
-123.276146
 31
0.0
  0
LINE
  8
0
  6
BYLAYER
 62
     7
 10
1214.177474
 20
-121.276146
 30
0.0
 11
1214.177474
 21
-113.276146
 31
0.0
  0
LINE
  8
0
  6
BYLAYER
 62
     7
 10
1206.177474
 20
-141.276146
 30
0.0
 11
1214.177474
 21
-141.276146
 31
0.0
  0
LINE
  8
0
  6
BYLAYER
 62
     7
 10
1206.177474
 20
-133.276146
 30
0.0
 11
1206.177474
 21
-141.276146
 31
0.0
  0
LINE
  8
0
  6
BYLAYER
 62
     7
 10
1206.177474
 20
-133.276146
 30
0.0
 11
1214.177474
 21
-133.276146
 31
0.0
  0
LINE
  8
0
  6
BYLAYER
 62
     7
 10
1214.177474
 20
-141.276146
 30
0.0
 11
1214.177474
 21
-133.276146
 31
0.0
  0
LINE
  8
0
  6
BYLAYER
 62
     7
 10
1216.177474
 20
-131.276146
 30
0.0
 11
1224.177474
 21
-131.276146
 31
0.0
  0
LINE
  8
0
  6
BYLAYER
 62
     7
 10
1216.177474
 20
-123.276146
 30
0.0
 11
1216.177474
 21
-131.276146
 31
0.0
  0
LINE
  8
0
  6
BYLAYER
 62
     7
 10
1216.177474
 20
-123.276146
 30
0.0
 11
1224.177474
 21
-123.276146
 31
0.0
  0
LINE
  8
0
  6
BYLAYER
 62
     7
 10
1224.177474
 20
-131.276146
 30
0.0
 11
1224.177474
 21
-123.276146
 31
0.0
  0
LINE
  8
0
  6
BYLAYER
 62
     7
 10
1216.177474
 20
-141.276146
 30
0.0
 11
1224.177474
 21
-141.276146
 31
0.0
  0
LINE
  8
0
  6
BYLAYER
 62
     7
 10
1216.177474
 20
-133.276146
 30
0.0
 11
1216.177474
 21
-141.276146
 31
0.0
  0
LINE
  8
0
  6
BYLAYER
 62
     7
 10
1216.177474
 20
-133.276146
 30
0.0
 11
1224.177474
 21
-133.276146
 31
0.0
  0
LINE
  8
0
  6
BYLAYER
 62
     7
 10
1224.177474
 20
-141.276146
 30
0.0
 11
1224.177474
 21
-133.276146
 31
0.0
  0
LINE
  8
0
  6
BYLAYER
 62
     7
 10
1226.177474
 20
-131.276146
 30
0.0
 11
1234.177474
 21
-131.276146
 31
0.0
  0
LINE
  8
0
  6
BYLAYER
 62
     7
 10
1226.177474
 20
-123.276146
 30
0.0
 11
1226.177474
 21
-131.276146
 31
0.0
  0
LINE
  8
0
  6
BYLAYER
 62
     7
 10
1226.177474
 20
-123.276146
 30
0.0
 11
1234.177474
 21
-123.276146
 31
0.0
  0
LINE
  8
0
  6
BYLAYER
 62
     7
 10
1234.177474
 20
-131.276146
 30
0.0
 11
1234.177474
 21
-123.276146
 31
0.0
  0
LINE
  8
0
  6
BYLAYER
 62
     7
 10
1226.177474
 20
-141.276146
 30
0.0
 11
1234.177474
 21
-141.276146
 31
0.0
  0
LINE
  8
0
  6
BYLAYER
 62
     7
 10
1226.177474
 20
-133.276146
 30
0.0
 11
1226.177474
 21
-141.276146
 31
0.0
  0
LINE
  8
0
  6
BYLAYER
 62
     7
 10
1226.177474
 20
-133.276146
 30
0.0
 11
1234.177474
 21
-133.276146
 31
0.0
  0
LINE
  8
0
  6
BYLAYER
 62
     7
 10
1234.177474
 20
-141.276146
 30
0.0
 11
1234.177474
 21
-133.276146
 31
0.0
  0
LINE
  8
0
  6
BYLAYER
 62
     7
 10
1186.177474
 20
-93.276146
 30
0.0
 11
1186.177474
 21
-101.276146
 31
0.0
  0
LINE
  8
0
  6
BYLAYER
 62
     7
 10
1194.177474
 20
-101.276146
 30
0.0
 11
1194.177474
 21
-93.276146
 31
0.0
  0
LINE
  8
0
  6
BYLAYER
 62
     7
 10
1196.177474
 20
-101.276146
 30
0.0
 11
1196.177474
 21
-93.276146
 31
0.0
  0
LINE
  8
0
  6
BYLAYER
 62
     7
 10
1196.177474
 20
-101.276146
 30
0.0
 11
1204.015473
 21
-101.276146
 31
0.0
  0
LINE
  8
0
  6
BYLAYER
 62
     7
 10
1186.177474
 20
-101.276146
 30
0.0
 11
1194.177474
 21
-101.276146
 31
0.0
  0
LINE
  8
0
  6
BYLAYER
 62
     7
 10
1196.177474
 20
-93.276146
 30
0.0
 11
1204.015473
 21
-93.276146
 31
0.0
  0
LINE
  8
0
  6
BYLAYER
 62
     7
 10
1186.177474
 20
-93.276146
 30
0.0
 11
1194.177474
 21
-93.276146
 31
0.0
  0
LINE
  8
0
  6
BYLAYER
 62
     7
 10
1204.015473
 20
-101.276146
 30
0.0
 11
1204.015473
 21
-93.276146
 31
0.0
  0
LINE
  8
0
  6
BYLAYER
 62
     7
 10
1206.177474
 20
-103.276146
 30
0.0
 11
1206.177474
 21
-111.276146
 31
0.0
  0
LINE
  8
0
  6
BYLAYER
 62
     7
 10
1206.177474
 20
-111.276146
 30
0.0
 11
1214.177474
 21
-111.276146
 31
0.0
  0
LINE
  8
0
  6
BYLAYER
 62
     7
 10
1206.177474
 20
-103.276146
 30
0.0
 11
1214.177474
 21
-103.276146
 31
0.0
  0
LINE
  8
0
  6
BYLAYER
 62
     7
 10
1214.177474
 20
-111.276146
 30
0.0
 11
1214.177474
 21
-103.276146
 31
0.0
  0
LINE
  8
0
  6
BYLAYER
 62
     7
 10
1206.177474
 20
-93.276146
 30
0.0
 11
1206.177474
 21
-101.276146
 31
0.0
  0
LINE
  8
0
  6
BYLAYER
 62
     7
 10
1206.177474
 20
-101.276146
 30
0.0
 11
1214.177474
 21
-101.276146
 31
0.0
  0
LINE
  8
0
  6
BYLAYER
 62
     7
 10
1206.177474
 20
-93.276146
 30
0.0
 11
1214.177474
 21
-93.276146
 31
0.0
  0
LINE
  8
0
  6
BYLAYER
 62
     7
 10
1214.177474
 20
-101.276146
 30
0.0
 11
1214.177474
 21
-93.276146
 31
0.0
  0
LINE
  8
0
  6
BYLAYER
 62
     7
 10
1216.177474
 20
-113.276146
 30
0.0
 11
1216.177474
 21
-121.276146
 31
0.0
  0
LINE
  8
0
  6
BYLAYER
 62
     7
 10
1216.177474
 20
-121.276146
 30
0.0
 11
1224.177474
 21
-121.276146
 31
0.0
  0
LINE
  8
0
  6
BYLAYER
 62
     7
 10
1216.177474
 20
-113.276146
 30
0.0
 11
1224.177474
 21
-113.276146
 31
0.0
  0
LINE
  8
0
  6
BYLAYER
 62
     7
 10
1224.177474
 20
-121.276146
 30
0.0
 11
1224.177474
 21
-113.276146
 31
0.0
  0
LINE
  8
0
  6
BYLAYER
 62
     7
 10
1216.177474
 20
-103.276146
 30
0.0
 11
1216.177474
 21
-111.276146
 31
0.0
  0
LINE
  8
0
  6
BYLAYER
 62
     7
 10
1216.177474
 20
-111.276146
 30
0.0
 11
1224.177474
 21
-111.276146
 31
0.0
  0
LINE
  8
0
  6
BYLAYER
 62
     7
 10
1216.177474
 20
-103.276146
 30
0.0
 11
1224.177474
 21
-103.276146
 31
0.0
  0
LINE
  8
0
  6
BYLAYER
 62
     7
 10
1224.177474
 20
-111.276146
 30
0.0
 11
1224.177474
 21
-103.276146
 31
0.0
  0
LINE
  8
0
  6
BYLAYER
 62
     7
 10
1226.177474
 20
-113.276146
 30
0.0
 11
1226.177474
 21
-121.276146
 31
0.0
  0
LINE
  8
0
  6
BYLAYER
 62
     7
 10
1226.177474
 20
-121.276146
 30
0.0
 11
1234.177474
 21
-121.276146
 31
0.0
  0
LINE
  8
0
  6
BYLAYER
 62
     7
 10
1226.177474
 20
-113.276146
 30
0.0
 11
1234.177474
 21
-113.276146
 31
0.0
  0
LINE
  8
0
  6
BYLAYER
 62
     7
 10
1234.177474
 20
-121.276146
 30
0.0
 11
1234.177474
 21
-113.276146
 31
0.0
  0
CIRCLE
  8
0
  6
BYLAYER
 62
     7
 10
1185.177474
 20
-142.276146
 30
0.0
 40
4.0
  0
LINE
  8
0
  6
BYLAYER
 62
     7
 10
1236.177474
 20
-131.276146
 30
0.0
 11
1244.177474
 21
-131.276146
 31
0.0
  0
LINE
  8
0
  6
BYLAYER
 62
     7
 10
1236.177474
 20
-123.276146
 30
0.0
 11
1236.177474
 21
-131.276146
 31
0.0
  0
LINE
  8
0
  6
BYLAYER
 62
     7
 10
1236.177474
 20
-123.276146
 30
0.0
 11
1244.177474
 21
-123.276146
 31
0.0
  0
LINE
  8
0
  6
BYLAYER
 62
     7
 10
1244.177474
 20
-131.276146
 30
0.0
 11
1244.177474
 21
-123.276146
 31
0.0
  0
LINE
  8
0
  6
BYLAYER
 62
     7
 10
1236.177474
 20
-141.276146
 30
0.0
 11
1244.177474
 21
-141.276146
 31
0.0
  0
LINE
  8
0
  6
BYLAYER
 62
     7
 10
1236.177474
 20
-133.276146
 30
0.0
 11
1236.177474
 21
-141.276146
 31
0.0
  0
LINE
  8
0
  6
BYLAYER
 62
     7
 10
1236.177474
 20
-133.276146
 30
0.0
 11
1244.177474
 21
-133.276146
 31
0.0
  0
LINE
  8
0
  6
BYLAYER
 62
     7
 10
1244.177474
 20
-141.276146
 30
0.0
 11
1244.177474
 21
-133.276146
 31
0.0
  0
LINE
  8
0
  6
BYLAYER
 62
     7
 10
1236.177474
 20
-113.276146
 30
0.0
 11
1236.177474
 21
-121.276146
 31
0.0
  0
LINE
  8
0
  6
BYLAYER
 62
     7
 10
1236.177474
 20
-121.276146
 30
0.0
 11
1244.177474
 21
-121.276146
 31
0.0
  0
LINE
  8
0
  6
BYLAYER
 62
     7
 10
1236.177474
 20
-113.276146
 30
0.0
 11
1244.177474
 21
-113.276146
 31
0.0
  0
LINE
  8
0
  6
BYLAYER
 62
     7
 10
1244.177474
 20
-121.276146
 30
0.0
 11
1244.177474
 21
-113.276146
 31
0.0
  0
LINE
  8
0
  6
BYLAYER
 62
     7
 10
1186.177474
 20
-83.276146
 30
0.0
 11
1186.177474
 21
-91.276146
 31
0.0
  0
LINE
  8
0
  6
BYLAYER
 62
     7
 10
1194.177474
 20
-91.276146
 30
0.0
 11
1194.177474
 21
-83.276146
 31
0.0
  0
LINE
  8
0
  6
BYLAYER
 62
     7
 10
1196.177474
 20
-91.276146
 30
0.0
 11
1196.177474
 21
-83.276146
 31
0.0
  0
LINE
  8
0
  6
BYLAYER
 62
     7
 10
1196.177474
 20
-91.276146
 30
0.0
 11
1204.015473
 21
-91.276146
 31
0.0
  0
LINE
  8
0
  6
BYLAYER
 62
     7
 10
1186.177474
 20
-91.276146
 30
0.0
 11
1194.177474
 21
-91.276146
 31
0.0
  0
LINE
  8
0
  6
BYLAYER
 62
     7
 10
1196.177474
 20
-83.276146
 30
0.0
 11
1204.015473
 21
-83.276146
 31
0.0
  0
LINE
  8
0
  6
BYLAYER
 62
     7
 10
1186.177474
 20
-83.276146
 30
0.0
 11
1194.177474
 21
-83.276146
 31
0.0
  0
LINE
  8
0
  6
BYLAYER
 62
     7
 10
1204.015473
 20
-91.276146
 30
0.0
 11
1204.015473
 21
-83.276146
 31
0.0
  0
LINE
  8
0
  6
BYLAYER
 62
     7
 10
1206.177474
 20
-83.276146
 30
0.0
 11
1206.177474
 21
-91.276146
 31
0.0
  0
LINE
  8
0
  6
BYLAYER
 62
     7
 10
1206.177474
 20
-91.276146
 30
0.0
 11
1214.177474
 21
-91.276146
 31
0.0
  0
LINE
  8
0
  6
BYLAYER
 62
     7
 10
1206.177474
 20
-83.276146
 30
0.0
 11
1214.177474
 21
-83.276146
 31
0.0
  0
LINE
  8
0
  6
BYLAYER
 62
     7
 10
1214.177474
 20
-91.276146
 30
0.0
 11
1214.177474
 21
-83.276146
 31
0.0
  0
LINE
  8
0
  6
BYLAYER
 62
     7
 10
1216.177474
 20
-93.276146
 30
0.0
 11
1216.177474
 21
-101.276146
 31
0.0
  0
LINE
  8
0
  6
BYLAYER
 62
     7
 10
1216.177474
 20
-101.276146
 30
0.0
 11
1224.177474
 21
-101.276146
 31
0.0
  0
LINE
  8
0
  6
BYLAYER
 62
     7
 10
1216.177474
 20
-93.276146
 30
0.0
 11
1224.177474
 21
-93.276146
 31
0.0
  0
LINE
  8
0
  6
BYLAYER
 62
     7
 10
1224.177474
 20
-101.276146
 30
0.0
 11
1224.177474
 21
-93.276146
 31
0.0
  0
LINE
  8
0
  6
BYLAYER
 62
     7
 10
1226.177474
 20
-103.276146
 30
0.0
 11
1226.177474
 21
-111.276146
 31
0.0
  0
LINE
  8
0
  6
BYLAYER
 62
     7
 10
1226.177474
 20
-111.276146
 30
0.0
 11
1234.177474
 21
-111.276146
 31
0.0
  0
LINE
  8
0
  6
BYLAYER
 62
     7
 10
1226.177474
 20
-103.276146
 30
0.0
 11
1234.177474
 21
-103.276146
 31
0.0
  0
LINE
  8
0
  6
BYLAYER
 62
     7
 10
1234.177474
 20
-111.276146
 30
0.0
 11
1234.177474
 21
-103.276146
 31
0.0
  0
LINE
  8
0
  6
BYLAYER
 62
     7
 10
1186.177474
 20
-171.276146
 30
0.0
 11
1186.177474
 21
-163.276146
 31
0.0
  0
LINE
  8
0
  6
BYLAYER
 62
     7
 10
1186.177474
 20
-181.276146
 30
0.0
 11
1186.177474
 21
-173.276146
 31
0.0
  0
LINE
  8
0
  6
BYLAYER
 62
     7
 10
1194.177474
 20
-173.276146
 30
0.0
 11
1194.177474
 21
-181.276146
 31
0.0
  0
LINE
  8
0
  6
BYLAYER
 62
     7
 10
1196.177474
 20
-173.276146
 30
0.0
 11
1196.177474
 21
-181.276146
 31
0.0
  0
LINE
  8
0
  6
BYLAYER
 62
     7
 10
1186.177474
 20
-163.276146
 30
0.0
 11
1194.177474
 21
-163.276146
 31
0.0
  0
LINE
  8
0
  6
BYLAYER
 62
     7
 10
1186.177474
 20
-171.276146
 30
0.0
 11
1194.177474
 21
-171.276146
 31
0.0
  0
LINE
  8
0
  6
BYLAYER
 62
     7
 10
1196.177474
 20
-173.276146
 30
0.0
 11
1204.015473
 21
-173.276146
 31
0.0
  0
LINE
  8
0
  6
BYLAYER
 62
     7
 10
1186.177474
 20
-173.276146
 30
0.0
 11
1194.177474
 21
-173.276146
 31
0.0
  0
LINE
  8
0
  6
BYLAYER
 62
     7
 10
1196.177474
 20
-181.276146
 30
0.0
 11
1204.015473
 21
-181.276146
 31
0.0
  0
LINE
  8
0
  6
BYLAYER
 62
     7
 10
1186.177474
 20
-181.276146
 30
0.0
 11
1194.177474
 21
-181.276146
 31
0.0
  0
LINE
  8
0
  6
BYLAYER
 62
     7
 10
1204.015473
 20
-173.276146
 30
0.0
 11
1204.015473
 21
-181.276146
 31
0.0
  0
LINE
  8
0
  6
BYLAYER
 62
     7
 10
1194.177474
 20
-163.276146
 30
0.0
 11
1194.177474
 21
-171.276146
 31
0.0
  0
LINE
  8
0
  6
BYLAYER
 62
     7
 10
1196.177474
 20
-171.276146
 30
0.0
 11
1196.177474
 21
-163.276146
 31
0.0
  0
LINE
  8
0
  6
BYLAYER
 62
     7
 10
1196.177474
 20
-163.276146
 30
0.0
 11
1204.177474
 21
-163.276146
 31
0.0
  0
LINE
  8
0
  6
BYLAYER
 62
     7
 10
1196.177474
 20
-171.276146
 30
0.0
 11
1204.177474
 21
-171.276146
 31
0.0
  0
LINE
  8
0
  6
BYLAYER
 62
     7
 10
1204.177474
 20
-163.276146
 30
0.0
 11
1204.177474
 21
-171.276146
 31
0.0
  0
LINE
  8
0
  6
BYLAYER
 62
     7
 10
1206.177474
 20
-153.276146
 30
0.0
 11
1214.177474
 21
-153.276146
 31
0.0
  0
LINE
  8
0
  6
BYLAYER
 62
     7
 10
1206.177474
 20
-171.276146
 30
0.0
 11
1206.177474
 21
-163.276146
 31
0.0
  0
LINE
  8
0
  6
BYLAYER
 62
     7
 10
1206.177474
 20
-161.276146
 30
0.0
 11
1206.177474
 21
-153.276146
 31
0.0
  0
LINE
  8
0
  6
BYLAYER
 62
     7
 10
1206.177474
 20
-161.276146
 30
0.0
 11
1214.177474
 21
-161.276146
 31
0.0
  0
LINE
  8
0
  6
BYLAYER
 62
     7
 10
1206.177474
 20
-163.276146
 30
0.0
 11
1214.177474
 21
-163.276146
 31
0.0
  0
LINE
  8
0
  6
BYLAYER
 62
     7
 10
1206.177474
 20
-171.276146
 30
0.0
 11
1214.177474
 21
-171.276146
 31
0.0
  0
LINE
  8
0
  6
BYLAYER
 62
     7
 10
1214.177474
 20
-153.276146
 30
0.0
 11
1214.177474
 21
-161.276146
 31
0.0
  0
LINE
  8
0
  6
BYLAYER
 62
     7
 10
1214.177474
 20
-163.276146
 30
0.0
 11
1214.177474
 21
-171.276146
 31
0.0
  0
LINE
  8
0
  6
BYLAYER
 62
     7
 10
1206.177474
 20
-143.276146
 30
0.0
 11
1214.177474
 21
-143.276146
 31
0.0
  0
LINE
  8
0
  6
BYLAYER
 62
     7
 10
1206.177474
 20
-151.276146
 30
0.0
 11
1206.177474
 21
-143.276146
 31
0.0
  0
LINE
  8
0
  6
BYLAYER
 62
     7
 10
1206.177474
 20
-151.276146
 30
0.0
 11
1214.177474
 21
-151.276146
 31
0.0
  0
LINE
  8
0
  6
BYLAYER
 62
     7
 10
1214.177474
 20
-143.276146
 30
0.0
 11
1214.177474
 21
-151.276146
 31
0.0
  0
LINE
  8
0
  6
BYLAYER
 62
     7
 10
1216.177474
 20
-153.276146
 30
0.0
 11
1224.177474
 21
-153.276146
 31
0.0
  0
LINE
  8
0
  6
BYLAYER
 62
     7
 10
1216.177474
 20
-161.276146
 30
0.0
 11
1216.177474
 21
-153.276146
 31
0.0
  0
LINE
  8
0
  6
BYLAYER
 62
     7
 10
1216.177474
 20
-161.276146
 30
0.0
 11
1224.177474
 21
-161.276146
 31
0.0
  0
LINE
  8
0
  6
BYLAYER
 62
     7
 10
1224.177474
 20
-153.276146
 30
0.0
 11
1224.177474
 21
-161.276146
 31
0.0
  0
LINE
  8
0
  6
BYLAYER
 62
     7
 10
1216.177474
 20
-143.276146
 30
0.0
 11
1224.177474
 21
-143.276146
 31
0.0
  0
LINE
  8
0
  6
BYLAYER
 62
     7
 10
1216.177474
 20
-151.276146
 30
0.0
 11
1216.177474
 21
-143.276146
 31
0.0
  0
LINE
  8
0
  6
BYLAYER
 62
     7
 10
1216.177474
 20
-151.276146
 30
0.0
 11
1224.177474
 21
-151.276146
 31
0.0
  0
LINE
  8
0
  6
BYLAYER
 62
     7
 10
1224.177474
 20
-143.276146
 30
0.0
 11
1224.177474
 21
-151.276146
 31
0.0
  0
LINE
  8
0
  6
BYLAYER
 62
     7
 10
1226.177474
 20
-153.276146
 30
0.0
 11
1234.177474
 21
-153.276146
 31
0.0
  0
LINE
  8
0
  6
BYLAYER
 62
     7
 10
1226.177474
 20
-161.276146
 30
0.0
 11
1226.177474
 21
-153.276146
 31
0.0
  0
LINE
  8
0
  6
BYLAYER
 62
     7
 10
1226.177474
 20
-161.276146
 30
0.0
 11
1234.177474
 21
-161.276146
 31
0.0
  0
LINE
  8
0
  6
BYLAYER
 62
     7
 10
1234.177474
 20
-153.276146
 30
0.0
 11
1234.177474
 21
-161.276146
 31
0.0
  0
LINE
  8
0
  6
BYLAYER
 62
     7
 10
1226.177474
 20
-143.276146
 30
0.0
 11
1234.177474
 21
-143.276146
 31
0.0
  0
LINE
  8
0
  6
BYLAYER
 62
     7
 10
1226.177474
 20
-151.276146
 30
0.0
 11
1226.177474
 21
-143.276146
 31
0.0
  0
LINE
  8
0
  6
BYLAYER
 62
     7
 10
1226.177474
 20
-151.276146
 30
0.0
 11
1234.177474
 21
-151.276146
 31
0.0
  0
LINE
  8
0
  6
BYLAYER
 62
     7
 10
1234.177474
 20
-143.276146
 30
0.0
 11
1234.177474
 21
-151.276146
 31
0.0
  0
LINE
  8
0
  6
BYLAYER
 62
     7
 10
1186.177474
 20
-191.276146
 30
0.0
 11
1186.177474
 21
-183.276146
 31
0.0
  0
LINE
  8
0
  6
BYLAYER
 62
     7
 10
1194.177474
 20
-183.276146
 30
0.0
 11
1194.177474
 21
-191.276146
 31
0.0
  0
LINE
  8
0
  6
BYLAYER
 62
     7
 10
1196.177474
 20
-183.276146
 30
0.0
 11
1196.177474
 21
-191.276146
 31
0.0
  0
LINE
  8
0
  6
BYLAYER
 62
     7
 10
1196.177474
 20
-183.276146
 30
0.0
 11
1204.015473
 21
-183.276146
 31
0.0
  0
LINE
  8
0
  6
BYLAYER
 62
     7
 10
1186.177474
 20
-183.276146
 30
0.0
 11
1194.177474
 21
-183.276146
 31
0.0
  0
LINE
  8
0
  6
BYLAYER
 62
     7
 10
1196.177474
 20
-191.276146
 30
0.0
 11
1204.015473
 21
-191.276146
 31
0.0
  0
LINE
  8
0
  6
BYLAYER
 62
     7
 10
1186.177474
 20
-191.276146
 30
0.0
 11
1194.177474
 21
-191.276146
 31
0.0
  0
LINE
  8
0
  6
BYLAYER
 62
     7
 10
1204.015473
 20
-183.276146
 30
0.0
 11
1204.015473
 21
-191.276146
 31
0.0
  0
LINE
  8
0
  6
BYLAYER
 62
     7
 10
1206.177474
 20
-181.276146
 30
0.0
 11
1206.177474
 21
-173.276146
 31
0.0
  0
LINE
  8
0
  6
BYLAYER
 62
     7
 10
1206.177474
 20
-173.276146
 30
0.0
 11
1214.177474
 21
-173.276146
 31
0.0
  0
LINE
  8
0
  6
BYLAYER
 62
     7
 10
1206.177474
 20
-181.276146
 30
0.0
 11
1214.177474
 21
-181.276146
 31
0.0
  0
LINE
  8
0
  6
BYLAYER
 62
     7
 10
1214.177474
 20
-173.276146
 30
0.0
 11
1214.177474
 21
-181.276146
 31
0.0
  0
LINE
  8
0
  6
BYLAYER
 62
     7
 10
1206.177474
 20
-191.276146
 30
0.0
 11
1206.177474
 21
-183.276146
 31
0.0
  0
LINE
  8
0
  6
BYLAYER
 62
     7
 10
1206.177474
 20
-183.276146
 30
0.0
 11
1214.177474
 21
-183.276146
 31
0.0
  0
LINE
  8
0
  6
BYLAYER
 62
     7
 10
1206.177474
 20
-191.276146
 30
0.0
 11
1214.177474
 21
-191.276146
 31
0.0
  0
LINE
  8
0
  6
BYLAYER
 62
     7
 10
1214.177474
 20
-183.276146
 30
0.0
 11
1214.177474
 21
-191.276146
 31
0.0
  0
LINE
  8
0
  6
BYLAYER
 62
     7
 10
1216.177474
 20
-171.276146
 30
0.0
 11
1216.177474
 21
-163.276146
 31
0.0
  0
LINE
  8
0
  6
BYLAYER
 62
     7
 10
1216.177474
 20
-163.276146
 30
0.0
 11
1224.177474
 21
-163.276146
 31
0.0
  0
LINE
  8
0
  6
BYLAYER
 62
     7
 10
1216.177474
 20
-171.276146
 30
0.0
 11
1224.177474
 21
-171.276146
 31
0.0
  0
LINE
  8
0
  6
BYLAYER
 62
     7
 10
1224.177474
 20
-163.276146
 30
0.0
 11
1224.177474
 21
-171.276146
 31
0.0
  0
LINE
  8
0
  6
BYLAYER
 62
     7
 10
1216.177474
 20
-181.276146
 30
0.0
 11
1216.177474
 21
-173.276146
 31
0.0
  0
LINE
  8
0
  6
BYLAYER
 62
     7
 10
1216.177474
 20
-173.276146
 30
0.0
 11
1224.177474
 21
-173.276146
 31
0.0
  0
LINE
  8
0
  6
BYLAYER
 62
     7
 10
1216.177474
 20
-181.276146
 30
0.0
 11
1224.177474
 21
-181.276146
 31
0.0
  0
LINE
  8
0
  6
BYLAYER
 62
     7
 10
1224.177474
 20
-173.276146
 30
0.0
 11
1224.177474
 21
-181.276146
 31
0.0
  0
LINE
  8
0
  6
BYLAYER
 62
     7
 10
1226.177474
 20
-171.276146
 30
0.0
 11
1226.177474
 21
-163.276146
 31
0.0
  0
LINE
  8
0
  6
BYLAYER
 62
     7
 10
1226.177474
 20
-163.276146
 30
0.0
 11
1234.177474
 21
-163.276146
 31
0.0
  0
LINE
  8
0
  6
BYLAYER
 62
     7
 10
1226.177474
 20
-171.276146
 30
0.0
 11
1234.177474
 21
-171.276146
 31
0.0
  0
LINE
  8
0
  6
BYLAYER
 62
     7
 10
1234.177474
 20
-163.276146
 30
0.0
 11
1234.177474
 21
-171.276146
 31
0.0
  0
LINE
  8
0
  6
BYLAYER
 62
     7
 10
1236.177474
 20
-153.276146
 30
0.0
 11
1244.177474
 21
-153.276146
 31
0.0
  0
LINE
  8
0
  6
BYLAYER
 62
     7
 10
1236.177474
 20
-161.276146
 30
0.0
 11
1236.177474
 21
-153.276146
 31
0.0
  0
LINE
  8
0
  6
BYLAYER
 62
     7
 10
1236.177474
 20
-161.276146
 30
0.0
 11
1244.177474
 21
-161.276146
 31
0.0
  0
LINE
  8
0
  6
BYLAYER
 62
     7
 10
1244.177474
 20
-153.276146
 30
0.0
 11
1244.177474
 21
-161.276146
 31
0.0
  0
LINE
  8
0
  6
BYLAYER
 62
     7
 10
1236.177474
 20
-143.276146
 30
0.0
 11
1244.177474
 21
-143.276146
 31
0.0
  0
LINE
  8
0
  6
BYLAYER
 62
     7
 10
1236.177474
 20
-151.276146
 30
0.0
 11
1236.177474
 21
-143.276146
 31
0.0
  0
LINE
  8
0
  6
BYLAYER
 62
     7
 10
1236.177474
 20
-151.276146
 30
0.0
 11
1244.177474
 21
-151.276146
 31
0.0
  0
LINE
  8
0
  6
BYLAYER
 62
     7
 10
1244.177474
 20
-143.276146
 30
0.0
 11
1244.177474
 21
-151.276146
 31
0.0
  0
LINE
  8
0
  6
BYLAYER
 62
     7
 10
1236.177474
 20
-171.276146
 30
0.0
 11
1236.177474
 21
-163.276146
 31
0.0
  0
LINE
  8
0
  6
BYLAYER
 62
     7
 10
1236.177474
 20
-163.276146
 30
0.0
 11
1244.177474
 21
-163.276146
 31
0.0
  0
LINE
  8
0
  6
BYLAYER
 62
     7
 10
1236.177474
 20
-171.276146
 30
0.0
 11
1244.177474
 21
-171.276146
 31
0.0
  0
LINE
  8
0
  6
BYLAYER
 62
     7
 10
1244.177474
 20
-163.276146
 30
0.0
 11
1244.177474
 21
-171.276146
 31
0.0
  0
LINE
  8
0
  6
BYLAYER
 62
     7
 10
1186.177474
 20
-201.276146
 30
0.0
 11
1186.177474
 21
-193.276146
 31
0.0
  0
LINE
  8
0
  6
BYLAYER
 62
     7
 10
1194.177474
 20
-193.276146
 30
0.0
 11
1194.177474
 21
-201.276146
 31
0.0
  0
LINE
  8
0
  6
BYLAYER
 62
     7
 10
1196.177474
 20
-193.276146
 30
0.0
 11
1196.177474
 21
-201.276146
 31
0.0
  0
LINE
  8
0
  6
BYLAYER
 62
     7
 10
1196.177474
 20
-193.276146
 30
0.0
 11
1204.015473
 21
-193.276146
 31
0.0
  0
LINE
  8
0
  6
BYLAYER
 62
     7
 10
1186.177474
 20
-193.276146
 30
0.0
 11
1194.177474
 21
-193.276146
 31
0.0
  0
LINE
  8
0
  6
BYLAYER
 62
     7
 10
1196.177474
 20
-201.276146
 30
0.0
 11
1204.015473
 21
-201.276146
 31
0.0
  0
LINE
  8
0
  6
BYLAYER
 62
     7
 10
1186.177474
 20
-201.276146
 30
0.0
 11
1194.177474
 21
-201.276146
 31
0.0
  0
LINE
  8
0
  6
BYLAYER
 62
     7
 10
1204.015473
 20
-193.276146
 30
0.0
 11
1204.015473
 21
-201.276146
 31
0.0
  0
LINE
  8
0
  6
BYLAYER
 62
     7
 10
1206.177474
 20
-201.276146
 30
0.0
 11
1206.177474
 21
-193.276146
 31
0.0
  0
LINE
  8
0
  6
BYLAYER
 62
     7
 10
1206.177474
 20
-193.276146
 30
0.0
 11
1214.177474
 21
-193.276146
 31
0.0
  0
LINE
  8
0
  6
BYLAYER
 62
     7
 10
1206.177474
 20
-201.276146
 30
0.0
 11
1214.177474
 21
-201.276146
 31
0.0
  0
LINE
  8
0
  6
BYLAYER
 62
     7
 10
1214.177474
 20
-193.276146
 30
0.0
 11
1214.177474
 21
-201.276146
 31
0.0
  0
LINE
  8
0
  6
BYLAYER
 62
     7
 10
1216.177474
 20
-191.276146
 30
0.0
 11
1216.177474
 21
-183.276146
 31
0.0
  0
LINE
  8
0
  6
BYLAYER
 62
     7
 10
1216.177474
 20
-183.276146
 30
0.0
 11
1224.177474
 21
-183.276146
 31
0.0
  0
LINE
  8
0
  6
BYLAYER
 62
     7
 10
1216.177474
 20
-191.276146
 30
0.0
 11
1224.177474
 21
-191.276146
 31
0.0
  0
LINE
  8
0
  6
BYLAYER
 62
     7
 10
1224.177474
 20
-183.276146
 30
0.0
 11
1224.177474
 21
-191.276146
 31
0.0
  0
LINE
  8
0
  6
BYLAYER
 62
     7
 10
1226.177474
 20
-181.276146
 30
0.0
 11
1226.177474
 21
-173.276146
 31
0.0
  0
LINE
  8
0
  6
BYLAYER
 62
     7
 10
1226.177474
 20
-173.276146
 30
0.0
 11
1234.177474
 21
-173.276146
 31
0.0
  0
LINE
  8
0
  6
BYLAYER
 62
     7
 10
1226.177474
 20
-181.276146
 30
0.0
 11
1234.177474
 21
-181.276146
 31
0.0
  0
LINE
  8
0
  6
BYLAYER
 62
     7
 10
1234.177474
 20
-173.276146
 30
0.0
 11
1234.177474
 21
-181.276146
 31
0.0
  0
LINE
  8
0
  6
BYLAYER
 62
     7
 10
1184.177474
 20
-113.276146
 30
0.0
 11
1184.177474
 21
-121.276146
 31
0.0
  0
LINE
  8
0
  6
BYLAYER
 62
     7
 10
1184.177474
 20
-103.276146
 30
0.0
 11
1184.177474
 21
-111.276146
 31
0.0
  0
LINE
  8
0
  6
BYLAYER
 62
     7
 10
1176.177474
 20
-111.276146
 30
0.0
 11
1176.177474
 21
-103.276146
 31
0.0
  0
LINE
  8
0
  6
BYLAYER
 62
     7
 10
1174.177474
 20
-111.276146
 30
0.0
 11
1174.177474
 21
-103.276146
 31
0.0
  0
LINE
  8
0
  6
BYLAYER
 62
     7
 10
1184.177474
 20
-121.276146
 30
0.0
 11
1176.177474
 21
-121.276146
 31
0.0
  0
LINE
  8
0
  6
BYLAYER
 62
     7
 10
1184.177474
 20
-113.276146
 30
0.0
 11
1176.177474
 21
-113.276146
 31
0.0
  0
LINE
  8
0
  6
BYLAYER
 62
     7
 10
1174.177474
 20
-111.276146
 30
0.0
 11
1166.339475
 21
-111.276146
 31
0.0
  0
LINE
  8
0
  6
BYLAYER
 62
     7
 10
1184.177474
 20
-111.276146
 30
0.0
 11
1176.177474
 21
-111.276146
 31
0.0
  0
LINE
  8
0
  6
BYLAYER
 62
     7
 10
1174.177474
 20
-103.276146
 30
0.0
 11
1166.339475
 21
-103.276146
 31
0.0
  0
LINE
  8
0
  6
BYLAYER
 62
     7
 10
1184.177474
 20
-103.276146
 30
0.0
 11
1176.177474
 21
-103.276146
 31
0.0
  0
LINE
  8
0
  6
BYLAYER
 62
     7
 10
1166.339475
 20
-111.276146
 30
0.0
 11
1166.339475
 21
-103.276146
 31
0.0
  0
LINE
  8
0
  6
BYLAYER
 62
     7
 10
1176.177474
 20
-121.276146
 30
0.0
 11
1176.177474
 21
-113.276146
 31
0.0
  0
LINE
  8
0
  6
BYLAYER
 62
     7
 10
1174.177474
 20
-113.276146
 30
0.0
 11
1174.177474
 21
-121.276146
 31
0.0
  0
LINE
  8
0
  6
BYLAYER
 62
     7
 10
1174.177474
 20
-121.276146
 30
0.0
 11
1166.177474
 21
-121.276146
 31
0.0
  0
LINE
  8
0
  6
BYLAYER
 62
     7
 10
1174.177474
 20
-113.276146
 30
0.0
 11
1166.177474
 21
-113.276146
 31
0.0
  0
LINE
  8
0
  6
BYLAYER
 62
     7
 10
1166.177474
 20
-121.276146
 30
0.0
 11
1166.177474
 21
-113.276146
 31
0.0
  0
LINE
  8
0
  6
BYLAYER
 62
     7
 10
1164.177474
 20
-131.276146
 30
0.0
 11
1156.177474
 21
-131.276146
 31
0.0
  0
LINE
  8
0
  6
BYLAYER
 62
     7
 10
1164.177474
 20
-113.276146
 30
0.0
 11
1164.177474
 21
-121.276146
 31
0.0
  0
LINE
  8
0
  6
BYLAYER
 62
     7
 10
1164.177474
 20
-123.276146
 30
0.0
 11
1164.177474
 21
-131.276146
 31
0.0
  0
LINE
  8
0
  6
BYLAYER
 62
     7
 10
1164.177474
 20
-123.276146
 30
0.0
 11
1156.177474
 21
-123.276146
 31
0.0
  0
LINE
  8
0
  6
BYLAYER
 62
     7
 10
1164.177474
 20
-121.276146
 30
0.0
 11
1156.177474
 21
-121.276146
 31
0.0
  0
LINE
  8
0
  6
BYLAYER
 62
     7
 10
1164.177474
 20
-113.276146
 30
0.0
 11
1156.177474
 21
-113.276146
 31
0.0
  0
LINE
  8
0
  6
BYLAYER
 62
     7
 10
1156.177474
 20
-131.276146
 30
0.0
 11
1156.177474
 21
-123.276146
 31
0.0
  0
LINE
  8
0
  6
BYLAYER
 62
     7
 10
1156.177474
 20
-121.276146
 30
0.0
 11
1156.177474
 21
-113.276146
 31
0.0
  0
LINE
  8
0
  6
BYLAYER
 62
     7
 10
1164.177474
 20
-141.276146
 30
0.0
 11
1156.177474
 21
-141.276146
 31
0.0
  0
LINE
  8
0
  6
BYLAYER
 62
     7
 10
1164.177474
 20
-133.276146
 30
0.0
 11
1164.177474
 21
-141.276146
 31
0.0
  0
LINE
  8
0
  6
BYLAYER
 62
     7
 10
1164.177474
 20
-133.276146
 30
0.0
 11
1156.177474
 21
-133.276146
 31
0.0
  0
LINE
  8
0
  6
BYLAYER
 62
     7
 10
1156.177474
 20
-141.276146
 30
0.0
 11
1156.177474
 21
-133.276146
 31
0.0
  0
LINE
  8
0
  6
BYLAYER
 62
     7
 10
1154.177474
 20
-131.276146
 30
0.0
 11
1146.177474
 21
-131.276146
 31
0.0
  0
LINE
  8
0
  6
BYLAYER
 62
     7
 10
1154.177474
 20
-123.276146
 30
0.0
 11
1154.177474
 21
-131.276146
 31
0.0
  0
LINE
  8
0
  6
BYLAYER
 62
     7
 10
1154.177474
 20
-123.276146
 30
0.0
 11
1146.177474
 21
-123.276146
 31
0.0
  0
LINE
  8
0
  6
BYLAYER
 62
     7
 10
1146.177474
 20
-131.276146
 30
0.0
 11
1146.177474
 21
-123.276146
 31
0.0
  0
LINE
  8
0
  6
BYLAYER
 62
     7
 10
1154.177474
 20
-141.276146
 30
0.0
 11
1146.177474
 21
-141.276146
 31
0.0
  0
LINE
  8
0
  6
BYLAYER
 62
     7
 10
1154.177474
 20
-133.276146
 30
0.0
 11
1154.177474
 21
-141.276146
 31
0.0
  0
LINE
  8
0
  6
BYLAYER
 62
     7
 10
1154.177474
 20
-133.276146
 30
0.0
 11
1146.177474
 21
-133.276146
 31
0.0
  0
LINE
  8
0
  6
BYLAYER
 62
     7
 10
1146.177474
 20
-141.276146
 30
0.0
 11
1146.177474
 21
-133.276146
 31
0.0
  0
LINE
  8
0
  6
BYLAYER
 62
     7
 10
1144.177474
 20
-131.276146
 30
0.0
 11
1136.177474
 21
-131.276146
 31
0.0
  0
LINE
  8
0
  6
BYLAYER
 62
     7
 10
1144.177474
 20
-123.276146
 30
0.0
 11
1144.177474
 21
-131.276146
 31
0.0
  0
LINE
  8
0
  6
BYLAYER
 62
     7
 10
1144.177474
 20
-123.276146
 30
0.0
 11
1136.177474
 21
-123.276146
 31
0.0
  0
LINE
  8
0
  6
BYLAYER
 62
     7
 10
1136.177474
 20
-131.276146
 30
0.0
 11
1136.177474
 21
-123.276146
 31
0.0
  0
LINE
  8
0
  6
BYLAYER
 62
     7
 10
1144.177474
 20
-141.276146
 30
0.0
 11
1136.177474
 21
-141.276146
 31
0.0
  0
LINE
  8
0
  6
BYLAYER
 62
     7
 10
1144.177474
 20
-133.276146
 30
0.0
 11
1144.177474
 21
-141.276146
 31
0.0
  0
LINE
  8
0
  6
BYLAYER
 62
     7
 10
1144.177474
 20
-133.276146
 30
0.0
 11
1136.177474
 21
-133.276146
 31
0.0
  0
LINE
  8
0
  6
BYLAYER
 62
     7
 10
1136.177474
 20
-141.276146
 30
0.0
 11
1136.177474
 21
-133.276146
 31
0.0
  0
LINE
  8
0
  6
BYLAYER
 62
     7
 10
1184.177474
 20
-93.276146
 30
0.0
 11
1184.177474
 21
-101.276146
 31
0.0
  0
LINE
  8
0
  6
BYLAYER
 62
     7
 10
1176.177474
 20
-101.276146
 30
0.0
 11
1176.177474
 21
-93.276146
 31
0.0
  0
LINE
  8
0
  6
BYLAYER
 62
     7
 10
1174.177474
 20
-101.276146
 30
0.0
 11
1174.177474
 21
-93.276146
 31
0.0
  0
LINE
  8
0
  6
BYLAYER
 62
     7
 10
1174.177474
 20
-101.276146
 30
0.0
 11
1166.339475
 21
-101.276146
 31
0.0
  0
LINE
  8
0
  6
BYLAYER
 62
     7
 10
1184.177474
 20
-101.276146
 30
0.0
 11
1176.177474
 21
-101.276146
 31
0.0
  0
LINE
  8
0
  6
BYLAYER
 62
     7
 10
1174.177474
 20
-93.276146
 30
0.0
 11
1166.339475
 21
-93.276146
 31
0.0
  0
LINE
  8
0
  6
BYLAYER
 62
     7
 10
1184.177474
 20
-93.276146
 30
0.0
 11
1176.177474
 21
-93.276146
 31
0.0
  0
LINE
  8
0
  6
BYLAYER
 62
     7
 10
1166.339475
 20
-101.276146
 30
0.0
 11
1166.339475
 21
-93.276146
 31
0.0
  0
LINE
  8
0
  6
BYLAYER
 62
     7
 10
1164.177474
 20
-103.276146
 30
0.0
 11
1164.177474
 21
-111.276146
 31
0.0
  0
LINE
  8
0
  6
BYLAYER
 62
     7
 10
1164.177474
 20
-111.276146
 30
0.0
 11
1156.177474
 21
-111.276146
 31
0.0
  0
LINE
  8
0
  6
BYLAYER
 62
     7
 10
1164.177474
 20
-103.276146
 30
0.0
 11
1156.177474
 21
-103.276146
 31
0.0
  0
LINE
  8
0
  6
BYLAYER
 62
     7
 10
1156.177474
 20
-111.276146
 30
0.0
 11
1156.177474
 21
-103.276146
 31
0.0
  0
LINE
  8
0
  6
BYLAYER
 62
     7
 10
1164.177474
 20
-93.276146
 30
0.0
 11
1164.177474
 21
-101.276146
 31
0.0
  0
LINE
  8
0
  6
BYLAYER
 62
     7
 10
1164.177474
 20
-101.276146
 30
0.0
 11
1156.177474
 21
-101.276146
 31
0.0
  0
LINE
  8
0
  6
BYLAYER
 62
     7
 10
1164.177474
 20
-93.276146
 30
0.0
 11
1156.177474
 21
-93.276146
 31
0.0
  0
LINE
  8
0
  6
BYLAYER
 62
     7
 10
1156.177474
 20
-101.276146
 30
0.0
 11
1156.177474
 21
-93.276146
 31
0.0
  0
LINE
  8
0
  6
BYLAYER
 62
     7
 10
1154.177474
 20
-113.276146
 30
0.0
 11
1154.177474
 21
-121.276146
 31
0.0
  0
LINE
  8
0
  6
BYLAYER
 62
     7
 10
1154.177474
 20
-121.276146
 30
0.0
 11
1146.177474
 21
-121.276146
 31
0.0
  0
LINE
  8
0
  6
BYLAYER
 62
     7
 10
1154.177474
 20
-113.276146
 30
0.0
 11
1146.177474
 21
-113.276146
 31
0.0
  0
LINE
  8
0
  6
BYLAYER
 62
     7
 10
1146.177474
 20
-121.276146
 30
0.0
 11
1146.177474
 21
-113.276146
 31
0.0
  0
LINE
  8
0
  6
BYLAYER
 62
     7
 10
1154.177474
 20
-103.276146
 30
0.0
 11
1154.177474
 21
-111.276146
 31
0.0
  0
LINE
  8
0
  6
BYLAYER
 62
     7
 10
1154.177474
 20
-111.276146
 30
0.0
 11
1146.177474
 21
-111.276146
 31
0.0
  0
LINE
  8
0
  6
BYLAYER
 62
     7
 10
1154.177474
 20
-103.276146
 30
0.0
 11
1146.177474
 21
-103.276146
 31
0.0
  0
LINE
  8
0
  6
BYLAYER
 62
     7
 10
1146.177474
 20
-111.276146
 30
0.0
 11
1146.177474
 21
-103.276146
 31
0.0
  0
LINE
  8
0
  6
BYLAYER
 62
     7
 10
1144.177474
 20
-113.276146
 30
0.0
 11
1144.177474
 21
-121.276146
 31
0.0
  0
LINE
  8
0
  6
BYLAYER
 62
     7
 10
1144.177474
 20
-121.276146
 30
0.0
 11
1136.177474
 21
-121.276146
 31
0.0
  0
LINE
  8
0
  6
BYLAYER
 62
     7
 10
1144.177474
 20
-113.276146
 30
0.0
 11
1136.177474
 21
-113.276146
 31
0.0
  0
LINE
  8
0
  6
BYLAYER
 62
     7
 10
1136.177474
 20
-121.276146
 30
0.0
 11
1136.177474
 21
-113.276146
 31
0.0
  0
LINE
  8
0
  6
BYLAYER
 62
     7
 10
1134.177474
 20
-131.276146
 30
0.0
 11
1126.177474
 21
-131.276146
 31
0.0
  0
LINE
  8
0
  6
BYLAYER
 62
     7
 10
1134.177474
 20
-123.276146
 30
0.0
 11
1134.177474
 21
-131.276146
 31
0.0
  0
LINE
  8
0
  6
BYLAYER
 62
     7
 10
1134.177474
 20
-123.276146
 30
0.0
 11
1126.177474
 21
-123.276146
 31
0.0
  0
LINE
  8
0
  6
BYLAYER
 62
     7
 10
1126.177474
 20
-131.276146
 30
0.0
 11
1126.177474
 21
-123.276146
 31
0.0
  0
LINE
  8
0
  6
BYLAYER
 62
     7
 10
1134.177474
 20
-141.276146
 30
0.0
 11
1126.177474
 21
-141.276146
 31
0.0
  0
LINE
  8
0
  6
BYLAYER
 62
     7
 10
1134.177474
 20
-133.276146
 30
0.0
 11
1134.177474
 21
-141.276146
 31
0.0
  0
LINE
  8
0
  6
BYLAYER
 62
     7
 10
1134.177474
 20
-133.276146
 30
0.0
 11
1126.177474
 21
-133.276146
 31
0.0
  0
LINE
  8
0
  6
BYLAYER
 62
     7
 10
1126.177474
 20
-141.276146
 30
0.0
 11
1126.177474
 21
-133.276146
 31
0.0
  0
LINE
  8
0
  6
BYLAYER
 62
     7
 10
1134.177474
 20
-113.276146
 30
0.0
 11
1134.177474
 21
-121.276146
 31
0.0
  0
LINE
  8
0
  6
BYLAYER
 62
     7
 10
1134.177474
 20
-121.276146
 30
0.0
 11
1126.177474
 21
-121.276146
 31
0.0
  0
LINE
  8
0
  6
BYLAYER
 62
     7
 10
1134.177474
 20
-113.276146
 30
0.0
 11
1126.177474
 21
-113.276146
 31
0.0
  0
LINE
  8
0
  6
BYLAYER
 62
     7
 10
1126.177474
 20
-121.276146
 30
0.0
 11
1126.177474
 21
-113.276146
 31
0.0
  0
LINE
  8
0
  6
BYLAYER
 62
     7
 10
1184.177474
 20
-83.276146
 30
0.0
 11
1184.177474
 21
-91.276146
 31
0.0
  0
LINE
  8
0
  6
BYLAYER
 62
     7
 10
1176.177474
 20
-91.276146
 30
0.0
 11
1176.177474
 21
-83.276146
 31
0.0
  0
LINE
  8
0
  6
BYLAYER
 62
     7
 10
1174.177474
 20
-91.276146
 30
0.0
 11
1174.177474
 21
-83.276146
 31
0.0
  0
LINE
  8
0
  6
BYLAYER
 62
     7
 10
1174.177474
 20
-91.276146
 30
0.0
 11
1166.339475
 21
-91.276146
 31
0.0
  0
LINE
  8
0
  6
BYLAYER
 62
     7
 10
1184.177474
 20
-91.276146
 30
0.0
 11
1176.177474
 21
-91.276146
 31
0.0
  0
LINE
  8
0
  6
BYLAYER
 62
     7
 10
1174.177474
 20
-83.276146
 30
0.0
 11
1166.339475
 21
-83.276146
 31
0.0
  0
LINE
  8
0
  6
BYLAYER
 62
     7
 10
1184.177474
 20
-83.276146
 30
0.0
 11
1176.177474
 21
-83.276146
 31
0.0
  0
LINE
  8
0
  6
BYLAYER
 62
     7
 10
1166.339475
 20
-91.276146
 30
0.0
 11
1166.339475
 21
-83.276146
 31
0.0
  0
LINE
  8
0
  6
BYLAYER
 62
     7
 10
1164.177474
 20
-83.276146
 30
0.0
 11
1164.177474
 21
-91.276146
 31
0.0
  0
LINE
  8
0
  6
BYLAYER
 62
     7
 10
1164.177474
 20
-91.276146
 30
0.0
 11
1156.177474
 21
-91.276146
 31
0.0
  0
LINE
  8
0
  6
BYLAYER
 62
     7
 10
1164.177474
 20
-83.276146
 30
0.0
 11
1156.177474
 21
-83.276146
 31
0.0
  0
LINE
  8
0
  6
BYLAYER
 62
     7
 10
1156.177474
 20
-91.276146
 30
0.0
 11
1156.177474
 21
-83.276146
 31
0.0
  0
LINE
  8
0
  6
BYLAYER
 62
     7
 10
1154.177474
 20
-93.276146
 30
0.0
 11
1154.177474
 21
-101.276146
 31
0.0
  0
LINE
  8
0
  6
BYLAYER
 62
     7
 10
1154.177474
 20
-101.276146
 30
0.0
 11
1146.177474
 21
-101.276146
 31
0.0
  0
LINE
  8
0
  6
BYLAYER
 62
     7
 10
1154.177474
 20
-93.276146
 30
0.0
 11
1146.177474
 21
-93.276146
 31
0.0
  0
LINE
  8
0
  6
BYLAYER
 62
     7
 10
1146.177474
 20
-101.276146
 30
0.0
 11
1146.177474
 21
-93.276146
 31
0.0
  0
LINE
  8
0
  6
BYLAYER
 62
     7
 10
1144.177474
 20
-103.276146
 30
0.0
 11
1144.177474
 21
-111.276146
 31
0.0
  0
LINE
  8
0
  6
BYLAYER
 62
     7
 10
1144.177474
 20
-111.276146
 30
0.0
 11
1136.177474
 21
-111.276146
 31
0.0
  0
LINE
  8
0
  6
BYLAYER
 62
     7
 10
1144.177474
 20
-103.276146
 30
0.0
 11
1136.177474
 21
-103.276146
 31
0.0
  0
LINE
  8
0
  6
BYLAYER
 62
     7
 10
1136.177474
 20
-111.276146
 30
0.0
 11
1136.177474
 21
-103.276146
 31
0.0
  0
LINE
  8
0
  6
BYLAYER
 62
     7
 10
1184.177474
 20
-171.276146
 30
0.0
 11
1184.177474
 21
-163.276146
 31
0.0
  0
LINE
  8
0
  6
BYLAYER
 62
     7
 10
1184.177474
 20
-181.276146
 30
0.0
 11
1184.177474
 21
-173.276146
 31
0.0
  0
LINE
  8
0
  6
BYLAYER
 62
     7
 10
1176.177474
 20
-173.276146
 30
0.0
 11
1176.177474
 21
-181.276146
 31
0.0
  0
LINE
  8
0
  6
BYLAYER
 62
     7
 10
1174.177474
 20
-173.276146
 30
0.0
 11
1174.177474
 21
-181.276146
 31
0.0
  0
LINE
  8
0
  6
BYLAYER
 62
     7
 10
1184.177474
 20
-163.276146
 30
0.0
 11
1176.177474
 21
-163.276146
 31
0.0
  0
LINE
  8
0
  6
BYLAYER
 62
     7
 10
1184.177474
 20
-171.276146
 30
0.0
 11
1176.177474
 21
-171.276146
 31
0.0
  0
LINE
  8
0
  6
BYLAYER
 62
     7
 10
1174.177474
 20
-173.276146
 30
0.0
 11
1166.339475
 21
-173.276146
 31
0.0
  0
LINE
  8
0
  6
BYLAYER
 62
     7
 10
1184.177474
 20
-173.276146
 30
0.0
 11
1176.177474
 21
-173.276146
 31
0.0
  0
LINE
  8
0
  6
BYLAYER
 62
     7
 10
1174.177474
 20
-181.276146
 30
0.0
 11
1166.339475
 21
-181.276146
 31
0.0
  0
LINE
  8
0
  6
BYLAYER
 62
     7
 10
1184.177474
 20
-181.276146
 30
0.0
 11
1176.177474
 21
-181.276146
 31
0.0
  0
LINE
  8
0
  6
BYLAYER
 62
     7
 10
1166.339475
 20
-173.276146
 30
0.0
 11
1166.339475
 21
-181.276146
 31
0.0
  0
LINE
  8
0
  6
BYLAYER
 62
     7
 10
1176.177474
 20
-163.276146
 30
0.0
 11
1176.177474
 21
-171.276146
 31
0.0
  0
LINE
  8
0
  6
BYLAYER
 62
     7
 10
1174.177474
 20
-171.276146
 30
0.0
 11
1174.177474
 21
-163.276146
 31
0.0
  0
LINE
  8
0
  6
BYLAYER
 62
     7
 10
1174.177474
 20
-163.276146
 30
0.0
 11
1166.177474
 21
-163.276146
 31
0.0
  0
LINE
  8
0
  6
BYLAYER
 62
     7
 10
1174.177474
 20
-171.276146
 30
0.0
 11
1166.177474
 21
-171.276146
 31
0.0
  0
LINE
  8
0
  6
BYLAYER
 62
     7
 10
1166.177474
 20
-163.276146
 30
0.0
 11
1166.177474
 21
-171.276146
 31
0.0
  0
LINE
  8
0
  6
BYLAYER
 62
     7
 10
1164.177474
 20
-153.276146
 30
0.0
 11
1156.177474
 21
-153.276146
 31
0.0
  0
LINE
  8
0
  6
BYLAYER
 62
     7
 10
1164.177474
 20
-171.276146
 30
0.0
 11
1164.177474
 21
-163.276146
 31
0.0
  0
LINE
  8
0
  6
BYLAYER
 62
     7
 10
1164.177474
 20
-161.276146
 30
0.0
 11
1164.177474
 21
-153.276146
 31
0.0
  0
LINE
  8
0
  6
BYLAYER
 62
     7
 10
1164.177474
 20
-161.276146
 30
0.0
 11
1156.177474
 21
-161.276146
 31
0.0
  0
LINE
  8
0
  6
BYLAYER
 62
     7
 10
1164.177474
 20
-163.276146
 30
0.0
 11
1156.177474
 21
-163.276146
 31
0.0
  0
LINE
  8
0
  6
BYLAYER
 62
     7
 10
1164.177474
 20
-171.276146
 30
0.0
 11
1156.177474
 21
-171.276146
 31
0.0
  0
LINE
  8
0
  6
BYLAYER
 62
     7
 10
1156.177474
 20
-153.276146
 30
0.0
 11
1156.177474
 21
-161.276146
 31
0.0
  0
LINE
  8
0
  6
BYLAYER
 62
     7
 10
1156.177474
 20
-163.276146
 30
0.0
 11
1156.177474
 21
-171.276146
 31
0.0
  0
LINE
  8
0
  6
BYLAYER
 62
     7
 10
1164.177474
 20
-143.276146
 30
0.0
 11
1156.177474
 21
-143.276146
 31
0.0
  0
LINE
  8
0
  6
BYLAYER
 62
     7
 10
1164.177474
 20
-151.276146
 30
0.0
 11
1164.177474
 21
-143.276146
 31
0.0
  0
LINE
  8
0
  6
BYLAYER
 62
     7
 10
1164.177474
 20
-151.276146
 30
0.0
 11
1156.177474
 21
-151.276146
 31
0.0
  0
LINE
  8
0
  6
BYLAYER
 62
     7
 10
1156.177474
 20
-143.276146
 30
0.0
 11
1156.177474
 21
-151.276146
 31
0.0
  0
LINE
  8
0
  6
BYLAYER
 62
     7
 10
1154.177474
 20
-153.276146
 30
0.0
 11
1146.177474
 21
-153.276146
 31
0.0
  0
LINE
  8
0
  6
BYLAYER
 62
     7
 10
1154.177474
 20
-161.276146
 30
0.0
 11
1154.177474
 21
-153.276146
 31
0.0
  0
LINE
  8
0
  6
BYLAYER
 62
     7
 10
1154.177474
 20
-161.276146
 30
0.0
 11
1146.177474
 21
-161.276146
 31
0.0
  0
LINE
  8
0
  6
BYLAYER
 62
     7
 10
1146.177474
 20
-153.276146
 30
0.0
 11
1146.177474
 21
-161.276146
 31
0.0
  0
LINE
  8
0
  6
BYLAYER
 62
     7
 10
1154.177474
 20
-143.276146
 30
0.0
 11
1146.177474
 21
-143.276146
 31
0.0
  0
LINE
  8
0
  6
BYLAYER
 62
     7
 10
1154.177474
 20
-151.276146
 30
0.0
 11
1154.177474
 21
-143.276146
 31
0.0
  0
LINE
  8
0
  6
BYLAYER
 62
     7
 10
1154.177474
 20
-151.276146
 30
0.0
 11
1146.177474
 21
-151.276146
 31
0.0
  0
LINE
  8
0
  6
BYLAYER
 62
     7
 10
1146.177474
 20
-143.276146
 30
0.0
 11
1146.177474
 21
-151.276146
 31
0.0
  0
LINE
  8
0
  6
BYLAYER
 62
     7
 10
1144.177474
 20
-153.276146
 30
0.0
 11
1136.177474
 21
-153.276146
 31
0.0
  0
LINE
  8
0
  6
BYLAYER
 62
     7
 10
1144.177474
 20
-161.276146
 30
0.0
 11
1144.177474
 21
-153.276146
 31
0.0
  0
LINE
  8
0
  6
BYLAYER
 62
     7
 10
1144.177474
 20
-161.276146
 30
0.0
 11
1136.177474
 21
-161.276146
 31
0.0
  0
LINE
  8
0
  6
BYLAYER
 62
     7
 10
1136.177474
 20
-153.276146
 30
0.0
 11
1136.177474
 21
-161.276146
 31
0.0
  0
LINE
  8
0
  6
BYLAYER
 62
     7
 10
1144.177474
 20
-143.276146
 30
0.0
 11
1136.177474
 21
-143.276146
 31
0.0
  0
LINE
  8
0
  6
BYLAYER
 62
     7
 10
1144.177474
 20
-151.276146
 30
0.0
 11
1144.177474
 21
-143.276146
 31
0.0
  0
LINE
  8
0
  6
BYLAYER
 62
     7
 10
1144.177474
 20
-151.276146
 30
0.0
 11
1136.177474
 21
-151.276146
 31
0.0
  0
LINE
  8
0
  6
BYLAYER
 62
     7
 10
1136.177474
 20
-143.276146
 30
0.0
 11
1136.177474
 21
-151.276146
 31
0.0
  0
LINE
  8
0
  6
BYLAYER
 62
     7
 10
1184.177474
 20
-191.276146
 30
0.0
 11
1184.177474
 21
-183.276146
 31
0.0
  0
LINE
  8
0
  6
BYLAYER
 62
     7
 10
1176.177474
 20
-183.276146
 30
0.0
 11
1176.177474
 21
-191.276146
 31
0.0
  0
LINE
  8
0
  6
BYLAYER
 62
     7
 10
1174.177474
 20
-183.276146
 30
0.0
 11
1174.177474
 21
-191.276146
 31
0.0
  0
LINE
  8
0
  6
BYLAYER
 62
     7
 10
1174.177474
 20
-183.276146
 30
0.0
 11
1166.339475
 21
-183.276146
 31
0.0
  0
LINE
  8
0
  6
BYLAYER
 62
     7
 10
1184.177474
 20
-183.276146
 30
0.0
 11
1176.177474
 21
-183.276146
 31
0.0
  0
LINE
  8
0
  6
BYLAYER
 62
     7
 10
1174.177474
 20
-191.276146
 30
0.0
 11
1166.339475
 21
-191.276146
 31
0.0
  0
LINE
  8
0
  6
BYLAYER
 62
     7
 10
1184.177474
 20
-191.276146
 30
0.0
 11
1176.177474
 21
-191.276146
 31
0.0
  0
LINE
  8
0
  6
BYLAYER
 62
     7
 10
1166.339475
 20
-183.276146
 30
0.0
 11
1166.339475
 21
-191.276146
 31
0.0
  0
LINE
  8
0
  6
BYLAYER
 62
     7
 10
1164.177474
 20
-181.276146
 30
0.0
 11
1164.177474
 21
-173.276146
 31
0.0
  0
LINE
  8
0
  6
BYLAYER
 62
     7
 10
1164.177474
 20
-173.276146
 30
0.0
 11
1156.177474
 21
-173.276146
 31
0.0
  0
LINE
  8
0
  6
BYLAYER
 62
     7
 10
1164.177474
 20
-181.276146
 30
0.0
 11
1156.177474
 21
-181.276146
 31
0.0
  0
LINE
  8
0
  6
BYLAYER
 62
     7
 10
1156.177474
 20
-173.276146
 30
0.0
 11
1156.177474
 21
-181.276146
 31
0.0
  0
LINE
  8
0
  6
BYLAYER
 62
     7
 10
1164.177474
 20
-191.276146
 30
0.0
 11
1164.177474
 21
-183.276146
 31
0.0
  0
LINE
  8
0
  6
BYLAYER
 62
     7
 10
1164.177474
 20
-183.276146
 30
0.0
 11
1156.177474
 21
-183.276146
 31
0.0
  0
LINE
  8
0
  6
BYLAYER
 62
     7
 10
1164.177474
 20
-191.276146
 30
0.0
 11
1156.177474
 21
-191.276146
 31
0.0
  0
LINE
  8
0
  6
BYLAYER
 62
     7
 10
1156.177474
 20
-183.276146
 30
0.0
 11
1156.177474
 21
-191.276146
 31
0.0
  0
LINE
  8
0
  6
BYLAYER
 62
     7
 10
1154.177474
 20
-171.276146
 30
0.0
 11
1154.177474
 21
-163.276146
 31
0.0
  0
LINE
  8
0
  6
BYLAYER
 62
     7
 10
1154.177474
 20
-163.276146
 30
0.0
 11
1146.177474
 21
-163.276146
 31
0.0
  0
LINE
  8
0
  6
BYLAYER
 62
     7
 10
1154.177474
 20
-171.276146
 30
0.0
 11
1146.177474
 21
-171.276146
 31
0.0
  0
LINE
  8
0
  6
BYLAYER
 62
     7
 10
1146.177474
 20
-163.276146
 30
0.0
 11
1146.177474
 21
-171.276146
 31
0.0
  0
LINE
  8
0
  6
BYLAYER
 62
     7
 10
1154.177474
 20
-181.276146
 30
0.0
 11
1154.177474
 21
-173.276146
 31
0.0
  0
LINE
  8
0
  6
BYLAYER
 62
     7
 10
1154.177474
 20
-173.276146
 30
0.0
 11
1146.177474
 21
-173.276146
 31
0.0
  0
LINE
  8
0
  6
BYLAYER
 62
     7
 10
1154.177474
 20
-181.276146
 30
0.0
 11
1146.177474
 21
-181.276146
 31
0.0
  0
LINE
  8
0
  6
BYLAYER
 62
     7
 10
1146.177474
 20
-173.276146
 30
0.0
 11
1146.177474
 21
-181.276146
 31
0.0
  0
LINE
  8
0
  6
BYLAYER
 62
     7
 10
1144.177474
 20
-171.276146
 30
0.0
 11
1144.177474
 21
-163.276146
 31
0.0
  0
LINE
  8
0
  6
BYLAYER
 62
     7
 10
1144.177474
 20
-163.276146
 30
0.0
 11
1136.177474
 21
-163.276146
 31
0.0
  0
LINE
  8
0
  6
BYLAYER
 62
     7
 10
1144.177474
 20
-171.276146
 30
0.0
 11
1136.177474
 21
-171.276146
 31
0.0
  0
LINE
  8
0
  6
BYLAYER
 62
     7
 10
1136.177474
 20
-163.276146
 30
0.0
 11
1136.177474
 21
-171.276146
 31
0.0
  0
LINE
  8
0
  6
BYLAYER
 62
     7
 10
1134.177474
 20
-153.276146
 30
0.0
 11
1126.177474
 21
-153.276146
 31
0.0
  0
LINE
  8
0
  6
BYLAYER
 62
     7
 10
1134.177474
 20
-161.276146
 30
0.0
 11
1134.177474
 21
-153.276146
 31
0.0
  0
LINE
  8
0
  6
BYLAYER
 62
     7
 10
1134.177474
 20
-161.276146
 30
0.0
 11
1126.177474
 21
-161.276146
 31
0.0
  0
LINE
  8
0
  6
BYLAYER
 62
     7
 10
1126.177474
 20
-153.276146
 30
0.0
 11
1126.177474
 21
-161.276146
 31
0.0
  0
LINE
  8
0
  6
BYLAYER
 62
     7
 10
1134.177474
 20
-143.276146
 30
0.0
 11
1126.177474
 21
-143.276146
 31
0.0
  0
LINE
  8
0
  6
BYLAYER
 62
     7
 10
1134.177474
 20
-151.276146
 30
0.0
 11
1134.177474
 21
-143.276146
 31
0.0
  0
LINE
  8
0
  6
BYLAYER
 62
     7
 10
1134.177474
 20
-151.276146
 30
0.0
 11
1126.177474
 21
-151.276146
 31
0.0
  0
LINE
  8
0
  6
BYLAYER
 62
     7
 10
1126.177474
 20
-143.276146
 30
0.0
 11
1126.177474
 21
-151.276146
 31
0.0
  0
LINE
  8
0
  6
BYLAYER
 62
     7
 10
1134.177474
 20
-171.276146
 30
0.0
 11
1134.177474
 21
-163.276146
 31
0.0
  0
LINE
  8
0
  6
BYLAYER
 62
     7
 10
1134.177474
 20
-163.276146
 30
0.0
 11
1126.177474
 21
-163.276146
 31
0.0
  0
LINE
  8
0
  6
BYLAYER
 62
     7
 10
1134.177474
 20
-171.276146
 30
0.0
 11
1126.177474
 21
-171.276146
 31
0.0
  0
LINE
  8
0
  6
BYLAYER
 62
     7
 10
1126.177474
 20
-163.276146
 30
0.0
 11
1126.177474
 21
-171.276146
 31
0.0
  0
LINE
  8
0
  6
BYLAYER
 62
     7
 10
1184.177474
 20
-201.276146
 30
0.0
 11
1184.177474
 21
-193.276146
 31
0.0
  0
LINE
  8
0
  6
BYLAYER
 62
     7
 10
1176.177474
 20
-193.276146
 30
0.0
 11
1176.177474
 21
-201.276146
 31
0.0
  0
LINE
  8
0
  6
BYLAYER
 62
     7
 10
1174.177474
 20
-193.276146
 30
0.0
 11
1174.177474
 21
-201.276146
 31
0.0
  0
LINE
  8
0
  6
BYLAYER
 62
     7
 10
1174.177474
 20
-193.276146
 30
0.0
 11
1166.339475
 21
-193.276146
 31
0.0
  0
LINE
  8
0
  6
BYLAYER
 62
     7
 10
1184.177474
 20
-193.276146
 30
0.0
 11
1176.177474
 21
-193.276146
 31
0.0
  0
LINE
  8
0
  6
BYLAYER
 62
     7
 10
1174.177474
 20
-201.276146
 30
0.0
 11
1166.339475
 21
-201.276146
 31
0.0
  0
LINE
  8
0
  6
BYLAYER
 62
     7
 10
1184.177474
 20
-201.276146
 30
0.0
 11
1176.177474
 21
-201.276146
 31
0.0
  0
LINE
  8
0
  6
BYLAYER
 62
     7
 10
1166.339475
 20
-193.276146
 30
0.0
 11
1166.339475
 21
-201.276146
 31
0.0
  0
LINE
  8
0
  6
BYLAYER
 62
     7
 10
1164.177474
 20
-201.276146
 30
0.0
 11
1164.177474
 21
-193.276146
 31
0.0
  0
LINE
  8
0
  6
BYLAYER
 62
     7
 10
1164.177474
 20
-193.276146
 30
0.0
 11
1156.177474
 21
-193.276146
 31
0.0
  0
LINE
  8
0
  6
BYLAYER
 62
     7
 10
1164.177474
 20
-201.276146
 30
0.0
 11
1156.177474
 21
-201.276146
 31
0.0
  0
LINE
  8
0
  6
BYLAYER
 62
     7
 10
1156.177474
 20
-193.276146
 30
0.0
 11
1156.177474
 21
-201.276146
 31
0.0
  0
LINE
  8
0
  6
BYLAYER
 62
     7
 10
1154.177474
 20
-191.276146
 30
0.0
 11
1154.177474
 21
-183.276146
 31
0.0
  0
LINE
  8
0
  6
BYLAYER
 62
     7
 10
1154.177474
 20
-183.276146
 30
0.0
 11
1146.177474
 21
-183.276146
 31
0.0
  0
LINE
  8
0
  6
BYLAYER
 62
     7
 10
1154.177474
 20
-191.276146
 30
0.0
 11
1146.177474
 21
-191.276146
 31
0.0
  0
LINE
  8
0
  6
BYLAYER
 62
     7
 10
1146.177474
 20
-183.276146
 30
0.0
 11
1146.177474
 21
-191.276146
 31
0.0
  0
LINE
  8
0
  6
BYLAYER
 62
     7
 10
1144.177474
 20
-181.276146
 30
0.0
 11
1144.177474
 21
-173.276146
 31
0.0
  0
LINE
  8
0
  6
BYLAYER
 62
     7
 10
1144.177474
 20
-173.276146
 30
0.0
 11
1136.177474
 21
-173.276146
 31
0.0
  0
LINE
  8
0
  6
BYLAYER
 62
     7
 10
1144.177474
 20
-181.276146
 30
0.0
 11
1136.177474
 21
-181.276146
 31
0.0
  0
LINE
  8
0
  6
BYLAYER
 62
     7
 10
1136.177474
 20
-173.276146
 30
0.0
 11
1136.177474
 21
-181.276146
 31
0.0
  0
CIRCLE
  8
0
  6
BYLAYER
 62
     7
 10
1185.177474
 20
-142.276146
 30
0.0
 40
71.999936
  0
CIRCLE
  8
0
  6
BYLAYER
 62
     7
 10
1185.177474
 20
-142.276146
 30
0.0
 40
86.549921
  0
ARC
  8
0
  6
BYLAYER
 62
     7
 10
1185.177474
 20
-142.276146
 30
0.0
 40
96.0
 50
323.301669
 51
356.934592
  0
ARC
  8
0
  6
BYLAYER
 62
     7
 10
1185.177474
 20
-142.276146
 30
0.0
 40
96.000000
 50
3.065408
 51
36.698331
  0
ARC
  8
0
  6
BYLAYER
 62
     7
 10
1185.177474
 20
-142.276146
 30
0.0
 40
96.000000
 50
233.301669
 51
266.934592
  0
ARC
  8
0
  6
BYLAYER
 62
     7
 10
1185.177474
 20
-142.276146
 30
0.0
 40
96.000000
 50
273.065408
 51
306.698331
  0
ARC
  8
0
  6
BYLAYER
 62
     7
 10
1185.177474
 20
-142.276146
 30
0.0
 40
96.000000
 50
183.065408
 51
216.698331
  0
ARC
  8
0
  6
BYLAYER
 62
     7
 10
1185.177474
 20
-142.276146
 30
0.0
 40
96.000000
 50
143.301669
 51
176.934592
  0
ARC
  8
0
  6
BYLAYER
 62
     7
 10
1185.177474
 20
-142.276146
 30
0.0
 40
96.000000
 50
120.691662
 51
126.698331
  0
ARC
  8
0
  6
BYLAYER
 62
     7
 10
1185.177474
 20
-142.276146
 30
0.0
 40
96.0
 50
53.301669
 51
59.308487
  0
ARC
  8
0
  6
BYLAYER
 62
     7
 10
1241.053241
 20
-67.308496
 30
0.0
 40
2.5
 50
315.000000
 51
413.301669
  0
ARC
  8
0
  6
BYLAYER
 62
     7
 10
1260.145124
 20
-86.400379
 30
0.0
 40
2.5
 50
36.698331
 51
135.000000
  0
CIRCLE
  8
0
  6
BYLAYER
 62
     7
 10
1185.177474
 20
-142.276146
 30
0.0
 40
70.0
  0
ARC
  8
0
  6
BYLAYER
 62
     7
 10
1243.513783
 20
-83.939837
 30
0.0
 40
5.5
 50
1.144516
 51
88.855484
  0
LINE
  8
0
  6
BYLAYER
 62
     7
 10
1238.103042
 20
-73.794228
 30
0.0
 11
1242.821008
 21
-69.076262
 31
0.0
  0
LINE
  8
0
  6
BYLAYER
 62
     7
 10
1253.659392
 20
-89.350578
 30
0.0
 11
1258.377358
 21
-84.632612
 31
0.0
  0
ARC
  8
0
  6
BYLAYER
 62
     7
 10
1129.301707
 20
-67.308496
 30
0.0
 40
2.500000
 50
126.698331
 51
225.000000
  0
ARC
  8
0
  6
BYLAYER
 62
     7
 10
1110.209824
 20
-86.400379
 30
0.0
 40
2.500000
 50
45.000000
 51
143.301669
  0
ARC
  8
0
  6
BYLAYER
 62
     7
 10
1126.841165
 20
-83.939837
 30
0.0
 40
5.5
 50
91.144516
 51
178.855484
  0
LINE
  8
0
  6
BYLAYER
 62
     7
 10
1132.251906
 20
-73.794228
 30
0.0
 11
1127.533940
 21
-69.076262
 31
0.0
  0
LINE
  8
0
  6
BYLAYER
 62
     7
 10
1116.695556
 20
-89.350578
 30
0.0
 11
1111.977590
 21
-84.632612
 31
0.0
  0
ARC
  8
0
  6
BYLAYER
 62
     7
 10
1241.053241
 20
-217.243796
 30
0.0
 40
2.500000
 50
306.698331
 51
405.000000
  0
ARC
  8
0
  6
BYLAYER
 62
     7
 10
1260.145124
 20
-198.151913
 30
0.0
 40
2.5
 50
225.0
 51
323.301669
  0
ARC
  8
0
  6
BYLAYER
 62
     7
 10
1243.513783
 20
-200.612455
 30
0.0
 40
5.500000
 50
271.144516
 51
358.855484
  0
LINE
  8
0
  6
BYLAYER
 62
     7
 10
1238.103042
 20
-210.758064
 30
0.0
 11
1242.821008
 21
-215.476030
 31
0.0
  0
LINE
  8
0
  6
BYLAYER
 62
     7
 10
1253.659392
 20
-195.201714
 30
0.0
 11
1258.377358
 21
-199.919680
 31
0.0
  0
ARC
  8
0
  6
BYLAYER
 62
     7
 10
1129.301707
 20
-217.243796
 30
0.0
 40
2.5
 50
135.000000
 51
233.301669
  0
ARC
  8
0
  6
BYLAYER
 62
     7
 10
1110.209824
 20
-198.151913
 30
0.0
 40
2.500000
 50
216.698331
 51
315.000000
  0
ARC
  8
0
  6
BYLAYER
 62
     7
 10
1126.841165
 20
-200.612455
 30
0.0
 40
5.500000
 50
181.144516
 51
268.855484
  0
LINE
  8
0
  6
BYLAYER
 62
     7
 10
1132.251906
 20
-210.758064
 30
0.0
 11
1127.533940
 21
-215.476030
 31
0.0
  0
LINE
  8
0
  6
BYLAYER
 62
     7
 10
1116.695556
 20
-195.201714
 30
0.0
 11
1111.977590
 21
-199.919680
 31
0.0
  0
ARC
  8
0
  6
BYLAYER
 62
     7
 10
1091.811260
 20
-147.276146
 30
0.0
 40
2.5
 50
90.0
 51
183.065408
  0
ARC
  8
0
  6
BYLAYER
 62
     7
 10
1091.811260
 20
-137.276146
 30
0.0
 40
2.5
 50
176.934592
 51
270.000000
  0
LINE
  8
0
  6
BYLAYER
 62
     7
 10
1091.811260
 20
-144.776146
 30
0.0
 11
1098.663667
 21
-144.776146
 31
0.0
  0
LINE
  8
0
  6
BYLAYER
 62
     7
 10
1091.811260
 20
-139.776146
 30
0.0
 11
1098.663667
 21
-139.776146
 31
0.0
  0
ARC
  8
0
  6
BYLAYER
 62
     7
 10
1190.177474
 20
-235.642360
 30
0.0
 40
2.5
 50
180.000000
 51
273.065408
  0
ARC
  8
0
  6
BYLAYER
 62
     7
 10
1180.177474
 20
-235.642360
 30
0.0
 40
2.5
 50
266.934592
 51
360.000000
  0
LINE
  8
0
  6
BYLAYER
 62
     7
 10
1187.677474
 20
-235.642360
 30
0.0
 11
1187.677474
 21
-228.789953
 31
0.0
  0
LINE
  8
0
  6
BYLAYER
 62
     7
 10
1182.677474
 20
-235.642360
 30
0.0
 11
1182.677474
 21
-228.789953
 31
0.0
  0
ARC
  8
0
  6
BYLAYER
 62
     7
 10
1278.543688
 20
-137.276146
 30
0.0
 40
2.500000
 50
270.0
 51
363.065408
  0
ARC
  8
0
  6
BYLAYER
 62
     7
 10
1278.543688
 20
-147.276146
 30
0.0
 40
2.500000
 50
356.934592
 51
450.000000
  0
LINE
  8
0
  6
BYLAYER
 62
     7
 10
1278.543688
 20
-139.776146
 30
0.0
 11
1271.691281
 21
-139.776146
 31
0.0
  0
LINE
  8
0
  6
BYLAYER
 62
     7
 10
1278.543688
 20
-144.776146
 30
0.0
 11
1271.691281
 21
-144.776146
 31
0.0
  0
LINE
  8
0
  6
BYLAYER
 62
     1
 10
1269.177474
 20
-299.276176
 30
0.0
 11
1270.177474
 21
-298.276176
 31
0.0
  0
LINE
  8
0
  6
BYLAYER
 62
     1
 10
1266.177474
 20
-299.276176
 30
0.0
 11
1269.177474
 21
-299.276176
 31
0.0
  0
LINE
  8
0
  6
BYLAYER
 62
     1
 10
1270.177474
 20
-194.954415
 30
0.0
 11
1270.177474
 21
-298.276176
 31
0.0
  0
LINE
  8
0
  6
BYLAYER
 62
     1
 10
1107.677535
 20
-356.776482
 30
0.0
 11
1262.677474
 21
-356.776482
 31
0.0
  0
LINE
  8
0
  6
BYLAYER
 62
     1
 10
1240.799341
 20
-21.776512
 30
0.0
 11
1262.677474
 21
-21.776512
 31
0.0
  0
LINE
  8
0
  6
BYLAYER
 62
     1
 10
1107.677535
 20
-21.776512
 30
0.0
 11
1129.555607
 21
-21.776512
 31
0.0
  0
ARC
  8
0
  6
BYLAYER
 62
     1
 10
1110.677535
 20
-290.519096
 30
0.0
 40
3.000046
 50
135.000410
 51
180.000005
  0
LINE
  8
0
  6
BYLAYER
 62
     1
 10
1107.677535
 20
-21.776512
 30
0.0
 11
1107.677535
 21
-59.432773
 31
0.0
  0
LINE
  8
0
  6
BYLAYER
 62
     1
 10
1107.677535
 20
-290.519096
 30
0.0
 11
1107.677535
 21
-356.776482
 31
0.0
  0
ARC
  8
0
  6
BYLAYER
 62
     1
 10
1259.677474
 20
-290.519096
 30
0.0
 40
3.000046
 50
0.0
 51
44.999609
  0
LINE
  8
0
  6
BYLAYER
 62
     1
 10
1262.677474
 20
-21.776512
 30
0.0
 11
1262.677474
 21
-59.433011
 31
0.0
  0
LINE
  8
0
  6
BYLAYER
 62
     1
 10
1262.677474
 20
-356.776482
 30
0.0
 11
1262.677474
 21
-290.519096
 31
0.0
  0
LINE
  8
0
  6
BYLAYER
 62
     1
 10
1262.677474
 20
-334.459648
 30
0.0
 11
1266.177474
 21
-334.276176
 31
0.0
  0
LINE
  8
0
  6
BYLAYER
 62
     1
 10
1266.177474
 20
-334.276176
 30
0.0
 11
1266.177474
 21
-200.919134
 31
0.0
  0
ARC
  8
0
  6
BYLAYER
 62
     1
 10
1175.177474
 20
-279.892052
 30
0.0
 40
3.000021
 50
272.999519
 51
360.000010
  0
LINE
  8
0
  6
BYLAYER
 62
     1
 10
1178.177474
 20
-279.892052
 30
0.0
 11
1178.177474
 21
-267.624626
 31
0.0
  0
ARC
  8
0
  6
BYLAYER
 62
     1
 10
1175.177474
 20
-267.624626
 30
0.0
 40
3.0
 50
0.0
 51
87.032019
  0
ARC
  8
0
  6
BYLAYER
 62
     1
 10
1195.177474
 20
-279.892052
 30
0.0
 40
3.000021
 50
180.000000
 51
267.000477
  0
LINE
  8
0
  6
BYLAYER
 62
     1
 10
1192.177474
 20
-279.892052
 30
0.0
 11
1192.177474
 21
-267.624626
 31
0.0
  0
ARC
  8
0
  6
BYLAYER
 62
     1
 10
1195.177474
 20
-267.624626
 30
0.0
 40
3.000000
 50
92.967981
 51
180.000000
  0
LINE
  8
0
  6
BYLAYER
 62
     1
 10
1108.556197
 20
-288.397728
 30
0.0
 11
1117.298812
 21
-279.655144
 31
0.0
  0
LINE
  8
0
  6
BYLAYER
 62
     1
 10
1261.798812
 20
-288.397728
 30
0.0
 11
1253.056136
 21
-279.655083
 31
0.0
  0
ARC
  8
0
  6
BYLAYER
 62
     1
 10
1255.177474
 20
-277.533745
 30
0.0
 40
3.0
 50
180.000000
 51
225.000001
  0
LINE
  8
0
  6
BYLAYER
 62
     1
 10
1110.677413
 20
-286.276512
 30
0.0
 11
1185.177474
 21
-282.372093
 31
0.0
  0
LINE
  8
0
  6
BYLAYER
 62
     1
 10
1259.677596
 20
-286.276512
 30
0.0
 11
1185.177474
 21
-282.372093
 31
0.0
  0
LINE
  8
0
  6
BYLAYER
 62
     1
 10
1175.332747
 20
-264.628624
 30
0.0
 11
1121.022140
 21
-261.812553
 31
0.0
  0
LINE
  8
0
  6
BYLAYER
 62
     1
 10
1165.949657
 20
-240.410192
 30
0.0
 11
1121.022140
 21
-242.739738
 31
0.0
  0
ARC
  8
0
  6
BYLAYER
 62
     1
 10
1121.177474
 20
-245.735710
 30
0.0
 40
3.000000
 50
92.968191
 51
179.999998
  0
LINE
  8
0
  6
BYLAYER
 62
     1
 10
1204.405272
 20
-240.410196
 30
0.0
 11
1249.332870
 21
-242.739738
 31
0.0
  0
ARC
  8
0
  6
BYLAYER
 62
     1
 10
1249.177474
 20
-245.735710
 30
0.0
 40
3.0
 50
0.0
 51
87.031821
  0
LINE
  8
0
  6
BYLAYER
 62
     1
 10
1195.022078
 20
-264.628624
 30
0.0
 11
1249.332870
 21
-261.812523
 31
0.0
  0
LINE
  8
0
  6
BYLAYER
 62
     1
 10
1118.177474
 20
-216.512256
 30
0.0
 11
1118.177474
 21
-277.533806
 31
0.0
  0
ARC
  8
0
  6
BYLAYER
 62
     1
 10
1121.177474
 20
-258.816582
 30
0.0
 40
3.000000
 50
180.000000
 51
267.031807
  0
ARC
  8
0
  6
BYLAYER
 62
     1
 10
1121.177474
 20
-215.816612
 30
0.0
 40
3.000000
 50
180.000000
 51
267.031807
  0
ARC
  8
0
  6
BYLAYER
 62
     1
 10
1115.177474
 20
-277.533806
 30
0.0
 40
3.0
 50
314.999999
 51
360.000000
  0
LINE
  8
0
  6
BYLAYER
 62
     1
 10
1252.177474
 20
-216.512256
 30
0.0
 11
1252.177474
 21
-277.533745
 31
0.0
  0
ARC
  8
0
  6
BYLAYER
 62
     1
 10
1249.177474
 20
-258.816551
 30
0.0
 40
3.000000
 50
272.968213
 51
360.000000
  0
ARC
  8
0
  6
BYLAYER
 62
     1
 10
1249.177474
 20
-215.816612
 30
0.0
 40
3.000000
 50
272.968179
 51
360.000000
  0
LINE
  8
0
  6
BYLAYER
 62
     1
 10
1101.177474
 20
-299.276176
 30
0.0
 11
1100.177474
 21
-298.276176
 31
0.0
  0
LINE
  8
0
  6
BYLAYER
 62
     1
 10
1104.177474
 20
-299.276176
 30
0.0
 11
1101.177474
 21
-299.276176
 31
0.0
  0
LINE
  8
0
  6
BYLAYER
 62
     1
 10
1100.177474
 20
-194.954415
 30
0.0
 11
1100.177474
 21
-298.276176
 31
0.0
  0
LINE
  8
0
  6
BYLAYER
 62
     1
 10
1107.677474
 20
-334.459648
 30
0.0
 11
1104.177474
 21
-334.276176
 31
0.0
  0
LINE
  8
0
  6
BYLAYER
 62
     1
 10
1104.177474
 20
-334.276176
 30
0.0
 11
1104.177474
 21
-200.919134
 31
0.0
  0
LINE
  8
0
  6
BYLAYER
 62
     1
 10
1101.177474
 20
-749.276146
 30
0.0
 11
1100.177474
 21
-750.276146
 31
0.0
  0
LINE
  8
0
  6
BYLAYER
 62
     1
 10
1101.177474
 20
-929.276176
 30
0.0
 11
1100.177474
 21
-928.276176
 31
0.0
  0
LINE
  8
0
  6
BYLAYER
 62
     1
 10
1104.177474
 20
-749.276146
 30
0.0
 11
1101.177474
 21
-749.276146
 31
0.0
  0
LINE
  8
0
  6
BYLAYER
 62
     1
 10
1104.177474
 20
-929.276176
 30
0.0
 11
1101.177474
 21
-929.276176
 31
0.0
  0
LINE
  8
0
  6
BYLAYER
 62
     1
 10
1100.177474
 20
-750.276146
 30
0.0
 11
1100.177474
 21
-928.276176
 31
0.0
  0
LINE
  8
0
  6
BYLAYER
 62
     1
 10
1262.677474
 20
-986.776482
 30
0.0
 11
1107.677474
 21
-986.776482
 31
0.0
  0
LINE
  8
0
  6
BYLAYER
 62
     1
 10
1262.677474
 20
-651.776512
 30
0.0
 11
1107.677474
 21
-651.776512
 31
0.0
  0
ARC
  8
0
  6
BYLAYER
 62
     1
 10
1259.677474
 20
-920.519096
 30
0.0
 40
3.000046
 50
0.0
 51
44.999609
  0
ARC
  8
0
  6
BYLAYER
 62
     1
 10
1259.677474
 20
-718.033836
 30
0.0
 40
2.999982
 50
315.000402
 51
359.999983
  0
LINE
  8
0
  6
BYLAYER
 62
     1
 10
1262.677474
 20
-651.776512
 30
0.0
 11
1262.677474
 21
-718.033836
 31
0.0
  0
LINE
  8
0
  6
BYLAYER
 62
     1
 10
1262.677474
 20
-920.519096
 30
0.0
 11
1262.677474
 21
-986.776482
 31
0.0
  0
ARC
  8
0
  6
BYLAYER
 62
     1
 10
1110.677474
 20
-718.033836
 30
0.0
 40
2.999982
 50
180.000000
 51
224.999581
  0
ARC
  8
0
  6
BYLAYER
 62
     1
 10
1110.677474
 20
-920.519096
 30
0.0
 40
3.000046
 50
135.000410
 51
180.000019
  0
LINE
  8
0
  6
BYLAYER
 62
     1
 10
1107.677474
 20
-651.776512
 30
0.0
 11
1107.677474
 21
-718.033836
 31
0.0
  0
LINE
  8
0
  6
BYLAYER
 62
     1
 10
1107.677474
 20
-986.776482
 30
0.0
 11
1107.677474
 21
-920.519096
 31
0.0
  0
LINE
  8
0
  6
BYLAYER
 62
     1
 10
1107.677474
 20
-964.459648
 30
0.0
 11
1104.177474
 21
-964.276176
 31
0.0
  0
LINE
  8
0
  6
BYLAYER
 62
     1
 10
1104.177474
 20
-714.276146
 30
0.0
 11
1107.677474
 21
-714.092735
 31
0.0
  0
LINE
  8
0
  6
BYLAYER
 62
     1
 10
1104.177474
 20
-964.276176
 30
0.0
 11
1104.177474
 21
-714.276146
 31
0.0
  0
CIRCLE
  8
0
  6
BYLAYER
 62
     1
 10
1245.177474
 20
-939.276176
 30
0.0
 40
8.0
  0
CIRCLE
  8
0
  6
BYLAYER
 62
     1
 10
1125.177474
 20
-939.276176
 30
0.0
 40
8.0
  0
CIRCLE
  8
0
  6
BYLAYER
 62
     1
 10
1185.177474
 20
-709.276146
 30
0.0
 40
36.0
  0
ARC
  8
0
  6
BYLAYER
 62
     1
 10
1236.892684
 20
-726.474632
 30
0.0
 40
3.000034
 50
93.000095
 51
161.604953
  0
ARC
  8
0
  6
BYLAYER
 62
     1
 10
1133.462264
 20
-726.474632
 30
0.0
 40
3.000024
 50
18.395045
 51
86.999903
  0
LINE
  8
0
  6
BYLAYER
 62
     1
 10
1107.953597
 20
-719.290977
 30
0.0
 11
1132.746810
 21
-720.590355
 31
0.0
  0
ARC
  8
0
  6
BYLAYER
 62
     1
 10
1132.589705
 20
-723.586204
 30
0.0
 40
2.999963
 50
15.222620
 51
86.999903
  0
ARC
  8
0
  6
BYLAYER
 62
     1
 10
1185.177474
 20
-709.276146
 30
0.0
 40
51.500031
 50
195.222584
 51
344.777403
  0
LINE
  8
0
  6
BYLAYER
 62
     1
 10
1262.401351
 20
-719.290977
 30
0.0
 11
1237.608138
 21
-720.590355
 31
0.0
  0
ARC
  8
0
  6
BYLAYER
 62
     1
 10
1237.765243
 20
-723.586204
 30
0.0
 40
2.999979
 50
93.000095
 51
164.777385
  0
CIRCLE
  8
0
  6
BYLAYER
 62
     1
 10
1125.177474
 20
-699.275780
 30
0.0
 40
8.0
  0
CIRCLE
  8
0
  6
BYLAYER
 62
     1
 10
1245.177474
 20
-699.275780
 30
0.0
 40
8.0
  0
ARC
  8
0
  6
BYLAYER
 62
     1
 10
1195.177474
 20
-780.927696
 30
0.0
 40
3.000000
 50
180.000000
 51
267.032019
  0
ARC
  8
0
  6
BYLAYER
 62
     1
 10
1195.177474
 20
-866.927696
 30
0.0
 40
3.000000
 50
180.000000
 51
267.032019
  0
ARC
  8
0
  6
BYLAYER
 62
     1
 10
1195.177474
 20
-909.892052
 30
0.0
 40
3.000021
 50
180.000000
 51
267.000491
  0
ARC
  8
0
  6
BYLAYER
 62
     1
 10
1175.177474
 20
-780.927696
 30
0.0
 40
3.000000
 50
272.968008
 51
360.000000
  0
LINE
  8
0
  6
BYLAYER
 62
     1
 10
1178.177474
 20
-854.624596
 30
0.0
 11
1178.177474
 21
-866.927696
 31
0.0
  0
ARC
  8
0
  6
BYLAYER
 62
     1
 10
1175.177474
 20
-866.927696
 30
0.0
 40
3.000000
 50
272.968008
 51
360.000000
  0
ARC
  8
0
  6
BYLAYER
 62
     1
 10
1175.177474
 20
-897.624626
 30
0.0
 40
3.0
 50
0.0
 51
87.032033
  0
LINE
  8
0
  6
BYLAYER
 62
     1
 10
1178.177474
 20
-909.892052
 30
0.0
 11
1178.177474
 21
-897.624626
 31
0.0
  0
ARC
  8
0
  6
BYLAYER
 62
     1
 10
1175.177474
 20
-909.892052
 30
0.0
 40
3.000021
 50
272.999519
 51
359.999983
  0
LINE
  8
0
  6
BYLAYER
 62
     1
 10
1178.177474
 20
-780.927696
 30
0.0
 11
1178.177474
 21
-768.624596
 31
0.0
  0
ARC
  8
0
  6
BYLAYER
 62
     1
 10
1175.177474
 20
-768.624596
 30
0.0
 40
2.999996
 50
0.0
 51
87.031998
  0
ARC
  8
0
  6
BYLAYER
 62
     1
 10
1139.994735
 20
-739.751915
 30
0.0
 40
3.000057
 50
272.967964
 51
393.999804
  0
ARC
  8
0
  6
BYLAYER
 62
     1
 10
1230.360091
 20
-739.751915
 30
0.0
 40
3.000054
 50
146.000198
 51
267.032038
  0
ARC
  8
0
  6
BYLAYER
 62
     1
 10
1195.177474
 20
-768.624596
 30
0.0
 40
2.999996
 50
92.968000
 51
180.000005
  0
LINE
  8
0
  6
BYLAYER
 62
     1
 10
1192.177474
 20
-780.927696
 30
0.0
 11
1192.177474
 21
-768.624596
 31
0.0
  0
LINE
  8
0
  6
BYLAYER
 62
     1
 10
1192.177474
 20
-854.624534
 30
0.0
 11
1192.177474
 21
-866.927696
 31
0.0
  0
ARC
  8
0
  6
BYLAYER
 62
     1
 10
1233.177474
 20
-895.654259
 30
0.0
 40
3.0
 50
92.967995
 51
180.000000
  0
LINE
  8
0
  6
BYLAYER
 62
     1
 10
1230.177474
 20
-895.654259
 30
0.0
 11
1230.177474
 21
-898.429253
 31
0.0
  0
ARC
  8
0
  6
BYLAYER
 62
     1
 10
1227.177474
 20
-898.429253
 30
0.0
 40
3.0
 50
272.999516
 51
360.000000
  0
LINE
  8
0
  6
BYLAYER
 62
     1
 10
1227.334456
 20
-901.425133
 30
0.0
 11
1195.020492
 21
-903.118645
 31
0.0
  0
LINE
  8
0
  6
BYLAYER
 62
     1
 10
1192.177474
 20
-909.892052
 30
0.0
 11
1192.177474
 21
-906.114525
 31
0.0
  0
ARC
  8
0
  6
BYLAYER
 62
     1
 10
1195.177474
 20
-906.114525
 30
0.0
 40
2.999993
 50
93.000108
 51
180.000005
  0
LINE
  8
0
  6
BYLAYER
 62
     1
 10
1178.177474
 20
-823.927696
 30
0.0
 11
1178.177474
 21
-811.624596
 31
0.0
  0
ARC
  8
0
  6
BYLAYER
 62
     1
 10
1175.177474
 20
-811.624596
 30
0.0
 40
3.000057
 50
0.0
 51
87.03206
  0
LINE
  8
0
  6
BYLAYER
 62
     1
 10
1192.177474
 20
-823.927635
 30
0.0
 11
1192.177474
 21
-811.624596
 31
0.0
  0
ARC
  8
0
  6
BYLAYER
 62
     1
 10
1195.177474
 20
-811.624596
 30
0.0
 40
3.000000
 50
92.967933
 51
180.000000
  0
LINE
  8
0
  6
BYLAYER
 62
     1
 10
1108.556136
 20
-918.397728
 30
0.0
 11
1117.298812
 21
-909.655083
 31
0.0
  0
LINE
  8
0
  6
BYLAYER
 62
     1
 10
1108.556136
 20
-720.155113
 30
0.0
 11
1117.298812
 21
-728.897850
 31
0.0
  0
ARC
  8
0
  6
BYLAYER
 62
     1
 10
1115.177474
 20
-731.019127
 30
0.0
 40
3.000000
 50
0.0
 51
44.999848
  0
LINE
  8
0
  6
BYLAYER
 62
     1
 10
1253.056136
 20
-728.898155
 30
0.0
 11
1261.798812
 21
-720.155113
 31
0.0
  0
ARC
  8
0
  6
BYLAYER
 62
     1
 10
1255.177474
 20
-731.019432
 30
0.0
 40
3.000000
 50
135.001216
 51
179.999998
  0
LINE
  8
0
  6
BYLAYER
 62
     1
 10
1261.798812
 20
-918.397728
 30
0.0
 11
1253.056136
 21
-909.655083
 31
0.0
  0
LINE
  8
0
  6
BYLAYER
 62
     1
 10
1140.150130
 20
-742.747948
 30
0.0
 11
1121.022201
 21
-743.739708
 31
0.0
  0
ARC
  8
0
  6
BYLAYER
 62
     1
 10
1121.177474
 20
-746.735741
 30
0.0
 40
3.000000
 50
92.968136
 51
179.999998
  0
LINE
  8
0
  6
BYLAYER
 62
     1
 10
1175.332747
 20
-765.628624
 30
0.0
 11
1121.022201
 21
-762.812584
 31
0.0
  0
ARC
  8
0
  6
BYLAYER
 62
     1
 10
1121.177474
 20
-759.816612
 30
0.0
 40
3.000000
 50
180.000000
 51
267.031814
  0
LINE
  8
0
  6
BYLAYER
 62
     1
 10
1175.332870
 20
-783.923668
 30
0.0
 11
1121.022201
 21
-786.739708
 31
0.0
  0
ARC
  8
0
  6
BYLAYER
 62
     1
 10
1121.177474
 20
-789.735680
 30
0.0
 40
3.0
 50
92.968184
 51
179.999998
  0
LINE
  8
0
  6
BYLAYER
 62
     1
 10
1175.332747
 20
-808.628563
 30
0.0
 11
1121.022201
 21
-805.812584
 31
0.0
  0
LINE
  8
0
  6
BYLAYER
 62
     1
 10
1175.332870
 20
-826.923668
 30
0.0
 11
1121.022201
 21
-829.739708
 31
0.0
  0
ARC
  8
0
  6
BYLAYER
 62
     1
 10
1121.177474
 20
-832.735680
 30
0.0
 40
3.0
 50
92.968184
 51
179.999998
  0
LINE
  8
0
  6
BYLAYER
 62
     1
 10
1175.332870
 20
-851.628624
 30
0.0
 11
1121.022201
 21
-848.812584
 31
0.0
  0
LINE
  8
0
  6
BYLAYER
 62
     1
 10
1175.332870
 20
-869.923668
 30
0.0
 11
1121.022201
 21
-872.739769
 31
0.0
  0
ARC
  8
0
  6
BYLAYER
 62
     1
 10
1121.177474
 20
-875.735741
 30
0.0
 40
3.0
 50
92.968218
 51
180.000005
  0
LINE
  8
0
  6
BYLAYER
 62
     1
 10
1175.332870
 20
-894.628624
 30
0.0
 11
1121.022201
 21
-891.812523
 31
0.0
  0
LINE
  8
0
  6
BYLAYER
 62
     1
 10
1230.204818
 20
-742.747948
 30
0.0
 11
1249.332747
 21
-743.739708
 31
0.0
  0
ARC
  8
0
  6
BYLAYER
 62
     1
 10
1249.177474
 20
-746.735741
 30
0.0
 40
3.000000
 50
0.0
 51
87.031855
  0
LINE
  8
0
  6
BYLAYER
 62
     1
 10
1195.022201
 20
-765.628624
 30
0.0
 11
1249.332747
 21
-762.812584
 31
0.0
  0
LINE
  8
0
  6
BYLAYER
 62
     1
 10
1195.022201
 20
-783.923668
 30
0.0
 11
1249.332747
 21
-786.739708
 31
0.0
  0
ARC
  8
0
  6
BYLAYER
 62
     1
 10
1249.177474
 20
-789.735680
 30
0.0
 40
3.000000
 50
0.0
 51
87.031807
  0
LINE
  8
0
  6
BYLAYER
 62
     1
 10
1195.022201
 20
-808.628563
 30
0.0
 11
1249.332747
 21
-805.812584
 31
0.0
  0
LINE
  8
0
  6
BYLAYER
 62
     1
 10
1195.022201
 20
-826.923607
 30
0.0
 11
1249.332747
 21
-829.739708
 31
0.0
  0
ARC
  8
0
  6
BYLAYER
 62
     1
 10
1249.177474
 20
-832.735680
 30
0.0
 40
3.0
 50
0.0
 51
87.031753
  0
LINE
  8
0
  6
BYLAYER
 62
     1
 10
1195.022201
 20
-851.628563
 30
0.0
 11
1249.332747
 21
-848.812584
 31
0.0
  0
LINE
  8
0
  6
BYLAYER
 62
     1
 10
1195.022201
 20
-869.923668
 30
0.0
 11
1249.332747
 21
-872.739738
 31
0.0
  0
ARC
  8
0
  6
BYLAYER
 62
     1
 10
1249.177474
 20
-875.735710
 30
0.0
 40
3.000000
 50
0.0
 51
87.031807
  0
LINE
  8
0
  6
BYLAYER
 62
     1
 10
1233.022201
 20
-892.658287
 30
0.0
 11
1249.332747
 21
-891.812553
 31
0.0
  0
LINE
  8
0
  6
BYLAYER
 62
     1
 10
1133.619369
 20
-723.478722
 30
0.0
 11
1110.677474
 21
-722.276390
 31
0.0
  0
LINE
  8
0
  6
BYLAYER
 62
     1
 10
1236.735579
 20
-723.478722
 30
0.0
 11
1259.677474
 21
-722.276390
 31
0.0
  0
LINE
  8
0
  6
BYLAYER
 62
     1
 10
1110.677352
 20
-916.276512
 30
0.0
 11
1185.177596
 21
-912.372093
 31
0.0
  0
LINE
  8
0
  6
BYLAYER
 62
     1
 10
1259.677596
 20
-916.276512
 30
0.0
 11
1185.177474
 21
-912.372093
 31
0.0
  0
LINE
  8
0
  6
BYLAYER
 62
     1
 10
1118.177474
 20
-731.019127
 30
0.0
 11
1118.177474
 21
-907.533745
 31
0.0
  0
ARC
  8
0
  6
BYLAYER
 62
     1
 10
1121.177474
 20
-888.816551
 30
0.0
 40
3.0
 50
180.000000
 51
267.031787
  0
ARC
  8
0
  6
BYLAYER
 62
     1
 10
1121.177474
 20
-845.816612
 30
0.0
 40
3.000000
 50
180.000000
 51
267.031814
  0
ARC
  8
0
  6
BYLAYER
 62
     1
 10
1121.177474
 20
-802.816551
 30
0.0
 40
3.000000
 50
180.000000
 51
267.031875
  0
ARC
  8
0
  6
BYLAYER
 62
     1
 10
1115.177474
 20
-907.533745
 30
0.0
 40
3.000000
 50
314.999999
 51
360.000000
  0
LINE
  8
0
  6
BYLAYER
 62
     1
 10
1252.177474
 20
-731.019432
 30
0.0
 11
1252.177474
 21
-907.533745
 31
0.0
  0
ARC
  8
0
  6
BYLAYER
 62
     1
 10
1249.177474
 20
-888.816582
 30
0.0
 40
3.000000
 50
272.968200
 51
360.000000
  0
ARC
  8
0
  6
BYLAYER
 62
     1
 10
1249.177474
 20
-845.816551
 30
0.0
 40
3.000000
 50
272.968125
 51
360.0
  0
ARC
  8
0
  6
BYLAYER
 62
     1
 10
1249.177474
 20
-802.816551
 30
0.0
 40
3.000000
 50
272.968125
 51
360.0
  0
ARC
  8
0
  6
BYLAYER
 62
     1
 10
1249.177474
 20
-759.816612
 30
0.0
 40
3.000000
 50
272.968186
 51
360.000000
  0
ARC
  8
0
  6
BYLAYER
 62
     1
 10
1255.177474
 20
-907.533745
 30
0.0
 40
3.0
 50
180.000000
 51
225.000001
  0
LINE
  8
0
  6
BYLAYER
 62
     1
 10
1269.177474
 20
-749.276146
 30
0.0
 11
1270.177474
 21
-750.276146
 31
0.0
  0
LINE
  8
0
  6
BYLAYER
 62
     1
 10
1269.177474
 20
-929.276176
 30
0.0
 11
1270.177474
 21
-928.276176
 31
0.0
  0
LINE
  8
0
  6
BYLAYER
 62
     1
 10
1266.177474
 20
-749.276146
 30
0.0
 11
1269.177474
 21
-749.276146
 31
0.0
  0
LINE
  8
0
  6
BYLAYER
 62
     1
 10
1266.177474
 20
-929.276176
 30
0.0
 11
1269.177474
 21
-929.276176
 31
0.0
  0
LINE
  8
0
  6
BYLAYER
 62
     1
 10
1270.177474
 20
-750.276146
 30
0.0
 11
1270.177474
 21
-928.276176
 31
0.0
  0
LINE
  8
0
  6
BYLAYER
 62
     1
 10
1262.677474
 20
-964.459648
 30
0.0
 11
1266.177474
 21
-964.276176
 31
0.0
  0
LINE
  8
0
  6
BYLAYER
 62
     1
 10
1266.177474
 20
-714.276146
 30
0.0
 11
1262.677474
 21
-714.092735
 31
0.0
  0
LINE
  8
0
  6
BYLAYER
 62
     1
 10
1266.177474
 20
-964.276176
 30
0.0
 11
1266.177474
 21
-714.276146
 31
0.0
  0
ARC
  8
0
  6
BYLAYER
 62
     1
 10
1175.177474
 20
-854.624596
 30
0.0
 40
3.0
 50
0.0
 51
87.032033
  0
ARC
  8
0
  6
BYLAYER
 62
     1
 10
1175.177474
 20
-823.927696
 30
0.0
 40
3.000000
 50
272.968008
 51
360.000000
  0
ARC
  8
0
  6
BYLAYER
 62
     1
 10
1195.177474
 20
-854.624534
 30
0.0
 40
3.000000
 50
92.967995
 51
180.000000
  0
ARC
  8
0
  6
BYLAYER
 62
     1
 10
1195.177474
 20
-823.927635
 30
0.0
 40
3.000000
 50
180.000000
 51
267.032005
  0
ARC
  8
0
  6
BYLAYER
 62
     1
 10
1185.177474
 20
-772.276146
 30
0.0
 40
100.000000
 50
328.211669
 51
390.943029
  0
ARC
  8
0
  6
BYLAYER
 62
     1
 10
1185.177474
 20
-772.276146
 30
0.0
 40
100.0
 50
149.056971
 51
211.788331
  0
ARC
  8
0
  6
BYLAYER
 62
     1
 10
1185.177474
 20
-709.276146
 30
0.0
 40
80.000000
 50
165.638488
 51
183.539978
  0
ARC
  8
0
  6
BYLAYER
 62
     1
 10
1185.177474
 20
-709.276146
 30
0.0
 40
80.0
 50
356.460022
 51
374.361512
  0
ARC
  8
0
  6
BYLAYER
 62
     1
 10
1185.177474
 20
-709.276146
 30
0.0
 40
80.000000
 50
45.950997
 51
134.049003
  0
LINE
  8
0
  6
BYLAYER
 62
     1
 10
1100.177474
 20
-808.672977
 30
0.0
 11
1092.146420
 21
-808.953427
 31
0.0
  0
LINE
  8
0
  6
BYLAYER
 62
     1
 10
1100.177474
 20
-775.879315
 30
0.0
 11
1085.224949
 21
-775.357162
 31
0.0
  0
LINE
  8
0
  6
BYLAYER
 62
     1
 10
1266.177474
 20
-720.234623
 30
0.0
 11
1270.122594
 21
-720.372389
 31
0.0
  0
ARC
  8
0
  6
BYLAYER
 62
     1
 10
1270.087694
 20
-721.371780
 30
0.0
 40
1.000000
 50
30.943029
 51
88.000000
  0
LINE
  8
0
  6
BYLAYER
 62
     1
 10
1104.177474
 20
-720.234623
 30
0.0
 11
1100.232354
 21
-720.372389
 31
0.0
  0
ARC
  8
0
  6
BYLAYER
 62
     1
 10
1100.267254
 20
-721.371780
 30
0.0
 40
1.0
 50
92.000000
 51
149.056971
  0
LINE
  8
0
  6
BYLAYER
 62
     1
 10
505.177474
 20
-755.276482
 30
0.0
 11
504.177474
 21
-754.276482
 31
0.0
  0
LINE
  8
0
  6
BYLAYER
 62
     1
 10
325.177474
 20
-755.276451
 30
0.0
 11
326.177474
 21
-754.276451
 31
0.0
  0
LINE
  8
0
  6
BYLAYER
 62
     1
 10
505.177474
 20
-758.276482
 30
0.0
 11
505.177474
 21
-755.276482
 31
0.0
  0
LINE
  8
0
  6
BYLAYER
 62
     1
 10
325.177474
 20
-758.276451
 30
0.0
 11
325.177474
 21
-755.276451
 31
0.0
  0
LINE
  8
0
  6
BYLAYER
 62
     1
 10
504.177474
 20
-754.276482
 30
0.0
 11
326.177474
 21
-754.276451
 31
0.0
  0
LINE
  8
0
  6
BYLAYER
 62
     1
 10
267.677230
 20
-916.776420
 30
0.0
 11
267.677230
 21
-761.776451
 31
0.0
  0
ARC
  8
0
  6
BYLAYER
 62
     1
 10
333.934554
 20
-913.776420
 30
0.0
 40
3.000025
 50
270.0
 51
314.999609
  0
LINE
  8
0
  6
BYLAYER
 62
     1
 10
333.934554
 20
-916.776420
 30
0.0
 11
267.677230
 21
-916.776420
 31
0.0
  0
ARC
  8
0
  6
BYLAYER
 62
     1
 10
333.934554
 20
-764.776451
 30
0.0
 40
3.000025
 50
45.000408
 51
90.000016
  0
LINE
  8
0
  6
BYLAYER
 62
     1
 10
267.677230
 20
-761.776451
 30
0.0
 11
333.934554
 21
-761.776451
 31
0.0
  0
LINE
  8
0
  6
BYLAYER
 62
     1
 10
289.994002
 20
-761.776451
 30
0.0
 11
290.177474
 21
-758.276451
 31
0.0
  0
LINE
  8
0
  6
BYLAYER
 62
     1
 10
540.177474
 20
-758.276482
 30
0.0
 11
540.360946
 21
-761.776482
 31
0.0
  0
LINE
  8
0
  6
BYLAYER
 62
     1
 10
339.238753
 20
-839.276451
 30
0.0
 11
335.191634
 21
-762.052574
 31
0.0
  0
LINE
  8
0
  6
BYLAYER
 62
     1
 10
339.238753
 20
-839.276573
 30
0.0
 11
335.191634
 21
-916.500297
 31
0.0
  0
LINE
  8
0
  6
BYLAYER
 62
     1
 10
290.177474
 20
-758.276451
 30
0.0
 11
540.177474
 21
-758.276482
 31
0.0
  0
CIRCLE
  8
0
  6
BYLAYER
 62
     1
 10
315.177474
 20
-899.276451
 30
0.0
 40
8.0
  0
CIRCLE
  8
0
  6
BYLAYER
 62
     1
 10
315.177474
 20
-779.276451
 30
0.0
 40
8.0
  0
ARC
  8
0
  6
BYLAYER
 62
     1
 10
496.419906
 20
-764.776451
 30
0.0
 40
3.000025
 50
90.0
 51
134.999609
  0
ARC
  8
0
  6
BYLAYER
 62
     1
 10
496.419906
 20
-913.776420
 30
0.0
 40
3.000025
 50
225.000419
 51
270.000028
  0
LINE
  8
0
  6
BYLAYER
 62
     1
 10
496.419906
 20
-916.776420
 30
0.0
 11
560.177230
 21
-916.776420
 31
0.0
  0
LINE
  8
0
  6
BYLAYER
 62
     1
 10
560.177230
 20
-916.776420
 30
0.0
 11
560.177230
 21
-761.776451
 31
0.0
  0
LINE
  8
0
  6
BYLAYER
 62
     1
 10
560.177230
 20
-761.776451
 30
0.0
 11
496.419906
 21
-761.776451
 31
0.0
  0
CIRCLE
  8
0
  6
BYLAYER
 62
     1
 10
515.176986
 20
-779.276451
 30
0.0
 40
8.0
  0
CIRCLE
  8
0
  6
BYLAYER
 62
     1
 10
515.176986
 20
-899.276451
 30
0.0
 40
8.0
  0
ARC
  8
0
  6
BYLAYER
 62
     1
 10
344.561629
 20
-849.276451
 30
0.0
 40
3.000082
 50
90.0
 51
177.000484
  0
ARC
  8
0
  6
BYLAYER
 62
     1
 10
356.829085
 20
-849.276451
 30
0.0
 40
3.000000
 50
2.967981
 51
90.000000
  0
ARC
  8
0
  6
BYLAYER
 62
     1
 10
387.525985
 20
-849.276451
 30
0.0
 40
3.0
 50
90.0
 51
177.032012
  0
LINE
  8
0
  6
BYLAYER
 62
     1
 10
399.829085
 20
-846.276451
 30
0.0
 11
387.525985
 21
-846.276451
 31
0.0
  0
ARC
  8
0
  6
BYLAYER
 62
     1
 10
344.561629
 20
-829.276451
 30
0.0
 40
3.000082
 50
182.999510
 51
270.000001
  0
ARC
  8
0
  6
BYLAYER
 62
     1
 10
356.829085
 20
-829.276451
 30
0.0
 40
3.0
 50
270.0
 51
357.032019
  0
ARC
  8
0
  6
BYLAYER
 62
     1
 10
387.525985
 20
-829.276451
 30
0.0
 40
3.0
 50
182.967981
 51
270.000000
  0
LINE
  8
0
  6
BYLAYER
 62
     1
 10
399.829085
 20
-832.276451
 30
0.0
 11
387.525985
 21
-832.276451
 31
0.0
  0
LINE
  8
0
  6
BYLAYER
 62
     1
 10
344.561629
 20
-846.276451
 30
0.0
 11
356.829085
 21
-846.276451
 31
0.0
  0
LINE
  8
0
  6
BYLAYER
 62
     1
 10
344.561629
 20
-832.276451
 30
0.0
 11
356.829085
 21
-832.276451
 31
0.0
  0
ARC
  8
0
  6
BYLAYER
 62
     1
 10
473.525985
 20
-829.276527
 30
0.0
 40
2.999997
 50
182.968296
 51
270.000001
  0
ARC
  8
0
  6
BYLAYER
 62
     1
 10
473.525985
 20
-849.276527
 30
0.0
 40
3.000259
 50
90.0
 51
177.031712
  0
LINE
  8
0
  6
BYLAYER
 62
     1
 10
473.525985
 20
-846.276268
 30
0.0
 11
476.711532
 21
-846.276436
 31
0.0
  0
ARC
  8
0
  6
BYLAYER
 62
     1
 10
476.711287
 20
-849.276436
 30
0.0
 40
3.000000
 50
28.436752
 51
90.0
  0
LINE
  8
0
  6
BYLAYER
 62
     1
 10
473.525985
 20
-832.276298
 30
0.0
 11
476.711165
 21
-832.276451
 31
0.0
  0
ARC
  8
0
  6
BYLAYER
 62
     1
 10
476.711287
 20
-829.276451
 30
0.0
 40
3.000000
 50
270.0
 51
331.563090
  0
ARC
  8
0
  6
BYLAYER
 62
     1
 10
495.177474
 20
-839.276451
 30
0.0
 40
18.000021
 50
115.112183
 51
151.563154
  0
ARC
  8
0
  6
BYLAYER
 62
     1
 10
486.265365
 20
-820.261360
 30
0.0
 40
2.999965
 50
295.111874
 51
356.999890
  0
ARC
  8
0
  6
BYLAYER
 62
     1
 10
495.177474
 20
-839.276451
 30
0.0
 40
17.999962
 50
208.436842
 51
244.887827
  0
ARC
  8
0
  6
BYLAYER
 62
     1
 10
486.265365
 20
-858.291496
 30
0.0
 40
2.999951
 50
2.999963
 51
64.887740
  0
LINE
  8
0
  6
BYLAYER
 62
     1
 10
493.650863
 20
-758.276451
 30
0.0
 11
493.537826
 21
-760.433433
 31
0.0
  0
ARC
  8
0
  6
BYLAYER
 62
     1
 10
490.541915
 20
-760.276451
 30
0.0
 40
3.0
 50
270.0
 51
357.000518
  0
LINE
  8
0
  6
BYLAYER
 62
     1
 10
431.595809
 20
-763.276451
 30
0.0
 11
490.541915
 21
-763.276451
 31
0.0
  0
ARC
  8
0
  6
BYLAYER
 62
     1
 10
431.595809
 20
-760.276451
 30
0.0
 40
3.000000
 50
182.999496
 51
270.000000
  0
LINE
  8
0
  6
BYLAYER
 62
     1
 10
428.486861
 20
-758.276451
 30
0.0
 11
428.599898
 21
-760.433433
 31
0.0
  0
LINE
  8
0
  6
BYLAYER
 62
     1
 10
336.704085
 20
-758.276451
 30
0.0
 11
336.817122
 21
-760.433433
 31
0.0
  0
ARC
  8
0
  6
BYLAYER
 62
     1
 10
339.813033
 20
-760.276451
 30
0.0
 40
3.000000
 50
182.999482
 51
270.000000
  0
LINE
  8
0
  6
BYLAYER
 62
     1
 10
398.759139
 20
-763.276451
 30
0.0
 11
339.813033
 21
-763.276451
 31
0.0
  0
ARC
  8
0
  6
BYLAYER
 62
     1
 10
398.759139
 20
-760.276451
 30
0.0
 40
3.000000
 50
270.0
 51
357.000491
  0
LINE
  8
0
  6
BYLAYER
 62
     1
 10
401.868087
 20
-758.276451
 30
0.0
 11
401.755050
 21
-760.433433
 31
0.0
  0
LINE
  8
0
  6
BYLAYER
 62
     1
 10
402.825057
 20
-849.121117
 30
0.0
 11
405.796676
 21
-906.431763
 31
0.0
  0
ARC
  8
0
  6
BYLAYER
 62
     1
 10
408.792647
 20
-906.276420
 30
0.0
 40
2.999996
 50
182.968132
 51
270.000001
  0
LINE
  8
0
  6
BYLAYER
 62
     1
 10
427.530013
 20
-849.121117
 30
0.0
 11
424.558394
 21
-906.431763
 31
0.0
  0
ARC
  8
0
  6
BYLAYER
 62
     1
 10
421.562423
 20
-906.276420
 30
0.0
 40
3.000000
 50
270.0
 51
357.031855
  0
LINE
  8
0
  6
BYLAYER
 62
     1
 10
495.162826
 20
-762.052574
 30
0.0
 11
491.882534
 21
-824.642813
 31
0.0
  0
LINE
  8
0
  6
BYLAYER
 62
     1
 10
495.162826
 20
-916.500297
 30
0.0
 11
491.882534
 21
-853.910089
 31
0.0
  0
LINE
  8
0
  6
BYLAYER
 62
     1
 10
488.555922
 20
-768.397758
 30
0.0
 11
494.298568
 21
-762.655113
 31
0.0
  0
ARC
  8
0
  6
BYLAYER
 62
     1
 10
486.434600
 20
-766.276451
 30
0.0
 40
3.000015
 50
270.0
 51
315.000210
  0
LINE
  8
0
  6
BYLAYER
 62
     1
 10
486.434600
 20
-769.276466
 30
0.0
 11
343.919860
 21
-769.276466
 31
0.0
  0
LINE
  8
0
  6
BYLAYER
 62
     1
 10
336.055900
 20
-762.655113
 30
0.0
 11
341.798530
 21
-768.397774
 31
0.0
  0
ARC
  8
0
  6
BYLAYER
 62
     1
 10
343.919860
 20
-766.276466
 30
0.0
 40
3.000000
 50
224.999695
 51
270.000000
  0
LINE
  8
0
  6
BYLAYER
 62
     1
 10
338.177169
 20
-764.776390
 30
0.0
 11
342.081527
 21
-839.276573
 31
0.0
  0
LINE
  8
0
  6
BYLAYER
 62
     1
 10
492.177291
 20
-764.776390
 30
0.0
 11
488.988994
 21
-825.612531
 31
0.0
  0
LINE
  8
0
  6
BYLAYER
 62
     1
 10
341.798514
 20
-910.155136
 30
0.0
 11
336.055892
 21
-915.897758
 31
0.0
  0
ARC
  8
0
  6
BYLAYER
 62
     1
 10
343.919837
 20
-912.276455
 30
0.0
 40
2.999989
 50
90.0
 51
135.000052
  0
LINE
  8
0
  6
BYLAYER
 62
     1
 10
486.434600
 20
-909.276489
 30
0.0
 11
343.919837
 21
-909.276466
 31
0.0
  0
LINE
  8
0
  6
BYLAYER
 62
     1
 10
488.555922
 20
-910.155113
 30
0.0
 11
494.298568
 21
-915.897758
 31
0.0
  0
ARC
  8
0
  6
BYLAYER
 62
     1
 10
486.434600
 20
-912.276436
 30
0.0
 40
2.999947
 50
44.999999
 51
90.0
  0
LINE
  8
0
  6
BYLAYER
 62
     1
 10
470.530013
 20
-849.121178
 30
0.0
 11
467.558379
 21
-906.431831
 31
0.0
  0
ARC
  8
0
  6
BYLAYER
 62
     1
 10
464.562407
 20
-906.276485
 30
0.0
 40
3.0
 50
270.0
 51
357.031773
  0
LINE
  8
0
  6
BYLAYER
 62
     1
 10
445.825057
 20
-849.121117
 30
0.0
 11
448.796676
 21
-906.431831
 31
0.0
  0
ARC
  8
0
  6
BYLAYER
 62
     1
 10
451.792663
 20
-906.276485
 30
0.0
 40
3.000012
 50
182.968200
 51
270.000001
  0
LINE
  8
0
  6
BYLAYER
 62
     1
 10
384.530013
 20
-849.121117
 30
0.0
 11
381.558379
 21
-906.431812
 31
0.0
  0
ARC
  8
0
  6
BYLAYER
 62
     1
 10
378.562407
 20
-906.276470
 30
0.0
 40
3.000004
 50
270.0
 51
357.031855
  0
LINE
  8
0
  6
BYLAYER
 62
     1
 10
359.825057
 20
-849.121117
 30
0.0
 11
362.796676
 21
-906.431816
 31
0.0
  0
ARC
  8
0
  6
BYLAYER
 62
     1
 10
365.792663
 20
-906.276470
 30
0.0
 40
3.000012
 50
182.968200
 51
270.000001
  0
LINE
  8
0
  6
BYLAYER
 62
     1
 10
338.177169
 20
-913.776478
 30
0.0
 11
342.081527
 21
-839.276451
 31
0.0
  0
LINE
  8
0
  6
BYLAYER
 62
     1
 10
488.988994
 20
-852.940371
 30
0.0
 11
492.177291
 21
-913.776478
 31
0.0
  0
ARC
  8
0
  6
BYLAYER
 62
     1
 10
365.792663
 20
-772.276436
 30
0.0
 40
3.000012
 50
90.0
 51
177.031794
  0
ARC
  8
0
  6
BYLAYER
 62
     1
 10
378.562407
 20
-772.276436
 30
0.0
 40
3.000015
 50
2.968145
 51
90.000000
  0
ARC
  8
0
  6
BYLAYER
 62
     1
 10
408.792647
 20
-772.276482
 30
0.0
 40
2.999996
 50
90.0
 51
177.031862
  0
ARC
  8
0
  6
BYLAYER
 62
     1
 10
421.562423
 20
-772.276482
 30
0.0
 40
3.0
 50
2.968145
 51
90.0
  0
ARC
  8
0
  6
BYLAYER
 62
     1
 10
451.792663
 20
-772.276420
 30
0.0
 40
3.000012
 50
90.0
 51
177.031794
  0
ARC
  8
0
  6
BYLAYER
 62
     1
 10
464.562407
 20
-772.276420
 30
0.0
 40
3.0
 50
2.968227
 51
90.000000
  0
LINE
  8
0
  6
BYLAYER
 62
     1
 10
470.530013
 20
-829.431877
 30
0.0
 11
467.558379
 21
-772.121071
 31
0.0
  0
LINE
  8
0
  6
BYLAYER
 62
     1
 10
445.825057
 20
-829.431785
 30
0.0
 11
448.796676
 21
-772.121071
 31
0.0
  0
LINE
  8
0
  6
BYLAYER
 62
     1
 10
427.530013
 20
-829.431785
 30
0.0
 11
424.558379
 21
-772.121132
 31
0.0
  0
LINE
  8
0
  6
BYLAYER
 62
     1
 10
402.825057
 20
-829.431785
 30
0.0
 11
405.796676
 21
-772.121132
 31
0.0
  0
LINE
  8
0
  6
BYLAYER
 62
     1
 10
384.530013
 20
-829.431785
 30
0.0
 11
381.558379
 21
-772.121086
 31
0.0
  0
LINE
  8
0
  6
BYLAYER
 62
     1
 10
359.825057
 20
-829.431785
 30
0.0
 11
362.796676
 21
-772.121086
 31
0.0
  0
LINE
  8
0
  6
BYLAYER
 62
     1
 10
272.677230
 20
-916.776420
 30
0.0
 11
272.677230
 21
-761.776451
 31
0.0
  0
LINE
  8
0
  6
BYLAYER
 62
     1
 10
555.177230
 20
-916.776420
 30
0.0
 11
555.177230
 21
-761.776451
 31
0.0
  0
CIRCLE
  8
0
  6
BYLAYER
 62
     1
 10
495.177474
 20
-839.276451
 30
0.0
 40
15.0
  0
LINE
  8
0
  6
BYLAYER
 62
     1
 10
505.177474
 20
-923.276420
 30
0.0
 11
504.177474
 21
-924.276420
 31
0.0
  0
LINE
  8
0
  6
BYLAYER
 62
     1
 10
325.177474
 20
-923.276451
 30
0.0
 11
326.177474
 21
-924.276451
 31
0.0
  0
LINE
  8
0
  6
BYLAYER
 62
     1
 10
505.177474
 20
-920.276420
 30
0.0
 11
505.177474
 21
-923.276420
 31
0.0
  0
LINE
  8
0
  6
BYLAYER
 62
     1
 10
325.177474
 20
-920.276451
 30
0.0
 11
325.177474
 21
-923.276451
 31
0.0
  0
LINE
  8
0
  6
BYLAYER
 62
     1
 10
504.177474
 20
-924.276420
 30
0.0
 11
326.177474
 21
-924.276451
 31
0.0
  0
LINE
  8
0
  6
BYLAYER
 62
     1
 10
289.994002
 20
-916.776451
 30
0.0
 11
290.177474
 21
-920.276451
 31
0.0
  0
LINE
  8
0
  6
BYLAYER
 62
     1
 10
540.177474
 20
-920.276420
 30
0.0
 11
540.360946
 21
-916.776420
 31
0.0
  0
LINE
  8
0
  6
BYLAYER
 62
     1
 10
290.177474
 20
-920.276451
 30
0.0
 11
540.177474
 21
-920.276420
 31
0.0
  0
LINE
  8
0
  6
BYLAYER
 62
     1
 10
493.650863
 20
-920.276451
 30
0.0
 11
493.537826
 21
-918.119469
 31
0.0
  0
ARC
  8
0
  6
BYLAYER
 62
     1
 10
490.541915
 20
-918.276451
 30
0.0
 40
3.0
 50
2.999482
 51
90.000000
  0
LINE
  8
0
  6
BYLAYER
 62
     1
 10
431.595809
 20
-915.276451
 30
0.0
 11
490.541915
 21
-915.276451
 31
0.0
  0
ARC
  8
0
  6
BYLAYER
 62
     1
 10
431.595809
 20
-918.276451
 30
0.0
 40
3.0
 50
90.0
 51
177.000504
  0
LINE
  8
0
  6
BYLAYER
 62
     1
 10
428.486861
 20
-920.276451
 30
0.0
 11
428.599898
 21
-918.119469
 31
0.0
  0
LINE
  8
0
  6
BYLAYER
 62
     1
 10
336.704085
 20
-920.276451
 30
0.0
 11
336.817122
 21
-918.119469
 31
0.0
  0
ARC
  8
0
  6
BYLAYER
 62
     1
 10
339.813033
 20
-918.276451
 30
0.0
 40
3.0
 50
90.0
 51
177.000518
  0
LINE
  8
0
  6
BYLAYER
 62
     1
 10
398.759139
 20
-915.276451
 30
0.0
 11
339.813033
 21
-915.276451
 31
0.0
  0
ARC
  8
0
  6
BYLAYER
 62
     1
 10
398.759139
 20
-918.276451
 30
0.0
 40
3.000000
 50
2.999509
 51
90.000000
  0
LINE
  8
0
  6
BYLAYER
 62
     1
 10
401.868087
 20
-920.276451
 30
0.0
 11
401.755050
 21
-918.119469
 31
0.0
  0
ARC
  8
0
  6
BYLAYER
 62
     1
 10
399.829085
 20
-849.276451
 30
0.0
 40
3.000000
 50
2.967981
 51
90.000000
  0
ARC
  8
0
  6
BYLAYER
 62
     1
 10
399.829085
 20
-829.276451
 30
0.0
 40
3.0
 50
270.0
 51
357.032019
  0
LINE
  8
0
  6
BYLAYER
 62
     1
 10
430.525985
 20
-846.276451
 30
0.0
 11
442.829085
 21
-846.276451
 31
0.0
  0
ARC
  8
0
  6
BYLAYER
 62
     1
 10
430.525985
 20
-849.276451
 30
0.0
 40
3.0
 50
90.0
 51
177.032012
  0
ARC
  8
0
  6
BYLAYER
 62
     1
 10
442.829085
 20
-849.276451
 30
0.0
 40
3.000000
 50
2.967981
 51
90.000000
  0
LINE
  8
0
  6
BYLAYER
 62
     1
 10
430.525985
 20
-832.276451
 30
0.0
 11
442.829085
 21
-832.276451
 31
0.0
  0
ARC
  8
0
  6
BYLAYER
 62
     1
 10
430.525985
 20
-829.276451
 30
0.0
 40
3.0
 50
182.967981
 51
270.000000
  0
ARC
  8
0
  6
BYLAYER
 62
     1
 10
442.829085
 20
-829.276451
 30
0.0
 40
3.0
 50
270.0
 51
357.032019
  0
LINE
  8
0
  6
BYLAYER
 62
     1
 10
596.677337
 20
-759.276436
 30
0.0
 11
596.677337
 21
-839.276436
 31
0.0
  0
ARC
  8
0
  6
BYLAYER
 62
     1
 10
604.677337
 20
-761.276436
 30
0.0
 40
2.000000
 50
0.0
 51
90.0
  0
ARC
  8
0
  6
BYLAYER
 62
     1
 10
608.677337
 20
-782.276436
 30
0.0
 40
2.000000
 50
180.000000
 51
270.000000
  0
LINE
  8
0
  6
BYLAYER
 62
     1
 10
596.677337
 20
-759.276436
 30
0.0
 11
604.677337
 21
-759.276436
 31
0.0
  0
LINE
  8
0
  6
BYLAYER
 62
     1
 10
608.677337
 20
-784.276436
 30
0.0
 11
640.177337
 21
-784.276436
 31
0.0
  0
LINE
  8
0
  6
BYLAYER
 62
     1
 10
645.177337
 20
-813.419293
 30
0.0
 11
645.177337
 21
-789.276436
 31
0.0
  0
ARC
  8
0
  6
BYLAYER
 62
     1
 10
647.177337
 20
-813.419293
 30
0.0
 40
2.000000
 50
180.000000
 51
270.000000
  0
ARC
  8
0
  6
BYLAYER
 62
     1
 10
640.177337
 20
-789.276436
 30
0.0
 40
5.000000
 50
0.0
 51
90.0
  0
LINE
  8
0
  6
BYLAYER
 62
     1
 10
606.677337
 20
-761.276436
 30
0.0
 11
606.677337
 21
-839.276436
 31
0.0
  0
LINE
  8
0
  6
BYLAYER
 62
     1
 10
639.189337
 20
-771.601940
 30
0.0
 11
608.817337
 21
-771.601940
 31
0.0
  0
ARC
  8
0
  6
BYLAYER
 62
     1
 10
608.817337
 20
-769.601940
 30
0.0
 40
2.000000
 50
180.000000
 51
270.000000
  0
ARC
  8
0
  6
BYLAYER
 62
     1
 10
639.189337
 20
-769.601940
 30
0.0
 40
2.000000
 50
270.0
 51
360.0
  0
ARC
  8
0
  6
BYLAYER
 62
     1
 10
643.677337
 20
-741.276436
 30
0.0
 40
2.000000
 50
90.0
 51
180.0
  0
LINE
  8
0
  6
BYLAYER
 62
     1
 10
653.677337
 20
-839.276436
 30
0.0
 11
653.677337
 21
-739.276436
 31
0.0
  0
LINE
  8
0
  6
BYLAYER
 62
     1
 10
653.677337
 20
-739.276436
 30
0.0
 11
643.677337
 21
-739.276436
 31
0.0
  0
LINE
  8
0
  6
BYLAYER
 62
     1
 10
641.677337
 20
-741.276436
 30
0.0
 11
641.677337
 21
-784.506739
 31
0.0
  0
LINE
  8
0
  6
BYLAYER
 62
     1
 10
596.677337
 20
-919.276435
 30
0.0
 11
596.677337
 21
-839.276436
 31
0.0
  0
ARC
  8
0
  6
BYLAYER
 62
     1
 10
604.677337
 20
-917.276435
 30
0.0
 40
2.000000
 50
270.0
 51
360.0
  0
ARC
  8
0
  6
BYLAYER
 62
     1
 10
608.677337
 20
-896.276435
 30
0.0
 40
2.000000
 50
90.0
 51
180.0
  0
LINE
  8
0
  6
BYLAYER
 62
     1
 10
596.677337
 20
-919.276435
 30
0.0
 11
604.677337
 21
-919.276435
 31
0.0
  0
LINE
  8
0
  6
BYLAYER
 62
     1
 10
608.677337
 20
-894.276435
 30
0.0
 11
640.177337
 21
-894.276435
 31
0.0
  0
LINE
  8
0
  6
BYLAYER
 62
     1
 10
645.177337
 20
-865.133578
 30
0.0
 11
645.177337
 21
-889.276435
 31
0.0
  0
ARC
  8
0
  6
BYLAYER
 62
     1
 10
647.177337
 20
-865.133578
 30
0.0
 40
2.000000
 50
90.0
 51
180.0
  0
ARC
  8
0
  6
BYLAYER
 62
     1
 10
640.177337
 20
-889.276435
 30
0.0
 40
5.000000
 50
270.0
 51
360.0
  0
LINE
  8
0
  6
BYLAYER
 62
     1
 10
606.677337
 20
-917.276435
 30
0.0
 11
606.677337
 21
-839.276436
 31
0.0
  0
LINE
  8
0
  6
BYLAYER
 62
     1
 10
639.189337
 20
-906.950931
 30
0.0
 11
608.817337
 21
-906.950931
 31
0.0
  0
ARC
  8
0
  6
BYLAYER
 62
     1
 10
608.817337
 20
-908.950931
 30
0.0
 40
2.000000
 50
90.0
 51
180.0
  0
ARC
  8
0
  6
BYLAYER
 62
     1
 10
639.189337
 20
-908.950931
 30
0.0
 40
2.000000
 50
0.0
 51
90.0
  0
ARC
  8
0
  6
BYLAYER
 62
     1
 10
643.677337
 20
-937.276435
 30
0.0
 40
2.000000
 50
180.000000
 51
270.000000
  0
LINE
  8
0
  6
BYLAYER
 62
     1
 10
653.677337
 20
-839.276436
 30
0.0
 11
653.677337
 21
-939.276435
 31
0.0
  0
LINE
  8
0
  6
BYLAYER
 62
     1
 10
653.677337
 20
-939.276435
 30
0.0
 11
643.677337
 21
-939.276435
 31
0.0
  0
LINE
  8
0
  6
BYLAYER
 62
     1
 10
641.677337
 20
-937.276435
 30
0.0
 11
641.677337
 21
-894.046132
 31
0.0
  0
LINE
  8
0
  6
BYLAYER
 62
     1
 10
584.677337
 20
-839.276436
 30
0.0
 11
584.677337
 21
-918.856883
 31
0.0
  0
LINE
  8
0
  6
BYLAYER
 62
     1
 10
596.677337
 20
-839.276436
 30
0.0
 11
596.677337
 21
-759.276421
 31
0.0
  0
LINE
  8
0
  6
BYLAYER
 62
     1
 10
584.677337
 20
-759.695470
 30
0.0
 11
584.677337
 21
-839.276436
 31
0.0
  0
LINE
  8
0
  6
BYLAYER
 62
     1
 10
596.677337
 20
-919.276421
 30
0.0
 11
596.677337
 21
-839.276436
 31
0.0
  0
LINE
  8
0
  6
BYLAYER
 62
     1
 10
596.677337
 20
-759.276421
 30
0.0
 11
584.677337
 21
-759.695470
 31
0.0
  0
LINE
  8
0
  6
BYLAYER
 62
     1
 10
584.677337
 20
-918.856883
 30
0.0
 11
596.677337
 21
-919.275933
 31
0.0
  0
LINE
  8
0
  6
BYLAYER
 62
     1
 10
574.697815
 20
-774.324532
 30
0.0
 11
568.419525
 21
-786.626228
 31
0.0
  0
LINE
  8
0
  6
BYLAYER
 62
     1
 10
574.697815
 20
-839.276436
 30
0.0
 11
574.697815
 21
-761.697334
 31
0.0
  0
LINE
  8
0
  6
BYLAYER
 62
     1
 10
584.677337
 20
-759.276450
 30
0.0
 11
584.677337
 21
-839.276436
 31
0.0
  0
LINE
  8
0
  6
BYLAYER
 62
     1
 10
576.593139
 20
-759.700142
 30
0.0
 11
584.677337
 21
-759.276450
 31
0.0
  0
ARC
  8
0
  6
BYLAYER
 62
     1
 10
573.697815
 20
-782.148841
 30
0.0
 40
0.999972
 50
302.000007
 51
360.000000
  0
LINE
  8
0
  6
BYLAYER
 62
     1
 10
560.177307
 20
-791.776558
 30
0.0
 11
574.227722
 21
-782.996864
 31
0.0
  0
LINE
  8
0
  6
BYLAYER
 62
     1
 10
560.177337
 20
-791.776558
 30
0.0
 11
560.177230
 21
-839.276436
 31
0.0
  0
ARC
  8
0
  6
BYLAYER
 62
     1
 10
576.697815
 20
-761.697334
 30
0.0
 40
1.999969
 50
93.000028
 51
180.0
  0
LINE
  8
0
  6
BYLAYER
 62
     1
 10
574.697815
 20
-904.228340
 30
0.0
 11
568.419525
 21
-891.926644
 31
0.0
  0
LINE
  8
0
  6
BYLAYER
 62
     1
 10
574.697815
 20
-839.276436
 30
0.0
 11
574.697815
 21
-916.855538
 31
0.0
  0
LINE
  8
0
  6
BYLAYER
 62
     1
 10
584.677337
 20
-919.276421
 30
0.0
 11
584.677337
 21
-839.276436
 31
0.0
  0
LINE
  8
0
  6
BYLAYER
 62
     1
 10
576.593139
 20
-918.852730
 30
0.0
 11
584.677337
 21
-919.276421
 31
0.0
  0
ARC
  8
0
  6
BYLAYER
 62
     1
 10
573.697815
 20
-896.404030
 30
0.0
 40
0.999972
 50
0.0
 51
57.999993
  0
LINE
  8
0
  6
BYLAYER
 62
     1
 10
560.177307
 20
-886.776314
 30
0.0
 11
574.227722
 21
-895.556008
 31
0.0
  0
LINE
  8
0
  6
BYLAYER
 62
     1
 10
560.177337
 20
-886.776314
 30
0.0
 11
560.177230
 21
-839.276436
 31
0.0
  0
ARC
  8
0
  6
BYLAYER
 62
     1
 10
576.697815
 20
-916.855538
 30
0.0
 40
1.999969
 50
180.000000
 51
266.999972
  0
ENDSEC
  0
EOF
