  0
SECTION
  2
HEADER
  9
$EXTMIN
 10
236.191126
 20
951.235495
 30
0.0
  9
$EXTMAX
 10
1248.901024
 20
0.0
 30
0.0
  0
ENDSEC
  0
SECTION
  2
TABLES
  0
ENDSEC
  0
SECTION
  2
BLOCKS
  0
ENDSEC
  0
SECTION
  2
ENTITIES
  0
LINE
  8
0
  6
BYLAYER
 62
     7
 10
630.728669
 20
-215.526451
 30
0.0
 11
630.728669
 21
-227.776451
 31
0.0
  0
LINE
  8
0
  6
BYLAYER
 62
     7
 10
633.228669
 20
-215.526451
 30
0.0
 11
630.728669
 21
-215.526451
 31
0.0
  0
LINE
  8
0
  6
BYLAYER
 62
     7
 10
630.728669
 20
-227.776451
 30
0.0
 11
608.228669
 21
-228.169190
 31
0.0
  0
LINE
  8
0
  6
BYLAYER
 62
     7
 10
608.228669
 20
-242.276451
 30
0.0
 11
596.228669
 21
-242.276451
 31
0.0
  0
LINE
  8
0
  6
BYLAYER
 62
     7
 10
608.228669
 20
-42.276451
 30
0.0
 11
596.228669
 21
-42.276451
 31
0.0
  0
LINE
  8
0
  6
BYLAYER
 62
     7
 10
608.228669
 20
-42.276451
 30
0.0
 11
608.228669
 21
-142.276451
 31
0.0
  0
ARC
  8
0
  6
BYLAYER
 62
     7
 10
609.228669
 20
-68.793754
 30
0.0
 40
1.000000
 50
180.000000
 51
269.000000
  0
LINE
  8
0
  6
BYLAYER
 62
     7
 10
608.228669
 20
-142.276451
 30
0.0
 11
608.228669
 21
-242.276451
 31
0.0
  0
LINE
  8
0
  6
BYLAYER
 62
     7
 10
609.211217
 20
-69.793601
 30
0.0
 11
633.228669
 21
-70.212828
 31
0.0
  0
LINE
  8
0
  6
BYLAYER
 62
     7
 10
633.228669
 20
-70.212828
 30
0.0
 11
633.228669
 21
-215.526451
 31
0.0
  0
LINE
  8
0
  6
BYLAYER
 62
     7
 10
596.228669
 20
-142.276451
 30
0.0
 11
596.228669
 21
-242.276451
 31
0.0
  0
LINE
  8
0
  6
BYLAYER
 62
     7
 10
596.228669
 20
-42.276451
 30
0.0
 11
596.228669
 21
-142.276451
 31
0.0
  0
LINE
  8
0
  6
BYLAYER
 62
     7
 10
712.728638
 20
-135.876412
 30
0.0
 11
637.528626
 21
-135.876412
 31
0.0
  0
LINE
  8
0
  6
BYLAYER
 62
     7
 10
712.728638
 20
-137.476418
 30
0.0
 11
637.528626
 21
-137.476418
 31
0.0
  0
ARC
  8
0
  6
BYLAYER
 62
     7
 10
641.528626
 20
-91.876412
 30
0.0
 40
0.799927
 50
90.0
 51
270.000012
  0
ARC
  8
0
  6
BYLAYER
 62
     7
 10
637.528626
 20
-136.676400
 30
0.0
 40
0.800018
 50
90.0
 51
270.000012
  0
ARC
  8
0
  6
BYLAYER
 62
     7
 10
641.528626
 20
-136.676400
 30
0.0
 40
0.800018
 50
90.0
 51
270.000012
  0
ARC
  8
0
  6
BYLAYER
 62
     7
 10
637.528626
 20
-125.476418
 30
0.0
 40
0.799988
 50
90.0
 51
270.000012
  0
ARC
  8
0
  6
BYLAYER
 62
     7
 10
641.528626
 20
-125.476418
 30
0.0
 40
0.799988
 50
90.0
 51
270.000012
  0
ARC
  8
0
  6
BYLAYER
 62
     7
 10
637.528626
 20
-114.276437
 30
0.0
 40
0.799927
 50
90.0
 51
270.000012
  0
ARC
  8
0
  6
BYLAYER
 62
     7
 10
641.528626
 20
-114.276437
 30
0.0
 40
0.799927
 50
90.0
 51
270.000012
  0
LINE
  8
0
  6
BYLAYER
 62
     7
 10
712.728638
 20
-113.476388
 30
0.0
 11
637.528626
 21
-113.476388
 31
0.0
  0
LINE
  8
0
  6
BYLAYER
 62
     7
 10
712.728638
 20
-115.076363
 30
0.0
 11
637.528626
 21
-115.076363
 31
0.0
  0
ARC
  8
0
  6
BYLAYER
 62
     7
 10
637.528626
 20
-103.076363
 30
0.0
 40
0.800049
 50
90.0
 51
270.000012
  0
ARC
  8
0
  6
BYLAYER
 62
     7
 10
641.528626
 20
-103.076363
 30
0.0
 40
0.800049
 50
90.0
 51
270.000012
  0
LINE
  8
0
  6
BYLAYER
 62
     7
 10
712.728638
 20
-102.276437
 30
0.0
 11
637.528626
 21
-102.276437
 31
0.0
  0
LINE
  8
0
  6
BYLAYER
 62
     7
 10
712.728638
 20
-103.876412
 30
0.0
 11
637.528626
 21
-103.876412
 31
0.0
  0
ARC
  8
0
  6
BYLAYER
 62
     7
 10
637.528626
 20
-91.876412
 30
0.0
 40
0.799927
 50
90.0
 51
270.000012
  0
LINE
  8
0
  6
BYLAYER
 62
     7
 10
712.728638
 20
-91.076363
 30
0.0
 11
637.528626
 21
-91.076363
 31
0.0
  0
LINE
  8
0
  6
BYLAYER
 62
     7
 10
712.728638
 20
-92.676339
 30
0.0
 11
637.528626
 21
-92.676339
 31
0.0
  0
LINE
  8
0
  6
BYLAYER
 62
     7
 10
636.728638
 20
-46.276406
 30
0.0
 11
734.728699
 21
-46.276406
 31
0.0
  0
LINE
  8
0
  6
BYLAYER
 62
     7
 10
734.728699
 20
-46.276406
 30
0.0
 11
734.728699
 21
-91.076363
 31
0.0
  0
LINE
  8
0
  6
BYLAYER
 62
     7
 10
636.728638
 20
-69.526437
 30
0.0
 11
633.228638
 21
-69.526437
 31
0.0
  0
ARC
  8
0
  6
BYLAYER
 62
     7
 10
666.228638
 20
-60.276406
 30
0.0
 40
13.000000
 50
180.000019
 51
360.000018
  0
ARC
  8
0
  6
BYLAYER
 62
     7
 10
705.228638
 20
-60.276406
 30
0.0
 40
12.999985
 50
180.000019
 51
360.000018
  0
LINE
  8
0
  6
BYLAYER
 62
     7
 10
642.228638
 20
-92.676339
 30
0.0
 11
642.228638
 21
-102.276437
 31
0.0
  0
LINE
  8
0
  6
BYLAYER
 62
     7
 10
642.228638
 20
-103.876412
 30
0.0
 11
642.228638
 21
-113.476388
 31
0.0
  0
LINE
  8
0
  6
BYLAYER
 62
     7
 10
642.228638
 20
-115.076363
 30
0.0
 11
642.228638
 21
-124.676400
 31
0.0
  0
LINE
  8
0
  6
BYLAYER
 62
     7
 10
642.228638
 20
-126.276406
 30
0.0
 11
642.228638
 21
-135.876412
 31
0.0
  0
LINE
  8
0
  6
BYLAYER
 62
     7
 10
642.228638
 20
-137.476418
 30
0.0
 11
642.228699
 21
-147.076394
 31
0.0
  0
LINE
  8
0
  6
BYLAYER
 62
     7
 10
636.728638
 20
-51.776406
 30
0.0
 11
651.228638
 21
-51.776406
 31
0.0
  0
LINE
  8
0
  6
BYLAYER
 62
     7
 10
653.228638
 20
-60.276406
 30
0.0
 11
653.228638
 21
-53.776406
 31
0.0
  0
ARC
  8
0
  6
BYLAYER
 62
     7
 10
651.228638
 20
-53.776406
 30
0.0
 40
2.0
 50
0.0
 51
90.000003
  0
LINE
  8
0
  6
BYLAYER
 62
     7
 10
679.228638
 20
-60.276406
 30
0.0
 11
679.228638
 21
-53.776406
 31
0.0
  0
ARC
  8
0
  6
BYLAYER
 62
     7
 10
681.228638
 20
-53.776406
 30
0.0
 40
2.0
 50
90.0
 51
180.000003
  0
LINE
  8
0
  6
BYLAYER
 62
     7
 10
681.228638
 20
-51.776406
 30
0.0
 11
690.228638
 21
-51.776406
 31
0.0
  0
LINE
  8
0
  6
BYLAYER
 62
     7
 10
692.228638
 20
-60.276406
 30
0.0
 11
692.228638
 21
-53.776406
 31
0.0
  0
ARC
  8
0
  6
BYLAYER
 62
     7
 10
690.228638
 20
-53.776406
 30
0.0
 40
2.0
 50
0.0
 51
90.000003
  0
LINE
  8
0
  6
BYLAYER
 62
     7
 10
718.228638
 20
-60.276406
 30
0.0
 11
718.228638
 21
-53.776406
 31
0.0
  0
LINE
  8
0
  6
BYLAYER
 62
     7
 10
720.228699
 20
-51.776406
 30
0.0
 11
734.728699
 21
-51.776406
 31
0.0
  0
ARC
  8
0
  6
BYLAYER
 62
     7
 10
720.228699
 20
-53.776406
 30
0.0
 40
2.000061
 50
90.0
 51
180.000003
  0
LINE
  8
0
  6
BYLAYER
 62
     7
 10
636.728638
 20
-57.776406
 30
0.0
 11
653.228638
 21
-57.776406
 31
0.0
  0
LINE
  8
0
  6
BYLAYER
 62
     7
 10
679.228638
 20
-57.776406
 30
0.0
 11
692.228638
 21
-57.776406
 31
0.0
  0
LINE
  8
0
  6
BYLAYER
 62
     7
 10
718.228638
 20
-57.776406
 30
0.0
 11
734.728699
 21
-57.776406
 31
0.0
  0
LINE
  8
0
  6
BYLAYER
 62
     7
 10
712.728638
 20
-147.076424
 30
0.0
 11
637.528626
 21
-147.076424
 31
0.0
  0
LINE
  8
0
  6
BYLAYER
 62
     7
 10
712.728638
 20
-148.676430
 30
0.0
 11
637.528626
 21
-148.676430
 31
0.0
  0
ARC
  8
0
  6
BYLAYER
 62
     7
 10
637.528626
 20
-147.876412
 30
0.0
 40
0.800018
 50
90.0
 51
270.000012
  0
ARC
  8
0
  6
BYLAYER
 62
     7
 10
641.528626
 20
-147.876412
 30
0.0
 40
0.800018
 50
90.0
 51
270.000012
  0
LINE
  8
0
  6
BYLAYER
 62
     7
 10
712.728638
 20
-158.276406
 30
0.0
 11
637.528626
 21
-158.276406
 31
0.0
  0
LINE
  8
0
  6
BYLAYER
 62
     7
 10
712.728638
 20
-159.876412
 30
0.0
 11
637.528626
 21
-159.876412
 31
0.0
  0
ARC
  8
0
  6
BYLAYER
 62
     7
 10
637.528626
 20
-159.076394
 30
0.0
 40
0.800018
 50
90.0
 51
270.000012
  0
ARC
  8
0
  6
BYLAYER
 62
     7
 10
641.528626
 20
-159.076394
 30
0.0
 40
0.800018
 50
90.0
 51
270.000012
  0
LINE
  8
0
  6
BYLAYER
 62
     7
 10
712.728638
 20
-169.476418
 30
0.0
 11
637.528626
 21
-169.476418
 31
0.0
  0
LINE
  8
0
  6
BYLAYER
 62
     7
 10
712.728638
 20
-171.076424
 30
0.0
 11
637.528626
 21
-171.076424
 31
0.0
  0
ARC
  8
0
  6
BYLAYER
 62
     7
 10
637.528626
 20
-170.276406
 30
0.0
 40
0.800018
 50
90.0
 51
270.000012
  0
ARC
  8
0
  6
BYLAYER
 62
     7
 10
641.528626
 20
-170.276406
 30
0.0
 40
0.800018
 50
90.0
 51
270.000012
  0
LINE
  8
0
  6
BYLAYER
 62
     7
 10
712.728638
 20
-180.676400
 30
0.0
 11
637.528626
 21
-180.676400
 31
0.0
  0
LINE
  8
0
  6
BYLAYER
 62
     7
 10
712.728638
 20
-182.276406
 30
0.0
 11
637.528626
 21
-182.276406
 31
0.0
  0
ARC
  8
0
  6
BYLAYER
 62
     7
 10
637.528626
 20
-181.476388
 30
0.0
 40
0.800018
 50
90.0
 51
270.000012
  0
ARC
  8
0
  6
BYLAYER
 62
     7
 10
641.528626
 20
-181.476388
 30
0.0
 40
0.800018
 50
90.0
 51
270.000012
  0
LINE
  8
0
  6
BYLAYER
 62
     7
 10
712.728638
 20
-191.876412
 30
0.0
 11
637.528626
 21
-191.876412
 31
0.0
  0
ARC
  8
0
  6
BYLAYER
 62
     7
 10
637.528626
 20
-192.676400
 30
0.0
 40
0.800018
 50
90.0
 51
270.000012
  0
ARC
  8
0
  6
BYLAYER
 62
     7
 10
641.528626
 20
-192.676400
 30
0.0
 40
0.800018
 50
90.0
 51
270.000012
  0
LINE
  8
0
  6
BYLAYER
 62
     7
 10
636.728638
 20
-46.276406
 30
0.0
 11
636.728699
 21
-215.026406
 31
0.0
  0
LINE
  8
0
  6
BYLAYER
 62
     7
 10
712.728638
 20
-169.476418
 30
0.0
 11
779.263671
 21
-169.476372
 31
0.0
  0
LINE
  8
0
  6
BYLAYER
 62
     7
 10
712.728638
 20
-171.076424
 30
0.0
 11
779.263671
 21
-171.076378
 31
0.0
  0
LINE
  8
0
  6
BYLAYER
 62
     7
 10
642.228638
 20
-148.676400
 30
0.0
 11
642.228699
 21
-158.276406
 31
0.0
  0
LINE
  8
0
  6
BYLAYER
 62
     7
 10
642.228638
 20
-159.876412
 30
0.0
 11
642.228699
 21
-169.476388
 31
0.0
  0
LINE
  8
0
  6
BYLAYER
 62
     7
 10
642.228638
 20
-171.076424
 30
0.0
 11
642.228699
 21
-180.676400
 31
0.0
  0
LINE
  8
0
  6
BYLAYER
 62
     7
 10
642.228638
 20
-182.276406
 30
0.0
 11
642.228699
 21
-191.876382
 31
0.0
  0
ARC
  8
0
  6
BYLAYER
 62
     7
 10
672.728638
 20
-125.476418
 30
0.0
 40
3.000015
 50
13.212986
 51
166.787045
  0
ARC
  8
0
  6
BYLAYER
 62
     7
 10
727.728699
 20
-125.476388
 30
0.0
 40
3.000015
 50
13.213048
 51
166.786990
  0
ARC
  8
0
  6
BYLAYER
 62
     7
 10
727.728699
 20
-125.476388
 30
0.0
 40
3.000008
 50
193.212979
 51
346.787064
  0
ARC
  8
0
  6
BYLAYER
 62
     7
 10
672.728638
 20
-125.476418
 30
0.0
 40
3.000008
 50
193.212979
 51
346.787064
  0
LINE
  8
0
  6
BYLAYER
 62
     7
 10
724.837342
 20
-124.676369
 30
0.0
 11
700.228638
 21
-124.676400
 31
0.0
  0
LINE
  8
0
  6
BYLAYER
 62
     7
 10
724.837342
 20
-126.276375
 30
0.0
 11
700.228638
 21
-126.276406
 31
0.0
  0
LINE
  8
0
  6
BYLAYER
 62
     7
 10
637.528626
 20
-124.676400
 30
0.0
 11
669.837281
 21
-124.676400
 31
0.0
  0
LINE
  8
0
  6
BYLAYER
 62
     7
 10
637.528626
 20
-126.276406
 30
0.0
 11
669.837281
 21
-126.276406
 31
0.0
  0
LINE
  8
0
  6
BYLAYER
 62
     7
 10
700.228638
 20
-124.676400
 30
0.0
 11
675.620026
 21
-124.676400
 31
0.0
  0
LINE
  8
0
  6
BYLAYER
 62
     7
 10
675.620026
 20
-126.276406
 30
0.0
 11
700.228638
 21
-126.276406
 31
0.0
  0
LINE
  8
0
  6
BYLAYER
 62
     7
 10
642.228699
 20
-195.217629
 30
0.0
 11
636.728699
 21
-198.057198
 31
0.0
  0
LINE
  8
0
  6
BYLAYER
 62
     7
 10
636.728699
 20
-198.057198
 30
0.0
 11
640.230713
 21
-206.990243
 31
0.0
  0
ARC
  8
0
  6
BYLAYER
 62
     7
 10
642.092743
 20
-206.260262
 30
0.0
 40
2.000007
 50
201.406501
 51
270.000001
  0
LINE
  8
0
  6
BYLAYER
 62
     7
 10
636.728699
 20
-215.026437
 30
0.0
 11
633.228699
 21
-215.026437
 31
0.0
  0
LINE
  8
0
  6
BYLAYER
 62
     7
 10
636.728699
 20
-202.726540
 30
0.0
 11
640.321869
 21
-215.668099
 31
0.0
  0
ARC
  8
0
  6
BYLAYER
 62
     7
 10
642.248963
 20
-215.133034
 30
0.0
 40
2.000010
 50
195.517184
 51
270.000001
  0
LINE
  8
0
  6
BYLAYER
 62
     7
 10
636.728699
 20
-208.895333
 30
0.0
 11
640.296387
 21
-220.585702
 31
0.0
  0
ARC
  8
0
  6
BYLAYER
 62
     7
 10
642.209290
 20
-220.001931
 30
0.0
 40
1.999996
 50
196.971318
 51
270.000001
  0
LINE
  8
0
  6
BYLAYER
 62
     7
 10
636.728699
 20
-212.763161
 30
0.0
 11
640.279907
 21
-223.706307
 31
0.0
  0
ARC
  8
0
  6
BYLAYER
 62
     7
 10
642.182251
 20
-223.088967
 30
0.0
 40
2.000005
 50
197.979057
 51
270.000001
  0
ARC
  8
0
  6
BYLAYER
 62
     7
 10
641.618042
 20
-224.590096
 30
0.0
 40
2.000005
 50
197.979057
 51
270.000001
  0
LINE
  8
0
  6
BYLAYER
 62
     7
 10
639.715699
 20
-225.207436
 30
0.0
 11
636.411804
 21
-215.026437
 31
0.0
  0
LINE
  8
0
  6
BYLAYER
 62
     7
 10
734.728699
 20
-70.721322
 30
0.0
 11
779.263671
 21
-70.721322
 31
0.0
  0
LINE
  8
0
  6
BYLAYER
 62
     7
 10
734.728699
 20
-61.264260
 30
0.0
 11
779.263671
 21
-61.264260
 31
0.0
  0
LINE
  8
0
  6
BYLAYER
 62
     7
 10
734.728699
 20
-62.765420
 30
0.0
 11
779.263671
 21
-62.765420
 31
0.0
  0
LINE
  8
0
  6
BYLAYER
 62
     7
 10
633.228699
 20
-215.026437
 30
0.0
 11
633.228638
 21
-69.526435
 31
0.0
  0
LINE
  8
0
  6
BYLAYER
 62
     7
 10
734.728699
 20
-65.852425
 30
0.0
 11
779.263671
 21
-65.852425
 31
0.0
  0
LINE
  8
0
  6
BYLAYER
 62
     7
 10
712.728638
 20
-91.076363
 30
0.0
 11
779.263671
 21
-91.076363
 31
0.0
  0
LINE
  8
0
  6
BYLAYER
 62
     7
 10
712.728638
 20
-92.676339
 30
0.0
 11
779.263671
 21
-92.676339
 31
0.0
  0
LINE
  8
0
  6
BYLAYER
 62
     7
 10
712.728638
 20
-102.276437
 30
0.0
 11
779.263671
 21
-102.276274
 31
0.0
  0
LINE
  8
0
  6
BYLAYER
 62
     7
 10
712.728638
 20
-103.876412
 30
0.0
 11
779.263671
 21
-103.876412
 31
0.0
  0
LINE
  8
0
  6
BYLAYER
 62
     7
 10
712.728638
 20
-113.476388
 30
0.0
 11
779.263671
 21
-113.476388
 31
0.0
  0
LINE
  8
0
  6
BYLAYER
 62
     7
 10
712.728638
 20
-115.076363
 30
0.0
 11
779.263671
 21
-115.076363
 31
0.0
  0
LINE
  8
0
  6
BYLAYER
 62
     7
 10
730.620056
 20
-124.676369
 30
0.0
 11
779.263671
 21
-124.676369
 31
0.0
  0
LINE
  8
0
  6
BYLAYER
 62
     7
 10
730.620056
 20
-126.276375
 30
0.0
 11
779.263671
 21
-126.276375
 31
0.0
  0
LINE
  8
0
  6
BYLAYER
 62
     7
 10
712.728638
 20
-135.876412
 30
0.0
 11
779.263671
 21
-135.876372
 31
0.0
  0
LINE
  8
0
  6
BYLAYER
 62
     7
 10
712.728638
 20
-137.476418
 30
0.0
 11
779.263671
 21
-137.476378
 31
0.0
  0
LINE
  8
0
  6
BYLAYER
 62
     7
 10
712.728638
 20
-147.076424
 30
0.0
 11
779.263671
 21
-147.076384
 31
0.0
  0
LINE
  8
0
  6
BYLAYER
 62
     7
 10
712.728638
 20
-148.676430
 30
0.0
 11
779.263671
 21
-148.676390
 31
0.0
  0
LINE
  8
0
  6
BYLAYER
 62
     7
 10
712.728638
 20
-158.276406
 30
0.0
 11
779.263671
 21
-158.276365
 31
0.0
  0
LINE
  8
0
  6
BYLAYER
 62
     7
 10
712.728638
 20
-159.876412
 30
0.0
 11
779.263671
 21
-159.876372
 31
0.0
  0
LINE
  8
0
  6
BYLAYER
 62
     7
 10
712.728638
 20
-180.676400
 30
0.0
 11
779.263671
 21
-180.676359
 31
0.0
  0
LINE
  8
0
  6
BYLAYER
 62
     7
 10
712.728638
 20
-182.276406
 30
0.0
 11
779.263671
 21
-182.276365
 31
0.0
  0
LINE
  8
0
  6
BYLAYER
 62
     7
 10
712.728638
 20
-191.876412
 30
0.0
 11
779.263671
 21
-191.876372
 31
0.0
  0
LINE
  8
0
  6
BYLAYER
 62
     7
 10
637.528626
 20
-193.476388
 30
0.0
 11
779.263671
 21
-193.476388
 31
0.0
  0
LINE
  8
0
  6
BYLAYER
 62
     7
 10
642.228699
 20
-195.217629
 30
0.0
 11
779.263671
 21
-195.217629
 31
0.0
  0
LINE
  8
0
  6
BYLAYER
 62
     7
 10
642.092743
 20
-208.260262
 30
0.0
 11
779.263671
 21
-208.260262
 31
0.0
  0
LINE
  8
0
  6
BYLAYER
 62
     7
 10
642.248963
 20
-217.133034
 30
0.0
 11
779.263671
 21
-217.133034
 31
0.0
  0
LINE
  8
0
  6
BYLAYER
 62
     7
 10
642.209290
 20
-222.001931
 30
0.0
 11
779.263671
 21
-222.001931
 31
0.0
  0
LINE
  8
0
  6
BYLAYER
 62
     7
 10
642.182251
 20
-225.088967
 30
0.0
 11
779.263671
 21
-225.088967
 31
0.0
  0
LINE
  8
0
  6
BYLAYER
 62
     7
 10
641.618042
 20
-226.590096
 30
0.0
 11
779.263671
 21
-226.590096
 31
0.0
  0
LINE
  8
0
  6
BYLAYER
 62
     7
 10
779.263671
 20
-228.826406
 30
0.0
 11
779.263671
 21
-142.276451
 31
0.0
  0
LINE
  8
0
  6
BYLAYER
 62
     7
 10
869.263671
 20
-142.276451
 30
0.0
 11
869.263671
 21
-214.276406
 31
0.0
  0
LINE
  8
0
  6
BYLAYER
 62
     7
 10
869.263671
 20
-214.276406
 30
0.0
 11
854.713671
 21
-228.826406
 31
0.0
  0
LINE
  8
0
  6
BYLAYER
 62
     7
 10
854.713671
 20
-228.826406
 30
0.0
 11
779.263671
 21
-228.826406
 31
0.0
  0
LINE
  8
0
  6
BYLAYER
 62
     7
 10
779.263671
 20
-55.726496
 30
0.0
 11
779.263671
 21
-142.276451
 31
0.0
  0
LINE
  8
0
  6
BYLAYER
 62
     7
 10
869.263671
 20
-142.276451
 30
0.0
 11
869.263671
 21
-70.276496
 31
0.0
  0
LINE
  8
0
  6
BYLAYER
 62
     7
 10
869.263671
 20
-70.276496
 30
0.0
 11
854.713671
 21
-55.726496
 31
0.0
  0
LINE
  8
0
  6
BYLAYER
 62
     7
 10
854.713671
 20
-55.726496
 30
0.0
 11
779.263671
 21
-55.726496
 31
0.0
  0
LINE
  8
0
  6
BYLAYER
 62
     7
 10
729.228638
 20
-35.776406
 30
0.0
 11
729.228638
 21
-14.276406
 31
0.0
  0
ARC
  8
0
  6
BYLAYER
 62
     7
 10
730.728638
 20
-35.776406
 30
0.0
 40
1.5
 50
180.000000
 51
270.000000
  0
ARC
  8
0
  6
BYLAYER
 62
     7
 10
727.728638
 20
-14.276406
 30
0.0
 40
1.5
 50
0.0
 51
90.0
  0
LINE
  8
0
  6
BYLAYER
 62
     7
 10
642.228638
 20
-35.776406
 30
0.0
 11
642.228638
 21
-14.276406
 31
0.0
  0
ARC
  8
0
  6
BYLAYER
 62
     7
 10
640.728638
 20
-35.776406
 30
0.0
 40
1.5
 50
270.0
 51
360.0
  0
ARC
  8
0
  6
BYLAYER
 62
     7
 10
643.728638
 20
-14.276406
 30
0.0
 40
1.5
 50
90.0
 51
180.0
  0
LINE
  8
0
  6
BYLAYER
 62
     7
 10
643.728638
 20
-12.776406
 30
0.0
 11
727.728638
 21
-12.776406
 31
0.0
  0
LINE
  8
0
  6
BYLAYER
 62
     7
 10
647.600879
 20
-35.776406
 30
0.0
 11
647.600879
 21
-14.276406
 31
0.0
  0
ARC
  8
0
  6
BYLAYER
 62
     7
 10
646.100879
 20
-35.776406
 30
0.0
 40
1.500000
 50
270.0
 51
360.0
  0
ARC
  8
0
  6
BYLAYER
 62
     7
 10
649.100879
 20
-14.276406
 30
0.0
 40
1.500000
 50
90.0
 51
180.0
  0
LINE
  8
0
  6
BYLAYER
 62
     7
 10
723.856398
 20
-35.776406
 30
0.0
 11
723.856398
 21
-14.276406
 31
0.0
  0
ARC
  8
0
  6
BYLAYER
 62
     7
 10
725.356398
 20
-35.776406
 30
0.0
 40
1.5
 50
180.000000
 51
270.000000
  0
ARC
  8
0
  6
BYLAYER
 62
     7
 10
722.356398
 20
-14.276406
 30
0.0
 40
1.5
 50
0.0
 51
90.0
  0
LINE
  8
0
  6
BYLAYER
 62
     7
 10
685.728638
 20
-37.276406
 30
0.0
 11
733.228638
 21
-37.276406
 31
0.0
  0
ARC
  8
0
  6
BYLAYER
 62
     7
 10
733.228638
 20
-38.776406
 30
0.0
 40
1.5
 50
0.0
 51
90.0
  0
LINE
  8
0
  6
BYLAYER
 62
     7
 10
734.728638
 20
-46.276406
 30
0.0
 11
734.728638
 21
-38.776406
 31
0.0
  0
LINE
  8
0
  6
BYLAYER
 62
     7
 10
638.228638
 20
-37.276406
 30
0.0
 11
685.728638
 21
-37.276406
 31
0.0
  0
ARC
  8
0
  6
BYLAYER
 62
     7
 10
638.228638
 20
-38.776406
 30
0.0
 40
1.5
 50
90.0
 51
180.0
  0
LINE
  8
0
  6
BYLAYER
 62
     7
 10
636.728638
 20
-44.276406
 30
0.0
 11
636.728638
 21
-38.776406
 31
0.0
  0
LINE
  8
0
  6
BYLAYER
 62
     7
 10
734.728638
 20
-44.276406
 30
0.0
 11
636.728638
 21
-44.276406
 31
0.0
  0
LINE
  8
0
  6
BYLAYER
 62
     7
 10
636.728638
 20
-44.276406
 30
0.0
 11
636.728638
 21
-46.276406
 31
0.0
  0
LINE
  8
0
  6
BYLAYER
 62
     7
 10
636.728638
 20
-46.276406
 30
0.0
 11
734.728638
 21
-46.276406
 31
0.0
  0
LINE
  8
0
  6
BYLAYER
 62
     7
 10
854.713671
 20
-228.826406
 30
0.0
 11
854.713671
 21
-55.726496
 31
0.0
  0
LINE
  8
0
  6
BYLAYER
 62
     7
 10
608.228669
 20
-719.276451
 30
0.0
 11
596.228669
 21
-719.276451
 31
0.0
  0
LINE
  8
0
  6
BYLAYER
 62
     7
 10
608.228669
 20
-719.276451
 30
0.0
 11
608.228669
 21
-819.276451
 31
0.0
  0
ARC
  8
0
  6
BYLAYER
 62
     7
 10
609.228669
 20
-745.793754
 30
0.0
 40
1.000000
 50
180.000000
 51
269.000000
  0
LINE
  8
0
  6
BYLAYER
 62
     7
 10
609.211217
 20
-746.793601
 30
0.0
 11
633.228669
 21
-747.212828
 31
0.0
  0
LINE
  8
0
  6
BYLAYER
 62
     7
 10
633.228669
 20
-747.212828
 30
0.0
 11
633.228669
 21
-819.276451
 31
0.0
  0
LINE
  8
0
  6
BYLAYER
 62
     7
 10
596.228669
 20
-719.276451
 30
0.0
 11
596.228669
 21
-819.276451
 31
0.0
  0
LINE
  8
0
  6
BYLAYER
 62
     7
 10
608.228669
 20
-919.276451
 30
0.0
 11
596.228669
 21
-919.276451
 31
0.0
  0
LINE
  8
0
  6
BYLAYER
 62
     7
 10
608.228669
 20
-919.276451
 30
0.0
 11
608.228669
 21
-819.276451
 31
0.0
  0
ARC
  8
0
  6
BYLAYER
 62
     7
 10
609.228669
 20
-892.759148
 30
0.0
 40
1.0
 50
91.000000
 51
180.000000
  0
LINE
  8
0
  6
BYLAYER
 62
     7
 10
609.211217
 20
-891.759301
 30
0.0
 11
633.228669
 21
-891.340074
 31
0.0
  0
LINE
  8
0
  6
BYLAYER
 62
     7
 10
633.228669
 20
-891.340074
 30
0.0
 11
633.228669
 21
-819.276451
 31
0.0
  0
LINE
  8
0
  6
BYLAYER
 62
     7
 10
596.228669
 20
-919.276451
 30
0.0
 11
596.228669
 21
-819.276451
 31
0.0
  0
LINE
  8
0
  6
BYLAYER
 62
     7
 10
712.728638
 20
-868.876412
 30
0.0
 11
637.528626
 21
-868.876412
 31
0.0
  0
ARC
  8
0
  6
BYLAYER
 62
     7
 10
637.528626
 20
-869.676400
 30
0.0
 40
0.800018
 50
90.0
 51
270.000012
  0
ARC
  8
0
  6
BYLAYER
 62
     7
 10
641.528626
 20
-869.676400
 30
0.0
 40
0.800018
 50
90.0
 51
270.000012
  0
LINE
  8
0
  6
BYLAYER
 62
     7
 10
636.728673
 20
-819.276451
 30
0.0
 11
636.728699
 21
-892.026406
 31
0.0
  0
LINE
  8
0
  6
BYLAYER
 62
     7
 10
734.728673
 20
-846.476403
 30
0.0
 11
779.263671
 21
-846.476372
 31
0.0
  0
LINE
  8
0
  6
BYLAYER
 62
     7
 10
734.728673
 20
-848.076409
 30
0.0
 11
779.263671
 21
-848.076378
 31
0.0
  0
LINE
  8
0
  6
BYLAYER
 62
     7
 10
642.228699
 20
-872.217629
 30
0.0
 11
636.728699
 21
-875.057198
 31
0.0
  0
LINE
  8
0
  6
BYLAYER
 62
     7
 10
636.728699
 20
-875.057198
 30
0.0
 11
640.230713
 21
-883.990243
 31
0.0
  0
ARC
  8
0
  6
BYLAYER
 62
     7
 10
642.092743
 20
-883.260262
 30
0.0
 40
2.000007
 50
201.406501
 51
270.000001
  0
LINE
  8
0
  6
BYLAYER
 62
     7
 10
636.728699
 20
-892.026437
 30
0.0
 11
633.228699
 21
-892.026437
 31
0.0
  0
LINE
  8
0
  6
BYLAYER
 62
     7
 10
636.728699
 20
-879.726540
 30
0.0
 11
640.321869
 21
-892.668099
 31
0.0
  0
ARC
  8
0
  6
BYLAYER
 62
     7
 10
642.248963
 20
-892.133034
 30
0.0
 40
2.000010
 50
195.517184
 51
270.000001
  0
LINE
  8
0
  6
BYLAYER
 62
     7
 10
636.728699
 20
-885.895333
 30
0.0
 11
640.296387
 21
-897.585702
 31
0.0
  0
ARC
  8
0
  6
BYLAYER
 62
     7
 10
642.209290
 20
-897.001931
 30
0.0
 40
1.999996
 50
196.971318
 51
270.000001
  0
LINE
  8
0
  6
BYLAYER
 62
     7
 10
636.728699
 20
-889.763161
 30
0.0
 11
640.279907
 21
-900.706307
 31
0.0
  0
ARC
  8
0
  6
BYLAYER
 62
     7
 10
642.182251
 20
-900.088967
 30
0.0
 40
2.000005
 50
197.979057
 51
270.000001
  0
ARC
  8
0
  6
BYLAYER
 62
     7
 10
641.618042
 20
-901.590096
 30
0.0
 40
2.000005
 50
197.979057
 51
270.000001
  0
LINE
  8
0
  6
BYLAYER
 62
     7
 10
639.715699
 20
-902.207436
 30
0.0
 11
636.411804
 21
-892.026437
 31
0.0
  0
LINE
  8
0
  6
BYLAYER
 62
     7
 10
633.228699
 20
-892.026437
 30
0.0
 11
633.228669
 21
-819.276451
 31
0.0
  0
LINE
  8
0
  6
BYLAYER
 62
     7
 10
734.728673
 20
-824.076411
 30
0.0
 11
779.263671
 21
-824.076384
 31
0.0
  0
LINE
  8
0
  6
BYLAYER
 62
     7
 10
734.728673
 20
-825.676417
 30
0.0
 11
779.263671
 21
-825.676390
 31
0.0
  0
LINE
  8
0
  6
BYLAYER
 62
     7
 10
734.728673
 20
-835.276393
 30
0.0
 11
779.263671
 21
-835.276365
 31
0.0
  0
LINE
  8
0
  6
BYLAYER
 62
     7
 10
734.728673
 20
-836.876399
 30
0.0
 11
779.263671
 21
-836.876372
 31
0.0
  0
LINE
  8
0
  6
BYLAYER
 62
     7
 10
734.728673
 20
-857.676387
 30
0.0
 11
779.263671
 21
-857.676359
 31
0.0
  0
LINE
  8
0
  6
BYLAYER
 62
     7
 10
734.728673
 20
-859.276393
 30
0.0
 11
779.263671
 21
-859.276365
 31
0.0
  0
LINE
  8
0
  6
BYLAYER
 62
     7
 10
712.728638
 20
-868.876412
 30
0.0
 11
779.263671
 21
-868.876372
 31
0.0
  0
LINE
  8
0
  6
BYLAYER
 62
     7
 10
637.528626
 20
-870.476388
 30
0.0
 11
779.263671
 21
-870.476388
 31
0.0
  0
LINE
  8
0
  6
BYLAYER
 62
     7
 10
642.228699
 20
-872.217629
 30
0.0
 11
779.263671
 21
-872.217629
 31
0.0
  0
LINE
  8
0
  6
BYLAYER
 62
     7
 10
642.092743
 20
-885.260262
 30
0.0
 11
779.263671
 21
-885.260262
 31
0.0
  0
LINE
  8
0
  6
BYLAYER
 62
     7
 10
642.248963
 20
-894.133034
 30
0.0
 11
779.263671
 21
-894.133034
 31
0.0
  0
LINE
  8
0
  6
BYLAYER
 62
     7
 10
642.209290
 20
-899.001931
 30
0.0
 11
779.263671
 21
-899.001931
 31
0.0
  0
LINE
  8
0
  6
BYLAYER
 62
     7
 10
642.182251
 20
-902.088967
 30
0.0
 11
779.263671
 21
-902.088967
 31
0.0
  0
LINE
  8
0
  6
BYLAYER
 62
     7
 10
641.618042
 20
-903.590096
 30
0.0
 11
779.263671
 21
-903.590096
 31
0.0
  0
LINE
  8
0
  6
BYLAYER
 62
     7
 10
779.263671
 20
-905.826406
 30
0.0
 11
779.263671
 21
-819.276451
 31
0.0
  0
LINE
  8
0
  6
BYLAYER
 62
     7
 10
869.263671
 20
-819.276451
 30
0.0
 11
869.263671
 21
-891.276406
 31
0.0
  0
LINE
  8
0
  6
BYLAYER
 62
     7
 10
869.263671
 20
-891.276406
 30
0.0
 11
854.713671
 21
-905.826406
 31
0.0
  0
LINE
  8
0
  6
BYLAYER
 62
     7
 10
854.713671
 20
-905.826406
 30
0.0
 11
779.263671
 21
-905.826406
 31
0.0
  0
LINE
  8
0
  6
BYLAYER
 62
     7
 10
649.577142
 20
-862.776451
 30
0.0
 11
685.728673
 21
-862.776451
 31
0.0
  0
ARC
  8
0
  6
BYLAYER
 62
     7
 10
649.577142
 20
-861.276451
 30
0.0
 40
1.500000
 50
191.536959
 51
270.000000
  0
LINE
  8
0
  6
BYLAYER
 62
     7
 10
642.228673
 20
-819.276451
 30
0.0
 11
642.228673
 21
-855.427982
 31
0.0
  0
LINE
  8
0
  6
BYLAYER
 62
     7
 10
685.728673
 20
-862.776451
 30
0.0
 11
721.880204
 21
-862.776451
 31
0.0
  0
LINE
  8
0
  6
BYLAYER
 62
     7
 10
729.228673
 20
-855.427982
 30
0.0
 11
729.228673
 21
-819.276451
 31
0.0
  0
LINE
  8
0
  6
BYLAYER
 62
     7
 10
656.333372
 20
-831.877557
 30
0.0
 11
642.228673
 21
-832.370104
 31
0.0
  0
ARC
  8
0
  6
BYLAYER
 62
     7
 10
656.228673
 20
-828.879385
 30
0.0
 40
3.000000
 50
272.000000
 51
360.000000
  0
LINE
  8
0
  6
BYLAYER
 62
     7
 10
656.333372
 20
-846.877557
 30
0.0
 11
642.228673
 21
-847.370104
 31
0.0
  0
ARC
  8
0
  6
BYLAYER
 62
     7
 10
656.228673
 20
-843.879385
 30
0.0
 40
3.000000
 50
272.000000
 51
360.000000
  0
LINE
  8
0
  6
BYLAYER
 62
     7
 10
642.228673
 20
-836.182798
 30
0.0
 11
656.333372
 21
-836.675345
 31
0.0
  0
ARC
  8
0
  6
BYLAYER
 62
     7
 10
656.228673
 20
-839.673517
 30
0.0
 40
3.0
 50
0.0
 51
88.0
  0
LINE
  8
0
  6
BYLAYER
 62
     7
 10
642.228673
 20
-821.182798
 30
0.0
 11
656.333372
 21
-821.675345
 31
0.0
  0
ARC
  8
0
  6
BYLAYER
 62
     7
 10
656.228673
 20
-824.673517
 30
0.0
 40
3.0
 50
0.0
 51
88.0
  0
LINE
  8
0
  6
BYLAYER
 62
     7
 10
659.228673
 20
-839.673517
 30
0.0
 11
659.228673
 21
-843.879385
 31
0.0
  0
LINE
  8
0
  6
BYLAYER
 62
     7
 10
659.228673
 20
-824.673517
 30
0.0
 11
659.228673
 21
-828.879385
 31
0.0
  0
LINE
  8
0
  6
BYLAYER
 62
     7
 10
643.228673
 20
-821.217719
 30
0.0
 11
643.228673
 21
-832.335183
 31
0.0
  0
LINE
  8
0
  6
BYLAYER
 62
     7
 10
643.228673
 20
-836.217719
 30
0.0
 11
643.228673
 21
-847.335183
 31
0.0
  0
LINE
  8
0
  6
BYLAYER
 62
     7
 10
715.123975
 20
-831.877557
 30
0.0
 11
729.228673
 21
-832.370104
 31
0.0
  0
ARC
  8
0
  6
BYLAYER
 62
     7
 10
715.228673
 20
-828.879385
 30
0.0
 40
3.0
 50
180.000000
 51
268.000000
  0
LINE
  8
0
  6
BYLAYER
 62
     7
 10
715.123975
 20
-846.877557
 30
0.0
 11
729.228673
 21
-847.370104
 31
0.0
  0
ARC
  8
0
  6
BYLAYER
 62
     7
 10
715.228673
 20
-843.879385
 30
0.0
 40
3.0
 50
180.000000
 51
268.000000
  0
LINE
  8
0
  6
BYLAYER
 62
     7
 10
729.228673
 20
-836.182798
 30
0.0
 11
715.123975
 21
-836.675345
 31
0.0
  0
ARC
  8
0
  6
BYLAYER
 62
     7
 10
715.228673
 20
-839.673517
 30
0.0
 40
3.0
 50
92.000000
 51
180.000000
  0
LINE
  8
0
  6
BYLAYER
 62
     7
 10
729.228673
 20
-821.182798
 30
0.0
 11
715.123975
 21
-821.675345
 31
0.0
  0
ARC
  8
0
  6
BYLAYER
 62
     7
 10
715.228673
 20
-824.673517
 30
0.0
 40
3.0
 50
92.000000
 51
180.000000
  0
LINE
  8
0
  6
BYLAYER
 62
     7
 10
712.228673
 20
-839.673517
 30
0.0
 11
712.228673
 21
-843.879385
 31
0.0
  0
LINE
  8
0
  6
BYLAYER
 62
     7
 10
712.228673
 20
-824.673517
 30
0.0
 11
712.228673
 21
-828.879385
 31
0.0
  0
LINE
  8
0
  6
BYLAYER
 62
     7
 10
728.228673
 20
-821.217719
 30
0.0
 11
728.228673
 21
-832.335183
 31
0.0
  0
LINE
  8
0
  6
BYLAYER
 62
     7
 10
728.228673
 20
-836.217719
 30
0.0
 11
728.228673
 21
-847.335183
 31
0.0
  0
LINE
  8
0
  6
BYLAYER
 62
     7
 10
672.728673
 20
-849.276451
 30
0.0
 11
698.728673
 21
-849.276451
 31
0.0
  0
ARC
  8
0
  6
BYLAYER
 62
     7
 10
698.728673
 20
-846.276451
 30
0.0
 40
3.0
 50
270.0
 51
360.0
  0
ARC
  8
0
  6
BYLAYER
 62
     7
 10
672.728673
 20
-846.276451
 30
0.0
 40
3.0
 50
180.000000
 51
270.000000
  0
LINE
  8
0
  6
BYLAYER
 62
     7
 10
669.728673
 20
-819.276451
 30
0.0
 11
669.728673
 21
-846.276451
 31
0.0
  0
LINE
  8
0
  6
BYLAYER
 62
     7
 10
701.728673
 20
-846.276451
 30
0.0
 11
701.728673
 21
-819.276451
 31
0.0
  0
ARC
  8
0
  6
BYLAYER
 62
     7
 10
642.228673
 20
-862.776451
 30
0.0
 40
6.0
 50
11.536959
 51
78.463041
  0
ARC
  8
0
  6
BYLAYER
 62
     7
 10
643.728673
 20
-855.427982
 30
0.0
 40
1.5
 50
180.000000
 51
258.463041
  0
ARC
  8
0
  6
BYLAYER
 62
     7
 10
729.228673
 20
-862.776451
 30
0.0
 40
6.0
 50
101.536959
 51
168.463041
  0
ARC
  8
0
  6
BYLAYER
 62
     7
 10
727.728673
 20
-855.427982
 30
0.0
 40
1.5
 50
281.536959
 51
360.000000
  0
ARC
  8
0
  6
BYLAYER
 62
     7
 10
721.880204
 20
-861.276451
 30
0.0
 40
1.5
 50
270.0
 51
348.463041
  0
LINE
  8
0
  6
BYLAYER
 62
     7
 10
636.728673
 20
-819.276451
 30
0.0
 11
636.728673
 21
-866.776451
 31
0.0
  0
LINE
  8
0
  6
BYLAYER
 62
     7
 10
638.228673
 20
-868.276451
 30
0.0
 11
733.228673
 21
-868.276451
 31
0.0
  0
ARC
  8
0
  6
BYLAYER
 62
     7
 10
638.228673
 20
-866.776451
 30
0.0
 40
1.5
 50
180.000000
 51
270.000000
  0
LINE
  8
0
  6
BYLAYER
 62
     7
 10
734.728673
 20
-866.776451
 30
0.0
 11
734.728673
 21
-819.276451
 31
0.0
  0
ARC
  8
0
  6
BYLAYER
 62
     7
 10
733.228673
 20
-866.776451
 30
0.0
 40
1.5
 50
270.0
 51
360.0
  0
LINE
  8
0
  6
BYLAYER
 62
     7
 10
712.728638
 20
-769.676490
 30
0.0
 11
637.528626
 21
-769.676490
 31
0.0
  0
ARC
  8
0
  6
BYLAYER
 62
     7
 10
637.528626
 20
-768.876502
 30
0.0
 40
0.800018
 50
90.0
 51
270.000012
  0
ARC
  8
0
  6
BYLAYER
 62
     7
 10
641.528626
 20
-768.876502
 30
0.0
 40
0.800018
 50
90.0
 51
270.000012
  0
LINE
  8
0
  6
BYLAYER
 62
     7
 10
636.728673
 20
-819.276451
 30
0.0
 11
636.728699
 21
-746.526496
 31
0.0
  0
LINE
  8
0
  6
BYLAYER
 62
     7
 10
734.728673
 20
-792.076499
 30
0.0
 11
779.263671
 21
-792.076530
 31
0.0
  0
LINE
  8
0
  6
BYLAYER
 62
     7
 10
734.728673
 20
-790.476493
 30
0.0
 11
779.263671
 21
-790.476524
 31
0.0
  0
LINE
  8
0
  6
BYLAYER
 62
     7
 10
642.228699
 20
-766.335273
 30
0.0
 11
636.728699
 21
-763.495704
 31
0.0
  0
LINE
  8
0
  6
BYLAYER
 62
     7
 10
636.728699
 20
-763.495704
 30
0.0
 11
640.230713
 21
-754.562659
 31
0.0
  0
ARC
  8
0
  6
BYLAYER
 62
     7
 10
642.092743
 20
-755.292640
 30
0.0
 40
2.000007
 50
90.0
 51
158.593500
  0
LINE
  8
0
  6
BYLAYER
 62
     7
 10
636.728699
 20
-746.526465
 30
0.0
 11
633.228699
 21
-746.526465
 31
0.0
  0
LINE
  8
0
  6
BYLAYER
 62
     7
 10
636.728699
 20
-758.826362
 30
0.0
 11
640.321869
 21
-745.884803
 31
0.0
  0
ARC
  8
0
  6
BYLAYER
 62
     7
 10
642.248963
 20
-746.419868
 30
0.0
 40
2.000010
 50
90.0
 51
164.482817
  0
LINE
  8
0
  6
BYLAYER
 62
     7
 10
636.728699
 20
-752.657569
 30
0.0
 11
640.296387
 21
-740.967200
 31
0.0
  0
ARC
  8
0
  6
BYLAYER
 62
     7
 10
642.209290
 20
-741.550971
 30
0.0
 40
1.999996
 50
90.0
 51
163.028683
  0
LINE
  8
0
  6
BYLAYER
 62
     7
 10
636.728699
 20
-748.789741
 30
0.0
 11
640.279907
 21
-737.846595
 31
0.0
  0
ARC
  8
0
  6
BYLAYER
 62
     7
 10
642.182251
 20
-738.463935
 30
0.0
 40
2.000005
 50
90.0
 51
162.020944
  0
ARC
  8
0
  6
BYLAYER
 62
     7
 10
641.618042
 20
-736.962806
 30
0.0
 40
2.000005
 50
90.0
 51
162.020944
  0
LINE
  8
0
  6
BYLAYER
 62
     7
 10
639.715699
 20
-736.345466
 30
0.0
 11
636.411804
 21
-746.526465
 31
0.0
  0
LINE
  8
0
  6
BYLAYER
 62
     7
 10
633.228699
 20
-746.526465
 30
0.0
 11
633.228669
 21
-819.276451
 31
0.0
  0
LINE
  8
0
  6
BYLAYER
 62
     7
 10
734.728673
 20
-814.476491
 30
0.0
 11
779.263671
 21
-814.476518
 31
0.0
  0
LINE
  8
0
  6
BYLAYER
 62
     7
 10
734.728673
 20
-812.876485
 30
0.0
 11
779.263671
 21
-812.876512
 31
0.0
  0
LINE
  8
0
  6
BYLAYER
 62
     7
 10
734.728673
 20
-803.276509
 30
0.0
 11
779.263671
 21
-803.276537
 31
0.0
  0
LINE
  8
0
  6
BYLAYER
 62
     7
 10
734.728673
 20
-801.676503
 30
0.0
 11
779.263671
 21
-801.676530
 31
0.0
  0
LINE
  8
0
  6
BYLAYER
 62
     7
 10
734.728673
 20
-780.876515
 30
0.0
 11
779.263671
 21
-780.876543
 31
0.0
  0
LINE
  8
0
  6
BYLAYER
 62
     7
 10
734.728673
 20
-779.276509
 30
0.0
 11
779.263671
 21
-779.276537
 31
0.0
  0
LINE
  8
0
  6
BYLAYER
 62
     7
 10
712.728638
 20
-769.676490
 30
0.0
 11
779.263671
 21
-769.676530
 31
0.0
  0
LINE
  8
0
  6
BYLAYER
 62
     7
 10
637.528626
 20
-768.076514
 30
0.0
 11
779.263671
 21
-768.076514
 31
0.0
  0
LINE
  8
0
  6
BYLAYER
 62
     7
 10
642.228699
 20
-766.335273
 30
0.0
 11
779.263671
 21
-766.335273
 31
0.0
  0
LINE
  8
0
  6
BYLAYER
 62
     7
 10
642.092743
 20
-753.292640
 30
0.0
 11
779.263671
 21
-753.292640
 31
0.0
  0
LINE
  8
0
  6
BYLAYER
 62
     7
 10
642.248963
 20
-744.419868
 30
0.0
 11
779.263671
 21
-744.419868
 31
0.0
  0
LINE
  8
0
  6
BYLAYER
 62
     7
 10
642.209290
 20
-739.550971
 30
0.0
 11
779.263671
 21
-739.550971
 31
0.0
  0
LINE
  8
0
  6
BYLAYER
 62
     7
 10
642.182251
 20
-736.463935
 30
0.0
 11
779.263671
 21
-736.463935
 31
0.0
  0
LINE
  8
0
  6
BYLAYER
 62
     7
 10
641.618042
 20
-734.962806
 30
0.0
 11
779.263671
 21
-734.962806
 31
0.0
  0
LINE
  8
0
  6
BYLAYER
 62
     7
 10
779.263671
 20
-732.726496
 30
0.0
 11
779.263671
 21
-819.276451
 31
0.0
  0
LINE
  8
0
  6
BYLAYER
 62
     7
 10
869.263671
 20
-819.276451
 30
0.0
 11
869.263671
 21
-747.276496
 31
0.0
  0
LINE
  8
0
  6
BYLAYER
 62
     7
 10
869.263671
 20
-747.276496
 30
0.0
 11
854.713671
 21
-732.726496
 31
0.0
  0
LINE
  8
0
  6
BYLAYER
 62
     7
 10
854.713671
 20
-732.726496
 30
0.0
 11
779.263671
 21
-732.726496
 31
0.0
  0
LINE
  8
0
  6
BYLAYER
 62
     7
 10
649.577142
 20
-775.776451
 30
0.0
 11
685.728673
 21
-775.776451
 31
0.0
  0
ARC
  8
0
  6
BYLAYER
 62
     7
 10
649.577142
 20
-777.276451
 30
0.0
 40
1.5
 50
90.0
 51
168.463041
  0
LINE
  8
0
  6
BYLAYER
 62
     7
 10
642.228673
 20
-819.276451
 30
0.0
 11
642.228673
 21
-783.124920
 31
0.0
  0
LINE
  8
0
  6
BYLAYER
 62
     7
 10
685.728673
 20
-775.776451
 30
0.0
 11
721.880204
 21
-775.776451
 31
0.0
  0
LINE
  8
0
  6
BYLAYER
 62
     7
 10
729.228673
 20
-783.124920
 30
0.0
 11
729.228673
 21
-819.276451
 31
0.0
  0
LINE
  8
0
  6
BYLAYER
 62
     7
 10
656.333372
 20
-806.675345
 30
0.0
 11
642.228673
 21
-806.182798
 31
0.0
  0
ARC
  8
0
  6
BYLAYER
 62
     7
 10
656.228673
 20
-809.673517
 30
0.0
 40
3.0
 50
0.0
 51
88.0
  0
LINE
  8
0
  6
BYLAYER
 62
     7
 10
656.333372
 20
-791.675345
 30
0.0
 11
642.228673
 21
-791.182798
 31
0.0
  0
ARC
  8
0
  6
BYLAYER
 62
     7
 10
656.228673
 20
-794.673517
 30
0.0
 40
3.0
 50
0.0
 51
88.0
  0
LINE
  8
0
  6
BYLAYER
 62
     7
 10
642.228673
 20
-802.370104
 30
0.0
 11
656.333372
 21
-801.877557
 31
0.0
  0
ARC
  8
0
  6
BYLAYER
 62
     7
 10
656.228673
 20
-798.879385
 30
0.0
 40
3.0
 50
272.000000
 51
360.000000
  0
LINE
  8
0
  6
BYLAYER
 62
     7
 10
642.228673
 20
-817.370104
 30
0.0
 11
656.333372
 21
-816.877557
 31
0.0
  0
ARC
  8
0
  6
BYLAYER
 62
     7
 10
656.228673
 20
-813.879385
 30
0.0
 40
3.0
 50
272.000000
 51
360.000000
  0
LINE
  8
0
  6
BYLAYER
 62
     7
 10
659.228673
 20
-798.879385
 30
0.0
 11
659.228673
 21
-794.673517
 31
0.0
  0
LINE
  8
0
  6
BYLAYER
 62
     7
 10
659.228673
 20
-813.879385
 30
0.0
 11
659.228673
 21
-809.673517
 31
0.0
  0
LINE
  8
0
  6
BYLAYER
 62
     7
 10
643.228673
 20
-817.335183
 30
0.0
 11
643.228673
 21
-806.217719
 31
0.0
  0
LINE
  8
0
  6
BYLAYER
 62
     7
 10
643.228673
 20
-802.335183
 30
0.0
 11
643.228673
 21
-791.217719
 31
0.0
  0
LINE
  8
0
  6
BYLAYER
 62
     7
 10
715.123975
 20
-806.675345
 30
0.0
 11
729.228673
 21
-806.182798
 31
0.0
  0
ARC
  8
0
  6
BYLAYER
 62
     7
 10
715.228673
 20
-809.673517
 30
0.0
 40
3.0
 50
92.000000
 51
180.000000
  0
LINE
  8
0
  6
BYLAYER
 62
     7
 10
715.123975
 20
-791.675345
 30
0.0
 11
729.228673
 21
-791.182798
 31
0.0
  0
ARC
  8
0
  6
BYLAYER
 62
     7
 10
715.228673
 20
-794.673517
 30
0.0
 40
3.0
 50
92.000000
 51
180.000000
  0
LINE
  8
0
  6
BYLAYER
 62
     7
 10
729.228673
 20
-802.370104
 30
0.0
 11
715.123975
 21
-801.877557
 31
0.0
  0
ARC
  8
0
  6
BYLAYER
 62
     7
 10
715.228673
 20
-798.879385
 30
0.0
 40
3.0
 50
180.000000
 51
268.000000
  0
LINE
  8
0
  6
BYLAYER
 62
     7
 10
729.228673
 20
-817.370104
 30
0.0
 11
715.123975
 21
-816.877557
 31
0.0
  0
ARC
  8
0
  6
BYLAYER
 62
     7
 10
715.228673
 20
-813.879385
 30
0.0
 40
3.0
 50
180.000000
 51
268.000000
  0
LINE
  8
0
  6
BYLAYER
 62
     7
 10
712.228673
 20
-798.879385
 30
0.0
 11
712.228673
 21
-794.673517
 31
0.0
  0
LINE
  8
0
  6
BYLAYER
 62
     7
 10
712.228673
 20
-813.879385
 30
0.0
 11
712.228673
 21
-809.673517
 31
0.0
  0
LINE
  8
0
  6
BYLAYER
 62
     7
 10
728.228673
 20
-817.335183
 30
0.0
 11
728.228673
 21
-806.217719
 31
0.0
  0
LINE
  8
0
  6
BYLAYER
 62
     7
 10
728.228673
 20
-802.335183
 30
0.0
 11
728.228673
 21
-791.217719
 31
0.0
  0
LINE
  8
0
  6
BYLAYER
 62
     7
 10
672.728673
 20
-789.276451
 30
0.0
 11
698.728673
 21
-789.276451
 31
0.0
  0
ARC
  8
0
  6
BYLAYER
 62
     7
 10
698.728673
 20
-792.276451
 30
0.0
 40
3.0
 50
0.0
 51
90.0
  0
ARC
  8
0
  6
BYLAYER
 62
     7
 10
672.728673
 20
-792.276451
 30
0.0
 40
3.0
 50
90.0
 51
180.0
  0
LINE
  8
0
  6
BYLAYER
 62
     7
 10
669.728673
 20
-819.276451
 30
0.0
 11
669.728673
 21
-792.276451
 31
0.0
  0
LINE
  8
0
  6
BYLAYER
 62
     7
 10
701.728673
 20
-792.276451
 30
0.0
 11
701.728673
 21
-819.276451
 31
0.0
  0
ARC
  8
0
  6
BYLAYER
 62
     7
 10
642.228673
 20
-775.776451
 30
0.0
 40
6.0
 50
281.536959
 51
348.463041
  0
ARC
  8
0
  6
BYLAYER
 62
     7
 10
643.728673
 20
-783.124920
 30
0.0
 40
1.500000
 50
101.536959
 51
180.000000
  0
ARC
  8
0
  6
BYLAYER
 62
     7
 10
729.228673
 20
-775.776451
 30
0.0
 40
6.0
 50
191.536959
 51
258.463041
  0
ARC
  8
0
  6
BYLAYER
 62
     7
 10
727.728673
 20
-783.124920
 30
0.0
 40
1.500000
 50
0.0
 51
78.463041
  0
ARC
  8
0
  6
BYLAYER
 62
     7
 10
721.880204
 20
-777.276451
 30
0.0
 40
1.500000
 50
11.536959
 51
90.000000
  0
LINE
  8
0
  6
BYLAYER
 62
     7
 10
636.728673
 20
-819.276451
 30
0.0
 11
636.728673
 21
-771.776451
 31
0.0
  0
LINE
  8
0
  6
BYLAYER
 62
     7
 10
638.228673
 20
-770.276451
 30
0.0
 11
733.228673
 21
-770.276451
 31
0.0
  0
ARC
  8
0
  6
BYLAYER
 62
     7
 10
638.228673
 20
-771.776451
 30
0.0
 40
1.5
 50
90.0
 51
180.0
  0
LINE
  8
0
  6
BYLAYER
 62
     7
 10
734.728673
 20
-771.776451
 30
0.0
 11
734.728673
 21
-819.276451
 31
0.0
  0
ARC
  8
0
  6
BYLAYER
 62
     7
 10
733.228673
 20
-771.776451
 30
0.0
 40
1.5
 50
0.0
 51
90.0
  0
LINE
  8
0
  6
BYLAYER
 62
     7
 10
854.713671
 20
-732.726496
 30
0.0
 11
854.713671
 21
-905.826406
 31
0.0
  0
ARC
  8
0
  6
BYLAYER
 62
     1
 10
257.228654
 20
-39.276390
 30
0.0
 40
3.000000
 50
90.0
 51
180.000003
  0
ARC
  8
0
  6
BYLAYER
 62
     1
 10
477.228654
 20
-39.276390
 30
0.0
 40
3.000000
 50
0.0
 51
90.000003
  0
ARC
  8
0
  6
BYLAYER
 62
     1
 10
477.228654
 20
-299.276390
 30
0.0
 40
3.000000
 50
270.0
 51
360.000003
  0
ARC
  8
0
  6
BYLAYER
 62
     1
 10
257.228654
 20
-299.276390
 30
0.0
 40
3.0
 50
180.000000
 51
269.999996
  0
ARC
  8
0
  6
BYLAYER
 62
     1
 10
243.971055
 20
-89.914940
 30
0.0
 40
3.000008
 50
358.896607
 51
419.020549
  0
LINE
  8
0
  6
BYLAYER
 62
     1
 10
489.228684
 20
-246.260734
 30
0.0
 11
489.228684
 21
-215.809105
 31
0.0
  0
LINE
  8
0
  6
BYLAYER
 62
     1
 10
489.228684
 20
-162.743553
 30
0.0
 11
489.228684
 21
-133.433617
 31
0.0
  0
LINE
  8
0
  6
BYLAYER
 62
     1
 10
492.228684
 20
-85.237144
 30
0.0
 11
488.860520
 21
-87.221153
 31
0.0
  0
ARC
  8
0
  6
BYLAYER
 62
     1
 10
490.383164
 20
-89.805992
 30
0.0
 40
2.999973
 50
120.500656
 51
180.588098
  0
ARC
  8
0
  6
BYLAYER
 62
     1
 10
424.213059
 20
-24.276390
 30
0.0
 40
2.999982
 50
312.719473
 51
314.999172
  0
ARC
  8
0
  6
BYLAYER
 62
     1
 10
424.213059
 20
-24.276390
 30
0.0
 40
3.000025
 50
270.0
 51
315.000018
  0
LINE
  8
0
  6
BYLAYER
 62
     1
 10
424.213059
 20
-27.276390
 30
0.0
 11
310.244309
 21
-27.276390
 31
0.0
  0
ARC
  8
0
  6
BYLAYER
 62
     1
 10
310.244309
 20
-24.276390
 30
0.0
 40
2.999982
 50
225.000829
 51
227.280528
  0
ARC
  8
0
  6
BYLAYER
 62
     1
 10
310.244309
 20
-24.276390
 30
0.0
 40
3.000025
 50
224.999982
 51
270.000001
  0
ARC
  8
0
  6
BYLAYER
 62
     1
 10
265.228669
 20
-123.276390
 30
0.0
 40
2.0
 50
270.0
 51
450.000005
  0
ARC
  8
0
  6
BYLAYER
 62
     1
 10
272.728684
 20
-112.276390
 30
0.0
 40
2.0
 50
270.0
 51
450.000005
  0
LINE
  8
0
  6
BYLAYER
 62
     1
 10
257.228654
 20
-114.276390
 30
0.0
 11
272.728684
 21
-114.276390
 31
0.0
  0
ARC
  8
0
  6
BYLAYER
 62
     1
 10
257.228654
 20
-117.276390
 30
0.0
 40
3.0
 50
90.0
 51
180.000003
  0
LINE
  8
0
  6
BYLAYER
 62
     1
 10
257.228654
 20
-110.276390
 30
0.0
 11
272.728684
 21
-110.276390
 31
0.0
  0
ARC
  8
0
  6
BYLAYER
 62
     1
 10
257.228654
 20
-107.276390
 30
0.0
 40
3.0
 50
180.000000
 51
269.999996
  0
ARC
  8
0
  6
BYLAYER
 62
     1
 10
257.228654
 20
-118.276390
 30
0.0
 40
3.000000
 50
180.000000
 51
269.999996
  0
ARC
  8
0
  6
BYLAYER
 62
     1
 10
257.228654
 20
-128.276390
 30
0.0
 40
3.0
 50
90.0
 51
180.000003
  0
LINE
  8
0
  6
BYLAYER
 62
     1
 10
257.228654
 20
-121.276390
 30
0.0
 11
265.228669
 21
-121.276390
 31
0.0
  0
LINE
  8
0
  6
BYLAYER
 62
     1
 10
257.228654
 20
-125.276390
 30
0.0
 11
265.228669
 21
-125.276390
 31
0.0
  0
ARC
  8
0
  6
BYLAYER
 62
     1
 10
461.728654
 20
-112.276390
 30
0.0
 40
2.000000
 50
90.0
 51
270.000005
  0
LINE
  8
0
  6
BYLAYER
 62
     1
 10
477.228684
 20
-110.276390
 30
0.0
 11
461.728654
 21
-110.276390
 31
0.0
  0
LINE
  8
0
  6
BYLAYER
 62
     1
 10
477.228684
 20
-114.276390
 30
0.0
 11
461.728654
 21
-114.276390
 31
0.0
  0
ARC
  8
0
  6
BYLAYER
 62
     1
 10
477.228684
 20
-107.276390
 30
0.0
 40
3.0
 50
270.0
 51
359.999982
  0
ARC
  8
0
  6
BYLAYER
 62
     1
 10
477.228684
 20
-117.276390
 30
0.0
 40
3.000000
 50
0.0
 51
90.000016
  0
ARC
  8
0
  6
BYLAYER
 62
     1
 10
477.228684
 20
-118.276390
 30
0.0
 40
3.0
 50
270.0
 51
359.999982
  0
LINE
  8
0
  6
BYLAYER
 62
     1
 10
477.228684
 20
-121.276390
 30
0.0
 11
469.228684
 21
-121.276390
 31
0.0
  0
ARC
  8
0
  6
BYLAYER
 62
     1
 10
469.228684
 20
-123.276390
 30
0.0
 40
2.0
 50
90.0
 51
270.000005
  0
LINE
  8
0
  6
BYLAYER
 62
     1
 10
477.228684
 20
-125.276390
 30
0.0
 11
469.228684
 21
-125.276390
 31
0.0
  0
ARC
  8
0
  6
BYLAYER
 62
     1
 10
477.228684
 20
-128.276390
 30
0.0
 40
3.000000
 50
0.0
 51
90.000016
  0
ARC
  8
0
  6
BYLAYER
 62
     1
 10
492.228684
 20
-136.280479
 30
0.0
 40
2.999961
 50
93.000108
 51
180.000005
  0
LINE
  8
0
  6
BYLAYER
 62
     1
 10
492.228684
 20
-133.276390
 30
0.0
 11
492.071671
 21
-133.284630
 31
0.0
  0
ARC
  8
0
  6
BYLAYER
 62
     1
 10
483.228654
 20
-150.490257
 30
0.0
 40
3.0
 50
180.000000
 51
193.15101
  0
ARC
  8
0
  6
BYLAYER
 62
     1
 10
317.228669
 20
-189.276390
 30
0.0
 40
167.470993
 50
346.848700
 51
373.151311
  0
ARC
  8
0
  6
BYLAYER
 62
     1
 10
483.228654
 20
-228.062553
 30
0.0
 40
3.000011
 50
166.848421
 51
180.000005
  0
LINE
  8
0
  6
BYLAYER
 62
     1
 10
480.228654
 20
-254.276420
 30
0.0
 11
492.228654
 21
-254.276420
 31
0.0
  0
LINE
  8
0
  6
BYLAYER
 62
     1
 10
492.228654
 20
-250.503410
 30
0.0
 11
490.107316
 21
-248.382072
 31
0.0
  0
ARC
  8
0
  6
BYLAYER
 62
     1
 10
492.228654
 20
-246.260795
 30
0.0
 40
2.999982
 50
222.719464
 51
224.999163
  0
ARC
  8
0
  6
BYLAYER
 62
     1
 10
492.228654
 20
-246.260795
 30
0.0
 40
3.000025
 50
180.000000
 51
225.000018
  0
ARC
  8
0
  6
BYLAYER
 62
     1
 10
340.695954
 20
-314.276390
 30
0.0
 40
3.000023
 50
81.378801
 51
90.000003
  0
LINE
  8
0
  6
BYLAYER
 62
     1
 10
310.244325
 20
-311.276390
 30
0.0
 11
340.695954
 21
-311.276390
 31
0.0
  0
ARC
  8
0
  6
BYLAYER
 62
     1
 10
328.442506
 20
-305.276390
 30
0.0
 40
3.000011
 50
76.848419
 51
90.000003
  0
ARC
  8
0
  6
BYLAYER
 62
     1
 10
310.244263
 20
-314.276390
 30
0.0
 40
2.999982
 50
132.719455
 51
134.999153
  0
ARC
  8
0
  6
BYLAYER
 62
     1
 10
310.244263
 20
-314.276390
 30
0.0
 40
3.000025
 50
90.0
 51
135.000011
  0
ARC
  8
0
  6
BYLAYER
 62
     1
 10
367.228669
 20
-139.276390
 30
0.0
 40
167.471008
 50
256.84869
 51
283.151311
  0
ARC
  8
0
  6
BYLAYER
 62
     1
 10
393.761384
 20
-314.276390
 30
0.0
 40
3.000023
 50
90.0
 51
98.621201
  0
LINE
  8
0
  6
BYLAYER
 62
     1
 10
424.213013
 20
-311.276390
 30
0.0
 11
393.761384
 21
-311.276390
 31
0.0
  0
ARC
  8
0
  6
BYLAYER
 62
     1
 10
406.014832
 20
-305.276390
 30
0.0
 40
3.000011
 50
90.0
 51
103.151584
  0
ARC
  8
0
  6
BYLAYER
 62
     1
 10
424.213075
 20
-314.276390
 30
0.0
 40
2.999982
 50
45.000848
 51
47.280547
  0
ARC
  8
0
  6
BYLAYER
 62
     1
 10
424.213075
 20
-314.276390
 30
0.0
 40
3.000025
 50
45.000001
 51
90.000009
  0
ARC
  8
0
  6
BYLAYER
 62
     1
 10
242.228654
 20
-215.809105
 30
0.0
 40
3.000023
 50
0.0
 51
8.621213
  0
LINE
  8
0
  6
BYLAYER
 62
     1
 10
245.228654
 20
-246.260734
 30
0.0
 11
245.228654
 21
-215.809105
 31
0.0
  0
ARC
  8
0
  6
BYLAYER
 62
     1
 10
251.228684
 20
-228.062553
 30
0.0
 40
3.000011
 50
0.0
 51
13.151596
  0
ARC
  8
0
  6
BYLAYER
 62
     1
 10
242.228684
 20
-246.260795
 30
0.0
 40
2.999982
 50
315.000839
 51
317.280537
  0
ARC
  8
0
  6
BYLAYER
 62
     1
 10
242.228684
 20
-246.260795
 30
0.0
 40
3.000025
 50
314.999992
 51
360.000010
  0
ARC
  8
0
  6
BYLAYER
 62
     1
 10
417.228669
 20
-189.276390
 30
0.0
 40
167.471008
 50
166.848735
 51
193.151316
  0
ARC
  8
0
  6
BYLAYER
 62
     1
 10
251.228654
 20
-150.490379
 30
0.0
 40
2.999997
 50
346.848945
 51
360.000000
  0
LINE
  8
0
  6
BYLAYER
 62
     1
 10
314.228669
 20
-86.654411
 30
0.0
 11
314.228669
 21
-39.276390
 31
0.0
  0
ARC
  8
0
  6
BYLAYER
 62
     1
 10
311.228669
 20
-39.276390
 30
0.0
 40
3.000000
 50
0.0
 51
90.000003
  0
LINE
  8
0
  6
BYLAYER
 62
     1
 10
420.228669
 20
-39.276390
 30
0.0
 11
420.228669
 21
-86.654381
 31
0.0
  0
LINE
  8
0
  6
BYLAYER
 62
     1
 10
477.228654
 20
-36.276390
 30
0.0
 11
324.228654
 21
-36.276390
 31
0.0
  0
ARC
  8
0
  6
BYLAYER
 62
     1
 10
423.228669
 20
-39.276390
 30
0.0
 40
3.000000
 50
90.0
 51
180.000003
  0
LINE
  8
0
  6
BYLAYER
 62
     1
 10
257.228654
 20
-36.276390
 30
0.0
 11
324.228654
 21
-36.276390
 31
0.0
  0
LINE
  8
0
  6
BYLAYER
 62
     1
 10
296.129792
 20
-101.276451
 30
0.0
 11
257.228654
 21
-101.276451
 31
0.0
  0
ARC
  8
0
  6
BYLAYER
 62
     1
 10
257.228654
 20
-98.276451
 30
0.0
 40
3.0
 50
180.000000
 51
269.999996
  0
LINE
  8
0
  6
BYLAYER
 62
     1
 10
438.327638
 20
-101.276451
 30
0.0
 11
477.228654
 21
-101.276451
 31
0.0
  0
ARC
  8
0
  6
BYLAYER
 62
     1
 10
477.228654
 20
-98.276451
 30
0.0
 40
3.000000
 50
270.0
 51
360.000003
  0
LINE
  8
0
  6
BYLAYER
 62
     1
 10
314.228669
 20
-291.898140
 30
0.0
 11
314.228669
 21
-299.276390
 31
0.0
  0
ARC
  8
0
  6
BYLAYER
 62
     1
 10
311.228669
 20
-299.276390
 30
0.0
 40
3.000000
 50
270.0
 51
360.000003
  0
LINE
  8
0
  6
BYLAYER
 62
     1
 10
420.228669
 20
-291.898170
 30
0.0
 11
420.228669
 21
-299.276390
 31
0.0
  0
ARC
  8
0
  6
BYLAYER
 62
     1
 10
423.228669
 20
-299.276390
 30
0.0
 40
3.000000
 50
180.000000
 51
269.999996
  0
LINE
  8
0
  6
BYLAYER
 62
     1
 10
406.014832
 20
-302.276390
 30
0.0
 11
477.228654
 21
-302.276390
 31
0.0
  0
LINE
  8
0
  6
BYLAYER
 62
     1
 10
480.228654
 20
-228.062553
 30
0.0
 11
480.228654
 21
-299.276390
 31
0.0
  0
LINE
  8
0
  6
BYLAYER
 62
     1
 10
328.442506
 20
-302.276390
 30
0.0
 11
257.228654
 21
-302.276390
 31
0.0
  0
LINE
  8
0
  6
BYLAYER
 62
     1
 10
254.228684
 20
-228.062553
 30
0.0
 11
254.228684
 21
-299.276390
 31
0.0
  0
LINE
  8
0
  6
BYLAYER
 62
     1
 10
254.228654
 20
-39.276390
 30
0.0
 11
254.228654
 21
-107.276390
 31
0.0
  0
LINE
  8
0
  6
BYLAYER
 62
     1
 10
254.228654
 20
-117.276390
 30
0.0
 11
254.228654
 21
-118.276390
 31
0.0
  0
LINE
  8
0
  6
BYLAYER
 62
     1
 10
254.228654
 20
-128.276390
 30
0.0
 11
254.228654
 21
-150.490379
 31
0.0
  0
LINE
  8
0
  6
BYLAYER
 62
     1
 10
480.228654
 20
-107.276390
 30
0.0
 11
480.228654
 21
-39.276390
 31
0.0
  0
LINE
  8
0
  6
BYLAYER
 62
     1
 10
480.228654
 20
-118.276390
 30
0.0
 11
480.228654
 21
-117.276390
 31
0.0
  0
LINE
  8
0
  6
BYLAYER
 62
     1
 10
480.228654
 20
-150.490257
 30
0.0
 11
480.228654
 21
-128.276390
 31
0.0
  0
ARC
  8
0
  6
BYLAYER
 62
     1
 10
242.228684
 20
-162.743492
 30
0.0
 40
3.0
 50
351.378727
 51
360.000000
  0
ARC
  8
0
  6
BYLAYER
 62
     1
 10
417.228654
 20
-189.276390
 30
0.0
 40
173.999969
 50
171.378667
 51
188.621275
  0
ARC
  8
0
  6
BYLAYER
 62
     1
 10
317.228684
 20
-189.276390
 30
0.0
 40
173.999954
 50
351.378727
 51
368.621311
  0
ARC
  8
0
  6
BYLAYER
 62
     1
 10
367.228669
 20
-139.276390
 30
0.0
 40
173.999969
 50
261.378717
 51
278.621284
  0
LINE
  8
0
  6
BYLAYER
 62
     1
 10
487.228623
 20
-21.776390
 30
0.0
 11
492.228623
 21
-26.776390
 31
0.0
  0
LINE
  8
0
  6
BYLAYER
 62
     1
 10
308.123032
 20
-26.397728
 30
0.0
 11
303.501695
 21
-21.776390
 31
0.0
  0
LINE
  8
0
  6
BYLAYER
 62
     1
 10
492.228654
 20
-133.276390
 30
0.0
 11
492.228654
 21
-26.776451
 31
0.0
  0
LINE
  8
0
  6
BYLAYER
 62
     1
 10
426.334336
 20
-26.397728
 30
0.0
 11
430.955674
 21
-21.776390
 31
0.0
  0
LINE
  8
0
  6
BYLAYER
 62
     1
 10
430.955674
 20
-21.776390
 30
0.0
 11
487.228623
 21
-21.776390
 31
0.0
  0
LINE
  8
0
  6
BYLAYER
 62
     1
 10
487.228623
 20
-316.776390
 30
0.0
 11
492.228654
 21
-311.776390
 31
0.0
  0
LINE
  8
0
  6
BYLAYER
 62
     1
 10
492.228654
 20
-311.776390
 30
0.0
 11
492.228654
 21
-250.503410
 31
0.0
  0
LINE
  8
0
  6
BYLAYER
 62
     1
 10
432.228715
 20
-316.776390
 30
0.0
 11
432.228715
 21
-302.276390
 31
0.0
  0
LINE
  8
0
  6
BYLAYER
 62
     1
 10
426.334351
 20
-312.155052
 30
0.0
 11
430.955689
 21
-316.776390
 31
0.0
  0
LINE
  8
0
  6
BYLAYER
 62
     1
 10
430.955689
 20
-316.776390
 30
0.0
 11
487.228623
 21
-316.776390
 31
0.0
  0
LINE
  8
0
  6
BYLAYER
 62
     1
 10
302.228631
 20
-316.776390
 30
0.0
 11
302.228631
 21
-302.276390
 31
0.0
  0
LINE
  8
0
  6
BYLAYER
 62
     1
 10
308.122987
 20
-312.155052
 30
0.0
 11
303.501649
 21
-316.776390
 31
0.0
  0
LINE
  8
0
  6
BYLAYER
 62
     1
 10
244.728684
 20
-21.776390
 30
0.0
 11
239.728684
 21
-26.776390
 31
0.0
  0
LINE
  8
0
  6
BYLAYER
 62
     1
 10
239.728669
 20
-121.776390
 30
0.0
 11
239.728669
 21
-26.776390
 31
0.0
  0
LINE
  8
0
  6
BYLAYER
 62
     1
 10
244.728684
 20
-316.776390
 30
0.0
 11
239.728669
 21
-311.776390
 31
0.0
  0
LINE
  8
0
  6
BYLAYER
 62
     1
 10
244.728684
 20
-21.776390
 30
0.0
 11
303.501695
 21
-21.776390
 31
0.0
  0
LINE
  8
0
  6
BYLAYER
 62
     1
 10
245.515244
 20
-87.342857
 30
0.0
 11
239.728669
 21
-84.276451
 31
0.0
  0
LINE
  8
0
  6
BYLAYER
 62
     1
 10
242.385903
 20
-121.915855
 30
0.0
 11
239.728684
 21
-121.776390
 31
0.0
  0
LINE
  8
0
  6
BYLAYER
 62
     1
 10
245.228684
 20
-162.743492
 30
0.0
 11
245.228684
 21
-124.911705
 31
0.0
  0
ARC
  8
0
  6
BYLAYER
 62
     1
 10
242.228684
 20
-124.911705
 30
0.0
 40
2.999972
 50
0.0
 51
86.995935
  0
LINE
  8
0
  6
BYLAYER
 62
     1
 10
244.728684
 20
-316.776390
 30
0.0
 11
303.501649
 21
-316.776390
 31
0.0
  0
LINE
  8
0
  6
BYLAYER
 62
     1
 10
239.728669
 20
-254.276420
 30
0.0
 11
254.228684
 21
-254.276420
 31
0.0
  0
LINE
  8
0
  6
BYLAYER
 62
     1
 10
244.350022
 20
-248.382072
 30
0.0
 11
239.728669
 21
-253.003441
 31
0.0
  0
LINE
  8
0
  6
BYLAYER
 62
     1
 10
239.728669
 20
-253.003441
 30
0.0
 11
239.728669
 21
-311.776390
 31
0.0
  0
ARC
  8
0
  6
BYLAYER
 62
     1
 10
284.728669
 20
-189.276451
 30
0.0
 40
5.000100
 50
88.263441
 51
359.999976
  0
CIRCLE
  8
0
  6
BYLAYER
 62
     1
 10
284.728669
 20
-189.276451
 30
0.0
 40
4.5
  0
ARC
  8
0
  6
BYLAYER
 62
     1
 10
308.892365
 20
-247.612877
 30
0.0
 40
5.000038
 50
133.263438
 51
404.999974
  0
CIRCLE
  8
0
  6
BYLAYER
 62
     1
 10
308.892365
 20
-247.612877
 30
0.0
 40
4.5
  0
CIRCLE
  8
0
  6
BYLAYER
 62
     1
 10
367.228669
 20
-271.776451
 30
0.0
 40
4.5
  0
CIRCLE
  8
0
  6
BYLAYER
 62
     1
 10
367.228669
 20
-189.276451
 30
0.0
 40
65.0
  0
ARC
  8
0
  6
BYLAYER
 62
     1
 10
449.728669
 20
-189.276451
 30
0.0
 40
5.000098
 50
180.000000
 51
451.736536
  0
CIRCLE
  8
0
  6
BYLAYER
 62
     1
 10
449.728669
 20
-189.276451
 30
0.0
 40
4.5
  0
ARC
  8
0
  6
BYLAYER
 62
     1
 10
425.564973
 20
-247.612877
 30
0.0
 40
5.000038
 50
135.000028
 51
406.736563
  0
CIRCLE
  8
0
  6
BYLAYER
 62
     1
 10
425.564973
 20
-247.612877
 30
0.0
 40
4.5
  0
CIRCLE
  8
0
  6
BYLAYER
 62
     1
 10
367.228669
 20
-271.776451
 30
0.0
 40
4.5
  0
ARC
  8
0
  6
BYLAYER
 62
     1
 10
367.228669
 20
-271.776451
 30
0.0
 40
4.999980
 50
90.0
 51
361.736535
  0
ARC
  8
0
  6
BYLAYER
 62
     1
 10
284.728669
 20
-189.276451
 30
0.0
 40
5.000100
 50
0.0
 51
271.736536
  0
CIRCLE
  8
0
  6
BYLAYER
 62
     1
 10
284.728669
 20
-189.276451
 30
0.0
 40
4.5
  0
ARC
  8
0
  6
BYLAYER
 62
     1
 10
308.892365
 20
-130.940330
 30
0.0
 40
4.999860
 50
315.000023
 51
586.736558
  0
CIRCLE
  8
0
  6
BYLAYER
 62
     1
 10
308.892365
 20
-130.940330
 30
0.0
 40
4.5
  0
CIRCLE
  8
0
  6
BYLAYER
 62
     1
 10
367.228669
 20
-106.776512
 30
0.0
 40
4.5
  0
ARC
  8
0
  6
BYLAYER
 62
     1
 10
449.728669
 20
-189.276451
 30
0.0
 40
5.000098
 50
268.263439
 51
539.999974
  0
CIRCLE
  8
0
  6
BYLAYER
 62
     1
 10
449.728669
 20
-189.276451
 30
0.0
 40
4.5
  0
ARC
  8
0
  6
BYLAYER
 62
     1
 10
425.564973
 20
-130.940330
 30
0.0
 40
4.999860
 50
313.263430
 51
584.999965
  0
CIRCLE
  8
0
  6
BYLAYER
 62
     1
 10
425.564973
 20
-130.940330
 30
0.0
 40
4.5
  0
CIRCLE
  8
0
  6
BYLAYER
 62
     1
 10
367.228669
 20
-106.776512
 30
0.0
 40
4.5
  0
ARC
  8
0
  6
BYLAYER
 62
     1
 10
367.228669
 20
-106.776512
 30
0.0
 40
4.999980
 50
358.263448
 51
629.999983
  0
CIRCLE
  8
0
  6
BYLAYER
 62
     1
 10
367.228669
 20
-189.276451
 30
0.0
 40
42.5
  0
ARC
  8
0
  6
BYLAYER
 62
     1
 10
428.442170
 20
-114.030907
 30
0.0
 40
2.999964
 50
50.871146
 51
102.667961
  0
ARC
  8
0
  6
BYLAYER
 62
     1
 10
442.260285
 20
-127.800926
 30
0.0
 40
3.000030
 50
347.532019
 51
399.328820
  0
ARC
  8
0
  6
BYLAYER
 62
     1
 10
417.696320
 20
-66.223534
 30
0.0
 40
46.00013
 50
212.731993
 51
282.668007
  0
ARC
  8
0
  6
BYLAYER
 62
     1
 10
376.477082
 20
-92.718407
 30
0.0
 40
2.999911
 50
32.732005
 51
84.528857
  0
ARC
  8
0
  6
BYLAYER
 62
     1
 10
316.761018
 20
-66.223534
 30
0.0
 40
46.000130
 50
257.331994
 51
327.268022
  0
ARC
  8
0
  6
BYLAYER
 62
     1
 10
357.980256
 20
-92.718407
 30
0.0
 40
2.999911
 50
95.471141
 51
147.267990
  0
ARC
  8
0
  6
BYLAYER
 62
     1
 10
306.015229
 20
-114.030907
 30
0.0
 40
2.999964
 50
77.332037
 51
129.128852
  0
ARC
  8
0
  6
BYLAYER
 62
     1
 10
292.197114
 20
-127.800926
 30
0.0
 40
3.000030
 50
140.671175
 51
192.467983
  0
ARC
  8
0
  6
BYLAYER
 62
     1
 10
244.352692
 20
-138.379539
 30
0.0
 40
45.999996
 50
302.532026
 51
372.467986
  0
ARC
  8
0
  6
BYLAYER
 62
     1
 10
270.703461
 20
-179.691002
 30
0.0
 40
3.000036
 50
122.532009
 51
174.328831
  0
ARC
  8
0
  6
BYLAYER
 62
     1
 10
417.696320
 20
-312.329430
 30
0.0
 40
46.000130
 50
77.331996
 51
147.268004
  0
ARC
  8
0
  6
BYLAYER
 62
     1
 10
428.442170
 20
-264.522056
 30
0.0
 40
3.000153
 50
257.332049
 51
309.128843
  0
ARC
  8
0
  6
BYLAYER
 62
     1
 10
292.197114
 20
-250.752281
 30
0.0
 40
2.999875
 50
167.532014
 51
219.328822
  0
ARC
  8
0
  6
BYLAYER
 62
     1
 10
244.352692
 20
-240.173424
 30
0.0
 40
45.999996
 50
347.532019
 51
417.467979
  0
ARC
  8
0
  6
BYLAYER
 62
     1
 10
270.703461
 20
-198.861900
 30
0.0
 40
3.000036
 50
185.671166
 51
237.468001
  0
ARC
  8
0
  6
BYLAYER
 62
     1
 10
456.463960
 20
-165.162071
 30
0.0
 40
3.000001
 50
150.189617
 51
218.524908
  0
ARC
  8
0
  6
BYLAYER
 62
     1
 10
443.448823
 20
-157.705162
 30
0.0
 40
11.999974
 50
330.189868
 51
434.810396
  0
ARC
  8
0
  6
BYLAYER
 62
     1
 10
447.378999
 20
-143.229210
 30
0.0
 40
3.000002
 50
186.476390
 51
254.811026
  0
ARC
  8
0
  6
BYLAYER
 62
     1
 10
490.104646
 20
-138.379539
 30
0.0
 40
45.999996
 50
167.531986
 51
202.500178
  0
ARC
  8
0
  6
BYLAYER
 62
     1
 10
376.477082
 20
-285.834495
 30
0.0
 40
2.999911
 50
275.471146
 51
327.267995
  0
ARC
  8
0
  6
BYLAYER
 62
     1
 10
357.980256
 20
-285.834495
 30
0.0
 40
2.999911
 50
212.732006
 51
264.528855
  0
ARC
  8
0
  6
BYLAYER
 62
     1
 10
292.197175
 20
-250.752220
 30
0.0
 40
2.999953
 50
167.531782
 51
219.328835
  0
ARC
  8
0
  6
BYLAYER
 62
     1
 10
367.228669
 20
-189.276451
 30
0.0
 40
99.999908
 50
264.328895
 51
275.871067
  0
ARC
  8
0
  6
BYLAYER
 62
     1
 10
367.228669
 20
-189.276451
 30
0.0
 40
99.999931
 50
39.328895
 51
50.871068
  0
ARC
  8
0
  6
BYLAYER
 62
     1
 10
367.228669
 20
-189.276451
 30
0.0
 40
99.999931
 50
129.328908
 51
140.871108
  0
ARC
  8
0
  6
BYLAYER
 62
     1
 10
367.228669
 20
-189.276451
 30
0.0
 40
99.999878
 50
174.328872
 51
185.871072
  0
ARC
  8
0
  6
BYLAYER
 62
     1
 10
316.761018
 20
-312.329430
 30
0.0
 40
46.000130
 50
32.732094
 51
102.667924
  0
ARC
  8
0
  6
BYLAYER
 62
     1
 10
367.228669
 20
-189.276451
 30
0.0
 40
99.999931
 50
219.128916
 51
230.871131
  0
ARC
  8
0
  6
BYLAYER
 62
     1
 10
306.015290
 20
-264.522087
 30
0.0
 40
2.999999
 50
230.870311
 51
282.667898
  0
ARC
  8
0
  6
BYLAYER
 62
     1
 10
442.260224
 20
-250.752098
 30
0.0
 40
2.999991
 50
320.671152
 51
372.468052
  0
ARC
  8
0
  6
BYLAYER
 62
     1
 10
490.104646
 20
-240.173424
 30
0.0
 40
46.000023
 50
122.532132
 51
192.467819
  0
ARC
  8
0
  6
BYLAYER
 62
     1
 10
463.753754
 20
-198.862022
 30
0.0
 40
2.999985
 50
302.532875
 51
354.329068
  0
ARC
  8
0
  6
BYLAYER
 62
     1
 10
367.228669
 20
-189.276451
 30
0.0
 40
99.999893
 50
354.328767
 51
365.671171
  0
ARC
  8
0
  6
BYLAYER
 62
     1
 10
490.104646
 20
-138.379539
 30
0.0
 40
46.000069
 50
202.500151
 51
237.467919
  0
ARC
  8
0
  6
BYLAYER
 62
     1
 10
463.753754
 20
-179.691002
 30
0.0
 40
3.000034
 50
5.670925
 51
57.467122
  0
ARC
  8
0
  6
BYLAYER
 62
     1
 10
367.228669
 20
-189.276451
 30
0.0
 40
99.999939
 50
309.128898
 51
320.671180
  0
ARC
  8
0
  6
BYLAYER
 62
     1
 10
367.228669
 20
-189.276451
 30
0.0
 40
99.999878
 50
84.528857
 51
95.471141
  0
ARC
  8
0
  6
BYLAYER
 62
     1
 10
341.420960
 20
-79.776451
 30
0.0
 40
3.000000
 50
90.0
 51
103.261844
  0
LINE
  8
0
  6
BYLAYER
 62
     1
 10
341.420960
 20
-76.776451
 30
0.0
 11
393.036408
 21
-76.776451
 31
0.0
  0
ARC
  8
0
  6
BYLAYER
 62
     1
 10
393.036408
 20
-79.776451
 30
0.0
 40
3.0
 50
76.738150
 51
90.000000
  0
LINE
  8
0
  6
BYLAYER
 62
     1
 10
269.430482
 20
-127.975761
 30
0.0
 11
305.928162
 21
-91.478081
 31
0.0
  0
LINE
  8
0
  6
BYLAYER
 62
     1
 10
254.728944
 20
-215.084068
 30
0.0
 11
254.728944
 21
-163.468590
 31
0.0
  0
LINE
  8
0
  6
BYLAYER
 62
     1
 10
305.928162
 20
-287.074516
 30
0.0
 11
269.430482
 21
-250.576866
 31
0.0
  0
LINE
  8
0
  6
BYLAYER
 62
     1
 10
393.036530
 20
-301.776085
 30
0.0
 11
341.421021
 21
-301.776085
 31
0.0
  0
LINE
  8
0
  6
BYLAYER
 62
     1
 10
465.026887
 20
-250.576774
 30
0.0
 11
428.529328
 21
-287.074425
 31
0.0
  0
LINE
  8
0
  6
BYLAYER
 62
     1
 10
479.728547
 20
-163.468468
 30
0.0
 11
479.728547
 21
-215.083946
 31
0.0
  0
LINE
  8
0
  6
BYLAYER
 62
     1
 10
428.529206
 20
-91.478020
 30
0.0
 11
465.026887
 21
-127.975700
 31
0.0
  0
ARC
  8
0
  6
BYLAYER
 62
     1
 10
476.728547
 20
-215.083946
 30
0.0
 40
3.0
 50
346.738214
 51
360.000000
  0
ARC
  8
0
  6
BYLAYER
 62
     1
 10
476.728547
 20
-163.468590
 30
0.0
 40
3.000000
 50
0.0
 51
13.261779
  0
ARC
  8
0
  6
BYLAYER
 62
     1
 10
367.228700
 20
-189.276268
 30
0.0
 40
115.499939
 50
13.261844
 51
31.738130
  0
ARC
  8
0
  6
BYLAYER
 62
     1
 10
462.905549
 20
-130.097038
 30
0.0
 40
3.000013
 50
31.738393
 51
45.000411
  0
ARC
  8
0
  6
BYLAYER
 62
     1
 10
367.228700
 20
-189.276268
 30
0.0
 40
115.499992
 50
58.261773
 51
76.738145
  0
ARC
  8
0
  6
BYLAYER
 62
     1
 10
426.408112
 20
-93.599480
 30
0.0
 40
2.999917
 50
44.999793
 51
58.261452
  0
ARC
  8
0
  6
BYLAYER
 62
     1
 10
341.421021
 20
-298.776085
 30
0.0
 40
3.000000
 50
256.738231
 51
270.000000
  0
ARC
  8
0
  6
BYLAYER
 62
     1
 10
393.036408
 20
-298.776085
 30
0.0
 40
3.000000
 50
270.0
 51
283.261769
  0
ARC
  8
0
  6
BYLAYER
 62
     1
 10
341.421021
 20
-298.776085
 30
0.0
 40
3.000000
 50
256.738231
 51
270.000000
  0
ARC
  8
0
  6
BYLAYER
 62
     1
 10
367.228700
 20
-189.276268
 30
0.0
 40
115.5
 50
283.261851
 51
301.738114
  0
ARC
  8
0
  6
BYLAYER
 62
     1
 10
426.407868
 20
-284.953163
 30
0.0
 40
3.000013
 50
301.738005
 51
314.999992
  0
ARC
  8
0
  6
BYLAYER
 62
     1
 10
367.228700
 20
-189.276268
 30
0.0
 40
115.499985
 50
328.261842
 51
346.73816
  0
ARC
  8
0
  6
BYLAYER
 62
     1
 10
462.905549
 20
-248.455559
 30
0.0
 40
3.000003
 50
315.000210
 51
328.262252
  0
ARC
  8
0
  6
BYLAYER
 62
     1
 10
257.728944
 20
-163.468590
 30
0.0
 40
3.000000
 50
166.738204
 51
180.000000
  0
ARC
  8
0
  6
BYLAYER
 62
     1
 10
257.728944
 20
-215.083977
 30
0.0
 40
3.000000
 50
180.000000
 51
193.261796
  0
ARC
  8
0
  6
BYLAYER
 62
     1
 10
367.228700
 20
-189.276268
 30
0.0
 40
115.499977
 50
193.261855
 51
211.738173
  0
ARC
  8
0
  6
BYLAYER
 62
     1
 10
271.551820
 20
-248.455559
 30
0.0
 40
2.999909
 50
211.738323
 51
225.000228
  0
ARC
  8
0
  6
BYLAYER
 62
     1
 10
367.228700
 20
-189.276268
 30
0.0
 40
115.500008
 50
238.261833
 51
256.738150
  0
ARC
  8
0
  6
BYLAYER
 62
     1
 10
308.049378
 20
-284.953102
 30
0.0
 40
3.000014
 50
224.999996
 51
238.261887
  0
ARC
  8
0
  6
BYLAYER
 62
     1
 10
367.228700
 20
-189.276268
 30
0.0
 40
115.499985
 50
148.261892
 51
166.738155
  0
ARC
  8
0
  6
BYLAYER
 62
     1
 10
271.551820
 20
-130.097038
 30
0.0
 40
3.000003
 50
135.000205
 51
148.262192
  0
ARC
  8
0
  6
BYLAYER
 62
     1
 10
367.228700
 20
-189.276268
 30
0.0
 40
115.499992
 50
103.261880
 51
121.738164
  0
ARC
  8
0
  6
BYLAYER
 62
     1
 10
308.049378
 20
-93.599419
 30
0.0
 40
3.000003
 50
121.738423
 51
135.000205
  0
ARC
  8
0
  6
BYLAYER
 62
     1
 10
346.364402
 20
-65.924924
 30
0.0
 40
4.330170
 50
270.0
 51
316.109984
  0
ARC
  8
0
  6
BYLAYER
 62
     1
 10
345.922929
 20
-65.500234
 30
0.0
 40
4.942754
 50
316.109984
 51
360.000000
  0
ARC
  8
0
  6
BYLAYER
 62
     1
 10
345.922929
 20
-65.500234
 30
0.0
 40
4.942754
 50
0.0
 51
43.890016
  0
ARC
  8
0
  6
BYLAYER
 62
     1
 10
346.364402
 20
-65.075543
 30
0.0
 40
4.330170
 50
43.890016
 51
90.0
  0
ARC
  8
0
  6
BYLAYER
 62
     1
 10
346.364402
 20
-65.075506
 30
0.0
 40
4.330132
 50
90.0
 51
136.110087
  0
ARC
  8
0
  6
BYLAYER
 62
     1
 10
346.805915
 20
-65.500234
 30
0.0
 40
4.942772
 50
136.110087
 51
180.0
  0
ARC
  8
0
  6
BYLAYER
 62
     1
 10
346.805915
 20
-65.500234
 30
0.0
 40
4.942772
 50
180.000000
 51
223.889913
  0
ARC
  8
0
  6
BYLAYER
 62
     1
 10
346.364402
 20
-65.924961
 30
0.0
 40
4.330132
 50
223.889913
 51
270.000000
  0
ARC
  8
0
  6
BYLAYER
 62
     1
 10
346.364402
 20
-64.235507
 30
0.0
 40
1.994620
 50
90.0
 51
140.793201
  0
ARC
  8
0
  6
BYLAYER
 62
     1
 10
347.914734
 20
-65.500234
 30
0.0
 40
3.995385
 50
140.793201
 51
180.0
  0
ARC
  8
0
  6
BYLAYER
 62
     1
 10
347.914710
 20
-65.500234
 30
0.0
 40
3.995361
 50
180.000000
 51
219.206869
  0
ARC
  8
0
  6
BYLAYER
 62
     1
 10
346.364402
 20
-66.764943
 30
0.0
 40
1.994625
 50
219.206869
 51
270.0
  0
ARC
  8
0
  6
BYLAYER
 62
     1
 10
346.364402
 20
-66.764943
 30
0.0
 40
1.994625
 50
270.0
 51
320.793131
  0
ARC
  8
0
  6
BYLAYER
 62
     1
 10
344.814094
 20
-65.500234
 30
0.0
 40
3.995361
 50
320.793131
 51
360.000000
  0
ARC
  8
0
  6
BYLAYER
 62
     1
 10
344.814070
 20
-65.500234
 30
0.0
 40
3.995385
 50
0.0
 51
39.206799
  0
ARC
  8
0
  6
BYLAYER
 62
     1
 10
346.364402
 20
-64.235507
 30
0.0
 40
1.994620
 50
39.206799
 51
90.000000
  0
LINE
  8
0
  6
BYLAYER
 62
     1
 10
331.592643
 20
-69.938092
 30
0.0
 11
331.592643
 21
-60.935551
 31
0.0
  0
LINE
  8
0
  6
BYLAYER
 62
     1
 10
331.592643
 20
-60.935551
 30
0.0
 11
335.252829
 21
-60.935551
 31
0.0
  0
LINE
  8
0
  6
BYLAYER
 62
     1
 10
335.252829
 20
-60.935551
 30
0.0
 11
336.474303
 21
-65.627034
 31
0.0
  0
LINE
  8
0
  6
BYLAYER
 62
     1
 10
331.592643
 20
-69.938092
 30
0.0
 11
333.790458
 21
-69.938092
 31
0.0
  0
LINE
  8
0
  6
BYLAYER
 62
     1
 10
333.790458
 20
-69.938092
 30
0.0
 11
333.790458
 21
-64.739453
 31
0.0
  0
LINE
  8
0
  6
BYLAYER
 62
     1
 10
335.523322
 20
-69.938092
 30
0.0
 11
333.790458
 21
-64.739453
 31
0.0
  0
LINE
  8
0
  6
BYLAYER
 62
     1
 10
341.355964
 20
-69.938092
 30
0.0
 11
341.355964
 21
-60.935551
 31
0.0
  0
LINE
  8
0
  6
BYLAYER
 62
     1
 10
341.355964
 20
-60.935551
 30
0.0
 11
337.695777
 21
-60.935551
 31
0.0
  0
LINE
  8
0
  6
BYLAYER
 62
     1
 10
337.695777
 20
-60.935551
 30
0.0
 11
336.474303
 21
-65.627034
 31
0.0
  0
LINE
  8
0
  6
BYLAYER
 62
     1
 10
341.355964
 20
-69.938092
 30
0.0
 11
339.158149
 21
-69.938092
 31
0.0
  0
LINE
  8
0
  6
BYLAYER
 62
     1
 10
339.158149
 20
-69.938092
 30
0.0
 11
339.158149
 21
-64.739453
 31
0.0
  0
LINE
  8
0
  6
BYLAYER
 62
     1
 10
337.425284
 20
-69.938092
 30
0.0
 11
339.158149
 21
-64.739453
 31
0.0
  0
LINE
  8
0
  6
BYLAYER
 62
     1
 10
337.425284
 20
-69.938092
 30
0.0
 11
335.523322
 21
-69.938092
 31
0.0
  0
LINE
  8
0
  6
BYLAYER
 62
     1
 10
373.562224
 20
-69.938092
 30
0.0
 11
376.985702
 21
-60.935551
 31
0.0
  0
LINE
  8
0
  6
BYLAYER
 62
     1
 10
373.562224
 20
-69.938092
 30
0.0
 11
376.478545
 21
-69.938092
 31
0.0
  0
LINE
  8
0
  6
BYLAYER
 62
     1
 10
376.985702
 20
-60.935551
 30
0.0
 11
379.775222
 21
-60.935551
 31
0.0
  0
LINE
  8
0
  6
BYLAYER
 62
     1
 10
376.478545
 20
-69.938092
 30
0.0
 11
376.910811
 21
-68.670133
 31
0.0
  0
LINE
  8
0
  6
BYLAYER
 62
     1
 10
377.602401
 20
-66.641393
 30
0.0
 11
378.380462
 21
-64.359052
 31
0.0
  0
LINE
  8
0
  6
BYLAYER
 62
     1
 10
383.198745
 20
-69.938092
 30
0.0
 11
379.775222
 21
-60.935551
 31
0.0
  0
LINE
  8
0
  6
BYLAYER
 62
     1
 10
383.198745
 20
-69.938092
 30
0.0
 11
380.282424
 21
-69.938092
 31
0.0
  0
LINE
  8
0
  6
BYLAYER
 62
     1
 10
379.850158
 20
-68.670133
 30
0.0
 11
376.910811
 21
-68.670133
 31
0.0
  0
LINE
  8
0
  6
BYLAYER
 62
     1
 10
379.158523
 20
-66.641393
 30
0.0
 11
377.602401
 21
-66.641393
 31
0.0
  0
LINE
  8
0
  6
BYLAYER
 62
     1
 10
380.282424
 20
-69.938092
 30
0.0
 11
379.850158
 21
-68.670133
 31
0.0
  0
LINE
  8
0
  6
BYLAYER
 62
     1
 10
379.158523
 20
-66.641393
 30
0.0
 11
378.380462
 21
-64.359052
 31
0.0
  0
LINE
  8
0
  6
BYLAYER
 62
     1
 10
350.865683
 20
-63.154492
 30
0.0
 11
353.401603
 21
-63.154492
 31
0.0
  0
LINE
  8
0
  6
BYLAYER
 62
     1
 10
353.401603
 20
-63.154492
 30
0.0
 11
353.401603
 21
-69.938092
 31
0.0
  0
LINE
  8
0
  6
BYLAYER
 62
     1
 10
353.401603
 20
-69.938092
 30
0.0
 11
356.191146
 21
-69.938092
 31
0.0
  0
LINE
  8
0
  6
BYLAYER
 62
     1
 10
356.191146
 20
-69.938092
 30
0.0
 11
356.191146
 21
-63.154492
 31
0.0
  0
LINE
  8
0
  6
BYLAYER
 62
     1
 10
356.191146
 20
-63.154492
 30
0.0
 11
358.727065
 21
-63.154492
 31
0.0
  0
LINE
  8
0
  6
BYLAYER
 62
     1
 10
358.727065
 20
-63.154492
 30
0.0
 11
358.727065
 21
-60.935551
 31
0.0
  0
LINE
  8
0
  6
BYLAYER
 62
     1
 10
358.727065
 20
-60.935551
 30
0.0
 11
350.865683
 21
-60.935551
 31
0.0
  0
LINE
  8
0
  6
BYLAYER
 62
     1
 10
350.865683
 20
-60.935551
 30
0.0
 11
350.865683
 21
-63.154492
 31
0.0
  0
ARC
  8
0
  6
BYLAYER
 62
     1
 10
363.228324
 20
-65.924961
 30
0.0
 40
4.330132
 50
270.0
 51
316.110087
  0
ARC
  8
0
  6
BYLAYER
 62
     1
 10
362.786811
 20
-65.500234
 30
0.0
 40
4.942772
 50
316.110087
 51
360.0
  0
ARC
  8
0
  6
BYLAYER
 62
     1
 10
362.786829
 20
-65.500234
 30
0.0
 40
4.942754
 50
0.0
 51
43.890016
  0
ARC
  8
0
  6
BYLAYER
 62
     1
 10
363.228301
 20
-65.075543
 30
0.0
 40
4.330170
 50
43.890016
 51
90.000000
  0
ARC
  8
0
  6
BYLAYER
 62
     1
 10
363.228301
 20
-65.075506
 30
0.0
 40
4.330132
 50
90.0
 51
136.110087
  0
ARC
  8
0
  6
BYLAYER
 62
     1
 10
363.669814
 20
-65.500234
 30
0.0
 40
4.942772
 50
136.110087
 51
180.000000
  0
ARC
  8
0
  6
BYLAYER
 62
     1
 10
363.669796
 20
-65.500234
 30
0.0
 40
4.942754
 50
180.000000
 51
223.890016
  0
ARC
  8
0
  6
BYLAYER
 62
     1
 10
363.228324
 20
-65.924924
 30
0.0
 40
4.330170
 50
223.890016
 51
270.000000
  0
ARC
  8
0
  6
BYLAYER
 62
     1
 10
363.228301
 20
-64.235507
 30
0.0
 40
1.994620
 50
90.0
 51
140.793201
  0
ARC
  8
0
  6
BYLAYER
 62
     1
 10
364.778633
 20
-65.500234
 30
0.0
 40
3.995385
 50
140.793201
 51
180.000000
  0
ARC
  8
0
  6
BYLAYER
 62
     1
 10
364.778582
 20
-65.500234
 30
0.0
 40
3.995334
 50
180.000000
 51
219.207055
  0
ARC
  8
0
  6
BYLAYER
 62
     1
 10
363.228324
 20
-66.764911
 30
0.0
 40
1.994657
 50
219.207055
 51
270.000000
  0
ARC
  8
0
  6
BYLAYER
 62
     1
 10
363.228324
 20
-66.764943
 30
0.0
 40
1.994625
 50
270.0
 51
320.793131
  0
ARC
  8
0
  6
BYLAYER
 62
     1
 10
361.678016
 20
-65.500234
 30
0.0
 40
3.995361
 50
320.793131
 51
360.000000
  0
ARC
  8
0
  6
BYLAYER
 62
     1
 10
361.678019
 20
-65.500234
 30
0.0
 40
3.995358
 50
0.0
 51
39.206985
  0
ARC
  8
0
  6
BYLAYER
 62
     1
 10
363.228301
 20
-64.235539
 30
0.0
 40
1.994652
 50
39.206985
 51
90.000000
  0
LINE
  8
0
  6
BYLAYER
 62
     1
 10
383.441726
 20
-69.938092
 30
0.0
 11
383.441726
 21
-60.935551
 31
0.0
  0
LINE
  8
0
  6
BYLAYER
 62
     1
 10
383.441726
 20
-60.935551
 30
0.0
 11
389.020743
 21
-60.935551
 31
0.0
  0
ARC
  8
0
  6
BYLAYER
 62
     1
 10
389.020743
 20
-63.471494
 30
0.0
 40
2.535915
 50
287.134650
 51
450.000006
  0
ARC
  8
0
  6
BYLAYER
 62
     1
 10
389.527946
 20
-67.909352
 30
0.0
 40
2.028740
 50
0.0
 51
83.207557
  0
LINE
  8
0
  6
BYLAYER
 62
     1
 10
391.556686
 20
-67.909352
 30
0.0
 11
391.556686
 21
-69.177312
 31
0.0
  0
ARC
  8
0
  6
BYLAYER
 62
     1
 10
393.585425
 20
-69.177312
 30
0.0
 40
2.028740
 50
180.000000
 51
202.024314
  0
LINE
  8
0
  6
BYLAYER
 62
     1
 10
388.915206
 20
-69.938092
 30
0.0
 11
391.704726
 21
-69.938092
 31
0.0
  0
ARC
  8
0
  6
BYLAYER
 62
     1
 10
390.795905
 20
-69.177312
 30
0.0
 40
2.028740
 50
180.000000
 51
202.024314
  0
LINE
  8
0
  6
BYLAYER
 62
     1
 10
388.767165
 20
-69.177312
 30
0.0
 11
388.767165
 21
-68.162953
 31
0.0
  0
LINE
  8
0
  6
BYLAYER
 62
     1
 10
383.441726
 20
-69.938092
 30
0.0
 11
386.104446
 21
-69.938092
 31
0.0
  0
LINE
  8
0
  6
BYLAYER
 62
     1
 10
386.104446
 20
-69.938092
 30
0.0
 11
386.104446
 21
-66.894994
 31
0.0
  0
LINE
  8
0
  6
BYLAYER
 62
     1
 10
387.499206
 20
-66.894994
 30
0.0
 11
386.104446
 21
-66.894994
 31
0.0
  0
ARC
  8
0
  6
BYLAYER
 62
     1
 10
387.499206
 20
-68.162953
 30
0.0
 40
1.267960
 50
0.0
 51
90.000003
  0
LINE
  8
0
  6
BYLAYER
 62
     1
 10
386.104446
 20
-64.866254
 30
0.0
 11
386.104446
 21
-62.964291
 31
0.0
  0
LINE
  8
0
  6
BYLAYER
 62
     1
 10
386.104446
 20
-62.964291
 30
0.0
 11
387.879584
 21
-62.964291
 31
0.0
  0
LINE
  8
0
  6
BYLAYER
 62
     1
 10
386.104446
 20
-64.866254
 30
0.0
 11
387.879584
 21
-64.866254
 31
0.0
  0
ARC
  8
0
  6
BYLAYER
 62
     1
 10
387.879584
 20
-63.915273
 30
0.0
 40
0.950981
 50
270.0
 51
450.000005
  0
LINE
  8
0
  6
BYLAYER
 62
     1
 10
371.343307
 20
-67.091397
 30
0.0
 11
369.694945
 21
-60.935551
 31
0.0
  0
LINE
  8
0
  6
BYLAYER
 62
     1
 10
369.694945
 20
-60.935551
 30
0.0
 11
367.032226
 21
-60.935551
 31
0.0
  0
LINE
  8
0
  6
BYLAYER
 62
     1
 10
367.032226
 20
-60.935551
 30
0.0
 11
369.821746
 21
-69.938092
 31
0.0
  0
LINE
  8
0
  6
BYLAYER
 62
     1
 10
371.343307
 20
-67.091397
 30
0.0
 11
372.991622
 21
-60.935551
 31
0.0
  0
LINE
  8
0
  6
BYLAYER
 62
     1
 10
372.991622
 20
-60.935551
 30
0.0
 11
375.654342
 21
-60.935551
 31
0.0
  0
LINE
  8
0
  6
BYLAYER
 62
     1
 10
375.654342
 20
-60.935551
 30
0.0
 11
372.864821
 21
-69.938092
 31
0.0
  0
LINE
  8
0
  6
BYLAYER
 62
     1
 10
372.864821
 20
-69.938092
 30
0.0
 11
369.821746
 21
-69.938092
 31
0.0
  0
LINE
  8
0
  6
BYLAYER
 62
     1
 10
391.947707
 20
-69.938092
 30
0.0
 11
394.610427
 21
-69.938092
 31
0.0
  0
LINE
  8
0
  6
BYLAYER
 62
     1
 10
394.610427
 20
-69.938092
 30
0.0
 11
394.610427
 21
-60.935551
 31
0.0
  0
LINE
  8
0
  6
BYLAYER
 62
     1
 10
394.610427
 20
-60.935551
 30
0.0
 11
391.947707
 21
-60.935551
 31
0.0
  0
LINE
  8
0
  6
BYLAYER
 62
     1
 10
391.947707
 20
-60.935551
 30
0.0
 11
391.947707
 21
-69.938092
 31
0.0
  0
ARC
  8
0
  6
BYLAYER
 62
     1
 10
399.618888
 20
-65.924961
 30
0.0
 40
4.330132
 50
270.0
 51
316.110087
  0
ARC
  8
0
  6
BYLAYER
 62
     1
 10
399.177375
 20
-65.500234
 30
0.0
 40
4.942772
 50
316.110087
 51
360.000000
  0
ARC
  8
0
  6
BYLAYER
 62
     1
 10
399.177375
 20
-65.500234
 30
0.0
 40
4.942772
 50
0.0
 51
43.889913
  0
ARC
  8
0
  6
BYLAYER
 62
     1
 10
399.618888
 20
-65.075506
 30
0.0
 40
4.330132
 50
43.889913
 51
90.000000
  0
ARC
  8
0
  6
BYLAYER
 62
     1
 10
399.618888
 20
-65.075506
 30
0.0
 40
4.330132
 50
90.0
 51
136.110087
  0
ARC
  8
0
  6
BYLAYER
 62
     1
 10
400.060401
 20
-65.500234
 30
0.0
 40
4.942772
 50
136.110087
 51
180.000000
  0
ARC
  8
0
  6
BYLAYER
 62
     1
 10
400.060401
 20
-65.500234
 30
0.0
 40
4.942772
 50
180.000000
 51
223.889913
  0
ARC
  8
0
  6
BYLAYER
 62
     1
 10
399.618888
 20
-65.924961
 30
0.0
 40
4.330132
 50
223.889913
 51
270.000000
  0
ARC
  8
0
  6
BYLAYER
 62
     1
 10
399.618888
 20
-64.235507
 30
0.0
 40
1.994620
 50
39.206799
 51
90.000000
  0
ARC
  8
0
  6
BYLAYER
 62
     1
 10
398.068556
 20
-65.500234
 30
0.0
 40
3.995385
 50
0.0
 51
39.206799
  0
ARC
  8
0
  6
BYLAYER
 62
     1
 10
398.068580
 20
-65.500234
 30
0.0
 40
3.995361
 50
320.793131
 51
360.000000
  0
ARC
  8
0
  6
BYLAYER
 62
     1
 10
399.618888
 20
-66.764943
 30
0.0
 40
1.994625
 50
270.0
 51
320.793131
  0
ARC
  8
0
  6
BYLAYER
 62
     1
 10
399.618888
 20
-66.764943
 30
0.0
 40
1.994625
 50
219.206869
 51
270.000000
  0
ARC
  8
0
  6
BYLAYER
 62
     1
 10
401.169196
 20
-65.500234
 30
0.0
 40
3.995361
 50
180.000000
 51
219.206869
  0
ARC
  8
0
  6
BYLAYER
 62
     1
 10
401.169220
 20
-65.500234
 30
0.0
 40
3.995385
 50
140.793201
 51
180.000000
  0
ARC
  8
0
  6
BYLAYER
 62
     1
 10
399.618888
 20
-64.235507
 30
0.0
 40
1.994620
 50
90.0
 51
140.793201
  0
ARC
  8
0
  6
BYLAYER
 62
     1
 10
354.661094
 20
-50.629460
 30
0.0
 40
11.144993
 50
174.535650
 51
180.000000
  0
LINE
  8
0
  6
BYLAYER
 62
     1
 10
343.566745
 20
-49.568158
 30
0.0
 11
343.566745
 21
-49.568147
 31
0.0
  0
LINE
  8
0
  6
BYLAYER
 62
     1
 10
343.578872
 20
-49.448262
 30
0.0
 11
344.642526
 21
-49.000448
 31
0.0
  0
ARC
  8
0
  6
BYLAYER
 62
     1
 10
354.661139
 20
-50.629552
 30
0.0
 40
10.150172
 50
159.235383
 51
170.763998
  0
LINE
  8
0
  6
BYLAYER
 62
     1
 10
345.170228
 20
-47.030954
 30
0.0
 11
344.473029
 21
-46.111284
 31
0.0
  0
ARC
  8
0
  6
BYLAYER
 62
     1
 10
354.661094
 20
-50.629460
 30
0.0
 40
11.144980
 50
144.139514
 51
156.083795
  0
LINE
  8
0
  6
BYLAYER
 62
     1
 10
345.555396
 20
-44.203168
 30
0.0
 11
345.556060
 21
-44.202229
 31
0.0
  0
LINE
  8
0
  6
BYLAYER
 62
     1
 10
345.628691
 20
-44.100580
 30
0.0
 11
346.761079
 21
-44.256376
 31
0.0
  0
ARC
  8
0
  6
BYLAYER
 62
     1
 10
354.661094
 20
-50.629460
 30
0.0
 40
10.150111
 50
129.235643
 51
141.105976
  0
LINE
  8
0
  6
BYLAYER
 62
     1
 10
348.075065
 20
-42.906174
 30
0.0
 11
348.076163
 21
-42.905225
 31
0.0
  0
LINE
  8
0
  6
BYLAYER
 62
     1
 10
348.241034
 20
-42.767680
 30
0.0
 11
348.097043
 21
-41.622570
 31
0.0
  0
ARC
  8
0
  6
BYLAYER
 62
     1
 10
354.661094
 20
-50.629460
 30
0.0
 40
11.144991
 50
114.139607
 51
126.083853
  0
LINE
  8
0
  6
BYLAYER
 62
     1
 10
349.989272
 20
-40.510915
 30
0.0
 11
349.990027
 21
-40.510560
 31
0.0
  0
LINE
  8
0
  6
BYLAYER
 62
     1
 10
350.103223
 20
-40.459080
 30
0.0
 11
351.005966
 21
-41.160171
 31
0.0
  0
LINE
  8
0
  6
BYLAYER
 62
     1
 10
351.212371
 20
-41.083188
 30
0.0
 11
351.213515
 21
-41.082787
 31
0.0
  0
ARC
  8
0
  6
BYLAYER
 62
     1
 10
354.661094
 20
-50.629460
 30
0.0
 40
10.150108
 50
99.235601
 51
111.106038
  0
ARC
  8
0
  6
BYLAYER
 62
     1
 10
354.661094
 20
-50.629460
 30
0.0
 40
11.144993
 50
90.0
 51
96.083892
  0
LINE
  8
0
  6
BYLAYER
 62
     1
 10
353.479897
 20
-39.547239
 30
0.0
 11
353.032057
 21
-40.610931
 31
0.0
  0
LINE
  8
0
  6
BYLAYER
 62
     1
 10
365.755431
 20
-49.568158
 30
0.0
 11
365.755431
 21
-49.568147
 31
0.0
  0
LINE
  8
0
  6
BYLAYER
 62
     1
 10
365.743315
 20
-49.448261
 30
0.0
 11
364.679607
 21
-49.000437
 31
0.0
  0
ARC
  8
0
  6
BYLAYER
 62
     1
 10
354.661025
 20
-50.629552
 30
0.0
 40
10.150172
 50
9.235986
 51
20.764650
  0
LINE
  8
0
  6
BYLAYER
 62
     1
 10
364.152011
 20
-47.030848
 30
0.0
 11
364.849159
 21
-46.111286
 31
0.0
  0
ARC
  8
0
  6
BYLAYER
 62
     1
 10
354.661094
 20
-50.629460
 30
0.0
 40
11.144980
 50
23.916189
 51
35.860484
  0
LINE
  8
0
  6
BYLAYER
 62
     1
 10
363.766768
 20
-44.203168
 30
0.0
 11
363.766105
 21
-44.202229
 31
0.0
  0
LINE
  8
0
  6
BYLAYER
 62
     1
 10
363.693496
 20
-44.100580
 30
0.0
 11
362.561188
 21
-44.256361
 31
0.0
  0
ARC
  8
0
  6
BYLAYER
 62
     1
 10
354.661094
 20
-50.629460
 30
0.0
 40
10.150111
 50
38.894050
 51
50.764315
  0
LINE
  8
0
  6
BYLAYER
 62
     1
 10
361.247123
 20
-42.906174
 30
0.0
 11
361.246024
 21
-42.905225
 31
0.0
  0
LINE
  8
0
  6
BYLAYER
 62
     1
 10
361.081183
 20
-42.767496
 30
0.0
 11
361.225120
 21
-41.622552
 31
0.0
  0
ARC
  8
0
  6
BYLAYER
 62
     1
 10
354.661094
 20
-50.629460
 30
0.0
 40
11.144991
 50
53.916300
 51
65.860381
  0
LINE
  8
0
  6
BYLAYER
 62
     1
 10
359.332915
 20
-40.510915
 30
0.0
 11
359.332137
 21
-40.510560
 31
0.0
  0
LINE
  8
0
  6
BYLAYER
 62
     1
 10
359.218967
 20
-40.459081
 30
0.0
 11
358.316232
 21
-41.160140
 31
0.0
  0
LINE
  8
0
  6
BYLAYER
 62
     1
 10
358.109794
 20
-41.083188
 30
0.0
 11
358.108672
 21
-41.082787
 31
0.0
  0
ARC
  8
0
  6
BYLAYER
 62
     1
 10
354.661094
 20
-50.629460
 30
0.0
 40
10.150108
 50
68.894081
 51
80.764578
  0
ARC
  8
0
  6
BYLAYER
 62
     1
 10
354.661094
 20
-50.629460
 30
0.0
 40
11.144993
 50
84.535428
 51
90.000003
  0
LINE
  8
0
  6
BYLAYER
 62
     1
 10
355.842294
 20
-39.547239
 30
0.0
 11
356.290025
 21
-40.610750
 31
0.0
  0
ARC
  8
0
  6
BYLAYER
 62
     1
 10
354.661094
 20
-50.629460
 30
0.0
 40
11.144993
 50
180.000000
 51
186.083899
  0
LINE
  8
0
  6
BYLAYER
 62
     1
 10
343.566745
 20
-51.690751
 30
0.0
 11
343.566745
 21
-51.690774
 31
0.0
  0
LINE
  8
0
  6
BYLAYER
 62
     1
 10
343.578872
 20
-51.810658
 30
0.0
 11
344.642558
 21
-52.258486
 31
0.0
  0
ARC
  8
0
  6
BYLAYER
 62
     1
 10
354.661139
 20
-50.629369
 30
0.0
 40
10.150172
 50
189.236002
 51
200.764629
  0
LINE
  8
0
  6
BYLAYER
 62
     1
 10
345.170264
 20
-54.227921
 30
0.0
 11
344.473026
 21
-55.147628
 31
0.0
  0
ARC
  8
0
  6
BYLAYER
 62
     1
 10
354.661094
 20
-50.629460
 30
0.0
 40
11.144980
 50
203.916158
 51
215.860410
  0
LINE
  8
0
  6
BYLAYER
 62
     1
 10
345.555396
 20
-57.055741
 30
0.0
 11
345.556060
 21
-57.056680
 31
0.0
  0
LINE
  8
0
  6
BYLAYER
 62
     1
 10
345.628682
 20
-57.158329
 30
0.0
 11
346.761177
 21
-57.002534
 31
0.0
  0
ARC
  8
0
  6
BYLAYER
 62
     1
 10
354.661094
 20
-50.629460
 30
0.0
 40
10.150111
 50
218.894045
 51
230.764345
  0
LINE
  8
0
  6
BYLAYER
 62
     1
 10
348.075065
 20
-58.352734
 30
0.0
 11
348.076163
 21
-58.353684
 31
0.0
  0
LINE
  8
0
  6
BYLAYER
 62
     1
 10
348.241032
 20
-58.491239
 30
0.0
 11
348.097044
 21
-59.636351
 31
0.0
  0
ARC
  8
0
  6
BYLAYER
 62
     1
 10
354.661094
 20
-50.629460
 30
0.0
 40
11.144991
 50
233.916148
 51
245.860401
  0
LINE
  8
0
  6
BYLAYER
 62
     1
 10
349.989272
 20
-60.747994
 30
0.0
 11
349.990027
 21
-60.748360
 31
0.0
  0
LINE
  8
0
  6
BYLAYER
 62
     1
 10
350.103224
 20
-60.799841
 30
0.0
 11
351.006073
 21
-60.098652
 31
0.0
  0
LINE
  8
0
  6
BYLAYER
 62
     1
 10
351.212371
 20
-60.175721
 30
0.0
 11
351.213515
 21
-60.176133
 31
0.0
  0
LINE
  8
0
  6
BYLAYER
 62
     1
 10
365.755431
 20
-51.690751
 30
0.0
 11
365.755431
 21
-51.690774
 31
0.0
  0
LINE
  8
0
  6
BYLAYER
 62
     1
 10
365.743313
 20
-51.810660
 30
0.0
 11
364.679607
 21
-52.258483
 31
0.0
  0
LINE
  8
0
  6
BYLAYER
 62
     1
 10
364.151913
 20
-54.227946
 30
0.0
 11
364.849171
 21
-55.147636
 31
0.0
  0
LINE
  8
0
  6
BYLAYER
 62
     1
 10
363.766768
 20
-57.055741
 30
0.0
 11
363.766105
 21
-57.056680
 31
0.0
  0
LINE
  8
0
  6
BYLAYER
 62
     1
 10
363.693518
 20
-57.158330
 30
0.0
 11
362.560950
 21
-57.002530
 31
0.0
  0
LINE
  8
0
  6
BYLAYER
 62
     1
 10
361.247123
 20
-58.352734
 30
0.0
 11
361.246024
 21
-58.353684
 31
0.0
  0
LINE
  8
0
  6
BYLAYER
 62
     1
 10
361.081161
 20
-58.491235
 30
0.0
 11
361.225120
 21
-59.636368
 31
0.0
  0
LINE
  8
0
  6
BYLAYER
 62
     1
 10
359.218965
 20
-60.799840
 30
0.0
 11
358.316094
 21
-60.098659
 31
0.0
  0
ARC
  8
0
  6
BYLAYER
 62
     1
 10
354.661094
 20
-50.629460
 30
0.0
 40
10.150111
 50
309.235697
 51
321.105929
  0
ARC
  8
0
  6
BYLAYER
 62
     1
 10
354.661094
 20
-50.629460
 30
0.0
 40
10.150108
 50
248.893873
 51
270.0
  0
ARC
  8
0
  6
BYLAYER
 62
     1
 10
354.661094
 20
-50.629460
 30
0.0
 40
11.144991
 50
294.783232
 51
306.083699
  0
LINE
  8
0
  6
BYLAYER
 62
     1
 10
359.332137
 20
-60.748360
 30
0.0
 11
359.219652
 21
-60.801294
 31
0.0
  0
ARC
  8
0
  6
BYLAYER
 62
     1
 10
354.661094
 20
-50.629460
 30
0.0
 40
11.144980
 50
324.139593
 51
336.083825
  0
ARC
  8
0
  6
BYLAYER
 62
     1
 10
354.661025
 20
-50.629369
 30
0.0
 40
10.150172
 50
339.235210
 51
350.764014
  0
ARC
  8
0
  6
BYLAYER
 62
     1
 10
354.661094
 20
-50.629460
 30
0.0
 40
11.144993
 50
353.916089
 51
360.0
  0
ARC
  8
0
  6
BYLAYER
 62
     1
 10
354.661094
 20
-50.629460
 30
0.0
 40
11.144993
 50
0.0
 51
6.083907
  0
ARC
  8
0
  6
BYLAYER
 62
     1
 10
354.661094
 20
-50.629460
 30
0.0
 40
10.150108
 50
270.0
 51
291.106008
  0
CIRCLE
  8
0
  6
BYLAYER
 62
     1
 10
354.661094
 20
-50.629460
 30
0.0
 40
5.445121
  0
CIRCLE
  8
0
  6
BYLAYER
 62
     1
 10
354.661094
 20
-50.629460
 30
0.0
 40
7.944049
  0
LINE
  8
0
  6
BYLAYER
 62
     1
 10
246.970506
 20
-89.972710
 30
0.0
 11
245.228684
 21
-124.911705
 31
0.0
  0
LINE
  8
0
  6
BYLAYER
 62
     1
 10
487.383349
 20
-89.836784
 30
0.0
 11
489.228684
 21
-133.433617
 31
0.0
  0
LINE
  8
0
  6
BYLAYER
 62
     1
 10
367.228669
 20
-189.276451
 30
0.0
 11
361.228669
 21
-189.276451
 31
0.0
  0
LINE
  8
0
  6
BYLAYER
 62
     1
 10
367.228669
 20
-189.276451
 30
0.0
 11
367.228669
 21
-195.276451
 31
0.0
  0
LINE
  8
0
  6
BYLAYER
 62
     1
 10
367.228669
 20
-189.276451
 30
0.0
 11
373.228669
 21
-189.276451
 31
0.0
  0
LINE
  8
0
  6
BYLAYER
 62
     1
 10
540.228662
 20
-167.276451
 30
0.0
 11
540.228662
 21
-155.427245
 31
0.0
  0
ARC
  8
0
  6
BYLAYER
 62
     1
 10
539.228662
 20
-155.427245
 30
0.0
 40
1.000000
 50
0.0
 51
90.0
  0
ARC
  8
0
  6
BYLAYER
 62
     1
 10
539.228662
 20
-160.276451
 30
0.0
 40
1.000000
 50
0.0
 51
90.0
  0
ARC
  8
0
  6
BYLAYER
 62
     1
 10
586.228654
 20
-240.276451
 30
0.0
 40
2.000000
 50
180.000000
 51
270.000000
  0
LINE
  8
0
  6
BYLAYER
 62
     1
 10
596.228654
 20
-42.276451
 30
0.0
 11
596.228654
 21
-242.276451
 31
0.0
  0
LINE
  8
0
  6
BYLAYER
 62
     1
 10
539.228654
 20
0.723549
 30
0.0
 11
539.228654
 21
-159.276451
 31
0.0
  0
ARC
  8
0
  6
BYLAYER
 62
     1
 10
547.228654
 20
-1.276451
 30
0.0
 40
2.000000
 50
0.0
 51
90.0
  0
ARC
  8
0
  6
BYLAYER
 62
     1
 10
551.228654
 20
-22.276451
 30
0.0
 40
2.0
 50
180.000000
 51
270.000000
  0
LINE
  8
0
  6
BYLAYER
 62
     1
 10
539.228654
 20
0.723549
 30
0.0
 11
547.228654
 21
0.723549
 31
0.0
  0
LINE
  8
0
  6
BYLAYER
 62
     1
 10
551.228654
 20
-24.276451
 30
0.0
 11
582.728654
 21
-24.276451
 31
0.0
  0
LINE
  8
0
  6
BYLAYER
 62
     1
 10
596.228654
 20
-42.276451
 30
0.0
 11
589.728654
 21
-42.276451
 31
0.0
  0
ARC
  8
0
  6
BYLAYER
 62
     1
 10
589.728654
 20
-40.276451
 30
0.0
 40
2.0
 50
180.000000
 51
270.000000
  0
LINE
  8
0
  6
BYLAYER
 62
     1
 10
545.228662
 20
-172.276451
 30
0.0
 11
577.400227
 21
-172.276451
 31
0.0
  0
ARC
  8
0
  6
BYLAYER
 62
     1
 10
545.228662
 20
-167.276451
 30
0.0
 40
5.000000
 50
180.000000
 51
270.000000
  0
LINE
  8
0
  6
BYLAYER
 62
     1
 10
596.228654
 20
-242.276451
 30
0.0
 11
586.228654
 21
-242.276451
 31
0.0
  0
LINE
  8
0
  6
BYLAYER
 62
     1
 10
583.135185
 20
-177.182982
 30
0.0
 11
578.814441
 21
-172.862237
 31
0.0
  0
ARC
  8
0
  6
BYLAYER
 62
     1
 10
581.720971
 20
-178.597195
 30
0.0
 40
2.0
 50
29.759132
 51
44.999999
  0
ARC
  8
0
  6
BYLAYER
 62
     1
 10
577.400227
 20
-174.276451
 30
0.0
 40
2.0
 50
44.999999
 51
90.000000
  0
LINE
  8
0
  6
BYLAYER
 62
     1
 10
587.728654
 20
-53.419308
 30
0.0
 11
587.728654
 21
-29.276451
 31
0.0
  0
ARC
  8
0
  6
BYLAYER
 62
     1
 10
589.728654
 20
-53.419308
 30
0.0
 40
2.0
 50
180.000000
 51
270.000000
  0
ARC
  8
0
  6
BYLAYER
 62
     1
 10
582.728654
 20
-29.276451
 30
0.0
 40
5.000000
 50
0.0
 51
90.0
  0
LINE
  8
0
  6
BYLAYER
 62
     1
 10
549.625852
 20
-173.758813
 30
0.0
 11
560.043098
 21
-212.636506
 31
0.0
  0
ARC
  8
0
  6
BYLAYER
 62
     1
 10
547.694000
 20
-174.276451
 30
0.0
 40
2.000000
 50
15.000000
 51
90.000000
  0
LINE
  8
0
  6
BYLAYER
 62
     1
 10
583.228654
 20
-226.699101
 30
0.0
 11
560.974950
 21
-213.850919
 31
0.0
  0
ARC
  8
0
  6
BYLAYER
 62
     1
 10
561.974950
 20
-212.118868
 30
0.0
 40
2.0
 50
195.000000
 51
240.000001
  0
ARC
  8
0
  6
BYLAYER
 62
     1
 10
582.228654
 20
-228.431152
 30
0.0
 40
2.0
 50
0.0
 51
60.000001
  0
LINE
  8
0
  6
BYLAYER
 62
     1
 10
549.228654
 20
-1.276451
 30
0.0
 11
549.228654
 21
-152.427245
 31
0.0
  0
ARC
  8
0
  6
BYLAYER
 62
     1
 10
547.228654
 20
-152.427245
 30
0.0
 40
2.000000
 50
270.0
 51
360.0
  0
LINE
  8
0
  6
BYLAYER
 62
     1
 10
584.228654
 20
-240.276451
 30
0.0
 11
584.228654
 21
-179.219430
 31
0.0
  0
LINE
  8
0
  6
BYLAYER
 62
     1
 10
584.228654
 20
-73.511469
 30
0.0
 11
584.228654
 21
-57.419308
 31
0.0
  0
LINE
  8
0
  6
BYLAYER
 62
     1
 10
584.228654
 20
-145.121507
 30
0.0
 11
584.228654
 21
-94.908887
 31
0.0
  0
ARC
  8
0
  6
BYLAYER
 62
     1
 10
583.228654
 20
-145.121507
 30
0.0
 40
1.000000
 50
333.446708
 51
360.000000
  0
ARC
  8
0
  6
BYLAYER
 62
     1
 10
586.228654
 20
-57.419308
 30
0.0
 40
2.0
 50
90.0
 51
180.0
  0
LINE
  8
0
  6
BYLAYER
 62
     1
 10
581.740654
 20
-111.026451
 30
0.0
 11
551.368654
 21
-111.026451
 31
0.0
  0
ARC
  8
0
  6
BYLAYER
 62
     1
 10
551.368654
 20
-113.026451
 30
0.0
 40
2.0
 50
90.0
 51
180.0
  0
ARC
  8
0
  6
BYLAYER
 62
     1
 10
581.740654
 20
-113.026451
 30
0.0
 40
2.000000
 50
0.0
 51
90.0
  0
LINE
  8
0
  6
BYLAYER
 62
     1
 10
581.740654
 20
-107.526451
 30
0.0
 11
551.368654
 21
-107.526451
 31
0.0
  0
ARC
  8
0
  6
BYLAYER
 62
     1
 10
551.368654
 20
-105.526451
 30
0.0
 40
2.0
 50
180.000000
 51
270.000000
  0
ARC
  8
0
  6
BYLAYER
 62
     1
 10
581.740654
 20
-105.526451
 30
0.0
 40
2.000000
 50
270.0
 51
360.0
  0
LINE
  8
0
  6
BYLAYER
 62
     1
 10
583.269654
 20
-147.512411
 30
0.0
 11
583.269654
 21
-177.010753
 31
0.0
  0
LINE
  8
0
  6
BYLAYER
 62
     1
 10
584.123173
 20
-145.568537
 30
0.0
 11
583.375135
 21
-147.065381
 31
0.0
  0
ARC
  8
0
  6
BYLAYER
 62
     1
 10
584.269654
 20
-147.512411
 30
0.0
 40
1.0
 50
153.446708
 51
180.000000
  0
LINE
  8
0
  6
BYLAYER
 62
     1
 10
584.096774
 20
-178.723075
 30
0.0
 11
583.401534
 21
-177.507108
 31
0.0
  0
ARC
  8
0
  6
BYLAYER
 62
     1
 10
583.228654
 20
-179.219430
 30
0.0
 40
1.0
 50
0.0
 51
29.759132
  0
ARC
  8
0
  6
BYLAYER
 62
     1
 10
584.269654
 20
-177.010753
 30
0.0
 40
1.0
 50
180.000000
 51
209.759132
  0
LINE
  8
0
  6
BYLAYER
 62
     1
 10
596.228654
 20
-77.804526
 30
0.0
 11
587.701785
 21
-77.804526
 31
0.0
  0
LINE
  8
0
  6
BYLAYER
 62
     1
 10
587.634797
 20
-94.908887
 30
0.0
 11
584.228654
 21
-94.908887
 31
0.0
  0
LINE
  8
0
  6
BYLAYER
 62
     1
 10
587.634797
 20
-73.511469
 30
0.0
 11
584.228654
 21
-73.511469
 31
0.0
  0
LINE
  8
0
  6
BYLAYER
 62
     1
 10
596.228654
 20
-90.391604
 30
0.0
 11
587.701785
 21
-90.391604
 31
0.0
  0
LINE
  8
0
  6
BYLAYER
 62
     1
 10
583.740247
 20
-75.992587
 30
0.0
 11
576.807714
 21
-75.992587
 31
0.0
  0
LINE
  8
0
  6
BYLAYER
 62
     1
 10
583.740247
 20
-90.928157
 30
0.0
 11
576.807714
 21
-90.928157
 31
0.0
  0
LINE
  8
0
  6
BYLAYER
 62
     1
 10
587.634797
 20
-73.511469
 30
0.0
 11
587.701785
 21
-77.804526
 31
0.0
  0
LINE
  8
0
  6
BYLAYER
 62
     1
 10
587.701785
 20
-90.391604
 30
0.0
 11
587.634797
 21
-94.908887
 31
0.0
  0
LINE
  8
0
  6
BYLAYER
 62
     1
 10
583.770958
 20
-93.870566
 30
0.0
 11
583.740247
 21
-90.928157
 31
0.0
  0
LINE
  8
0
  6
BYLAYER
 62
     1
 10
583.770958
 20
-74.009717
 30
0.0
 11
583.740247
 21
-75.992587
 31
0.0
  0
LINE
  8
0
  6
BYLAYER
 62
     1
 10
584.228654
 20
-73.511469
 30
0.0
 11
583.770958
 21
-74.009717
 31
0.0
  0
LINE
  8
0
  6
BYLAYER
 62
     1
 10
584.228654
 20
-94.908887
 30
0.0
 11
583.770958
 21
-93.870566
 31
0.0
  0
LINE
  8
0
  6
BYLAYER
 62
     1
 10
527.228654
 20
-79.276451
 30
0.0
 11
527.228654
 21
-158.856899
 31
0.0
  0
LINE
  8
0
  6
BYLAYER
 62
     1
 10
539.228654
 20
-79.276451
 30
0.0
 11
539.228654
 21
0.723564
 31
0.0
  0
LINE
  8
0
  6
BYLAYER
 62
     1
 10
527.228654
 20
0.304514
 30
0.0
 11
527.228654
 21
-79.276451
 31
0.0
  0
LINE
  8
0
  6
BYLAYER
 62
     1
 10
539.228654
 20
-159.276436
 30
0.0
 11
539.228654
 21
-79.276451
 31
0.0
  0
LINE
  8
0
  6
BYLAYER
 62
     1
 10
539.228654
 20
0.723564
 30
0.0
 11
527.228654
 21
0.304514
 31
0.0
  0
LINE
  8
0
  6
BYLAYER
 62
     1
 10
527.228654
 20
-158.856899
 30
0.0
 11
539.228654
 21
-159.275948
 31
0.0
  0
LINE
  8
0
  6
BYLAYER
 62
     1
 10
492.228654
 20
-133.276451
 30
0.0
 11
492.228654
 21
-79.276451
 31
0.0
  0
LINE
  8
0
  6
BYLAYER
 62
     1
 10
526.228654
 20
-159.276451
 30
0.0
 11
527.228654
 21
-158.276451
 31
0.0
  0
LINE
  8
0
  6
BYLAYER
 62
     1
 10
527.228654
 20
-158.276451
 30
0.0
 11
527.228654
 21
-79.276451
 31
0.0
  0
ARC
  8
0
  6
BYLAYER
 62
     1
 10
520.728654
 20
-156.276451
 30
0.0
 40
3.0
 50
180.000000
 51
269.999996
  0
LINE
  8
0
  6
BYLAYER
 62
     1
 10
492.228654
 20
-133.276451
 30
0.0
 11
515.249589
 21
-137.335655
 31
0.0
  0
LINE
  8
0
  6
BYLAYER
 62
     1
 10
517.728654
 20
-79.276451
 30
0.0
 11
517.728654
 21
-156.276451
 31
0.0
  0
ARC
  8
0
  6
BYLAYER
 62
     1
 10
514.728654
 20
-140.290077
 30
0.0
 40
2.999997
 50
0.0
 51
80.000175
  0
LINE
  8
0
  6
BYLAYER
 62
     1
 10
520.728654
 20
-159.276451
 30
0.0
 11
526.228654
 21
-159.276451
 31
0.0
  0
LINE
  8
0
  6
BYLAYER
 62
     1
 10
492.228654
 20
-25.276451
 30
0.0
 11
492.228654
 21
-79.276451
 31
0.0
  0
LINE
  8
0
  6
BYLAYER
 62
     1
 10
526.228654
 20
0.723549
 30
0.0
 11
527.228654
 21
-0.276451
 31
0.0
  0
LINE
  8
0
  6
BYLAYER
 62
     1
 10
527.228654
 20
-0.276451
 30
0.0
 11
527.228654
 21
-79.276451
 31
0.0
  0
ARC
  8
0
  6
BYLAYER
 62
     1
 10
520.728654
 20
-2.276451
 30
0.0
 40
3.000000
 50
90.0
 51
179.999996
  0
LINE
  8
0
  6
BYLAYER
 62
     1
 10
492.228654
 20
-25.276451
 30
0.0
 11
515.249589
 21
-21.217247
 31
0.0
  0
LINE
  8
0
  6
BYLAYER
 62
     1
 10
517.728654
 20
-79.276451
 30
0.0
 11
517.728654
 21
-2.276451
 31
0.0
  0
ARC
  8
0
  6
BYLAYER
 62
     1
 10
514.728654
 20
-18.262825
 30
0.0
 40
2.999997
 50
279.999825
 51
360.000000
  0
LINE
  8
0
  6
BYLAYER
 62
     1
 10
520.728654
 20
0.723549
 30
0.0
 11
526.228654
 21
0.723549
 31
0.0
  0
LINE
  8
0
  6
BYLAYER
 62
     1
 10
367.228669
 20
-189.276451
 30
0.0
 11
367.228669
 21
-183.440989
 31
0.0
  0
LINE
  8
0
  6
BYLAYER
 62
     1
 10
1224.728669
 20
-253.276329
 30
0.0
 11
1223.728669
 21
-254.276329
 31
0.0
  0
LINE
  8
0
  6
BYLAYER
 62
     1
 10
1223.728669
 20
-254.276329
 30
0.0
 11
1221.228669
 21
-254.276329
 31
0.0
  0
LINE
  8
0
  6
BYLAYER
 62
     1
 10
1224.728669
 20
-205.472574
 30
0.0
 11
1224.728669
 21
-253.276329
 31
0.0
  0
LINE
  8
0
  6
BYLAYER
 62
     1
 10
1219.228669
 20
-21.776390
 30
0.0
 11
1202.850095
 21
-21.776390
 31
0.0
  0
LINE
  8
0
  6
BYLAYER
 62
     1
 10
1091.607243
 20
-21.776390
 30
0.0
 11
1075.228669
 21
-21.776390
 31
0.0
  0
LINE
  8
0
  6
BYLAYER
 62
     1
 10
1219.228669
 20
-316.776390
 30
0.0
 11
1075.228669
 21
-316.776390
 31
0.0
  0
LINE
  8
0
  6
BYLAYER
 62
     1
 10
1219.228669
 20
-289.381187
 30
0.0
 11
1221.228669
 21
-289.276329
 31
0.0
  0
LINE
  8
0
  6
BYLAYER
 62
     1
 10
1221.228669
 20
-289.276329
 30
0.0
 11
1221.228669
 21
-209.537138
 31
0.0
  0
LINE
  8
0
  6
BYLAYER
 62
     1
 10
1075.228669
 20
-21.776390
 30
0.0
 11
1075.228669
 21
-44.405259
 31
0.0
  0
LINE
  8
0
  6
BYLAYER
 62
     1
 10
1219.228669
 20
-21.776390
 30
0.0
 11
1219.228669
 21
-44.405259
 31
0.0
  0
LINE
  8
0
  6
BYLAYER
 62
     1
 10
1075.228669
 20
-316.776390
 30
0.0
 11
1075.228669
 21
-255.519035
 31
0.0
  0
ARC
  8
0
  6
BYLAYER
 62
     1
 10
1078.228669
 20
-255.519035
 30
0.0
 40
2.999938
 50
134.999181
 51
180.000005
  0
LINE
  8
0
  6
BYLAYER
 62
     1
 10
1219.228669
 20
-316.776390
 30
0.0
 11
1219.228669
 21
-255.519035
 31
0.0
  0
ARC
  8
0
  6
BYLAYER
 62
     1
 10
1216.228669
 20
-255.519035
 30
0.0
 40
3.000025
 50
0.0
 51
45.000824
  0
LINE
  8
0
  6
BYLAYER
 62
     1
 10
1147.228913
 20
-250.503013
 30
0.0
 11
1075.504792
 21
-254.261925
 31
0.0
  0
LINE
  8
0
  6
BYLAYER
 62
     1
 10
1218.952546
 20
-254.261925
 30
0.0
 11
1147.228669
 21
-250.503013
 31
0.0
  0
ARC
  8
0
  6
BYLAYER
 62
     1
 10
1156.228669
 20
-245.127769
 30
0.0
 40
2.999990
 50
180.000000
 51
267.000054
  0
LINE
  8
0
  6
BYLAYER
 62
     1
 10
1153.228669
 20
-242.096289
 30
0.0
 11
1153.228669
 21
-245.127769
 31
0.0
  0
LINE
  8
0
  6
BYLAYER
 62
     1
 10
1141.228669
 20
-242.096289
 30
0.0
 11
1141.228669
 21
-245.127769
 31
0.0
  0
ARC
  8
0
  6
BYLAYER
 62
     1
 10
1138.228669
 20
-245.127769
 30
0.0
 40
2.999990
 50
272.999956
 51
359.999983
  0
LINE
  8
0
  6
BYLAYER
 62
     1
 10
1087.850800
 20
-241.653770
 30
0.0
 11
1076.107453
 21
-253.397697
 31
0.0
  0
LINE
  8
0
  6
BYLAYER
 62
     1
 10
1091.586701
 20
-230.912498
 30
0.0
 11
1101.879783
 21
-231.402646
 31
0.0
  0
LINE
  8
0
  6
BYLAYER
 62
     1
 10
1147.229401
 20
-247.660240
 30
0.0
 11
1078.228669
 21
-251.276390
 31
0.0
  0
LINE
  8
0
  6
BYLAYER
 62
     1
 10
1218.350007
 20
-253.397636
 30
0.0
 11
1206.608186
 21
-241.656975
 31
0.0
  0
ARC
  8
0
  6
BYLAYER
 62
     1
 10
1208.729401
 20
-239.535545
 30
0.0
 40
3.0
 50
180.000000
 51
225.002822
  0
LINE
  8
0
  6
BYLAYER
 62
     1
 10
1147.229401
 20
-247.660240
 30
0.0
 11
1216.228425
 21
-251.276298
 31
0.0
  0
LINE
  8
0
  6
BYLAYER
 62
     1
 10
1202.872102
 20
-230.912407
 30
0.0
 11
1192.577591
 21
-231.402627
 31
0.0
  0
ARC
  8
0
  6
BYLAYER
 62
     1
 10
1202.729401
 20
-227.915825
 30
0.0
 40
3.000000
 50
272.726339
 51
360.000010
  0
LINE
  8
0
  6
BYLAYER
 62
     1
 10
1088.729401
 20
-223.380308
 30
0.0
 11
1088.729401
 21
-239.532493
 31
0.0
  0
ARC
  8
0
  6
BYLAYER
 62
     1
 10
1091.729401
 20
-227.915886
 30
0.0
 40
3.000000
 50
180.000000
 51
267.273671
  0
ARC
  8
0
  6
BYLAYER
 62
     1
 10
1085.729401
 20
-239.532493
 30
0.0
 40
3.000000
 50
315.001467
 51
360.000000
  0
LINE
  8
0
  6
BYLAYER
 62
     1
 10
1205.729401
 20
-223.379252
 30
0.0
 11
1205.729401
 21
-239.535545
 31
0.0
  0
LINE
  8
0
  6
BYLAYER
 62
     1
 10
1069.728669
 20
-253.276329
 30
0.0
 11
1070.728669
 21
-254.276329
 31
0.0
  0
LINE
  8
0
  6
BYLAYER
 62
     1
 10
1070.728669
 20
-254.276329
 30
0.0
 11
1073.228669
 21
-254.276329
 31
0.0
  0
LINE
  8
0
  6
BYLAYER
 62
     1
 10
1069.728669
 20
-205.472574
 30
0.0
 11
1069.728669
 21
-253.276329
 31
0.0
  0
LINE
  8
0
  6
BYLAYER
 62
     1
 10
1075.228669
 20
-289.381187
 30
0.0
 11
1073.228669
 21
-289.276329
 31
0.0
  0
LINE
  8
0
  6
BYLAYER
 62
     1
 10
1073.228669
 20
-289.276329
 30
0.0
 11
1073.228669
 21
-209.537138
 31
0.0
  0
ARC
  8
0
  6
BYLAYER
 62
     1
 10
1147.228669
 20
-79.276451
 30
0.0
 40
80.000000
 50
357.902096
 51
542.097904
  0
ARC
  8
0
  6
BYLAYER
 62
     1
 10
1147.228669
 20
-79.276451
 30
0.0
 40
55.000000
 50
25.706813
 51
27.012554
  0
ARC
  8
0
  6
BYLAYER
 62
     1
 10
1147.228669
 20
-79.276451
 30
0.0
 40
55.000000
 50
152.987951
 51
154.293187
  0
ARC
  8
0
  6
BYLAYER
 62
     1
 10
1147.228669
 20
-142.276451
 30
0.0
 40
100.0
 50
119.340652
 51
420.659492
  0
LINE
  8
0
  6
BYLAYER
 62
     7
 10
1103.728562
 20
-35.776482
 30
0.0
 11
1103.728562
 21
-14.276482
 31
0.0
  0
ARC
  8
0
  6
BYLAYER
 62
     7
 10
1102.228562
 20
-35.776482
 30
0.0
 40
1.5
 50
270.0
 51
360.0
  0
ARC
  8
0
  6
BYLAYER
 62
     7
 10
1105.228562
 20
-14.276482
 30
0.0
 40
1.5
 50
90.0
 51
180.0
  0
LINE
  8
0
  6
BYLAYER
 62
     7
 10
1147.228562
 20
-12.776482
 30
0.0
 11
1105.228562
 21
-12.776482
 31
0.0
  0
LINE
  8
0
  6
BYLAYER
 62
     7
 10
1109.100803
 20
-35.776482
 30
0.0
 11
1109.100803
 21
-14.276482
 31
0.0
  0
ARC
  8
0
  6
BYLAYER
 62
     7
 10
1107.600803
 20
-35.776482
 30
0.0
 40
1.5
 50
270.0
 51
360.0
  0
ARC
  8
0
  6
BYLAYER
 62
     7
 10
1110.600803
 20
-14.276482
 30
0.0
 40
1.500000
 50
90.0
 51
180.0
  0
LINE
  8
0
  6
BYLAYER
 62
     7
 10
1134.134909
 20
-12.776482
 30
0.0
 11
1134.627456
 21
-26.881180
 31
0.0
  0
ARC
  8
0
  6
BYLAYER
 62
     7
 10
1137.625628
 20
-26.776482
 30
0.0
 40
3.000000
 50
182.000000
 51
270.000000
  0
LINE
  8
0
  6
BYLAYER
 62
     7
 10
1144.829668
 20
-26.881180
 30
0.0
 11
1145.322215
 21
-12.776482
 31
0.0
  0
ARC
  8
0
  6
BYLAYER
 62
     7
 10
1141.831496
 20
-26.776482
 30
0.0
 40
3.000000
 50
270.0
 51
358.0
  0
LINE
  8
0
  6
BYLAYER
 62
     7
 10
1137.625628
 20
-29.776482
 30
0.0
 11
1141.831496
 21
-29.776482
 31
0.0
  0
LINE
  8
0
  6
BYLAYER
 62
     7
 10
1119.134909
 20
-12.776482
 30
0.0
 11
1119.627456
 21
-26.881180
 31
0.0
  0
ARC
  8
0
  6
BYLAYER
 62
     7
 10
1122.625628
 20
-26.776482
 30
0.0
 40
3.000000
 50
182.000000
 51
270.000000
  0
LINE
  8
0
  6
BYLAYER
 62
     7
 10
1129.829668
 20
-26.881180
 30
0.0
 11
1130.322215
 21
-12.776482
 31
0.0
  0
ARC
  8
0
  6
BYLAYER
 62
     7
 10
1126.831496
 20
-26.776482
 30
0.0
 40
3.0
 50
270.0
 51
358.0
  0
LINE
  8
0
  6
BYLAYER
 62
     7
 10
1122.625628
 20
-29.776482
 30
0.0
 11
1126.831496
 21
-29.776482
 31
0.0
  0
LINE
  8
0
  6
BYLAYER
 62
     7
 10
1119.169830
 20
-13.776482
 30
0.0
 11
1130.287294
 21
-13.776482
 31
0.0
  0
LINE
  8
0
  6
BYLAYER
 62
     7
 10
1134.169830
 20
-13.776482
 30
0.0
 11
1145.287294
 21
-13.776482
 31
0.0
  0
LINE
  8
0
  6
BYLAYER
 62
     7
 10
1147.228562
 20
-37.276482
 30
0.0
 11
1099.728562
 21
-37.276482
 31
0.0
  0
ARC
  8
0
  6
BYLAYER
 62
     7
 10
1099.728562
 20
-38.776482
 30
0.0
 40
1.500000
 50
90.0
 51
180.0
  0
LINE
  8
0
  6
BYLAYER
 62
     7
 10
1098.228562
 20
-44.276482
 30
0.0
 11
1098.228562
 21
-38.776482
 31
0.0
  0
LINE
  8
0
  6
BYLAYER
 62
     7
 10
1098.228562
 20
-44.276482
 30
0.0
 11
1147.228562
 21
-44.276482
 31
0.0
  0
LINE
  8
0
  6
BYLAYER
 62
     7
 10
1190.728562
 20
-35.776482
 30
0.0
 11
1190.728562
 21
-14.276482
 31
0.0
  0
ARC
  8
0
  6
BYLAYER
 62
     7
 10
1192.228562
 20
-35.776482
 30
0.0
 40
1.500000
 50
180.000000
 51
270.000000
  0
ARC
  8
0
  6
BYLAYER
 62
     7
 10
1189.228562
 20
-14.276482
 30
0.0
 40
1.5
 50
0.0
 51
90.0
  0
LINE
  8
0
  6
BYLAYER
 62
     7
 10
1147.228562
 20
-12.776482
 30
0.0
 11
1189.228562
 21
-12.776482
 31
0.0
  0
LINE
  8
0
  6
BYLAYER
 62
     7
 10
1185.356321
 20
-35.776482
 30
0.0
 11
1185.356321
 21
-14.276482
 31
0.0
  0
ARC
  8
0
  6
BYLAYER
 62
     7
 10
1186.856321
 20
-35.776482
 30
0.0
 40
1.5
 50
180.000000
 51
270.000000
  0
ARC
  8
0
  6
BYLAYER
 62
     7
 10
1183.856321
 20
-14.276482
 30
0.0
 40
1.5
 50
0.0
 51
90.0
  0
LINE
  8
0
  6
BYLAYER
 62
     7
 10
1160.322215
 20
-12.776482
 30
0.0
 11
1159.829668
 21
-26.881180
 31
0.0
  0
ARC
  8
0
  6
BYLAYER
 62
     7
 10
1156.831496
 20
-26.776482
 30
0.0
 40
3.000000
 50
270.0
 51
358.0
  0
LINE
  8
0
  6
BYLAYER
 62
     7
 10
1149.627456
 20
-26.881180
 30
0.0
 11
1149.134909
 21
-12.776482
 31
0.0
  0
ARC
  8
0
  6
BYLAYER
 62
     7
 10
1152.625628
 20
-26.776482
 30
0.0
 40
3.000000
 50
182.000000
 51
270.000000
  0
LINE
  8
0
  6
BYLAYER
 62
     7
 10
1156.831496
 20
-29.776482
 30
0.0
 11
1152.625628
 21
-29.776482
 31
0.0
  0
LINE
  8
0
  6
BYLAYER
 62
     7
 10
1175.322215
 20
-12.776482
 30
0.0
 11
1174.829668
 21
-26.881180
 31
0.0
  0
ARC
  8
0
  6
BYLAYER
 62
     7
 10
1171.831496
 20
-26.776482
 30
0.0
 40
3.000000
 50
270.0
 51
358.0
  0
LINE
  8
0
  6
BYLAYER
 62
     7
 10
1164.627456
 20
-26.881180
 30
0.0
 11
1164.134909
 21
-12.776482
 31
0.0
  0
ARC
  8
0
  6
BYLAYER
 62
     7
 10
1167.625628
 20
-26.776482
 30
0.0
 40
3.000000
 50
182.000000
 51
270.000000
  0
LINE
  8
0
  6
BYLAYER
 62
     7
 10
1171.831496
 20
-29.776482
 30
0.0
 11
1167.625628
 21
-29.776482
 31
0.0
  0
LINE
  8
0
  6
BYLAYER
 62
     7
 10
1175.287294
 20
-13.776482
 30
0.0
 11
1164.169830
 21
-13.776482
 31
0.0
  0
LINE
  8
0
  6
BYLAYER
 62
     7
 10
1160.287294
 20
-13.776482
 30
0.0
 11
1149.169830
 21
-13.776482
 31
0.0
  0
LINE
  8
0
  6
BYLAYER
 62
     7
 10
1147.228562
 20
-37.276482
 30
0.0
 11
1194.728562
 21
-37.276482
 31
0.0
  0
ARC
  8
0
  6
BYLAYER
 62
     7
 10
1194.728562
 20
-38.776482
 30
0.0
 40
1.5
 50
0.0
 51
90.0
  0
LINE
  8
0
  6
BYLAYER
 62
     7
 10
1196.228562
 20
-46.276482
 30
0.0
 11
1196.228562
 21
-38.776482
 31
0.0
  0
LINE
  8
0
  6
BYLAYER
 62
     7
 10
1196.228562
 20
-44.276482
 30
0.0
 11
1147.228562
 21
-44.276482
 31
0.0
  0
LINE
  8
0
  6
BYLAYER
 62
     7
 10
1098.228562
 20
-46.276482
 30
0.0
 11
1147.228546
 21
-46.276482
 31
0.0
  0
LINE
  8
0
  6
BYLAYER
 62
     7
 10
1098.228562
 20
-51.776482
 30
0.0
 11
1101.228562
 21
-56.972649
 31
0.0
  0
LINE
  8
0
  6
BYLAYER
 62
     7
 10
1196.228546
 20
-46.276360
 30
0.0
 11
1147.228546
 21
-46.276482
 31
0.0
  0
LINE
  8
0
  6
BYLAYER
 62
     7
 10
1196.228546
 20
-51.776360
 30
0.0
 11
1193.228546
 21
-56.972527
 31
0.0
  0
LINE
  8
0
  6
BYLAYER
 62
     7
 10
1101.228562
 20
-56.972649
 30
0.0
 11
1101.228562
 21
-68.962885
 31
0.0
  0
LINE
  8
0
  6
BYLAYER
 62
     7
 10
1098.228562
 20
-46.276482
 30
0.0
 11
1098.228562
 21
-70.933068
 31
0.0
  0
LINE
  8
0
  6
BYLAYER
 62
     7
 10
1196.228546
 20
-46.276360
 30
0.0
 11
1196.228575
 21
-70.932930
 31
0.0
  0
LINE
  8
0
  6
BYLAYER
 62
     7
 10
1193.228546
 20
-56.972527
 30
0.0
 11
1193.228557
 21
-68.962748
 31
0.0
  0
LINE
  8
0
  6
BYLAYER
 62
     7
 10
1098.228562
 20
-44.276482
 30
0.0
 11
1098.228562
 21
-46.276482
 31
0.0
  0
LINE
  8
0
  6
BYLAYER
 62
     7
 10
1098.228562
 20
-46.276482
 30
0.0
 11
1196.228562
 21
-46.276482
 31
0.0
  0
LINE
  8
0
  6
BYLAYER
 62
     7
 10
1148.228669
 20
-113.276451
 30
0.0
 11
1148.228669
 21
-121.276451
 31
0.0
  0
LINE
  8
0
  6
BYLAYER
 62
     7
 10
1148.228669
 20
-103.276451
 30
0.0
 11
1148.228669
 21
-111.276451
 31
0.0
  0
LINE
  8
0
  6
BYLAYER
 62
     7
 10
1156.228669
 20
-111.276451
 30
0.0
 11
1156.228669
 21
-103.276451
 31
0.0
  0
LINE
  8
0
  6
BYLAYER
 62
     7
 10
1158.228669
 20
-111.276451
 30
0.0
 11
1158.228669
 21
-103.276451
 31
0.0
  0
LINE
  8
0
  6
BYLAYER
 62
     7
 10
1148.228669
 20
-121.276451
 30
0.0
 11
1156.228669
 21
-121.276451
 31
0.0
  0
LINE
  8
0
  6
BYLAYER
 62
     7
 10
1148.228669
 20
-113.276451
 30
0.0
 11
1156.228669
 21
-113.276451
 31
0.0
  0
LINE
  8
0
  6
BYLAYER
 62
     7
 10
1158.228669
 20
-111.276451
 30
0.0
 11
1166.066668
 21
-111.276451
 31
0.0
  0
LINE
  8
0
  6
BYLAYER
 62
     7
 10
1148.228669
 20
-111.276451
 30
0.0
 11
1156.228669
 21
-111.276451
 31
0.0
  0
LINE
  8
0
  6
BYLAYER
 62
     7
 10
1158.228669
 20
-103.276451
 30
0.0
 11
1166.066668
 21
-103.276451
 31
0.0
  0
LINE
  8
0
  6
BYLAYER
 62
     7
 10
1148.228669
 20
-103.276451
 30
0.0
 11
1156.228669
 21
-103.276451
 31
0.0
  0
LINE
  8
0
  6
BYLAYER
 62
     7
 10
1166.066668
 20
-111.276451
 30
0.0
 11
1166.066668
 21
-103.276451
 31
0.0
  0
LINE
  8
0
  6
BYLAYER
 62
     7
 10
1156.228669
 20
-121.276451
 30
0.0
 11
1156.228669
 21
-113.276451
 31
0.0
  0
LINE
  8
0
  6
BYLAYER
 62
     7
 10
1158.228669
 20
-113.276451
 30
0.0
 11
1158.228669
 21
-121.276451
 31
0.0
  0
LINE
  8
0
  6
BYLAYER
 62
     7
 10
1158.228669
 20
-121.276451
 30
0.0
 11
1166.228669
 21
-121.276451
 31
0.0
  0
LINE
  8
0
  6
BYLAYER
 62
     7
 10
1158.228669
 20
-113.276451
 30
0.0
 11
1166.228669
 21
-113.276451
 31
0.0
  0
LINE
  8
0
  6
BYLAYER
 62
     7
 10
1166.228669
 20
-121.276451
 30
0.0
 11
1166.228669
 21
-113.276451
 31
0.0
  0
LINE
  8
0
  6
BYLAYER
 62
     7
 10
1168.228669
 20
-131.276451
 30
0.0
 11
1176.228669
 21
-131.276451
 31
0.0
  0
LINE
  8
0
  6
BYLAYER
 62
     7
 10
1168.228669
 20
-113.276451
 30
0.0
 11
1168.228669
 21
-121.276451
 31
0.0
  0
LINE
  8
0
  6
BYLAYER
 62
     7
 10
1168.228669
 20
-123.276451
 30
0.0
 11
1168.228669
 21
-131.276451
 31
0.0
  0
LINE
  8
0
  6
BYLAYER
 62
     7
 10
1168.228669
 20
-123.276451
 30
0.0
 11
1176.228669
 21
-123.276451
 31
0.0
  0
LINE
  8
0
  6
BYLAYER
 62
     7
 10
1168.228669
 20
-121.276451
 30
0.0
 11
1176.228669
 21
-121.276451
 31
0.0
  0
LINE
  8
0
  6
BYLAYER
 62
     7
 10
1168.228669
 20
-113.276451
 30
0.0
 11
1176.228669
 21
-113.276451
 31
0.0
  0
LINE
  8
0
  6
BYLAYER
 62
     7
 10
1176.228669
 20
-131.276451
 30
0.0
 11
1176.228669
 21
-123.276451
 31
0.0
  0
LINE
  8
0
  6
BYLAYER
 62
     7
 10
1176.228669
 20
-121.276451
 30
0.0
 11
1176.228669
 21
-113.276451
 31
0.0
  0
LINE
  8
0
  6
BYLAYER
 62
     7
 10
1168.228669
 20
-141.276451
 30
0.0
 11
1176.228669
 21
-141.276451
 31
0.0
  0
LINE
  8
0
  6
BYLAYER
 62
     7
 10
1168.228669
 20
-133.276451
 30
0.0
 11
1168.228669
 21
-141.276451
 31
0.0
  0
LINE
  8
0
  6
BYLAYER
 62
     7
 10
1168.228669
 20
-133.276451
 30
0.0
 11
1176.228669
 21
-133.276451
 31
0.0
  0
LINE
  8
0
  6
BYLAYER
 62
     7
 10
1176.228669
 20
-141.276451
 30
0.0
 11
1176.228669
 21
-133.276451
 31
0.0
  0
LINE
  8
0
  6
BYLAYER
 62
     7
 10
1178.228669
 20
-131.276451
 30
0.0
 11
1186.228669
 21
-131.276451
 31
0.0
  0
LINE
  8
0
  6
BYLAYER
 62
     7
 10
1178.228669
 20
-123.276451
 30
0.0
 11
1178.228669
 21
-131.276451
 31
0.0
  0
LINE
  8
0
  6
BYLAYER
 62
     7
 10
1178.228669
 20
-123.276451
 30
0.0
 11
1186.228669
 21
-123.276451
 31
0.0
  0
LINE
  8
0
  6
BYLAYER
 62
     7
 10
1186.228669
 20
-131.276451
 30
0.0
 11
1186.228669
 21
-123.276451
 31
0.0
  0
LINE
  8
0
  6
BYLAYER
 62
     7
 10
1178.228669
 20
-141.276451
 30
0.0
 11
1186.228669
 21
-141.276451
 31
0.0
  0
LINE
  8
0
  6
BYLAYER
 62
     7
 10
1178.228669
 20
-133.276451
 30
0.0
 11
1178.228669
 21
-141.276451
 31
0.0
  0
LINE
  8
0
  6
BYLAYER
 62
     7
 10
1178.228669
 20
-133.276451
 30
0.0
 11
1186.228669
 21
-133.276451
 31
0.0
  0
LINE
  8
0
  6
BYLAYER
 62
     7
 10
1186.228669
 20
-141.276451
 30
0.0
 11
1186.228669
 21
-133.276451
 31
0.0
  0
LINE
  8
0
  6
BYLAYER
 62
     7
 10
1188.228669
 20
-131.276451
 30
0.0
 11
1196.228669
 21
-131.276451
 31
0.0
  0
LINE
  8
0
  6
BYLAYER
 62
     7
 10
1188.228669
 20
-123.276451
 30
0.0
 11
1188.228669
 21
-131.276451
 31
0.0
  0
LINE
  8
0
  6
BYLAYER
 62
     7
 10
1188.228669
 20
-123.276451
 30
0.0
 11
1196.228669
 21
-123.276451
 31
0.0
  0
LINE
  8
0
  6
BYLAYER
 62
     7
 10
1196.228669
 20
-131.276451
 30
0.0
 11
1196.228669
 21
-123.276451
 31
0.0
  0
LINE
  8
0
  6
BYLAYER
 62
     7
 10
1188.228669
 20
-141.276451
 30
0.0
 11
1196.228669
 21
-141.276451
 31
0.0
  0
LINE
  8
0
  6
BYLAYER
 62
     7
 10
1188.228669
 20
-133.276451
 30
0.0
 11
1188.228669
 21
-141.276451
 31
0.0
  0
LINE
  8
0
  6
BYLAYER
 62
     7
 10
1188.228669
 20
-133.276451
 30
0.0
 11
1196.228669
 21
-133.276451
 31
0.0
  0
LINE
  8
0
  6
BYLAYER
 62
     7
 10
1196.228669
 20
-141.276451
 30
0.0
 11
1196.228669
 21
-133.276451
 31
0.0
  0
LINE
  8
0
  6
BYLAYER
 62
     7
 10
1148.228669
 20
-93.276451
 30
0.0
 11
1148.228669
 21
-101.276451
 31
0.0
  0
LINE
  8
0
  6
BYLAYER
 62
     7
 10
1156.228669
 20
-101.276451
 30
0.0
 11
1156.228669
 21
-93.276451
 31
0.0
  0
LINE
  8
0
  6
BYLAYER
 62
     7
 10
1158.228669
 20
-101.276451
 30
0.0
 11
1158.228669
 21
-93.276451
 31
0.0
  0
LINE
  8
0
  6
BYLAYER
 62
     7
 10
1158.228669
 20
-101.276451
 30
0.0
 11
1166.066668
 21
-101.276451
 31
0.0
  0
LINE
  8
0
  6
BYLAYER
 62
     7
 10
1148.228669
 20
-101.276451
 30
0.0
 11
1156.228669
 21
-101.276451
 31
0.0
  0
LINE
  8
0
  6
BYLAYER
 62
     7
 10
1158.228669
 20
-93.276451
 30
0.0
 11
1166.066668
 21
-93.276451
 31
0.0
  0
LINE
  8
0
  6
BYLAYER
 62
     7
 10
1148.228669
 20
-93.276451
 30
0.0
 11
1156.228669
 21
-93.276451
 31
0.0
  0
LINE
  8
0
  6
BYLAYER
 62
     7
 10
1166.066668
 20
-101.276451
 30
0.0
 11
1166.066668
 21
-93.276451
 31
0.0
  0
LINE
  8
0
  6
BYLAYER
 62
     7
 10
1168.228669
 20
-103.276451
 30
0.0
 11
1168.228669
 21
-111.276451
 31
0.0
  0
LINE
  8
0
  6
BYLAYER
 62
     7
 10
1168.228669
 20
-111.276451
 30
0.0
 11
1176.228669
 21
-111.276451
 31
0.0
  0
LINE
  8
0
  6
BYLAYER
 62
     7
 10
1168.228669
 20
-103.276451
 30
0.0
 11
1176.228669
 21
-103.276451
 31
0.0
  0
LINE
  8
0
  6
BYLAYER
 62
     7
 10
1176.228669
 20
-111.276451
 30
0.0
 11
1176.228669
 21
-103.276451
 31
0.0
  0
LINE
  8
0
  6
BYLAYER
 62
     7
 10
1168.228669
 20
-93.276451
 30
0.0
 11
1168.228669
 21
-101.276451
 31
0.0
  0
LINE
  8
0
  6
BYLAYER
 62
     7
 10
1168.228669
 20
-101.276451
 30
0.0
 11
1176.228669
 21
-101.276451
 31
0.0
  0
LINE
  8
0
  6
BYLAYER
 62
     7
 10
1168.228669
 20
-93.276451
 30
0.0
 11
1176.228669
 21
-93.276451
 31
0.0
  0
LINE
  8
0
  6
BYLAYER
 62
     7
 10
1176.228669
 20
-101.276451
 30
0.0
 11
1176.228669
 21
-93.276451
 31
0.0
  0
LINE
  8
0
  6
BYLAYER
 62
     7
 10
1178.228669
 20
-113.276451
 30
0.0
 11
1178.228669
 21
-121.276451
 31
0.0
  0
LINE
  8
0
  6
BYLAYER
 62
     7
 10
1178.228669
 20
-121.276451
 30
0.0
 11
1186.228669
 21
-121.276451
 31
0.0
  0
LINE
  8
0
  6
BYLAYER
 62
     7
 10
1178.228669
 20
-113.276451
 30
0.0
 11
1186.228669
 21
-113.276451
 31
0.0
  0
LINE
  8
0
  6
BYLAYER
 62
     7
 10
1186.228669
 20
-121.276451
 30
0.0
 11
1186.228669
 21
-113.276451
 31
0.0
  0
LINE
  8
0
  6
BYLAYER
 62
     7
 10
1178.228669
 20
-103.276451
 30
0.0
 11
1178.228669
 21
-111.276451
 31
0.0
  0
LINE
  8
0
  6
BYLAYER
 62
     7
 10
1178.228669
 20
-111.276451
 30
0.0
 11
1186.228669
 21
-111.276451
 31
0.0
  0
LINE
  8
0
  6
BYLAYER
 62
     7
 10
1178.228669
 20
-103.276451
 30
0.0
 11
1186.228669
 21
-103.276451
 31
0.0
  0
LINE
  8
0
  6
BYLAYER
 62
     7
 10
1186.228669
 20
-111.276451
 30
0.0
 11
1186.228669
 21
-103.276451
 31
0.0
  0
LINE
  8
0
  6
BYLAYER
 62
     7
 10
1188.228669
 20
-113.276451
 30
0.0
 11
1188.228669
 21
-121.276451
 31
0.0
  0
LINE
  8
0
  6
BYLAYER
 62
     7
 10
1188.228669
 20
-121.276451
 30
0.0
 11
1196.228669
 21
-121.276451
 31
0.0
  0
LINE
  8
0
  6
BYLAYER
 62
     7
 10
1188.228669
 20
-113.276451
 30
0.0
 11
1196.228669
 21
-113.276451
 31
0.0
  0
LINE
  8
0
  6
BYLAYER
 62
     7
 10
1196.228669
 20
-121.276451
 30
0.0
 11
1196.228669
 21
-113.276451
 31
0.0
  0
CIRCLE
  8
0
  6
BYLAYER
 62
     7
 10
1147.228669
 20
-142.276451
 30
0.0
 40
4.0
  0
LINE
  8
0
  6
BYLAYER
 62
     7
 10
1198.228669
 20
-131.276451
 30
0.0
 11
1206.228669
 21
-131.276451
 31
0.0
  0
LINE
  8
0
  6
BYLAYER
 62
     7
 10
1198.228669
 20
-123.276451
 30
0.0
 11
1198.228669
 21
-131.276451
 31
0.0
  0
LINE
  8
0
  6
BYLAYER
 62
     7
 10
1198.228669
 20
-123.276451
 30
0.0
 11
1206.228669
 21
-123.276451
 31
0.0
  0
LINE
  8
0
  6
BYLAYER
 62
     7
 10
1206.228669
 20
-131.276451
 30
0.0
 11
1206.228669
 21
-123.276451
 31
0.0
  0
LINE
  8
0
  6
BYLAYER
 62
     7
 10
1198.228669
 20
-141.276451
 30
0.0
 11
1206.228669
 21
-141.276451
 31
0.0
  0
LINE
  8
0
  6
BYLAYER
 62
     7
 10
1198.228669
 20
-133.276451
 30
0.0
 11
1198.228669
 21
-141.276451
 31
0.0
  0
LINE
  8
0
  6
BYLAYER
 62
     7
 10
1198.228669
 20
-133.276451
 30
0.0
 11
1206.228669
 21
-133.276451
 31
0.0
  0
LINE
  8
0
  6
BYLAYER
 62
     7
 10
1206.228669
 20
-141.276451
 30
0.0
 11
1206.228669
 21
-133.276451
 31
0.0
  0
LINE
  8
0
  6
BYLAYER
 62
     7
 10
1198.228669
 20
-113.276451
 30
0.0
 11
1198.228669
 21
-121.276451
 31
0.0
  0
LINE
  8
0
  6
BYLAYER
 62
     7
 10
1198.228669
 20
-121.276451
 30
0.0
 11
1206.228669
 21
-121.276451
 31
0.0
  0
LINE
  8
0
  6
BYLAYER
 62
     7
 10
1198.228669
 20
-113.276451
 30
0.0
 11
1206.228669
 21
-113.276451
 31
0.0
  0
LINE
  8
0
  6
BYLAYER
 62
     7
 10
1206.228669
 20
-121.276451
 30
0.0
 11
1206.228669
 21
-113.276451
 31
0.0
  0
LINE
  8
0
  6
BYLAYER
 62
     7
 10
1148.228669
 20
-83.276451
 30
0.0
 11
1148.228669
 21
-91.276451
 31
0.0
  0
LINE
  8
0
  6
BYLAYER
 62
     7
 10
1156.228669
 20
-91.276451
 30
0.0
 11
1156.228669
 21
-83.276451
 31
0.0
  0
LINE
  8
0
  6
BYLAYER
 62
     7
 10
1158.228669
 20
-91.276451
 30
0.0
 11
1158.228669
 21
-83.276451
 31
0.0
  0
LINE
  8
0
  6
BYLAYER
 62
     7
 10
1158.228669
 20
-91.276451
 30
0.0
 11
1166.066668
 21
-91.276451
 31
0.0
  0
LINE
  8
0
  6
BYLAYER
 62
     7
 10
1148.228669
 20
-91.276451
 30
0.0
 11
1156.228669
 21
-91.276451
 31
0.0
  0
LINE
  8
0
  6
BYLAYER
 62
     7
 10
1158.228669
 20
-83.276451
 30
0.0
 11
1166.066668
 21
-83.276451
 31
0.0
  0
LINE
  8
0
  6
BYLAYER
 62
     7
 10
1148.228669
 20
-83.276451
 30
0.0
 11
1156.228669
 21
-83.276451
 31
0.0
  0
LINE
  8
0
  6
BYLAYER
 62
     7
 10
1166.066668
 20
-91.276451
 30
0.0
 11
1166.066668
 21
-83.276451
 31
0.0
  0
LINE
  8
0
  6
BYLAYER
 62
     7
 10
1168.228669
 20
-83.276451
 30
0.0
 11
1168.228669
 21
-91.276451
 31
0.0
  0
LINE
  8
0
  6
BYLAYER
 62
     7
 10
1168.228669
 20
-91.276451
 30
0.0
 11
1176.228669
 21
-91.276451
 31
0.0
  0
LINE
  8
0
  6
BYLAYER
 62
     7
 10
1168.228669
 20
-83.276451
 30
0.0
 11
1176.228669
 21
-83.276451
 31
0.0
  0
LINE
  8
0
  6
BYLAYER
 62
     7
 10
1176.228669
 20
-91.276451
 30
0.0
 11
1176.228669
 21
-83.276451
 31
0.0
  0
LINE
  8
0
  6
BYLAYER
 62
     7
 10
1178.228669
 20
-93.276451
 30
0.0
 11
1178.228669
 21
-101.276451
 31
0.0
  0
LINE
  8
0
  6
BYLAYER
 62
     7
 10
1178.228669
 20
-101.276451
 30
0.0
 11
1186.228669
 21
-101.276451
 31
0.0
  0
LINE
  8
0
  6
BYLAYER
 62
     7
 10
1178.228669
 20
-93.276451
 30
0.0
 11
1186.228669
 21
-93.276451
 31
0.0
  0
LINE
  8
0
  6
BYLAYER
 62
     7
 10
1186.228669
 20
-101.276451
 30
0.0
 11
1186.228669
 21
-93.276451
 31
0.0
  0
LINE
  8
0
  6
BYLAYER
 62
     7
 10
1188.228669
 20
-103.276451
 30
0.0
 11
1188.228669
 21
-111.276451
 31
0.0
  0
LINE
  8
0
  6
BYLAYER
 62
     7
 10
1188.228669
 20
-111.276451
 30
0.0
 11
1196.228669
 21
-111.276451
 31
0.0
  0
LINE
  8
0
  6
BYLAYER
 62
     7
 10
1188.228669
 20
-103.276451
 30
0.0
 11
1196.228669
 21
-103.276451
 31
0.0
  0
LINE
  8
0
  6
BYLAYER
 62
     7
 10
1196.228669
 20
-111.276451
 30
0.0
 11
1196.228669
 21
-103.276451
 31
0.0
  0
LINE
  8
0
  6
BYLAYER
 62
     7
 10
1148.228669
 20
-171.276451
 30
0.0
 11
1148.228669
 21
-163.276451
 31
0.0
  0
LINE
  8
0
  6
BYLAYER
 62
     7
 10
1148.228669
 20
-181.276451
 30
0.0
 11
1148.228669
 21
-173.276451
 31
0.0
  0
LINE
  8
0
  6
BYLAYER
 62
     7
 10
1156.228669
 20
-173.276451
 30
0.0
 11
1156.228669
 21
-181.276451
 31
0.0
  0
LINE
  8
0
  6
BYLAYER
 62
     7
 10
1158.228669
 20
-173.276451
 30
0.0
 11
1158.228669
 21
-181.276451
 31
0.0
  0
LINE
  8
0
  6
BYLAYER
 62
     7
 10
1148.228669
 20
-163.276451
 30
0.0
 11
1156.228669
 21
-163.276451
 31
0.0
  0
LINE
  8
0
  6
BYLAYER
 62
     7
 10
1148.228669
 20
-171.276451
 30
0.0
 11
1156.228669
 21
-171.276451
 31
0.0
  0
LINE
  8
0
  6
BYLAYER
 62
     7
 10
1158.228669
 20
-173.276451
 30
0.0
 11
1166.066668
 21
-173.276451
 31
0.0
  0
LINE
  8
0
  6
BYLAYER
 62
     7
 10
1148.228669
 20
-173.276451
 30
0.0
 11
1156.228669
 21
-173.276451
 31
0.0
  0
LINE
  8
0
  6
BYLAYER
 62
     7
 10
1158.228669
 20
-181.276451
 30
0.0
 11
1166.066668
 21
-181.276451
 31
0.0
  0
LINE
  8
0
  6
BYLAYER
 62
     7
 10
1148.228669
 20
-181.276451
 30
0.0
 11
1156.228669
 21
-181.276451
 31
0.0
  0
LINE
  8
0
  6
BYLAYER
 62
     7
 10
1166.066668
 20
-173.276451
 30
0.0
 11
1166.066668
 21
-181.276451
 31
0.0
  0
LINE
  8
0
  6
BYLAYER
 62
     7
 10
1156.228669
 20
-163.276451
 30
0.0
 11
1156.228669
 21
-171.276451
 31
0.0
  0
LINE
  8
0
  6
BYLAYER
 62
     7
 10
1158.228669
 20
-171.276451
 30
0.0
 11
1158.228669
 21
-163.276451
 31
0.0
  0
LINE
  8
0
  6
BYLAYER
 62
     7
 10
1158.228669
 20
-163.276451
 30
0.0
 11
1166.228669
 21
-163.276451
 31
0.0
  0
LINE
  8
0
  6
BYLAYER
 62
     7
 10
1158.228669
 20
-171.276451
 30
0.0
 11
1166.228669
 21
-171.276451
 31
0.0
  0
LINE
  8
0
  6
BYLAYER
 62
     7
 10
1166.228669
 20
-163.276451
 30
0.0
 11
1166.228669
 21
-171.276451
 31
0.0
  0
LINE
  8
0
  6
BYLAYER
 62
     7
 10
1168.228669
 20
-153.276451
 30
0.0
 11
1176.228669
 21
-153.276451
 31
0.0
  0
LINE
  8
0
  6
BYLAYER
 62
     7
 10
1168.228669
 20
-171.276451
 30
0.0
 11
1168.228669
 21
-163.276451
 31
0.0
  0
LINE
  8
0
  6
BYLAYER
 62
     7
 10
1168.228669
 20
-161.276451
 30
0.0
 11
1168.228669
 21
-153.276451
 31
0.0
  0
LINE
  8
0
  6
BYLAYER
 62
     7
 10
1168.228669
 20
-161.276451
 30
0.0
 11
1176.228669
 21
-161.276451
 31
0.0
  0
LINE
  8
0
  6
BYLAYER
 62
     7
 10
1168.228669
 20
-163.276451
 30
0.0
 11
1176.228669
 21
-163.276451
 31
0.0
  0
LINE
  8
0
  6
BYLAYER
 62
     7
 10
1168.228669
 20
-171.276451
 30
0.0
 11
1176.228669
 21
-171.276451
 31
0.0
  0
LINE
  8
0
  6
BYLAYER
 62
     7
 10
1176.228669
 20
-153.276451
 30
0.0
 11
1176.228669
 21
-161.276451
 31
0.0
  0
LINE
  8
0
  6
BYLAYER
 62
     7
 10
1176.228669
 20
-163.276451
 30
0.0
 11
1176.228669
 21
-171.276451
 31
0.0
  0
LINE
  8
0
  6
BYLAYER
 62
     7
 10
1168.228669
 20
-143.276451
 30
0.0
 11
1176.228669
 21
-143.276451
 31
0.0
  0
LINE
  8
0
  6
BYLAYER
 62
     7
 10
1168.228669
 20
-151.276451
 30
0.0
 11
1168.228669
 21
-143.276451
 31
0.0
  0
LINE
  8
0
  6
BYLAYER
 62
     7
 10
1168.228669
 20
-151.276451
 30
0.0
 11
1176.228669
 21
-151.276451
 31
0.0
  0
LINE
  8
0
  6
BYLAYER
 62
     7
 10
1176.228669
 20
-143.276451
 30
0.0
 11
1176.228669
 21
-151.276451
 31
0.0
  0
LINE
  8
0
  6
BYLAYER
 62
     7
 10
1178.228669
 20
-153.276451
 30
0.0
 11
1186.228669
 21
-153.276451
 31
0.0
  0
LINE
  8
0
  6
BYLAYER
 62
     7
 10
1178.228669
 20
-161.276451
 30
0.0
 11
1178.228669
 21
-153.276451
 31
0.0
  0
LINE
  8
0
  6
BYLAYER
 62
     7
 10
1178.228669
 20
-161.276451
 30
0.0
 11
1186.228669
 21
-161.276451
 31
0.0
  0
LINE
  8
0
  6
BYLAYER
 62
     7
 10
1186.228669
 20
-153.276451
 30
0.0
 11
1186.228669
 21
-161.276451
 31
0.0
  0
LINE
  8
0
  6
BYLAYER
 62
     7
 10
1178.228669
 20
-143.276451
 30
0.0
 11
1186.228669
 21
-143.276451
 31
0.0
  0
LINE
  8
0
  6
BYLAYER
 62
     7
 10
1178.228669
 20
-151.276451
 30
0.0
 11
1178.228669
 21
-143.276451
 31
0.0
  0
LINE
  8
0
  6
BYLAYER
 62
     7
 10
1178.228669
 20
-151.276451
 30
0.0
 11
1186.228669
 21
-151.276451
 31
0.0
  0
LINE
  8
0
  6
BYLAYER
 62
     7
 10
1186.228669
 20
-143.276451
 30
0.0
 11
1186.228669
 21
-151.276451
 31
0.0
  0
LINE
  8
0
  6
BYLAYER
 62
     7
 10
1188.228669
 20
-153.276451
 30
0.0
 11
1196.228669
 21
-153.276451
 31
0.0
  0
LINE
  8
0
  6
BYLAYER
 62
     7
 10
1188.228669
 20
-161.276451
 30
0.0
 11
1188.228669
 21
-153.276451
 31
0.0
  0
LINE
  8
0
  6
BYLAYER
 62
     7
 10
1188.228669
 20
-161.276451
 30
0.0
 11
1196.228669
 21
-161.276451
 31
0.0
  0
LINE
  8
0
  6
BYLAYER
 62
     7
 10
1196.228669
 20
-153.276451
 30
0.0
 11
1196.228669
 21
-161.276451
 31
0.0
  0
LINE
  8
0
  6
BYLAYER
 62
     7
 10
1188.228669
 20
-143.276451
 30
0.0
 11
1196.228669
 21
-143.276451
 31
0.0
  0
LINE
  8
0
  6
BYLAYER
 62
     7
 10
1188.228669
 20
-151.276451
 30
0.0
 11
1188.228669
 21
-143.276451
 31
0.0
  0
LINE
  8
0
  6
BYLAYER
 62
     7
 10
1188.228669
 20
-151.276451
 30
0.0
 11
1196.228669
 21
-151.276451
 31
0.0
  0
LINE
  8
0
  6
BYLAYER
 62
     7
 10
1196.228669
 20
-143.276451
 30
0.0
 11
1196.228669
 21
-151.276451
 31
0.0
  0
LINE
  8
0
  6
BYLAYER
 62
     7
 10
1148.228669
 20
-191.276451
 30
0.0
 11
1148.228669
 21
-183.276451
 31
0.0
  0
LINE
  8
0
  6
BYLAYER
 62
     7
 10
1156.228669
 20
-183.276451
 30
0.0
 11
1156.228669
 21
-191.276451
 31
0.0
  0
LINE
  8
0
  6
BYLAYER
 62
     7
 10
1158.228669
 20
-183.276451
 30
0.0
 11
1158.228669
 21
-191.276451
 31
0.0
  0
LINE
  8
0
  6
BYLAYER
 62
     7
 10
1158.228669
 20
-183.276451
 30
0.0
 11
1166.066668
 21
-183.276451
 31
0.0
  0
LINE
  8
0
  6
BYLAYER
 62
     7
 10
1148.228669
 20
-183.276451
 30
0.0
 11
1156.228669
 21
-183.276451
 31
0.0
  0
LINE
  8
0
  6
BYLAYER
 62
     7
 10
1158.228669
 20
-191.276451
 30
0.0
 11
1166.066668
 21
-191.276451
 31
0.0
  0
LINE
  8
0
  6
BYLAYER
 62
     7
 10
1148.228669
 20
-191.276451
 30
0.0
 11
1156.228669
 21
-191.276451
 31
0.0
  0
LINE
  8
0
  6
BYLAYER
 62
     7
 10
1166.066668
 20
-183.276451
 30
0.0
 11
1166.066668
 21
-191.276451
 31
0.0
  0
LINE
  8
0
  6
BYLAYER
 62
     7
 10
1168.228669
 20
-181.276451
 30
0.0
 11
1168.228669
 21
-173.276451
 31
0.0
  0
LINE
  8
0
  6
BYLAYER
 62
     7
 10
1168.228669
 20
-173.276451
 30
0.0
 11
1176.228669
 21
-173.276451
 31
0.0
  0
LINE
  8
0
  6
BYLAYER
 62
     7
 10
1168.228669
 20
-181.276451
 30
0.0
 11
1176.228669
 21
-181.276451
 31
0.0
  0
LINE
  8
0
  6
BYLAYER
 62
     7
 10
1176.228669
 20
-173.276451
 30
0.0
 11
1176.228669
 21
-181.276451
 31
0.0
  0
LINE
  8
0
  6
BYLAYER
 62
     7
 10
1168.228669
 20
-191.276451
 30
0.0
 11
1168.228669
 21
-183.276451
 31
0.0
  0
LINE
  8
0
  6
BYLAYER
 62
     7
 10
1168.228669
 20
-183.276451
 30
0.0
 11
1176.228669
 21
-183.276451
 31
0.0
  0
LINE
  8
0
  6
BYLAYER
 62
     7
 10
1168.228669
 20
-191.276451
 30
0.0
 11
1176.228669
 21
-191.276451
 31
0.0
  0
LINE
  8
0
  6
BYLAYER
 62
     7
 10
1176.228669
 20
-183.276451
 30
0.0
 11
1176.228669
 21
-191.276451
 31
0.0
  0
LINE
  8
0
  6
BYLAYER
 62
     7
 10
1178.228669
 20
-171.276451
 30
0.0
 11
1178.228669
 21
-163.276451
 31
0.0
  0
LINE
  8
0
  6
BYLAYER
 62
     7
 10
1178.228669
 20
-163.276451
 30
0.0
 11
1186.228669
 21
-163.276451
 31
0.0
  0
LINE
  8
0
  6
BYLAYER
 62
     7
 10
1178.228669
 20
-171.276451
 30
0.0
 11
1186.228669
 21
-171.276451
 31
0.0
  0
LINE
  8
0
  6
BYLAYER
 62
     7
 10
1186.228669
 20
-163.276451
 30
0.0
 11
1186.228669
 21
-171.276451
 31
0.0
  0
LINE
  8
0
  6
BYLAYER
 62
     7
 10
1178.228669
 20
-181.276451
 30
0.0
 11
1178.228669
 21
-173.276451
 31
0.0
  0
LINE
  8
0
  6
BYLAYER
 62
     7
 10
1178.228669
 20
-173.276451
 30
0.0
 11
1186.228669
 21
-173.276451
 31
0.0
  0
LINE
  8
0
  6
BYLAYER
 62
     7
 10
1178.228669
 20
-181.276451
 30
0.0
 11
1186.228669
 21
-181.276451
 31
0.0
  0
LINE
  8
0
  6
BYLAYER
 62
     7
 10
1186.228669
 20
-173.276451
 30
0.0
 11
1186.228669
 21
-181.276451
 31
0.0
  0
LINE
  8
0
  6
BYLAYER
 62
     7
 10
1188.228669
 20
-171.276451
 30
0.0
 11
1188.228669
 21
-163.276451
 31
0.0
  0
LINE
  8
0
  6
BYLAYER
 62
     7
 10
1188.228669
 20
-163.276451
 30
0.0
 11
1196.228669
 21
-163.276451
 31
0.0
  0
LINE
  8
0
  6
BYLAYER
 62
     7
 10
1188.228669
 20
-171.276451
 30
0.0
 11
1196.228669
 21
-171.276451
 31
0.0
  0
LINE
  8
0
  6
BYLAYER
 62
     7
 10
1196.228669
 20
-163.276451
 30
0.0
 11
1196.228669
 21
-171.276451
 31
0.0
  0
LINE
  8
0
  6
BYLAYER
 62
     7
 10
1198.228669
 20
-153.276451
 30
0.0
 11
1206.228669
 21
-153.276451
 31
0.0
  0
LINE
  8
0
  6
BYLAYER
 62
     7
 10
1198.228669
 20
-161.276451
 30
0.0
 11
1198.228669
 21
-153.276451
 31
0.0
  0
LINE
  8
0
  6
BYLAYER
 62
     7
 10
1198.228669
 20
-161.276451
 30
0.0
 11
1206.228669
 21
-161.276451
 31
0.0
  0
LINE
  8
0
  6
BYLAYER
 62
     7
 10
1206.228669
 20
-153.276451
 30
0.0
 11
1206.228669
 21
-161.276451
 31
0.0
  0
LINE
  8
0
  6
BYLAYER
 62
     7
 10
1198.228669
 20
-143.276451
 30
0.0
 11
1206.228669
 21
-143.276451
 31
0.0
  0
LINE
  8
0
  6
BYLAYER
 62
     7
 10
1198.228669
 20
-151.276451
 30
0.0
 11
1198.228669
 21
-143.276451
 31
0.0
  0
LINE
  8
0
  6
BYLAYER
 62
     7
 10
1198.228669
 20
-151.276451
 30
0.0
 11
1206.228669
 21
-151.276451
 31
0.0
  0
LINE
  8
0
  6
BYLAYER
 62
     7
 10
1206.228669
 20
-143.276451
 30
0.0
 11
1206.228669
 21
-151.276451
 31
0.0
  0
LINE
  8
0
  6
BYLAYER
 62
     7
 10
1198.228669
 20
-171.276451
 30
0.0
 11
1198.228669
 21
-163.276451
 31
0.0
  0
LINE
  8
0
  6
BYLAYER
 62
     7
 10
1198.228669
 20
-163.276451
 30
0.0
 11
1206.228669
 21
-163.276451
 31
0.0
  0
LINE
  8
0
  6
BYLAYER
 62
     7
 10
1198.228669
 20
-171.276451
 30
0.0
 11
1206.228669
 21
-171.276451
 31
0.0
  0
LINE
  8
0
  6
BYLAYER
 62
     7
 10
1206.228669
 20
-163.276451
 30
0.0
 11
1206.228669
 21
-171.276451
 31
0.0
  0
LINE
  8
0
  6
BYLAYER
 62
     7
 10
1148.228669
 20
-201.276451
 30
0.0
 11
1148.228669
 21
-193.276451
 31
0.0
  0
LINE
  8
0
  6
BYLAYER
 62
     7
 10
1156.228669
 20
-193.276451
 30
0.0
 11
1156.228669
 21
-201.276451
 31
0.0
  0
LINE
  8
0
  6
BYLAYER
 62
     7
 10
1158.228669
 20
-193.276451
 30
0.0
 11
1158.228669
 21
-201.276451
 31
0.0
  0
LINE
  8
0
  6
BYLAYER
 62
     7
 10
1158.228669
 20
-193.276451
 30
0.0
 11
1166.066668
 21
-193.276451
 31
0.0
  0
LINE
  8
0
  6
BYLAYER
 62
     7
 10
1148.228669
 20
-193.276451
 30
0.0
 11
1156.228669
 21
-193.276451
 31
0.0
  0
LINE
  8
0
  6
BYLAYER
 62
     7
 10
1158.228669
 20
-201.276451
 30
0.0
 11
1166.066668
 21
-201.276451
 31
0.0
  0
LINE
  8
0
  6
BYLAYER
 62
     7
 10
1148.228669
 20
-201.276451
 30
0.0
 11
1156.228669
 21
-201.276451
 31
0.0
  0
LINE
  8
0
  6
BYLAYER
 62
     7
 10
1166.066668
 20
-193.276451
 30
0.0
 11
1166.066668
 21
-201.276451
 31
0.0
  0
LINE
  8
0
  6
BYLAYER
 62
     7
 10
1168.228669
 20
-201.276451
 30
0.0
 11
1168.228669
 21
-193.276451
 31
0.0
  0
LINE
  8
0
  6
BYLAYER
 62
     7
 10
1168.228669
 20
-193.276451
 30
0.0
 11
1176.228669
 21
-193.276451
 31
0.0
  0
LINE
  8
0
  6
BYLAYER
 62
     7
 10
1168.228669
 20
-201.276451
 30
0.0
 11
1176.228669
 21
-201.276451
 31
0.0
  0
LINE
  8
0
  6
BYLAYER
 62
     7
 10
1176.228669
 20
-193.276451
 30
0.0
 11
1176.228669
 21
-201.276451
 31
0.0
  0
LINE
  8
0
  6
BYLAYER
 62
     7
 10
1178.228669
 20
-191.276451
 30
0.0
 11
1178.228669
 21
-183.276451
 31
0.0
  0
LINE
  8
0
  6
BYLAYER
 62
     7
 10
1178.228669
 20
-183.276451
 30
0.0
 11
1186.228669
 21
-183.276451
 31
0.0
  0
LINE
  8
0
  6
BYLAYER
 62
     7
 10
1178.228669
 20
-191.276451
 30
0.0
 11
1186.228669
 21
-191.276451
 31
0.0
  0
LINE
  8
0
  6
BYLAYER
 62
     7
 10
1186.228669
 20
-183.276451
 30
0.0
 11
1186.228669
 21
-191.276451
 31
0.0
  0
LINE
  8
0
  6
BYLAYER
 62
     7
 10
1188.228669
 20
-181.276451
 30
0.0
 11
1188.228669
 21
-173.276451
 31
0.0
  0
LINE
  8
0
  6
BYLAYER
 62
     7
 10
1188.228669
 20
-173.276451
 30
0.0
 11
1196.228669
 21
-173.276451
 31
0.0
  0
LINE
  8
0
  6
BYLAYER
 62
     7
 10
1188.228669
 20
-181.276451
 30
0.0
 11
1196.228669
 21
-181.276451
 31
0.0
  0
LINE
  8
0
  6
BYLAYER
 62
     7
 10
1196.228669
 20
-173.276451
 30
0.0
 11
1196.228669
 21
-181.276451
 31
0.0
  0
LINE
  8
0
  6
BYLAYER
 62
     7
 10
1146.228669
 20
-113.276451
 30
0.0
 11
1146.228669
 21
-121.276451
 31
0.0
  0
LINE
  8
0
  6
BYLAYER
 62
     7
 10
1146.228669
 20
-103.276451
 30
0.0
 11
1146.228669
 21
-111.276451
 31
0.0
  0
LINE
  8
0
  6
BYLAYER
 62
     7
 10
1138.228669
 20
-111.276451
 30
0.0
 11
1138.228669
 21
-103.276451
 31
0.0
  0
LINE
  8
0
  6
BYLAYER
 62
     7
 10
1136.228669
 20
-111.276451
 30
0.0
 11
1136.228669
 21
-103.276451
 31
0.0
  0
LINE
  8
0
  6
BYLAYER
 62
     7
 10
1146.228669
 20
-121.276451
 30
0.0
 11
1138.228669
 21
-121.276451
 31
0.0
  0
LINE
  8
0
  6
BYLAYER
 62
     7
 10
1146.228669
 20
-113.276451
 30
0.0
 11
1138.228669
 21
-113.276451
 31
0.0
  0
LINE
  8
0
  6
BYLAYER
 62
     7
 10
1136.228669
 20
-111.276451
 30
0.0
 11
1128.390670
 21
-111.276451
 31
0.0
  0
LINE
  8
0
  6
BYLAYER
 62
     7
 10
1146.228669
 20
-111.276451
 30
0.0
 11
1138.228669
 21
-111.276451
 31
0.0
  0
LINE
  8
0
  6
BYLAYER
 62
     7
 10
1136.228669
 20
-103.276451
 30
0.0
 11
1128.390670
 21
-103.276451
 31
0.0
  0
LINE
  8
0
  6
BYLAYER
 62
     7
 10
1146.228669
 20
-103.276451
 30
0.0
 11
1138.228669
 21
-103.276451
 31
0.0
  0
LINE
  8
0
  6
BYLAYER
 62
     7
 10
1128.390670
 20
-111.276451
 30
0.0
 11
1128.390670
 21
-103.276451
 31
0.0
  0
LINE
  8
0
  6
BYLAYER
 62
     7
 10
1138.228669
 20
-121.276451
 30
0.0
 11
1138.228669
 21
-113.276451
 31
0.0
  0
LINE
  8
0
  6
BYLAYER
 62
     7
 10
1136.228669
 20
-113.276451
 30
0.0
 11
1136.228669
 21
-121.276451
 31
0.0
  0
LINE
  8
0
  6
BYLAYER
 62
     7
 10
1136.228669
 20
-121.276451
 30
0.0
 11
1128.228669
 21
-121.276451
 31
0.0
  0
LINE
  8
0
  6
BYLAYER
 62
     7
 10
1136.228669
 20
-113.276451
 30
0.0
 11
1128.228669
 21
-113.276451
 31
0.0
  0
LINE
  8
0
  6
BYLAYER
 62
     7
 10
1128.228669
 20
-121.276451
 30
0.0
 11
1128.228669
 21
-113.276451
 31
0.0
  0
LINE
  8
0
  6
BYLAYER
 62
     7
 10
1126.228669
 20
-131.276451
 30
0.0
 11
1118.228669
 21
-131.276451
 31
0.0
  0
LINE
  8
0
  6
BYLAYER
 62
     7
 10
1126.228669
 20
-113.276451
 30
0.0
 11
1126.228669
 21
-121.276451
 31
0.0
  0
LINE
  8
0
  6
BYLAYER
 62
     7
 10
1126.228669
 20
-123.276451
 30
0.0
 11
1126.228669
 21
-131.276451
 31
0.0
  0
LINE
  8
0
  6
BYLAYER
 62
     7
 10
1126.228669
 20
-123.276451
 30
0.0
 11
1118.228669
 21
-123.276451
 31
0.0
  0
LINE
  8
0
  6
BYLAYER
 62
     7
 10
1126.228669
 20
-121.276451
 30
0.0
 11
1118.228669
 21
-121.276451
 31
0.0
  0
LINE
  8
0
  6
BYLAYER
 62
     7
 10
1126.228669
 20
-113.276451
 30
0.0
 11
1118.228669
 21
-113.276451
 31
0.0
  0
LINE
  8
0
  6
BYLAYER
 62
     7
 10
1118.228669
 20
-131.276451
 30
0.0
 11
1118.228669
 21
-123.276451
 31
0.0
  0
LINE
  8
0
  6
BYLAYER
 62
     7
 10
1118.228669
 20
-121.276451
 30
0.0
 11
1118.228669
 21
-113.276451
 31
0.0
  0
LINE
  8
0
  6
BYLAYER
 62
     7
 10
1126.228669
 20
-141.276451
 30
0.0
 11
1118.228669
 21
-141.276451
 31
0.0
  0
LINE
  8
0
  6
BYLAYER
 62
     7
 10
1126.228669
 20
-133.276451
 30
0.0
 11
1126.228669
 21
-141.276451
 31
0.0
  0
LINE
  8
0
  6
BYLAYER
 62
     7
 10
1126.228669
 20
-133.276451
 30
0.0
 11
1118.228669
 21
-133.276451
 31
0.0
  0
LINE
  8
0
  6
BYLAYER
 62
     7
 10
1118.228669
 20
-141.276451
 30
0.0
 11
1118.228669
 21
-133.276451
 31
0.0
  0
LINE
  8
0
  6
BYLAYER
 62
     7
 10
1116.228669
 20
-131.276451
 30
0.0
 11
1108.228669
 21
-131.276451
 31
0.0
  0
LINE
  8
0
  6
BYLAYER
 62
     7
 10
1116.228669
 20
-123.276451
 30
0.0
 11
1116.228669
 21
-131.276451
 31
0.0
  0
LINE
  8
0
  6
BYLAYER
 62
     7
 10
1116.228669
 20
-123.276451
 30
0.0
 11
1108.228669
 21
-123.276451
 31
0.0
  0
LINE
  8
0
  6
BYLAYER
 62
     7
 10
1108.228669
 20
-131.276451
 30
0.0
 11
1108.228669
 21
-123.276451
 31
0.0
  0
LINE
  8
0
  6
BYLAYER
 62
     7
 10
1116.228669
 20
-141.276451
 30
0.0
 11
1108.228669
 21
-141.276451
 31
0.0
  0
LINE
  8
0
  6
BYLAYER
 62
     7
 10
1116.228669
 20
-133.276451
 30
0.0
 11
1116.228669
 21
-141.276451
 31
0.0
  0
LINE
  8
0
  6
BYLAYER
 62
     7
 10
1116.228669
 20
-133.276451
 30
0.0
 11
1108.228669
 21
-133.276451
 31
0.0
  0
LINE
  8
0
  6
BYLAYER
 62
     7
 10
1108.228669
 20
-141.276451
 30
0.0
 11
1108.228669
 21
-133.276451
 31
0.0
  0
LINE
  8
0
  6
BYLAYER
 62
     7
 10
1106.228669
 20
-131.276451
 30
0.0
 11
1098.228669
 21
-131.276451
 31
0.0
  0
LINE
  8
0
  6
BYLAYER
 62
     7
 10
1106.228669
 20
-123.276451
 30
0.0
 11
1106.228669
 21
-131.276451
 31
0.0
  0
LINE
  8
0
  6
BYLAYER
 62
     7
 10
1106.228669
 20
-123.276451
 30
0.0
 11
1098.228669
 21
-123.276451
 31
0.0
  0
LINE
  8
0
  6
BYLAYER
 62
     7
 10
1098.228669
 20
-131.276451
 30
0.0
 11
1098.228669
 21
-123.276451
 31
0.0
  0
LINE
  8
0
  6
BYLAYER
 62
     7
 10
1106.228669
 20
-141.276451
 30
0.0
 11
1098.228669
 21
-141.276451
 31
0.0
  0
LINE
  8
0
  6
BYLAYER
 62
     7
 10
1106.228669
 20
-133.276451
 30
0.0
 11
1106.228669
 21
-141.276451
 31
0.0
  0
LINE
  8
0
  6
BYLAYER
 62
     7
 10
1106.228669
 20
-133.276451
 30
0.0
 11
1098.228669
 21
-133.276451
 31
0.0
  0
LINE
  8
0
  6
BYLAYER
 62
     7
 10
1098.228669
 20
-141.276451
 30
0.0
 11
1098.228669
 21
-133.276451
 31
0.0
  0
LINE
  8
0
  6
BYLAYER
 62
     7
 10
1146.228669
 20
-93.276451
 30
0.0
 11
1146.228669
 21
-101.276451
 31
0.0
  0
LINE
  8
0
  6
BYLAYER
 62
     7
 10
1138.228669
 20
-101.276451
 30
0.0
 11
1138.228669
 21
-93.276451
 31
0.0
  0
LINE
  8
0
  6
BYLAYER
 62
     7
 10
1136.228669
 20
-101.276451
 30
0.0
 11
1136.228669
 21
-93.276451
 31
0.0
  0
LINE
  8
0
  6
BYLAYER
 62
     7
 10
1136.228669
 20
-101.276451
 30
0.0
 11
1128.390670
 21
-101.276451
 31
0.0
  0
LINE
  8
0
  6
BYLAYER
 62
     7
 10
1146.228669
 20
-101.276451
 30
0.0
 11
1138.228669
 21
-101.276451
 31
0.0
  0
LINE
  8
0
  6
BYLAYER
 62
     7
 10
1136.228669
 20
-93.276451
 30
0.0
 11
1128.390670
 21
-93.276451
 31
0.0
  0
LINE
  8
0
  6
BYLAYER
 62
     7
 10
1146.228669
 20
-93.276451
 30
0.0
 11
1138.228669
 21
-93.276451
 31
0.0
  0
LINE
  8
0
  6
BYLAYER
 62
     7
 10
1128.390670
 20
-101.276451
 30
0.0
 11
1128.390670
 21
-93.276451
 31
0.0
  0
LINE
  8
0
  6
BYLAYER
 62
     7
 10
1126.228669
 20
-103.276451
 30
0.0
 11
1126.228669
 21
-111.276451
 31
0.0
  0
LINE
  8
0
  6
BYLAYER
 62
     7
 10
1126.228669
 20
-111.276451
 30
0.0
 11
1118.228669
 21
-111.276451
 31
0.0
  0
LINE
  8
0
  6
BYLAYER
 62
     7
 10
1126.228669
 20
-103.276451
 30
0.0
 11
1118.228669
 21
-103.276451
 31
0.0
  0
LINE
  8
0
  6
BYLAYER
 62
     7
 10
1118.228669
 20
-111.276451
 30
0.0
 11
1118.228669
 21
-103.276451
 31
0.0
  0
LINE
  8
0
  6
BYLAYER
 62
     7
 10
1126.228669
 20
-93.276451
 30
0.0
 11
1126.228669
 21
-101.276451
 31
0.0
  0
LINE
  8
0
  6
BYLAYER
 62
     7
 10
1126.228669
 20
-101.276451
 30
0.0
 11
1118.228669
 21
-101.276451
 31
0.0
  0
LINE
  8
0
  6
BYLAYER
 62
     7
 10
1126.228669
 20
-93.276451
 30
0.0
 11
1118.228669
 21
-93.276451
 31
0.0
  0
LINE
  8
0
  6
BYLAYER
 62
     7
 10
1118.228669
 20
-101.276451
 30
0.0
 11
1118.228669
 21
-93.276451
 31
0.0
  0
LINE
  8
0
  6
BYLAYER
 62
     7
 10
1116.228669
 20
-113.276451
 30
0.0
 11
1116.228669
 21
-121.276451
 31
0.0
  0
LINE
  8
0
  6
BYLAYER
 62
     7
 10
1116.228669
 20
-121.276451
 30
0.0
 11
1108.228669
 21
-121.276451
 31
0.0
  0
LINE
  8
0
  6
BYLAYER
 62
     7
 10
1116.228669
 20
-113.276451
 30
0.0
 11
1108.228669
 21
-113.276451
 31
0.0
  0
LINE
  8
0
  6
BYLAYER
 62
     7
 10
1108.228669
 20
-121.276451
 30
0.0
 11
1108.228669
 21
-113.276451
 31
0.0
  0
LINE
  8
0
  6
BYLAYER
 62
     7
 10
1116.228669
 20
-103.276451
 30
0.0
 11
1116.228669
 21
-111.276451
 31
0.0
  0
LINE
  8
0
  6
BYLAYER
 62
     7
 10
1116.228669
 20
-111.276451
 30
0.0
 11
1108.228669
 21
-111.276451
 31
0.0
  0
LINE
  8
0
  6
BYLAYER
 62
     7
 10
1116.228669
 20
-103.276451
 30
0.0
 11
1108.228669
 21
-103.276451
 31
0.0
  0
LINE
  8
0
  6
BYLAYER
 62
     7
 10
1108.228669
 20
-111.276451
 30
0.0
 11
1108.228669
 21
-103.276451
 31
0.0
  0
LINE
  8
0
  6
BYLAYER
 62
     7
 10
1106.228669
 20
-113.276451
 30
0.0
 11
1106.228669
 21
-121.276451
 31
0.0
  0
LINE
  8
0
  6
BYLAYER
 62
     7
 10
1106.228669
 20
-121.276451
 30
0.0
 11
1098.228669
 21
-121.276451
 31
0.0
  0
LINE
  8
0
  6
BYLAYER
 62
     7
 10
1106.228669
 20
-113.276451
 30
0.0
 11
1098.228669
 21
-113.276451
 31
0.0
  0
LINE
  8
0
  6
BYLAYER
 62
     7
 10
1098.228669
 20
-121.276451
 30
0.0
 11
1098.228669
 21
-113.276451
 31
0.0
  0
LINE
  8
0
  6
BYLAYER
 62
     7
 10
1096.228669
 20
-131.276451
 30
0.0
 11
1088.228669
 21
-131.276451
 31
0.0
  0
LINE
  8
0
  6
BYLAYER
 62
     7
 10
1096.228669
 20
-123.276451
 30
0.0
 11
1096.228669
 21
-131.276451
 31
0.0
  0
LINE
  8
0
  6
BYLAYER
 62
     7
 10
1096.228669
 20
-123.276451
 30
0.0
 11
1088.228669
 21
-123.276451
 31
0.0
  0
LINE
  8
0
  6
BYLAYER
 62
     7
 10
1088.228669
 20
-131.276451
 30
0.0
 11
1088.228669
 21
-123.276451
 31
0.0
  0
LINE
  8
0
  6
BYLAYER
 62
     7
 10
1096.228669
 20
-141.276451
 30
0.0
 11
1088.228669
 21
-141.276451
 31
0.0
  0
LINE
  8
0
  6
BYLAYER
 62
     7
 10
1096.228669
 20
-133.276451
 30
0.0
 11
1096.228669
 21
-141.276451
 31
0.0
  0
LINE
  8
0
  6
BYLAYER
 62
     7
 10
1096.228669
 20
-133.276451
 30
0.0
 11
1088.228669
 21
-133.276451
 31
0.0
  0
LINE
  8
0
  6
BYLAYER
 62
     7
 10
1088.228669
 20
-141.276451
 30
0.0
 11
1088.228669
 21
-133.276451
 31
0.0
  0
LINE
  8
0
  6
BYLAYER
 62
     7
 10
1096.228669
 20
-113.276451
 30
0.0
 11
1096.228669
 21
-121.276451
 31
0.0
  0
LINE
  8
0
  6
BYLAYER
 62
     7
 10
1096.228669
 20
-121.276451
 30
0.0
 11
1088.228669
 21
-121.276451
 31
0.0
  0
LINE
  8
0
  6
BYLAYER
 62
     7
 10
1096.228669
 20
-113.276451
 30
0.0
 11
1088.228669
 21
-113.276451
 31
0.0
  0
LINE
  8
0
  6
BYLAYER
 62
     7
 10
1088.228669
 20
-121.276451
 30
0.0
 11
1088.228669
 21
-113.276451
 31
0.0
  0
LINE
  8
0
  6
BYLAYER
 62
     7
 10
1146.228669
 20
-83.276451
 30
0.0
 11
1146.228669
 21
-91.276451
 31
0.0
  0
LINE
  8
0
  6
BYLAYER
 62
     7
 10
1138.228669
 20
-91.276451
 30
0.0
 11
1138.228669
 21
-83.276451
 31
0.0
  0
LINE
  8
0
  6
BYLAYER
 62
     7
 10
1136.228669
 20
-91.276451
 30
0.0
 11
1136.228669
 21
-83.276451
 31
0.0
  0
LINE
  8
0
  6
BYLAYER
 62
     7
 10
1136.228669
 20
-91.276451
 30
0.0
 11
1128.390670
 21
-91.276451
 31
0.0
  0
LINE
  8
0
  6
BYLAYER
 62
     7
 10
1146.228669
 20
-91.276451
 30
0.0
 11
1138.228669
 21
-91.276451
 31
0.0
  0
LINE
  8
0
  6
BYLAYER
 62
     7
 10
1136.228669
 20
-83.276451
 30
0.0
 11
1128.390670
 21
-83.276451
 31
0.0
  0
LINE
  8
0
  6
BYLAYER
 62
     7
 10
1146.228669
 20
-83.276451
 30
0.0
 11
1138.228669
 21
-83.276451
 31
0.0
  0
LINE
  8
0
  6
BYLAYER
 62
     7
 10
1128.390670
 20
-91.276451
 30
0.0
 11
1128.390670
 21
-83.276451
 31
0.0
  0
LINE
  8
0
  6
BYLAYER
 62
     7
 10
1126.228669
 20
-83.276451
 30
0.0
 11
1126.228669
 21
-91.276451
 31
0.0
  0
LINE
  8
0
  6
BYLAYER
 62
     7
 10
1126.228669
 20
-91.276451
 30
0.0
 11
1118.228669
 21
-91.276451
 31
0.0
  0
LINE
  8
0
  6
BYLAYER
 62
     7
 10
1126.228669
 20
-83.276451
 30
0.0
 11
1118.228669
 21
-83.276451
 31
0.0
  0
LINE
  8
0
  6
BYLAYER
 62
     7
 10
1118.228669
 20
-91.276451
 30
0.0
 11
1118.228669
 21
-83.276451
 31
0.0
  0
LINE
  8
0
  6
BYLAYER
 62
     7
 10
1116.228669
 20
-93.276451
 30
0.0
 11
1116.228669
 21
-101.276451
 31
0.0
  0
LINE
  8
0
  6
BYLAYER
 62
     7
 10
1116.228669
 20
-101.276451
 30
0.0
 11
1108.228669
 21
-101.276451
 31
0.0
  0
LINE
  8
0
  6
BYLAYER
 62
     7
 10
1116.228669
 20
-93.276451
 30
0.0
 11
1108.228669
 21
-93.276451
 31
0.0
  0
LINE
  8
0
  6
BYLAYER
 62
     7
 10
1108.228669
 20
-101.276451
 30
0.0
 11
1108.228669
 21
-93.276451
 31
0.0
  0
LINE
  8
0
  6
BYLAYER
 62
     7
 10
1106.228669
 20
-103.276451
 30
0.0
 11
1106.228669
 21
-111.276451
 31
0.0
  0
LINE
  8
0
  6
BYLAYER
 62
     7
 10
1106.228669
 20
-111.276451
 30
0.0
 11
1098.228669
 21
-111.276451
 31
0.0
  0
LINE
  8
0
  6
BYLAYER
 62
     7
 10
1106.228669
 20
-103.276451
 30
0.0
 11
1098.228669
 21
-103.276451
 31
0.0
  0
LINE
  8
0
  6
BYLAYER
 62
     7
 10
1098.228669
 20
-111.276451
 30
0.0
 11
1098.228669
 21
-103.276451
 31
0.0
  0
LINE
  8
0
  6
BYLAYER
 62
     7
 10
1146.228669
 20
-171.276451
 30
0.0
 11
1146.228669
 21
-163.276451
 31
0.0
  0
LINE
  8
0
  6
BYLAYER
 62
     7
 10
1146.228669
 20
-181.276451
 30
0.0
 11
1146.228669
 21
-173.276451
 31
0.0
  0
LINE
  8
0
  6
BYLAYER
 62
     7
 10
1138.228669
 20
-173.276451
 30
0.0
 11
1138.228669
 21
-181.276451
 31
0.0
  0
LINE
  8
0
  6
BYLAYER
 62
     7
 10
1136.228669
 20
-173.276451
 30
0.0
 11
1136.228669
 21
-181.276451
 31
0.0
  0
LINE
  8
0
  6
BYLAYER
 62
     7
 10
1146.228669
 20
-163.276451
 30
0.0
 11
1138.228669
 21
-163.276451
 31
0.0
  0
LINE
  8
0
  6
BYLAYER
 62
     7
 10
1146.228669
 20
-171.276451
 30
0.0
 11
1138.228669
 21
-171.276451
 31
0.0
  0
LINE
  8
0
  6
BYLAYER
 62
     7
 10
1136.228669
 20
-173.276451
 30
0.0
 11
1128.390670
 21
-173.276451
 31
0.0
  0
LINE
  8
0
  6
BYLAYER
 62
     7
 10
1146.228669
 20
-173.276451
 30
0.0
 11
1138.228669
 21
-173.276451
 31
0.0
  0
LINE
  8
0
  6
BYLAYER
 62
     7
 10
1136.228669
 20
-181.276451
 30
0.0
 11
1128.390670
 21
-181.276451
 31
0.0
  0
LINE
  8
0
  6
BYLAYER
 62
     7
 10
1146.228669
 20
-181.276451
 30
0.0
 11
1138.228669
 21
-181.276451
 31
0.0
  0
LINE
  8
0
  6
BYLAYER
 62
     7
 10
1128.390670
 20
-173.276451
 30
0.0
 11
1128.390670
 21
-181.276451
 31
0.0
  0
LINE
  8
0
  6
BYLAYER
 62
     7
 10
1138.228669
 20
-163.276451
 30
0.0
 11
1138.228669
 21
-171.276451
 31
0.0
  0
LINE
  8
0
  6
BYLAYER
 62
     7
 10
1136.228669
 20
-171.276451
 30
0.0
 11
1136.228669
 21
-163.276451
 31
0.0
  0
LINE
  8
0
  6
BYLAYER
 62
     7
 10
1136.228669
 20
-163.276451
 30
0.0
 11
1128.228669
 21
-163.276451
 31
0.0
  0
LINE
  8
0
  6
BYLAYER
 62
     7
 10
1136.228669
 20
-171.276451
 30
0.0
 11
1128.228669
 21
-171.276451
 31
0.0
  0
LINE
  8
0
  6
BYLAYER
 62
     7
 10
1128.228669
 20
-163.276451
 30
0.0
 11
1128.228669
 21
-171.276451
 31
0.0
  0
LINE
  8
0
  6
BYLAYER
 62
     7
 10
1126.228669
 20
-153.276451
 30
0.0
 11
1118.228669
 21
-153.276451
 31
0.0
  0
LINE
  8
0
  6
BYLAYER
 62
     7
 10
1126.228669
 20
-171.276451
 30
0.0
 11
1126.228669
 21
-163.276451
 31
0.0
  0
LINE
  8
0
  6
BYLAYER
 62
     7
 10
1126.228669
 20
-161.276451
 30
0.0
 11
1126.228669
 21
-153.276451
 31
0.0
  0
LINE
  8
0
  6
BYLAYER
 62
     7
 10
1126.228669
 20
-161.276451
 30
0.0
 11
1118.228669
 21
-161.276451
 31
0.0
  0
LINE
  8
0
  6
BYLAYER
 62
     7
 10
1126.228669
 20
-163.276451
 30
0.0
 11
1118.228669
 21
-163.276451
 31
0.0
  0
LINE
  8
0
  6
BYLAYER
 62
     7
 10
1126.228669
 20
-171.276451
 30
0.0
 11
1118.228669
 21
-171.276451
 31
0.0
  0
LINE
  8
0
  6
BYLAYER
 62
     7
 10
1118.228669
 20
-153.276451
 30
0.0
 11
1118.228669
 21
-161.276451
 31
0.0
  0
LINE
  8
0
  6
BYLAYER
 62
     7
 10
1118.228669
 20
-163.276451
 30
0.0
 11
1118.228669
 21
-171.276451
 31
0.0
  0
LINE
  8
0
  6
BYLAYER
 62
     7
 10
1126.228669
 20
-143.276451
 30
0.0
 11
1118.228669
 21
-143.276451
 31
0.0
  0
LINE
  8
0
  6
BYLAYER
 62
     7
 10
1126.228669
 20
-151.276451
 30
0.0
 11
1126.228669
 21
-143.276451
 31
0.0
  0
LINE
  8
0
  6
BYLAYER
 62
     7
 10
1126.228669
 20
-151.276451
 30
0.0
 11
1118.228669
 21
-151.276451
 31
0.0
  0
LINE
  8
0
  6
BYLAYER
 62
     7
 10
1118.228669
 20
-143.276451
 30
0.0
 11
1118.228669
 21
-151.276451
 31
0.0
  0
LINE
  8
0
  6
BYLAYER
 62
     7
 10
1116.228669
 20
-153.276451
 30
0.0
 11
1108.228669
 21
-153.276451
 31
0.0
  0
LINE
  8
0
  6
BYLAYER
 62
     7
 10
1116.228669
 20
-161.276451
 30
0.0
 11
1116.228669
 21
-153.276451
 31
0.0
  0
LINE
  8
0
  6
BYLAYER
 62
     7
 10
1116.228669
 20
-161.276451
 30
0.0
 11
1108.228669
 21
-161.276451
 31
0.0
  0
LINE
  8
0
  6
BYLAYER
 62
     7
 10
1108.228669
 20
-153.276451
 30
0.0
 11
1108.228669
 21
-161.276451
 31
0.0
  0
LINE
  8
0
  6
BYLAYER
 62
     7
 10
1116.228669
 20
-143.276451
 30
0.0
 11
1108.228669
 21
-143.276451
 31
0.0
  0
LINE
  8
0
  6
BYLAYER
 62
     7
 10
1116.228669
 20
-151.276451
 30
0.0
 11
1116.228669
 21
-143.276451
 31
0.0
  0
LINE
  8
0
  6
BYLAYER
 62
     7
 10
1116.228669
 20
-151.276451
 30
0.0
 11
1108.228669
 21
-151.276451
 31
0.0
  0
LINE
  8
0
  6
BYLAYER
 62
     7
 10
1108.228669
 20
-143.276451
 30
0.0
 11
1108.228669
 21
-151.276451
 31
0.0
  0
LINE
  8
0
  6
BYLAYER
 62
     7
 10
1106.228669
 20
-153.276451
 30
0.0
 11
1098.228669
 21
-153.276451
 31
0.0
  0
LINE
  8
0
  6
BYLAYER
 62
     7
 10
1106.228669
 20
-161.276451
 30
0.0
 11
1106.228669
 21
-153.276451
 31
0.0
  0
LINE
  8
0
  6
BYLAYER
 62
     7
 10
1106.228669
 20
-161.276451
 30
0.0
 11
1098.228669
 21
-161.276451
 31
0.0
  0
LINE
  8
0
  6
BYLAYER
 62
     7
 10
1098.228669
 20
-153.276451
 30
0.0
 11
1098.228669
 21
-161.276451
 31
0.0
  0
LINE
  8
0
  6
BYLAYER
 62
     7
 10
1106.228669
 20
-143.276451
 30
0.0
 11
1098.228669
 21
-143.276451
 31
0.0
  0
LINE
  8
0
  6
BYLAYER
 62
     7
 10
1106.228669
 20
-151.276451
 30
0.0
 11
1106.228669
 21
-143.276451
 31
0.0
  0
LINE
  8
0
  6
BYLAYER
 62
     7
 10
1106.228669
 20
-151.276451
 30
0.0
 11
1098.228669
 21
-151.276451
 31
0.0
  0
LINE
  8
0
  6
BYLAYER
 62
     7
 10
1098.228669
 20
-143.276451
 30
0.0
 11
1098.228669
 21
-151.276451
 31
0.0
  0
LINE
  8
0
  6
BYLAYER
 62
     7
 10
1146.228669
 20
-191.276451
 30
0.0
 11
1146.228669
 21
-183.276451
 31
0.0
  0
LINE
  8
0
  6
BYLAYER
 62
     7
 10
1138.228669
 20
-183.276451
 30
0.0
 11
1138.228669
 21
-191.276451
 31
0.0
  0
LINE
  8
0
  6
BYLAYER
 62
     7
 10
1136.228669
 20
-183.276451
 30
0.0
 11
1136.228669
 21
-191.276451
 31
0.0
  0
LINE
  8
0
  6
BYLAYER
 62
     7
 10
1136.228669
 20
-183.276451
 30
0.0
 11
1128.390670
 21
-183.276451
 31
0.0
  0
LINE
  8
0
  6
BYLAYER
 62
     7
 10
1146.228669
 20
-183.276451
 30
0.0
 11
1138.228669
 21
-183.276451
 31
0.0
  0
LINE
  8
0
  6
BYLAYER
 62
     7
 10
1136.228669
 20
-191.276451
 30
0.0
 11
1128.390670
 21
-191.276451
 31
0.0
  0
LINE
  8
0
  6
BYLAYER
 62
     7
 10
1146.228669
 20
-191.276451
 30
0.0
 11
1138.228669
 21
-191.276451
 31
0.0
  0
LINE
  8
0
  6
BYLAYER
 62
     7
 10
1128.390670
 20
-183.276451
 30
0.0
 11
1128.390670
 21
-191.276451
 31
0.0
  0
LINE
  8
0
  6
BYLAYER
 62
     7
 10
1126.228669
 20
-181.276451
 30
0.0
 11
1126.228669
 21
-173.276451
 31
0.0
  0
LINE
  8
0
  6
BYLAYER
 62
     7
 10
1126.228669
 20
-173.276451
 30
0.0
 11
1118.228669
 21
-173.276451
 31
0.0
  0
LINE
  8
0
  6
BYLAYER
 62
     7
 10
1126.228669
 20
-181.276451
 30
0.0
 11
1118.228669
 21
-181.276451
 31
0.0
  0
LINE
  8
0
  6
BYLAYER
 62
     7
 10
1118.228669
 20
-173.276451
 30
0.0
 11
1118.228669
 21
-181.276451
 31
0.0
  0
LINE
  8
0
  6
BYLAYER
 62
     7
 10
1126.228669
 20
-191.276451
 30
0.0
 11
1126.228669
 21
-183.276451
 31
0.0
  0
LINE
  8
0
  6
BYLAYER
 62
     7
 10
1126.228669
 20
-183.276451
 30
0.0
 11
1118.228669
 21
-183.276451
 31
0.0
  0
LINE
  8
0
  6
BYLAYER
 62
     7
 10
1126.228669
 20
-191.276451
 30
0.0
 11
1118.228669
 21
-191.276451
 31
0.0
  0
LINE
  8
0
  6
BYLAYER
 62
     7
 10
1118.228669
 20
-183.276451
 30
0.0
 11
1118.228669
 21
-191.276451
 31
0.0
  0
LINE
  8
0
  6
BYLAYER
 62
     7
 10
1116.228669
 20
-171.276451
 30
0.0
 11
1116.228669
 21
-163.276451
 31
0.0
  0
LINE
  8
0
  6
BYLAYER
 62
     7
 10
1116.228669
 20
-163.276451
 30
0.0
 11
1108.228669
 21
-163.276451
 31
0.0
  0
LINE
  8
0
  6
BYLAYER
 62
     7
 10
1116.228669
 20
-171.276451
 30
0.0
 11
1108.228669
 21
-171.276451
 31
0.0
  0
LINE
  8
0
  6
BYLAYER
 62
     7
 10
1108.228669
 20
-163.276451
 30
0.0
 11
1108.228669
 21
-171.276451
 31
0.0
  0
LINE
  8
0
  6
BYLAYER
 62
     7
 10
1116.228669
 20
-181.276451
 30
0.0
 11
1116.228669
 21
-173.276451
 31
0.0
  0
LINE
  8
0
  6
BYLAYER
 62
     7
 10
1116.228669
 20
-173.276451
 30
0.0
 11
1108.228669
 21
-173.276451
 31
0.0
  0
LINE
  8
0
  6
BYLAYER
 62
     7
 10
1116.228669
 20
-181.276451
 30
0.0
 11
1108.228669
 21
-181.276451
 31
0.0
  0
LINE
  8
0
  6
BYLAYER
 62
     7
 10
1108.228669
 20
-173.276451
 30
0.0
 11
1108.228669
 21
-181.276451
 31
0.0
  0
LINE
  8
0
  6
BYLAYER
 62
     7
 10
1106.228669
 20
-171.276451
 30
0.0
 11
1106.228669
 21
-163.276451
 31
0.0
  0
LINE
  8
0
  6
BYLAYER
 62
     7
 10
1106.228669
 20
-163.276451
 30
0.0
 11
1098.228669
 21
-163.276451
 31
0.0
  0
LINE
  8
0
  6
BYLAYER
 62
     7
 10
1106.228669
 20
-171.276451
 30
0.0
 11
1098.228669
 21
-171.276451
 31
0.0
  0
LINE
  8
0
  6
BYLAYER
 62
     7
 10
1098.228669
 20
-163.276451
 30
0.0
 11
1098.228669
 21
-171.276451
 31
0.0
  0
LINE
  8
0
  6
BYLAYER
 62
     7
 10
1096.228669
 20
-153.276451
 30
0.0
 11
1088.228669
 21
-153.276451
 31
0.0
  0
LINE
  8
0
  6
BYLAYER
 62
     7
 10
1096.228669
 20
-161.276451
 30
0.0
 11
1096.228669
 21
-153.276451
 31
0.0
  0
LINE
  8
0
  6
BYLAYER
 62
     7
 10
1096.228669
 20
-161.276451
 30
0.0
 11
1088.228669
 21
-161.276451
 31
0.0
  0
LINE
  8
0
  6
BYLAYER
 62
     7
 10
1088.228669
 20
-153.276451
 30
0.0
 11
1088.228669
 21
-161.276451
 31
0.0
  0
LINE
  8
0
  6
BYLAYER
 62
     7
 10
1096.228669
 20
-143.276451
 30
0.0
 11
1088.228669
 21
-143.276451
 31
0.0
  0
LINE
  8
0
  6
BYLAYER
 62
     7
 10
1096.228669
 20
-151.276451
 30
0.0
 11
1096.228669
 21
-143.276451
 31
0.0
  0
LINE
  8
0
  6
BYLAYER
 62
     7
 10
1096.228669
 20
-151.276451
 30
0.0
 11
1088.228669
 21
-151.276451
 31
0.0
  0
LINE
  8
0
  6
BYLAYER
 62
     7
 10
1088.228669
 20
-143.276451
 30
0.0
 11
1088.228669
 21
-151.276451
 31
0.0
  0
LINE
  8
0
  6
BYLAYER
 62
     7
 10
1096.228669
 20
-171.276451
 30
0.0
 11
1096.228669
 21
-163.276451
 31
0.0
  0
LINE
  8
0
  6
BYLAYER
 62
     7
 10
1096.228669
 20
-163.276451
 30
0.0
 11
1088.228669
 21
-163.276451
 31
0.0
  0
LINE
  8
0
  6
BYLAYER
 62
     7
 10
1096.228669
 20
-171.276451
 30
0.0
 11
1088.228669
 21
-171.276451
 31
0.0
  0
LINE
  8
0
  6
BYLAYER
 62
     7
 10
1088.228669
 20
-163.276451
 30
0.0
 11
1088.228669
 21
-171.276451
 31
0.0
  0
LINE
  8
0
  6
BYLAYER
 62
     7
 10
1146.228669
 20
-201.276451
 30
0.0
 11
1146.228669
 21
-193.276451
 31
0.0
  0
LINE
  8
0
  6
BYLAYER
 62
     7
 10
1138.228669
 20
-193.276451
 30
0.0
 11
1138.228669
 21
-201.276451
 31
0.0
  0
LINE
  8
0
  6
BYLAYER
 62
     7
 10
1136.228669
 20
-193.276451
 30
0.0
 11
1136.228669
 21
-201.276451
 31
0.0
  0
LINE
  8
0
  6
BYLAYER
 62
     7
 10
1136.228669
 20
-193.276451
 30
0.0
 11
1128.390670
 21
-193.276451
 31
0.0
  0
LINE
  8
0
  6
BYLAYER
 62
     7
 10
1146.228669
 20
-193.276451
 30
0.0
 11
1138.228669
 21
-193.276451
 31
0.0
  0
LINE
  8
0
  6
BYLAYER
 62
     7
 10
1136.228669
 20
-201.276451
 30
0.0
 11
1128.390670
 21
-201.276451
 31
0.0
  0
LINE
  8
0
  6
BYLAYER
 62
     7
 10
1146.228669
 20
-201.276451
 30
0.0
 11
1138.228669
 21
-201.276451
 31
0.0
  0
LINE
  8
0
  6
BYLAYER
 62
     7
 10
1128.390670
 20
-193.276451
 30
0.0
 11
1128.390670
 21
-201.276451
 31
0.0
  0
LINE
  8
0
  6
BYLAYER
 62
     7
 10
1126.228669
 20
-201.276451
 30
0.0
 11
1126.228669
 21
-193.276451
 31
0.0
  0
LINE
  8
0
  6
BYLAYER
 62
     7
 10
1126.228669
 20
-193.276451
 30
0.0
 11
1118.228669
 21
-193.276451
 31
0.0
  0
LINE
  8
0
  6
BYLAYER
 62
     7
 10
1126.228669
 20
-201.276451
 30
0.0
 11
1118.228669
 21
-201.276451
 31
0.0
  0
LINE
  8
0
  6
BYLAYER
 62
     7
 10
1118.228669
 20
-193.276451
 30
0.0
 11
1118.228669
 21
-201.276451
 31
0.0
  0
LINE
  8
0
  6
BYLAYER
 62
     7
 10
1116.228669
 20
-191.276451
 30
0.0
 11
1116.228669
 21
-183.276451
 31
0.0
  0
LINE
  8
0
  6
BYLAYER
 62
     7
 10
1116.228669
 20
-183.276451
 30
0.0
 11
1108.228669
 21
-183.276451
 31
0.0
  0
LINE
  8
0
  6
BYLAYER
 62
     7
 10
1116.228669
 20
-191.276451
 30
0.0
 11
1108.228669
 21
-191.276451
 31
0.0
  0
LINE
  8
0
  6
BYLAYER
 62
     7
 10
1108.228669
 20
-183.276451
 30
0.0
 11
1108.228669
 21
-191.276451
 31
0.0
  0
LINE
  8
0
  6
BYLAYER
 62
     7
 10
1106.228669
 20
-181.276451
 30
0.0
 11
1106.228669
 21
-173.276451
 31
0.0
  0
LINE
  8
0
  6
BYLAYER
 62
     7
 10
1106.228669
 20
-173.276451
 30
0.0
 11
1098.228669
 21
-173.276451
 31
0.0
  0
LINE
  8
0
  6
BYLAYER
 62
     7
 10
1106.228669
 20
-181.276451
 30
0.0
 11
1098.228669
 21
-181.276451
 31
0.0
  0
LINE
  8
0
  6
BYLAYER
 62
     7
 10
1098.228669
 20
-173.276451
 30
0.0
 11
1098.228669
 21
-181.276451
 31
0.0
  0
CIRCLE
  8
0
  6
BYLAYER
 62
     7
 10
1147.228669
 20
-142.276451
 30
0.0
 40
71.999936
  0
CIRCLE
  8
0
  6
BYLAYER
 62
     7
 10
1147.228669
 20
-142.276451
 30
0.0
 40
86.549921
  0
ARC
  8
0
  6
BYLAYER
 62
     7
 10
1147.228669
 20
-142.276451
 30
0.0
 40
96.000000
 50
323.301669
 51
356.934592
  0
ARC
  8
0
  6
BYLAYER
 62
     7
 10
1147.228669
 20
-142.276451
 30
0.0
 40
96.0
 50
3.065408
 51
36.698331
  0
ARC
  8
0
  6
BYLAYER
 62
     7
 10
1147.228669
 20
-142.276451
 30
0.0
 40
96.000000
 50
233.301669
 51
266.934592
  0
ARC
  8
0
  6
BYLAYER
 62
     7
 10
1147.228669
 20
-142.276451
 30
0.0
 40
96.0
 50
273.065408
 51
306.698331
  0
ARC
  8
0
  6
BYLAYER
 62
     7
 10
1147.228669
 20
-142.276451
 30
0.0
 40
96.0
 50
183.065408
 51
216.698331
  0
ARC
  8
0
  6
BYLAYER
 62
     7
 10
1147.228669
 20
-142.276451
 30
0.0
 40
96.0
 50
143.301669
 51
176.934592
  0
ARC
  8
0
  6
BYLAYER
 62
     7
 10
1147.228669
 20
-142.276451
 30
0.0
 40
96.000000
 50
120.691662
 51
126.698331
  0
ARC
  8
0
  6
BYLAYER
 62
     7
 10
1147.228669
 20
-142.276451
 30
0.0
 40
96.000000
 50
53.301669
 51
59.308487
  0
ARC
  8
0
  6
BYLAYER
 62
     7
 10
1203.104436
 20
-67.308801
 30
0.0
 40
2.500000
 50
315.000000
 51
413.301669
  0
ARC
  8
0
  6
BYLAYER
 62
     7
 10
1222.196319
 20
-86.400684
 30
0.0
 40
2.500000
 50
36.698331
 51
135.000000
  0
CIRCLE
  8
0
  6
BYLAYER
 62
     7
 10
1147.228669
 20
-142.276451
 30
0.0
 40
70.0
  0
ARC
  8
0
  6
BYLAYER
 62
     7
 10
1205.564978
 20
-83.940142
 30
0.0
 40
5.500000
 50
1.144516
 51
88.855484
  0
LINE
  8
0
  6
BYLAYER
 62
     7
 10
1200.154237
 20
-73.794533
 30
0.0
 11
1204.872203
 21
-69.076567
 31
0.0
  0
LINE
  8
0
  6
BYLAYER
 62
     7
 10
1215.710587
 20
-89.350883
 30
0.0
 11
1220.428553
 21
-84.632917
 31
0.0
  0
ARC
  8
0
  6
BYLAYER
 62
     7
 10
1091.352902
 20
-67.308801
 30
0.0
 40
2.500000
 50
126.698331
 51
225.0
  0
ARC
  8
0
  6
BYLAYER
 62
     7
 10
1072.261019
 20
-86.400684
 30
0.0
 40
2.500000
 50
45.000000
 51
143.301669
  0
ARC
  8
0
  6
BYLAYER
 62
     7
 10
1088.892360
 20
-83.940142
 30
0.0
 40
5.500000
 50
91.144516
 51
178.855484
  0
LINE
  8
0
  6
BYLAYER
 62
     7
 10
1094.303101
 20
-73.794533
 30
0.0
 11
1089.585135
 21
-69.076567
 31
0.0
  0
LINE
  8
0
  6
BYLAYER
 62
     7
 10
1078.746751
 20
-89.350883
 30
0.0
 11
1074.028785
 21
-84.632917
 31
0.0
  0
ARC
  8
0
  6
BYLAYER
 62
     7
 10
1203.104436
 20
-217.244101
 30
0.0
 40
2.5
 50
306.698331
 51
405.000000
  0
ARC
  8
0
  6
BYLAYER
 62
     7
 10
1222.196319
 20
-198.152218
 30
0.0
 40
2.500000
 50
225.0
 51
323.301669
  0
ARC
  8
0
  6
BYLAYER
 62
     7
 10
1205.564978
 20
-200.612760
 30
0.0
 40
5.500000
 50
271.144516
 51
358.855484
  0
LINE
  8
0
  6
BYLAYER
 62
     7
 10
1200.154237
 20
-210.758369
 30
0.0
 11
1204.872203
 21
-215.476335
 31
0.0
  0
LINE
  8
0
  6
BYLAYER
 62
     7
 10
1215.710587
 20
-195.202019
 30
0.0
 11
1220.428553
 21
-199.919985
 31
0.0
  0
ARC
  8
0
  6
BYLAYER
 62
     7
 10
1091.352902
 20
-217.244101
 30
0.0
 40
2.500000
 50
135.000000
 51
233.301669
  0
ARC
  8
0
  6
BYLAYER
 62
     7
 10
1072.261019
 20
-198.152218
 30
0.0
 40
2.500000
 50
216.698331
 51
315.000000
  0
ARC
  8
0
  6
BYLAYER
 62
     7
 10
1088.892360
 20
-200.612760
 30
0.0
 40
5.5
 50
181.144516
 51
268.855484
  0
LINE
  8
0
  6
BYLAYER
 62
     7
 10
1094.303101
 20
-210.758369
 30
0.0
 11
1089.585135
 21
-215.476335
 31
0.0
  0
LINE
  8
0
  6
BYLAYER
 62
     7
 10
1078.746751
 20
-195.202019
 30
0.0
 11
1074.028785
 21
-199.919985
 31
0.0
  0
ARC
  8
0
  6
BYLAYER
 62
     7
 10
1053.862455
 20
-147.276451
 30
0.0
 40
2.500000
 50
90.0
 51
183.065408
  0
ARC
  8
0
  6
BYLAYER
 62
     7
 10
1053.862455
 20
-137.276451
 30
0.0
 40
2.500000
 50
176.934592
 51
270.000000
  0
LINE
  8
0
  6
BYLAYER
 62
     7
 10
1053.862455
 20
-144.776451
 30
0.0
 11
1060.714862
 21
-144.776451
 31
0.0
  0
LINE
  8
0
  6
BYLAYER
 62
     7
 10
1053.862455
 20
-139.776451
 30
0.0
 11
1060.714862
 21
-139.776451
 31
0.0
  0
ARC
  8
0
  6
BYLAYER
 62
     7
 10
1152.228669
 20
-235.642665
 30
0.0
 40
2.5
 50
180.000000
 51
273.065408
  0
ARC
  8
0
  6
BYLAYER
 62
     7
 10
1142.228669
 20
-235.642665
 30
0.0
 40
2.5
 50
266.934592
 51
360.000000
  0
LINE
  8
0
  6
BYLAYER
 62
     7
 10
1149.728669
 20
-235.642665
 30
0.0
 11
1149.728669
 21
-228.790258
 31
0.0
  0
LINE
  8
0
  6
BYLAYER
 62
     7
 10
1144.728669
 20
-235.642665
 30
0.0
 11
1144.728669
 21
-228.790258
 31
0.0
  0
ARC
  8
0
  6
BYLAYER
 62
     7
 10
1240.594883
 20
-137.276451
 30
0.0
 40
2.5
 50
270.0
 51
363.065408
  0
ARC
  8
0
  6
BYLAYER
 62
     7
 10
1240.594883
 20
-147.276451
 30
0.0
 40
2.5
 50
356.934592
 51
450.0
  0
LINE
  8
0
  6
BYLAYER
 62
     7
 10
1240.594883
 20
-139.776451
 30
0.0
 11
1233.742476
 21
-139.776451
 31
0.0
  0
LINE
  8
0
  6
BYLAYER
 62
     7
 10
1240.594883
 20
-144.776451
 30
0.0
 11
1233.742476
 21
-144.776451
 31
0.0
  0
LINE
  8
0
  6
BYLAYER
 62
     1
 10
1070.728669
 20
-754.276451
 30
0.0
 11
1073.228669
 21
-754.276451
 31
0.0
  0
LINE
  8
0
  6
BYLAYER
 62
     1
 10
1069.728669
 20
-755.276451
 30
0.0
 11
1070.728669
 21
-754.276451
 31
0.0
  0
LINE
  8
0
  6
BYLAYER
 62
     1
 10
1069.728669
 20
-883.276329
 30
0.0
 11
1070.728669
 21
-884.276329
 31
0.0
  0
LINE
  8
0
  6
BYLAYER
 62
     1
 10
1070.728669
 20
-884.276329
 30
0.0
 11
1073.228669
 21
-884.276329
 31
0.0
  0
LINE
  8
0
  6
BYLAYER
 62
     1
 10
1069.728669
 20
-755.276451
 30
0.0
 11
1069.728669
 21
-883.276329
 31
0.0
  0
LINE
  8
0
  6
BYLAYER
 62
     1
 10
1075.228669
 20
-651.776390
 30
0.0
 11
1219.228669
 21
-651.776390
 31
0.0
  0
LINE
  8
0
  6
BYLAYER
 62
     1
 10
1075.228669
 20
-946.776390
 30
0.0
 11
1219.228669
 21
-946.776390
 31
0.0
  0
LINE
  8
0
  6
BYLAYER
 62
     1
 10
1075.228669
 20
-919.381187
 30
0.0
 11
1073.228669
 21
-919.276329
 31
0.0
  0
LINE
  8
0
  6
BYLAYER
 62
     1
 10
1073.228669
 20
-919.276329
 30
0.0
 11
1073.228669
 21
-719.276451
 31
0.0
  0
CIRCLE
  8
0
  6
BYLAYER
 62
     1
 10
1089.728608
 20
-694.276390
 30
0.0
 40
7.0
  0
CIRCLE
  8
0
  6
BYLAYER
 62
     1
 10
1204.728669
 20
-694.276390
 30
0.0
 40
7.0
  0
CIRCLE
  8
0
  6
BYLAYER
 62
     1
 10
1147.228669
 20
-709.276451
 30
0.0
 40
36.0
  0
ARC
  8
0
  6
BYLAYER
 62
     1
 10
1093.470185
 20
-718.236656
 30
0.0
 40
3.000083
 50
9.462899
 51
86.999924
  0
ARC
  8
0
  6
BYLAYER
 62
     1
 10
1147.228669
 20
-709.276451
 30
0.0
 40
51.500031
 50
189.462740
 51
350.537275
  0
ARC
  8
0
  6
BYLAYER
 62
     1
 10
1200.987092
 20
-718.236656
 30
0.0
 40
3.000082
 50
92.999494
 51
170.537106
  0
LINE
  8
0
  6
BYLAYER
 62
     1
 10
1075.228669
 20
-651.776390
 30
0.0
 11
1075.228669
 21
-713.033775
 31
0.0
  0
ARC
  8
0
  6
BYLAYER
 62
     1
 10
1078.228608
 20
-713.033775
 30
0.0
 40
3.000000
 50
180.000000
 51
225.000401
  0
LINE
  8
0
  6
BYLAYER
 62
     1
 10
1219.228669
 20
-651.776390
 30
0.0
 11
1219.228669
 21
-713.033775
 31
0.0
  0
ARC
  8
0
  6
BYLAYER
 62
     1
 10
1216.228669
 20
-713.033775
 30
0.0
 40
3.000000
 50
314.999992
 51
360.000000
  0
LINE
  8
0
  6
BYLAYER
 62
     1
 10
1075.228669
 20
-946.776390
 30
0.0
 11
1075.228669
 21
-885.518974
 31
0.0
  0
ARC
  8
0
  6
BYLAYER
 62
     1
 10
1078.228669
 20
-885.518974
 30
0.0
 40
3.000003
 50
135.000410
 51
180.000005
  0
LINE
  8
0
  6
BYLAYER
 62
     1
 10
1219.228669
 20
-946.776390
 30
0.0
 11
1219.228669
 21
-885.519035
 31
0.0
  0
ARC
  8
0
  6
BYLAYER
 62
     1
 10
1216.228669
 20
-885.519035
 30
0.0
 40
2.999938
 50
0.0
 51
45.000411
  0
LINE
  8
0
  6
BYLAYER
 62
     1
 10
1075.504731
 20
-714.290977
 30
0.0
 11
1093.627229
 21
-715.240684
 31
0.0
  0
LINE
  8
0
  6
BYLAYER
 62
     1
 10
1200.830109
 20
-715.240684
 30
0.0
 11
1218.952546
 21
-714.290977
 31
0.0
  0
LINE
  8
0
  6
BYLAYER
 62
     1
 10
1075.504670
 20
-884.261925
 30
0.0
 11
1147.228669
 21
-880.503014
 31
0.0
  0
LINE
  8
0
  6
BYLAYER
 62
     1
 10
1147.228425
 20
-880.503014
 30
0.0
 11
1218.952546
 21
-884.261925
 31
0.0
  0
CIRCLE
  8
0
  6
BYLAYER
 62
     1
 10
1089.728608
 20
-904.276390
 30
0.0
 40
7.0
  0
CIRCLE
  8
0
  6
BYLAYER
 62
     1
 10
1204.728669
 20
-904.276390
 30
0.0
 40
7.0
  0
ARC
  8
0
  6
BYLAYER
 62
     1
 10
1138.228669
 20
-875.127769
 30
0.0
 40
2.999990
 50
272.999956
 51
360.000010
  0
LINE
  8
0
  6
BYLAYER
 62
     1
 10
1141.228669
 20
-866.136925
 30
0.0
 11
1141.228669
 21
-875.127769
 31
0.0
  0
ARC
  8
0
  6
BYLAYER
 62
     1
 10
1138.228669
 20
-866.136925
 30
0.0
 40
2.999978
 50
0.0
 51
87.273726
  0
ARC
  8
0
  6
BYLAYER
 62
     1
 10
1198.363435
 20
-728.130577
 30
0.0
 40
2.999978
 50
92.726395
 51
159.760351
  0
ARC
  8
0
  6
BYLAYER
 62
     1
 10
1192.156403
 20
-740.126732
 30
0.0
 40
2.999994
 50
145.523956
 51
267.273608
  0
ARC
  8
0
  6
BYLAYER
 62
     1
 10
1102.300813
 20
-740.126793
 30
0.0
 40
2.999978
 50
272.726394
 51
394.476046
  0
ARC
  8
0
  6
BYLAYER
 62
     1
 10
1096.093720
 20
-728.130577
 30
0.0
 40
2.999997
 50
20.239655
 51
87.273604
  0
ARC
  8
0
  6
BYLAYER
 62
     1
 10
1195.228547
 20
-864.279777
 30
0.0
 40
3.000000
 50
92.726418
 51
180.000000
  0
LINE
  8
0
  6
BYLAYER
 62
     1
 10
1192.228547
 20
-864.279777
 30
0.0
 11
1192.228547
 21
-877.171715
 31
0.0
  0
ARC
  8
0
  6
BYLAYER
 62
     1
 10
1195.228547
 20
-877.171715
 30
0.0
 40
3.000000
 50
180.000000
 51
267.000477
  0
ARC
  8
0
  6
BYLAYER
 62
     1
 10
1138.228669
 20
-764.137047
 30
0.0
 40
2.999978
 50
0.0
 51
87.273575
  0
LINE
  8
0
  6
BYLAYER
 62
     1
 10
1141.228669
 20
-772.415855
 30
0.0
 11
1141.228669
 21
-764.137047
 31
0.0
  0
ARC
  8
0
  6
BYLAYER
 62
     1
 10
1138.228669
 20
-772.415855
 30
0.0
 40
3.000000
 50
272.726390
 51
360.000000
  0
ARC
  8
0
  6
BYLAYER
 62
     1
 10
1156.228669
 20
-764.137047
 30
0.0
 40
3.000039
 50
92.726395
 51
180.000005
  0
LINE
  8
0
  6
BYLAYER
 62
     1
 10
1153.228669
 20
-772.415855
 30
0.0
 11
1153.228669
 21
-764.137047
 31
0.0
  0
ARC
  8
0
  6
BYLAYER
 62
     1
 10
1156.228669
 20
-772.415855
 30
0.0
 40
3.0
 50
180.000000
 51
267.273575
  0
LINE
  8
0
  6
BYLAYER
 62
     1
 10
1076.107331
 20
-715.155113
 30
0.0
 11
1087.850007
 21
-726.898338
 31
0.0
  0
ARC
  8
0
  6
BYLAYER
 62
     1
 10
1085.728608
 20
-729.019615
 30
0.0
 40
3.0
 50
0.0
 51
44.998533
  0
LINE
  8
0
  6
BYLAYER
 62
     1
 10
1076.107331
 20
-883.397667
 30
0.0
 11
1087.849885
 21
-871.655052
 31
0.0
  0
LINE
  8
0
  6
BYLAYER
 62
     1
 10
1147.227937
 20
-877.660240
 30
0.0
 11
1078.228669
 21
-881.276329
 31
0.0
  0
LINE
  8
0
  6
BYLAYER
 62
     1
 10
1073.228669
 20
-719.276451
 30
0.0
 11
1079.880036
 21
-718.927940
 31
0.0
  0
LINE
  8
0
  6
BYLAYER
 62
     1
 10
1091.585908
 20
-860.912468
 30
0.0
 11
1138.371369
 21
-863.140343
 31
0.0
  0
LINE
  8
0
  6
BYLAYER
 62
     1
 10
1091.585908
 20
-777.640343
 30
0.0
 11
1138.371369
 21
-775.412437
 31
0.0
  0
ARC
  8
0
  6
BYLAYER
 62
     1
 10
1091.728608
 20
-780.636986
 30
0.0
 40
3.0
 50
92.726361
 51
180.000005
  0
LINE
  8
0
  6
BYLAYER
 62
     1
 10
1138.371369
 20
-761.140465
 30
0.0
 11
1091.585908
 21
-758.912559
 31
0.0
  0
LINE
  8
0
  6
BYLAYER
 62
     1
 10
1091.585908
 20
-743.640404
 30
0.0
 11
1102.443513
 21
-743.123375
 31
0.0
  0
ARC
  8
0
  6
BYLAYER
 62
     1
 10
1091.728608
 20
-746.637047
 30
0.0
 40
3.000000
 50
92.726375
 51
180.000005
  0
LINE
  8
0
  6
BYLAYER
 62
     1
 10
1086.568757
 20
-724.673668
 30
0.0
 11
1096.236481
 21
-725.133995
 31
0.0
  0
ARC
  8
0
  6
BYLAYER
 62
     1
 10
1086.711457
 20
-721.677025
 30
0.0
 40
3.000039
 50
213.853018
 51
267.273635
  0
LINE
  8
0
  6
BYLAYER
 62
     1
 10
1206.607331
 20
-726.897728
 30
0.0
 11
1218.350007
 21
-715.155113
 31
0.0
  0
ARC
  8
0
  6
BYLAYER
 62
     1
 10
1208.728669
 20
-729.019005
 30
0.0
 40
3.0
 50
134.999768
 51
179.999995
  0
LINE
  8
0
  6
BYLAYER
 62
     1
 10
1206.607209
 20
-871.654472
 30
0.0
 11
1218.350007
 21
-883.397819
 31
0.0
  0
ARC
  8
0
  6
BYLAYER
 62
     1
 10
1208.728669
 20
-869.533195
 30
0.0
 40
3.000000
 50
180.000000
 51
224.998533
  0
LINE
  8
0
  6
BYLAYER
 62
     1
 10
1207.888215
 20
-724.673607
 30
0.0
 11
1198.220734
 21
-725.133995
 31
0.0
  0
ARC
  8
0
  6
BYLAYER
 62
     1
 10
1207.745515
 20
-721.677025
 30
0.0
 40
2.999978
 50
272.726421
 51
326.150877
  0
LINE
  8
0
  6
BYLAYER
 62
     1
 10
1202.871247
 20
-743.640343
 30
0.0
 11
1192.013703
 21
-743.123375
 31
0.0
  0
ARC
  8
0
  6
BYLAYER
 62
     1
 10
1202.728669
 20
-746.636986
 30
0.0
 40
3.0
 50
0.0
 51
87.273855
  0
LINE
  8
0
  6
BYLAYER
 62
     1
 10
1156.085969
 20
-761.140404
 30
0.0
 11
1202.871247
 21
-758.912498
 31
0.0
  0
LINE
  8
0
  6
BYLAYER
 62
     1
 10
1202.871247
 20
-777.640343
 30
0.0
 11
1156.085969
 21
-775.412437
 31
0.0
  0
ARC
  8
0
  6
BYLAYER
 62
     1
 10
1202.728547
 20
-780.636986
 30
0.0
 40
3.0
 50
0.0
 51
87.273637
  0
LINE
  8
0
  6
BYLAYER
 62
     1
 10
1202.871247
 20
-860.912468
 30
0.0
 11
1195.085847
 21
-861.283195
 31
0.0
  0
LINE
  8
0
  6
BYLAYER
 62
     1
 10
1147.228059
 20
-877.660240
 30
0.0
 11
1216.228669
 21
-881.276390
 31
0.0
  0
LINE
  8
0
  6
BYLAYER
 62
     1
 10
1075.228669
 20
-656.776390
 30
0.0
 11
1219.228669
 21
-656.776390
 31
0.0
  0
LINE
  8
0
  6
BYLAYER
 62
     1
 10
1088.728608
 20
-869.533714
 30
0.0
 11
1088.728608
 21
-729.019615
 31
0.0
  0
ARC
  8
0
  6
BYLAYER
 62
     1
 10
1091.728608
 20
-857.915855
 30
0.0
 40
3.000000
 50
180.000000
 51
267.273678
  0
ARC
  8
0
  6
BYLAYER
 62
     1
 10
1091.728608
 20
-755.915916
 30
0.0
 40
3.000000
 50
180.000000
 51
267.273644
  0
ARC
  8
0
  6
BYLAYER
 62
     1
 10
1085.728608
 20
-869.533714
 30
0.0
 40
3.0
 50
314.999999
 51
360.000000
  0
ARC
  8
0
  6
BYLAYER
 62
     1
 10
1202.728547
 20
-857.915855
 30
0.0
 40
3.000000
 50
272.726356
 51
360.000000
  0
ARC
  8
0
  6
BYLAYER
 62
     1
 10
1202.728547
 20
-755.915855
 30
0.0
 40
3.000000
 50
272.726363
 51
360.000000
  0
LINE
  8
0
  6
BYLAYER
 62
     1
 10
1223.728547
 20
-754.276451
 30
0.0
 11
1221.228547
 21
-754.276451
 31
0.0
  0
LINE
  8
0
  6
BYLAYER
 62
     1
 10
1224.728547
 20
-755.276451
 30
0.0
 11
1223.728547
 21
-754.276451
 31
0.0
  0
LINE
  8
0
  6
BYLAYER
 62
     1
 10
1224.728547
 20
-883.276329
 30
0.0
 11
1223.728547
 21
-884.276329
 31
0.0
  0
LINE
  8
0
  6
BYLAYER
 62
     1
 10
1223.728547
 20
-884.276329
 30
0.0
 11
1221.228547
 21
-884.276329
 31
0.0
  0
LINE
  8
0
  6
BYLAYER
 62
     1
 10
1224.728547
 20
-755.276451
 30
0.0
 11
1224.728547
 21
-883.276329
 31
0.0
  0
LINE
  8
0
  6
BYLAYER
 62
     1
 10
1219.228547
 20
-919.381187
 30
0.0
 11
1221.228547
 21
-919.276329
 31
0.0
  0
LINE
  8
0
  6
BYLAYER
 62
     1
 10
1221.228547
 20
-919.276329
 30
0.0
 11
1221.228547
 21
-719.276451
 31
0.0
  0
LINE
  8
0
  6
BYLAYER
 62
     1
 10
1221.228547
 20
-719.276451
 30
0.0
 11
1214.577180
 21
-718.927940
 31
0.0
  0
LINE
  8
0
  6
BYLAYER
 62
     1
 10
1205.728669
 20
-729.019005
 30
0.0
 11
1205.728669
 21
-869.533195
 31
0.0
  0
ARC
  8
0
  6
BYLAYER
 62
     1
 10
1147.228669
 20
-772.276451
 30
0.0
 40
100.0
 50
320.804922
 51
390.943029
  0
ARC
  8
0
  6
BYLAYER
 62
     1
 10
1147.228669
 20
-772.276451
 30
0.0
 40
100.000000
 50
149.056971
 51
219.194967
  0
ARC
  8
0
  6
BYLAYER
 62
     1
 10
1147.228669
 20
-709.276451
 30
0.0
 40
80.0
 50
154.158067
 51
202.331645
  0
ARC
  8
0
  6
BYLAYER
 62
     1
 10
1147.228669
 20
-709.276451
 30
0.0
 40
80.0
 50
337.668125
 51
385.841933
  0
ARC
  8
0
  6
BYLAYER
 62
     1
 10
1147.228669
 20
-709.276451
 30
0.0
 40
80.0
 50
45.951437
 51
134.048563
  0
LINE
  8
0
  6
BYLAYER
 62
     1
 10
1069.728669
 20
-808.411376
 30
0.0
 11
1054.197615
 21
-808.953732
 31
0.0
  0
LINE
  8
0
  6
BYLAYER
 62
     1
 10
1069.728669
 20
-776.141526
 30
0.0
 11
1047.276144
 21
-775.357467
 31
0.0
  0
LINE
  8
0
  6
BYLAYER
 62
     1
 10
1226.482970
 20
-720.173966
 30
0.0
 11
1232.173789
 21
-720.372694
 31
0.0
  0
ARC
  8
0
  6
BYLAYER
 62
     1
 10
1232.138889
 20
-721.372085
 30
0.0
 40
1.0
 50
30.943029
 51
88.000000
  0
LINE
  8
0
  6
BYLAYER
 62
     1
 10
1067.974368
 20
-720.173966
 30
0.0
 11
1062.283549
 21
-720.372694
 31
0.0
  0
ARC
  8
0
  6
BYLAYER
 62
     1
 10
1062.318449
 20
-721.372085
 30
0.0
 40
1.000000
 50
92.000000
 51
149.056971
  0
LINE
  8
0
  6
BYLAYER
 62
     1
 10
239.728684
 20
-891.276466
 30
0.0
 11
239.728684
 21
-747.276451
 31
0.0
  0
LINE
  8
0
  6
BYLAYER
 62
     1
 10
492.228654
 20
-891.276466
 30
0.0
 11
492.228654
 21
-747.276451
 31
0.0
  0
LINE
  8
0
  6
BYLAYER
 62
     1
 10
432.228623
 20
-742.776451
 30
0.0
 11
432.228623
 21
-745.276451
 31
0.0
  0
LINE
  8
0
  6
BYLAYER
 62
     1
 10
431.228623
 20
-741.776451
 30
0.0
 11
432.228623
 21
-742.776451
 31
0.0
  0
LINE
  8
0
  6
BYLAYER
 62
     1
 10
302.228715
 20
-742.776451
 30
0.0
 11
302.228715
 21
-745.276451
 31
0.0
  0
LINE
  8
0
  6
BYLAYER
 62
     1
 10
303.228715
 20
-741.776451
 30
0.0
 11
302.228715
 21
-742.776451
 31
0.0
  0
LINE
  8
0
  6
BYLAYER
 62
     1
 10
431.228623
 20
-741.776451
 30
0.0
 11
303.228715
 21
-741.776451
 31
0.0
  0
LINE
  8
0
  6
BYLAYER
 62
     1
 10
355.861680
 20
-745.276512
 30
0.0
 11
355.830003
 21
-745.881187
 31
0.0
  0
ARC
  8
0
  6
BYLAYER
 62
     1
 10
353.832749
 20
-745.776512
 30
0.0
 40
1.999995
 50
270.0
 51
357.000791
  0
LINE
  8
0
  6
BYLAYER
 62
     1
 10
305.013932
 20
-745.276512
 30
0.0
 11
305.045609
 21
-745.881187
 31
0.0
  0
LINE
  8
0
  6
BYLAYER
 62
     1
 10
353.832749
 20
-747.776512
 30
0.0
 11
307.042863
 21
-747.776512
 31
0.0
  0
ARC
  8
0
  6
BYLAYER
 62
     1
 10
307.042863
 20
-745.776512
 30
0.0
 40
1.999995
 50
182.999237
 51
270.000001
  0
LINE
  8
0
  6
BYLAYER
 62
     1
 10
378.595689
 20
-745.276512
 30
0.0
 11
378.627366
 21
-745.881187
 31
0.0
  0
ARC
  8
0
  6
BYLAYER
 62
     1
 10
380.624619
 20
-745.776512
 30
0.0
 40
1.999995
 50
182.999209
 51
270.000001
  0
LINE
  8
0
  6
BYLAYER
 62
     1
 10
429.443406
 20
-745.276512
 30
0.0
 11
429.411729
 21
-745.881187
 31
0.0
  0
LINE
  8
0
  6
BYLAYER
 62
     1
 10
380.624619
 20
-747.776512
 30
0.0
 11
427.414475
 21
-747.776512
 31
0.0
  0
ARC
  8
0
  6
BYLAYER
 62
     1
 10
427.414475
 20
-745.776512
 30
0.0
 40
1.999995
 50
270.0
 51
357.000791
  0
LINE
  8
0
  6
BYLAYER
 62
     1
 10
467.228593
 20
-745.276451
 30
0.0
 11
267.228715
 21
-745.276451
 31
0.0
  0
LINE
  8
0
  6
BYLAYER
 62
     1
 10
267.228715
 20
-745.276451
 30
0.0
 11
267.123917
 21
-747.276451
 31
0.0
  0
LINE
  8
0
  6
BYLAYER
 62
     1
 10
467.228593
 20
-745.276451
 30
0.0
 11
467.333421
 21
-747.276451
 31
0.0
  0
CIRCLE
  8
0
  6
BYLAYER
 62
     1
 10
452.228654
 20
-761.776451
 30
0.0
 40
7.0
  0
CIRCLE
  8
0
  6
BYLAYER
 62
     1
 10
452.228654
 20
-876.776466
 30
0.0
 40
7.0
  0
LINE
  8
0
  6
BYLAYER
 62
     1
 10
239.728684
 20
-747.276451
 30
0.0
 11
300.986008
 21
-747.276451
 31
0.0
  0
ARC
  8
0
  6
BYLAYER
 62
     1
 10
300.986008
 20
-750.276451
 30
0.0
 40
3.000000
 50
45.000101
 51
90.000000
  0
LINE
  8
0
  6
BYLAYER
 62
     1
 10
492.228654
 20
-747.276451
 30
0.0
 11
433.471299
 21
-747.276451
 31
0.0
  0
ARC
  8
0
  6
BYLAYER
 62
     1
 10
433.471299
 20
-750.276451
 30
0.0
 40
3.000003
 50
90.0
 51
134.999998
  0
LINE
  8
0
  6
BYLAYER
 62
     1
 10
492.228654
 20
-891.276466
 30
0.0
 11
433.471299
 21
-891.276466
 31
0.0
  0
ARC
  8
0
  6
BYLAYER
 62
     1
 10
433.471299
 20
-888.276466
 30
0.0
 40
3.000000
 50
224.999995
 51
270.000000
  0
LINE
  8
0
  6
BYLAYER
 62
     1
 10
239.728684
 20
-891.276466
 30
0.0
 11
300.986008
 21
-891.276466
 31
0.0
  0
ARC
  8
0
  6
BYLAYER
 62
     1
 10
300.986008
 20
-888.276466
 30
0.0
 40
3.000014
 50
270.0
 51
314.999909
  0
LINE
  8
0
  6
BYLAYER
 62
     1
 10
302.243150
 20
-747.552544
 30
0.0
 11
306.002030
 21
-819.276573
 31
0.0
  0
LINE
  8
0
  6
BYLAYER
 62
     1
 10
302.243150
 20
-891.000374
 30
0.0
 11
306.002030
 21
-819.276451
 31
0.0
  0
CIRCLE
  8
0
  6
BYLAYER
 62
     1
 10
282.228654
 20
-761.776451
 30
0.0
 40
7.0
  0
CIRCLE
  8
0
  6
BYLAYER
 62
     1
 10
282.228654
 20
-876.776466
 30
0.0
 40
7.0
  0
ARC
  8
0
  6
BYLAYER
 62
     1
 10
346.089219
 20
-828.276466
 30
0.0
 40
3.0
 50
90.0
 51
177.273739
  0
ARC
  8
0
  6
BYLAYER
 62
     1
 10
320.368150
 20
-828.276466
 30
0.0
 40
2.999978
 50
2.726265
 51
89.999998
  0
LINE
  8
0
  6
BYLAYER
 62
     1
 10
320.368150
 20
-825.276466
 30
0.0
 11
311.377305
 21
-825.276466
 31
0.0
  0
ARC
  8
0
  6
BYLAYER
 62
     1
 10
311.377305
 20
-828.276466
 30
0.0
 40
3.000022
 50
90.0
 51
177.000047
  0
ARC
  8
0
  6
BYLAYER
 62
     1
 10
311.377305
 20
-810.276451
 30
0.0
 40
3.000022
 50
182.999947
 51
270.000001
  0
LINE
  8
0
  6
BYLAYER
 62
     1
 10
320.368150
 20
-813.276451
 30
0.0
 11
311.377305
 21
-813.276451
 31
0.0
  0
ARC
  8
0
  6
BYLAYER
 62
     1
 10
320.368150
 20
-810.276451
 30
0.0
 40
2.999978
 50
270.0
 51
357.273726
  0
ARC
  8
0
  6
BYLAYER
 62
     1
 10
346.089219
 20
-810.276451
 30
0.0
 40
3.0
 50
182.726261
 51
270.000000
  0
ARC
  8
0
  6
BYLAYER
 62
     1
 10
423.531663
 20
-801.660210
 30
0.0
 40
2.999990
 50
281.852483
 51
356.999918
  0
ARC
  8
0
  6
BYLAYER
 62
     1
 10
423.531602
 20
-836.892708
 30
0.0
 40
3.000005
 50
2.999942
 51
78.147486
  0
ARC
  8
0
  6
BYLAYER
 62
     1
 10
427.228684
 20
-819.276451
 30
0.0
 40
15.000008
 50
101.852293
 51
137.585022
  0
ARC
  8
0
  6
BYLAYER
 62
     1
 10
413.939652
 20
-807.135551
 30
0.0
 40
3.000008
 50
182.726398
 51
317.584945
  0
ARC
  8
0
  6
BYLAYER
 62
     1
 10
427.228684
 20
-819.276451
 30
0.0
 40
15.000025
 50
222.414947
 51
258.147464
  0
ARC
  8
0
  6
BYLAYER
 62
     1
 10
413.939622
 20
-831.417366
 30
0.0
 40
2.999978
 50
42.414846
 51
177.273612
  0
LINE
  8
0
  6
BYLAYER
 62
     1
 10
432.214219
 20
-891.000374
 30
0.0
 11
429.050385
 21
-830.631248
 31
0.0
  0
LINE
  8
0
  6
BYLAYER
 62
     1
 10
357.364732
 20
-828.133766
 30
0.0
 11
359.783067
 21
-878.919212
 31
0.0
  0
ARC
  8
0
  6
BYLAYER
 62
     1
 10
362.779710
 20
-878.776512
 30
0.0
 40
3.000039
 50
182.726316
 51
270.000001
  0
LINE
  8
0
  6
BYLAYER
 62
     1
 10
374.674241
 20
-878.919227
 30
0.0
 11
377.092606
 21
-828.133766
 31
0.0
  0
ARC
  8
0
  6
BYLAYER
 62
     1
 10
371.677659
 20
-878.776527
 30
0.0
 40
3.0
 50
270.0
 51
357.273671
  0
LINE
  8
0
  6
BYLAYER
 62
     1
 10
393.783067
 20
-878.919258
 30
0.0
 11
391.364732
 21
-828.133766
 31
0.0
  0
LINE
  8
0
  6
BYLAYER
 62
     1
 10
340.674241
 20
-878.919182
 30
0.0
 11
343.092606
 21
-828.133766
 31
0.0
  0
LINE
  8
0
  6
BYLAYER
 62
     1
 10
432.214219
 20
-747.552544
 30
0.0
 11
429.050324
 21
-807.921638
 31
0.0
  0
LINE
  8
0
  6
BYLAYER
 62
     1
 10
303.107346
 20
-890.397789
 30
0.0
 11
310.850007
 21
-882.655128
 31
0.0
  0
ARC
  8
0
  6
BYLAYER
 62
     1
 10
312.971330
 20
-884.776451
 30
0.0
 40
3.000003
 50
90.0
 51
134.999998
  0
LINE
  8
0
  6
BYLAYER
 62
     1
 10
431.349992
 20
-890.397789
 30
0.0
 11
423.607468
 21
-882.655266
 31
0.0
  0
ARC
  8
0
  6
BYLAYER
 62
     1
 10
421.486146
 20
-884.776588
 30
0.0
 40
3.000003
 50
45.000001
 51
90.000003
  0
LINE
  8
0
  6
BYLAYER
 62
     1
 10
429.228623
 20
-888.276413
 30
0.0
 11
426.212815
 21
-830.731499
 31
0.0
  0
LINE
  8
0
  6
BYLAYER
 62
     1
 10
305.228722
 20
-888.276413
 30
0.0
 11
308.844834
 21
-819.276451
 31
0.0
  0
LINE
  8
0
  6
BYLAYER
 62
     1
 10
408.674256
 20
-878.919266
 30
0.0
 11
410.943040
 21
-831.274666
 31
0.0
  0
ARC
  8
0
  6
BYLAYER
 62
     1
 10
405.677644
 20
-878.776573
 30
0.0
 40
3.000008
 50
270.0
 51
357.273753
  0
ARC
  8
0
  6
BYLAYER
 62
     1
 10
396.779664
 20
-878.776558
 30
0.0
 40
2.999993
 50
182.726261
 51
270.000001
  0
ARC
  8
0
  6
BYLAYER
 62
     1
 10
337.677644
 20
-878.776482
 30
0.0
 40
2.999993
 50
270.0
 51
357.273726
  0
LINE
  8
0
  6
BYLAYER
 62
     1
 10
325.783082
 20
-878.919159
 30
0.0
 11
323.364732
 21
-828.133766
 31
0.0
  0
ARC
  8
0
  6
BYLAYER
 62
     1
 10
328.779694
 20
-878.776466
 30
0.0
 40
3.000008
 50
182.726248
 51
270.000001
  0
LINE
  8
0
  6
BYLAYER
 62
     1
 10
312.971337
 20
-881.776451
 30
0.0
 11
421.486146
 21
-881.776573
 31
0.0
  0
ARC
  8
0
  6
BYLAYER
 62
     1
 10
362.779710
 20
-759.776390
 30
0.0
 40
3.000039
 50
90.0
 51
177.273678
  0
ARC
  8
0
  6
BYLAYER
 62
     1
 10
371.677659
 20
-759.776375
 30
0.0
 40
3.000000
 50
2.726329
 51
90.000000
  0
ARC
  8
0
  6
BYLAYER
 62
     1
 10
312.971330
 20
-753.776451
 30
0.0
 40
3.000003
 50
224.999996
 51
270.000001
  0
ARC
  8
0
  6
BYLAYER
 62
     1
 10
421.486146
 20
-753.776314
 30
0.0
 40
3.000003
 50
270.0
 51
314.999991
  0
ARC
  8
0
  6
BYLAYER
 62
     1
 10
405.677644
 20
-759.776329
 30
0.0
 40
3.000008
 50
2.726246
 51
89.999999
  0
ARC
  8
0
  6
BYLAYER
 62
     1
 10
396.779664
 20
-759.776344
 30
0.0
 40
2.999992
 50
90.0
 51
177.273732
  0
ARC
  8
0
  6
BYLAYER
 62
     1
 10
337.677644
 20
-759.776420
 30
0.0
 40
2.999993
 50
2.726274
 51
89.999999
  0
ARC
  8
0
  6
BYLAYER
 62
     1
 10
328.779694
 20
-759.776436
 30
0.0
 40
3.000008
 50
90.0
 51
177.273746
  0
LINE
  8
0
  6
BYLAYER
 62
     1
 10
312.971337
 20
-756.776451
 30
0.0
 11
421.486146
 21
-756.776329
 31
0.0
  0
LINE
  8
0
  6
BYLAYER
 62
     1
 10
303.107331
 20
-748.155113
 30
0.0
 11
310.850060
 21
-755.897743
 31
0.0
  0
LINE
  8
0
  6
BYLAYER
 62
     1
 10
308.844804
 20
-819.277000
 30
0.0
 11
305.228654
 21
-750.276405
 31
0.0
  0
LINE
  8
0
  6
BYLAYER
 62
     1
 10
431.349976
 20
-748.155113
 30
0.0
 11
423.607514
 21
-755.897667
 31
0.0
  0
LINE
  8
0
  6
BYLAYER
 62
     1
 10
426.212876
 20
-807.821403
 30
0.0
 11
429.228684
 21
-750.276436
 31
0.0
  0
LINE
  8
0
  6
BYLAYER
 62
     1
 10
408.674241
 20
-759.633629
 30
0.0
 11
410.943040
 21
-807.278252
 31
0.0
  0
LINE
  8
0
  6
BYLAYER
 62
     1
 10
393.783082
 20
-759.633644
 30
0.0
 11
391.364732
 21
-810.419151
 31
0.0
  0
LINE
  8
0
  6
BYLAYER
 62
     1
 10
374.674256
 20
-759.633675
 30
0.0
 11
377.092606
 21
-810.419151
 31
0.0
  0
LINE
  8
0
  6
BYLAYER
 62
     1
 10
357.364732
 20
-810.419151
 30
0.0
 11
359.783082
 21
-759.633690
 31
0.0
  0
LINE
  8
0
  6
BYLAYER
 62
     1
 10
340.674256
 20
-759.633720
 30
0.0
 11
343.092606
 21
-810.419151
 31
0.0
  0
LINE
  8
0
  6
BYLAYER
 62
     1
 10
325.783082
 20
-759.633736
 30
0.0
 11
323.364732
 21
-810.419151
 31
0.0
  0
LINE
  8
0
  6
BYLAYER
 62
     1
 10
244.728684
 20
-891.276451
 30
0.0
 11
244.728684
 21
-747.276451
 31
0.0
  0
LINE
  8
0
  6
BYLAYER
 62
     1
 10
487.228684
 20
-891.276451
 30
0.0
 11
487.228684
 21
-747.276451
 31
0.0
  0
CIRCLE
  8
0
  6
BYLAYER
 62
     1
 10
427.228684
 20
-819.276451
 30
0.0
 40
11.5
  0
LINE
  8
0
  6
BYLAYER
 62
     1
 10
432.228623
 20
-895.776451
 30
0.0
 11
432.228623
 21
-893.276451
 31
0.0
  0
LINE
  8
0
  6
BYLAYER
 62
     1
 10
431.228623
 20
-896.776451
 30
0.0
 11
432.228623
 21
-895.776451
 31
0.0
  0
LINE
  8
0
  6
BYLAYER
 62
     1
 10
302.228715
 20
-895.776451
 30
0.0
 11
302.228715
 21
-893.276451
 31
0.0
  0
LINE
  8
0
  6
BYLAYER
 62
     1
 10
303.228715
 20
-896.776451
 30
0.0
 11
302.228715
 21
-895.776451
 31
0.0
  0
LINE
  8
0
  6
BYLAYER
 62
     1
 10
431.228623
 20
-896.776451
 30
0.0
 11
303.228715
 21
-896.776451
 31
0.0
  0
LINE
  8
0
  6
BYLAYER
 62
     1
 10
355.861680
 20
-893.276390
 30
0.0
 11
355.830003
 21
-892.671715
 31
0.0
  0
ARC
  8
0
  6
BYLAYER
 62
     1
 10
353.832749
 20
-892.776390
 30
0.0
 40
1.999995
 50
2.999208
 51
89.999999
  0
LINE
  8
0
  6
BYLAYER
 62
     1
 10
305.013932
 20
-893.276390
 30
0.0
 11
305.045609
 21
-892.671715
 31
0.0
  0
LINE
  8
0
  6
BYLAYER
 62
     1
 10
353.832749
 20
-890.776390
 30
0.0
 11
307.042863
 21
-890.776390
 31
0.0
  0
ARC
  8
0
  6
BYLAYER
 62
     1
 10
307.042863
 20
-892.776390
 30
0.0
 40
1.999995
 50
90.0
 51
177.000764
  0
LINE
  8
0
  6
BYLAYER
 62
     1
 10
378.595689
 20
-893.276390
 30
0.0
 11
378.627366
 21
-892.671715
 31
0.0
  0
ARC
  8
0
  6
BYLAYER
 62
     1
 10
380.624619
 20
-892.776390
 30
0.0
 40
1.999995
 50
90.0
 51
177.000791
  0
LINE
  8
0
  6
BYLAYER
 62
     1
 10
429.443406
 20
-893.276390
 30
0.0
 11
429.411729
 21
-892.671715
 31
0.0
  0
LINE
  8
0
  6
BYLAYER
 62
     1
 10
380.624619
 20
-890.776390
 30
0.0
 11
427.414475
 21
-890.776390
 31
0.0
  0
ARC
  8
0
  6
BYLAYER
 62
     1
 10
427.414475
 20
-892.776390
 30
0.0
 40
1.999995
 50
2.999208
 51
89.999999
  0
LINE
  8
0
  6
BYLAYER
 62
     1
 10
467.228593
 20
-893.276451
 30
0.0
 11
267.228715
 21
-893.276451
 31
0.0
  0
LINE
  8
0
  6
BYLAYER
 62
     1
 10
267.228715
 20
-893.276451
 30
0.0
 11
267.123917
 21
-891.276451
 31
0.0
  0
LINE
  8
0
  6
BYLAYER
 62
     1
 10
467.228593
 20
-893.276451
 30
0.0
 11
467.333421
 21
-891.276451
 31
0.0
  0
ARC
  8
0
  6
BYLAYER
 62
     1
 10
354.368150
 20
-828.276466
 30
0.0
 40
2.999978
 50
2.726265
 51
89.999998
  0
LINE
  8
0
  6
BYLAYER
 62
     1
 10
354.368150
 20
-825.276466
 30
0.0
 11
346.089219
 21
-825.276466
 31
0.0
  0
LINE
  8
0
  6
BYLAYER
 62
     1
 10
354.368150
 20
-813.276451
 30
0.0
 11
346.089219
 21
-813.276451
 31
0.0
  0
ARC
  8
0
  6
BYLAYER
 62
     1
 10
354.368150
 20
-810.276451
 30
0.0
 40
2.999978
 50
270.0
 51
357.273726
  0
LINE
  8
0
  6
BYLAYER
 62
     1
 10
380.089219
 20
-825.276466
 30
0.0
 11
388.368150
 21
-825.276466
 31
0.0
  0
ARC
  8
0
  6
BYLAYER
 62
     1
 10
380.089219
 20
-828.276466
 30
0.0
 40
3.000008
 50
90.0
 51
177.273732
  0
ARC
  8
0
  6
BYLAYER
 62
     1
 10
388.368150
 20
-828.276466
 30
0.0
 40
3.0
 50
2.726261
 51
90.000000
  0
LINE
  8
0
  6
BYLAYER
 62
     1
 10
380.089219
 20
-813.276451
 30
0.0
 11
388.368150
 21
-813.276451
 31
0.0
  0
ARC
  8
0
  6
BYLAYER
 62
     1
 10
380.089219
 20
-810.276451
 30
0.0
 40
3.000008
 50
182.726261
 51
270.000001
  0
ARC
  8
0
  6
BYLAYER
 62
     1
 10
388.368150
 20
-810.276451
 30
0.0
 40
3.0
 50
270.0
 51
357.273726
  0
LINE
  8
0
  6
BYLAYER
 62
     1
 10
539.228654
 20
-739.276459
 30
0.0
 11
539.228654
 21
-819.276458
 31
0.0
  0
ARC
  8
0
  6
BYLAYER
 62
     1
 10
547.228654
 20
-741.276459
 30
0.0
 40
2.000000
 50
0.0
 51
90.0
  0
ARC
  8
0
  6
BYLAYER
 62
     1
 10
551.228654
 20
-762.276459
 30
0.0
 40
2.000000
 50
180.000000
 51
270.000000
  0
LINE
  8
0
  6
BYLAYER
 62
     1
 10
539.228654
 20
-739.276459
 30
0.0
 11
547.228654
 21
-739.276459
 31
0.0
  0
LINE
  8
0
  6
BYLAYER
 62
     1
 10
551.228654
 20
-764.276459
 30
0.0
 11
582.728654
 21
-764.276459
 31
0.0
  0
LINE
  8
0
  6
BYLAYER
 62
     1
 10
587.728654
 20
-793.419316
 30
0.0
 11
587.728654
 21
-769.276459
 31
0.0
  0
ARC
  8
0
  6
BYLAYER
 62
     1
 10
589.728654
 20
-793.419316
 30
0.0
 40
2.000000
 50
180.000000
 51
270.000000
  0
ARC
  8
0
  6
BYLAYER
 62
     1
 10
582.728654
 20
-769.276459
 30
0.0
 40
5.000000
 50
0.0
 51
90.0
  0
LINE
  8
0
  6
BYLAYER
 62
     1
 10
549.228654
 20
-741.276459
 30
0.0
 11
549.228654
 21
-819.276458
 31
0.0
  0
LINE
  8
0
  6
BYLAYER
 62
     1
 10
581.740654
 20
-751.601963
 30
0.0
 11
551.368654
 21
-751.601963
 31
0.0
  0
ARC
  8
0
  6
BYLAYER
 62
     1
 10
551.368654
 20
-749.601963
 30
0.0
 40
2.000000
 50
180.000000
 51
270.000000
  0
ARC
  8
0
  6
BYLAYER
 62
     1
 10
581.740654
 20
-749.601963
 30
0.0
 40
2.000000
 50
270.0
 51
360.0
  0
ARC
  8
0
  6
BYLAYER
 62
     1
 10
586.228654
 20
-721.276459
 30
0.0
 40
2.000000
 50
90.0
 51
180.0
  0
LINE
  8
0
  6
BYLAYER
 62
     1
 10
596.228654
 20
-819.276458
 30
0.0
 11
596.228654
 21
-719.276459
 31
0.0
  0
LINE
  8
0
  6
BYLAYER
 62
     1
 10
596.228654
 20
-719.276459
 30
0.0
 11
586.228654
 21
-719.276459
 31
0.0
  0
LINE
  8
0
  6
BYLAYER
 62
     1
 10
584.228654
 20
-721.276459
 30
0.0
 11
584.228654
 21
-764.506762
 31
0.0
  0
LINE
  8
0
  6
BYLAYER
 62
     1
 10
539.228654
 20
-899.276458
 30
0.0
 11
539.228654
 21
-819.276458
 31
0.0
  0
ARC
  8
0
  6
BYLAYER
 62
     1
 10
547.228654
 20
-897.276458
 30
0.0
 40
2.000000
 50
270.0
 51
360.0
  0
ARC
  8
0
  6
BYLAYER
 62
     1
 10
551.228654
 20
-876.276458
 30
0.0
 40
2.000000
 50
90.0
 51
180.0
  0
LINE
  8
0
  6
BYLAYER
 62
     1
 10
539.228654
 20
-899.276458
 30
0.0
 11
547.228654
 21
-899.276458
 31
0.0
  0
LINE
  8
0
  6
BYLAYER
 62
     1
 10
551.228654
 20
-874.276458
 30
0.0
 11
582.728654
 21
-874.276458
 31
0.0
  0
LINE
  8
0
  6
BYLAYER
 62
     1
 10
587.728654
 20
-845.133601
 30
0.0
 11
587.728654
 21
-869.276458
 31
0.0
  0
ARC
  8
0
  6
BYLAYER
 62
     1
 10
589.728654
 20
-845.133601
 30
0.0
 40
2.0
 50
90.0
 51
180.0
  0
ARC
  8
0
  6
BYLAYER
 62
     1
 10
582.728654
 20
-869.276458
 30
0.0
 40
5.000000
 50
270.0
 51
360.0
  0
LINE
  8
0
  6
BYLAYER
 62
     1
 10
549.228654
 20
-897.276458
 30
0.0
 11
549.228654
 21
-819.276458
 31
0.0
  0
LINE
  8
0
  6
BYLAYER
 62
     1
 10
581.740654
 20
-886.950954
 30
0.0
 11
551.368654
 21
-886.950954
 31
0.0
  0
ARC
  8
0
  6
BYLAYER
 62
     1
 10
551.368654
 20
-888.950954
 30
0.0
 40
2.0
 50
90.0
 51
180.0
  0
ARC
  8
0
  6
BYLAYER
 62
     1
 10
581.740654
 20
-888.950954
 30
0.0
 40
2.000000
 50
0.0
 51
90.0
  0
ARC
  8
0
  6
BYLAYER
 62
     1
 10
586.228654
 20
-917.276458
 30
0.0
 40
2.000000
 50
180.000000
 51
270.000000
  0
LINE
  8
0
  6
BYLAYER
 62
     1
 10
596.228654
 20
-819.276458
 30
0.0
 11
596.228654
 21
-919.276458
 31
0.0
  0
LINE
  8
0
  6
BYLAYER
 62
     1
 10
596.228654
 20
-919.276458
 30
0.0
 11
586.228654
 21
-919.276458
 31
0.0
  0
LINE
  8
0
  6
BYLAYER
 62
     1
 10
584.228654
 20
-917.276458
 30
0.0
 11
584.228654
 21
-874.046155
 31
0.0
  0
LINE
  8
0
  6
BYLAYER
 62
     1
 10
527.228654
 20
-819.276458
 30
0.0
 11
527.228654
 21
-898.856906
 31
0.0
  0
LINE
  8
0
  6
BYLAYER
 62
     1
 10
539.228654
 20
-819.276458
 30
0.0
 11
539.228654
 21
-739.276444
 31
0.0
  0
LINE
  8
0
  6
BYLAYER
 62
     1
 10
527.228654
 20
-739.695493
 30
0.0
 11
527.228654
 21
-819.276458
 31
0.0
  0
LINE
  8
0
  6
BYLAYER
 62
     1
 10
539.228654
 20
-899.276444
 30
0.0
 11
539.228654
 21
-819.276458
 31
0.0
  0
LINE
  8
0
  6
BYLAYER
 62
     1
 10
539.228654
 20
-739.276444
 30
0.0
 11
527.228654
 21
-739.695493
 31
0.0
  0
LINE
  8
0
  6
BYLAYER
 62
     1
 10
527.228654
 20
-898.856906
 30
0.0
 11
539.228654
 21
-899.275956
 31
0.0
  0
LINE
  8
0
  6
BYLAYER
 62
     1
 10
492.228654
 20
-873.276458
 30
0.0
 11
492.228654
 21
-819.276458
 31
0.0
  0
LINE
  8
0
  6
BYLAYER
 62
     1
 10
526.228654
 20
-899.276458
 30
0.0
 11
527.228654
 21
-898.276458
 31
0.0
  0
LINE
  8
0
  6
BYLAYER
 62
     1
 10
527.228654
 20
-898.276458
 30
0.0
 11
527.228654
 21
-819.276458
 31
0.0
  0
ARC
  8
0
  6
BYLAYER
 62
     1
 10
520.728654
 20
-896.276458
 30
0.0
 40
3.0
 50
180.000000
 51
269.999996
  0
LINE
  8
0
  6
BYLAYER
 62
     1
 10
492.228654
 20
-873.276458
 30
0.0
 11
515.249589
 21
-877.335663
 31
0.0
  0
LINE
  8
0
  6
BYLAYER
 62
     1
 10
517.728654
 20
-819.276458
 30
0.0
 11
517.728654
 21
-896.276458
 31
0.0
  0
ARC
  8
0
  6
BYLAYER
 62
     1
 10
514.728654
 20
-880.290085
 30
0.0
 40
2.999997
 50
0.0
 51
80.000175
  0
LINE
  8
0
  6
BYLAYER
 62
     1
 10
520.728654
 20
-899.276458
 30
0.0
 11
526.228654
 21
-899.276458
 31
0.0
  0
LINE
  8
0
  6
BYLAYER
 62
     1
 10
492.228654
 20
-765.276459
 30
0.0
 11
492.228654
 21
-819.276458
 31
0.0
  0
LINE
  8
0
  6
BYLAYER
 62
     1
 10
526.228654
 20
-739.276459
 30
0.0
 11
527.228654
 21
-740.276459
 31
0.0
  0
LINE
  8
0
  6
BYLAYER
 62
     1
 10
527.228654
 20
-740.276459
 30
0.0
 11
527.228654
 21
-819.276458
 31
0.0
  0
ARC
  8
0
  6
BYLAYER
 62
     1
 10
520.728654
 20
-742.276459
 30
0.0
 40
3.0
 50
90.0
 51
179.999996
  0
LINE
  8
0
  6
BYLAYER
 62
     1
 10
492.228654
 20
-765.276459
 30
0.0
 11
515.249589
 21
-761.217254
 31
0.0
  0
LINE
  8
0
  6
BYLAYER
 62
     1
 10
517.728654
 20
-819.276458
 30
0.0
 11
517.728654
 21
-742.276459
 31
0.0
  0
ARC
  8
0
  6
BYLAYER
 62
     1
 10
514.728654
 20
-758.262832
 30
0.0
 40
2.999997
 50
279.999825
 51
360.0
  0
LINE
  8
0
  6
BYLAYER
 62
     1
 10
520.728654
 20
-739.276459
 30
0.0
 11
526.228654
 21
-739.276459
 31
0.0
  0
ENDSEC
  0
EOF
