  0
SECTION
  2
HEADER
  9
$EXTMIN
 10
235.658703
 20
959.0
 30
0.0
  9
$EXTMAX
 10
1269.938567
 20
0.0
 30
0.0
  0
ENDSEC
  0
SECTION
  2
TABLES
  0
ENDSEC
  0
SECTION
  2
BLOCKS
  0
ENDSEC
  0
SECTION
  2
ENTITIES
  0
LINE
  8
0
  6
BYLAYER
 62
     7
 10
636.718430
 20
-238.474403
 30
0.0
 11
636.718430
 21
-142.474403
 31
0.0
  0
LINE
  8
0
  6
BYLAYER
 62
     7
 10
636.718430
 20
-242.474403
 30
0.0
 11
636.718430
 21
-238.474403
 31
0.0
  0
LINE
  8
0
  6
BYLAYER
 62
     7
 10
636.718430
 20
-142.474403
 30
0.0
 11
636.718430
 21
-42.474403
 31
0.0
  0
LINE
  8
0
  6
BYLAYER
 62
     7
 10
636.718430
 20
-74.099022
 30
0.0
 11
636.718430
 21
-65.974403
 31
0.0
  0
LINE
  8
0
  6
BYLAYER
 62
     7
 10
624.718430
 20
-42.474403
 30
0.0
 11
636.718430
 21
-42.474403
 31
0.0
  0
LINE
  8
0
  6
BYLAYER
 62
     7
 10
624.718430
 20
-242.474403
 30
0.0
 11
636.718430
 21
-242.474403
 31
0.0
  0
LINE
  8
0
  6
BYLAYER
 62
     7
 10
656.718430
 20
-216.526850
 30
0.0
 11
656.718430
 21
-216.798043
 31
0.0
  0
LINE
  8
0
  6
BYLAYER
 62
     7
 10
656.718430
 20
-210.009315
 30
0.0
 11
656.718430
 21
-218.974403
 31
0.0
  0
LINE
  8
0
  6
BYLAYER
 62
     7
 10
656.718430
 20
-218.974403
 30
0.0
 11
636.718430
 21
-219.381651
 31
0.0
  0
LINE
  8
0
  6
BYLAYER
 62
     7
 10
658.218430
 20
-209.983131
 30
0.0
 11
656.718430
 21
-210.009315
 31
0.0
  0
LINE
  8
0
  6
BYLAYER
 62
     7
 10
637.209703
 20
-74.598945
 30
0.0
 11
658.218430
 21
-74.965675
 31
0.0
  0
ARC
  8
0
  6
BYLAYER
 62
     7
 10
637.218430
 20
-74.099022
 30
0.0
 40
0.5
 50
180.000000
 51
268.999943
  0
LINE
  8
0
  6
BYLAYER
 62
     7
 10
658.218430
 20
-74.965675
 30
0.0
 11
658.218430
 21
-209.983131
 31
0.0
  0
LINE
  8
0
  6
BYLAYER
 62
     7
 10
624.718430
 20
-142.474403
 30
0.0
 11
624.718430
 21
-242.474403
 31
0.0
  0
LINE
  8
0
  6
BYLAYER
 62
     7
 10
624.718430
 20
-142.474403
 30
0.0
 11
624.718430
 21
-42.474403
 31
0.0
  0
LINE
  8
0
  6
BYLAYER
 62
     7
 10
667.518357
 20
-58.974464
 30
0.0
 11
661.718308
 21
-58.974464
 31
0.0
  0
ARC
  8
0
  6
BYLAYER
 62
     7
 10
667.518357
 20
-60.474464
 30
0.0
 40
1.5
 50
0.0
 51
90.000003
  0
ARC
  8
0
  6
BYLAYER
 62
     7
 10
696.918382
 20
-60.474464
 30
0.0
 40
1.5
 50
90.0
 51
180.000003
  0
LINE
  8
0
  6
BYLAYER
 62
     7
 10
706.518357
 20
-58.974464
 30
0.0
 11
696.918382
 21
-58.974464
 31
0.0
  0
ARC
  8
0
  6
BYLAYER
 62
     7
 10
706.518357
 20
-60.474464
 30
0.0
 40
1.5
 50
0.0
 51
90.000003
  0
LINE
  8
0
  6
BYLAYER
 62
     7
 10
741.718369
 20
-58.974403
 30
0.0
 11
735.918382
 21
-58.974403
 31
0.0
  0
ARC
  8
0
  6
BYLAYER
 62
     7
 10
735.918382
 20
-60.474403
 30
0.0
 40
1.500000
 50
90.0
 51
180.000003
  0
ARC
  8
0
  6
BYLAYER
 62
     7
 10
682.218369
 20
-67.974403
 30
0.0
 40
13.200012
 50
180.000000
 51
359.999995
  0
ARC
  8
0
  6
BYLAYER
 62
     7
 10
721.218369
 20
-67.974403
 30
0.0
 40
13.200012
 50
180.000000
 51
359.999995
  0
LINE
  8
0
  6
BYLAYER
 62
     7
 10
661.718308
 20
-64.474464
 30
0.0
 11
667.518357
 21
-64.474464
 31
0.0
  0
LINE
  8
0
  6
BYLAYER
 62
     7
 10
669.018357
 20
-60.474464
 30
0.0
 11
669.018357
 21
-65.974464
 31
0.0
  0
LINE
  8
0
  6
BYLAYER
 62
     7
 10
669.018357
 20
-65.974464
 30
0.0
 11
669.018357
 21
-67.974403
 31
0.0
  0
ARC
  8
0
  6
BYLAYER
 62
     7
 10
667.518357
 20
-65.974464
 30
0.0
 40
1.5
 50
0.0
 51
90.000003
  0
ARC
  8
0
  6
BYLAYER
 62
     7
 10
696.918382
 20
-65.974403
 30
0.0
 40
1.5
 50
90.0
 51
180.000003
  0
LINE
  8
0
  6
BYLAYER
 62
     7
 10
696.918382
 20
-64.474403
 30
0.0
 11
706.518357
 21
-64.474403
 31
0.0
  0
LINE
  8
0
  6
BYLAYER
 62
     7
 10
708.018357
 20
-60.474464
 30
0.0
 11
708.018357
 21
-65.974403
 31
0.0
  0
LINE
  8
0
  6
BYLAYER
 62
     7
 10
708.018357
 20
-65.974403
 30
0.0
 11
708.018357
 21
-67.974403
 31
0.0
  0
ARC
  8
0
  6
BYLAYER
 62
     7
 10
706.518357
 20
-65.974403
 30
0.0
 40
1.5
 50
0.0
 51
90.000003
  0
LINE
  8
0
  6
BYLAYER
 62
     7
 10
734.418382
 20
-67.974403
 30
0.0
 11
734.418382
 21
-65.974403
 31
0.0
  0
LINE
  8
0
  6
BYLAYER
 62
     7
 10
734.418382
 20
-65.974403
 30
0.0
 11
734.418382
 21
-60.474403
 31
0.0
  0
LINE
  8
0
  6
BYLAYER
 62
     7
 10
735.918382
 20
-64.474403
 30
0.0
 11
741.718369
 21
-64.474403
 31
0.0
  0
ARC
  8
0
  6
BYLAYER
 62
     7
 10
735.918382
 20
-65.974403
 30
0.0
 40
1.500000
 50
90.0
 51
180.000003
  0
LINE
  8
0
  6
BYLAYER
 62
     7
 10
695.418382
 20
-60.474464
 30
0.0
 11
695.418382
 21
-67.974403
 31
0.0
  0
ARC
  8
0
  6
BYLAYER
 62
     7
 10
662.618394
 20
-136.499428
 30
0.0
 40
0.899994
 50
90.0
 51
269.999998
  0
LINE
  8
0
  6
BYLAYER
 62
     7
 10
662.618394
 20
-135.599434
 30
0.0
 11
776.718521
 21
-135.599434
 31
0.0
  0
LINE
  8
0
  6
BYLAYER
 62
     7
 10
662.618394
 20
-137.399422
 30
0.0
 11
776.718521
 21
-137.399422
 31
0.0
  0
ARC
  8
0
  6
BYLAYER
 62
     7
 10
662.618394
 20
-124.549446
 30
0.0
 40
0.900024
 50
90.0
 51
269.999998
  0
ARC
  8
0
  6
BYLAYER
 62
     7
 10
662.618394
 20
-112.599434
 30
0.0
 40
0.899994
 50
90.0
 51
269.999998
  0
LINE
  8
0
  6
BYLAYER
 62
     7
 10
662.618394
 20
-111.699440
 30
0.0
 11
776.718521
 21
-111.699440
 31
0.0
  0
LINE
  8
0
  6
BYLAYER
 62
     7
 10
662.618394
 20
-113.499428
 30
0.0
 11
776.718521
 21
-113.499428
 31
0.0
  0
ARC
  8
0
  6
BYLAYER
 62
     7
 10
662.618394
 20
-100.649452
 30
0.0
 40
0.900024
 50
90.0
 51
269.999998
  0
LINE
  8
0
  6
BYLAYER
 62
     7
 10
662.618394
 20
-99.749428
 30
0.0
 11
776.718521
 21
-99.749428
 31
0.0
  0
LINE
  8
0
  6
BYLAYER
 62
     7
 10
662.618394
 20
-101.549446
 30
0.0
 11
776.718521
 21
-101.549446
 31
0.0
  0
ARC
  8
0
  6
BYLAYER
 62
     7
 10
662.618394
 20
-88.699440
 30
0.0
 40
0.899994
 50
90.0
 51
269.999998
  0
LINE
  8
0
  6
BYLAYER
 62
     7
 10
662.618394
 20
-87.799446
 30
0.0
 11
776.718521
 21
-87.799446
 31
0.0
  0
LINE
  8
0
  6
BYLAYER
 62
     7
 10
662.618394
 20
-89.599434
 30
0.0
 11
776.718521
 21
-89.599434
 31
0.0
  0
ARC
  8
0
  6
BYLAYER
 62
     7
 10
662.618394
 20
-148.449440
 30
0.0
 40
0.899994
 50
90.0
 51
269.999998
  0
LINE
  8
0
  6
BYLAYER
 62
     7
 10
662.618394
 20
-147.549446
 30
0.0
 11
776.718521
 21
-147.549446
 31
0.0
  0
LINE
  8
0
  6
BYLAYER
 62
     7
 10
662.618394
 20
-149.349434
 30
0.0
 11
776.718521
 21
-149.349434
 31
0.0
  0
ARC
  8
0
  6
BYLAYER
 62
     7
 10
662.618394
 20
-160.399422
 30
0.0
 40
0.899994
 50
90.0
 51
269.999998
  0
ARC
  8
0
  6
BYLAYER
 62
     7
 10
662.618394
 20
-172.349434
 30
0.0
 40
0.899994
 50
90.0
 51
269.999998
  0
LINE
  8
0
  6
BYLAYER
 62
     7
 10
662.618394
 20
-171.449440
 30
0.0
 11
776.718521
 21
-171.449440
 31
0.0
  0
LINE
  8
0
  6
BYLAYER
 62
     7
 10
662.618394
 20
-173.249428
 30
0.0
 11
776.718521
 21
-173.249428
 31
0.0
  0
LINE
  8
0
  6
BYLAYER
 62
     7
 10
672.718430
 20
-89.599434
 30
0.0
 11
672.718430
 21
-99.749428
 31
0.0
  0
LINE
  8
0
  6
BYLAYER
 62
     7
 10
774.718430
 20
-89.599434
 30
0.0
 11
774.718430
 21
-99.749428
 31
0.0
  0
LINE
  8
0
  6
BYLAYER
 62
     7
 10
741.718369
 20
-87.799446
 30
0.0
 11
741.718369
 21
-54.474403
 31
0.0
  0
LINE
  8
0
  6
BYLAYER
 62
     7
 10
672.718430
 20
-101.549446
 30
0.0
 11
672.718430
 21
-111.699440
 31
0.0
  0
LINE
  8
0
  6
BYLAYER
 62
     7
 10
672.718430
 20
-113.499428
 30
0.0
 11
672.718430
 21
-123.649422
 31
0.0
  0
LINE
  8
0
  6
BYLAYER
 62
     7
 10
672.718430
 20
-125.449440
 30
0.0
 11
672.718430
 21
-135.599434
 31
0.0
  0
LINE
  8
0
  6
BYLAYER
 62
     7
 10
672.718430
 20
-137.399422
 30
0.0
 11
672.718430
 21
-147.549446
 31
0.0
  0
LINE
  8
0
  6
BYLAYER
 62
     7
 10
672.718430
 20
-149.349434
 30
0.0
 11
672.718430
 21
-159.499428
 31
0.0
  0
LINE
  8
0
  6
BYLAYER
 62
     7
 10
672.718430
 20
-161.299446
 30
0.0
 11
672.718430
 21
-171.449440
 31
0.0
  0
LINE
  8
0
  6
BYLAYER
 62
     7
 10
672.718430
 20
-185.199440
 30
0.0
 11
672.718430
 21
-187.563503
 31
0.0
  0
LINE
  8
0
  6
BYLAYER
 62
     7
 10
672.718430
 20
-173.249428
 30
0.0
 11
672.718430
 21
-183.399422
 31
0.0
  0
LINE
  8
0
  6
BYLAYER
 62
     7
 10
774.718430
 20
-101.549446
 30
0.0
 11
774.718430
 21
-111.699440
 31
0.0
  0
LINE
  8
0
  6
BYLAYER
 62
     7
 10
774.718430
 20
-113.499428
 30
0.0
 11
774.718430
 21
-123.649422
 31
0.0
  0
LINE
  8
0
  6
BYLAYER
 62
     7
 10
774.718430
 20
-125.449440
 30
0.0
 11
774.718430
 21
-135.599434
 31
0.0
  0
LINE
  8
0
  6
BYLAYER
 62
     7
 10
774.718430
 20
-137.399422
 30
0.0
 11
774.718430
 21
-147.549446
 31
0.0
  0
LINE
  8
0
  6
BYLAYER
 62
     7
 10
774.718430
 20
-149.349434
 30
0.0
 11
774.718430
 21
-159.499428
 31
0.0
  0
LINE
  8
0
  6
BYLAYER
 62
     7
 10
774.718430
 20
-161.299446
 30
0.0
 11
774.718430
 21
-171.449440
 31
0.0
  0
LINE
  8
0
  6
BYLAYER
 62
     7
 10
774.718430
 20
-185.199440
 30
0.0
 11
774.718430
 21
-187.563503
 31
0.0
  0
LINE
  8
0
  6
BYLAYER
 62
     7
 10
774.718430
 20
-173.249428
 30
0.0
 11
774.718430
 21
-183.399422
 31
0.0
  0
CIRCLE
  8
0
  6
BYLAYER
 62
     7
 10
696.248399
 20
-124.549446
 30
0.0
 40
3.0
  0
CIRCLE
  8
0
  6
BYLAYER
 62
     7
 10
751.248399
 20
-124.549446
 30
0.0
 40
3.0
  0
LINE
  8
0
  6
BYLAYER
 62
     7
 10
754.110215
 20
-123.649422
 30
0.0
 11
776.718521
 21
-123.649422
 31
0.0
  0
LINE
  8
0
  6
BYLAYER
 62
     7
 10
754.110215
 20
-125.449440
 30
0.0
 11
776.718521
 21
-125.449440
 31
0.0
  0
LINE
  8
0
  6
BYLAYER
 62
     7
 10
699.110215
 20
-123.649422
 30
0.0
 11
748.386582
 21
-123.649422
 31
0.0
  0
LINE
  8
0
  6
BYLAYER
 62
     7
 10
699.110215
 20
-125.449440
 30
0.0
 11
748.386582
 21
-125.449440
 31
0.0
  0
LINE
  8
0
  6
BYLAYER
 62
     7
 10
662.618394
 20
-123.649422
 30
0.0
 11
693.386582
 21
-123.649422
 31
0.0
  0
LINE
  8
0
  6
BYLAYER
 62
     7
 10
662.618394
 20
-125.449440
 30
0.0
 11
693.386582
 21
-125.449440
 31
0.0
  0
LINE
  8
0
  6
BYLAYER
 62
     7
 10
662.618394
 20
-159.499428
 30
0.0
 11
776.718521
 21
-159.499428
 31
0.0
  0
LINE
  8
0
  6
BYLAYER
 62
     7
 10
662.618394
 20
-161.299446
 30
0.0
 11
776.718521
 21
-161.299446
 31
0.0
  0
ARC
  8
0
  6
BYLAYER
 62
     7
 10
662.618394
 20
-184.299415
 30
0.0
 40
0.899994
 50
90.0
 51
269.999998
  0
LINE
  8
0
  6
BYLAYER
 62
     7
 10
662.618394
 20
-183.399422
 30
0.0
 11
776.718521
 21
-183.399422
 31
0.0
  0
LINE
  8
0
  6
BYLAYER
 62
     7
 10
662.618394
 20
-185.199440
 30
0.0
 11
776.718521
 21
-185.199440
 31
0.0
  0
LINE
  8
0
  6
BYLAYER
 62
     7
 10
682.718430
 20
-149.349434
 30
0.0
 11
682.718430
 21
-147.549446
 31
0.0
  0
LINE
  8
0
  6
BYLAYER
 62
     7
 10
764.718430
 20
-147.549446
 30
0.0
 11
764.718430
 21
-149.349434
 31
0.0
  0
LINE
  8
0
  6
BYLAYER
 62
     7
 10
764.718430
 20
-137.399422
 30
0.0
 11
764.718430
 21
-135.599434
 31
0.0
  0
LINE
  8
0
  6
BYLAYER
 62
     7
 10
682.718430
 20
-135.599434
 30
0.0
 11
682.718430
 21
-137.399422
 31
0.0
  0
LINE
  8
0
  6
BYLAYER
 62
     7
 10
764.718430
 20
-125.449440
 30
0.0
 11
764.718430
 21
-123.649422
 31
0.0
  0
LINE
  8
0
  6
BYLAYER
 62
     7
 10
682.718430
 20
-123.649422
 30
0.0
 11
682.718430
 21
-125.449440
 31
0.0
  0
LINE
  8
0
  6
BYLAYER
 62
     7
 10
764.718430
 20
-113.499428
 30
0.0
 11
764.718430
 21
-111.699440
 31
0.0
  0
LINE
  8
0
  6
BYLAYER
 62
     7
 10
682.718430
 20
-111.699440
 30
0.0
 11
682.718430
 21
-113.499428
 31
0.0
  0
LINE
  8
0
  6
BYLAYER
 62
     7
 10
682.718430
 20
-99.749428
 30
0.0
 11
682.718430
 21
-101.549446
 31
0.0
  0
LINE
  8
0
  6
BYLAYER
 62
     7
 10
764.718430
 20
-101.549446
 30
0.0
 11
764.718430
 21
-99.749428
 31
0.0
  0
ARC
  8
0
  6
BYLAYER
 62
     7
 10
669.618424
 20
-184.299446
 30
0.0
 40
0.900024
 50
90.0
 51
269.999998
  0
ARC
  8
0
  6
BYLAYER
 62
     7
 10
669.618424
 20
-172.349434
 30
0.0
 40
0.899994
 50
90.0
 51
269.999998
  0
ARC
  8
0
  6
BYLAYER
 62
     7
 10
669.618424
 20
-160.399422
 30
0.0
 40
0.899994
 50
90.0
 51
269.999998
  0
ARC
  8
0
  6
BYLAYER
 62
     7
 10
669.618424
 20
-148.449440
 30
0.0
 40
0.899994
 50
90.0
 51
269.999998
  0
ARC
  8
0
  6
BYLAYER
 62
     7
 10
669.618424
 20
-136.499428
 30
0.0
 40
0.899994
 50
90.0
 51
269.999998
  0
ARC
  8
0
  6
BYLAYER
 62
     7
 10
669.618424
 20
-124.549446
 30
0.0
 40
0.900024
 50
90.0
 51
269.999998
  0
ARC
  8
0
  6
BYLAYER
 62
     7
 10
669.618424
 20
-112.599434
 30
0.0
 40
0.899994
 50
90.0
 51
269.999998
  0
LINE
  8
0
  6
BYLAYER
 62
     7
 10
661.718306
 20
-54.474403
 30
0.0
 11
661.718432
 21
-209.974403
 31
0.0
  0
ARC
  8
0
  6
BYLAYER
 62
     7
 10
669.618424
 20
-88.699440
 30
0.0
 40
0.899994
 50
90.0
 51
269.999998
  0
ARC
  8
0
  6
BYLAYER
 62
     7
 10
669.618424
 20
-100.649452
 30
0.0
 40
0.900024
 50
90.0
 51
269.999998
  0
LINE
  8
0
  6
BYLAYER
 62
     7
 10
741.718369
 20
-67.019361
 30
0.0
 11
776.828367
 21
-67.019361
 31
0.0
  0
LINE
  8
0
  6
BYLAYER
 62
     7
 10
741.718369
 20
-69.426393
 30
0.0
 11
776.814423
 21
-69.426393
 31
0.0
  0
LINE
  8
0
  6
BYLAYER
 62
     7
 10
741.718369
 20
-74.483801
 30
0.0
 11
776.723543
 21
-74.483801
 31
0.0
  0
LINE
  8
0
  6
BYLAYER
 62
     7
 10
661.718323
 20
-75.474403
 30
0.0
 11
658.218430
 21
-75.474403
 31
0.0
  0
LINE
  8
0
  6
BYLAYER
 62
     7
 10
661.718323
 20
-209.474403
 30
0.0
 11
658.218430
 21
-209.474403
 31
0.0
  0
LINE
  8
0
  6
BYLAYER
 62
     7
 10
666.125982
 20
-219.203050
 30
0.0
 11
776.718521
 21
-219.203050
 31
0.0
  0
LINE
  8
0
  6
BYLAYER
 62
     7
 10
666.165665
 20
-216.796018
 30
0.0
 11
776.718521
 21
-216.796018
 31
0.0
  0
LINE
  8
0
  6
BYLAYER
 62
     7
 10
666.193262
 20
-212.371613
 30
0.0
 11
776.718521
 21
-212.371613
 31
0.0
  0
LINE
  8
0
  6
BYLAYER
 62
     7
 10
666.285157
 20
-204.539283
 30
0.0
 11
776.718521
 21
-204.539283
 31
0.0
  0
LINE
  8
0
  6
BYLAYER
 62
     7
 10
776.718521
 20
-187.563503
 30
0.0
 11
670.212968
 21
-187.563503
 31
0.0
  0
LINE
  8
0
  6
BYLAYER
 62
     7
 10
664.716349
 20
-218.215821
 30
0.0
 11
661.718430
 21
-209.974403
 31
0.0
  0
ARC
  8
0
  6
BYLAYER
 62
     7
 10
666.125982
 20
-217.703050
 30
0.0
 40
1.500000
 50
199.989488
 51
270.000000
  0
LINE
  8
0
  6
BYLAYER
 62
     7
 10
664.738924
 20
-215.759064
 30
0.0
 11
661.718430
 21
-206.452289
 31
0.0
  0
ARC
  8
0
  6
BYLAYER
 62
     7
 10
666.165665
 20
-215.296018
 30
0.0
 40
1.5
 50
197.980729
 51
270.0
  0
LINE
  8
0
  6
BYLAYER
 62
     7
 10
664.755877
 20
-211.300477
 30
0.0
 11
661.718430
 21
-201.120145
 31
0.0
  0
ARC
  8
0
  6
BYLAYER
 62
     7
 10
666.193262
 20
-210.871613
 30
0.0
 40
1.5
 50
196.613220
 51
270.000000
  0
LINE
  8
0
  6
BYLAYER
 62
     7
 10
664.819201
 20
-203.357048
 30
0.0
 11
661.718430
 21
-189.052146
 31
0.0
  0
ARC
  8
0
  6
BYLAYER
 62
     7
 10
666.285157
 20
-203.039283
 30
0.0
 40
1.5
 50
192.230383
 51
270.000000
  0
LINE
  8
0
  6
BYLAYER
 62
     7
 10
661.718430
 20
-201.120145
 30
0.0
 11
664.078762
 21
-199.941152
 31
0.0
  0
LINE
  8
0
  6
BYLAYER
 62
     7
 10
661.718430
 20
-206.452289
 30
0.0
 11
663.114508
 21
-205.799250
 31
0.0
  0
LINE
  8
0
  6
BYLAYER
 62
     7
 10
661.718430
 20
-189.052146
 30
0.0
 11
670.212968
 21
-187.563503
 31
0.0
  0
LINE
  8
0
  6
BYLAYER
 62
     7
 10
661.718430
 20
-209.974403
 30
0.0
 11
662.719482
 21
-209.536740
 31
0.0
  0
LINE
  8
0
  6
BYLAYER
 62
     7
 10
658.218430
 20
-209.474403
 30
0.0
 11
658.218430
 21
-75.474403
 31
0.0
  0
LINE
  8
0
  6
BYLAYER
 62
     7
 10
837.102042
 20
-63.224403
 30
0.0
 11
776.718521
 21
-63.224403
 31
0.0
  0
LINE
  8
0
  6
BYLAYER
 62
     7
 10
857.718521
 20
-77.986671
 30
0.0
 11
840.180350
 21
-64.284349
 31
0.0
  0
ARC
  8
0
  6
BYLAYER
 62
     7
 10
837.102042
 20
-68.224403
 30
0.0
 40
5.0
 50
52.000000
 51
90.000000
  0
LINE
  8
0
  6
BYLAYER
 62
     7
 10
857.718521
 20
-142.474403
 30
0.0
 11
857.718521
 21
-77.986671
 31
0.0
  0
LINE
  8
0
  6
BYLAYER
 62
     7
 10
857.718521
 20
-206.962135
 30
0.0
 11
857.718521
 21
-142.474403
 31
0.0
  0
LINE
  8
0
  6
BYLAYER
 62
     7
 10
840.180350
 20
-220.664457
 30
0.0
 11
857.718521
 21
-206.962135
 31
0.0
  0
ARC
  8
0
  6
BYLAYER
 62
     7
 10
837.102042
 20
-216.724403
 30
0.0
 40
5.0
 50
270.0
 51
308.0
  0
LINE
  8
0
  6
BYLAYER
 62
     7
 10
776.718521
 20
-221.724403
 30
0.0
 11
837.102042
 21
-221.724403
 31
0.0
  0
LINE
  8
0
  6
BYLAYER
 62
     7
 10
776.718521
 20
-221.724403
 30
0.0
 11
776.718521
 21
-142.474403
 31
0.0
  0
LINE
  8
0
  6
BYLAYER
 62
     7
 10
776.718521
 20
-63.224403
 30
0.0
 11
776.718521
 21
-142.474403
 31
0.0
  0
ARC
  8
0
  6
BYLAYER
 62
     7
 10
732.472644
 20
-43.974403
 30
0.0
 40
1.500000
 50
180.000000
 51
270.000000
  0
ARC
  8
0
  6
BYLAYER
 62
     7
 10
670.963968
 20
-43.974403
 30
0.0
 40
1.5
 50
270.0
 51
360.0
  0
ARC
  8
0
  6
BYLAYER
 62
     7
 10
663.218306
 20
-43.974403
 30
0.0
 40
1.500000
 50
270.0
 51
360.0
  0
ARC
  8
0
  6
BYLAYER
 62
     7
 10
663.218306
 20
-46.974403
 30
0.0
 40
1.5
 50
90.0
 51
180.0
  0
ARC
  8
0
  6
BYLAYER
 62
     7
 10
740.218306
 20
-43.974403
 30
0.0
 40
1.5
 50
180.000000
 51
270.000000
  0
LINE
  8
0
  6
BYLAYER
 62
     7
 10
664.718306
 20
-43.974403
 30
0.0
 11
664.718306
 21
-22.474403
 31
0.0
  0
ARC
  8
0
  6
BYLAYER
 62
     7
 10
666.218306
 20
-22.474403
 30
0.0
 40
1.500000
 50
90.0
 51
180.0
  0
LINE
  8
0
  6
BYLAYER
 62
     7
 10
738.718306
 20
-43.974403
 30
0.0
 11
738.718306
 21
-22.474403
 31
0.0
  0
LINE
  8
0
  6
BYLAYER
 62
     7
 10
666.218306
 20
-20.974403
 30
0.0
 11
737.218306
 21
-20.974403
 31
0.0
  0
ARC
  8
0
  6
BYLAYER
 62
     7
 10
729.472644
 20
-22.474403
 30
0.0
 40
1.500000
 50
0.0
 51
90.0
  0
ARC
  8
0
  6
BYLAYER
 62
     7
 10
737.218306
 20
-22.474403
 30
0.0
 40
1.5
 50
0.0
 51
90.0
  0
LINE
  8
0
  6
BYLAYER
 62
     7
 10
672.463968
 20
-43.974403
 30
0.0
 11
672.463968
 21
-22.474403
 31
0.0
  0
ARC
  8
0
  6
BYLAYER
 62
     7
 10
673.963968
 20
-22.474403
 30
0.0
 40
1.5
 50
90.0
 51
180.0
  0
LINE
  8
0
  6
BYLAYER
 62
     7
 10
730.972644
 20
-43.974403
 30
0.0
 11
730.972644
 21
-22.474403
 31
0.0
  0
ARC
  8
0
  6
BYLAYER
 62
     7
 10
740.218306
 20
-46.974403
 30
0.0
 40
1.5
 50
0.0
 51
90.0
  0
LINE
  8
0
  6
BYLAYER
 62
     7
 10
741.718306
 20
-54.474403
 30
0.0
 11
741.718306
 21
-46.974403
 31
0.0
  0
LINE
  8
0
  6
BYLAYER
 62
     7
 10
740.218306
 20
-45.474403
 30
0.0
 11
663.218306
 21
-45.474403
 31
0.0
  0
LINE
  8
0
  6
BYLAYER
 62
     7
 10
661.718306
 20
-46.974403
 30
0.0
 11
661.718306
 21
-54.474403
 31
0.0
  0
LINE
  8
0
  6
BYLAYER
 62
     7
 10
661.718306
 20
-54.474403
 30
0.0
 11
741.718306
 21
-54.474403
 31
0.0
  0
LINE
  8
0
  6
BYLAYER
 62
     7
 10
741.718306
 20
-52.474403
 30
0.0
 11
661.718306
 21
-52.474403
 31
0.0
  0
LINE
  8
0
  6
BYLAYER
 62
     7
 10
837.102042
 20
-221.724403
 30
0.0
 11
837.102042
 21
-63.224403
 31
0.0
  0
LINE
  8
0
  6
BYLAYER
 62
     7
 10
636.718430
 20
-809.474403
 30
0.0
 11
636.718430
 21
-709.474403
 31
0.0
  0
LINE
  8
0
  6
BYLAYER
 62
     7
 10
636.718430
 20
-741.099022
 30
0.0
 11
636.718430
 21
-732.974403
 31
0.0
  0
LINE
  8
0
  6
BYLAYER
 62
     7
 10
624.718430
 20
-709.474403
 30
0.0
 11
636.718430
 21
-709.474403
 31
0.0
  0
LINE
  8
0
  6
BYLAYER
 62
     7
 10
637.209703
 20
-741.598945
 30
0.0
 11
658.218430
 21
-741.965675
 31
0.0
  0
ARC
  8
0
  6
BYLAYER
 62
     7
 10
637.218430
 20
-741.099022
 30
0.0
 40
0.5
 50
180.000000
 51
268.999943
  0
LINE
  8
0
  6
BYLAYER
 62
     7
 10
658.218430
 20
-741.965675
 30
0.0
 11
658.218430
 21
-809.474403
 31
0.0
  0
LINE
  8
0
  6
BYLAYER
 62
     7
 10
624.718430
 20
-809.474403
 30
0.0
 11
624.718430
 21
-709.474403
 31
0.0
  0
LINE
  8
0
  6
BYLAYER
 62
     7
 10
636.718430
 20
-809.474403
 30
0.0
 11
636.718430
 21
-909.474403
 31
0.0
  0
LINE
  8
0
  6
BYLAYER
 62
     7
 10
636.718430
 20
-877.849784
 30
0.0
 11
636.718430
 21
-885.974403
 31
0.0
  0
LINE
  8
0
  6
BYLAYER
 62
     7
 10
624.718430
 20
-909.474403
 30
0.0
 11
636.718430
 21
-909.474403
 31
0.0
  0
LINE
  8
0
  6
BYLAYER
 62
     7
 10
637.209703
 20
-877.349861
 30
0.0
 11
658.218430
 21
-876.983131
 31
0.0
  0
ARC
  8
0
  6
BYLAYER
 62
     7
 10
637.218430
 20
-877.849784
 30
0.0
 40
0.5
 50
91.000057
 51
180.000000
  0
LINE
  8
0
  6
BYLAYER
 62
     7
 10
658.218430
 20
-876.983131
 30
0.0
 11
658.218430
 21
-809.474403
 31
0.0
  0
LINE
  8
0
  6
BYLAYER
 62
     7
 10
624.718430
 20
-809.474403
 30
0.0
 11
624.718430
 21
-909.474403
 31
0.0
  0
LINE
  8
0
  6
BYLAYER
 62
     7
 10
664.718377
 20
-833.991088
 30
0.0
 11
664.718377
 21
-809.474403
 31
0.0
  0
LINE
  8
0
  6
BYLAYER
 62
     7
 10
738.718377
 20
-809.474403
 30
0.0
 11
738.718377
 21
-833.991088
 31
0.0
  0
LINE
  8
0
  6
BYLAYER
 62
     7
 10
729.255972
 20
-843.724403
 30
0.0
 11
674.180783
 21
-843.724403
 31
0.0
  0
LINE
  8
0
  6
BYLAYER
 62
     7
 10
678.823076
 20
-814.575509
 30
0.0
 11
664.718377
 21
-815.068056
 31
0.0
  0
ARC
  8
0
  6
BYLAYER
 62
     7
 10
678.718377
 20
-811.577337
 30
0.0
 40
3.0
 50
272.000000
 51
360.000000
  0
LINE
  8
0
  6
BYLAYER
 62
     7
 10
678.823076
 20
-829.575509
 30
0.0
 11
664.718377
 21
-830.068056
 31
0.0
  0
ARC
  8
0
  6
BYLAYER
 62
     7
 10
678.718377
 20
-826.577337
 30
0.0
 40
3.0
 50
272.000000
 51
360.000000
  0
LINE
  8
0
  6
BYLAYER
 62
     7
 10
664.718377
 20
-818.880750
 30
0.0
 11
678.823076
 21
-819.373297
 31
0.0
  0
ARC
  8
0
  6
BYLAYER
 62
     7
 10
678.718377
 20
-822.371469
 30
0.0
 40
3.0
 50
0.0
 51
88.0
  0
LINE
  8
0
  6
BYLAYER
 62
     7
 10
681.718377
 20
-822.371469
 30
0.0
 11
681.718377
 21
-826.577337
 31
0.0
  0
LINE
  8
0
  6
BYLAYER
 62
     7
 10
681.718377
 20
-809.474403
 30
0.0
 11
681.718377
 21
-811.577337
 31
0.0
  0
LINE
  8
0
  6
BYLAYER
 62
     7
 10
665.718377
 20
-809.474403
 30
0.0
 11
665.718377
 21
-815.033135
 31
0.0
  0
LINE
  8
0
  6
BYLAYER
 62
     7
 10
665.718377
 20
-818.915671
 30
0.0
 11
665.718377
 21
-830.033135
 31
0.0
  0
LINE
  8
0
  6
BYLAYER
 62
     7
 10
724.613679
 20
-814.575509
 30
0.0
 11
738.718377
 21
-815.068056
 31
0.0
  0
ARC
  8
0
  6
BYLAYER
 62
     7
 10
724.718377
 20
-811.577337
 30
0.0
 40
3.0
 50
180.000000
 51
268.000000
  0
LINE
  8
0
  6
BYLAYER
 62
     7
 10
724.613679
 20
-829.575509
 30
0.0
 11
738.718377
 21
-830.068056
 31
0.0
  0
ARC
  8
0
  6
BYLAYER
 62
     7
 10
724.718377
 20
-826.577337
 30
0.0
 40
3.0
 50
180.000000
 51
268.000000
  0
LINE
  8
0
  6
BYLAYER
 62
     7
 10
738.718377
 20
-818.880750
 30
0.0
 11
724.613679
 21
-819.373297
 31
0.0
  0
ARC
  8
0
  6
BYLAYER
 62
     7
 10
724.718377
 20
-822.371469
 30
0.0
 40
3.0
 50
92.000000
 51
180.000000
  0
LINE
  8
0
  6
BYLAYER
 62
     7
 10
721.718377
 20
-822.371469
 30
0.0
 11
721.718377
 21
-826.577337
 31
0.0
  0
LINE
  8
0
  6
BYLAYER
 62
     7
 10
721.718377
 20
-809.474403
 30
0.0
 11
721.718377
 21
-811.577337
 31
0.0
  0
LINE
  8
0
  6
BYLAYER
 62
     7
 10
737.718377
 20
-809.474403
 30
0.0
 11
737.718377
 21
-815.033135
 31
0.0
  0
LINE
  8
0
  6
BYLAYER
 62
     7
 10
737.718377
 20
-818.915671
 30
0.0
 11
737.718377
 21
-830.033135
 31
0.0
  0
LINE
  8
0
  6
BYLAYER
 62
     7
 10
661.718377
 20
-809.474403
 30
0.0
 11
661.718377
 21
-844.974403
 31
0.0
  0
ARC
  8
0
  6
BYLAYER
 62
     7
 10
663.218377
 20
-844.974403
 30
0.0
 40
1.5
 50
180.000000
 51
270.000000
  0
LINE
  8
0
  6
BYLAYER
 62
     7
 10
741.718377
 20
-844.974403
 30
0.0
 11
741.718377
 21
-809.474403
 31
0.0
  0
LINE
  8
0
  6
BYLAYER
 62
     7
 10
663.218377
 20
-846.474403
 30
0.0
 11
740.218377
 21
-846.474403
 31
0.0
  0
ARC
  8
0
  6
BYLAYER
 62
     7
 10
740.218377
 20
-844.974403
 30
0.0
 40
1.5
 50
270.0
 51
360.0
  0
ARC
  8
0
  6
BYLAYER
 62
     7
 10
736.718377
 20
-841.474403
 30
0.0
 40
6.000000
 50
86.177446
 51
185.739170
  0
ARC
  8
0
  6
BYLAYER
 62
     7
 10
737.218377
 20
-833.991088
 30
0.0
 40
1.500000
 50
266.177446
 51
360.0
  0
ARC
  8
0
  6
BYLAYER
 62
     7
 10
729.255972
 20
-842.224403
 30
0.0
 40
1.5
 50
270.0
 51
365.739170
  0
ARC
  8
0
  6
BYLAYER
 62
     7
 10
666.718377
 20
-841.474403
 30
0.0
 40
6.0
 50
354.260830
 51
453.822554
  0
ARC
  8
0
  6
BYLAYER
 62
     7
 10
674.180783
 20
-842.224403
 30
0.0
 40
1.5
 50
174.260830
 51
270.000000
  0
ARC
  8
0
  6
BYLAYER
 62
     7
 10
666.218377
 20
-833.991088
 30
0.0
 40
1.500000
 50
180.000000
 51
273.822554
  0
ARC
  8
0
  6
BYLAYER
 62
     7
 10
688.718377
 20
-836.474403
 30
0.0
 40
3.0
 50
180.000000
 51
270.000000
  0
ARC
  8
0
  6
BYLAYER
 62
     7
 10
714.718377
 20
-836.474403
 30
0.0
 40
3.0
 50
270.0
 51
360.0
  0
LINE
  8
0
  6
BYLAYER
 62
     7
 10
688.718377
 20
-839.474403
 30
0.0
 11
714.718377
 21
-839.474403
 31
0.0
  0
LINE
  8
0
  6
BYLAYER
 62
     7
 10
685.718377
 20
-836.474403
 30
0.0
 11
685.718377
 21
-809.474403
 31
0.0
  0
LINE
  8
0
  6
BYLAYER
 62
     7
 10
717.718377
 20
-809.474403
 30
0.0
 11
717.718377
 21
-836.474403
 31
0.0
  0
LINE
  8
0
  6
BYLAYER
 62
     7
 10
741.718377
 20
-814.549446
 30
0.0
 11
776.718521
 21
-814.549446
 31
0.0
  0
LINE
  8
0
  6
BYLAYER
 62
     7
 10
741.718377
 20
-816.349434
 30
0.0
 11
776.718521
 21
-816.349434
 31
0.0
  0
LINE
  8
0
  6
BYLAYER
 62
     7
 10
741.718377
 20
-838.449440
 30
0.0
 11
776.718521
 21
-838.449440
 31
0.0
  0
LINE
  8
0
  6
BYLAYER
 62
     7
 10
741.718377
 20
-840.249428
 30
0.0
 11
776.718521
 21
-840.249428
 31
0.0
  0
LINE
  8
0
  6
BYLAYER
 62
     7
 10
672.718430
 20
-852.199440
 30
0.0
 11
672.718430
 21
-854.563503
 31
0.0
  0
LINE
  8
0
  6
BYLAYER
 62
     7
 10
672.718430
 20
-846.474403
 30
0.0
 11
672.718430
 21
-850.399422
 31
0.0
  0
LINE
  8
0
  6
BYLAYER
 62
     7
 10
774.718430
 20
-809.474403
 30
0.0
 11
774.718430
 21
-814.549446
 31
0.0
  0
LINE
  8
0
  6
BYLAYER
 62
     7
 10
774.718430
 20
-816.349434
 30
0.0
 11
774.718430
 21
-826.499428
 31
0.0
  0
LINE
  8
0
  6
BYLAYER
 62
     7
 10
774.718430
 20
-828.299446
 30
0.0
 11
774.718430
 21
-838.449440
 31
0.0
  0
LINE
  8
0
  6
BYLAYER
 62
     7
 10
774.718430
 20
-852.199440
 30
0.0
 11
774.718430
 21
-854.563503
 31
0.0
  0
LINE
  8
0
  6
BYLAYER
 62
     7
 10
774.718430
 20
-840.249428
 30
0.0
 11
774.718430
 21
-850.399422
 31
0.0
  0
LINE
  8
0
  6
BYLAYER
 62
     7
 10
741.718377
 20
-826.499428
 30
0.0
 11
776.718521
 21
-826.499428
 31
0.0
  0
LINE
  8
0
  6
BYLAYER
 62
     7
 10
741.718377
 20
-828.299446
 30
0.0
 11
776.718521
 21
-828.299446
 31
0.0
  0
ARC
  8
0
  6
BYLAYER
 62
     7
 10
662.618394
 20
-851.299415
 30
0.0
 40
0.899994
 50
90.0
 51
269.999998
  0
LINE
  8
0
  6
BYLAYER
 62
     7
 10
662.618394
 20
-850.399422
 30
0.0
 11
776.718521
 21
-850.399422
 31
0.0
  0
LINE
  8
0
  6
BYLAYER
 62
     7
 10
662.618394
 20
-852.199440
 30
0.0
 11
776.718521
 21
-852.199440
 31
0.0
  0
LINE
  8
0
  6
BYLAYER
 62
     7
 10
764.718430
 20
-814.549446
 30
0.0
 11
764.718430
 21
-816.349434
 31
0.0
  0
ARC
  8
0
  6
BYLAYER
 62
     7
 10
669.618424
 20
-851.299446
 30
0.0
 40
0.900024
 50
90.0
 51
269.999998
  0
LINE
  8
0
  6
BYLAYER
 62
     7
 10
661.718377
 20
-809.474403
 30
0.0
 11
661.718432
 21
-876.974403
 31
0.0
  0
LINE
  8
0
  6
BYLAYER
 62
     7
 10
661.718323
 20
-876.474403
 30
0.0
 11
658.218430
 21
-876.474403
 31
0.0
  0
LINE
  8
0
  6
BYLAYER
 62
     7
 10
666.125982
 20
-886.203050
 30
0.0
 11
776.718521
 21
-886.203050
 31
0.0
  0
LINE
  8
0
  6
BYLAYER
 62
     7
 10
666.165665
 20
-883.796018
 30
0.0
 11
776.718521
 21
-883.796018
 31
0.0
  0
LINE
  8
0
  6
BYLAYER
 62
     7
 10
666.193262
 20
-879.371613
 30
0.0
 11
776.718521
 21
-879.371613
 31
0.0
  0
LINE
  8
0
  6
BYLAYER
 62
     7
 10
666.285157
 20
-871.539283
 30
0.0
 11
776.718521
 21
-871.539283
 31
0.0
  0
LINE
  8
0
  6
BYLAYER
 62
     7
 10
776.718521
 20
-854.563503
 30
0.0
 11
670.212968
 21
-854.563503
 31
0.0
  0
LINE
  8
0
  6
BYLAYER
 62
     7
 10
664.716349
 20
-885.215821
 30
0.0
 11
661.718430
 21
-876.974403
 31
0.0
  0
ARC
  8
0
  6
BYLAYER
 62
     7
 10
666.125982
 20
-884.703050
 30
0.0
 40
1.5
 50
199.989488
 51
270.000000
  0
LINE
  8
0
  6
BYLAYER
 62
     7
 10
664.738924
 20
-882.759064
 30
0.0
 11
661.718430
 21
-873.452289
 31
0.0
  0
ARC
  8
0
  6
BYLAYER
 62
     7
 10
666.165665
 20
-882.296018
 30
0.0
 40
1.5
 50
197.980729
 51
270.000000
  0
LINE
  8
0
  6
BYLAYER
 62
     7
 10
664.755877
 20
-878.300477
 30
0.0
 11
661.718430
 21
-868.120145
 31
0.0
  0
ARC
  8
0
  6
BYLAYER
 62
     7
 10
666.193262
 20
-877.871613
 30
0.0
 40
1.500000
 50
196.613220
 51
270.000000
  0
LINE
  8
0
  6
BYLAYER
 62
     7
 10
664.819201
 20
-870.357048
 30
0.0
 11
661.718430
 21
-856.052146
 31
0.0
  0
ARC
  8
0
  6
BYLAYER
 62
     7
 10
666.285157
 20
-870.039283
 30
0.0
 40
1.5
 50
192.230383
 51
270.000000
  0
LINE
  8
0
  6
BYLAYER
 62
     7
 10
661.718430
 20
-868.120145
 30
0.0
 11
664.078762
 21
-866.941152
 31
0.0
  0
LINE
  8
0
  6
BYLAYER
 62
     7
 10
661.718430
 20
-873.452289
 30
0.0
 11
663.114508
 21
-872.799250
 31
0.0
  0
LINE
  8
0
  6
BYLAYER
 62
     7
 10
661.718430
 20
-856.052146
 30
0.0
 11
670.212968
 21
-854.563503
 31
0.0
  0
LINE
  8
0
  6
BYLAYER
 62
     7
 10
661.718430
 20
-876.974403
 30
0.0
 11
662.719482
 21
-876.536740
 31
0.0
  0
LINE
  8
0
  6
BYLAYER
 62
     7
 10
658.218430
 20
-876.474403
 30
0.0
 11
658.218430
 21
-809.474403
 31
0.0
  0
LINE
  8
0
  6
BYLAYER
 62
     7
 10
857.718521
 20
-873.962135
 30
0.0
 11
857.718521
 21
-809.474403
 31
0.0
  0
LINE
  8
0
  6
BYLAYER
 62
     7
 10
840.180350
 20
-887.664457
 30
0.0
 11
857.718521
 21
-873.962135
 31
0.0
  0
ARC
  8
0
  6
BYLAYER
 62
     7
 10
837.102042
 20
-883.724403
 30
0.0
 40
5.0
 50
270.0
 51
308.0
  0
LINE
  8
0
  6
BYLAYER
 62
     7
 10
776.718521
 20
-888.724403
 30
0.0
 11
837.102042
 21
-888.724403
 31
0.0
  0
LINE
  8
0
  6
BYLAYER
 62
     7
 10
776.718521
 20
-888.724403
 30
0.0
 11
776.718521
 21
-809.474403
 31
0.0
  0
LINE
  8
0
  6
BYLAYER
 62
     7
 10
664.718377
 20
-784.957718
 30
0.0
 11
664.718377
 21
-809.474403
 31
0.0
  0
LINE
  8
0
  6
BYLAYER
 62
     7
 10
738.718377
 20
-809.474403
 30
0.0
 11
738.718377
 21
-784.957718
 31
0.0
  0
LINE
  8
0
  6
BYLAYER
 62
     7
 10
729.255972
 20
-775.224403
 30
0.0
 11
674.180783
 21
-775.224403
 31
0.0
  0
LINE
  8
0
  6
BYLAYER
 62
     7
 10
678.823076
 20
-804.373297
 30
0.0
 11
664.718377
 21
-803.880750
 31
0.0
  0
ARC
  8
0
  6
BYLAYER
 62
     7
 10
678.718377
 20
-807.371469
 30
0.0
 40
3.0
 50
0.0
 51
88.0
  0
LINE
  8
0
  6
BYLAYER
 62
     7
 10
678.823076
 20
-789.373297
 30
0.0
 11
664.718377
 21
-788.880750
 31
0.0
  0
ARC
  8
0
  6
BYLAYER
 62
     7
 10
678.718377
 20
-792.371469
 30
0.0
 40
3.0
 50
0.0
 51
88.0
  0
LINE
  8
0
  6
BYLAYER
 62
     7
 10
664.718377
 20
-800.068056
 30
0.0
 11
678.823076
 21
-799.575509
 31
0.0
  0
ARC
  8
0
  6
BYLAYER
 62
     7
 10
678.718377
 20
-796.577337
 30
0.0
 40
3.0
 50
272.000000
 51
360.000000
  0
LINE
  8
0
  6
BYLAYER
 62
     7
 10
681.718377
 20
-796.577337
 30
0.0
 11
681.718377
 21
-792.371469
 31
0.0
  0
LINE
  8
0
  6
BYLAYER
 62
     7
 10
681.718377
 20
-809.474403
 30
0.0
 11
681.718377
 21
-807.371469
 31
0.0
  0
LINE
  8
0
  6
BYLAYER
 62
     7
 10
665.718377
 20
-809.474403
 30
0.0
 11
665.718377
 21
-803.915671
 31
0.0
  0
LINE
  8
0
  6
BYLAYER
 62
     7
 10
665.718377
 20
-800.033135
 30
0.0
 11
665.718377
 21
-788.915671
 31
0.0
  0
LINE
  8
0
  6
BYLAYER
 62
     7
 10
724.613679
 20
-804.373297
 30
0.0
 11
738.718377
 21
-803.880750
 31
0.0
  0
ARC
  8
0
  6
BYLAYER
 62
     7
 10
724.718377
 20
-807.371469
 30
0.0
 40
3.0
 50
92.000000
 51
180.000000
  0
LINE
  8
0
  6
BYLAYER
 62
     7
 10
724.613679
 20
-789.373297
 30
0.0
 11
738.718377
 21
-788.880750
 31
0.0
  0
ARC
  8
0
  6
BYLAYER
 62
     7
 10
724.718377
 20
-792.371469
 30
0.0
 40
3.0
 50
92.000000
 51
180.000000
  0
LINE
  8
0
  6
BYLAYER
 62
     7
 10
738.718377
 20
-800.068056
 30
0.0
 11
724.613679
 21
-799.575509
 31
0.0
  0
ARC
  8
0
  6
BYLAYER
 62
     7
 10
724.718377
 20
-796.577337
 30
0.0
 40
3.0
 50
180.000000
 51
268.000000
  0
LINE
  8
0
  6
BYLAYER
 62
     7
 10
721.718377
 20
-796.577337
 30
0.0
 11
721.718377
 21
-792.371469
 31
0.0
  0
LINE
  8
0
  6
BYLAYER
 62
     7
 10
721.718377
 20
-809.474403
 30
0.0
 11
721.718377
 21
-807.371469
 31
0.0
  0
LINE
  8
0
  6
BYLAYER
 62
     7
 10
737.718377
 20
-809.474403
 30
0.0
 11
737.718377
 21
-803.915671
 31
0.0
  0
LINE
  8
0
  6
BYLAYER
 62
     7
 10
737.718377
 20
-800.033135
 30
0.0
 11
737.718377
 21
-788.915671
 31
0.0
  0
LINE
  8
0
  6
BYLAYER
 62
     7
 10
661.718377
 20
-809.474403
 30
0.0
 11
661.718377
 21
-773.974403
 31
0.0
  0
ARC
  8
0
  6
BYLAYER
 62
     7
 10
663.218377
 20
-773.974403
 30
0.0
 40
1.5
 50
90.0
 51
180.0
  0
LINE
  8
0
  6
BYLAYER
 62
     7
 10
741.718377
 20
-773.974403
 30
0.0
 11
741.718377
 21
-809.474403
 31
0.0
  0
LINE
  8
0
  6
BYLAYER
 62
     7
 10
663.218377
 20
-772.474403
 30
0.0
 11
740.218377
 21
-772.474403
 31
0.0
  0
ARC
  8
0
  6
BYLAYER
 62
     7
 10
740.218377
 20
-773.974403
 30
0.0
 40
1.5
 50
0.0
 51
90.0
  0
ARC
  8
0
  6
BYLAYER
 62
     7
 10
736.718377
 20
-777.474403
 30
0.0
 40
6.0
 50
174.260830
 51
273.822554
  0
ARC
  8
0
  6
BYLAYER
 62
     7
 10
737.218377
 20
-784.957718
 30
0.0
 40
1.500000
 50
0.0
 51
93.822554
  0
ARC
  8
0
  6
BYLAYER
 62
     7
 10
729.255972
 20
-776.724403
 30
0.0
 40
1.500000
 50
354.260830
 51
450.000000
  0
ARC
  8
0
  6
BYLAYER
 62
     7
 10
666.718377
 20
-777.474403
 30
0.0
 40
6.000000
 50
266.177446
 51
365.739170
  0
ARC
  8
0
  6
BYLAYER
 62
     7
 10
674.180783
 20
-776.724403
 30
0.0
 40
1.5
 50
90.0
 51
185.73917
  0
ARC
  8
0
  6
BYLAYER
 62
     7
 10
666.218377
 20
-784.957718
 30
0.0
 40
1.500000
 50
86.177446
 51
180.000000
  0
ARC
  8
0
  6
BYLAYER
 62
     7
 10
688.718377
 20
-782.474403
 30
0.0
 40
3.0
 50
90.0
 51
180.0
  0
ARC
  8
0
  6
BYLAYER
 62
     7
 10
714.718377
 20
-782.474403
 30
0.0
 40
3.0
 50
0.0
 51
90.0
  0
LINE
  8
0
  6
BYLAYER
 62
     7
 10
688.718377
 20
-779.474403
 30
0.0
 11
714.718377
 21
-779.474403
 31
0.0
  0
LINE
  8
0
  6
BYLAYER
 62
     7
 10
685.718377
 20
-782.474403
 30
0.0
 11
685.718377
 21
-809.474403
 31
0.0
  0
LINE
  8
0
  6
BYLAYER
 62
     7
 10
717.718377
 20
-809.474403
 30
0.0
 11
717.718377
 21
-782.474403
 31
0.0
  0
LINE
  8
0
  6
BYLAYER
 62
     7
 10
741.718377
 20
-804.399360
 30
0.0
 11
776.718521
 21
-804.399360
 31
0.0
  0
LINE
  8
0
  6
BYLAYER
 62
     7
 10
741.718377
 20
-802.599372
 30
0.0
 11
776.718521
 21
-802.599372
 31
0.0
  0
LINE
  8
0
  6
BYLAYER
 62
     7
 10
741.718377
 20
-780.499366
 30
0.0
 11
776.718521
 21
-780.499366
 31
0.0
  0
LINE
  8
0
  6
BYLAYER
 62
     7
 10
741.718377
 20
-778.699378
 30
0.0
 11
776.718521
 21
-778.699378
 31
0.0
  0
LINE
  8
0
  6
BYLAYER
 62
     7
 10
672.718430
 20
-766.749366
 30
0.0
 11
672.718430
 21
-764.385303
 31
0.0
  0
LINE
  8
0
  6
BYLAYER
 62
     7
 10
672.718430
 20
-772.474403
 30
0.0
 11
672.718430
 21
-768.549384
 31
0.0
  0
LINE
  8
0
  6
BYLAYER
 62
     7
 10
774.718430
 20
-809.474403
 30
0.0
 11
774.718430
 21
-804.399360
 31
0.0
  0
LINE
  8
0
  6
BYLAYER
 62
     7
 10
774.718430
 20
-802.599372
 30
0.0
 11
774.718430
 21
-792.449378
 31
0.0
  0
LINE
  8
0
  6
BYLAYER
 62
     7
 10
774.718430
 20
-790.649360
 30
0.0
 11
774.718430
 21
-780.499366
 31
0.0
  0
LINE
  8
0
  6
BYLAYER
 62
     7
 10
774.718430
 20
-766.749366
 30
0.0
 11
774.718430
 21
-764.385303
 31
0.0
  0
LINE
  8
0
  6
BYLAYER
 62
     7
 10
774.718430
 20
-778.699378
 30
0.0
 11
774.718430
 21
-768.549384
 31
0.0
  0
LINE
  8
0
  6
BYLAYER
 62
     7
 10
741.718377
 20
-792.449378
 30
0.0
 11
776.718521
 21
-792.449378
 31
0.0
  0
LINE
  8
0
  6
BYLAYER
 62
     7
 10
741.718377
 20
-790.649360
 30
0.0
 11
776.718521
 21
-790.649360
 31
0.0
  0
ARC
  8
0
  6
BYLAYER
 62
     7
 10
662.618394
 20
-767.649391
 30
0.0
 40
0.899994
 50
90.0
 51
269.999998
  0
LINE
  8
0
  6
BYLAYER
 62
     7
 10
662.618394
 20
-768.549384
 30
0.0
 11
776.718521
 21
-768.549384
 31
0.0
  0
LINE
  8
0
  6
BYLAYER
 62
     7
 10
662.618394
 20
-766.749366
 30
0.0
 11
776.718521
 21
-766.749366
 31
0.0
  0
LINE
  8
0
  6
BYLAYER
 62
     7
 10
764.718430
 20
-804.399360
 30
0.0
 11
764.718430
 21
-802.599372
 31
0.0
  0
ARC
  8
0
  6
BYLAYER
 62
     7
 10
669.618424
 20
-767.649360
 30
0.0
 40
0.900024
 50
90.0
 51
269.999998
  0
LINE
  8
0
  6
BYLAYER
 62
     7
 10
661.718377
 20
-809.474403
 30
0.0
 11
661.718432
 21
-741.974403
 31
0.0
  0
LINE
  8
0
  6
BYLAYER
 62
     7
 10
661.718323
 20
-742.474403
 30
0.0
 11
658.218430
 21
-742.474403
 31
0.0
  0
LINE
  8
0
  6
BYLAYER
 62
     7
 10
666.125982
 20
-732.745756
 30
0.0
 11
776.718521
 21
-732.745756
 31
0.0
  0
LINE
  8
0
  6
BYLAYER
 62
     7
 10
666.165665
 20
-735.152788
 30
0.0
 11
776.718521
 21
-735.152788
 31
0.0
  0
LINE
  8
0
  6
BYLAYER
 62
     7
 10
666.193262
 20
-739.577193
 30
0.0
 11
776.718521
 21
-739.577193
 31
0.0
  0
LINE
  8
0
  6
BYLAYER
 62
     7
 10
666.285157
 20
-747.409523
 30
0.0
 11
776.718521
 21
-747.409523
 31
0.0
  0
LINE
  8
0
  6
BYLAYER
 62
     7
 10
776.718521
 20
-764.385303
 30
0.0
 11
670.212968
 21
-764.385303
 31
0.0
  0
LINE
  8
0
  6
BYLAYER
 62
     7
 10
664.716349
 20
-733.732985
 30
0.0
 11
661.718430
 21
-741.974403
 31
0.0
  0
ARC
  8
0
  6
BYLAYER
 62
     7
 10
666.125982
 20
-734.245756
 30
0.0
 40
1.5
 50
90.0
 51
160.010512
  0
LINE
  8
0
  6
BYLAYER
 62
     7
 10
664.738924
 20
-736.189742
 30
0.0
 11
661.718430
 21
-745.496517
 31
0.0
  0
ARC
  8
0
  6
BYLAYER
 62
     7
 10
666.165665
 20
-736.652788
 30
0.0
 40
1.500000
 50
90.0
 51
162.019271
  0
LINE
  8
0
  6
BYLAYER
 62
     7
 10
664.755877
 20
-740.648329
 30
0.0
 11
661.718430
 21
-750.828661
 31
0.0
  0
ARC
  8
0
  6
BYLAYER
 62
     7
 10
666.193262
 20
-741.077193
 30
0.0
 40
1.500000
 50
90.0
 51
163.38678
  0
LINE
  8
0
  6
BYLAYER
 62
     7
 10
664.819201
 20
-748.591758
 30
0.0
 11
661.718430
 21
-762.896660
 31
0.0
  0
ARC
  8
0
  6
BYLAYER
 62
     7
 10
666.285157
 20
-748.909523
 30
0.0
 40
1.5
 50
90.0
 51
167.769617
  0
LINE
  8
0
  6
BYLAYER
 62
     7
 10
661.718430
 20
-750.828661
 30
0.0
 11
664.078762
 21
-752.007654
 31
0.0
  0
LINE
  8
0
  6
BYLAYER
 62
     7
 10
661.718430
 20
-745.496517
 30
0.0
 11
663.114508
 21
-746.149556
 31
0.0
  0
LINE
  8
0
  6
BYLAYER
 62
     7
 10
661.718430
 20
-762.896660
 30
0.0
 11
670.212968
 21
-764.385303
 31
0.0
  0
LINE
  8
0
  6
BYLAYER
 62
     7
 10
661.718430
 20
-741.974403
 30
0.0
 11
662.719482
 21
-742.412066
 31
0.0
  0
LINE
  8
0
  6
BYLAYER
 62
     7
 10
658.218430
 20
-742.474403
 30
0.0
 11
658.218430
 21
-809.474403
 31
0.0
  0
LINE
  8
0
  6
BYLAYER
 62
     7
 10
857.718521
 20
-744.986671
 30
0.0
 11
857.718521
 21
-809.474403
 31
0.0
  0
LINE
  8
0
  6
BYLAYER
 62
     7
 10
840.180350
 20
-731.284349
 30
0.0
 11
857.718521
 21
-744.986671
 31
0.0
  0
ARC
  8
0
  6
BYLAYER
 62
     7
 10
837.102042
 20
-735.224403
 30
0.0
 40
5.0
 50
52.000000
 51
90.000000
  0
LINE
  8
0
  6
BYLAYER
 62
     7
 10
776.718521
 20
-730.224403
 30
0.0
 11
837.102042
 21
-730.224403
 31
0.0
  0
LINE
  8
0
  6
BYLAYER
 62
     7
 10
776.718521
 20
-730.224403
 30
0.0
 11
776.718521
 21
-809.474403
 31
0.0
  0
LINE
  8
0
  6
BYLAYER
 62
     7
 10
837.102042
 20
-888.724403
 30
0.0
 11
837.102042
 21
-730.224403
 31
0.0
  0
LINE
  8
0
  6
BYLAYER
 62
     1
 10
531.218369
 20
-133.474403
 30
0.0
 11
531.061326
 21
-133.482643
 31
0.0
  0
ARC
  8
0
  6
BYLAYER
 62
     1
 10
531.218369
 20
-136.478492
 30
0.0
 40
2.999963
 50
93.000102
 51
180.000005
  0
ARC
  8
0
  6
BYLAYER
 62
     1
 10
531.218369
 20
-281.169715
 30
0.0
 40
3.000025
 50
180.000000
 51
225.000005
  0
ARC
  8
0
  6
BYLAYER
 62
     1
 10
515.218430
 20
-40.474403
 30
0.0
 40
3.0
 50
0.0
 51
90.000016
  0
ARC
  8
0
  6
BYLAYER
 62
     1
 10
257.218308
 20
-40.474403
 30
0.0
 40
3.0
 50
90.0
 51
180.000009
  0
ARC
  8
0
  6
BYLAYER
 62
     1
 10
257.218308
 20
-338.474434
 30
0.0
 40
3.000000
 50
180.000000
 51
269.999996
  0
ARC
  8
0
  6
BYLAYER
 62
     1
 10
515.218430
 20
-338.474434
 30
0.0
 40
3.0
 50
270.0
 51
359.999982
  0
LINE
  8
0
  6
BYLAYER
 62
     1
 10
531.218369
 20
-90.768592
 30
0.0
 11
528.235459
 21
-92.768837
 31
0.0
  0
LINE
  8
0
  6
BYLAYER
 62
     1
 10
254.218308
 20
-89.474403
 30
0.0
 11
238.718308
 21
-89.474403
 31
0.0
  0
ARC
  8
0
  6
BYLAYER
 62
     1
 10
463.218430
 20
-47.474403
 30
0.0
 40
10.000000
 50
90.0
 51
180.000009
  0
ARC
  8
0
  6
BYLAYER
 62
     1
 10
309.218430
 20
-47.474403
 30
0.0
 40
10.0
 50
0.0
 51
90.000023
  0
ARC
  8
0
  6
BYLAYER
 62
     1
 10
463.218430
 20
-331.474434
 30
0.0
 40
10.0
 50
180.000000
 51
270.000003
  0
ARC
  8
0
  6
BYLAYER
 62
     1
 10
508.218430
 20
-286.474342
 30
0.0
 40
10.0
 50
0.0
 51
89.999989
  0
ARC
  8
0
  6
BYLAYER
 62
     1
 10
309.218430
 20
-331.474434
 30
0.0
 40
10.0
 50
270.0
 51
360.000009
  0
ARC
  8
0
  6
BYLAYER
 62
     1
 10
264.218430
 20
-286.474342
 30
0.0
 40
10.000122
 50
90.283095
 51
180.000000
  0
LINE
  8
0
  6
BYLAYER
 62
     1
 10
503.131058
 20
-276.474342
 30
0.0
 11
508.218430
 21
-276.474342
 31
0.0
  0
LINE
  8
0
  6
BYLAYER
 62
     1
 10
453.218430
 20
-326.386963
 30
0.0
 11
453.218430
 21
-331.474434
 31
0.0
  0
LINE
  8
0
  6
BYLAYER
 62
     1
 10
319.218430
 20
-331.474434
 30
0.0
 11
319.218430
 21
-326.386940
 31
0.0
  0
LINE
  8
0
  6
BYLAYER
 62
     1
 10
269.305764
 20
-276.474342
 30
0.0
 11
264.218430
 21
-276.474342
 31
0.0
  0
LINE
  8
0
  6
BYLAYER
 62
     1
 10
319.218430
 20
-92.561706
 30
0.0
 11
319.218430
 21
-47.474403
 31
0.0
  0
ARC
  8
0
  6
BYLAYER
 62
     1
 10
257.218308
 20
-99.974403
 30
0.0
 40
3.000000
 50
180.000000
 51
269.999996
  0
ARC
  8
0
  6
BYLAYER
 62
     1
 10
257.218308
 20
-111.974403
 30
0.0
 40
3.000000
 50
180.000000
 51
269.999996
  0
ARC
  8
0
  6
BYLAYER
 62
     1
 10
257.218308
 20
-123.974403
 30
0.0
 40
3.000000
 50
180.000000
 51
269.999996
  0
ARC
  8
0
  6
BYLAYER
 62
     1
 10
257.218308
 20
-110.974403
 30
0.0
 40
3.000000
 50
90.0
 51
180.000003
  0
ARC
  8
0
  6
BYLAYER
 62
     1
 10
257.218308
 20
-122.974403
 30
0.0
 40
3.000000
 50
90.0
 51
180.000003
  0
ARC
  8
0
  6
BYLAYER
 62
     1
 10
257.218308
 20
-134.974403
 30
0.0
 40
3.000000
 50
90.0
 51
180.000003
  0
LINE
  8
0
  6
BYLAYER
 62
     1
 10
257.218308
 20
-102.974403
 30
0.0
 11
292.718430
 21
-102.974403
 31
0.0
  0
LINE
  8
0
  6
BYLAYER
 62
     1
 10
257.218308
 20
-107.974403
 30
0.0
 11
292.718430
 21
-107.974403
 31
0.0
  0
ARC
  8
0
  6
BYLAYER
 62
     1
 10
292.718430
 20
-105.474403
 30
0.0
 40
2.5
 50
270.0
 51
450.000005
  0
LINE
  8
0
  6
BYLAYER
 62
     1
 10
257.218308
 20
-114.974403
 30
0.0
 11
280.718430
 21
-114.974403
 31
0.0
  0
LINE
  8
0
  6
BYLAYER
 62
     1
 10
257.218308
 20
-119.974403
 30
0.0
 11
280.718430
 21
-119.974403
 31
0.0
  0
ARC
  8
0
  6
BYLAYER
 62
     1
 10
280.718430
 20
-117.474403
 30
0.0
 40
2.500000
 50
270.0
 51
450.000005
  0
LINE
  8
0
  6
BYLAYER
 62
     1
 10
257.218308
 20
-126.974403
 30
0.0
 11
270.718430
 21
-126.974403
 31
0.0
  0
LINE
  8
0
  6
BYLAYER
 62
     1
 10
257.218308
 20
-131.974403
 30
0.0
 11
270.718430
 21
-131.974403
 31
0.0
  0
ARC
  8
0
  6
BYLAYER
 62
     1
 10
270.718430
 20
-129.474403
 30
0.0
 40
2.5
 50
270.0
 51
450.000005
  0
ARC
  8
0
  6
BYLAYER
 62
     1
 10
515.218430
 20
-110.974403
 30
0.0
 40
3.0
 50
0.0
 51
90.000016
  0
ARC
  8
0
  6
BYLAYER
 62
     1
 10
515.218430
 20
-122.974403
 30
0.0
 40
3.0
 50
0.0
 51
90.000016
  0
ARC
  8
0
  6
BYLAYER
 62
     1
 10
515.218430
 20
-134.974403
 30
0.0
 40
3.0
 50
0.0
 51
90.000016
  0
ARC
  8
0
  6
BYLAYER
 62
     1
 10
515.218430
 20
-99.974403
 30
0.0
 40
3.0
 50
270.0
 51
359.999982
  0
ARC
  8
0
  6
BYLAYER
 62
     1
 10
515.218430
 20
-111.974403
 30
0.0
 40
3.0
 50
270.0
 51
359.999982
  0
ARC
  8
0
  6
BYLAYER
 62
     1
 10
515.218430
 20
-123.974403
 30
0.0
 40
3.0
 50
270.0
 51
359.999982
  0
LINE
  8
0
  6
BYLAYER
 62
     1
 10
515.218430
 20
-102.974403
 30
0.0
 11
479.718430
 21
-102.974403
 31
0.0
  0
LINE
  8
0
  6
BYLAYER
 62
     1
 10
515.218430
 20
-107.974403
 30
0.0
 11
479.718430
 21
-107.974403
 31
0.0
  0
ARC
  8
0
  6
BYLAYER
 62
     1
 10
479.718430
 20
-105.474403
 30
0.0
 40
2.5
 50
90.0
 51
269.999991
  0
LINE
  8
0
  6
BYLAYER
 62
     1
 10
515.218430
 20
-114.974403
 30
0.0
 11
491.718430
 21
-114.974403
 31
0.0
  0
LINE
  8
0
  6
BYLAYER
 62
     1
 10
515.218430
 20
-119.974403
 30
0.0
 11
491.718430
 21
-119.974403
 31
0.0
  0
ARC
  8
0
  6
BYLAYER
 62
     1
 10
491.718430
 20
-117.474403
 30
0.0
 40
2.5
 50
90.0
 51
269.999991
  0
LINE
  8
0
  6
BYLAYER
 62
     1
 10
515.218430
 20
-126.974403
 30
0.0
 11
501.718430
 21
-126.974403
 31
0.0
  0
LINE
  8
0
  6
BYLAYER
 62
     1
 10
515.218430
 20
-131.974403
 30
0.0
 11
501.718430
 21
-131.974403
 31
0.0
  0
ARC
  8
0
  6
BYLAYER
 62
     1
 10
501.718430
 20
-129.474403
 30
0.0
 40
2.5
 50
90.0
 51
269.999991
  0
ARC
  8
0
  6
BYLAYER
 62
     1
 10
321.218430
 20
-71.474403
 30
0.0
 40
2.000000
 50
180.000000
 51
270.000009
  0
LINE
  8
0
  6
BYLAYER
 62
     1
 10
257.218308
 20
-37.474403
 30
0.0
 11
309.218430
 21
-37.474403
 31
0.0
  0
LINE
  8
0
  6
BYLAYER
 62
     1
 10
453.218430
 20
-92.561668
 30
0.0
 11
453.218430
 21
-47.474403
 31
0.0
  0
LINE
  8
0
  6
BYLAYER
 62
     1
 10
431.218430
 20
-77.474403
 30
0.0
 11
443.218430
 21
-77.474403
 31
0.0
  0
ARC
  8
0
  6
BYLAYER
 62
     1
 10
443.218430
 20
-67.474403
 30
0.0
 40
10.000000
 50
270.0
 51
360.000003
  0
LINE
  8
0
  6
BYLAYER
 62
     1
 10
321.218430
 20
-73.474403
 30
0.0
 11
418.256943
 21
-73.474403
 31
0.0
  0
ARC
  8
0
  6
BYLAYER
 62
     1
 10
431.218430
 20
-57.474403
 30
0.0
 40
19.999994
 50
235.698818
 51
270.000001
  0
ARC
  8
0
  6
BYLAYER
 62
     1
 10
241.218308
 20
-281.169716
 30
0.0
 40
3.000002
 50
314.999992
 51
345.522495
  0
ARC
  8
0
  6
BYLAYER
 62
     1
 10
242.544236
 20
-95.358009
 30
0.0
 40
2.999953
 50
11.543804
 51
55.016575
  0
ARC
  8
0
  6
BYLAYER
 62
     1
 10
529.906235
 20
-95.260475
 30
0.0
 40
2.999959
 50
123.843966
 51
169.087289
  0
LINE
  8
0
  6
BYLAYER
 62
     1
 10
238.718308
 20
-289.474403
 30
0.0
 11
254.218308
 21
-289.474403
 31
0.0
  0
LINE
  8
0
  6
BYLAYER
 62
     1
 10
529.097031
 20
-283.291053
 30
0.0
 11
530.779007
 21
-284.972999
 31
0.0
  0
ARC
  8
0
  6
BYLAYER
 62
     1
 10
529.718369
 20
-286.033668
 30
0.0
 40
1.499991
 50
0.0
 51
45.000824
  0
LINE
  8
0
  6
BYLAYER
 62
     1
 10
528.512375
 20
-289.474403
 30
0.0
 11
518.218430
 21
-289.474403
 31
0.0
  0
ARC
  8
0
  6
BYLAYER
 62
     1
 10
527.012375
 20
-289.895668
 30
0.0
 40
1.500007
 50
0.0
 51
31.372982
  0
LINE
  8
0
  6
BYLAYER
 62
     1
 10
309.218430
 20
-37.474403
 30
0.0
 11
515.218430
 21
-37.474403
 31
0.0
  0
LINE
  8
0
  6
BYLAYER
 62
     1
 10
257.218308
 20
-341.474434
 30
0.0
 11
345.056122
 21
-341.474434
 31
0.0
  0
LINE
  8
0
  6
BYLAYER
 62
     1
 10
427.380814
 20
-341.474434
 30
0.0
 11
515.218430
 21
-341.474434
 31
0.0
  0
LINE
  8
0
  6
BYLAYER
 62
     1
 10
518.218430
 20
-250.636848
 30
0.0
 11
518.218430
 21
-338.474434
 31
0.0
  0
ARC
  8
0
  6
BYLAYER
 62
     1
 10
521.218430
 20
-250.636848
 30
0.0
 40
2.999983
 50
167.456267
 51
180.000005
  0
ARC
  8
0
  6
BYLAYER
 62
     1
 10
336.218430
 20
-209.474403
 30
0.0
 40
186.524017
 50
347.45604
 51
372.54397
  0
ARC
  8
0
  6
BYLAYER
 62
     1
 10
521.218430
 20
-168.311866
 30
0.0
 40
2.999996
 50
180.000000
 51
192.544858
  0
LINE
  8
0
  6
BYLAYER
 62
     1
 10
254.218308
 20
-250.636390
 30
0.0
 11
254.218308
 21
-338.474434
 31
0.0
  0
ARC
  8
0
  6
BYLAYER
 62
     1
 10
251.218308
 20
-250.636390
 30
0.0
 40
3.000005
 50
0.0
 51
12.544233
  0
ARC
  8
0
  6
BYLAYER
 62
     1
 10
436.218430
 20
-209.474403
 30
0.0
 40
186.524017
 50
167.456185
 51
192.543811
  0
ARC
  8
0
  6
BYLAYER
 62
     1
 10
251.218308
 20
-168.312416
 30
0.0
 40
2.999998
 50
347.456340
 51
360.000000
  0
ARC
  8
0
  6
BYLAYER
 62
     1
 10
314.523110
 20
-354.474342
 30
0.0
 40
3.000025
 50
90.0
 51
134.999998
  0
ARC
  8
0
  6
BYLAYER
 62
     1
 10
345.055985
 20
-344.474403
 30
0.0
 40
2.999983
 50
77.456264
 51
90.000003
  0
ARC
  8
0
  6
BYLAYER
 62
     1
 10
386.218430
 20
-159.474403
 30
0.0
 40
186.524017
 50
257.456030
 51
282.543971
  0
LINE
  8
0
  6
BYLAYER
 62
     1
 10
306.218422
 20
-341.474403
 30
0.0
 11
306.218422
 21
-356.974434
 31
0.0
  0
ARC
  8
0
  6
BYLAYER
 62
     1
 10
457.913742
 20
-354.474342
 30
0.0
 40
3.000025
 50
45.000001
 51
89.999996
  0
ARC
  8
0
  6
BYLAYER
 62
     1
 10
427.380875
 20
-344.474403
 30
0.0
 40
2.999983
 50
90.0
 51
102.543738
  0
LINE
  8
0
  6
BYLAYER
 62
     1
 10
466.218430
 20
-341.474403
 30
0.0
 11
466.218430
 21
-356.974434
 31
0.0
  0
LINE
  8
0
  6
BYLAYER
 62
     1
 10
457.913804
 20
-27.474464
 30
0.0
 11
314.523118
 21
-27.474464
 31
0.0
  0
ARC
  8
0
  6
BYLAYER
 62
     1
 10
457.913743
 20
-24.474525
 30
0.0
 40
3.000025
 50
270.0
 51
315.000018
  0
ARC
  8
0
  6
BYLAYER
 62
     1
 10
314.523118
 20
-24.474525
 30
0.0
 40
3.000025
 50
224.999982
 51
270.000001
  0
LINE
  8
0
  6
BYLAYER
 62
     1
 10
254.218308
 20
-40.474403
 30
0.0
 11
254.218308
 21
-99.974403
 31
0.0
  0
LINE
  8
0
  6
BYLAYER
 62
     1
 10
254.218308
 20
-110.974403
 30
0.0
 11
254.218308
 21
-111.974403
 31
0.0
  0
LINE
  8
0
  6
BYLAYER
 62
     1
 10
254.218308
 20
-122.974403
 30
0.0
 11
254.218308
 21
-123.974403
 31
0.0
  0
LINE
  8
0
  6
BYLAYER
 62
     1
 10
254.218308
 20
-134.974403
 30
0.0
 11
254.218308
 21
-168.312416
 31
0.0
  0
LINE
  8
0
  6
BYLAYER
 62
     1
 10
518.218430
 20
-40.474403
 30
0.0
 11
518.218430
 21
-99.974403
 31
0.0
  0
LINE
  8
0
  6
BYLAYER
 62
     1
 10
518.218430
 20
-110.974403
 30
0.0
 11
518.218430
 21
-111.974403
 31
0.0
  0
LINE
  8
0
  6
BYLAYER
 62
     1
 10
518.218430
 20
-122.974403
 30
0.0
 11
518.218430
 21
-123.974403
 31
0.0
  0
LINE
  8
0
  6
BYLAYER
 62
     1
 10
518.218430
 20
-134.974403
 30
0.0
 11
518.218430
 21
-168.311866
 31
0.0
  0
LINE
  8
0
  6
BYLAYER
 62
     1
 10
531.218369
 20
-26.974403
 30
0.0
 11
526.218369
 21
-21.974403
 31
0.0
  0
LINE
  8
0
  6
BYLAYER
 62
     1
 10
531.218369
 20
-351.974434
 30
0.0
 11
531.218369
 21
-286.033668
 31
0.0
  0
LINE
  8
0
  6
BYLAYER
 62
     1
 10
531.218369
 20
-351.974434
 30
0.0
 11
526.218369
 21
-356.974434
 31
0.0
  0
LINE
  8
0
  6
BYLAYER
 62
     1
 10
244.218308
 20
-237.473518
 30
0.0
 11
244.218308
 21
-281.681953
 31
0.0
  0
ARC
  8
0
  6
BYLAYER
 62
     1
 10
436.218430
 20
-209.474403
 30
0.0
 40
194.000000
 50
171.82864
 51
188.170974
  0
ARC
  8
0
  6
BYLAYER
 62
     1
 10
358.218003
 20
-354.474342
 30
0.0
 40
3.000000
 50
81.828840
 51
90.000000
  0
ARC
  8
0
  6
BYLAYER
 62
     1
 10
386.218430
 20
-159.474403
 30
0.0
 40
194.000000
 50
261.828636
 51
278.170983
  0
ARC
  8
0
  6
BYLAYER
 62
     1
 10
414.218857
 20
-354.474342
 30
0.0
 40
3.0
 50
90.0
 51
98.171167
  0
ARC
  8
0
  6
BYLAYER
 62
     1
 10
336.218430
 20
-209.474403
 30
0.0
 40
194.0
 50
351.828645
 51
368.170965
  0
LINE
  8
0
  6
BYLAYER
 62
     1
 10
314.523110
 20
-351.474342
 30
0.0
 11
358.218003
 21
-351.474342
 31
0.0
  0
LINE
  8
0
  6
BYLAYER
 62
     1
 10
457.913742
 20
-351.474342
 30
0.0
 11
414.218857
 21
-351.474342
 31
0.0
  0
LINE
  8
0
  6
BYLAYER
 62
     1
 10
528.218369
 20
-181.473976
 30
0.0
 11
528.218369
 21
-136.478492
 31
0.0
  0
LINE
  8
0
  6
BYLAYER
 62
     1
 10
528.218369
 20
-281.169715
 30
0.0
 11
528.218369
 21
-237.474830
 31
0.0
  0
LINE
  8
0
  6
BYLAYER
 62
     1
 10
312.401780
 20
-26.595863
 30
0.0
 11
307.780449
 21
-21.974403
 31
0.0
  0
LINE
  8
0
  6
BYLAYER
 62
     1
 10
306.218430
 20
-21.974403
 30
0.0
 11
306.218430
 21
-37.474403
 31
0.0
  0
LINE
  8
0
  6
BYLAYER
 62
     1
 10
238.718308
 20
-130.974403
 30
0.0
 11
238.718308
 21
-26.974403
 31
0.0
  0
LINE
  8
0
  6
BYLAYER
 62
     1
 10
531.218369
 20
-133.474403
 30
0.0
 11
531.218369
 21
-26.974403
 31
0.0
  0
LINE
  8
0
  6
BYLAYER
 62
     1
 10
466.218430
 20
-21.974403
 30
0.0
 11
466.218430
 21
-37.474403
 31
0.0
  0
LINE
  8
0
  6
BYLAYER
 62
     1
 10
460.035080
 20
-26.595863
 30
0.0
 11
464.656418
 21
-21.974403
 31
0.0
  0
LINE
  8
0
  6
BYLAYER
 62
     1
 10
526.218369
 20
-21.974403
 30
0.0
 11
464.656418
 21
-21.974403
 31
0.0
  0
LINE
  8
0
  6
BYLAYER
 62
     1
 10
312.401772
 20
-352.353004
 30
0.0
 11
307.780426
 21
-356.974434
 31
0.0
  0
LINE
  8
0
  6
BYLAYER
 62
     1
 10
464.656449
 20
-356.974434
 30
0.0
 11
526.218369
 21
-356.974434
 31
0.0
  0
LINE
  8
0
  6
BYLAYER
 62
     1
 10
460.035080
 20
-352.353004
 30
0.0
 11
464.656449
 21
-356.974434
 31
0.0
  0
LINE
  8
0
  6
BYLAYER
 62
     1
 10
528.512375
 20
-289.895668
 30
0.0
 11
528.512375
 21
-354.680427
 31
0.0
  0
LINE
  8
0
  6
BYLAYER
 62
     1
 10
307.780426
 20
-356.974434
 30
0.0
 11
243.718308
 21
-356.974372
 31
0.0
  0
LINE
  8
0
  6
BYLAYER
 62
     1
 10
238.718308
 20
-351.974372
 30
0.0
 11
243.718308
 21
-356.974372
 31
0.0
  0
LINE
  8
0
  6
BYLAYER
 62
     1
 10
238.718308
 20
-287.912269
 30
0.0
 11
243.339646
 21
-283.291053
 31
0.0
  0
LINE
  8
0
  6
BYLAYER
 62
     1
 10
238.718308
 20
-287.912269
 30
0.0
 11
238.718308
 21
-351.974372
 31
0.0
  0
LINE
  8
0
  6
BYLAYER
 62
     1
 10
238.718308
 20
-130.974403
 30
0.0
 11
241.375748
 21
-131.113868
 31
0.0
  0
ARC
  8
0
  6
BYLAYER
 62
     1
 10
241.218491
 20
-134.109779
 30
0.0
 40
3.0
 50
0.0
 51
86.995416
  0
LINE
  8
0
  6
BYLAYER
 62
     1
 10
244.218491
 20
-181.473976
 30
0.0
 11
244.218491
 21
-133.975929
 31
0.0
  0
LINE
  8
0
  6
BYLAYER
 62
     1
 10
238.718308
 20
-89.474403
 30
0.0
 11
244.264206
 21
-92.900123
 31
0.0
  0
LINE
  8
0
  6
BYLAYER
 62
     1
 10
243.718323
 20
-21.974403
 30
0.0
 11
307.780449
 21
-21.974403
 31
0.0
  0
LINE
  8
0
  6
BYLAYER
 62
     1
 10
238.718308
 20
-26.974403
 30
0.0
 11
243.718323
 21
-21.974403
 31
0.0
  0
ARC
  8
0
  6
BYLAYER
 62
     1
 10
418.256943
 20
-76.474403
 30
0.0
 40
3.000000
 50
55.698957
 51
90.000000
  0
CIRCLE
  8
0
  6
BYLAYER
 62
     1
 10
386.218430
 20
-209.474403
 30
0.0
 40
45.0
  0
ARC
  8
0
  6
BYLAYER
 62
     1
 10
386.218430
 20
-101.974403
 30
0.0
 40
6.000077
 50
353.660000
 51
636.340001
  0
CIRCLE
  8
0
  6
BYLAYER
 62
     1
 10
386.218430
 20
-101.974403
 30
0.0
 40
5.4
  0
ARC
  8
0
  6
BYLAYER
 62
     1
 10
310.204453
 20
-133.460487
 30
0.0
 40
5.999946
 50
38.659991
 51
321.339992
  0
CIRCLE
  8
0
  6
BYLAYER
 62
     1
 10
310.204453
 20
-133.460487
 30
0.0
 40
5.4
  0
ARC
  8
0
  6
BYLAYER
 62
     1
 10
278.718430
 20
-209.474403
 30
0.0
 40
6.000016
 50
83.660009
 51
366.340010
  0
CIRCLE
  8
0
  6
BYLAYER
 62
     1
 10
278.718430
 20
-209.474403
 30
0.0
 40
5.4
  0
ARC
  8
0
  6
BYLAYER
 62
     1
 10
310.204453
 20
-285.488319
 30
0.0
 40
6.000069
 50
128.660028
 51
411.340001
  0
CIRCLE
  8
0
  6
BYLAYER
 62
     1
 10
310.204453
 20
-285.488319
 30
0.0
 40
5.4
  0
ARC
  8
0
  6
BYLAYER
 62
     1
 10
386.218430
 20
-316.974403
 30
0.0
 40
6.000077
 50
173.660015
 51
456.340016
  0
CIRCLE
  8
0
  6
BYLAYER
 62
     1
 10
386.218430
 20
-316.974403
 30
0.0
 40
5.4
  0
ARC
  8
0
  6
BYLAYER
 62
     1
 10
462.232407
 20
-285.488319
 30
0.0
 40
6.000021
 50
218.660013
 51
501.340041
  0
CIRCLE
  8
0
  6
BYLAYER
 62
     1
 10
462.232407
 20
-285.488319
 30
0.0
 40
5.4
  0
ARC
  8
0
  6
BYLAYER
 62
     1
 10
493.718430
 20
-209.474403
 30
0.0
 40
6.000016
 50
263.659977
 51
546.340005
  0
CIRCLE
  8
0
  6
BYLAYER
 62
     1
 10
493.718430
 20
-209.474403
 30
0.0
 40
5.4
  0
ARC
  8
0
  6
BYLAYER
 62
     1
 10
462.232407
 20
-133.460487
 30
0.0
 40
5.999879
 50
308.659982
 51
591.339955
  0
CIRCLE
  8
0
  6
BYLAYER
 62
     1
 10
462.232407
 20
-133.460487
 30
0.0
 40
5.4
  0
ARC
  8
0
  6
BYLAYER
 62
     1
 10
309.681687
 20
-24.698524
 30
0.0
 40
87.500099
 50
269.435199
 51
315.564848
  0
ARC
  8
0
  6
BYLAYER
 62
     1
 10
374.302597
 20
-88.057655
 30
0.0
 40
2.999941
 50
95.605388
 51
135.564229
  0
ARC
  8
0
  6
BYLAYER
 62
     1
 10
308.789536
 20
-115.194130
 30
0.0
 40
2.999902
 50
89.434634
 51
129.395133
  0
ARC
  8
0
  6
BYLAYER
 62
     1
 10
201.442490
 20
-132.937782
 30
0.0
 40
87.5
 50
314.435190
 51
360.564839
  0
ARC
  8
0
  6
BYLAYER
 62
     1
 10
291.938096
 20
-132.045692
 30
0.0
 40
3.000035
 50
140.605386
 51
180.564233
  0
ARC
  8
0
  6
BYLAYER
 62
     1
 10
264.801743
 20
-197.558632
 30
0.0
 40
2.999997
 50
134.434638
 51
174.395138
  0
ARC
  8
0
  6
BYLAYER
 62
     1
 10
264.801743
 20
-221.390174
 30
0.0
 40
2.999996
 50
185.605391
 51
225.564238
  0
ARC
  8
0
  6
BYLAYER
 62
     1
 10
308.789658
 20
-303.754676
 30
0.0
 40
2.999996
 50
230.605382
 51
270.564229
  0
ARC
  8
0
  6
BYLAYER
 62
     1
 10
463.647324
 20
-303.754676
 30
0.0
 40
2.999902
 50
269.434625
 51
309.395138
  0
ARC
  8
0
  6
BYLAYER
 62
     1
 10
480.498764
 20
-286.903114
 30
0.0
 40
3.000035
 50
320.605391
 51
360.564238
  0
ARC
  8
0
  6
BYLAYER
 62
     1
 10
507.635117
 20
-221.390174
 30
0.0
 40
2.999997
 50
314.434643
 51
354.395129
  0
ARC
  8
0
  6
BYLAYER
 62
     1
 10
462.755112
 20
-24.698524
 30
0.0
 40
87.499954
 50
224.435194
 51
270.564803
  0
ARC
  8
0
  6
BYLAYER
 62
     1
 10
463.647263
 20
-115.194130
 30
0.0
 40
2.999957
 50
50.605374
 51
90.564217
  0
ARC
  8
0
  6
BYLAYER
 62
     1
 10
398.134201
 20
-88.057655
 30
0.0
 40
2.999997
 50
44.434626
 51
84.395108
  0
ARC
  8
0
  6
BYLAYER
 62
     1
 10
386.218430
 20
-209.474403
 30
0.0
 40
125.0
 50
90.000003
 51
95.605061
  0
ARC
  8
0
  6
BYLAYER
 62
     1
 10
386.218430
 20
-209.474403
 30
0.0
 40
125.0
 50
84.394938
 51
89.999996
  0
ARC
  8
0
  6
BYLAYER
 62
     1
 10
386.218430
 20
-209.474403
 30
0.0
 40
125.000069
 50
135.0
 51
140.605058
  0
ARC
  8
0
  6
BYLAYER
 62
     1
 10
386.218430
 20
-209.474403
 30
0.0
 40
125.000000
 50
180.000005
 51
185.605063
  0
ARC
  8
0
  6
BYLAYER
 62
     1
 10
386.218430
 20
-209.474403
 30
0.0
 40
124.999985
 50
225.000010
 51
230.605054
  0
ARC
  8
0
  6
BYLAYER
 62
     1
 10
386.218430
 20
-209.474403
 30
0.0
 40
124.999901
 50
315.000019
 51
320.605063
  0
ARC
  8
0
  6
BYLAYER
 62
     1
 10
386.218430
 20
-209.474403
 30
0.0
 40
125.0
 50
0.000010
 51
5.605054
  0
ARC
  8
0
  6
BYLAYER
 62
     1
 10
386.218430
 20
-209.474403
 30
0.0
 40
125.000069
 50
45.000001
 51
50.605046
  0
ARC
  8
0
  6
BYLAYER
 62
     1
 10
386.218430
 20
-209.474403
 30
0.0
 40
125.000069
 50
129.394942
 51
135.0
  0
ARC
  8
0
  6
BYLAYER
 62
     1
 10
386.218430
 20
-209.474403
 30
0.0
 40
125.0
 50
174.394947
 51
179.999991
  0
ARC
  8
0
  6
BYLAYER
 62
     1
 10
386.218430
 20
-209.474403
 30
0.0
 40
124.999901
 50
309.394947
 51
315.000019
  0
ARC
  8
0
  6
BYLAYER
 62
     1
 10
386.218430
 20
-209.474403
 30
0.0
 40
125.0
 50
354.394938
 51
359.999983
  0
ARC
  8
0
  6
BYLAYER
 62
     1
 10
386.218430
 20
-209.474403
 30
0.0
 40
125.000069
 50
39.394929
 51
45.000001
  0
ARC
  8
0
  6
BYLAYER
 62
     1
 10
507.635117
 20
-197.558632
 30
0.0
 40
2.999997
 50
5.604860
 51
45.565363
  0
ARC
  8
0
  6
BYLAYER
 62
     1
 10
480.498764
 20
-132.045692
 30
0.0
 40
3.000035
 50
359.435755
 51
399.394615
  0
ARC
  8
0
  6
BYLAYER
 62
     1
 10
386.218430
 20
-209.474403
 30
0.0
 40
125.0
 50
264.394956
 51
270.000001
  0
ARC
  8
0
  6
BYLAYER
 62
     1
 10
309.681809
 20
-394.250282
 30
0.0
 40
87.500038
 50
44.435257
 51
90.564852
  0
ARC
  8
0
  6
BYLAYER
 62
     1
 10
374.302597
 20
-330.891029
 30
0.0
 40
3.000057
 50
224.435303
 51
264.394956
  0
ARC
  8
0
  6
BYLAYER
 62
     1
 10
386.218430
 20
-209.474403
 30
0.0
 40
125.0
 50
270.0
 51
275.605071
  0
ARC
  8
0
  6
BYLAYER
 62
     1
 10
462.755173
 20
-394.250282
 30
0.0
 40
87.500099
 50
89.435187
 51
135.564843
  0
ARC
  8
0
  6
BYLAYER
 62
     1
 10
398.134263
 20
-330.891029
 30
0.0
 40
3.000063
 50
275.605072
 51
315.564739
  0
ARC
  8
0
  6
BYLAYER
 62
     1
 10
386.218430
 20
-209.474403
 30
0.0
 40
124.999985
 50
219.394938
 51
224.999996
  0
ARC
  8
0
  6
BYLAYER
 62
     1
 10
201.442490
 20
-286.011024
 30
0.0
 40
87.500000
 50
359.435154
 51
405.564824
  0
ARC
  8
0
  6
BYLAYER
 62
     1
 10
291.938096
 20
-286.903114
 30
0.0
 40
3.000035
 50
179.435217
 51
219.394938
  0
ARC
  8
0
  6
BYLAYER
 62
     1
 10
386.218430
 20
-209.474403
 30
0.0
 40
84.000099
 50
22.500098
 51
90.000003
  0
ARC
  8
0
  6
BYLAYER
 62
     1
 10
386.218430
 20
-209.474403
 30
0.0
 40
84.000122
 50
90.000003
 51
382.500094
  0
ARC
  8
0
  6
BYLAYER
 62
     1
 10
498.996384
 20
-177.170448
 30
0.0
 40
3.000030
 50
158.015894
 51
211.564508
  0
ARC
  8
0
  6
BYLAYER
 62
     1
 10
481.377976
 20
-170.057899
 30
0.0
 40
15.999915
 50
338.015707
 51
426.984024
  0
ARC
  8
0
  6
BYLAYER
 62
     1
 10
488.806748
 20
-152.570350
 30
0.0
 40
3.000043
 50
193.434891
 51
246.983711
  0
LINE
  8
0
  6
BYLAYER
 62
     1
 10
355.008469
 20
-78.474403
 30
0.0
 11
417.428452
 21
-78.474403
 31
0.0
  0
ARC
  8
0
  6
BYLAYER
 62
     1
 10
355.008469
 20
-81.474403
 30
0.0
 40
3.0
 50
90.0
 51
103.703477
  0
ARC
  8
0
  6
BYLAYER
 62
     1
 10
417.428452
 20
-81.474403
 30
0.0
 40
3.0
 50
76.296516
 51
90.000000
  0
LINE
  8
0
  6
BYLAYER
 62
     1
 10
271.518662
 20
-138.912147
 30
0.0
 11
315.656235
 21
-94.774452
 31
0.0
  0
LINE
  8
0
  6
BYLAYER
 62
     1
 10
255.218430
 20
-240.684364
 30
0.0
 11
255.218430
 21
-178.264320
 31
0.0
  0
LINE
  8
0
  6
BYLAYER
 62
     1
 10
315.656235
 20
-324.174110
 30
0.0
 11
271.518601
 21
-280.036537
 31
0.0
  0
LINE
  8
0
  6
BYLAYER
 62
     1
 10
417.428391
 20
-340.474403
 30
0.0
 11
355.008408
 21
-340.474403
 31
0.0
  0
LINE
  8
0
  6
BYLAYER
 62
     1
 10
500.918198
 20
-280.036537
 30
0.0
 11
456.780625
 21
-324.174110
 31
0.0
  0
LINE
  8
0
  6
BYLAYER
 62
     1
 10
517.218430
 20
-178.264442
 30
0.0
 11
517.218430
 21
-240.684364
 31
0.0
  0
LINE
  8
0
  6
BYLAYER
 62
     1
 10
456.780686
 20
-94.774574
 30
0.0
 11
500.918259
 21
-138.912147
 31
0.0
  0
ARC
  8
0
  6
BYLAYER
 62
     1
 10
258.218430
 20
-178.264442
 30
0.0
 40
3.0
 50
166.296510
 51
180.0
  0
ARC
  8
0
  6
BYLAYER
 62
     1
 10
386.218430
 20
-209.474403
 30
0.0
 40
134.749969
 50
148.702944
 51
166.297061
  0
ARC
  8
0
  6
BYLAYER
 62
     1
 10
273.639939
 20
-141.033485
 30
0.0
 40
2.999925
 50
134.999181
 51
148.702780
  0
ARC
  8
0
  6
BYLAYER
 62
     1
 10
386.218430
 20
-209.474403
 30
0.0
 40
134.750061
 50
103.702940
 51
121.297138
  0
ARC
  8
0
  6
BYLAYER
 62
     1
 10
317.777451
 20
-96.896034
 30
0.0
 40
3.000025
 50
121.297603
 51
135.000000
  0
ARC
  8
0
  6
BYLAYER
 62
     1
 10
258.218430
 20
-240.684364
 30
0.0
 40
3.000008
 50
180.000000
 51
193.702903
  0
ARC
  8
0
  6
BYLAYER
 62
     1
 10
386.218430
 20
-209.474403
 30
0.0
 40
134.750000
 50
193.702935
 51
211.297093
  0
ARC
  8
0
  6
BYLAYER
 62
     1
 10
273.640000
 20
-277.915321
 30
0.0
 40
3.000025
 50
211.297107
 51
224.999996
  0
ARC
  8
0
  6
BYLAYER
 62
     1
 10
386.218430
 20
-209.474403
 30
0.0
 40
134.749924
 50
238.702954
 51
256.297002
  0
ARC
  8
0
  6
BYLAYER
 62
     1
 10
355.008347
 20
-337.474403
 30
0.0
 40
2.999949
 50
256.296510
 51
270.000001
  0
ARC
  8
0
  6
BYLAYER
 62
     1
 10
417.428452
 20
-337.474403
 30
0.0
 40
3.0
 50
270.0
 51
283.702343
  0
ARC
  8
0
  6
BYLAYER
 62
     1
 10
386.218430
 20
-209.474403
 30
0.0
 40
134.749939
 50
283.702945
 51
301.297075
  0
ARC
  8
0
  6
BYLAYER
 62
     1
 10
454.659348
 20
-322.052772
 30
0.0
 40
3.000009
 50
301.296911
 51
315.000402
  0
ARC
  8
0
  6
BYLAYER
 62
     1
 10
498.796982
 20
-277.915077
 30
0.0
 40
2.999982
 50
314.999582
 51
328.702772
  0
ARC
  8
0
  6
BYLAYER
 62
     1
 10
386.218430
 20
-209.474403
 30
0.0
 40
134.749969
 50
328.702990
 51
346.297066
  0
ARC
  8
0
  6
BYLAYER
 62
     1
 10
514.218430
 20
-240.684364
 30
0.0
 40
2.999979
 50
346.297093
 51
360.000000
  0
ARC
  8
0
  6
BYLAYER
 62
     1
 10
514.218430
 20
-178.264442
 30
0.0
 40
3.0
 50
0.0
 51
13.703481
  0
ARC
  8
0
  6
BYLAYER
 62
     1
 10
386.218430
 20
-209.474403
 30
0.0
 40
134.750000
 50
13.702938
 51
31.297053
  0
ARC
  8
0
  6
BYLAYER
 62
     1
 10
498.796921
 20
-141.033485
 30
0.0
 40
2.999925
 50
31.297218
 51
45.000824
  0
ARC
  8
0
  6
BYLAYER
 62
     1
 10
386.218430
 20
-209.474403
 30
0.0
 40
134.750092
 50
58.702901
 51
76.297038
  0
CIRCLE
  8
0
  6
BYLAYER
 62
     1
 10
386.218430
 20
-209.474403
 30
0.0
 40
90.000053
  0
ARC
  8
0
  6
BYLAYER
 62
     1
 10
570.994370
 20
-286.011024
 30
0.0
 40
87.5
 50
134.435212
 51
180.564889
  0
ARC
  8
0
  6
BYLAYER
 62
     1
 10
570.994370
 20
-132.937782
 30
0.0
 40
87.500000
 50
202.499864
 51
225.564825
  0
ARC
  8
0
  6
BYLAYER
 62
     1
 10
570.994370
 20
-132.937782
 30
0.0
 40
87.500008
 50
179.435189
 51
202.499864
  0
ARC
  8
0
  6
BYLAYER
 62
     1
 10
366.105931
 20
-64.834624
 30
0.0
 40
4.041492
 50
270.0
 51
316.109984
  0
ARC
  8
0
  6
BYLAYER
 62
     1
 10
365.693890
 20
-64.438247
 30
0.0
 40
4.613237
 50
316.109984
 51
360.000000
  0
ARC
  8
0
  6
BYLAYER
 62
     1
 10
365.693890
 20
-64.438247
 30
0.0
 40
4.613237
 50
0.0
 51
43.890016
  0
ARC
  8
0
  6
BYLAYER
 62
     1
 10
366.105931
 20
-64.041869
 30
0.0
 40
4.041492
 50
43.890016
 51
90.000000
  0
ARC
  8
0
  6
BYLAYER
 62
     1
 10
366.105931
 20
-64.041834
 30
0.0
 40
4.041457
 50
90.0
 51
136.110087
  0
ARC
  8
0
  6
BYLAYER
 62
     1
 10
366.518010
 20
-64.438247
 30
0.0
 40
4.613254
 50
136.110087
 51
180.000000
  0
ARC
  8
0
  6
BYLAYER
 62
     1
 10
366.518010
 20
-64.438247
 30
0.0
 40
4.613254
 50
180.000000
 51
223.889913
  0
ARC
  8
0
  6
BYLAYER
 62
     1
 10
366.105931
 20
-64.834659
 30
0.0
 40
4.041457
 50
223.889913
 51
270.0
  0
ARC
  8
0
  6
BYLAYER
 62
     1
 10
366.105931
 20
-63.257836
 30
0.0
 40
1.861645
 50
90.0
 51
140.793201
  0
ARC
  8
0
  6
BYLAYER
 62
     1
 10
367.552908
 20
-64.438247
 30
0.0
 40
3.729026
 50
140.793201
 51
180.0
  0
ARC
  8
0
  6
BYLAYER
 62
     1
 10
367.552885
 20
-64.438247
 30
0.0
 40
3.729004
 50
180.000000
 51
219.206869
  0
ARC
  8
0
  6
BYLAYER
 62
     1
 10
366.105931
 20
-65.618643
 30
0.0
 40
1.861650
 50
219.206869
 51
270.000000
  0
ARC
  8
0
  6
BYLAYER
 62
     1
 10
366.105931
 20
-65.618643
 30
0.0
 40
1.861650
 50
270.0
 51
320.793131
  0
ARC
  8
0
  6
BYLAYER
 62
     1
 10
364.658977
 20
-64.438247
 30
0.0
 40
3.729004
 50
320.793131
 51
360.000000
  0
ARC
  8
0
  6
BYLAYER
 62
     1
 10
364.658955
 20
-64.438247
 30
0.0
 40
3.729026
 50
0.0
 51
39.206799
  0
ARC
  8
0
  6
BYLAYER
 62
     1
 10
366.105931
 20
-63.257836
 30
0.0
 40
1.861645
 50
39.206799
 51
90.0
  0
LINE
  8
0
  6
BYLAYER
 62
     1
 10
352.318956
 20
-68.580248
 30
0.0
 11
352.318956
 21
-60.177877
 31
0.0
  0
LINE
  8
0
  6
BYLAYER
 62
     1
 10
352.318956
 20
-60.177877
 30
0.0
 11
355.735130
 21
-60.177877
 31
0.0
  0
LINE
  8
0
  6
BYLAYER
 62
     1
 10
355.735130
 20
-60.177877
 30
0.0
 11
356.875173
 21
-64.556594
 31
0.0
  0
LINE
  8
0
  6
BYLAYER
 62
     1
 10
352.318956
 20
-68.580248
 30
0.0
 11
354.370250
 21
-68.580248
 31
0.0
  0
LINE
  8
0
  6
BYLAYER
 62
     1
 10
354.370250
 20
-68.580248
 30
0.0
 11
354.370250
 21
-63.728185
 31
0.0
  0
LINE
  8
0
  6
BYLAYER
 62
     1
 10
355.987590
 20
-68.580248
 30
0.0
 11
354.370250
 21
-63.728185
 31
0.0
  0
LINE
  8
0
  6
BYLAYER
 62
     1
 10
361.431389
 20
-68.580248
 30
0.0
 11
361.431389
 21
-60.177877
 31
0.0
  0
LINE
  8
0
  6
BYLAYER
 62
     1
 10
361.431389
 20
-60.177877
 30
0.0
 11
358.015215
 21
-60.177877
 31
0.0
  0
LINE
  8
0
  6
BYLAYER
 62
     1
 10
358.015215
 20
-60.177877
 30
0.0
 11
356.875173
 21
-64.556594
 31
0.0
  0
LINE
  8
0
  6
BYLAYER
 62
     1
 10
361.431389
 20
-68.580248
 30
0.0
 11
359.380095
 21
-68.580248
 31
0.0
  0
LINE
  8
0
  6
BYLAYER
 62
     1
 10
359.380095
 20
-68.580248
 30
0.0
 11
359.380095
 21
-63.728185
 31
0.0
  0
LINE
  8
0
  6
BYLAYER
 62
     1
 10
357.762755
 20
-68.580248
 30
0.0
 11
359.380095
 21
-63.728185
 31
0.0
  0
LINE
  8
0
  6
BYLAYER
 62
     1
 10
357.762755
 20
-68.580248
 30
0.0
 11
355.987590
 21
-68.580248
 31
0.0
  0
LINE
  8
0
  6
BYLAYER
 62
     1
 10
391.490566
 20
-68.580248
 30
0.0
 11
394.685811
 21
-60.177877
 31
0.0
  0
LINE
  8
0
  6
BYLAYER
 62
     1
 10
391.490566
 20
-68.580248
 30
0.0
 11
394.212465
 21
-68.580248
 31
0.0
  0
LINE
  8
0
  6
BYLAYER
 62
     1
 10
394.685811
 20
-60.177877
 30
0.0
 11
397.289363
 21
-60.177877
 31
0.0
  0
LINE
  8
0
  6
BYLAYER
 62
     1
 10
394.212465
 20
-68.580248
 30
0.0
 11
394.615914
 21
-67.396819
 31
0.0
  0
LINE
  8
0
  6
BYLAYER
 62
     1
 10
395.261397
 20
-65.503329
 30
0.0
 11
395.987587
 21
-63.373144
 31
0.0
  0
LINE
  8
0
  6
BYLAYER
 62
     1
 10
400.484652
 20
-68.580248
 30
0.0
 11
397.289363
 21
-60.177877
 31
0.0
  0
LINE
  8
0
  6
BYLAYER
 62
     1
 10
400.484652
 20
-68.580248
 30
0.0
 11
397.762752
 21
-68.580248
 31
0.0
  0
LINE
  8
0
  6
BYLAYER
 62
     1
 10
397.359304
 20
-67.396819
 30
0.0
 11
394.615914
 21
-67.396819
 31
0.0
  0
LINE
  8
0
  6
BYLAYER
 62
     1
 10
396.713777
 20
-65.503329
 30
0.0
 11
395.261397
 21
-65.503329
 31
0.0
  0
LINE
  8
0
  6
BYLAYER
 62
     1
 10
397.762752
 20
-68.580248
 30
0.0
 11
397.359304
 21
-67.396819
 31
0.0
  0
LINE
  8
0
  6
BYLAYER
 62
     1
 10
396.713777
 20
-65.503329
 30
0.0
 11
395.987587
 21
-63.373144
 31
0.0
  0
LINE
  8
0
  6
BYLAYER
 62
     1
 10
370.307128
 20
-62.248888
 30
0.0
 11
372.673986
 21
-62.248888
 31
0.0
  0
LINE
  8
0
  6
BYLAYER
 62
     1
 10
372.673986
 20
-62.248888
 30
0.0
 11
372.673986
 21
-68.580248
 31
0.0
  0
LINE
  8
0
  6
BYLAYER
 62
     1
 10
372.673986
 20
-68.580248
 30
0.0
 11
375.277559
 21
-68.580248
 31
0.0
  0
LINE
  8
0
  6
BYLAYER
 62
     1
 10
375.277559
 20
-68.580248
 30
0.0
 11
375.277559
 21
-62.248888
 31
0.0
  0
LINE
  8
0
  6
BYLAYER
 62
     1
 10
375.277559
 20
-62.248888
 30
0.0
 11
377.644417
 21
-62.248888
 31
0.0
  0
LINE
  8
0
  6
BYLAYER
 62
     1
 10
377.644417
 20
-62.248888
 30
0.0
 11
377.644417
 21
-60.177877
 31
0.0
  0
LINE
  8
0
  6
BYLAYER
 62
     1
 10
377.644417
 20
-60.177877
 30
0.0
 11
370.307128
 21
-60.177877
 31
0.0
  0
LINE
  8
0
  6
BYLAYER
 62
     1
 10
370.307128
 20
-60.177877
 30
0.0
 11
370.307128
 21
-62.248888
 31
0.0
  0
ARC
  8
0
  6
BYLAYER
 62
     1
 10
381.845592
 20
-64.834659
 30
0.0
 40
4.041457
 50
270.0
 51
316.110087
  0
ARC
  8
0
  6
BYLAYER
 62
     1
 10
381.433513
 20
-64.438247
 30
0.0
 40
4.613254
 50
316.110087
 51
360.0
  0
ARC
  8
0
  6
BYLAYER
 62
     1
 10
381.433530
 20
-64.438247
 30
0.0
 40
4.613237
 50
0.0
 51
43.890016
  0
ARC
  8
0
  6
BYLAYER
 62
     1
 10
381.845571
 20
-64.041869
 30
0.0
 40
4.041492
 50
43.890016
 51
90.0
  0
ARC
  8
0
  6
BYLAYER
 62
     1
 10
381.845571
 20
-64.041834
 30
0.0
 40
4.041457
 50
90.0
 51
136.110087
  0
ARC
  8
0
  6
BYLAYER
 62
     1
 10
382.257649
 20
-64.438247
 30
0.0
 40
4.613254
 50
136.110087
 51
180.0
  0
ARC
  8
0
  6
BYLAYER
 62
     1
 10
382.257633
 20
-64.438247
 30
0.0
 40
4.613237
 50
180.000000
 51
223.890016
  0
ARC
  8
0
  6
BYLAYER
 62
     1
 10
381.845592
 20
-64.834624
 30
0.0
 40
4.041492
 50
223.890016
 51
270.000000
  0
ARC
  8
0
  6
BYLAYER
 62
     1
 10
381.845571
 20
-63.257836
 30
0.0
 40
1.861645
 50
90.0
 51
140.793201
  0
ARC
  8
0
  6
BYLAYER
 62
     1
 10
383.292547
 20
-64.438247
 30
0.0
 40
3.729026
 50
140.793201
 51
180.000000
  0
ARC
  8
0
  6
BYLAYER
 62
     1
 10
383.292500
 20
-64.438247
 30
0.0
 40
3.728979
 50
180.000000
 51
219.207055
  0
ARC
  8
0
  6
BYLAYER
 62
     1
 10
381.845592
 20
-65.618613
 30
0.0
 40
1.861680
 50
219.207055
 51
270.000000
  0
ARC
  8
0
  6
BYLAYER
 62
     1
 10
381.845592
 20
-65.618643
 30
0.0
 40
1.861650
 50
270.0
 51
320.793131
  0
ARC
  8
0
  6
BYLAYER
 62
     1
 10
380.398638
 20
-64.438247
 30
0.0
 40
3.729004
 50
320.793131
 51
360.0
  0
ARC
  8
0
  6
BYLAYER
 62
     1
 10
380.398640
 20
-64.438247
 30
0.0
 40
3.729001
 50
0.0
 51
39.206985
  0
ARC
  8
0
  6
BYLAYER
 62
     1
 10
381.845571
 20
-63.257866
 30
0.0
 40
1.861675
 50
39.206985
 51
90.0
  0
LINE
  8
0
  6
BYLAYER
 62
     1
 10
400.711434
 20
-68.580248
 30
0.0
 11
400.711434
 21
-60.177877
 31
0.0
  0
LINE
  8
0
  6
BYLAYER
 62
     1
 10
400.711434
 20
-60.177877
 30
0.0
 11
405.918517
 21
-60.177877
 31
0.0
  0
ARC
  8
0
  6
BYLAYER
 62
     1
 10
405.918517
 20
-62.544756
 30
0.0
 40
2.366854
 50
287.134650
 51
450.000006
  0
ARC
  8
0
  6
BYLAYER
 62
     1
 10
406.391906
 20
-66.686758
 30
0.0
 40
1.893491
 50
0.0
 51
83.207557
  0
LINE
  8
0
  6
BYLAYER
 62
     1
 10
408.285396
 20
-66.686758
 30
0.0
 11
408.285396
 21
-67.870187
 31
0.0
  0
ARC
  8
0
  6
BYLAYER
 62
     1
 10
410.178887
 20
-67.870187
 30
0.0
 40
1.893491
 50
180.000000
 51
202.024314
  0
LINE
  8
0
  6
BYLAYER
 62
     1
 10
405.820015
 20
-68.580248
 30
0.0
 11
408.423568
 21
-68.580248
 31
0.0
  0
ARC
  8
0
  6
BYLAYER
 62
     1
 10
407.575335
 20
-67.870187
 30
0.0
 40
1.893491
 50
180.000000
 51
202.024314
  0
LINE
  8
0
  6
BYLAYER
 62
     1
 10
405.681844
 20
-67.870187
 30
0.0
 11
405.681844
 21
-66.923452
 31
0.0
  0
LINE
  8
0
  6
BYLAYER
 62
     1
 10
400.711434
 20
-68.580248
 30
0.0
 11
403.196639
 21
-68.580248
 31
0.0
  0
LINE
  8
0
  6
BYLAYER
 62
     1
 10
403.196639
 20
-68.580248
 30
0.0
 11
403.196639
 21
-65.740023
 31
0.0
  0
LINE
  8
0
  6
BYLAYER
 62
     1
 10
404.498415
 20
-65.740023
 30
0.0
 11
403.196639
 21
-65.740023
 31
0.0
  0
ARC
  8
0
  6
BYLAYER
 62
     1
 10
404.498415
 20
-66.923452
 30
0.0
 40
1.183429
 50
0.0
 51
90.000003
  0
LINE
  8
0
  6
BYLAYER
 62
     1
 10
403.196639
 20
-63.846532
 30
0.0
 11
403.196639
 21
-62.071368
 31
0.0
  0
LINE
  8
0
  6
BYLAYER
 62
     1
 10
403.196639
 20
-62.071368
 30
0.0
 11
404.853435
 21
-62.071368
 31
0.0
  0
LINE
  8
0
  6
BYLAYER
 62
     1
 10
403.196639
 20
-63.846532
 30
0.0
 11
404.853435
 21
-63.846532
 31
0.0
  0
ARC
  8
0
  6
BYLAYER
 62
     1
 10
404.853435
 20
-62.958950
 30
0.0
 40
0.887582
 50
270.0
 51
450.000005
  0
LINE
  8
0
  6
BYLAYER
 62
     1
 10
389.419576
 20
-65.923333
 30
0.0
 11
387.881105
 21
-60.177877
 31
0.0
  0
LINE
  8
0
  6
BYLAYER
 62
     1
 10
387.881105
 20
-60.177877
 30
0.0
 11
385.395900
 21
-60.177877
 31
0.0
  0
LINE
  8
0
  6
BYLAYER
 62
     1
 10
385.395900
 20
-60.177877
 30
0.0
 11
387.999452
 21
-68.580248
 31
0.0
  0
LINE
  8
0
  6
BYLAYER
 62
     1
 10
389.419576
 20
-65.923333
 30
0.0
 11
390.958004
 21
-60.177877
 31
0.0
  0
LINE
  8
0
  6
BYLAYER
 62
     1
 10
390.958004
 20
-60.177877
 30
0.0
 11
393.443209
 21
-60.177877
 31
0.0
  0
LINE
  8
0
  6
BYLAYER
 62
     1
 10
393.443209
 20
-60.177877
 30
0.0
 11
390.839656
 21
-68.580248
 31
0.0
  0
LINE
  8
0
  6
BYLAYER
 62
     1
 10
390.839656
 20
-68.580248
 30
0.0
 11
387.999452
 21
-68.580248
 31
0.0
  0
LINE
  8
0
  6
BYLAYER
 62
     1
 10
408.650350
 20
-68.580248
 30
0.0
 11
411.135555
 21
-68.580248
 31
0.0
  0
LINE
  8
0
  6
BYLAYER
 62
     1
 10
411.135555
 20
-68.580248
 30
0.0
 11
411.135555
 21
-60.177877
 31
0.0
  0
LINE
  8
0
  6
BYLAYER
 62
     1
 10
411.135555
 20
-60.177877
 30
0.0
 11
408.650350
 21
-60.177877
 31
0.0
  0
LINE
  8
0
  6
BYLAYER
 62
     1
 10
408.650350
 20
-60.177877
 30
0.0
 11
408.650350
 21
-68.580248
 31
0.0
  0
ARC
  8
0
  6
BYLAYER
 62
     1
 10
415.810119
 20
-64.834659
 30
0.0
 40
4.041457
 50
270.0
 51
316.110087
  0
ARC
  8
0
  6
BYLAYER
 62
     1
 10
415.398040
 20
-64.438247
 30
0.0
 40
4.613254
 50
316.110087
 51
360.000000
  0
ARC
  8
0
  6
BYLAYER
 62
     1
 10
415.398040
 20
-64.438247
 30
0.0
 40
4.613254
 50
0.0
 51
43.889913
  0
ARC
  8
0
  6
BYLAYER
 62
     1
 10
415.810119
 20
-64.041834
 30
0.0
 40
4.041457
 50
43.889913
 51
90.0
  0
ARC
  8
0
  6
BYLAYER
 62
     1
 10
415.810119
 20
-64.041834
 30
0.0
 40
4.041457
 50
90.0
 51
136.110087
  0
ARC
  8
0
  6
BYLAYER
 62
     1
 10
416.222197
 20
-64.438247
 30
0.0
 40
4.613254
 50
136.110087
 51
180.000000
  0
ARC
  8
0
  6
BYLAYER
 62
     1
 10
416.222197
 20
-64.438247
 30
0.0
 40
4.613254
 50
180.000000
 51
223.889913
  0
ARC
  8
0
  6
BYLAYER
 62
     1
 10
415.810119
 20
-64.834659
 30
0.0
 40
4.041457
 50
223.889913
 51
270.0
  0
ARC
  8
0
  6
BYLAYER
 62
     1
 10
415.810119
 20
-63.257836
 30
0.0
 40
1.861645
 50
39.206799
 51
90.000000
  0
ARC
  8
0
  6
BYLAYER
 62
     1
 10
414.363142
 20
-64.438247
 30
0.0
 40
3.729026
 50
0.0
 51
39.206799
  0
ARC
  8
0
  6
BYLAYER
 62
     1
 10
414.363164
 20
-64.438247
 30
0.0
 40
3.729004
 50
320.793131
 51
360.0
  0
ARC
  8
0
  6
BYLAYER
 62
     1
 10
415.810119
 20
-65.618643
 30
0.0
 40
1.861650
 50
270.0
 51
320.793131
  0
ARC
  8
0
  6
BYLAYER
 62
     1
 10
415.810119
 20
-65.618643
 30
0.0
 40
1.861650
 50
219.206869
 51
270.000000
  0
ARC
  8
0
  6
BYLAYER
 62
     1
 10
417.257073
 20
-64.438247
 30
0.0
 40
3.729004
 50
180.000000
 51
219.206869
  0
ARC
  8
0
  6
BYLAYER
 62
     1
 10
417.257095
 20
-64.438247
 30
0.0
 40
3.729026
 50
140.793201
 51
180.000000
  0
ARC
  8
0
  6
BYLAYER
 62
     1
 10
415.810119
 20
-63.257836
 30
0.0
 40
1.861645
 50
90.0
 51
140.793201
  0
ARC
  8
0
  6
BYLAYER
 62
     1
 10
373.849510
 20
-50.558858
 30
0.0
 40
10.401993
 50
174.535650
 51
180.000000
  0
LINE
  8
0
  6
BYLAYER
 62
     1
 10
363.494785
 20
-49.568310
 30
0.0
 11
363.494785
 21
-49.568299
 31
0.0
  0
LINE
  8
0
  6
BYLAYER
 62
     1
 10
363.506104
 20
-49.456407
 30
0.0
 11
364.498847
 21
-49.038447
 31
0.0
  0
ARC
  8
0
  6
BYLAYER
 62
     1
 10
373.849553
 20
-50.558944
 30
0.0
 40
9.473494
 50
159.235383
 51
170.763998
  0
LINE
  8
0
  6
BYLAYER
 62
     1
 10
364.991369
 20
-47.200253
 30
0.0
 11
364.340650
 21
-46.341894
 31
0.0
  0
ARC
  8
0
  6
BYLAYER
 62
     1
 10
373.849510
 20
-50.558858
 30
0.0
 40
10.401981
 50
144.139514
 51
156.083795
  0
LINE
  8
0
  6
BYLAYER
 62
     1
 10
365.350859
 20
-44.560985
 30
0.0
 11
365.351479
 21
-44.560110
 31
0.0
  0
LINE
  8
0
  6
BYLAYER
 62
     1
 10
365.419268
 20
-44.465237
 30
0.0
 11
366.476163
 21
-44.610647
 31
0.0
  0
ARC
  8
0
  6
BYLAYER
 62
     1
 10
373.849510
 20
-50.558858
 30
0.0
 40
9.473437
 50
129.235643
 51
141.105976
  0
LINE
  8
0
  6
BYLAYER
 62
     1
 10
367.702550
 20
-43.350458
 30
0.0
 11
367.703575
 21
-43.349572
 31
0.0
  0
LINE
  8
0
  6
BYLAYER
 62
     1
 10
367.857455
 20
-43.221197
 30
0.0
 11
367.723064
 21
-42.152427
 31
0.0
  0
ARC
  8
0
  6
BYLAYER
 62
     1
 10
373.849510
 20
-50.558858
 30
0.0
 40
10.401992
 50
114.139607
 51
126.083853
  0
LINE
  8
0
  6
BYLAYER
 62
     1
 10
369.489144
 20
-41.114883
 30
0.0
 11
369.489849
 21
-41.114551
 31
0.0
  0
LINE
  8
0
  6
BYLAYER
 62
     1
 10
369.595498
 20
-41.066503
 30
0.0
 11
370.438058
 21
-41.720855
 31
0.0
  0
LINE
  8
0
  6
BYLAYER
 62
     1
 10
370.630702
 20
-41.649004
 30
0.0
 11
370.631771
 21
-41.648630
 31
0.0
  0
ARC
  8
0
  6
BYLAYER
 62
     1
 10
373.849510
 20
-50.558858
 30
0.0
 40
9.473434
 50
99.235601
 51
111.106038
  0
ARC
  8
0
  6
BYLAYER
 62
     1
 10
373.849510
 20
-50.558858
 30
0.0
 40
10.401993
 50
90.0
 51
96.083892
  0
LINE
  8
0
  6
BYLAYER
 62
     1
 10
372.747060
 20
-40.215452
 30
0.0
 11
372.329076
 21
-41.208231
 31
0.0
  0
LINE
  8
0
  6
BYLAYER
 62
     1
 10
384.204225
 20
-49.568310
 30
0.0
 11
384.204225
 21
-49.568299
 31
0.0
  0
LINE
  8
0
  6
BYLAYER
 62
     1
 10
384.192917
 20
-49.456405
 30
0.0
 11
383.200123
 21
-49.038437
 31
0.0
  0
ARC
  8
0
  6
BYLAYER
 62
     1
 10
373.849446
 20
-50.558944
 30
0.0
 40
9.473494
 50
9.235986
 51
20.764650
  0
LINE
  8
0
  6
BYLAYER
 62
     1
 10
382.707700
 20
-47.200154
 30
0.0
 11
383.358372
 21
-46.341896
 31
0.0
  0
ARC
  8
0
  6
BYLAYER
 62
     1
 10
373.849510
 20
-50.558858
 30
0.0
 40
10.401981
 50
23.916189
 51
35.860484
  0
LINE
  8
0
  6
BYLAYER
 62
     1
 10
382.348140
 20
-44.560985
 30
0.0
 11
382.347521
 21
-44.560110
 31
0.0
  0
LINE
  8
0
  6
BYLAYER
 62
     1
 10
382.279753
 20
-44.465237
 30
0.0
 11
381.222932
 21
-44.610633
 31
0.0
  0
ARC
  8
0
  6
BYLAYER
 62
     1
 10
373.849510
 20
-50.558858
 30
0.0
 40
9.473437
 50
38.894050
 51
50.764315
  0
LINE
  8
0
  6
BYLAYER
 62
     1
 10
379.996471
 20
-43.350458
 30
0.0
 11
379.995445
 21
-43.349572
 31
0.0
  0
LINE
  8
0
  6
BYLAYER
 62
     1
 10
379.841594
 20
-43.221025
 30
0.0
 11
379.975935
 21
-42.152411
 31
0.0
  0
ARC
  8
0
  6
BYLAYER
 62
     1
 10
373.849510
 20
-50.558858
 30
0.0
 40
10.401992
 50
53.916300
 51
65.860381
  0
LINE
  8
0
  6
BYLAYER
 62
     1
 10
378.209877
 20
-41.114883
 30
0.0
 11
378.209151
 21
-41.114551
 31
0.0
  0
LINE
  8
0
  6
BYLAYER
 62
     1
 10
378.103525
 20
-41.066504
 30
0.0
 11
377.260973
 21
-41.720826
 31
0.0
  0
LINE
  8
0
  6
BYLAYER
 62
     1
 10
377.068297
 20
-41.649004
 30
0.0
 11
377.067250
 21
-41.648630
 31
0.0
  0
ARC
  8
0
  6
BYLAYER
 62
     1
 10
373.849510
 20
-50.558858
 30
0.0
 40
9.473434
 50
68.894081
 51
80.764578
  0
ARC
  8
0
  6
BYLAYER
 62
     1
 10
373.849510
 20
-50.558858
 30
0.0
 40
10.401993
 50
84.535428
 51
90.000003
  0
LINE
  8
0
  6
BYLAYER
 62
     1
 10
374.951964
 20
-40.215452
 30
0.0
 11
375.369846
 21
-41.208062
 31
0.0
  0
ARC
  8
0
  6
BYLAYER
 62
     1
 10
373.849510
 20
-50.558858
 30
0.0
 40
10.401993
 50
180.000000
 51
186.083899
  0
LINE
  8
0
  6
BYLAYER
 62
     1
 10
363.494785
 20
-51.549396
 30
0.0
 11
363.494785
 21
-51.549418
 31
0.0
  0
LINE
  8
0
  6
BYLAYER
 62
     1
 10
363.506104
 20
-51.661310
 30
0.0
 11
364.498877
 21
-52.079282
 31
0.0
  0
ARC
  8
0
  6
BYLAYER
 62
     1
 10
373.849553
 20
-50.558773
 30
0.0
 40
9.473494
 50
189.236002
 51
200.764629
  0
LINE
  8
0
  6
BYLAYER
 62
     1
 10
364.991403
 20
-53.917421
 30
0.0
 11
364.340647
 21
-54.775815
 31
0.0
  0
ARC
  8
0
  6
BYLAYER
 62
     1
 10
373.849510
 20
-50.558858
 30
0.0
 40
10.401981
 50
203.916158
 51
215.860410
  0
LINE
  8
0
  6
BYLAYER
 62
     1
 10
365.350859
 20
-56.556721
 30
0.0
 11
365.351479
 21
-56.557597
 31
0.0
  0
LINE
  8
0
  6
BYLAYER
 62
     1
 10
365.419260
 20
-56.652469
 30
0.0
 11
366.476255
 21
-56.507061
 31
0.0
  0
ARC
  8
0
  6
BYLAYER
 62
     1
 10
373.849510
 20
-50.558858
 30
0.0
 40
9.473437
 50
218.894045
 51
230.764345
  0
LINE
  8
0
  6
BYLAYER
 62
     1
 10
367.702550
 20
-57.767248
 30
0.0
 11
367.703575
 21
-57.768134
 31
0.0
  0
LINE
  8
0
  6
BYLAYER
 62
     1
 10
367.857453
 20
-57.896519
 30
0.0
 11
367.723064
 21
-58.965290
 31
0.0
  0
ARC
  8
0
  6
BYLAYER
 62
     1
 10
373.849510
 20
-50.558858
 30
0.0
 40
10.401992
 50
233.916148
 51
245.860401
  0
LINE
  8
0
  6
BYLAYER
 62
     1
 10
369.489144
 20
-60.002824
 30
0.0
 11
369.489849
 21
-60.003165
 31
0.0
  0
LINE
  8
0
  6
BYLAYER
 62
     1
 10
369.595499
 20
-60.051214
 30
0.0
 11
370.438158
 21
-59.396770
 31
0.0
  0
LINE
  8
0
  6
BYLAYER
 62
     1
 10
370.630702
 20
-59.468702
 30
0.0
 11
370.631771
 21
-59.469086
 31
0.0
  0
LINE
  8
0
  6
BYLAYER
 62
     1
 10
384.204225
 20
-51.549396
 30
0.0
 11
384.204225
 21
-51.549418
 31
0.0
  0
LINE
  8
0
  6
BYLAYER
 62
     1
 10
384.192916
 20
-51.661312
 30
0.0
 11
383.200123
 21
-52.079280
 31
0.0
  0
LINE
  8
0
  6
BYLAYER
 62
     1
 10
382.707609
 20
-53.917445
 30
0.0
 11
383.358382
 21
-54.775822
 31
0.0
  0
LINE
  8
0
  6
BYLAYER
 62
     1
 10
382.348140
 20
-56.556721
 30
0.0
 11
382.347521
 21
-56.557597
 31
0.0
  0
LINE
  8
0
  6
BYLAYER
 62
     1
 10
382.279773
 20
-56.652470
 30
0.0
 11
381.222709
 21
-56.507057
 31
0.0
  0
LINE
  8
0
  6
BYLAYER
 62
     1
 10
379.996471
 20
-57.767248
 30
0.0
 11
379.995445
 21
-57.768134
 31
0.0
  0
LINE
  8
0
  6
BYLAYER
 62
     1
 10
379.841573
 20
-57.896515
 30
0.0
 11
379.975935
 21
-58.965306
 31
0.0
  0
LINE
  8
0
  6
BYLAYER
 62
     1
 10
378.103524
 20
-60.051213
 30
0.0
 11
377.260844
 21
-59.396777
 31
0.0
  0
ARC
  8
0
  6
BYLAYER
 62
     1
 10
373.849510
 20
-50.558858
 30
0.0
 40
9.473437
 50
309.235697
 51
321.105929
  0
ARC
  8
0
  6
BYLAYER
 62
     1
 10
373.849510
 20
-50.558858
 30
0.0
 40
9.473434
 50
248.893873
 51
270.0
  0
ARC
  8
0
  6
BYLAYER
 62
     1
 10
373.849510
 20
-50.558858
 30
0.0
 40
10.401992
 50
294.783232
 51
306.083699
  0
LINE
  8
0
  6
BYLAYER
 62
     1
 10
378.209151
 20
-60.003165
 30
0.0
 11
378.104165
 21
-60.052570
 31
0.0
  0
ARC
  8
0
  6
BYLAYER
 62
     1
 10
373.849510
 20
-50.558858
 30
0.0
 40
10.401981
 50
324.139593
 51
336.083825
  0
ARC
  8
0
  6
BYLAYER
 62
     1
 10
373.849446
 20
-50.558773
 30
0.0
 40
9.473494
 50
339.235210
 51
350.764014
  0
ARC
  8
0
  6
BYLAYER
 62
     1
 10
373.849510
 20
-50.558858
 30
0.0
 40
10.401993
 50
353.916089
 51
360.000000
  0
ARC
  8
0
  6
BYLAYER
 62
     1
 10
373.849510
 20
-50.558858
 30
0.0
 40
10.401993
 50
0.0
 51
6.083907
  0
ARC
  8
0
  6
BYLAYER
 62
     1
 10
373.849510
 20
-50.558858
 30
0.0
 40
9.473434
 50
270.0
 51
291.106008
  0
CIRCLE
  8
0
  6
BYLAYER
 62
     1
 10
373.849510
 20
-50.558858
 30
0.0
 40
5.082113
  0
CIRCLE
  8
0
  6
BYLAYER
 62
     1
 10
373.849510
 20
-50.558858
 30
0.0
 40
7.414445
  0
LINE
  8
0
  6
BYLAYER
 62
     1
 10
245.483506
 20
-94.757667
 30
0.0
 11
244.218491
 21
-134.109779
 31
0.0
  0
LINE
  8
0
  6
BYLAYER
 62
     1
 10
526.960525
 20
-94.692543
 30
0.0
 11
528.218406
 21
-136.478493
 31
0.0
  0
LINE
  8
0
  6
BYLAYER
 62
     1
 10
386.218430
 20
-209.474403
 30
0.0
 11
393.218430
 21
-209.474403
 31
0.0
  0
LINE
  8
0
  6
BYLAYER
 62
     1
 10
386.218430
 20
-209.474403
 30
0.0
 11
386.218430
 21
-216.474403
 31
0.0
  0
LINE
  8
0
  6
BYLAYER
 62
     1
 10
386.218430
 20
-209.474403
 30
0.0
 11
379.218430
 21
-209.474403
 31
0.0
  0
LINE
  8
0
  6
BYLAYER
 62
     1
 10
568.718484
 20
-167.474403
 30
0.0
 11
568.718484
 21
-155.625197
 31
0.0
  0
ARC
  8
0
  6
BYLAYER
 62
     1
 10
567.718484
 20
-155.625197
 30
0.0
 40
1.000000
 50
0.0
 51
90.0
  0
ARC
  8
0
  6
BYLAYER
 62
     1
 10
567.718484
 20
-160.474403
 30
0.0
 40
1.000000
 50
0.0
 51
90.0
  0
ARC
  8
0
  6
BYLAYER
 62
     1
 10
614.718476
 20
-240.474403
 30
0.0
 40
2.000000
 50
180.000000
 51
270.000000
  0
LINE
  8
0
  6
BYLAYER
 62
     1
 10
624.718476
 20
-42.474403
 30
0.0
 11
624.718476
 21
-242.474403
 31
0.0
  0
LINE
  8
0
  6
BYLAYER
 62
     1
 10
567.718476
 20
0.525597
 30
0.0
 11
567.718476
 21
-159.474403
 31
0.0
  0
ARC
  8
0
  6
BYLAYER
 62
     1
 10
575.718476
 20
-1.474403
 30
0.0
 40
2.000000
 50
0.0
 51
90.0
  0
ARC
  8
0
  6
BYLAYER
 62
     1
 10
579.718476
 20
-22.474403
 30
0.0
 40
2.0
 50
180.000000
 51
270.000000
  0
LINE
  8
0
  6
BYLAYER
 62
     1
 10
567.718476
 20
0.525597
 30
0.0
 11
575.718476
 21
0.525597
 31
0.0
  0
LINE
  8
0
  6
BYLAYER
 62
     1
 10
579.718476
 20
-24.474403
 30
0.0
 11
611.218476
 21
-24.474403
 31
0.0
  0
LINE
  8
0
  6
BYLAYER
 62
     1
 10
624.718476
 20
-42.474403
 30
0.0
 11
618.218476
 21
-42.474403
 31
0.0
  0
ARC
  8
0
  6
BYLAYER
 62
     1
 10
618.218476
 20
-40.474403
 30
0.0
 40
2.000000
 50
180.000000
 51
270.000000
  0
LINE
  8
0
  6
BYLAYER
 62
     1
 10
573.718484
 20
-172.474403
 30
0.0
 11
605.890049
 21
-172.474403
 31
0.0
  0
ARC
  8
0
  6
BYLAYER
 62
     1
 10
573.718484
 20
-167.474403
 30
0.0
 40
5.000000
 50
180.000000
 51
270.000000
  0
LINE
  8
0
  6
BYLAYER
 62
     1
 10
624.718476
 20
-242.474403
 30
0.0
 11
614.718476
 21
-242.474403
 31
0.0
  0
LINE
  8
0
  6
BYLAYER
 62
     1
 10
611.625007
 20
-177.380934
 30
0.0
 11
607.304263
 21
-173.060189
 31
0.0
  0
ARC
  8
0
  6
BYLAYER
 62
     1
 10
610.210793
 20
-178.795147
 30
0.0
 40
2.000000
 50
29.759132
 51
44.999999
  0
ARC
  8
0
  6
BYLAYER
 62
     1
 10
605.890049
 20
-174.474403
 30
0.0
 40
2.000000
 50
44.999999
 51
90.000000
  0
LINE
  8
0
  6
BYLAYER
 62
     1
 10
616.218476
 20
-53.617260
 30
0.0
 11
616.218476
 21
-29.474403
 31
0.0
  0
ARC
  8
0
  6
BYLAYER
 62
     1
 10
618.218476
 20
-53.617260
 30
0.0
 40
2.000000
 50
180.000000
 51
270.000000
  0
ARC
  8
0
  6
BYLAYER
 62
     1
 10
611.218476
 20
-29.474403
 30
0.0
 40
5.0
 50
0.0
 51
90.0
  0
LINE
  8
0
  6
BYLAYER
 62
     1
 10
578.115674
 20
-173.956765
 30
0.0
 11
588.532920
 21
-212.834458
 31
0.0
  0
ARC
  8
0
  6
BYLAYER
 62
     1
 10
576.183822
 20
-174.474403
 30
0.0
 40
2.000000
 50
15.000000
 51
90.000000
  0
LINE
  8
0
  6
BYLAYER
 62
     1
 10
611.718476
 20
-226.897053
 30
0.0
 11
589.464772
 21
-214.048871
 31
0.0
  0
ARC
  8
0
  6
BYLAYER
 62
     1
 10
590.464772
 20
-212.316820
 30
0.0
 40
2.0
 50
195.000000
 51
240.000001
  0
ARC
  8
0
  6
BYLAYER
 62
     1
 10
610.718476
 20
-228.629104
 30
0.0
 40
2.0
 50
0.0
 51
60.000001
  0
LINE
  8
0
  6
BYLAYER
 62
     1
 10
577.718476
 20
-1.474403
 30
0.0
 11
577.718476
 21
-152.625197
 31
0.0
  0
ARC
  8
0
  6
BYLAYER
 62
     1
 10
575.718476
 20
-152.625197
 30
0.0
 40
2.000000
 50
270.0
 51
360.0
  0
LINE
  8
0
  6
BYLAYER
 62
     1
 10
612.718476
 20
-240.474403
 30
0.0
 11
612.718476
 21
-179.417382
 31
0.0
  0
LINE
  8
0
  6
BYLAYER
 62
     1
 10
612.718476
 20
-73.709421
 30
0.0
 11
612.718476
 21
-57.617260
 31
0.0
  0
LINE
  8
0
  6
BYLAYER
 62
     1
 10
612.718476
 20
-145.319459
 30
0.0
 11
612.718476
 21
-95.106839
 31
0.0
  0
ARC
  8
0
  6
BYLAYER
 62
     1
 10
611.718476
 20
-145.319459
 30
0.0
 40
1.0
 50
333.446708
 51
360.000000
  0
ARC
  8
0
  6
BYLAYER
 62
     1
 10
614.718476
 20
-57.617260
 30
0.0
 40
2.000000
 50
90.0
 51
180.0
  0
LINE
  8
0
  6
BYLAYER
 62
     1
 10
610.230476
 20
-111.224403
 30
0.0
 11
579.858476
 21
-111.224403
 31
0.0
  0
ARC
  8
0
  6
BYLAYER
 62
     1
 10
579.858476
 20
-113.224403
 30
0.0
 40
2.0
 50
90.0
 51
180.0
  0
ARC
  8
0
  6
BYLAYER
 62
     1
 10
610.230476
 20
-113.224403
 30
0.0
 40
2.0
 50
0.0
 51
90.0
  0
LINE
  8
0
  6
BYLAYER
 62
     1
 10
610.230476
 20
-107.724403
 30
0.0
 11
579.858476
 21
-107.724403
 31
0.0
  0
ARC
  8
0
  6
BYLAYER
 62
     1
 10
579.858476
 20
-105.724403
 30
0.0
 40
2.0
 50
180.000000
 51
270.000000
  0
ARC
  8
0
  6
BYLAYER
 62
     1
 10
610.230476
 20
-105.724403
 30
0.0
 40
2.0
 50
270.0
 51
360.0
  0
LINE
  8
0
  6
BYLAYER
 62
     1
 10
611.759476
 20
-147.710363
 30
0.0
 11
611.759476
 21
-177.208705
 31
0.0
  0
LINE
  8
0
  6
BYLAYER
 62
     1
 10
612.612995
 20
-145.766489
 30
0.0
 11
611.864957
 21
-147.263333
 31
0.0
  0
ARC
  8
0
  6
BYLAYER
 62
     1
 10
612.759476
 20
-147.710363
 30
0.0
 40
1.0
 50
153.446708
 51
180.000000
  0
LINE
  8
0
  6
BYLAYER
 62
     1
 10
612.586596
 20
-178.921027
 30
0.0
 11
611.891356
 21
-177.705060
 31
0.0
  0
ARC
  8
0
  6
BYLAYER
 62
     1
 10
611.718476
 20
-179.417382
 30
0.0
 40
1.0
 50
0.0
 51
29.759132
  0
ARC
  8
0
  6
BYLAYER
 62
     1
 10
612.759476
 20
-177.208705
 30
0.0
 40
1.0
 50
180.000000
 51
209.759132
  0
LINE
  8
0
  6
BYLAYER
 62
     1
 10
624.718476
 20
-78.002478
 30
0.0
 11
616.191607
 21
-78.002478
 31
0.0
  0
LINE
  8
0
  6
BYLAYER
 62
     1
 10
616.124619
 20
-95.106839
 30
0.0
 11
612.718476
 21
-95.106839
 31
0.0
  0
LINE
  8
0
  6
BYLAYER
 62
     1
 10
616.124619
 20
-73.709421
 30
0.0
 11
612.718476
 21
-73.709421
 31
0.0
  0
LINE
  8
0
  6
BYLAYER
 62
     1
 10
624.718476
 20
-90.589556
 30
0.0
 11
616.191607
 21
-90.589556
 31
0.0
  0
LINE
  8
0
  6
BYLAYER
 62
     1
 10
612.230069
 20
-76.190539
 30
0.0
 11
605.297536
 21
-76.190539
 31
0.0
  0
LINE
  8
0
  6
BYLAYER
 62
     1
 10
612.230069
 20
-91.126109
 30
0.0
 11
605.297536
 21
-91.126109
 31
0.0
  0
LINE
  8
0
  6
BYLAYER
 62
     1
 10
616.124619
 20
-73.709421
 30
0.0
 11
616.191607
 21
-78.002478
 31
0.0
  0
LINE
  8
0
  6
BYLAYER
 62
     1
 10
616.191607
 20
-90.589556
 30
0.0
 11
616.124619
 21
-95.106839
 31
0.0
  0
LINE
  8
0
  6
BYLAYER
 62
     1
 10
612.260780
 20
-94.068518
 30
0.0
 11
612.230069
 21
-91.126109
 31
0.0
  0
LINE
  8
0
  6
BYLAYER
 62
     1
 10
612.260780
 20
-74.207669
 30
0.0
 11
612.230069
 21
-76.190539
 31
0.0
  0
LINE
  8
0
  6
BYLAYER
 62
     1
 10
612.718476
 20
-73.709421
 30
0.0
 11
612.260780
 21
-74.207669
 31
0.0
  0
LINE
  8
0
  6
BYLAYER
 62
     1
 10
612.718476
 20
-95.106839
 30
0.0
 11
612.260780
 21
-94.068518
 31
0.0
  0
LINE
  8
0
  6
BYLAYER
 62
     1
 10
555.718476
 20
-79.474403
 30
0.0
 11
555.718476
 21
-159.054851
 31
0.0
  0
LINE
  8
0
  6
BYLAYER
 62
     1
 10
567.718476
 20
-79.474403
 30
0.0
 11
567.718476
 21
0.525612
 31
0.0
  0
LINE
  8
0
  6
BYLAYER
 62
     1
 10
555.718476
 20
0.106562
 30
0.0
 11
555.718476
 21
-79.474403
 31
0.0
  0
LINE
  8
0
  6
BYLAYER
 62
     1
 10
567.718476
 20
-159.474388
 30
0.0
 11
567.718476
 21
-79.474403
 31
0.0
  0
LINE
  8
0
  6
BYLAYER
 62
     1
 10
567.718476
 20
0.525612
 30
0.0
 11
555.718476
 21
0.106562
 31
0.0
  0
LINE
  8
0
  6
BYLAYER
 62
     1
 10
555.718476
 20
-159.054851
 30
0.0
 11
567.718476
 21
-159.473900
 31
0.0
  0
LINE
  8
0
  6
BYLAYER
 62
     1
 10
545.738954
 20
-14.522499
 30
0.0
 11
539.460664
 21
-26.824195
 31
0.0
  0
LINE
  8
0
  6
BYLAYER
 62
     1
 10
545.738954
 20
-79.474403
 30
0.0
 11
545.738954
 21
-1.895301
 31
0.0
  0
LINE
  8
0
  6
BYLAYER
 62
     1
 10
555.718476
 20
0.525583
 30
0.0
 11
555.718476
 21
-79.474403
 31
0.0
  0
LINE
  8
0
  6
BYLAYER
 62
     1
 10
547.634278
 20
0.101891
 30
0.0
 11
555.718476
 21
0.525583
 31
0.0
  0
ARC
  8
0
  6
BYLAYER
 62
     1
 10
544.738954
 20
-22.346809
 30
0.0
 40
0.999972
 50
302.000007
 51
360.000000
  0
LINE
  8
0
  6
BYLAYER
 62
     1
 10
531.218446
 20
-31.974525
 30
0.0
 11
545.268861
 21
-23.194831
 31
0.0
  0
LINE
  8
0
  6
BYLAYER
 62
     1
 10
531.218476
 20
-31.974525
 30
0.0
 11
531.218369
 21
-79.474403
 31
0.0
  0
ARC
  8
0
  6
BYLAYER
 62
     1
 10
547.738954
 20
-1.895301
 30
0.0
 40
1.999969
 50
93.000028
 51
180.0
  0
LINE
  8
0
  6
BYLAYER
 62
     1
 10
545.738954
 20
-144.426307
 30
0.0
 11
539.460664
 21
-132.124611
 31
0.0
  0
LINE
  8
0
  6
BYLAYER
 62
     1
 10
545.738954
 20
-79.474403
 30
0.0
 11
545.738954
 21
-157.053505
 31
0.0
  0
LINE
  8
0
  6
BYLAYER
 62
     1
 10
555.718476
 20
-159.474389
 30
0.0
 11
555.718476
 21
-79.474403
 31
0.0
  0
LINE
  8
0
  6
BYLAYER
 62
     1
 10
547.634278
 20
-159.050697
 30
0.0
 11
555.718476
 21
-159.474389
 31
0.0
  0
ARC
  8
0
  6
BYLAYER
 62
     1
 10
544.738954
 20
-136.601997
 30
0.0
 40
0.999972
 50
0.0
 51
57.999993
  0
LINE
  8
0
  6
BYLAYER
 62
     1
 10
531.218446
 20
-126.974281
 30
0.0
 11
545.268861
 21
-135.753975
 31
0.0
  0
LINE
  8
0
  6
BYLAYER
 62
     1
 10
531.218476
 20
-126.974281
 30
0.0
 11
531.218369
 21
-79.474403
 31
0.0
  0
ARC
  8
0
  6
BYLAYER
 62
     1
 10
547.738954
 20
-157.053505
 30
0.0
 40
1.999969
 50
180.000000
 51
266.999972
  0
LINE
  8
0
  6
BYLAYER
 62
     1
 10
386.218430
 20
-209.474403
 30
0.0
 11
386.218430
 21
-202.039725
 31
0.0
  0
LINE
  8
0
  6
BYLAYER
 62
     1
 10
1250.218430
 20
-299.474128
 30
0.0
 11
1251.218430
 21
-298.474128
 31
0.0
  0
LINE
  8
0
  6
BYLAYER
 62
     1
 10
1247.218430
 20
-299.474128
 30
0.0
 11
1250.218430
 21
-299.474128
 31
0.0
  0
LINE
  8
0
  6
BYLAYER
 62
     1
 10
1251.218430
 20
-195.152367
 30
0.0
 11
1251.218430
 21
-298.474128
 31
0.0
  0
LINE
  8
0
  6
BYLAYER
 62
     1
 10
1088.718491
 20
-356.974434
 30
0.0
 11
1243.718430
 21
-356.974434
 31
0.0
  0
LINE
  8
0
  6
BYLAYER
 62
     1
 10
1221.840297
 20
-21.974464
 30
0.0
 11
1243.718430
 21
-21.974464
 31
0.0
  0
LINE
  8
0
  6
BYLAYER
 62
     1
 10
1088.718491
 20
-21.974464
 30
0.0
 11
1110.596563
 21
-21.974464
 31
0.0
  0
ARC
  8
0
  6
BYLAYER
 62
     1
 10
1091.718491
 20
-290.717048
 30
0.0
 40
3.000046
 50
135.000410
 51
180.000005
  0
LINE
  8
0
  6
BYLAYER
 62
     1
 10
1088.718491
 20
-21.974464
 30
0.0
 11
1088.718491
 21
-59.630725
 31
0.0
  0
LINE
  8
0
  6
BYLAYER
 62
     1
 10
1088.718491
 20
-290.717048
 30
0.0
 11
1088.718491
 21
-356.974434
 31
0.0
  0
ARC
  8
0
  6
BYLAYER
 62
     1
 10
1240.718430
 20
-290.717048
 30
0.0
 40
3.000046
 50
0.0
 51
44.999609
  0
LINE
  8
0
  6
BYLAYER
 62
     1
 10
1243.718430
 20
-21.974464
 30
0.0
 11
1243.718430
 21
-59.630963
 31
0.0
  0
LINE
  8
0
  6
BYLAYER
 62
     1
 10
1243.718430
 20
-356.974434
 30
0.0
 11
1243.718430
 21
-290.717048
 31
0.0
  0
LINE
  8
0
  6
BYLAYER
 62
     1
 10
1243.718430
 20
-334.657600
 30
0.0
 11
1247.218430
 21
-334.474128
 31
0.0
  0
LINE
  8
0
  6
BYLAYER
 62
     1
 10
1247.218430
 20
-334.474128
 30
0.0
 11
1247.218430
 21
-201.117086
 31
0.0
  0
ARC
  8
0
  6
BYLAYER
 62
     1
 10
1156.218430
 20
-280.090004
 30
0.0
 40
3.000021
 50
272.999519
 51
360.000010
  0
LINE
  8
0
  6
BYLAYER
 62
     1
 10
1159.218430
 20
-280.090004
 30
0.0
 11
1159.218430
 21
-267.822578
 31
0.0
  0
ARC
  8
0
  6
BYLAYER
 62
     1
 10
1156.218430
 20
-267.822578
 30
0.0
 40
3.0
 50
0.0
 51
87.032019
  0
ARC
  8
0
  6
BYLAYER
 62
     1
 10
1176.218430
 20
-280.090004
 30
0.0
 40
3.000021
 50
180.000000
 51
267.000477
  0
LINE
  8
0
  6
BYLAYER
 62
     1
 10
1173.218430
 20
-280.090004
 30
0.0
 11
1173.218430
 21
-267.822578
 31
0.0
  0
ARC
  8
0
  6
BYLAYER
 62
     1
 10
1176.218430
 20
-267.822578
 30
0.0
 40
3.0
 50
92.967981
 51
180.000000
  0
LINE
  8
0
  6
BYLAYER
 62
     1
 10
1089.597153
 20
-288.595680
 30
0.0
 11
1098.339768
 21
-279.853096
 31
0.0
  0
LINE
  8
0
  6
BYLAYER
 62
     1
 10
1242.839768
 20
-288.595680
 30
0.0
 11
1234.097092
 21
-279.853035
 31
0.0
  0
ARC
  8
0
  6
BYLAYER
 62
     1
 10
1236.218430
 20
-277.731697
 30
0.0
 40
3.0
 50
180.000000
 51
225.000001
  0
LINE
  8
0
  6
BYLAYER
 62
     1
 10
1091.718369
 20
-286.474464
 30
0.0
 11
1166.218430
 21
-282.570045
 31
0.0
  0
LINE
  8
0
  6
BYLAYER
 62
     1
 10
1240.718552
 20
-286.474464
 30
0.0
 11
1166.218430
 21
-282.570045
 31
0.0
  0
LINE
  8
0
  6
BYLAYER
 62
     1
 10
1156.373703
 20
-264.826576
 30
0.0
 11
1102.063096
 21
-262.010505
 31
0.0
  0
LINE
  8
0
  6
BYLAYER
 62
     1
 10
1146.990613
 20
-240.608144
 30
0.0
 11
1102.063096
 21
-242.937690
 31
0.0
  0
ARC
  8
0
  6
BYLAYER
 62
     1
 10
1102.218430
 20
-245.933662
 30
0.0
 40
3.000000
 50
92.968191
 51
179.999998
  0
LINE
  8
0
  6
BYLAYER
 62
     1
 10
1185.446228
 20
-240.608148
 30
0.0
 11
1230.373826
 21
-242.937690
 31
0.0
  0
ARC
  8
0
  6
BYLAYER
 62
     1
 10
1230.218430
 20
-245.933662
 30
0.0
 40
3.0
 50
0.0
 51
87.031821
  0
LINE
  8
0
  6
BYLAYER
 62
     1
 10
1176.063034
 20
-264.826576
 30
0.0
 11
1230.373826
 21
-262.010475
 31
0.0
  0
LINE
  8
0
  6
BYLAYER
 62
     1
 10
1099.218430
 20
-216.710208
 30
0.0
 11
1099.218430
 21
-277.731758
 31
0.0
  0
ARC
  8
0
  6
BYLAYER
 62
     1
 10
1102.218430
 20
-259.014534
 30
0.0
 40
3.000000
 50
180.000000
 51
267.031807
  0
ARC
  8
0
  6
BYLAYER
 62
     1
 10
1102.218430
 20
-216.014564
 30
0.0
 40
3.0
 50
195.296065
 51
262.639843
  0
ARC
  8
0
  6
BYLAYER
 62
     1
 10
1096.218430
 20
-277.731758
 30
0.0
 40
3.000000
 50
314.999999
 51
360.000000
  0
LINE
  8
0
  6
BYLAYER
 62
     1
 10
1233.218430
 20
-216.710208
 30
0.0
 11
1233.218430
 21
-277.731697
 31
0.0
  0
ARC
  8
0
  6
BYLAYER
 62
     1
 10
1230.218430
 20
-259.014503
 30
0.0
 40
3.000000
 50
272.968213
 51
360.000000
  0
ARC
  8
0
  6
BYLAYER
 62
     1
 10
1230.218430
 20
-216.014564
 30
0.0
 40
3.0
 50
277.360157
 51
344.703935
  0
LINE
  8
0
  6
BYLAYER
 62
     1
 10
1082.218430
 20
-299.474128
 30
0.0
 11
1081.218430
 21
-298.474128
 31
0.0
  0
LINE
  8
0
  6
BYLAYER
 62
     1
 10
1085.218430
 20
-299.474128
 30
0.0
 11
1082.218430
 21
-299.474128
 31
0.0
  0
LINE
  8
0
  6
BYLAYER
 62
     1
 10
1081.218430
 20
-195.152367
 30
0.0
 11
1081.218430
 21
-298.474128
 31
0.0
  0
LINE
  8
0
  6
BYLAYER
 62
     1
 10
1088.718430
 20
-334.657600
 30
0.0
 11
1085.218430
 21
-334.474128
 31
0.0
  0
LINE
  8
0
  6
BYLAYER
 62
     1
 10
1085.218430
 20
-334.474128
 30
0.0
 11
1085.218430
 21
-201.117086
 31
0.0
  0
ARC
  8
0
  6
BYLAYER
 62
     1
 10
1166.218430
 20
-79.474098
 30
0.0
 40
80.000000
 50
357.902096
 51
542.097904
  0
ARC
  8
0
  6
BYLAYER
 62
     1
 10
1166.218430
 20
-79.474098
 30
0.0
 40
55.000000
 50
26.334379
 51
51.484431
  0
ARC
  8
0
  6
BYLAYER
 62
     1
 10
1166.218430
 20
-79.474098
 30
0.0
 40
55.0
 50
128.515569
 51
153.665621
  0
ARC
  8
0
  6
BYLAYER
 62
     1
 10
1166.218430
 20
-142.474098
 30
0.0
 40
100.000000
 50
111.715617
 51
428.284383
  0
ARC
  8
0
  6
BYLAYER
 62
     7
 10
1107.882126
 20
-200.810402
 30
0.0
 40
5.500000
 50
97.222120
 51
352.777880
  0
ARC
  8
0
  6
BYLAYER
 62
     7
 10
1224.554734
 20
-200.810402
 30
0.0
 40
5.500000
 50
187.222120
 51
442.777880
  0
ARC
  8
0
  6
BYLAYER
 62
     7
 10
1224.554734
 20
-84.137794
 30
0.0
 40
5.500000
 50
277.222120
 51
532.777880
  0
ARC
  8
0
  6
BYLAYER
 62
     7
 10
1107.882126
 20
-84.137794
 30
0.0
 40
5.500000
 50
7.222120
 51
262.777880
  0
LINE
  8
0
  6
BYLAYER
 62
     7
 10
1214.737652
 20
-205.135470
 30
0.0
 11
1224.668351
 21
-215.066170
 31
0.0
  0
ARC
  8
0
  6
BYLAYER
 62
     7
 10
1222.900574
 20
-216.833931
 30
0.0
 40
2.500003
 50
307.317094
 51
404.999875
  0
ARC
  8
0
  6
BYLAYER
 62
     7
 10
1166.218430
 20
-142.474098
 30
0.0
 40
96.0
 50
273.065417
 51
307.317122
  0
ARC
  8
0
  6
BYLAYER
 62
     7
 10
1171.218430
 20
-235.840309
 30
0.0
 40
2.5
 50
180.000000
 51
273.065385
  0
LINE
  8
0
  6
BYLAYER
 62
     7
 10
1168.718430
 20
-221.684656
 30
0.0
 11
1168.718430
 21
-235.840309
 31
0.0
  0
LINE
  8
0
  6
BYLAYER
 62
     7
 10
1117.699208
 20
-205.135470
 30
0.0
 11
1107.768509
 21
-215.066170
 31
0.0
  0
ARC
  8
0
  6
BYLAYER
 62
     7
 10
1109.536286
 20
-216.833931
 30
0.0
 40
2.500003
 50
135.000123
 51
232.682907
  0
ARC
  8
0
  6
BYLAYER
 62
     7
 10
1166.218430
 20
-142.474098
 30
0.0
 40
96.000000
 50
232.682880
 51
266.934584
  0
ARC
  8
0
  6
BYLAYER
 62
     7
 10
1161.218430
 20
-235.840309
 30
0.0
 40
2.5
 50
266.934629
 51
360.000000
  0
LINE
  8
0
  6
BYLAYER
 62
     7
 10
1163.718430
 20
-221.684656
 30
0.0
 11
1163.718430
 21
-235.840309
 31
0.0
  0
LINE
  8
0
  6
BYLAYER
 62
     7
 10
1228.879802
 20
-93.954876
 30
0.0
 11
1238.810502
 21
-84.024177
 31
0.0
  0
ARC
  8
0
  6
BYLAYER
 62
     7
 10
1240.578263
 20
-85.791939
 30
0.0
 40
2.499997
 50
37.317104
 51
134.999877
  0
ARC
  8
0
  6
BYLAYER
 62
     7
 10
1166.218430
 20
-142.474098
 30
0.0
 40
96.0
 50
3.065426
 51
37.317131
  0
ARC
  8
0
  6
BYLAYER
 62
     7
 10
1259.584641
 20
-137.474098
 30
0.0
 40
2.500000
 50
270.0
 51
363.065398
  0
LINE
  8
0
  6
BYLAYER
 62
     7
 10
1245.428988
 20
-139.974098
 30
0.0
 11
1259.584641
 21
-139.974098
 31
0.0
  0
LINE
  8
0
  6
BYLAYER
 62
     7
 10
1228.879802
 20
-190.993320
 30
0.0
 11
1238.810502
 21
-200.924019
 31
0.0
  0
ARC
  8
0
  6
BYLAYER
 62
     7
 10
1240.578263
 20
-199.156242
 30
0.0
 40
2.499997
 50
225.000119
 51
322.682916
  0
ARC
  8
0
  6
BYLAYER
 62
     7
 10
1166.218430
 20
-142.474098
 30
0.0
 40
96.000000
 50
322.682889
 51
356.934594
  0
ARC
  8
0
  6
BYLAYER
 62
     7
 10
1259.584641
 20
-147.474098
 30
0.0
 40
2.5
 50
356.934632
 51
450.000000
  0
LINE
  8
0
  6
BYLAYER
 62
     7
 10
1245.428988
 20
-144.974098
 30
0.0
 11
1259.584641
 21
-144.974098
 31
0.0
  0
LINE
  8
0
  6
BYLAYER
 62
     7
 10
1117.699196
 20
-79.812735
 30
0.0
 11
1107.768509
 21
-69.882057
 31
0.0
  0
ARC
  8
0
  6
BYLAYER
 62
     7
 10
1109.536271
 20
-68.114296
 30
0.0
 40
2.499992
 50
127.317117
 51
224.999873
  0
ARC
  8
0
  6
BYLAYER
 62
     7
 10
1166.218430
 20
-142.474098
 30
0.0
 40
96.000000
 50
112.669610
 51
127.317117
  0
LINE
  8
0
  6
BYLAYER
 62
     7
 10
1214.737648
 20
-79.812722
 30
0.0
 11
1224.668335
 21
-69.882026
 31
0.0
  0
ARC
  8
0
  6
BYLAYER
 62
     7
 10
1222.900574
 20
-68.114265
 30
0.0
 40
2.499992
 50
315.000128
 51
412.682926
  0
ARC
  8
0
  6
BYLAYER
 62
     7
 10
1166.218430
 20
-142.474098
 30
0.0
 40
96.0
 50
52.682871
 51
67.330390
  0
LINE
  8
0
  6
BYLAYER
 62
     7
 10
1103.557058
 20
-190.993320
 30
0.0
 11
1093.626358
 21
-200.924019
 31
0.0
  0
ARC
  8
0
  6
BYLAYER
 62
     7
 10
1091.858597
 20
-199.156242
 30
0.0
 40
2.499997
 50
217.317099
 51
314.999882
  0
ARC
  8
0
  6
BYLAYER
 62
     7
 10
1166.218430
 20
-142.474098
 30
0.0
 40
96.0
 50
183.065394
 51
217.317099
  0
ARC
  8
0
  6
BYLAYER
 62
     7
 10
1072.852219
 20
-147.474098
 30
0.0
 40
2.5
 50
90.0
 51
183.065378
  0
LINE
  8
0
  6
BYLAYER
 62
     7
 10
1087.007872
 20
-144.974098
 30
0.0
 11
1072.852219
 21
-144.974098
 31
0.0
  0
LINE
  8
0
  6
BYLAYER
 62
     7
 10
1103.557058
 20
-93.954876
 30
0.0
 11
1093.626358
 21
-84.024177
 31
0.0
  0
ARC
  8
0
  6
BYLAYER
 62
     7
 10
1091.858597
 20
-85.791939
 30
0.0
 40
2.499997
 50
45.000111
 51
142.682911
  0
ARC
  8
0
  6
BYLAYER
 62
     7
 10
1166.218430
 20
-142.474098
 30
0.0
 40
96.0
 50
142.682911
 51
176.934616
  0
ARC
  8
0
  6
BYLAYER
 62
     7
 10
1072.852219
 20
-137.474098
 30
0.0
 40
2.500000
 50
176.934616
 51
269.999973
  0
LINE
  8
0
  6
BYLAYER
 62
     7
 10
1087.007872
 20
-139.974098
 30
0.0
 11
1072.852219
 21
-139.974098
 31
0.0
  0
LINE
  8
0
  6
BYLAYER
 62
     7
 10
1129.218430
 20
-54.474067
 30
0.0
 11
1129.218430
 21
-72.391557
 31
0.0
  0
LINE
  8
0
  6
BYLAYER
 62
     7
 10
1203.218430
 20
-54.474067
 30
0.0
 11
1203.218430
 21
-72.391557
 31
0.0
  0
LINE
  8
0
  6
BYLAYER
 62
     7
 10
1129.218430
 20
-58.974067
 30
0.0
 11
1132.218430
 21
-64.170204
 31
0.0
  0
LINE
  8
0
  6
BYLAYER
 62
     7
 10
1203.218430
 20
-58.974067
 30
0.0
 11
1200.218430
 21
-64.170204
 31
0.0
  0
LINE
  8
0
  6
BYLAYER
 62
     7
 10
1132.218430
 20
-64.170204
 30
0.0
 11
1132.218430
 21
-70.888048
 31
0.0
  0
LINE
  8
0
  6
BYLAYER
 62
     7
 10
1200.218430
 20
-64.170204
 30
0.0
 11
1200.218430
 21
-70.888048
 31
0.0
  0
LINE
  8
0
  6
BYLAYER
 62
     7
 10
1203.218430
 20
-54.474006
 30
0.0
 11
1129.218430
 21
-54.474006
 31
0.0
  0
CIRCLE
  8
0
  6
BYLAYER
 62
     7
 10
1166.218430
 20
-142.474098
 30
0.0
 40
59.0
  0
CIRCLE
  8
0
  6
BYLAYER
 62
     7
 10
1166.218430
 20
-142.474098
 30
0.0
 40
64.487732
  0
CIRCLE
  8
0
  6
BYLAYER
 62
     7
 10
1166.218430
 20
-142.474098
 30
0.0
 40
79.25
  0
LINE
  8
0
  6
BYLAYER
 62
     7
 10
1167.218430
 20
-113.474098
 30
0.0
 11
1167.218430
 21
-121.474098
 31
0.0
  0
LINE
  8
0
  6
BYLAYER
 62
     7
 10
1167.218430
 20
-103.474098
 30
0.0
 11
1167.218430
 21
-111.474098
 31
0.0
  0
LINE
  8
0
  6
BYLAYER
 62
     7
 10
1175.218430
 20
-111.474098
 30
0.0
 11
1175.218430
 21
-103.474098
 31
0.0
  0
LINE
  8
0
  6
BYLAYER
 62
     7
 10
1177.218430
 20
-111.474098
 30
0.0
 11
1177.218430
 21
-103.474098
 31
0.0
  0
LINE
  8
0
  6
BYLAYER
 62
     7
 10
1167.218430
 20
-121.474098
 30
0.0
 11
1175.218430
 21
-121.474098
 31
0.0
  0
LINE
  8
0
  6
BYLAYER
 62
     7
 10
1167.218430
 20
-113.474098
 30
0.0
 11
1175.218430
 21
-113.474098
 31
0.0
  0
LINE
  8
0
  6
BYLAYER
 62
     7
 10
1177.218430
 20
-111.474098
 30
0.0
 11
1185.056429
 21
-111.474098
 31
0.0
  0
LINE
  8
0
  6
BYLAYER
 62
     7
 10
1167.218430
 20
-111.474098
 30
0.0
 11
1175.218430
 21
-111.474098
 31
0.0
  0
LINE
  8
0
  6
BYLAYER
 62
     7
 10
1177.218430
 20
-103.474098
 30
0.0
 11
1185.056429
 21
-103.474098
 31
0.0
  0
LINE
  8
0
  6
BYLAYER
 62
     7
 10
1167.218430
 20
-103.474098
 30
0.0
 11
1175.218430
 21
-103.474098
 31
0.0
  0
LINE
  8
0
  6
BYLAYER
 62
     7
 10
1185.056429
 20
-111.474098
 30
0.0
 11
1185.056429
 21
-103.474098
 31
0.0
  0
LINE
  8
0
  6
BYLAYER
 62
     7
 10
1175.218430
 20
-121.474098
 30
0.0
 11
1175.218430
 21
-113.474098
 31
0.0
  0
LINE
  8
0
  6
BYLAYER
 62
     7
 10
1177.218430
 20
-113.474098
 30
0.0
 11
1177.218430
 21
-121.474098
 31
0.0
  0
LINE
  8
0
  6
BYLAYER
 62
     7
 10
1177.218430
 20
-121.474098
 30
0.0
 11
1185.218430
 21
-121.474098
 31
0.0
  0
LINE
  8
0
  6
BYLAYER
 62
     7
 10
1177.218430
 20
-113.474098
 30
0.0
 11
1185.218430
 21
-113.474098
 31
0.0
  0
LINE
  8
0
  6
BYLAYER
 62
     7
 10
1185.218430
 20
-121.474098
 30
0.0
 11
1185.218430
 21
-113.474098
 31
0.0
  0
LINE
  8
0
  6
BYLAYER
 62
     7
 10
1187.218430
 20
-131.474098
 30
0.0
 11
1195.218430
 21
-131.474098
 31
0.0
  0
LINE
  8
0
  6
BYLAYER
 62
     7
 10
1187.218430
 20
-113.474098
 30
0.0
 11
1187.218430
 21
-121.474098
 31
0.0
  0
LINE
  8
0
  6
BYLAYER
 62
     7
 10
1187.218430
 20
-123.474098
 30
0.0
 11
1187.218430
 21
-131.474098
 31
0.0
  0
LINE
  8
0
  6
BYLAYER
 62
     7
 10
1187.218430
 20
-123.474098
 30
0.0
 11
1195.218430
 21
-123.474098
 31
0.0
  0
LINE
  8
0
  6
BYLAYER
 62
     7
 10
1187.218430
 20
-121.474098
 30
0.0
 11
1195.218430
 21
-121.474098
 31
0.0
  0
LINE
  8
0
  6
BYLAYER
 62
     7
 10
1187.218430
 20
-113.474098
 30
0.0
 11
1195.218430
 21
-113.474098
 31
0.0
  0
LINE
  8
0
  6
BYLAYER
 62
     7
 10
1195.218430
 20
-131.474098
 30
0.0
 11
1195.218430
 21
-123.474098
 31
0.0
  0
LINE
  8
0
  6
BYLAYER
 62
     7
 10
1195.218430
 20
-121.474098
 30
0.0
 11
1195.218430
 21
-113.474098
 31
0.0
  0
LINE
  8
0
  6
BYLAYER
 62
     7
 10
1187.218430
 20
-141.474098
 30
0.0
 11
1195.218430
 21
-141.474098
 31
0.0
  0
LINE
  8
0
  6
BYLAYER
 62
     7
 10
1187.218430
 20
-133.474098
 30
0.0
 11
1187.218430
 21
-141.474098
 31
0.0
  0
LINE
  8
0
  6
BYLAYER
 62
     7
 10
1187.218430
 20
-133.474098
 30
0.0
 11
1195.218430
 21
-133.474098
 31
0.0
  0
LINE
  8
0
  6
BYLAYER
 62
     7
 10
1195.218430
 20
-141.474098
 30
0.0
 11
1195.218430
 21
-133.474098
 31
0.0
  0
LINE
  8
0
  6
BYLAYER
 62
     7
 10
1197.218430
 20
-131.474098
 30
0.0
 11
1205.218430
 21
-131.474098
 31
0.0
  0
LINE
  8
0
  6
BYLAYER
 62
     7
 10
1197.218430
 20
-123.474098
 30
0.0
 11
1197.218430
 21
-131.474098
 31
0.0
  0
LINE
  8
0
  6
BYLAYER
 62
     7
 10
1197.218430
 20
-123.474098
 30
0.0
 11
1205.218430
 21
-123.474098
 31
0.0
  0
LINE
  8
0
  6
BYLAYER
 62
     7
 10
1205.218430
 20
-131.474098
 30
0.0
 11
1205.218430
 21
-123.474098
 31
0.0
  0
LINE
  8
0
  6
BYLAYER
 62
     7
 10
1197.218430
 20
-141.474098
 30
0.0
 11
1205.218430
 21
-141.474098
 31
0.0
  0
LINE
  8
0
  6
BYLAYER
 62
     7
 10
1197.218430
 20
-133.474098
 30
0.0
 11
1197.218430
 21
-141.474098
 31
0.0
  0
LINE
  8
0
  6
BYLAYER
 62
     7
 10
1197.218430
 20
-133.474098
 30
0.0
 11
1205.218430
 21
-133.474098
 31
0.0
  0
LINE
  8
0
  6
BYLAYER
 62
     7
 10
1205.218430
 20
-141.474098
 30
0.0
 11
1205.218430
 21
-133.474098
 31
0.0
  0
LINE
  8
0
  6
BYLAYER
 62
     7
 10
1207.218430
 20
-131.474098
 30
0.0
 11
1215.218430
 21
-131.474098
 31
0.0
  0
LINE
  8
0
  6
BYLAYER
 62
     7
 10
1207.218430
 20
-123.474098
 30
0.0
 11
1207.218430
 21
-131.474098
 31
0.0
  0
LINE
  8
0
  6
BYLAYER
 62
     7
 10
1207.218430
 20
-123.474098
 30
0.0
 11
1215.218430
 21
-123.474098
 31
0.0
  0
LINE
  8
0
  6
BYLAYER
 62
     7
 10
1215.218430
 20
-131.474098
 30
0.0
 11
1215.218430
 21
-123.474098
 31
0.0
  0
LINE
  8
0
  6
BYLAYER
 62
     7
 10
1207.218430
 20
-141.474098
 30
0.0
 11
1215.218430
 21
-141.474098
 31
0.0
  0
LINE
  8
0
  6
BYLAYER
 62
     7
 10
1207.218430
 20
-133.474098
 30
0.0
 11
1207.218430
 21
-141.474098
 31
0.0
  0
LINE
  8
0
  6
BYLAYER
 62
     7
 10
1207.218430
 20
-133.474098
 30
0.0
 11
1215.218430
 21
-133.474098
 31
0.0
  0
LINE
  8
0
  6
BYLAYER
 62
     7
 10
1215.218430
 20
-141.474098
 30
0.0
 11
1215.218430
 21
-133.474098
 31
0.0
  0
LINE
  8
0
  6
BYLAYER
 62
     7
 10
1167.218430
 20
-93.474098
 30
0.0
 11
1167.218430
 21
-101.474098
 31
0.0
  0
LINE
  8
0
  6
BYLAYER
 62
     7
 10
1175.218430
 20
-101.474098
 30
0.0
 11
1175.218430
 21
-93.474098
 31
0.0
  0
LINE
  8
0
  6
BYLAYER
 62
     7
 10
1177.218430
 20
-101.474098
 30
0.0
 11
1177.218430
 21
-93.474098
 31
0.0
  0
LINE
  8
0
  6
BYLAYER
 62
     7
 10
1177.218430
 20
-101.474098
 30
0.0
 11
1185.056429
 21
-101.474098
 31
0.0
  0
LINE
  8
0
  6
BYLAYER
 62
     7
 10
1167.218430
 20
-101.474098
 30
0.0
 11
1175.218430
 21
-101.474098
 31
0.0
  0
LINE
  8
0
  6
BYLAYER
 62
     7
 10
1177.218430
 20
-93.474098
 30
0.0
 11
1185.056429
 21
-93.474098
 31
0.0
  0
LINE
  8
0
  6
BYLAYER
 62
     7
 10
1167.218430
 20
-93.474098
 30
0.0
 11
1175.218430
 21
-93.474098
 31
0.0
  0
LINE
  8
0
  6
BYLAYER
 62
     7
 10
1185.056429
 20
-101.474098
 30
0.0
 11
1185.056429
 21
-93.474098
 31
0.0
  0
LINE
  8
0
  6
BYLAYER
 62
     7
 10
1187.218430
 20
-103.474098
 30
0.0
 11
1187.218430
 21
-111.474098
 31
0.0
  0
LINE
  8
0
  6
BYLAYER
 62
     7
 10
1187.218430
 20
-111.474098
 30
0.0
 11
1195.218430
 21
-111.474098
 31
0.0
  0
LINE
  8
0
  6
BYLAYER
 62
     7
 10
1187.218430
 20
-103.474098
 30
0.0
 11
1195.218430
 21
-103.474098
 31
0.0
  0
LINE
  8
0
  6
BYLAYER
 62
     7
 10
1195.218430
 20
-111.474098
 30
0.0
 11
1195.218430
 21
-103.474098
 31
0.0
  0
LINE
  8
0
  6
BYLAYER
 62
     7
 10
1187.218430
 20
-93.474098
 30
0.0
 11
1187.218430
 21
-101.474098
 31
0.0
  0
LINE
  8
0
  6
BYLAYER
 62
     7
 10
1187.218430
 20
-101.474098
 30
0.0
 11
1195.218430
 21
-101.474098
 31
0.0
  0
LINE
  8
0
  6
BYLAYER
 62
     7
 10
1187.218430
 20
-93.474098
 30
0.0
 11
1195.218430
 21
-93.474098
 31
0.0
  0
LINE
  8
0
  6
BYLAYER
 62
     7
 10
1195.218430
 20
-101.474098
 30
0.0
 11
1195.218430
 21
-93.474098
 31
0.0
  0
LINE
  8
0
  6
BYLAYER
 62
     7
 10
1197.218430
 20
-113.474098
 30
0.0
 11
1197.218430
 21
-121.474098
 31
0.0
  0
LINE
  8
0
  6
BYLAYER
 62
     7
 10
1197.218430
 20
-121.474098
 30
0.0
 11
1205.218430
 21
-121.474098
 31
0.0
  0
LINE
  8
0
  6
BYLAYER
 62
     7
 10
1197.218430
 20
-113.474098
 30
0.0
 11
1205.218430
 21
-113.474098
 31
0.0
  0
LINE
  8
0
  6
BYLAYER
 62
     7
 10
1205.218430
 20
-121.474098
 30
0.0
 11
1205.218430
 21
-113.474098
 31
0.0
  0
LINE
  8
0
  6
BYLAYER
 62
     7
 10
1197.218430
 20
-103.474098
 30
0.0
 11
1197.218430
 21
-111.474098
 31
0.0
  0
LINE
  8
0
  6
BYLAYER
 62
     7
 10
1197.218430
 20
-111.474098
 30
0.0
 11
1205.218430
 21
-111.474098
 31
0.0
  0
LINE
  8
0
  6
BYLAYER
 62
     7
 10
1197.218430
 20
-103.474098
 30
0.0
 11
1205.218430
 21
-103.474098
 31
0.0
  0
LINE
  8
0
  6
BYLAYER
 62
     7
 10
1205.218430
 20
-111.474098
 30
0.0
 11
1205.218430
 21
-103.474098
 31
0.0
  0
LINE
  8
0
  6
BYLAYER
 62
     7
 10
1207.218430
 20
-113.474098
 30
0.0
 11
1207.218430
 21
-121.474098
 31
0.0
  0
LINE
  8
0
  6
BYLAYER
 62
     7
 10
1207.218430
 20
-121.474098
 30
0.0
 11
1215.218430
 21
-121.474098
 31
0.0
  0
LINE
  8
0
  6
BYLAYER
 62
     7
 10
1207.218430
 20
-113.474098
 30
0.0
 11
1215.218430
 21
-113.474098
 31
0.0
  0
LINE
  8
0
  6
BYLAYER
 62
     7
 10
1215.218430
 20
-121.474098
 30
0.0
 11
1215.218430
 21
-113.474098
 31
0.0
  0
LINE
  8
0
  6
BYLAYER
 62
     7
 10
1167.218430
 20
-171.474098
 30
0.0
 11
1167.218430
 21
-163.474098
 31
0.0
  0
LINE
  8
0
  6
BYLAYER
 62
     7
 10
1167.218430
 20
-181.474098
 30
0.0
 11
1167.218430
 21
-173.474098
 31
0.0
  0
LINE
  8
0
  6
BYLAYER
 62
     7
 10
1175.218430
 20
-173.474098
 30
0.0
 11
1175.218430
 21
-181.474098
 31
0.0
  0
LINE
  8
0
  6
BYLAYER
 62
     7
 10
1177.218430
 20
-173.474098
 30
0.0
 11
1177.218430
 21
-181.474098
 31
0.0
  0
LINE
  8
0
  6
BYLAYER
 62
     7
 10
1167.218430
 20
-163.474098
 30
0.0
 11
1175.218430
 21
-163.474098
 31
0.0
  0
LINE
  8
0
  6
BYLAYER
 62
     7
 10
1167.218430
 20
-171.474098
 30
0.0
 11
1175.218430
 21
-171.474098
 31
0.0
  0
LINE
  8
0
  6
BYLAYER
 62
     7
 10
1177.218430
 20
-173.474098
 30
0.0
 11
1185.056429
 21
-173.474098
 31
0.0
  0
LINE
  8
0
  6
BYLAYER
 62
     7
 10
1167.218430
 20
-173.474098
 30
0.0
 11
1175.218430
 21
-173.474098
 31
0.0
  0
LINE
  8
0
  6
BYLAYER
 62
     7
 10
1177.218430
 20
-181.474098
 30
0.0
 11
1185.056429
 21
-181.474098
 31
0.0
  0
LINE
  8
0
  6
BYLAYER
 62
     7
 10
1167.218430
 20
-181.474098
 30
0.0
 11
1175.218430
 21
-181.474098
 31
0.0
  0
LINE
  8
0
  6
BYLAYER
 62
     7
 10
1185.056429
 20
-173.474098
 30
0.0
 11
1185.056429
 21
-181.474098
 31
0.0
  0
LINE
  8
0
  6
BYLAYER
 62
     7
 10
1175.218430
 20
-163.474098
 30
0.0
 11
1175.218430
 21
-171.474098
 31
0.0
  0
LINE
  8
0
  6
BYLAYER
 62
     7
 10
1177.218430
 20
-171.474098
 30
0.0
 11
1177.218430
 21
-163.474098
 31
0.0
  0
LINE
  8
0
  6
BYLAYER
 62
     7
 10
1177.218430
 20
-163.474098
 30
0.0
 11
1185.218430
 21
-163.474098
 31
0.0
  0
LINE
  8
0
  6
BYLAYER
 62
     7
 10
1177.218430
 20
-171.474098
 30
0.0
 11
1185.218430
 21
-171.474098
 31
0.0
  0
LINE
  8
0
  6
BYLAYER
 62
     7
 10
1185.218430
 20
-163.474098
 30
0.0
 11
1185.218430
 21
-171.474098
 31
0.0
  0
LINE
  8
0
  6
BYLAYER
 62
     7
 10
1187.218430
 20
-153.474098
 30
0.0
 11
1195.218430
 21
-153.474098
 31
0.0
  0
LINE
  8
0
  6
BYLAYER
 62
     7
 10
1187.218430
 20
-171.474098
 30
0.0
 11
1187.218430
 21
-163.474098
 31
0.0
  0
LINE
  8
0
  6
BYLAYER
 62
     7
 10
1187.218430
 20
-161.474098
 30
0.0
 11
1187.218430
 21
-153.474098
 31
0.0
  0
LINE
  8
0
  6
BYLAYER
 62
     7
 10
1187.218430
 20
-161.474098
 30
0.0
 11
1195.218430
 21
-161.474098
 31
0.0
  0
LINE
  8
0
  6
BYLAYER
 62
     7
 10
1187.218430
 20
-163.474098
 30
0.0
 11
1195.218430
 21
-163.474098
 31
0.0
  0
LINE
  8
0
  6
BYLAYER
 62
     7
 10
1187.218430
 20
-171.474098
 30
0.0
 11
1195.218430
 21
-171.474098
 31
0.0
  0
LINE
  8
0
  6
BYLAYER
 62
     7
 10
1195.218430
 20
-153.474098
 30
0.0
 11
1195.218430
 21
-161.474098
 31
0.0
  0
LINE
  8
0
  6
BYLAYER
 62
     7
 10
1195.218430
 20
-163.474098
 30
0.0
 11
1195.218430
 21
-171.474098
 31
0.0
  0
LINE
  8
0
  6
BYLAYER
 62
     7
 10
1187.218430
 20
-143.474098
 30
0.0
 11
1195.218430
 21
-143.474098
 31
0.0
  0
LINE
  8
0
  6
BYLAYER
 62
     7
 10
1187.218430
 20
-151.474098
 30
0.0
 11
1187.218430
 21
-143.474098
 31
0.0
  0
LINE
  8
0
  6
BYLAYER
 62
     7
 10
1187.218430
 20
-151.474098
 30
0.0
 11
1195.218430
 21
-151.474098
 31
0.0
  0
LINE
  8
0
  6
BYLAYER
 62
     7
 10
1195.218430
 20
-143.474098
 30
0.0
 11
1195.218430
 21
-151.474098
 31
0.0
  0
LINE
  8
0
  6
BYLAYER
 62
     7
 10
1197.218430
 20
-153.474098
 30
0.0
 11
1205.218430
 21
-153.474098
 31
0.0
  0
LINE
  8
0
  6
BYLAYER
 62
     7
 10
1197.218430
 20
-161.474098
 30
0.0
 11
1197.218430
 21
-153.474098
 31
0.0
  0
LINE
  8
0
  6
BYLAYER
 62
     7
 10
1197.218430
 20
-161.474098
 30
0.0
 11
1205.218430
 21
-161.474098
 31
0.0
  0
LINE
  8
0
  6
BYLAYER
 62
     7
 10
1205.218430
 20
-153.474098
 30
0.0
 11
1205.218430
 21
-161.474098
 31
0.0
  0
LINE
  8
0
  6
BYLAYER
 62
     7
 10
1197.218430
 20
-143.474098
 30
0.0
 11
1205.218430
 21
-143.474098
 31
0.0
  0
LINE
  8
0
  6
BYLAYER
 62
     7
 10
1197.218430
 20
-151.474098
 30
0.0
 11
1197.218430
 21
-143.474098
 31
0.0
  0
LINE
  8
0
  6
BYLAYER
 62
     7
 10
1197.218430
 20
-151.474098
 30
0.0
 11
1205.218430
 21
-151.474098
 31
0.0
  0
LINE
  8
0
  6
BYLAYER
 62
     7
 10
1205.218430
 20
-143.474098
 30
0.0
 11
1205.218430
 21
-151.474098
 31
0.0
  0
LINE
  8
0
  6
BYLAYER
 62
     7
 10
1207.218430
 20
-153.474098
 30
0.0
 11
1215.218430
 21
-153.474098
 31
0.0
  0
LINE
  8
0
  6
BYLAYER
 62
     7
 10
1207.218430
 20
-161.474098
 30
0.0
 11
1207.218430
 21
-153.474098
 31
0.0
  0
LINE
  8
0
  6
BYLAYER
 62
     7
 10
1207.218430
 20
-161.474098
 30
0.0
 11
1215.218430
 21
-161.474098
 31
0.0
  0
LINE
  8
0
  6
BYLAYER
 62
     7
 10
1215.218430
 20
-153.474098
 30
0.0
 11
1215.218430
 21
-161.474098
 31
0.0
  0
LINE
  8
0
  6
BYLAYER
 62
     7
 10
1207.218430
 20
-143.474098
 30
0.0
 11
1215.218430
 21
-143.474098
 31
0.0
  0
LINE
  8
0
  6
BYLAYER
 62
     7
 10
1207.218430
 20
-151.474098
 30
0.0
 11
1207.218430
 21
-143.474098
 31
0.0
  0
LINE
  8
0
  6
BYLAYER
 62
     7
 10
1207.218430
 20
-151.474098
 30
0.0
 11
1215.218430
 21
-151.474098
 31
0.0
  0
LINE
  8
0
  6
BYLAYER
 62
     7
 10
1215.218430
 20
-143.474098
 30
0.0
 11
1215.218430
 21
-151.474098
 31
0.0
  0
LINE
  8
0
  6
BYLAYER
 62
     7
 10
1167.218430
 20
-191.474098
 30
0.0
 11
1167.218430
 21
-183.474098
 31
0.0
  0
LINE
  8
0
  6
BYLAYER
 62
     7
 10
1175.218430
 20
-183.474098
 30
0.0
 11
1175.218430
 21
-191.474098
 31
0.0
  0
LINE
  8
0
  6
BYLAYER
 62
     7
 10
1177.218430
 20
-183.474098
 30
0.0
 11
1177.218430
 21
-191.474098
 31
0.0
  0
LINE
  8
0
  6
BYLAYER
 62
     7
 10
1177.218430
 20
-183.474098
 30
0.0
 11
1185.056429
 21
-183.474098
 31
0.0
  0
LINE
  8
0
  6
BYLAYER
 62
     7
 10
1167.218430
 20
-183.474098
 30
0.0
 11
1175.218430
 21
-183.474098
 31
0.0
  0
LINE
  8
0
  6
BYLAYER
 62
     7
 10
1177.218430
 20
-191.474098
 30
0.0
 11
1185.056429
 21
-191.474098
 31
0.0
  0
LINE
  8
0
  6
BYLAYER
 62
     7
 10
1167.218430
 20
-191.474098
 30
0.0
 11
1175.218430
 21
-191.474098
 31
0.0
  0
LINE
  8
0
  6
BYLAYER
 62
     7
 10
1185.056429
 20
-183.474098
 30
0.0
 11
1185.056429
 21
-191.474098
 31
0.0
  0
LINE
  8
0
  6
BYLAYER
 62
     7
 10
1187.218430
 20
-181.474098
 30
0.0
 11
1187.218430
 21
-173.474098
 31
0.0
  0
LINE
  8
0
  6
BYLAYER
 62
     7
 10
1187.218430
 20
-173.474098
 30
0.0
 11
1195.218430
 21
-173.474098
 31
0.0
  0
LINE
  8
0
  6
BYLAYER
 62
     7
 10
1187.218430
 20
-181.474098
 30
0.0
 11
1195.218430
 21
-181.474098
 31
0.0
  0
LINE
  8
0
  6
BYLAYER
 62
     7
 10
1195.218430
 20
-173.474098
 30
0.0
 11
1195.218430
 21
-181.474098
 31
0.0
  0
LINE
  8
0
  6
BYLAYER
 62
     7
 10
1187.218430
 20
-191.474098
 30
0.0
 11
1187.218430
 21
-183.474098
 31
0.0
  0
LINE
  8
0
  6
BYLAYER
 62
     7
 10
1187.218430
 20
-183.474098
 30
0.0
 11
1195.218430
 21
-183.474098
 31
0.0
  0
LINE
  8
0
  6
BYLAYER
 62
     7
 10
1187.218430
 20
-191.474098
 30
0.0
 11
1195.218430
 21
-191.474098
 31
0.0
  0
LINE
  8
0
  6
BYLAYER
 62
     7
 10
1195.218430
 20
-183.474098
 30
0.0
 11
1195.218430
 21
-191.474098
 31
0.0
  0
LINE
  8
0
  6
BYLAYER
 62
     7
 10
1197.218430
 20
-171.474098
 30
0.0
 11
1197.218430
 21
-163.474098
 31
0.0
  0
LINE
  8
0
  6
BYLAYER
 62
     7
 10
1197.218430
 20
-163.474098
 30
0.0
 11
1205.218430
 21
-163.474098
 31
0.0
  0
LINE
  8
0
  6
BYLAYER
 62
     7
 10
1197.218430
 20
-171.474098
 30
0.0
 11
1205.218430
 21
-171.474098
 31
0.0
  0
LINE
  8
0
  6
BYLAYER
 62
     7
 10
1205.218430
 20
-163.474098
 30
0.0
 11
1205.218430
 21
-171.474098
 31
0.0
  0
LINE
  8
0
  6
BYLAYER
 62
     7
 10
1197.218430
 20
-181.474098
 30
0.0
 11
1197.218430
 21
-173.474098
 31
0.0
  0
LINE
  8
0
  6
BYLAYER
 62
     7
 10
1197.218430
 20
-173.474098
 30
0.0
 11
1205.218430
 21
-173.474098
 31
0.0
  0
LINE
  8
0
  6
BYLAYER
 62
     7
 10
1197.218430
 20
-181.474098
 30
0.0
 11
1205.218430
 21
-181.474098
 31
0.0
  0
LINE
  8
0
  6
BYLAYER
 62
     7
 10
1205.218430
 20
-173.474098
 30
0.0
 11
1205.218430
 21
-181.474098
 31
0.0
  0
LINE
  8
0
  6
BYLAYER
 62
     7
 10
1207.218430
 20
-171.474098
 30
0.0
 11
1207.218430
 21
-163.474098
 31
0.0
  0
LINE
  8
0
  6
BYLAYER
 62
     7
 10
1207.218430
 20
-163.474098
 30
0.0
 11
1215.218430
 21
-163.474098
 31
0.0
  0
LINE
  8
0
  6
BYLAYER
 62
     7
 10
1207.218430
 20
-171.474098
 30
0.0
 11
1215.218430
 21
-171.474098
 31
0.0
  0
LINE
  8
0
  6
BYLAYER
 62
     7
 10
1215.218430
 20
-163.474098
 30
0.0
 11
1215.218430
 21
-171.474098
 31
0.0
  0
LINE
  8
0
  6
BYLAYER
 62
     7
 10
1165.218430
 20
-113.474098
 30
0.0
 11
1165.218430
 21
-121.474098
 31
0.0
  0
LINE
  8
0
  6
BYLAYER
 62
     7
 10
1165.218430
 20
-103.474098
 30
0.0
 11
1165.218430
 21
-111.474098
 31
0.0
  0
LINE
  8
0
  6
BYLAYER
 62
     7
 10
1157.218430
 20
-111.474098
 30
0.0
 11
1157.218430
 21
-103.474098
 31
0.0
  0
LINE
  8
0
  6
BYLAYER
 62
     7
 10
1155.218430
 20
-111.474098
 30
0.0
 11
1155.218430
 21
-103.474098
 31
0.0
  0
LINE
  8
0
  6
BYLAYER
 62
     7
 10
1165.218430
 20
-121.474098
 30
0.0
 11
1157.218430
 21
-121.474098
 31
0.0
  0
LINE
  8
0
  6
BYLAYER
 62
     7
 10
1165.218430
 20
-113.474098
 30
0.0
 11
1157.218430
 21
-113.474098
 31
0.0
  0
LINE
  8
0
  6
BYLAYER
 62
     7
 10
1155.218430
 20
-111.474098
 30
0.0
 11
1147.380431
 21
-111.474098
 31
0.0
  0
LINE
  8
0
  6
BYLAYER
 62
     7
 10
1165.218430
 20
-111.474098
 30
0.0
 11
1157.218430
 21
-111.474098
 31
0.0
  0
LINE
  8
0
  6
BYLAYER
 62
     7
 10
1155.218430
 20
-103.474098
 30
0.0
 11
1147.380431
 21
-103.474098
 31
0.0
  0
LINE
  8
0
  6
BYLAYER
 62
     7
 10
1165.218430
 20
-103.474098
 30
0.0
 11
1157.218430
 21
-103.474098
 31
0.0
  0
LINE
  8
0
  6
BYLAYER
 62
     7
 10
1147.380431
 20
-111.474098
 30
0.0
 11
1147.380431
 21
-103.474098
 31
0.0
  0
LINE
  8
0
  6
BYLAYER
 62
     7
 10
1157.218430
 20
-121.474098
 30
0.0
 11
1157.218430
 21
-113.474098
 31
0.0
  0
LINE
  8
0
  6
BYLAYER
 62
     7
 10
1155.218430
 20
-113.474098
 30
0.0
 11
1155.218430
 21
-121.474098
 31
0.0
  0
LINE
  8
0
  6
BYLAYER
 62
     7
 10
1155.218430
 20
-121.474098
 30
0.0
 11
1147.218430
 21
-121.474098
 31
0.0
  0
LINE
  8
0
  6
BYLAYER
 62
     7
 10
1155.218430
 20
-113.474098
 30
0.0
 11
1147.218430
 21
-113.474098
 31
0.0
  0
LINE
  8
0
  6
BYLAYER
 62
     7
 10
1147.218430
 20
-121.474098
 30
0.0
 11
1147.218430
 21
-113.474098
 31
0.0
  0
LINE
  8
0
  6
BYLAYER
 62
     7
 10
1145.218430
 20
-131.474098
 30
0.0
 11
1137.218430
 21
-131.474098
 31
0.0
  0
LINE
  8
0
  6
BYLAYER
 62
     7
 10
1145.218430
 20
-113.474098
 30
0.0
 11
1145.218430
 21
-121.474098
 31
0.0
  0
LINE
  8
0
  6
BYLAYER
 62
     7
 10
1145.218430
 20
-123.474098
 30
0.0
 11
1145.218430
 21
-131.474098
 31
0.0
  0
LINE
  8
0
  6
BYLAYER
 62
     7
 10
1145.218430
 20
-123.474098
 30
0.0
 11
1137.218430
 21
-123.474098
 31
0.0
  0
LINE
  8
0
  6
BYLAYER
 62
     7
 10
1145.218430
 20
-121.474098
 30
0.0
 11
1137.218430
 21
-121.474098
 31
0.0
  0
LINE
  8
0
  6
BYLAYER
 62
     7
 10
1145.218430
 20
-113.474098
 30
0.0
 11
1137.218430
 21
-113.474098
 31
0.0
  0
LINE
  8
0
  6
BYLAYER
 62
     7
 10
1137.218430
 20
-131.474098
 30
0.0
 11
1137.218430
 21
-123.474098
 31
0.0
  0
LINE
  8
0
  6
BYLAYER
 62
     7
 10
1137.218430
 20
-121.474098
 30
0.0
 11
1137.218430
 21
-113.474098
 31
0.0
  0
LINE
  8
0
  6
BYLAYER
 62
     7
 10
1145.218430
 20
-141.474098
 30
0.0
 11
1137.218430
 21
-141.474098
 31
0.0
  0
LINE
  8
0
  6
BYLAYER
 62
     7
 10
1145.218430
 20
-133.474098
 30
0.0
 11
1145.218430
 21
-141.474098
 31
0.0
  0
LINE
  8
0
  6
BYLAYER
 62
     7
 10
1145.218430
 20
-133.474098
 30
0.0
 11
1137.218430
 21
-133.474098
 31
0.0
  0
LINE
  8
0
  6
BYLAYER
 62
     7
 10
1137.218430
 20
-141.474098
 30
0.0
 11
1137.218430
 21
-133.474098
 31
0.0
  0
LINE
  8
0
  6
BYLAYER
 62
     7
 10
1135.218430
 20
-131.474098
 30
0.0
 11
1127.218430
 21
-131.474098
 31
0.0
  0
LINE
  8
0
  6
BYLAYER
 62
     7
 10
1135.218430
 20
-123.474098
 30
0.0
 11
1135.218430
 21
-131.474098
 31
0.0
  0
LINE
  8
0
  6
BYLAYER
 62
     7
 10
1135.218430
 20
-123.474098
 30
0.0
 11
1127.218430
 21
-123.474098
 31
0.0
  0
LINE
  8
0
  6
BYLAYER
 62
     7
 10
1127.218430
 20
-131.474098
 30
0.0
 11
1127.218430
 21
-123.474098
 31
0.0
  0
LINE
  8
0
  6
BYLAYER
 62
     7
 10
1135.218430
 20
-141.474098
 30
0.0
 11
1127.218430
 21
-141.474098
 31
0.0
  0
LINE
  8
0
  6
BYLAYER
 62
     7
 10
1135.218430
 20
-133.474098
 30
0.0
 11
1135.218430
 21
-141.474098
 31
0.0
  0
LINE
  8
0
  6
BYLAYER
 62
     7
 10
1135.218430
 20
-133.474098
 30
0.0
 11
1127.218430
 21
-133.474098
 31
0.0
  0
LINE
  8
0
  6
BYLAYER
 62
     7
 10
1127.218430
 20
-141.474098
 30
0.0
 11
1127.218430
 21
-133.474098
 31
0.0
  0
LINE
  8
0
  6
BYLAYER
 62
     7
 10
1125.218430
 20
-131.474098
 30
0.0
 11
1117.218430
 21
-131.474098
 31
0.0
  0
LINE
  8
0
  6
BYLAYER
 62
     7
 10
1125.218430
 20
-123.474098
 30
0.0
 11
1125.218430
 21
-131.474098
 31
0.0
  0
LINE
  8
0
  6
BYLAYER
 62
     7
 10
1125.218430
 20
-123.474098
 30
0.0
 11
1117.218430
 21
-123.474098
 31
0.0
  0
LINE
  8
0
  6
BYLAYER
 62
     7
 10
1117.218430
 20
-131.474098
 30
0.0
 11
1117.218430
 21
-123.474098
 31
0.0
  0
LINE
  8
0
  6
BYLAYER
 62
     7
 10
1125.218430
 20
-141.474098
 30
0.0
 11
1117.218430
 21
-141.474098
 31
0.0
  0
LINE
  8
0
  6
BYLAYER
 62
     7
 10
1125.218430
 20
-133.474098
 30
0.0
 11
1125.218430
 21
-141.474098
 31
0.0
  0
LINE
  8
0
  6
BYLAYER
 62
     7
 10
1125.218430
 20
-133.474098
 30
0.0
 11
1117.218430
 21
-133.474098
 31
0.0
  0
LINE
  8
0
  6
BYLAYER
 62
     7
 10
1117.218430
 20
-141.474098
 30
0.0
 11
1117.218430
 21
-133.474098
 31
0.0
  0
LINE
  8
0
  6
BYLAYER
 62
     7
 10
1165.218430
 20
-93.474098
 30
0.0
 11
1165.218430
 21
-101.474098
 31
0.0
  0
LINE
  8
0
  6
BYLAYER
 62
     7
 10
1157.218430
 20
-101.474098
 30
0.0
 11
1157.218430
 21
-93.474098
 31
0.0
  0
LINE
  8
0
  6
BYLAYER
 62
     7
 10
1155.218430
 20
-101.474098
 30
0.0
 11
1155.218430
 21
-93.474098
 31
0.0
  0
LINE
  8
0
  6
BYLAYER
 62
     7
 10
1155.218430
 20
-101.474098
 30
0.0
 11
1147.380431
 21
-101.474098
 31
0.0
  0
LINE
  8
0
  6
BYLAYER
 62
     7
 10
1165.218430
 20
-101.474098
 30
0.0
 11
1157.218430
 21
-101.474098
 31
0.0
  0
LINE
  8
0
  6
BYLAYER
 62
     7
 10
1155.218430
 20
-93.474098
 30
0.0
 11
1147.380431
 21
-93.474098
 31
0.0
  0
LINE
  8
0
  6
BYLAYER
 62
     7
 10
1165.218430
 20
-93.474098
 30
0.0
 11
1157.218430
 21
-93.474098
 31
0.0
  0
LINE
  8
0
  6
BYLAYER
 62
     7
 10
1147.380431
 20
-101.474098
 30
0.0
 11
1147.380431
 21
-93.474098
 31
0.0
  0
LINE
  8
0
  6
BYLAYER
 62
     7
 10
1145.218430
 20
-103.474098
 30
0.0
 11
1145.218430
 21
-111.474098
 31
0.0
  0
LINE
  8
0
  6
BYLAYER
 62
     7
 10
1145.218430
 20
-111.474098
 30
0.0
 11
1137.218430
 21
-111.474098
 31
0.0
  0
LINE
  8
0
  6
BYLAYER
 62
     7
 10
1145.218430
 20
-103.474098
 30
0.0
 11
1137.218430
 21
-103.474098
 31
0.0
  0
LINE
  8
0
  6
BYLAYER
 62
     7
 10
1137.218430
 20
-111.474098
 30
0.0
 11
1137.218430
 21
-103.474098
 31
0.0
  0
LINE
  8
0
  6
BYLAYER
 62
     7
 10
1145.218430
 20
-93.474098
 30
0.0
 11
1145.218430
 21
-101.474098
 31
0.0
  0
LINE
  8
0
  6
BYLAYER
 62
     7
 10
1145.218430
 20
-101.474098
 30
0.0
 11
1137.218430
 21
-101.474098
 31
0.0
  0
LINE
  8
0
  6
BYLAYER
 62
     7
 10
1145.218430
 20
-93.474098
 30
0.0
 11
1137.218430
 21
-93.474098
 31
0.0
  0
LINE
  8
0
  6
BYLAYER
 62
     7
 10
1137.218430
 20
-101.474098
 30
0.0
 11
1137.218430
 21
-93.474098
 31
0.0
  0
LINE
  8
0
  6
BYLAYER
 62
     7
 10
1135.218430
 20
-113.474098
 30
0.0
 11
1135.218430
 21
-121.474098
 31
0.0
  0
LINE
  8
0
  6
BYLAYER
 62
     7
 10
1135.218430
 20
-121.474098
 30
0.0
 11
1127.218430
 21
-121.474098
 31
0.0
  0
LINE
  8
0
  6
BYLAYER
 62
     7
 10
1135.218430
 20
-113.474098
 30
0.0
 11
1127.218430
 21
-113.474098
 31
0.0
  0
LINE
  8
0
  6
BYLAYER
 62
     7
 10
1127.218430
 20
-121.474098
 30
0.0
 11
1127.218430
 21
-113.474098
 31
0.0
  0
LINE
  8
0
  6
BYLAYER
 62
     7
 10
1135.218430
 20
-103.474098
 30
0.0
 11
1135.218430
 21
-111.474098
 31
0.0
  0
LINE
  8
0
  6
BYLAYER
 62
     7
 10
1135.218430
 20
-111.474098
 30
0.0
 11
1127.218430
 21
-111.474098
 31
0.0
  0
LINE
  8
0
  6
BYLAYER
 62
     7
 10
1135.218430
 20
-103.474098
 30
0.0
 11
1127.218430
 21
-103.474098
 31
0.0
  0
LINE
  8
0
  6
BYLAYER
 62
     7
 10
1127.218430
 20
-111.474098
 30
0.0
 11
1127.218430
 21
-103.474098
 31
0.0
  0
LINE
  8
0
  6
BYLAYER
 62
     7
 10
1125.218430
 20
-113.474098
 30
0.0
 11
1125.218430
 21
-121.474098
 31
0.0
  0
LINE
  8
0
  6
BYLAYER
 62
     7
 10
1125.218430
 20
-121.474098
 30
0.0
 11
1117.218430
 21
-121.474098
 31
0.0
  0
LINE
  8
0
  6
BYLAYER
 62
     7
 10
1125.218430
 20
-113.474098
 30
0.0
 11
1117.218430
 21
-113.474098
 31
0.0
  0
LINE
  8
0
  6
BYLAYER
 62
     7
 10
1117.218430
 20
-121.474098
 30
0.0
 11
1117.218430
 21
-113.474098
 31
0.0
  0
LINE
  8
0
  6
BYLAYER
 62
     7
 10
1165.218430
 20
-171.474098
 30
0.0
 11
1165.218430
 21
-163.474098
 31
0.0
  0
LINE
  8
0
  6
BYLAYER
 62
     7
 10
1165.218430
 20
-181.474098
 30
0.0
 11
1165.218430
 21
-173.474098
 31
0.0
  0
LINE
  8
0
  6
BYLAYER
 62
     7
 10
1157.218430
 20
-173.474098
 30
0.0
 11
1157.218430
 21
-181.474098
 31
0.0
  0
LINE
  8
0
  6
BYLAYER
 62
     7
 10
1155.218430
 20
-173.474098
 30
0.0
 11
1155.218430
 21
-181.474098
 31
0.0
  0
LINE
  8
0
  6
BYLAYER
 62
     7
 10
1165.218430
 20
-163.474098
 30
0.0
 11
1157.218430
 21
-163.474098
 31
0.0
  0
LINE
  8
0
  6
BYLAYER
 62
     7
 10
1165.218430
 20
-171.474098
 30
0.0
 11
1157.218430
 21
-171.474098
 31
0.0
  0
LINE
  8
0
  6
BYLAYER
 62
     7
 10
1155.218430
 20
-173.474098
 30
0.0
 11
1147.380431
 21
-173.474098
 31
0.0
  0
LINE
  8
0
  6
BYLAYER
 62
     7
 10
1165.218430
 20
-173.474098
 30
0.0
 11
1157.218430
 21
-173.474098
 31
0.0
  0
LINE
  8
0
  6
BYLAYER
 62
     7
 10
1155.218430
 20
-181.474098
 30
0.0
 11
1147.380431
 21
-181.474098
 31
0.0
  0
LINE
  8
0
  6
BYLAYER
 62
     7
 10
1165.218430
 20
-181.474098
 30
0.0
 11
1157.218430
 21
-181.474098
 31
0.0
  0
LINE
  8
0
  6
BYLAYER
 62
     7
 10
1147.380431
 20
-173.474098
 30
0.0
 11
1147.380431
 21
-181.474098
 31
0.0
  0
LINE
  8
0
  6
BYLAYER
 62
     7
 10
1157.218430
 20
-163.474098
 30
0.0
 11
1157.218430
 21
-171.474098
 31
0.0
  0
LINE
  8
0
  6
BYLAYER
 62
     7
 10
1155.218430
 20
-171.474098
 30
0.0
 11
1155.218430
 21
-163.474098
 31
0.0
  0
LINE
  8
0
  6
BYLAYER
 62
     7
 10
1155.218430
 20
-163.474098
 30
0.0
 11
1147.218430
 21
-163.474098
 31
0.0
  0
LINE
  8
0
  6
BYLAYER
 62
     7
 10
1155.218430
 20
-171.474098
 30
0.0
 11
1147.218430
 21
-171.474098
 31
0.0
  0
LINE
  8
0
  6
BYLAYER
 62
     7
 10
1147.218430
 20
-163.474098
 30
0.0
 11
1147.218430
 21
-171.474098
 31
0.0
  0
LINE
  8
0
  6
BYLAYER
 62
     7
 10
1145.218430
 20
-153.474098
 30
0.0
 11
1137.218430
 21
-153.474098
 31
0.0
  0
LINE
  8
0
  6
BYLAYER
 62
     7
 10
1145.218430
 20
-171.474098
 30
0.0
 11
1145.218430
 21
-163.474098
 31
0.0
  0
LINE
  8
0
  6
BYLAYER
 62
     7
 10
1145.218430
 20
-161.474098
 30
0.0
 11
1145.218430
 21
-153.474098
 31
0.0
  0
LINE
  8
0
  6
BYLAYER
 62
     7
 10
1145.218430
 20
-161.474098
 30
0.0
 11
1137.218430
 21
-161.474098
 31
0.0
  0
LINE
  8
0
  6
BYLAYER
 62
     7
 10
1145.218430
 20
-163.474098
 30
0.0
 11
1137.218430
 21
-163.474098
 31
0.0
  0
LINE
  8
0
  6
BYLAYER
 62
     7
 10
1145.218430
 20
-171.474098
 30
0.0
 11
1137.218430
 21
-171.474098
 31
0.0
  0
LINE
  8
0
  6
BYLAYER
 62
     7
 10
1137.218430
 20
-153.474098
 30
0.0
 11
1137.218430
 21
-161.474098
 31
0.0
  0
LINE
  8
0
  6
BYLAYER
 62
     7
 10
1137.218430
 20
-163.474098
 30
0.0
 11
1137.218430
 21
-171.474098
 31
0.0
  0
LINE
  8
0
  6
BYLAYER
 62
     7
 10
1145.218430
 20
-143.474098
 30
0.0
 11
1137.218430
 21
-143.474098
 31
0.0
  0
LINE
  8
0
  6
BYLAYER
 62
     7
 10
1145.218430
 20
-151.474098
 30
0.0
 11
1145.218430
 21
-143.474098
 31
0.0
  0
LINE
  8
0
  6
BYLAYER
 62
     7
 10
1145.218430
 20
-151.474098
 30
0.0
 11
1137.218430
 21
-151.474098
 31
0.0
  0
LINE
  8
0
  6
BYLAYER
 62
     7
 10
1137.218430
 20
-143.474098
 30
0.0
 11
1137.218430
 21
-151.474098
 31
0.0
  0
LINE
  8
0
  6
BYLAYER
 62
     7
 10
1135.218430
 20
-153.474098
 30
0.0
 11
1127.218430
 21
-153.474098
 31
0.0
  0
LINE
  8
0
  6
BYLAYER
 62
     7
 10
1135.218430
 20
-161.474098
 30
0.0
 11
1135.218430
 21
-153.474098
 31
0.0
  0
LINE
  8
0
  6
BYLAYER
 62
     7
 10
1135.218430
 20
-161.474098
 30
0.0
 11
1127.218430
 21
-161.474098
 31
0.0
  0
LINE
  8
0
  6
BYLAYER
 62
     7
 10
1127.218430
 20
-153.474098
 30
0.0
 11
1127.218430
 21
-161.474098
 31
0.0
  0
LINE
  8
0
  6
BYLAYER
 62
     7
 10
1135.218430
 20
-143.474098
 30
0.0
 11
1127.218430
 21
-143.474098
 31
0.0
  0
LINE
  8
0
  6
BYLAYER
 62
     7
 10
1135.218430
 20
-151.474098
 30
0.0
 11
1135.218430
 21
-143.474098
 31
0.0
  0
LINE
  8
0
  6
BYLAYER
 62
     7
 10
1135.218430
 20
-151.474098
 30
0.0
 11
1127.218430
 21
-151.474098
 31
0.0
  0
LINE
  8
0
  6
BYLAYER
 62
     7
 10
1127.218430
 20
-143.474098
 30
0.0
 11
1127.218430
 21
-151.474098
 31
0.0
  0
LINE
  8
0
  6
BYLAYER
 62
     7
 10
1125.218430
 20
-153.474098
 30
0.0
 11
1117.218430
 21
-153.474098
 31
0.0
  0
LINE
  8
0
  6
BYLAYER
 62
     7
 10
1125.218430
 20
-161.474098
 30
0.0
 11
1125.218430
 21
-153.474098
 31
0.0
  0
LINE
  8
0
  6
BYLAYER
 62
     7
 10
1125.218430
 20
-161.474098
 30
0.0
 11
1117.218430
 21
-161.474098
 31
0.0
  0
LINE
  8
0
  6
BYLAYER
 62
     7
 10
1117.218430
 20
-153.474098
 30
0.0
 11
1117.218430
 21
-161.474098
 31
0.0
  0
LINE
  8
0
  6
BYLAYER
 62
     7
 10
1125.218430
 20
-143.474098
 30
0.0
 11
1117.218430
 21
-143.474098
 31
0.0
  0
LINE
  8
0
  6
BYLAYER
 62
     7
 10
1125.218430
 20
-151.474098
 30
0.0
 11
1125.218430
 21
-143.474098
 31
0.0
  0
LINE
  8
0
  6
BYLAYER
 62
     7
 10
1125.218430
 20
-151.474098
 30
0.0
 11
1117.218430
 21
-151.474098
 31
0.0
  0
LINE
  8
0
  6
BYLAYER
 62
     7
 10
1117.218430
 20
-143.474098
 30
0.0
 11
1117.218430
 21
-151.474098
 31
0.0
  0
LINE
  8
0
  6
BYLAYER
 62
     7
 10
1165.218430
 20
-191.474098
 30
0.0
 11
1165.218430
 21
-183.474098
 31
0.0
  0
LINE
  8
0
  6
BYLAYER
 62
     7
 10
1157.218430
 20
-183.474098
 30
0.0
 11
1157.218430
 21
-191.474098
 31
0.0
  0
LINE
  8
0
  6
BYLAYER
 62
     7
 10
1155.218430
 20
-183.474098
 30
0.0
 11
1155.218430
 21
-191.474098
 31
0.0
  0
LINE
  8
0
  6
BYLAYER
 62
     7
 10
1155.218430
 20
-183.474098
 30
0.0
 11
1147.380431
 21
-183.474098
 31
0.0
  0
LINE
  8
0
  6
BYLAYER
 62
     7
 10
1165.218430
 20
-183.474098
 30
0.0
 11
1157.218430
 21
-183.474098
 31
0.0
  0
LINE
  8
0
  6
BYLAYER
 62
     7
 10
1155.218430
 20
-191.474098
 30
0.0
 11
1147.380431
 21
-191.474098
 31
0.0
  0
LINE
  8
0
  6
BYLAYER
 62
     7
 10
1165.218430
 20
-191.474098
 30
0.0
 11
1157.218430
 21
-191.474098
 31
0.0
  0
LINE
  8
0
  6
BYLAYER
 62
     7
 10
1147.380431
 20
-183.474098
 30
0.0
 11
1147.380431
 21
-191.474098
 31
0.0
  0
LINE
  8
0
  6
BYLAYER
 62
     7
 10
1145.218430
 20
-181.474098
 30
0.0
 11
1145.218430
 21
-173.474098
 31
0.0
  0
LINE
  8
0
  6
BYLAYER
 62
     7
 10
1145.218430
 20
-173.474098
 30
0.0
 11
1137.218430
 21
-173.474098
 31
0.0
  0
LINE
  8
0
  6
BYLAYER
 62
     7
 10
1145.218430
 20
-181.474098
 30
0.0
 11
1137.218430
 21
-181.474098
 31
0.0
  0
LINE
  8
0
  6
BYLAYER
 62
     7
 10
1137.218430
 20
-173.474098
 30
0.0
 11
1137.218430
 21
-181.474098
 31
0.0
  0
LINE
  8
0
  6
BYLAYER
 62
     7
 10
1145.218430
 20
-191.474098
 30
0.0
 11
1145.218430
 21
-183.474098
 31
0.0
  0
LINE
  8
0
  6
BYLAYER
 62
     7
 10
1145.218430
 20
-183.474098
 30
0.0
 11
1137.218430
 21
-183.474098
 31
0.0
  0
LINE
  8
0
  6
BYLAYER
 62
     7
 10
1145.218430
 20
-191.474098
 30
0.0
 11
1137.218430
 21
-191.474098
 31
0.0
  0
LINE
  8
0
  6
BYLAYER
 62
     7
 10
1137.218430
 20
-183.474098
 30
0.0
 11
1137.218430
 21
-191.474098
 31
0.0
  0
LINE
  8
0
  6
BYLAYER
 62
     7
 10
1135.218430
 20
-171.474098
 30
0.0
 11
1135.218430
 21
-163.474098
 31
0.0
  0
LINE
  8
0
  6
BYLAYER
 62
     7
 10
1135.218430
 20
-163.474098
 30
0.0
 11
1127.218430
 21
-163.474098
 31
0.0
  0
LINE
  8
0
  6
BYLAYER
 62
     7
 10
1135.218430
 20
-171.474098
 30
0.0
 11
1127.218430
 21
-171.474098
 31
0.0
  0
LINE
  8
0
  6
BYLAYER
 62
     7
 10
1127.218430
 20
-163.474098
 30
0.0
 11
1127.218430
 21
-171.474098
 31
0.0
  0
LINE
  8
0
  6
BYLAYER
 62
     7
 10
1135.218430
 20
-181.474098
 30
0.0
 11
1135.218430
 21
-173.474098
 31
0.0
  0
LINE
  8
0
  6
BYLAYER
 62
     7
 10
1135.218430
 20
-173.474098
 30
0.0
 11
1127.218430
 21
-173.474098
 31
0.0
  0
LINE
  8
0
  6
BYLAYER
 62
     7
 10
1135.218430
 20
-181.474098
 30
0.0
 11
1127.218430
 21
-181.474098
 31
0.0
  0
LINE
  8
0
  6
BYLAYER
 62
     7
 10
1127.218430
 20
-173.474098
 30
0.0
 11
1127.218430
 21
-181.474098
 31
0.0
  0
LINE
  8
0
  6
BYLAYER
 62
     7
 10
1125.218430
 20
-171.474098
 30
0.0
 11
1125.218430
 21
-163.474098
 31
0.0
  0
LINE
  8
0
  6
BYLAYER
 62
     7
 10
1125.218430
 20
-163.474098
 30
0.0
 11
1117.218430
 21
-163.474098
 31
0.0
  0
LINE
  8
0
  6
BYLAYER
 62
     7
 10
1125.218430
 20
-171.474098
 30
0.0
 11
1117.218430
 21
-171.474098
 31
0.0
  0
LINE
  8
0
  6
BYLAYER
 62
     7
 10
1117.218430
 20
-163.474098
 30
0.0
 11
1117.218430
 21
-171.474098
 31
0.0
  0
CIRCLE
  8
0
  6
BYLAYER
 62
     7
 10
1166.218430
 20
-142.474098
 30
0.0
 40
4.000000
  0
ARC
  8
0
  6
BYLAYER
 62
     7
 10
1201.968430
 20
-43.974067
 30
0.0
 40
1.5
 50
180.000000
 51
265.219808
  0
ARC
  8
0
  6
BYLAYER
 62
     7
 10
1130.468430
 20
-43.974067
 30
0.0
 40
1.500000
 50
274.780192
 51
360.000000
  0
ARC
  8
0
  6
BYLAYER
 62
     7
 10
1138.464092
 20
-43.974067
 30
0.0
 40
1.500000
 50
270.0
 51
360.0
  0
LINE
  8
0
  6
BYLAYER
 62
     7
 10
1200.468430
 20
-43.974067
 30
0.0
 11
1200.468430
 21
-22.474067
 31
0.0
  0
LINE
  8
0
  6
BYLAYER
 62
     7
 10
1198.968430
 20
-20.974067
 30
0.0
 11
1133.468430
 21
-20.974067
 31
0.0
  0
ARC
  8
0
  6
BYLAYER
 62
     7
 10
1198.968430
 20
-22.474067
 30
0.0
 40
1.500000
 50
0.0
 51
90.0
  0
ARC
  8
0
  6
BYLAYER
 62
     7
 10
1133.468430
 20
-22.474067
 30
0.0
 40
1.500000
 50
90.0
 51
180.0
  0
LINE
  8
0
  6
BYLAYER
 62
     7
 10
1131.968430
 20
-43.974067
 30
0.0
 11
1131.968430
 21
-22.474067
 31
0.0
  0
LINE
  8
0
  6
BYLAYER
 62
     7
 10
1139.964092
 20
-43.974067
 30
0.0
 11
1139.964092
 21
-22.474067
 31
0.0
  0
ARC
  8
0
  6
BYLAYER
 62
     7
 10
1141.464092
 20
-22.474067
 30
0.0
 40
1.500000
 50
90.0
 51
180.0
  0
ARC
  8
0
  6
BYLAYER
 62
     7
 10
1190.972768
 20
-22.474067
 30
0.0
 40
1.500000
 50
0.0
 51
90.0
  0
LINE
  8
0
  6
BYLAYER
 62
     7
 10
1145.624777
 20
-20.974067
 30
0.0
 11
1146.117324
 21
-35.078765
 31
0.0
  0
ARC
  8
0
  6
BYLAYER
 62
     7
 10
1149.115496
 20
-34.974067
 30
0.0
 40
3.000000
 50
182.000000
 51
270.000000
  0
LINE
  8
0
  6
BYLAYER
 62
     7
 10
1156.319536
 20
-35.078765
 30
0.0
 11
1156.812083
 21
-20.974067
 31
0.0
  0
ARC
  8
0
  6
BYLAYER
 62
     7
 10
1153.321364
 20
-34.974067
 30
0.0
 40
3.0
 50
270.0
 51
358.0
  0
LINE
  8
0
  6
BYLAYER
 62
     7
 10
1171.319536
 20
-35.078765
 30
0.0
 11
1171.812083
 21
-20.974067
 31
0.0
  0
ARC
  8
0
  6
BYLAYER
 62
     7
 10
1168.321364
 20
-34.974067
 30
0.0
 40
3.000000
 50
270.0
 51
358.0
  0
LINE
  8
0
  6
BYLAYER
 62
     7
 10
1186.319536
 20
-35.078765
 30
0.0
 11
1186.812083
 21
-20.974067
 31
0.0
  0
ARC
  8
0
  6
BYLAYER
 62
     7
 10
1183.321364
 20
-34.974067
 30
0.0
 40
3.000000
 50
270.0
 51
358.0
  0
LINE
  8
0
  6
BYLAYER
 62
     7
 10
1175.624777
 20
-20.974067
 30
0.0
 11
1176.117324
 21
-35.078765
 31
0.0
  0
ARC
  8
0
  6
BYLAYER
 62
     7
 10
1179.115496
 20
-34.974067
 30
0.0
 40
3.000000
 50
182.0
 51
270.0
  0
LINE
  8
0
  6
BYLAYER
 62
     7
 10
1160.624777
 20
-20.974067
 30
0.0
 11
1161.117324
 21
-35.078765
 31
0.0
  0
ARC
  8
0
  6
BYLAYER
 62
     7
 10
1164.115496
 20
-34.974067
 30
0.0
 40
3.000000
 50
182.0
 51
270.0
  0
LINE
  8
0
  6
BYLAYER
 62
     7
 10
1179.115496
 20
-37.974067
 30
0.0
 11
1183.321364
 21
-37.974067
 31
0.0
  0
LINE
  8
0
  6
BYLAYER
 62
     7
 10
1164.115496
 20
-37.974067
 30
0.0
 11
1168.321364
 21
-37.974067
 31
0.0
  0
LINE
  8
0
  6
BYLAYER
 62
     7
 10
1149.115496
 20
-37.974067
 30
0.0
 11
1153.321364
 21
-37.974067
 31
0.0
  0
LINE
  8
0
  6
BYLAYER
 62
     7
 10
1160.659698
 20
-21.974067
 30
0.0
 11
1171.777162
 21
-21.974067
 31
0.0
  0
LINE
  8
0
  6
BYLAYER
 62
     7
 10
1175.659698
 20
-21.974067
 30
0.0
 11
1186.777162
 21
-21.974067
 31
0.0
  0
LINE
  8
0
  6
BYLAYER
 62
     7
 10
1145.659698
 20
-21.974067
 30
0.0
 11
1156.777162
 21
-21.974067
 31
0.0
  0
LINE
  8
0
  6
BYLAYER
 62
     7
 10
1192.472768
 20
-22.474067
 30
0.0
 11
1192.472768
 21
-43.974067
 31
0.0
  0
ARC
  8
0
  6
BYLAYER
 62
     7
 10
1130.718430
 20
-46.963632
 30
0.0
 40
1.500000
 50
94.780192
 51
180.000000
  0
LINE
  8
0
  6
BYLAYER
 62
     7
 10
1130.718430
 20
-45.474067
 30
0.0
 11
1201.968430
 21
-45.474067
 31
0.0
  0
ARC
  8
0
  6
BYLAYER
 62
     7
 10
1201.718430
 20
-46.963632
 30
0.0
 40
1.5
 50
0.0
 51
85.219808
  0
LINE
  8
0
  6
BYLAYER
 62
     7
 10
1203.218430
 20
-54.474067
 30
0.0
 11
1203.218430
 21
-46.963632
 31
0.0
  0
ARC
  8
0
  6
BYLAYER
 62
     7
 10
1193.972768
 20
-43.974067
 30
0.0
 40
1.500000
 50
180.000000
 51
270.000000
  0
LINE
  8
0
  6
BYLAYER
 62
     7
 10
1203.218430
 20
-52.474006
 30
0.0
 11
1129.218430
 21
-52.474006
 31
0.0
  0
LINE
  8
0
  6
BYLAYER
 62
     7
 10
1129.218430
 20
-46.963632
 30
0.0
 11
1129.218430
 21
-54.474067
 31
0.0
  0
LINE
  8
0
  6
BYLAYER
 62
     7
 10
1129.218430
 20
-54.474067
 30
0.0
 11
1203.218430
 21
-54.474067
 31
0.0
  0
LINE
  8
0
  6
BYLAYER
 62
     1
 10
1082.218430
 20
-719.474098
 30
0.0
 11
1081.218430
 21
-720.474098
 31
0.0
  0
LINE
  8
0
  6
BYLAYER
 62
     1
 10
1082.218430
 20
-899.474128
 30
0.0
 11
1081.218430
 21
-898.474128
 31
0.0
  0
LINE
  8
0
  6
BYLAYER
 62
     1
 10
1085.218430
 20
-719.474098
 30
0.0
 11
1082.218430
 21
-719.474098
 31
0.0
  0
LINE
  8
0
  6
BYLAYER
 62
     1
 10
1085.218430
 20
-899.474128
 30
0.0
 11
1082.218430
 21
-899.474128
 31
0.0
  0
LINE
  8
0
  6
BYLAYER
 62
     1
 10
1081.218430
 20
-720.474098
 30
0.0
 11
1081.218430
 21
-898.474128
 31
0.0
  0
LINE
  8
0
  6
BYLAYER
 62
     1
 10
1243.718430
 20
-956.974434
 30
0.0
 11
1088.718430
 21
-956.974434
 31
0.0
  0
LINE
  8
0
  6
BYLAYER
 62
     1
 10
1243.718430
 20
-621.974464
 30
0.0
 11
1088.718430
 21
-621.974464
 31
0.0
  0
ARC
  8
0
  6
BYLAYER
 62
     1
 10
1240.718430
 20
-890.717048
 30
0.0
 40
3.000046
 50
0.0
 51
44.999609
  0
ARC
  8
0
  6
BYLAYER
 62
     1
 10
1240.718430
 20
-688.231788
 30
0.0
 40
2.999982
 50
315.000402
 51
359.999983
  0
LINE
  8
0
  6
BYLAYER
 62
     1
 10
1243.718430
 20
-621.974464
 30
0.0
 11
1243.718430
 21
-688.231788
 31
0.0
  0
LINE
  8
0
  6
BYLAYER
 62
     1
 10
1243.718430
 20
-890.717048
 30
0.0
 11
1243.718430
 21
-956.974434
 31
0.0
  0
ARC
  8
0
  6
BYLAYER
 62
     1
 10
1091.718430
 20
-688.231788
 30
0.0
 40
2.999982
 50
180.000000
 51
224.999581
  0
ARC
  8
0
  6
BYLAYER
 62
     1
 10
1091.718430
 20
-890.717048
 30
0.0
 40
3.000046
 50
135.000410
 51
180.000019
  0
LINE
  8
0
  6
BYLAYER
 62
     1
 10
1088.718430
 20
-621.974464
 30
0.0
 11
1088.718430
 21
-688.231788
 31
0.0
  0
LINE
  8
0
  6
BYLAYER
 62
     1
 10
1088.718430
 20
-956.974434
 30
0.0
 11
1088.718430
 21
-890.717048
 31
0.0
  0
LINE
  8
0
  6
BYLAYER
 62
     1
 10
1088.718430
 20
-934.657600
 30
0.0
 11
1085.218430
 21
-934.474128
 31
0.0
  0
LINE
  8
0
  6
BYLAYER
 62
     1
 10
1085.218430
 20
-684.474098
 30
0.0
 11
1088.718430
 21
-684.290687
 31
0.0
  0
LINE
  8
0
  6
BYLAYER
 62
     1
 10
1085.218430
 20
-934.474128
 30
0.0
 11
1085.218430
 21
-684.474098
 31
0.0
  0
CIRCLE
  8
0
  6
BYLAYER
 62
     1
 10
1226.218430
 20
-909.474128
 30
0.0
 40
8.0
  0
CIRCLE
  8
0
  6
BYLAYER
 62
     1
 10
1106.218430
 20
-909.474128
 30
0.0
 40
8.0
  0
CIRCLE
  8
0
  6
BYLAYER
 62
     1
 10
1166.218430
 20
-679.474098
 30
0.0
 40
36.0
  0
ARC
  8
0
  6
BYLAYER
 62
     1
 10
1217.933640
 20
-696.672584
 30
0.0
 40
3.000034
 50
93.000095
 51
161.604953
  0
ARC
  8
0
  6
BYLAYER
 62
     1
 10
1114.503220
 20
-696.672584
 30
0.0
 40
3.000024
 50
18.395045
 51
86.999903
  0
LINE
  8
0
  6
BYLAYER
 62
     1
 10
1088.994553
 20
-689.488929
 30
0.0
 11
1113.787766
 21
-690.788307
 31
0.0
  0
ARC
  8
0
  6
BYLAYER
 62
     1
 10
1113.630661
 20
-693.784156
 30
0.0
 40
2.999963
 50
15.222620
 51
86.999903
  0
ARC
  8
0
  6
BYLAYER
 62
     1
 10
1166.218430
 20
-679.474098
 30
0.0
 40
51.500031
 50
195.222584
 51
344.777403
  0
LINE
  8
0
  6
BYLAYER
 62
     1
 10
1243.442307
 20
-689.488929
 30
0.0
 11
1218.649094
 21
-690.788307
 31
0.0
  0
ARC
  8
0
  6
BYLAYER
 62
     1
 10
1218.806199
 20
-693.784156
 30
0.0
 40
2.999979
 50
93.000095
 51
164.777385
  0
CIRCLE
  8
0
  6
BYLAYER
 62
     1
 10
1106.218430
 20
-669.473732
 30
0.0
 40
8.0
  0
CIRCLE
  8
0
  6
BYLAYER
 62
     1
 10
1226.218430
 20
-669.473732
 30
0.0
 40
8.0
  0
ARC
  8
0
  6
BYLAYER
 62
     1
 10
1176.218430
 20
-751.125648
 30
0.0
 40
3.000000
 50
180.000000
 51
267.032019
  0
ARC
  8
0
  6
BYLAYER
 62
     1
 10
1176.218430
 20
-837.125648
 30
0.0
 40
3.000000
 50
180.000000
 51
267.032019
  0
ARC
  8
0
  6
BYLAYER
 62
     1
 10
1176.218430
 20
-880.090004
 30
0.0
 40
3.000021
 50
180.000000
 51
267.000491
  0
ARC
  8
0
  6
BYLAYER
 62
     1
 10
1156.218430
 20
-751.125648
 30
0.0
 40
3.000000
 50
272.968008
 51
360.000000
  0
LINE
  8
0
  6
BYLAYER
 62
     1
 10
1159.218430
 20
-824.822548
 30
0.0
 11
1159.218430
 21
-837.125648
 31
0.0
  0
ARC
  8
0
  6
BYLAYER
 62
     1
 10
1156.218430
 20
-837.125648
 30
0.0
 40
3.000000
 50
272.968008
 51
360.000000
  0
ARC
  8
0
  6
BYLAYER
 62
     1
 10
1156.218430
 20
-867.822578
 30
0.0
 40
3.000000
 50
0.0
 51
87.032033
  0
LINE
  8
0
  6
BYLAYER
 62
     1
 10
1159.218430
 20
-880.090004
 30
0.0
 11
1159.218430
 21
-867.822578
 31
0.0
  0
ARC
  8
0
  6
BYLAYER
 62
     1
 10
1156.218430
 20
-880.090004
 30
0.0
 40
3.000021
 50
272.999519
 51
359.999983
  0
LINE
  8
0
  6
BYLAYER
 62
     1
 10
1159.218430
 20
-751.125648
 30
0.0
 11
1159.218430
 21
-738.822548
 31
0.0
  0
ARC
  8
0
  6
BYLAYER
 62
     1
 10
1156.218430
 20
-738.822548
 30
0.0
 40
2.999996
 50
0.0
 51
87.031998
  0
ARC
  8
0
  6
BYLAYER
 62
     1
 10
1121.035691
 20
-709.949867
 30
0.0
 40
3.000057
 50
272.967964
 51
393.999804
  0
ARC
  8
0
  6
BYLAYER
 62
     1
 10
1211.401047
 20
-709.949867
 30
0.0
 40
3.000054
 50
146.000198
 51
267.032038
  0
ARC
  8
0
  6
BYLAYER
 62
     1
 10
1176.218430
 20
-738.822548
 30
0.0
 40
2.999996
 50
92.968000
 51
180.000005
  0
LINE
  8
0
  6
BYLAYER
 62
     1
 10
1173.218430
 20
-751.125648
 30
0.0
 11
1173.218430
 21
-738.822548
 31
0.0
  0
LINE
  8
0
  6
BYLAYER
 62
     1
 10
1173.218430
 20
-824.822486
 30
0.0
 11
1173.218430
 21
-837.125648
 31
0.0
  0
ARC
  8
0
  6
BYLAYER
 62
     1
 10
1214.218430
 20
-865.852211
 30
0.0
 40
3.000000
 50
92.967995
 51
180.000000
  0
LINE
  8
0
  6
BYLAYER
 62
     1
 10
1211.218430
 20
-865.852211
 30
0.0
 11
1211.218430
 21
-868.627205
 31
0.0
  0
ARC
  8
0
  6
BYLAYER
 62
     1
 10
1208.218430
 20
-868.627205
 30
0.0
 40
3.0
 50
272.999516
 51
360.000000
  0
LINE
  8
0
  6
BYLAYER
 62
     1
 10
1208.375412
 20
-871.623085
 30
0.0
 11
1176.061448
 21
-873.316597
 31
0.0
  0
LINE
  8
0
  6
BYLAYER
 62
     1
 10
1173.218430
 20
-880.090004
 30
0.0
 11
1173.218430
 21
-876.312477
 31
0.0
  0
ARC
  8
0
  6
BYLAYER
 62
     1
 10
1176.218430
 20
-876.312477
 30
0.0
 40
2.999993
 50
93.000108
 51
180.000005
  0
LINE
  8
0
  6
BYLAYER
 62
     1
 10
1159.218430
 20
-794.125648
 30
0.0
 11
1159.218430
 21
-781.822548
 31
0.0
  0
ARC
  8
0
  6
BYLAYER
 62
     1
 10
1156.218430
 20
-781.822548
 30
0.0
 40
3.000057
 50
0.0
 51
87.03206
  0
LINE
  8
0
  6
BYLAYER
 62
     1
 10
1173.218430
 20
-794.125587
 30
0.0
 11
1173.218430
 21
-781.822548
 31
0.0
  0
ARC
  8
0
  6
BYLAYER
 62
     1
 10
1176.218430
 20
-781.822548
 30
0.0
 40
3.0
 50
92.967933
 51
180.000000
  0
LINE
  8
0
  6
BYLAYER
 62
     1
 10
1089.597092
 20
-888.595680
 30
0.0
 11
1098.339768
 21
-879.853035
 31
0.0
  0
LINE
  8
0
  6
BYLAYER
 62
     1
 10
1089.597092
 20
-690.353065
 30
0.0
 11
1098.339768
 21
-699.095802
 31
0.0
  0
ARC
  8
0
  6
BYLAYER
 62
     1
 10
1096.218430
 20
-701.217079
 30
0.0
 40
3.000000
 50
0.0
 51
44.999848
  0
LINE
  8
0
  6
BYLAYER
 62
     1
 10
1234.097092
 20
-699.096107
 30
0.0
 11
1242.839768
 21
-690.353065
 31
0.0
  0
ARC
  8
0
  6
BYLAYER
 62
     1
 10
1236.218430
 20
-701.217384
 30
0.0
 40
3.000000
 50
135.001216
 51
179.999998
  0
LINE
  8
0
  6
BYLAYER
 62
     1
 10
1242.839768
 20
-888.595680
 30
0.0
 11
1234.097092
 21
-879.853035
 31
0.0
  0
LINE
  8
0
  6
BYLAYER
 62
     1
 10
1121.191086
 20
-712.945900
 30
0.0
 11
1102.063157
 21
-713.937660
 31
0.0
  0
ARC
  8
0
  6
BYLAYER
 62
     1
 10
1102.218430
 20
-716.933693
 30
0.0
 40
3.000000
 50
92.968136
 51
179.999998
  0
LINE
  8
0
  6
BYLAYER
 62
     1
 10
1156.373703
 20
-735.826576
 30
0.0
 11
1102.063157
 21
-733.010536
 31
0.0
  0
ARC
  8
0
  6
BYLAYER
 62
     1
 10
1102.218430
 20
-730.014564
 30
0.0
 40
3.000000
 50
180.000000
 51
267.031814
  0
LINE
  8
0
  6
BYLAYER
 62
     1
 10
1156.373826
 20
-754.121620
 30
0.0
 11
1102.063157
 21
-756.937660
 31
0.0
  0
ARC
  8
0
  6
BYLAYER
 62
     1
 10
1102.218430
 20
-759.933632
 30
0.0
 40
3.0
 50
92.968184
 51
179.999998
  0
LINE
  8
0
  6
BYLAYER
 62
     1
 10
1156.373703
 20
-778.826515
 30
0.0
 11
1102.063157
 21
-776.010536
 31
0.0
  0
LINE
  8
0
  6
BYLAYER
 62
     1
 10
1156.373826
 20
-797.121620
 30
0.0
 11
1102.063157
 21
-799.937660
 31
0.0
  0
ARC
  8
0
  6
BYLAYER
 62
     1
 10
1102.218430
 20
-802.933632
 30
0.0
 40
3.0
 50
92.968184
 51
179.999998
  0
LINE
  8
0
  6
BYLAYER
 62
     1
 10
1156.373826
 20
-821.826576
 30
0.0
 11
1102.063157
 21
-819.010536
 31
0.0
  0
LINE
  8
0
  6
BYLAYER
 62
     1
 10
1156.373826
 20
-840.121620
 30
0.0
 11
1102.063157
 21
-842.937721
 31
0.0
  0
ARC
  8
0
  6
BYLAYER
 62
     1
 10
1102.218430
 20
-845.933693
 30
0.0
 40
3.000000
 50
92.968218
 51
180.000005
  0
LINE
  8
0
  6
BYLAYER
 62
     1
 10
1156.373826
 20
-864.826576
 30
0.0
 11
1102.063157
 21
-862.010475
 31
0.0
  0
LINE
  8
0
  6
BYLAYER
 62
     1
 10
1211.245774
 20
-712.945900
 30
0.0
 11
1230.373703
 21
-713.937660
 31
0.0
  0
ARC
  8
0
  6
BYLAYER
 62
     1
 10
1230.218430
 20
-716.933693
 30
0.0
 40
3.000000
 50
0.0
 51
87.031855
  0
LINE
  8
0
  6
BYLAYER
 62
     1
 10
1176.063157
 20
-735.826576
 30
0.0
 11
1230.373703
 21
-733.010536
 31
0.0
  0
LINE
  8
0
  6
BYLAYER
 62
     1
 10
1176.063157
 20
-754.121620
 30
0.0
 11
1230.373703
 21
-756.937660
 31
0.0
  0
ARC
  8
0
  6
BYLAYER
 62
     1
 10
1230.218430
 20
-759.933632
 30
0.0
 40
3.000000
 50
0.0
 51
87.031807
  0
LINE
  8
0
  6
BYLAYER
 62
     1
 10
1176.063157
 20
-778.826515
 30
0.0
 11
1230.373703
 21
-776.010536
 31
0.0
  0
LINE
  8
0
  6
BYLAYER
 62
     1
 10
1176.063157
 20
-797.121559
 30
0.0
 11
1230.373703
 21
-799.937660
 31
0.0
  0
ARC
  8
0
  6
BYLAYER
 62
     1
 10
1230.218430
 20
-802.933632
 30
0.0
 40
3.0
 50
0.0
 51
87.031753
  0
LINE
  8
0
  6
BYLAYER
 62
     1
 10
1176.063157
 20
-821.826515
 30
0.0
 11
1230.373703
 21
-819.010536
 31
0.0
  0
LINE
  8
0
  6
BYLAYER
 62
     1
 10
1176.063157
 20
-840.121620
 30
0.0
 11
1230.373703
 21
-842.937690
 31
0.0
  0
ARC
  8
0
  6
BYLAYER
 62
     1
 10
1230.218430
 20
-845.933662
 30
0.0
 40
3.000000
 50
0.0
 51
87.031807
  0
LINE
  8
0
  6
BYLAYER
 62
     1
 10
1214.063157
 20
-862.856239
 30
0.0
 11
1230.373703
 21
-862.010505
 31
0.0
  0
LINE
  8
0
  6
BYLAYER
 62
     1
 10
1114.660325
 20
-693.676674
 30
0.0
 11
1091.718430
 21
-692.474342
 31
0.0
  0
LINE
  8
0
  6
BYLAYER
 62
     1
 10
1217.776535
 20
-693.676674
 30
0.0
 11
1240.718430
 21
-692.474342
 31
0.0
  0
LINE
  8
0
  6
BYLAYER
 62
     1
 10
1091.718308
 20
-886.474464
 30
0.0
 11
1166.218552
 21
-882.570045
 31
0.0
  0
LINE
  8
0
  6
BYLAYER
 62
     1
 10
1240.718552
 20
-886.474464
 30
0.0
 11
1166.218430
 21
-882.570045
 31
0.0
  0
LINE
  8
0
  6
BYLAYER
 62
     1
 10
1099.218430
 20
-701.217079
 30
0.0
 11
1099.218430
 21
-877.731697
 31
0.0
  0
ARC
  8
0
  6
BYLAYER
 62
     1
 10
1102.218430
 20
-859.014503
 30
0.0
 40
3.0
 50
180.000000
 51
267.031787
  0
ARC
  8
0
  6
BYLAYER
 62
     1
 10
1102.218430
 20
-816.014564
 30
0.0
 40
3.000000
 50
180.000000
 51
267.031814
  0
ARC
  8
0
  6
BYLAYER
 62
     1
 10
1102.218430
 20
-773.014503
 30
0.0
 40
3.000000
 50
180.000000
 51
267.031875
  0
ARC
  8
0
  6
BYLAYER
 62
     1
 10
1096.218430
 20
-877.731697
 30
0.0
 40
3.000000
 50
314.999999
 51
360.000000
  0
LINE
  8
0
  6
BYLAYER
 62
     1
 10
1233.218430
 20
-701.217384
 30
0.0
 11
1233.218430
 21
-877.731697
 31
0.0
  0
ARC
  8
0
  6
BYLAYER
 62
     1
 10
1230.218430
 20
-859.014534
 30
0.0
 40
3.000000
 50
272.968200
 51
360.000000
  0
ARC
  8
0
  6
BYLAYER
 62
     1
 10
1230.218430
 20
-816.014503
 30
0.0
 40
3.000000
 50
272.968125
 51
360.0
  0
ARC
  8
0
  6
BYLAYER
 62
     1
 10
1230.218430
 20
-773.014503
 30
0.0
 40
3.000000
 50
272.968125
 51
360.0
  0
ARC
  8
0
  6
BYLAYER
 62
     1
 10
1230.218430
 20
-730.014564
 30
0.0
 40
3.000000
 50
272.968186
 51
360.0
  0
ARC
  8
0
  6
BYLAYER
 62
     1
 10
1236.218430
 20
-877.731697
 30
0.0
 40
3.0
 50
180.000000
 51
225.000001
  0
LINE
  8
0
  6
BYLAYER
 62
     1
 10
1250.218430
 20
-719.474098
 30
0.0
 11
1251.218430
 21
-720.474098
 31
0.0
  0
LINE
  8
0
  6
BYLAYER
 62
     1
 10
1250.218430
 20
-899.474128
 30
0.0
 11
1251.218430
 21
-898.474128
 31
0.0
  0
LINE
  8
0
  6
BYLAYER
 62
     1
 10
1247.218430
 20
-719.474098
 30
0.0
 11
1250.218430
 21
-719.474098
 31
0.0
  0
LINE
  8
0
  6
BYLAYER
 62
     1
 10
1247.218430
 20
-899.474128
 30
0.0
 11
1250.218430
 21
-899.474128
 31
0.0
  0
LINE
  8
0
  6
BYLAYER
 62
     1
 10
1251.218430
 20
-720.474098
 30
0.0
 11
1251.218430
 21
-898.474128
 31
0.0
  0
LINE
  8
0
  6
BYLAYER
 62
     1
 10
1243.718430
 20
-934.657600
 30
0.0
 11
1247.218430
 21
-934.474128
 31
0.0
  0
LINE
  8
0
  6
BYLAYER
 62
     1
 10
1247.218430
 20
-684.474098
 30
0.0
 11
1243.718430
 21
-684.290687
 31
0.0
  0
LINE
  8
0
  6
BYLAYER
 62
     1
 10
1247.218430
 20
-934.474128
 30
0.0
 11
1247.218430
 21
-684.474098
 31
0.0
  0
ARC
  8
0
  6
BYLAYER
 62
     1
 10
1156.218430
 20
-824.822548
 30
0.0
 40
3.0
 50
0.0
 51
87.032033
  0
ARC
  8
0
  6
BYLAYER
 62
     1
 10
1156.218430
 20
-794.125648
 30
0.0
 40
3.000000
 50
272.968008
 51
360.000000
  0
ARC
  8
0
  6
BYLAYER
 62
     1
 10
1176.218430
 20
-824.822486
 30
0.0
 40
3.000000
 50
92.967995
 51
180.000000
  0
ARC
  8
0
  6
BYLAYER
 62
     1
 10
1176.218430
 20
-794.125587
 30
0.0
 40
3.000000
 50
180.000000
 51
267.032005
  0
ARC
  8
0
  6
BYLAYER
 62
     1
 10
1166.218430
 20
-742.474098
 30
0.0
 40
100.0
 50
328.211669
 51
390.943029
  0
ARC
  8
0
  6
BYLAYER
 62
     1
 10
1166.218430
 20
-742.474098
 30
0.0
 40
100.0
 50
149.056971
 51
211.788331
  0
ARC
  8
0
  6
BYLAYER
 62
     1
 10
1166.218430
 20
-679.474098
 30
0.0
 40
80.000000
 50
165.638488
 51
183.539978
  0
ARC
  8
0
  6
BYLAYER
 62
     1
 10
1166.218430
 20
-679.474098
 30
0.0
 40
80.0
 50
356.460022
 51
374.361512
  0
ARC
  8
0
  6
BYLAYER
 62
     1
 10
1166.218430
 20
-679.474098
 30
0.0
 40
80.000000
 50
45.950997
 51
134.049003
  0
LINE
  8
0
  6
BYLAYER
 62
     1
 10
1081.218430
 20
-778.870929
 30
0.0
 11
1073.187376
 21
-779.151379
 31
0.0
  0
LINE
  8
0
  6
BYLAYER
 62
     1
 10
1081.218430
 20
-746.077267
 30
0.0
 11
1066.265905
 21
-745.555114
 31
0.0
  0
LINE
  8
0
  6
BYLAYER
 62
     1
 10
1247.218430
 20
-690.432575
 30
0.0
 11
1251.163550
 21
-690.570341
 31
0.0
  0
ARC
  8
0
  6
BYLAYER
 62
     1
 10
1251.128650
 20
-691.569732
 30
0.0
 40
1.000000
 50
30.943029
 51
88.000000
  0
LINE
  8
0
  6
BYLAYER
 62
     1
 10
1085.218430
 20
-690.432575
 30
0.0
 11
1081.273310
 21
-690.570341
 31
0.0
  0
ARC
  8
0
  6
BYLAYER
 62
     1
 10
1081.308210
 20
-691.569732
 30
0.0
 40
1.000000
 50
92.000000
 51
149.056971
  0
LINE
  8
0
  6
BYLAYER
 62
     1
 10
476.218430
 20
-725.474434
 30
0.0
 11
475.218430
 21
-724.474434
 31
0.0
  0
LINE
  8
0
  6
BYLAYER
 62
     1
 10
296.218430
 20
-725.474403
 30
0.0
 11
297.218430
 21
-724.474403
 31
0.0
  0
LINE
  8
0
  6
BYLAYER
 62
     1
 10
476.218430
 20
-728.474434
 30
0.0
 11
476.218430
 21
-725.474434
 31
0.0
  0
LINE
  8
0
  6
BYLAYER
 62
     1
 10
296.218430
 20
-728.474403
 30
0.0
 11
296.218430
 21
-725.474403
 31
0.0
  0
LINE
  8
0
  6
BYLAYER
 62
     1
 10
475.218430
 20
-724.474434
 30
0.0
 11
297.218430
 21
-724.474403
 31
0.0
  0
LINE
  8
0
  6
BYLAYER
 62
     1
 10
238.718186
 20
-886.974372
 30
0.0
 11
238.718186
 21
-731.974403
 31
0.0
  0
ARC
  8
0
  6
BYLAYER
 62
     1
 10
304.975510
 20
-883.974372
 30
0.0
 40
3.000025
 50
270.0
 51
314.999609
  0
LINE
  8
0
  6
BYLAYER
 62
     1
 10
304.975510
 20
-886.974372
 30
0.0
 11
238.718186
 21
-886.974372
 31
0.0
  0
ARC
  8
0
  6
BYLAYER
 62
     1
 10
304.975510
 20
-734.974403
 30
0.0
 40
3.000025
 50
45.000408
 51
90.000016
  0
LINE
  8
0
  6
BYLAYER
 62
     1
 10
238.718186
 20
-731.974403
 30
0.0
 11
304.975510
 21
-731.974403
 31
0.0
  0
LINE
  8
0
  6
BYLAYER
 62
     1
 10
261.034958
 20
-731.974403
 30
0.0
 11
261.218430
 21
-728.474403
 31
0.0
  0
LINE
  8
0
  6
BYLAYER
 62
     1
 10
511.218430
 20
-728.474434
 30
0.0
 11
511.401902
 21
-731.974434
 31
0.0
  0
LINE
  8
0
  6
BYLAYER
 62
     1
 10
310.279709
 20
-809.474403
 30
0.0
 11
306.232590
 21
-732.250526
 31
0.0
  0
LINE
  8
0
  6
BYLAYER
 62
     1
 10
310.279709
 20
-809.474525
 30
0.0
 11
306.232590
 21
-886.698249
 31
0.0
  0
LINE
  8
0
  6
BYLAYER
 62
     1
 10
261.218430
 20
-728.474403
 30
0.0
 11
511.218430
 21
-728.474434
 31
0.0
  0
CIRCLE
  8
0
  6
BYLAYER
 62
     1
 10
286.218430
 20
-869.474403
 30
0.0
 40
8.0
  0
CIRCLE
  8
0
  6
BYLAYER
 62
     1
 10
286.218430
 20
-749.474403
 30
0.0
 40
8.0
  0
ARC
  8
0
  6
BYLAYER
 62
     1
 10
467.460862
 20
-734.974403
 30
0.0
 40
3.000025
 50
90.0
 51
134.999609
  0
ARC
  8
0
  6
BYLAYER
 62
     1
 10
467.460862
 20
-883.974372
 30
0.0
 40
3.000025
 50
225.000419
 51
270.000028
  0
LINE
  8
0
  6
BYLAYER
 62
     1
 10
467.460862
 20
-886.974372
 30
0.0
 11
531.218186
 21
-886.974372
 31
0.0
  0
LINE
  8
0
  6
BYLAYER
 62
     1
 10
531.218186
 20
-886.974372
 30
0.0
 11
531.218186
 21
-731.974403
 31
0.0
  0
LINE
  8
0
  6
BYLAYER
 62
     1
 10
531.218186
 20
-731.974403
 30
0.0
 11
467.460862
 21
-731.974403
 31
0.0
  0
CIRCLE
  8
0
  6
BYLAYER
 62
     1
 10
486.217942
 20
-749.474403
 30
0.0
 40
8.0
  0
CIRCLE
  8
0
  6
BYLAYER
 62
     1
 10
486.217942
 20
-869.474403
 30
0.0
 40
8.0
  0
ARC
  8
0
  6
BYLAYER
 62
     1
 10
315.602585
 20
-819.474403
 30
0.0
 40
3.000082
 50
90.0
 51
177.000484
  0
ARC
  8
0
  6
BYLAYER
 62
     1
 10
327.870041
 20
-819.474403
 30
0.0
 40
3.0
 50
2.967981
 51
90.000000
  0
ARC
  8
0
  6
BYLAYER
 62
     1
 10
358.566941
 20
-819.474403
 30
0.0
 40
3.0
 50
90.0
 51
177.032012
  0
LINE
  8
0
  6
BYLAYER
 62
     1
 10
370.870041
 20
-816.474403
 30
0.0
 11
358.566941
 21
-816.474403
 31
0.0
  0
ARC
  8
0
  6
BYLAYER
 62
     1
 10
315.602585
 20
-799.474403
 30
0.0
 40
3.000082
 50
182.999510
 51
270.000001
  0
ARC
  8
0
  6
BYLAYER
 62
     1
 10
327.870041
 20
-799.474403
 30
0.0
 40
3.0
 50
270.0
 51
357.032019
  0
ARC
  8
0
  6
BYLAYER
 62
     1
 10
358.566941
 20
-799.474403
 30
0.0
 40
3.0
 50
182.967981
 51
270.000000
  0
LINE
  8
0
  6
BYLAYER
 62
     1
 10
370.870041
 20
-802.474403
 30
0.0
 11
358.566941
 21
-802.474403
 31
0.0
  0
LINE
  8
0
  6
BYLAYER
 62
     1
 10
315.602585
 20
-816.474403
 30
0.0
 11
327.870041
 21
-816.474403
 31
0.0
  0
LINE
  8
0
  6
BYLAYER
 62
     1
 10
315.602585
 20
-802.474403
 30
0.0
 11
327.870041
 21
-802.474403
 31
0.0
  0
ARC
  8
0
  6
BYLAYER
 62
     1
 10
444.566941
 20
-799.474479
 30
0.0
 40
2.999997
 50
182.968296
 51
270.000001
  0
ARC
  8
0
  6
BYLAYER
 62
     1
 10
444.566941
 20
-819.474479
 30
0.0
 40
3.000259
 50
90.0
 51
177.031712
  0
LINE
  8
0
  6
BYLAYER
 62
     1
 10
444.566941
 20
-816.474220
 30
0.0
 11
447.752488
 21
-816.474388
 31
0.0
  0
ARC
  8
0
  6
BYLAYER
 62
     1
 10
447.752243
 20
-819.474388
 30
0.0
 40
3.0
 50
28.436752
 51
90.000000
  0
LINE
  8
0
  6
BYLAYER
 62
     1
 10
444.566941
 20
-802.474250
 30
0.0
 11
447.752121
 21
-802.474403
 31
0.0
  0
ARC
  8
0
  6
BYLAYER
 62
     1
 10
447.752243
 20
-799.474403
 30
0.0
 40
3.000000
 50
270.0
 51
331.563090
  0
ARC
  8
0
  6
BYLAYER
 62
     1
 10
466.218430
 20
-809.474403
 30
0.0
 40
18.000021
 50
115.112183
 51
151.563154
  0
ARC
  8
0
  6
BYLAYER
 62
     1
 10
457.306321
 20
-790.459312
 30
0.0
 40
2.999965
 50
295.111874
 51
356.999890
  0
ARC
  8
0
  6
BYLAYER
 62
     1
 10
466.218430
 20
-809.474403
 30
0.0
 40
17.999962
 50
208.436842
 51
244.887827
  0
ARC
  8
0
  6
BYLAYER
 62
     1
 10
457.306321
 20
-828.489448
 30
0.0
 40
2.999951
 50
2.999963
 51
64.887740
  0
LINE
  8
0
  6
BYLAYER
 62
     1
 10
464.691819
 20
-728.474403
 30
0.0
 11
464.578782
 21
-730.631385
 31
0.0
  0
ARC
  8
0
  6
BYLAYER
 62
     1
 10
461.582871
 20
-730.474403
 30
0.0
 40
3.0
 50
270.0
 51
357.000518
  0
LINE
  8
0
  6
BYLAYER
 62
     1
 10
402.636765
 20
-733.474403
 30
0.0
 11
461.582871
 21
-733.474403
 31
0.0
  0
ARC
  8
0
  6
BYLAYER
 62
     1
 10
402.636765
 20
-730.474403
 30
0.0
 40
3.000000
 50
182.999496
 51
270.000000
  0
LINE
  8
0
  6
BYLAYER
 62
     1
 10
399.527817
 20
-728.474403
 30
0.0
 11
399.640854
 21
-730.631385
 31
0.0
  0
LINE
  8
0
  6
BYLAYER
 62
     1
 10
307.745041
 20
-728.474403
 30
0.0
 11
307.858078
 21
-730.631385
 31
0.0
  0
ARC
  8
0
  6
BYLAYER
 62
     1
 10
310.853989
 20
-730.474403
 30
0.0
 40
3.000000
 50
182.999482
 51
270.000000
  0
LINE
  8
0
  6
BYLAYER
 62
     1
 10
369.800095
 20
-733.474403
 30
0.0
 11
310.853989
 21
-733.474403
 31
0.0
  0
ARC
  8
0
  6
BYLAYER
 62
     1
 10
369.800095
 20
-730.474403
 30
0.0
 40
3.000000
 50
270.0
 51
357.000491
  0
LINE
  8
0
  6
BYLAYER
 62
     1
 10
372.909043
 20
-728.474403
 30
0.0
 11
372.796006
 21
-730.631385
 31
0.0
  0
LINE
  8
0
  6
BYLAYER
 62
     1
 10
373.866013
 20
-819.319069
 30
0.0
 11
376.837632
 21
-876.629715
 31
0.0
  0
ARC
  8
0
  6
BYLAYER
 62
     1
 10
379.833603
 20
-876.474372
 30
0.0
 40
2.999996
 50
182.968132
 51
270.000001
  0
LINE
  8
0
  6
BYLAYER
 62
     1
 10
398.570969
 20
-819.319069
 30
0.0
 11
395.599350
 21
-876.629715
 31
0.0
  0
ARC
  8
0
  6
BYLAYER
 62
     1
 10
392.603379
 20
-876.474372
 30
0.0
 40
3.000000
 50
270.0
 51
357.031855
  0
LINE
  8
0
  6
BYLAYER
 62
     1
 10
466.203782
 20
-732.250526
 30
0.0
 11
462.923490
 21
-794.840765
 31
0.0
  0
LINE
  8
0
  6
BYLAYER
 62
     1
 10
466.203782
 20
-886.698249
 30
0.0
 11
462.923490
 21
-824.108041
 31
0.0
  0
LINE
  8
0
  6
BYLAYER
 62
     1
 10
459.596878
 20
-738.595710
 30
0.0
 11
465.339524
 21
-732.853065
 31
0.0
  0
ARC
  8
0
  6
BYLAYER
 62
     1
 10
457.475556
 20
-736.474403
 30
0.0
 40
3.000015
 50
270.0
 51
315.000210
  0
LINE
  8
0
  6
BYLAYER
 62
     1
 10
457.475556
 20
-739.474418
 30
0.0
 11
314.960816
 21
-739.474418
 31
0.0
  0
LINE
  8
0
  6
BYLAYER
 62
     1
 10
307.096856
 20
-732.853065
 30
0.0
 11
312.839486
 21
-738.595726
 31
0.0
  0
ARC
  8
0
  6
BYLAYER
 62
     1
 10
314.960816
 20
-736.474418
 30
0.0
 40
3.0
 50
224.999695
 51
270.000000
  0
LINE
  8
0
  6
BYLAYER
 62
     1
 10
309.218125
 20
-734.974342
 30
0.0
 11
313.122483
 21
-809.474525
 31
0.0
  0
LINE
  8
0
  6
BYLAYER
 62
     1
 10
463.218247
 20
-734.974342
 30
0.0
 11
460.029950
 21
-795.810483
 31
0.0
  0
LINE
  8
0
  6
BYLAYER
 62
     1
 10
312.839470
 20
-880.353088
 30
0.0
 11
307.096848
 21
-886.095710
 31
0.0
  0
ARC
  8
0
  6
BYLAYER
 62
     1
 10
314.960793
 20
-882.474407
 30
0.0
 40
2.999989
 50
90.0
 51
135.000052
  0
LINE
  8
0
  6
BYLAYER
 62
     1
 10
457.475556
 20
-879.474441
 30
0.0
 11
314.960793
 21
-879.474418
 31
0.0
  0
LINE
  8
0
  6
BYLAYER
 62
     1
 10
459.596878
 20
-880.353065
 30
0.0
 11
465.339524
 21
-886.095710
 31
0.0
  0
ARC
  8
0
  6
BYLAYER
 62
     1
 10
457.475556
 20
-882.474388
 30
0.0
 40
2.999947
 50
44.999999
 51
90.000000
  0
LINE
  8
0
  6
BYLAYER
 62
     1
 10
441.570969
 20
-819.319130
 30
0.0
 11
438.599335
 21
-876.629783
 31
0.0
  0
ARC
  8
0
  6
BYLAYER
 62
     1
 10
435.603363
 20
-876.474437
 30
0.0
 40
3.0
 50
270.0
 51
357.031773
  0
LINE
  8
0
  6
BYLAYER
 62
     1
 10
416.866013
 20
-819.319069
 30
0.0
 11
419.837632
 21
-876.629783
 31
0.0
  0
ARC
  8
0
  6
BYLAYER
 62
     1
 10
422.833619
 20
-876.474437
 30
0.0
 40
3.000012
 50
182.968200
 51
270.000001
  0
LINE
  8
0
  6
BYLAYER
 62
     1
 10
355.570969
 20
-819.319069
 30
0.0
 11
352.599335
 21
-876.629764
 31
0.0
  0
ARC
  8
0
  6
BYLAYER
 62
     1
 10
349.603363
 20
-876.474422
 30
0.0
 40
3.000004
 50
270.0
 51
357.031855
  0
LINE
  8
0
  6
BYLAYER
 62
     1
 10
330.866013
 20
-819.319069
 30
0.0
 11
333.837632
 21
-876.629768
 31
0.0
  0
ARC
  8
0
  6
BYLAYER
 62
     1
 10
336.833619
 20
-876.474422
 30
0.0
 40
3.000012
 50
182.968200
 51
270.000001
  0
LINE
  8
0
  6
BYLAYER
 62
     1
 10
309.218125
 20
-883.974430
 30
0.0
 11
313.122483
 21
-809.474403
 31
0.0
  0
LINE
  8
0
  6
BYLAYER
 62
     1
 10
460.029950
 20
-823.138323
 30
0.0
 11
463.218247
 21
-883.974430
 31
0.0
  0
ARC
  8
0
  6
BYLAYER
 62
     1
 10
336.833619
 20
-742.474388
 30
0.0
 40
3.000012
 50
90.0
 51
177.031794
  0
ARC
  8
0
  6
BYLAYER
 62
     1
 10
349.603363
 20
-742.474388
 30
0.0
 40
3.000015
 50
2.968145
 51
90.000000
  0
ARC
  8
0
  6
BYLAYER
 62
     1
 10
379.833603
 20
-742.474434
 30
0.0
 40
2.999996
 50
90.0
 51
177.031862
  0
ARC
  8
0
  6
BYLAYER
 62
     1
 10
392.603379
 20
-742.474434
 30
0.0
 40
3.0
 50
2.968145
 51
90.0
  0
ARC
  8
0
  6
BYLAYER
 62
     1
 10
422.833619
 20
-742.474372
 30
0.0
 40
3.000012
 50
90.0
 51
177.031794
  0
ARC
  8
0
  6
BYLAYER
 62
     1
 10
435.603363
 20
-742.474372
 30
0.0
 40
3.0
 50
2.968227
 51
90.000000
  0
LINE
  8
0
  6
BYLAYER
 62
     1
 10
441.570969
 20
-799.629829
 30
0.0
 11
438.599335
 21
-742.319023
 31
0.0
  0
LINE
  8
0
  6
BYLAYER
 62
     1
 10
416.866013
 20
-799.629737
 30
0.0
 11
419.837632
 21
-742.319023
 31
0.0
  0
LINE
  8
0
  6
BYLAYER
 62
     1
 10
398.570969
 20
-799.629737
 30
0.0
 11
395.599335
 21
-742.319084
 31
0.0
  0
LINE
  8
0
  6
BYLAYER
 62
     1
 10
373.866013
 20
-799.629737
 30
0.0
 11
376.837632
 21
-742.319084
 31
0.0
  0
LINE
  8
0
  6
BYLAYER
 62
     1
 10
355.570969
 20
-799.629737
 30
0.0
 11
352.599335
 21
-742.319038
 31
0.0
  0
LINE
  8
0
  6
BYLAYER
 62
     1
 10
330.866013
 20
-799.629737
 30
0.0
 11
333.837632
 21
-742.319038
 31
0.0
  0
LINE
  8
0
  6
BYLAYER
 62
     1
 10
243.718186
 20
-886.974372
 30
0.0
 11
243.718186
 21
-731.974403
 31
0.0
  0
LINE
  8
0
  6
BYLAYER
 62
     1
 10
526.218186
 20
-886.974372
 30
0.0
 11
526.218186
 21
-731.974403
 31
0.0
  0
CIRCLE
  8
0
  6
BYLAYER
 62
     1
 10
466.218430
 20
-809.474403
 30
0.0
 40
15.0
  0
LINE
  8
0
  6
BYLAYER
 62
     1
 10
476.218430
 20
-893.474372
 30
0.0
 11
475.218430
 21
-894.474372
 31
0.0
  0
LINE
  8
0
  6
BYLAYER
 62
     1
 10
296.218430
 20
-893.474403
 30
0.0
 11
297.218430
 21
-894.474403
 31
0.0
  0
LINE
  8
0
  6
BYLAYER
 62
     1
 10
476.218430
 20
-890.474372
 30
0.0
 11
476.218430
 21
-893.474372
 31
0.0
  0
LINE
  8
0
  6
BYLAYER
 62
     1
 10
296.218430
 20
-890.474403
 30
0.0
 11
296.218430
 21
-893.474403
 31
0.0
  0
LINE
  8
0
  6
BYLAYER
 62
     1
 10
475.218430
 20
-894.474372
 30
0.0
 11
297.218430
 21
-894.474403
 31
0.0
  0
LINE
  8
0
  6
BYLAYER
 62
     1
 10
261.034958
 20
-886.974403
 30
0.0
 11
261.218430
 21
-890.474403
 31
0.0
  0
LINE
  8
0
  6
BYLAYER
 62
     1
 10
511.218430
 20
-890.474372
 30
0.0
 11
511.401902
 21
-886.974372
 31
0.0
  0
LINE
  8
0
  6
BYLAYER
 62
     1
 10
261.218430
 20
-890.474403
 30
0.0
 11
511.218430
 21
-890.474372
 31
0.0
  0
LINE
  8
0
  6
BYLAYER
 62
     1
 10
464.691819
 20
-890.474403
 30
0.0
 11
464.578782
 21
-888.317421
 31
0.0
  0
ARC
  8
0
  6
BYLAYER
 62
     1
 10
461.582871
 20
-888.474403
 30
0.0
 40
3.000000
 50
2.999482
 51
90.000000
  0
LINE
  8
0
  6
BYLAYER
 62
     1
 10
402.636765
 20
-885.474403
 30
0.0
 11
461.582871
 21
-885.474403
 31
0.0
  0
ARC
  8
0
  6
BYLAYER
 62
     1
 10
402.636765
 20
-888.474403
 30
0.0
 40
3.000000
 50
90.0
 51
177.000504
  0
LINE
  8
0
  6
BYLAYER
 62
     1
 10
399.527817
 20
-890.474403
 30
0.0
 11
399.640854
 21
-888.317421
 31
0.0
  0
LINE
  8
0
  6
BYLAYER
 62
     1
 10
307.745041
 20
-890.474403
 30
0.0
 11
307.858078
 21
-888.317421
 31
0.0
  0
ARC
  8
0
  6
BYLAYER
 62
     1
 10
310.853989
 20
-888.474403
 30
0.0
 40
3.000000
 50
90.0
 51
177.000518
  0
LINE
  8
0
  6
BYLAYER
 62
     1
 10
369.800095
 20
-885.474403
 30
0.0
 11
310.853989
 21
-885.474403
 31
0.0
  0
ARC
  8
0
  6
BYLAYER
 62
     1
 10
369.800095
 20
-888.474403
 30
0.0
 40
3.000000
 50
2.999509
 51
90.0
  0
LINE
  8
0
  6
BYLAYER
 62
     1
 10
372.909043
 20
-890.474403
 30
0.0
 11
372.796006
 21
-888.317421
 31
0.0
  0
ARC
  8
0
  6
BYLAYER
 62
     1
 10
370.870041
 20
-819.474403
 30
0.0
 40
3.0
 50
2.967981
 51
90.000000
  0
ARC
  8
0
  6
BYLAYER
 62
     1
 10
370.870041
 20
-799.474403
 30
0.0
 40
3.0
 50
270.0
 51
357.032019
  0
LINE
  8
0
  6
BYLAYER
 62
     1
 10
401.566941
 20
-816.474403
 30
0.0
 11
413.870041
 21
-816.474403
 31
0.0
  0
ARC
  8
0
  6
BYLAYER
 62
     1
 10
401.566941
 20
-819.474403
 30
0.0
 40
3.0
 50
90.0
 51
177.032012
  0
ARC
  8
0
  6
BYLAYER
 62
     1
 10
413.870041
 20
-819.474403
 30
0.0
 40
3.0
 50
2.967981
 51
90.000000
  0
LINE
  8
0
  6
BYLAYER
 62
     1
 10
401.566941
 20
-802.474403
 30
0.0
 11
413.870041
 21
-802.474403
 31
0.0
  0
ARC
  8
0
  6
BYLAYER
 62
     1
 10
401.566941
 20
-799.474403
 30
0.0
 40
3.0
 50
182.967981
 51
270.000000
  0
ARC
  8
0
  6
BYLAYER
 62
     1
 10
413.870041
 20
-799.474403
 30
0.0
 40
3.0
 50
270.0
 51
357.032019
  0
LINE
  8
0
  6
BYLAYER
 62
     1
 10
567.718293
 20
-729.474388
 30
0.0
 11
567.718293
 21
-809.474388
 31
0.0
  0
ARC
  8
0
  6
BYLAYER
 62
     1
 10
575.718293
 20
-731.474388
 30
0.0
 40
2.000000
 50
0.0
 51
90.0
  0
ARC
  8
0
  6
BYLAYER
 62
     1
 10
579.718293
 20
-752.474388
 30
0.0
 40
2.000000
 50
180.000000
 51
270.000000
  0
LINE
  8
0
  6
BYLAYER
 62
     1
 10
567.718293
 20
-729.474388
 30
0.0
 11
575.718293
 21
-729.474388
 31
0.0
  0
LINE
  8
0
  6
BYLAYER
 62
     1
 10
579.718293
 20
-754.474388
 30
0.0
 11
611.218293
 21
-754.474388
 31
0.0
  0
LINE
  8
0
  6
BYLAYER
 62
     1
 10
616.218293
 20
-783.617245
 30
0.0
 11
616.218293
 21
-759.474388
 31
0.0
  0
ARC
  8
0
  6
BYLAYER
 62
     1
 10
618.218293
 20
-783.617245
 30
0.0
 40
2.000000
 50
180.000000
 51
270.000000
  0
ARC
  8
0
  6
BYLAYER
 62
     1
 10
611.218293
 20
-759.474388
 30
0.0
 40
5.000000
 50
0.0
 51
90.0
  0
LINE
  8
0
  6
BYLAYER
 62
     1
 10
577.718293
 20
-731.474388
 30
0.0
 11
577.718293
 21
-809.474388
 31
0.0
  0
LINE
  8
0
  6
BYLAYER
 62
     1
 10
610.230293
 20
-741.799892
 30
0.0
 11
579.858293
 21
-741.799892
 31
0.0
  0
ARC
  8
0
  6
BYLAYER
 62
     1
 10
579.858293
 20
-739.799892
 30
0.0
 40
2.000000
 50
180.000000
 51
270.000000
  0
ARC
  8
0
  6
BYLAYER
 62
     1
 10
610.230293
 20
-739.799892
 30
0.0
 40
2.000000
 50
270.0
 51
360.0
  0
ARC
  8
0
  6
BYLAYER
 62
     1
 10
614.718293
 20
-711.474388
 30
0.0
 40
2.000000
 50
90.0
 51
180.0
  0
LINE
  8
0
  6
BYLAYER
 62
     1
 10
624.718293
 20
-809.474388
 30
0.0
 11
624.718293
 21
-709.474388
 31
0.0
  0
LINE
  8
0
  6
BYLAYER
 62
     1
 10
624.718293
 20
-709.474388
 30
0.0
 11
614.718293
 21
-709.474388
 31
0.0
  0
LINE
  8
0
  6
BYLAYER
 62
     1
 10
612.718293
 20
-711.474388
 30
0.0
 11
612.718293
 21
-754.704691
 31
0.0
  0
LINE
  8
0
  6
BYLAYER
 62
     1
 10
567.718293
 20
-889.474387
 30
0.0
 11
567.718293
 21
-809.474388
 31
0.0
  0
ARC
  8
0
  6
BYLAYER
 62
     1
 10
575.718293
 20
-887.474387
 30
0.0
 40
2.000000
 50
270.0
 51
360.0
  0
ARC
  8
0
  6
BYLAYER
 62
     1
 10
579.718293
 20
-866.474387
 30
0.0
 40
2.0
 50
90.0
 51
180.0
  0
LINE
  8
0
  6
BYLAYER
 62
     1
 10
567.718293
 20
-889.474387
 30
0.0
 11
575.718293
 21
-889.474387
 31
0.0
  0
LINE
  8
0
  6
BYLAYER
 62
     1
 10
579.718293
 20
-864.474387
 30
0.0
 11
611.218293
 21
-864.474387
 31
0.0
  0
LINE
  8
0
  6
BYLAYER
 62
     1
 10
616.218293
 20
-835.331530
 30
0.0
 11
616.218293
 21
-859.474387
 31
0.0
  0
ARC
  8
0
  6
BYLAYER
 62
     1
 10
618.218293
 20
-835.331530
 30
0.0
 40
2.000000
 50
90.0
 51
180.0
  0
ARC
  8
0
  6
BYLAYER
 62
     1
 10
611.218293
 20
-859.474387
 30
0.0
 40
5.000000
 50
270.0
 51
360.0
  0
LINE
  8
0
  6
BYLAYER
 62
     1
 10
577.718293
 20
-887.474387
 30
0.0
 11
577.718293
 21
-809.474388
 31
0.0
  0
LINE
  8
0
  6
BYLAYER
 62
     1
 10
610.230293
 20
-877.148883
 30
0.0
 11
579.858293
 21
-877.148883
 31
0.0
  0
ARC
  8
0
  6
BYLAYER
 62
     1
 10
579.858293
 20
-879.148883
 30
0.0
 40
2.000000
 50
90.0
 51
180.0
  0
ARC
  8
0
  6
BYLAYER
 62
     1
 10
610.230293
 20
-879.148883
 30
0.0
 40
2.000000
 50
0.0
 51
90.0
  0
ARC
  8
0
  6
BYLAYER
 62
     1
 10
614.718293
 20
-907.474387
 30
0.0
 40
2.000000
 50
180.000000
 51
270.000000
  0
LINE
  8
0
  6
BYLAYER
 62
     1
 10
624.718293
 20
-809.474388
 30
0.0
 11
624.718293
 21
-909.474387
 31
0.0
  0
LINE
  8
0
  6
BYLAYER
 62
     1
 10
624.718293
 20
-909.474387
 30
0.0
 11
614.718293
 21
-909.474387
 31
0.0
  0
LINE
  8
0
  6
BYLAYER
 62
     1
 10
612.718293
 20
-907.474387
 30
0.0
 11
612.718293
 21
-864.244084
 31
0.0
  0
LINE
  8
0
  6
BYLAYER
 62
     1
 10
555.718293
 20
-809.474388
 30
0.0
 11
555.718293
 21
-889.054835
 31
0.0
  0
LINE
  8
0
  6
BYLAYER
 62
     1
 10
567.718293
 20
-809.474388
 30
0.0
 11
567.718293
 21
-729.474373
 31
0.0
  0
LINE
  8
0
  6
BYLAYER
 62
     1
 10
555.718293
 20
-729.893422
 30
0.0
 11
555.718293
 21
-809.474388
 31
0.0
  0
LINE
  8
0
  6
BYLAYER
 62
     1
 10
567.718293
 20
-889.474373
 30
0.0
 11
567.718293
 21
-809.474388
 31
0.0
  0
LINE
  8
0
  6
BYLAYER
 62
     1
 10
567.718293
 20
-729.474373
 30
0.0
 11
555.718293
 21
-729.893422
 31
0.0
  0
LINE
  8
0
  6
BYLAYER
 62
     1
 10
555.718293
 20
-889.054835
 30
0.0
 11
567.718293
 21
-889.473885
 31
0.0
  0
LINE
  8
0
  6
BYLAYER
 62
     1
 10
545.738771
 20
-744.522484
 30
0.0
 11
539.460481
 21
-756.824180
 31
0.0
  0
LINE
  8
0
  6
BYLAYER
 62
     1
 10
545.738771
 20
-809.474388
 30
0.0
 11
545.738771
 21
-731.895286
 31
0.0
  0
LINE
  8
0
  6
BYLAYER
 62
     1
 10
555.718293
 20
-729.474402
 30
0.0
 11
555.718293
 21
-809.474388
 31
0.0
  0
LINE
  8
0
  6
BYLAYER
 62
     1
 10
547.634095
 20
-729.898094
 30
0.0
 11
555.718293
 21
-729.474402
 31
0.0
  0
ARC
  8
0
  6
BYLAYER
 62
     1
 10
544.738771
 20
-752.346793
 30
0.0
 40
0.999972
 50
302.000007
 51
360.000000
  0
LINE
  8
0
  6
BYLAYER
 62
     1
 10
531.218263
 20
-761.974510
 30
0.0
 11
545.268678
 21
-753.194816
 31
0.0
  0
LINE
  8
0
  6
BYLAYER
 62
     1
 10
531.218293
 20
-761.974510
 30
0.0
 11
531.218186
 21
-809.474388
 31
0.0
  0
ARC
  8
0
  6
BYLAYER
 62
     1
 10
547.738771
 20
-731.895286
 30
0.0
 40
1.999969
 50
93.000028
 51
180.000000
  0
LINE
  8
0
  6
BYLAYER
 62
     1
 10
545.738771
 20
-874.426292
 30
0.0
 11
539.460481
 21
-862.124596
 31
0.0
  0
LINE
  8
0
  6
BYLAYER
 62
     1
 10
545.738771
 20
-809.474388
 30
0.0
 11
545.738771
 21
-887.053490
 31
0.0
  0
LINE
  8
0
  6
BYLAYER
 62
     1
 10
555.718293
 20
-889.474373
 30
0.0
 11
555.718293
 21
-809.474388
 31
0.0
  0
LINE
  8
0
  6
BYLAYER
 62
     1
 10
547.634095
 20
-889.050682
 30
0.0
 11
555.718293
 21
-889.474373
 31
0.0
  0
ARC
  8
0
  6
BYLAYER
 62
     1
 10
544.738771
 20
-866.601982
 30
0.0
 40
0.999972
 50
0.0
 51
57.999993
  0
LINE
  8
0
  6
BYLAYER
 62
     1
 10
531.218263
 20
-856.974266
 30
0.0
 11
545.268678
 21
-865.753960
 31
0.0
  0
LINE
  8
0
  6
BYLAYER
 62
     1
 10
531.218293
 20
-856.974266
 30
0.0
 11
531.218186
 21
-809.474388
 31
0.0
  0
ARC
  8
0
  6
BYLAYER
 62
     1
 10
547.738771
 20
-887.053490
 30
0.0
 40
1.999969
 50
180.000000
 51
266.999972
  0
ENDSEC
  0
EOF
