  0
SECTION
  2
HEADER
  9
$EXTMIN
 10
194.047782
 20
824.0
 30
0.0
  9
$EXTMAX
 10
1102.416382
 20
0.0
 30
0.0
  0
ENDSEC
  0
SECTION
  2
TABLES
  0
ENDSEC
  0
SECTION
  2
BLOCKS
  0
ENDSEC
  0
SECTION
  2
ENTITIES
  0
LINE
  8
0
  6
BYLAYER
 62
     7
 10
510.008532
 20
-237.737201
 30
0.0
 11
510.008532
 21
-141.737201
 31
0.0
  0
LINE
  8
0
  6
BYLAYER
 62
     7
 10
510.008532
 20
-241.737201
 30
0.0
 11
510.008532
 21
-237.737201
 31
0.0
  0
LINE
  8
0
  6
BYLAYER
 62
     7
 10
510.008532
 20
-141.737201
 30
0.0
 11
510.008532
 21
-41.737201
 31
0.0
  0
LINE
  8
0
  6
BYLAYER
 62
     7
 10
510.008532
 20
-73.361820
 30
0.0
 11
510.008532
 21
-65.237201
 31
0.0
  0
LINE
  8
0
  6
BYLAYER
 62
     7
 10
498.008532
 20
-41.737201
 30
0.0
 11
510.008532
 21
-41.737201
 31
0.0
  0
LINE
  8
0
  6
BYLAYER
 62
     7
 10
498.008532
 20
-241.737201
 30
0.0
 11
510.008532
 21
-241.737201
 31
0.0
  0
LINE
  8
0
  6
BYLAYER
 62
     7
 10
530.008532
 20
-215.789648
 30
0.0
 11
530.008532
 21
-216.060841
 31
0.0
  0
LINE
  8
0
  6
BYLAYER
 62
     7
 10
530.008532
 20
-209.272113
 30
0.0
 11
530.008532
 21
-218.237201
 31
0.0
  0
LINE
  8
0
  6
BYLAYER
 62
     7
 10
530.008532
 20
-218.237201
 30
0.0
 11
510.008532
 21
-218.644449
 31
0.0
  0
LINE
  8
0
  6
BYLAYER
 62
     7
 10
531.508532
 20
-209.245929
 30
0.0
 11
530.008532
 21
-209.272113
 31
0.0
  0
LINE
  8
0
  6
BYLAYER
 62
     7
 10
510.499805
 20
-73.861743
 30
0.0
 11
531.508532
 21
-74.228473
 31
0.0
  0
ARC
  8
0
  6
BYLAYER
 62
     7
 10
510.508532
 20
-73.361820
 30
0.0
 40
0.500000
 50
180.000000
 51
268.999943
  0
LINE
  8
0
  6
BYLAYER
 62
     7
 10
531.508532
 20
-74.228473
 30
0.0
 11
531.508532
 21
-209.245929
 31
0.0
  0
LINE
  8
0
  6
BYLAYER
 62
     7
 10
498.008532
 20
-141.737201
 30
0.0
 11
498.008532
 21
-241.737201
 31
0.0
  0
LINE
  8
0
  6
BYLAYER
 62
     7
 10
498.008532
 20
-141.737201
 30
0.0
 11
498.008532
 21
-41.737201
 31
0.0
  0
LINE
  8
0
  6
BYLAYER
 62
     7
 10
540.808459
 20
-58.237262
 30
0.0
 11
535.008410
 21
-58.237262
 31
0.0
  0
ARC
  8
0
  6
BYLAYER
 62
     7
 10
540.808459
 20
-59.737262
 30
0.0
 40
1.5
 50
0.0
 51
90.000003
  0
ARC
  8
0
  6
BYLAYER
 62
     7
 10
570.208484
 20
-59.737262
 30
0.0
 40
1.500000
 50
90.0
 51
180.000003
  0
LINE
  8
0
  6
BYLAYER
 62
     7
 10
579.808459
 20
-58.237262
 30
0.0
 11
570.208484
 21
-58.237262
 31
0.0
  0
ARC
  8
0
  6
BYLAYER
 62
     7
 10
579.808459
 20
-59.737262
 30
0.0
 40
1.5
 50
0.0
 51
90.000003
  0
LINE
  8
0
  6
BYLAYER
 62
     7
 10
615.008471
 20
-58.237201
 30
0.0
 11
609.208484
 21
-58.237201
 31
0.0
  0
ARC
  8
0
  6
BYLAYER
 62
     7
 10
609.208484
 20
-59.737201
 30
0.0
 40
1.500000
 50
90.0
 51
180.000003
  0
ARC
  8
0
  6
BYLAYER
 62
     7
 10
555.508471
 20
-67.237201
 30
0.0
 40
13.200012
 50
180.000000
 51
359.999995
  0
ARC
  8
0
  6
BYLAYER
 62
     7
 10
594.508471
 20
-67.237201
 30
0.0
 40
13.200012
 50
180.000000
 51
359.999995
  0
LINE
  8
0
  6
BYLAYER
 62
     7
 10
535.008410
 20
-63.737262
 30
0.0
 11
540.808459
 21
-63.737262
 31
0.0
  0
LINE
  8
0
  6
BYLAYER
 62
     7
 10
542.308459
 20
-59.737262
 30
0.0
 11
542.308459
 21
-65.237262
 31
0.0
  0
LINE
  8
0
  6
BYLAYER
 62
     7
 10
542.308459
 20
-65.237262
 30
0.0
 11
542.308459
 21
-67.237201
 31
0.0
  0
ARC
  8
0
  6
BYLAYER
 62
     7
 10
540.808459
 20
-65.237262
 30
0.0
 40
1.5
 50
0.0
 51
90.000003
  0
ARC
  8
0
  6
BYLAYER
 62
     7
 10
570.208484
 20
-65.237201
 30
0.0
 40
1.500000
 50
90.0
 51
180.000003
  0
LINE
  8
0
  6
BYLAYER
 62
     7
 10
570.208484
 20
-63.737201
 30
0.0
 11
579.808459
 21
-63.737201
 31
0.0
  0
LINE
  8
0
  6
BYLAYER
 62
     7
 10
581.308459
 20
-59.737262
 30
0.0
 11
581.308459
 21
-65.237201
 31
0.0
  0
LINE
  8
0
  6
BYLAYER
 62
     7
 10
581.308459
 20
-65.237201
 30
0.0
 11
581.308459
 21
-67.237201
 31
0.0
  0
ARC
  8
0
  6
BYLAYER
 62
     7
 10
579.808459
 20
-65.237201
 30
0.0
 40
1.5
 50
0.0
 51
90.000003
  0
LINE
  8
0
  6
BYLAYER
 62
     7
 10
607.708484
 20
-67.237201
 30
0.0
 11
607.708484
 21
-65.237201
 31
0.0
  0
LINE
  8
0
  6
BYLAYER
 62
     7
 10
607.708484
 20
-65.237201
 30
0.0
 11
607.708484
 21
-59.737201
 31
0.0
  0
LINE
  8
0
  6
BYLAYER
 62
     7
 10
609.208484
 20
-63.737201
 30
0.0
 11
615.008471
 21
-63.737201
 31
0.0
  0
ARC
  8
0
  6
BYLAYER
 62
     7
 10
609.208484
 20
-65.237201
 30
0.0
 40
1.500000
 50
90.0
 51
180.000003
  0
LINE
  8
0
  6
BYLAYER
 62
     7
 10
568.708484
 20
-59.737262
 30
0.0
 11
568.708484
 21
-67.237201
 31
0.0
  0
ARC
  8
0
  6
BYLAYER
 62
     7
 10
535.908496
 20
-135.762226
 30
0.0
 40
0.899994
 50
90.0
 51
269.999998
  0
LINE
  8
0
  6
BYLAYER
 62
     7
 10
535.908496
 20
-134.862232
 30
0.0
 11
650.008623
 21
-134.862232
 31
0.0
  0
LINE
  8
0
  6
BYLAYER
 62
     7
 10
535.908496
 20
-136.662220
 30
0.0
 11
650.008623
 21
-136.662220
 31
0.0
  0
ARC
  8
0
  6
BYLAYER
 62
     7
 10
535.908496
 20
-123.812244
 30
0.0
 40
0.900024
 50
90.0
 51
269.999998
  0
ARC
  8
0
  6
BYLAYER
 62
     7
 10
535.908496
 20
-111.862232
 30
0.0
 40
0.899994
 50
90.0
 51
269.999998
  0
LINE
  8
0
  6
BYLAYER
 62
     7
 10
535.908496
 20
-110.962238
 30
0.0
 11
650.008623
 21
-110.962238
 31
0.0
  0
LINE
  8
0
  6
BYLAYER
 62
     7
 10
535.908496
 20
-112.762226
 30
0.0
 11
650.008623
 21
-112.762226
 31
0.0
  0
ARC
  8
0
  6
BYLAYER
 62
     7
 10
535.908496
 20
-99.912250
 30
0.0
 40
0.900024
 50
90.0
 51
269.999998
  0
LINE
  8
0
  6
BYLAYER
 62
     7
 10
535.908496
 20
-99.012226
 30
0.0
 11
650.008623
 21
-99.012226
 31
0.0
  0
LINE
  8
0
  6
BYLAYER
 62
     7
 10
535.908496
 20
-100.812244
 30
0.0
 11
650.008623
 21
-100.812244
 31
0.0
  0
ARC
  8
0
  6
BYLAYER
 62
     7
 10
535.908496
 20
-87.962238
 30
0.0
 40
0.899994
 50
90.0
 51
269.999998
  0
LINE
  8
0
  6
BYLAYER
 62
     7
 10
535.908496
 20
-87.062244
 30
0.0
 11
650.008623
 21
-87.062244
 31
0.0
  0
LINE
  8
0
  6
BYLAYER
 62
     7
 10
535.908496
 20
-88.862232
 30
0.0
 11
650.008623
 21
-88.862232
 31
0.0
  0
ARC
  8
0
  6
BYLAYER
 62
     7
 10
535.908496
 20
-147.712238
 30
0.0
 40
0.899994
 50
90.0
 51
269.999998
  0
LINE
  8
0
  6
BYLAYER
 62
     7
 10
535.908496
 20
-146.812244
 30
0.0
 11
650.008623
 21
-146.812244
 31
0.0
  0
LINE
  8
0
  6
BYLAYER
 62
     7
 10
535.908496
 20
-148.612232
 30
0.0
 11
650.008623
 21
-148.612232
 31
0.0
  0
ARC
  8
0
  6
BYLAYER
 62
     7
 10
535.908496
 20
-159.662220
 30
0.0
 40
0.899994
 50
90.0
 51
269.999998
  0
ARC
  8
0
  6
BYLAYER
 62
     7
 10
535.908496
 20
-171.612232
 30
0.0
 40
0.899994
 50
90.0
 51
269.999998
  0
LINE
  8
0
  6
BYLAYER
 62
     7
 10
535.908496
 20
-170.712238
 30
0.0
 11
650.008623
 21
-170.712238
 31
0.0
  0
LINE
  8
0
  6
BYLAYER
 62
     7
 10
535.908496
 20
-172.512226
 30
0.0
 11
650.008623
 21
-172.512226
 31
0.0
  0
LINE
  8
0
  6
BYLAYER
 62
     7
 10
546.008532
 20
-88.862232
 30
0.0
 11
546.008532
 21
-99.012226
 31
0.0
  0
LINE
  8
0
  6
BYLAYER
 62
     7
 10
648.008532
 20
-88.862232
 30
0.0
 11
648.008532
 21
-99.012226
 31
0.0
  0
LINE
  8
0
  6
BYLAYER
 62
     7
 10
615.008471
 20
-87.062244
 30
0.0
 11
615.008471
 21
-53.737201
 31
0.0
  0
LINE
  8
0
  6
BYLAYER
 62
     7
 10
546.008532
 20
-100.812244
 30
0.0
 11
546.008532
 21
-110.962238
 31
0.0
  0
LINE
  8
0
  6
BYLAYER
 62
     7
 10
546.008532
 20
-112.762226
 30
0.0
 11
546.008532
 21
-122.912220
 31
0.0
  0
LINE
  8
0
  6
BYLAYER
 62
     7
 10
546.008532
 20
-124.712238
 30
0.0
 11
546.008532
 21
-134.862232
 31
0.0
  0
LINE
  8
0
  6
BYLAYER
 62
     7
 10
546.008532
 20
-136.662220
 30
0.0
 11
546.008532
 21
-146.812244
 31
0.0
  0
LINE
  8
0
  6
BYLAYER
 62
     7
 10
546.008532
 20
-148.612232
 30
0.0
 11
546.008532
 21
-158.762226
 31
0.0
  0
LINE
  8
0
  6
BYLAYER
 62
     7
 10
546.008532
 20
-160.562244
 30
0.0
 11
546.008532
 21
-170.712238
 31
0.0
  0
LINE
  8
0
  6
BYLAYER
 62
     7
 10
546.008532
 20
-184.462238
 30
0.0
 11
546.008532
 21
-186.826301
 31
0.0
  0
LINE
  8
0
  6
BYLAYER
 62
     7
 10
546.008532
 20
-172.512226
 30
0.0
 11
546.008532
 21
-182.662220
 31
0.0
  0
LINE
  8
0
  6
BYLAYER
 62
     7
 10
648.008532
 20
-100.812244
 30
0.0
 11
648.008532
 21
-110.962238
 31
0.0
  0
LINE
  8
0
  6
BYLAYER
 62
     7
 10
648.008532
 20
-112.762226
 30
0.0
 11
648.008532
 21
-122.912220
 31
0.0
  0
LINE
  8
0
  6
BYLAYER
 62
     7
 10
648.008532
 20
-124.712238
 30
0.0
 11
648.008532
 21
-134.862232
 31
0.0
  0
LINE
  8
0
  6
BYLAYER
 62
     7
 10
648.008532
 20
-136.662220
 30
0.0
 11
648.008532
 21
-146.812244
 31
0.0
  0
LINE
  8
0
  6
BYLAYER
 62
     7
 10
648.008532
 20
-148.612232
 30
0.0
 11
648.008532
 21
-158.762226
 31
0.0
  0
LINE
  8
0
  6
BYLAYER
 62
     7
 10
648.008532
 20
-160.562244
 30
0.0
 11
648.008532
 21
-170.712238
 31
0.0
  0
LINE
  8
0
  6
BYLAYER
 62
     7
 10
648.008532
 20
-184.462238
 30
0.0
 11
648.008532
 21
-186.826301
 31
0.0
  0
LINE
  8
0
  6
BYLAYER
 62
     7
 10
648.008532
 20
-172.512226
 30
0.0
 11
648.008532
 21
-182.662220
 31
0.0
  0
CIRCLE
  8
0
  6
BYLAYER
 62
     7
 10
569.538501
 20
-123.812244
 30
0.0
 40
3.0
  0
CIRCLE
  8
0
  6
BYLAYER
 62
     7
 10
624.538501
 20
-123.812244
 30
0.0
 40
3.0
  0
LINE
  8
0
  6
BYLAYER
 62
     7
 10
627.400317
 20
-122.912220
 30
0.0
 11
650.008623
 21
-122.912220
 31
0.0
  0
LINE
  8
0
  6
BYLAYER
 62
     7
 10
627.400317
 20
-124.712238
 30
0.0
 11
650.008623
 21
-124.712238
 31
0.0
  0
LINE
  8
0
  6
BYLAYER
 62
     7
 10
572.400317
 20
-122.912220
 30
0.0
 11
621.676684
 21
-122.912220
 31
0.0
  0
LINE
  8
0
  6
BYLAYER
 62
     7
 10
572.400317
 20
-124.712238
 30
0.0
 11
621.676684
 21
-124.712238
 31
0.0
  0
LINE
  8
0
  6
BYLAYER
 62
     7
 10
535.908496
 20
-122.912220
 30
0.0
 11
566.676684
 21
-122.912220
 31
0.0
  0
LINE
  8
0
  6
BYLAYER
 62
     7
 10
535.908496
 20
-124.712238
 30
0.0
 11
566.676684
 21
-124.712238
 31
0.0
  0
LINE
  8
0
  6
BYLAYER
 62
     7
 10
535.908496
 20
-158.762226
 30
0.0
 11
650.008623
 21
-158.762226
 31
0.0
  0
LINE
  8
0
  6
BYLAYER
 62
     7
 10
535.908496
 20
-160.562244
 30
0.0
 11
650.008623
 21
-160.562244
 31
0.0
  0
ARC
  8
0
  6
BYLAYER
 62
     7
 10
535.908496
 20
-183.562213
 30
0.0
 40
0.899994
 50
90.0
 51
269.999998
  0
LINE
  8
0
  6
BYLAYER
 62
     7
 10
535.908496
 20
-182.662220
 30
0.0
 11
650.008623
 21
-182.662220
 31
0.0
  0
LINE
  8
0
  6
BYLAYER
 62
     7
 10
535.908496
 20
-184.462238
 30
0.0
 11
650.008623
 21
-184.462238
 31
0.0
  0
LINE
  8
0
  6
BYLAYER
 62
     7
 10
556.008532
 20
-148.612232
 30
0.0
 11
556.008532
 21
-146.812244
 31
0.0
  0
LINE
  8
0
  6
BYLAYER
 62
     7
 10
638.008532
 20
-146.812244
 30
0.0
 11
638.008532
 21
-148.612232
 31
0.0
  0
LINE
  8
0
  6
BYLAYER
 62
     7
 10
638.008532
 20
-136.662220
 30
0.0
 11
638.008532
 21
-134.862232
 31
0.0
  0
LINE
  8
0
  6
BYLAYER
 62
     7
 10
556.008532
 20
-134.862232
 30
0.0
 11
556.008532
 21
-136.662220
 31
0.0
  0
LINE
  8
0
  6
BYLAYER
 62
     7
 10
638.008532
 20
-124.712238
 30
0.0
 11
638.008532
 21
-122.912220
 31
0.0
  0
LINE
  8
0
  6
BYLAYER
 62
     7
 10
556.008532
 20
-122.912220
 30
0.0
 11
556.008532
 21
-124.712238
 31
0.0
  0
LINE
  8
0
  6
BYLAYER
 62
     7
 10
638.008532
 20
-112.762226
 30
0.0
 11
638.008532
 21
-110.962238
 31
0.0
  0
LINE
  8
0
  6
BYLAYER
 62
     7
 10
556.008532
 20
-110.962238
 30
0.0
 11
556.008532
 21
-112.762226
 31
0.0
  0
LINE
  8
0
  6
BYLAYER
 62
     7
 10
556.008532
 20
-99.012226
 30
0.0
 11
556.008532
 21
-100.812244
 31
0.0
  0
LINE
  8
0
  6
BYLAYER
 62
     7
 10
638.008532
 20
-100.812244
 30
0.0
 11
638.008532
 21
-99.012226
 31
0.0
  0
ARC
  8
0
  6
BYLAYER
 62
     7
 10
542.908526
 20
-183.562244
 30
0.0
 40
0.900024
 50
90.0
 51
269.999998
  0
ARC
  8
0
  6
BYLAYER
 62
     7
 10
542.908526
 20
-171.612232
 30
0.0
 40
0.899994
 50
90.0
 51
269.999998
  0
ARC
  8
0
  6
BYLAYER
 62
     7
 10
542.908526
 20
-159.662220
 30
0.0
 40
0.899994
 50
90.0
 51
269.999998
  0
ARC
  8
0
  6
BYLAYER
 62
     7
 10
542.908526
 20
-147.712238
 30
0.0
 40
0.899994
 50
90.0
 51
269.999998
  0
ARC
  8
0
  6
BYLAYER
 62
     7
 10
542.908526
 20
-135.762226
 30
0.0
 40
0.899994
 50
90.0
 51
269.999998
  0
ARC
  8
0
  6
BYLAYER
 62
     7
 10
542.908526
 20
-123.812244
 30
0.0
 40
0.900024
 50
90.0
 51
269.999998
  0
ARC
  8
0
  6
BYLAYER
 62
     7
 10
542.908526
 20
-111.862232
 30
0.0
 40
0.899994
 50
90.0
 51
269.999998
  0
LINE
  8
0
  6
BYLAYER
 62
     7
 10
535.008408
 20
-53.737201
 30
0.0
 11
535.008534
 21
-209.237201
 31
0.0
  0
ARC
  8
0
  6
BYLAYER
 62
     7
 10
542.908526
 20
-87.962238
 30
0.0
 40
0.899994
 50
90.0
 51
269.999998
  0
ARC
  8
0
  6
BYLAYER
 62
     7
 10
542.908526
 20
-99.912250
 30
0.0
 40
0.900024
 50
90.0
 51
269.999998
  0
LINE
  8
0
  6
BYLAYER
 62
     7
 10
615.008471
 20
-66.282159
 30
0.0
 11
650.118469
 21
-66.282159
 31
0.0
  0
LINE
  8
0
  6
BYLAYER
 62
     7
 10
615.008471
 20
-68.689191
 30
0.0
 11
650.104525
 21
-68.689191
 31
0.0
  0
LINE
  8
0
  6
BYLAYER
 62
     7
 10
615.008471
 20
-73.746599
 30
0.0
 11
650.013645
 21
-73.746599
 31
0.0
  0
LINE
  8
0
  6
BYLAYER
 62
     7
 10
535.008425
 20
-74.737201
 30
0.0
 11
531.508532
 21
-74.737201
 31
0.0
  0
LINE
  8
0
  6
BYLAYER
 62
     7
 10
535.008425
 20
-208.737201
 30
0.0
 11
531.508532
 21
-208.737201
 31
0.0
  0
LINE
  8
0
  6
BYLAYER
 62
     7
 10
539.416084
 20
-218.465848
 30
0.0
 11
650.008623
 21
-218.465848
 31
0.0
  0
LINE
  8
0
  6
BYLAYER
 62
     7
 10
539.455767
 20
-216.058816
 30
0.0
 11
650.008623
 21
-216.058816
 31
0.0
  0
LINE
  8
0
  6
BYLAYER
 62
     7
 10
539.483364
 20
-211.634411
 30
0.0
 11
650.008623
 21
-211.634411
 31
0.0
  0
LINE
  8
0
  6
BYLAYER
 62
     7
 10
539.575259
 20
-203.802081
 30
0.0
 11
650.008623
 21
-203.802081
 31
0.0
  0
LINE
  8
0
  6
BYLAYER
 62
     7
 10
650.008623
 20
-186.826301
 30
0.0
 11
543.503070
 21
-186.826301
 31
0.0
  0
LINE
  8
0
  6
BYLAYER
 62
     7
 10
538.006451
 20
-217.478619
 30
0.0
 11
535.008532
 21
-209.237201
 31
0.0
  0
ARC
  8
0
  6
BYLAYER
 62
     7
 10
539.416084
 20
-216.965848
 30
0.0
 40
1.500000
 50
199.989488
 51
270.000000
  0
LINE
  8
0
  6
BYLAYER
 62
     7
 10
538.029026
 20
-215.021862
 30
0.0
 11
535.008532
 21
-205.715087
 31
0.0
  0
ARC
  8
0
  6
BYLAYER
 62
     7
 10
539.455767
 20
-214.558816
 30
0.0
 40
1.5
 50
197.980729
 51
270.000000
  0
LINE
  8
0
  6
BYLAYER
 62
     7
 10
538.045979
 20
-210.563275
 30
0.0
 11
535.008532
 21
-200.382943
 31
0.0
  0
ARC
  8
0
  6
BYLAYER
 62
     7
 10
539.483364
 20
-210.134411
 30
0.0
 40
1.5
 50
196.613220
 51
270.000000
  0
LINE
  8
0
  6
BYLAYER
 62
     7
 10
538.109303
 20
-202.619846
 30
0.0
 11
535.008532
 21
-188.314944
 31
0.0
  0
ARC
  8
0
  6
BYLAYER
 62
     7
 10
539.575259
 20
-202.302081
 30
0.0
 40
1.5
 50
192.230383
 51
270.000000
  0
LINE
  8
0
  6
BYLAYER
 62
     7
 10
535.008532
 20
-200.382943
 30
0.0
 11
537.368864
 21
-199.203950
 31
0.0
  0
LINE
  8
0
  6
BYLAYER
 62
     7
 10
535.008532
 20
-205.715087
 30
0.0
 11
536.404610
 21
-205.062048
 31
0.0
  0
LINE
  8
0
  6
BYLAYER
 62
     7
 10
535.008532
 20
-188.314944
 30
0.0
 11
543.503070
 21
-186.826301
 31
0.0
  0
LINE
  8
0
  6
BYLAYER
 62
     7
 10
535.008532
 20
-209.237201
 30
0.0
 11
536.009584
 21
-208.799538
 31
0.0
  0
LINE
  8
0
  6
BYLAYER
 62
     7
 10
531.508532
 20
-208.737201
 30
0.0
 11
531.508532
 21
-74.737201
 31
0.0
  0
LINE
  8
0
  6
BYLAYER
 62
     7
 10
710.392144
 20
-62.487201
 30
0.0
 11
650.008623
 21
-62.487201
 31
0.0
  0
LINE
  8
0
  6
BYLAYER
 62
     7
 10
731.008623
 20
-77.249469
 30
0.0
 11
713.470452
 21
-63.547147
 31
0.0
  0
ARC
  8
0
  6
BYLAYER
 62
     7
 10
710.392144
 20
-67.487201
 30
0.0
 40
5.0
 50
52.000000
 51
90.000000
  0
LINE
  8
0
  6
BYLAYER
 62
     7
 10
731.008623
 20
-141.737201
 30
0.0
 11
731.008623
 21
-77.249469
 31
0.0
  0
LINE
  8
0
  6
BYLAYER
 62
     7
 10
731.008623
 20
-206.224933
 30
0.0
 11
731.008623
 21
-141.737201
 31
0.0
  0
LINE
  8
0
  6
BYLAYER
 62
     7
 10
713.470452
 20
-219.927255
 30
0.0
 11
731.008623
 21
-206.224933
 31
0.0
  0
ARC
  8
0
  6
BYLAYER
 62
     7
 10
710.392144
 20
-215.987201
 30
0.0
 40
5.0
 50
270.0
 51
308.0
  0
LINE
  8
0
  6
BYLAYER
 62
     7
 10
650.008623
 20
-220.987201
 30
0.0
 11
710.392144
 21
-220.987201
 31
0.0
  0
LINE
  8
0
  6
BYLAYER
 62
     7
 10
650.008623
 20
-220.987201
 30
0.0
 11
650.008623
 21
-141.737201
 31
0.0
  0
LINE
  8
0
  6
BYLAYER
 62
     7
 10
650.008623
 20
-62.487201
 30
0.0
 11
650.008623
 21
-141.737201
 31
0.0
  0
ARC
  8
0
  6
BYLAYER
 62
     7
 10
605.762746
 20
-43.237201
 30
0.0
 40
1.500000
 50
180.000000
 51
270.000000
  0
ARC
  8
0
  6
BYLAYER
 62
     7
 10
544.254070
 20
-43.237201
 30
0.0
 40
1.500000
 50
270.0
 51
360.0
  0
ARC
  8
0
  6
BYLAYER
 62
     7
 10
536.508408
 20
-43.237201
 30
0.0
 40
1.500000
 50
270.0
 51
360.0
  0
ARC
  8
0
  6
BYLAYER
 62
     7
 10
536.508408
 20
-46.237201
 30
0.0
 40
1.500000
 50
90.0
 51
180.0
  0
ARC
  8
0
  6
BYLAYER
 62
     7
 10
613.508408
 20
-43.237201
 30
0.0
 40
1.500000
 50
180.000000
 51
270.000000
  0
LINE
  8
0
  6
BYLAYER
 62
     7
 10
538.008408
 20
-43.237201
 30
0.0
 11
538.008408
 21
-21.737201
 31
0.0
  0
ARC
  8
0
  6
BYLAYER
 62
     7
 10
539.508408
 20
-21.737201
 30
0.0
 40
1.500000
 50
90.0
 51
180.0
  0
LINE
  8
0
  6
BYLAYER
 62
     7
 10
612.008408
 20
-43.237201
 30
0.0
 11
612.008408
 21
-21.737201
 31
0.0
  0
LINE
  8
0
  6
BYLAYER
 62
     7
 10
539.508408
 20
-20.237201
 30
0.0
 11
610.508408
 21
-20.237201
 31
0.0
  0
ARC
  8
0
  6
BYLAYER
 62
     7
 10
602.762746
 20
-21.737201
 30
0.0
 40
1.500000
 50
0.0
 51
90.0
  0
ARC
  8
0
  6
BYLAYER
 62
     7
 10
610.508408
 20
-21.737201
 30
0.0
 40
1.500000
 50
0.0
 51
90.0
  0
LINE
  8
0
  6
BYLAYER
 62
     7
 10
545.754070
 20
-43.237201
 30
0.0
 11
545.754070
 21
-21.737201
 31
0.0
  0
ARC
  8
0
  6
BYLAYER
 62
     7
 10
547.254070
 20
-21.737201
 30
0.0
 40
1.500000
 50
90.0
 51
180.0
  0
LINE
  8
0
  6
BYLAYER
 62
     7
 10
604.262746
 20
-43.237201
 30
0.0
 11
604.262746
 21
-21.737201
 31
0.0
  0
ARC
  8
0
  6
BYLAYER
 62
     7
 10
613.508408
 20
-46.237201
 30
0.0
 40
1.500000
 50
0.0
 51
90.0
  0
LINE
  8
0
  6
BYLAYER
 62
     7
 10
615.008408
 20
-53.737201
 30
0.0
 11
615.008408
 21
-46.237201
 31
0.0
  0
LINE
  8
0
  6
BYLAYER
 62
     7
 10
613.508408
 20
-44.737201
 30
0.0
 11
536.508408
 21
-44.737201
 31
0.0
  0
LINE
  8
0
  6
BYLAYER
 62
     7
 10
535.008408
 20
-46.237201
 30
0.0
 11
535.008408
 21
-53.737201
 31
0.0
  0
LINE
  8
0
  6
BYLAYER
 62
     7
 10
535.008408
 20
-53.737201
 30
0.0
 11
615.008408
 21
-53.737201
 31
0.0
  0
LINE
  8
0
  6
BYLAYER
 62
     7
 10
615.008408
 20
-51.737201
 30
0.0
 11
535.008408
 21
-51.737201
 31
0.0
  0
LINE
  8
0
  6
BYLAYER
 62
     7
 10
710.392144
 20
-220.987201
 30
0.0
 11
710.392144
 21
-62.487201
 31
0.0
  0
LINE
  8
0
  6
BYLAYER
 62
     7
 10
510.008532
 20
-718.737201
 30
0.0
 11
510.008532
 21
-618.737201
 31
0.0
  0
LINE
  8
0
  6
BYLAYER
 62
     7
 10
510.008532
 20
-650.361820
 30
0.0
 11
510.008532
 21
-642.237201
 31
0.0
  0
LINE
  8
0
  6
BYLAYER
 62
     7
 10
498.008532
 20
-618.737201
 30
0.0
 11
510.008532
 21
-618.737201
 31
0.0
  0
LINE
  8
0
  6
BYLAYER
 62
     7
 10
510.499805
 20
-650.861743
 30
0.0
 11
531.508532
 21
-651.228473
 31
0.0
  0
ARC
  8
0
  6
BYLAYER
 62
     7
 10
510.508532
 20
-650.361820
 30
0.0
 40
0.5
 50
180.000000
 51
268.999943
  0
LINE
  8
0
  6
BYLAYER
 62
     7
 10
531.508532
 20
-651.228473
 30
0.0
 11
531.508532
 21
-718.737201
 31
0.0
  0
LINE
  8
0
  6
BYLAYER
 62
     7
 10
498.008532
 20
-718.737201
 30
0.0
 11
498.008532
 21
-618.737201
 31
0.0
  0
LINE
  8
0
  6
BYLAYER
 62
     7
 10
510.008532
 20
-718.737201
 30
0.0
 11
510.008532
 21
-818.737201
 31
0.0
  0
LINE
  8
0
  6
BYLAYER
 62
     7
 10
510.008532
 20
-787.112582
 30
0.0
 11
510.008532
 21
-795.237201
 31
0.0
  0
LINE
  8
0
  6
BYLAYER
 62
     7
 10
498.008532
 20
-818.737201
 30
0.0
 11
510.008532
 21
-818.737201
 31
0.0
  0
LINE
  8
0
  6
BYLAYER
 62
     7
 10
510.499805
 20
-786.612659
 30
0.0
 11
531.508532
 21
-786.245929
 31
0.0
  0
ARC
  8
0
  6
BYLAYER
 62
     7
 10
510.508532
 20
-787.112582
 30
0.0
 40
0.5
 50
91.000057
 51
180.000000
  0
LINE
  8
0
  6
BYLAYER
 62
     7
 10
531.508532
 20
-786.245929
 30
0.0
 11
531.508532
 21
-718.737201
 31
0.0
  0
LINE
  8
0
  6
BYLAYER
 62
     7
 10
498.008532
 20
-718.737201
 30
0.0
 11
498.008532
 21
-818.737201
 31
0.0
  0
LINE
  8
0
  6
BYLAYER
 62
     7
 10
538.008479
 20
-743.253886
 30
0.0
 11
538.008479
 21
-718.737201
 31
0.0
  0
LINE
  8
0
  6
BYLAYER
 62
     7
 10
612.008479
 20
-718.737201
 30
0.0
 11
612.008479
 21
-743.253886
 31
0.0
  0
LINE
  8
0
  6
BYLAYER
 62
     7
 10
602.546074
 20
-752.987201
 30
0.0
 11
547.470885
 21
-752.987201
 31
0.0
  0
LINE
  8
0
  6
BYLAYER
 62
     7
 10
552.113178
 20
-723.838307
 30
0.0
 11
538.008479
 21
-724.330854
 31
0.0
  0
ARC
  8
0
  6
BYLAYER
 62
     7
 10
552.008479
 20
-720.840135
 30
0.0
 40
3.0
 50
272.000000
 51
360.000000
  0
LINE
  8
0
  6
BYLAYER
 62
     7
 10
552.113178
 20
-738.838307
 30
0.0
 11
538.008479
 21
-739.330854
 31
0.0
  0
ARC
  8
0
  6
BYLAYER
 62
     7
 10
552.008479
 20
-735.840135
 30
0.0
 40
3.0
 50
272.000000
 51
360.000000
  0
LINE
  8
0
  6
BYLAYER
 62
     7
 10
538.008479
 20
-728.143548
 30
0.0
 11
552.113178
 21
-728.636095
 31
0.0
  0
ARC
  8
0
  6
BYLAYER
 62
     7
 10
552.008479
 20
-731.634267
 30
0.0
 40
3.0
 50
0.0
 51
88.0
  0
LINE
  8
0
  6
BYLAYER
 62
     7
 10
555.008479
 20
-731.634267
 30
0.0
 11
555.008479
 21
-735.840135
 31
0.0
  0
LINE
  8
0
  6
BYLAYER
 62
     7
 10
555.008479
 20
-718.737201
 30
0.0
 11
555.008479
 21
-720.840135
 31
0.0
  0
LINE
  8
0
  6
BYLAYER
 62
     7
 10
539.008479
 20
-718.737201
 30
0.0
 11
539.008479
 21
-724.295933
 31
0.0
  0
LINE
  8
0
  6
BYLAYER
 62
     7
 10
539.008479
 20
-728.178469
 30
0.0
 11
539.008479
 21
-739.295933
 31
0.0
  0
LINE
  8
0
  6
BYLAYER
 62
     7
 10
597.903781
 20
-723.838307
 30
0.0
 11
612.008479
 21
-724.330854
 31
0.0
  0
ARC
  8
0
  6
BYLAYER
 62
     7
 10
598.008479
 20
-720.840135
 30
0.0
 40
3.0
 50
180.000000
 51
268.000000
  0
LINE
  8
0
  6
BYLAYER
 62
     7
 10
597.903781
 20
-738.838307
 30
0.0
 11
612.008479
 21
-739.330854
 31
0.0
  0
ARC
  8
0
  6
BYLAYER
 62
     7
 10
598.008479
 20
-735.840135
 30
0.0
 40
3.0
 50
180.000000
 51
268.000000
  0
LINE
  8
0
  6
BYLAYER
 62
     7
 10
612.008479
 20
-728.143548
 30
0.0
 11
597.903781
 21
-728.636095
 31
0.0
  0
ARC
  8
0
  6
BYLAYER
 62
     7
 10
598.008479
 20
-731.634267
 30
0.0
 40
3.0
 50
92.000000
 51
180.000000
  0
LINE
  8
0
  6
BYLAYER
 62
     7
 10
595.008479
 20
-731.634267
 30
0.0
 11
595.008479
 21
-735.840135
 31
0.0
  0
LINE
  8
0
  6
BYLAYER
 62
     7
 10
595.008479
 20
-718.737201
 30
0.0
 11
595.008479
 21
-720.840135
 31
0.0
  0
LINE
  8
0
  6
BYLAYER
 62
     7
 10
611.008479
 20
-718.737201
 30
0.0
 11
611.008479
 21
-724.295933
 31
0.0
  0
LINE
  8
0
  6
BYLAYER
 62
     7
 10
611.008479
 20
-728.178469
 30
0.0
 11
611.008479
 21
-739.295933
 31
0.0
  0
LINE
  8
0
  6
BYLAYER
 62
     7
 10
535.008479
 20
-718.737201
 30
0.0
 11
535.008479
 21
-754.237201
 31
0.0
  0
ARC
  8
0
  6
BYLAYER
 62
     7
 10
536.508479
 20
-754.237201
 30
0.0
 40
1.5
 50
180.000000
 51
270.000000
  0
LINE
  8
0
  6
BYLAYER
 62
     7
 10
615.008479
 20
-754.237201
 30
0.0
 11
615.008479
 21
-718.737201
 31
0.0
  0
LINE
  8
0
  6
BYLAYER
 62
     7
 10
536.508479
 20
-755.737201
 30
0.0
 11
613.508479
 21
-755.737201
 31
0.0
  0
ARC
  8
0
  6
BYLAYER
 62
     7
 10
613.508479
 20
-754.237201
 30
0.0
 40
1.5
 50
270.0
 51
360.0
  0
ARC
  8
0
  6
BYLAYER
 62
     7
 10
610.008479
 20
-750.737201
 30
0.0
 40
6.000000
 50
86.177446
 51
185.739170
  0
ARC
  8
0
  6
BYLAYER
 62
     7
 10
610.508479
 20
-743.253886
 30
0.0
 40
1.500000
 50
266.177446
 51
360.0
  0
ARC
  8
0
  6
BYLAYER
 62
     7
 10
602.546074
 20
-751.487201
 30
0.0
 40
1.5
 50
270.0
 51
365.739170
  0
ARC
  8
0
  6
BYLAYER
 62
     7
 10
540.008479
 20
-750.737201
 30
0.0
 40
6.000000
 50
354.260830
 51
453.822554
  0
ARC
  8
0
  6
BYLAYER
 62
     7
 10
547.470885
 20
-751.487201
 30
0.0
 40
1.5
 50
174.260830
 51
270.000000
  0
ARC
  8
0
  6
BYLAYER
 62
     7
 10
539.508479
 20
-743.253886
 30
0.0
 40
1.500000
 50
180.000000
 51
273.822554
  0
ARC
  8
0
  6
BYLAYER
 62
     7
 10
562.008479
 20
-745.737201
 30
0.0
 40
3.0
 50
180.000000
 51
270.000000
  0
ARC
  8
0
  6
BYLAYER
 62
     7
 10
588.008479
 20
-745.737201
 30
0.0
 40
3.0
 50
270.0
 51
360.0
  0
LINE
  8
0
  6
BYLAYER
 62
     7
 10
562.008479
 20
-748.737201
 30
0.0
 11
588.008479
 21
-748.737201
 31
0.0
  0
LINE
  8
0
  6
BYLAYER
 62
     7
 10
559.008479
 20
-745.737201
 30
0.0
 11
559.008479
 21
-718.737201
 31
0.0
  0
LINE
  8
0
  6
BYLAYER
 62
     7
 10
591.008479
 20
-718.737201
 30
0.0
 11
591.008479
 21
-745.737201
 31
0.0
  0
LINE
  8
0
  6
BYLAYER
 62
     7
 10
615.008479
 20
-723.812244
 30
0.0
 11
650.008623
 21
-723.812244
 31
0.0
  0
LINE
  8
0
  6
BYLAYER
 62
     7
 10
615.008479
 20
-725.612232
 30
0.0
 11
650.008623
 21
-725.612232
 31
0.0
  0
LINE
  8
0
  6
BYLAYER
 62
     7
 10
615.008479
 20
-747.712238
 30
0.0
 11
650.008623
 21
-747.712238
 31
0.0
  0
LINE
  8
0
  6
BYLAYER
 62
     7
 10
615.008479
 20
-749.512226
 30
0.0
 11
650.008623
 21
-749.512226
 31
0.0
  0
LINE
  8
0
  6
BYLAYER
 62
     7
 10
546.008532
 20
-761.462238
 30
0.0
 11
546.008532
 21
-763.826301
 31
0.0
  0
LINE
  8
0
  6
BYLAYER
 62
     7
 10
546.008532
 20
-755.737201
 30
0.0
 11
546.008532
 21
-759.662220
 31
0.0
  0
LINE
  8
0
  6
BYLAYER
 62
     7
 10
648.008532
 20
-718.737201
 30
0.0
 11
648.008532
 21
-723.812244
 31
0.0
  0
LINE
  8
0
  6
BYLAYER
 62
     7
 10
648.008532
 20
-725.612232
 30
0.0
 11
648.008532
 21
-735.762226
 31
0.0
  0
LINE
  8
0
  6
BYLAYER
 62
     7
 10
648.008532
 20
-737.562244
 30
0.0
 11
648.008532
 21
-747.712238
 31
0.0
  0
LINE
  8
0
  6
BYLAYER
 62
     7
 10
648.008532
 20
-761.462238
 30
0.0
 11
648.008532
 21
-763.826301
 31
0.0
  0
LINE
  8
0
  6
BYLAYER
 62
     7
 10
648.008532
 20
-749.512226
 30
0.0
 11
648.008532
 21
-759.662220
 31
0.0
  0
LINE
  8
0
  6
BYLAYER
 62
     7
 10
615.008479
 20
-735.762226
 30
0.0
 11
650.008623
 21
-735.762226
 31
0.0
  0
LINE
  8
0
  6
BYLAYER
 62
     7
 10
615.008479
 20
-737.562244
 30
0.0
 11
650.008623
 21
-737.562244
 31
0.0
  0
ARC
  8
0
  6
BYLAYER
 62
     7
 10
535.908496
 20
-760.562213
 30
0.0
 40
0.899994
 50
90.0
 51
269.999998
  0
LINE
  8
0
  6
BYLAYER
 62
     7
 10
535.908496
 20
-759.662220
 30
0.0
 11
650.008623
 21
-759.662220
 31
0.0
  0
LINE
  8
0
  6
BYLAYER
 62
     7
 10
535.908496
 20
-761.462238
 30
0.0
 11
650.008623
 21
-761.462238
 31
0.0
  0
LINE
  8
0
  6
BYLAYER
 62
     7
 10
638.008532
 20
-723.812244
 30
0.0
 11
638.008532
 21
-725.612232
 31
0.0
  0
ARC
  8
0
  6
BYLAYER
 62
     7
 10
542.908526
 20
-760.562244
 30
0.0
 40
0.900024
 50
90.0
 51
269.999998
  0
LINE
  8
0
  6
BYLAYER
 62
     7
 10
535.008479
 20
-718.737201
 30
0.0
 11
535.008534
 21
-786.237201
 31
0.0
  0
LINE
  8
0
  6
BYLAYER
 62
     7
 10
535.008425
 20
-785.737201
 30
0.0
 11
531.508532
 21
-785.737201
 31
0.0
  0
LINE
  8
0
  6
BYLAYER
 62
     7
 10
539.416084
 20
-795.465848
 30
0.0
 11
650.008623
 21
-795.465848
 31
0.0
  0
LINE
  8
0
  6
BYLAYER
 62
     7
 10
539.455767
 20
-793.058816
 30
0.0
 11
650.008623
 21
-793.058816
 31
0.0
  0
LINE
  8
0
  6
BYLAYER
 62
     7
 10
539.483364
 20
-788.634411
 30
0.0
 11
650.008623
 21
-788.634411
 31
0.0
  0
LINE
  8
0
  6
BYLAYER
 62
     7
 10
539.575259
 20
-780.802081
 30
0.0
 11
650.008623
 21
-780.802081
 31
0.0
  0
LINE
  8
0
  6
BYLAYER
 62
     7
 10
650.008623
 20
-763.826301
 30
0.0
 11
543.503070
 21
-763.826301
 31
0.0
  0
LINE
  8
0
  6
BYLAYER
 62
     7
 10
538.006451
 20
-794.478619
 30
0.0
 11
535.008532
 21
-786.237201
 31
0.0
  0
ARC
  8
0
  6
BYLAYER
 62
     7
 10
539.416084
 20
-793.965848
 30
0.0
 40
1.5
 50
199.989488
 51
270.000000
  0
LINE
  8
0
  6
BYLAYER
 62
     7
 10
538.029026
 20
-792.021862
 30
0.0
 11
535.008532
 21
-782.715087
 31
0.0
  0
ARC
  8
0
  6
BYLAYER
 62
     7
 10
539.455767
 20
-791.558816
 30
0.0
 40
1.500000
 50
197.980729
 51
270.000000
  0
LINE
  8
0
  6
BYLAYER
 62
     7
 10
538.045979
 20
-787.563275
 30
0.0
 11
535.008532
 21
-777.382943
 31
0.0
  0
ARC
  8
0
  6
BYLAYER
 62
     7
 10
539.483364
 20
-787.134411
 30
0.0
 40
1.500000
 50
196.613220
 51
270.000000
  0
LINE
  8
0
  6
BYLAYER
 62
     7
 10
538.109303
 20
-779.619846
 30
0.0
 11
535.008532
 21
-765.314944
 31
0.0
  0
ARC
  8
0
  6
BYLAYER
 62
     7
 10
539.575259
 20
-779.302081
 30
0.0
 40
1.5
 50
192.230383
 51
270.000000
  0
LINE
  8
0
  6
BYLAYER
 62
     7
 10
535.008532
 20
-777.382943
 30
0.0
 11
537.368864
 21
-776.203950
 31
0.0
  0
LINE
  8
0
  6
BYLAYER
 62
     7
 10
535.008532
 20
-782.715087
 30
0.0
 11
536.404610
 21
-782.062048
 31
0.0
  0
LINE
  8
0
  6
BYLAYER
 62
     7
 10
535.008532
 20
-765.314944
 30
0.0
 11
543.503070
 21
-763.826301
 31
0.0
  0
LINE
  8
0
  6
BYLAYER
 62
     7
 10
535.008532
 20
-786.237201
 30
0.0
 11
536.009584
 21
-785.799538
 31
0.0
  0
LINE
  8
0
  6
BYLAYER
 62
     7
 10
531.508532
 20
-785.737201
 30
0.0
 11
531.508532
 21
-718.737201
 31
0.0
  0
LINE
  8
0
  6
BYLAYER
 62
     7
 10
731.008623
 20
-783.224933
 30
0.0
 11
731.008623
 21
-718.737201
 31
0.0
  0
LINE
  8
0
  6
BYLAYER
 62
     7
 10
713.470452
 20
-796.927255
 30
0.0
 11
731.008623
 21
-783.224933
 31
0.0
  0
ARC
  8
0
  6
BYLAYER
 62
     7
 10
710.392144
 20
-792.987201
 30
0.0
 40
5.0
 50
270.0
 51
308.0
  0
LINE
  8
0
  6
BYLAYER
 62
     7
 10
650.008623
 20
-797.987201
 30
0.0
 11
710.392144
 21
-797.987201
 31
0.0
  0
LINE
  8
0
  6
BYLAYER
 62
     7
 10
650.008623
 20
-797.987201
 30
0.0
 11
650.008623
 21
-718.737201
 31
0.0
  0
LINE
  8
0
  6
BYLAYER
 62
     7
 10
538.008479
 20
-694.220516
 30
0.0
 11
538.008479
 21
-718.737201
 31
0.0
  0
LINE
  8
0
  6
BYLAYER
 62
     7
 10
612.008479
 20
-718.737201
 30
0.0
 11
612.008479
 21
-694.220516
 31
0.0
  0
LINE
  8
0
  6
BYLAYER
 62
     7
 10
602.546074
 20
-684.487201
 30
0.0
 11
547.470885
 21
-684.487201
 31
0.0
  0
LINE
  8
0
  6
BYLAYER
 62
     7
 10
552.113178
 20
-713.636095
 30
0.0
 11
538.008479
 21
-713.143548
 31
0.0
  0
ARC
  8
0
  6
BYLAYER
 62
     7
 10
552.008479
 20
-716.634267
 30
0.0
 40
3.0
 50
0.0
 51
88.0
  0
LINE
  8
0
  6
BYLAYER
 62
     7
 10
552.113178
 20
-698.636095
 30
0.0
 11
538.008479
 21
-698.143548
 31
0.0
  0
ARC
  8
0
  6
BYLAYER
 62
     7
 10
552.008479
 20
-701.634267
 30
0.0
 40
3.0
 50
0.0
 51
88.0
  0
LINE
  8
0
  6
BYLAYER
 62
     7
 10
538.008479
 20
-709.330854
 30
0.0
 11
552.113178
 21
-708.838307
 31
0.0
  0
ARC
  8
0
  6
BYLAYER
 62
     7
 10
552.008479
 20
-705.840135
 30
0.0
 40
3.0
 50
272.000000
 51
360.000000
  0
LINE
  8
0
  6
BYLAYER
 62
     7
 10
555.008479
 20
-705.840135
 30
0.0
 11
555.008479
 21
-701.634267
 31
0.0
  0
LINE
  8
0
  6
BYLAYER
 62
     7
 10
555.008479
 20
-718.737201
 30
0.0
 11
555.008479
 21
-716.634267
 31
0.0
  0
LINE
  8
0
  6
BYLAYER
 62
     7
 10
539.008479
 20
-718.737201
 30
0.0
 11
539.008479
 21
-713.178469
 31
0.0
  0
LINE
  8
0
  6
BYLAYER
 62
     7
 10
539.008479
 20
-709.295933
 30
0.0
 11
539.008479
 21
-698.178469
 31
0.0
  0
LINE
  8
0
  6
BYLAYER
 62
     7
 10
597.903781
 20
-713.636095
 30
0.0
 11
612.008479
 21
-713.143548
 31
0.0
  0
ARC
  8
0
  6
BYLAYER
 62
     7
 10
598.008479
 20
-716.634267
 30
0.0
 40
3.0
 50
92.000000
 51
180.000000
  0
LINE
  8
0
  6
BYLAYER
 62
     7
 10
597.903781
 20
-698.636095
 30
0.0
 11
612.008479
 21
-698.143548
 31
0.0
  0
ARC
  8
0
  6
BYLAYER
 62
     7
 10
598.008479
 20
-701.634267
 30
0.0
 40
3.0
 50
92.000000
 51
180.000000
  0
LINE
  8
0
  6
BYLAYER
 62
     7
 10
612.008479
 20
-709.330854
 30
0.0
 11
597.903781
 21
-708.838307
 31
0.0
  0
ARC
  8
0
  6
BYLAYER
 62
     7
 10
598.008479
 20
-705.840135
 30
0.0
 40
3.0
 50
180.000000
 51
268.000000
  0
LINE
  8
0
  6
BYLAYER
 62
     7
 10
595.008479
 20
-705.840135
 30
0.0
 11
595.008479
 21
-701.634267
 31
0.0
  0
LINE
  8
0
  6
BYLAYER
 62
     7
 10
595.008479
 20
-718.737201
 30
0.0
 11
595.008479
 21
-716.634267
 31
0.0
  0
LINE
  8
0
  6
BYLAYER
 62
     7
 10
611.008479
 20
-718.737201
 30
0.0
 11
611.008479
 21
-713.178469
 31
0.0
  0
LINE
  8
0
  6
BYLAYER
 62
     7
 10
611.008479
 20
-709.295933
 30
0.0
 11
611.008479
 21
-698.178469
 31
0.0
  0
LINE
  8
0
  6
BYLAYER
 62
     7
 10
535.008479
 20
-718.737201
 30
0.0
 11
535.008479
 21
-683.237201
 31
0.0
  0
ARC
  8
0
  6
BYLAYER
 62
     7
 10
536.508479
 20
-683.237201
 30
0.0
 40
1.5
 50
90.0
 51
180.0
  0
LINE
  8
0
  6
BYLAYER
 62
     7
 10
615.008479
 20
-683.237201
 30
0.0
 11
615.008479
 21
-718.737201
 31
0.0
  0
LINE
  8
0
  6
BYLAYER
 62
     7
 10
536.508479
 20
-681.737201
 30
0.0
 11
613.508479
 21
-681.737201
 31
0.0
  0
ARC
  8
0
  6
BYLAYER
 62
     7
 10
613.508479
 20
-683.237201
 30
0.0
 40
1.5
 50
0.0
 51
90.0
  0
ARC
  8
0
  6
BYLAYER
 62
     7
 10
610.008479
 20
-686.737201
 30
0.0
 40
6.000000
 50
174.260830
 51
273.822554
  0
ARC
  8
0
  6
BYLAYER
 62
     7
 10
610.508479
 20
-694.220516
 30
0.0
 40
1.500000
 50
0.0
 51
93.822554
  0
ARC
  8
0
  6
BYLAYER
 62
     7
 10
602.546074
 20
-685.987201
 30
0.0
 40
1.5
 50
354.260830
 51
450.000000
  0
ARC
  8
0
  6
BYLAYER
 62
     7
 10
540.008479
 20
-686.737201
 30
0.0
 40
6.000000
 50
266.177446
 51
365.739170
  0
ARC
  8
0
  6
BYLAYER
 62
     7
 10
547.470885
 20
-685.987201
 30
0.0
 40
1.5
 50
90.0
 51
185.73917
  0
ARC
  8
0
  6
BYLAYER
 62
     7
 10
539.508479
 20
-694.220516
 30
0.0
 40
1.500000
 50
86.177446
 51
180.0
  0
ARC
  8
0
  6
BYLAYER
 62
     7
 10
562.008479
 20
-691.737201
 30
0.0
 40
3.0
 50
90.0
 51
180.0
  0
ARC
  8
0
  6
BYLAYER
 62
     7
 10
588.008479
 20
-691.737201
 30
0.0
 40
3.0
 50
0.0
 51
90.0
  0
LINE
  8
0
  6
BYLAYER
 62
     7
 10
562.008479
 20
-688.737201
 30
0.0
 11
588.008479
 21
-688.737201
 31
0.0
  0
LINE
  8
0
  6
BYLAYER
 62
     7
 10
559.008479
 20
-691.737201
 30
0.0
 11
559.008479
 21
-718.737201
 31
0.0
  0
LINE
  8
0
  6
BYLAYER
 62
     7
 10
591.008479
 20
-718.737201
 30
0.0
 11
591.008479
 21
-691.737201
 31
0.0
  0
LINE
  8
0
  6
BYLAYER
 62
     7
 10
615.008479
 20
-713.662158
 30
0.0
 11
650.008623
 21
-713.662158
 31
0.0
  0
LINE
  8
0
  6
BYLAYER
 62
     7
 10
615.008479
 20
-711.862170
 30
0.0
 11
650.008623
 21
-711.862170
 31
0.0
  0
LINE
  8
0
  6
BYLAYER
 62
     7
 10
615.008479
 20
-689.762164
 30
0.0
 11
650.008623
 21
-689.762164
 31
0.0
  0
LINE
  8
0
  6
BYLAYER
 62
     7
 10
615.008479
 20
-687.962176
 30
0.0
 11
650.008623
 21
-687.962176
 31
0.0
  0
LINE
  8
0
  6
BYLAYER
 62
     7
 10
546.008532
 20
-676.012164
 30
0.0
 11
546.008532
 21
-673.648101
 31
0.0
  0
LINE
  8
0
  6
BYLAYER
 62
     7
 10
546.008532
 20
-681.737201
 30
0.0
 11
546.008532
 21
-677.812182
 31
0.0
  0
LINE
  8
0
  6
BYLAYER
 62
     7
 10
648.008532
 20
-718.737201
 30
0.0
 11
648.008532
 21
-713.662158
 31
0.0
  0
LINE
  8
0
  6
BYLAYER
 62
     7
 10
648.008532
 20
-711.862170
 30
0.0
 11
648.008532
 21
-701.712176
 31
0.0
  0
LINE
  8
0
  6
BYLAYER
 62
     7
 10
648.008532
 20
-699.912158
 30
0.0
 11
648.008532
 21
-689.762164
 31
0.0
  0
LINE
  8
0
  6
BYLAYER
 62
     7
 10
648.008532
 20
-676.012164
 30
0.0
 11
648.008532
 21
-673.648101
 31
0.0
  0
LINE
  8
0
  6
BYLAYER
 62
     7
 10
648.008532
 20
-687.962176
 30
0.0
 11
648.008532
 21
-677.812182
 31
0.0
  0
LINE
  8
0
  6
BYLAYER
 62
     7
 10
615.008479
 20
-701.712176
 30
0.0
 11
650.008623
 21
-701.712176
 31
0.0
  0
LINE
  8
0
  6
BYLAYER
 62
     7
 10
615.008479
 20
-699.912158
 30
0.0
 11
650.008623
 21
-699.912158
 31
0.0
  0
ARC
  8
0
  6
BYLAYER
 62
     7
 10
535.908496
 20
-676.912189
 30
0.0
 40
0.899994
 50
90.0
 51
269.999998
  0
LINE
  8
0
  6
BYLAYER
 62
     7
 10
535.908496
 20
-677.812182
 30
0.0
 11
650.008623
 21
-677.812182
 31
0.0
  0
LINE
  8
0
  6
BYLAYER
 62
     7
 10
535.908496
 20
-676.012164
 30
0.0
 11
650.008623
 21
-676.012164
 31
0.0
  0
LINE
  8
0
  6
BYLAYER
 62
     7
 10
638.008532
 20
-713.662158
 30
0.0
 11
638.008532
 21
-711.862170
 31
0.0
  0
ARC
  8
0
  6
BYLAYER
 62
     7
 10
542.908526
 20
-676.912158
 30
0.0
 40
0.900024
 50
90.0
 51
269.999998
  0
LINE
  8
0
  6
BYLAYER
 62
     7
 10
535.008479
 20
-718.737201
 30
0.0
 11
535.008534
 21
-651.237201
 31
0.0
  0
LINE
  8
0
  6
BYLAYER
 62
     7
 10
535.008425
 20
-651.737201
 30
0.0
 11
531.508532
 21
-651.737201
 31
0.0
  0
LINE
  8
0
  6
BYLAYER
 62
     7
 10
539.416084
 20
-642.008554
 30
0.0
 11
650.008623
 21
-642.008554
 31
0.0
  0
LINE
  8
0
  6
BYLAYER
 62
     7
 10
539.455767
 20
-644.415586
 30
0.0
 11
650.008623
 21
-644.415586
 31
0.0
  0
LINE
  8
0
  6
BYLAYER
 62
     7
 10
539.483364
 20
-648.839991
 30
0.0
 11
650.008623
 21
-648.839991
 31
0.0
  0
LINE
  8
0
  6
BYLAYER
 62
     7
 10
539.575259
 20
-656.672321
 30
0.0
 11
650.008623
 21
-656.672321
 31
0.0
  0
LINE
  8
0
  6
BYLAYER
 62
     7
 10
650.008623
 20
-673.648101
 30
0.0
 11
543.503070
 21
-673.648101
 31
0.0
  0
LINE
  8
0
  6
BYLAYER
 62
     7
 10
538.006451
 20
-642.995783
 30
0.0
 11
535.008532
 21
-651.237201
 31
0.0
  0
ARC
  8
0
  6
BYLAYER
 62
     7
 10
539.416084
 20
-643.508554
 30
0.0
 40
1.500000
 50
90.0
 51
160.010512
  0
LINE
  8
0
  6
BYLAYER
 62
     7
 10
538.029026
 20
-645.452540
 30
0.0
 11
535.008532
 21
-654.759315
 31
0.0
  0
ARC
  8
0
  6
BYLAYER
 62
     7
 10
539.455767
 20
-645.915586
 30
0.0
 40
1.5
 50
90.0
 51
162.019271
  0
LINE
  8
0
  6
BYLAYER
 62
     7
 10
538.045979
 20
-649.911127
 30
0.0
 11
535.008532
 21
-660.091459
 31
0.0
  0
ARC
  8
0
  6
BYLAYER
 62
     7
 10
539.483364
 20
-650.339991
 30
0.0
 40
1.5
 50
90.0
 51
163.38678
  0
LINE
  8
0
  6
BYLAYER
 62
     7
 10
538.109303
 20
-657.854556
 30
0.0
 11
535.008532
 21
-672.159458
 31
0.0
  0
ARC
  8
0
  6
BYLAYER
 62
     7
 10
539.575259
 20
-658.172321
 30
0.0
 40
1.5
 50
90.0
 51
167.769617
  0
LINE
  8
0
  6
BYLAYER
 62
     7
 10
535.008532
 20
-660.091459
 30
0.0
 11
537.368864
 21
-661.270452
 31
0.0
  0
LINE
  8
0
  6
BYLAYER
 62
     7
 10
535.008532
 20
-654.759315
 30
0.0
 11
536.404610
 21
-655.412354
 31
0.0
  0
LINE
  8
0
  6
BYLAYER
 62
     7
 10
535.008532
 20
-672.159458
 30
0.0
 11
543.503070
 21
-673.648101
 31
0.0
  0
LINE
  8
0
  6
BYLAYER
 62
     7
 10
535.008532
 20
-651.237201
 30
0.0
 11
536.009584
 21
-651.674864
 31
0.0
  0
LINE
  8
0
  6
BYLAYER
 62
     7
 10
531.508532
 20
-651.737201
 30
0.0
 11
531.508532
 21
-718.737201
 31
0.0
  0
LINE
  8
0
  6
BYLAYER
 62
     7
 10
731.008623
 20
-654.249469
 30
0.0
 11
731.008623
 21
-718.737201
 31
0.0
  0
LINE
  8
0
  6
BYLAYER
 62
     7
 10
713.470452
 20
-640.547147
 30
0.0
 11
731.008623
 21
-654.249469
 31
0.0
  0
ARC
  8
0
  6
BYLAYER
 62
     7
 10
710.392144
 20
-644.487201
 30
0.0
 40
5.0
 50
52.0
 51
90.0
  0
LINE
  8
0
  6
BYLAYER
 62
     7
 10
650.008623
 20
-639.487201
 30
0.0
 11
710.392144
 21
-639.487201
 31
0.0
  0
LINE
  8
0
  6
BYLAYER
 62
     7
 10
650.008623
 20
-639.487201
 30
0.0
 11
650.008623
 21
-718.737201
 31
0.0
  0
LINE
  8
0
  6
BYLAYER
 62
     7
 10
710.392144
 20
-797.987201
 30
0.0
 11
710.392144
 21
-639.487201
 31
0.0
  0
LINE
  8
0
  6
BYLAYER
 62
     1
 10
442.008586
 20
-166.737201
 30
0.0
 11
442.008586
 21
-154.887995
 31
0.0
  0
ARC
  8
0
  6
BYLAYER
 62
     1
 10
441.008586
 20
-154.887995
 30
0.0
 40
1.000000
 50
0.0
 51
90.0
  0
ARC
  8
0
  6
BYLAYER
 62
     1
 10
441.008586
 20
-159.737201
 30
0.0
 40
1.000000
 50
0.0
 51
90.0
  0
ARC
  8
0
  6
BYLAYER
 62
     1
 10
488.008578
 20
-239.737201
 30
0.0
 40
2.000000
 50
180.000000
 51
270.000000
  0
LINE
  8
0
  6
BYLAYER
 62
     1
 10
498.008578
 20
-41.737201
 30
0.0
 11
498.008578
 21
-241.737201
 31
0.0
  0
LINE
  8
0
  6
BYLAYER
 62
     1
 10
441.008578
 20
1.262799
 30
0.0
 11
441.008578
 21
-158.737201
 31
0.0
  0
ARC
  8
0
  6
BYLAYER
 62
     1
 10
449.008578
 20
-0.737201
 30
0.0
 40
2.0
 50
0.0
 51
90.0
  0
ARC
  8
0
  6
BYLAYER
 62
     1
 10
453.008578
 20
-21.737201
 30
0.0
 40
2.0
 50
180.000000
 51
270.000000
  0
LINE
  8
0
  6
BYLAYER
 62
     1
 10
441.008578
 20
1.262799
 30
0.0
 11
449.008578
 21
1.262799
 31
0.0
  0
LINE
  8
0
  6
BYLAYER
 62
     1
 10
453.008578
 20
-23.737201
 30
0.0
 11
484.508578
 21
-23.737201
 31
0.0
  0
LINE
  8
0
  6
BYLAYER
 62
     1
 10
498.008578
 20
-41.737201
 30
0.0
 11
491.508578
 21
-41.737201
 31
0.0
  0
ARC
  8
0
  6
BYLAYER
 62
     1
 10
491.508578
 20
-39.737201
 30
0.0
 40
2.000000
 50
180.000000
 51
270.000000
  0
LINE
  8
0
  6
BYLAYER
 62
     1
 10
447.008586
 20
-171.737201
 30
0.0
 11
479.180151
 21
-171.737201
 31
0.0
  0
ARC
  8
0
  6
BYLAYER
 62
     1
 10
447.008586
 20
-166.737201
 30
0.0
 40
5.000000
 50
180.000000
 51
270.000000
  0
LINE
  8
0
  6
BYLAYER
 62
     1
 10
498.008578
 20
-241.737201
 30
0.0
 11
488.008578
 21
-241.737201
 31
0.0
  0
LINE
  8
0
  6
BYLAYER
 62
     1
 10
484.915109
 20
-176.643732
 30
0.0
 11
480.594365
 21
-172.322987
 31
0.0
  0
ARC
  8
0
  6
BYLAYER
 62
     1
 10
483.500895
 20
-178.057945
 30
0.0
 40
2.0
 50
29.759132
 51
44.999999
  0
ARC
  8
0
  6
BYLAYER
 62
     1
 10
479.180151
 20
-173.737201
 30
0.0
 40
2.000000
 50
44.999999
 51
90.000000
  0
LINE
  8
0
  6
BYLAYER
 62
     1
 10
489.508578
 20
-52.880058
 30
0.0
 11
489.508578
 21
-28.737201
 31
0.0
  0
ARC
  8
0
  6
BYLAYER
 62
     1
 10
491.508578
 20
-52.880058
 30
0.0
 40
2.000000
 50
180.000000
 51
270.000000
  0
ARC
  8
0
  6
BYLAYER
 62
     1
 10
484.508578
 20
-28.737201
 30
0.0
 40
5.000000
 50
0.0
 51
90.0
  0
LINE
  8
0
  6
BYLAYER
 62
     1
 10
451.405776
 20
-173.219563
 30
0.0
 11
461.823022
 21
-212.097256
 31
0.0
  0
ARC
  8
0
  6
BYLAYER
 62
     1
 10
449.473924
 20
-173.737201
 30
0.0
 40
2.000000
 50
15.000000
 51
90.000000
  0
LINE
  8
0
  6
BYLAYER
 62
     1
 10
485.008578
 20
-226.159851
 30
0.0
 11
462.754874
 21
-213.311669
 31
0.0
  0
ARC
  8
0
  6
BYLAYER
 62
     1
 10
463.754874
 20
-211.579618
 30
0.0
 40
2.0
 50
195.0
 51
240.000001
  0
ARC
  8
0
  6
BYLAYER
 62
     1
 10
484.008578
 20
-227.891902
 30
0.0
 40
2.0
 50
0.0
 51
60.000001
  0
LINE
  8
0
  6
BYLAYER
 62
     1
 10
451.008578
 20
-0.737201
 30
0.0
 11
451.008578
 21
-151.887995
 31
0.0
  0
ARC
  8
0
  6
BYLAYER
 62
     1
 10
449.008578
 20
-151.887995
 30
0.0
 40
2.0
 50
270.0
 51
360.0
  0
LINE
  8
0
  6
BYLAYER
 62
     1
 10
486.008578
 20
-239.737201
 30
0.0
 11
486.008578
 21
-178.680180
 31
0.0
  0
LINE
  8
0
  6
BYLAYER
 62
     1
 10
486.008578
 20
-72.972220
 30
0.0
 11
486.008578
 21
-56.880058
 31
0.0
  0
LINE
  8
0
  6
BYLAYER
 62
     1
 10
486.008578
 20
-144.582257
 30
0.0
 11
486.008578
 21
-94.369637
 31
0.0
  0
ARC
  8
0
  6
BYLAYER
 62
     1
 10
485.008578
 20
-144.582257
 30
0.0
 40
1.0
 50
333.446708
 51
360.000000
  0
ARC
  8
0
  6
BYLAYER
 62
     1
 10
488.008578
 20
-56.880058
 30
0.0
 40
2.000000
 50
90.0
 51
180.0
  0
LINE
  8
0
  6
BYLAYER
 62
     1
 10
483.520578
 20
-110.487201
 30
0.0
 11
453.148578
 21
-110.487201
 31
0.0
  0
ARC
  8
0
  6
BYLAYER
 62
     1
 10
453.148578
 20
-112.487201
 30
0.0
 40
2.0
 50
90.0
 51
180.0
  0
ARC
  8
0
  6
BYLAYER
 62
     1
 10
483.520578
 20
-112.487201
 30
0.0
 40
2.0
 50
0.0
 51
90.0
  0
LINE
  8
0
  6
BYLAYER
 62
     1
 10
483.520578
 20
-106.987201
 30
0.0
 11
453.148578
 21
-106.987201
 31
0.0
  0
ARC
  8
0
  6
BYLAYER
 62
     1
 10
453.148578
 20
-104.987201
 30
0.0
 40
2.0
 50
180.000000
 51
270.000000
  0
ARC
  8
0
  6
BYLAYER
 62
     1
 10
483.520578
 20
-104.987201
 30
0.0
 40
2.0
 50
270.0
 51
360.0
  0
LINE
  8
0
  6
BYLAYER
 62
     1
 10
485.049578
 20
-146.973161
 30
0.0
 11
485.049578
 21
-176.471503
 31
0.0
  0
LINE
  8
0
  6
BYLAYER
 62
     1
 10
485.903097
 20
-145.029287
 30
0.0
 11
485.155059
 21
-146.526131
 31
0.0
  0
ARC
  8
0
  6
BYLAYER
 62
     1
 10
486.049578
 20
-146.973161
 30
0.0
 40
1.000000
 50
153.446708
 51
180.000000
  0
LINE
  8
0
  6
BYLAYER
 62
     1
 10
485.876698
 20
-178.183825
 30
0.0
 11
485.181458
 21
-176.967858
 31
0.0
  0
ARC
  8
0
  6
BYLAYER
 62
     1
 10
485.008578
 20
-178.680180
 30
0.0
 40
1.000000
 50
0.0
 51
29.759132
  0
ARC
  8
0
  6
BYLAYER
 62
     1
 10
486.049578
 20
-176.471503
 30
0.0
 40
1.0
 50
180.000000
 51
209.759132
  0
LINE
  8
0
  6
BYLAYER
 62
     1
 10
498.008578
 20
-77.265276
 30
0.0
 11
489.481709
 21
-77.265276
 31
0.0
  0
LINE
  8
0
  6
BYLAYER
 62
     1
 10
489.414721
 20
-94.369637
 30
0.0
 11
486.008578
 21
-94.369637
 31
0.0
  0
LINE
  8
0
  6
BYLAYER
 62
     1
 10
489.414721
 20
-72.972220
 30
0.0
 11
486.008578
 21
-72.972220
 31
0.0
  0
LINE
  8
0
  6
BYLAYER
 62
     1
 10
498.008578
 20
-89.852354
 30
0.0
 11
489.481709
 21
-89.852354
 31
0.0
  0
LINE
  8
0
  6
BYLAYER
 62
     1
 10
485.520171
 20
-75.453337
 30
0.0
 11
478.587638
 21
-75.453337
 31
0.0
  0
LINE
  8
0
  6
BYLAYER
 62
     1
 10
485.520171
 20
-90.388907
 30
0.0
 11
478.587638
 21
-90.388907
 31
0.0
  0
LINE
  8
0
  6
BYLAYER
 62
     1
 10
489.414721
 20
-72.972220
 30
0.0
 11
489.481709
 21
-77.265276
 31
0.0
  0
LINE
  8
0
  6
BYLAYER
 62
     1
 10
489.481709
 20
-89.852354
 30
0.0
 11
489.414721
 21
-94.369637
 31
0.0
  0
LINE
  8
0
  6
BYLAYER
 62
     1
 10
485.550882
 20
-93.331316
 30
0.0
 11
485.520171
 21
-90.388907
 31
0.0
  0
LINE
  8
0
  6
BYLAYER
 62
     1
 10
485.550882
 20
-73.470467
 30
0.0
 11
485.520171
 21
-75.453337
 31
0.0
  0
LINE
  8
0
  6
BYLAYER
 62
     1
 10
486.008578
 20
-72.972220
 30
0.0
 11
485.550882
 21
-73.470467
 31
0.0
  0
LINE
  8
0
  6
BYLAYER
 62
     1
 10
486.008578
 20
-94.369637
 30
0.0
 11
485.550882
 21
-93.331316
 31
0.0
  0
LINE
  8
0
  6
BYLAYER
 62
     1
 10
429.008578
 20
-78.737201
 30
0.0
 11
429.008578
 21
-158.317649
 31
0.0
  0
LINE
  8
0
  6
BYLAYER
 62
     1
 10
441.008578
 20
-78.737201
 30
0.0
 11
441.008578
 21
1.262814
 31
0.0
  0
LINE
  8
0
  6
BYLAYER
 62
     1
 10
429.008578
 20
0.843764
 30
0.0
 11
429.008578
 21
-78.737201
 31
0.0
  0
LINE
  8
0
  6
BYLAYER
 62
     1
 10
441.008578
 20
-158.737186
 30
0.0
 11
441.008578
 21
-78.737201
 31
0.0
  0
LINE
  8
0
  6
BYLAYER
 62
     1
 10
441.008578
 20
1.262814
 30
0.0
 11
429.008578
 21
0.843764
 31
0.0
  0
LINE
  8
0
  6
BYLAYER
 62
     1
 10
429.008578
 20
-158.317649
 30
0.0
 11
441.008578
 21
-158.736698
 31
0.0
  0
LINE
  8
0
  6
BYLAYER
 62
     1
 10
419.029056
 20
-13.785297
 30
0.0
 11
412.750766
 21
-26.086993
 31
0.0
  0
LINE
  8
0
  6
BYLAYER
 62
     1
 10
419.029056
 20
-78.737201
 30
0.0
 11
419.029056
 21
-1.158099
 31
0.0
  0
LINE
  8
0
  6
BYLAYER
 62
     1
 10
429.008578
 20
1.262785
 30
0.0
 11
429.008578
 21
-78.737201
 31
0.0
  0
LINE
  8
0
  6
BYLAYER
 62
     1
 10
420.924380
 20
0.839093
 30
0.0
 11
429.008578
 21
1.262785
 31
0.0
  0
ARC
  8
0
  6
BYLAYER
 62
     1
 10
418.029056
 20
-21.609607
 30
0.0
 40
0.999972
 50
302.000007
 51
360.000000
  0
LINE
  8
0
  6
BYLAYER
 62
     1
 10
404.508548
 20
-31.237323
 30
0.0
 11
418.558963
 21
-22.457629
 31
0.0
  0
LINE
  8
0
  6
BYLAYER
 62
     1
 10
404.508578
 20
-31.237323
 30
0.0
 11
404.508471
 21
-78.737201
 31
0.0
  0
ARC
  8
0
  6
BYLAYER
 62
     1
 10
421.029056
 20
-1.158099
 30
0.0
 40
1.999969
 50
93.000028
 51
180.000000
  0
LINE
  8
0
  6
BYLAYER
 62
     1
 10
419.029056
 20
-143.689105
 30
0.0
 11
412.750766
 21
-131.387409
 31
0.0
  0
LINE
  8
0
  6
BYLAYER
 62
     1
 10
419.029056
 20
-78.737201
 30
0.0
 11
419.029056
 21
-156.316303
 31
0.0
  0
LINE
  8
0
  6
BYLAYER
 62
     1
 10
429.008578
 20
-158.737187
 30
0.0
 11
429.008578
 21
-78.737201
 31
0.0
  0
LINE
  8
0
  6
BYLAYER
 62
     1
 10
420.924380
 20
-158.313495
 30
0.0
 11
429.008578
 21
-158.737187
 31
0.0
  0
ARC
  8
0
  6
BYLAYER
 62
     1
 10
418.029056
 20
-135.864795
 30
0.0
 40
0.999972
 50
0.0
 51
57.999993
  0
LINE
  8
0
  6
BYLAYER
 62
     1
 10
404.508548
 20
-126.237079
 30
0.0
 11
418.558963
 21
-135.016773
 31
0.0
  0
LINE
  8
0
  6
BYLAYER
 62
     1
 10
404.508578
 20
-126.237079
 30
0.0
 11
404.508471
 21
-78.737201
 31
0.0
  0
ARC
  8
0
  6
BYLAYER
 62
     1
 10
421.029056
 20
-156.316303
 30
0.0
 40
1.999969
 50
180.000000
 51
266.999972
  0
LINE
  8
0
  6
BYLAYER
 62
     1
 10
352.508471
 20
-33.737201
 30
0.0
 11
351.008471
 21
-35.237201
 31
0.0
  0
LINE
  8
0
  6
BYLAYER
 62
     1
 10
402.508471
 20
-35.237201
 30
0.0
 11
401.008471
 21
-33.737201
 31
0.0
  0
LINE
  8
0
  6
BYLAYER
 62
     1
 10
246.508532
 20
-33.737201
 30
0.0
 11
248.008532
 21
-35.237201
 31
0.0
  0
LINE
  8
0
  6
BYLAYER
 62
     1
 10
196.508532
 20
-35.237201
 30
0.0
 11
198.008532
 21
-33.737201
 31
0.0
  0
LINE
  8
0
  6
BYLAYER
 62
     1
 10
402.508471
 20
-221.737201
 30
0.0
 11
401.008471
 21
-220.237201
 31
0.0
  0
LINE
  8
0
  6
BYLAYER
 62
     1
 10
352.508471
 20
-271.737201
 30
0.0
 11
351.008471
 21
-270.237140
 31
0.0
  0
LINE
  8
0
  6
BYLAYER
 62
     1
 10
196.508532
 20
-221.737201
 30
0.0
 11
198.008532
 21
-220.237201
 31
0.0
  0
LINE
  8
0
  6
BYLAYER
 62
     1
 10
246.508532
 20
-271.737201
 30
0.0
 11
248.008532
 21
-270.237140
 31
0.0
  0
LINE
  8
0
  6
BYLAYER
 62
     1
 10
351.008471
 20
-270.237140
 30
0.0
 11
248.008532
 21
-270.237140
 31
0.0
  0
LINE
  8
0
  6
BYLAYER
 62
     1
 10
402.508471
 20
-270.237201
 30
0.0
 11
401.008471
 21
-271.737201
 31
0.0
  0
LINE
  8
0
  6
BYLAYER
 62
     1
 10
196.508532
 20
-270.237201
 30
0.0
 11
198.008532
 21
-271.737201
 31
0.0
  0
LINE
  8
0
  6
BYLAYER
 62
     1
 10
248.008532
 20
-35.237201
 30
0.0
 11
351.008471
 21
-35.237201
 31
0.0
  0
LINE
  8
0
  6
BYLAYER
 62
     1
 10
402.508471
 20
-83.737201
 30
0.0
 11
401.008471
 21
-85.237201
 31
0.0
  0
LINE
  8
0
  6
BYLAYER
 62
     1
 10
402.508471
 20
-83.737201
 30
0.0
 11
402.508471
 21
-35.237201
 31
0.0
  0
LINE
  8
0
  6
BYLAYER
 62
     1
 10
196.508532
 20
-83.737201
 30
0.0
 11
198.008532
 21
-85.237201
 31
0.0
  0
LINE
  8
0
  6
BYLAYER
 62
     1
 10
198.008532
 20
-220.237201
 30
0.0
 11
198.008532
 21
-85.237201
 31
0.0
  0
LINE
  8
0
  6
BYLAYER
 62
     1
 10
196.508532
 20
-114.737201
 30
0.0
 11
198.008532
 21
-114.789569
 31
0.0
  0
ARC
  8
0
  6
BYLAYER
 62
     1
 10
389.508471
 20
-46.737201
 30
0.0
 40
2.0
 50
0.0
 51
90.000016
  0
LINE
  8
0
  6
BYLAYER
 62
     1
 10
209.508532
 20
-44.737201
 30
0.0
 11
389.508471
 21
-44.737201
 31
0.0
  0
ARC
  8
0
  6
BYLAYER
 62
     1
 10
209.508532
 20
-46.737201
 30
0.0
 40
2.000000
 50
90.0
 51
180.000009
  0
ARC
  8
0
  6
BYLAYER
 62
     1
 10
209.508532
 20
-258.737201
 30
0.0
 40
2.000000
 50
180.000000
 51
269.999996
  0
ARC
  8
0
  6
BYLAYER
 62
     1
 10
389.508471
 20
-258.737262
 30
0.0
 40
2.0
 50
270.0
 51
359.999982
  0
LINE
  8
0
  6
BYLAYER
 62
     1
 10
402.508471
 20
-221.737201
 30
0.0
 11
391.508471
 21
-221.737201
 31
0.0
  0
LINE
  8
0
  6
BYLAYER
 62
     1
 10
402.508471
 20
-83.737201
 30
0.0
 11
391.508471
 21
-83.737201
 31
0.0
  0
LINE
  8
0
  6
BYLAYER
 62
     1
 10
196.508532
 20
-83.737201
 30
0.0
 11
207.508532
 21
-83.737201
 31
0.0
  0
LINE
  8
0
  6
BYLAYER
 62
     1
 10
196.508532
 20
-221.737201
 30
0.0
 11
207.508532
 21
-221.737201
 31
0.0
  0
LINE
  8
0
  6
BYLAYER
 62
     1
 10
352.508471
 20
-271.737201
 30
0.0
 11
352.508471
 21
-260.737262
 31
0.0
  0
LINE
  8
0
  6
BYLAYER
 62
     1
 10
246.508532
 20
-271.737201
 30
0.0
 11
246.508532
 21
-260.737262
 31
0.0
  0
LINE
  8
0
  6
BYLAYER
 62
     1
 10
352.508471
 20
-33.737201
 30
0.0
 11
352.508471
 21
-44.737140
 31
0.0
  0
LINE
  8
0
  6
BYLAYER
 62
     1
 10
351.008471
 20
-35.237262
 30
0.0
 11
351.008471
 21
-44.737140
 31
0.0
  0
LINE
  8
0
  6
BYLAYER
 62
     1
 10
248.008532
 20
-35.237262
 30
0.0
 11
248.008532
 21
-44.737140
 31
0.0
  0
LINE
  8
0
  6
BYLAYER
 62
     1
 10
246.508532
 20
-33.737201
 30
0.0
 11
246.508532
 21
-44.737140
 31
0.0
  0
LINE
  8
0
  6
BYLAYER
 62
     1
 10
404.508471
 20
-120.378192
 30
0.0
 11
401.008471
 21
-120.500446
 31
0.0
  0
LINE
  8
0
  6
BYLAYER
 62
     1
 10
401.008471
 20
-108.444354
 30
0.0
 11
404.508471
 21
-108.444354
 31
0.0
  0
LINE
  8
0
  6
BYLAYER
 62
     1
 10
401.008471
 20
-85.737201
 30
0.0
 11
404.508471
 21
-85.737201
 31
0.0
  0
LINE
  8
0
  6
BYLAYER
 62
     1
 10
404.508471
 20
-37.096210
 30
0.0
 11
402.508471
 21
-37.026325
 31
0.0
  0
LINE
  8
0
  6
BYLAYER
 62
     1
 10
404.508471
 20
-120.378192
 30
0.0
 11
404.508471
 21
-37.096210
 31
0.0
  0
LINE
  8
0
  6
BYLAYER
 62
     1
 10
402.508471
 20
-71.737201
 30
0.0
 11
404.508471
 21
-71.737201
 31
0.0
  0
LINE
  8
0
  6
BYLAYER
 62
     1
 10
402.508471
 20
-49.030048
 30
0.0
 11
404.508471
 21
-49.030048
 31
0.0
  0
ARC
  8
0
  6
BYLAYER
 62
     1
 10
215.008532
 20
-253.237201
 30
0.0
 40
2.000000
 50
180.000000
 51
269.999996
  0
LINE
  8
0
  6
BYLAYER
 62
     1
 10
390.922656
 20
-260.151447
 30
0.0
 11
385.422656
 21
-254.651447
 31
0.0
  0
LINE
  8
0
  6
BYLAYER
 62
     1
 10
389.508471
 20
-260.737262
 30
0.0
 11
334.697131
 21
-260.737262
 31
0.0
  0
LINE
  8
0
  6
BYLAYER
 62
     1
 10
207.508532
 20
-46.737201
 30
0.0
 11
207.508532
 21
-133.180866
 31
0.0
  0
ARC
  8
0
  6
BYLAYER
 62
     1
 10
205.508532
 20
-133.180866
 30
0.0
 40
1.999980
 50
339.280495
 51
360.000000
  0
ARC
  8
0
  6
BYLAYER
 62
     1
 10
299.508532
 20
-168.737201
 30
0.0
 40
98.500038
 50
159.280449
 51
200.719548
  0
LINE
  8
0
  6
BYLAYER
 62
     1
 10
207.508532
 20
-204.293475
 30
0.0
 11
207.508532
 21
-258.737201
 31
0.0
  0
ARC
  8
0
  6
BYLAYER
 62
     1
 10
205.508532
 20
-204.293475
 30
0.0
 40
1.999959
 50
0.0
 51
20.719577
  0
LINE
  8
0
  6
BYLAYER
 62
     1
 10
263.952441
 20
-260.737262
 30
0.0
 11
209.508532
 21
-260.737262
 31
0.0
  0
ARC
  8
0
  6
BYLAYER
 62
     1
 10
299.508532
 20
-168.737201
 30
0.0
 40
98.500031
 50
249.280595
 51
290.931197
  0
ARC
  8
0
  6
BYLAYER
 62
     1
 10
263.952441
 20
-262.737262
 30
0.0
 40
2.0
 50
69.280601
 51
90.000000
  0
LINE
  8
0
  6
BYLAYER
 62
     1
 10
391.508471
 20
-204.293475
 30
0.0
 11
391.508471
 21
-258.737262
 31
0.0
  0
ARC
  8
0
  6
BYLAYER
 62
     1
 10
393.508471
 20
-204.293475
 30
0.0
 40
2.000000
 50
159.280416
 51
180.000000
  0
ARC
  8
0
  6
BYLAYER
 62
     1
 10
393.508471
 20
-133.180866
 30
0.0
 40
2.0
 50
180.000000
 51
200.719584
  0
LINE
  8
0
  6
BYLAYER
 62
     1
 10
215.008532
 20
-255.237201
 30
0.0
 11
257.463732
 21
-255.237201
 31
0.0
  0
ARC
  8
0
  6
BYLAYER
 62
     1
 10
248.008532
 20
-73.737201
 30
0.0
 40
1.0
 50
90.0
 51
270.000005
  0
ARC
  8
0
  6
BYLAYER
 62
     1
 10
351.008471
 20
-73.737201
 30
0.0
 40
1.000000
 50
270.0
 51
449.999991
  0
LINE
  8
0
  6
BYLAYER
 62
     1
 10
316.545260
 20
-72.737201
 30
0.0
 11
351.008471
 21
-72.737201
 31
0.0
  0
LINE
  8
0
  6
BYLAYER
 62
     1
 10
248.008532
 20
-72.737201
 30
0.0
 11
282.471804
 21
-72.737201
 31
0.0
  0
LINE
  8
0
  6
BYLAYER
 62
     1
 10
325.397723
 20
-74.737201
 30
0.0
 11
351.008471
 21
-74.737201
 31
0.0
  0
LINE
  8
0
  6
BYLAYER
 62
     1
 10
248.008532
 20
-74.737201
 30
0.0
 11
273.619341
 21
-74.737201
 31
0.0
  0
ARC
  8
0
  6
BYLAYER
 62
     1
 10
251.508532
 20
-85.737201
 30
0.0
 40
1.0
 50
270.0
 51
450.000005
  0
ARC
  8
0
  6
BYLAYER
 62
     1
 10
240.508532
 20
-97.737201
 30
0.0
 40
1.0
 50
270.0
 51
450.000005
  0
ARC
  8
0
  6
BYLAYER
 62
     1
 10
228.508532
 20
-109.737201
 30
0.0
 40
1.0
 50
270.0
 51
450.000005
  0
ARC
  8
0
  6
BYLAYER
 62
     1
 10
347.508471
 20
-85.737201
 30
0.0
 40
1.0
 50
90.0
 51
270.000005
  0
ARC
  8
0
  6
BYLAYER
 62
     1
 10
358.508471
 20
-97.737201
 30
0.0
 40
1.0
 50
90.0
 51
270.000005
  0
ARC
  8
0
  6
BYLAYER
 62
     1
 10
370.508471
 20
-109.737201
 30
0.0
 40
1.000000
 50
90.0
 51
270.000005
  0
LINE
  8
0
  6
BYLAYER
 62
     1
 10
391.508471
 20
-133.180866
 30
0.0
 11
391.508471
 21
-46.737201
 31
0.0
  0
LINE
  8
0
  6
BYLAYER
 62
     1
 10
251.508532
 20
-86.737201
 30
0.0
 11
208.508532
 21
-86.737201
 31
0.0
  0
LINE
  8
0
  6
BYLAYER
 62
     1
 10
251.508532
 20
-84.737201
 30
0.0
 11
208.508532
 21
-84.737201
 31
0.0
  0
ARC
  8
0
  6
BYLAYER
 62
     1
 10
208.508532
 20
-95.737201
 30
0.0
 40
1.0
 50
180.000000
 51
269.999996
  0
ARC
  8
0
  6
BYLAYER
 62
     1
 10
208.508532
 20
-107.737201
 30
0.0
 40
1.0
 50
180.000000
 51
269.999996
  0
ARC
  8
0
  6
BYLAYER
 62
     1
 10
208.508532
 20
-99.737201
 30
0.0
 40
1.000000
 50
90.0
 51
180.000003
  0
ARC
  8
0
  6
BYLAYER
 62
     1
 10
208.508532
 20
-111.737201
 30
0.0
 40
1.000000
 50
90.0
 51
180.000003
  0
LINE
  8
0
  6
BYLAYER
 62
     1
 10
240.508532
 20
-96.737201
 30
0.0
 11
208.508532
 21
-96.737201
 31
0.0
  0
LINE
  8
0
  6
BYLAYER
 62
     1
 10
240.508532
 20
-98.737201
 30
0.0
 11
208.508532
 21
-98.737201
 31
0.0
  0
LINE
  8
0
  6
BYLAYER
 62
     1
 10
228.508532
 20
-108.737201
 30
0.0
 11
208.508532
 21
-108.737201
 31
0.0
  0
LINE
  8
0
  6
BYLAYER
 62
     1
 10
228.508532
 20
-110.737201
 30
0.0
 11
208.508532
 21
-110.737201
 31
0.0
  0
ARC
  8
0
  6
BYLAYER
 62
     1
 10
390.508471
 20
-83.737201
 30
0.0
 40
1.0
 50
270.0
 51
359.999982
  0
ARC
  8
0
  6
BYLAYER
 62
     1
 10
390.508471
 20
-87.737201
 30
0.0
 40
1.0
 50
0.0
 51
90.000016
  0
ARC
  8
0
  6
BYLAYER
 62
     1
 10
390.508471
 20
-95.737201
 30
0.0
 40
1.0
 50
270.0
 51
359.999982
  0
ARC
  8
0
  6
BYLAYER
 62
     1
 10
390.508471
 20
-99.737201
 30
0.0
 40
1.0
 50
0.0
 51
90.000016
  0
ARC
  8
0
  6
BYLAYER
 62
     1
 10
390.508471
 20
-107.737201
 30
0.0
 40
1.0
 50
270.0
 51
359.999982
  0
ARC
  8
0
  6
BYLAYER
 62
     1
 10
390.508471
 20
-111.737201
 30
0.0
 40
1.0
 50
0.0
 51
90.000016
  0
LINE
  8
0
  6
BYLAYER
 62
     1
 10
347.508471
 20
-86.737201
 30
0.0
 11
390.508471
 21
-86.737201
 31
0.0
  0
LINE
  8
0
  6
BYLAYER
 62
     1
 10
358.508471
 20
-96.737201
 30
0.0
 11
390.508471
 21
-96.737201
 31
0.0
  0
LINE
  8
0
  6
BYLAYER
 62
     1
 10
358.508471
 20
-98.737201
 30
0.0
 11
390.508471
 21
-98.737201
 31
0.0
  0
LINE
  8
0
  6
BYLAYER
 62
     1
 10
370.508471
 20
-108.737201
 30
0.0
 11
390.508471
 21
-108.737201
 31
0.0
  0
LINE
  8
0
  6
BYLAYER
 62
     1
 10
370.508471
 20
-110.737201
 30
0.0
 11
390.508471
 21
-110.737201
 31
0.0
  0
LINE
  8
0
  6
BYLAYER
 62
     1
 10
198.008532
 20
-100.059222
 30
0.0
 11
196.508532
 21
-100.059222
 31
0.0
  0
LINE
  8
0
  6
BYLAYER
 62
     1
 10
198.008532
 20
-113.915180
 30
0.0
 11
196.508532
 21
-113.915180
 31
0.0
  0
LINE
  8
0
  6
BYLAYER
 62
     1
 10
391.508471
 20
-85.237201
 30
0.0
 11
401.008471
 21
-85.237201
 31
0.0
  0
LINE
  8
0
  6
BYLAYER
 62
     1
 10
391.508471
 20
-220.237201
 30
0.0
 11
401.008471
 21
-220.237201
 31
0.0
  0
LINE
  8
0
  6
BYLAYER
 62
     1
 10
351.008471
 20
-260.737262
 30
0.0
 11
351.008471
 21
-270.237140
 31
0.0
  0
LINE
  8
0
  6
BYLAYER
 62
     1
 10
248.008532
 20
-270.237140
 30
0.0
 11
248.008532
 21
-260.737262
 31
0.0
  0
LINE
  8
0
  6
BYLAYER
 62
     1
 10
198.008532
 20
-220.237201
 30
0.0
 11
207.508532
 21
-220.237201
 31
0.0
  0
LINE
  8
0
  6
BYLAYER
 62
     1
 10
198.008532
 20
-85.237201
 30
0.0
 11
207.508532
 21
-85.237201
 31
0.0
  0
LINE
  8
0
  6
BYLAYER
 62
     1
 10
363.008471
 20
-44.737201
 30
0.0
 11
363.008471
 21
-33.737201
 31
0.0
  0
LINE
  8
0
  6
BYLAYER
 62
     1
 10
376.008471
 20
-44.737201
 30
0.0
 11
376.008471
 21
-33.737201
 31
0.0
  0
LINE
  8
0
  6
BYLAYER
 62
     1
 10
223.008532
 20
-44.737201
 30
0.0
 11
223.008532
 21
-33.737201
 31
0.0
  0
LINE
  8
0
  6
BYLAYER
 62
     1
 10
236.008532
 20
-44.737201
 30
0.0
 11
236.008532
 21
-33.737201
 31
0.0
  0
LINE
  8
0
  6
BYLAYER
 62
     1
 10
207.508532
 20
-60.237201
 30
0.0
 11
196.508532
 21
-60.237201
 31
0.0
  0
LINE
  8
0
  6
BYLAYER
 62
     1
 10
207.508532
 20
-73.237201
 30
0.0
 11
196.508532
 21
-73.237201
 31
0.0
  0
LINE
  8
0
  6
BYLAYER
 62
     1
 10
236.008532
 20
-260.737201
 30
0.0
 11
236.008532
 21
-271.737201
 31
0.0
  0
LINE
  8
0
  6
BYLAYER
 62
     1
 10
223.008532
 20
-260.737201
 30
0.0
 11
223.008532
 21
-271.737201
 31
0.0
  0
LINE
  8
0
  6
BYLAYER
 62
     1
 10
207.508532
 20
-245.237201
 30
0.0
 11
196.508532
 21
-245.237201
 31
0.0
  0
LINE
  8
0
  6
BYLAYER
 62
     1
 10
207.508532
 20
-232.237201
 30
0.0
 11
196.508532
 21
-232.237201
 31
0.0
  0
LINE
  8
0
  6
BYLAYER
 62
     1
 10
391.508532
 20
-232.237201
 30
0.0
 11
402.508471
 21
-232.237201
 31
0.0
  0
LINE
  8
0
  6
BYLAYER
 62
     1
 10
391.508532
 20
-245.237201
 30
0.0
 11
402.508471
 21
-245.237201
 31
0.0
  0
LINE
  8
0
  6
BYLAYER
 62
     1
 10
376.008471
 20
-260.737201
 30
0.0
 11
376.008471
 21
-271.737201
 31
0.0
  0
LINE
  8
0
  6
BYLAYER
 62
     1
 10
363.008471
 20
-260.737201
 30
0.0
 11
363.008471
 21
-271.737201
 31
0.0
  0
LINE
  8
0
  6
BYLAYER
 62
     1
 10
347.508471
 20
-84.737201
 30
0.0
 11
382.457324
 21
-84.737201
 31
0.0
  0
LINE
  8
0
  6
BYLAYER
 62
     1
 10
390.508471
 20
-84.737201
 30
0.0
 11
382.457324
 21
-84.737201
 31
0.0
  0
LINE
  8
0
  6
BYLAYER
 62
     1
 10
352.508471
 20
-271.737201
 30
0.0
 11
401.008471
 21
-271.737201
 31
0.0
  0
LINE
  8
0
  6
BYLAYER
 62
     1
 10
341.553332
 20
-255.237201
 30
0.0
 11
362.052233
 21
-255.237201
 31
0.0
  0
LINE
  8
0
  6
BYLAYER
 62
     1
 10
362.052233
 20
-255.237201
 30
0.0
 11
384.008471
 21
-255.237201
 31
0.0
  0
LINE
  8
0
  6
BYLAYER
 62
     1
 10
246.508532
 20
-271.737201
 30
0.0
 11
198.008532
 21
-271.737201
 31
0.0
  0
ARC
  8
0
  6
BYLAYER
 62
     1
 10
378.508471
 20
-215.737201
 30
0.0
 40
1.0
 50
90.0
 51
270.000005
  0
ARC
  8
0
  6
BYLAYER
 62
     1
 10
390.508471
 20
-217.737201
 30
0.0
 40
1.000000
 50
0.0
 51
89.999982
  0
ARC
  8
0
  6
BYLAYER
 62
     1
 10
390.508471
 20
-213.737201
 30
0.0
 40
1.000000
 50
270.0
 51
360.000016
  0
LINE
  8
0
  6
BYLAYER
 62
     1
 10
378.508471
 20
-216.737201
 30
0.0
 11
390.508471
 21
-216.737201
 31
0.0
  0
LINE
  8
0
  6
BYLAYER
 62
     1
 10
378.508471
 20
-214.737201
 30
0.0
 11
390.508471
 21
-214.737201
 31
0.0
  0
LINE
  8
0
  6
BYLAYER
 62
     1
 10
402.508471
 20
-221.737201
 30
0.0
 11
402.508471
 21
-270.237201
 31
0.0
  0
ARC
  8
0
  6
BYLAYER
 62
     1
 10
220.508532
 20
-215.737201
 30
0.0
 40
1.0
 50
270.0
 51
449.999991
  0
ARC
  8
0
  6
BYLAYER
 62
     1
 10
208.508532
 20
-217.737201
 30
0.0
 40
1.0
 50
90.0
 51
179.999982
  0
ARC
  8
0
  6
BYLAYER
 62
     1
 10
208.508532
 20
-213.737201
 30
0.0
 40
1.000000
 50
180.000000
 51
270.000023
  0
LINE
  8
0
  6
BYLAYER
 62
     1
 10
220.508532
 20
-216.737201
 30
0.0
 11
208.508532
 21
-216.737201
 31
0.0
  0
LINE
  8
0
  6
BYLAYER
 62
     1
 10
220.508532
 20
-214.737201
 30
0.0
 11
208.508532
 21
-214.737201
 31
0.0
  0
ARC
  8
0
  6
BYLAYER
 62
     1
 10
208.508532
 20
-83.737201
 30
0.0
 40
1.0
 50
180.000000
 51
269.999996
  0
ARC
  8
0
  6
BYLAYER
 62
     1
 10
208.508532
 20
-87.737201
 30
0.0
 40
1.000000
 50
90.0
 51
180.000003
  0
ARC
  8
0
  6
BYLAYER
 62
     1
 10
299.508532
 20
-168.737201
 30
0.0
 40
98.499939
 50
0.0
 51
20.719575
  0
ARC
  8
0
  6
BYLAYER
 62
     1
 10
299.508532
 20
-168.737201
 30
0.0
 40
98.499939
 50
339.280413
 51
360.000000
  0
LINE
  8
0
  6
BYLAYER
 62
     1
 10
196.508532
 20
-270.237201
 30
0.0
 11
196.508532
 21
-221.737201
 31
0.0
  0
LINE
  8
0
  6
BYLAYER
 62
     1
 10
246.508532
 20
-33.737201
 30
0.0
 11
198.008532
 21
-33.737201
 31
0.0
  0
LINE
  8
0
  6
BYLAYER
 62
     1
 10
196.508532
 20
-78.737201
 30
0.0
 11
196.508532
 21
-114.737201
 31
0.0
  0
LINE
  8
0
  6
BYLAYER
 62
     1
 10
196.508532
 20
-78.737201
 30
0.0
 11
196.508532
 21
-35.237201
 31
0.0
  0
LINE
  8
0
  6
BYLAYER
 62
     1
 10
352.508471
 20
-33.737201
 30
0.0
 11
401.008471
 21
-33.737201
 31
0.0
  0
LINE
  8
0
  6
BYLAYER
 62
     1
 10
213.008532
 20
-214.737201
 30
0.0
 11
213.008532
 21
-210.782001
 31
0.0
  0
LINE
  8
0
  6
BYLAYER
 62
     1
 10
213.008532
 20
-253.237201
 30
0.0
 11
213.008532
 21
-216.737201
 31
0.0
  0
ARC
  8
0
  6
BYLAYER
 62
     1
 10
384.008471
 20
-253.237201
 30
0.0
 40
2.0
 50
314.998762
 51
360.000000
  0
ARC
  8
0
  6
BYLAYER
 62
     1
 10
384.008471
 20
-253.237201
 30
0.0
 40
2.000002
 50
270.0
 51
314.998762
  0
LINE
  8
0
  6
BYLAYER
 62
     1
 10
386.008471
 20
-253.237201
 30
0.0
 11
386.008471
 21
-216.737201
 31
0.0
  0
LINE
  8
0
  6
BYLAYER
 62
     1
 10
386.008471
 20
-214.737201
 30
0.0
 11
386.008471
 21
-210.782001
 31
0.0
  0
LINE
  8
0
  6
BYLAYER
 62
     1
 10
208.094408
 20
-260.151447
 30
0.0
 11
213.594408
 21
-254.651447
 31
0.0
  0
LINE
  8
0
  6
BYLAYER
 62
     1
 10
401.008471
 20
-220.237201
 30
0.0
 11
401.008471
 21
-85.237201
 31
0.0
  0
ARC
  8
0
  6
BYLAYER
 62
     1
 10
299.508532
 20
-168.737201
 30
0.0
 40
42.5
 50
90.0
 51
180.000002
  0
CIRCLE
  8
0
  6
BYLAYER
 62
     1
 10
299.508532
 20
-103.737201
 30
0.0
 40
4.5
  0
ARC
  8
0
  6
BYLAYER
 62
     1
 10
299.508532
 20
-103.737201
 30
0.0
 40
4.999938
 50
353.66
 51
636.340001
  0
ARC
  8
0
  6
BYLAYER
 62
     1
 10
253.546557
 20
-122.775287
 30
0.0
 40
4.999972
 50
38.659991
 51
321.339992
  0
ARC
  8
0
  6
BYLAYER
 62
     1
 10
253.546557
 20
-122.775287
 30
0.0
 40
4.999972
 50
38.659991
 51
321.339992
  0
CIRCLE
  8
0
  6
BYLAYER
 62
     1
 10
253.546557
 20
-122.775287
 30
0.0
 40
4.5
  0
CIRCLE
  8
0
  6
BYLAYER
 62
     1
 10
234.508532
 20
-168.737201
 30
0.0
 40
4.5
  0
ARC
  8
0
  6
BYLAYER
 62
     1
 10
234.508532
 20
-168.737201
 30
0.0
 40
5.000012
 50
83.660009
 51
366.340010
  0
ARC
  8
0
  6
BYLAYER
 62
     1
 10
299.508532
 20
-168.737201
 30
0.0
 40
55.000000
 50
90.000003
 51
180.000005
  0
ARC
  8
0
  6
BYLAYER
 62
     1
 10
299.508532
 20
-168.737201
 30
0.0
 40
55.0
 50
359.999986
 51
450.000003
  0
ARC
  8
0
  6
BYLAYER
 62
     1
 10
299.508532
 20
-168.737201
 30
0.0
 40
54.999939
 50
179.999991
 51
270.0
  0
CIRCLE
  8
0
  6
BYLAYER
 62
     1
 10
299.508532
 20
-103.737201
 30
0.0
 40
4.5
  0
CIRCLE
  8
0
  6
BYLAYER
 62
     1
 10
253.546557
 20
-122.775287
 30
0.0
 40
4.5
  0
CIRCLE
  8
0
  6
BYLAYER
 62
     1
 10
234.508532
 20
-168.737201
 30
0.0
 40
4.5
  0
CIRCLE
  8
0
  6
BYLAYER
 62
     1
 10
299.508532
 20
-103.737201
 30
0.0
 40
4.5
  0
ARC
  8
0
  6
BYLAYER
 62
     1
 10
299.508532
 20
-168.737201
 30
0.0
 40
80.000000
 50
90.000003
 51
94.744108
  0
ARC
  8
0
  6
BYLAYER
 62
     1
 10
293.057482
 20
-91.004413
 30
0.0
 40
2.000037
 50
94.743931
 51
150.255446
  0
ARC
  8
0
  6
BYLAYER
 62
     1
 10
239.981554
 20
-118.333392
 30
0.0
 40
2.000029
 50
139.743649
 51
195.255574
  0
ARC
  8
0
  6
BYLAYER
 62
     1
 10
299.508532
 20
-168.737201
 30
0.0
 40
80.000031
 50
130.255874
 51
139.744113
  0
ARC
  8
0
  6
BYLAYER
 62
     1
 10
259.326769
 20
-71.729755
 30
0.0
 40
36.849331
 50
254.744800
 51
330.255247
  0
ARC
  8
0
  6
BYLAYER
 62
     1
 10
249.104784
 20
-109.210223
 30
0.0
 40
2.000036
 50
74.744591
 51
130.256270
  0
ARC
  8
0
  6
BYLAYER
 62
     1
 10
202.501208
 20
-128.555438
 30
0.0
 40
36.849300
 50
299.744739
 51
375.255260
  0
ARC
  8
0
  6
BYLAYER
 62
     1
 10
221.775744
 20
-162.286029
 30
0.0
 40
1.999955
 50
119.744117
 51
175.255742
  0
ARC
  8
0
  6
BYLAYER
 62
     1
 10
299.508532
 20
-168.737201
 30
0.0
 40
79.999977
 50
175.255865
 51
180.000005
  0
CIRCLE
  8
0
  6
BYLAYER
 62
     1
 10
253.546679
 20
-214.699115
 30
0.0
 40
4.5
  0
ARC
  8
0
  6
BYLAYER
 62
     1
 10
299.508532
 20
-168.737201
 30
0.0
 40
80.0
 50
180.000005
 51
184.744104
  0
ARC
  8
0
  6
BYLAYER
 62
     1
 10
221.775744
 20
-175.188251
 30
0.0
 40
1.999954
 50
184.743940
 51
240.255456
  0
ARC
  8
0
  6
BYLAYER
 62
     1
 10
249.104784
 20
-228.264118
 30
0.0
 40
1.999990
 50
229.743658
 51
285.255583
  0
ARC
  8
0
  6
BYLAYER
 62
     1
 10
299.508532
 20
-168.737201
 30
0.0
 40
79.999939
 50
220.255870
 51
229.744122
  0
ARC
  8
0
  6
BYLAYER
 62
     1
 10
202.501208
 20
-208.918964
 30
0.0
 40
36.849354
 50
344.744807
 51
420.255253
  0
ARC
  8
0
  6
BYLAYER
 62
     1
 10
239.981554
 20
-219.140888
 30
0.0
 40
1.999990
 50
164.744600
 51
220.256279
  0
ARC
  8
0
  6
BYLAYER
 62
     1
 10
259.326769
 20
-265.744464
 30
0.0
 40
36.849285
 50
29.744750
 51
105.255264
  0
ARC
  8
0
  6
BYLAYER
 62
     1
 10
293.057482
 20
-246.469928
 30
0.0
 40
1.999955
 50
209.744126
 51
265.255751
  0
ARC
  8
0
  6
BYLAYER
 62
     1
 10
299.508532
 20
-168.737201
 30
0.0
 40
79.999908
 50
265.255861
 51
270.000001
  0
CIRCLE
  8
0
  6
BYLAYER
 62
     1
 10
345.470477
 20
-214.698993
 30
0.0
 40
4.5
  0
ARC
  8
0
  6
BYLAYER
 62
     1
 10
299.508532
 20
-168.737201
 30
0.0
 40
79.999939
 50
270.0
 51
274.744113
  0
ARC
  8
0
  6
BYLAYER
 62
     1
 10
305.959582
 20
-246.469928
 30
0.0
 40
2.000007
 50
274.743922
 51
330.255438
  0
ARC
  8
0
  6
BYLAYER
 62
     1
 10
359.035540
 20
-219.140888
 30
0.0
 40
1.999982
 50
319.743667
 51
375.255565
  0
ARC
  8
0
  6
BYLAYER
 62
     1
 10
299.508532
 20
-168.737201
 30
0.0
 40
79.999954
 50
310.255879
 51
319.744104
  0
ARC
  8
0
  6
BYLAYER
 62
     1
 10
339.690325
 20
-265.744525
 30
0.0
 40
36.849358
 50
74.744816
 51
150.255242
  0
ARC
  8
0
  6
BYLAYER
 62
     1
 10
349.912249
 20
-228.264118
 30
0.0
 40
2.000029
 50
254.744582
 51
310.256261
  0
ARC
  8
0
  6
BYLAYER
 62
     1
 10
396.515887
 20
-208.918964
 30
0.0
 40
36.849327
 50
119.744732
 51
195.255260
  0
ARC
  8
0
  6
BYLAYER
 62
     1
 10
377.241351
 20
-175.188251
 30
0.0
 40
1.999894
 50
299.744108
 51
355.255733
  0
ARC
  8
0
  6
BYLAYER
 62
     1
 10
299.508532
 20
-168.737201
 30
0.0
 40
79.999939
 50
355.255870
 51
360.000010
  0
CIRCLE
  8
0
  6
BYLAYER
 62
     1
 10
345.470355
 20
-122.775165
 30
0.0
 40
4.5
  0
ARC
  8
0
  6
BYLAYER
 62
     1
 10
299.508532
 20
-168.737201
 30
0.0
 40
80.000031
 50
0.000010
 51
4.744123
  0
ARC
  8
0
  6
BYLAYER
 62
     1
 10
377.241351
 20
-162.286151
 30
0.0
 40
2.000030
 50
4.743932
 51
60.255444
  0
ARC
  8
0
  6
BYLAYER
 62
     1
 10
349.912371
 20
-109.210223
 30
0.0
 40
1.999997
 50
49.743650
 51
105.255544
  0
ARC
  8
0
  6
BYLAYER
 62
     1
 10
299.508532
 20
-168.737201
 30
0.0
 40
79.999962
 50
40.255861
 51
49.744114
  0
ARC
  8
0
  6
BYLAYER
 62
     1
 10
359.035540
 20
-118.333392
 30
0.0
 40
1.999904
 50
344.744591
 51
400.256271
  0
ARC
  8
0
  6
BYLAYER
 62
     1
 10
305.959582
 20
-91.004413
 30
0.0
 40
2.000015
 50
29.744118
 51
85.255739
  0
ARC
  8
0
  6
BYLAYER
 62
     1
 10
299.508532
 20
-168.737201
 30
0.0
 40
80.000031
 50
85.255876
 51
90.000016
  0
ARC
  8
0
  6
BYLAYER
 62
     1
 10
253.546618
 20
-122.775165
 30
0.0
 40
5.0
 50
38.659991
 51
321.339992
  0
ARC
  8
0
  6
BYLAYER
 62
     1
 10
234.508532
 20
-168.737201
 30
0.0
 40
4.999999
 50
83.660009
 51
366.340010
  0
ARC
  8
0
  6
BYLAYER
 62
     1
 10
253.546618
 20
-214.699115
 30
0.0
 40
4.999962
 50
128.660028
 51
411.340001
  0
ARC
  8
0
  6
BYLAYER
 62
     1
 10
299.508532
 20
-233.737140
 30
0.0
 40
4.999999
 50
173.660015
 51
456.340016
  0
ARC
  8
0
  6
BYLAYER
 62
     1
 10
345.470477
 20
-214.699115
 30
0.0
 40
5.0
 50
218.660013
 51
501.340041
  0
ARC
  8
0
  6
BYLAYER
 62
     1
 10
364.508563
 20
-168.737201
 30
0.0
 40
5.000060
 50
263.659977
 51
546.340005
  0
ARC
  8
0
  6
BYLAYER
 62
     1
 10
345.470477
 20
-122.775165
 30
0.0
 40
5.000096
 50
308.659982
 51
591.339955
  0
CIRCLE
  8
0
  6
BYLAYER
 62
     1
 10
299.508532
 20
-233.737140
 30
0.0
 40
4.5
  0
CIRCLE
  8
0
  6
BYLAYER
 62
     1
 10
364.508563
 20
-168.737201
 30
0.0
 40
4.5
  0
ARC
  8
0
  6
BYLAYER
 62
     1
 10
339.690325
 20
-71.729755
 30
0.0
 40
36.849327
 50
209.744796
 51
285.255256
  0
ARC
  8
0
  6
BYLAYER
 62
     1
 10
299.508532
 20
-168.737201
 30
0.0
 40
54.999939
 50
270.0
 51
360.000003
  0
ARC
  8
0
  6
BYLAYER
 62
     1
 10
299.508532
 20
-168.737201
 30
0.0
 40
97.5
 50
245.301818
 51
294.698190
  0
ARC
  8
0
  6
BYLAYER
 62
     1
 10
299.508532
 20
-168.737201
 30
0.0
 40
97.5
 50
155.301809
 51
204.698181
  0
ARC
  8
0
  6
BYLAYER
 62
     1
 10
212.744738
 20
-208.640765
 30
0.0
 40
2.000000
 50
204.698188
 51
255.000000
  0
ARC
  8
0
  6
BYLAYER
 62
     1
 10
212.744738
 20
-128.833637
 30
0.0
 40
2.0
 50
104.999996
 51
155.301809
  0
ARC
  8
0
  6
BYLAYER
 62
     1
 10
299.508532
 20
-168.737201
 30
0.0
 40
97.500000
 50
65.301813
 51
114.698185
  0
ARC
  8
0
  6
BYLAYER
 62
     1
 10
299.508532
 20
-168.737201
 30
0.0
 40
97.5
 50
335.301827
 51
384.698199
  0
ARC
  8
0
  6
BYLAYER
 62
     1
 10
299.508532
 20
-168.737201
 30
0.0
 40
42.500015
 50
45.000015
 51
90.000003
  0
ARC
  8
0
  6
BYLAYER
 62
     1
 10
299.508532
 20
-168.737201
 30
0.0
 40
42.5
 50
180.000005
 51
404.999974
  0
ARC
  8
0
  6
BYLAYER
 62
     1
 10
396.515887
 20
-128.555316
 30
0.0
 40
36.849373
 50
225.361600
 51
240.255401
  0
ARC
  8
0
  6
BYLAYER
 62
     1
 10
361.666644
 20
-128.568866
 30
0.0
 40
2.000022
 50
180.022736
 51
274.620241
  0
ARC
  8
0
  6
BYLAYER
 62
     1
 10
362.794329
 20
-142.523395
 30
0.0
 40
11.999949
 50
310.379888
 51
454.620246
  0
ARC
  8
0
  6
BYLAYER
 62
     1
 10
371.864275
 20
-153.188129
 30
0.0
 40
2.000067
 50
130.380156
 51
224.977743
  0
ARC
  8
0
  6
BYLAYER
 62
     1
 10
396.516009
 20
-128.555377
 30
0.0
 40
36.849331
 50
164.744791
 51
240.255265
  0
LINE
  8
0
  6
BYLAYER
 62
     1
 10
386.789935
 20
-210.572620
 30
0.0
 11
370.941790
 21
-214.819110
 31
0.0
  0
ARC
  8
0
  6
BYLAYER
 62
     1
 10
386.272356
 20
-208.640765
 30
0.0
 40
2.000000
 50
284.999998
 51
335.301810
  0
LINE
  8
0
  6
BYLAYER
 62
     1
 10
345.587801
 20
-240.180408
 30
0.0
 11
341.343951
 21
-256.018634
 31
0.0
  0
ARC
  8
0
  6
BYLAYER
 62
     1
 10
339.412066
 20
-255.500995
 30
0.0
 40
2.0
 50
294.698200
 51
345.000013
  0
ARC
  8
0
  6
BYLAYER
 62
     1
 10
347.522295
 20
-240.688068
 30
0.0
 40
2.0
 50
123.715705
 51
164.999994
  0
ARC
  8
0
  6
BYLAYER
 62
     1
 10
346.182330
 20
-245.688831
 30
0.0
 40
2.0
 50
121.238252
 51
164.999994
  0
ARC
  8
0
  6
BYLAYER
 62
     1
 10
299.508532
 20
-168.737201
 30
0.0
 40
88.0
 50
301.238253
 51
328.761739
  0
ARC
  8
0
  6
BYLAYER
 62
     1
 10
376.460162
 20
-215.411029
 30
0.0
 40
2.000000
 50
104.999996
 51
148.761739
  0
ARC
  8
0
  6
BYLAYER
 62
     1
 10
299.508532
 20
-168.737201
 30
0.0
 40
84.500000
 50
303.715700
 51
326.284277
  0
ARC
  8
0
  6
BYLAYER
 62
     1
 10
371.459429
 20
-216.750964
 30
0.0
 40
2.0
 50
105.000003
 51
146.284292
  0
LINE
  8
0
  6
BYLAYER
 62
     1
 10
341.343951
 20
-81.455768
 30
0.0
 11
345.590472
 21
-97.303973
 31
0.0
  0
ARC
  8
0
  6
BYLAYER
 62
     1
 10
339.412066
 20
-81.973407
 30
0.0
 40
2.0
 50
15.000000
 51
65.301813
  0
LINE
  8
0
  6
BYLAYER
 62
     1
 10
370.941790
 20
-122.655292
 30
0.0
 11
386.789935
 21
-126.901782
 31
0.0
  0
ARC
  8
0
  6
BYLAYER
 62
     1
 10
386.272356
 20
-128.833637
 30
0.0
 40
2.0
 50
24.698186
 51
74.999999
  0
ARC
  8
0
  6
BYLAYER
 62
     1
 10
371.459429
 20
-120.723438
 30
0.0
 40
2.000000
 50
213.715714
 51
255.000004
  0
ARC
  8
0
  6
BYLAYER
 62
     1
 10
376.460162
 20
-122.063373
 30
0.0
 40
2.0
 50
211.238261
 51
255.000004
  0
ARC
  8
0
  6
BYLAYER
 62
     1
 10
299.508532
 20
-168.737201
 30
0.0
 40
88.0
 50
31.238256
 51
58.761741
  0
ARC
  8
0
  6
BYLAYER
 62
     1
 10
346.182330
 20
-91.785571
 30
0.0
 40
2.0
 50
195.000005
 51
238.761748
  0
ARC
  8
0
  6
BYLAYER
 62
     1
 10
299.508532
 20
-168.737201
 30
0.0
 40
84.5
 50
33.715713
 51
56.284290
  0
ARC
  8
0
  6
BYLAYER
 62
     1
 10
347.522295
 20
-96.786334
 30
0.0
 40
2.0
 50
195.000012
 51
236.284302
  0
LINE
  8
0
  6
BYLAYER
 62
     1
 10
212.227099
 20
-126.901782
 30
0.0
 11
228.075304
 21
-122.655292
 31
0.0
  0
LINE
  8
0
  6
BYLAYER
 62
     1
 10
253.426623
 20
-97.303973
 30
0.0
 11
257.673113
 21
-81.455768
 31
0.0
  0
ARC
  8
0
  6
BYLAYER
 62
     1
 10
259.604968
 20
-81.973407
 30
0.0
 40
2.000000
 50
114.698182
 51
164.999994
  0
ARC
  8
0
  6
BYLAYER
 62
     1
 10
251.494769
 20
-96.786334
 30
0.0
 40
2.0
 50
303.715723
 51
345.000013
  0
ARC
  8
0
  6
BYLAYER
 62
     1
 10
252.834704
 20
-91.785571
 30
0.0
 40
2.000000
 50
301.238270
 51
345.000013
  0
ARC
  8
0
  6
BYLAYER
 62
     1
 10
299.508532
 20
-168.737201
 30
0.0
 40
88.000000
 50
121.238262
 51
148.761747
  0
ARC
  8
0
  6
BYLAYER
 62
     1
 10
222.556902
 20
-122.063373
 30
0.0
 40
2.000000
 50
284.999987
 51
328.761730
  0
ARC
  8
0
  6
BYLAYER
 62
     1
 10
299.508532
 20
-168.737201
 30
0.0
 40
84.500000
 50
123.715708
 51
146.284286
  0
ARC
  8
0
  6
BYLAYER
 62
     1
 10
227.557665
 20
-120.723438
 30
0.0
 40
2.0
 50
284.999994
 51
326.284284
  0
LINE
  8
0
  6
BYLAYER
 62
     1
 10
257.673113
 20
-256.018634
 30
0.0
 11
253.426623
 21
-240.170429
 31
0.0
  0
ARC
  8
0
  6
BYLAYER
 62
     1
 10
259.604968
 20
-255.500995
 30
0.0
 40
2.0
 50
195.000002
 51
245.301815
  0
LINE
  8
0
  6
BYLAYER
 62
     1
 10
228.075304
 20
-214.819110
 30
0.0
 11
212.227099
 21
-210.572620
 31
0.0
  0
ARC
  8
0
  6
BYLAYER
 62
     1
 10
227.557665
 20
-216.750964
 30
0.0
 40
2.000000
 50
33.715709
 51
74.999999
  0
ARC
  8
0
  6
BYLAYER
 62
     1
 10
222.556902
 20
-215.411029
 30
0.0
 40
2.0
 50
31.238256
 51
74.999999
  0
ARC
  8
0
  6
BYLAYER
 62
     1
 10
299.508532
 20
-168.737201
 30
0.0
 40
88.0
 50
211.238258
 51
238.761743
  0
ARC
  8
0
  6
BYLAYER
 62
     1
 10
252.834704
 20
-245.688831
 30
0.0
 40
2.000000
 50
15.000000
 51
58.761743
  0
ARC
  8
0
  6
BYLAYER
 62
     1
 10
299.508532
 20
-168.737201
 30
0.0
 40
84.5
 50
213.715718
 51
236.284295
  0
ARC
  8
0
  6
BYLAYER
 62
     1
 10
251.494769
 20
-240.688068
 30
0.0
 40
2.000000
 50
15.000000
 51
56.284290
  0
ARC
  8
0
  6
BYLAYER
 62
     1
 10
284.568266
 20
-64.667844
 30
0.0
 40
2.873727
 50
270.0
 51
308.795511
  0
ARC
  8
0
  6
BYLAYER
 62
     1
 10
284.290164
 20
-64.371664
 30
0.0
 40
3.278957
 50
309.340351
 51
360.0
  0
ARC
  8
0
  6
BYLAYER
 62
     1
 10
284.290164
 20
-64.371664
 30
0.0
 40
3.278957
 50
0.0
 51
50.659649
  0
ARC
  8
0
  6
BYLAYER
 62
     1
 10
284.568266
 20
-64.075484
 30
0.0
 40
2.873727
 50
51.204489
 51
90.000000
  0
ARC
  8
0
  6
BYLAYER
 62
     1
 10
284.568266
 20
-64.075458
 30
0.0
 40
2.873701
 50
90.0
 51
128.795693
  0
ARC
  8
0
  6
BYLAYER
 62
     1
 10
284.846394
 20
-64.371664
 30
0.0
 40
3.278967
 50
129.340576
 51
180.0
  0
ARC
  8
0
  6
BYLAYER
 62
     1
 10
284.846394
 20
-64.371664
 30
0.0
 40
3.278967
 50
180.000000
 51
230.659424
  0
ARC
  8
0
  6
BYLAYER
 62
     1
 10
284.568266
 20
-64.667870
 30
0.0
 40
2.873701
 50
231.204307
 51
270.0
  0
ARC
  8
0
  6
BYLAYER
 62
     1
 10
284.568266
 20
-63.528513
 30
0.0
 40
1.329747
 50
90.0
 51
140.793201
  0
ARC
  8
0
  6
BYLAYER
 62
     1
 10
285.601821
 20
-64.371664
 30
0.0
 40
2.663590
 50
140.793201
 51
180.000000
  0
ARC
  8
0
  6
BYLAYER
 62
     1
 10
285.601805
 20
-64.371664
 30
0.0
 40
2.663574
 50
180.000000
 51
219.206869
  0
ARC
  8
0
  6
BYLAYER
 62
     1
 10
284.568266
 20
-65.214804
 30
0.0
 40
1.329750
 50
219.206869
 51
270.000000
  0
ARC
  8
0
  6
BYLAYER
 62
     1
 10
284.568266
 20
-65.214804
 30
0.0
 40
1.329750
 50
270.0
 51
320.793131
  0
ARC
  8
0
  6
BYLAYER
 62
     1
 10
283.534728
 20
-64.371664
 30
0.0
 40
2.663574
 50
320.793131
 51
360.000000
  0
ARC
  8
0
  6
BYLAYER
 62
     1
 10
283.534712
 20
-64.371664
 30
0.0
 40
2.663590
 50
0.0
 51
39.206799
  0
ARC
  8
0
  6
BYLAYER
 62
     1
 10
284.568266
 20
-63.528513
 30
0.0
 40
1.329747
 50
39.206799
 51
90.0
  0
LINE
  8
0
  6
BYLAYER
 62
     1
 10
274.720427
 20
-67.330236
 30
0.0
 11
274.720427
 21
-61.328543
 31
0.0
  0
LINE
  8
0
  6
BYLAYER
 62
     1
 10
274.720427
 20
-61.328543
 30
0.0
 11
277.160552
 21
-61.328543
 31
0.0
  0
LINE
  8
0
  6
BYLAYER
 62
     1
 10
277.160552
 20
-61.328543
 30
0.0
 11
277.974867
 21
-64.456198
 31
0.0
  0
LINE
  8
0
  6
BYLAYER
 62
     1
 10
274.720427
 20
-67.330236
 30
0.0
 11
276.185637
 21
-67.330236
 31
0.0
  0
LINE
  8
0
  6
BYLAYER
 62
     1
 10
276.185637
 20
-67.330236
 30
0.0
 11
276.185637
 21
-63.864477
 31
0.0
  0
LINE
  8
0
  6
BYLAYER
 62
     1
 10
277.340880
 20
-67.330236
 30
0.0
 11
276.185637
 21
-63.864477
 31
0.0
  0
LINE
  8
0
  6
BYLAYER
 62
     1
 10
281.229308
 20
-67.330236
 30
0.0
 11
281.229308
 21
-61.328543
 31
0.0
  0
LINE
  8
0
  6
BYLAYER
 62
     1
 10
281.229308
 20
-61.328543
 30
0.0
 11
278.789183
 21
-61.328543
 31
0.0
  0
LINE
  8
0
  6
BYLAYER
 62
     1
 10
278.789183
 20
-61.328543
 30
0.0
 11
277.974867
 21
-64.456198
 31
0.0
  0
LINE
  8
0
  6
BYLAYER
 62
     1
 10
281.229308
 20
-67.330236
 30
0.0
 11
279.764098
 21
-67.330236
 31
0.0
  0
LINE
  8
0
  6
BYLAYER
 62
     1
 10
279.764098
 20
-67.330236
 30
0.0
 11
279.764098
 21
-63.864477
 31
0.0
  0
LINE
  8
0
  6
BYLAYER
 62
     1
 10
278.608855
 20
-67.330236
 30
0.0
 11
279.764098
 21
-63.864477
 31
0.0
  0
LINE
  8
0
  6
BYLAYER
 62
     1
 10
278.608855
 20
-67.330236
 30
0.0
 11
277.340880
 21
-67.330236
 31
0.0
  0
LINE
  8
0
  6
BYLAYER
 62
     1
 10
302.700148
 20
-67.330236
 30
0.0
 11
304.982466
 21
-61.328543
 31
0.0
  0
LINE
  8
0
  6
BYLAYER
 62
     1
 10
302.700148
 20
-67.330236
 30
0.0
 11
304.644362
 21
-67.330236
 31
0.0
  0
LINE
  8
0
  6
BYLAYER
 62
     1
 10
304.982466
 20
-61.328543
 30
0.0
 11
306.842146
 21
-61.328543
 31
0.0
  0
LINE
  8
0
  6
BYLAYER
 62
     1
 10
304.644362
 20
-67.330236
 30
0.0
 11
304.932539
 21
-66.484930
 31
0.0
  0
LINE
  8
0
  6
BYLAYER
 62
     1
 10
305.393599
 20
-65.132437
 30
0.0
 11
305.912306
 21
-63.610876
 31
0.0
  0
LINE
  8
0
  6
BYLAYER
 62
     1
 10
309.124495
 20
-67.330236
 30
0.0
 11
306.842146
 21
-61.328543
 31
0.0
  0
LINE
  8
0
  6
BYLAYER
 62
     1
 10
309.124495
 20
-67.330236
 30
0.0
 11
307.180281
 21
-67.330236
 31
0.0
  0
LINE
  8
0
  6
BYLAYER
 62
     1
 10
306.892104
 20
-66.484930
 30
0.0
 11
304.932539
 21
-66.484930
 31
0.0
  0
LINE
  8
0
  6
BYLAYER
 62
     1
 10
306.431014
 20
-65.132437
 30
0.0
 11
305.393599
 21
-65.132437
 31
0.0
  0
LINE
  8
0
  6
BYLAYER
 62
     1
 10
307.180281
 20
-67.330236
 30
0.0
 11
306.892104
 21
-66.484930
 31
0.0
  0
LINE
  8
0
  6
BYLAYER
 62
     1
 10
306.431014
 20
-65.132437
 30
0.0
 11
305.912306
 21
-63.610876
 31
0.0
  0
LINE
  8
0
  6
BYLAYER
 62
     1
 10
287.569121
 20
-62.807836
 30
0.0
 11
289.259734
 21
-62.807836
 31
0.0
  0
LINE
  8
0
  6
BYLAYER
 62
     1
 10
289.259734
 20
-62.807836
 30
0.0
 11
289.259734
 21
-67.330236
 31
0.0
  0
LINE
  8
0
  6
BYLAYER
 62
     1
 10
289.259734
 20
-67.330236
 30
0.0
 11
291.119429
 21
-67.330236
 31
0.0
  0
LINE
  8
0
  6
BYLAYER
 62
     1
 10
291.119429
 20
-67.330236
 30
0.0
 11
291.119429
 21
-62.807836
 31
0.0
  0
LINE
  8
0
  6
BYLAYER
 62
     1
 10
291.119429
 20
-62.807836
 30
0.0
 11
292.810042
 21
-62.807836
 31
0.0
  0
LINE
  8
0
  6
BYLAYER
 62
     1
 10
292.810042
 20
-62.807836
 30
0.0
 11
292.810042
 21
-61.328543
 31
0.0
  0
LINE
  8
0
  6
BYLAYER
 62
     1
 10
292.810042
 20
-61.328543
 30
0.0
 11
287.569121
 21
-61.328543
 31
0.0
  0
LINE
  8
0
  6
BYLAYER
 62
     1
 10
287.569121
 20
-61.328543
 30
0.0
 11
287.569121
 21
-62.807836
 31
0.0
  0
ARC
  8
0
  6
BYLAYER
 62
     1
 10
295.810881
 20
-64.667870
 30
0.0
 40
2.873701
 50
270.0
 51
308.795693
  0
ARC
  8
0
  6
BYLAYER
 62
     1
 10
295.532753
 20
-64.371664
 30
0.0
 40
3.278967
 50
309.340576
 51
360.0
  0
ARC
  8
0
  6
BYLAYER
 62
     1
 10
295.532764
 20
-64.371664
 30
0.0
 40
3.278957
 50
0.0
 51
50.659649
  0
ARC
  8
0
  6
BYLAYER
 62
     1
 10
295.810866
 20
-64.075484
 30
0.0
 40
2.873727
 50
51.204489
 51
90.000000
  0
ARC
  8
0
  6
BYLAYER
 62
     1
 10
295.810866
 20
-64.075458
 30
0.0
 40
2.873701
 50
90.0
 51
128.795693
  0
ARC
  8
0
  6
BYLAYER
 62
     1
 10
296.088994
 20
-64.371664
 30
0.0
 40
3.278967
 50
129.340576
 51
180.000000
  0
ARC
  8
0
  6
BYLAYER
 62
     1
 10
296.088983
 20
-64.371664
 30
0.0
 40
3.278957
 50
180.000000
 51
230.659649
  0
ARC
  8
0
  6
BYLAYER
 62
     1
 10
295.810881
 20
-64.667844
 30
0.0
 40
2.873727
 50
231.204489
 51
270.000000
  0
ARC
  8
0
  6
BYLAYER
 62
     1
 10
295.810866
 20
-63.528513
 30
0.0
 40
1.329747
 50
90.0
 51
140.793201
  0
ARC
  8
0
  6
BYLAYER
 62
     1
 10
296.844420
 20
-64.371664
 30
0.0
 40
2.663590
 50
140.793201
 51
180.0
  0
ARC
  8
0
  6
BYLAYER
 62
     1
 10
296.844387
 20
-64.371664
 30
0.0
 40
2.663556
 50
180.000000
 51
219.207055
  0
ARC
  8
0
  6
BYLAYER
 62
     1
 10
295.810881
 20
-65.214782
 30
0.0
 40
1.329771
 50
219.207055
 51
270.000000
  0
ARC
  8
0
  6
BYLAYER
 62
     1
 10
295.810881
 20
-65.214804
 30
0.0
 40
1.329750
 50
270.0
 51
320.793131
  0
ARC
  8
0
  6
BYLAYER
 62
     1
 10
294.777342
 20
-64.371664
 30
0.0
 40
2.663574
 50
320.793131
 51
360.0
  0
ARC
  8
0
  6
BYLAYER
 62
     1
 10
294.777344
 20
-64.371664
 30
0.0
 40
2.663572
 50
0.0
 51
39.206985
  0
ARC
  8
0
  6
BYLAYER
 62
     1
 10
295.810866
 20
-63.528534
 30
0.0
 40
1.329768
 50
39.206985
 51
90.0
  0
LINE
  8
0
  6
BYLAYER
 62
     1
 10
309.286482
 20
-67.330236
 30
0.0
 11
309.286482
 21
-61.328543
 31
0.0
  0
LINE
  8
0
  6
BYLAYER
 62
     1
 10
309.286482
 20
-61.328543
 30
0.0
 11
313.005827
 21
-61.328543
 31
0.0
  0
ARC
  8
0
  6
BYLAYER
 62
     1
 10
313.005827
 20
-63.019171
 30
0.0
 40
1.690610
 50
287.134650
 51
450.000006
  0
ARC
  8
0
  6
BYLAYER
 62
     1
 10
313.343962
 20
-65.977743
 30
0.0
 40
1.352493
 50
0.0
 51
83.207557
  0
LINE
  8
0
  6
BYLAYER
 62
     1
 10
314.696455
 20
-65.977743
 30
0.0
 11
314.696455
 21
-66.823049
 31
0.0
  0
ARC
  8
0
  6
BYLAYER
 62
     1
 10
316.048949
 20
-66.823049
 30
0.0
 40
1.352493
 50
180.000000
 51
202.024314
  0
LINE
  8
0
  6
BYLAYER
 62
     1
 10
312.935469
 20
-67.330236
 30
0.0
 11
314.795149
 21
-67.330236
 31
0.0
  0
ARC
  8
0
  6
BYLAYER
 62
     1
 10
314.189269
 20
-66.823049
 30
0.0
 40
1.352493
 50
180.000000
 51
202.024314
  0
LINE
  8
0
  6
BYLAYER
 62
     1
 10
312.836775
 20
-66.823049
 30
0.0
 11
312.836775
 21
-66.146810
 31
0.0
  0
LINE
  8
0
  6
BYLAYER
 62
     1
 10
309.286482
 20
-67.330236
 30
0.0
 11
311.061629
 21
-67.330236
 31
0.0
  0
LINE
  8
0
  6
BYLAYER
 62
     1
 10
311.061629
 20
-67.330236
 30
0.0
 11
311.061629
 21
-65.301504
 31
0.0
  0
LINE
  8
0
  6
BYLAYER
 62
     1
 10
311.991469
 20
-65.301504
 30
0.0
 11
311.061629
 21
-65.301504
 31
0.0
  0
ARC
  8
0
  6
BYLAYER
 62
     1
 10
311.991469
 20
-66.146810
 30
0.0
 40
0.845306
 50
0.0
 51
90.000003
  0
LINE
  8
0
  6
BYLAYER
 62
     1
 10
311.061629
 20
-63.949011
 30
0.0
 11
311.061629
 21
-62.681036
 31
0.0
  0
LINE
  8
0
  6
BYLAYER
 62
     1
 10
311.061629
 20
-62.681036
 30
0.0
 11
312.245055
 21
-62.681036
 31
0.0
  0
LINE
  8
0
  6
BYLAYER
 62
     1
 10
311.061629
 20
-63.949011
 30
0.0
 11
312.245055
 21
-63.949011
 31
0.0
  0
ARC
  8
0
  6
BYLAYER
 62
     1
 10
312.245055
 20
-63.315023
 30
0.0
 40
0.633987
 50
270.0
 51
450.000005
  0
LINE
  8
0
  6
BYLAYER
 62
     1
 10
301.220870
 20
-65.432440
 30
0.0
 11
300.121962
 21
-61.328543
 31
0.0
  0
LINE
  8
0
  6
BYLAYER
 62
     1
 10
300.121962
 20
-61.328543
 30
0.0
 11
298.346816
 21
-61.328543
 31
0.0
  0
LINE
  8
0
  6
BYLAYER
 62
     1
 10
298.346816
 20
-61.328543
 30
0.0
 11
300.206496
 21
-67.330236
 31
0.0
  0
LINE
  8
0
  6
BYLAYER
 62
     1
 10
301.220870
 20
-65.432440
 30
0.0
 11
302.319746
 21
-61.328543
 31
0.0
  0
LINE
  8
0
  6
BYLAYER
 62
     1
 10
302.319746
 20
-61.328543
 30
0.0
 11
304.094893
 21
-61.328543
 31
0.0
  0
LINE
  8
0
  6
BYLAYER
 62
     1
 10
304.094893
 20
-61.328543
 30
0.0
 11
302.235213
 21
-67.330236
 31
0.0
  0
LINE
  8
0
  6
BYLAYER
 62
     1
 10
302.235213
 20
-67.330236
 30
0.0
 11
300.206496
 21
-67.330236
 31
0.0
  0
LINE
  8
0
  6
BYLAYER
 62
     1
 10
314.957137
 20
-67.330236
 30
0.0
 11
316.732283
 21
-67.330236
 31
0.0
  0
LINE
  8
0
  6
BYLAYER
 62
     1
 10
316.732283
 20
-67.330236
 30
0.0
 11
316.732283
 21
-61.328543
 31
0.0
  0
LINE
  8
0
  6
BYLAYER
 62
     1
 10
316.732283
 20
-61.328543
 30
0.0
 11
314.957137
 21
-61.328543
 31
0.0
  0
LINE
  8
0
  6
BYLAYER
 62
     1
 10
314.957137
 20
-61.328543
 30
0.0
 11
314.957137
 21
-67.330236
 31
0.0
  0
ARC
  8
0
  6
BYLAYER
 62
     1
 10
320.071257
 20
-64.667870
 30
0.0
 40
2.873701
 50
270.0
 51
308.795693
  0
ARC
  8
0
  6
BYLAYER
 62
     1
 10
319.793129
 20
-64.371664
 30
0.0
 40
3.278967
 50
309.340576
 51
360.000000
  0
ARC
  8
0
  6
BYLAYER
 62
     1
 10
319.793129
 20
-64.371664
 30
0.0
 40
3.278967
 50
0.0
 51
50.659424
  0
ARC
  8
0
  6
BYLAYER
 62
     1
 10
320.071257
 20
-64.075458
 30
0.0
 40
2.873701
 50
51.204307
 51
90.000000
  0
ARC
  8
0
  6
BYLAYER
 62
     1
 10
320.071257
 20
-64.075458
 30
0.0
 40
2.873701
 50
90.0
 51
128.795693
  0
ARC
  8
0
  6
BYLAYER
 62
     1
 10
320.349385
 20
-64.371664
 30
0.0
 40
3.278967
 50
129.340576
 51
180.000000
  0
ARC
  8
0
  6
BYLAYER
 62
     1
 10
320.349385
 20
-64.371664
 30
0.0
 40
3.278967
 50
180.000000
 51
230.659424
  0
ARC
  8
0
  6
BYLAYER
 62
     1
 10
320.071257
 20
-64.667870
 30
0.0
 40
2.873701
 50
231.204307
 51
270.000000
  0
ARC
  8
0
  6
BYLAYER
 62
     1
 10
320.071257
 20
-63.528513
 30
0.0
 40
1.329747
 50
39.206799
 51
90.0
  0
ARC
  8
0
  6
BYLAYER
 62
     1
 10
319.037702
 20
-64.371664
 30
0.0
 40
2.663590
 50
0.0
 51
39.206799
  0
ARC
  8
0
  6
BYLAYER
 62
     1
 10
319.037718
 20
-64.371664
 30
0.0
 40
2.663574
 50
320.793131
 51
360.0
  0
ARC
  8
0
  6
BYLAYER
 62
     1
 10
320.071257
 20
-65.214804
 30
0.0
 40
1.329750
 50
270.0
 51
320.793131
  0
ARC
  8
0
  6
BYLAYER
 62
     1
 10
320.071257
 20
-65.214804
 30
0.0
 40
1.329750
 50
219.206869
 51
270.000000
  0
ARC
  8
0
  6
BYLAYER
 62
     1
 10
321.104796
 20
-64.371664
 30
0.0
 40
2.663574
 50
180.000000
 51
219.206869
  0
ARC
  8
0
  6
BYLAYER
 62
     1
 10
321.104812
 20
-64.371664
 30
0.0
 40
2.663590
 50
140.793201
 51
180.0
  0
ARC
  8
0
  6
BYLAYER
 62
     1
 10
320.071257
 20
-63.528513
 30
0.0
 40
1.329747
 50
90.0
 51
140.793201
  0
ARC
  8
0
  6
BYLAYER
 62
     1
 10
290.099394
 20
-54.457815
 30
0.0
 40
7.429995
 50
174.535650
 51
180.0
  0
LINE
  8
0
  6
BYLAYER
 62
     1
 10
282.703162
 20
-53.750280
 30
0.0
 11
282.703162
 21
-53.750273
 31
0.0
  0
LINE
  8
0
  6
BYLAYER
 62
     1
 10
282.711247
 20
-53.670350
 30
0.0
 11
283.420349
 21
-53.371807
 31
0.0
  0
ARC
  8
0
  6
BYLAYER
 62
     1
 10
290.099425
 20
-54.457876
 30
0.0
 40
6.766781
 50
159.235383
 51
170.763998
  0
LINE
  8
0
  6
BYLAYER
 62
     1
 10
283.772150
 20
-52.058811
 30
0.0
 11
283.307351
 21
-51.445697
 31
0.0
  0
ARC
  8
0
  6
BYLAYER
 62
     1
 10
290.099394
 20
-54.457815
 30
0.0
 40
7.429986
 50
144.139514
 51
156.083795
  0
LINE
  8
0
  6
BYLAYER
 62
     1
 10
284.028929
 20
-50.173620
 30
0.0
 11
284.029372
 21
-50.172994
 31
0.0
  0
LINE
  8
0
  6
BYLAYER
 62
     1
 10
284.077793
 20
-50.105228
 30
0.0
 11
284.832718
 21
-50.209092
 31
0.0
  0
ARC
  8
0
  6
BYLAYER
 62
     1
 10
290.099394
 20
-54.457815
 30
0.0
 40
6.766741
 50
129.235643
 51
141.105976
  0
LINE
  8
0
  6
BYLAYER
 62
     1
 10
285.708708
 20
-49.308958
 30
0.0
 11
285.709441
 21
-49.308325
 31
0.0
  0
LINE
  8
0
  6
BYLAYER
 62
     1
 10
285.819355
 20
-49.216628
 30
0.0
 11
285.723361
 21
-48.453222
 31
0.0
  0
ARC
  8
0
  6
BYLAYER
 62
     1
 10
290.099394
 20
-54.457815
 30
0.0
 40
7.429994
 50
114.139607
 51
126.083853
  0
LINE
  8
0
  6
BYLAYER
 62
     1
 10
286.984847
 20
-47.712118
 30
0.0
 11
286.985350
 21
-47.711882
 31
0.0
  0
LINE
  8
0
  6
BYLAYER
 62
     1
 10
287.060814
 20
-47.677561
 30
0.0
 11
287.662643
 21
-48.144956
 31
0.0
  0
LINE
  8
0
  6
BYLAYER
 62
     1
 10
287.800246
 20
-48.093634
 30
0.0
 11
287.801009
 21
-48.093366
 31
0.0
  0
ARC
  8
0
  6
BYLAYER
 62
     1
 10
290.099394
 20
-54.457815
 30
0.0
 40
6.766738
 50
99.235601
 51
111.106038
  0
ARC
  8
0
  6
BYLAYER
 62
     1
 10
290.099394
 20
-54.457815
 30
0.0
 40
7.429995
 50
90.0
 51
96.083892
  0
LINE
  8
0
  6
BYLAYER
 62
     1
 10
289.311930
 20
-47.069667
 30
0.0
 11
289.013370
 21
-47.778796
 31
0.0
  0
LINE
  8
0
  6
BYLAYER
 62
     1
 10
297.495619
 20
-53.750280
 30
0.0
 11
297.495619
 21
-53.750273
 31
0.0
  0
LINE
  8
0
  6
BYLAYER
 62
     1
 10
297.487542
 20
-53.670349
 30
0.0
 11
296.778403
 21
-53.371800
 31
0.0
  0
ARC
  8
0
  6
BYLAYER
 62
     1
 10
290.099349
 20
-54.457876
 30
0.0
 40
6.766781
 50
9.235986
 51
20.764650
  0
LINE
  8
0
  6
BYLAYER
 62
     1
 10
296.426672
 20
-52.058740
 30
0.0
 11
296.891438
 21
-51.445699
 31
0.0
  0
ARC
  8
0
  6
BYLAYER
 62
     1
 10
290.099394
 20
-54.457815
 30
0.0
 40
7.429986
 50
23.916189
 51
35.860484
  0
LINE
  8
0
  6
BYLAYER
 62
     1
 10
296.169844
 20
-50.173620
 30
0.0
 11
296.169402
 21
-50.172994
 31
0.0
  0
LINE
  8
0
  6
BYLAYER
 62
     1
 10
296.120996
 20
-50.105228
 30
0.0
 11
295.366124
 21
-50.209082
 31
0.0
  0
ARC
  8
0
  6
BYLAYER
 62
     1
 10
290.099394
 20
-54.457815
 30
0.0
 40
6.766741
 50
38.894050
 51
50.764315
  0
LINE
  8
0
  6
BYLAYER
 62
     1
 10
294.490080
 20
-49.308958
 30
0.0
 11
294.489348
 21
-49.308325
 31
0.0
  0
LINE
  8
0
  6
BYLAYER
 62
     1
 10
294.379454
 20
-49.216506
 30
0.0
 11
294.475412
 21
-48.453210
 31
0.0
  0
ARC
  8
0
  6
BYLAYER
 62
     1
 10
290.099394
 20
-54.457815
 30
0.0
 40
7.429994
 50
53.916300
 51
65.860381
  0
LINE
  8
0
  6
BYLAYER
 62
     1
 10
293.213942
 20
-47.712118
 30
0.0
 11
293.213423
 21
-47.711882
 31
0.0
  0
LINE
  8
0
  6
BYLAYER
 62
     1
 10
293.137976
 20
-47.677562
 30
0.0
 11
292.536153
 21
-48.144935
 31
0.0
  0
LINE
  8
0
  6
BYLAYER
 62
     1
 10
292.398528
 20
-48.093634
 30
0.0
 11
292.397780
 21
-48.093366
 31
0.0
  0
ARC
  8
0
  6
BYLAYER
 62
     1
 10
290.099394
 20
-54.457815
 30
0.0
 40
6.766738
 50
68.894081
 51
80.764578
  0
ARC
  8
0
  6
BYLAYER
 62
     1
 10
290.099394
 20
-54.457815
 30
0.0
 40
7.429995
 50
84.535428
 51
90.000003
  0
LINE
  8
0
  6
BYLAYER
 62
     1
 10
290.886861
 20
-47.069668
 30
0.0
 11
291.185348
 21
-47.778675
 31
0.0
  0
ARC
  8
0
  6
BYLAYER
 62
     1
 10
290.099394
 20
-54.457815
 30
0.0
 40
7.429995
 50
180.000000
 51
186.083899
  0
LINE
  8
0
  6
BYLAYER
 62
     1
 10
282.703162
 20
-55.165342
 30
0.0
 11
282.703162
 21
-55.165357
 31
0.0
  0
LINE
  8
0
  6
BYLAYER
 62
     1
 10
282.711247
 20
-55.245280
 30
0.0
 11
283.420371
 21
-55.543832
 31
0.0
  0
ARC
  8
0
  6
BYLAYER
 62
     1
 10
290.099425
 20
-54.457754
 30
0.0
 40
6.766781
 50
189.236002
 51
200.764629
  0
LINE
  8
0
  6
BYLAYER
 62
     1
 10
283.772175
 20
-56.856789
 30
0.0
 11
283.307349
 21
-57.469927
 31
0.0
  0
ARC
  8
0
  6
BYLAYER
 62
     1
 10
290.099394
 20
-54.457815
 30
0.0
 40
7.429986
 50
203.916158
 51
215.860410
  0
LINE
  8
0
  6
BYLAYER
 62
     1
 10
284.028929
 20
-58.742002
 30
0.0
 11
284.029372
 21
-58.742628
 31
0.0
  0
LINE
  8
0
  6
BYLAYER
 62
     1
 10
284.077787
 20
-58.810394
 30
0.0
 11
284.832783
 21
-58.706531
 31
0.0
  0
ARC
  8
0
  6
BYLAYER
 62
     1
 10
290.099394
 20
-54.457815
 30
0.0
 40
6.766741
 50
218.894045
 51
230.764345
  0
LINE
  8
0
  6
BYLAYER
 62
     1
 10
285.708708
 20
-59.606665
 30
0.0
 11
285.709441
 21
-59.607298
 31
0.0
  0
LINE
  8
0
  6
BYLAYER
 62
     1
 10
285.819353
 20
-59.699001
 30
0.0
 11
285.723361
 21
-60.462409
 31
0.0
  0
ARC
  8
0
  6
BYLAYER
 62
     1
 10
290.099394
 20
-54.457815
 30
0.0
 40
7.429994
 50
233.916148
 51
245.860401
  0
LINE
  8
0
  6
BYLAYER
 62
     1
 10
286.984847
 20
-61.203504
 30
0.0
 11
286.985350
 21
-61.203749
 31
0.0
  0
LINE
  8
0
  6
BYLAYER
 62
     1
 10
287.060815
 20
-61.238069
 30
0.0
 11
287.662714
 21
-60.770609
 31
0.0
  0
LINE
  8
0
  6
BYLAYER
 62
     1
 10
287.800246
 20
-60.821989
 30
0.0
 11
287.801009
 21
-60.822264
 31
0.0
  0
LINE
  8
0
  6
BYLAYER
 62
     1
 10
297.495619
 20
-55.165342
 30
0.0
 11
297.495619
 21
-55.165357
 31
0.0
  0
LINE
  8
0
  6
BYLAYER
 62
     1
 10
297.487541
 20
-55.245282
 30
0.0
 11
296.778403
 21
-55.543830
 31
0.0
  0
LINE
  8
0
  6
BYLAYER
 62
     1
 10
296.426607
 20
-56.856806
 30
0.0
 11
296.891446
 21
-57.469932
 31
0.0
  0
LINE
  8
0
  6
BYLAYER
 62
     1
 10
296.169844
 20
-58.742002
 30
0.0
 11
296.169402
 21
-58.742628
 31
0.0
  0
LINE
  8
0
  6
BYLAYER
 62
     1
 10
296.121010
 20
-58.810395
 30
0.0
 11
295.365965
 21
-58.706528
 31
0.0
  0
LINE
  8
0
  6
BYLAYER
 62
     1
 10
294.490080
 20
-59.606665
 30
0.0
 11
294.489348
 21
-59.607298
 31
0.0
  0
LINE
  8
0
  6
BYLAYER
 62
     1
 10
294.379439
 20
-59.698998
 30
0.0
 11
294.475412
 21
-60.462420
 31
0.0
  0
LINE
  8
0
  6
BYLAYER
 62
     1
 10
293.137975
 20
-61.238068
 30
0.0
 11
292.536061
 21
-60.770614
 31
0.0
  0
ARC
  8
0
  6
BYLAYER
 62
     1
 10
290.099394
 20
-54.457815
 30
0.0
 40
6.766741
 50
309.235697
 51
321.105929
  0
ARC
  8
0
  6
BYLAYER
 62
     1
 10
290.099394
 20
-54.457815
 30
0.0
 40
6.766738
 50
248.893873
 51
270.000000
  0
ARC
  8
0
  6
BYLAYER
 62
     1
 10
290.099394
 20
-54.457815
 30
0.0
 40
7.429994
 50
294.783232
 51
306.083699
  0
LINE
  8
0
  6
BYLAYER
 62
     1
 10
293.213423
 20
-61.203749
 30
0.0
 11
293.138433
 21
-61.239038
 31
0.0
  0
ARC
  8
0
  6
BYLAYER
 62
     1
 10
290.099394
 20
-54.457815
 30
0.0
 40
7.429986
 50
324.139593
 51
336.083825
  0
ARC
  8
0
  6
BYLAYER
 62
     1
 10
290.099349
 20
-54.457754
 30
0.0
 40
6.766781
 50
339.235210
 51
350.764014
  0
ARC
  8
0
  6
BYLAYER
 62
     1
 10
290.099394
 20
-54.457815
 30
0.0
 40
7.429995
 50
353.916089
 51
360.000000
  0
ARC
  8
0
  6
BYLAYER
 62
     1
 10
290.099394
 20
-54.457815
 30
0.0
 40
7.429995
 50
0.0
 51
6.083907
  0
ARC
  8
0
  6
BYLAYER
 62
     1
 10
290.099394
 20
-54.457815
 30
0.0
 40
6.766738
 50
270.0
 51
291.106008
  0
CIRCLE
  8
0
  6
BYLAYER
 62
     1
 10
290.099394
 20
-54.457815
 30
0.0
 40
3.630081
  0
CIRCLE
  8
0
  6
BYLAYER
 62
     1
 10
290.099394
 20
-54.457815
 30
0.0
 40
5.296032
  0
LINE
  8
0
  6
BYLAYER
 62
     1
 10
299.508532
 20
-168.737201
 30
0.0
 11
294.508532
 21
-168.737201
 31
0.0
  0
LINE
  8
0
  6
BYLAYER
 62
     1
 10
299.508532
 20
-168.737201
 30
0.0
 11
299.508532
 21
-173.737201
 31
0.0
  0
LINE
  8
0
  6
BYLAYER
 62
     1
 10
299.508532
 20
-168.737201
 30
0.0
 11
304.508532
 21
-168.737201
 31
0.0
  0
LINE
  8
0
  6
BYLAYER
 62
     1
 10
299.508532
 20
-168.737201
 30
0.0
 11
299.508532
 21
-163.107262
 31
0.0
  0
ARC
  8
0
  6
BYLAYER
 62
     1
 10
999.508532
 20
-78.737201
 30
0.0
 40
80.000000
 50
357.902096
 51
542.097904
  0
ARC
  8
0
  6
BYLAYER
 62
     1
 10
999.508532
 20
-78.737201
 30
0.0
 40
55.000000
 50
26.334379
 51
51.484431
  0
ARC
  8
0
  6
BYLAYER
 62
     1
 10
999.508532
 20
-78.737201
 30
0.0
 40
55.000000
 50
128.515569
 51
153.665621
  0
ARC
  8
0
  6
BYLAYER
 62
     1
 10
999.508532
 20
-141.737201
 30
0.0
 40
100.000000
 50
111.715617
 51
428.284383
  0
ARC
  8
0
  6
BYLAYER
 62
     7
 10
941.172228
 20
-200.073505
 30
0.0
 40
5.5
 50
97.222120
 51
352.777880
  0
ARC
  8
0
  6
BYLAYER
 62
     7
 10
1057.844836
 20
-200.073505
 30
0.0
 40
5.5
 50
187.222120
 51
442.777880
  0
ARC
  8
0
  6
BYLAYER
 62
     7
 10
1057.844836
 20
-83.400897
 30
0.0
 40
5.500000
 50
277.222120
 51
532.777880
  0
ARC
  8
0
  6
BYLAYER
 62
     7
 10
941.172228
 20
-83.400897
 30
0.0
 40
5.5
 50
7.222120
 51
262.777880
  0
LINE
  8
0
  6
BYLAYER
 62
     7
 10
1048.027754
 20
-204.398573
 30
0.0
 11
1057.958453
 21
-214.329273
 31
0.0
  0
ARC
  8
0
  6
BYLAYER
 62
     7
 10
1056.190676
 20
-216.097034
 30
0.0
 40
2.500003
 50
307.317094
 51
404.999875
  0
ARC
  8
0
  6
BYLAYER
 62
     7
 10
999.508532
 20
-141.737201
 30
0.0
 40
96.0
 50
273.065417
 51
307.317122
  0
ARC
  8
0
  6
BYLAYER
 62
     7
 10
1004.508532
 20
-235.103412
 30
0.0
 40
2.500000
 50
180.000000
 51
273.065385
  0
LINE
  8
0
  6
BYLAYER
 62
     7
 10
1002.008532
 20
-220.947759
 30
0.0
 11
1002.008532
 21
-235.103412
 31
0.0
  0
LINE
  8
0
  6
BYLAYER
 62
     7
 10
950.989310
 20
-204.398573
 30
0.0
 11
941.058611
 21
-214.329273
 31
0.0
  0
ARC
  8
0
  6
BYLAYER
 62
     7
 10
942.826388
 20
-216.097034
 30
0.0
 40
2.500003
 50
135.000123
 51
232.682907
  0
ARC
  8
0
  6
BYLAYER
 62
     7
 10
999.508532
 20
-141.737201
 30
0.0
 40
96.0
 50
232.682880
 51
266.934584
  0
ARC
  8
0
  6
BYLAYER
 62
     7
 10
994.508532
 20
-235.103412
 30
0.0
 40
2.500000
 50
266.934629
 51
360.000000
  0
LINE
  8
0
  6
BYLAYER
 62
     7
 10
997.008532
 20
-220.947759
 30
0.0
 11
997.008532
 21
-235.103412
 31
0.0
  0
LINE
  8
0
  6
BYLAYER
 62
     7
 10
1062.169904
 20
-93.217979
 30
0.0
 11
1072.100604
 21
-83.287280
 31
0.0
  0
ARC
  8
0
  6
BYLAYER
 62
     7
 10
1073.868365
 20
-85.055042
 30
0.0
 40
2.499997
 50
37.317104
 51
134.999877
  0
ARC
  8
0
  6
BYLAYER
 62
     7
 10
999.508532
 20
-141.737201
 30
0.0
 40
96.0
 50
3.065426
 51
37.317131
  0
ARC
  8
0
  6
BYLAYER
 62
     7
 10
1092.874743
 20
-136.737201
 30
0.0
 40
2.5
 50
270.0
 51
363.065398
  0
LINE
  8
0
  6
BYLAYER
 62
     7
 10
1078.719090
 20
-139.237201
 30
0.0
 11
1092.874743
 21
-139.237201
 31
0.0
  0
LINE
  8
0
  6
BYLAYER
 62
     7
 10
1062.169904
 20
-190.256423
 30
0.0
 11
1072.100604
 21
-200.187122
 31
0.0
  0
ARC
  8
0
  6
BYLAYER
 62
     7
 10
1073.868365
 20
-198.419345
 30
0.0
 40
2.499997
 50
225.000119
 51
322.682916
  0
ARC
  8
0
  6
BYLAYER
 62
     7
 10
999.508532
 20
-141.737201
 30
0.0
 40
96.0
 50
322.682889
 51
356.934594
  0
ARC
  8
0
  6
BYLAYER
 62
     7
 10
1092.874743
 20
-146.737201
 30
0.0
 40
2.500000
 50
356.934632
 51
450.000000
  0
LINE
  8
0
  6
BYLAYER
 62
     7
 10
1078.719090
 20
-144.237201
 30
0.0
 11
1092.874743
 21
-144.237201
 31
0.0
  0
LINE
  8
0
  6
BYLAYER
 62
     7
 10
950.989298
 20
-79.075838
 30
0.0
 11
941.058611
 21
-69.145160
 31
0.0
  0
ARC
  8
0
  6
BYLAYER
 62
     7
 10
942.826373
 20
-67.377399
 30
0.0
 40
2.499992
 50
127.317117
 51
224.999873
  0
ARC
  8
0
  6
BYLAYER
 62
     7
 10
999.508532
 20
-141.737201
 30
0.0
 40
96.0
 50
112.669610
 51
127.317117
  0
LINE
  8
0
  6
BYLAYER
 62
     7
 10
1048.027750
 20
-79.075825
 30
0.0
 11
1057.958437
 21
-69.145129
 31
0.0
  0
ARC
  8
0
  6
BYLAYER
 62
     7
 10
1056.190676
 20
-67.377368
 30
0.0
 40
2.499992
 50
315.000128
 51
412.682926
  0
ARC
  8
0
  6
BYLAYER
 62
     7
 10
999.508532
 20
-141.737201
 30
0.0
 40
96.000000
 50
52.682871
 51
67.330390
  0
LINE
  8
0
  6
BYLAYER
 62
     7
 10
936.847160
 20
-190.256423
 30
0.0
 11
926.916460
 21
-200.187122
 31
0.0
  0
ARC
  8
0
  6
BYLAYER
 62
     7
 10
925.148699
 20
-198.419345
 30
0.0
 40
2.499997
 50
217.317099
 51
314.999882
  0
ARC
  8
0
  6
BYLAYER
 62
     7
 10
999.508532
 20
-141.737201
 30
0.0
 40
96.0
 50
183.065394
 51
217.317099
  0
ARC
  8
0
  6
BYLAYER
 62
     7
 10
906.142321
 20
-146.737201
 30
0.0
 40
2.5
 50
90.0
 51
183.065378
  0
LINE
  8
0
  6
BYLAYER
 62
     7
 10
920.297974
 20
-144.237201
 30
0.0
 11
906.142321
 21
-144.237201
 31
0.0
  0
LINE
  8
0
  6
BYLAYER
 62
     7
 10
936.847160
 20
-93.217979
 30
0.0
 11
926.916460
 21
-83.287280
 31
0.0
  0
ARC
  8
0
  6
BYLAYER
 62
     7
 10
925.148699
 20
-85.055042
 30
0.0
 40
2.499997
 50
45.000111
 51
142.682911
  0
ARC
  8
0
  6
BYLAYER
 62
     7
 10
999.508532
 20
-141.737201
 30
0.0
 40
96.000000
 50
142.682911
 51
176.934616
  0
ARC
  8
0
  6
BYLAYER
 62
     7
 10
906.142321
 20
-136.737201
 30
0.0
 40
2.5
 50
176.934616
 51
269.999973
  0
LINE
  8
0
  6
BYLAYER
 62
     7
 10
920.297974
 20
-139.237201
 30
0.0
 11
906.142321
 21
-139.237201
 31
0.0
  0
LINE
  8
0
  6
BYLAYER
 62
     7
 10
962.508532
 20
-53.737170
 30
0.0
 11
962.508532
 21
-71.654660
 31
0.0
  0
LINE
  8
0
  6
BYLAYER
 62
     7
 10
1036.508532
 20
-53.737170
 30
0.0
 11
1036.508532
 21
-71.654660
 31
0.0
  0
LINE
  8
0
  6
BYLAYER
 62
     7
 10
962.508532
 20
-58.237170
 30
0.0
 11
965.508532
 21
-63.433307
 31
0.0
  0
LINE
  8
0
  6
BYLAYER
 62
     7
 10
1036.508532
 20
-58.237170
 30
0.0
 11
1033.508532
 21
-63.433307
 31
0.0
  0
LINE
  8
0
  6
BYLAYER
 62
     7
 10
965.508532
 20
-63.433307
 30
0.0
 11
965.508532
 21
-70.151151
 31
0.0
  0
LINE
  8
0
  6
BYLAYER
 62
     7
 10
1033.508532
 20
-63.433307
 30
0.0
 11
1033.508532
 21
-70.151151
 31
0.0
  0
LINE
  8
0
  6
BYLAYER
 62
     7
 10
1036.508532
 20
-53.737109
 30
0.0
 11
962.508532
 21
-53.737109
 31
0.0
  0
CIRCLE
  8
0
  6
BYLAYER
 62
     7
 10
999.508532
 20
-141.737201
 30
0.0
 40
59.000000
  0
CIRCLE
  8
0
  6
BYLAYER
 62
     7
 10
999.508532
 20
-141.737201
 30
0.0
 40
64.487732
  0
CIRCLE
  8
0
  6
BYLAYER
 62
     7
 10
999.508532
 20
-141.737201
 30
0.0
 40
79.250000
  0
LINE
  8
0
  6
BYLAYER
 62
     7
 10
1000.508532
 20
-112.737201
 30
0.0
 11
1000.508532
 21
-120.737201
 31
0.0
  0
LINE
  8
0
  6
BYLAYER
 62
     7
 10
1000.508532
 20
-102.737201
 30
0.0
 11
1000.508532
 21
-110.737201
 31
0.0
  0
LINE
  8
0
  6
BYLAYER
 62
     7
 10
1008.508532
 20
-110.737201
 30
0.0
 11
1008.508532
 21
-102.737201
 31
0.0
  0
LINE
  8
0
  6
BYLAYER
 62
     7
 10
1010.508532
 20
-110.737201
 30
0.0
 11
1010.508532
 21
-102.737201
 31
0.0
  0
LINE
  8
0
  6
BYLAYER
 62
     7
 10
1000.508532
 20
-120.737201
 30
0.0
 11
1008.508532
 21
-120.737201
 31
0.0
  0
LINE
  8
0
  6
BYLAYER
 62
     7
 10
1000.508532
 20
-112.737201
 30
0.0
 11
1008.508532
 21
-112.737201
 31
0.0
  0
LINE
  8
0
  6
BYLAYER
 62
     7
 10
1010.508532
 20
-110.737201
 30
0.0
 11
1018.346531
 21
-110.737201
 31
0.0
  0
LINE
  8
0
  6
BYLAYER
 62
     7
 10
1000.508532
 20
-110.737201
 30
0.0
 11
1008.508532
 21
-110.737201
 31
0.0
  0
LINE
  8
0
  6
BYLAYER
 62
     7
 10
1010.508532
 20
-102.737201
 30
0.0
 11
1018.346531
 21
-102.737201
 31
0.0
  0
LINE
  8
0
  6
BYLAYER
 62
     7
 10
1000.508532
 20
-102.737201
 30
0.0
 11
1008.508532
 21
-102.737201
 31
0.0
  0
LINE
  8
0
  6
BYLAYER
 62
     7
 10
1018.346531
 20
-110.737201
 30
0.0
 11
1018.346531
 21
-102.737201
 31
0.0
  0
LINE
  8
0
  6
BYLAYER
 62
     7
 10
1008.508532
 20
-120.737201
 30
0.0
 11
1008.508532
 21
-112.737201
 31
0.0
  0
LINE
  8
0
  6
BYLAYER
 62
     7
 10
1010.508532
 20
-112.737201
 30
0.0
 11
1010.508532
 21
-120.737201
 31
0.0
  0
LINE
  8
0
  6
BYLAYER
 62
     7
 10
1010.508532
 20
-120.737201
 30
0.0
 11
1018.508532
 21
-120.737201
 31
0.0
  0
LINE
  8
0
  6
BYLAYER
 62
     7
 10
1010.508532
 20
-112.737201
 30
0.0
 11
1018.508532
 21
-112.737201
 31
0.0
  0
LINE
  8
0
  6
BYLAYER
 62
     7
 10
1018.508532
 20
-120.737201
 30
0.0
 11
1018.508532
 21
-112.737201
 31
0.0
  0
LINE
  8
0
  6
BYLAYER
 62
     7
 10
1020.508532
 20
-130.737201
 30
0.0
 11
1028.508532
 21
-130.737201
 31
0.0
  0
LINE
  8
0
  6
BYLAYER
 62
     7
 10
1020.508532
 20
-112.737201
 30
0.0
 11
1020.508532
 21
-120.737201
 31
0.0
  0
LINE
  8
0
  6
BYLAYER
 62
     7
 10
1020.508532
 20
-122.737201
 30
0.0
 11
1020.508532
 21
-130.737201
 31
0.0
  0
LINE
  8
0
  6
BYLAYER
 62
     7
 10
1020.508532
 20
-122.737201
 30
0.0
 11
1028.508532
 21
-122.737201
 31
0.0
  0
LINE
  8
0
  6
BYLAYER
 62
     7
 10
1020.508532
 20
-120.737201
 30
0.0
 11
1028.508532
 21
-120.737201
 31
0.0
  0
LINE
  8
0
  6
BYLAYER
 62
     7
 10
1020.508532
 20
-112.737201
 30
0.0
 11
1028.508532
 21
-112.737201
 31
0.0
  0
LINE
  8
0
  6
BYLAYER
 62
     7
 10
1028.508532
 20
-130.737201
 30
0.0
 11
1028.508532
 21
-122.737201
 31
0.0
  0
LINE
  8
0
  6
BYLAYER
 62
     7
 10
1028.508532
 20
-120.737201
 30
0.0
 11
1028.508532
 21
-112.737201
 31
0.0
  0
LINE
  8
0
  6
BYLAYER
 62
     7
 10
1020.508532
 20
-140.737201
 30
0.0
 11
1028.508532
 21
-140.737201
 31
0.0
  0
LINE
  8
0
  6
BYLAYER
 62
     7
 10
1020.508532
 20
-132.737201
 30
0.0
 11
1020.508532
 21
-140.737201
 31
0.0
  0
LINE
  8
0
  6
BYLAYER
 62
     7
 10
1020.508532
 20
-132.737201
 30
0.0
 11
1028.508532
 21
-132.737201
 31
0.0
  0
LINE
  8
0
  6
BYLAYER
 62
     7
 10
1028.508532
 20
-140.737201
 30
0.0
 11
1028.508532
 21
-132.737201
 31
0.0
  0
LINE
  8
0
  6
BYLAYER
 62
     7
 10
1030.508532
 20
-130.737201
 30
0.0
 11
1038.508532
 21
-130.737201
 31
0.0
  0
LINE
  8
0
  6
BYLAYER
 62
     7
 10
1030.508532
 20
-122.737201
 30
0.0
 11
1030.508532
 21
-130.737201
 31
0.0
  0
LINE
  8
0
  6
BYLAYER
 62
     7
 10
1030.508532
 20
-122.737201
 30
0.0
 11
1038.508532
 21
-122.737201
 31
0.0
  0
LINE
  8
0
  6
BYLAYER
 62
     7
 10
1038.508532
 20
-130.737201
 30
0.0
 11
1038.508532
 21
-122.737201
 31
0.0
  0
LINE
  8
0
  6
BYLAYER
 62
     7
 10
1030.508532
 20
-140.737201
 30
0.0
 11
1038.508532
 21
-140.737201
 31
0.0
  0
LINE
  8
0
  6
BYLAYER
 62
     7
 10
1030.508532
 20
-132.737201
 30
0.0
 11
1030.508532
 21
-140.737201
 31
0.0
  0
LINE
  8
0
  6
BYLAYER
 62
     7
 10
1030.508532
 20
-132.737201
 30
0.0
 11
1038.508532
 21
-132.737201
 31
0.0
  0
LINE
  8
0
  6
BYLAYER
 62
     7
 10
1038.508532
 20
-140.737201
 30
0.0
 11
1038.508532
 21
-132.737201
 31
0.0
  0
LINE
  8
0
  6
BYLAYER
 62
     7
 10
1040.508532
 20
-130.737201
 30
0.0
 11
1048.508532
 21
-130.737201
 31
0.0
  0
LINE
  8
0
  6
BYLAYER
 62
     7
 10
1040.508532
 20
-122.737201
 30
0.0
 11
1040.508532
 21
-130.737201
 31
0.0
  0
LINE
  8
0
  6
BYLAYER
 62
     7
 10
1040.508532
 20
-122.737201
 30
0.0
 11
1048.508532
 21
-122.737201
 31
0.0
  0
LINE
  8
0
  6
BYLAYER
 62
     7
 10
1048.508532
 20
-130.737201
 30
0.0
 11
1048.508532
 21
-122.737201
 31
0.0
  0
LINE
  8
0
  6
BYLAYER
 62
     7
 10
1040.508532
 20
-140.737201
 30
0.0
 11
1048.508532
 21
-140.737201
 31
0.0
  0
LINE
  8
0
  6
BYLAYER
 62
     7
 10
1040.508532
 20
-132.737201
 30
0.0
 11
1040.508532
 21
-140.737201
 31
0.0
  0
LINE
  8
0
  6
BYLAYER
 62
     7
 10
1040.508532
 20
-132.737201
 30
0.0
 11
1048.508532
 21
-132.737201
 31
0.0
  0
LINE
  8
0
  6
BYLAYER
 62
     7
 10
1048.508532
 20
-140.737201
 30
0.0
 11
1048.508532
 21
-132.737201
 31
0.0
  0
LINE
  8
0
  6
BYLAYER
 62
     7
 10
1000.508532
 20
-92.737201
 30
0.0
 11
1000.508532
 21
-100.737201
 31
0.0
  0
LINE
  8
0
  6
BYLAYER
 62
     7
 10
1008.508532
 20
-100.737201
 30
0.0
 11
1008.508532
 21
-92.737201
 31
0.0
  0
LINE
  8
0
  6
BYLAYER
 62
     7
 10
1010.508532
 20
-100.737201
 30
0.0
 11
1010.508532
 21
-92.737201
 31
0.0
  0
LINE
  8
0
  6
BYLAYER
 62
     7
 10
1010.508532
 20
-100.737201
 30
0.0
 11
1018.346531
 21
-100.737201
 31
0.0
  0
LINE
  8
0
  6
BYLAYER
 62
     7
 10
1000.508532
 20
-100.737201
 30
0.0
 11
1008.508532
 21
-100.737201
 31
0.0
  0
LINE
  8
0
  6
BYLAYER
 62
     7
 10
1010.508532
 20
-92.737201
 30
0.0
 11
1018.346531
 21
-92.737201
 31
0.0
  0
LINE
  8
0
  6
BYLAYER
 62
     7
 10
1000.508532
 20
-92.737201
 30
0.0
 11
1008.508532
 21
-92.737201
 31
0.0
  0
LINE
  8
0
  6
BYLAYER
 62
     7
 10
1018.346531
 20
-100.737201
 30
0.0
 11
1018.346531
 21
-92.737201
 31
0.0
  0
LINE
  8
0
  6
BYLAYER
 62
     7
 10
1020.508532
 20
-102.737201
 30
0.0
 11
1020.508532
 21
-110.737201
 31
0.0
  0
LINE
  8
0
  6
BYLAYER
 62
     7
 10
1020.508532
 20
-110.737201
 30
0.0
 11
1028.508532
 21
-110.737201
 31
0.0
  0
LINE
  8
0
  6
BYLAYER
 62
     7
 10
1020.508532
 20
-102.737201
 30
0.0
 11
1028.508532
 21
-102.737201
 31
0.0
  0
LINE
  8
0
  6
BYLAYER
 62
     7
 10
1028.508532
 20
-110.737201
 30
0.0
 11
1028.508532
 21
-102.737201
 31
0.0
  0
LINE
  8
0
  6
BYLAYER
 62
     7
 10
1020.508532
 20
-92.737201
 30
0.0
 11
1020.508532
 21
-100.737201
 31
0.0
  0
LINE
  8
0
  6
BYLAYER
 62
     7
 10
1020.508532
 20
-100.737201
 30
0.0
 11
1028.508532
 21
-100.737201
 31
0.0
  0
LINE
  8
0
  6
BYLAYER
 62
     7
 10
1020.508532
 20
-92.737201
 30
0.0
 11
1028.508532
 21
-92.737201
 31
0.0
  0
LINE
  8
0
  6
BYLAYER
 62
     7
 10
1028.508532
 20
-100.737201
 30
0.0
 11
1028.508532
 21
-92.737201
 31
0.0
  0
LINE
  8
0
  6
BYLAYER
 62
     7
 10
1030.508532
 20
-112.737201
 30
0.0
 11
1030.508532
 21
-120.737201
 31
0.0
  0
LINE
  8
0
  6
BYLAYER
 62
     7
 10
1030.508532
 20
-120.737201
 30
0.0
 11
1038.508532
 21
-120.737201
 31
0.0
  0
LINE
  8
0
  6
BYLAYER
 62
     7
 10
1030.508532
 20
-112.737201
 30
0.0
 11
1038.508532
 21
-112.737201
 31
0.0
  0
LINE
  8
0
  6
BYLAYER
 62
     7
 10
1038.508532
 20
-120.737201
 30
0.0
 11
1038.508532
 21
-112.737201
 31
0.0
  0
LINE
  8
0
  6
BYLAYER
 62
     7
 10
1030.508532
 20
-102.737201
 30
0.0
 11
1030.508532
 21
-110.737201
 31
0.0
  0
LINE
  8
0
  6
BYLAYER
 62
     7
 10
1030.508532
 20
-110.737201
 30
0.0
 11
1038.508532
 21
-110.737201
 31
0.0
  0
LINE
  8
0
  6
BYLAYER
 62
     7
 10
1030.508532
 20
-102.737201
 30
0.0
 11
1038.508532
 21
-102.737201
 31
0.0
  0
LINE
  8
0
  6
BYLAYER
 62
     7
 10
1038.508532
 20
-110.737201
 30
0.0
 11
1038.508532
 21
-102.737201
 31
0.0
  0
LINE
  8
0
  6
BYLAYER
 62
     7
 10
1040.508532
 20
-112.737201
 30
0.0
 11
1040.508532
 21
-120.737201
 31
0.0
  0
LINE
  8
0
  6
BYLAYER
 62
     7
 10
1040.508532
 20
-120.737201
 30
0.0
 11
1048.508532
 21
-120.737201
 31
0.0
  0
LINE
  8
0
  6
BYLAYER
 62
     7
 10
1040.508532
 20
-112.737201
 30
0.0
 11
1048.508532
 21
-112.737201
 31
0.0
  0
LINE
  8
0
  6
BYLAYER
 62
     7
 10
1048.508532
 20
-120.737201
 30
0.0
 11
1048.508532
 21
-112.737201
 31
0.0
  0
LINE
  8
0
  6
BYLAYER
 62
     7
 10
1000.508532
 20
-170.737201
 30
0.0
 11
1000.508532
 21
-162.737201
 31
0.0
  0
LINE
  8
0
  6
BYLAYER
 62
     7
 10
1000.508532
 20
-180.737201
 30
0.0
 11
1000.508532
 21
-172.737201
 31
0.0
  0
LINE
  8
0
  6
BYLAYER
 62
     7
 10
1008.508532
 20
-172.737201
 30
0.0
 11
1008.508532
 21
-180.737201
 31
0.0
  0
LINE
  8
0
  6
BYLAYER
 62
     7
 10
1010.508532
 20
-172.737201
 30
0.0
 11
1010.508532
 21
-180.737201
 31
0.0
  0
LINE
  8
0
  6
BYLAYER
 62
     7
 10
1000.508532
 20
-162.737201
 30
0.0
 11
1008.508532
 21
-162.737201
 31
0.0
  0
LINE
  8
0
  6
BYLAYER
 62
     7
 10
1000.508532
 20
-170.737201
 30
0.0
 11
1008.508532
 21
-170.737201
 31
0.0
  0
LINE
  8
0
  6
BYLAYER
 62
     7
 10
1010.508532
 20
-172.737201
 30
0.0
 11
1018.346531
 21
-172.737201
 31
0.0
  0
LINE
  8
0
  6
BYLAYER
 62
     7
 10
1000.508532
 20
-172.737201
 30
0.0
 11
1008.508532
 21
-172.737201
 31
0.0
  0
LINE
  8
0
  6
BYLAYER
 62
     7
 10
1010.508532
 20
-180.737201
 30
0.0
 11
1018.346531
 21
-180.737201
 31
0.0
  0
LINE
  8
0
  6
BYLAYER
 62
     7
 10
1000.508532
 20
-180.737201
 30
0.0
 11
1008.508532
 21
-180.737201
 31
0.0
  0
LINE
  8
0
  6
BYLAYER
 62
     7
 10
1018.346531
 20
-172.737201
 30
0.0
 11
1018.346531
 21
-180.737201
 31
0.0
  0
LINE
  8
0
  6
BYLAYER
 62
     7
 10
1008.508532
 20
-162.737201
 30
0.0
 11
1008.508532
 21
-170.737201
 31
0.0
  0
LINE
  8
0
  6
BYLAYER
 62
     7
 10
1010.508532
 20
-170.737201
 30
0.0
 11
1010.508532
 21
-162.737201
 31
0.0
  0
LINE
  8
0
  6
BYLAYER
 62
     7
 10
1010.508532
 20
-162.737201
 30
0.0
 11
1018.508532
 21
-162.737201
 31
0.0
  0
LINE
  8
0
  6
BYLAYER
 62
     7
 10
1010.508532
 20
-170.737201
 30
0.0
 11
1018.508532
 21
-170.737201
 31
0.0
  0
LINE
  8
0
  6
BYLAYER
 62
     7
 10
1018.508532
 20
-162.737201
 30
0.0
 11
1018.508532
 21
-170.737201
 31
0.0
  0
LINE
  8
0
  6
BYLAYER
 62
     7
 10
1020.508532
 20
-152.737201
 30
0.0
 11
1028.508532
 21
-152.737201
 31
0.0
  0
LINE
  8
0
  6
BYLAYER
 62
     7
 10
1020.508532
 20
-170.737201
 30
0.0
 11
1020.508532
 21
-162.737201
 31
0.0
  0
LINE
  8
0
  6
BYLAYER
 62
     7
 10
1020.508532
 20
-160.737201
 30
0.0
 11
1020.508532
 21
-152.737201
 31
0.0
  0
LINE
  8
0
  6
BYLAYER
 62
     7
 10
1020.508532
 20
-160.737201
 30
0.0
 11
1028.508532
 21
-160.737201
 31
0.0
  0
LINE
  8
0
  6
BYLAYER
 62
     7
 10
1020.508532
 20
-162.737201
 30
0.0
 11
1028.508532
 21
-162.737201
 31
0.0
  0
LINE
  8
0
  6
BYLAYER
 62
     7
 10
1020.508532
 20
-170.737201
 30
0.0
 11
1028.508532
 21
-170.737201
 31
0.0
  0
LINE
  8
0
  6
BYLAYER
 62
     7
 10
1028.508532
 20
-152.737201
 30
0.0
 11
1028.508532
 21
-160.737201
 31
0.0
  0
LINE
  8
0
  6
BYLAYER
 62
     7
 10
1028.508532
 20
-162.737201
 30
0.0
 11
1028.508532
 21
-170.737201
 31
0.0
  0
LINE
  8
0
  6
BYLAYER
 62
     7
 10
1020.508532
 20
-142.737201
 30
0.0
 11
1028.508532
 21
-142.737201
 31
0.0
  0
LINE
  8
0
  6
BYLAYER
 62
     7
 10
1020.508532
 20
-150.737201
 30
0.0
 11
1020.508532
 21
-142.737201
 31
0.0
  0
LINE
  8
0
  6
BYLAYER
 62
     7
 10
1020.508532
 20
-150.737201
 30
0.0
 11
1028.508532
 21
-150.737201
 31
0.0
  0
LINE
  8
0
  6
BYLAYER
 62
     7
 10
1028.508532
 20
-142.737201
 30
0.0
 11
1028.508532
 21
-150.737201
 31
0.0
  0
LINE
  8
0
  6
BYLAYER
 62
     7
 10
1030.508532
 20
-152.737201
 30
0.0
 11
1038.508532
 21
-152.737201
 31
0.0
  0
LINE
  8
0
  6
BYLAYER
 62
     7
 10
1030.508532
 20
-160.737201
 30
0.0
 11
1030.508532
 21
-152.737201
 31
0.0
  0
LINE
  8
0
  6
BYLAYER
 62
     7
 10
1030.508532
 20
-160.737201
 30
0.0
 11
1038.508532
 21
-160.737201
 31
0.0
  0
LINE
  8
0
  6
BYLAYER
 62
     7
 10
1038.508532
 20
-152.737201
 30
0.0
 11
1038.508532
 21
-160.737201
 31
0.0
  0
LINE
  8
0
  6
BYLAYER
 62
     7
 10
1030.508532
 20
-142.737201
 30
0.0
 11
1038.508532
 21
-142.737201
 31
0.0
  0
LINE
  8
0
  6
BYLAYER
 62
     7
 10
1030.508532
 20
-150.737201
 30
0.0
 11
1030.508532
 21
-142.737201
 31
0.0
  0
LINE
  8
0
  6
BYLAYER
 62
     7
 10
1030.508532
 20
-150.737201
 30
0.0
 11
1038.508532
 21
-150.737201
 31
0.0
  0
LINE
  8
0
  6
BYLAYER
 62
     7
 10
1038.508532
 20
-142.737201
 30
0.0
 11
1038.508532
 21
-150.737201
 31
0.0
  0
LINE
  8
0
  6
BYLAYER
 62
     7
 10
1040.508532
 20
-152.737201
 30
0.0
 11
1048.508532
 21
-152.737201
 31
0.0
  0
LINE
  8
0
  6
BYLAYER
 62
     7
 10
1040.508532
 20
-160.737201
 30
0.0
 11
1040.508532
 21
-152.737201
 31
0.0
  0
LINE
  8
0
  6
BYLAYER
 62
     7
 10
1040.508532
 20
-160.737201
 30
0.0
 11
1048.508532
 21
-160.737201
 31
0.0
  0
LINE
  8
0
  6
BYLAYER
 62
     7
 10
1048.508532
 20
-152.737201
 30
0.0
 11
1048.508532
 21
-160.737201
 31
0.0
  0
LINE
  8
0
  6
BYLAYER
 62
     7
 10
1040.508532
 20
-142.737201
 30
0.0
 11
1048.508532
 21
-142.737201
 31
0.0
  0
LINE
  8
0
  6
BYLAYER
 62
     7
 10
1040.508532
 20
-150.737201
 30
0.0
 11
1040.508532
 21
-142.737201
 31
0.0
  0
LINE
  8
0
  6
BYLAYER
 62
     7
 10
1040.508532
 20
-150.737201
 30
0.0
 11
1048.508532
 21
-150.737201
 31
0.0
  0
LINE
  8
0
  6
BYLAYER
 62
     7
 10
1048.508532
 20
-142.737201
 30
0.0
 11
1048.508532
 21
-150.737201
 31
0.0
  0
LINE
  8
0
  6
BYLAYER
 62
     7
 10
1000.508532
 20
-190.737201
 30
0.0
 11
1000.508532
 21
-182.737201
 31
0.0
  0
LINE
  8
0
  6
BYLAYER
 62
     7
 10
1008.508532
 20
-182.737201
 30
0.0
 11
1008.508532
 21
-190.737201
 31
0.0
  0
LINE
  8
0
  6
BYLAYER
 62
     7
 10
1010.508532
 20
-182.737201
 30
0.0
 11
1010.508532
 21
-190.737201
 31
0.0
  0
LINE
  8
0
  6
BYLAYER
 62
     7
 10
1010.508532
 20
-182.737201
 30
0.0
 11
1018.346531
 21
-182.737201
 31
0.0
  0
LINE
  8
0
  6
BYLAYER
 62
     7
 10
1000.508532
 20
-182.737201
 30
0.0
 11
1008.508532
 21
-182.737201
 31
0.0
  0
LINE
  8
0
  6
BYLAYER
 62
     7
 10
1010.508532
 20
-190.737201
 30
0.0
 11
1018.346531
 21
-190.737201
 31
0.0
  0
LINE
  8
0
  6
BYLAYER
 62
     7
 10
1000.508532
 20
-190.737201
 30
0.0
 11
1008.508532
 21
-190.737201
 31
0.0
  0
LINE
  8
0
  6
BYLAYER
 62
     7
 10
1018.346531
 20
-182.737201
 30
0.0
 11
1018.346531
 21
-190.737201
 31
0.0
  0
LINE
  8
0
  6
BYLAYER
 62
     7
 10
1020.508532
 20
-180.737201
 30
0.0
 11
1020.508532
 21
-172.737201
 31
0.0
  0
LINE
  8
0
  6
BYLAYER
 62
     7
 10
1020.508532
 20
-172.737201
 30
0.0
 11
1028.508532
 21
-172.737201
 31
0.0
  0
LINE
  8
0
  6
BYLAYER
 62
     7
 10
1020.508532
 20
-180.737201
 30
0.0
 11
1028.508532
 21
-180.737201
 31
0.0
  0
LINE
  8
0
  6
BYLAYER
 62
     7
 10
1028.508532
 20
-172.737201
 30
0.0
 11
1028.508532
 21
-180.737201
 31
0.0
  0
LINE
  8
0
  6
BYLAYER
 62
     7
 10
1020.508532
 20
-190.737201
 30
0.0
 11
1020.508532
 21
-182.737201
 31
0.0
  0
LINE
  8
0
  6
BYLAYER
 62
     7
 10
1020.508532
 20
-182.737201
 30
0.0
 11
1028.508532
 21
-182.737201
 31
0.0
  0
LINE
  8
0
  6
BYLAYER
 62
     7
 10
1020.508532
 20
-190.737201
 30
0.0
 11
1028.508532
 21
-190.737201
 31
0.0
  0
LINE
  8
0
  6
BYLAYER
 62
     7
 10
1028.508532
 20
-182.737201
 30
0.0
 11
1028.508532
 21
-190.737201
 31
0.0
  0
LINE
  8
0
  6
BYLAYER
 62
     7
 10
1030.508532
 20
-170.737201
 30
0.0
 11
1030.508532
 21
-162.737201
 31
0.0
  0
LINE
  8
0
  6
BYLAYER
 62
     7
 10
1030.508532
 20
-162.737201
 30
0.0
 11
1038.508532
 21
-162.737201
 31
0.0
  0
LINE
  8
0
  6
BYLAYER
 62
     7
 10
1030.508532
 20
-170.737201
 30
0.0
 11
1038.508532
 21
-170.737201
 31
0.0
  0
LINE
  8
0
  6
BYLAYER
 62
     7
 10
1038.508532
 20
-162.737201
 30
0.0
 11
1038.508532
 21
-170.737201
 31
0.0
  0
LINE
  8
0
  6
BYLAYER
 62
     7
 10
1030.508532
 20
-180.737201
 30
0.0
 11
1030.508532
 21
-172.737201
 31
0.0
  0
LINE
  8
0
  6
BYLAYER
 62
     7
 10
1030.508532
 20
-172.737201
 30
0.0
 11
1038.508532
 21
-172.737201
 31
0.0
  0
LINE
  8
0
  6
BYLAYER
 62
     7
 10
1030.508532
 20
-180.737201
 30
0.0
 11
1038.508532
 21
-180.737201
 31
0.0
  0
LINE
  8
0
  6
BYLAYER
 62
     7
 10
1038.508532
 20
-172.737201
 30
0.0
 11
1038.508532
 21
-180.737201
 31
0.0
  0
LINE
  8
0
  6
BYLAYER
 62
     7
 10
1040.508532
 20
-170.737201
 30
0.0
 11
1040.508532
 21
-162.737201
 31
0.0
  0
LINE
  8
0
  6
BYLAYER
 62
     7
 10
1040.508532
 20
-162.737201
 30
0.0
 11
1048.508532
 21
-162.737201
 31
0.0
  0
LINE
  8
0
  6
BYLAYER
 62
     7
 10
1040.508532
 20
-170.737201
 30
0.0
 11
1048.508532
 21
-170.737201
 31
0.0
  0
LINE
  8
0
  6
BYLAYER
 62
     7
 10
1048.508532
 20
-162.737201
 30
0.0
 11
1048.508532
 21
-170.737201
 31
0.0
  0
LINE
  8
0
  6
BYLAYER
 62
     7
 10
998.508532
 20
-112.737201
 30
0.0
 11
998.508532
 21
-120.737201
 31
0.0
  0
LINE
  8
0
  6
BYLAYER
 62
     7
 10
998.508532
 20
-102.737201
 30
0.0
 11
998.508532
 21
-110.737201
 31
0.0
  0
LINE
  8
0
  6
BYLAYER
 62
     7
 10
990.508532
 20
-110.737201
 30
0.0
 11
990.508532
 21
-102.737201
 31
0.0
  0
LINE
  8
0
  6
BYLAYER
 62
     7
 10
988.508532
 20
-110.737201
 30
0.0
 11
988.508532
 21
-102.737201
 31
0.0
  0
LINE
  8
0
  6
BYLAYER
 62
     7
 10
998.508532
 20
-120.737201
 30
0.0
 11
990.508532
 21
-120.737201
 31
0.0
  0
LINE
  8
0
  6
BYLAYER
 62
     7
 10
998.508532
 20
-112.737201
 30
0.0
 11
990.508532
 21
-112.737201
 31
0.0
  0
LINE
  8
0
  6
BYLAYER
 62
     7
 10
988.508532
 20
-110.737201
 30
0.0
 11
980.670533
 21
-110.737201
 31
0.0
  0
LINE
  8
0
  6
BYLAYER
 62
     7
 10
998.508532
 20
-110.737201
 30
0.0
 11
990.508532
 21
-110.737201
 31
0.0
  0
LINE
  8
0
  6
BYLAYER
 62
     7
 10
988.508532
 20
-102.737201
 30
0.0
 11
980.670533
 21
-102.737201
 31
0.0
  0
LINE
  8
0
  6
BYLAYER
 62
     7
 10
998.508532
 20
-102.737201
 30
0.0
 11
990.508532
 21
-102.737201
 31
0.0
  0
LINE
  8
0
  6
BYLAYER
 62
     7
 10
980.670533
 20
-110.737201
 30
0.0
 11
980.670533
 21
-102.737201
 31
0.0
  0
LINE
  8
0
  6
BYLAYER
 62
     7
 10
990.508532
 20
-120.737201
 30
0.0
 11
990.508532
 21
-112.737201
 31
0.0
  0
LINE
  8
0
  6
BYLAYER
 62
     7
 10
988.508532
 20
-112.737201
 30
0.0
 11
988.508532
 21
-120.737201
 31
0.0
  0
LINE
  8
0
  6
BYLAYER
 62
     7
 10
988.508532
 20
-120.737201
 30
0.0
 11
980.508532
 21
-120.737201
 31
0.0
  0
LINE
  8
0
  6
BYLAYER
 62
     7
 10
988.508532
 20
-112.737201
 30
0.0
 11
980.508532
 21
-112.737201
 31
0.0
  0
LINE
  8
0
  6
BYLAYER
 62
     7
 10
980.508532
 20
-120.737201
 30
0.0
 11
980.508532
 21
-112.737201
 31
0.0
  0
LINE
  8
0
  6
BYLAYER
 62
     7
 10
978.508532
 20
-130.737201
 30
0.0
 11
970.508532
 21
-130.737201
 31
0.0
  0
LINE
  8
0
  6
BYLAYER
 62
     7
 10
978.508532
 20
-112.737201
 30
0.0
 11
978.508532
 21
-120.737201
 31
0.0
  0
LINE
  8
0
  6
BYLAYER
 62
     7
 10
978.508532
 20
-122.737201
 30
0.0
 11
978.508532
 21
-130.737201
 31
0.0
  0
LINE
  8
0
  6
BYLAYER
 62
     7
 10
978.508532
 20
-122.737201
 30
0.0
 11
970.508532
 21
-122.737201
 31
0.0
  0
LINE
  8
0
  6
BYLAYER
 62
     7
 10
978.508532
 20
-120.737201
 30
0.0
 11
970.508532
 21
-120.737201
 31
0.0
  0
LINE
  8
0
  6
BYLAYER
 62
     7
 10
978.508532
 20
-112.737201
 30
0.0
 11
970.508532
 21
-112.737201
 31
0.0
  0
LINE
  8
0
  6
BYLAYER
 62
     7
 10
970.508532
 20
-130.737201
 30
0.0
 11
970.508532
 21
-122.737201
 31
0.0
  0
LINE
  8
0
  6
BYLAYER
 62
     7
 10
970.508532
 20
-120.737201
 30
0.0
 11
970.508532
 21
-112.737201
 31
0.0
  0
LINE
  8
0
  6
BYLAYER
 62
     7
 10
978.508532
 20
-140.737201
 30
0.0
 11
970.508532
 21
-140.737201
 31
0.0
  0
LINE
  8
0
  6
BYLAYER
 62
     7
 10
978.508532
 20
-132.737201
 30
0.0
 11
978.508532
 21
-140.737201
 31
0.0
  0
LINE
  8
0
  6
BYLAYER
 62
     7
 10
978.508532
 20
-132.737201
 30
0.0
 11
970.508532
 21
-132.737201
 31
0.0
  0
LINE
  8
0
  6
BYLAYER
 62
     7
 10
970.508532
 20
-140.737201
 30
0.0
 11
970.508532
 21
-132.737201
 31
0.0
  0
LINE
  8
0
  6
BYLAYER
 62
     7
 10
968.508532
 20
-130.737201
 30
0.0
 11
960.508532
 21
-130.737201
 31
0.0
  0
LINE
  8
0
  6
BYLAYER
 62
     7
 10
968.508532
 20
-122.737201
 30
0.0
 11
968.508532
 21
-130.737201
 31
0.0
  0
LINE
  8
0
  6
BYLAYER
 62
     7
 10
968.508532
 20
-122.737201
 30
0.0
 11
960.508532
 21
-122.737201
 31
0.0
  0
LINE
  8
0
  6
BYLAYER
 62
     7
 10
960.508532
 20
-130.737201
 30
0.0
 11
960.508532
 21
-122.737201
 31
0.0
  0
LINE
  8
0
  6
BYLAYER
 62
     7
 10
968.508532
 20
-140.737201
 30
0.0
 11
960.508532
 21
-140.737201
 31
0.0
  0
LINE
  8
0
  6
BYLAYER
 62
     7
 10
968.508532
 20
-132.737201
 30
0.0
 11
968.508532
 21
-140.737201
 31
0.0
  0
LINE
  8
0
  6
BYLAYER
 62
     7
 10
968.508532
 20
-132.737201
 30
0.0
 11
960.508532
 21
-132.737201
 31
0.0
  0
LINE
  8
0
  6
BYLAYER
 62
     7
 10
960.508532
 20
-140.737201
 30
0.0
 11
960.508532
 21
-132.737201
 31
0.0
  0
LINE
  8
0
  6
BYLAYER
 62
     7
 10
958.508532
 20
-130.737201
 30
0.0
 11
950.508532
 21
-130.737201
 31
0.0
  0
LINE
  8
0
  6
BYLAYER
 62
     7
 10
958.508532
 20
-122.737201
 30
0.0
 11
958.508532
 21
-130.737201
 31
0.0
  0
LINE
  8
0
  6
BYLAYER
 62
     7
 10
958.508532
 20
-122.737201
 30
0.0
 11
950.508532
 21
-122.737201
 31
0.0
  0
LINE
  8
0
  6
BYLAYER
 62
     7
 10
950.508532
 20
-130.737201
 30
0.0
 11
950.508532
 21
-122.737201
 31
0.0
  0
LINE
  8
0
  6
BYLAYER
 62
     7
 10
958.508532
 20
-140.737201
 30
0.0
 11
950.508532
 21
-140.737201
 31
0.0
  0
LINE
  8
0
  6
BYLAYER
 62
     7
 10
958.508532
 20
-132.737201
 30
0.0
 11
958.508532
 21
-140.737201
 31
0.0
  0
LINE
  8
0
  6
BYLAYER
 62
     7
 10
958.508532
 20
-132.737201
 30
0.0
 11
950.508532
 21
-132.737201
 31
0.0
  0
LINE
  8
0
  6
BYLAYER
 62
     7
 10
950.508532
 20
-140.737201
 30
0.0
 11
950.508532
 21
-132.737201
 31
0.0
  0
LINE
  8
0
  6
BYLAYER
 62
     7
 10
998.508532
 20
-92.737201
 30
0.0
 11
998.508532
 21
-100.737201
 31
0.0
  0
LINE
  8
0
  6
BYLAYER
 62
     7
 10
990.508532
 20
-100.737201
 30
0.0
 11
990.508532
 21
-92.737201
 31
0.0
  0
LINE
  8
0
  6
BYLAYER
 62
     7
 10
988.508532
 20
-100.737201
 30
0.0
 11
988.508532
 21
-92.737201
 31
0.0
  0
LINE
  8
0
  6
BYLAYER
 62
     7
 10
988.508532
 20
-100.737201
 30
0.0
 11
980.670533
 21
-100.737201
 31
0.0
  0
LINE
  8
0
  6
BYLAYER
 62
     7
 10
998.508532
 20
-100.737201
 30
0.0
 11
990.508532
 21
-100.737201
 31
0.0
  0
LINE
  8
0
  6
BYLAYER
 62
     7
 10
988.508532
 20
-92.737201
 30
0.0
 11
980.670533
 21
-92.737201
 31
0.0
  0
LINE
  8
0
  6
BYLAYER
 62
     7
 10
998.508532
 20
-92.737201
 30
0.0
 11
990.508532
 21
-92.737201
 31
0.0
  0
LINE
  8
0
  6
BYLAYER
 62
     7
 10
980.670533
 20
-100.737201
 30
0.0
 11
980.670533
 21
-92.737201
 31
0.0
  0
LINE
  8
0
  6
BYLAYER
 62
     7
 10
978.508532
 20
-102.737201
 30
0.0
 11
978.508532
 21
-110.737201
 31
0.0
  0
LINE
  8
0
  6
BYLAYER
 62
     7
 10
978.508532
 20
-110.737201
 30
0.0
 11
970.508532
 21
-110.737201
 31
0.0
  0
LINE
  8
0
  6
BYLAYER
 62
     7
 10
978.508532
 20
-102.737201
 30
0.0
 11
970.508532
 21
-102.737201
 31
0.0
  0
LINE
  8
0
  6
BYLAYER
 62
     7
 10
970.508532
 20
-110.737201
 30
0.0
 11
970.508532
 21
-102.737201
 31
0.0
  0
LINE
  8
0
  6
BYLAYER
 62
     7
 10
978.508532
 20
-92.737201
 30
0.0
 11
978.508532
 21
-100.737201
 31
0.0
  0
LINE
  8
0
  6
BYLAYER
 62
     7
 10
978.508532
 20
-100.737201
 30
0.0
 11
970.508532
 21
-100.737201
 31
0.0
  0
LINE
  8
0
  6
BYLAYER
 62
     7
 10
978.508532
 20
-92.737201
 30
0.0
 11
970.508532
 21
-92.737201
 31
0.0
  0
LINE
  8
0
  6
BYLAYER
 62
     7
 10
970.508532
 20
-100.737201
 30
0.0
 11
970.508532
 21
-92.737201
 31
0.0
  0
LINE
  8
0
  6
BYLAYER
 62
     7
 10
968.508532
 20
-112.737201
 30
0.0
 11
968.508532
 21
-120.737201
 31
0.0
  0
LINE
  8
0
  6
BYLAYER
 62
     7
 10
968.508532
 20
-120.737201
 30
0.0
 11
960.508532
 21
-120.737201
 31
0.0
  0
LINE
  8
0
  6
BYLAYER
 62
     7
 10
968.508532
 20
-112.737201
 30
0.0
 11
960.508532
 21
-112.737201
 31
0.0
  0
LINE
  8
0
  6
BYLAYER
 62
     7
 10
960.508532
 20
-120.737201
 30
0.0
 11
960.508532
 21
-112.737201
 31
0.0
  0
LINE
  8
0
  6
BYLAYER
 62
     7
 10
968.508532
 20
-102.737201
 30
0.0
 11
968.508532
 21
-110.737201
 31
0.0
  0
LINE
  8
0
  6
BYLAYER
 62
     7
 10
968.508532
 20
-110.737201
 30
0.0
 11
960.508532
 21
-110.737201
 31
0.0
  0
LINE
  8
0
  6
BYLAYER
 62
     7
 10
968.508532
 20
-102.737201
 30
0.0
 11
960.508532
 21
-102.737201
 31
0.0
  0
LINE
  8
0
  6
BYLAYER
 62
     7
 10
960.508532
 20
-110.737201
 30
0.0
 11
960.508532
 21
-102.737201
 31
0.0
  0
LINE
  8
0
  6
BYLAYER
 62
     7
 10
958.508532
 20
-112.737201
 30
0.0
 11
958.508532
 21
-120.737201
 31
0.0
  0
LINE
  8
0
  6
BYLAYER
 62
     7
 10
958.508532
 20
-120.737201
 30
0.0
 11
950.508532
 21
-120.737201
 31
0.0
  0
LINE
  8
0
  6
BYLAYER
 62
     7
 10
958.508532
 20
-112.737201
 30
0.0
 11
950.508532
 21
-112.737201
 31
0.0
  0
LINE
  8
0
  6
BYLAYER
 62
     7
 10
950.508532
 20
-120.737201
 30
0.0
 11
950.508532
 21
-112.737201
 31
0.0
  0
LINE
  8
0
  6
BYLAYER
 62
     7
 10
998.508532
 20
-170.737201
 30
0.0
 11
998.508532
 21
-162.737201
 31
0.0
  0
LINE
  8
0
  6
BYLAYER
 62
     7
 10
998.508532
 20
-180.737201
 30
0.0
 11
998.508532
 21
-172.737201
 31
0.0
  0
LINE
  8
0
  6
BYLAYER
 62
     7
 10
990.508532
 20
-172.737201
 30
0.0
 11
990.508532
 21
-180.737201
 31
0.0
  0
LINE
  8
0
  6
BYLAYER
 62
     7
 10
988.508532
 20
-172.737201
 30
0.0
 11
988.508532
 21
-180.737201
 31
0.0
  0
LINE
  8
0
  6
BYLAYER
 62
     7
 10
998.508532
 20
-162.737201
 30
0.0
 11
990.508532
 21
-162.737201
 31
0.0
  0
LINE
  8
0
  6
BYLAYER
 62
     7
 10
998.508532
 20
-170.737201
 30
0.0
 11
990.508532
 21
-170.737201
 31
0.0
  0
LINE
  8
0
  6
BYLAYER
 62
     7
 10
988.508532
 20
-172.737201
 30
0.0
 11
980.670533
 21
-172.737201
 31
0.0
  0
LINE
  8
0
  6
BYLAYER
 62
     7
 10
998.508532
 20
-172.737201
 30
0.0
 11
990.508532
 21
-172.737201
 31
0.0
  0
LINE
  8
0
  6
BYLAYER
 62
     7
 10
988.508532
 20
-180.737201
 30
0.0
 11
980.670533
 21
-180.737201
 31
0.0
  0
LINE
  8
0
  6
BYLAYER
 62
     7
 10
998.508532
 20
-180.737201
 30
0.0
 11
990.508532
 21
-180.737201
 31
0.0
  0
LINE
  8
0
  6
BYLAYER
 62
     7
 10
980.670533
 20
-172.737201
 30
0.0
 11
980.670533
 21
-180.737201
 31
0.0
  0
LINE
  8
0
  6
BYLAYER
 62
     7
 10
990.508532
 20
-162.737201
 30
0.0
 11
990.508532
 21
-170.737201
 31
0.0
  0
LINE
  8
0
  6
BYLAYER
 62
     7
 10
988.508532
 20
-170.737201
 30
0.0
 11
988.508532
 21
-162.737201
 31
0.0
  0
LINE
  8
0
  6
BYLAYER
 62
     7
 10
988.508532
 20
-162.737201
 30
0.0
 11
980.508532
 21
-162.737201
 31
0.0
  0
LINE
  8
0
  6
BYLAYER
 62
     7
 10
988.508532
 20
-170.737201
 30
0.0
 11
980.508532
 21
-170.737201
 31
0.0
  0
LINE
  8
0
  6
BYLAYER
 62
     7
 10
980.508532
 20
-162.737201
 30
0.0
 11
980.508532
 21
-170.737201
 31
0.0
  0
LINE
  8
0
  6
BYLAYER
 62
     7
 10
978.508532
 20
-152.737201
 30
0.0
 11
970.508532
 21
-152.737201
 31
0.0
  0
LINE
  8
0
  6
BYLAYER
 62
     7
 10
978.508532
 20
-170.737201
 30
0.0
 11
978.508532
 21
-162.737201
 31
0.0
  0
LINE
  8
0
  6
BYLAYER
 62
     7
 10
978.508532
 20
-160.737201
 30
0.0
 11
978.508532
 21
-152.737201
 31
0.0
  0
LINE
  8
0
  6
BYLAYER
 62
     7
 10
978.508532
 20
-160.737201
 30
0.0
 11
970.508532
 21
-160.737201
 31
0.0
  0
LINE
  8
0
  6
BYLAYER
 62
     7
 10
978.508532
 20
-162.737201
 30
0.0
 11
970.508532
 21
-162.737201
 31
0.0
  0
LINE
  8
0
  6
BYLAYER
 62
     7
 10
978.508532
 20
-170.737201
 30
0.0
 11
970.508532
 21
-170.737201
 31
0.0
  0
LINE
  8
0
  6
BYLAYER
 62
     7
 10
970.508532
 20
-152.737201
 30
0.0
 11
970.508532
 21
-160.737201
 31
0.0
  0
LINE
  8
0
  6
BYLAYER
 62
     7
 10
970.508532
 20
-162.737201
 30
0.0
 11
970.508532
 21
-170.737201
 31
0.0
  0
LINE
  8
0
  6
BYLAYER
 62
     7
 10
978.508532
 20
-142.737201
 30
0.0
 11
970.508532
 21
-142.737201
 31
0.0
  0
LINE
  8
0
  6
BYLAYER
 62
     7
 10
978.508532
 20
-150.737201
 30
0.0
 11
978.508532
 21
-142.737201
 31
0.0
  0
LINE
  8
0
  6
BYLAYER
 62
     7
 10
978.508532
 20
-150.737201
 30
0.0
 11
970.508532
 21
-150.737201
 31
0.0
  0
LINE
  8
0
  6
BYLAYER
 62
     7
 10
970.508532
 20
-142.737201
 30
0.0
 11
970.508532
 21
-150.737201
 31
0.0
  0
LINE
  8
0
  6
BYLAYER
 62
     7
 10
968.508532
 20
-152.737201
 30
0.0
 11
960.508532
 21
-152.737201
 31
0.0
  0
LINE
  8
0
  6
BYLAYER
 62
     7
 10
968.508532
 20
-160.737201
 30
0.0
 11
968.508532
 21
-152.737201
 31
0.0
  0
LINE
  8
0
  6
BYLAYER
 62
     7
 10
968.508532
 20
-160.737201
 30
0.0
 11
960.508532
 21
-160.737201
 31
0.0
  0
LINE
  8
0
  6
BYLAYER
 62
     7
 10
960.508532
 20
-152.737201
 30
0.0
 11
960.508532
 21
-160.737201
 31
0.0
  0
LINE
  8
0
  6
BYLAYER
 62
     7
 10
968.508532
 20
-142.737201
 30
0.0
 11
960.508532
 21
-142.737201
 31
0.0
  0
LINE
  8
0
  6
BYLAYER
 62
     7
 10
968.508532
 20
-150.737201
 30
0.0
 11
968.508532
 21
-142.737201
 31
0.0
  0
LINE
  8
0
  6
BYLAYER
 62
     7
 10
968.508532
 20
-150.737201
 30
0.0
 11
960.508532
 21
-150.737201
 31
0.0
  0
LINE
  8
0
  6
BYLAYER
 62
     7
 10
960.508532
 20
-142.737201
 30
0.0
 11
960.508532
 21
-150.737201
 31
0.0
  0
LINE
  8
0
  6
BYLAYER
 62
     7
 10
958.508532
 20
-152.737201
 30
0.0
 11
950.508532
 21
-152.737201
 31
0.0
  0
LINE
  8
0
  6
BYLAYER
 62
     7
 10
958.508532
 20
-160.737201
 30
0.0
 11
958.508532
 21
-152.737201
 31
0.0
  0
LINE
  8
0
  6
BYLAYER
 62
     7
 10
958.508532
 20
-160.737201
 30
0.0
 11
950.508532
 21
-160.737201
 31
0.0
  0
LINE
  8
0
  6
BYLAYER
 62
     7
 10
950.508532
 20
-152.737201
 30
0.0
 11
950.508532
 21
-160.737201
 31
0.0
  0
LINE
  8
0
  6
BYLAYER
 62
     7
 10
958.508532
 20
-142.737201
 30
0.0
 11
950.508532
 21
-142.737201
 31
0.0
  0
LINE
  8
0
  6
BYLAYER
 62
     7
 10
958.508532
 20
-150.737201
 30
0.0
 11
958.508532
 21
-142.737201
 31
0.0
  0
LINE
  8
0
  6
BYLAYER
 62
     7
 10
958.508532
 20
-150.737201
 30
0.0
 11
950.508532
 21
-150.737201
 31
0.0
  0
LINE
  8
0
  6
BYLAYER
 62
     7
 10
950.508532
 20
-142.737201
 30
0.0
 11
950.508532
 21
-150.737201
 31
0.0
  0
LINE
  8
0
  6
BYLAYER
 62
     7
 10
998.508532
 20
-190.737201
 30
0.0
 11
998.508532
 21
-182.737201
 31
0.0
  0
LINE
  8
0
  6
BYLAYER
 62
     7
 10
990.508532
 20
-182.737201
 30
0.0
 11
990.508532
 21
-190.737201
 31
0.0
  0
LINE
  8
0
  6
BYLAYER
 62
     7
 10
988.508532
 20
-182.737201
 30
0.0
 11
988.508532
 21
-190.737201
 31
0.0
  0
LINE
  8
0
  6
BYLAYER
 62
     7
 10
988.508532
 20
-182.737201
 30
0.0
 11
980.670533
 21
-182.737201
 31
0.0
  0
LINE
  8
0
  6
BYLAYER
 62
     7
 10
998.508532
 20
-182.737201
 30
0.0
 11
990.508532
 21
-182.737201
 31
0.0
  0
LINE
  8
0
  6
BYLAYER
 62
     7
 10
988.508532
 20
-190.737201
 30
0.0
 11
980.670533
 21
-190.737201
 31
0.0
  0
LINE
  8
0
  6
BYLAYER
 62
     7
 10
998.508532
 20
-190.737201
 30
0.0
 11
990.508532
 21
-190.737201
 31
0.0
  0
LINE
  8
0
  6
BYLAYER
 62
     7
 10
980.670533
 20
-182.737201
 30
0.0
 11
980.670533
 21
-190.737201
 31
0.0
  0
LINE
  8
0
  6
BYLAYER
 62
     7
 10
978.508532
 20
-180.737201
 30
0.0
 11
978.508532
 21
-172.737201
 31
0.0
  0
LINE
  8
0
  6
BYLAYER
 62
     7
 10
978.508532
 20
-172.737201
 30
0.0
 11
970.508532
 21
-172.737201
 31
0.0
  0
LINE
  8
0
  6
BYLAYER
 62
     7
 10
978.508532
 20
-180.737201
 30
0.0
 11
970.508532
 21
-180.737201
 31
0.0
  0
LINE
  8
0
  6
BYLAYER
 62
     7
 10
970.508532
 20
-172.737201
 30
0.0
 11
970.508532
 21
-180.737201
 31
0.0
  0
LINE
  8
0
  6
BYLAYER
 62
     7
 10
978.508532
 20
-190.737201
 30
0.0
 11
978.508532
 21
-182.737201
 31
0.0
  0
LINE
  8
0
  6
BYLAYER
 62
     7
 10
978.508532
 20
-182.737201
 30
0.0
 11
970.508532
 21
-182.737201
 31
0.0
  0
LINE
  8
0
  6
BYLAYER
 62
     7
 10
978.508532
 20
-190.737201
 30
0.0
 11
970.508532
 21
-190.737201
 31
0.0
  0
LINE
  8
0
  6
BYLAYER
 62
     7
 10
970.508532
 20
-182.737201
 30
0.0
 11
970.508532
 21
-190.737201
 31
0.0
  0
LINE
  8
0
  6
BYLAYER
 62
     7
 10
968.508532
 20
-170.737201
 30
0.0
 11
968.508532
 21
-162.737201
 31
0.0
  0
LINE
  8
0
  6
BYLAYER
 62
     7
 10
968.508532
 20
-162.737201
 30
0.0
 11
960.508532
 21
-162.737201
 31
0.0
  0
LINE
  8
0
  6
BYLAYER
 62
     7
 10
968.508532
 20
-170.737201
 30
0.0
 11
960.508532
 21
-170.737201
 31
0.0
  0
LINE
  8
0
  6
BYLAYER
 62
     7
 10
960.508532
 20
-162.737201
 30
0.0
 11
960.508532
 21
-170.737201
 31
0.0
  0
LINE
  8
0
  6
BYLAYER
 62
     7
 10
968.508532
 20
-180.737201
 30
0.0
 11
968.508532
 21
-172.737201
 31
0.0
  0
LINE
  8
0
  6
BYLAYER
 62
     7
 10
968.508532
 20
-172.737201
 30
0.0
 11
960.508532
 21
-172.737201
 31
0.0
  0
LINE
  8
0
  6
BYLAYER
 62
     7
 10
968.508532
 20
-180.737201
 30
0.0
 11
960.508532
 21
-180.737201
 31
0.0
  0
LINE
  8
0
  6
BYLAYER
 62
     7
 10
960.508532
 20
-172.737201
 30
0.0
 11
960.508532
 21
-180.737201
 31
0.0
  0
LINE
  8
0
  6
BYLAYER
 62
     7
 10
958.508532
 20
-170.737201
 30
0.0
 11
958.508532
 21
-162.737201
 31
0.0
  0
LINE
  8
0
  6
BYLAYER
 62
     7
 10
958.508532
 20
-162.737201
 30
0.0
 11
950.508532
 21
-162.737201
 31
0.0
  0
LINE
  8
0
  6
BYLAYER
 62
     7
 10
958.508532
 20
-170.737201
 30
0.0
 11
950.508532
 21
-170.737201
 31
0.0
  0
LINE
  8
0
  6
BYLAYER
 62
     7
 10
950.508532
 20
-162.737201
 30
0.0
 11
950.508532
 21
-170.737201
 31
0.0
  0
CIRCLE
  8
0
  6
BYLAYER
 62
     7
 10
999.508532
 20
-141.737201
 30
0.0
 40
4.0
  0
ARC
  8
0
  6
BYLAYER
 62
     7
 10
1035.258532
 20
-43.237170
 30
0.0
 40
1.5
 50
180.000000
 51
265.219808
  0
ARC
  8
0
  6
BYLAYER
 62
     7
 10
963.758532
 20
-43.237170
 30
0.0
 40
1.5
 50
274.780192
 51
360.000000
  0
ARC
  8
0
  6
BYLAYER
 62
     7
 10
971.754194
 20
-43.237170
 30
0.0
 40
1.500000
 50
270.0
 51
360.0
  0
LINE
  8
0
  6
BYLAYER
 62
     7
 10
1033.758532
 20
-43.237170
 30
0.0
 11
1033.758532
 21
-21.737170
 31
0.0
  0
LINE
  8
0
  6
BYLAYER
 62
     7
 10
1032.258532
 20
-20.237170
 30
0.0
 11
966.758532
 21
-20.237170
 31
0.0
  0
ARC
  8
0
  6
BYLAYER
 62
     7
 10
1032.258532
 20
-21.737170
 30
0.0
 40
1.500000
 50
0.0
 51
90.0
  0
ARC
  8
0
  6
BYLAYER
 62
     7
 10
966.758532
 20
-21.737170
 30
0.0
 40
1.500000
 50
90.0
 51
180.0
  0
LINE
  8
0
  6
BYLAYER
 62
     7
 10
965.258532
 20
-43.237170
 30
0.0
 11
965.258532
 21
-21.737170
 31
0.0
  0
LINE
  8
0
  6
BYLAYER
 62
     7
 10
973.254194
 20
-43.237170
 30
0.0
 11
973.254194
 21
-21.737170
 31
0.0
  0
ARC
  8
0
  6
BYLAYER
 62
     7
 10
974.754194
 20
-21.737170
 30
0.0
 40
1.500000
 50
90.0
 51
180.0
  0
ARC
  8
0
  6
BYLAYER
 62
     7
 10
1024.262870
 20
-21.737170
 30
0.0
 40
1.500000
 50
0.0
 51
90.0
  0
LINE
  8
0
  6
BYLAYER
 62
     7
 10
978.914879
 20
-20.237170
 30
0.0
 11
979.407426
 21
-34.341868
 31
0.0
  0
ARC
  8
0
  6
BYLAYER
 62
     7
 10
982.405598
 20
-34.237170
 30
0.0
 40
3.0
 50
182.000000
 51
270.000000
  0
LINE
  8
0
  6
BYLAYER
 62
     7
 10
989.609638
 20
-34.341868
 30
0.0
 11
990.102185
 21
-20.237170
 31
0.0
  0
ARC
  8
0
  6
BYLAYER
 62
     7
 10
986.611466
 20
-34.237170
 30
0.0
 40
3.0
 50
270.0
 51
358.0
  0
LINE
  8
0
  6
BYLAYER
 62
     7
 10
1004.609638
 20
-34.341868
 30
0.0
 11
1005.102185
 21
-20.237170
 31
0.0
  0
ARC
  8
0
  6
BYLAYER
 62
     7
 10
1001.611466
 20
-34.237170
 30
0.0
 40
3.0
 50
270.0
 51
358.0
  0
LINE
  8
0
  6
BYLAYER
 62
     7
 10
1019.609638
 20
-34.341868
 30
0.0
 11
1020.102185
 21
-20.237170
 31
0.0
  0
ARC
  8
0
  6
BYLAYER
 62
     7
 10
1016.611466
 20
-34.237170
 30
0.0
 40
3.0
 50
270.0
 51
358.0
  0
LINE
  8
0
  6
BYLAYER
 62
     7
 10
1008.914879
 20
-20.237170
 30
0.0
 11
1009.407426
 21
-34.341868
 31
0.0
  0
ARC
  8
0
  6
BYLAYER
 62
     7
 10
1012.405598
 20
-34.237170
 30
0.0
 40
3.0
 50
182.000000
 51
270.000000
  0
LINE
  8
0
  6
BYLAYER
 62
     7
 10
993.914879
 20
-20.237170
 30
0.0
 11
994.407426
 21
-34.341868
 31
0.0
  0
ARC
  8
0
  6
BYLAYER
 62
     7
 10
997.405598
 20
-34.237170
 30
0.0
 40
3.0
 50
182.000000
 51
270.000000
  0
LINE
  8
0
  6
BYLAYER
 62
     7
 10
1012.405598
 20
-37.237170
 30
0.0
 11
1016.611466
 21
-37.237170
 31
0.0
  0
LINE
  8
0
  6
BYLAYER
 62
     7
 10
997.405598
 20
-37.237170
 30
0.0
 11
1001.611466
 21
-37.237170
 31
0.0
  0
LINE
  8
0
  6
BYLAYER
 62
     7
 10
982.405598
 20
-37.237170
 30
0.0
 11
986.611466
 21
-37.237170
 31
0.0
  0
LINE
  8
0
  6
BYLAYER
 62
     7
 10
993.949800
 20
-21.237170
 30
0.0
 11
1005.067264
 21
-21.237170
 31
0.0
  0
LINE
  8
0
  6
BYLAYER
 62
     7
 10
1008.949800
 20
-21.237170
 30
0.0
 11
1020.067264
 21
-21.237170
 31
0.0
  0
LINE
  8
0
  6
BYLAYER
 62
     7
 10
978.949800
 20
-21.237170
 30
0.0
 11
990.067264
 21
-21.237170
 31
0.0
  0
LINE
  8
0
  6
BYLAYER
 62
     7
 10
1025.762870
 20
-21.737170
 30
0.0
 11
1025.762870
 21
-43.237170
 31
0.0
  0
ARC
  8
0
  6
BYLAYER
 62
     7
 10
964.008532
 20
-46.226735
 30
0.0
 40
1.500000
 50
94.780192
 51
180.000000
  0
LINE
  8
0
  6
BYLAYER
 62
     7
 10
964.008532
 20
-44.737170
 30
0.0
 11
1035.258532
 21
-44.737170
 31
0.0
  0
ARC
  8
0
  6
BYLAYER
 62
     7
 10
1035.008532
 20
-46.226735
 30
0.0
 40
1.5
 50
0.0
 51
85.219808
  0
LINE
  8
0
  6
BYLAYER
 62
     7
 10
1036.508532
 20
-53.737170
 30
0.0
 11
1036.508532
 21
-46.226735
 31
0.0
  0
ARC
  8
0
  6
BYLAYER
 62
     7
 10
1027.262870
 20
-43.237170
 30
0.0
 40
1.500000
 50
180.000000
 51
270.000000
  0
LINE
  8
0
  6
BYLAYER
 62
     7
 10
1036.508532
 20
-51.737109
 30
0.0
 11
962.508532
 21
-51.737109
 31
0.0
  0
LINE
  8
0
  6
BYLAYER
 62
     7
 10
962.508532
 20
-46.226735
 30
0.0
 11
962.508532
 21
-53.737170
 31
0.0
  0
LINE
  8
0
  6
BYLAYER
 62
     7
 10
962.508532
 20
-53.737170
 30
0.0
 11
1036.508532
 21
-53.737170
 31
0.0
  0
LINE
  8
0
  6
BYLAYER
 62
     1
 10
934.508654
 20
-271.737201
 30
0.0
 11
962.508532
 21
-271.737201
 31
0.0
  0
LINE
  8
0
  6
BYLAYER
 62
     1
 10
934.508654
 20
-221.737201
 30
0.0
 11
934.508654
 21
-271.737201
 31
0.0
  0
LINE
  8
0
  6
BYLAYER
 62
     1
 10
934.508654
 20
-221.737201
 30
0.0
 11
936.008654
 21
-220.237201
 31
0.0
  0
LINE
  8
0
  6
BYLAYER
 62
     1
 10
936.008654
 20
-218.988515
 30
0.0
 11
936.008654
 21
-220.237201
 31
0.0
  0
LINE
  8
0
  6
BYLAYER
 62
     1
 10
1064.508532
 20
-271.737201
 30
0.0
 11
1036.508532
 21
-271.737201
 31
0.0
  0
LINE
  8
0
  6
BYLAYER
 62
     1
 10
1064.508532
 20
-221.737201
 30
0.0
 11
1063.008532
 21
-220.237262
 31
0.0
  0
LINE
  8
0
  6
BYLAYER
 62
     1
 10
1064.508532
 20
-271.737201
 30
0.0
 11
1064.508532
 21
-221.737201
 31
0.0
  0
LINE
  8
0
  6
BYLAYER
 62
     1
 10
1063.008532
 20
-218.988415
 30
0.0
 11
1063.008532
 21
-220.237262
 31
0.0
  0
LINE
  8
0
  6
BYLAYER
 62
     1
 10
1066.508532
 20
-248.737201
 30
0.0
 11
1064.508532
 21
-248.807025
 31
0.0
  0
CIRCLE
  8
0
  6
BYLAYER
 62
     1
 10
1049.508532
 20
-238.737201
 30
0.0
 40
6.5
  0
LINE
  8
0
  6
BYLAYER
 62
     1
 10
937.558956
 20
-220.237201
 30
0.0
 11
936.008654
 21
-220.237201
 31
0.0
  0
LINE
  8
0
  6
BYLAYER
 62
     1
 10
939.508532
 20
-221.737201
 30
0.0
 11
934.508654
 21
-221.737201
 31
0.0
  0
LINE
  8
0
  6
BYLAYER
 62
     1
 10
1059.508532
 20
-221.737201
 30
0.0
 11
1064.508532
 21
-221.737201
 31
0.0
  0
LINE
  8
0
  6
BYLAYER
 62
     1
 10
1061.458108
 20
-220.237201
 30
0.0
 11
1063.008532
 21
-220.237201
 31
0.0
  0
CIRCLE
  8
0
  6
BYLAYER
 62
     1
 10
949.508532
 20
-238.737201
 30
0.0
 40
6.5
  0
LINE
  8
0
  6
BYLAYER
 62
     1
 10
1036.508532
 20
-234.640376
 30
0.0
 11
1036.508532
 21
-271.737201
 31
0.0
  0
LINE
  8
0
  6
BYLAYER
 62
     1
 10
962.508532
 20
-234.640376
 30
0.0
 11
962.508532
 21
-271.737201
 31
0.0
  0
LINE
  8
0
  6
BYLAYER
 62
     1
 10
1066.508532
 20
-248.737201
 30
0.0
 11
1066.508532
 21
-215.973311
 31
0.0
  0
LINE
  8
0
  6
BYLAYER
 62
     1
 10
1069.508532
 20
-213.151485
 30
0.0
 11
1069.508532
 21
-223.237201
 31
0.0
  0
LINE
  8
0
  6
BYLAYER
 62
     1
 10
1069.508532
 20
-223.237201
 30
0.0
 11
1069.008532
 21
-223.737201
 31
0.0
  0
LINE
  8
0
  6
BYLAYER
 62
     1
 10
1069.008532
 20
-223.737201
 30
0.0
 11
1066.508532
 21
-223.737201
 31
0.0
  0
LINE
  8
0
  6
BYLAYER
 62
     1
 10
934.508532
 20
-221.737201
 30
0.0
 11
936.008532
 21
-220.237262
 31
0.0
  0
LINE
  8
0
  6
BYLAYER
 62
     1
 10
932.508532
 20
-248.737201
 30
0.0
 11
934.508532
 21
-248.807025
 31
0.0
  0
LINE
  8
0
  6
BYLAYER
 62
     1
 10
932.508532
 20
-248.737201
 30
0.0
 11
932.508532
 21
-215.973311
 31
0.0
  0
LINE
  8
0
  6
BYLAYER
 62
     1
 10
929.508532
 20
-213.151485
 30
0.0
 11
929.508532
 21
-223.237201
 31
0.0
  0
LINE
  8
0
  6
BYLAYER
 62
     1
 10
929.508532
 20
-223.237201
 30
0.0
 11
930.008532
 21
-223.737201
 31
0.0
  0
LINE
  8
0
  6
BYLAYER
 62
     1
 10
930.008532
 20
-223.737201
 30
0.0
 11
932.508532
 21
-223.737201
 31
0.0
  0
LINE
  8
0
  6
BYLAYER
 62
     1
 10
1036.508532
 20
-266.737170
 30
0.0
 11
962.508532
 21
-266.737170
 31
0.0
  0
ARC
  8
0
  6
BYLAYER
 62
     1
 10
999.508532
 20
-691.737201
 30
0.0
 40
100.0
 50
314.427004
 51
390.943029
  0
ARC
  8
0
  6
BYLAYER
 62
     1
 10
999.508532
 20
-691.737201
 30
0.0
 40
100.0
 50
149.056971
 51
225.572996
  0
ARC
  8
0
  6
BYLAYER
 62
     1
 10
999.508532
 20
-628.737201
 30
0.0
 40
80.000000
 50
331.044976
 51
568.955024
  0
LINE
  8
0
  6
BYLAYER
 62
     1
 10
929.508532
 20
-727.610220
 30
0.0
 11
906.477478
 21
-728.414482
 31
0.0
  0
LINE
  8
0
  6
BYLAYER
 62
     1
 10
929.508532
 20
-695.864182
 30
0.0
 11
899.556007
 21
-694.818217
 31
0.0
  0
LINE
  8
0
  6
BYLAYER
 62
     1
 10
1078.762833
 20
-639.634716
 30
0.0
 11
1084.453652
 21
-639.833444
 31
0.0
  0
ARC
  8
0
  6
BYLAYER
 62
     1
 10
1084.418752
 20
-640.832835
 30
0.0
 40
1.000000
 50
30.943029
 51
88.000000
  0
LINE
  8
0
  6
BYLAYER
 62
     1
 10
920.254231
 20
-639.634716
 30
0.0
 11
914.563412
 21
-639.833444
 31
0.0
  0
ARC
  8
0
  6
BYLAYER
 62
     1
 10
914.598312
 20
-640.832835
 30
0.0
 40
1.0
 50
92.000000
 51
149.056971
  0
LINE
  8
0
  6
BYLAYER
 62
     1
 10
1064.508532
 20
-583.737201
 30
0.0
 11
1036.508532
 21
-583.737201
 31
0.0
  0
LINE
  8
0
  6
BYLAYER
 62
     1
 10
1064.508532
 20
-633.737201
 30
0.0
 11
1064.508532
 21
-583.737201
 31
0.0
  0
LINE
  8
0
  6
BYLAYER
 62
     1
 10
1064.508532
 20
-633.737201
 30
0.0
 11
1063.008532
 21
-635.237140
 31
0.0
  0
LINE
  8
0
  6
BYLAYER
 62
     1
 10
934.508532
 20
-583.737201
 30
0.0
 11
962.508532
 21
-583.737201
 31
0.0
  0
LINE
  8
0
  6
BYLAYER
 62
     1
 10
934.508532
 20
-633.737201
 30
0.0
 11
934.508532
 21
-583.737201
 31
0.0
  0
LINE
  8
0
  6
BYLAYER
 62
     1
 10
934.508532
 20
-633.737201
 30
0.0
 11
936.008532
 21
-635.237140
 31
0.0
  0
LINE
  8
0
  6
BYLAYER
 62
     1
 10
1064.508532
 20
-821.737201
 30
0.0
 11
1036.508532
 21
-821.737201
 31
0.0
  0
LINE
  8
0
  6
BYLAYER
 62
     1
 10
1064.508532
 20
-771.737201
 30
0.0
 11
1064.508532
 21
-821.737201
 31
0.0
  0
LINE
  8
0
  6
BYLAYER
 62
     1
 10
1064.508532
 20
-771.737201
 30
0.0
 11
1063.008532
 21
-770.237201
 31
0.0
  0
LINE
  8
0
  6
BYLAYER
 62
     1
 10
1063.008532
 20
-635.237140
 30
0.0
 11
1063.008532
 21
-770.237201
 31
0.0
  0
LINE
  8
0
  6
BYLAYER
 62
     1
 10
934.508532
 20
-821.737201
 30
0.0
 11
962.508532
 21
-821.737201
 31
0.0
  0
LINE
  8
0
  6
BYLAYER
 62
     1
 10
934.508532
 20
-821.737201
 30
0.0
 11
934.508532
 21
-771.737201
 31
0.0
  0
LINE
  8
0
  6
BYLAYER
 62
     1
 10
1036.508532
 20
-585.237201
 30
0.0
 11
962.508532
 21
-585.237201
 31
0.0
  0
LINE
  8
0
  6
BYLAYER
 62
     1
 10
1036.508532
 20
-770.237201
 30
0.0
 11
1063.008532
 21
-770.237201
 31
0.0
  0
LINE
  8
0
  6
BYLAYER
 62
     1
 10
1036.508532
 20
-771.737201
 30
0.0
 11
1064.508532
 21
-771.737201
 31
0.0
  0
LINE
  8
0
  6
BYLAYER
 62
     1
 10
962.508532
 20
-771.737201
 30
0.0
 11
934.508532
 21
-771.737201
 31
0.0
  0
LINE
  8
0
  6
BYLAYER
 62
     1
 10
1036.508532
 20
-635.237140
 30
0.0
 11
1063.008532
 21
-635.237140
 31
0.0
  0
LINE
  8
0
  6
BYLAYER
 62
     1
 10
962.508532
 20
-770.237201
 30
0.0
 11
936.008532
 21
-770.237201
 31
0.0
  0
LINE
  8
0
  6
BYLAYER
 62
     1
 10
936.008532
 20
-635.237140
 30
0.0
 11
962.508532
 21
-635.237140
 31
0.0
  0
CIRCLE
  8
0
  6
BYLAYER
 62
     1
 10
949.508532
 20
-788.737201
 30
0.0
 40
6.5
  0
CIRCLE
  8
0
  6
BYLAYER
 62
     1
 10
949.508532
 20
-616.737201
 30
0.0
 40
6.5
  0
CIRCLE
  8
0
  6
BYLAYER
 62
     1
 10
1049.508532
 20
-616.737201
 30
0.0
 40
6.5
  0
CIRCLE
  8
0
  6
BYLAYER
 62
     1
 10
1026.732043
 20
-655.960864
 30
0.0
 40
3.525002
  0
CIRCLE
  8
0
  6
BYLAYER
 62
     1
 10
1026.732165
 20
-601.513629
 30
0.0
 40
3.525002
  0
CIRCLE
  8
0
  6
BYLAYER
 62
     1
 10
972.285021
 20
-601.513507
 30
0.0
 40
3.525002
  0
CIRCLE
  8
0
  6
BYLAYER
 62
     1
 10
972.284899
 20
-655.960742
 30
0.0
 40
3.525002
  0
LINE
  8
0
  6
BYLAYER
 62
     1
 10
961.650256
 20
-633.737201
 30
0.0
 11
934.508532
 21
-633.737201
 31
0.0
  0
ARC
  8
0
  6
BYLAYER
 62
     1
 10
961.650256
 20
-635.737201
 30
0.0
 40
2.0
 50
10.476094
 51
90.000000
  0
LINE
  8
0
  6
BYLAYER
 62
     1
 10
1037.366808
 20
-633.737201
 30
0.0
 11
1064.508532
 21
-633.737201
 31
0.0
  0
ARC
  8
0
  6
BYLAYER
 62
     1
 10
1037.366808
 20
-635.737201
 30
0.0
 40
2.000012
 50
90.0
 51
169.524063
  0
LINE
  8
0
  6
BYLAYER
 62
     1
 10
962.508532
 20
-633.930713
 30
0.0
 11
962.508532
 21
-821.737201
 31
0.0
  0
CIRCLE
  8
0
  6
BYLAYER
 62
     1
 10
1049.508532
 20
-788.737201
 30
0.0
 40
6.5
  0
LINE
  8
0
  6
BYLAYER
 62
     1
 10
1036.508532
 20
-633.930713
 30
0.0
 11
1036.508532
 21
-821.737201
 31
0.0
  0
LINE
  8
0
  6
BYLAYER
 62
     1
 10
934.508837
 20
-771.736987
 30
0.0
 11
936.008532
 21
-770.237201
 31
0.0
  0
LINE
  8
0
  6
BYLAYER
 62
     1
 10
936.008532
 20
-635.237140
 30
0.0
 11
936.008532
 21
-770.237201
 31
0.0
  0
LINE
  8
0
  6
BYLAYER
 62
     1
 10
934.508532
 20
-771.737201
 30
0.0
 11
936.008532
 21
-770.237262
 31
0.0
  0
ARC
  8
0
  6
BYLAYER
 62
     1
 10
999.508532
 20
-628.737201
 30
0.0
 40
36.499996
 50
59.173767
 51
121.575305
  0
ARC
  8
0
  6
BYLAYER
 62
     1
 10
979.349230
 20
-595.937000
 30
0.0
 40
2.000008
 50
218.287737
 51
301.575200
  0
LINE
  8
0
  6
BYLAYER
 62
     1
 10
962.508532
 20
-596.982929
 30
0.0
 11
962.508532
 21
-583.737201
 31
0.0
  0
ARC
  8
0
  6
BYLAYER
 62
     1
 10
972.285021
 20
-601.513507
 30
0.0
 40
7.000019
 50
38.287800
 51
149.774970
  0
ARC
  8
0
  6
BYLAYER
 62
     1
 10
964.508532
 20
-596.982929
 30
0.0
 40
2.000039
 50
180.000000
 51
329.774833
  0
ARC
  8
0
  6
BYLAYER
 62
     1
 10
1026.732043
 20
-601.513507
 30
0.0
 40
6.999995
 50
30.225035
 51
141.712205
  0
ARC
  8
0
  6
BYLAYER
 62
     1
 10
1019.667864
 20
-595.937000
 30
0.0
 40
2.000008
 50
238.424801
 51
321.712264
  0
ARC
  8
0
  6
BYLAYER
 62
     1
 10
1034.508532
 20
-596.982929
 30
0.0
 40
2.000013
 50
210.225163
 51
359.999983
  0
LINE
  8
0
  6
BYLAYER
 62
     1
 10
1036.508532
 20
-583.737201
 30
0.0
 11
1036.508532
 21
-596.982929
 31
0.0
  0
ARC
  8
0
  6
BYLAYER
 62
     1
 10
979.349230
 20
-661.537402
 30
0.0
 40
2.000008
 50
58.424803
 51
141.712259
  0
ARC
  8
0
  6
BYLAYER
 62
     1
 10
999.508532
 20
-628.737201
 30
0.0
 40
36.500011
 50
238.424692
 51
301.575310
  0
ARC
  8
0
  6
BYLAYER
 62
     1
 10
1019.667864
 20
-661.537402
 30
0.0
 40
2.000013
 50
38.287746
 51
121.575195
  0
ARC
  8
0
  6
BYLAYER
 62
     1
 10
999.508532
 20
-628.737201
 30
0.0
 40
36.500061
 50
328.424291
 51
349.524330
  0
ARC
  8
0
  6
BYLAYER
 62
     1
 10
1026.732043
 20
-655.960895
 30
0.0
 40
6.999995
 50
218.287805
 51
411.711659
  0
ARC
  8
0
  6
BYLAYER
 62
     1
 10
1032.308611
 20
-648.896777
 30
0.0
 40
1.999987
 50
148.424341
 51
231.711709
  0
ARC
  8
0
  6
BYLAYER
 62
     1
 10
999.508532
 20
-628.737201
 30
0.0
 40
36.500046
 50
190.475671
 51
211.575696
  0
ARC
  8
0
  6
BYLAYER
 62
     1
 10
972.285021
 20
-655.960895
 30
0.0
 40
7.000019
 50
128.288151
 51
321.712210
  0
ARC
  8
0
  6
BYLAYER
 62
     1
 10
966.708483
 20
-648.896747
 30
0.0
 40
1.999961
 50
308.287743
 51
391.575657
  0
LINE
  8
0
  6
BYLAYER
 62
     1
 10
936.008532
 20
-638.615009
 30
0.0
 11
932.508532
 21
-638.737201
 31
0.0
  0
LINE
  8
0
  6
BYLAYER
 62
     1
 10
932.508532
 20
-718.737201
 30
0.0
 11
932.508532
 21
-638.737201
 31
0.0
  0
LINE
  8
0
  6
BYLAYER
 62
     1
 10
932.508532
 20
-718.737201
 30
0.0
 11
932.508532
 21
-798.737201
 31
0.0
  0
LINE
  8
0
  6
BYLAYER
 62
     1
 10
934.508532
 20
-798.807025
 30
0.0
 11
932.508532
 21
-798.737201
 31
0.0
  0
LINE
  8
0
  6
BYLAYER
 62
     1
 10
932.508532
 20
-663.737201
 30
0.0
 11
930.008532
 21
-663.737201
 31
0.0
  0
LINE
  8
0
  6
BYLAYER
 62
     1
 10
930.008532
 20
-663.737201
 30
0.0
 11
929.508532
 21
-664.237201
 31
0.0
  0
LINE
  8
0
  6
BYLAYER
 62
     1
 10
929.508532
 20
-664.237201
 30
0.0
 11
929.508532
 21
-718.737201
 31
0.0
  0
LINE
  8
0
  6
BYLAYER
 62
     1
 10
932.508532
 20
-773.737201
 30
0.0
 11
930.008532
 21
-773.737201
 31
0.0
  0
LINE
  8
0
  6
BYLAYER
 62
     1
 10
930.008532
 20
-773.737201
 30
0.0
 11
929.508532
 21
-773.237201
 31
0.0
  0
LINE
  8
0
  6
BYLAYER
 62
     1
 10
929.508532
 20
-773.237201
 30
0.0
 11
929.508532
 21
-718.737201
 31
0.0
  0
LINE
  8
0
  6
BYLAYER
 62
     1
 10
1063.008532
 20
-638.615009
 30
0.0
 11
1066.508532
 21
-638.737201
 31
0.0
  0
LINE
  8
0
  6
BYLAYER
 62
     1
 10
1066.508532
 20
-718.737201
 30
0.0
 11
1066.508532
 21
-638.737201
 31
0.0
  0
LINE
  8
0
  6
BYLAYER
 62
     1
 10
1066.508532
 20
-718.737201
 30
0.0
 11
1066.508532
 21
-798.737201
 31
0.0
  0
LINE
  8
0
  6
BYLAYER
 62
     1
 10
1064.508532
 20
-798.807025
 30
0.0
 11
1066.508532
 21
-798.737201
 31
0.0
  0
LINE
  8
0
  6
BYLAYER
 62
     1
 10
1066.508532
 20
-663.737201
 30
0.0
 11
1069.008532
 21
-663.737201
 31
0.0
  0
LINE
  8
0
  6
BYLAYER
 62
     1
 10
1069.008532
 20
-663.737201
 30
0.0
 11
1069.508532
 21
-664.237201
 31
0.0
  0
LINE
  8
0
  6
BYLAYER
 62
     1
 10
1069.508532
 20
-664.237201
 30
0.0
 11
1069.508532
 21
-718.737201
 31
0.0
  0
LINE
  8
0
  6
BYLAYER
 62
     1
 10
1066.508532
 20
-773.737201
 30
0.0
 11
1069.008532
 21
-773.737201
 31
0.0
  0
LINE
  8
0
  6
BYLAYER
 62
     1
 10
1069.008532
 20
-773.737201
 30
0.0
 11
1069.508532
 21
-773.237201
 31
0.0
  0
LINE
  8
0
  6
BYLAYER
 62
     1
 10
1069.508532
 20
-773.237201
 30
0.0
 11
1069.508532
 21
-718.737201
 31
0.0
  0
CIRCLE
  8
0
  6
BYLAYER
 62
     1
 10
999.508532
 20
-628.737201
 30
0.0
 40
31.000000
  0
LINE
  8
0
  6
BYLAYER
 62
     1
 10
1036.508532
 20
-816.737170
 30
0.0
 11
962.508532
 21
-816.737170
 31
0.0
  0
LINE
  8
0
  6
BYLAYER
 62
     1
 10
441.008578
 20
-638.737232
 30
0.0
 11
441.008578
 21
-718.737231
 31
0.0
  0
ARC
  8
0
  6
BYLAYER
 62
     1
 10
449.008578
 20
-640.737232
 30
0.0
 40
2.000000
 50
0.0
 51
90.0
  0
ARC
  8
0
  6
BYLAYER
 62
     1
 10
453.008578
 20
-661.737232
 30
0.0
 40
2.000000
 50
180.000000
 51
270.000000
  0
LINE
  8
0
  6
BYLAYER
 62
     1
 10
441.008578
 20
-638.737232
 30
0.0
 11
449.008578
 21
-638.737232
 31
0.0
  0
LINE
  8
0
  6
BYLAYER
 62
     1
 10
453.008578
 20
-663.737232
 30
0.0
 11
484.508578
 21
-663.737232
 31
0.0
  0
LINE
  8
0
  6
BYLAYER
 62
     1
 10
489.508578
 20
-692.880089
 30
0.0
 11
489.508578
 21
-668.737232
 31
0.0
  0
ARC
  8
0
  6
BYLAYER
 62
     1
 10
491.508578
 20
-692.880089
 30
0.0
 40
2.000000
 50
180.000000
 51
270.000000
  0
ARC
  8
0
  6
BYLAYER
 62
     1
 10
484.508578
 20
-668.737232
 30
0.0
 40
5.000000
 50
0.0
 51
90.0
  0
LINE
  8
0
  6
BYLAYER
 62
     1
 10
451.008578
 20
-640.737232
 30
0.0
 11
451.008578
 21
-718.737231
 31
0.0
  0
LINE
  8
0
  6
BYLAYER
 62
     1
 10
483.520578
 20
-651.062736
 30
0.0
 11
453.148578
 21
-651.062736
 31
0.0
  0
ARC
  8
0
  6
BYLAYER
 62
     1
 10
453.148578
 20
-649.062736
 30
0.0
 40
2.000000
 50
180.000000
 51
270.000000
  0
ARC
  8
0
  6
BYLAYER
 62
     1
 10
483.520578
 20
-649.062736
 30
0.0
 40
2.000000
 50
270.0
 51
360.0
  0
ARC
  8
0
  6
BYLAYER
 62
     1
 10
488.008578
 20
-620.737232
 30
0.0
 40
2.000000
 50
90.0
 51
180.0
  0
LINE
  8
0
  6
BYLAYER
 62
     1
 10
498.008578
 20
-718.737231
 30
0.0
 11
498.008578
 21
-618.737232
 31
0.0
  0
LINE
  8
0
  6
BYLAYER
 62
     1
 10
498.008578
 20
-618.737232
 30
0.0
 11
488.008578
 21
-618.737232
 31
0.0
  0
LINE
  8
0
  6
BYLAYER
 62
     1
 10
486.008578
 20
-620.737232
 30
0.0
 11
486.008578
 21
-663.967535
 31
0.0
  0
LINE
  8
0
  6
BYLAYER
 62
     1
 10
441.008578
 20
-798.737231
 30
0.0
 11
441.008578
 21
-718.737231
 31
0.0
  0
ARC
  8
0
  6
BYLAYER
 62
     1
 10
449.008578
 20
-796.737231
 30
0.0
 40
2.000000
 50
270.0
 51
360.0
  0
ARC
  8
0
  6
BYLAYER
 62
     1
 10
453.008578
 20
-775.737231
 30
0.0
 40
2.0
 50
90.0
 51
180.0
  0
LINE
  8
0
  6
BYLAYER
 62
     1
 10
441.008578
 20
-798.737231
 30
0.0
 11
449.008578
 21
-798.737231
 31
0.0
  0
LINE
  8
0
  6
BYLAYER
 62
     1
 10
453.008578
 20
-773.737231
 30
0.0
 11
484.508578
 21
-773.737231
 31
0.0
  0
LINE
  8
0
  6
BYLAYER
 62
     1
 10
489.508578
 20
-744.594374
 30
0.0
 11
489.508578
 21
-768.737231
 31
0.0
  0
ARC
  8
0
  6
BYLAYER
 62
     1
 10
491.508578
 20
-744.594374
 30
0.0
 40
2.000000
 50
90.0
 51
180.0
  0
ARC
  8
0
  6
BYLAYER
 62
     1
 10
484.508578
 20
-768.737231
 30
0.0
 40
5.000000
 50
270.0
 51
360.0
  0
LINE
  8
0
  6
BYLAYER
 62
     1
 10
451.008578
 20
-796.737231
 30
0.0
 11
451.008578
 21
-718.737231
 31
0.0
  0
LINE
  8
0
  6
BYLAYER
 62
     1
 10
483.520578
 20
-786.411727
 30
0.0
 11
453.148578
 21
-786.411727
 31
0.0
  0
ARC
  8
0
  6
BYLAYER
 62
     1
 10
453.148578
 20
-788.411727
 30
0.0
 40
2.000000
 50
90.0
 51
180.0
  0
ARC
  8
0
  6
BYLAYER
 62
     1
 10
483.520578
 20
-788.411727
 30
0.0
 40
2.000000
 50
0.0
 51
90.0
  0
ARC
  8
0
  6
BYLAYER
 62
     1
 10
488.008578
 20
-816.737231
 30
0.0
 40
2.000000
 50
180.000000
 51
270.000000
  0
LINE
  8
0
  6
BYLAYER
 62
     1
 10
498.008578
 20
-718.737231
 30
0.0
 11
498.008578
 21
-818.737231
 31
0.0
  0
LINE
  8
0
  6
BYLAYER
 62
     1
 10
498.008578
 20
-818.737231
 30
0.0
 11
488.008578
 21
-818.737231
 31
0.0
  0
LINE
  8
0
  6
BYLAYER
 62
     1
 10
486.008578
 20
-816.737231
 30
0.0
 11
486.008578
 21
-773.506928
 31
0.0
  0
LINE
  8
0
  6
BYLAYER
 62
     1
 10
429.008578
 20
-718.737231
 30
0.0
 11
429.008578
 21
-798.317679
 31
0.0
  0
LINE
  8
0
  6
BYLAYER
 62
     1
 10
441.008578
 20
-718.737231
 30
0.0
 11
441.008578
 21
-638.737217
 31
0.0
  0
LINE
  8
0
  6
BYLAYER
 62
     1
 10
429.008578
 20
-639.156266
 30
0.0
 11
429.008578
 21
-718.737231
 31
0.0
  0
LINE
  8
0
  6
BYLAYER
 62
     1
 10
441.008578
 20
-798.737217
 30
0.0
 11
441.008578
 21
-718.737231
 31
0.0
  0
LINE
  8
0
  6
BYLAYER
 62
     1
 10
441.008578
 20
-638.737217
 30
0.0
 11
429.008578
 21
-639.156266
 31
0.0
  0
LINE
  8
0
  6
BYLAYER
 62
     1
 10
429.008578
 20
-798.317679
 30
0.0
 11
441.008578
 21
-798.736729
 31
0.0
  0
LINE
  8
0
  6
BYLAYER
 62
     1
 10
419.029056
 20
-653.785328
 30
0.0
 11
412.750766
 21
-666.087023
 31
0.0
  0
LINE
  8
0
  6
BYLAYER
 62
     1
 10
419.029056
 20
-718.737231
 30
0.0
 11
419.029056
 21
-641.158130
 31
0.0
  0
LINE
  8
0
  6
BYLAYER
 62
     1
 10
429.008578
 20
-638.737246
 30
0.0
 11
429.008578
 21
-718.737231
 31
0.0
  0
LINE
  8
0
  6
BYLAYER
 62
     1
 10
420.924380
 20
-639.160938
 30
0.0
 11
429.008578
 21
-638.737246
 31
0.0
  0
ARC
  8
0
  6
BYLAYER
 62
     1
 10
418.029056
 20
-661.609637
 30
0.0
 40
0.999972
 50
302.000007
 51
360.000000
  0
LINE
  8
0
  6
BYLAYER
 62
     1
 10
404.508548
 20
-671.237354
 30
0.0
 11
418.558963
 21
-662.457660
 31
0.0
  0
LINE
  8
0
  6
BYLAYER
 62
     1
 10
404.508578
 20
-671.237354
 30
0.0
 11
404.508471
 21
-718.737231
 31
0.0
  0
ARC
  8
0
  6
BYLAYER
 62
     1
 10
421.029056
 20
-641.158130
 30
0.0
 40
1.999969
 50
93.000028
 51
180.000000
  0
LINE
  8
0
  6
BYLAYER
 62
     1
 10
419.029056
 20
-783.689136
 30
0.0
 11
412.750766
 21
-771.387439
 31
0.0
  0
LINE
  8
0
  6
BYLAYER
 62
     1
 10
419.029056
 20
-718.737231
 30
0.0
 11
419.029056
 21
-796.316334
 31
0.0
  0
LINE
  8
0
  6
BYLAYER
 62
     1
 10
429.008578
 20
-798.737217
 30
0.0
 11
429.008578
 21
-718.737231
 31
0.0
  0
LINE
  8
0
  6
BYLAYER
 62
     1
 10
420.924380
 20
-798.313526
 30
0.0
 11
429.008578
 21
-798.737217
 31
0.0
  0
ARC
  8
0
  6
BYLAYER
 62
     1
 10
418.029056
 20
-775.864826
 30
0.0
 40
0.999972
 50
0.0
 51
57.999993
  0
LINE
  8
0
  6
BYLAYER
 62
     1
 10
404.508548
 20
-766.237110
 30
0.0
 11
418.558963
 21
-775.016804
 31
0.0
  0
LINE
  8
0
  6
BYLAYER
 62
     1
 10
404.508578
 20
-766.237110
 30
0.0
 11
404.508471
 21
-718.737231
 31
0.0
  0
ARC
  8
0
  6
BYLAYER
 62
     1
 10
421.029056
 20
-796.316334
 30
0.0
 40
1.999969
 50
180.000000
 51
266.999972
  0
LINE
  8
0
  6
BYLAYER
 62
     1
 10
246.508471
 20
-783.737201
 30
0.0
 11
196.508471
 21
-783.737201
 31
0.0
  0
LINE
  8
0
  6
BYLAYER
 62
     1
 10
246.508471
 20
-783.737201
 30
0.0
 11
248.008471
 21
-782.237201
 31
0.0
  0
LINE
  8
0
  6
BYLAYER
 62
     1
 10
196.508471
 20
-653.737201
 30
0.0
 11
246.508471
 21
-653.737201
 31
0.0
  0
LINE
  8
0
  6
BYLAYER
 62
     1
 10
246.508471
 20
-755.737201
 30
0.0
 11
246.508471
 21
-783.737201
 31
0.0
  0
LINE
  8
0
  6
BYLAYER
 62
     1
 10
246.508471
 20
-681.737201
 30
0.0
 11
246.508471
 21
-653.737201
 31
0.0
  0
LINE
  8
0
  6
BYLAYER
 62
     1
 10
248.008471
 20
-681.737201
 30
0.0
 11
248.008471
 21
-655.237201
 31
0.0
  0
LINE
  8
0
  6
BYLAYER
 62
     1
 10
402.508471
 20
-653.737201
 30
0.0
 11
402.508471
 21
-681.737201
 31
0.0
  0
LINE
  8
0
  6
BYLAYER
 62
     1
 10
402.508471
 20
-653.737201
 30
0.0
 11
352.508532
 21
-653.737201
 31
0.0
  0
LINE
  8
0
  6
BYLAYER
 62
     1
 10
351.008532
 20
-681.737201
 30
0.0
 11
351.008532
 21
-655.237201
 31
0.0
  0
LINE
  8
0
  6
BYLAYER
 62
     1
 10
352.508532
 20
-681.737201
 30
0.0
 11
352.508532
 21
-653.737201
 31
0.0
  0
LINE
  8
0
  6
BYLAYER
 62
     1
 10
402.508471
 20
-783.737201
 30
0.0
 11
402.508471
 21
-755.737201
 31
0.0
  0
LINE
  8
0
  6
BYLAYER
 62
     1
 10
352.508532
 20
-783.737201
 30
0.0
 11
402.508471
 21
-783.737201
 31
0.0
  0
LINE
  8
0
  6
BYLAYER
 62
     1
 10
352.508532
 20
-755.737201
 30
0.0
 11
352.508532
 21
-783.737201
 31
0.0
  0
LINE
  8
0
  6
BYLAYER
 62
     1
 10
352.508532
 20
-783.737201
 30
0.0
 11
351.008532
 21
-782.237201
 31
0.0
  0
CIRCLE
  8
0
  6
BYLAYER
 62
     1
 10
369.508532
 20
-768.737201
 30
0.0
 40
6.5
  0
CIRCLE
  8
0
  6
BYLAYER
 62
     1
 10
369.508532
 20
-668.737201
 30
0.0
 40
6.5
  0
LINE
  8
0
  6
BYLAYER
 62
     1
 10
351.008532
 20
-782.237201
 30
0.0
 11
248.008471
 21
-782.237201
 31
0.0
  0
LINE
  8
0
  6
BYLAYER
 62
     1
 10
196.508471
 20
-653.737201
 30
0.0
 11
196.508471
 21
-783.737201
 31
0.0
  0
ARC
  8
0
  6
BYLAYER
 62
     1
 10
226.508471
 20
-753.737201
 30
0.0
 40
2.0
 50
180.000000
 51
269.999996
  0
ARC
  8
0
  6
BYLAYER
 62
     1
 10
226.508471
 20
-683.737201
 30
0.0
 40
1.999939
 50
90.0
 51
180.000003
  0
ARC
  8
0
  6
BYLAYER
 62
     1
 10
372.508532
 20
-753.737201
 30
0.0
 40
2.0
 50
270.0
 51
359.999982
  0
ARC
  8
0
  6
BYLAYER
 62
     1
 10
372.508532
 20
-683.737201
 30
0.0
 40
1.999939
 50
0.0
 51
90.000016
  0
LINE
  8
0
  6
BYLAYER
 62
     1
 10
402.508471
 20
-671.737262
 30
0.0
 11
404.508471
 21
-671.737262
 31
0.0
  0
LINE
  8
0
  6
BYLAYER
 62
     1
 10
402.508471
 20
-765.737201
 30
0.0
 11
404.508471
 21
-765.737201
 31
0.0
  0
LINE
  8
0
  6
BYLAYER
 62
     1
 10
404.508471
 20
-671.737262
 30
0.0
 11
404.508471
 21
-765.737201
 31
0.0
  0
CIRCLE
  8
0
  6
BYLAYER
 62
     1
 10
354.508471
 20
-718.737201
 30
0.0
 40
7.0
  0
ARC
  8
0
  6
BYLAYER
 62
     1
 10
225.508471
 20
-716.737201
 30
0.0
 40
1.0
 50
180.000000
 51
269.999996
  0
ARC
  8
0
  6
BYLAYER
 62
     1
 10
225.508471
 20
-720.737201
 30
0.0
 40
1.000000
 50
90.0
 51
180.000003
  0
ARC
  8
0
  6
BYLAYER
 62
     1
 10
225.508471
 20
-706.737201
 30
0.0
 40
1.0
 50
180.000000
 51
269.999996
  0
ARC
  8
0
  6
BYLAYER
 62
     1
 10
225.508471
 20
-710.737201
 30
0.0
 40
1.000000
 50
90.0
 51
180.000003
  0
ARC
  8
0
  6
BYLAYER
 62
     1
 10
225.508471
 20
-696.737201
 30
0.0
 40
1.0
 50
180.000000
 51
269.999996
  0
ARC
  8
0
  6
BYLAYER
 62
     1
 10
225.508471
 20
-700.737201
 30
0.0
 40
1.000000
 50
90.0
 51
180.000003
  0
ARC
  8
0
  6
BYLAYER
 62
     1
 10
225.508471
 20
-686.737201
 30
0.0
 40
1.0
 50
180.000000
 51
269.999996
  0
ARC
  8
0
  6
BYLAYER
 62
     1
 10
225.508471
 20
-690.737201
 30
0.0
 40
1.000000
 50
90.0
 51
180.000003
  0
ARC
  8
0
  6
BYLAYER
 62
     1
 10
225.508471
 20
-726.737201
 30
0.0
 40
1.0
 50
180.000000
 51
269.999996
  0
ARC
  8
0
  6
BYLAYER
 62
     1
 10
225.508471
 20
-736.737201
 30
0.0
 40
1.0
 50
180.000000
 51
269.999996
  0
ARC
  8
0
  6
BYLAYER
 62
     1
 10
225.508471
 20
-746.737201
 30
0.0
 40
1.000000
 50
180.000000
 51
269.999996
  0
ARC
  8
0
  6
BYLAYER
 62
     1
 10
225.508471
 20
-730.737201
 30
0.0
 40
1.000000
 50
90.0
 51
180.000003
  0
ARC
  8
0
  6
BYLAYER
 62
     1
 10
225.508471
 20
-740.737201
 30
0.0
 40
1.000000
 50
90.0
 51
180.000003
  0
ARC
  8
0
  6
BYLAYER
 62
     1
 10
225.508471
 20
-750.737201
 30
0.0
 40
1.000000
 50
90.0
 51
180.000003
  0
ARC
  8
0
  6
BYLAYER
 62
     1
 10
373.508532
 20
-736.737201
 30
0.0
 40
1.000000
 50
270.0
 51
360.000003
  0
ARC
  8
0
  6
BYLAYER
 62
     1
 10
373.508532
 20
-740.737201
 30
0.0
 40
1.0
 50
0.0
 51
90.000003
  0
ARC
  8
0
  6
BYLAYER
 62
     1
 10
373.508532
 20
-746.737201
 30
0.0
 40
1.000000
 50
270.0
 51
360.000003
  0
ARC
  8
0
  6
BYLAYER
 62
     1
 10
373.508532
 20
-750.737201
 30
0.0
 40
1.0
 50
0.0
 51
90.000003
  0
ARC
  8
0
  6
BYLAYER
 62
     1
 10
373.508532
 20
-696.737262
 30
0.0
 40
1.000000
 50
270.0
 51
360.000003
  0
ARC
  8
0
  6
BYLAYER
 62
     1
 10
373.508532
 20
-700.737262
 30
0.0
 40
1.0
 50
0.0
 51
90.000003
  0
ARC
  8
0
  6
BYLAYER
 62
     1
 10
373.508532
 20
-686.737262
 30
0.0
 40
1.000000
 50
270.0
 51
360.000003
  0
ARC
  8
0
  6
BYLAYER
 62
     1
 10
373.508532
 20
-690.737262
 30
0.0
 40
1.0
 50
0.0
 51
90.000003
  0
LINE
  8
0
  6
BYLAYER
 62
     1
 10
196.508471
 20
-681.737201
 30
0.0
 11
402.508471
 21
-681.737201
 31
0.0
  0
LINE
  8
0
  6
BYLAYER
 62
     1
 10
402.508471
 20
-755.737201
 30
0.0
 11
196.508471
 21
-755.737201
 31
0.0
  0
LINE
  8
0
  6
BYLAYER
 62
     1
 10
351.008532
 20
-755.737201
 30
0.0
 11
351.008532
 21
-782.237201
 31
0.0
  0
LINE
  8
0
  6
BYLAYER
 62
     1
 10
248.008471
 20
-755.737201
 30
0.0
 11
248.008471
 21
-782.237201
 31
0.0
  0
CIRCLE
  8
0
  6
BYLAYER
 62
     1
 10
229.508471
 20
-768.737201
 30
0.0
 40
6.5
  0
CIRCLE
  8
0
  6
BYLAYER
 62
     1
 10
229.508471
 20
-668.737201
 30
0.0
 40
6.5
  0
CIRCLE
  8
0
  6
BYLAYER
 62
     1
 10
229.508471
 20
-668.737201
 30
0.0
 40
6.5
  0
CIRCLE
  8
0
  6
BYLAYER
 62
     1
 10
354.508471
 20
-718.737201
 30
0.0
 40
12.0
  0
LINE
  8
0
  6
BYLAYER
 62
     1
 10
374.508532
 20
-683.737201
 30
0.0
 11
374.508532
 21
-688.737201
 31
0.0
  0
LINE
  8
0
  6
BYLAYER
 62
     1
 10
374.508532
 20
-718.737201
 30
0.0
 11
374.508532
 21
-698.737201
 31
0.0
  0
LINE
  8
0
  6
BYLAYER
 62
     1
 10
374.508532
 20
-698.737201
 30
0.0
 11
374.508532
 21
-688.737201
 31
0.0
  0
LINE
  8
0
  6
BYLAYER
 62
     1
 10
374.508532
 20
-738.737201
 30
0.0
 11
374.508532
 21
-718.737201
 31
0.0
  0
LINE
  8
0
  6
BYLAYER
 62
     1
 10
374.508532
 20
-748.737201
 30
0.0
 11
374.508532
 21
-738.737201
 31
0.0
  0
LINE
  8
0
  6
BYLAYER
 62
     1
 10
374.508532
 20
-748.737201
 30
0.0
 11
374.508532
 21
-753.737201
 31
0.0
  0
LINE
  8
0
  6
BYLAYER
 62
     1
 10
224.508471
 20
-683.737201
 30
0.0
 11
224.508471
 21
-688.737201
 31
0.0
  0
LINE
  8
0
  6
BYLAYER
 62
     1
 10
224.508471
 20
-698.737201
 30
0.0
 11
224.508471
 21
-688.737201
 31
0.0
  0
LINE
  8
0
  6
BYLAYER
 62
     1
 10
224.508471
 20
-708.737262
 30
0.0
 11
224.508471
 21
-698.737201
 31
0.0
  0
LINE
  8
0
  6
BYLAYER
 62
     1
 10
224.508471
 20
-718.737201
 30
0.0
 11
224.508471
 21
-708.737262
 31
0.0
  0
LINE
  8
0
  6
BYLAYER
 62
     1
 10
224.508471
 20
-728.737201
 30
0.0
 11
224.508471
 21
-718.737201
 31
0.0
  0
LINE
  8
0
  6
BYLAYER
 62
     1
 10
224.508471
 20
-738.737201
 30
0.0
 11
224.508471
 21
-728.737201
 31
0.0
  0
LINE
  8
0
  6
BYLAYER
 62
     1
 10
224.508471
 20
-748.737201
 30
0.0
 11
224.508471
 21
-738.737201
 31
0.0
  0
LINE
  8
0
  6
BYLAYER
 62
     1
 10
224.508471
 20
-748.737201
 30
0.0
 11
224.508471
 21
-753.737201
 31
0.0
  0
LINE
  8
0
  6
BYLAYER
 62
     1
 10
248.008410
 20
-655.237201
 30
0.0
 11
351.008593
 21
-655.237201
 31
0.0
  0
LINE
  8
0
  6
BYLAYER
 62
     1
 10
246.508471
 20
-653.737201
 30
0.0
 11
248.008410
 21
-655.237201
 31
0.0
  0
LINE
  8
0
  6
BYLAYER
 62
     1
 10
352.508532
 20
-653.737201
 30
0.0
 11
351.008593
 21
-655.237201
 31
0.0
  0
LINE
  8
0
  6
BYLAYER
 62
     1
 10
351.008532
 20
-655.237201
 30
0.0
 11
248.008410
 21
-655.237201
 31
0.0
  0
LINE
  8
0
  6
BYLAYER
 62
     1
 10
299.508532
 20
-651.737201
 30
0.0
 11
219.508532
 21
-651.737201
 31
0.0
  0
LINE
  8
0
  6
BYLAYER
 62
     1
 10
352.508593
 20
-653.737201
 30
0.0
 11
351.008654
 21
-655.237201
 31
0.0
  0
LINE
  8
0
  6
BYLAYER
 62
     1
 10
299.508532
 20
-651.737201
 30
0.0
 11
379.508532
 21
-651.737201
 31
0.0
  0
LINE
  8
0
  6
BYLAYER
 62
     1
 10
219.438708
 20
-653.737201
 30
0.0
 11
219.508532
 21
-651.737201
 31
0.0
  0
LINE
  8
0
  6
BYLAYER
 62
     1
 10
379.578356
 20
-653.737201
 30
0.0
 11
379.508532
 21
-651.737201
 31
0.0
  0
LINE
  8
0
  6
BYLAYER
 62
     1
 10
245.008532
 20
-648.737201
 30
0.0
 11
244.508532
 21
-649.237201
 31
0.0
  0
LINE
  8
0
  6
BYLAYER
 62
     1
 10
244.508532
 20
-649.237201
 30
0.0
 11
244.508532
 21
-651.737201
 31
0.0
  0
LINE
  8
0
  6
BYLAYER
 62
     1
 10
245.008532
 20
-648.737201
 30
0.0
 11
354.008532
 21
-648.737201
 31
0.0
  0
LINE
  8
0
  6
BYLAYER
 62
     1
 10
354.008532
 20
-648.737201
 30
0.0
 11
354.508532
 21
-649.237201
 31
0.0
  0
LINE
  8
0
  6
BYLAYER
 62
     1
 10
354.508532
 20
-649.237201
 30
0.0
 11
354.508532
 21
-651.737201
 31
0.0
  0
LINE
  8
0
  6
BYLAYER
 62
     1
 10
299.508532
 20
-785.737201
 30
0.0
 11
219.508532
 21
-785.737201
 31
0.0
  0
LINE
  8
0
  6
BYLAYER
 62
     1
 10
299.508532
 20
-785.737201
 30
0.0
 11
379.508532
 21
-785.737201
 31
0.0
  0
LINE
  8
0
  6
BYLAYER
 62
     1
 10
219.438708
 20
-783.737201
 30
0.0
 11
219.508532
 21
-785.737201
 31
0.0
  0
LINE
  8
0
  6
BYLAYER
 62
     1
 10
379.578356
 20
-783.737201
 30
0.0
 11
379.508532
 21
-785.737201
 31
0.0
  0
LINE
  8
0
  6
BYLAYER
 62
     1
 10
245.008532
 20
-788.737201
 30
0.0
 11
244.508532
 21
-788.237201
 31
0.0
  0
LINE
  8
0
  6
BYLAYER
 62
     1
 10
244.508532
 20
-788.237201
 30
0.0
 11
244.508532
 21
-785.737201
 31
0.0
  0
LINE
  8
0
  6
BYLAYER
 62
     1
 10
245.008532
 20
-788.737201
 30
0.0
 11
354.008532
 21
-788.737201
 31
0.0
  0
LINE
  8
0
  6
BYLAYER
 62
     1
 10
354.008532
 20
-788.737201
 30
0.0
 11
354.508532
 21
-788.237201
 31
0.0
  0
LINE
  8
0
  6
BYLAYER
 62
     1
 10
354.508532
 20
-788.237201
 30
0.0
 11
354.508532
 21
-785.737201
 31
0.0
  0
ARC
  8
0
  6
BYLAYER
 62
     1
 10
262.104536
 20
-738.737201
 30
0.0
 40
1.000000
 50
270.0
 51
450.000005
  0
ARC
  8
0
  6
BYLAYER
 62
     1
 10
262.104536
 20
-748.737201
 30
0.0
 40
1.0
 50
270.0
 51
450.000005
  0
LINE
  8
0
  6
BYLAYER
 62
     1
 10
262.104536
 20
-747.737201
 30
0.0
 11
225.508471
 21
-747.737262
 31
0.0
  0
LINE
  8
0
  6
BYLAYER
 62
     1
 10
262.104536
 20
-749.737201
 30
0.0
 11
225.508471
 21
-749.737262
 31
0.0
  0
LINE
  8
0
  6
BYLAYER
 62
     1
 10
262.104536
 20
-737.737201
 30
0.0
 11
225.508471
 21
-737.737262
 31
0.0
  0
LINE
  8
0
  6
BYLAYER
 62
     1
 10
262.104536
 20
-739.737201
 30
0.0
 11
225.508471
 21
-739.737262
 31
0.0
  0
ARC
  8
0
  6
BYLAYER
 62
     1
 10
262.104536
 20
-698.737201
 30
0.0
 40
1.0
 50
270.0
 51
450.000005
  0
ARC
  8
0
  6
BYLAYER
 62
     1
 10
262.104536
 20
-688.737201
 30
0.0
 40
1.0
 50
270.0
 51
450.000005
  0
LINE
  8
0
  6
BYLAYER
 62
     1
 10
262.104536
 20
-687.737201
 30
0.0
 11
225.508471
 21
-687.737201
 31
0.0
  0
LINE
  8
0
  6
BYLAYER
 62
     1
 10
262.104536
 20
-689.737201
 30
0.0
 11
225.508471
 21
-689.737201
 31
0.0
  0
LINE
  8
0
  6
BYLAYER
 62
     1
 10
262.104536
 20
-697.737201
 30
0.0
 11
225.508471
 21
-697.737201
 31
0.0
  0
LINE
  8
0
  6
BYLAYER
 62
     1
 10
262.104536
 20
-699.737201
 30
0.0
 11
225.508471
 21
-699.737201
 31
0.0
  0
ARC
  8
0
  6
BYLAYER
 62
     1
 10
266.518636
 20
-718.737262
 30
0.0
 40
1.0
 50
270.0
 51
450.000005
  0
LINE
  8
0
  6
BYLAYER
 62
     1
 10
225.508471
 20
-717.737201
 30
0.0
 11
266.518636
 21
-717.737262
 31
0.0
  0
LINE
  8
0
  6
BYLAYER
 62
     1
 10
225.508471
 20
-719.737201
 30
0.0
 11
266.518636
 21
-719.737262
 31
0.0
  0
ARC
  8
0
  6
BYLAYER
 62
     1
 10
268.518636
 20
-708.737262
 30
0.0
 40
1.0
 50
270.0
 51
450.000005
  0
LINE
  8
0
  6
BYLAYER
 62
     1
 10
225.508471
 20
-707.737201
 30
0.0
 11
268.518636
 21
-707.737262
 31
0.0
  0
LINE
  8
0
  6
BYLAYER
 62
     1
 10
225.508471
 20
-709.737201
 30
0.0
 11
268.518636
 21
-709.737262
 31
0.0
  0
ARC
  8
0
  6
BYLAYER
 62
     1
 10
268.518636
 20
-728.737201
 30
0.0
 40
1.000000
 50
270.0
 51
450.000005
  0
LINE
  8
0
  6
BYLAYER
 62
     1
 10
225.508471
 20
-729.737262
 30
0.0
 11
268.518636
 21
-729.737201
 31
0.0
  0
LINE
  8
0
  6
BYLAYER
 62
     1
 10
225.508471
 20
-727.737262
 30
0.0
 11
268.518636
 21
-727.737201
 31
0.0
  0
ARC
  8
0
  6
BYLAYER
 62
     1
 10
335.122663
 20
-738.737201
 30
0.0
 40
1.000000
 50
90.0
 51
270.000005
  0
ARC
  8
0
  6
BYLAYER
 62
     1
 10
335.122663
 20
-748.737201
 30
0.0
 40
1.0
 50
90.0
 51
270.000005
  0
LINE
  8
0
  6
BYLAYER
 62
     1
 10
373.508532
 20
-747.737201
 30
0.0
 11
335.122663
 21
-747.737262
 31
0.0
  0
LINE
  8
0
  6
BYLAYER
 62
     1
 10
373.508532
 20
-749.737201
 30
0.0
 11
335.122663
 21
-749.737262
 31
0.0
  0
LINE
  8
0
  6
BYLAYER
 62
     1
 10
373.508532
 20
-737.737201
 30
0.0
 11
335.122663
 21
-737.737262
 31
0.0
  0
ARC
  8
0
  6
BYLAYER
 62
     1
 10
335.122663
 20
-698.737201
 30
0.0
 40
1.0
 50
90.0
 51
270.000005
  0
ARC
  8
0
  6
BYLAYER
 62
     1
 10
335.122663
 20
-688.737201
 30
0.0
 40
1.0
 50
90.0
 51
270.000005
  0
LINE
  8
0
  6
BYLAYER
 62
     1
 10
373.508532
 20
-697.737262
 30
0.0
 11
335.122663
 21
-697.737201
 31
0.0
  0
LINE
  8
0
  6
BYLAYER
 62
     1
 10
373.508532
 20
-699.737262
 30
0.0
 11
335.122663
 21
-699.737201
 31
0.0
  0
LINE
  8
0
  6
BYLAYER
 62
     1
 10
335.122663
 20
-739.737262
 30
0.0
 11
373.508532
 21
-739.737201
 31
0.0
  0
LINE
  8
0
  6
BYLAYER
 62
     1
 10
335.122663
 20
-687.737201
 30
0.0
 11
373.508532
 21
-687.737201
 31
0.0
  0
LINE
  8
0
  6
BYLAYER
 62
     1
 10
335.122663
 20
-689.737201
 30
0.0
 11
373.508532
 21
-689.737201
 31
0.0
  0
ENDSEC
  0
EOF
