  0
SECTION
  2
HEADER
  9
$EXTMIN
 10
229.638225
 20
756.0
 30
0.0
  9
$EXTMAX
 10
957.255973
 20
-2.580205
 30
0.0
  0
ENDSEC
  0
SECTION
  2
TABLES
  0
ENDSEC
  0
SECTION
  2
BLOCKS
  0
ENDSEC
  0
SECTION
  2
ENTITIES
  0
LINE
  8
0
  6
BYLAYER
 62
     7
 10
512.155290
 20
-237.522184
 30
0.0
 11
512.155290
 21
-141.522184
 31
0.0
  0
LINE
  8
0
  6
BYLAYER
 62
     7
 10
512.155290
 20
-241.522184
 30
0.0
 11
512.155290
 21
-237.522184
 31
0.0
  0
LINE
  8
0
  6
BYLAYER
 62
     7
 10
512.155290
 20
-141.522184
 30
0.0
 11
512.155290
 21
-41.522184
 31
0.0
  0
LINE
  8
0
  6
BYLAYER
 62
     7
 10
512.155290
 20
-73.146803
 30
0.0
 11
512.155290
 21
-65.022184
 31
0.0
  0
LINE
  8
0
  6
BYLAYER
 62
     7
 10
500.155290
 20
-41.522184
 30
0.0
 11
512.155290
 21
-41.522184
 31
0.0
  0
LINE
  8
0
  6
BYLAYER
 62
     7
 10
500.155290
 20
-241.522184
 30
0.0
 11
512.155290
 21
-241.522184
 31
0.0
  0
LINE
  8
0
  6
BYLAYER
 62
     7
 10
532.155290
 20
-215.574631
 30
0.0
 11
532.155290
 21
-215.845824
 31
0.0
  0
LINE
  8
0
  6
BYLAYER
 62
     7
 10
532.155290
 20
-209.057096
 30
0.0
 11
532.155290
 21
-218.022184
 31
0.0
  0
LINE
  8
0
  6
BYLAYER
 62
     7
 10
532.155290
 20
-218.022184
 30
0.0
 11
512.155290
 21
-218.429432
 31
0.0
  0
LINE
  8
0
  6
BYLAYER
 62
     7
 10
533.655290
 20
-209.030912
 30
0.0
 11
532.155290
 21
-209.057096
 31
0.0
  0
LINE
  8
0
  6
BYLAYER
 62
     7
 10
512.646563
 20
-73.646726
 30
0.0
 11
533.655290
 21
-74.013456
 31
0.0
  0
ARC
  8
0
  6
BYLAYER
 62
     7
 10
512.655290
 20
-73.146803
 30
0.0
 40
0.500000
 50
180.000000
 51
268.999943
  0
LINE
  8
0
  6
BYLAYER
 62
     7
 10
533.655290
 20
-74.013456
 30
0.0
 11
533.655290
 21
-209.030912
 31
0.0
  0
LINE
  8
0
  6
BYLAYER
 62
     7
 10
500.155290
 20
-141.522184
 30
0.0
 11
500.155290
 21
-241.522184
 31
0.0
  0
LINE
  8
0
  6
BYLAYER
 62
     7
 10
500.155290
 20
-141.522184
 30
0.0
 11
500.155290
 21
-41.522184
 31
0.0
  0
LINE
  8
0
  6
BYLAYER
 62
     7
 10
542.955217
 20
-58.022245
 30
0.0
 11
537.155168
 21
-58.022245
 31
0.0
  0
ARC
  8
0
  6
BYLAYER
 62
     7
 10
542.955217
 20
-59.522245
 30
0.0
 40
1.5
 50
0.0
 51
90.000003
  0
ARC
  8
0
  6
BYLAYER
 62
     7
 10
572.355242
 20
-59.522245
 30
0.0
 40
1.5
 50
90.0
 51
180.000003
  0
LINE
  8
0
  6
BYLAYER
 62
     7
 10
581.955217
 20
-58.022245
 30
0.0
 11
572.355242
 21
-58.022245
 31
0.0
  0
ARC
  8
0
  6
BYLAYER
 62
     7
 10
581.955217
 20
-59.522245
 30
0.0
 40
1.5
 50
0.0
 51
90.000003
  0
LINE
  8
0
  6
BYLAYER
 62
     7
 10
617.155229
 20
-58.022184
 30
0.0
 11
611.355242
 21
-58.022184
 31
0.0
  0
ARC
  8
0
  6
BYLAYER
 62
     7
 10
611.355242
 20
-59.522184
 30
0.0
 40
1.5
 50
90.0
 51
180.000003
  0
ARC
  8
0
  6
BYLAYER
 62
     7
 10
557.655229
 20
-67.022184
 30
0.0
 40
13.200012
 50
180.000000
 51
359.999995
  0
ARC
  8
0
  6
BYLAYER
 62
     7
 10
596.655229
 20
-67.022184
 30
0.0
 40
13.200012
 50
180.000000
 51
359.999995
  0
LINE
  8
0
  6
BYLAYER
 62
     7
 10
537.155168
 20
-63.522245
 30
0.0
 11
542.955217
 21
-63.522245
 31
0.0
  0
LINE
  8
0
  6
BYLAYER
 62
     7
 10
544.455217
 20
-59.522245
 30
0.0
 11
544.455217
 21
-65.022245
 31
0.0
  0
LINE
  8
0
  6
BYLAYER
 62
     7
 10
544.455217
 20
-65.022245
 30
0.0
 11
544.455217
 21
-67.022184
 31
0.0
  0
ARC
  8
0
  6
BYLAYER
 62
     7
 10
542.955217
 20
-65.022245
 30
0.0
 40
1.5
 50
0.0
 51
90.000003
  0
ARC
  8
0
  6
BYLAYER
 62
     7
 10
572.355242
 20
-65.022184
 30
0.0
 40
1.5
 50
90.0
 51
180.000003
  0
LINE
  8
0
  6
BYLAYER
 62
     7
 10
572.355242
 20
-63.522184
 30
0.0
 11
581.955217
 21
-63.522184
 31
0.0
  0
LINE
  8
0
  6
BYLAYER
 62
     7
 10
583.455217
 20
-59.522245
 30
0.0
 11
583.455217
 21
-65.022184
 31
0.0
  0
LINE
  8
0
  6
BYLAYER
 62
     7
 10
583.455217
 20
-65.022184
 30
0.0
 11
583.455217
 21
-67.022184
 31
0.0
  0
ARC
  8
0
  6
BYLAYER
 62
     7
 10
581.955217
 20
-65.022184
 30
0.0
 40
1.5
 50
0.0
 51
90.000003
  0
LINE
  8
0
  6
BYLAYER
 62
     7
 10
609.855242
 20
-67.022184
 30
0.0
 11
609.855242
 21
-65.022184
 31
0.0
  0
LINE
  8
0
  6
BYLAYER
 62
     7
 10
609.855242
 20
-65.022184
 30
0.0
 11
609.855242
 21
-59.522184
 31
0.0
  0
LINE
  8
0
  6
BYLAYER
 62
     7
 10
611.355242
 20
-63.522184
 30
0.0
 11
617.155229
 21
-63.522184
 31
0.0
  0
ARC
  8
0
  6
BYLAYER
 62
     7
 10
611.355242
 20
-65.022184
 30
0.0
 40
1.5
 50
90.0
 51
180.000003
  0
LINE
  8
0
  6
BYLAYER
 62
     7
 10
570.855242
 20
-59.522245
 30
0.0
 11
570.855242
 21
-67.022184
 31
0.0
  0
ARC
  8
0
  6
BYLAYER
 62
     7
 10
538.055254
 20
-135.547209
 30
0.0
 40
0.899994
 50
90.0
 51
269.999998
  0
LINE
  8
0
  6
BYLAYER
 62
     7
 10
538.055254
 20
-134.647215
 30
0.0
 11
652.155381
 21
-134.647215
 31
0.0
  0
LINE
  8
0
  6
BYLAYER
 62
     7
 10
538.055254
 20
-136.447203
 30
0.0
 11
652.155381
 21
-136.447203
 31
0.0
  0
ARC
  8
0
  6
BYLAYER
 62
     7
 10
538.055254
 20
-123.597227
 30
0.0
 40
0.900024
 50
90.0
 51
269.999998
  0
ARC
  8
0
  6
BYLAYER
 62
     7
 10
538.055254
 20
-111.647215
 30
0.0
 40
0.899994
 50
90.0
 51
269.999998
  0
LINE
  8
0
  6
BYLAYER
 62
     7
 10
538.055254
 20
-110.747221
 30
0.0
 11
652.155381
 21
-110.747221
 31
0.0
  0
LINE
  8
0
  6
BYLAYER
 62
     7
 10
538.055254
 20
-112.547209
 30
0.0
 11
652.155381
 21
-112.547209
 31
0.0
  0
ARC
  8
0
  6
BYLAYER
 62
     7
 10
538.055254
 20
-99.697233
 30
0.0
 40
0.900024
 50
90.0
 51
269.999998
  0
LINE
  8
0
  6
BYLAYER
 62
     7
 10
538.055254
 20
-98.797209
 30
0.0
 11
652.155381
 21
-98.797209
 31
0.0
  0
LINE
  8
0
  6
BYLAYER
 62
     7
 10
538.055254
 20
-100.597227
 30
0.0
 11
652.155381
 21
-100.597227
 31
0.0
  0
ARC
  8
0
  6
BYLAYER
 62
     7
 10
538.055254
 20
-87.747221
 30
0.0
 40
0.899994
 50
90.0
 51
269.999998
  0
LINE
  8
0
  6
BYLAYER
 62
     7
 10
538.055254
 20
-86.847227
 30
0.0
 11
652.155381
 21
-86.847227
 31
0.0
  0
LINE
  8
0
  6
BYLAYER
 62
     7
 10
538.055254
 20
-88.647215
 30
0.0
 11
652.155381
 21
-88.647215
 31
0.0
  0
ARC
  8
0
  6
BYLAYER
 62
     7
 10
538.055254
 20
-147.497221
 30
0.0
 40
0.899994
 50
90.0
 51
269.999998
  0
LINE
  8
0
  6
BYLAYER
 62
     7
 10
538.055254
 20
-146.597227
 30
0.0
 11
652.155381
 21
-146.597227
 31
0.0
  0
LINE
  8
0
  6
BYLAYER
 62
     7
 10
538.055254
 20
-148.397215
 30
0.0
 11
652.155381
 21
-148.397215
 31
0.0
  0
ARC
  8
0
  6
BYLAYER
 62
     7
 10
538.055254
 20
-159.447203
 30
0.0
 40
0.899994
 50
90.0
 51
269.999998
  0
ARC
  8
0
  6
BYLAYER
 62
     7
 10
538.055254
 20
-171.397215
 30
0.0
 40
0.899994
 50
90.0
 51
269.999998
  0
LINE
  8
0
  6
BYLAYER
 62
     7
 10
538.055254
 20
-170.497221
 30
0.0
 11
652.155381
 21
-170.497221
 31
0.0
  0
LINE
  8
0
  6
BYLAYER
 62
     7
 10
538.055254
 20
-172.297209
 30
0.0
 11
652.155381
 21
-172.297209
 31
0.0
  0
LINE
  8
0
  6
BYLAYER
 62
     7
 10
548.155290
 20
-88.647215
 30
0.0
 11
548.155290
 21
-98.797209
 31
0.0
  0
LINE
  8
0
  6
BYLAYER
 62
     7
 10
650.155290
 20
-88.647215
 30
0.0
 11
650.155290
 21
-98.797209
 31
0.0
  0
LINE
  8
0
  6
BYLAYER
 62
     7
 10
617.155229
 20
-86.847227
 30
0.0
 11
617.155229
 21
-53.522184
 31
0.0
  0
LINE
  8
0
  6
BYLAYER
 62
     7
 10
548.155290
 20
-100.597227
 30
0.0
 11
548.155290
 21
-110.747221
 31
0.0
  0
LINE
  8
0
  6
BYLAYER
 62
     7
 10
548.155290
 20
-112.547209
 30
0.0
 11
548.155290
 21
-122.697203
 31
0.0
  0
LINE
  8
0
  6
BYLAYER
 62
     7
 10
548.155290
 20
-124.497221
 30
0.0
 11
548.155290
 21
-134.647215
 31
0.0
  0
LINE
  8
0
  6
BYLAYER
 62
     7
 10
548.155290
 20
-136.447203
 30
0.0
 11
548.155290
 21
-146.597227
 31
0.0
  0
LINE
  8
0
  6
BYLAYER
 62
     7
 10
548.155290
 20
-148.397215
 30
0.0
 11
548.155290
 21
-158.547209
 31
0.0
  0
LINE
  8
0
  6
BYLAYER
 62
     7
 10
548.155290
 20
-160.347227
 30
0.0
 11
548.155290
 21
-170.497221
 31
0.0
  0
LINE
  8
0
  6
BYLAYER
 62
     7
 10
548.155290
 20
-184.247221
 30
0.0
 11
548.155290
 21
-186.611284
 31
0.0
  0
LINE
  8
0
  6
BYLAYER
 62
     7
 10
548.155290
 20
-172.297209
 30
0.0
 11
548.155290
 21
-182.447203
 31
0.0
  0
LINE
  8
0
  6
BYLAYER
 62
     7
 10
650.155290
 20
-100.597227
 30
0.0
 11
650.155290
 21
-110.747221
 31
0.0
  0
LINE
  8
0
  6
BYLAYER
 62
     7
 10
650.155290
 20
-112.547209
 30
0.0
 11
650.155290
 21
-122.697203
 31
0.0
  0
LINE
  8
0
  6
BYLAYER
 62
     7
 10
650.155290
 20
-124.497221
 30
0.0
 11
650.155290
 21
-134.647215
 31
0.0
  0
LINE
  8
0
  6
BYLAYER
 62
     7
 10
650.155290
 20
-136.447203
 30
0.0
 11
650.155290
 21
-146.597227
 31
0.0
  0
LINE
  8
0
  6
BYLAYER
 62
     7
 10
650.155290
 20
-148.397215
 30
0.0
 11
650.155290
 21
-158.547209
 31
0.0
  0
LINE
  8
0
  6
BYLAYER
 62
     7
 10
650.155290
 20
-160.347227
 30
0.0
 11
650.155290
 21
-170.497221
 31
0.0
  0
LINE
  8
0
  6
BYLAYER
 62
     7
 10
650.155290
 20
-184.247221
 30
0.0
 11
650.155290
 21
-186.611284
 31
0.0
  0
LINE
  8
0
  6
BYLAYER
 62
     7
 10
650.155290
 20
-172.297209
 30
0.0
 11
650.155290
 21
-182.447203
 31
0.0
  0
CIRCLE
  8
0
  6
BYLAYER
 62
     7
 10
571.685259
 20
-123.597227
 30
0.0
 40
3.0
  0
CIRCLE
  8
0
  6
BYLAYER
 62
     7
 10
626.685259
 20
-123.597227
 30
0.0
 40
3.0
  0
LINE
  8
0
  6
BYLAYER
 62
     7
 10
629.547075
 20
-122.697203
 30
0.0
 11
652.155381
 21
-122.697203
 31
0.0
  0
LINE
  8
0
  6
BYLAYER
 62
     7
 10
629.547075
 20
-124.497221
 30
0.0
 11
652.155381
 21
-124.497221
 31
0.0
  0
LINE
  8
0
  6
BYLAYER
 62
     7
 10
574.547075
 20
-122.697203
 30
0.0
 11
623.823442
 21
-122.697203
 31
0.0
  0
LINE
  8
0
  6
BYLAYER
 62
     7
 10
574.547075
 20
-124.497221
 30
0.0
 11
623.823442
 21
-124.497221
 31
0.0
  0
LINE
  8
0
  6
BYLAYER
 62
     7
 10
538.055254
 20
-122.697203
 30
0.0
 11
568.823442
 21
-122.697203
 31
0.0
  0
LINE
  8
0
  6
BYLAYER
 62
     7
 10
538.055254
 20
-124.497221
 30
0.0
 11
568.823442
 21
-124.497221
 31
0.0
  0
LINE
  8
0
  6
BYLAYER
 62
     7
 10
538.055254
 20
-158.547209
 30
0.0
 11
652.155381
 21
-158.547209
 31
0.0
  0
LINE
  8
0
  6
BYLAYER
 62
     7
 10
538.055254
 20
-160.347227
 30
0.0
 11
652.155381
 21
-160.347227
 31
0.0
  0
ARC
  8
0
  6
BYLAYER
 62
     7
 10
538.055254
 20
-183.347196
 30
0.0
 40
0.899994
 50
90.0
 51
269.999998
  0
LINE
  8
0
  6
BYLAYER
 62
     7
 10
538.055254
 20
-182.447203
 30
0.0
 11
652.155381
 21
-182.447203
 31
0.0
  0
LINE
  8
0
  6
BYLAYER
 62
     7
 10
538.055254
 20
-184.247221
 30
0.0
 11
652.155381
 21
-184.247221
 31
0.0
  0
LINE
  8
0
  6
BYLAYER
 62
     7
 10
558.155290
 20
-148.397215
 30
0.0
 11
558.155290
 21
-146.597227
 31
0.0
  0
LINE
  8
0
  6
BYLAYER
 62
     7
 10
640.155290
 20
-146.597227
 30
0.0
 11
640.155290
 21
-148.397215
 31
0.0
  0
LINE
  8
0
  6
BYLAYER
 62
     7
 10
640.155290
 20
-136.447203
 30
0.0
 11
640.155290
 21
-134.647215
 31
0.0
  0
LINE
  8
0
  6
BYLAYER
 62
     7
 10
558.155290
 20
-134.647215
 30
0.0
 11
558.155290
 21
-136.447203
 31
0.0
  0
LINE
  8
0
  6
BYLAYER
 62
     7
 10
640.155290
 20
-124.497221
 30
0.0
 11
640.155290
 21
-122.697203
 31
0.0
  0
LINE
  8
0
  6
BYLAYER
 62
     7
 10
558.155290
 20
-122.697203
 30
0.0
 11
558.155290
 21
-124.497221
 31
0.0
  0
LINE
  8
0
  6
BYLAYER
 62
     7
 10
640.155290
 20
-112.547209
 30
0.0
 11
640.155290
 21
-110.747221
 31
0.0
  0
LINE
  8
0
  6
BYLAYER
 62
     7
 10
558.155290
 20
-110.747221
 30
0.0
 11
558.155290
 21
-112.547209
 31
0.0
  0
LINE
  8
0
  6
BYLAYER
 62
     7
 10
558.155290
 20
-98.797209
 30
0.0
 11
558.155290
 21
-100.597227
 31
0.0
  0
LINE
  8
0
  6
BYLAYER
 62
     7
 10
640.155290
 20
-100.597227
 30
0.0
 11
640.155290
 21
-98.797209
 31
0.0
  0
ARC
  8
0
  6
BYLAYER
 62
     7
 10
545.055284
 20
-183.347227
 30
0.0
 40
0.900024
 50
90.0
 51
269.999998
  0
ARC
  8
0
  6
BYLAYER
 62
     7
 10
545.055284
 20
-171.397215
 30
0.0
 40
0.899994
 50
90.0
 51
269.999998
  0
ARC
  8
0
  6
BYLAYER
 62
     7
 10
545.055284
 20
-159.447203
 30
0.0
 40
0.899994
 50
90.0
 51
269.999998
  0
ARC
  8
0
  6
BYLAYER
 62
     7
 10
545.055284
 20
-147.497221
 30
0.0
 40
0.899994
 50
90.0
 51
269.999998
  0
ARC
  8
0
  6
BYLAYER
 62
     7
 10
545.055284
 20
-135.547209
 30
0.0
 40
0.899994
 50
90.0
 51
269.999998
  0
ARC
  8
0
  6
BYLAYER
 62
     7
 10
545.055284
 20
-123.597227
 30
0.0
 40
0.900024
 50
90.0
 51
269.999998
  0
ARC
  8
0
  6
BYLAYER
 62
     7
 10
545.055284
 20
-111.647215
 30
0.0
 40
0.899994
 50
90.0
 51
269.999998
  0
LINE
  8
0
  6
BYLAYER
 62
     7
 10
537.155166
 20
-53.522184
 30
0.0
 11
537.155292
 21
-209.022184
 31
0.0
  0
ARC
  8
0
  6
BYLAYER
 62
     7
 10
545.055284
 20
-87.747221
 30
0.0
 40
0.899994
 50
90.0
 51
269.999998
  0
ARC
  8
0
  6
BYLAYER
 62
     7
 10
545.055284
 20
-99.697233
 30
0.0
 40
0.900024
 50
90.0
 51
269.999998
  0
LINE
  8
0
  6
BYLAYER
 62
     7
 10
617.155229
 20
-66.067142
 30
0.0
 11
652.265227
 21
-66.067142
 31
0.0
  0
LINE
  8
0
  6
BYLAYER
 62
     7
 10
617.155229
 20
-68.474174
 30
0.0
 11
652.251283
 21
-68.474174
 31
0.0
  0
LINE
  8
0
  6
BYLAYER
 62
     7
 10
617.155229
 20
-73.531582
 30
0.0
 11
652.160403
 21
-73.531582
 31
0.0
  0
LINE
  8
0
  6
BYLAYER
 62
     7
 10
537.155183
 20
-74.522184
 30
0.0
 11
533.655290
 21
-74.522184
 31
0.0
  0
LINE
  8
0
  6
BYLAYER
 62
     7
 10
537.155183
 20
-208.522184
 30
0.0
 11
533.655290
 21
-208.522184
 31
0.0
  0
LINE
  8
0
  6
BYLAYER
 62
     7
 10
541.562842
 20
-218.250831
 30
0.0
 11
652.155381
 21
-218.250831
 31
0.0
  0
LINE
  8
0
  6
BYLAYER
 62
     7
 10
541.602525
 20
-215.843799
 30
0.0
 11
652.155381
 21
-215.843799
 31
0.0
  0
LINE
  8
0
  6
BYLAYER
 62
     7
 10
541.630122
 20
-211.419394
 30
0.0
 11
652.155381
 21
-211.419394
 31
0.0
  0
LINE
  8
0
  6
BYLAYER
 62
     7
 10
541.722017
 20
-203.587064
 30
0.0
 11
652.155381
 21
-203.587064
 31
0.0
  0
LINE
  8
0
  6
BYLAYER
 62
     7
 10
652.155381
 20
-186.611284
 30
0.0
 11
545.649828
 21
-186.611284
 31
0.0
  0
LINE
  8
0
  6
BYLAYER
 62
     7
 10
540.153209
 20
-217.263602
 30
0.0
 11
537.155290
 21
-209.022184
 31
0.0
  0
ARC
  8
0
  6
BYLAYER
 62
     7
 10
541.562842
 20
-216.750831
 30
0.0
 40
1.500000
 50
199.989488
 51
270.000000
  0
LINE
  8
0
  6
BYLAYER
 62
     7
 10
540.175784
 20
-214.806845
 30
0.0
 11
537.155290
 21
-205.500070
 31
0.0
  0
ARC
  8
0
  6
BYLAYER
 62
     7
 10
541.602525
 20
-214.343799
 30
0.0
 40
1.5
 50
197.980729
 51
270.0
  0
LINE
  8
0
  6
BYLAYER
 62
     7
 10
540.192737
 20
-210.348258
 30
0.0
 11
537.155290
 21
-200.167926
 31
0.0
  0
ARC
  8
0
  6
BYLAYER
 62
     7
 10
541.630122
 20
-209.919394
 30
0.0
 40
1.5
 50
196.613220
 51
270.000000
  0
LINE
  8
0
  6
BYLAYER
 62
     7
 10
540.256061
 20
-202.404829
 30
0.0
 11
537.155290
 21
-188.099927
 31
0.0
  0
ARC
  8
0
  6
BYLAYER
 62
     7
 10
541.722017
 20
-202.087064
 30
0.0
 40
1.500000
 50
192.230383
 51
270.0
  0
LINE
  8
0
  6
BYLAYER
 62
     7
 10
537.155290
 20
-200.167926
 30
0.0
 11
539.515622
 21
-198.988933
 31
0.0
  0
LINE
  8
0
  6
BYLAYER
 62
     7
 10
537.155290
 20
-205.500070
 30
0.0
 11
538.551368
 21
-204.847031
 31
0.0
  0
LINE
  8
0
  6
BYLAYER
 62
     7
 10
537.155290
 20
-188.099927
 30
0.0
 11
545.649828
 21
-186.611284
 31
0.0
  0
LINE
  8
0
  6
BYLAYER
 62
     7
 10
537.155290
 20
-209.022184
 30
0.0
 11
538.156342
 21
-208.584521
 31
0.0
  0
LINE
  8
0
  6
BYLAYER
 62
     7
 10
533.655290
 20
-208.522184
 30
0.0
 11
533.655290
 21
-74.522184
 31
0.0
  0
LINE
  8
0
  6
BYLAYER
 62
     7
 10
712.538902
 20
-62.272184
 30
0.0
 11
652.155381
 21
-62.272184
 31
0.0
  0
LINE
  8
0
  6
BYLAYER
 62
     7
 10
733.155381
 20
-77.034452
 30
0.0
 11
715.617210
 21
-63.332130
 31
0.0
  0
ARC
  8
0
  6
BYLAYER
 62
     7
 10
712.538902
 20
-67.272184
 30
0.0
 40
5.0
 50
52.0
 51
90.0
  0
LINE
  8
0
  6
BYLAYER
 62
     7
 10
733.155381
 20
-141.522184
 30
0.0
 11
733.155381
 21
-77.034452
 31
0.0
  0
LINE
  8
0
  6
BYLAYER
 62
     7
 10
733.155381
 20
-206.009916
 30
0.0
 11
733.155381
 21
-141.522184
 31
0.0
  0
LINE
  8
0
  6
BYLAYER
 62
     7
 10
715.617210
 20
-219.712238
 30
0.0
 11
733.155381
 21
-206.009916
 31
0.0
  0
ARC
  8
0
  6
BYLAYER
 62
     7
 10
712.538902
 20
-215.772184
 30
0.0
 40
5.0
 50
270.0
 51
308.0
  0
LINE
  8
0
  6
BYLAYER
 62
     7
 10
652.155381
 20
-220.772184
 30
0.0
 11
712.538902
 21
-220.772184
 31
0.0
  0
LINE
  8
0
  6
BYLAYER
 62
     7
 10
652.155381
 20
-220.772184
 30
0.0
 11
652.155381
 21
-141.522184
 31
0.0
  0
LINE
  8
0
  6
BYLAYER
 62
     7
 10
652.155381
 20
-62.272184
 30
0.0
 11
652.155381
 21
-141.522184
 31
0.0
  0
ARC
  8
0
  6
BYLAYER
 62
     7
 10
607.909504
 20
-43.022184
 30
0.0
 40
1.500000
 50
180.000000
 51
270.000000
  0
ARC
  8
0
  6
BYLAYER
 62
     7
 10
546.400828
 20
-43.022184
 30
0.0
 40
1.500000
 50
270.0
 51
360.0
  0
ARC
  8
0
  6
BYLAYER
 62
     7
 10
538.655166
 20
-43.022184
 30
0.0
 40
1.500000
 50
270.0
 51
360.0
  0
ARC
  8
0
  6
BYLAYER
 62
     7
 10
538.655166
 20
-46.022184
 30
0.0
 40
1.5
 50
90.0
 51
180.0
  0
ARC
  8
0
  6
BYLAYER
 62
     7
 10
615.655166
 20
-43.022184
 30
0.0
 40
1.500000
 50
180.000000
 51
270.000000
  0
LINE
  8
0
  6
BYLAYER
 62
     7
 10
540.155166
 20
-43.022184
 30
0.0
 11
540.155166
 21
-21.522184
 31
0.0
  0
ARC
  8
0
  6
BYLAYER
 62
     7
 10
541.655166
 20
-21.522184
 30
0.0
 40
1.500000
 50
90.0
 51
180.0
  0
LINE
  8
0
  6
BYLAYER
 62
     7
 10
614.155166
 20
-43.022184
 30
0.0
 11
614.155166
 21
-21.522184
 31
0.0
  0
LINE
  8
0
  6
BYLAYER
 62
     7
 10
541.655166
 20
-20.022184
 30
0.0
 11
612.655166
 21
-20.022184
 31
0.0
  0
ARC
  8
0
  6
BYLAYER
 62
     7
 10
604.909504
 20
-21.522184
 30
0.0
 40
1.500000
 50
0.0
 51
90.0
  0
ARC
  8
0
  6
BYLAYER
 62
     7
 10
612.655166
 20
-21.522184
 30
0.0
 40
1.500000
 50
0.0
 51
90.0
  0
LINE
  8
0
  6
BYLAYER
 62
     7
 10
547.900828
 20
-43.022184
 30
0.0
 11
547.900828
 21
-21.522184
 31
0.0
  0
ARC
  8
0
  6
BYLAYER
 62
     7
 10
549.400828
 20
-21.522184
 30
0.0
 40
1.500000
 50
90.0
 51
180.0
  0
LINE
  8
0
  6
BYLAYER
 62
     7
 10
606.409504
 20
-43.022184
 30
0.0
 11
606.409504
 21
-21.522184
 31
0.0
  0
ARC
  8
0
  6
BYLAYER
 62
     7
 10
615.655166
 20
-46.022184
 30
0.0
 40
1.5
 50
0.0
 51
90.0
  0
LINE
  8
0
  6
BYLAYER
 62
     7
 10
617.155166
 20
-53.522184
 30
0.0
 11
617.155166
 21
-46.022184
 31
0.0
  0
LINE
  8
0
  6
BYLAYER
 62
     7
 10
615.655166
 20
-44.522184
 30
0.0
 11
538.655166
 21
-44.522184
 31
0.0
  0
LINE
  8
0
  6
BYLAYER
 62
     7
 10
537.155166
 20
-46.022184
 30
0.0
 11
537.155166
 21
-53.522184
 31
0.0
  0
LINE
  8
0
  6
BYLAYER
 62
     7
 10
537.155166
 20
-53.522184
 30
0.0
 11
617.155166
 21
-53.522184
 31
0.0
  0
LINE
  8
0
  6
BYLAYER
 62
     7
 10
617.155166
 20
-51.522184
 30
0.0
 11
537.155166
 21
-51.522184
 31
0.0
  0
LINE
  8
0
  6
BYLAYER
 62
     7
 10
712.538902
 20
-220.772184
 30
0.0
 11
712.538902
 21
-62.272184
 31
0.0
  0
LINE
  8
0
  6
BYLAYER
 62
     7
 10
512.155290
 20
-653.522184
 30
0.0
 11
512.155290
 21
-553.522184
 31
0.0
  0
LINE
  8
0
  6
BYLAYER
 62
     7
 10
512.155290
 20
-585.146803
 30
0.0
 11
512.155290
 21
-577.022184
 31
0.0
  0
LINE
  8
0
  6
BYLAYER
 62
     7
 10
500.155290
 20
-553.522184
 30
0.0
 11
512.155290
 21
-553.522184
 31
0.0
  0
LINE
  8
0
  6
BYLAYER
 62
     7
 10
512.646563
 20
-585.646726
 30
0.0
 11
533.655290
 21
-586.013456
 31
0.0
  0
ARC
  8
0
  6
BYLAYER
 62
     7
 10
512.655290
 20
-585.146803
 30
0.0
 40
0.5
 50
180.000000
 51
268.999943
  0
LINE
  8
0
  6
BYLAYER
 62
     7
 10
533.655290
 20
-586.013456
 30
0.0
 11
533.655290
 21
-653.522184
 31
0.0
  0
LINE
  8
0
  6
BYLAYER
 62
     7
 10
500.155290
 20
-653.522184
 30
0.0
 11
500.155290
 21
-553.522184
 31
0.0
  0
LINE
  8
0
  6
BYLAYER
 62
     7
 10
512.155290
 20
-653.522184
 30
0.0
 11
512.155290
 21
-753.522184
 31
0.0
  0
LINE
  8
0
  6
BYLAYER
 62
     7
 10
512.155290
 20
-721.897565
 30
0.0
 11
512.155290
 21
-730.022184
 31
0.0
  0
LINE
  8
0
  6
BYLAYER
 62
     7
 10
500.155290
 20
-753.522184
 30
0.0
 11
512.155290
 21
-753.522184
 31
0.0
  0
LINE
  8
0
  6
BYLAYER
 62
     7
 10
512.646563
 20
-721.397642
 30
0.0
 11
533.655290
 21
-721.030912
 31
0.0
  0
ARC
  8
0
  6
BYLAYER
 62
     7
 10
512.655290
 20
-721.897565
 30
0.0
 40
0.5
 50
91.000057
 51
180.000000
  0
LINE
  8
0
  6
BYLAYER
 62
     7
 10
533.655290
 20
-721.030912
 30
0.0
 11
533.655290
 21
-653.522184
 31
0.0
  0
LINE
  8
0
  6
BYLAYER
 62
     7
 10
500.155290
 20
-653.522184
 30
0.0
 11
500.155290
 21
-753.522184
 31
0.0
  0
LINE
  8
0
  6
BYLAYER
 62
     7
 10
540.155237
 20
-678.038869
 30
0.0
 11
540.155237
 21
-653.522184
 31
0.0
  0
LINE
  8
0
  6
BYLAYER
 62
     7
 10
614.155237
 20
-653.522184
 30
0.0
 11
614.155237
 21
-678.038869
 31
0.0
  0
LINE
  8
0
  6
BYLAYER
 62
     7
 10
604.692832
 20
-687.772184
 30
0.0
 11
549.617643
 21
-687.772184
 31
0.0
  0
LINE
  8
0
  6
BYLAYER
 62
     7
 10
554.259936
 20
-658.623290
 30
0.0
 11
540.155237
 21
-659.115837
 31
0.0
  0
ARC
  8
0
  6
BYLAYER
 62
     7
 10
554.155237
 20
-655.625118
 30
0.0
 40
3.0
 50
272.000000
 51
360.000000
  0
LINE
  8
0
  6
BYLAYER
 62
     7
 10
554.259936
 20
-673.623290
 30
0.0
 11
540.155237
 21
-674.115837
 31
0.0
  0
ARC
  8
0
  6
BYLAYER
 62
     7
 10
554.155237
 20
-670.625118
 30
0.0
 40
3.000000
 50
272.000000
 51
360.000000
  0
LINE
  8
0
  6
BYLAYER
 62
     7
 10
540.155237
 20
-662.928531
 30
0.0
 11
554.259936
 21
-663.421078
 31
0.0
  0
ARC
  8
0
  6
BYLAYER
 62
     7
 10
554.155237
 20
-666.419250
 30
0.0
 40
3.0
 50
0.0
 51
88.0
  0
LINE
  8
0
  6
BYLAYER
 62
     7
 10
557.155237
 20
-666.419250
 30
0.0
 11
557.155237
 21
-670.625118
 31
0.0
  0
LINE
  8
0
  6
BYLAYER
 62
     7
 10
557.155237
 20
-653.522184
 30
0.0
 11
557.155237
 21
-655.625118
 31
0.0
  0
LINE
  8
0
  6
BYLAYER
 62
     7
 10
541.155237
 20
-653.522184
 30
0.0
 11
541.155237
 21
-659.080916
 31
0.0
  0
LINE
  8
0
  6
BYLAYER
 62
     7
 10
541.155237
 20
-662.963452
 30
0.0
 11
541.155237
 21
-674.080916
 31
0.0
  0
LINE
  8
0
  6
BYLAYER
 62
     7
 10
600.050539
 20
-658.623290
 30
0.0
 11
614.155237
 21
-659.115837
 31
0.0
  0
ARC
  8
0
  6
BYLAYER
 62
     7
 10
600.155237
 20
-655.625118
 30
0.0
 40
3.0
 50
180.000000
 51
268.000000
  0
LINE
  8
0
  6
BYLAYER
 62
     7
 10
600.050539
 20
-673.623290
 30
0.0
 11
614.155237
 21
-674.115837
 31
0.0
  0
ARC
  8
0
  6
BYLAYER
 62
     7
 10
600.155237
 20
-670.625118
 30
0.0
 40
3.000000
 50
180.000000
 51
268.000000
  0
LINE
  8
0
  6
BYLAYER
 62
     7
 10
614.155237
 20
-662.928531
 30
0.0
 11
600.050539
 21
-663.421078
 31
0.0
  0
ARC
  8
0
  6
BYLAYER
 62
     7
 10
600.155237
 20
-666.419250
 30
0.0
 40
3.0
 50
92.000000
 51
180.000000
  0
LINE
  8
0
  6
BYLAYER
 62
     7
 10
597.155237
 20
-666.419250
 30
0.0
 11
597.155237
 21
-670.625118
 31
0.0
  0
LINE
  8
0
  6
BYLAYER
 62
     7
 10
597.155237
 20
-653.522184
 30
0.0
 11
597.155237
 21
-655.625118
 31
0.0
  0
LINE
  8
0
  6
BYLAYER
 62
     7
 10
613.155237
 20
-653.522184
 30
0.0
 11
613.155237
 21
-659.080916
 31
0.0
  0
LINE
  8
0
  6
BYLAYER
 62
     7
 10
613.155237
 20
-662.963452
 30
0.0
 11
613.155237
 21
-674.080916
 31
0.0
  0
LINE
  8
0
  6
BYLAYER
 62
     7
 10
537.155237
 20
-653.522184
 30
0.0
 11
537.155237
 21
-689.022184
 31
0.0
  0
ARC
  8
0
  6
BYLAYER
 62
     7
 10
538.655237
 20
-689.022184
 30
0.0
 40
1.5
 50
180.000000
 51
270.000000
  0
LINE
  8
0
  6
BYLAYER
 62
     7
 10
617.155237
 20
-689.022184
 30
0.0
 11
617.155237
 21
-653.522184
 31
0.0
  0
LINE
  8
0
  6
BYLAYER
 62
     7
 10
538.655237
 20
-690.522184
 30
0.0
 11
615.655237
 21
-690.522184
 31
0.0
  0
ARC
  8
0
  6
BYLAYER
 62
     7
 10
615.655237
 20
-689.022184
 30
0.0
 40
1.5
 50
270.0
 51
360.0
  0
ARC
  8
0
  6
BYLAYER
 62
     7
 10
612.155237
 20
-685.522184
 30
0.0
 40
6.000000
 50
86.177446
 51
185.739170
  0
ARC
  8
0
  6
BYLAYER
 62
     7
 10
612.655237
 20
-678.038869
 30
0.0
 40
1.500000
 50
266.177446
 51
360.0
  0
ARC
  8
0
  6
BYLAYER
 62
     7
 10
604.692832
 20
-686.272184
 30
0.0
 40
1.5
 50
270.0
 51
365.739170
  0
ARC
  8
0
  6
BYLAYER
 62
     7
 10
542.155237
 20
-685.522184
 30
0.0
 40
6.0
 50
354.260830
 51
453.822554
  0
ARC
  8
0
  6
BYLAYER
 62
     7
 10
549.617643
 20
-686.272184
 30
0.0
 40
1.500000
 50
174.260830
 51
270.000000
  0
ARC
  8
0
  6
BYLAYER
 62
     7
 10
541.655237
 20
-678.038869
 30
0.0
 40
1.500000
 50
180.000000
 51
273.822554
  0
ARC
  8
0
  6
BYLAYER
 62
     7
 10
564.155237
 20
-680.522184
 30
0.0
 40
3.000000
 50
180.000000
 51
270.000000
  0
ARC
  8
0
  6
BYLAYER
 62
     7
 10
590.155237
 20
-680.522184
 30
0.0
 40
3.0
 50
270.0
 51
360.0
  0
LINE
  8
0
  6
BYLAYER
 62
     7
 10
564.155237
 20
-683.522184
 30
0.0
 11
590.155237
 21
-683.522184
 31
0.0
  0
LINE
  8
0
  6
BYLAYER
 62
     7
 10
561.155237
 20
-680.522184
 30
0.0
 11
561.155237
 21
-653.522184
 31
0.0
  0
LINE
  8
0
  6
BYLAYER
 62
     7
 10
593.155237
 20
-653.522184
 30
0.0
 11
593.155237
 21
-680.522184
 31
0.0
  0
LINE
  8
0
  6
BYLAYER
 62
     7
 10
617.155237
 20
-658.597227
 30
0.0
 11
652.155381
 21
-658.597227
 31
0.0
  0
LINE
  8
0
  6
BYLAYER
 62
     7
 10
617.155237
 20
-660.397215
 30
0.0
 11
652.155381
 21
-660.397215
 31
0.0
  0
LINE
  8
0
  6
BYLAYER
 62
     7
 10
617.155237
 20
-682.497221
 30
0.0
 11
652.155381
 21
-682.497221
 31
0.0
  0
LINE
  8
0
  6
BYLAYER
 62
     7
 10
617.155237
 20
-684.297209
 30
0.0
 11
652.155381
 21
-684.297209
 31
0.0
  0
LINE
  8
0
  6
BYLAYER
 62
     7
 10
548.155290
 20
-696.247221
 30
0.0
 11
548.155290
 21
-698.611284
 31
0.0
  0
LINE
  8
0
  6
BYLAYER
 62
     7
 10
548.155290
 20
-690.522184
 30
0.0
 11
548.155290
 21
-694.447203
 31
0.0
  0
LINE
  8
0
  6
BYLAYER
 62
     7
 10
650.155290
 20
-653.522184
 30
0.0
 11
650.155290
 21
-658.597227
 31
0.0
  0
LINE
  8
0
  6
BYLAYER
 62
     7
 10
650.155290
 20
-660.397215
 30
0.0
 11
650.155290
 21
-670.547209
 31
0.0
  0
LINE
  8
0
  6
BYLAYER
 62
     7
 10
650.155290
 20
-672.347227
 30
0.0
 11
650.155290
 21
-682.497221
 31
0.0
  0
LINE
  8
0
  6
BYLAYER
 62
     7
 10
650.155290
 20
-696.247221
 30
0.0
 11
650.155290
 21
-698.611284
 31
0.0
  0
LINE
  8
0
  6
BYLAYER
 62
     7
 10
650.155290
 20
-684.297209
 30
0.0
 11
650.155290
 21
-694.447203
 31
0.0
  0
LINE
  8
0
  6
BYLAYER
 62
     7
 10
617.155237
 20
-670.547209
 30
0.0
 11
652.155381
 21
-670.547209
 31
0.0
  0
LINE
  8
0
  6
BYLAYER
 62
     7
 10
617.155237
 20
-672.347227
 30
0.0
 11
652.155381
 21
-672.347227
 31
0.0
  0
ARC
  8
0
  6
BYLAYER
 62
     7
 10
538.055254
 20
-695.347196
 30
0.0
 40
0.899994
 50
90.0
 51
269.999998
  0
LINE
  8
0
  6
BYLAYER
 62
     7
 10
538.055254
 20
-694.447203
 30
0.0
 11
652.155381
 21
-694.447203
 31
0.0
  0
LINE
  8
0
  6
BYLAYER
 62
     7
 10
538.055254
 20
-696.247221
 30
0.0
 11
652.155381
 21
-696.247221
 31
0.0
  0
LINE
  8
0
  6
BYLAYER
 62
     7
 10
640.155290
 20
-658.597227
 30
0.0
 11
640.155290
 21
-660.397215
 31
0.0
  0
ARC
  8
0
  6
BYLAYER
 62
     7
 10
545.055284
 20
-695.347227
 30
0.0
 40
0.900024
 50
90.0
 51
269.999998
  0
LINE
  8
0
  6
BYLAYER
 62
     7
 10
537.155237
 20
-653.522184
 30
0.0
 11
537.155292
 21
-721.022184
 31
0.0
  0
LINE
  8
0
  6
BYLAYER
 62
     7
 10
537.155183
 20
-720.522184
 30
0.0
 11
533.655290
 21
-720.522184
 31
0.0
  0
LINE
  8
0
  6
BYLAYER
 62
     7
 10
541.562842
 20
-730.250831
 30
0.0
 11
652.155381
 21
-730.250831
 31
0.0
  0
LINE
  8
0
  6
BYLAYER
 62
     7
 10
541.602525
 20
-727.843799
 30
0.0
 11
652.155381
 21
-727.843799
 31
0.0
  0
LINE
  8
0
  6
BYLAYER
 62
     7
 10
541.630122
 20
-723.419394
 30
0.0
 11
652.155381
 21
-723.419394
 31
0.0
  0
LINE
  8
0
  6
BYLAYER
 62
     7
 10
541.722017
 20
-715.587064
 30
0.0
 11
652.155381
 21
-715.587064
 31
0.0
  0
LINE
  8
0
  6
BYLAYER
 62
     7
 10
652.155381
 20
-698.611284
 30
0.0
 11
545.649828
 21
-698.611284
 31
0.0
  0
LINE
  8
0
  6
BYLAYER
 62
     7
 10
540.153209
 20
-729.263602
 30
0.0
 11
537.155290
 21
-721.022184
 31
0.0
  0
ARC
  8
0
  6
BYLAYER
 62
     7
 10
541.562842
 20
-728.750831
 30
0.0
 40
1.500000
 50
199.989488
 51
270.000000
  0
LINE
  8
0
  6
BYLAYER
 62
     7
 10
540.175784
 20
-726.806845
 30
0.0
 11
537.155290
 21
-717.500070
 31
0.0
  0
ARC
  8
0
  6
BYLAYER
 62
     7
 10
541.602525
 20
-726.343799
 30
0.0
 40
1.5
 50
197.980729
 51
270.000000
  0
LINE
  8
0
  6
BYLAYER
 62
     7
 10
540.192737
 20
-722.348258
 30
0.0
 11
537.155290
 21
-712.167926
 31
0.0
  0
ARC
  8
0
  6
BYLAYER
 62
     7
 10
541.630122
 20
-721.919394
 30
0.0
 40
1.500000
 50
196.613220
 51
270.000000
  0
LINE
  8
0
  6
BYLAYER
 62
     7
 10
540.256061
 20
-714.404829
 30
0.0
 11
537.155290
 21
-700.099927
 31
0.0
  0
ARC
  8
0
  6
BYLAYER
 62
     7
 10
541.722017
 20
-714.087064
 30
0.0
 40
1.5
 50
192.230383
 51
270.000000
  0
LINE
  8
0
  6
BYLAYER
 62
     7
 10
537.155290
 20
-712.167926
 30
0.0
 11
539.515622
 21
-710.988933
 31
0.0
  0
LINE
  8
0
  6
BYLAYER
 62
     7
 10
537.155290
 20
-717.500070
 30
0.0
 11
538.551368
 21
-716.847031
 31
0.0
  0
LINE
  8
0
  6
BYLAYER
 62
     7
 10
537.155290
 20
-700.099927
 30
0.0
 11
545.649828
 21
-698.611284
 31
0.0
  0
LINE
  8
0
  6
BYLAYER
 62
     7
 10
537.155290
 20
-721.022184
 30
0.0
 11
538.156342
 21
-720.584521
 31
0.0
  0
LINE
  8
0
  6
BYLAYER
 62
     7
 10
533.655290
 20
-720.522184
 30
0.0
 11
533.655290
 21
-653.522184
 31
0.0
  0
LINE
  8
0
  6
BYLAYER
 62
     7
 10
733.155381
 20
-718.009916
 30
0.0
 11
733.155381
 21
-653.522184
 31
0.0
  0
LINE
  8
0
  6
BYLAYER
 62
     7
 10
715.617210
 20
-731.712238
 30
0.0
 11
733.155381
 21
-718.009916
 31
0.0
  0
ARC
  8
0
  6
BYLAYER
 62
     7
 10
712.538902
 20
-727.772184
 30
0.0
 40
5.0
 50
270.0
 51
308.0
  0
LINE
  8
0
  6
BYLAYER
 62
     7
 10
652.155381
 20
-732.772184
 30
0.0
 11
712.538902
 21
-732.772184
 31
0.0
  0
LINE
  8
0
  6
BYLAYER
 62
     7
 10
652.155381
 20
-732.772184
 30
0.0
 11
652.155381
 21
-653.522184
 31
0.0
  0
LINE
  8
0
  6
BYLAYER
 62
     7
 10
540.155237
 20
-629.005499
 30
0.0
 11
540.155237
 21
-653.522184
 31
0.0
  0
LINE
  8
0
  6
BYLAYER
 62
     7
 10
614.155237
 20
-653.522184
 30
0.0
 11
614.155237
 21
-629.005499
 31
0.0
  0
LINE
  8
0
  6
BYLAYER
 62
     7
 10
604.692832
 20
-619.272184
 30
0.0
 11
549.617643
 21
-619.272184
 31
0.0
  0
LINE
  8
0
  6
BYLAYER
 62
     7
 10
554.259936
 20
-648.421078
 30
0.0
 11
540.155237
 21
-647.928531
 31
0.0
  0
ARC
  8
0
  6
BYLAYER
 62
     7
 10
554.155237
 20
-651.419250
 30
0.0
 40
3.0
 50
0.0
 51
88.0
  0
LINE
  8
0
  6
BYLAYER
 62
     7
 10
554.259936
 20
-633.421078
 30
0.0
 11
540.155237
 21
-632.928531
 31
0.0
  0
ARC
  8
0
  6
BYLAYER
 62
     7
 10
554.155237
 20
-636.419250
 30
0.0
 40
3.0
 50
0.0
 51
88.0
  0
LINE
  8
0
  6
BYLAYER
 62
     7
 10
540.155237
 20
-644.115837
 30
0.0
 11
554.259936
 21
-643.623290
 31
0.0
  0
ARC
  8
0
  6
BYLAYER
 62
     7
 10
554.155237
 20
-640.625118
 30
0.0
 40
3.0
 50
272.000000
 51
360.000000
  0
LINE
  8
0
  6
BYLAYER
 62
     7
 10
557.155237
 20
-640.625118
 30
0.0
 11
557.155237
 21
-636.419250
 31
0.0
  0
LINE
  8
0
  6
BYLAYER
 62
     7
 10
557.155237
 20
-653.522184
 30
0.0
 11
557.155237
 21
-651.419250
 31
0.0
  0
LINE
  8
0
  6
BYLAYER
 62
     7
 10
541.155237
 20
-653.522184
 30
0.0
 11
541.155237
 21
-647.963452
 31
0.0
  0
LINE
  8
0
  6
BYLAYER
 62
     7
 10
541.155237
 20
-644.080916
 30
0.0
 11
541.155237
 21
-632.963452
 31
0.0
  0
LINE
  8
0
  6
BYLAYER
 62
     7
 10
600.050539
 20
-648.421078
 30
0.0
 11
614.155237
 21
-647.928531
 31
0.0
  0
ARC
  8
0
  6
BYLAYER
 62
     7
 10
600.155237
 20
-651.419250
 30
0.0
 40
3.0
 50
92.000000
 51
180.000000
  0
LINE
  8
0
  6
BYLAYER
 62
     7
 10
600.050539
 20
-633.421078
 30
0.0
 11
614.155237
 21
-632.928531
 31
0.0
  0
ARC
  8
0
  6
BYLAYER
 62
     7
 10
600.155237
 20
-636.419250
 30
0.0
 40
3.0
 50
92.000000
 51
180.000000
  0
LINE
  8
0
  6
BYLAYER
 62
     7
 10
614.155237
 20
-644.115837
 30
0.0
 11
600.050539
 21
-643.623290
 31
0.0
  0
ARC
  8
0
  6
BYLAYER
 62
     7
 10
600.155237
 20
-640.625118
 30
0.0
 40
3.0
 50
180.000000
 51
268.000000
  0
LINE
  8
0
  6
BYLAYER
 62
     7
 10
597.155237
 20
-640.625118
 30
0.0
 11
597.155237
 21
-636.419250
 31
0.0
  0
LINE
  8
0
  6
BYLAYER
 62
     7
 10
597.155237
 20
-653.522184
 30
0.0
 11
597.155237
 21
-651.419250
 31
0.0
  0
LINE
  8
0
  6
BYLAYER
 62
     7
 10
613.155237
 20
-653.522184
 30
0.0
 11
613.155237
 21
-647.963452
 31
0.0
  0
LINE
  8
0
  6
BYLAYER
 62
     7
 10
613.155237
 20
-644.080916
 30
0.0
 11
613.155237
 21
-632.963452
 31
0.0
  0
LINE
  8
0
  6
BYLAYER
 62
     7
 10
537.155237
 20
-653.522184
 30
0.0
 11
537.155237
 21
-618.022184
 31
0.0
  0
ARC
  8
0
  6
BYLAYER
 62
     7
 10
538.655237
 20
-618.022184
 30
0.0
 40
1.5
 50
90.0
 51
180.0
  0
LINE
  8
0
  6
BYLAYER
 62
     7
 10
617.155237
 20
-618.022184
 30
0.0
 11
617.155237
 21
-653.522184
 31
0.0
  0
LINE
  8
0
  6
BYLAYER
 62
     7
 10
538.655237
 20
-616.522184
 30
0.0
 11
615.655237
 21
-616.522184
 31
0.0
  0
ARC
  8
0
  6
BYLAYER
 62
     7
 10
615.655237
 20
-618.022184
 30
0.0
 40
1.5
 50
0.0
 51
90.0
  0
ARC
  8
0
  6
BYLAYER
 62
     7
 10
612.155237
 20
-621.522184
 30
0.0
 40
6.000000
 50
174.260830
 51
273.822554
  0
ARC
  8
0
  6
BYLAYER
 62
     7
 10
612.655237
 20
-629.005499
 30
0.0
 40
1.500000
 50
0.0
 51
93.822554
  0
ARC
  8
0
  6
BYLAYER
 62
     7
 10
604.692832
 20
-620.772184
 30
0.0
 40
1.500000
 50
354.260830
 51
450.000000
  0
ARC
  8
0
  6
BYLAYER
 62
     7
 10
542.155237
 20
-621.522184
 30
0.0
 40
6.0
 50
266.177446
 51
365.739170
  0
ARC
  8
0
  6
BYLAYER
 62
     7
 10
549.617643
 20
-620.772184
 30
0.0
 40
1.5
 50
90.0
 51
185.73917
  0
ARC
  8
0
  6
BYLAYER
 62
     7
 10
541.655237
 20
-629.005499
 30
0.0
 40
1.500000
 50
86.177446
 51
180.000000
  0
ARC
  8
0
  6
BYLAYER
 62
     7
 10
564.155237
 20
-626.522184
 30
0.0
 40
3.0
 50
90.0
 51
180.0
  0
ARC
  8
0
  6
BYLAYER
 62
     7
 10
590.155237
 20
-626.522184
 30
0.0
 40
3.0
 50
0.0
 51
90.0
  0
LINE
  8
0
  6
BYLAYER
 62
     7
 10
564.155237
 20
-623.522184
 30
0.0
 11
590.155237
 21
-623.522184
 31
0.0
  0
LINE
  8
0
  6
BYLAYER
 62
     7
 10
561.155237
 20
-626.522184
 30
0.0
 11
561.155237
 21
-653.522184
 31
0.0
  0
LINE
  8
0
  6
BYLAYER
 62
     7
 10
593.155237
 20
-653.522184
 30
0.0
 11
593.155237
 21
-626.522184
 31
0.0
  0
LINE
  8
0
  6
BYLAYER
 62
     7
 10
617.155237
 20
-648.447141
 30
0.0
 11
652.155381
 21
-648.447141
 31
0.0
  0
LINE
  8
0
  6
BYLAYER
 62
     7
 10
617.155237
 20
-646.647153
 30
0.0
 11
652.155381
 21
-646.647153
 31
0.0
  0
LINE
  8
0
  6
BYLAYER
 62
     7
 10
617.155237
 20
-624.547147
 30
0.0
 11
652.155381
 21
-624.547147
 31
0.0
  0
LINE
  8
0
  6
BYLAYER
 62
     7
 10
617.155237
 20
-622.747159
 30
0.0
 11
652.155381
 21
-622.747159
 31
0.0
  0
LINE
  8
0
  6
BYLAYER
 62
     7
 10
548.155290
 20
-610.797147
 30
0.0
 11
548.155290
 21
-608.433084
 31
0.0
  0
LINE
  8
0
  6
BYLAYER
 62
     7
 10
548.155290
 20
-616.522184
 30
0.0
 11
548.155290
 21
-612.597165
 31
0.0
  0
LINE
  8
0
  6
BYLAYER
 62
     7
 10
650.155290
 20
-653.522184
 30
0.0
 11
650.155290
 21
-648.447141
 31
0.0
  0
LINE
  8
0
  6
BYLAYER
 62
     7
 10
650.155290
 20
-646.647153
 30
0.0
 11
650.155290
 21
-636.497159
 31
0.0
  0
LINE
  8
0
  6
BYLAYER
 62
     7
 10
650.155290
 20
-634.697141
 30
0.0
 11
650.155290
 21
-624.547147
 31
0.0
  0
LINE
  8
0
  6
BYLAYER
 62
     7
 10
650.155290
 20
-610.797147
 30
0.0
 11
650.155290
 21
-608.433084
 31
0.0
  0
LINE
  8
0
  6
BYLAYER
 62
     7
 10
650.155290
 20
-622.747159
 30
0.0
 11
650.155290
 21
-612.597165
 31
0.0
  0
LINE
  8
0
  6
BYLAYER
 62
     7
 10
617.155237
 20
-636.497159
 30
0.0
 11
652.155381
 21
-636.497159
 31
0.0
  0
LINE
  8
0
  6
BYLAYER
 62
     7
 10
617.155237
 20
-634.697141
 30
0.0
 11
652.155381
 21
-634.697141
 31
0.0
  0
ARC
  8
0
  6
BYLAYER
 62
     7
 10
538.055254
 20
-611.697172
 30
0.0
 40
0.899994
 50
90.0
 51
269.999998
  0
LINE
  8
0
  6
BYLAYER
 62
     7
 10
538.055254
 20
-612.597165
 30
0.0
 11
652.155381
 21
-612.597165
 31
0.0
  0
LINE
  8
0
  6
BYLAYER
 62
     7
 10
538.055254
 20
-610.797147
 30
0.0
 11
652.155381
 21
-610.797147
 31
0.0
  0
LINE
  8
0
  6
BYLAYER
 62
     7
 10
640.155290
 20
-648.447141
 30
0.0
 11
640.155290
 21
-646.647153
 31
0.0
  0
ARC
  8
0
  6
BYLAYER
 62
     7
 10
545.055284
 20
-611.697141
 30
0.0
 40
0.900024
 50
90.0
 51
269.999998
  0
LINE
  8
0
  6
BYLAYER
 62
     7
 10
537.155237
 20
-653.522184
 30
0.0
 11
537.155292
 21
-586.022184
 31
0.0
  0
LINE
  8
0
  6
BYLAYER
 62
     7
 10
537.155183
 20
-586.522184
 30
0.0
 11
533.655290
 21
-586.522184
 31
0.0
  0
LINE
  8
0
  6
BYLAYER
 62
     7
 10
541.562842
 20
-576.793537
 30
0.0
 11
652.155381
 21
-576.793537
 31
0.0
  0
LINE
  8
0
  6
BYLAYER
 62
     7
 10
541.602525
 20
-579.200569
 30
0.0
 11
652.155381
 21
-579.200569
 31
0.0
  0
LINE
  8
0
  6
BYLAYER
 62
     7
 10
541.630122
 20
-583.624974
 30
0.0
 11
652.155381
 21
-583.624974
 31
0.0
  0
LINE
  8
0
  6
BYLAYER
 62
     7
 10
541.722017
 20
-591.457304
 30
0.0
 11
652.155381
 21
-591.457304
 31
0.0
  0
LINE
  8
0
  6
BYLAYER
 62
     7
 10
652.155381
 20
-608.433084
 30
0.0
 11
545.649828
 21
-608.433084
 31
0.0
  0
LINE
  8
0
  6
BYLAYER
 62
     7
 10
540.153209
 20
-577.780766
 30
0.0
 11
537.155290
 21
-586.022184
 31
0.0
  0
ARC
  8
0
  6
BYLAYER
 62
     7
 10
541.562842
 20
-578.293537
 30
0.0
 40
1.5
 50
90.0
 51
160.010512
  0
LINE
  8
0
  6
BYLAYER
 62
     7
 10
540.175784
 20
-580.237523
 30
0.0
 11
537.155290
 21
-589.544298
 31
0.0
  0
ARC
  8
0
  6
BYLAYER
 62
     7
 10
541.602525
 20
-580.700569
 30
0.0
 40
1.5
 50
90.0
 51
162.019271
  0
LINE
  8
0
  6
BYLAYER
 62
     7
 10
540.192737
 20
-584.696110
 30
0.0
 11
537.155290
 21
-594.876442
 31
0.0
  0
ARC
  8
0
  6
BYLAYER
 62
     7
 10
541.630122
 20
-585.124974
 30
0.0
 40
1.5
 50
90.0
 51
163.38678
  0
LINE
  8
0
  6
BYLAYER
 62
     7
 10
540.256061
 20
-592.639539
 30
0.0
 11
537.155290
 21
-606.944441
 31
0.0
  0
ARC
  8
0
  6
BYLAYER
 62
     7
 10
541.722017
 20
-592.957304
 30
0.0
 40
1.500000
 50
90.0
 51
167.769617
  0
LINE
  8
0
  6
BYLAYER
 62
     7
 10
537.155290
 20
-594.876442
 30
0.0
 11
539.515622
 21
-596.055435
 31
0.0
  0
LINE
  8
0
  6
BYLAYER
 62
     7
 10
537.155290
 20
-589.544298
 30
0.0
 11
538.551368
 21
-590.197337
 31
0.0
  0
LINE
  8
0
  6
BYLAYER
 62
     7
 10
537.155290
 20
-606.944441
 30
0.0
 11
545.649828
 21
-608.433084
 31
0.0
  0
LINE
  8
0
  6
BYLAYER
 62
     7
 10
537.155290
 20
-586.022184
 30
0.0
 11
538.156342
 21
-586.459847
 31
0.0
  0
LINE
  8
0
  6
BYLAYER
 62
     7
 10
533.655290
 20
-586.522184
 30
0.0
 11
533.655290
 21
-653.522184
 31
0.0
  0
LINE
  8
0
  6
BYLAYER
 62
     7
 10
733.155381
 20
-589.034452
 30
0.0
 11
733.155381
 21
-653.522184
 31
0.0
  0
LINE
  8
0
  6
BYLAYER
 62
     7
 10
715.617210
 20
-575.332130
 30
0.0
 11
733.155381
 21
-589.034452
 31
0.0
  0
ARC
  8
0
  6
BYLAYER
 62
     7
 10
712.538902
 20
-579.272184
 30
0.0
 40
5.0
 50
52.000000
 51
90.000000
  0
LINE
  8
0
  6
BYLAYER
 62
     7
 10
652.155381
 20
-574.272184
 30
0.0
 11
712.538902
 21
-574.272184
 31
0.0
  0
LINE
  8
0
  6
BYLAYER
 62
     7
 10
652.155381
 20
-574.272184
 30
0.0
 11
652.155381
 21
-653.522184
 31
0.0
  0
LINE
  8
0
  6
BYLAYER
 62
     7
 10
712.538902
 20
-732.772184
 30
0.0
 11
712.538902
 21
-574.272184
 31
0.0
  0
LINE
  8
0
  6
BYLAYER
 62
     1
 10
359.655290
 20
-239.522184
 30
0.0
 11
359.655290
 21
-229.522184
 31
0.0
  0
LINE
  8
0
  6
BYLAYER
 62
     1
 10
404.655290
 20
-194.522184
 30
0.0
 11
394.655290
 21
-194.522184
 31
0.0
  0
LINE
  8
0
  6
BYLAYER
 62
     1
 10
403.155290
 20
-193.022184
 30
0.0
 11
404.655290
 21
-194.522184
 31
0.0
  0
LINE
  8
0
  6
BYLAYER
 62
     1
 10
404.655290
 20
-194.522184
 30
0.0
 11
404.655290
 21
-237.522184
 31
0.0
  0
LINE
  8
0
  6
BYLAYER
 62
     1
 10
404.655290
 20
-237.522184
 30
0.0
 11
402.655290
 21
-239.522184
 31
0.0
  0
LINE
  8
0
  6
BYLAYER
 62
     1
 10
404.655290
 20
-237.522184
 30
0.0
 11
402.655290
 21
-239.522184
 31
0.0
  0
LINE
  8
0
  6
BYLAYER
 62
     1
 10
358.155290
 20
-238.022184
 30
0.0
 11
359.655290
 21
-239.522184
 31
0.0
  0
LINE
  8
0
  6
BYLAYER
 62
     1
 10
359.655290
 20
-239.522184
 30
0.0
 11
402.655290
 21
-239.522184
 31
0.0
  0
LINE
  8
0
  6
BYLAYER
 62
     1
 10
232.655290
 20
-194.522184
 30
0.0
 11
232.655290
 21
-237.522184
 31
0.0
  0
LINE
  8
0
  6
BYLAYER
 62
     1
 10
277.655290
 20
-239.522184
 30
0.0
 11
277.655290
 21
-229.522184
 31
0.0
  0
LINE
  8
0
  6
BYLAYER
 62
     1
 10
279.155290
 20
-238.022184
 30
0.0
 11
277.655290
 21
-239.522184
 31
0.0
  0
LINE
  8
0
  6
BYLAYER
 62
     1
 10
277.655290
 20
-239.522184
 30
0.0
 11
234.655290
 21
-239.522184
 31
0.0
  0
LINE
  8
0
  6
BYLAYER
 62
     1
 10
232.655290
 20
-237.522184
 30
0.0
 11
234.655290
 21
-239.522184
 31
0.0
  0
LINE
  8
0
  6
BYLAYER
 62
     1
 10
232.655290
 20
-194.522184
 30
0.0
 11
242.655290
 21
-194.522184
 31
0.0
  0
LINE
  8
0
  6
BYLAYER
 62
     1
 10
234.155290
 20
-193.022184
 30
0.0
 11
232.655290
 21
-194.522184
 31
0.0
  0
LINE
  8
0
  6
BYLAYER
 62
     1
 10
253.155290
 20
-229.522184
 30
0.0
 11
253.155290
 21
-239.522184
 31
0.0
  0
LINE
  8
0
  6
BYLAYER
 62
     1
 10
373.405290
 20
-229.522184
 30
0.0
 11
373.405290
 21
-239.522184
 31
0.0
  0
LINE
  8
0
  6
BYLAYER
 62
     1
 10
384.405290
 20
-229.522184
 30
0.0
 11
384.405290
 21
-239.522184
 31
0.0
  0
LINE
  8
0
  6
BYLAYER
 62
     1
 10
398.155290
 20
-239.522184
 30
0.0
 11
397.155290
 21
-239.522184
 31
0.0
  0
LINE
  8
0
  6
BYLAYER
 62
     1
 10
234.155290
 20
-139.522184
 30
0.0
 11
234.155290
 21
-193.022184
 31
0.0
  0
LINE
  8
0
  6
BYLAYER
 62
     1
 10
403.155290
 20
-139.522184
 30
0.0
 11
403.155290
 21
-193.022184
 31
0.0
  0
LINE
  8
0
  6
BYLAYER
 62
     1
 10
301.960771
 20
-74.772306
 30
0.0
 11
279.905290
 21
-74.772306
 31
0.0
  0
LINE
  8
0
  6
BYLAYER
 62
     1
 10
318.655290
 20
-72.272306
 30
0.0
 11
279.905290
 21
-72.272306
 31
0.0
  0
ARC
  8
0
  6
BYLAYER
 62
     1
 10
279.905290
 20
-73.522306
 30
0.0
 40
1.25
 50
90.0
 51
270.000005
  0
LINE
  8
0
  6
BYLAYER
 62
     1
 10
318.655290
 20
-72.272306
 30
0.0
 11
357.405290
 21
-72.272306
 31
0.0
  0
ARC
  8
0
  6
BYLAYER
 62
     1
 10
357.405290
 20
-73.522306
 30
0.0
 40
1.25
 50
270.0
 51
450.000005
  0
ARC
  8
0
  6
BYLAYER
 62
     1
 10
243.655290
 20
-81.272306
 30
0.0
 40
1.0
 50
180.000000
 51
269.999996
  0
ARC
  8
0
  6
BYLAYER
 62
     1
 10
243.655290
 20
-85.772306
 30
0.0
 40
1.0
 50
90.0
 51
180.000003
  0
ARC
  8
0
  6
BYLAYER
 62
     1
 10
272.405290
 20
-93.522306
 30
0.0
 40
1.25
 50
270.0
 51
450.000005
  0
ARC
  8
0
  6
BYLAYER
 62
     1
 10
243.655290
 20
-95.772306
 30
0.0
 40
1.0
 50
90.0
 51
180.000003
  0
ARC
  8
0
  6
BYLAYER
 62
     1
 10
243.655290
 20
-101.272306
 30
0.0
 40
1.000000
 50
180.000000
 51
269.999996
  0
LINE
  8
0
  6
BYLAYER
 62
     1
 10
262.405229
 20
-102.272306
 30
0.0
 11
243.655290
 21
-102.272306
 31
0.0
  0
ARC
  8
0
  6
BYLAYER
 62
     1
 10
262.405229
 20
-103.522306
 30
0.0
 40
1.25
 50
270.0
 51
450.000005
  0
LINE
  8
0
  6
BYLAYER
 62
     1
 10
272.405290
 20
-92.272306
 30
0.0
 11
243.655290
 21
-92.272306
 31
0.0
  0
LINE
  8
0
  6
BYLAYER
 62
     1
 10
272.405290
 20
-94.772306
 30
0.0
 11
243.655290
 21
-94.772306
 31
0.0
  0
LINE
  8
0
  6
BYLAYER
 62
     1
 10
243.655290
 20
-84.772306
 30
0.0
 11
277.755144
 21
-84.772306
 31
0.0
  0
LINE
  8
0
  6
BYLAYER
 62
     1
 10
243.655290
 20
-82.272306
 30
0.0
 11
277.755144
 21
-82.272306
 31
0.0
  0
LINE
  8
0
  6
BYLAYER
 62
     1
 10
364.905046
 20
-92.272306
 30
0.0
 11
393.655290
 21
-92.272306
 31
0.0
  0
LINE
  8
0
  6
BYLAYER
 62
     1
 10
364.905046
 20
-94.772306
 30
0.0
 11
393.655290
 21
-94.772306
 31
0.0
  0
ARC
  8
0
  6
BYLAYER
 62
     1
 10
364.905046
 20
-93.522306
 30
0.0
 40
1.25
 50
90.0
 51
270.000005
  0
LINE
  8
0
  6
BYLAYER
 62
     1
 10
374.905107
 20
-104.772306
 30
0.0
 11
393.655290
 21
-104.772306
 31
0.0
  0
ARC
  8
0
  6
BYLAYER
 62
     1
 10
374.905107
 20
-103.522306
 30
0.0
 40
1.25
 50
90.0
 51
270.000005
  0
ARC
  8
0
  6
BYLAYER
 62
     1
 10
393.655290
 20
-95.772306
 30
0.0
 40
1.0
 50
0.0
 51
90.000016
  0
ARC
  8
0
  6
BYLAYER
 62
     1
 10
393.655290
 20
-95.772306
 30
0.0
 40
1.0
 50
0.0
 51
90.000016
  0
ARC
  8
0
  6
BYLAYER
 62
     1
 10
393.655290
 20
-105.772306
 30
0.0
 40
1.0
 50
0.0
 51
90.000016
  0
ARC
  8
0
  6
BYLAYER
 62
     1
 10
243.655290
 20
-91.272306
 30
0.0
 40
1.000000
 50
180.000000
 51
270.000009
  0
ARC
  8
0
  6
BYLAYER
 62
     1
 10
393.655290
 20
-91.272306
 30
0.0
 40
1.0
 50
270.0
 51
360.000003
  0
ARC
  8
0
  6
BYLAYER
 62
     1
 10
393.655290
 20
-101.272306
 30
0.0
 40
1.0
 50
270.0
 51
359.999982
  0
LINE
  8
0
  6
BYLAYER
 62
     1
 10
404.655290
 20
-218.022184
 30
0.0
 11
394.655290
 21
-218.022184
 31
0.0
  0
LINE
  8
0
  6
BYLAYER
 62
     1
 10
404.655290
 20
-207.022184
 30
0.0
 11
394.655290
 21
-207.022184
 31
0.0
  0
LINE
  8
0
  6
BYLAYER
 62
     1
 10
264.155290
 20
-229.522184
 30
0.0
 11
264.155290
 21
-239.522184
 31
0.0
  0
LINE
  8
0
  6
BYLAYER
 62
     1
 10
335.349809
 20
-74.772306
 30
0.0
 11
357.405290
 21
-74.772306
 31
0.0
  0
LINE
  8
0
  6
BYLAYER
 62
     1
 10
359.655290
 20
-34.522184
 30
0.0
 11
402.655290
 21
-34.522184
 31
0.0
  0
LINE
  8
0
  6
BYLAYER
 62
     1
 10
277.655290
 20
-34.522184
 30
0.0
 11
277.655290
 21
-44.522184
 31
0.0
  0
LINE
  8
0
  6
BYLAYER
 62
     1
 10
279.155290
 20
-36.022184
 30
0.0
 11
318.655290
 21
-36.022184
 31
0.0
  0
LINE
  8
0
  6
BYLAYER
 62
     1
 10
358.155290
 20
-36.022184
 30
0.0
 11
318.655290
 21
-36.022184
 31
0.0
  0
LINE
  8
0
  6
BYLAYER
 62
     1
 10
358.155290
 20
-36.022184
 30
0.0
 11
358.155290
 21
-44.522184
 31
0.0
  0
LINE
  8
0
  6
BYLAYER
 62
     1
 10
359.655290
 20
-34.522184
 30
0.0
 11
359.655290
 21
-44.522184
 31
0.0
  0
LINE
  8
0
  6
BYLAYER
 62
     1
 10
277.655290
 20
-34.522184
 30
0.0
 11
234.655290
 21
-34.522184
 31
0.0
  0
LINE
  8
0
  6
BYLAYER
 62
     1
 10
359.655290
 20
-34.522184
 30
0.0
 11
359.655290
 21
-44.522184
 31
0.0
  0
LINE
  8
0
  6
BYLAYER
 62
     1
 10
232.655290
 20
-36.522306
 30
0.0
 11
234.655290
 21
-34.522306
 31
0.0
  0
LINE
  8
0
  6
BYLAYER
 62
     1
 10
358.155290
 20
-36.022184
 30
0.0
 11
359.655290
 21
-34.522184
 31
0.0
  0
LINE
  8
0
  6
BYLAYER
 62
     1
 10
279.155290
 20
-36.022184
 30
0.0
 11
277.655290
 21
-34.522184
 31
0.0
  0
LINE
  8
0
  6
BYLAYER
 62
     1
 10
404.655290
 20
-36.522306
 30
0.0
 11
402.655290
 21
-34.522184
 31
0.0
  0
ARC
  8
0
  6
BYLAYER
 62
     1
 10
392.655290
 20
-46.522306
 30
0.0
 40
2.000000
 50
0.0
 51
89.999996
  0
LINE
  8
0
  6
BYLAYER
 62
     1
 10
232.655290
 20
-66.022184
 30
0.0
 11
242.655290
 21
-66.022184
 31
0.0
  0
LINE
  8
0
  6
BYLAYER
 62
     1
 10
232.655290
 20
-55.022184
 30
0.0
 11
242.655290
 21
-55.022184
 31
0.0
  0
LINE
  8
0
  6
BYLAYER
 62
     1
 10
232.655290
 20
-208.022184
 30
0.0
 11
242.655290
 21
-208.022184
 31
0.0
  0
LINE
  8
0
  6
BYLAYER
 62
     1
 10
232.655290
 20
-219.022184
 30
0.0
 11
242.655290
 21
-219.022184
 31
0.0
  0
LINE
  8
0
  6
BYLAYER
 62
     1
 10
406.655290
 20
-84.272306
 30
0.0
 11
406.655290
 21
-63.772306
 31
0.0
  0
LINE
  8
0
  6
BYLAYER
 62
     1
 10
279.155290
 20
-44.522306
 30
0.0
 11
279.155290
 21
-36.022184
 31
0.0
  0
ARC
  8
0
  6
BYLAYER
 62
     1
 10
393.655290
 20
-228.522184
 30
0.0
 40
1.0
 50
270.0
 51
360.000003
  0
ARC
  8
0
  6
BYLAYER
 62
     1
 10
243.655290
 20
-228.522184
 30
0.0
 40
1.0
 50
180.000000
 51
269.999996
  0
LINE
  8
0
  6
BYLAYER
 62
     1
 10
264.405290
 20
-44.522306
 30
0.0
 11
264.405290
 21
-34.522184
 31
0.0
  0
LINE
  8
0
  6
BYLAYER
 62
     1
 10
252.905290
 20
-44.522306
 30
0.0
 11
252.905290
 21
-34.522184
 31
0.0
  0
LINE
  8
0
  6
BYLAYER
 62
     1
 10
372.905290
 20
-44.522306
 30
0.0
 11
372.905290
 21
-34.522184
 31
0.0
  0
LINE
  8
0
  6
BYLAYER
 62
     1
 10
384.405290
 20
-44.522306
 30
0.0
 11
384.405290
 21
-34.522184
 31
0.0
  0
ARC
  8
0
  6
BYLAYER
 62
     1
 10
359.901140
 20
-83.522306
 30
0.0
 40
1.25
 50
90.0
 51
270.000005
  0
ARC
  8
0
  6
BYLAYER
 62
     1
 10
277.439287
 20
-83.522306
 30
0.0
 40
1.25
 50
270.0
 51
450.000005
  0
LINE
  8
0
  6
BYLAYER
 62
     1
 10
404.655290
 20
-79.522306
 30
0.0
 11
394.655290
 21
-79.522306
 31
0.0
  0
LINE
  8
0
  6
BYLAYER
 62
     1
 10
403.155290
 20
-81.022306
 30
0.0
 11
404.655290
 21
-79.522306
 31
0.0
  0
LINE
  8
0
  6
BYLAYER
 62
     1
 10
403.155290
 20
-81.022306
 30
0.0
 11
403.155290
 21
-139.522184
 31
0.0
  0
LINE
  8
0
  6
BYLAYER
 62
     1
 10
404.655290
 20
-36.522306
 30
0.0
 11
404.655290
 21
-79.522306
 31
0.0
  0
LINE
  8
0
  6
BYLAYER
 62
     1
 10
232.655290
 20
-79.522306
 30
0.0
 11
242.655290
 21
-79.522306
 31
0.0
  0
LINE
  8
0
  6
BYLAYER
 62
     1
 10
234.155290
 20
-81.022306
 30
0.0
 11
232.655290
 21
-79.522306
 31
0.0
  0
LINE
  8
0
  6
BYLAYER
 62
     1
 10
234.155290
 20
-81.022306
 30
0.0
 11
234.155290
 21
-139.522184
 31
0.0
  0
LINE
  8
0
  6
BYLAYER
 62
     1
 10
392.655290
 20
-44.522306
 30
0.0
 11
244.655290
 21
-44.522306
 31
0.0
  0
LINE
  8
0
  6
BYLAYER
 62
     1
 10
403.155290
 20
-81.022306
 30
0.0
 11
394.655290
 21
-81.022306
 31
0.0
  0
LINE
  8
0
  6
BYLAYER
 62
     1
 10
403.155290
 20
-193.022184
 30
0.0
 11
394.655290
 21
-193.022184
 31
0.0
  0
LINE
  8
0
  6
BYLAYER
 62
     1
 10
279.155290
 20
-238.022184
 30
0.0
 11
279.155290
 21
-229.522184
 31
0.0
  0
LINE
  8
0
  6
BYLAYER
 62
     1
 10
358.155290
 20
-229.522184
 30
0.0
 11
358.155290
 21
-238.022184
 31
0.0
  0
LINE
  8
0
  6
BYLAYER
 62
     1
 10
234.155290
 20
-193.022184
 30
0.0
 11
242.655290
 21
-193.022184
 31
0.0
  0
LINE
  8
0
  6
BYLAYER
 62
     1
 10
242.655290
 20
-81.022306
 30
0.0
 11
234.155290
 21
-81.022306
 31
0.0
  0
LINE
  8
0
  6
BYLAYER
 62
     1
 10
358.155290
 20
-238.022184
 30
0.0
 11
279.155290
 21
-238.022184
 31
0.0
  0
LINE
  8
0
  6
BYLAYER
 62
     1
 10
242.655290
 20
-123.718656
 30
0.0
 11
242.655290
 21
-46.522306
 31
0.0
  0
LINE
  8
0
  6
BYLAYER
 62
     1
 10
242.655290
 20
-46.522306
 30
0.0
 11
244.655290
 21
-44.522306
 31
0.0
  0
ARC
  8
0
  6
BYLAYER
 62
     1
 10
240.655290
 20
-123.718656
 30
0.0
 40
2.000004
 50
339.088047
 51
360.000000
  0
ARC
  8
0
  6
BYLAYER
 62
     1
 10
318.655290
 20
-153.522184
 30
0.0
 40
81.5
 50
159.088329
 51
200.911681
  0
LINE
  8
0
  6
BYLAYER
 62
     1
 10
242.655290
 20
-183.325712
 30
0.0
 11
242.655290
 21
-228.522184
 31
0.0
  0
ARC
  8
0
  6
BYLAYER
 62
     1
 10
240.655290
 20
-183.325712
 30
0.0
 40
2.000004
 50
0.0
 51
20.911958
  0
LINE
  8
0
  6
BYLAYER
 62
     1
 10
243.655290
 20
-229.522184
 30
0.0
 11
288.851762
 21
-229.522184
 31
0.0
  0
ARC
  8
0
  6
BYLAYER
 62
     1
 10
288.851762
 20
-231.522184
 30
0.0
 40
2.0
 50
69.087962
 51
90.000000
  0
ARC
  8
0
  6
BYLAYER
 62
     1
 10
318.655290
 20
-153.522184
 30
0.0
 40
81.500008
 50
249.088338
 51
290.91169
  0
LINE
  8
0
  6
BYLAYER
 62
     1
 10
348.458818
 20
-229.522184
 30
0.0
 11
393.655290
 21
-229.522184
 31
0.0
  0
ARC
  8
0
  6
BYLAYER
 62
     1
 10
348.458818
 20
-231.522184
 30
0.0
 40
1.999991
 50
90.0
 51
110.911628
  0
LINE
  8
0
  6
BYLAYER
 62
     1
 10
394.655290
 20
-183.325712
 30
0.0
 11
394.655290
 21
-228.522184
 31
0.0
  0
ARC
  8
0
  6
BYLAYER
 62
     1
 10
396.655290
 20
-183.325712
 30
0.0
 40
2.000000
 50
159.087955
 51
180.000000
  0
LINE
  8
0
  6
BYLAYER
 62
     1
 10
394.655290
 20
-123.718656
 30
0.0
 11
394.655290
 21
-46.022306
 31
0.0
  0
ARC
  8
0
  6
BYLAYER
 62
     1
 10
318.655290
 20
-153.522184
 30
0.0
 40
81.500008
 50
339.08832
 51
380.911693
  0
ARC
  8
0
  6
BYLAYER
 62
     1
 10
396.655290
 20
-123.718626
 30
0.0
 40
2.000000
 50
180.000000
 51
200.912031
  0
ARC
  8
0
  6
BYLAYER
 62
     1
 10
246.655290
 20
-225.522184
 30
0.0
 40
1.0
 50
180.000000
 51
269.999996
  0
LINE
  8
0
  6
BYLAYER
 62
     1
 10
391.655290
 20
-194.522184
 30
0.0
 11
391.655290
 21
-225.522184
 31
0.0
  0
ARC
  8
0
  6
BYLAYER
 62
     1
 10
390.655290
 20
-225.522184
 30
0.0
 40
1.0
 50
270.0
 51
360.000003
  0
LINE
  8
0
  6
BYLAYER
 62
     1
 10
245.948198
 20
-226.229307
 30
0.0
 11
242.948198
 21
-229.229307
 31
0.0
  0
LINE
  8
0
  6
BYLAYER
 62
     1
 10
391.362382
 20
-226.229307
 30
0.0
 11
394.362382
 21
-229.229307
 31
0.0
  0
ARC
  8
0
  6
BYLAYER
 62
     1
 10
243.655290
 20
-105.772306
 30
0.0
 40
1.000000
 50
90.0
 51
179.999989
  0
LINE
  8
0
  6
BYLAYER
 62
     1
 10
262.405229
 20
-104.772306
 30
0.0
 11
243.655290
 21
-104.772306
 31
0.0
  0
ARC
  8
0
  6
BYLAYER
 62
     1
 10
388.655290
 20
-73.522184
 30
0.0
 40
2.000000
 50
90.0
 51
180.000003
  0
LINE
  8
0
  6
BYLAYER
 62
     1
 10
386.655290
 20
-73.522184
 30
0.0
 11
386.655290
 21
-83.522184
 31
0.0
  0
ARC
  8
0
  6
BYLAYER
 62
     1
 10
388.655290
 20
-83.522184
 30
0.0
 40
2.000000
 50
180.000000
 51
269.999996
  0
LINE
  8
0
  6
BYLAYER
 62
     1
 10
388.655290
 20
-85.522184
 30
0.0
 11
392.655290
 21
-85.522184
 31
0.0
  0
ARC
  8
0
  6
BYLAYER
 62
     1
 10
392.655290
 20
-87.522184
 30
0.0
 40
2.000000
 50
0.0
 51
90.000003
  0
LINE
  8
0
  6
BYLAYER
 62
     1
 10
388.655290
 20
-71.522184
 30
0.0
 11
392.655290
 21
-71.522184
 31
0.0
  0
ARC
  8
0
  6
BYLAYER
 62
     1
 10
392.655290
 20
-69.522184
 30
0.0
 40
2.0
 50
270.0
 51
360.000003
  0
LINE
  8
0
  6
BYLAYER
 62
     1
 10
386.671098
 20
-84.772306
 30
0.0
 11
359.901140
 21
-84.772306
 31
0.0
  0
ARC
  8
0
  6
BYLAYER
 62
     1
 10
386.671098
 20
-85.772306
 30
0.0
 40
1.000026
 50
48.593996
 51
90.000003
  0
LINE
  8
0
  6
BYLAYER
 62
     1
 10
385.655290
 20
-82.272306
 30
0.0
 11
359.901140
 21
-82.272306
 31
0.0
  0
ARC
  8
0
  6
BYLAYER
 62
     1
 10
385.655290
 20
-81.272306
 30
0.0
 40
1.0
 50
270.0
 51
360.000003
  0
LINE
  8
0
  6
BYLAYER
 62
     1
 10
353.066118
 20
-226.522184
 30
0.0
 11
390.655290
 21
-226.522184
 31
0.0
  0
LINE
  8
0
  6
BYLAYER
 62
     1
 10
391.655290
 20
-187.933042
 30
0.0
 11
391.655290
 21
-225.522184
 31
0.0
  0
LINE
  8
0
  6
BYLAYER
 62
     1
 10
245.655290
 20
-187.933042
 30
0.0
 11
245.655290
 21
-225.522184
 31
0.0
  0
LINE
  8
0
  6
BYLAYER
 62
     1
 10
246.655290
 20
-226.522184
 30
0.0
 11
284.244401
 21
-226.522184
 31
0.0
  0
LINE
  8
0
  6
BYLAYER
 62
     1
 10
406.655290
 20
-121.029173
 30
0.0
 11
406.655290
 21
-36.015195
 31
0.0
  0
LINE
  8
0
  6
BYLAYER
 62
     1
 10
406.655290
 20
-121.029173
 30
0.0
 11
403.155290
 21
-121.151395
 31
0.0
  0
LINE
  8
0
  6
BYLAYER
 62
     1
 10
406.655290
 20
-36.015195
 30
0.0
 11
404.057512
 21
-35.924467
 31
0.0
  0
LINE
  8
0
  6
BYLAYER
 62
     1
 10
232.655290
 20
-112.746183
 30
0.0
 11
232.655290
 21
-36.522306
 31
0.0
  0
LINE
  8
0
  6
BYLAYER
 62
     1
 10
232.655290
 20
-112.746183
 30
0.0
 11
234.155290
 21
-112.798551
 31
0.0
  0
LINE
  8
0
  6
BYLAYER
 62
     1
 10
393.655290
 20
-102.272306
 30
0.0
 11
374.905107
 21
-102.272306
 31
0.0
  0
ARC
  8
0
  6
BYLAYER
 62
     1
 10
280.339982
 20
-97.344450
 30
0.0
 40
2.000066
 50
61.945103
 51
124.296261
  0
ARC
  8
0
  6
BYLAYER
 62
     1
 10
306.024553
 20
-86.705534
 30
0.0
 40
1.999995
 50
100.705532
 51
163.055904
  0
ARC
  8
0
  6
BYLAYER
 62
     1
 10
318.655290
 20
-153.522184
 30
0.0
 40
69.999878
 50
79.295443
 51
100.704664
  0
ARC
  8
0
  6
BYLAYER
 62
     1
 10
331.285905
 20
-86.705534
 30
0.0
 40
1.999900
 50
16.944094
 51
79.294466
  0
ARC
  8
0
  6
BYLAYER
 62
     1
 10
356.970415
 20
-97.344450
 30
0.0
 40
1.999928
 50
55.705179
 51
118.056036
  0
ARC
  8
0
  6
BYLAYER
 62
     1
 10
385.471818
 20
-166.153043
 30
0.0
 40
2.000030
 50
286.944361
 51
349.295492
  0
ARC
  8
0
  6
BYLAYER
 62
     1
 10
374.832963
 20
-191.837614
 30
0.0
 40
2.000036
 50
325.704454
 51
388.055618
  0
ARC
  8
0
  6
BYLAYER
 62
     1
 10
318.655290
 20
-153.522184
 30
0.0
 40
69.999969
 50
304.295309
 51
325.704537
  0
ARC
  8
0
  6
BYLAYER
 62
     1
 10
356.970476
 20
-209.700040
 30
0.0
 40
2.000036
 50
241.943960
 51
304.294326
  0
ARC
  8
0
  6
BYLAYER
 62
     1
 10
331.285905
 20
-220.338834
 30
0.0
 40
2.000139
 50
280.705366
 51
343.055895
  0
ARC
  8
0
  6
BYLAYER
 62
     1
 10
318.655290
 20
-153.522184
 30
0.0
 40
70.000023
 50
259.295346
 51
280.704546
  0
ARC
  8
0
  6
BYLAYER
 62
     1
 10
306.024492
 20
-220.338834
 30
0.0
 40
2.000007
 50
196.944598
 51
259.296193
  0
ARC
  8
0
  6
BYLAYER
 62
     1
 10
280.339982
 20
-209.700040
 30
0.0
 40
2.000031
 50
235.705676
 51
298.056041
  0
ARC
  8
0
  6
BYLAYER
 62
     1
 10
318.655290
 20
-153.522184
 30
0.0
 40
70.000069
 50
214.295423
 51
235.704610
  0
ARC
  8
0
  6
BYLAYER
 62
     1
 10
262.477495
 20
-191.837614
 30
0.0
 40
2.000036
 50
151.944375
 51
214.295546
  0
ARC
  8
0
  6
BYLAYER
 62
     1
 10
251.838579
 20
-166.153043
 30
0.0
 40
2.000008
 50
190.704510
 51
253.055640
  0
ARC
  8
0
  6
BYLAYER
 62
     1
 10
318.655290
 20
-153.522184
 30
0.0
 40
70.000046
 50
169.295473
 51
190.704646
  0
ARC
  8
0
  6
BYLAYER
 62
     1
 10
251.838579
 20
-140.891569
 30
0.0
 40
2.000008
 50
106.944349
 51
169.295487
  0
ARC
  8
0
  6
BYLAYER
 62
     1
 10
262.477495
 20
-115.206998
 30
0.0
 40
2.000036
 50
145.704450
 51
208.055622
  0
ARC
  8
0
  6
BYLAYER
 62
     1
 10
318.655290
 20
-153.522184
 30
0.0
 40
70.0
 50
124.295441
 51
145.704587
  0
ARC
  8
0
  6
BYLAYER
 62
     1
 10
318.655290
 20
-153.522184
 30
0.0
 40
80.5
 50
154.482405
 51
205.517595
  0
ARC
  8
0
  6
BYLAYER
 62
     1
 10
247.812700
 20
-119.705320
 30
0.0
 40
2.0
 50
105.000000
 51
154.482405
  0
ARC
  8
0
  6
BYLAYER
 62
     1
 10
318.655290
 20
-153.522184
 30
0.0
 40
80.5
 50
244.482414
 51
295.517604
  0
ARC
  8
0
  6
BYLAYER
 62
     1
 10
318.655290
 20
-153.522184
 30
0.0
 40
80.5
 50
64.482402
 51
115.517593
  0
ARC
  8
0
  6
BYLAYER
 62
     1
 10
352.472185
 20
-82.679624
 30
0.0
 40
2.000000
 50
14.999997
 51
64.482402
  0
ARC
  8
0
  6
BYLAYER
 62
     1
 10
318.655290
 20
-153.522184
 30
0.0
 40
80.5
 50
334.482396
 51
385.517587
  0
ARC
  8
0
  6
BYLAYER
 62
     1
 10
318.655290
 20
-153.522184
 30
0.0
 40
47.500000
 50
22.499997
 51
374.817192
  0
ARC
  8
0
  6
BYLAYER
 62
     1
 10
318.655290
 20
-153.522184
 30
0.0
 40
47.500004
 50
14.817201
 51
22.499997
  0
ARC
  8
0
  6
BYLAYER
 62
     1
 10
390.717790
 20
-183.371549
 30
0.0
 40
16.000019
 50
106.944527
 51
208.056127
  0
ARC
  8
0
  6
BYLAYER
 62
     1
 10
348.504533
 20
-225.584928
 30
0.0
 40
16.000034
 50
61.944358
 51
163.055330
  0
ARC
  8
0
  6
BYLAYER
 62
     1
 10
288.805925
 20
-225.584928
 30
0.0
 40
16.000015
 50
16.944695
 51
118.055640
  0
ARC
  8
0
  6
BYLAYER
 62
     1
 10
246.592668
 20
-183.371549
 30
0.0
 40
15.999969
 50
331.943912
 51
433.055724
  0
ARC
  8
0
  6
BYLAYER
 62
     1
 10
288.805925
 20
-81.459684
 30
0.0
 40
15.999943
 50
241.944206
 51
343.056032
  0
ARC
  8
0
  6
BYLAYER
 62
     1
 10
348.504533
 20
-81.459684
 30
0.0
 40
16.000040
 50
196.943969
 51
298.055604
  0
ARC
  8
0
  6
BYLAYER
 62
     1
 10
246.592668
 20
-123.673063
 30
0.0
 40
16.000046
 50
286.944222
 51
388.056081
  0
ARC
  8
0
  6
BYLAYER
 62
     1
 10
374.832963
 20
-115.206876
 30
0.0
 40
1.999947
 50
331.944107
 51
394.294465
  0
ARC
  8
0
  6
BYLAYER
 62
     1
 10
385.471818
 20
-140.891416
 30
0.0
 40
1.999925
 50
10.705174
 51
73.056031
  0
ARC
  8
0
  6
BYLAYER
 62
     1
 10
318.655290
 20
-153.522184
 30
0.0
 40
69.999832
 50
34.295490
 51
55.704670
  0
ARC
  8
0
  6
BYLAYER
 62
     1
 10
318.655290
 20
-153.522184
 30
0.0
 40
69.999840
 50
349.295164
 51
370.704686
  0
ARC
  8
0
  6
BYLAYER
 62
     1
 10
390.717790
 20
-123.672910
 30
0.0
 40
16.000053
 50
230.812200
 51
253.055476
  0
ARC
  8
0
  6
BYLAYER
 62
     1
 10
390.717790
 20
-123.672910
 30
0.0
 40
16.000072
 50
151.943965
 51
174.188129
  0
ARC
  8
0
  6
BYLAYER
 62
     1
 10
390.717790
 20
-123.672910
 30
0.0
 40
16.000027
 50
174.188211
 51
230.812255
  0
LINE
  8
0
  6
BYLAYER
 62
     1
 10
390.015519
 20
-189.270902
 30
0.0
 11
380.193315
 21
-191.902738
 31
0.0
  0
ARC
  8
0
  6
BYLAYER
 62
     1
 10
389.497880
 20
-187.339048
 30
0.0
 40
2.0
 50
284.999998
 51
334.482403
  0
LINE
  8
0
  6
BYLAYER
 62
     1
 10
357.035844
 20
-215.060239
 30
0.0
 11
354.404008
 21
-224.882383
 31
0.0
  0
ARC
  8
0
  6
BYLAYER
 62
     1
 10
352.472185
 20
-224.364744
 30
0.0
 40
2.000000
 50
295.517608
 51
345.000013
  0
ARC
  8
0
  6
BYLAYER
 62
     1
 10
318.655290
 20
-153.522184
 30
0.0
 40
72.0
 50
303.008420
 51
326.991564
  0
ARC
  8
0
  6
BYLAYER
 62
     1
 10
380.710954
 20
-193.834592
 30
0.0
 40
2.000000
 50
105.000000
 51
146.991572
  0
ARC
  8
0
  6
BYLAYER
 62
     1
 10
358.967729
 20
-215.577879
 30
0.0
 40
2.0
 50
123.008428
 51
165.000001
  0
LINE
  8
0
  6
BYLAYER
 62
     1
 10
354.404008
 20
-82.161985
 30
0.0
 11
357.035844
 21
-91.984129
 31
0.0
  0
LINE
  8
0
  6
BYLAYER
 62
     1
 10
380.193315
 20
-115.141630
 30
0.0
 11
390.015519
 21
-117.773466
 31
0.0
  0
ARC
  8
0
  6
BYLAYER
 62
     1
 10
389.497880
 20
-119.705320
 30
0.0
 40
2.000000
 50
25.517594
 51
74.999999
  0
ARC
  8
0
  6
BYLAYER
 62
     1
 10
318.655290
 20
-153.522184
 30
0.0
 40
72.000000
 50
33.008429
 51
56.991573
  0
ARC
  8
0
  6
BYLAYER
 62
     1
 10
358.967729
 20
-91.466489
 30
0.0
 40
2.0
 50
195.000009
 51
236.991582
  0
ARC
  8
0
  6
BYLAYER
 62
     1
 10
380.710954
 20
-113.209776
 30
0.0
 40
2.0
 50
213.008424
 51
254.999997
  0
LINE
  8
0
  6
BYLAYER
 62
     1
 10
247.295061
 20
-117.773466
 30
0.0
 11
257.117204
 21
-115.141630
 31
0.0
  0
LINE
  8
0
  6
BYLAYER
 62
     1
 10
280.274736
 20
-91.984129
 30
0.0
 11
282.906572
 21
-82.161985
 31
0.0
  0
ARC
  8
0
  6
BYLAYER
 62
     1
 10
284.838395
 20
-82.679624
 30
0.0
 40
2.000000
 50
115.517589
 51
164.999994
  0
ARC
  8
0
  6
BYLAYER
 62
     1
 10
318.655290
 20
-153.522184
 30
0.0
 40
72.000000
 50
123.008428
 51
146.991572
  0
ARC
  8
0
  6
BYLAYER
 62
     1
 10
256.599565
 20
-113.209776
 30
0.0
 40
2.000000
 50
284.999991
 51
326.991564
  0
ARC
  8
0
  6
BYLAYER
 62
     1
 10
278.342851
 20
-91.466489
 30
0.0
 40
2.0
 50
303.008420
 51
344.999993
  0
LINE
  8
0
  6
BYLAYER
 62
     1
 10
282.906572
 20
-224.882383
 30
0.0
 11
280.274736
 21
-215.060239
 31
0.0
  0
ARC
  8
0
  6
BYLAYER
 62
     1
 10
284.838395
 20
-224.364744
 30
0.0
 40
2.000000
 50
195.000002
 51
244.482407
  0
LINE
  8
0
  6
BYLAYER
 62
     1
 10
257.117204
 20
-191.902738
 30
0.0
 11
247.295061
 21
-189.270902
 31
0.0
  0
ARC
  8
0
  6
BYLAYER
 62
     1
 10
247.812700
 20
-187.339048
 30
0.0
 40
2.000000
 50
205.517599
 51
255.000004
  0
ARC
  8
0
  6
BYLAYER
 62
     1
 10
318.655290
 20
-153.522184
 30
0.0
 40
72.0
 50
213.008424
 51
236.991568
  0
ARC
  8
0
  6
BYLAYER
 62
     1
 10
278.342851
 20
-215.577879
 30
0.0
 40
2.000000
 50
15.0
 51
56.991573
  0
ARC
  8
0
  6
BYLAYER
 62
     1
 10
256.599565
 20
-193.834592
 30
0.0
 40
2.000000
 50
33.008429
 51
75.000002
  0
ARC
  8
0
  6
BYLAYER
 62
     1
 10
277.996599
 20
-112.863493
 30
0.0
 40
4.0
 50
270.0
 51
540.0
  0
CIRCLE
  8
0
  6
BYLAYER
 62
     1
 10
277.996599
 20
-112.863493
 30
0.0
 40
3.5
  0
ARC
  8
0
  6
BYLAYER
 62
     1
 10
318.655290
 20
-96.022184
 30
0.0
 40
4.0
 50
270.0
 51
540.0
  0
CIRCLE
  8
0
  6
BYLAYER
 62
     1
 10
318.655290
 20
-96.022184
 30
0.0
 40
3.5
  0
ARC
  8
0
  6
BYLAYER
 62
     1
 10
359.313859
 20
-112.863737
 30
0.0
 40
4.000000
 50
270.0
 51
540.0
  0
CIRCLE
  8
0
  6
BYLAYER
 62
     1
 10
359.313859
 20
-112.863737
 30
0.0
 40
3.5
  0
ARC
  8
0
  6
BYLAYER
 62
     1
 10
376.155290
 20
-153.522184
 30
0.0
 40
4.0
 50
270.0
 51
540.0
  0
CIRCLE
  8
0
  6
BYLAYER
 62
     1
 10
376.155290
 20
-153.522184
 30
0.0
 40
3.5
  0
ARC
  8
0
  6
BYLAYER
 62
     1
 10
359.313859
 20
-194.180875
 30
0.0
 40
4.000000
 50
270.0
 51
540.0
  0
CIRCLE
  8
0
  6
BYLAYER
 62
     1
 10
359.313859
 20
-194.180875
 30
0.0
 40
3.5
  0
ARC
  8
0
  6
BYLAYER
 62
     1
 10
318.655168
 20
-211.022184
 30
0.0
 40
4.0
 50
270.0
 51
540.0
  0
CIRCLE
  8
0
  6
BYLAYER
 62
     1
 10
318.655168
 20
-211.022184
 30
0.0
 40
3.5
  0
ARC
  8
0
  6
BYLAYER
 62
     1
 10
277.996599
 20
-194.180875
 30
0.0
 40
4.0
 50
270.0
 51
540.0
  0
CIRCLE
  8
0
  6
BYLAYER
 62
     1
 10
277.996599
 20
-194.180875
 30
0.0
 40
3.5
  0
ARC
  8
0
  6
BYLAYER
 62
     1
 10
261.155290
 20
-153.522184
 30
0.0
 40
4.0
 50
270.0
 51
540.0
  0
CIRCLE
  8
0
  6
BYLAYER
 62
     1
 10
261.155290
 20
-153.522184
 30
0.0
 40
3.5
  0
ARC
  8
0
  6
BYLAYER
 62
     1
 10
306.124162
 20
-64.982213
 30
0.0
 40
2.873727
 50
270.0
 51
308.795511
  0
ARC
  8
0
  6
BYLAYER
 62
     1
 10
305.846060
 20
-64.686033
 30
0.0
 40
3.278957
 50
309.340351
 51
360.0
  0
ARC
  8
0
  6
BYLAYER
 62
     1
 10
305.846060
 20
-64.686033
 30
0.0
 40
3.278957
 50
0.0
 51
50.659649
  0
ARC
  8
0
  6
BYLAYER
 62
     1
 10
306.124162
 20
-64.389853
 30
0.0
 40
2.873727
 50
51.204489
 51
90.0
  0
ARC
  8
0
  6
BYLAYER
 62
     1
 10
306.124162
 20
-64.389827
 30
0.0
 40
2.873701
 50
90.0
 51
128.795693
  0
ARC
  8
0
  6
BYLAYER
 62
     1
 10
306.402290
 20
-64.686033
 30
0.0
 40
3.278967
 50
129.340576
 51
180.0
  0
ARC
  8
0
  6
BYLAYER
 62
     1
 10
306.402290
 20
-64.686033
 30
0.0
 40
3.278967
 50
180.000000
 51
230.659424
  0
ARC
  8
0
  6
BYLAYER
 62
     1
 10
306.124162
 20
-64.982239
 30
0.0
 40
2.873701
 50
231.204307
 51
270.000000
  0
ARC
  8
0
  6
BYLAYER
 62
     1
 10
306.124162
 20
-63.842882
 30
0.0
 40
1.329747
 50
90.0
 51
140.793201
  0
ARC
  8
0
  6
BYLAYER
 62
     1
 10
307.157717
 20
-64.686033
 30
0.0
 40
2.663590
 50
140.793201
 51
180.000000
  0
ARC
  8
0
  6
BYLAYER
 62
     1
 10
307.157701
 20
-64.686033
 30
0.0
 40
2.663574
 50
180.000000
 51
219.206869
  0
ARC
  8
0
  6
BYLAYER
 62
     1
 10
306.124162
 20
-65.529173
 30
0.0
 40
1.329750
 50
219.206869
 51
270.0
  0
ARC
  8
0
  6
BYLAYER
 62
     1
 10
306.124162
 20
-65.529173
 30
0.0
 40
1.329750
 50
270.0
 51
320.793131
  0
ARC
  8
0
  6
BYLAYER
 62
     1
 10
305.090623
 20
-64.686033
 30
0.0
 40
2.663574
 50
320.793131
 51
360.0
  0
ARC
  8
0
  6
BYLAYER
 62
     1
 10
305.090607
 20
-64.686033
 30
0.0
 40
2.663590
 50
0.0
 51
39.206799
  0
ARC
  8
0
  6
BYLAYER
 62
     1
 10
306.124162
 20
-63.842882
 30
0.0
 40
1.329747
 50
39.206799
 51
90.0
  0
LINE
  8
0
  6
BYLAYER
 62
     1
 10
296.276323
 20
-67.644605
 30
0.0
 11
296.276323
 21
-61.642912
 31
0.0
  0
LINE
  8
0
  6
BYLAYER
 62
     1
 10
296.276323
 20
-61.642912
 30
0.0
 11
298.716447
 21
-61.642912
 31
0.0
  0
LINE
  8
0
  6
BYLAYER
 62
     1
 10
298.716447
 20
-61.642912
 30
0.0
 11
299.530763
 21
-64.770567
 31
0.0
  0
LINE
  8
0
  6
BYLAYER
 62
     1
 10
296.276323
 20
-67.644605
 30
0.0
 11
297.741533
 21
-67.644605
 31
0.0
  0
LINE
  8
0
  6
BYLAYER
 62
     1
 10
297.741533
 20
-67.644605
 30
0.0
 11
297.741533
 21
-64.178846
 31
0.0
  0
LINE
  8
0
  6
BYLAYER
 62
     1
 10
298.896776
 20
-67.644605
 30
0.0
 11
297.741533
 21
-64.178846
 31
0.0
  0
LINE
  8
0
  6
BYLAYER
 62
     1
 10
302.785203
 20
-67.644605
 30
0.0
 11
302.785203
 21
-61.642912
 31
0.0
  0
LINE
  8
0
  6
BYLAYER
 62
     1
 10
302.785203
 20
-61.642912
 30
0.0
 11
300.345079
 21
-61.642912
 31
0.0
  0
LINE
  8
0
  6
BYLAYER
 62
     1
 10
300.345079
 20
-61.642912
 30
0.0
 11
299.530763
 21
-64.770567
 31
0.0
  0
LINE
  8
0
  6
BYLAYER
 62
     1
 10
302.785203
 20
-67.644605
 30
0.0
 11
301.319993
 21
-67.644605
 31
0.0
  0
LINE
  8
0
  6
BYLAYER
 62
     1
 10
301.319993
 20
-67.644605
 30
0.0
 11
301.319993
 21
-64.178846
 31
0.0
  0
LINE
  8
0
  6
BYLAYER
 62
     1
 10
300.164750
 20
-67.644605
 30
0.0
 11
301.319993
 21
-64.178846
 31
0.0
  0
LINE
  8
0
  6
BYLAYER
 62
     1
 10
300.164750
 20
-67.644605
 30
0.0
 11
298.896776
 21
-67.644605
 31
0.0
  0
LINE
  8
0
  6
BYLAYER
 62
     1
 10
324.256044
 20
-67.644605
 30
0.0
 11
326.538362
 21
-61.642912
 31
0.0
  0
LINE
  8
0
  6
BYLAYER
 62
     1
 10
324.256044
 20
-67.644605
 30
0.0
 11
326.200258
 21
-67.644605
 31
0.0
  0
LINE
  8
0
  6
BYLAYER
 62
     1
 10
326.538362
 20
-61.642912
 30
0.0
 11
328.398042
 21
-61.642912
 31
0.0
  0
LINE
  8
0
  6
BYLAYER
 62
     1
 10
326.200258
 20
-67.644605
 30
0.0
 11
326.488435
 21
-66.799299
 31
0.0
  0
LINE
  8
0
  6
BYLAYER
 62
     1
 10
326.949495
 20
-65.446806
 30
0.0
 11
327.468202
 21
-63.925245
 31
0.0
  0
LINE
  8
0
  6
BYLAYER
 62
     1
 10
330.680391
 20
-67.644605
 30
0.0
 11
328.398042
 21
-61.642912
 31
0.0
  0
LINE
  8
0
  6
BYLAYER
 62
     1
 10
330.680391
 20
-67.644605
 30
0.0
 11
328.736177
 21
-67.644605
 31
0.0
  0
LINE
  8
0
  6
BYLAYER
 62
     1
 10
328.447999
 20
-66.799299
 30
0.0
 11
326.488435
 21
-66.799299
 31
0.0
  0
LINE
  8
0
  6
BYLAYER
 62
     1
 10
327.986909
 20
-65.446806
 30
0.0
 11
326.949495
 21
-65.446806
 31
0.0
  0
LINE
  8
0
  6
BYLAYER
 62
     1
 10
328.736177
 20
-67.644605
 30
0.0
 11
328.447999
 21
-66.799299
 31
0.0
  0
LINE
  8
0
  6
BYLAYER
 62
     1
 10
327.986909
 20
-65.446806
 30
0.0
 11
327.468202
 21
-63.925245
 31
0.0
  0
LINE
  8
0
  6
BYLAYER
 62
     1
 10
309.125017
 20
-63.122205
 30
0.0
 11
310.815629
 21
-63.122205
 31
0.0
  0
LINE
  8
0
  6
BYLAYER
 62
     1
 10
310.815629
 20
-63.122205
 30
0.0
 11
310.815629
 21
-67.644605
 31
0.0
  0
LINE
  8
0
  6
BYLAYER
 62
     1
 10
310.815629
 20
-67.644605
 30
0.0
 11
312.675325
 21
-67.644605
 31
0.0
  0
LINE
  8
0
  6
BYLAYER
 62
     1
 10
312.675325
 20
-67.644605
 30
0.0
 11
312.675325
 21
-63.122205
 31
0.0
  0
LINE
  8
0
  6
BYLAYER
 62
     1
 10
312.675325
 20
-63.122205
 30
0.0
 11
314.365938
 21
-63.122205
 31
0.0
  0
LINE
  8
0
  6
BYLAYER
 62
     1
 10
314.365938
 20
-63.122205
 30
0.0
 11
314.365938
 21
-61.642912
 31
0.0
  0
LINE
  8
0
  6
BYLAYER
 62
     1
 10
314.365938
 20
-61.642912
 30
0.0
 11
309.125017
 21
-61.642912
 31
0.0
  0
LINE
  8
0
  6
BYLAYER
 62
     1
 10
309.125017
 20
-61.642912
 30
0.0
 11
309.125017
 21
-63.122205
 31
0.0
  0
ARC
  8
0
  6
BYLAYER
 62
     1
 10
317.366777
 20
-64.982239
 30
0.0
 40
2.873701
 50
270.0
 51
308.795693
  0
ARC
  8
0
  6
BYLAYER
 62
     1
 10
317.088649
 20
-64.686033
 30
0.0
 40
3.278967
 50
309.340576
 51
360.0
  0
ARC
  8
0
  6
BYLAYER
 62
     1
 10
317.088659
 20
-64.686033
 30
0.0
 40
3.278957
 50
0.0
 51
50.659649
  0
ARC
  8
0
  6
BYLAYER
 62
     1
 10
317.366762
 20
-64.389853
 30
0.0
 40
2.873727
 50
51.204489
 51
90.000000
  0
ARC
  8
0
  6
BYLAYER
 62
     1
 10
317.366762
 20
-64.389827
 30
0.0
 40
2.873701
 50
90.0
 51
128.795693
  0
ARC
  8
0
  6
BYLAYER
 62
     1
 10
317.644890
 20
-64.686033
 30
0.0
 40
3.278967
 50
129.340576
 51
180.0
  0
ARC
  8
0
  6
BYLAYER
 62
     1
 10
317.644879
 20
-64.686033
 30
0.0
 40
3.278957
 50
180.000000
 51
230.659649
  0
ARC
  8
0
  6
BYLAYER
 62
     1
 10
317.366777
 20
-64.982213
 30
0.0
 40
2.873727
 50
231.204489
 51
270.000000
  0
ARC
  8
0
  6
BYLAYER
 62
     1
 10
317.366762
 20
-63.842882
 30
0.0
 40
1.329747
 50
90.0
 51
140.793201
  0
ARC
  8
0
  6
BYLAYER
 62
     1
 10
318.400316
 20
-64.686033
 30
0.0
 40
2.663590
 50
140.793201
 51
180.0
  0
ARC
  8
0
  6
BYLAYER
 62
     1
 10
318.400282
 20
-64.686033
 30
0.0
 40
2.663556
 50
180.000000
 51
219.207055
  0
ARC
  8
0
  6
BYLAYER
 62
     1
 10
317.366777
 20
-65.529151
 30
0.0
 40
1.329771
 50
219.207055
 51
270.000000
  0
ARC
  8
0
  6
BYLAYER
 62
     1
 10
317.366777
 20
-65.529173
 30
0.0
 40
1.329750
 50
270.0
 51
320.793131
  0
ARC
  8
0
  6
BYLAYER
 62
     1
 10
316.333238
 20
-64.686033
 30
0.0
 40
2.663574
 50
320.793131
 51
360.0
  0
ARC
  8
0
  6
BYLAYER
 62
     1
 10
316.333240
 20
-64.686033
 30
0.0
 40
2.663572
 50
0.0
 51
39.206985
  0
ARC
  8
0
  6
BYLAYER
 62
     1
 10
317.366762
 20
-63.842903
 30
0.0
 40
1.329768
 50
39.206985
 51
90.0
  0
LINE
  8
0
  6
BYLAYER
 62
     1
 10
330.842378
 20
-67.644605
 30
0.0
 11
330.842378
 21
-61.642912
 31
0.0
  0
LINE
  8
0
  6
BYLAYER
 62
     1
 10
330.842378
 20
-61.642912
 30
0.0
 11
334.561723
 21
-61.642912
 31
0.0
  0
ARC
  8
0
  6
BYLAYER
 62
     1
 10
334.561723
 20
-63.333540
 30
0.0
 40
1.690610
 50
287.134650
 51
450.000006
  0
ARC
  8
0
  6
BYLAYER
 62
     1
 10
334.899858
 20
-66.292112
 30
0.0
 40
1.352493
 50
0.0
 51
83.207557
  0
LINE
  8
0
  6
BYLAYER
 62
     1
 10
336.252351
 20
-66.292112
 30
0.0
 11
336.252351
 21
-67.137418
 31
0.0
  0
ARC
  8
0
  6
BYLAYER
 62
     1
 10
337.604844
 20
-67.137418
 30
0.0
 40
1.352493
 50
180.000000
 51
202.024314
  0
LINE
  8
0
  6
BYLAYER
 62
     1
 10
334.491365
 20
-67.644605
 30
0.0
 11
336.351045
 21
-67.644605
 31
0.0
  0
ARC
  8
0
  6
BYLAYER
 62
     1
 10
335.745164
 20
-67.137418
 30
0.0
 40
1.352493
 50
180.000000
 51
202.024314
  0
LINE
  8
0
  6
BYLAYER
 62
     1
 10
334.392671
 20
-67.137418
 30
0.0
 11
334.392671
 21
-66.461179
 31
0.0
  0
LINE
  8
0
  6
BYLAYER
 62
     1
 10
330.842378
 20
-67.644605
 30
0.0
 11
332.617524
 21
-67.644605
 31
0.0
  0
LINE
  8
0
  6
BYLAYER
 62
     1
 10
332.617524
 20
-67.644605
 30
0.0
 11
332.617524
 21
-65.615873
 31
0.0
  0
LINE
  8
0
  6
BYLAYER
 62
     1
 10
333.547365
 20
-65.615873
 30
0.0
 11
332.617524
 21
-65.615873
 31
0.0
  0
ARC
  8
0
  6
BYLAYER
 62
     1
 10
333.547365
 20
-66.461179
 30
0.0
 40
0.845306
 50
0.0
 51
90.000003
  0
LINE
  8
0
  6
BYLAYER
 62
     1
 10
332.617524
 20
-64.263380
 30
0.0
 11
332.617524
 21
-62.995405
 31
0.0
  0
LINE
  8
0
  6
BYLAYER
 62
     1
 10
332.617524
 20
-62.995405
 30
0.0
 11
333.800950
 21
-62.995405
 31
0.0
  0
LINE
  8
0
  6
BYLAYER
 62
     1
 10
332.617524
 20
-64.263380
 30
0.0
 11
333.800950
 21
-64.263380
 31
0.0
  0
ARC
  8
0
  6
BYLAYER
 62
     1
 10
333.800950
 20
-63.629392
 30
0.0
 40
0.633987
 50
270.0
 51
450.000005
  0
LINE
  8
0
  6
BYLAYER
 62
     1
 10
322.776765
 20
-65.746809
 30
0.0
 11
321.677858
 21
-61.642912
 31
0.0
  0
LINE
  8
0
  6
BYLAYER
 62
     1
 10
321.677858
 20
-61.642912
 30
0.0
 11
319.902711
 21
-61.642912
 31
0.0
  0
LINE
  8
0
  6
BYLAYER
 62
     1
 10
319.902711
 20
-61.642912
 30
0.0
 11
321.762391
 21
-67.644605
 31
0.0
  0
LINE
  8
0
  6
BYLAYER
 62
     1
 10
322.776765
 20
-65.746809
 30
0.0
 11
323.875642
 21
-61.642912
 31
0.0
  0
LINE
  8
0
  6
BYLAYER
 62
     1
 10
323.875642
 20
-61.642912
 30
0.0
 11
325.650789
 21
-61.642912
 31
0.0
  0
LINE
  8
0
  6
BYLAYER
 62
     1
 10
325.650789
 20
-61.642912
 30
0.0
 11
323.791108
 21
-67.644605
 31
0.0
  0
LINE
  8
0
  6
BYLAYER
 62
     1
 10
323.791108
 20
-67.644605
 30
0.0
 11
321.762391
 21
-67.644605
 31
0.0
  0
LINE
  8
0
  6
BYLAYER
 62
     1
 10
336.513032
 20
-67.644605
 30
0.0
 11
338.288179
 21
-67.644605
 31
0.0
  0
LINE
  8
0
  6
BYLAYER
 62
     1
 10
338.288179
 20
-67.644605
 30
0.0
 11
338.288179
 21
-61.642912
 31
0.0
  0
LINE
  8
0
  6
BYLAYER
 62
     1
 10
338.288179
 20
-61.642912
 30
0.0
 11
336.513032
 21
-61.642912
 31
0.0
  0
LINE
  8
0
  6
BYLAYER
 62
     1
 10
336.513032
 20
-61.642912
 30
0.0
 11
336.513032
 21
-67.644605
 31
0.0
  0
ARC
  8
0
  6
BYLAYER
 62
     1
 10
341.627153
 20
-64.982239
 30
0.0
 40
2.873701
 50
270.0
 51
308.795693
  0
ARC
  8
0
  6
BYLAYER
 62
     1
 10
341.349025
 20
-64.686033
 30
0.0
 40
3.278967
 50
309.340576
 51
360.0
  0
ARC
  8
0
  6
BYLAYER
 62
     1
 10
341.349025
 20
-64.686033
 30
0.0
 40
3.278967
 50
0.0
 51
50.659424
  0
ARC
  8
0
  6
BYLAYER
 62
     1
 10
341.627153
 20
-64.389827
 30
0.0
 40
2.873701
 50
51.204307
 51
90.000000
  0
ARC
  8
0
  6
BYLAYER
 62
     1
 10
341.627153
 20
-64.389827
 30
0.0
 40
2.873701
 50
90.0
 51
128.795693
  0
ARC
  8
0
  6
BYLAYER
 62
     1
 10
341.905281
 20
-64.686033
 30
0.0
 40
3.278967
 50
129.340576
 51
180.0
  0
ARC
  8
0
  6
BYLAYER
 62
     1
 10
341.905281
 20
-64.686033
 30
0.0
 40
3.278967
 50
180.000000
 51
230.659424
  0
ARC
  8
0
  6
BYLAYER
 62
     1
 10
341.627153
 20
-64.982239
 30
0.0
 40
2.873701
 50
231.204307
 51
270.000000
  0
ARC
  8
0
  6
BYLAYER
 62
     1
 10
341.627153
 20
-63.842882
 30
0.0
 40
1.329747
 50
39.206799
 51
90.0
  0
ARC
  8
0
  6
BYLAYER
 62
     1
 10
340.593598
 20
-64.686033
 30
0.0
 40
2.663590
 50
0.0
 51
39.206799
  0
ARC
  8
0
  6
BYLAYER
 62
     1
 10
340.593614
 20
-64.686033
 30
0.0
 40
2.663574
 50
320.793131
 51
360.0
  0
ARC
  8
0
  6
BYLAYER
 62
     1
 10
341.627153
 20
-65.529173
 30
0.0
 40
1.329750
 50
270.0
 51
320.793131
  0
ARC
  8
0
  6
BYLAYER
 62
     1
 10
341.627153
 20
-65.529173
 30
0.0
 40
1.329750
 50
219.206869
 51
270.000000
  0
ARC
  8
0
  6
BYLAYER
 62
     1
 10
342.660691
 20
-64.686033
 30
0.0
 40
2.663574
 50
180.000000
 51
219.206869
  0
ARC
  8
0
  6
BYLAYER
 62
     1
 10
342.660707
 20
-64.686033
 30
0.0
 40
2.663590
 50
140.793201
 51
180.000000
  0
ARC
  8
0
  6
BYLAYER
 62
     1
 10
341.627153
 20
-63.842882
 30
0.0
 40
1.329747
 50
90.0
 51
140.793201
  0
ARC
  8
0
  6
BYLAYER
 62
     1
 10
311.655290
 20
-54.772184
 30
0.0
 40
7.429995
 50
174.535650
 51
180.0
  0
LINE
  8
0
  6
BYLAYER
 62
     1
 10
304.259057
 20
-54.064649
 30
0.0
 11
304.259057
 21
-54.064642
 31
0.0
  0
LINE
  8
0
  6
BYLAYER
 62
     1
 10
304.267142
 20
-53.984719
 30
0.0
 11
304.976245
 21
-53.686176
 31
0.0
  0
ARC
  8
0
  6
BYLAYER
 62
     1
 10
311.655321
 20
-54.772245
 30
0.0
 40
6.766781
 50
159.235383
 51
170.763998
  0
LINE
  8
0
  6
BYLAYER
 62
     1
 10
305.328046
 20
-52.373180
 30
0.0
 11
304.863247
 21
-51.760066
 31
0.0
  0
ARC
  8
0
  6
BYLAYER
 62
     1
 10
311.655290
 20
-54.772184
 30
0.0
 40
7.429986
 50
144.139514
 51
156.083795
  0
LINE
  8
0
  6
BYLAYER
 62
     1
 10
305.584825
 20
-50.487989
 30
0.0
 11
305.585267
 21
-50.487363
 31
0.0
  0
LINE
  8
0
  6
BYLAYER
 62
     1
 10
305.633688
 20
-50.419597
 30
0.0
 11
306.388613
 21
-50.523461
 31
0.0
  0
ARC
  8
0
  6
BYLAYER
 62
     1
 10
311.655290
 20
-54.772184
 30
0.0
 40
6.766741
 50
129.235643
 51
141.105976
  0
LINE
  8
0
  6
BYLAYER
 62
     1
 10
307.264604
 20
-49.623327
 30
0.0
 11
307.265336
 21
-49.622694
 31
0.0
  0
LINE
  8
0
  6
BYLAYER
 62
     1
 10
307.375250
 20
-49.530997
 30
0.0
 11
307.279257
 21
-48.767590
 31
0.0
  0
ARC
  8
0
  6
BYLAYER
 62
     1
 10
311.655290
 20
-54.772184
 30
0.0
 40
7.429994
 50
114.139607
 51
126.083853
  0
LINE
  8
0
  6
BYLAYER
 62
     1
 10
308.540742
 20
-48.026487
 30
0.0
 11
308.541246
 21
-48.026250
 31
0.0
  0
LINE
  8
0
  6
BYLAYER
 62
     1
 10
308.616709
 20
-47.991930
 30
0.0
 11
309.218539
 21
-48.459325
 31
0.0
  0
LINE
  8
0
  6
BYLAYER
 62
     1
 10
309.356141
 20
-48.408002
 30
0.0
 11
309.356904
 21
-48.407735
 31
0.0
  0
ARC
  8
0
  6
BYLAYER
 62
     1
 10
311.655290
 20
-54.772184
 30
0.0
 40
6.766738
 50
99.235601
 51
111.106038
  0
ARC
  8
0
  6
BYLAYER
 62
     1
 10
311.655290
 20
-54.772184
 30
0.0
 40
7.429995
 50
90.0
 51
96.083892
  0
LINE
  8
0
  6
BYLAYER
 62
     1
 10
310.867825
 20
-47.384036
 30
0.0
 11
310.569266
 21
-48.093165
 31
0.0
  0
LINE
  8
0
  6
BYLAYER
 62
     1
 10
319.051515
 20
-54.064649
 30
0.0
 11
319.051515
 21
-54.064642
 31
0.0
  0
LINE
  8
0
  6
BYLAYER
 62
     1
 10
319.043437
 20
-53.984718
 30
0.0
 11
318.334299
 21
-53.686169
 31
0.0
  0
ARC
  8
0
  6
BYLAYER
 62
     1
 10
311.655244
 20
-54.772245
 30
0.0
 40
6.766781
 50
9.235986
 51
20.764650
  0
LINE
  8
0
  6
BYLAYER
 62
     1
 10
317.982568
 20
-52.373109
 30
0.0
 11
318.447334
 21
-51.760068
 31
0.0
  0
ARC
  8
0
  6
BYLAYER
 62
     1
 10
311.655290
 20
-54.772184
 30
0.0
 40
7.429986
 50
23.916189
 51
35.860484
  0
LINE
  8
0
  6
BYLAYER
 62
     1
 10
317.725740
 20
-50.487989
 30
0.0
 11
317.725297
 21
-50.487363
 31
0.0
  0
LINE
  8
0
  6
BYLAYER
 62
     1
 10
317.676892
 20
-50.419597
 30
0.0
 11
316.922020
 21
-50.523451
 31
0.0
  0
ARC
  8
0
  6
BYLAYER
 62
     1
 10
311.655290
 20
-54.772184
 30
0.0
 40
6.766741
 50
38.894050
 51
50.764315
  0
LINE
  8
0
  6
BYLAYER
 62
     1
 10
316.045976
 20
-49.623327
 30
0.0
 11
316.045244
 21
-49.622694
 31
0.0
  0
LINE
  8
0
  6
BYLAYER
 62
     1
 10
315.935349
 20
-49.530875
 30
0.0
 11
316.031307
 21
-48.767579
 31
0.0
  0
ARC
  8
0
  6
BYLAYER
 62
     1
 10
311.655290
 20
-54.772184
 30
0.0
 40
7.429994
 50
53.916300
 51
65.860381
  0
LINE
  8
0
  6
BYLAYER
 62
     1
 10
314.769838
 20
-48.026487
 30
0.0
 11
314.769319
 21
-48.026250
 31
0.0
  0
LINE
  8
0
  6
BYLAYER
 62
     1
 10
314.693872
 20
-47.991931
 30
0.0
 11
314.092049
 21
-48.459304
 31
0.0
  0
LINE
  8
0
  6
BYLAYER
 62
     1
 10
313.954423
 20
-48.408002
 30
0.0
 11
313.953676
 21
-48.407735
 31
0.0
  0
ARC
  8
0
  6
BYLAYER
 62
     1
 10
311.655290
 20
-54.772184
 30
0.0
 40
6.766738
 50
68.894081
 51
80.764578
  0
ARC
  8
0
  6
BYLAYER
 62
     1
 10
311.655290
 20
-54.772184
 30
0.0
 40
7.429995
 50
84.535428
 51
90.000003
  0
LINE
  8
0
  6
BYLAYER
 62
     1
 10
312.442757
 20
-47.384037
 30
0.0
 11
312.741244
 21
-48.093044
 31
0.0
  0
ARC
  8
0
  6
BYLAYER
 62
     1
 10
311.655290
 20
-54.772184
 30
0.0
 40
7.429995
 50
180.000000
 51
186.083899
  0
LINE
  8
0
  6
BYLAYER
 62
     1
 10
304.259057
 20
-55.479711
 30
0.0
 11
304.259057
 21
-55.479726
 31
0.0
  0
LINE
  8
0
  6
BYLAYER
 62
     1
 10
304.267142
 20
-55.559649
 30
0.0
 11
304.976266
 21
-55.858201
 31
0.0
  0
ARC
  8
0
  6
BYLAYER
 62
     1
 10
311.655321
 20
-54.772123
 30
0.0
 40
6.766781
 50
189.236002
 51
200.764629
  0
LINE
  8
0
  6
BYLAYER
 62
     1
 10
305.328070
 20
-57.171158
 30
0.0
 11
304.863245
 21
-57.784296
 31
0.0
  0
ARC
  8
0
  6
BYLAYER
 62
     1
 10
311.655290
 20
-54.772184
 30
0.0
 40
7.429986
 50
203.916158
 51
215.860410
  0
LINE
  8
0
  6
BYLAYER
 62
     1
 10
305.584825
 20
-59.056371
 30
0.0
 11
305.585267
 21
-59.056997
 31
0.0
  0
LINE
  8
0
  6
BYLAYER
 62
     1
 10
305.633683
 20
-59.124763
 30
0.0
 11
306.388679
 21
-59.020900
 31
0.0
  0
ARC
  8
0
  6
BYLAYER
 62
     1
 10
311.655290
 20
-54.772184
 30
0.0
 40
6.766741
 50
218.894045
 51
230.764345
  0
LINE
  8
0
  6
BYLAYER
 62
     1
 10
307.264604
 20
-59.921033
 30
0.0
 11
307.265336
 21
-59.921667
 31
0.0
  0
LINE
  8
0
  6
BYLAYER
 62
     1
 10
307.375249
 20
-60.013370
 30
0.0
 11
307.279257
 21
-60.776778
 31
0.0
  0
ARC
  8
0
  6
BYLAYER
 62
     1
 10
311.655290
 20
-54.772184
 30
0.0
 40
7.429994
 50
233.916148
 51
245.860401
  0
LINE
  8
0
  6
BYLAYER
 62
     1
 10
308.540742
 20
-61.517873
 30
0.0
 11
308.541246
 21
-61.518118
 31
0.0
  0
LINE
  8
0
  6
BYLAYER
 62
     1
 10
308.616710
 20
-61.552438
 30
0.0
 11
309.218610
 21
-61.084978
 31
0.0
  0
LINE
  8
0
  6
BYLAYER
 62
     1
 10
309.356141
 20
-61.136358
 30
0.0
 11
309.356904
 21
-61.136633
 31
0.0
  0
LINE
  8
0
  6
BYLAYER
 62
     1
 10
319.051515
 20
-55.479711
 30
0.0
 11
319.051515
 21
-55.479726
 31
0.0
  0
LINE
  8
0
  6
BYLAYER
 62
     1
 10
319.043436
 20
-55.559651
 30
0.0
 11
318.334299
 21
-55.858199
 31
0.0
  0
LINE
  8
0
  6
BYLAYER
 62
     1
 10
317.982503
 20
-57.171175
 30
0.0
 11
318.447341
 21
-57.784301
 31
0.0
  0
LINE
  8
0
  6
BYLAYER
 62
     1
 10
317.725740
 20
-59.056371
 30
0.0
 11
317.725297
 21
-59.056997
 31
0.0
  0
LINE
  8
0
  6
BYLAYER
 62
     1
 10
317.676906
 20
-59.124764
 30
0.0
 11
316.921861
 21
-59.020897
 31
0.0
  0
LINE
  8
0
  6
BYLAYER
 62
     1
 10
316.045976
 20
-59.921033
 30
0.0
 11
316.045244
 21
-59.921667
 31
0.0
  0
LINE
  8
0
  6
BYLAYER
 62
     1
 10
315.935335
 20
-60.013367
 30
0.0
 11
316.031307
 21
-60.776789
 31
0.0
  0
LINE
  8
0
  6
BYLAYER
 62
     1
 10
314.693871
 20
-61.552437
 30
0.0
 11
314.091957
 21
-61.084983
 31
0.0
  0
ARC
  8
0
  6
BYLAYER
 62
     1
 10
311.655290
 20
-54.772184
 30
0.0
 40
6.766741
 50
309.235697
 51
321.105929
  0
ARC
  8
0
  6
BYLAYER
 62
     1
 10
311.655290
 20
-54.772184
 30
0.0
 40
6.766738
 50
248.893873
 51
270.0
  0
ARC
  8
0
  6
BYLAYER
 62
     1
 10
311.655290
 20
-54.772184
 30
0.0
 40
7.429994
 50
294.783232
 51
306.083699
  0
LINE
  8
0
  6
BYLAYER
 62
     1
 10
314.769319
 20
-61.518118
 30
0.0
 11
314.694329
 21
-61.553407
 31
0.0
  0
ARC
  8
0
  6
BYLAYER
 62
     1
 10
311.655290
 20
-54.772184
 30
0.0
 40
7.429986
 50
324.139593
 51
336.083825
  0
ARC
  8
0
  6
BYLAYER
 62
     1
 10
311.655244
 20
-54.772123
 30
0.0
 40
6.766781
 50
339.235210
 51
350.764014
  0
ARC
  8
0
  6
BYLAYER
 62
     1
 10
311.655290
 20
-54.772184
 30
0.0
 40
7.429995
 50
353.916089
 51
360.000000
  0
ARC
  8
0
  6
BYLAYER
 62
     1
 10
311.655290
 20
-54.772184
 30
0.0
 40
7.429995
 50
0.0
 51
6.083907
  0
ARC
  8
0
  6
BYLAYER
 62
     1
 10
311.655290
 20
-54.772184
 30
0.0
 40
6.766738
 50
270.0
 51
291.106008
  0
CIRCLE
  8
0
  6
BYLAYER
 62
     1
 10
311.655290
 20
-54.772184
 30
0.0
 40
3.630081
  0
CIRCLE
  8
0
  6
BYLAYER
 62
     1
 10
311.655290
 20
-54.772184
 30
0.0
 40
5.296032
  0
LINE
  8
0
  6
BYLAYER
 62
     1
 10
318.655290
 20
-153.522184
 30
0.0
 11
313.655290
 21
-153.522184
 31
0.0
  0
LINE
  8
0
  6
BYLAYER
 62
     1
 10
318.655290
 20
-153.522184
 30
0.0
 11
318.655290
 21
-158.522184
 31
0.0
  0
LINE
  8
0
  6
BYLAYER
 62
     1
 10
318.655290
 20
-153.522184
 30
0.0
 11
323.655290
 21
-153.522184
 31
0.0
  0
LINE
  8
0
  6
BYLAYER
 62
     1
 10
444.155405
 20
-166.522184
 30
0.0
 11
444.155405
 21
-154.672978
 31
0.0
  0
ARC
  8
0
  6
BYLAYER
 62
     1
 10
443.155405
 20
-154.672978
 30
0.0
 40
1.000000
 50
0.0
 51
90.0
  0
ARC
  8
0
  6
BYLAYER
 62
     1
 10
443.155405
 20
-159.522184
 30
0.0
 40
1.000000
 50
0.0
 51
90.0
  0
ARC
  8
0
  6
BYLAYER
 62
     1
 10
490.155397
 20
-239.522184
 30
0.0
 40
2.000000
 50
180.000000
 51
270.000000
  0
LINE
  8
0
  6
BYLAYER
 62
     1
 10
500.155397
 20
-41.522184
 30
0.0
 11
500.155397
 21
-241.522184
 31
0.0
  0
LINE
  8
0
  6
BYLAYER
 62
     1
 10
443.155397
 20
1.477816
 30
0.0
 11
443.155397
 21
-158.522184
 31
0.0
  0
ARC
  8
0
  6
BYLAYER
 62
     1
 10
451.155397
 20
-0.522184
 30
0.0
 40
2.000000
 50
0.0
 51
90.0
  0
ARC
  8
0
  6
BYLAYER
 62
     1
 10
455.155397
 20
-21.522184
 30
0.0
 40
2.000000
 50
180.000000
 51
270.000000
  0
LINE
  8
0
  6
BYLAYER
 62
     1
 10
443.155397
 20
1.477816
 30
0.0
 11
451.155397
 21
1.477816
 31
0.0
  0
LINE
  8
0
  6
BYLAYER
 62
     1
 10
455.155397
 20
-23.522184
 30
0.0
 11
486.655397
 21
-23.522184
 31
0.0
  0
LINE
  8
0
  6
BYLAYER
 62
     1
 10
500.155397
 20
-41.522184
 30
0.0
 11
493.655397
 21
-41.522184
 31
0.0
  0
ARC
  8
0
  6
BYLAYER
 62
     1
 10
493.655397
 20
-39.522184
 30
0.0
 40
2.0
 50
180.000000
 51
270.000000
  0
LINE
  8
0
  6
BYLAYER
 62
     1
 10
449.155405
 20
-171.522184
 30
0.0
 11
481.326970
 21
-171.522184
 31
0.0
  0
ARC
  8
0
  6
BYLAYER
 62
     1
 10
449.155405
 20
-166.522184
 30
0.0
 40
5.000000
 50
180.000000
 51
270.000000
  0
LINE
  8
0
  6
BYLAYER
 62
     1
 10
500.155397
 20
-241.522184
 30
0.0
 11
490.155397
 21
-241.522184
 31
0.0
  0
LINE
  8
0
  6
BYLAYER
 62
     1
 10
487.061928
 20
-176.428715
 30
0.0
 11
482.741184
 21
-172.107970
 31
0.0
  0
ARC
  8
0
  6
BYLAYER
 62
     1
 10
485.647714
 20
-177.842928
 30
0.0
 40
2.000000
 50
29.759132
 51
44.999999
  0
ARC
  8
0
  6
BYLAYER
 62
     1
 10
481.326970
 20
-173.522184
 30
0.0
 40
2.000000
 50
44.999999
 51
90.000000
  0
LINE
  8
0
  6
BYLAYER
 62
     1
 10
491.655397
 20
-52.665041
 30
0.0
 11
491.655397
 21
-28.522184
 31
0.0
  0
ARC
  8
0
  6
BYLAYER
 62
     1
 10
493.655397
 20
-52.665041
 30
0.0
 40
2.0
 50
180.000000
 51
270.000000
  0
ARC
  8
0
  6
BYLAYER
 62
     1
 10
486.655397
 20
-28.522184
 30
0.0
 40
5.000000
 50
0.0
 51
90.0
  0
LINE
  8
0
  6
BYLAYER
 62
     1
 10
453.552595
 20
-173.004546
 30
0.0
 11
463.969841
 21
-211.882239
 31
0.0
  0
ARC
  8
0
  6
BYLAYER
 62
     1
 10
451.620743
 20
-173.522184
 30
0.0
 40
2.000000
 50
15.0
 51
90.0
  0
LINE
  8
0
  6
BYLAYER
 62
     1
 10
487.155397
 20
-225.944834
 30
0.0
 11
464.901693
 21
-213.096652
 31
0.0
  0
ARC
  8
0
  6
BYLAYER
 62
     1
 10
465.901693
 20
-211.364601
 30
0.0
 40
2.0
 50
195.0
 51
240.000001
  0
ARC
  8
0
  6
BYLAYER
 62
     1
 10
486.155397
 20
-227.676885
 30
0.0
 40
2.0
 50
0.0
 51
60.000001
  0
LINE
  8
0
  6
BYLAYER
 62
     1
 10
453.155397
 20
-0.522184
 30
0.0
 11
453.155397
 21
-151.672978
 31
0.0
  0
ARC
  8
0
  6
BYLAYER
 62
     1
 10
451.155397
 20
-151.672978
 30
0.0
 40
2.000000
 50
270.0
 51
360.0
  0
LINE
  8
0
  6
BYLAYER
 62
     1
 10
488.155397
 20
-239.522184
 30
0.0
 11
488.155397
 21
-178.465163
 31
0.0
  0
LINE
  8
0
  6
BYLAYER
 62
     1
 10
488.155397
 20
-72.757203
 30
0.0
 11
488.155397
 21
-56.665041
 31
0.0
  0
LINE
  8
0
  6
BYLAYER
 62
     1
 10
488.155397
 20
-144.367240
 30
0.0
 11
488.155397
 21
-94.154620
 31
0.0
  0
ARC
  8
0
  6
BYLAYER
 62
     1
 10
487.155397
 20
-144.367240
 30
0.0
 40
1.0
 50
333.446708
 51
360.000000
  0
ARC
  8
0
  6
BYLAYER
 62
     1
 10
490.155397
 20
-56.665041
 30
0.0
 40
2.000000
 50
90.0
 51
180.0
  0
LINE
  8
0
  6
BYLAYER
 62
     1
 10
485.667397
 20
-110.272184
 30
0.0
 11
455.295397
 21
-110.272184
 31
0.0
  0
ARC
  8
0
  6
BYLAYER
 62
     1
 10
455.295397
 20
-112.272184
 30
0.0
 40
2.000000
 50
90.0
 51
180.0
  0
ARC
  8
0
  6
BYLAYER
 62
     1
 10
485.667397
 20
-112.272184
 30
0.0
 40
2.000000
 50
0.0
 51
90.0
  0
LINE
  8
0
  6
BYLAYER
 62
     1
 10
485.667397
 20
-106.772184
 30
0.0
 11
455.295397
 21
-106.772184
 31
0.0
  0
ARC
  8
0
  6
BYLAYER
 62
     1
 10
455.295397
 20
-104.772184
 30
0.0
 40
2.000000
 50
180.000000
 51
270.000000
  0
ARC
  8
0
  6
BYLAYER
 62
     1
 10
485.667397
 20
-104.772184
 30
0.0
 40
2.000000
 50
270.0
 51
360.0
  0
LINE
  8
0
  6
BYLAYER
 62
     1
 10
487.196397
 20
-146.758144
 30
0.0
 11
487.196397
 21
-176.256486
 31
0.0
  0
LINE
  8
0
  6
BYLAYER
 62
     1
 10
488.049916
 20
-144.814270
 30
0.0
 11
487.301878
 21
-146.311114
 31
0.0
  0
ARC
  8
0
  6
BYLAYER
 62
     1
 10
488.196397
 20
-146.758144
 30
0.0
 40
1.000000
 50
153.446708
 51
180.000000
  0
LINE
  8
0
  6
BYLAYER
 62
     1
 10
488.023517
 20
-177.968808
 30
0.0
 11
487.328277
 21
-176.752841
 31
0.0
  0
ARC
  8
0
  6
BYLAYER
 62
     1
 10
487.155397
 20
-178.465163
 30
0.0
 40
1.0
 50
0.0
 51
29.759132
  0
ARC
  8
0
  6
BYLAYER
 62
     1
 10
488.196397
 20
-176.256486
 30
0.0
 40
1.000000
 50
180.000000
 51
209.759132
  0
LINE
  8
0
  6
BYLAYER
 62
     1
 10
500.155397
 20
-77.050259
 30
0.0
 11
491.628528
 21
-77.050259
 31
0.0
  0
LINE
  8
0
  6
BYLAYER
 62
     1
 10
491.561540
 20
-94.154620
 30
0.0
 11
488.155397
 21
-94.154620
 31
0.0
  0
LINE
  8
0
  6
BYLAYER
 62
     1
 10
491.561540
 20
-72.757203
 30
0.0
 11
488.155397
 21
-72.757203
 31
0.0
  0
LINE
  8
0
  6
BYLAYER
 62
     1
 10
500.155397
 20
-89.637337
 30
0.0
 11
491.628528
 21
-89.637337
 31
0.0
  0
LINE
  8
0
  6
BYLAYER
 62
     1
 10
487.666990
 20
-75.238320
 30
0.0
 11
480.734457
 21
-75.238320
 31
0.0
  0
LINE
  8
0
  6
BYLAYER
 62
     1
 10
487.666990
 20
-90.173890
 30
0.0
 11
480.734457
 21
-90.173890
 31
0.0
  0
LINE
  8
0
  6
BYLAYER
 62
     1
 10
491.561540
 20
-72.757203
 30
0.0
 11
491.628528
 21
-77.050259
 31
0.0
  0
LINE
  8
0
  6
BYLAYER
 62
     1
 10
491.628528
 20
-89.637337
 30
0.0
 11
491.561540
 21
-94.154620
 31
0.0
  0
LINE
  8
0
  6
BYLAYER
 62
     1
 10
487.697701
 20
-93.116299
 30
0.0
 11
487.666990
 21
-90.173890
 31
0.0
  0
LINE
  8
0
  6
BYLAYER
 62
     1
 10
487.697701
 20
-73.255450
 30
0.0
 11
487.666990
 21
-75.238320
 31
0.0
  0
LINE
  8
0
  6
BYLAYER
 62
     1
 10
488.155397
 20
-72.757203
 30
0.0
 11
487.697701
 21
-73.255450
 31
0.0
  0
LINE
  8
0
  6
BYLAYER
 62
     1
 10
488.155397
 20
-94.154620
 30
0.0
 11
487.697701
 21
-93.116299
 31
0.0
  0
LINE
  8
0
  6
BYLAYER
 62
     1
 10
431.155397
 20
-78.522184
 30
0.0
 11
431.155397
 21
-158.102632
 31
0.0
  0
LINE
  8
0
  6
BYLAYER
 62
     1
 10
443.155397
 20
-78.522184
 30
0.0
 11
443.155397
 21
1.477831
 31
0.0
  0
LINE
  8
0
  6
BYLAYER
 62
     1
 10
431.155397
 20
1.058781
 30
0.0
 11
431.155397
 21
-78.522184
 31
0.0
  0
LINE
  8
0
  6
BYLAYER
 62
     1
 10
443.155397
 20
-158.522169
 30
0.0
 11
443.155397
 21
-78.522184
 31
0.0
  0
LINE
  8
0
  6
BYLAYER
 62
     1
 10
443.155397
 20
1.477831
 30
0.0
 11
431.155397
 21
1.058781
 31
0.0
  0
LINE
  8
0
  6
BYLAYER
 62
     1
 10
431.155397
 20
-158.102632
 30
0.0
 11
443.155397
 21
-158.521681
 31
0.0
  0
LINE
  8
0
  6
BYLAYER
 62
     1
 10
421.175875
 20
-13.570280
 30
0.0
 11
414.897585
 21
-25.871976
 31
0.0
  0
LINE
  8
0
  6
BYLAYER
 62
     1
 10
421.175875
 20
-78.522184
 30
0.0
 11
421.175875
 21
-0.943082
 31
0.0
  0
LINE
  8
0
  6
BYLAYER
 62
     1
 10
431.155397
 20
1.477802
 30
0.0
 11
431.155397
 21
-78.522184
 31
0.0
  0
LINE
  8
0
  6
BYLAYER
 62
     1
 10
423.071199
 20
1.054110
 30
0.0
 11
431.155397
 21
1.477802
 31
0.0
  0
ARC
  8
0
  6
BYLAYER
 62
     1
 10
420.175875
 20
-21.394590
 30
0.0
 40
0.999972
 50
302.000007
 51
360.000000
  0
LINE
  8
0
  6
BYLAYER
 62
     1
 10
406.655367
 20
-31.022306
 30
0.0
 11
420.705782
 21
-22.242612
 31
0.0
  0
LINE
  8
0
  6
BYLAYER
 62
     1
 10
406.655397
 20
-31.022306
 30
0.0
 11
406.655290
 21
-78.522184
 31
0.0
  0
ARC
  8
0
  6
BYLAYER
 62
     1
 10
423.175875
 20
-0.943082
 30
0.0
 40
1.999969
 50
93.000028
 51
180.000000
  0
LINE
  8
0
  6
BYLAYER
 62
     1
 10
421.175875
 20
-143.474088
 30
0.0
 11
414.897585
 21
-131.172392
 31
0.0
  0
LINE
  8
0
  6
BYLAYER
 62
     1
 10
421.175875
 20
-78.522184
 30
0.0
 11
421.175875
 21
-156.101286
 31
0.0
  0
LINE
  8
0
  6
BYLAYER
 62
     1
 10
431.155397
 20
-158.522170
 30
0.0
 11
431.155397
 21
-78.522184
 31
0.0
  0
LINE
  8
0
  6
BYLAYER
 62
     1
 10
423.071199
 20
-158.098478
 30
0.0
 11
431.155397
 21
-158.522170
 31
0.0
  0
ARC
  8
0
  6
BYLAYER
 62
     1
 10
420.175875
 20
-135.649778
 30
0.0
 40
0.999972
 50
0.0
 51
57.999993
  0
LINE
  8
0
  6
BYLAYER
 62
     1
 10
406.655367
 20
-126.022062
 30
0.0
 11
420.705782
 21
-134.801756
 31
0.0
  0
LINE
  8
0
  6
BYLAYER
 62
     1
 10
406.655397
 20
-126.022062
 30
0.0
 11
406.655290
 21
-78.522184
 31
0.0
  0
ARC
  8
0
  6
BYLAYER
 62
     1
 10
423.175875
 20
-156.101286
 30
0.0
 40
1.999969
 50
180.000000
 51
266.999972
  0
LINE
  8
0
  6
BYLAYER
 62
     1
 10
318.655290
 20
-153.522184
 30
0.0
 11
318.655290
 21
-148.732984
 31
0.0
  0
LINE
  8
0
  6
BYLAYER
 62
     1
 10
890.655290
 20
-235.522367
 30
0.0
 11
888.772230
 21
-235.522367
 31
0.0
  0
LINE
  8
0
  6
BYLAYER
 62
     1
 10
820.538350
 20
-235.522367
 30
0.0
 11
818.655290
 21
-235.522367
 31
0.0
  0
LINE
  8
0
  6
BYLAYER
 62
     1
 10
798.655290
 20
-239.522184
 30
0.0
 11
818.655290
 21
-239.522184
 31
0.0
  0
LINE
  8
0
  6
BYLAYER
 62
     1
 10
910.655290
 20
-239.522184
 30
0.0
 11
890.655290
 21
-239.522184
 31
0.0
  0
LINE
  8
0
  6
BYLAYER
 62
     1
 10
818.655290
 20
-239.522184
 30
0.0
 11
818.655290
 21
-234.817414
 31
0.0
  0
LINE
  8
0
  6
BYLAYER
 62
     1
 10
890.655290
 20
-239.522184
 30
0.0
 11
890.655290
 21
-234.817414
 31
0.0
  0
LINE
  8
0
  6
BYLAYER
 62
     1
 10
910.655290
 20
-224.371445
 30
0.0
 11
910.655290
 21
-239.522184
 31
0.0
  0
LINE
  8
0
  6
BYLAYER
 62
     1
 10
798.655290
 20
-224.371445
 30
0.0
 11
798.655290
 21
-239.522184
 31
0.0
  0
ARC
  8
0
  6
BYLAYER
 62
     1
 10
854.655290
 20
-78.522184
 30
0.0
 40
80.000000
 50
357.902096
 51
542.097904
  0
ARC
  8
0
  6
BYLAYER
 62
     1
 10
854.655290
 20
-78.522184
 30
0.0
 40
55.000000
 50
26.334379
 51
51.484431
  0
ARC
  8
0
  6
BYLAYER
 62
     1
 10
854.655290
 20
-78.522184
 30
0.0
 40
55.000000
 50
128.515569
 51
153.665621
  0
ARC
  8
0
  6
BYLAYER
 62
     1
 10
854.655290
 20
-141.522184
 30
0.0
 40
100.000000
 50
111.715617
 51
428.284383
  0
ARC
  8
0
  6
BYLAYER
 62
     7
 10
796.318986
 20
-199.858488
 30
0.0
 40
5.5
 50
97.222120
 51
352.777880
  0
ARC
  8
0
  6
BYLAYER
 62
     7
 10
912.991594
 20
-199.858488
 30
0.0
 40
5.5
 50
187.222120
 51
442.777880
  0
ARC
  8
0
  6
BYLAYER
 62
     7
 10
912.991594
 20
-83.185880
 30
0.0
 40
5.5
 50
277.222120
 51
532.777880
  0
ARC
  8
0
  6
BYLAYER
 62
     7
 10
796.318986
 20
-83.185880
 30
0.0
 40
5.5
 50
7.222120
 51
262.777880
  0
LINE
  8
0
  6
BYLAYER
 62
     7
 10
903.174512
 20
-204.183556
 30
0.0
 11
913.105211
 21
-214.114256
 31
0.0
  0
ARC
  8
0
  6
BYLAYER
 62
     7
 10
911.337434
 20
-215.882017
 30
0.0
 40
2.500003
 50
307.317094
 51
404.999875
  0
ARC
  8
0
  6
BYLAYER
 62
     7
 10
854.655290
 20
-141.522184
 30
0.0
 40
96.0
 50
273.065417
 51
307.317122
  0
ARC
  8
0
  6
BYLAYER
 62
     7
 10
859.655290
 20
-234.888395
 30
0.0
 40
2.500000
 50
180.000000
 51
273.065385
  0
LINE
  8
0
  6
BYLAYER
 62
     7
 10
857.155290
 20
-220.732742
 30
0.0
 11
857.155290
 21
-234.888395
 31
0.0
  0
LINE
  8
0
  6
BYLAYER
 62
     7
 10
806.136068
 20
-204.183556
 30
0.0
 11
796.205369
 21
-214.114256
 31
0.0
  0
ARC
  8
0
  6
BYLAYER
 62
     7
 10
797.973146
 20
-215.882017
 30
0.0
 40
2.500003
 50
135.000123
 51
232.682907
  0
ARC
  8
0
  6
BYLAYER
 62
     7
 10
854.655290
 20
-141.522184
 30
0.0
 40
96.0
 50
232.68288
 51
266.934584
  0
ARC
  8
0
  6
BYLAYER
 62
     7
 10
849.655290
 20
-234.888395
 30
0.0
 40
2.5
 50
266.934629
 51
360.0
  0
LINE
  8
0
  6
BYLAYER
 62
     7
 10
852.155290
 20
-220.732742
 30
0.0
 11
852.155290
 21
-234.888395
 31
0.0
  0
LINE
  8
0
  6
BYLAYER
 62
     7
 10
917.316662
 20
-93.002962
 30
0.0
 11
927.247362
 21
-83.072263
 31
0.0
  0
ARC
  8
0
  6
BYLAYER
 62
     7
 10
929.015123
 20
-84.840025
 30
0.0
 40
2.499997
 50
37.317104
 51
134.999877
  0
ARC
  8
0
  6
BYLAYER
 62
     7
 10
854.655290
 20
-141.522184
 30
0.0
 40
96.0
 50
3.065426
 51
37.317131
  0
ARC
  8
0
  6
BYLAYER
 62
     7
 10
948.021501
 20
-136.522184
 30
0.0
 40
2.5
 50
270.0
 51
363.065398
  0
LINE
  8
0
  6
BYLAYER
 62
     7
 10
933.865848
 20
-139.022184
 30
0.0
 11
948.021501
 21
-139.022184
 31
0.0
  0
LINE
  8
0
  6
BYLAYER
 62
     7
 10
917.316662
 20
-190.041406
 30
0.0
 11
927.247362
 21
-199.972105
 31
0.0
  0
ARC
  8
0
  6
BYLAYER
 62
     7
 10
929.015123
 20
-198.204328
 30
0.0
 40
2.499997
 50
225.000119
 51
322.682916
  0
ARC
  8
0
  6
BYLAYER
 62
     7
 10
854.655290
 20
-141.522184
 30
0.0
 40
96.000000
 50
322.682889
 51
356.934594
  0
ARC
  8
0
  6
BYLAYER
 62
     7
 10
948.021501
 20
-146.522184
 30
0.0
 40
2.500000
 50
356.934632
 51
450.0
  0
LINE
  8
0
  6
BYLAYER
 62
     7
 10
933.865848
 20
-144.022184
 30
0.0
 11
948.021501
 21
-144.022184
 31
0.0
  0
LINE
  8
0
  6
BYLAYER
 62
     7
 10
806.136056
 20
-78.860821
 30
0.0
 11
796.205369
 21
-68.930143
 31
0.0
  0
ARC
  8
0
  6
BYLAYER
 62
     7
 10
797.973131
 20
-67.162382
 30
0.0
 40
2.499992
 50
127.317117
 51
224.999873
  0
ARC
  8
0
  6
BYLAYER
 62
     7
 10
854.655290
 20
-141.522184
 30
0.0
 40
96.000000
 50
112.669610
 51
127.317117
  0
LINE
  8
0
  6
BYLAYER
 62
     7
 10
903.174508
 20
-78.860808
 30
0.0
 11
913.105195
 21
-68.930112
 31
0.0
  0
ARC
  8
0
  6
BYLAYER
 62
     7
 10
911.337434
 20
-67.162351
 30
0.0
 40
2.499992
 50
315.000128
 51
412.682926
  0
ARC
  8
0
  6
BYLAYER
 62
     7
 10
854.655290
 20
-141.522184
 30
0.0
 40
96.000000
 50
52.682871
 51
67.330390
  0
LINE
  8
0
  6
BYLAYER
 62
     7
 10
791.993918
 20
-190.041406
 30
0.0
 11
782.063218
 21
-199.972105
 31
0.0
  0
ARC
  8
0
  6
BYLAYER
 62
     7
 10
780.295457
 20
-198.204328
 30
0.0
 40
2.499997
 50
217.317099
 51
314.999882
  0
ARC
  8
0
  6
BYLAYER
 62
     7
 10
854.655290
 20
-141.522184
 30
0.0
 40
96.0
 50
183.065394
 51
217.317099
  0
ARC
  8
0
  6
BYLAYER
 62
     7
 10
761.289079
 20
-146.522184
 30
0.0
 40
2.5
 50
90.0
 51
183.065378
  0
LINE
  8
0
  6
BYLAYER
 62
     7
 10
775.444732
 20
-144.022184
 30
0.0
 11
761.289079
 21
-144.022184
 31
0.0
  0
LINE
  8
0
  6
BYLAYER
 62
     7
 10
791.993918
 20
-93.002962
 30
0.0
 11
782.063218
 21
-83.072263
 31
0.0
  0
ARC
  8
0
  6
BYLAYER
 62
     7
 10
780.295457
 20
-84.840025
 30
0.0
 40
2.499997
 50
45.000111
 51
142.682911
  0
ARC
  8
0
  6
BYLAYER
 62
     7
 10
854.655290
 20
-141.522184
 30
0.0
 40
96.000000
 50
142.682911
 51
176.934616
  0
ARC
  8
0
  6
BYLAYER
 62
     7
 10
761.289079
 20
-136.522184
 30
0.0
 40
2.5
 50
176.934616
 51
269.999973
  0
LINE
  8
0
  6
BYLAYER
 62
     7
 10
775.444732
 20
-139.022184
 30
0.0
 11
761.289079
 21
-139.022184
 31
0.0
  0
LINE
  8
0
  6
BYLAYER
 62
     7
 10
817.655290
 20
-53.522153
 30
0.0
 11
817.655290
 21
-71.439643
 31
0.0
  0
LINE
  8
0
  6
BYLAYER
 62
     7
 10
891.655290
 20
-53.522153
 30
0.0
 11
891.655290
 21
-71.439643
 31
0.0
  0
LINE
  8
0
  6
BYLAYER
 62
     7
 10
817.655290
 20
-58.022153
 30
0.0
 11
820.655290
 21
-63.218290
 31
0.0
  0
LINE
  8
0
  6
BYLAYER
 62
     7
 10
891.655290
 20
-58.022153
 30
0.0
 11
888.655290
 21
-63.218290
 31
0.0
  0
LINE
  8
0
  6
BYLAYER
 62
     7
 10
820.655290
 20
-63.218290
 30
0.0
 11
820.655290
 21
-69.936134
 31
0.0
  0
LINE
  8
0
  6
BYLAYER
 62
     7
 10
888.655290
 20
-63.218290
 30
0.0
 11
888.655290
 21
-69.936134
 31
0.0
  0
LINE
  8
0
  6
BYLAYER
 62
     7
 10
891.655290
 20
-53.522092
 30
0.0
 11
817.655290
 21
-53.522092
 31
0.0
  0
CIRCLE
  8
0
  6
BYLAYER
 62
     7
 10
854.655290
 20
-141.522184
 30
0.0
 40
59.0
  0
CIRCLE
  8
0
  6
BYLAYER
 62
     7
 10
854.655290
 20
-141.522184
 30
0.0
 40
64.487732
  0
CIRCLE
  8
0
  6
BYLAYER
 62
     7
 10
854.655290
 20
-141.522184
 30
0.0
 40
79.25
  0
LINE
  8
0
  6
BYLAYER
 62
     7
 10
855.655290
 20
-112.522184
 30
0.0
 11
855.655290
 21
-120.522184
 31
0.0
  0
LINE
  8
0
  6
BYLAYER
 62
     7
 10
855.655290
 20
-102.522184
 30
0.0
 11
855.655290
 21
-110.522184
 31
0.0
  0
LINE
  8
0
  6
BYLAYER
 62
     7
 10
863.655290
 20
-110.522184
 30
0.0
 11
863.655290
 21
-102.522184
 31
0.0
  0
LINE
  8
0
  6
BYLAYER
 62
     7
 10
865.655290
 20
-110.522184
 30
0.0
 11
865.655290
 21
-102.522184
 31
0.0
  0
LINE
  8
0
  6
BYLAYER
 62
     7
 10
855.655290
 20
-120.522184
 30
0.0
 11
863.655290
 21
-120.522184
 31
0.0
  0
LINE
  8
0
  6
BYLAYER
 62
     7
 10
855.655290
 20
-112.522184
 30
0.0
 11
863.655290
 21
-112.522184
 31
0.0
  0
LINE
  8
0
  6
BYLAYER
 62
     7
 10
865.655290
 20
-110.522184
 30
0.0
 11
873.493289
 21
-110.522184
 31
0.0
  0
LINE
  8
0
  6
BYLAYER
 62
     7
 10
855.655290
 20
-110.522184
 30
0.0
 11
863.655290
 21
-110.522184
 31
0.0
  0
LINE
  8
0
  6
BYLAYER
 62
     7
 10
865.655290
 20
-102.522184
 30
0.0
 11
873.493289
 21
-102.522184
 31
0.0
  0
LINE
  8
0
  6
BYLAYER
 62
     7
 10
855.655290
 20
-102.522184
 30
0.0
 11
863.655290
 21
-102.522184
 31
0.0
  0
LINE
  8
0
  6
BYLAYER
 62
     7
 10
873.493289
 20
-110.522184
 30
0.0
 11
873.493289
 21
-102.522184
 31
0.0
  0
LINE
  8
0
  6
BYLAYER
 62
     7
 10
863.655290
 20
-120.522184
 30
0.0
 11
863.655290
 21
-112.522184
 31
0.0
  0
LINE
  8
0
  6
BYLAYER
 62
     7
 10
865.655290
 20
-112.522184
 30
0.0
 11
865.655290
 21
-120.522184
 31
0.0
  0
LINE
  8
0
  6
BYLAYER
 62
     7
 10
865.655290
 20
-120.522184
 30
0.0
 11
873.655290
 21
-120.522184
 31
0.0
  0
LINE
  8
0
  6
BYLAYER
 62
     7
 10
865.655290
 20
-112.522184
 30
0.0
 11
873.655290
 21
-112.522184
 31
0.0
  0
LINE
  8
0
  6
BYLAYER
 62
     7
 10
873.655290
 20
-120.522184
 30
0.0
 11
873.655290
 21
-112.522184
 31
0.0
  0
LINE
  8
0
  6
BYLAYER
 62
     7
 10
875.655290
 20
-130.522184
 30
0.0
 11
883.655290
 21
-130.522184
 31
0.0
  0
LINE
  8
0
  6
BYLAYER
 62
     7
 10
875.655290
 20
-112.522184
 30
0.0
 11
875.655290
 21
-120.522184
 31
0.0
  0
LINE
  8
0
  6
BYLAYER
 62
     7
 10
875.655290
 20
-122.522184
 30
0.0
 11
875.655290
 21
-130.522184
 31
0.0
  0
LINE
  8
0
  6
BYLAYER
 62
     7
 10
875.655290
 20
-122.522184
 30
0.0
 11
883.655290
 21
-122.522184
 31
0.0
  0
LINE
  8
0
  6
BYLAYER
 62
     7
 10
875.655290
 20
-120.522184
 30
0.0
 11
883.655290
 21
-120.522184
 31
0.0
  0
LINE
  8
0
  6
BYLAYER
 62
     7
 10
875.655290
 20
-112.522184
 30
0.0
 11
883.655290
 21
-112.522184
 31
0.0
  0
LINE
  8
0
  6
BYLAYER
 62
     7
 10
883.655290
 20
-130.522184
 30
0.0
 11
883.655290
 21
-122.522184
 31
0.0
  0
LINE
  8
0
  6
BYLAYER
 62
     7
 10
883.655290
 20
-120.522184
 30
0.0
 11
883.655290
 21
-112.522184
 31
0.0
  0
LINE
  8
0
  6
BYLAYER
 62
     7
 10
875.655290
 20
-140.522184
 30
0.0
 11
883.655290
 21
-140.522184
 31
0.0
  0
LINE
  8
0
  6
BYLAYER
 62
     7
 10
875.655290
 20
-132.522184
 30
0.0
 11
875.655290
 21
-140.522184
 31
0.0
  0
LINE
  8
0
  6
BYLAYER
 62
     7
 10
875.655290
 20
-132.522184
 30
0.0
 11
883.655290
 21
-132.522184
 31
0.0
  0
LINE
  8
0
  6
BYLAYER
 62
     7
 10
883.655290
 20
-140.522184
 30
0.0
 11
883.655290
 21
-132.522184
 31
0.0
  0
LINE
  8
0
  6
BYLAYER
 62
     7
 10
885.655290
 20
-130.522184
 30
0.0
 11
893.655290
 21
-130.522184
 31
0.0
  0
LINE
  8
0
  6
BYLAYER
 62
     7
 10
885.655290
 20
-122.522184
 30
0.0
 11
885.655290
 21
-130.522184
 31
0.0
  0
LINE
  8
0
  6
BYLAYER
 62
     7
 10
885.655290
 20
-122.522184
 30
0.0
 11
893.655290
 21
-122.522184
 31
0.0
  0
LINE
  8
0
  6
BYLAYER
 62
     7
 10
893.655290
 20
-130.522184
 30
0.0
 11
893.655290
 21
-122.522184
 31
0.0
  0
LINE
  8
0
  6
BYLAYER
 62
     7
 10
885.655290
 20
-140.522184
 30
0.0
 11
893.655290
 21
-140.522184
 31
0.0
  0
LINE
  8
0
  6
BYLAYER
 62
     7
 10
885.655290
 20
-132.522184
 30
0.0
 11
885.655290
 21
-140.522184
 31
0.0
  0
LINE
  8
0
  6
BYLAYER
 62
     7
 10
885.655290
 20
-132.522184
 30
0.0
 11
893.655290
 21
-132.522184
 31
0.0
  0
LINE
  8
0
  6
BYLAYER
 62
     7
 10
893.655290
 20
-140.522184
 30
0.0
 11
893.655290
 21
-132.522184
 31
0.0
  0
LINE
  8
0
  6
BYLAYER
 62
     7
 10
895.655290
 20
-130.522184
 30
0.0
 11
903.655290
 21
-130.522184
 31
0.0
  0
LINE
  8
0
  6
BYLAYER
 62
     7
 10
895.655290
 20
-122.522184
 30
0.0
 11
895.655290
 21
-130.522184
 31
0.0
  0
LINE
  8
0
  6
BYLAYER
 62
     7
 10
895.655290
 20
-122.522184
 30
0.0
 11
903.655290
 21
-122.522184
 31
0.0
  0
LINE
  8
0
  6
BYLAYER
 62
     7
 10
903.655290
 20
-130.522184
 30
0.0
 11
903.655290
 21
-122.522184
 31
0.0
  0
LINE
  8
0
  6
BYLAYER
 62
     7
 10
895.655290
 20
-140.522184
 30
0.0
 11
903.655290
 21
-140.522184
 31
0.0
  0
LINE
  8
0
  6
BYLAYER
 62
     7
 10
895.655290
 20
-132.522184
 30
0.0
 11
895.655290
 21
-140.522184
 31
0.0
  0
LINE
  8
0
  6
BYLAYER
 62
     7
 10
895.655290
 20
-132.522184
 30
0.0
 11
903.655290
 21
-132.522184
 31
0.0
  0
LINE
  8
0
  6
BYLAYER
 62
     7
 10
903.655290
 20
-140.522184
 30
0.0
 11
903.655290
 21
-132.522184
 31
0.0
  0
LINE
  8
0
  6
BYLAYER
 62
     7
 10
855.655290
 20
-92.522184
 30
0.0
 11
855.655290
 21
-100.522184
 31
0.0
  0
LINE
  8
0
  6
BYLAYER
 62
     7
 10
863.655290
 20
-100.522184
 30
0.0
 11
863.655290
 21
-92.522184
 31
0.0
  0
LINE
  8
0
  6
BYLAYER
 62
     7
 10
865.655290
 20
-100.522184
 30
0.0
 11
865.655290
 21
-92.522184
 31
0.0
  0
LINE
  8
0
  6
BYLAYER
 62
     7
 10
865.655290
 20
-100.522184
 30
0.0
 11
873.493289
 21
-100.522184
 31
0.0
  0
LINE
  8
0
  6
BYLAYER
 62
     7
 10
855.655290
 20
-100.522184
 30
0.0
 11
863.655290
 21
-100.522184
 31
0.0
  0
LINE
  8
0
  6
BYLAYER
 62
     7
 10
865.655290
 20
-92.522184
 30
0.0
 11
873.493289
 21
-92.522184
 31
0.0
  0
LINE
  8
0
  6
BYLAYER
 62
     7
 10
855.655290
 20
-92.522184
 30
0.0
 11
863.655290
 21
-92.522184
 31
0.0
  0
LINE
  8
0
  6
BYLAYER
 62
     7
 10
873.493289
 20
-100.522184
 30
0.0
 11
873.493289
 21
-92.522184
 31
0.0
  0
LINE
  8
0
  6
BYLAYER
 62
     7
 10
875.655290
 20
-102.522184
 30
0.0
 11
875.655290
 21
-110.522184
 31
0.0
  0
LINE
  8
0
  6
BYLAYER
 62
     7
 10
875.655290
 20
-110.522184
 30
0.0
 11
883.655290
 21
-110.522184
 31
0.0
  0
LINE
  8
0
  6
BYLAYER
 62
     7
 10
875.655290
 20
-102.522184
 30
0.0
 11
883.655290
 21
-102.522184
 31
0.0
  0
LINE
  8
0
  6
BYLAYER
 62
     7
 10
883.655290
 20
-110.522184
 30
0.0
 11
883.655290
 21
-102.522184
 31
0.0
  0
LINE
  8
0
  6
BYLAYER
 62
     7
 10
875.655290
 20
-92.522184
 30
0.0
 11
875.655290
 21
-100.522184
 31
0.0
  0
LINE
  8
0
  6
BYLAYER
 62
     7
 10
875.655290
 20
-100.522184
 30
0.0
 11
883.655290
 21
-100.522184
 31
0.0
  0
LINE
  8
0
  6
BYLAYER
 62
     7
 10
875.655290
 20
-92.522184
 30
0.0
 11
883.655290
 21
-92.522184
 31
0.0
  0
LINE
  8
0
  6
BYLAYER
 62
     7
 10
883.655290
 20
-100.522184
 30
0.0
 11
883.655290
 21
-92.522184
 31
0.0
  0
LINE
  8
0
  6
BYLAYER
 62
     7
 10
885.655290
 20
-112.522184
 30
0.0
 11
885.655290
 21
-120.522184
 31
0.0
  0
LINE
  8
0
  6
BYLAYER
 62
     7
 10
885.655290
 20
-120.522184
 30
0.0
 11
893.655290
 21
-120.522184
 31
0.0
  0
LINE
  8
0
  6
BYLAYER
 62
     7
 10
885.655290
 20
-112.522184
 30
0.0
 11
893.655290
 21
-112.522184
 31
0.0
  0
LINE
  8
0
  6
BYLAYER
 62
     7
 10
893.655290
 20
-120.522184
 30
0.0
 11
893.655290
 21
-112.522184
 31
0.0
  0
LINE
  8
0
  6
BYLAYER
 62
     7
 10
885.655290
 20
-102.522184
 30
0.0
 11
885.655290
 21
-110.522184
 31
0.0
  0
LINE
  8
0
  6
BYLAYER
 62
     7
 10
885.655290
 20
-110.522184
 30
0.0
 11
893.655290
 21
-110.522184
 31
0.0
  0
LINE
  8
0
  6
BYLAYER
 62
     7
 10
885.655290
 20
-102.522184
 30
0.0
 11
893.655290
 21
-102.522184
 31
0.0
  0
LINE
  8
0
  6
BYLAYER
 62
     7
 10
893.655290
 20
-110.522184
 30
0.0
 11
893.655290
 21
-102.522184
 31
0.0
  0
LINE
  8
0
  6
BYLAYER
 62
     7
 10
895.655290
 20
-112.522184
 30
0.0
 11
895.655290
 21
-120.522184
 31
0.0
  0
LINE
  8
0
  6
BYLAYER
 62
     7
 10
895.655290
 20
-120.522184
 30
0.0
 11
903.655290
 21
-120.522184
 31
0.0
  0
LINE
  8
0
  6
BYLAYER
 62
     7
 10
895.655290
 20
-112.522184
 30
0.0
 11
903.655290
 21
-112.522184
 31
0.0
  0
LINE
  8
0
  6
BYLAYER
 62
     7
 10
903.655290
 20
-120.522184
 30
0.0
 11
903.655290
 21
-112.522184
 31
0.0
  0
LINE
  8
0
  6
BYLAYER
 62
     7
 10
855.655290
 20
-170.522184
 30
0.0
 11
855.655290
 21
-162.522184
 31
0.0
  0
LINE
  8
0
  6
BYLAYER
 62
     7
 10
855.655290
 20
-180.522184
 30
0.0
 11
855.655290
 21
-172.522184
 31
0.0
  0
LINE
  8
0
  6
BYLAYER
 62
     7
 10
863.655290
 20
-172.522184
 30
0.0
 11
863.655290
 21
-180.522184
 31
0.0
  0
LINE
  8
0
  6
BYLAYER
 62
     7
 10
865.655290
 20
-172.522184
 30
0.0
 11
865.655290
 21
-180.522184
 31
0.0
  0
LINE
  8
0
  6
BYLAYER
 62
     7
 10
855.655290
 20
-162.522184
 30
0.0
 11
863.655290
 21
-162.522184
 31
0.0
  0
LINE
  8
0
  6
BYLAYER
 62
     7
 10
855.655290
 20
-170.522184
 30
0.0
 11
863.655290
 21
-170.522184
 31
0.0
  0
LINE
  8
0
  6
BYLAYER
 62
     7
 10
865.655290
 20
-172.522184
 30
0.0
 11
873.493289
 21
-172.522184
 31
0.0
  0
LINE
  8
0
  6
BYLAYER
 62
     7
 10
855.655290
 20
-172.522184
 30
0.0
 11
863.655290
 21
-172.522184
 31
0.0
  0
LINE
  8
0
  6
BYLAYER
 62
     7
 10
865.655290
 20
-180.522184
 30
0.0
 11
873.493289
 21
-180.522184
 31
0.0
  0
LINE
  8
0
  6
BYLAYER
 62
     7
 10
855.655290
 20
-180.522184
 30
0.0
 11
863.655290
 21
-180.522184
 31
0.0
  0
LINE
  8
0
  6
BYLAYER
 62
     7
 10
873.493289
 20
-172.522184
 30
0.0
 11
873.493289
 21
-180.522184
 31
0.0
  0
LINE
  8
0
  6
BYLAYER
 62
     7
 10
863.655290
 20
-162.522184
 30
0.0
 11
863.655290
 21
-170.522184
 31
0.0
  0
LINE
  8
0
  6
BYLAYER
 62
     7
 10
865.655290
 20
-170.522184
 30
0.0
 11
865.655290
 21
-162.522184
 31
0.0
  0
LINE
  8
0
  6
BYLAYER
 62
     7
 10
865.655290
 20
-162.522184
 30
0.0
 11
873.655290
 21
-162.522184
 31
0.0
  0
LINE
  8
0
  6
BYLAYER
 62
     7
 10
865.655290
 20
-170.522184
 30
0.0
 11
873.655290
 21
-170.522184
 31
0.0
  0
LINE
  8
0
  6
BYLAYER
 62
     7
 10
873.655290
 20
-162.522184
 30
0.0
 11
873.655290
 21
-170.522184
 31
0.0
  0
LINE
  8
0
  6
BYLAYER
 62
     7
 10
875.655290
 20
-152.522184
 30
0.0
 11
883.655290
 21
-152.522184
 31
0.0
  0
LINE
  8
0
  6
BYLAYER
 62
     7
 10
875.655290
 20
-170.522184
 30
0.0
 11
875.655290
 21
-162.522184
 31
0.0
  0
LINE
  8
0
  6
BYLAYER
 62
     7
 10
875.655290
 20
-160.522184
 30
0.0
 11
875.655290
 21
-152.522184
 31
0.0
  0
LINE
  8
0
  6
BYLAYER
 62
     7
 10
875.655290
 20
-160.522184
 30
0.0
 11
883.655290
 21
-160.522184
 31
0.0
  0
LINE
  8
0
  6
BYLAYER
 62
     7
 10
875.655290
 20
-162.522184
 30
0.0
 11
883.655290
 21
-162.522184
 31
0.0
  0
LINE
  8
0
  6
BYLAYER
 62
     7
 10
875.655290
 20
-170.522184
 30
0.0
 11
883.655290
 21
-170.522184
 31
0.0
  0
LINE
  8
0
  6
BYLAYER
 62
     7
 10
883.655290
 20
-152.522184
 30
0.0
 11
883.655290
 21
-160.522184
 31
0.0
  0
LINE
  8
0
  6
BYLAYER
 62
     7
 10
883.655290
 20
-162.522184
 30
0.0
 11
883.655290
 21
-170.522184
 31
0.0
  0
LINE
  8
0
  6
BYLAYER
 62
     7
 10
875.655290
 20
-142.522184
 30
0.0
 11
883.655290
 21
-142.522184
 31
0.0
  0
LINE
  8
0
  6
BYLAYER
 62
     7
 10
875.655290
 20
-150.522184
 30
0.0
 11
875.655290
 21
-142.522184
 31
0.0
  0
LINE
  8
0
  6
BYLAYER
 62
     7
 10
875.655290
 20
-150.522184
 30
0.0
 11
883.655290
 21
-150.522184
 31
0.0
  0
LINE
  8
0
  6
BYLAYER
 62
     7
 10
883.655290
 20
-142.522184
 30
0.0
 11
883.655290
 21
-150.522184
 31
0.0
  0
LINE
  8
0
  6
BYLAYER
 62
     7
 10
885.655290
 20
-152.522184
 30
0.0
 11
893.655290
 21
-152.522184
 31
0.0
  0
LINE
  8
0
  6
BYLAYER
 62
     7
 10
885.655290
 20
-160.522184
 30
0.0
 11
885.655290
 21
-152.522184
 31
0.0
  0
LINE
  8
0
  6
BYLAYER
 62
     7
 10
885.655290
 20
-160.522184
 30
0.0
 11
893.655290
 21
-160.522184
 31
0.0
  0
LINE
  8
0
  6
BYLAYER
 62
     7
 10
893.655290
 20
-152.522184
 30
0.0
 11
893.655290
 21
-160.522184
 31
0.0
  0
LINE
  8
0
  6
BYLAYER
 62
     7
 10
885.655290
 20
-142.522184
 30
0.0
 11
893.655290
 21
-142.522184
 31
0.0
  0
LINE
  8
0
  6
BYLAYER
 62
     7
 10
885.655290
 20
-150.522184
 30
0.0
 11
885.655290
 21
-142.522184
 31
0.0
  0
LINE
  8
0
  6
BYLAYER
 62
     7
 10
885.655290
 20
-150.522184
 30
0.0
 11
893.655290
 21
-150.522184
 31
0.0
  0
LINE
  8
0
  6
BYLAYER
 62
     7
 10
893.655290
 20
-142.522184
 30
0.0
 11
893.655290
 21
-150.522184
 31
0.0
  0
LINE
  8
0
  6
BYLAYER
 62
     7
 10
895.655290
 20
-152.522184
 30
0.0
 11
903.655290
 21
-152.522184
 31
0.0
  0
LINE
  8
0
  6
BYLAYER
 62
     7
 10
895.655290
 20
-160.522184
 30
0.0
 11
895.655290
 21
-152.522184
 31
0.0
  0
LINE
  8
0
  6
BYLAYER
 62
     7
 10
895.655290
 20
-160.522184
 30
0.0
 11
903.655290
 21
-160.522184
 31
0.0
  0
LINE
  8
0
  6
BYLAYER
 62
     7
 10
903.655290
 20
-152.522184
 30
0.0
 11
903.655290
 21
-160.522184
 31
0.0
  0
LINE
  8
0
  6
BYLAYER
 62
     7
 10
895.655290
 20
-142.522184
 30
0.0
 11
903.655290
 21
-142.522184
 31
0.0
  0
LINE
  8
0
  6
BYLAYER
 62
     7
 10
895.655290
 20
-150.522184
 30
0.0
 11
895.655290
 21
-142.522184
 31
0.0
  0
LINE
  8
0
  6
BYLAYER
 62
     7
 10
895.655290
 20
-150.522184
 30
0.0
 11
903.655290
 21
-150.522184
 31
0.0
  0
LINE
  8
0
  6
BYLAYER
 62
     7
 10
903.655290
 20
-142.522184
 30
0.0
 11
903.655290
 21
-150.522184
 31
0.0
  0
LINE
  8
0
  6
BYLAYER
 62
     7
 10
855.655290
 20
-190.522184
 30
0.0
 11
855.655290
 21
-182.522184
 31
0.0
  0
LINE
  8
0
  6
BYLAYER
 62
     7
 10
863.655290
 20
-182.522184
 30
0.0
 11
863.655290
 21
-190.522184
 31
0.0
  0
LINE
  8
0
  6
BYLAYER
 62
     7
 10
865.655290
 20
-182.522184
 30
0.0
 11
865.655290
 21
-190.522184
 31
0.0
  0
LINE
  8
0
  6
BYLAYER
 62
     7
 10
865.655290
 20
-182.522184
 30
0.0
 11
873.493289
 21
-182.522184
 31
0.0
  0
LINE
  8
0
  6
BYLAYER
 62
     7
 10
855.655290
 20
-182.522184
 30
0.0
 11
863.655290
 21
-182.522184
 31
0.0
  0
LINE
  8
0
  6
BYLAYER
 62
     7
 10
865.655290
 20
-190.522184
 30
0.0
 11
873.493289
 21
-190.522184
 31
0.0
  0
LINE
  8
0
  6
BYLAYER
 62
     7
 10
855.655290
 20
-190.522184
 30
0.0
 11
863.655290
 21
-190.522184
 31
0.0
  0
LINE
  8
0
  6
BYLAYER
 62
     7
 10
873.493289
 20
-182.522184
 30
0.0
 11
873.493289
 21
-190.522184
 31
0.0
  0
LINE
  8
0
  6
BYLAYER
 62
     7
 10
875.655290
 20
-180.522184
 30
0.0
 11
875.655290
 21
-172.522184
 31
0.0
  0
LINE
  8
0
  6
BYLAYER
 62
     7
 10
875.655290
 20
-172.522184
 30
0.0
 11
883.655290
 21
-172.522184
 31
0.0
  0
LINE
  8
0
  6
BYLAYER
 62
     7
 10
875.655290
 20
-180.522184
 30
0.0
 11
883.655290
 21
-180.522184
 31
0.0
  0
LINE
  8
0
  6
BYLAYER
 62
     7
 10
883.655290
 20
-172.522184
 30
0.0
 11
883.655290
 21
-180.522184
 31
0.0
  0
LINE
  8
0
  6
BYLAYER
 62
     7
 10
875.655290
 20
-190.522184
 30
0.0
 11
875.655290
 21
-182.522184
 31
0.0
  0
LINE
  8
0
  6
BYLAYER
 62
     7
 10
875.655290
 20
-182.522184
 30
0.0
 11
883.655290
 21
-182.522184
 31
0.0
  0
LINE
  8
0
  6
BYLAYER
 62
     7
 10
875.655290
 20
-190.522184
 30
0.0
 11
883.655290
 21
-190.522184
 31
0.0
  0
LINE
  8
0
  6
BYLAYER
 62
     7
 10
883.655290
 20
-182.522184
 30
0.0
 11
883.655290
 21
-190.522184
 31
0.0
  0
LINE
  8
0
  6
BYLAYER
 62
     7
 10
885.655290
 20
-170.522184
 30
0.0
 11
885.655290
 21
-162.522184
 31
0.0
  0
LINE
  8
0
  6
BYLAYER
 62
     7
 10
885.655290
 20
-162.522184
 30
0.0
 11
893.655290
 21
-162.522184
 31
0.0
  0
LINE
  8
0
  6
BYLAYER
 62
     7
 10
885.655290
 20
-170.522184
 30
0.0
 11
893.655290
 21
-170.522184
 31
0.0
  0
LINE
  8
0
  6
BYLAYER
 62
     7
 10
893.655290
 20
-162.522184
 30
0.0
 11
893.655290
 21
-170.522184
 31
0.0
  0
LINE
  8
0
  6
BYLAYER
 62
     7
 10
885.655290
 20
-180.522184
 30
0.0
 11
885.655290
 21
-172.522184
 31
0.0
  0
LINE
  8
0
  6
BYLAYER
 62
     7
 10
885.655290
 20
-172.522184
 30
0.0
 11
893.655290
 21
-172.522184
 31
0.0
  0
LINE
  8
0
  6
BYLAYER
 62
     7
 10
885.655290
 20
-180.522184
 30
0.0
 11
893.655290
 21
-180.522184
 31
0.0
  0
LINE
  8
0
  6
BYLAYER
 62
     7
 10
893.655290
 20
-172.522184
 30
0.0
 11
893.655290
 21
-180.522184
 31
0.0
  0
LINE
  8
0
  6
BYLAYER
 62
     7
 10
895.655290
 20
-170.522184
 30
0.0
 11
895.655290
 21
-162.522184
 31
0.0
  0
LINE
  8
0
  6
BYLAYER
 62
     7
 10
895.655290
 20
-162.522184
 30
0.0
 11
903.655290
 21
-162.522184
 31
0.0
  0
LINE
  8
0
  6
BYLAYER
 62
     7
 10
895.655290
 20
-170.522184
 30
0.0
 11
903.655290
 21
-170.522184
 31
0.0
  0
LINE
  8
0
  6
BYLAYER
 62
     7
 10
903.655290
 20
-162.522184
 30
0.0
 11
903.655290
 21
-170.522184
 31
0.0
  0
LINE
  8
0
  6
BYLAYER
 62
     7
 10
853.655290
 20
-112.522184
 30
0.0
 11
853.655290
 21
-120.522184
 31
0.0
  0
LINE
  8
0
  6
BYLAYER
 62
     7
 10
853.655290
 20
-102.522184
 30
0.0
 11
853.655290
 21
-110.522184
 31
0.0
  0
LINE
  8
0
  6
BYLAYER
 62
     7
 10
845.655290
 20
-110.522184
 30
0.0
 11
845.655290
 21
-102.522184
 31
0.0
  0
LINE
  8
0
  6
BYLAYER
 62
     7
 10
843.655290
 20
-110.522184
 30
0.0
 11
843.655290
 21
-102.522184
 31
0.0
  0
LINE
  8
0
  6
BYLAYER
 62
     7
 10
853.655290
 20
-120.522184
 30
0.0
 11
845.655290
 21
-120.522184
 31
0.0
  0
LINE
  8
0
  6
BYLAYER
 62
     7
 10
853.655290
 20
-112.522184
 30
0.0
 11
845.655290
 21
-112.522184
 31
0.0
  0
LINE
  8
0
  6
BYLAYER
 62
     7
 10
843.655290
 20
-110.522184
 30
0.0
 11
835.817291
 21
-110.522184
 31
0.0
  0
LINE
  8
0
  6
BYLAYER
 62
     7
 10
853.655290
 20
-110.522184
 30
0.0
 11
845.655290
 21
-110.522184
 31
0.0
  0
LINE
  8
0
  6
BYLAYER
 62
     7
 10
843.655290
 20
-102.522184
 30
0.0
 11
835.817291
 21
-102.522184
 31
0.0
  0
LINE
  8
0
  6
BYLAYER
 62
     7
 10
853.655290
 20
-102.522184
 30
0.0
 11
845.655290
 21
-102.522184
 31
0.0
  0
LINE
  8
0
  6
BYLAYER
 62
     7
 10
835.817291
 20
-110.522184
 30
0.0
 11
835.817291
 21
-102.522184
 31
0.0
  0
LINE
  8
0
  6
BYLAYER
 62
     7
 10
845.655290
 20
-120.522184
 30
0.0
 11
845.655290
 21
-112.522184
 31
0.0
  0
LINE
  8
0
  6
BYLAYER
 62
     7
 10
843.655290
 20
-112.522184
 30
0.0
 11
843.655290
 21
-120.522184
 31
0.0
  0
LINE
  8
0
  6
BYLAYER
 62
     7
 10
843.655290
 20
-120.522184
 30
0.0
 11
835.655290
 21
-120.522184
 31
0.0
  0
LINE
  8
0
  6
BYLAYER
 62
     7
 10
843.655290
 20
-112.522184
 30
0.0
 11
835.655290
 21
-112.522184
 31
0.0
  0
LINE
  8
0
  6
BYLAYER
 62
     7
 10
835.655290
 20
-120.522184
 30
0.0
 11
835.655290
 21
-112.522184
 31
0.0
  0
LINE
  8
0
  6
BYLAYER
 62
     7
 10
833.655290
 20
-130.522184
 30
0.0
 11
825.655290
 21
-130.522184
 31
0.0
  0
LINE
  8
0
  6
BYLAYER
 62
     7
 10
833.655290
 20
-112.522184
 30
0.0
 11
833.655290
 21
-120.522184
 31
0.0
  0
LINE
  8
0
  6
BYLAYER
 62
     7
 10
833.655290
 20
-122.522184
 30
0.0
 11
833.655290
 21
-130.522184
 31
0.0
  0
LINE
  8
0
  6
BYLAYER
 62
     7
 10
833.655290
 20
-122.522184
 30
0.0
 11
825.655290
 21
-122.522184
 31
0.0
  0
LINE
  8
0
  6
BYLAYER
 62
     7
 10
833.655290
 20
-120.522184
 30
0.0
 11
825.655290
 21
-120.522184
 31
0.0
  0
LINE
  8
0
  6
BYLAYER
 62
     7
 10
833.655290
 20
-112.522184
 30
0.0
 11
825.655290
 21
-112.522184
 31
0.0
  0
LINE
  8
0
  6
BYLAYER
 62
     7
 10
825.655290
 20
-130.522184
 30
0.0
 11
825.655290
 21
-122.522184
 31
0.0
  0
LINE
  8
0
  6
BYLAYER
 62
     7
 10
825.655290
 20
-120.522184
 30
0.0
 11
825.655290
 21
-112.522184
 31
0.0
  0
LINE
  8
0
  6
BYLAYER
 62
     7
 10
833.655290
 20
-140.522184
 30
0.0
 11
825.655290
 21
-140.522184
 31
0.0
  0
LINE
  8
0
  6
BYLAYER
 62
     7
 10
833.655290
 20
-132.522184
 30
0.0
 11
833.655290
 21
-140.522184
 31
0.0
  0
LINE
  8
0
  6
BYLAYER
 62
     7
 10
833.655290
 20
-132.522184
 30
0.0
 11
825.655290
 21
-132.522184
 31
0.0
  0
LINE
  8
0
  6
BYLAYER
 62
     7
 10
825.655290
 20
-140.522184
 30
0.0
 11
825.655290
 21
-132.522184
 31
0.0
  0
LINE
  8
0
  6
BYLAYER
 62
     7
 10
823.655290
 20
-130.522184
 30
0.0
 11
815.655290
 21
-130.522184
 31
0.0
  0
LINE
  8
0
  6
BYLAYER
 62
     7
 10
823.655290
 20
-122.522184
 30
0.0
 11
823.655290
 21
-130.522184
 31
0.0
  0
LINE
  8
0
  6
BYLAYER
 62
     7
 10
823.655290
 20
-122.522184
 30
0.0
 11
815.655290
 21
-122.522184
 31
0.0
  0
LINE
  8
0
  6
BYLAYER
 62
     7
 10
815.655290
 20
-130.522184
 30
0.0
 11
815.655290
 21
-122.522184
 31
0.0
  0
LINE
  8
0
  6
BYLAYER
 62
     7
 10
823.655290
 20
-140.522184
 30
0.0
 11
815.655290
 21
-140.522184
 31
0.0
  0
LINE
  8
0
  6
BYLAYER
 62
     7
 10
823.655290
 20
-132.522184
 30
0.0
 11
823.655290
 21
-140.522184
 31
0.0
  0
LINE
  8
0
  6
BYLAYER
 62
     7
 10
823.655290
 20
-132.522184
 30
0.0
 11
815.655290
 21
-132.522184
 31
0.0
  0
LINE
  8
0
  6
BYLAYER
 62
     7
 10
815.655290
 20
-140.522184
 30
0.0
 11
815.655290
 21
-132.522184
 31
0.0
  0
LINE
  8
0
  6
BYLAYER
 62
     7
 10
813.655290
 20
-130.522184
 30
0.0
 11
805.655290
 21
-130.522184
 31
0.0
  0
LINE
  8
0
  6
BYLAYER
 62
     7
 10
813.655290
 20
-122.522184
 30
0.0
 11
813.655290
 21
-130.522184
 31
0.0
  0
LINE
  8
0
  6
BYLAYER
 62
     7
 10
813.655290
 20
-122.522184
 30
0.0
 11
805.655290
 21
-122.522184
 31
0.0
  0
LINE
  8
0
  6
BYLAYER
 62
     7
 10
805.655290
 20
-130.522184
 30
0.0
 11
805.655290
 21
-122.522184
 31
0.0
  0
LINE
  8
0
  6
BYLAYER
 62
     7
 10
813.655290
 20
-140.522184
 30
0.0
 11
805.655290
 21
-140.522184
 31
0.0
  0
LINE
  8
0
  6
BYLAYER
 62
     7
 10
813.655290
 20
-132.522184
 30
0.0
 11
813.655290
 21
-140.522184
 31
0.0
  0
LINE
  8
0
  6
BYLAYER
 62
     7
 10
813.655290
 20
-132.522184
 30
0.0
 11
805.655290
 21
-132.522184
 31
0.0
  0
LINE
  8
0
  6
BYLAYER
 62
     7
 10
805.655290
 20
-140.522184
 30
0.0
 11
805.655290
 21
-132.522184
 31
0.0
  0
LINE
  8
0
  6
BYLAYER
 62
     7
 10
853.655290
 20
-92.522184
 30
0.0
 11
853.655290
 21
-100.522184
 31
0.0
  0
LINE
  8
0
  6
BYLAYER
 62
     7
 10
845.655290
 20
-100.522184
 30
0.0
 11
845.655290
 21
-92.522184
 31
0.0
  0
LINE
  8
0
  6
BYLAYER
 62
     7
 10
843.655290
 20
-100.522184
 30
0.0
 11
843.655290
 21
-92.522184
 31
0.0
  0
LINE
  8
0
  6
BYLAYER
 62
     7
 10
843.655290
 20
-100.522184
 30
0.0
 11
835.817291
 21
-100.522184
 31
0.0
  0
LINE
  8
0
  6
BYLAYER
 62
     7
 10
853.655290
 20
-100.522184
 30
0.0
 11
845.655290
 21
-100.522184
 31
0.0
  0
LINE
  8
0
  6
BYLAYER
 62
     7
 10
843.655290
 20
-92.522184
 30
0.0
 11
835.817291
 21
-92.522184
 31
0.0
  0
LINE
  8
0
  6
BYLAYER
 62
     7
 10
853.655290
 20
-92.522184
 30
0.0
 11
845.655290
 21
-92.522184
 31
0.0
  0
LINE
  8
0
  6
BYLAYER
 62
     7
 10
835.817291
 20
-100.522184
 30
0.0
 11
835.817291
 21
-92.522184
 31
0.0
  0
LINE
  8
0
  6
BYLAYER
 62
     7
 10
833.655290
 20
-102.522184
 30
0.0
 11
833.655290
 21
-110.522184
 31
0.0
  0
LINE
  8
0
  6
BYLAYER
 62
     7
 10
833.655290
 20
-110.522184
 30
0.0
 11
825.655290
 21
-110.522184
 31
0.0
  0
LINE
  8
0
  6
BYLAYER
 62
     7
 10
833.655290
 20
-102.522184
 30
0.0
 11
825.655290
 21
-102.522184
 31
0.0
  0
LINE
  8
0
  6
BYLAYER
 62
     7
 10
825.655290
 20
-110.522184
 30
0.0
 11
825.655290
 21
-102.522184
 31
0.0
  0
LINE
  8
0
  6
BYLAYER
 62
     7
 10
833.655290
 20
-92.522184
 30
0.0
 11
833.655290
 21
-100.522184
 31
0.0
  0
LINE
  8
0
  6
BYLAYER
 62
     7
 10
833.655290
 20
-100.522184
 30
0.0
 11
825.655290
 21
-100.522184
 31
0.0
  0
LINE
  8
0
  6
BYLAYER
 62
     7
 10
833.655290
 20
-92.522184
 30
0.0
 11
825.655290
 21
-92.522184
 31
0.0
  0
LINE
  8
0
  6
BYLAYER
 62
     7
 10
825.655290
 20
-100.522184
 30
0.0
 11
825.655290
 21
-92.522184
 31
0.0
  0
LINE
  8
0
  6
BYLAYER
 62
     7
 10
823.655290
 20
-112.522184
 30
0.0
 11
823.655290
 21
-120.522184
 31
0.0
  0
LINE
  8
0
  6
BYLAYER
 62
     7
 10
823.655290
 20
-120.522184
 30
0.0
 11
815.655290
 21
-120.522184
 31
0.0
  0
LINE
  8
0
  6
BYLAYER
 62
     7
 10
823.655290
 20
-112.522184
 30
0.0
 11
815.655290
 21
-112.522184
 31
0.0
  0
LINE
  8
0
  6
BYLAYER
 62
     7
 10
815.655290
 20
-120.522184
 30
0.0
 11
815.655290
 21
-112.522184
 31
0.0
  0
LINE
  8
0
  6
BYLAYER
 62
     7
 10
823.655290
 20
-102.522184
 30
0.0
 11
823.655290
 21
-110.522184
 31
0.0
  0
LINE
  8
0
  6
BYLAYER
 62
     7
 10
823.655290
 20
-110.522184
 30
0.0
 11
815.655290
 21
-110.522184
 31
0.0
  0
LINE
  8
0
  6
BYLAYER
 62
     7
 10
823.655290
 20
-102.522184
 30
0.0
 11
815.655290
 21
-102.522184
 31
0.0
  0
LINE
  8
0
  6
BYLAYER
 62
     7
 10
815.655290
 20
-110.522184
 30
0.0
 11
815.655290
 21
-102.522184
 31
0.0
  0
LINE
  8
0
  6
BYLAYER
 62
     7
 10
813.655290
 20
-112.522184
 30
0.0
 11
813.655290
 21
-120.522184
 31
0.0
  0
LINE
  8
0
  6
BYLAYER
 62
     7
 10
813.655290
 20
-120.522184
 30
0.0
 11
805.655290
 21
-120.522184
 31
0.0
  0
LINE
  8
0
  6
BYLAYER
 62
     7
 10
813.655290
 20
-112.522184
 30
0.0
 11
805.655290
 21
-112.522184
 31
0.0
  0
LINE
  8
0
  6
BYLAYER
 62
     7
 10
805.655290
 20
-120.522184
 30
0.0
 11
805.655290
 21
-112.522184
 31
0.0
  0
LINE
  8
0
  6
BYLAYER
 62
     7
 10
853.655290
 20
-170.522184
 30
0.0
 11
853.655290
 21
-162.522184
 31
0.0
  0
LINE
  8
0
  6
BYLAYER
 62
     7
 10
853.655290
 20
-180.522184
 30
0.0
 11
853.655290
 21
-172.522184
 31
0.0
  0
LINE
  8
0
  6
BYLAYER
 62
     7
 10
845.655290
 20
-172.522184
 30
0.0
 11
845.655290
 21
-180.522184
 31
0.0
  0
LINE
  8
0
  6
BYLAYER
 62
     7
 10
843.655290
 20
-172.522184
 30
0.0
 11
843.655290
 21
-180.522184
 31
0.0
  0
LINE
  8
0
  6
BYLAYER
 62
     7
 10
853.655290
 20
-162.522184
 30
0.0
 11
845.655290
 21
-162.522184
 31
0.0
  0
LINE
  8
0
  6
BYLAYER
 62
     7
 10
853.655290
 20
-170.522184
 30
0.0
 11
845.655290
 21
-170.522184
 31
0.0
  0
LINE
  8
0
  6
BYLAYER
 62
     7
 10
843.655290
 20
-172.522184
 30
0.0
 11
835.817291
 21
-172.522184
 31
0.0
  0
LINE
  8
0
  6
BYLAYER
 62
     7
 10
853.655290
 20
-172.522184
 30
0.0
 11
845.655290
 21
-172.522184
 31
0.0
  0
LINE
  8
0
  6
BYLAYER
 62
     7
 10
843.655290
 20
-180.522184
 30
0.0
 11
835.817291
 21
-180.522184
 31
0.0
  0
LINE
  8
0
  6
BYLAYER
 62
     7
 10
853.655290
 20
-180.522184
 30
0.0
 11
845.655290
 21
-180.522184
 31
0.0
  0
LINE
  8
0
  6
BYLAYER
 62
     7
 10
835.817291
 20
-172.522184
 30
0.0
 11
835.817291
 21
-180.522184
 31
0.0
  0
LINE
  8
0
  6
BYLAYER
 62
     7
 10
845.655290
 20
-162.522184
 30
0.0
 11
845.655290
 21
-170.522184
 31
0.0
  0
LINE
  8
0
  6
BYLAYER
 62
     7
 10
843.655290
 20
-170.522184
 30
0.0
 11
843.655290
 21
-162.522184
 31
0.0
  0
LINE
  8
0
  6
BYLAYER
 62
     7
 10
843.655290
 20
-162.522184
 30
0.0
 11
835.655290
 21
-162.522184
 31
0.0
  0
LINE
  8
0
  6
BYLAYER
 62
     7
 10
843.655290
 20
-170.522184
 30
0.0
 11
835.655290
 21
-170.522184
 31
0.0
  0
LINE
  8
0
  6
BYLAYER
 62
     7
 10
835.655290
 20
-162.522184
 30
0.0
 11
835.655290
 21
-170.522184
 31
0.0
  0
LINE
  8
0
  6
BYLAYER
 62
     7
 10
833.655290
 20
-152.522184
 30
0.0
 11
825.655290
 21
-152.522184
 31
0.0
  0
LINE
  8
0
  6
BYLAYER
 62
     7
 10
833.655290
 20
-170.522184
 30
0.0
 11
833.655290
 21
-162.522184
 31
0.0
  0
LINE
  8
0
  6
BYLAYER
 62
     7
 10
833.655290
 20
-160.522184
 30
0.0
 11
833.655290
 21
-152.522184
 31
0.0
  0
LINE
  8
0
  6
BYLAYER
 62
     7
 10
833.655290
 20
-160.522184
 30
0.0
 11
825.655290
 21
-160.522184
 31
0.0
  0
LINE
  8
0
  6
BYLAYER
 62
     7
 10
833.655290
 20
-162.522184
 30
0.0
 11
825.655290
 21
-162.522184
 31
0.0
  0
LINE
  8
0
  6
BYLAYER
 62
     7
 10
833.655290
 20
-170.522184
 30
0.0
 11
825.655290
 21
-170.522184
 31
0.0
  0
LINE
  8
0
  6
BYLAYER
 62
     7
 10
825.655290
 20
-152.522184
 30
0.0
 11
825.655290
 21
-160.522184
 31
0.0
  0
LINE
  8
0
  6
BYLAYER
 62
     7
 10
825.655290
 20
-162.522184
 30
0.0
 11
825.655290
 21
-170.522184
 31
0.0
  0
LINE
  8
0
  6
BYLAYER
 62
     7
 10
833.655290
 20
-142.522184
 30
0.0
 11
825.655290
 21
-142.522184
 31
0.0
  0
LINE
  8
0
  6
BYLAYER
 62
     7
 10
833.655290
 20
-150.522184
 30
0.0
 11
833.655290
 21
-142.522184
 31
0.0
  0
LINE
  8
0
  6
BYLAYER
 62
     7
 10
833.655290
 20
-150.522184
 30
0.0
 11
825.655290
 21
-150.522184
 31
0.0
  0
LINE
  8
0
  6
BYLAYER
 62
     7
 10
825.655290
 20
-142.522184
 30
0.0
 11
825.655290
 21
-150.522184
 31
0.0
  0
LINE
  8
0
  6
BYLAYER
 62
     7
 10
823.655290
 20
-152.522184
 30
0.0
 11
815.655290
 21
-152.522184
 31
0.0
  0
LINE
  8
0
  6
BYLAYER
 62
     7
 10
823.655290
 20
-160.522184
 30
0.0
 11
823.655290
 21
-152.522184
 31
0.0
  0
LINE
  8
0
  6
BYLAYER
 62
     7
 10
823.655290
 20
-160.522184
 30
0.0
 11
815.655290
 21
-160.522184
 31
0.0
  0
LINE
  8
0
  6
BYLAYER
 62
     7
 10
815.655290
 20
-152.522184
 30
0.0
 11
815.655290
 21
-160.522184
 31
0.0
  0
LINE
  8
0
  6
BYLAYER
 62
     7
 10
823.655290
 20
-142.522184
 30
0.0
 11
815.655290
 21
-142.522184
 31
0.0
  0
LINE
  8
0
  6
BYLAYER
 62
     7
 10
823.655290
 20
-150.522184
 30
0.0
 11
823.655290
 21
-142.522184
 31
0.0
  0
LINE
  8
0
  6
BYLAYER
 62
     7
 10
823.655290
 20
-150.522184
 30
0.0
 11
815.655290
 21
-150.522184
 31
0.0
  0
LINE
  8
0
  6
BYLAYER
 62
     7
 10
815.655290
 20
-142.522184
 30
0.0
 11
815.655290
 21
-150.522184
 31
0.0
  0
LINE
  8
0
  6
BYLAYER
 62
     7
 10
813.655290
 20
-152.522184
 30
0.0
 11
805.655290
 21
-152.522184
 31
0.0
  0
LINE
  8
0
  6
BYLAYER
 62
     7
 10
813.655290
 20
-160.522184
 30
0.0
 11
813.655290
 21
-152.522184
 31
0.0
  0
LINE
  8
0
  6
BYLAYER
 62
     7
 10
813.655290
 20
-160.522184
 30
0.0
 11
805.655290
 21
-160.522184
 31
0.0
  0
LINE
  8
0
  6
BYLAYER
 62
     7
 10
805.655290
 20
-152.522184
 30
0.0
 11
805.655290
 21
-160.522184
 31
0.0
  0
LINE
  8
0
  6
BYLAYER
 62
     7
 10
813.655290
 20
-142.522184
 30
0.0
 11
805.655290
 21
-142.522184
 31
0.0
  0
LINE
  8
0
  6
BYLAYER
 62
     7
 10
813.655290
 20
-150.522184
 30
0.0
 11
813.655290
 21
-142.522184
 31
0.0
  0
LINE
  8
0
  6
BYLAYER
 62
     7
 10
813.655290
 20
-150.522184
 30
0.0
 11
805.655290
 21
-150.522184
 31
0.0
  0
LINE
  8
0
  6
BYLAYER
 62
     7
 10
805.655290
 20
-142.522184
 30
0.0
 11
805.655290
 21
-150.522184
 31
0.0
  0
LINE
  8
0
  6
BYLAYER
 62
     7
 10
853.655290
 20
-190.522184
 30
0.0
 11
853.655290
 21
-182.522184
 31
0.0
  0
LINE
  8
0
  6
BYLAYER
 62
     7
 10
845.655290
 20
-182.522184
 30
0.0
 11
845.655290
 21
-190.522184
 31
0.0
  0
LINE
  8
0
  6
BYLAYER
 62
     7
 10
843.655290
 20
-182.522184
 30
0.0
 11
843.655290
 21
-190.522184
 31
0.0
  0
LINE
  8
0
  6
BYLAYER
 62
     7
 10
843.655290
 20
-182.522184
 30
0.0
 11
835.817291
 21
-182.522184
 31
0.0
  0
LINE
  8
0
  6
BYLAYER
 62
     7
 10
853.655290
 20
-182.522184
 30
0.0
 11
845.655290
 21
-182.522184
 31
0.0
  0
LINE
  8
0
  6
BYLAYER
 62
     7
 10
843.655290
 20
-190.522184
 30
0.0
 11
835.817291
 21
-190.522184
 31
0.0
  0
LINE
  8
0
  6
BYLAYER
 62
     7
 10
853.655290
 20
-190.522184
 30
0.0
 11
845.655290
 21
-190.522184
 31
0.0
  0
LINE
  8
0
  6
BYLAYER
 62
     7
 10
835.817291
 20
-182.522184
 30
0.0
 11
835.817291
 21
-190.522184
 31
0.0
  0
LINE
  8
0
  6
BYLAYER
 62
     7
 10
833.655290
 20
-180.522184
 30
0.0
 11
833.655290
 21
-172.522184
 31
0.0
  0
LINE
  8
0
  6
BYLAYER
 62
     7
 10
833.655290
 20
-172.522184
 30
0.0
 11
825.655290
 21
-172.522184
 31
0.0
  0
LINE
  8
0
  6
BYLAYER
 62
     7
 10
833.655290
 20
-180.522184
 30
0.0
 11
825.655290
 21
-180.522184
 31
0.0
  0
LINE
  8
0
  6
BYLAYER
 62
     7
 10
825.655290
 20
-172.522184
 30
0.0
 11
825.655290
 21
-180.522184
 31
0.0
  0
LINE
  8
0
  6
BYLAYER
 62
     7
 10
833.655290
 20
-190.522184
 30
0.0
 11
833.655290
 21
-182.522184
 31
0.0
  0
LINE
  8
0
  6
BYLAYER
 62
     7
 10
833.655290
 20
-182.522184
 30
0.0
 11
825.655290
 21
-182.522184
 31
0.0
  0
LINE
  8
0
  6
BYLAYER
 62
     7
 10
833.655290
 20
-190.522184
 30
0.0
 11
825.655290
 21
-190.522184
 31
0.0
  0
LINE
  8
0
  6
BYLAYER
 62
     7
 10
825.655290
 20
-182.522184
 30
0.0
 11
825.655290
 21
-190.522184
 31
0.0
  0
LINE
  8
0
  6
BYLAYER
 62
     7
 10
823.655290
 20
-170.522184
 30
0.0
 11
823.655290
 21
-162.522184
 31
0.0
  0
LINE
  8
0
  6
BYLAYER
 62
     7
 10
823.655290
 20
-162.522184
 30
0.0
 11
815.655290
 21
-162.522184
 31
0.0
  0
LINE
  8
0
  6
BYLAYER
 62
     7
 10
823.655290
 20
-170.522184
 30
0.0
 11
815.655290
 21
-170.522184
 31
0.0
  0
LINE
  8
0
  6
BYLAYER
 62
     7
 10
815.655290
 20
-162.522184
 30
0.0
 11
815.655290
 21
-170.522184
 31
0.0
  0
LINE
  8
0
  6
BYLAYER
 62
     7
 10
823.655290
 20
-180.522184
 30
0.0
 11
823.655290
 21
-172.522184
 31
0.0
  0
LINE
  8
0
  6
BYLAYER
 62
     7
 10
823.655290
 20
-172.522184
 30
0.0
 11
815.655290
 21
-172.522184
 31
0.0
  0
LINE
  8
0
  6
BYLAYER
 62
     7
 10
823.655290
 20
-180.522184
 30
0.0
 11
815.655290
 21
-180.522184
 31
0.0
  0
LINE
  8
0
  6
BYLAYER
 62
     7
 10
815.655290
 20
-172.522184
 30
0.0
 11
815.655290
 21
-180.522184
 31
0.0
  0
LINE
  8
0
  6
BYLAYER
 62
     7
 10
813.655290
 20
-170.522184
 30
0.0
 11
813.655290
 21
-162.522184
 31
0.0
  0
LINE
  8
0
  6
BYLAYER
 62
     7
 10
813.655290
 20
-162.522184
 30
0.0
 11
805.655290
 21
-162.522184
 31
0.0
  0
LINE
  8
0
  6
BYLAYER
 62
     7
 10
813.655290
 20
-170.522184
 30
0.0
 11
805.655290
 21
-170.522184
 31
0.0
  0
LINE
  8
0
  6
BYLAYER
 62
     7
 10
805.655290
 20
-162.522184
 30
0.0
 11
805.655290
 21
-170.522184
 31
0.0
  0
CIRCLE
  8
0
  6
BYLAYER
 62
     7
 10
854.655290
 20
-141.522184
 30
0.0
 40
4.0
  0
ARC
  8
0
  6
BYLAYER
 62
     7
 10
890.405290
 20
-43.022153
 30
0.0
 40
1.5
 50
180.000000
 51
265.219808
  0
ARC
  8
0
  6
BYLAYER
 62
     7
 10
818.905290
 20
-43.022153
 30
0.0
 40
1.500000
 50
274.780192
 51
360.000000
  0
ARC
  8
0
  6
BYLAYER
 62
     7
 10
826.900952
 20
-43.022153
 30
0.0
 40
1.5
 50
270.0
 51
360.0
  0
LINE
  8
0
  6
BYLAYER
 62
     7
 10
888.905290
 20
-43.022153
 30
0.0
 11
888.905290
 21
-21.522153
 31
0.0
  0
LINE
  8
0
  6
BYLAYER
 62
     7
 10
887.405290
 20
-20.022153
 30
0.0
 11
821.905290
 21
-20.022153
 31
0.0
  0
ARC
  8
0
  6
BYLAYER
 62
     7
 10
887.405290
 20
-21.522153
 30
0.0
 40
1.500000
 50
0.0
 51
90.0
  0
ARC
  8
0
  6
BYLAYER
 62
     7
 10
821.905290
 20
-21.522153
 30
0.0
 40
1.5
 50
90.0
 51
180.0
  0
LINE
  8
0
  6
BYLAYER
 62
     7
 10
820.405290
 20
-43.022153
 30
0.0
 11
820.405290
 21
-21.522153
 31
0.0
  0
LINE
  8
0
  6
BYLAYER
 62
     7
 10
828.400952
 20
-43.022153
 30
0.0
 11
828.400952
 21
-21.522153
 31
0.0
  0
ARC
  8
0
  6
BYLAYER
 62
     7
 10
829.900952
 20
-21.522153
 30
0.0
 40
1.500000
 50
90.0
 51
180.0
  0
ARC
  8
0
  6
BYLAYER
 62
     7
 10
879.409628
 20
-21.522153
 30
0.0
 40
1.500000
 50
0.0
 51
90.0
  0
LINE
  8
0
  6
BYLAYER
 62
     7
 10
834.061637
 20
-20.022153
 30
0.0
 11
834.554184
 21
-34.126851
 31
0.0
  0
ARC
  8
0
  6
BYLAYER
 62
     7
 10
837.552356
 20
-34.022153
 30
0.0
 40
3.000000
 50
182.000000
 51
270.000000
  0
LINE
  8
0
  6
BYLAYER
 62
     7
 10
844.756396
 20
-34.126851
 30
0.0
 11
845.248943
 21
-20.022153
 31
0.0
  0
ARC
  8
0
  6
BYLAYER
 62
     7
 10
841.758224
 20
-34.022153
 30
0.0
 40
3.0
 50
270.0
 51
358.0
  0
LINE
  8
0
  6
BYLAYER
 62
     7
 10
859.756396
 20
-34.126851
 30
0.0
 11
860.248943
 21
-20.022153
 31
0.0
  0
ARC
  8
0
  6
BYLAYER
 62
     7
 10
856.758224
 20
-34.022153
 30
0.0
 40
3.000000
 50
270.0
 51
358.0
  0
LINE
  8
0
  6
BYLAYER
 62
     7
 10
874.756396
 20
-34.126851
 30
0.0
 11
875.248943
 21
-20.022153
 31
0.0
  0
ARC
  8
0
  6
BYLAYER
 62
     7
 10
871.758224
 20
-34.022153
 30
0.0
 40
3.000000
 50
270.0
 51
358.0
  0
LINE
  8
0
  6
BYLAYER
 62
     7
 10
864.061637
 20
-20.022153
 30
0.0
 11
864.554184
 21
-34.126851
 31
0.0
  0
ARC
  8
0
  6
BYLAYER
 62
     7
 10
867.552356
 20
-34.022153
 30
0.0
 40
3.0
 50
182.000000
 51
270.000000
  0
LINE
  8
0
  6
BYLAYER
 62
     7
 10
849.061637
 20
-20.022153
 30
0.0
 11
849.554184
 21
-34.126851
 31
0.0
  0
ARC
  8
0
  6
BYLAYER
 62
     7
 10
852.552356
 20
-34.022153
 30
0.0
 40
3.0
 50
182.000000
 51
270.000000
  0
LINE
  8
0
  6
BYLAYER
 62
     7
 10
867.552356
 20
-37.022153
 30
0.0
 11
871.758224
 21
-37.022153
 31
0.0
  0
LINE
  8
0
  6
BYLAYER
 62
     7
 10
852.552356
 20
-37.022153
 30
0.0
 11
856.758224
 21
-37.022153
 31
0.0
  0
LINE
  8
0
  6
BYLAYER
 62
     7
 10
837.552356
 20
-37.022153
 30
0.0
 11
841.758224
 21
-37.022153
 31
0.0
  0
LINE
  8
0
  6
BYLAYER
 62
     7
 10
849.096558
 20
-21.022153
 30
0.0
 11
860.214022
 21
-21.022153
 31
0.0
  0
LINE
  8
0
  6
BYLAYER
 62
     7
 10
864.096558
 20
-21.022153
 30
0.0
 11
875.214022
 21
-21.022153
 31
0.0
  0
LINE
  8
0
  6
BYLAYER
 62
     7
 10
834.096558
 20
-21.022153
 30
0.0
 11
845.214022
 21
-21.022153
 31
0.0
  0
LINE
  8
0
  6
BYLAYER
 62
     7
 10
880.909628
 20
-21.522153
 30
0.0
 11
880.909628
 21
-43.022153
 31
0.0
  0
ARC
  8
0
  6
BYLAYER
 62
     7
 10
819.155290
 20
-46.011718
 30
0.0
 40
1.500000
 50
94.780192
 51
180.000000
  0
LINE
  8
0
  6
BYLAYER
 62
     7
 10
819.155290
 20
-44.522153
 30
0.0
 11
890.405290
 21
-44.522153
 31
0.0
  0
ARC
  8
0
  6
BYLAYER
 62
     7
 10
890.155290
 20
-46.011718
 30
0.0
 40
1.5
 50
0.0
 51
85.219808
  0
LINE
  8
0
  6
BYLAYER
 62
     7
 10
891.655290
 20
-53.522153
 30
0.0
 11
891.655290
 21
-46.011718
 31
0.0
  0
ARC
  8
0
  6
BYLAYER
 62
     7
 10
882.409628
 20
-43.022153
 30
0.0
 40
1.5
 50
180.000000
 51
270.000000
  0
LINE
  8
0
  6
BYLAYER
 62
     7
 10
891.655290
 20
-51.522092
 30
0.0
 11
817.655290
 21
-51.522092
 31
0.0
  0
LINE
  8
0
  6
BYLAYER
 62
     7
 10
817.655290
 20
-46.011718
 30
0.0
 11
817.655290
 21
-53.522153
 31
0.0
  0
LINE
  8
0
  6
BYLAYER
 62
     7
 10
817.655290
 20
-53.522153
 30
0.0
 11
891.655290
 21
-53.522153
 31
0.0
  0
LINE
  8
0
  6
BYLAYER
 62
     1
 10
798.655290
 20
-534.522184
 30
0.0
 11
818.655290
 21
-534.522184
 31
0.0
  0
LINE
  8
0
  6
BYLAYER
 62
     1
 10
794.655290
 20
-653.522184
 30
0.0
 11
794.655290
 21
-606.522184
 31
0.0
  0
LINE
  8
0
  6
BYLAYER
 62
     1
 10
794.655290
 20
-606.522184
 30
0.0
 11
795.155290
 21
-606.022184
 31
0.0
  0
LINE
  8
0
  6
BYLAYER
 62
     1
 10
794.655290
 20
-653.522184
 30
0.0
 11
794.655290
 21
-700.522184
 31
0.0
  0
LINE
  8
0
  6
BYLAYER
 62
     1
 10
794.655290
 20
-700.522184
 30
0.0
 11
795.155290
 21
-701.022184
 31
0.0
  0
LINE
  8
0
  6
BYLAYER
 62
     1
 10
798.655290
 20
-739.522184
 30
0.0
 11
818.655290
 21
-739.522184
 31
0.0
  0
LINE
  8
0
  6
BYLAYER
 62
     1
 10
798.655290
 20
-694.522184
 30
0.0
 11
798.655290
 21
-739.522184
 31
0.0
  0
LINE
  8
0
  6
BYLAYER
 62
     1
 10
818.655290
 20
-694.522184
 30
0.0
 11
798.655290
 21
-694.522184
 31
0.0
  0
LINE
  8
0
  6
BYLAYER
 62
     1
 10
800.155290
 20
-693.022184
 30
0.0
 11
798.655290
 21
-694.522184
 31
0.0
  0
CIRCLE
  8
0
  6
BYLAYER
 62
     1
 10
854.655290
 20
-578.522184
 30
0.0
 40
31.0
  0
LINE
  8
0
  6
BYLAYER
 62
     1
 10
910.655351
 20
-534.522184
 30
0.0
 11
890.655351
 21
-534.522184
 31
0.0
  0
LINE
  8
0
  6
BYLAYER
 62
     1
 10
910.655351
 20
-739.522184
 30
0.0
 11
890.655351
 21
-739.522184
 31
0.0
  0
LINE
  8
0
  6
BYLAYER
 62
     1
 10
890.655351
 20
-694.522184
 30
0.0
 11
910.655351
 21
-694.522184
 31
0.0
  0
LINE
  8
0
  6
BYLAYER
 62
     1
 10
909.155351
 20
-693.022184
 30
0.0
 11
910.655351
 21
-694.522184
 31
0.0
  0
LINE
  8
0
  6
BYLAYER
 62
     1
 10
910.655351
 20
-694.522184
 30
0.0
 11
910.655351
 21
-739.522184
 31
0.0
  0
LINE
  8
0
  6
BYLAYER
 62
     1
 10
797.655290
 20
-606.022184
 30
0.0
 11
795.155290
 21
-606.022184
 31
0.0
  0
LINE
  8
0
  6
BYLAYER
 62
     1
 10
797.655290
 20
-701.022184
 30
0.0
 11
795.155290
 21
-701.022184
 31
0.0
  0
LINE
  8
0
  6
BYLAYER
 62
     1
 10
817.655290
 20
-534.522184
 30
0.0
 11
818.655290
 21
-534.522184
 31
0.0
  0
CIRCLE
  8
0
  6
BYLAYER
 62
     1
 10
899.605241
 20
-560.522428
 30
0.0
 40
5.750000
  0
CIRCLE
  8
0
  6
BYLAYER
 62
     1
 10
809.705339
 20
-560.522428
 30
0.0
 40
5.75
  0
LINE
  8
0
  6
BYLAYER
 62
     1
 10
909.155351
 20
-581.022306
 30
0.0
 11
910.655351
 21
-579.522306
 31
0.0
  0
LINE
  8
0
  6
BYLAYER
 62
     1
 10
910.655351
 20
-579.522306
 30
0.0
 11
910.655351
 21
-534.522184
 31
0.0
  0
LINE
  8
0
  6
BYLAYER
 62
     1
 10
800.155290
 20
-581.022306
 30
0.0
 11
798.655290
 21
-579.522306
 31
0.0
  0
LINE
  8
0
  6
BYLAYER
 62
     1
 10
798.655290
 20
-579.522306
 30
0.0
 11
798.655290
 21
-534.522184
 31
0.0
  0
LINE
  8
0
  6
BYLAYER
 62
     1
 10
817.208635
 20
-579.522306
 30
0.0
 11
798.655290
 21
-579.522306
 31
0.0
  0
ARC
  8
0
  6
BYLAYER
 62
     1
 10
817.208635
 20
-580.522306
 30
0.0
 40
1.000000
 50
3.057907
 51
90.000000
  0
LINE
  8
0
  6
BYLAYER
 62
     1
 10
890.655351
 20
-534.522184
 30
0.0
 11
890.655351
 21
-565.059385
 31
0.0
  0
ARC
  8
0
  6
BYLAYER
 62
     1
 10
889.655351
 20
-565.059385
 30
0.0
 40
1.000014
 50
201.039023
 51
359.999996
  0
LINE
  8
0
  6
BYLAYER
 62
     1
 10
818.655290
 20
-565.059263
 30
0.0
 11
818.655290
 21
-534.522184
 31
0.0
  0
ARC
  8
0
  6
BYLAYER
 62
     1
 10
819.655290
 20
-565.059263
 30
0.0
 40
1.000014
 50
180.000000
 51
338.960973
  0
LINE
  8
0
  6
BYLAYER
 62
     1
 10
892.101945
 20
-579.522306
 30
0.0
 11
910.655351
 21
-579.522306
 31
0.0
  0
ARC
  8
0
  6
BYLAYER
 62
     1
 10
892.101945
 20
-580.522306
 30
0.0
 40
1.000020
 50
90.0
 51
176.942086
  0
LINE
  8
0
  6
BYLAYER
 62
     1
 10
890.655351
 20
-534.522184
 30
0.0
 11
890.655351
 21
-565.059385
 31
0.0
  0
LINE
  8
0
  6
BYLAYER
 62
     1
 10
818.655290
 20
-739.522184
 30
0.0
 11
818.655290
 21
-584.542997
 31
0.0
  0
CIRCLE
  8
0
  6
BYLAYER
 62
     1
 10
881.878923
 20
-551.298673
 30
0.0
 40
4.0
  0
CIRCLE
  8
0
  6
BYLAYER
 62
     1
 10
827.431779
 20
-551.298521
 30
0.0
 40
4.000000
  0
CIRCLE
  8
0
  6
BYLAYER
 62
     1
 10
827.431657
 20
-605.745695
 30
0.0
 40
4.0
  0
CIRCLE
  8
0
  6
BYLAYER
 62
     1
 10
881.878801
 20
-605.745847
 30
0.0
 40
4.0
  0
ARC
  8
0
  6
BYLAYER
 62
     1
 10
854.655290
 20
-578.522184
 30
0.0
 40
36.500004
 50
148.424355
 51
158.960509
  0
ARC
  8
0
  6
BYLAYER
 62
     1
 10
821.855211
 20
-558.362669
 30
0.0
 40
2.000013
 50
328.424810
 51
411.711570
  0
ARC
  8
0
  6
BYLAYER
 62
     1
 10
827.431779
 20
-551.298521
 30
0.0
 40
6.999995
 50
38.287800
 51
231.711845
  0
ARC
  8
0
  6
BYLAYER
 62
     1
 10
834.495958
 20
-545.722013
 30
0.0
 40
2.000008
 50
218.287737
 51
301.575200
  0
ARC
  8
0
  6
BYLAYER
 62
     1
 10
854.655290
 20
-578.522184
 30
0.0
 40
36.499985
 50
58.424666
 51
121.575332
  0
ARC
  8
0
  6
BYLAYER
 62
     1
 10
874.814622
 20
-545.722013
 30
0.0
 40
2.000013
 50
238.424801
 51
321.712264
  0
ARC
  8
0
  6
BYLAYER
 62
     1
 10
881.878801
 20
-551.298521
 30
0.0
 40
6.999995
 50
308.288160
 51
501.712205
  0
ARC
  8
0
  6
BYLAYER
 62
     1
 10
854.655290
 20
-578.522184
 30
0.0
 40
36.500004
 50
21.039496
 51
31.575650
  0
ARC
  8
0
  6
BYLAYER
 62
     1
 10
887.455339
 20
-558.362669
 30
0.0
 40
2.000008
 50
128.287741
 51
211.575655
  0
ARC
  8
0
  6
BYLAYER
 62
     1
 10
834.495958
 20
-611.322355
 30
0.0
 40
2.000008
 50
58.424803
 51
141.712259
  0
ARC
  8
0
  6
BYLAYER
 62
     1
 10
827.431779
 20
-605.745847
 30
0.0
 40
6.999995
 50
128.288151
 51
321.712210
  0
ARC
  8
0
  6
BYLAYER
 62
     1
 10
854.655290
 20
-578.522184
 30
0.0
 40
36.500004
 50
183.057403
 51
211.575655
  0
ARC
  8
0
  6
BYLAYER
 62
     1
 10
821.855241
 20
-598.681699
 30
0.0
 40
2.000008
 50
308.287746
 51
391.575660
  0
ARC
  8
0
  6
BYLAYER
 62
     1
 10
854.655290
 20
-578.522184
 30
0.0
 40
36.500004
 50
328.424346
 51
356.942599
  0
ARC
  8
0
  6
BYLAYER
 62
     1
 10
887.455339
 20
-598.681699
 30
0.0
 40
2.000008
 50
148.424341
 51
231.712255
  0
ARC
  8
0
  6
BYLAYER
 62
     1
 10
854.655290
 20
-578.522184
 30
0.0
 40
36.499985
 50
238.424665
 51
301.575337
  0
ARC
  8
0
  6
BYLAYER
 62
     1
 10
881.878801
 20
-605.745847
 30
0.0
 40
6.999995
 50
218.287805
 51
411.711850
  0
ARC
  8
0
  6
BYLAYER
 62
     1
 10
874.814622
 20
-611.322355
 30
0.0
 40
2.000013
 50
38.287746
 51
121.575195
  0
LINE
  8
0
  6
BYLAYER
 62
     1
 10
818.655290
 20
-536.022184
 30
0.0
 11
890.655351
 21
-536.022184
 31
0.0
  0
CIRCLE
  8
0
  6
BYLAYER
 62
     1
 10
809.705339
 20
-713.521940
 30
0.0
 40
5.75
  0
CIRCLE
  8
0
  6
BYLAYER
 62
     1
 10
899.605241
 20
-713.521940
 30
0.0
 40
5.750000
  0
LINE
  8
0
  6
BYLAYER
 62
     1
 10
800.155290
 20
-581.022306
 30
0.0
 11
800.155290
 21
-693.022184
 31
0.0
  0
LINE
  8
0
  6
BYLAYER
 62
     1
 10
909.155351
 20
-581.022306
 30
0.0
 11
909.155351
 21
-693.022184
 31
0.0
  0
LINE
  8
0
  6
BYLAYER
 62
     1
 10
890.655351
 20
-739.522184
 30
0.0
 11
890.655351
 21
-584.542692
 31
0.0
  0
LINE
  8
0
  6
BYLAYER
 62
     1
 10
818.655290
 20
-693.022184
 30
0.0
 11
800.155290
 21
-693.022184
 31
0.0
  0
LINE
  8
0
  6
BYLAYER
 62
     1
 10
818.241014
 20
-581.022306
 30
0.0
 11
800.155290
 21
-581.022306
 31
0.0
  0
LINE
  8
0
  6
BYLAYER
 62
     1
 10
891.069566
 20
-581.022306
 30
0.0
 11
909.155351
 21
-581.022306
 31
0.0
  0
LINE
  8
0
  6
BYLAYER
 62
     1
 10
890.655351
 20
-693.022184
 30
0.0
 11
909.155351
 21
-693.022184
 31
0.0
  0
LINE
  8
0
  6
BYLAYER
 62
     1
 10
797.655412
 20
-723.522123
 30
0.0
 11
798.655290
 21
-723.557035
 31
0.0
  0
LINE
  8
0
  6
BYLAYER
 62
     1
 10
797.655412
 20
-583.522184
 30
0.0
 11
800.155290
 21
-583.434873
 31
0.0
  0
LINE
  8
0
  6
BYLAYER
 62
     1
 10
797.655290
 20
-723.522184
 30
0.0
 11
797.655290
 21
-606.022184
 31
0.0
  0
LINE
  8
0
  6
BYLAYER
 62
     1
 10
797.655290
 20
-606.022184
 30
0.0
 11
797.655290
 21
-583.522184
 31
0.0
  0
LINE
  8
0
  6
BYLAYER
 62
     1
 10
914.655290
 20
-653.522184
 30
0.0
 11
914.655290
 21
-606.522184
 31
0.0
  0
LINE
  8
0
  6
BYLAYER
 62
     1
 10
914.655290
 20
-606.522184
 30
0.0
 11
914.155290
 21
-606.022184
 31
0.0
  0
LINE
  8
0
  6
BYLAYER
 62
     1
 10
914.655290
 20
-653.522184
 30
0.0
 11
914.655290
 21
-700.522184
 31
0.0
  0
LINE
  8
0
  6
BYLAYER
 62
     1
 10
914.655290
 20
-700.522184
 30
0.0
 11
914.155290
 21
-701.022184
 31
0.0
  0
LINE
  8
0
  6
BYLAYER
 62
     1
 10
911.655290
 20
-606.022184
 30
0.0
 11
914.155290
 21
-606.022184
 31
0.0
  0
LINE
  8
0
  6
BYLAYER
 62
     1
 10
911.655290
 20
-701.022184
 30
0.0
 11
914.155290
 21
-701.022184
 31
0.0
  0
LINE
  8
0
  6
BYLAYER
 62
     1
 10
911.655168
 20
-723.522123
 30
0.0
 11
910.655290
 21
-723.557035
 31
0.0
  0
LINE
  8
0
  6
BYLAYER
 62
     1
 10
911.655168
 20
-583.522184
 30
0.0
 11
909.155290
 21
-583.434873
 31
0.0
  0
LINE
  8
0
  6
BYLAYER
 62
     1
 10
911.655290
 20
-723.522184
 30
0.0
 11
911.655290
 21
-606.022184
 31
0.0
  0
LINE
  8
0
  6
BYLAYER
 62
     1
 10
911.655290
 20
-606.022184
 30
0.0
 11
911.655290
 21
-583.522184
 31
0.0
  0
LINE
  8
0
  6
BYLAYER
 62
     1
 10
890.655351
 20
-735.522123
 30
0.0
 11
818.655290
 21
-735.522123
 31
0.0
  0
ARC
  8
0
  6
BYLAYER
 62
     1
 10
854.655290
 20
-641.522184
 30
0.0
 40
100.0
 50
304.055840
 51
390.943029
  0
ARC
  8
0
  6
BYLAYER
 62
     1
 10
854.655290
 20
-641.522184
 30
0.0
 40
100.000000
 50
250.051454
 51
289.948546
  0
ARC
  8
0
  6
BYLAYER
 62
     1
 10
854.655290
 20
-641.522184
 30
0.0
 40
100.000000
 50
149.056971
 51
235.944202
  0
ARC
  8
0
  6
BYLAYER
 62
     1
 10
854.655290
 20
-578.522184
 30
0.0
 40
80.000000
 50
318.590378
 51
581.409622
  0
ARC
  8
0
  6
BYLAYER
 62
     1
 10
796.318980
 20
-699.858493
 30
0.0
 40
5.5
 50
107.607170
 51
284.061625
  0
ARC
  8
0
  6
BYLAYER
 62
     1
 10
912.991599
 20
-699.858494
 30
0.0
 40
5.500000
 50
255.938377
 51
432.392828
  0
LINE
  8
0
  6
BYLAYER
 62
     1
 10
794.655290
 20
-677.045996
 30
0.0
 11
761.624236
 21
-678.199465
 31
0.0
  0
LINE
  8
0
  6
BYLAYER
 62
     1
 10
794.655290
 20
-645.998372
 30
0.0
 11
754.702765
 21
-644.603200
 31
0.0
  0
LINE
  8
0
  6
BYLAYER
 62
     1
 10
933.909591
 20
-589.419699
 30
0.0
 11
939.600410
 21
-589.618427
 31
0.0
  0
ARC
  8
0
  6
BYLAYER
 62
     1
 10
939.565510
 20
-590.617818
 30
0.0
 40
1.000000
 50
30.943029
 51
88.000000
  0
LINE
  8
0
  6
BYLAYER
 62
     1
 10
775.400989
 20
-589.419699
 30
0.0
 11
769.710170
 21
-589.618427
 31
0.0
  0
ARC
  8
0
  6
BYLAYER
 62
     1
 10
769.745070
 20
-590.617818
 30
0.0
 40
1.000000
 50
92.000000
 51
149.056971
  0
LINE
  8
0
  6
BYLAYER
 62
     1
 10
358.155412
 20
-599.022186
 30
0.0
 11
359.655412
 21
-597.522186
 31
0.0
  0
LINE
  8
0
  6
BYLAYER
 62
     1
 10
359.655412
 20
-597.522186
 30
0.0
 11
404.655412
 21
-597.522186
 31
0.0
  0
LINE
  8
0
  6
BYLAYER
 62
     1
 10
359.655412
 20
-617.522186
 30
0.0
 11
359.655412
 21
-597.522186
 31
0.0
  0
LINE
  8
0
  6
BYLAYER
 62
     1
 10
359.655412
 20
-689.522186
 30
0.0
 11
359.655412
 21
-709.522186
 31
0.0
  0
LINE
  8
0
  6
BYLAYER
 62
     1
 10
358.155412
 20
-708.022186
 30
0.0
 11
359.655412
 21
-709.522186
 31
0.0
  0
LINE
  8
0
  6
BYLAYER
 62
     1
 10
358.155412
 20
-689.522186
 30
0.0
 11
358.155412
 21
-708.022186
 31
0.0
  0
LINE
  8
0
  6
BYLAYER
 62
     1
 10
277.655412
 20
-689.522186
 30
0.0
 11
277.655412
 21
-709.522186
 31
0.0
  0
LINE
  8
0
  6
BYLAYER
 62
     1
 10
279.155412
 20
-708.022186
 30
0.0
 11
277.655412
 21
-709.522186
 31
0.0
  0
LINE
  8
0
  6
BYLAYER
 62
     1
 10
277.655412
 20
-597.522186
 30
0.0
 11
232.655412
 21
-597.522186
 31
0.0
  0
LINE
  8
0
  6
BYLAYER
 62
     1
 10
277.655412
 20
-617.522186
 30
0.0
 11
277.655412
 21
-597.522186
 31
0.0
  0
LINE
  8
0
  6
BYLAYER
 62
     1
 10
279.155412
 20
-599.022186
 30
0.0
 11
277.655412
 21
-597.522186
 31
0.0
  0
LINE
  8
0
  6
BYLAYER
 62
     1
 10
279.155412
 20
-689.522186
 30
0.0
 11
279.155412
 21
-708.022186
 31
0.0
  0
LINE
  8
0
  6
BYLAYER
 62
     1
 10
359.655412
 20
-709.522186
 30
0.0
 11
404.655412
 21
-709.522186
 31
0.0
  0
LINE
  8
0
  6
BYLAYER
 62
     1
 10
277.655412
 20
-709.522186
 30
0.0
 11
232.655412
 21
-709.522186
 31
0.0
  0
LINE
  8
0
  6
BYLAYER
 62
     1
 10
232.655412
 20
-689.522186
 30
0.0
 11
404.655412
 21
-689.522186
 31
0.0
  0
LINE
  8
0
  6
BYLAYER
 62
     1
 10
232.655412
 20
-617.522186
 30
0.0
 11
404.655412
 21
-617.522186
 31
0.0
  0
LINE
  8
0
  6
BYLAYER
 62
     1
 10
404.655412
 20
-617.522186
 30
0.0
 11
404.655412
 21
-597.522186
 31
0.0
  0
LINE
  8
0
  6
BYLAYER
 62
     1
 10
404.655412
 20
-689.522186
 30
0.0
 11
404.655412
 21
-709.522186
 31
0.0
  0
CIRCLE
  8
0
  6
BYLAYER
 62
     1
 10
258.655412
 20
-608.522369
 30
0.0
 40
5.750000
  0
LINE
  8
0
  6
BYLAYER
 62
     1
 10
318.655290
 20
-593.522186
 30
0.0
 11
272.155290
 21
-593.522186
 31
0.0
  0
ARC
  8
0
  6
BYLAYER
 62
     1
 10
272.155290
 20
-594.522186
 30
0.0
 40
1.000000
 50
90.0
 51
180.000003
  0
LINE
  8
0
  6
BYLAYER
 62
     1
 10
318.655290
 20
-593.522186
 30
0.0
 11
365.155290
 21
-593.522186
 31
0.0
  0
ARC
  8
0
  6
BYLAYER
 62
     1
 10
365.155290
 20
-594.522186
 30
0.0
 40
1.0
 50
0.0
 51
90.000003
  0
LINE
  8
0
  6
BYLAYER
 62
     1
 10
279.155412
 20
-599.022186
 30
0.0
 11
358.155412
 21
-599.022186
 31
0.0
  0
LINE
  8
0
  6
BYLAYER
 62
     1
 10
279.155412
 20
-617.522186
 30
0.0
 11
279.155412
 21
-599.022186
 31
0.0
  0
LINE
  8
0
  6
BYLAYER
 62
     1
 10
358.155412
 20
-617.522186
 30
0.0
 11
358.155412
 21
-599.022186
 31
0.0
  0
CIRCLE
  8
0
  6
BYLAYER
 62
     1
 10
378.655412
 20
-608.522369
 30
0.0
 40
5.75
  0
LINE
  8
0
  6
BYLAYER
 62
     1
 10
234.155412
 20
-689.522186
 30
0.0
 11
234.155412
 21
-617.522186
 31
0.0
  0
LINE
  8
0
  6
BYLAYER
 62
     1
 10
232.655412
 20
-597.522186
 30
0.0
 11
232.655412
 21
-709.522186
 31
0.0
  0
LINE
  8
0
  6
BYLAYER
 62
     1
 10
358.155412
 20
-708.022186
 30
0.0
 11
279.155412
 21
-708.022186
 31
0.0
  0
CIRCLE
  8
0
  6
BYLAYER
 62
     1
 10
258.655412
 20
-698.522003
 30
0.0
 40
5.750000
  0
CIRCLE
  8
0
  6
BYLAYER
 62
     1
 10
378.655412
 20
-698.522003
 30
0.0
 40
5.75
  0
LINE
  8
0
  6
BYLAYER
 62
     1
 10
252.155412
 20
-617.522186
 30
0.0
 11
252.155412
 21
-689.522186
 31
0.0
  0
LINE
  8
0
  6
BYLAYER
 62
     1
 10
385.155412
 20
-617.522186
 30
0.0
 11
385.155412
 21
-689.522186
 31
0.0
  0
LINE
  8
0
  6
BYLAYER
 62
     1
 10
403.155412
 20
-617.522186
 30
0.0
 11
403.155412
 21
-689.522186
 31
0.0
  0
LINE
  8
0
  6
BYLAYER
 62
     1
 10
388.655290
 20
-596.522186
 30
0.0
 11
248.655290
 21
-596.522186
 31
0.0
  0
LINE
  8
0
  6
BYLAYER
 62
     1
 10
366.155290
 20
-596.522186
 30
0.0
 11
366.155290
 21
-594.522186
 31
0.0
  0
LINE
  8
0
  6
BYLAYER
 62
     1
 10
271.155290
 20
-596.522186
 30
0.0
 11
271.155290
 21
-594.522186
 31
0.0
  0
LINE
  8
0
  6
BYLAYER
 62
     1
 10
248.655351
 20
-596.522308
 30
0.0
 11
248.620431
 21
-597.522186
 31
0.0
  0
LINE
  8
0
  6
BYLAYER
 62
     1
 10
388.655351
 20
-596.522308
 30
0.0
 11
388.690263
 21
-597.522186
 31
0.0
  0
LINE
  8
0
  6
BYLAYER
 62
     1
 10
406.655290
 20
-702.522003
 30
0.0
 11
404.655290
 21
-702.591827
 31
0.0
  0
LINE
  8
0
  6
BYLAYER
 62
     1
 10
406.655290
 20
-604.522369
 30
0.0
 11
404.655290
 21
-604.452545
 31
0.0
  0
LINE
  8
0
  6
BYLAYER
 62
     1
 10
406.655412
 20
-604.522369
 30
0.0
 11
406.655412
 21
-702.521999
 31
0.0
  0
LINE
  8
0
  6
BYLAYER
 62
     1
 10
318.655290
 20
-713.522182
 30
0.0
 11
272.155290
 21
-713.522182
 31
0.0
  0
ARC
  8
0
  6
BYLAYER
 62
     1
 10
272.155290
 20
-712.522182
 30
0.0
 40
1.0
 50
180.000000
 51
270.000003
  0
LINE
  8
0
  6
BYLAYER
 62
     1
 10
318.655290
 20
-713.522182
 30
0.0
 11
365.155290
 21
-713.522182
 31
0.0
  0
ARC
  8
0
  6
BYLAYER
 62
     1
 10
365.155290
 20
-712.522182
 30
0.0
 40
1.000000
 50
270.0
 51
360.000003
  0
LINE
  8
0
  6
BYLAYER
 62
     1
 10
388.655290
 20
-710.522182
 30
0.0
 11
248.655290
 21
-710.522182
 31
0.0
  0
LINE
  8
0
  6
BYLAYER
 62
     1
 10
366.155290
 20
-710.522182
 30
0.0
 11
366.155290
 21
-712.522182
 31
0.0
  0
LINE
  8
0
  6
BYLAYER
 62
     1
 10
271.155290
 20
-710.522182
 30
0.0
 11
271.155290
 21
-712.522182
 31
0.0
  0
LINE
  8
0
  6
BYLAYER
 62
     1
 10
248.655351
 20
-710.522060
 30
0.0
 11
248.620431
 21
-709.522182
 31
0.0
  0
LINE
  8
0
  6
BYLAYER
 62
     1
 10
388.655351
 20
-710.522060
 30
0.0
 11
388.690263
 21
-709.522182
 31
0.0
  0
ARC
  8
0
  6
BYLAYER
 62
     1
 10
281.380786
 20
-633.522186
 30
0.0
 40
1.25
 50
270.0
 51
450.000005
  0
ARC
  8
0
  6
BYLAYER
 62
     1
 10
281.380786
 20
-623.522186
 30
0.0
 40
1.25
 50
270.0
 51
450.000005
  0
ARC
  8
0
  6
BYLAYER
 62
     1
 10
281.380786
 20
-673.522186
 30
0.0
 40
1.25
 50
270.0
 51
450.000005
  0
ARC
  8
0
  6
BYLAYER
 62
     1
 10
281.380786
 20
-683.522186
 30
0.0
 40
1.25
 50
270.0
 51
450.000005
  0
LINE
  8
0
  6
BYLAYER
 62
     1
 10
281.380786
 20
-622.272186
 30
0.0
 11
252.155412
 21
-622.272186
 31
0.0
  0
LINE
  8
0
  6
BYLAYER
 62
     1
 10
281.380786
 20
-632.272186
 30
0.0
 11
252.155412
 21
-632.272186
 31
0.0
  0
LINE
  8
0
  6
BYLAYER
 62
     1
 10
281.380786
 20
-634.772186
 30
0.0
 11
252.155412
 21
-634.772186
 31
0.0
  0
LINE
  8
0
  6
BYLAYER
 62
     1
 10
281.380786
 20
-682.272186
 30
0.0
 11
252.155412
 21
-682.272186
 31
0.0
  0
LINE
  8
0
  6
BYLAYER
 62
     1
 10
281.380786
 20
-684.772186
 30
0.0
 11
252.155412
 21
-684.772186
 31
0.0
  0
LINE
  8
0
  6
BYLAYER
 62
     1
 10
252.155412
 20
-672.272186
 30
0.0
 11
281.380786
 21
-672.272186
 31
0.0
  0
LINE
  8
0
  6
BYLAYER
 62
     1
 10
252.155412
 20
-674.772186
 30
0.0
 11
281.380786
 21
-674.772186
 31
0.0
  0
LINE
  8
0
  6
BYLAYER
 62
     1
 10
252.155412
 20
-624.772186
 30
0.0
 11
281.380786
 21
-624.772186
 31
0.0
  0
ARC
  8
0
  6
BYLAYER
 62
     1
 10
294.131084
 20
-643.522186
 30
0.0
 40
1.25
 50
270.0
 51
450.000005
  0
ARC
  8
0
  6
BYLAYER
 62
     1
 10
294.131084
 20
-663.522186
 30
0.0
 40
1.25
 50
270.0
 51
450.000005
  0
ARC
  8
0
  6
BYLAYER
 62
     1
 10
294.131084
 20
-653.522186
 30
0.0
 40
1.25
 50
270.0
 51
360.000009
  0
ARC
  8
0
  6
BYLAYER
 62
     1
 10
294.131084
 20
-653.522186
 30
0.0
 40
1.250000
 50
0.0
 51
89.999996
  0
LINE
  8
0
  6
BYLAYER
 62
     1
 10
252.155412
 20
-654.772186
 30
0.0
 11
294.131084
 21
-654.772186
 31
0.0
  0
LINE
  8
0
  6
BYLAYER
 62
     1
 10
252.155412
 20
-642.272186
 30
0.0
 11
294.131084
 21
-642.272186
 31
0.0
  0
LINE
  8
0
  6
BYLAYER
 62
     1
 10
252.155412
 20
-652.272186
 30
0.0
 11
294.131084
 21
-652.272186
 31
0.0
  0
LINE
  8
0
  6
BYLAYER
 62
     1
 10
252.155412
 20
-662.272062
 30
0.0
 11
294.131084
 21
-662.272232
 31
0.0
  0
LINE
  8
0
  6
BYLAYER
 62
     1
 10
252.155412
 20
-664.772062
 30
0.0
 11
294.131084
 21
-664.772232
 31
0.0
  0
LINE
  8
0
  6
BYLAYER
 62
     1
 10
252.155412
 20
-644.772186
 30
0.0
 11
294.131084
 21
-644.772186
 31
0.0
  0
LINE
  8
0
  6
BYLAYER
 62
     1
 10
348.055141
 20
-622.272186
 30
0.0
 11
385.155412
 21
-622.272186
 31
0.0
  0
ARC
  8
0
  6
BYLAYER
 62
     1
 10
348.055141
 20
-623.522186
 30
0.0
 40
1.25
 50
90.0
 51
270.000005
  0
LINE
  8
0
  6
BYLAYER
 62
     1
 10
348.055141
 20
-672.272186
 30
0.0
 11
385.155412
 21
-672.272186
 31
0.0
  0
LINE
  8
0
  6
BYLAYER
 62
     1
 10
348.055141
 20
-674.772186
 30
0.0
 11
385.155412
 21
-674.772186
 31
0.0
  0
ARC
  8
0
  6
BYLAYER
 62
     1
 10
348.055141
 20
-673.522186
 30
0.0
 40
1.25
 50
90.0
 51
270.000005
  0
LINE
  8
0
  6
BYLAYER
 62
     1
 10
348.055141
 20
-684.772186
 30
0.0
 11
385.155412
 21
-684.772186
 31
0.0
  0
ARC
  8
0
  6
BYLAYER
 62
     1
 10
348.055141
 20
-683.522186
 30
0.0
 40
1.25
 50
90.0
 51
270.000005
  0
LINE
  8
0
  6
BYLAYER
 62
     1
 10
385.155412
 20
-634.772186
 30
0.0
 11
348.055141
 21
-634.772186
 31
0.0
  0
LINE
  8
0
  6
BYLAYER
 62
     1
 10
348.055141
 20
-682.272186
 30
0.0
 11
385.155412
 21
-682.272186
 31
0.0
  0
LINE
  8
0
  6
BYLAYER
 62
     1
 10
385.155412
 20
-632.272186
 30
0.0
 11
348.055141
 21
-632.272186
 31
0.0
  0
LINE
  8
0
  6
BYLAYER
 62
     1
 10
348.055141
 20
-624.772186
 30
0.0
 11
385.155412
 21
-624.772186
 31
0.0
  0
ARC
  8
0
  6
BYLAYER
 62
     1
 10
348.055141
 20
-633.522186
 30
0.0
 40
1.25
 50
90.0
 51
270.000005
  0
LINE
  8
0
  6
BYLAYER
 62
     1
 10
443.155519
 20
-573.522184
 30
0.0
 11
443.155519
 21
-653.522184
 31
0.0
  0
ARC
  8
0
  6
BYLAYER
 62
     1
 10
451.155519
 20
-575.522184
 30
0.0
 40
2.000000
 50
0.0
 51
90.0
  0
ARC
  8
0
  6
BYLAYER
 62
     1
 10
455.155519
 20
-596.522184
 30
0.0
 40
2.000000
 50
180.000000
 51
270.000000
  0
LINE
  8
0
  6
BYLAYER
 62
     1
 10
443.155519
 20
-573.522184
 30
0.0
 11
451.155519
 21
-573.522184
 31
0.0
  0
LINE
  8
0
  6
BYLAYER
 62
     1
 10
455.155519
 20
-598.522184
 30
0.0
 11
486.655519
 21
-598.522184
 31
0.0
  0
LINE
  8
0
  6
BYLAYER
 62
     1
 10
491.655519
 20
-627.665041
 30
0.0
 11
491.655519
 21
-603.522184
 31
0.0
  0
ARC
  8
0
  6
BYLAYER
 62
     1
 10
493.655519
 20
-627.665041
 30
0.0
 40
2.000000
 50
180.000000
 51
270.000000
  0
ARC
  8
0
  6
BYLAYER
 62
     1
 10
486.655519
 20
-603.522184
 30
0.0
 40
5.000000
 50
0.0
 51
90.0
  0
LINE
  8
0
  6
BYLAYER
 62
     1
 10
453.155519
 20
-575.522184
 30
0.0
 11
453.155519
 21
-653.522184
 31
0.0
  0
LINE
  8
0
  6
BYLAYER
 62
     1
 10
485.667519
 20
-585.847688
 30
0.0
 11
455.295519
 21
-585.847688
 31
0.0
  0
ARC
  8
0
  6
BYLAYER
 62
     1
 10
455.295519
 20
-583.847688
 30
0.0
 40
2.000000
 50
180.000000
 51
270.000000
  0
ARC
  8
0
  6
BYLAYER
 62
     1
 10
485.667519
 20
-583.847688
 30
0.0
 40
2.000000
 50
270.0
 51
360.0
  0
ARC
  8
0
  6
BYLAYER
 62
     1
 10
490.155519
 20
-555.522184
 30
0.0
 40
2.000000
 50
90.0
 51
180.0
  0
LINE
  8
0
  6
BYLAYER
 62
     1
 10
500.155519
 20
-653.522184
 30
0.0
 11
500.155519
 21
-553.522184
 31
0.0
  0
LINE
  8
0
  6
BYLAYER
 62
     1
 10
500.155519
 20
-553.522184
 30
0.0
 11
490.155519
 21
-553.522184
 31
0.0
  0
LINE
  8
0
  6
BYLAYER
 62
     1
 10
488.155519
 20
-555.522184
 30
0.0
 11
488.155519
 21
-598.752488
 31
0.0
  0
LINE
  8
0
  6
BYLAYER
 62
     1
 10
443.155519
 20
-733.522184
 30
0.0
 11
443.155519
 21
-653.522184
 31
0.0
  0
ARC
  8
0
  6
BYLAYER
 62
     1
 10
451.155519
 20
-731.522184
 30
0.0
 40
2.000000
 50
270.0
 51
360.0
  0
ARC
  8
0
  6
BYLAYER
 62
     1
 10
455.155519
 20
-710.522184
 30
0.0
 40
2.000000
 50
90.0
 51
180.0
  0
LINE
  8
0
  6
BYLAYER
 62
     1
 10
443.155519
 20
-733.522184
 30
0.0
 11
451.155519
 21
-733.522184
 31
0.0
  0
LINE
  8
0
  6
BYLAYER
 62
     1
 10
455.155519
 20
-708.522184
 30
0.0
 11
486.655519
 21
-708.522184
 31
0.0
  0
LINE
  8
0
  6
BYLAYER
 62
     1
 10
491.655519
 20
-679.379327
 30
0.0
 11
491.655519
 21
-703.522184
 31
0.0
  0
ARC
  8
0
  6
BYLAYER
 62
     1
 10
493.655519
 20
-679.379327
 30
0.0
 40
2.0
 50
90.0
 51
180.0
  0
ARC
  8
0
  6
BYLAYER
 62
     1
 10
486.655519
 20
-703.522184
 30
0.0
 40
5.000000
 50
270.0
 51
360.0
  0
LINE
  8
0
  6
BYLAYER
 62
     1
 10
453.155519
 20
-731.522184
 30
0.0
 11
453.155519
 21
-653.522184
 31
0.0
  0
LINE
  8
0
  6
BYLAYER
 62
     1
 10
485.667519
 20
-721.196680
 30
0.0
 11
455.295519
 21
-721.196680
 31
0.0
  0
ARC
  8
0
  6
BYLAYER
 62
     1
 10
455.295519
 20
-723.196680
 30
0.0
 40
2.000000
 50
90.0
 51
180.0
  0
ARC
  8
0
  6
BYLAYER
 62
     1
 10
485.667519
 20
-723.196680
 30
0.0
 40
2.000000
 50
0.0
 51
90.0
  0
ARC
  8
0
  6
BYLAYER
 62
     1
 10
490.155519
 20
-751.522184
 30
0.0
 40
2.000000
 50
180.000000
 51
270.000000
  0
LINE
  8
0
  6
BYLAYER
 62
     1
 10
500.155519
 20
-653.522184
 30
0.0
 11
500.155519
 21
-753.522184
 31
0.0
  0
LINE
  8
0
  6
BYLAYER
 62
     1
 10
500.155519
 20
-753.522184
 30
0.0
 11
490.155519
 21
-753.522184
 31
0.0
  0
LINE
  8
0
  6
BYLAYER
 62
     1
 10
488.155519
 20
-751.522184
 30
0.0
 11
488.155519
 21
-708.291880
 31
0.0
  0
LINE
  8
0
  6
BYLAYER
 62
     1
 10
431.155519
 20
-653.522184
 30
0.0
 11
431.155519
 21
-733.102632
 31
0.0
  0
LINE
  8
0
  6
BYLAYER
 62
     1
 10
443.155519
 20
-653.522184
 30
0.0
 11
443.155519
 21
-573.522169
 31
0.0
  0
LINE
  8
0
  6
BYLAYER
 62
     1
 10
431.155519
 20
-573.941219
 30
0.0
 11
431.155519
 21
-653.522184
 31
0.0
  0
LINE
  8
0
  6
BYLAYER
 62
     1
 10
443.155519
 20
-733.522169
 30
0.0
 11
443.155519
 21
-653.522184
 31
0.0
  0
LINE
  8
0
  6
BYLAYER
 62
     1
 10
443.155519
 20
-573.522169
 30
0.0
 11
431.155519
 21
-573.941219
 31
0.0
  0
LINE
  8
0
  6
BYLAYER
 62
     1
 10
431.155519
 20
-733.102632
 30
0.0
 11
443.155519
 21
-733.521681
 31
0.0
  0
LINE
  8
0
  6
BYLAYER
 62
     1
 10
421.175997
 20
-588.570280
 30
0.0
 11
414.897707
 21
-600.871976
 31
0.0
  0
LINE
  8
0
  6
BYLAYER
 62
     1
 10
421.175997
 20
-653.522184
 30
0.0
 11
421.175997
 21
-575.943082
 31
0.0
  0
LINE
  8
0
  6
BYLAYER
 62
     1
 10
431.155519
 20
-573.522198
 30
0.0
 11
431.155519
 21
-653.522184
 31
0.0
  0
LINE
  8
0
  6
BYLAYER
 62
     1
 10
423.071321
 20
-573.945890
 30
0.0
 11
431.155519
 21
-573.522198
 31
0.0
  0
ARC
  8
0
  6
BYLAYER
 62
     1
 10
420.175997
 20
-596.394590
 30
0.0
 40
0.999972
 50
302.000007
 51
360.000000
  0
LINE
  8
0
  6
BYLAYER
 62
     1
 10
406.655489
 20
-606.022306
 30
0.0
 11
420.705904
 21
-597.242612
 31
0.0
  0
LINE
  8
0
  6
BYLAYER
 62
     1
 10
406.655519
 20
-606.022306
 30
0.0
 11
406.655412
 21
-653.522184
 31
0.0
  0
ARC
  8
0
  6
BYLAYER
 62
     1
 10
423.175997
 20
-575.943082
 30
0.0
 40
1.999969
 50
93.000028
 51
180.0
  0
LINE
  8
0
  6
BYLAYER
 62
     1
 10
421.175997
 20
-718.474088
 30
0.0
 11
414.897707
 21
-706.172392
 31
0.0
  0
LINE
  8
0
  6
BYLAYER
 62
     1
 10
421.175997
 20
-653.522184
 30
0.0
 11
421.175997
 21
-731.101286
 31
0.0
  0
LINE
  8
0
  6
BYLAYER
 62
     1
 10
431.155519
 20
-733.522170
 30
0.0
 11
431.155519
 21
-653.522184
 31
0.0
  0
LINE
  8
0
  6
BYLAYER
 62
     1
 10
423.071321
 20
-733.098478
 30
0.0
 11
431.155519
 21
-733.522170
 31
0.0
  0
ARC
  8
0
  6
BYLAYER
 62
     1
 10
420.175997
 20
-710.649778
 30
0.0
 40
0.999972
 50
0.0
 51
57.999993
  0
LINE
  8
0
  6
BYLAYER
 62
     1
 10
406.655489
 20
-701.022062
 30
0.0
 11
420.705904
 21
-709.801756
 31
0.0
  0
LINE
  8
0
  6
BYLAYER
 62
     1
 10
406.655519
 20
-701.022062
 30
0.0
 11
406.655412
 21
-653.522184
 31
0.0
  0
ARC
  8
0
  6
BYLAYER
 62
     1
 10
423.175997
 20
-731.101286
 30
0.0
 40
1.999969
 50
180.000000
 51
266.999972
  0
ENDSEC
  0
EOF
