  0
SECTION
  2
HEADER
  9
$EXTMIN
 10
193.993174
 20
812.0
 30
0.0
  9
$EXTMAX
 10
1080.819113
 20
0.0
 30
0.0
  0
ENDSEC
  0
SECTION
  2
TABLES
  0
ENDSEC
  0
SECTION
  2
BLOCKS
  0
ENDSEC
  0
SECTION
  2
ENTITIES
  0
LINE
  8
0
  6
BYLAYER
 62
     7
 10
520.603742
 20
-44.080144
 30
0.0
 11
514.803693
 21
-44.080144
 31
0.0
  0
ARC
  8
0
  6
BYLAYER
 62
     7
 10
520.603742
 20
-45.580144
 30
0.0
 40
1.5
 50
0.0
 51
90.000003
  0
ARC
  8
0
  6
BYLAYER
 62
     7
 10
550.003751
 20
-45.580144
 30
0.0
 40
1.500000
 50
90.0
 51
180.000003
  0
LINE
  8
0
  6
BYLAYER
 62
     7
 10
559.603742
 20
-44.080144
 30
0.0
 11
550.003751
 21
-44.080144
 31
0.0
  0
ARC
  8
0
  6
BYLAYER
 62
     7
 10
559.603742
 20
-45.580144
 30
0.0
 40
1.5
 50
0.0
 51
90.000003
  0
LINE
  8
0
  6
BYLAYER
 62
     7
 10
594.803754
 20
-44.080083
 30
0.0
 11
589.003766
 21
-44.080083
 31
0.0
  0
ARC
  8
0
  6
BYLAYER
 62
     7
 10
589.003766
 20
-45.580083
 30
0.0
 40
1.500000
 50
90.0
 51
180.000003
  0
ARC
  8
0
  6
BYLAYER
 62
     7
 10
535.303754
 20
-53.080083
 30
0.0
 40
13.200012
 50
180.000000
 51
359.999995
  0
ARC
  8
0
  6
BYLAYER
 62
     7
 10
574.303754
 20
-53.080083
 30
0.0
 40
13.200012
 50
180.000000
 51
359.999995
  0
LINE
  8
0
  6
BYLAYER
 62
     7
 10
514.803693
 20
-49.580144
 30
0.0
 11
520.603742
 21
-49.580144
 31
0.0
  0
LINE
  8
0
  6
BYLAYER
 62
     7
 10
522.103742
 20
-45.580144
 30
0.0
 11
522.103742
 21
-51.080144
 31
0.0
  0
LINE
  8
0
  6
BYLAYER
 62
     7
 10
522.103742
 20
-51.080144
 30
0.0
 11
522.103742
 21
-53.080083
 31
0.0
  0
ARC
  8
0
  6
BYLAYER
 62
     7
 10
520.603742
 20
-51.080144
 30
0.0
 40
1.5
 50
0.0
 51
90.000003
  0
ARC
  8
0
  6
BYLAYER
 62
     7
 10
550.003751
 20
-51.080083
 30
0.0
 40
1.500000
 50
90.0
 51
180.000003
  0
LINE
  8
0
  6
BYLAYER
 62
     7
 10
550.003751
 20
-49.580083
 30
0.0
 11
559.603742
 21
-49.580083
 31
0.0
  0
LINE
  8
0
  6
BYLAYER
 62
     7
 10
561.103742
 20
-45.580144
 30
0.0
 11
561.103742
 21
-51.080083
 31
0.0
  0
LINE
  8
0
  6
BYLAYER
 62
     7
 10
561.103742
 20
-51.080083
 30
0.0
 11
561.103742
 21
-53.080083
 31
0.0
  0
ARC
  8
0
  6
BYLAYER
 62
     7
 10
559.603742
 20
-51.080083
 30
0.0
 40
1.5
 50
0.0
 51
90.000003
  0
LINE
  8
0
  6
BYLAYER
 62
     7
 10
587.503766
 20
-53.080083
 30
0.0
 11
587.503766
 21
-51.080083
 31
0.0
  0
LINE
  8
0
  6
BYLAYER
 62
     7
 10
587.503766
 20
-51.080083
 30
0.0
 11
587.503766
 21
-45.580083
 31
0.0
  0
LINE
  8
0
  6
BYLAYER
 62
     7
 10
589.003766
 20
-49.580083
 30
0.0
 11
594.803754
 21
-49.580083
 31
0.0
  0
ARC
  8
0
  6
BYLAYER
 62
     7
 10
589.003766
 20
-51.080083
 30
0.0
 40
1.500000
 50
90.0
 51
180.000003
  0
LINE
  8
0
  6
BYLAYER
 62
     7
 10
548.503751
 20
-45.580144
 30
0.0
 11
548.503751
 21
-53.080083
 31
0.0
  0
LINE
  8
0
  6
BYLAYER
 62
     7
 10
512.803693
 20
-59.330205
 30
0.0
 11
514.803723
 21
-59.330205
 31
0.0
  0
LINE
  8
0
  6
BYLAYER
 62
     7
 10
615.303815
 20
-57.327916
 30
0.0
 11
594.803754
 21
-57.327916
 31
0.0
  0
LINE
  8
0
  6
BYLAYER
 62
     7
 10
594.803754
 20
-39.580083
 30
0.0
 11
594.803754
 21
-73.348118
 31
0.0
  0
LINE
  8
0
  6
BYLAYER
 62
     7
 10
615.303815
 20
-52.869816
 30
0.0
 11
594.803754
 21
-52.869816
 31
0.0
  0
LINE
  8
0
  6
BYLAYER
 62
     7
 10
594.803754
 20
-48.746373
 30
0.0
 11
615.303815
 21
-48.746373
 31
0.0
  0
LINE
  8
0
  6
BYLAYER
 62
     7
 10
594.803754
 20
-50.092076
 30
0.0
 11
615.303815
 21
-50.092076
 31
0.0
  0
ARC
  8
0
  6
BYLAYER
 62
     7
 10
515.653745
 20
-111.230229
 30
0.0
 40
0.850006
 50
90.0
 51
269.999998
  0
ARC
  8
0
  6
BYLAYER
 62
     7
 10
519.653669
 20
-111.230229
 30
0.0
 40
0.850006
 50
90.0
 51
269.999998
  0
LINE
  8
0
  6
BYLAYER
 62
     7
 10
515.653730
 20
-110.380223
 30
0.0
 11
615.303815
 21
-110.380305
 31
0.0
  0
LINE
  8
0
  6
BYLAYER
 62
     7
 10
515.653730
 20
-112.080205
 30
0.0
 11
615.303815
 21
-112.080287
 31
0.0
  0
ARC
  8
0
  6
BYLAYER
 62
     7
 10
515.653745
 20
-100.530217
 30
0.0
 40
0.850006
 50
90.0
 51
269.999998
  0
ARC
  8
0
  6
BYLAYER
 62
     7
 10
519.653669
 20
-100.530217
 30
0.0
 40
0.850006
 50
90.0
 51
269.999998
  0
ARC
  8
0
  6
BYLAYER
 62
     7
 10
515.653745
 20
-89.830235
 30
0.0
 40
0.850006
 50
90.0
 51
269.999998
  0
ARC
  8
0
  6
BYLAYER
 62
     7
 10
519.653669
 20
-89.830235
 30
0.0
 40
0.850006
 50
90.0
 51
269.999998
  0
LINE
  8
0
  6
BYLAYER
 62
     7
 10
515.653730
 20
-88.980229
 30
0.0
 11
615.303815
 21
-88.980312
 31
0.0
  0
LINE
  8
0
  6
BYLAYER
 62
     7
 10
515.653730
 20
-90.680211
 30
0.0
 11
615.303815
 21
-90.680293
 31
0.0
  0
ARC
  8
0
  6
BYLAYER
 62
     7
 10
515.653745
 20
-79.130223
 30
0.0
 40
0.850006
 50
90.0
 51
269.999998
  0
ARC
  8
0
  6
BYLAYER
 62
     7
 10
519.653669
 20
-79.130223
 30
0.0
 40
0.850006
 50
90.0
 51
269.999998
  0
LINE
  8
0
  6
BYLAYER
 62
     7
 10
515.653730
 20
-78.280217
 30
0.0
 11
615.303815
 21
-78.280299
 31
0.0
  0
LINE
  8
0
  6
BYLAYER
 62
     7
 10
515.653730
 20
-79.980198
 30
0.0
 11
615.303815
 21
-79.980281
 31
0.0
  0
LINE
  8
0
  6
BYLAYER
 62
     7
 10
522.803693
 20
-101.380192
 30
0.0
 11
522.803693
 21
-110.380223
 31
0.0
  0
LINE
  8
0
  6
BYLAYER
 62
     7
 10
522.803693
 20
-90.680180
 30
0.0
 11
522.803693
 21
-99.680211
 31
0.0
  0
LINE
  8
0
  6
BYLAYER
 62
     7
 10
522.803693
 20
-79.980198
 30
0.0
 11
522.803693
 21
-88.980229
 31
0.0
  0
LINE
  8
0
  6
BYLAYER
 62
     7
 10
522.803693
 20
-73.348118
 30
0.0
 11
522.803693
 21
-78.280217
 31
0.0
  0
LINE
  8
0
  6
BYLAYER
 62
     7
 10
514.803723
 20
-69.038182
 30
0.0
 11
522.803693
 21
-73.348118
 31
0.0
  0
LINE
  8
0
  6
BYLAYER
 62
     7
 10
615.303815
 20
-73.348118
 30
0.0
 11
522.803693
 21
-73.348118
 31
0.0
  0
ARC
  8
0
  6
BYLAYER
 62
     7
 10
515.653745
 20
-121.930180
 30
0.0
 40
0.850006
 50
90.0
 51
269.999998
  0
ARC
  8
0
  6
BYLAYER
 62
     7
 10
519.653669
 20
-121.930180
 30
0.0
 40
0.850006
 50
90.0
 51
269.999998
  0
LINE
  8
0
  6
BYLAYER
 62
     7
 10
515.653730
 20
-122.780186
 30
0.0
 11
615.303815
 21
-122.780104
 31
0.0
  0
LINE
  8
0
  6
BYLAYER
 62
     7
 10
515.653730
 20
-121.080205
 30
0.0
 11
615.303815
 21
-121.080122
 31
0.0
  0
ARC
  8
0
  6
BYLAYER
 62
     7
 10
515.653745
 20
-132.630192
 30
0.0
 40
0.850006
 50
90.0
 51
269.999998
  0
ARC
  8
0
  6
BYLAYER
 62
     7
 10
519.653669
 20
-132.630192
 30
0.0
 40
0.850006
 50
90.0
 51
269.999998
  0
ARC
  8
0
  6
BYLAYER
 62
     7
 10
515.653745
 20
-143.330174
 30
0.0
 40
0.850006
 50
90.0
 51
269.999998
  0
ARC
  8
0
  6
BYLAYER
 62
     7
 10
519.653669
 20
-143.330174
 30
0.0
 40
0.850006
 50
90.0
 51
269.999998
  0
LINE
  8
0
  6
BYLAYER
 62
     7
 10
515.653730
 20
-144.180180
 30
0.0
 11
615.303815
 21
-144.180098
 31
0.0
  0
LINE
  8
0
  6
BYLAYER
 62
     7
 10
515.653730
 20
-142.480198
 30
0.0
 11
615.303815
 21
-142.480116
 31
0.0
  0
ARC
  8
0
  6
BYLAYER
 62
     7
 10
515.653745
 20
-154.030186
 30
0.0
 40
0.850006
 50
90.0
 51
269.999998
  0
ARC
  8
0
  6
BYLAYER
 62
     7
 10
519.653669
 20
-154.030186
 30
0.0
 40
0.850006
 50
90.0
 51
269.999998
  0
LINE
  8
0
  6
BYLAYER
 62
     7
 10
515.653730
 20
-154.880192
 30
0.0
 11
615.303815
 21
-154.880110
 31
0.0
  0
LINE
  8
0
  6
BYLAYER
 62
     7
 10
515.653730
 20
-153.180211
 30
0.0
 11
615.303815
 21
-153.180128
 31
0.0
  0
LINE
  8
0
  6
BYLAYER
 62
     7
 10
522.803693
 20
-131.780217
 30
0.0
 11
522.803693
 21
-122.780186
 31
0.0
  0
LINE
  8
0
  6
BYLAYER
 62
     7
 10
522.803693
 20
-142.480229
 30
0.0
 11
522.803693
 21
-133.480198
 31
0.0
  0
LINE
  8
0
  6
BYLAYER
 62
     7
 10
522.803693
 20
-153.180211
 30
0.0
 11
522.803693
 21
-144.180180
 31
0.0
  0
LINE
  8
0
  6
BYLAYER
 62
     7
 10
514.803815
 20
-173.830205
 30
0.0
 11
514.803693
 21
-39.580083
 31
0.0
  0
LINE
  8
0
  6
BYLAYER
 62
     7
 10
514.803815
 20
-173.830205
 30
0.0
 11
512.803815
 21
-173.830205
 31
0.0
  0
LINE
  8
0
  6
BYLAYER
 62
     7
 10
522.803693
 20
-112.080205
 30
0.0
 11
522.803693
 21
-121.080205
 31
0.0
  0
LINE
  8
0
  6
BYLAYER
 62
     7
 10
514.803800
 20
-155.306615
 30
0.0
 11
516.976545
 21
-163.415440
 31
0.0
  0
ARC
  8
0
  6
BYLAYER
 62
     7
 10
518.908399
 20
-162.897801
 30
0.0
 40
2.000003
 50
195.000016
 51
270.000001
  0
LINE
  8
0
  6
BYLAYER
 62
     7
 10
514.803800
 20
-158.744206
 30
0.0
 11
518.273969
 21
-171.695012
 31
0.0
  0
ARC
  8
0
  6
BYLAYER
 62
     7
 10
520.205808
 20
-171.177373
 30
0.0
 40
1.999988
 50
195.000043
 51
270.000001
  0
LINE
  8
0
  6
BYLAYER
 62
     7
 10
514.803815
 20
-166.538807
 30
0.0
 11
517.752668
 21
-177.544087
 31
0.0
  0
ARC
  8
0
  6
BYLAYER
 62
     7
 10
519.684522
 20
-177.026448
 30
0.0
 40
2.000003
 50
195.000043
 51
270.000001
  0
LINE
  8
0
  6
BYLAYER
 62
     7
 10
514.803815
 20
-171.178059
 30
0.0
 11
517.476545
 21
-181.152852
 31
0.0
  0
ARC
  8
0
  6
BYLAYER
 62
     7
 10
519.408399
 20
-180.635213
 30
0.0
 40
2.000003
 50
195.000043
 51
270.000001
  0
LINE
  8
0
  6
BYLAYER
 62
     7
 10
514.803815
 20
-173.830205
 30
0.0
 11
517.229871
 21
-182.884389
 31
0.0
  0
ARC
  8
0
  6
BYLAYER
 62
     7
 10
519.161725
 20
-182.366749
 30
0.0
 40
2.000003
 50
195.000016
 51
270.000001
  0
LINE
  8
0
  6
BYLAYER
 62
     7
 10
518.908399
 20
-164.897801
 30
0.0
 11
615.303815
 21
-164.897787
 31
0.0
  0
LINE
  8
0
  6
BYLAYER
 62
     7
 10
520.205808
 20
-173.177373
 30
0.0
 11
615.303815
 21
-173.177358
 31
0.0
  0
LINE
  8
0
  6
BYLAYER
 62
     7
 10
519.684522
 20
-179.026448
 30
0.0
 11
615.303815
 21
-179.026434
 31
0.0
  0
LINE
  8
0
  6
BYLAYER
 62
     7
 10
519.408399
 20
-182.635213
 30
0.0
 11
615.303815
 21
-182.635198
 31
0.0
  0
LINE
  8
0
  6
BYLAYER
 62
     7
 10
519.161725
 20
-184.366749
 30
0.0
 11
615.303815
 21
-184.366735
 31
0.0
  0
CIRCLE
  8
0
  6
BYLAYER
 62
     7
 10
543.303785
 20
-100.530217
 30
0.0
 40
3.0
  0
CIRCLE
  8
0
  6
BYLAYER
 62
     7
 10
598.303785
 20
-100.530217
 30
0.0
 40
3.0
  0
LINE
  8
0
  6
BYLAYER
 62
     7
 10
515.653730
 20
-99.680211
 30
0.0
 11
540.426709
 21
-99.680241
 31
0.0
  0
LINE
  8
0
  6
BYLAYER
 62
     7
 10
540.426709
 20
-101.380223
 30
0.0
 11
515.653730
 21
-101.380192
 31
0.0
  0
LINE
  8
0
  6
BYLAYER
 62
     7
 10
546.180860
 20
-99.680241
 30
0.0
 11
595.426709
 21
-99.680272
 31
0.0
  0
LINE
  8
0
  6
BYLAYER
 62
     7
 10
595.426740
 20
-101.380253
 30
0.0
 11
546.180844
 21
-101.380223
 31
0.0
  0
LINE
  8
0
  6
BYLAYER
 62
     7
 10
601.180860
 20
-99.680272
 30
0.0
 11
615.303815
 21
-99.680289
 31
0.0
  0
LINE
  8
0
  6
BYLAYER
 62
     7
 10
615.303815
 20
-101.380271
 30
0.0
 11
601.180829
 21
-101.380253
 31
0.0
  0
LINE
  8
0
  6
BYLAYER
 62
     7
 10
515.653730
 20
-131.780217
 30
0.0
 11
615.303815
 21
-131.780129
 31
0.0
  0
LINE
  8
0
  6
BYLAYER
 62
     7
 10
515.653730
 20
-133.480198
 30
0.0
 11
615.303815
 21
-133.480111
 31
0.0
  0
LINE
  8
0
  6
BYLAYER
 62
     7
 10
512.803693
 20
-59.330201
 30
0.0
 11
512.803815
 21
-173.830201
 31
0.0
  0
LINE
  8
0
  6
BYLAYER
 62
     7
 10
688.803815
 20
-61.580205
 30
0.0
 11
688.803815
 21
-171.580205
 31
0.0
  0
LINE
  8
0
  6
BYLAYER
 62
     7
 10
615.303815
 20
-47.130205
 30
0.0
 11
674.353815
 21
-47.130205
 31
0.0
  0
LINE
  8
0
  6
BYLAYER
 62
     7
 10
615.303815
 20
-186.030205
 30
0.0
 11
674.353815
 21
-186.030205
 31
0.0
  0
LINE
  8
0
  6
BYLAYER
 62
     7
 10
688.803815
 20
-61.580205
 30
0.0
 11
674.353815
 21
-47.130205
 31
0.0
  0
LINE
  8
0
  6
BYLAYER
 62
     7
 10
688.803815
 20
-171.580205
 30
0.0
 11
674.353815
 21
-186.030205
 31
0.0
  0
LINE
  8
0
  6
BYLAYER
 62
     7
 10
615.303815
 20
-116.580205
 30
0.0
 11
615.303815
 21
-186.030205
 31
0.0
  0
LINE
  8
0
  6
BYLAYER
 62
     7
 10
615.303815
 20
-116.580205
 30
0.0
 11
615.303815
 21
-47.130205
 31
0.0
  0
LINE
  8
0
  6
BYLAYER
 62
     7
 10
512.803754
 20
-58.571478
 30
0.0
 11
512.803754
 21
-174.588932
 31
0.0
  0
LINE
  8
0
  6
BYLAYER
 62
     7
 10
481.803754
 20
-36.580205
 30
0.0
 11
491.803754
 21
-36.580205
 31
0.0
  0
LINE
  8
0
  6
BYLAYER
 62
     7
 10
512.803754
 20
-58.571478
 30
0.0
 11
492.786298
 21
-58.222074
 31
0.0
  0
LINE
  8
0
  6
BYLAYER
 62
     7
 10
491.803754
 20
-36.580205
 30
0.0
 11
491.803754
 21
-116.580205
 31
0.0
  0
ARC
  8
0
  6
BYLAYER
 62
     7
 10
492.803754
 20
-57.222226
 30
0.0
 40
1.000000
 50
180.000000
 51
269.000015
  0
LINE
  8
0
  6
BYLAYER
 62
     7
 10
481.803754
 20
-196.580205
 30
0.0
 11
491.803754
 21
-196.580205
 31
0.0
  0
LINE
  8
0
  6
BYLAYER
 62
     7
 10
511.303754
 20
-183.580205
 30
0.0
 11
491.803754
 21
-183.920581
 31
0.0
  0
LINE
  8
0
  6
BYLAYER
 62
     7
 10
511.303754
 20
-183.580205
 30
0.0
 11
511.303754
 21
-174.580205
 31
0.0
  0
LINE
  8
0
  6
BYLAYER
 62
     7
 10
512.803754
 20
-174.588932
 30
0.0
 11
511.303754
 21
-174.615113
 31
0.0
  0
LINE
  8
0
  6
BYLAYER
 62
     7
 10
491.803754
 20
-196.580205
 30
0.0
 11
491.803754
 21
-116.580205
 31
0.0
  0
LINE
  8
0
  6
BYLAYER
 62
     7
 10
481.803754
 20
-196.580205
 30
0.0
 11
481.803754
 21
-116.580205
 31
0.0
  0
LINE
  8
0
  6
BYLAYER
 62
     7
 10
481.803754
 20
-36.580205
 30
0.0
 11
481.803754
 21
-116.580205
 31
0.0
  0
ARC
  8
0
  6
BYLAYER
 62
     7
 10
585.558031
 20
-29.080083
 30
0.0
 40
1.5
 50
180.000000
 51
270.000000
  0
ARC
  8
0
  6
BYLAYER
 62
     7
 10
524.049355
 20
-29.080083
 30
0.0
 40
1.5
 50
270.0
 51
360.0
  0
ARC
  8
0
  6
BYLAYER
 62
     7
 10
516.303693
 20
-29.080083
 30
0.0
 40
1.5
 50
270.0
 51
360.0
  0
ARC
  8
0
  6
BYLAYER
 62
     7
 10
516.303693
 20
-32.080083
 30
0.0
 40
1.5
 50
90.0
 51
180.0
  0
ARC
  8
0
  6
BYLAYER
 62
     7
 10
593.303693
 20
-29.080083
 30
0.0
 40
1.5
 50
180.000000
 51
270.000000
  0
LINE
  8
0
  6
BYLAYER
 62
     7
 10
517.803693
 20
-29.080083
 30
0.0
 11
517.803693
 21
-7.580083
 31
0.0
  0
ARC
  8
0
  6
BYLAYER
 62
     7
 10
519.303693
 20
-7.580083
 30
0.0
 40
1.5
 50
90.0
 51
180.0
  0
LINE
  8
0
  6
BYLAYER
 62
     7
 10
591.803693
 20
-29.080083
 30
0.0
 11
591.803693
 21
-7.580083
 31
0.0
  0
LINE
  8
0
  6
BYLAYER
 62
     7
 10
519.303693
 20
-6.080083
 30
0.0
 11
590.303693
 21
-6.080083
 31
0.0
  0
ARC
  8
0
  6
BYLAYER
 62
     7
 10
582.558031
 20
-7.580083
 30
0.0
 40
1.5
 50
0.0
 51
90.0
  0
ARC
  8
0
  6
BYLAYER
 62
     7
 10
590.303693
 20
-7.580083
 30
0.0
 40
1.5
 50
0.0
 51
90.0
  0
LINE
  8
0
  6
BYLAYER
 62
     7
 10
525.549355
 20
-29.080083
 30
0.0
 11
525.549355
 21
-7.580083
 31
0.0
  0
ARC
  8
0
  6
BYLAYER
 62
     7
 10
527.049355
 20
-7.580083
 30
0.0
 40
1.5
 50
90.0
 51
180.0
  0
LINE
  8
0
  6
BYLAYER
 62
     7
 10
584.058031
 20
-29.080083
 30
0.0
 11
584.058031
 21
-7.580083
 31
0.0
  0
ARC
  8
0
  6
BYLAYER
 62
     7
 10
593.303693
 20
-32.080083
 30
0.0
 40
1.5
 50
0.0
 51
90.0
  0
LINE
  8
0
  6
BYLAYER
 62
     7
 10
594.803693
 20
-39.580083
 30
0.0
 11
594.803693
 21
-32.080083
 31
0.0
  0
LINE
  8
0
  6
BYLAYER
 62
     7
 10
593.303693
 20
-30.580083
 30
0.0
 11
516.303693
 21
-30.580083
 31
0.0
  0
LINE
  8
0
  6
BYLAYER
 62
     7
 10
514.803693
 20
-32.080083
 30
0.0
 11
514.803693
 21
-39.580083
 31
0.0
  0
LINE
  8
0
  6
BYLAYER
 62
     7
 10
514.803693
 20
-39.580083
 30
0.0
 11
594.803693
 21
-39.580083
 31
0.0
  0
LINE
  8
0
  6
BYLAYER
 62
     7
 10
594.803693
 20
-37.580083
 30
0.0
 11
514.803693
 21
-37.580083
 31
0.0
  0
LINE
  8
0
  6
BYLAYER
 62
     7
 10
674.353815
 20
-186.030205
 30
0.0
 11
674.353815
 21
-47.130205
 31
0.0
  0
ARC
  8
0
  6
BYLAYER
 62
     7
 10
515.653745
 20
-744.030186
 30
0.0
 40
0.850006
 50
111.034603
 51
269.999998
  0
ARC
  8
0
  6
BYLAYER
 62
     7
 10
519.653669
 20
-744.030186
 30
0.0
 40
0.850006
 50
148.036043
 51
269.999998
  0
LINE
  8
0
  6
BYLAYER
 62
     7
 10
515.653730
 20
-744.880192
 30
0.0
 11
615.303815
 21
-744.880110
 31
0.0
  0
LINE
  8
0
  6
BYLAYER
 62
     7
 10
514.803815
 20
-763.830205
 30
0.0
 11
514.803763
 21
-706.580205
 31
0.0
  0
LINE
  8
0
  6
BYLAYER
 62
     7
 10
514.803815
 20
-763.830205
 30
0.0
 11
512.803815
 21
-763.830205
 31
0.0
  0
LINE
  8
0
  6
BYLAYER
 62
     7
 10
514.803800
 20
-745.306615
 30
0.0
 11
516.976545
 21
-753.415440
 31
0.0
  0
ARC
  8
0
  6
BYLAYER
 62
     7
 10
518.908399
 20
-752.897801
 30
0.0
 40
2.000003
 50
195.000016
 51
270.000001
  0
LINE
  8
0
  6
BYLAYER
 62
     7
 10
514.803800
 20
-748.744206
 30
0.0
 11
518.273969
 21
-761.695012
 31
0.0
  0
ARC
  8
0
  6
BYLAYER
 62
     7
 10
520.205808
 20
-761.177373
 30
0.0
 40
1.999988
 50
195.000043
 51
270.000001
  0
LINE
  8
0
  6
BYLAYER
 62
     7
 10
514.803815
 20
-756.538807
 30
0.0
 11
517.752668
 21
-767.544087
 31
0.0
  0
ARC
  8
0
  6
BYLAYER
 62
     7
 10
519.684522
 20
-767.026448
 30
0.0
 40
2.000003
 50
195.000043
 51
270.000001
  0
LINE
  8
0
  6
BYLAYER
 62
     7
 10
514.803815
 20
-761.178059
 30
0.0
 11
517.476545
 21
-771.152852
 31
0.0
  0
ARC
  8
0
  6
BYLAYER
 62
     7
 10
519.408399
 20
-770.635213
 30
0.0
 40
2.000003
 50
195.000043
 51
270.000001
  0
LINE
  8
0
  6
BYLAYER
 62
     7
 10
514.803815
 20
-763.830205
 30
0.0
 11
517.229871
 21
-772.884389
 31
0.0
  0
ARC
  8
0
  6
BYLAYER
 62
     7
 10
519.161725
 20
-772.366749
 30
0.0
 40
2.000003
 50
195.000016
 51
270.000001
  0
LINE
  8
0
  6
BYLAYER
 62
     7
 10
518.908399
 20
-754.897801
 30
0.0
 11
615.303815
 21
-754.897787
 31
0.0
  0
LINE
  8
0
  6
BYLAYER
 62
     7
 10
520.205808
 20
-763.177373
 30
0.0
 11
615.303815
 21
-763.177358
 31
0.0
  0
LINE
  8
0
  6
BYLAYER
 62
     7
 10
519.684522
 20
-769.026448
 30
0.0
 11
615.303815
 21
-769.026434
 31
0.0
  0
LINE
  8
0
  6
BYLAYER
 62
     7
 10
519.408399
 20
-772.635213
 30
0.0
 11
615.303815
 21
-772.635198
 31
0.0
  0
LINE
  8
0
  6
BYLAYER
 62
     7
 10
519.161725
 20
-774.366749
 30
0.0
 11
615.303815
 21
-774.366735
 31
0.0
  0
LINE
  8
0
  6
BYLAYER
 62
     7
 10
512.803754
 20
-706.580205
 30
0.0
 11
512.803815
 21
-763.830201
 31
0.0
  0
LINE
  8
0
  6
BYLAYER
 62
     7
 10
688.803815
 20
-706.580205
 30
0.0
 11
688.803815
 21
-761.580205
 31
0.0
  0
LINE
  8
0
  6
BYLAYER
 62
     7
 10
615.303815
 20
-776.030205
 30
0.0
 11
674.353815
 21
-776.030205
 31
0.0
  0
LINE
  8
0
  6
BYLAYER
 62
     7
 10
688.803815
 20
-761.580205
 30
0.0
 11
674.353815
 21
-776.030205
 31
0.0
  0
LINE
  8
0
  6
BYLAYER
 62
     7
 10
615.303815
 20
-706.580205
 30
0.0
 11
615.303815
 21
-776.030205
 31
0.0
  0
LINE
  8
0
  6
BYLAYER
 62
     7
 10
517.803763
 20
-731.096890
 30
0.0
 11
517.803763
 21
-706.580205
 31
0.0
  0
LINE
  8
0
  6
BYLAYER
 62
     7
 10
591.803763
 20
-706.580205
 30
0.0
 11
591.803763
 21
-731.096890
 31
0.0
  0
LINE
  8
0
  6
BYLAYER
 62
     7
 10
582.341357
 20
-740.830205
 30
0.0
 11
527.266169
 21
-740.830205
 31
0.0
  0
LINE
  8
0
  6
BYLAYER
 62
     7
 10
531.908461
 20
-711.681311
 30
0.0
 11
517.803763
 21
-712.173858
 31
0.0
  0
ARC
  8
0
  6
BYLAYER
 62
     7
 10
531.803763
 20
-708.683139
 30
0.0
 40
3.0
 50
272.000000
 51
360.000000
  0
LINE
  8
0
  6
BYLAYER
 62
     7
 10
531.908461
 20
-726.681311
 30
0.0
 11
517.803763
 21
-727.173858
 31
0.0
  0
ARC
  8
0
  6
BYLAYER
 62
     7
 10
531.803763
 20
-723.683139
 30
0.0
 40
3.000000
 50
272.000000
 51
360.000000
  0
LINE
  8
0
  6
BYLAYER
 62
     7
 10
517.803763
 20
-715.986552
 30
0.0
 11
531.908461
 21
-716.479099
 31
0.0
  0
ARC
  8
0
  6
BYLAYER
 62
     7
 10
531.803763
 20
-719.477271
 30
0.0
 40
3.000000
 50
0.0
 51
88.0
  0
LINE
  8
0
  6
BYLAYER
 62
     7
 10
534.803763
 20
-719.477271
 30
0.0
 11
534.803763
 21
-723.683139
 31
0.0
  0
LINE
  8
0
  6
BYLAYER
 62
     7
 10
534.803763
 20
-706.580205
 30
0.0
 11
534.803763
 21
-708.683139
 31
0.0
  0
LINE
  8
0
  6
BYLAYER
 62
     7
 10
518.803763
 20
-706.580205
 30
0.0
 11
518.803763
 21
-712.138937
 31
0.0
  0
LINE
  8
0
  6
BYLAYER
 62
     7
 10
518.803763
 20
-716.021473
 30
0.0
 11
518.803763
 21
-727.138937
 31
0.0
  0
LINE
  8
0
  6
BYLAYER
 62
     7
 10
577.699064
 20
-711.681311
 30
0.0
 11
591.803763
 21
-712.173858
 31
0.0
  0
ARC
  8
0
  6
BYLAYER
 62
     7
 10
577.803763
 20
-708.683139
 30
0.0
 40
3.0
 50
180.000000
 51
268.000000
  0
LINE
  8
0
  6
BYLAYER
 62
     7
 10
577.699064
 20
-726.681311
 30
0.0
 11
591.803763
 21
-727.173858
 31
0.0
  0
ARC
  8
0
  6
BYLAYER
 62
     7
 10
577.803763
 20
-723.683139
 30
0.0
 40
3.0
 50
180.000000
 51
268.000000
  0
LINE
  8
0
  6
BYLAYER
 62
     7
 10
591.803763
 20
-715.986552
 30
0.0
 11
577.699064
 21
-716.479099
 31
0.0
  0
ARC
  8
0
  6
BYLAYER
 62
     7
 10
577.803763
 20
-719.477271
 30
0.0
 40
3.0
 50
92.000000
 51
180.000000
  0
LINE
  8
0
  6
BYLAYER
 62
     7
 10
574.803763
 20
-719.477271
 30
0.0
 11
574.803763
 21
-723.683139
 31
0.0
  0
LINE
  8
0
  6
BYLAYER
 62
     7
 10
574.803763
 20
-706.580205
 30
0.0
 11
574.803763
 21
-708.683139
 31
0.0
  0
LINE
  8
0
  6
BYLAYER
 62
     7
 10
590.803763
 20
-706.580205
 30
0.0
 11
590.803763
 21
-712.138937
 31
0.0
  0
LINE
  8
0
  6
BYLAYER
 62
     7
 10
590.803763
 20
-716.021473
 30
0.0
 11
590.803763
 21
-727.138937
 31
0.0
  0
LINE
  8
0
  6
BYLAYER
 62
     7
 10
514.803763
 20
-706.580205
 30
0.0
 11
514.803763
 21
-742.080205
 31
0.0
  0
ARC
  8
0
  6
BYLAYER
 62
     7
 10
516.303763
 20
-742.080205
 30
0.0
 40
1.5
 50
180.000000
 51
270.000000
  0
LINE
  8
0
  6
BYLAYER
 62
     7
 10
594.803763
 20
-742.080205
 30
0.0
 11
594.803763
 21
-706.580205
 31
0.0
  0
LINE
  8
0
  6
BYLAYER
 62
     7
 10
516.303763
 20
-743.580205
 30
0.0
 11
593.303763
 21
-743.580205
 31
0.0
  0
ARC
  8
0
  6
BYLAYER
 62
     7
 10
593.303763
 20
-742.080205
 30
0.0
 40
1.5
 50
270.0
 51
360.0
  0
ARC
  8
0
  6
BYLAYER
 62
     7
 10
589.803763
 20
-738.580205
 30
0.0
 40
6.000000
 50
86.177446
 51
185.739170
  0
ARC
  8
0
  6
BYLAYER
 62
     7
 10
590.303763
 20
-731.096890
 30
0.0
 40
1.500000
 50
266.177446
 51
360.0
  0
ARC
  8
0
  6
BYLAYER
 62
     7
 10
582.341357
 20
-739.330205
 30
0.0
 40
1.5
 50
270.0
 51
365.739170
  0
ARC
  8
0
  6
BYLAYER
 62
     7
 10
519.803763
 20
-738.580205
 30
0.0
 40
6.000000
 50
354.260830
 51
453.822554
  0
ARC
  8
0
  6
BYLAYER
 62
     7
 10
527.266169
 20
-739.330205
 30
0.0
 40
1.500000
 50
174.260830
 51
270.000000
  0
ARC
  8
0
  6
BYLAYER
 62
     7
 10
519.303763
 20
-731.096890
 30
0.0
 40
1.500000
 50
180.000000
 51
273.822554
  0
ARC
  8
0
  6
BYLAYER
 62
     7
 10
541.803763
 20
-733.580205
 30
0.0
 40
3.0
 50
180.000000
 51
270.000000
  0
ARC
  8
0
  6
BYLAYER
 62
     7
 10
567.803763
 20
-733.580205
 30
0.0
 40
3.0
 50
270.0
 51
360.0
  0
LINE
  8
0
  6
BYLAYER
 62
     7
 10
541.803763
 20
-736.580205
 30
0.0
 11
567.803763
 21
-736.580205
 31
0.0
  0
LINE
  8
0
  6
BYLAYER
 62
     7
 10
538.803763
 20
-733.580205
 30
0.0
 11
538.803763
 21
-706.580205
 31
0.0
  0
LINE
  8
0
  6
BYLAYER
 62
     7
 10
570.803763
 20
-706.580205
 30
0.0
 11
570.803763
 21
-733.580205
 31
0.0
  0
LINE
  8
0
  6
BYLAYER
 62
     7
 10
615.303815
 20
-732.480116
 30
0.0
 11
594.803763
 21
-732.480133
 31
0.0
  0
LINE
  8
0
  6
BYLAYER
 62
     7
 10
615.303815
 20
-734.180098
 30
0.0
 11
594.803763
 21
-734.180115
 31
0.0
  0
LINE
  8
0
  6
BYLAYER
 62
     7
 10
615.303815
 20
-743.180119
 30
0.0
 11
594.323660
 21
-743.180119
 31
0.0
  0
ARC
  8
0
  6
BYLAYER
 62
     7
 10
515.653745
 20
-669.130224
 30
0.0
 40
0.850006
 50
90.0
 51
248.965395
  0
ARC
  8
0
  6
BYLAYER
 62
     7
 10
519.653669
 20
-669.130224
 30
0.0
 40
0.850006
 50
90.0
 51
211.963955
  0
LINE
  8
0
  6
BYLAYER
 62
     7
 10
515.653730
 20
-668.280218
 30
0.0
 11
615.303815
 21
-668.280300
 31
0.0
  0
LINE
  8
0
  6
BYLAYER
 62
     7
 10
514.803815
 20
-649.330205
 30
0.0
 11
514.803763
 21
-706.580205
 31
0.0
  0
LINE
  8
0
  6
BYLAYER
 62
     7
 10
514.803815
 20
-649.330205
 30
0.0
 11
512.803815
 21
-649.330205
 31
0.0
  0
LINE
  8
0
  6
BYLAYER
 62
     7
 10
514.803800
 20
-667.853795
 30
0.0
 11
516.976545
 21
-659.744970
 31
0.0
  0
ARC
  8
0
  6
BYLAYER
 62
     7
 10
518.908399
 20
-660.262609
 30
0.0
 40
2.000003
 50
90.0
 51
164.999985
  0
LINE
  8
0
  6
BYLAYER
 62
     7
 10
514.803800
 20
-664.416204
 30
0.0
 11
518.273969
 21
-651.465398
 31
0.0
  0
ARC
  8
0
  6
BYLAYER
 62
     7
 10
520.205808
 20
-651.983037
 30
0.0
 40
1.999988
 50
90.0
 51
164.999958
  0
LINE
  8
0
  6
BYLAYER
 62
     7
 10
514.803815
 20
-656.621603
 30
0.0
 11
517.752668
 21
-645.616323
 31
0.0
  0
ARC
  8
0
  6
BYLAYER
 62
     7
 10
519.684522
 20
-646.133962
 30
0.0
 40
2.000003
 50
90.0
 51
164.999958
  0
LINE
  8
0
  6
BYLAYER
 62
     7
 10
514.803815
 20
-651.982351
 30
0.0
 11
517.476545
 21
-642.007558
 31
0.0
  0
ARC
  8
0
  6
BYLAYER
 62
     7
 10
519.408399
 20
-642.525197
 30
0.0
 40
2.000003
 50
90.0
 51
164.999958
  0
LINE
  8
0
  6
BYLAYER
 62
     7
 10
514.803815
 20
-649.330205
 30
0.0
 11
517.229871
 21
-640.276021
 31
0.0
  0
ARC
  8
0
  6
BYLAYER
 62
     7
 10
519.161725
 20
-640.793661
 30
0.0
 40
2.000003
 50
90.0
 51
164.999985
  0
LINE
  8
0
  6
BYLAYER
 62
     7
 10
518.908399
 20
-658.262609
 30
0.0
 11
615.303815
 21
-658.262623
 31
0.0
  0
LINE
  8
0
  6
BYLAYER
 62
     7
 10
520.205808
 20
-649.983037
 30
0.0
 11
615.303815
 21
-649.983052
 31
0.0
  0
LINE
  8
0
  6
BYLAYER
 62
     7
 10
519.684522
 20
-644.133962
 30
0.0
 11
615.303815
 21
-644.133976
 31
0.0
  0
LINE
  8
0
  6
BYLAYER
 62
     7
 10
519.408399
 20
-640.525197
 30
0.0
 11
615.303815
 21
-640.525212
 31
0.0
  0
LINE
  8
0
  6
BYLAYER
 62
     7
 10
519.161725
 20
-638.793661
 30
0.0
 11
615.303815
 21
-638.793675
 31
0.0
  0
LINE
  8
0
  6
BYLAYER
 62
     7
 10
512.803754
 20
-706.580205
 30
0.0
 11
512.803815
 21
-649.330209
 31
0.0
  0
LINE
  8
0
  6
BYLAYER
 62
     7
 10
688.803815
 20
-706.580205
 30
0.0
 11
688.803815
 21
-651.580205
 31
0.0
  0
LINE
  8
0
  6
BYLAYER
 62
     7
 10
615.303815
 20
-637.130205
 30
0.0
 11
674.353815
 21
-637.130205
 31
0.0
  0
LINE
  8
0
  6
BYLAYER
 62
     7
 10
688.803815
 20
-651.580205
 30
0.0
 11
674.353815
 21
-637.130205
 31
0.0
  0
LINE
  8
0
  6
BYLAYER
 62
     7
 10
615.303815
 20
-706.580205
 30
0.0
 11
615.303815
 21
-637.130205
 31
0.0
  0
LINE
  8
0
  6
BYLAYER
 62
     7
 10
517.803763
 20
-682.063520
 30
0.0
 11
517.803763
 21
-706.580205
 31
0.0
  0
LINE
  8
0
  6
BYLAYER
 62
     7
 10
591.803763
 20
-706.580205
 30
0.0
 11
591.803763
 21
-682.063520
 31
0.0
  0
LINE
  8
0
  6
BYLAYER
 62
     7
 10
582.341357
 20
-672.330205
 30
0.0
 11
527.266169
 21
-672.330205
 31
0.0
  0
LINE
  8
0
  6
BYLAYER
 62
     7
 10
531.908461
 20
-701.479099
 30
0.0
 11
517.803763
 21
-700.986552
 31
0.0
  0
ARC
  8
0
  6
BYLAYER
 62
     7
 10
531.803763
 20
-704.477271
 30
0.0
 40
3.0
 50
0.0
 51
88.0
  0
LINE
  8
0
  6
BYLAYER
 62
     7
 10
531.908461
 20
-686.479099
 30
0.0
 11
517.803763
 21
-685.986552
 31
0.0
  0
ARC
  8
0
  6
BYLAYER
 62
     7
 10
531.803763
 20
-689.477271
 30
0.0
 40
3.0
 50
0.0
 51
88.0
  0
LINE
  8
0
  6
BYLAYER
 62
     7
 10
517.803763
 20
-697.173858
 30
0.0
 11
531.908461
 21
-696.681311
 31
0.0
  0
ARC
  8
0
  6
BYLAYER
 62
     7
 10
531.803763
 20
-693.683139
 30
0.0
 40
3.000000
 50
272.000000
 51
360.000000
  0
LINE
  8
0
  6
BYLAYER
 62
     7
 10
534.803763
 20
-693.683139
 30
0.0
 11
534.803763
 21
-689.477271
 31
0.0
  0
LINE
  8
0
  6
BYLAYER
 62
     7
 10
534.803763
 20
-706.580205
 30
0.0
 11
534.803763
 21
-704.477271
 31
0.0
  0
LINE
  8
0
  6
BYLAYER
 62
     7
 10
518.803763
 20
-706.580205
 30
0.0
 11
518.803763
 21
-701.021473
 31
0.0
  0
LINE
  8
0
  6
BYLAYER
 62
     7
 10
518.803763
 20
-697.138937
 30
0.0
 11
518.803763
 21
-686.021473
 31
0.0
  0
LINE
  8
0
  6
BYLAYER
 62
     7
 10
577.699064
 20
-701.479099
 30
0.0
 11
591.803763
 21
-700.986552
 31
0.0
  0
ARC
  8
0
  6
BYLAYER
 62
     7
 10
577.803763
 20
-704.477271
 30
0.0
 40
3.0
 50
92.000000
 51
180.000000
  0
LINE
  8
0
  6
BYLAYER
 62
     7
 10
577.699064
 20
-686.479099
 30
0.0
 11
591.803763
 21
-685.986552
 31
0.0
  0
ARC
  8
0
  6
BYLAYER
 62
     7
 10
577.803763
 20
-689.477271
 30
0.0
 40
3.0
 50
92.000000
 51
180.000000
  0
LINE
  8
0
  6
BYLAYER
 62
     7
 10
591.803763
 20
-697.173858
 30
0.0
 11
577.699064
 21
-696.681311
 31
0.0
  0
ARC
  8
0
  6
BYLAYER
 62
     7
 10
577.803763
 20
-693.683139
 30
0.0
 40
3.0
 50
180.000000
 51
268.000000
  0
LINE
  8
0
  6
BYLAYER
 62
     7
 10
574.803763
 20
-693.683139
 30
0.0
 11
574.803763
 21
-689.477271
 31
0.0
  0
LINE
  8
0
  6
BYLAYER
 62
     7
 10
574.803763
 20
-706.580205
 30
0.0
 11
574.803763
 21
-704.477271
 31
0.0
  0
LINE
  8
0
  6
BYLAYER
 62
     7
 10
590.803763
 20
-706.580205
 30
0.0
 11
590.803763
 21
-701.021473
 31
0.0
  0
LINE
  8
0
  6
BYLAYER
 62
     7
 10
590.803763
 20
-697.138937
 30
0.0
 11
590.803763
 21
-686.021473
 31
0.0
  0
LINE
  8
0
  6
BYLAYER
 62
     7
 10
514.803763
 20
-706.580205
 30
0.0
 11
514.803763
 21
-671.080205
 31
0.0
  0
ARC
  8
0
  6
BYLAYER
 62
     7
 10
516.303763
 20
-671.080205
 30
0.0
 40
1.5
 50
90.0
 51
180.0
  0
LINE
  8
0
  6
BYLAYER
 62
     7
 10
594.803763
 20
-671.080205
 30
0.0
 11
594.803763
 21
-706.580205
 31
0.0
  0
LINE
  8
0
  6
BYLAYER
 62
     7
 10
516.303763
 20
-669.580205
 30
0.0
 11
593.303763
 21
-669.580205
 31
0.0
  0
ARC
  8
0
  6
BYLAYER
 62
     7
 10
593.303763
 20
-671.080205
 30
0.0
 40
1.5
 50
0.0
 51
90.0
  0
ARC
  8
0
  6
BYLAYER
 62
     7
 10
589.803763
 20
-674.580205
 30
0.0
 40
6.0
 50
174.260830
 51
273.822554
  0
ARC
  8
0
  6
BYLAYER
 62
     7
 10
590.303763
 20
-682.063520
 30
0.0
 40
1.500000
 50
0.0
 51
93.822554
  0
ARC
  8
0
  6
BYLAYER
 62
     7
 10
582.341357
 20
-673.830205
 30
0.0
 40
1.500000
 50
354.260830
 51
450.000000
  0
ARC
  8
0
  6
BYLAYER
 62
     7
 10
519.803763
 20
-674.580205
 30
0.0
 40
6.0
 50
266.177446
 51
365.739170
  0
ARC
  8
0
  6
BYLAYER
 62
     7
 10
527.266169
 20
-673.830205
 30
0.0
 40
1.5
 50
90.0
 51
185.73917
  0
ARC
  8
0
  6
BYLAYER
 62
     7
 10
519.303763
 20
-682.063520
 30
0.0
 40
1.500000
 50
86.177446
 51
180.0
  0
ARC
  8
0
  6
BYLAYER
 62
     7
 10
541.803763
 20
-679.580205
 30
0.0
 40
3.0
 50
90.0
 51
180.0
  0
ARC
  8
0
  6
BYLAYER
 62
     7
 10
567.803763
 20
-679.580205
 30
0.0
 40
3.0
 50
0.0
 51
90.0
  0
LINE
  8
0
  6
BYLAYER
 62
     7
 10
541.803763
 20
-676.580205
 30
0.0
 11
567.803763
 21
-676.580205
 31
0.0
  0
LINE
  8
0
  6
BYLAYER
 62
     7
 10
538.803763
 20
-679.580205
 30
0.0
 11
538.803763
 21
-706.580205
 31
0.0
  0
LINE
  8
0
  6
BYLAYER
 62
     7
 10
570.803763
 20
-706.580205
 30
0.0
 11
570.803763
 21
-679.580205
 31
0.0
  0
LINE
  8
0
  6
BYLAYER
 62
     7
 10
615.303815
 20
-680.680294
 30
0.0
 11
594.803763
 21
-680.680277
 31
0.0
  0
LINE
  8
0
  6
BYLAYER
 62
     7
 10
615.303815
 20
-678.980312
 30
0.0
 11
594.803763
 21
-678.980295
 31
0.0
  0
LINE
  8
0
  6
BYLAYER
 62
     7
 10
615.303815
 20
-669.980291
 30
0.0
 11
594.323660
 21
-669.980291
 31
0.0
  0
LINE
  8
0
  6
BYLAYER
 62
     7
 10
512.803754
 20
-648.571478
 30
0.0
 11
512.803754
 21
-706.580205
 31
0.0
  0
LINE
  8
0
  6
BYLAYER
 62
     7
 10
481.803754
 20
-626.580205
 30
0.0
 11
491.803754
 21
-626.580205
 31
0.0
  0
LINE
  8
0
  6
BYLAYER
 62
     7
 10
512.803754
 20
-648.571478
 30
0.0
 11
492.786298
 21
-648.222074
 31
0.0
  0
LINE
  8
0
  6
BYLAYER
 62
     7
 10
491.803754
 20
-626.580205
 30
0.0
 11
491.803754
 21
-706.580205
 31
0.0
  0
ARC
  8
0
  6
BYLAYER
 62
     7
 10
492.803754
 20
-647.222226
 30
0.0
 40
1.000000
 50
180.000000
 51
269.000015
  0
LINE
  8
0
  6
BYLAYER
 62
     7
 10
481.803754
 20
-626.580205
 30
0.0
 11
481.803754
 21
-706.580205
 31
0.0
  0
LINE
  8
0
  6
BYLAYER
 62
     7
 10
512.803754
 20
-764.588932
 30
0.0
 11
512.803754
 21
-706.580205
 31
0.0
  0
LINE
  8
0
  6
BYLAYER
 62
     7
 10
481.803754
 20
-786.580205
 30
0.0
 11
491.803754
 21
-786.580205
 31
0.0
  0
LINE
  8
0
  6
BYLAYER
 62
     7
 10
512.803754
 20
-764.588932
 30
0.0
 11
492.786298
 21
-764.938336
 31
0.0
  0
LINE
  8
0
  6
BYLAYER
 62
     7
 10
491.803754
 20
-786.580205
 30
0.0
 11
491.803754
 21
-706.580205
 31
0.0
  0
ARC
  8
0
  6
BYLAYER
 62
     7
 10
492.803754
 20
-765.938184
 30
0.0
 40
1.0
 50
90.999990
 51
180.000005
  0
LINE
  8
0
  6
BYLAYER
 62
     7
 10
481.803754
 20
-786.580205
 30
0.0
 11
481.803754
 21
-706.580205
 31
0.0
  0
LINE
  8
0
  6
BYLAYER
 62
     7
 10
674.353815
 20
-637.130205
 30
0.0
 11
674.353815
 21
-776.030205
 31
0.0
  0
LINE
  8
0
  6
BYLAYER
 62
     1
 10
352.303693
 20
-21.580205
 30
0.0
 11
350.803693
 21
-23.080205
 31
0.0
  0
LINE
  8
0
  6
BYLAYER
 62
     1
 10
402.303693
 20
-23.080205
 30
0.0
 11
400.803693
 21
-21.580205
 31
0.0
  0
LINE
  8
0
  6
BYLAYER
 62
     1
 10
246.303754
 20
-21.580205
 30
0.0
 11
247.803754
 21
-23.080205
 31
0.0
  0
LINE
  8
0
  6
BYLAYER
 62
     1
 10
196.303754
 20
-23.080205
 30
0.0
 11
197.803754
 21
-21.580205
 31
0.0
  0
LINE
  8
0
  6
BYLAYER
 62
     1
 10
402.303693
 20
-209.580205
 30
0.0
 11
400.803693
 21
-208.080205
 31
0.0
  0
LINE
  8
0
  6
BYLAYER
 62
     1
 10
352.303693
 20
-259.580205
 30
0.0
 11
350.803693
 21
-258.080144
 31
0.0
  0
LINE
  8
0
  6
BYLAYER
 62
     1
 10
196.303754
 20
-209.580205
 30
0.0
 11
197.803754
 21
-208.080205
 31
0.0
  0
LINE
  8
0
  6
BYLAYER
 62
     1
 10
246.303754
 20
-259.580205
 30
0.0
 11
247.803754
 21
-258.080144
 31
0.0
  0
LINE
  8
0
  6
BYLAYER
 62
     1
 10
350.803693
 20
-258.080144
 30
0.0
 11
247.803754
 21
-258.080144
 31
0.0
  0
LINE
  8
0
  6
BYLAYER
 62
     1
 10
402.303693
 20
-258.080205
 30
0.0
 11
400.803693
 21
-259.580205
 31
0.0
  0
LINE
  8
0
  6
BYLAYER
 62
     1
 10
196.303754
 20
-258.080205
 30
0.0
 11
197.803754
 21
-259.580205
 31
0.0
  0
LINE
  8
0
  6
BYLAYER
 62
     1
 10
247.803754
 20
-23.080205
 30
0.0
 11
350.803693
 21
-23.080205
 31
0.0
  0
LINE
  8
0
  6
BYLAYER
 62
     1
 10
402.303693
 20
-71.580205
 30
0.0
 11
400.803693
 21
-73.080205
 31
0.0
  0
LINE
  8
0
  6
BYLAYER
 62
     1
 10
402.303693
 20
-71.580205
 30
0.0
 11
402.303693
 21
-23.080205
 31
0.0
  0
LINE
  8
0
  6
BYLAYER
 62
     1
 10
196.303754
 20
-71.580205
 30
0.0
 11
197.803754
 21
-73.080205
 31
0.0
  0
LINE
  8
0
  6
BYLAYER
 62
     1
 10
197.803754
 20
-208.080205
 30
0.0
 11
197.803754
 21
-73.080205
 31
0.0
  0
LINE
  8
0
  6
BYLAYER
 62
     1
 10
196.303754
 20
-102.580205
 30
0.0
 11
197.803754
 21
-102.632573
 31
0.0
  0
ARC
  8
0
  6
BYLAYER
 62
     1
 10
389.303693
 20
-34.580205
 30
0.0
 40
2.000000
 50
0.0
 51
90.000016
  0
LINE
  8
0
  6
BYLAYER
 62
     1
 10
209.303754
 20
-32.580205
 30
0.0
 11
389.303693
 21
-32.580205
 31
0.0
  0
ARC
  8
0
  6
BYLAYER
 62
     1
 10
209.303754
 20
-34.580205
 30
0.0
 40
2.000000
 50
90.0
 51
180.000009
  0
ARC
  8
0
  6
BYLAYER
 62
     1
 10
209.303754
 20
-246.580205
 30
0.0
 40
2.0
 50
180.000000
 51
269.999996
  0
ARC
  8
0
  6
BYLAYER
 62
     1
 10
389.303693
 20
-246.580266
 30
0.0
 40
2.000000
 50
270.0
 51
359.999982
  0
LINE
  8
0
  6
BYLAYER
 62
     1
 10
402.303693
 20
-209.580205
 30
0.0
 11
391.303693
 21
-209.580205
 31
0.0
  0
LINE
  8
0
  6
BYLAYER
 62
     1
 10
402.303693
 20
-71.580205
 30
0.0
 11
391.303693
 21
-71.580205
 31
0.0
  0
LINE
  8
0
  6
BYLAYER
 62
     1
 10
196.303754
 20
-71.580205
 30
0.0
 11
207.303754
 21
-71.580205
 31
0.0
  0
LINE
  8
0
  6
BYLAYER
 62
     1
 10
196.303754
 20
-209.580205
 30
0.0
 11
207.303754
 21
-209.580205
 31
0.0
  0
LINE
  8
0
  6
BYLAYER
 62
     1
 10
352.303693
 20
-259.580205
 30
0.0
 11
352.303693
 21
-248.580266
 31
0.0
  0
LINE
  8
0
  6
BYLAYER
 62
     1
 10
246.303754
 20
-259.580205
 30
0.0
 11
246.303754
 21
-248.580266
 31
0.0
  0
LINE
  8
0
  6
BYLAYER
 62
     1
 10
352.303693
 20
-21.580205
 30
0.0
 11
352.303693
 21
-32.580144
 31
0.0
  0
LINE
  8
0
  6
BYLAYER
 62
     1
 10
350.803693
 20
-23.080266
 30
0.0
 11
350.803693
 21
-32.580144
 31
0.0
  0
LINE
  8
0
  6
BYLAYER
 62
     1
 10
247.803754
 20
-23.080266
 30
0.0
 11
247.803754
 21
-32.580144
 31
0.0
  0
LINE
  8
0
  6
BYLAYER
 62
     1
 10
246.303754
 20
-21.580205
 30
0.0
 11
246.303754
 21
-32.580144
 31
0.0
  0
LINE
  8
0
  6
BYLAYER
 62
     1
 10
404.303693
 20
-108.221196
 30
0.0
 11
400.803693
 21
-108.343450
 31
0.0
  0
LINE
  8
0
  6
BYLAYER
 62
     1
 10
400.803693
 20
-96.287358
 30
0.0
 11
404.303693
 21
-96.287358
 31
0.0
  0
LINE
  8
0
  6
BYLAYER
 62
     1
 10
400.803693
 20
-73.580205
 30
0.0
 11
404.303693
 21
-73.580205
 31
0.0
  0
LINE
  8
0
  6
BYLAYER
 62
     1
 10
404.303693
 20
-24.939214
 30
0.0
 11
402.303693
 21
-24.869329
 31
0.0
  0
LINE
  8
0
  6
BYLAYER
 62
     1
 10
404.303693
 20
-108.221196
 30
0.0
 11
404.303693
 21
-24.939214
 31
0.0
  0
LINE
  8
0
  6
BYLAYER
 62
     1
 10
402.303693
 20
-59.580205
 30
0.0
 11
404.303693
 21
-59.580205
 31
0.0
  0
LINE
  8
0
  6
BYLAYER
 62
     1
 10
402.303693
 20
-36.873052
 30
0.0
 11
404.303693
 21
-36.873052
 31
0.0
  0
ARC
  8
0
  6
BYLAYER
 62
     1
 10
214.803754
 20
-241.080205
 30
0.0
 40
2.0
 50
180.000000
 51
269.999996
  0
LINE
  8
0
  6
BYLAYER
 62
     1
 10
390.717878
 20
-247.994451
 30
0.0
 11
385.217878
 21
-242.494451
 31
0.0
  0
LINE
  8
0
  6
BYLAYER
 62
     1
 10
389.303693
 20
-248.580266
 30
0.0
 11
334.492353
 21
-248.580266
 31
0.0
  0
LINE
  8
0
  6
BYLAYER
 62
     1
 10
207.303754
 20
-34.580205
 30
0.0
 11
207.303754
 21
-121.023870
 31
0.0
  0
ARC
  8
0
  6
BYLAYER
 62
     1
 10
205.303754
 20
-121.023870
 30
0.0
 40
1.999980
 50
339.280495
 51
360.000000
  0
ARC
  8
0
  6
BYLAYER
 62
     1
 10
299.303754
 20
-156.580205
 30
0.0
 40
98.500038
 50
159.280449
 51
200.719548
  0
LINE
  8
0
  6
BYLAYER
 62
     1
 10
207.303754
 20
-192.136479
 30
0.0
 11
207.303754
 21
-246.580205
 31
0.0
  0
ARC
  8
0
  6
BYLAYER
 62
     1
 10
205.303754
 20
-192.136479
 30
0.0
 40
1.999959
 50
0.0
 51
20.719577
  0
LINE
  8
0
  6
BYLAYER
 62
     1
 10
263.747663
 20
-248.580266
 30
0.0
 11
209.303754
 21
-248.580266
 31
0.0
  0
ARC
  8
0
  6
BYLAYER
 62
     1
 10
299.303754
 20
-156.580205
 30
0.0
 40
98.500031
 50
249.280595
 51
290.931197
  0
ARC
  8
0
  6
BYLAYER
 62
     1
 10
263.747663
 20
-250.580266
 30
0.0
 40
2.0
 50
69.280601
 51
90.000000
  0
LINE
  8
0
  6
BYLAYER
 62
     1
 10
391.303693
 20
-192.136479
 30
0.0
 11
391.303693
 21
-246.580266
 31
0.0
  0
ARC
  8
0
  6
BYLAYER
 62
     1
 10
393.303693
 20
-192.136479
 30
0.0
 40
2.000000
 50
159.280416
 51
180.000000
  0
ARC
  8
0
  6
BYLAYER
 62
     1
 10
393.303693
 20
-121.023870
 30
0.0
 40
2.0
 50
180.000000
 51
200.719584
  0
LINE
  8
0
  6
BYLAYER
 62
     1
 10
214.803754
 20
-243.080205
 30
0.0
 11
257.258954
 21
-243.080205
 31
0.0
  0
ARC
  8
0
  6
BYLAYER
 62
     1
 10
247.803754
 20
-61.580205
 30
0.0
 40
1.000000
 50
90.0
 51
270.000005
  0
ARC
  8
0
  6
BYLAYER
 62
     1
 10
350.803693
 20
-61.580205
 30
0.0
 40
1.000000
 50
270.0
 51
449.999991
  0
LINE
  8
0
  6
BYLAYER
 62
     1
 10
316.340482
 20
-60.580205
 30
0.0
 11
350.803693
 21
-60.580205
 31
0.0
  0
LINE
  8
0
  6
BYLAYER
 62
     1
 10
247.803754
 20
-60.580205
 30
0.0
 11
282.267026
 21
-60.580205
 31
0.0
  0
LINE
  8
0
  6
BYLAYER
 62
     1
 10
325.192945
 20
-62.580205
 30
0.0
 11
350.803693
 21
-62.580205
 31
0.0
  0
LINE
  8
0
  6
BYLAYER
 62
     1
 10
247.803754
 20
-62.580205
 30
0.0
 11
273.414563
 21
-62.580205
 31
0.0
  0
ARC
  8
0
  6
BYLAYER
 62
     1
 10
251.303754
 20
-73.580205
 30
0.0
 40
1.0
 50
270.0
 51
450.000005
  0
ARC
  8
0
  6
BYLAYER
 62
     1
 10
240.303754
 20
-85.580205
 30
0.0
 40
1.0
 50
270.0
 51
450.000005
  0
ARC
  8
0
  6
BYLAYER
 62
     1
 10
228.303754
 20
-97.580205
 30
0.0
 40
1.0
 50
270.0
 51
450.000005
  0
ARC
  8
0
  6
BYLAYER
 62
     1
 10
347.303693
 20
-73.580205
 30
0.0
 40
1.0
 50
90.0
 51
270.000005
  0
ARC
  8
0
  6
BYLAYER
 62
     1
 10
358.303693
 20
-85.580205
 30
0.0
 40
1.0
 50
90.0
 51
270.000005
  0
ARC
  8
0
  6
BYLAYER
 62
     1
 10
370.303693
 20
-97.580205
 30
0.0
 40
1.0
 50
90.0
 51
270.000005
  0
LINE
  8
0
  6
BYLAYER
 62
     1
 10
391.303693
 20
-121.023870
 30
0.0
 11
391.303693
 21
-34.580205
 31
0.0
  0
LINE
  8
0
  6
BYLAYER
 62
     1
 10
251.303754
 20
-74.580205
 30
0.0
 11
208.303754
 21
-74.580205
 31
0.0
  0
LINE
  8
0
  6
BYLAYER
 62
     1
 10
251.303754
 20
-72.580205
 30
0.0
 11
208.303754
 21
-72.580205
 31
0.0
  0
ARC
  8
0
  6
BYLAYER
 62
     1
 10
208.303754
 20
-83.580205
 30
0.0
 40
1.000000
 50
180.000000
 51
269.999996
  0
ARC
  8
0
  6
BYLAYER
 62
     1
 10
208.303754
 20
-95.580205
 30
0.0
 40
1.000000
 50
180.000000
 51
269.999996
  0
ARC
  8
0
  6
BYLAYER
 62
     1
 10
208.303754
 20
-87.580205
 30
0.0
 40
1.0
 50
90.0
 51
180.000003
  0
ARC
  8
0
  6
BYLAYER
 62
     1
 10
208.303754
 20
-99.580205
 30
0.0
 40
1.0
 50
90.0
 51
180.000003
  0
LINE
  8
0
  6
BYLAYER
 62
     1
 10
240.303754
 20
-84.580205
 30
0.0
 11
208.303754
 21
-84.580205
 31
0.0
  0
LINE
  8
0
  6
BYLAYER
 62
     1
 10
240.303754
 20
-86.580205
 30
0.0
 11
208.303754
 21
-86.580205
 31
0.0
  0
LINE
  8
0
  6
BYLAYER
 62
     1
 10
228.303754
 20
-96.580205
 30
0.0
 11
208.303754
 21
-96.580205
 31
0.0
  0
LINE
  8
0
  6
BYLAYER
 62
     1
 10
228.303754
 20
-98.580205
 30
0.0
 11
208.303754
 21
-98.580205
 31
0.0
  0
ARC
  8
0
  6
BYLAYER
 62
     1
 10
390.303693
 20
-71.580205
 30
0.0
 40
1.000000
 50
270.0
 51
359.999982
  0
ARC
  8
0
  6
BYLAYER
 62
     1
 10
390.303693
 20
-75.580205
 30
0.0
 40
1.000000
 50
0.0
 51
90.000016
  0
ARC
  8
0
  6
BYLAYER
 62
     1
 10
390.303693
 20
-83.580205
 30
0.0
 40
1.000000
 50
270.0
 51
359.999982
  0
ARC
  8
0
  6
BYLAYER
 62
     1
 10
390.303693
 20
-87.580205
 30
0.0
 40
1.000000
 50
0.0
 51
90.000016
  0
ARC
  8
0
  6
BYLAYER
 62
     1
 10
390.303693
 20
-95.580205
 30
0.0
 40
1.000000
 50
270.0
 51
359.999982
  0
ARC
  8
0
  6
BYLAYER
 62
     1
 10
390.303693
 20
-99.580205
 30
0.0
 40
1.000000
 50
0.0
 51
90.000016
  0
LINE
  8
0
  6
BYLAYER
 62
     1
 10
347.303693
 20
-74.580205
 30
0.0
 11
390.303693
 21
-74.580205
 31
0.0
  0
LINE
  8
0
  6
BYLAYER
 62
     1
 10
358.303693
 20
-84.580205
 30
0.0
 11
390.303693
 21
-84.580205
 31
0.0
  0
LINE
  8
0
  6
BYLAYER
 62
     1
 10
358.303693
 20
-86.580205
 30
0.0
 11
390.303693
 21
-86.580205
 31
0.0
  0
LINE
  8
0
  6
BYLAYER
 62
     1
 10
370.303693
 20
-96.580205
 30
0.0
 11
390.303693
 21
-96.580205
 31
0.0
  0
LINE
  8
0
  6
BYLAYER
 62
     1
 10
370.303693
 20
-98.580205
 30
0.0
 11
390.303693
 21
-98.580205
 31
0.0
  0
LINE
  8
0
  6
BYLAYER
 62
     1
 10
197.803754
 20
-87.902226
 30
0.0
 11
196.303754
 21
-87.902226
 31
0.0
  0
LINE
  8
0
  6
BYLAYER
 62
     1
 10
197.803754
 20
-101.758184
 30
0.0
 11
196.303754
 21
-101.758184
 31
0.0
  0
LINE
  8
0
  6
BYLAYER
 62
     1
 10
391.303693
 20
-73.080205
 30
0.0
 11
400.803693
 21
-73.080205
 31
0.0
  0
LINE
  8
0
  6
BYLAYER
 62
     1
 10
391.303693
 20
-208.080205
 30
0.0
 11
400.803693
 21
-208.080205
 31
0.0
  0
LINE
  8
0
  6
BYLAYER
 62
     1
 10
350.803693
 20
-248.580266
 30
0.0
 11
350.803693
 21
-258.080144
 31
0.0
  0
LINE
  8
0
  6
BYLAYER
 62
     1
 10
247.803754
 20
-258.080144
 30
0.0
 11
247.803754
 21
-248.580266
 31
0.0
  0
LINE
  8
0
  6
BYLAYER
 62
     1
 10
197.803754
 20
-208.080205
 30
0.0
 11
207.303754
 21
-208.080205
 31
0.0
  0
LINE
  8
0
  6
BYLAYER
 62
     1
 10
197.803754
 20
-73.080205
 30
0.0
 11
207.303754
 21
-73.080205
 31
0.0
  0
LINE
  8
0
  6
BYLAYER
 62
     1
 10
362.803693
 20
-32.580205
 30
0.0
 11
362.803693
 21
-21.580205
 31
0.0
  0
LINE
  8
0
  6
BYLAYER
 62
     1
 10
375.803693
 20
-32.580205
 30
0.0
 11
375.803693
 21
-21.580205
 31
0.0
  0
LINE
  8
0
  6
BYLAYER
 62
     1
 10
222.803754
 20
-32.580205
 30
0.0
 11
222.803754
 21
-21.580205
 31
0.0
  0
LINE
  8
0
  6
BYLAYER
 62
     1
 10
235.803754
 20
-32.580205
 30
0.0
 11
235.803754
 21
-21.580205
 31
0.0
  0
LINE
  8
0
  6
BYLAYER
 62
     1
 10
207.303754
 20
-48.080205
 30
0.0
 11
196.303754
 21
-48.080205
 31
0.0
  0
LINE
  8
0
  6
BYLAYER
 62
     1
 10
207.303754
 20
-61.080205
 30
0.0
 11
196.303754
 21
-61.080205
 31
0.0
  0
LINE
  8
0
  6
BYLAYER
 62
     1
 10
235.803754
 20
-248.580205
 30
0.0
 11
235.803754
 21
-259.580205
 31
0.0
  0
LINE
  8
0
  6
BYLAYER
 62
     1
 10
222.803754
 20
-248.580205
 30
0.0
 11
222.803754
 21
-259.580205
 31
0.0
  0
LINE
  8
0
  6
BYLAYER
 62
     1
 10
207.303754
 20
-233.080205
 30
0.0
 11
196.303754
 21
-233.080205
 31
0.0
  0
LINE
  8
0
  6
BYLAYER
 62
     1
 10
207.303754
 20
-220.080205
 30
0.0
 11
196.303754
 21
-220.080205
 31
0.0
  0
LINE
  8
0
  6
BYLAYER
 62
     1
 10
391.303754
 20
-220.080205
 30
0.0
 11
402.303693
 21
-220.080205
 31
0.0
  0
LINE
  8
0
  6
BYLAYER
 62
     1
 10
391.303754
 20
-233.080205
 30
0.0
 11
402.303693
 21
-233.080205
 31
0.0
  0
LINE
  8
0
  6
BYLAYER
 62
     1
 10
375.803693
 20
-248.580205
 30
0.0
 11
375.803693
 21
-259.580205
 31
0.0
  0
LINE
  8
0
  6
BYLAYER
 62
     1
 10
362.803693
 20
-248.580205
 30
0.0
 11
362.803693
 21
-259.580205
 31
0.0
  0
LINE
  8
0
  6
BYLAYER
 62
     1
 10
347.303693
 20
-72.580205
 30
0.0
 11
382.252546
 21
-72.580205
 31
0.0
  0
LINE
  8
0
  6
BYLAYER
 62
     1
 10
390.303693
 20
-72.580205
 30
0.0
 11
382.252546
 21
-72.580205
 31
0.0
  0
LINE
  8
0
  6
BYLAYER
 62
     1
 10
352.303693
 20
-259.580205
 30
0.0
 11
400.803693
 21
-259.580205
 31
0.0
  0
LINE
  8
0
  6
BYLAYER
 62
     1
 10
341.348554
 20
-243.080205
 30
0.0
 11
361.847455
 21
-243.080205
 31
0.0
  0
LINE
  8
0
  6
BYLAYER
 62
     1
 10
361.847455
 20
-243.080205
 30
0.0
 11
383.803693
 21
-243.080205
 31
0.0
  0
LINE
  8
0
  6
BYLAYER
 62
     1
 10
246.303754
 20
-259.580205
 30
0.0
 11
197.803754
 21
-259.580205
 31
0.0
  0
ARC
  8
0
  6
BYLAYER
 62
     1
 10
378.303693
 20
-203.580205
 30
0.0
 40
1.0
 50
90.0
 51
270.000005
  0
ARC
  8
0
  6
BYLAYER
 62
     1
 10
390.303693
 20
-205.580205
 30
0.0
 40
1.0
 50
0.0
 51
89.999982
  0
ARC
  8
0
  6
BYLAYER
 62
     1
 10
390.303693
 20
-201.580205
 30
0.0
 40
1.000000
 50
270.0
 51
360.000016
  0
LINE
  8
0
  6
BYLAYER
 62
     1
 10
378.303693
 20
-204.580205
 30
0.0
 11
390.303693
 21
-204.580205
 31
0.0
  0
LINE
  8
0
  6
BYLAYER
 62
     1
 10
378.303693
 20
-202.580205
 30
0.0
 11
390.303693
 21
-202.580205
 31
0.0
  0
LINE
  8
0
  6
BYLAYER
 62
     1
 10
402.303693
 20
-209.580205
 30
0.0
 11
402.303693
 21
-258.080205
 31
0.0
  0
ARC
  8
0
  6
BYLAYER
 62
     1
 10
220.303754
 20
-203.580205
 30
0.0
 40
1.0
 50
270.0
 51
449.999991
  0
ARC
  8
0
  6
BYLAYER
 62
     1
 10
208.303754
 20
-205.580205
 30
0.0
 40
1.000000
 50
90.0
 51
179.999982
  0
ARC
  8
0
  6
BYLAYER
 62
     1
 10
208.303754
 20
-201.580205
 30
0.0
 40
1.000000
 50
180.000000
 51
270.000023
  0
LINE
  8
0
  6
BYLAYER
 62
     1
 10
220.303754
 20
-204.580205
 30
0.0
 11
208.303754
 21
-204.580205
 31
0.0
  0
LINE
  8
0
  6
BYLAYER
 62
     1
 10
220.303754
 20
-202.580205
 30
0.0
 11
208.303754
 21
-202.580205
 31
0.0
  0
ARC
  8
0
  6
BYLAYER
 62
     1
 10
208.303754
 20
-71.580205
 30
0.0
 40
1.000000
 50
180.000000
 51
269.999996
  0
ARC
  8
0
  6
BYLAYER
 62
     1
 10
208.303754
 20
-75.580205
 30
0.0
 40
1.0
 50
90.0
 51
180.000003
  0
ARC
  8
0
  6
BYLAYER
 62
     1
 10
299.303754
 20
-156.580205
 30
0.0
 40
98.499939
 50
0.0
 51
20.719575
  0
ARC
  8
0
  6
BYLAYER
 62
     1
 10
299.303754
 20
-156.580205
 30
0.0
 40
98.499939
 50
339.280413
 51
360.0
  0
LINE
  8
0
  6
BYLAYER
 62
     1
 10
196.303754
 20
-258.080205
 30
0.0
 11
196.303754
 21
-209.580205
 31
0.0
  0
LINE
  8
0
  6
BYLAYER
 62
     1
 10
246.303754
 20
-21.580205
 30
0.0
 11
197.803754
 21
-21.580205
 31
0.0
  0
LINE
  8
0
  6
BYLAYER
 62
     1
 10
196.303754
 20
-66.580205
 30
0.0
 11
196.303754
 21
-102.580205
 31
0.0
  0
LINE
  8
0
  6
BYLAYER
 62
     1
 10
196.303754
 20
-66.580205
 30
0.0
 11
196.303754
 21
-23.080205
 31
0.0
  0
LINE
  8
0
  6
BYLAYER
 62
     1
 10
352.303693
 20
-21.580205
 30
0.0
 11
400.803693
 21
-21.580205
 31
0.0
  0
LINE
  8
0
  6
BYLAYER
 62
     1
 10
212.803754
 20
-202.580205
 30
0.0
 11
212.803754
 21
-198.625005
 31
0.0
  0
LINE
  8
0
  6
BYLAYER
 62
     1
 10
212.803754
 20
-241.080205
 30
0.0
 11
212.803754
 21
-204.580205
 31
0.0
  0
ARC
  8
0
  6
BYLAYER
 62
     1
 10
383.803693
 20
-241.080205
 30
0.0
 40
2.000000
 50
314.998762
 51
360.0
  0
ARC
  8
0
  6
BYLAYER
 62
     1
 10
383.803693
 20
-241.080205
 30
0.0
 40
2.000002
 50
270.0
 51
314.998762
  0
LINE
  8
0
  6
BYLAYER
 62
     1
 10
385.803693
 20
-241.080205
 30
0.0
 11
385.803693
 21
-204.580205
 31
0.0
  0
LINE
  8
0
  6
BYLAYER
 62
     1
 10
385.803693
 20
-202.580205
 30
0.0
 11
385.803693
 21
-198.625005
 31
0.0
  0
LINE
  8
0
  6
BYLAYER
 62
     1
 10
207.889630
 20
-247.994451
 30
0.0
 11
213.389630
 21
-242.494451
 31
0.0
  0
LINE
  8
0
  6
BYLAYER
 62
     1
 10
400.803693
 20
-208.080205
 30
0.0
 11
400.803693
 21
-73.080205
 31
0.0
  0
ARC
  8
0
  6
BYLAYER
 62
     1
 10
299.303754
 20
-156.580205
 30
0.0
 40
42.5
 50
90.0
 51
180.000002
  0
CIRCLE
  8
0
  6
BYLAYER
 62
     1
 10
299.303754
 20
-91.580205
 30
0.0
 40
4.5
  0
ARC
  8
0
  6
BYLAYER
 62
     1
 10
299.303754
 20
-91.580205
 30
0.0
 40
4.999938
 50
353.660000
 51
636.340001
  0
ARC
  8
0
  6
BYLAYER
 62
     1
 10
253.341779
 20
-110.618291
 30
0.0
 40
4.999972
 50
38.659991
 51
321.339992
  0
ARC
  8
0
  6
BYLAYER
 62
     1
 10
253.341779
 20
-110.618291
 30
0.0
 40
4.999972
 50
38.659991
 51
321.339992
  0
CIRCLE
  8
0
  6
BYLAYER
 62
     1
 10
253.341779
 20
-110.618291
 30
0.0
 40
4.5
  0
CIRCLE
  8
0
  6
BYLAYER
 62
     1
 10
234.303754
 20
-156.580205
 30
0.0
 40
4.500000
  0
ARC
  8
0
  6
BYLAYER
 62
     1
 10
234.303754
 20
-156.580205
 30
0.0
 40
5.000012
 50
83.660009
 51
366.340010
  0
ARC
  8
0
  6
BYLAYER
 62
     1
 10
299.303754
 20
-156.580205
 30
0.0
 40
55.000000
 50
90.000003
 51
180.000005
  0
ARC
  8
0
  6
BYLAYER
 62
     1
 10
299.303754
 20
-156.580205
 30
0.0
 40
55.0
 50
359.999986
 51
450.000003
  0
ARC
  8
0
  6
BYLAYER
 62
     1
 10
299.303754
 20
-156.580205
 30
0.0
 40
54.999939
 50
179.999991
 51
270.0
  0
CIRCLE
  8
0
  6
BYLAYER
 62
     1
 10
299.303754
 20
-91.580205
 30
0.0
 40
4.5
  0
CIRCLE
  8
0
  6
BYLAYER
 62
     1
 10
253.341779
 20
-110.618291
 30
0.0
 40
4.5
  0
CIRCLE
  8
0
  6
BYLAYER
 62
     1
 10
234.303754
 20
-156.580205
 30
0.0
 40
4.500000
  0
CIRCLE
  8
0
  6
BYLAYER
 62
     1
 10
299.303754
 20
-91.580205
 30
0.0
 40
4.5
  0
ARC
  8
0
  6
BYLAYER
 62
     1
 10
299.303754
 20
-156.580205
 30
0.0
 40
80.000000
 50
90.000003
 51
94.744108
  0
ARC
  8
0
  6
BYLAYER
 62
     1
 10
292.852704
 20
-78.847417
 30
0.0
 40
2.000037
 50
94.743931
 51
150.255446
  0
ARC
  8
0
  6
BYLAYER
 62
     1
 10
239.776776
 20
-106.176396
 30
0.0
 40
2.000029
 50
139.743649
 51
195.255574
  0
ARC
  8
0
  6
BYLAYER
 62
     1
 10
299.303754
 20
-156.580205
 30
0.0
 40
80.000031
 50
130.255874
 51
139.744113
  0
ARC
  8
0
  6
BYLAYER
 62
     1
 10
259.121991
 20
-59.572759
 30
0.0
 40
36.849331
 50
254.7448
 51
330.255247
  0
ARC
  8
0
  6
BYLAYER
 62
     1
 10
248.900006
 20
-97.053227
 30
0.0
 40
2.000036
 50
74.744591
 51
130.256270
  0
ARC
  8
0
  6
BYLAYER
 62
     1
 10
202.296430
 20
-116.398442
 30
0.0
 40
36.8493
 50
299.744739
 51
375.255260
  0
ARC
  8
0
  6
BYLAYER
 62
     1
 10
221.570966
 20
-150.129033
 30
0.0
 40
1.999955
 50
119.744117
 51
175.255742
  0
ARC
  8
0
  6
BYLAYER
 62
     1
 10
299.303754
 20
-156.580205
 30
0.0
 40
79.999977
 50
175.255865
 51
180.000005
  0
CIRCLE
  8
0
  6
BYLAYER
 62
     1
 10
253.341901
 20
-202.542119
 30
0.0
 40
4.5
  0
ARC
  8
0
  6
BYLAYER
 62
     1
 10
299.303754
 20
-156.580205
 30
0.0
 40
80.0
 50
180.000005
 51
184.744104
  0
ARC
  8
0
  6
BYLAYER
 62
     1
 10
221.570966
 20
-163.031255
 30
0.0
 40
1.999954
 50
184.743940
 51
240.255456
  0
ARC
  8
0
  6
BYLAYER
 62
     1
 10
248.900006
 20
-216.107122
 30
0.0
 40
1.999990
 50
229.743658
 51
285.255583
  0
ARC
  8
0
  6
BYLAYER
 62
     1
 10
299.303754
 20
-156.580205
 30
0.0
 40
79.999939
 50
220.255870
 51
229.744122
  0
ARC
  8
0
  6
BYLAYER
 62
     1
 10
202.296430
 20
-196.761968
 30
0.0
 40
36.849354
 50
344.744807
 51
420.255253
  0
ARC
  8
0
  6
BYLAYER
 62
     1
 10
239.776776
 20
-206.983892
 30
0.0
 40
1.999990
 50
164.744600
 51
220.256279
  0
ARC
  8
0
  6
BYLAYER
 62
     1
 10
259.121991
 20
-253.587468
 30
0.0
 40
36.849285
 50
29.744750
 51
105.255264
  0
ARC
  8
0
  6
BYLAYER
 62
     1
 10
292.852704
 20
-234.312932
 30
0.0
 40
1.999955
 50
209.744126
 51
265.255751
  0
ARC
  8
0
  6
BYLAYER
 62
     1
 10
299.303754
 20
-156.580205
 30
0.0
 40
79.999908
 50
265.255861
 51
270.000001
  0
CIRCLE
  8
0
  6
BYLAYER
 62
     1
 10
345.265699
 20
-202.541997
 30
0.0
 40
4.5
  0
ARC
  8
0
  6
BYLAYER
 62
     1
 10
299.303754
 20
-156.580205
 30
0.0
 40
79.999939
 50
270.0
 51
274.744113
  0
ARC
  8
0
  6
BYLAYER
 62
     1
 10
305.754804
 20
-234.312932
 30
0.0
 40
2.000007
 50
274.743922
 51
330.255438
  0
ARC
  8
0
  6
BYLAYER
 62
     1
 10
358.830762
 20
-206.983892
 30
0.0
 40
1.999982
 50
319.743667
 51
375.255565
  0
ARC
  8
0
  6
BYLAYER
 62
     1
 10
299.303754
 20
-156.580205
 30
0.0
 40
79.999954
 50
310.255879
 51
319.744104
  0
ARC
  8
0
  6
BYLAYER
 62
     1
 10
339.485547
 20
-253.587529
 30
0.0
 40
36.849358
 50
74.744816
 51
150.255242
  0
ARC
  8
0
  6
BYLAYER
 62
     1
 10
349.707471
 20
-216.107122
 30
0.0
 40
2.000029
 50
254.744582
 51
310.256261
  0
ARC
  8
0
  6
BYLAYER
 62
     1
 10
396.311109
 20
-196.761968
 30
0.0
 40
36.849327
 50
119.744732
 51
195.255260
  0
ARC
  8
0
  6
BYLAYER
 62
     1
 10
377.036573
 20
-163.031255
 30
0.0
 40
1.999894
 50
299.744108
 51
355.255733
  0
ARC
  8
0
  6
BYLAYER
 62
     1
 10
299.303754
 20
-156.580205
 30
0.0
 40
79.999939
 50
355.25587
 51
360.000010
  0
CIRCLE
  8
0
  6
BYLAYER
 62
     1
 10
345.265577
 20
-110.618169
 30
0.0
 40
4.5
  0
ARC
  8
0
  6
BYLAYER
 62
     1
 10
299.303754
 20
-156.580205
 30
0.0
 40
80.000031
 50
0.000010
 51
4.744123
  0
ARC
  8
0
  6
BYLAYER
 62
     1
 10
377.036573
 20
-150.129155
 30
0.0
 40
2.000030
 50
4.743932
 51
60.255444
  0
ARC
  8
0
  6
BYLAYER
 62
     1
 10
349.707593
 20
-97.053227
 30
0.0
 40
1.999997
 50
49.743650
 51
105.255544
  0
ARC
  8
0
  6
BYLAYER
 62
     1
 10
299.303754
 20
-156.580205
 30
0.0
 40
79.999962
 50
40.255861
 51
49.744114
  0
ARC
  8
0
  6
BYLAYER
 62
     1
 10
358.830762
 20
-106.176396
 30
0.0
 40
1.999904
 50
344.744591
 51
400.256271
  0
ARC
  8
0
  6
BYLAYER
 62
     1
 10
305.754804
 20
-78.847417
 30
0.0
 40
2.000015
 50
29.744118
 51
85.255739
  0
ARC
  8
0
  6
BYLAYER
 62
     1
 10
299.303754
 20
-156.580205
 30
0.0
 40
80.000031
 50
85.255876
 51
90.000016
  0
ARC
  8
0
  6
BYLAYER
 62
     1
 10
253.341840
 20
-110.618169
 30
0.0
 40
5.000000
 50
38.659991
 51
321.339992
  0
ARC
  8
0
  6
BYLAYER
 62
     1
 10
234.303754
 20
-156.580205
 30
0.0
 40
4.999999
 50
83.660009
 51
366.340010
  0
ARC
  8
0
  6
BYLAYER
 62
     1
 10
253.341840
 20
-202.542119
 30
0.0
 40
4.999962
 50
128.660028
 51
411.340001
  0
ARC
  8
0
  6
BYLAYER
 62
     1
 10
299.303754
 20
-221.580144
 30
0.0
 40
4.999999
 50
173.660015
 51
456.340016
  0
ARC
  8
0
  6
BYLAYER
 62
     1
 10
345.265699
 20
-202.542119
 30
0.0
 40
5.0
 50
218.660013
 51
501.340041
  0
ARC
  8
0
  6
BYLAYER
 62
     1
 10
364.303785
 20
-156.580205
 30
0.0
 40
5.000060
 50
263.659977
 51
546.340005
  0
ARC
  8
0
  6
BYLAYER
 62
     1
 10
345.265699
 20
-110.618169
 30
0.0
 40
5.000096
 50
308.659982
 51
591.339955
  0
CIRCLE
  8
0
  6
BYLAYER
 62
     1
 10
299.303754
 20
-221.580144
 30
0.0
 40
4.5
  0
CIRCLE
  8
0
  6
BYLAYER
 62
     1
 10
364.303785
 20
-156.580205
 30
0.0
 40
4.500000
  0
ARC
  8
0
  6
BYLAYER
 62
     1
 10
339.485547
 20
-59.572759
 30
0.0
 40
36.849327
 50
209.744796
 51
285.255256
  0
ARC
  8
0
  6
BYLAYER
 62
     1
 10
299.303754
 20
-156.580205
 30
0.0
 40
54.999939
 50
270.0
 51
360.000003
  0
ARC
  8
0
  6
BYLAYER
 62
     1
 10
299.303754
 20
-156.580205
 30
0.0
 40
97.5
 50
245.301818
 51
294.698190
  0
ARC
  8
0
  6
BYLAYER
 62
     1
 10
299.303754
 20
-156.580205
 30
0.0
 40
97.500000
 50
155.301809
 51
204.698181
  0
ARC
  8
0
  6
BYLAYER
 62
     1
 10
212.539960
 20
-196.483769
 30
0.0
 40
2.0
 50
204.698188
 51
255.0
  0
ARC
  8
0
  6
BYLAYER
 62
     1
 10
212.539960
 20
-116.676641
 30
0.0
 40
2.000000
 50
104.999996
 51
155.301809
  0
ARC
  8
0
  6
BYLAYER
 62
     1
 10
299.303754
 20
-156.580205
 30
0.0
 40
97.500000
 50
65.301813
 51
114.698185
  0
ARC
  8
0
  6
BYLAYER
 62
     1
 10
299.303754
 20
-156.580205
 30
0.0
 40
97.5
 50
335.301827
 51
384.698199
  0
ARC
  8
0
  6
BYLAYER
 62
     1
 10
299.303754
 20
-156.580205
 30
0.0
 40
42.500015
 50
45.000015
 51
90.000003
  0
ARC
  8
0
  6
BYLAYER
 62
     1
 10
299.303754
 20
-156.580205
 30
0.0
 40
42.5
 50
180.000005
 51
404.999974
  0
ARC
  8
0
  6
BYLAYER
 62
     1
 10
396.311109
 20
-116.398320
 30
0.0
 40
36.849373
 50
225.3616
 51
240.255401
  0
ARC
  8
0
  6
BYLAYER
 62
     1
 10
361.461866
 20
-116.411870
 30
0.0
 40
2.000022
 50
180.022736
 51
274.620241
  0
ARC
  8
0
  6
BYLAYER
 62
     1
 10
362.589551
 20
-130.366399
 30
0.0
 40
11.999949
 50
310.379888
 51
454.620246
  0
ARC
  8
0
  6
BYLAYER
 62
     1
 10
371.659497
 20
-141.031133
 30
0.0
 40
2.000067
 50
130.380156
 51
224.977743
  0
ARC
  8
0
  6
BYLAYER
 62
     1
 10
396.311231
 20
-116.398381
 30
0.0
 40
36.849331
 50
164.744791
 51
240.255265
  0
LINE
  8
0
  6
BYLAYER
 62
     1
 10
386.585157
 20
-198.415624
 30
0.0
 11
370.737012
 21
-202.662114
 31
0.0
  0
ARC
  8
0
  6
BYLAYER
 62
     1
 10
386.067578
 20
-196.483769
 30
0.0
 40
2.0
 50
284.999998
 51
335.301810
  0
LINE
  8
0
  6
BYLAYER
 62
     1
 10
345.383023
 20
-228.023412
 30
0.0
 11
341.139173
 21
-243.861638
 31
0.0
  0
ARC
  8
0
  6
BYLAYER
 62
     1
 10
339.207288
 20
-243.343999
 30
0.0
 40
2.0
 50
294.698200
 51
345.000013
  0
ARC
  8
0
  6
BYLAYER
 62
     1
 10
347.317517
 20
-228.531072
 30
0.0
 40
2.000000
 50
123.715705
 51
164.999994
  0
ARC
  8
0
  6
BYLAYER
 62
     1
 10
345.977552
 20
-233.531835
 30
0.0
 40
2.0
 50
121.238252
 51
164.999994
  0
ARC
  8
0
  6
BYLAYER
 62
     1
 10
299.303754
 20
-156.580205
 30
0.0
 40
88.0
 50
301.238253
 51
328.761739
  0
ARC
  8
0
  6
BYLAYER
 62
     1
 10
376.255384
 20
-203.254033
 30
0.0
 40
2.000000
 50
104.999996
 51
148.761739
  0
ARC
  8
0
  6
BYLAYER
 62
     1
 10
299.303754
 20
-156.580205
 30
0.0
 40
84.5
 50
303.715700
 51
326.284277
  0
ARC
  8
0
  6
BYLAYER
 62
     1
 10
371.254651
 20
-204.593968
 30
0.0
 40
2.0
 50
105.000003
 51
146.284292
  0
LINE
  8
0
  6
BYLAYER
 62
     1
 10
341.139173
 20
-69.298772
 30
0.0
 11
345.385694
 21
-85.146977
 31
0.0
  0
ARC
  8
0
  6
BYLAYER
 62
     1
 10
339.207288
 20
-69.816411
 30
0.0
 40
2.0
 50
15.000000
 51
65.301813
  0
LINE
  8
0
  6
BYLAYER
 62
     1
 10
370.737012
 20
-110.498296
 30
0.0
 11
386.585157
 21
-114.744786
 31
0.0
  0
ARC
  8
0
  6
BYLAYER
 62
     1
 10
386.067578
 20
-116.676641
 30
0.0
 40
2.000000
 50
24.698186
 51
74.999999
  0
ARC
  8
0
  6
BYLAYER
 62
     1
 10
371.254651
 20
-108.566442
 30
0.0
 40
2.000000
 50
213.715714
 51
255.000004
  0
ARC
  8
0
  6
BYLAYER
 62
     1
 10
376.255384
 20
-109.906377
 30
0.0
 40
2.000000
 50
211.238261
 51
255.000004
  0
ARC
  8
0
  6
BYLAYER
 62
     1
 10
299.303754
 20
-156.580205
 30
0.0
 40
88.0
 50
31.238256
 51
58.761741
  0
ARC
  8
0
  6
BYLAYER
 62
     1
 10
345.977552
 20
-79.628575
 30
0.0
 40
2.0
 50
195.000005
 51
238.761748
  0
ARC
  8
0
  6
BYLAYER
 62
     1
 10
299.303754
 20
-156.580205
 30
0.0
 40
84.5
 50
33.715713
 51
56.284290
  0
ARC
  8
0
  6
BYLAYER
 62
     1
 10
347.317517
 20
-84.629338
 30
0.0
 40
2.0
 50
195.000012
 51
236.284302
  0
LINE
  8
0
  6
BYLAYER
 62
     1
 10
212.022321
 20
-114.744786
 30
0.0
 11
227.870526
 21
-110.498296
 31
0.0
  0
LINE
  8
0
  6
BYLAYER
 62
     1
 10
253.221845
 20
-85.146977
 30
0.0
 11
257.468335
 21
-69.298772
 31
0.0
  0
ARC
  8
0
  6
BYLAYER
 62
     1
 10
259.400190
 20
-69.816411
 30
0.0
 40
2.000000
 50
114.698182
 51
164.999994
  0
ARC
  8
0
  6
BYLAYER
 62
     1
 10
251.289991
 20
-84.629338
 30
0.0
 40
2.0
 50
303.715723
 51
345.000013
  0
ARC
  8
0
  6
BYLAYER
 62
     1
 10
252.629926
 20
-79.628575
 30
0.0
 40
2.0
 50
301.238270
 51
345.000013
  0
ARC
  8
0
  6
BYLAYER
 62
     1
 10
299.303754
 20
-156.580205
 30
0.0
 40
88.000000
 50
121.238262
 51
148.761747
  0
ARC
  8
0
  6
BYLAYER
 62
     1
 10
222.352124
 20
-109.906377
 30
0.0
 40
2.000000
 50
284.999987
 51
328.761730
  0
ARC
  8
0
  6
BYLAYER
 62
     1
 10
299.303754
 20
-156.580205
 30
0.0
 40
84.500000
 50
123.715708
 51
146.284286
  0
ARC
  8
0
  6
BYLAYER
 62
     1
 10
227.352887
 20
-108.566442
 30
0.0
 40
2.0
 50
284.999994
 51
326.284284
  0
LINE
  8
0
  6
BYLAYER
 62
     1
 10
257.468335
 20
-243.861638
 30
0.0
 11
253.221845
 21
-228.013433
 31
0.0
  0
ARC
  8
0
  6
BYLAYER
 62
     1
 10
259.400190
 20
-243.343999
 30
0.0
 40
2.000000
 50
195.000002
 51
245.301815
  0
LINE
  8
0
  6
BYLAYER
 62
     1
 10
227.870526
 20
-202.662114
 30
0.0
 11
212.022321
 21
-198.415624
 31
0.0
  0
ARC
  8
0
  6
BYLAYER
 62
     1
 10
227.352887
 20
-204.593968
 30
0.0
 40
2.000000
 50
33.715709
 51
74.999999
  0
ARC
  8
0
  6
BYLAYER
 62
     1
 10
222.352124
 20
-203.254033
 30
0.0
 40
2.000000
 50
31.238256
 51
74.999999
  0
ARC
  8
0
  6
BYLAYER
 62
     1
 10
299.303754
 20
-156.580205
 30
0.0
 40
88.0
 50
211.238258
 51
238.761743
  0
ARC
  8
0
  6
BYLAYER
 62
     1
 10
252.629926
 20
-233.531835
 30
0.0
 40
2.0
 50
15.000000
 51
58.761743
  0
ARC
  8
0
  6
BYLAYER
 62
     1
 10
299.303754
 20
-156.580205
 30
0.0
 40
84.5
 50
213.715718
 51
236.284295
  0
ARC
  8
0
  6
BYLAYER
 62
     1
 10
251.289991
 20
-228.531072
 30
0.0
 40
2.0
 50
15.0
 51
56.284290
  0
ARC
  8
0
  6
BYLAYER
 62
     1
 10
284.363488
 20
-52.510848
 30
0.0
 40
2.873727
 50
270.0
 51
308.795511
  0
ARC
  8
0
  6
BYLAYER
 62
     1
 10
284.085386
 20
-52.214668
 30
0.0
 40
3.278957
 50
309.340351
 51
360.000000
  0
ARC
  8
0
  6
BYLAYER
 62
     1
 10
284.085386
 20
-52.214668
 30
0.0
 40
3.278957
 50
0.0
 51
50.659649
  0
ARC
  8
0
  6
BYLAYER
 62
     1
 10
284.363488
 20
-51.918488
 30
0.0
 40
2.873727
 50
51.204489
 51
90.000000
  0
ARC
  8
0
  6
BYLAYER
 62
     1
 10
284.363488
 20
-51.918462
 30
0.0
 40
2.873701
 50
90.0
 51
128.795693
  0
ARC
  8
0
  6
BYLAYER
 62
     1
 10
284.641616
 20
-52.214668
 30
0.0
 40
3.278967
 50
129.340576
 51
180.000000
  0
ARC
  8
0
  6
BYLAYER
 62
     1
 10
284.641616
 20
-52.214668
 30
0.0
 40
3.278967
 50
180.000000
 51
230.659424
  0
ARC
  8
0
  6
BYLAYER
 62
     1
 10
284.363488
 20
-52.510874
 30
0.0
 40
2.873701
 50
231.204307
 51
270.000000
  0
ARC
  8
0
  6
BYLAYER
 62
     1
 10
284.363488
 20
-51.371517
 30
0.0
 40
1.329747
 50
90.0
 51
140.793201
  0
ARC
  8
0
  6
BYLAYER
 62
     1
 10
285.397043
 20
-52.214668
 30
0.0
 40
2.663590
 50
140.793201
 51
180.000000
  0
ARC
  8
0
  6
BYLAYER
 62
     1
 10
285.397027
 20
-52.214668
 30
0.0
 40
2.663574
 50
180.000000
 51
219.206869
  0
ARC
  8
0
  6
BYLAYER
 62
     1
 10
284.363488
 20
-53.057808
 30
0.0
 40
1.329750
 50
219.206869
 51
270.000000
  0
ARC
  8
0
  6
BYLAYER
 62
     1
 10
284.363488
 20
-53.057808
 30
0.0
 40
1.329750
 50
270.0
 51
320.793131
  0
ARC
  8
0
  6
BYLAYER
 62
     1
 10
283.329950
 20
-52.214668
 30
0.0
 40
2.663574
 50
320.793131
 51
360.000000
  0
ARC
  8
0
  6
BYLAYER
 62
     1
 10
283.329934
 20
-52.214668
 30
0.0
 40
2.663590
 50
0.0
 51
39.206799
  0
ARC
  8
0
  6
BYLAYER
 62
     1
 10
284.363488
 20
-51.371517
 30
0.0
 40
1.329747
 50
39.206799
 51
90.000000
  0
LINE
  8
0
  6
BYLAYER
 62
     1
 10
274.515649
 20
-55.173240
 30
0.0
 11
274.515649
 21
-49.171547
 31
0.0
  0
LINE
  8
0
  6
BYLAYER
 62
     1
 10
274.515649
 20
-49.171547
 30
0.0
 11
276.955774
 21
-49.171547
 31
0.0
  0
LINE
  8
0
  6
BYLAYER
 62
     1
 10
276.955774
 20
-49.171547
 30
0.0
 11
277.770089
 21
-52.299202
 31
0.0
  0
LINE
  8
0
  6
BYLAYER
 62
     1
 10
274.515649
 20
-55.173240
 30
0.0
 11
275.980859
 21
-55.173240
 31
0.0
  0
LINE
  8
0
  6
BYLAYER
 62
     1
 10
275.980859
 20
-55.173240
 30
0.0
 11
275.980859
 21
-51.707481
 31
0.0
  0
LINE
  8
0
  6
BYLAYER
 62
     1
 10
277.136102
 20
-55.173240
 30
0.0
 11
275.980859
 21
-51.707481
 31
0.0
  0
LINE
  8
0
  6
BYLAYER
 62
     1
 10
281.024530
 20
-55.173240
 30
0.0
 11
281.024530
 21
-49.171547
 31
0.0
  0
LINE
  8
0
  6
BYLAYER
 62
     1
 10
281.024530
 20
-49.171547
 30
0.0
 11
278.584405
 21
-49.171547
 31
0.0
  0
LINE
  8
0
  6
BYLAYER
 62
     1
 10
278.584405
 20
-49.171547
 30
0.0
 11
277.770089
 21
-52.299202
 31
0.0
  0
LINE
  8
0
  6
BYLAYER
 62
     1
 10
281.024530
 20
-55.173240
 30
0.0
 11
279.559320
 21
-55.173240
 31
0.0
  0
LINE
  8
0
  6
BYLAYER
 62
     1
 10
279.559320
 20
-55.173240
 30
0.0
 11
279.559320
 21
-51.707481
 31
0.0
  0
LINE
  8
0
  6
BYLAYER
 62
     1
 10
278.404077
 20
-55.173240
 30
0.0
 11
279.559320
 21
-51.707481
 31
0.0
  0
LINE
  8
0
  6
BYLAYER
 62
     1
 10
278.404077
 20
-55.173240
 30
0.0
 11
277.136102
 21
-55.173240
 31
0.0
  0
LINE
  8
0
  6
BYLAYER
 62
     1
 10
302.495370
 20
-55.173240
 30
0.0
 11
304.777688
 21
-49.171547
 31
0.0
  0
LINE
  8
0
  6
BYLAYER
 62
     1
 10
302.495370
 20
-55.173240
 30
0.0
 11
304.439584
 21
-55.173240
 31
0.0
  0
LINE
  8
0
  6
BYLAYER
 62
     1
 10
304.777688
 20
-49.171547
 30
0.0
 11
306.637368
 21
-49.171547
 31
0.0
  0
LINE
  8
0
  6
BYLAYER
 62
     1
 10
304.439584
 20
-55.173240
 30
0.0
 11
304.727761
 21
-54.327934
 31
0.0
  0
LINE
  8
0
  6
BYLAYER
 62
     1
 10
305.188821
 20
-52.975441
 30
0.0
 11
305.707528
 21
-51.453880
 31
0.0
  0
LINE
  8
0
  6
BYLAYER
 62
     1
 10
308.919717
 20
-55.173240
 30
0.0
 11
306.637368
 21
-49.171547
 31
0.0
  0
LINE
  8
0
  6
BYLAYER
 62
     1
 10
308.919717
 20
-55.173240
 30
0.0
 11
306.975503
 21
-55.173240
 31
0.0
  0
LINE
  8
0
  6
BYLAYER
 62
     1
 10
306.687326
 20
-54.327934
 30
0.0
 11
304.727761
 21
-54.327934
 31
0.0
  0
LINE
  8
0
  6
BYLAYER
 62
     1
 10
306.226236
 20
-52.975441
 30
0.0
 11
305.188821
 21
-52.975441
 31
0.0
  0
LINE
  8
0
  6
BYLAYER
 62
     1
 10
306.975503
 20
-55.173240
 30
0.0
 11
306.687326
 21
-54.327934
 31
0.0
  0
LINE
  8
0
  6
BYLAYER
 62
     1
 10
306.226236
 20
-52.975441
 30
0.0
 11
305.707528
 21
-51.453880
 31
0.0
  0
LINE
  8
0
  6
BYLAYER
 62
     1
 10
287.364343
 20
-50.650840
 30
0.0
 11
289.054956
 21
-50.650840
 31
0.0
  0
LINE
  8
0
  6
BYLAYER
 62
     1
 10
289.054956
 20
-50.650840
 30
0.0
 11
289.054956
 21
-55.173240
 31
0.0
  0
LINE
  8
0
  6
BYLAYER
 62
     1
 10
289.054956
 20
-55.173240
 30
0.0
 11
290.914651
 21
-55.173240
 31
0.0
  0
LINE
  8
0
  6
BYLAYER
 62
     1
 10
290.914651
 20
-55.173240
 30
0.0
 11
290.914651
 21
-50.650840
 31
0.0
  0
LINE
  8
0
  6
BYLAYER
 62
     1
 10
290.914651
 20
-50.650840
 30
0.0
 11
292.605264
 21
-50.650840
 31
0.0
  0
LINE
  8
0
  6
BYLAYER
 62
     1
 10
292.605264
 20
-50.650840
 30
0.0
 11
292.605264
 21
-49.171547
 31
0.0
  0
LINE
  8
0
  6
BYLAYER
 62
     1
 10
292.605264
 20
-49.171547
 30
0.0
 11
287.364343
 21
-49.171547
 31
0.0
  0
LINE
  8
0
  6
BYLAYER
 62
     1
 10
287.364343
 20
-49.171547
 30
0.0
 11
287.364343
 21
-50.650840
 31
0.0
  0
ARC
  8
0
  6
BYLAYER
 62
     1
 10
295.606103
 20
-52.510874
 30
0.0
 40
2.873701
 50
270.0
 51
308.795693
  0
ARC
  8
0
  6
BYLAYER
 62
     1
 10
295.327975
 20
-52.214668
 30
0.0
 40
3.278967
 50
309.340576
 51
360.000000
  0
ARC
  8
0
  6
BYLAYER
 62
     1
 10
295.327986
 20
-52.214668
 30
0.0
 40
3.278957
 50
0.0
 51
50.659649
  0
ARC
  8
0
  6
BYLAYER
 62
     1
 10
295.606088
 20
-51.918488
 30
0.0
 40
2.873727
 50
51.204489
 51
90.000000
  0
ARC
  8
0
  6
BYLAYER
 62
     1
 10
295.606088
 20
-51.918462
 30
0.0
 40
2.873701
 50
90.0
 51
128.795693
  0
ARC
  8
0
  6
BYLAYER
 62
     1
 10
295.884216
 20
-52.214668
 30
0.0
 40
3.278967
 50
129.340576
 51
180.000000
  0
ARC
  8
0
  6
BYLAYER
 62
     1
 10
295.884205
 20
-52.214668
 30
0.0
 40
3.278957
 50
180.000000
 51
230.659649
  0
ARC
  8
0
  6
BYLAYER
 62
     1
 10
295.606103
 20
-52.510848
 30
0.0
 40
2.873727
 50
231.204489
 51
270.000000
  0
ARC
  8
0
  6
BYLAYER
 62
     1
 10
295.606088
 20
-51.371517
 30
0.0
 40
1.329747
 50
90.0
 51
140.793201
  0
ARC
  8
0
  6
BYLAYER
 62
     1
 10
296.639642
 20
-52.214668
 30
0.0
 40
2.663590
 50
140.793201
 51
180.000000
  0
ARC
  8
0
  6
BYLAYER
 62
     1
 10
296.639609
 20
-52.214668
 30
0.0
 40
2.663556
 50
180.000000
 51
219.207055
  0
ARC
  8
0
  6
BYLAYER
 62
     1
 10
295.606103
 20
-53.057786
 30
0.0
 40
1.329771
 50
219.207055
 51
270.000000
  0
ARC
  8
0
  6
BYLAYER
 62
     1
 10
295.606103
 20
-53.057808
 30
0.0
 40
1.329750
 50
270.0
 51
320.793131
  0
ARC
  8
0
  6
BYLAYER
 62
     1
 10
294.572564
 20
-52.214668
 30
0.0
 40
2.663574
 50
320.793131
 51
360.000000
  0
ARC
  8
0
  6
BYLAYER
 62
     1
 10
294.572566
 20
-52.214668
 30
0.0
 40
2.663572
 50
0.0
 51
39.206985
  0
ARC
  8
0
  6
BYLAYER
 62
     1
 10
295.606088
 20
-51.371538
 30
0.0
 40
1.329768
 50
39.206985
 51
90.0
  0
LINE
  8
0
  6
BYLAYER
 62
     1
 10
309.081704
 20
-55.173240
 30
0.0
 11
309.081704
 21
-49.171547
 31
0.0
  0
LINE
  8
0
  6
BYLAYER
 62
     1
 10
309.081704
 20
-49.171547
 30
0.0
 11
312.801049
 21
-49.171547
 31
0.0
  0
ARC
  8
0
  6
BYLAYER
 62
     1
 10
312.801049
 20
-50.862175
 30
0.0
 40
1.690610
 50
287.134650
 51
450.000006
  0
ARC
  8
0
  6
BYLAYER
 62
     1
 10
313.139184
 20
-53.820747
 30
0.0
 40
1.352493
 50
0.0
 51
83.207557
  0
LINE
  8
0
  6
BYLAYER
 62
     1
 10
314.491677
 20
-53.820747
 30
0.0
 11
314.491677
 21
-54.666053
 31
0.0
  0
ARC
  8
0
  6
BYLAYER
 62
     1
 10
315.844171
 20
-54.666053
 30
0.0
 40
1.352493
 50
180.000000
 51
202.024314
  0
LINE
  8
0
  6
BYLAYER
 62
     1
 10
312.730691
 20
-55.173240
 30
0.0
 11
314.590371
 21
-55.173240
 31
0.0
  0
ARC
  8
0
  6
BYLAYER
 62
     1
 10
313.984491
 20
-54.666053
 30
0.0
 40
1.352493
 50
180.000000
 51
202.024314
  0
LINE
  8
0
  6
BYLAYER
 62
     1
 10
312.631997
 20
-54.666053
 30
0.0
 11
312.631997
 21
-53.989814
 31
0.0
  0
LINE
  8
0
  6
BYLAYER
 62
     1
 10
309.081704
 20
-55.173240
 30
0.0
 11
310.856851
 21
-55.173240
 31
0.0
  0
LINE
  8
0
  6
BYLAYER
 62
     1
 10
310.856851
 20
-55.173240
 30
0.0
 11
310.856851
 21
-53.144508
 31
0.0
  0
LINE
  8
0
  6
BYLAYER
 62
     1
 10
311.786691
 20
-53.144508
 30
0.0
 11
310.856851
 21
-53.144508
 31
0.0
  0
ARC
  8
0
  6
BYLAYER
 62
     1
 10
311.786691
 20
-53.989814
 30
0.0
 40
0.845306
 50
0.0
 51
90.000003
  0
LINE
  8
0
  6
BYLAYER
 62
     1
 10
310.856851
 20
-51.792015
 30
0.0
 11
310.856851
 21
-50.524040
 31
0.0
  0
LINE
  8
0
  6
BYLAYER
 62
     1
 10
310.856851
 20
-50.524040
 30
0.0
 11
312.040277
 21
-50.524040
 31
0.0
  0
LINE
  8
0
  6
BYLAYER
 62
     1
 10
310.856851
 20
-51.792015
 30
0.0
 11
312.040277
 21
-51.792015
 31
0.0
  0
ARC
  8
0
  6
BYLAYER
 62
     1
 10
312.040277
 20
-51.158027
 30
0.0
 40
0.633987
 50
270.0
 51
450.000005
  0
LINE
  8
0
  6
BYLAYER
 62
     1
 10
301.016092
 20
-53.275444
 30
0.0
 11
299.917184
 21
-49.171547
 31
0.0
  0
LINE
  8
0
  6
BYLAYER
 62
     1
 10
299.917184
 20
-49.171547
 30
0.0
 11
298.142038
 21
-49.171547
 31
0.0
  0
LINE
  8
0
  6
BYLAYER
 62
     1
 10
298.142038
 20
-49.171547
 30
0.0
 11
300.001718
 21
-55.173240
 31
0.0
  0
LINE
  8
0
  6
BYLAYER
 62
     1
 10
301.016092
 20
-53.275444
 30
0.0
 11
302.114968
 21
-49.171547
 31
0.0
  0
LINE
  8
0
  6
BYLAYER
 62
     1
 10
302.114968
 20
-49.171547
 30
0.0
 11
303.890115
 21
-49.171547
 31
0.0
  0
LINE
  8
0
  6
BYLAYER
 62
     1
 10
303.890115
 20
-49.171547
 30
0.0
 11
302.030435
 21
-55.173240
 31
0.0
  0
LINE
  8
0
  6
BYLAYER
 62
     1
 10
302.030435
 20
-55.173240
 30
0.0
 11
300.001718
 21
-55.173240
 31
0.0
  0
LINE
  8
0
  6
BYLAYER
 62
     1
 10
314.752359
 20
-55.173240
 30
0.0
 11
316.527505
 21
-55.173240
 31
0.0
  0
LINE
  8
0
  6
BYLAYER
 62
     1
 10
316.527505
 20
-55.173240
 30
0.0
 11
316.527505
 21
-49.171547
 31
0.0
  0
LINE
  8
0
  6
BYLAYER
 62
     1
 10
316.527505
 20
-49.171547
 30
0.0
 11
314.752359
 21
-49.171547
 31
0.0
  0
LINE
  8
0
  6
BYLAYER
 62
     1
 10
314.752359
 20
-49.171547
 30
0.0
 11
314.752359
 21
-55.173240
 31
0.0
  0
ARC
  8
0
  6
BYLAYER
 62
     1
 10
319.866479
 20
-52.510874
 30
0.0
 40
2.873701
 50
270.0
 51
308.795693
  0
ARC
  8
0
  6
BYLAYER
 62
     1
 10
319.588351
 20
-52.214668
 30
0.0
 40
3.278967
 50
309.340576
 51
360.000000
  0
ARC
  8
0
  6
BYLAYER
 62
     1
 10
319.588351
 20
-52.214668
 30
0.0
 40
3.278967
 50
0.0
 51
50.659424
  0
ARC
  8
0
  6
BYLAYER
 62
     1
 10
319.866479
 20
-51.918462
 30
0.0
 40
2.873701
 50
51.204307
 51
90.000000
  0
ARC
  8
0
  6
BYLAYER
 62
     1
 10
319.866479
 20
-51.918462
 30
0.0
 40
2.873701
 50
90.0
 51
128.795693
  0
ARC
  8
0
  6
BYLAYER
 62
     1
 10
320.144607
 20
-52.214668
 30
0.0
 40
3.278967
 50
129.340576
 51
180.000000
  0
ARC
  8
0
  6
BYLAYER
 62
     1
 10
320.144607
 20
-52.214668
 30
0.0
 40
3.278967
 50
180.000000
 51
230.659424
  0
ARC
  8
0
  6
BYLAYER
 62
     1
 10
319.866479
 20
-52.510874
 30
0.0
 40
2.873701
 50
231.204307
 51
270.0
  0
ARC
  8
0
  6
BYLAYER
 62
     1
 10
319.866479
 20
-51.371517
 30
0.0
 40
1.329747
 50
39.206799
 51
90.0
  0
ARC
  8
0
  6
BYLAYER
 62
     1
 10
318.832924
 20
-52.214668
 30
0.0
 40
2.663590
 50
0.0
 51
39.206799
  0
ARC
  8
0
  6
BYLAYER
 62
     1
 10
318.832940
 20
-52.214668
 30
0.0
 40
2.663574
 50
320.793131
 51
360.0
  0
ARC
  8
0
  6
BYLAYER
 62
     1
 10
319.866479
 20
-53.057808
 30
0.0
 40
1.329750
 50
270.0
 51
320.793131
  0
ARC
  8
0
  6
BYLAYER
 62
     1
 10
319.866479
 20
-53.057808
 30
0.0
 40
1.329750
 50
219.206869
 51
270.000000
  0
ARC
  8
0
  6
BYLAYER
 62
     1
 10
320.900018
 20
-52.214668
 30
0.0
 40
2.663574
 50
180.000000
 51
219.206869
  0
ARC
  8
0
  6
BYLAYER
 62
     1
 10
320.900034
 20
-52.214668
 30
0.0
 40
2.663590
 50
140.793201
 51
180.000000
  0
ARC
  8
0
  6
BYLAYER
 62
     1
 10
319.866479
 20
-51.371517
 30
0.0
 40
1.329747
 50
90.0
 51
140.793201
  0
ARC
  8
0
  6
BYLAYER
 62
     1
 10
289.894616
 20
-42.300819
 30
0.0
 40
7.429995
 50
174.535650
 51
180.0
  0
LINE
  8
0
  6
BYLAYER
 62
     1
 10
282.498384
 20
-41.593284
 30
0.0
 11
282.498384
 21
-41.593277
 31
0.0
  0
LINE
  8
0
  6
BYLAYER
 62
     1
 10
282.506469
 20
-41.513354
 30
0.0
 11
283.215571
 21
-41.214811
 31
0.0
  0
ARC
  8
0
  6
BYLAYER
 62
     1
 10
289.894647
 20
-42.300880
 30
0.0
 40
6.766781
 50
159.235383
 51
170.763998
  0
LINE
  8
0
  6
BYLAYER
 62
     1
 10
283.567372
 20
-39.901815
 30
0.0
 11
283.102573
 21
-39.288701
 31
0.0
  0
ARC
  8
0
  6
BYLAYER
 62
     1
 10
289.894616
 20
-42.300819
 30
0.0
 40
7.429986
 50
144.139514
 51
156.083795
  0
LINE
  8
0
  6
BYLAYER
 62
     1
 10
283.824151
 20
-38.016624
 30
0.0
 11
283.824594
 21
-38.015998
 31
0.0
  0
LINE
  8
0
  6
BYLAYER
 62
     1
 10
283.873015
 20
-37.948232
 30
0.0
 11
284.627940
 21
-38.052096
 31
0.0
  0
ARC
  8
0
  6
BYLAYER
 62
     1
 10
289.894616
 20
-42.300819
 30
0.0
 40
6.766741
 50
129.235643
 51
141.105976
  0
LINE
  8
0
  6
BYLAYER
 62
     1
 10
285.503930
 20
-37.151962
 30
0.0
 11
285.504663
 21
-37.151329
 31
0.0
  0
LINE
  8
0
  6
BYLAYER
 62
     1
 10
285.614577
 20
-37.059632
 30
0.0
 11
285.518583
 21
-36.296226
 31
0.0
  0
ARC
  8
0
  6
BYLAYER
 62
     1
 10
289.894616
 20
-42.300819
 30
0.0
 40
7.429994
 50
114.139607
 51
126.083853
  0
LINE
  8
0
  6
BYLAYER
 62
     1
 10
286.780069
 20
-35.555122
 30
0.0
 11
286.780572
 21
-35.554886
 31
0.0
  0
LINE
  8
0
  6
BYLAYER
 62
     1
 10
286.856036
 20
-35.520565
 30
0.0
 11
287.457865
 21
-35.987960
 31
0.0
  0
LINE
  8
0
  6
BYLAYER
 62
     1
 10
287.595468
 20
-35.936638
 30
0.0
 11
287.596231
 21
-35.936370
 31
0.0
  0
ARC
  8
0
  6
BYLAYER
 62
     1
 10
289.894616
 20
-42.300819
 30
0.0
 40
6.766738
 50
99.235601
 51
111.106038
  0
ARC
  8
0
  6
BYLAYER
 62
     1
 10
289.894616
 20
-42.300819
 30
0.0
 40
7.429995
 50
90.0
 51
96.083892
  0
LINE
  8
0
  6
BYLAYER
 62
     1
 10
289.107152
 20
-34.912671
 30
0.0
 11
288.808592
 21
-35.621800
 31
0.0
  0
LINE
  8
0
  6
BYLAYER
 62
     1
 10
297.290841
 20
-41.593284
 30
0.0
 11
297.290841
 21
-41.593277
 31
0.0
  0
LINE
  8
0
  6
BYLAYER
 62
     1
 10
297.282764
 20
-41.513353
 30
0.0
 11
296.573625
 21
-41.214804
 31
0.0
  0
ARC
  8
0
  6
BYLAYER
 62
     1
 10
289.894571
 20
-42.300880
 30
0.0
 40
6.766781
 50
9.235986
 51
20.764650
  0
LINE
  8
0
  6
BYLAYER
 62
     1
 10
296.221894
 20
-39.901744
 30
0.0
 11
296.686660
 21
-39.288703
 31
0.0
  0
ARC
  8
0
  6
BYLAYER
 62
     1
 10
289.894616
 20
-42.300819
 30
0.0
 40
7.429986
 50
23.916189
 51
35.860484
  0
LINE
  8
0
  6
BYLAYER
 62
     1
 10
295.965066
 20
-38.016624
 30
0.0
 11
295.964624
 21
-38.015998
 31
0.0
  0
LINE
  8
0
  6
BYLAYER
 62
     1
 10
295.916218
 20
-37.948232
 30
0.0
 11
295.161346
 21
-38.052086
 31
0.0
  0
ARC
  8
0
  6
BYLAYER
 62
     1
 10
289.894616
 20
-42.300819
 30
0.0
 40
6.766741
 50
38.894050
 51
50.764315
  0
LINE
  8
0
  6
BYLAYER
 62
     1
 10
294.285302
 20
-37.151962
 30
0.0
 11
294.284570
 21
-37.151329
 31
0.0
  0
LINE
  8
0
  6
BYLAYER
 62
     1
 10
294.174676
 20
-37.059510
 30
0.0
 11
294.270634
 21
-36.296214
 31
0.0
  0
ARC
  8
0
  6
BYLAYER
 62
     1
 10
289.894616
 20
-42.300819
 30
0.0
 40
7.429994
 50
53.916300
 51
65.860381
  0
LINE
  8
0
  6
BYLAYER
 62
     1
 10
293.009164
 20
-35.555122
 30
0.0
 11
293.008645
 21
-35.554886
 31
0.0
  0
LINE
  8
0
  6
BYLAYER
 62
     1
 10
292.933198
 20
-35.520566
 30
0.0
 11
292.331375
 21
-35.987939
 31
0.0
  0
LINE
  8
0
  6
BYLAYER
 62
     1
 10
292.193750
 20
-35.936638
 30
0.0
 11
292.193002
 21
-35.936370
 31
0.0
  0
ARC
  8
0
  6
BYLAYER
 62
     1
 10
289.894616
 20
-42.300819
 30
0.0
 40
6.766738
 50
68.894081
 51
80.764578
  0
ARC
  8
0
  6
BYLAYER
 62
     1
 10
289.894616
 20
-42.300819
 30
0.0
 40
7.429995
 50
84.535428
 51
90.000003
  0
LINE
  8
0
  6
BYLAYER
 62
     1
 10
290.682083
 20
-34.912672
 30
0.0
 11
290.980570
 21
-35.621679
 31
0.0
  0
ARC
  8
0
  6
BYLAYER
 62
     1
 10
289.894616
 20
-42.300819
 30
0.0
 40
7.429995
 50
180.000000
 51
186.083899
  0
LINE
  8
0
  6
BYLAYER
 62
     1
 10
282.498384
 20
-43.008346
 30
0.0
 11
282.498384
 21
-43.008361
 31
0.0
  0
LINE
  8
0
  6
BYLAYER
 62
     1
 10
282.506469
 20
-43.088284
 30
0.0
 11
283.215593
 21
-43.386836
 31
0.0
  0
ARC
  8
0
  6
BYLAYER
 62
     1
 10
289.894647
 20
-42.300758
 30
0.0
 40
6.766781
 50
189.236002
 51
200.764629
  0
LINE
  8
0
  6
BYLAYER
 62
     1
 10
283.567397
 20
-44.699793
 30
0.0
 11
283.102571
 21
-45.312931
 31
0.0
  0
ARC
  8
0
  6
BYLAYER
 62
     1
 10
289.894616
 20
-42.300819
 30
0.0
 40
7.429986
 50
203.916158
 51
215.860410
  0
LINE
  8
0
  6
BYLAYER
 62
     1
 10
283.824151
 20
-46.585006
 30
0.0
 11
283.824594
 21
-46.585632
 31
0.0
  0
LINE
  8
0
  6
BYLAYER
 62
     1
 10
283.873009
 20
-46.653398
 30
0.0
 11
284.628005
 21
-46.549535
 31
0.0
  0
ARC
  8
0
  6
BYLAYER
 62
     1
 10
289.894616
 20
-42.300819
 30
0.0
 40
6.766741
 50
218.894045
 51
230.764345
  0
LINE
  8
0
  6
BYLAYER
 62
     1
 10
285.503930
 20
-47.449669
 30
0.0
 11
285.504663
 21
-47.450302
 31
0.0
  0
LINE
  8
0
  6
BYLAYER
 62
     1
 10
285.614575
 20
-47.542005
 30
0.0
 11
285.518583
 21
-48.305413
 31
0.0
  0
ARC
  8
0
  6
BYLAYER
 62
     1
 10
289.894616
 20
-42.300819
 30
0.0
 40
7.429994
 50
233.916148
 51
245.860401
  0
LINE
  8
0
  6
BYLAYER
 62
     1
 10
286.780069
 20
-49.046508
 30
0.0
 11
286.780572
 21
-49.046753
 31
0.0
  0
LINE
  8
0
  6
BYLAYER
 62
     1
 10
286.856037
 20
-49.081073
 30
0.0
 11
287.457936
 21
-48.613613
 31
0.0
  0
LINE
  8
0
  6
BYLAYER
 62
     1
 10
287.595468
 20
-48.664993
 30
0.0
 11
287.596231
 21
-48.665268
 31
0.0
  0
LINE
  8
0
  6
BYLAYER
 62
     1
 10
297.290841
 20
-43.008346
 30
0.0
 11
297.290841
 21
-43.008361
 31
0.0
  0
LINE
  8
0
  6
BYLAYER
 62
     1
 10
297.282763
 20
-43.088286
 30
0.0
 11
296.573625
 21
-43.386834
 31
0.0
  0
LINE
  8
0
  6
BYLAYER
 62
     1
 10
296.221829
 20
-44.699810
 30
0.0
 11
296.686668
 21
-45.312936
 31
0.0
  0
LINE
  8
0
  6
BYLAYER
 62
     1
 10
295.965066
 20
-46.585006
 30
0.0
 11
295.964624
 21
-46.585632
 31
0.0
  0
LINE
  8
0
  6
BYLAYER
 62
     1
 10
295.916232
 20
-46.653399
 30
0.0
 11
295.161187
 21
-46.549532
 31
0.0
  0
LINE
  8
0
  6
BYLAYER
 62
     1
 10
294.285302
 20
-47.449669
 30
0.0
 11
294.284570
 21
-47.450302
 31
0.0
  0
LINE
  8
0
  6
BYLAYER
 62
     1
 10
294.174661
 20
-47.542002
 30
0.0
 11
294.270634
 21
-48.305424
 31
0.0
  0
LINE
  8
0
  6
BYLAYER
 62
     1
 10
292.933197
 20
-49.081072
 30
0.0
 11
292.331283
 21
-48.613618
 31
0.0
  0
ARC
  8
0
  6
BYLAYER
 62
     1
 10
289.894616
 20
-42.300819
 30
0.0
 40
6.766741
 50
309.235697
 51
321.105929
  0
ARC
  8
0
  6
BYLAYER
 62
     1
 10
289.894616
 20
-42.300819
 30
0.0
 40
6.766738
 50
248.893873
 51
270.0
  0
ARC
  8
0
  6
BYLAYER
 62
     1
 10
289.894616
 20
-42.300819
 30
0.0
 40
7.429994
 50
294.783232
 51
306.083699
  0
LINE
  8
0
  6
BYLAYER
 62
     1
 10
293.008645
 20
-49.046753
 30
0.0
 11
292.933655
 21
-49.082042
 31
0.0
  0
ARC
  8
0
  6
BYLAYER
 62
     1
 10
289.894616
 20
-42.300819
 30
0.0
 40
7.429986
 50
324.139593
 51
336.083825
  0
ARC
  8
0
  6
BYLAYER
 62
     1
 10
289.894571
 20
-42.300758
 30
0.0
 40
6.766781
 50
339.235210
 51
350.764014
  0
ARC
  8
0
  6
BYLAYER
 62
     1
 10
289.894616
 20
-42.300819
 30
0.0
 40
7.429995
 50
353.916089
 51
360.000000
  0
ARC
  8
0
  6
BYLAYER
 62
     1
 10
289.894616
 20
-42.300819
 30
0.0
 40
7.429995
 50
0.0
 51
6.083907
  0
ARC
  8
0
  6
BYLAYER
 62
     1
 10
289.894616
 20
-42.300819
 30
0.0
 40
6.766738
 50
270.0
 51
291.106008
  0
CIRCLE
  8
0
  6
BYLAYER
 62
     1
 10
289.894616
 20
-42.300819
 30
0.0
 40
3.630081
  0
CIRCLE
  8
0
  6
BYLAYER
 62
     1
 10
289.894616
 20
-42.300819
 30
0.0
 40
5.296032
  0
LINE
  8
0
  6
BYLAYER
 62
     1
 10
299.303754
 20
-156.580205
 30
0.0
 11
294.303754
 21
-156.580205
 31
0.0
  0
LINE
  8
0
  6
BYLAYER
 62
     1
 10
299.303754
 20
-156.580205
 30
0.0
 11
299.303754
 21
-161.580205
 31
0.0
  0
LINE
  8
0
  6
BYLAYER
 62
     1
 10
299.303754
 20
-156.580205
 30
0.0
 11
304.303754
 21
-156.580205
 31
0.0
  0
LINE
  8
0
  6
BYLAYER
 62
     1
 10
476.803840
 20
-36.580444
 30
0.0
 11
481.803816
 21
-36.580383
 31
0.0
  0
LINE
  8
0
  6
BYLAYER
 62
     1
 10
481.803816
 20
-196.580246
 30
0.0
 11
481.803816
 21
-36.580383
 31
0.0
  0
LINE
  8
0
  6
BYLAYER
 62
     1
 10
471.803816
 20
-194.580246
 30
0.0
 11
471.803816
 21
-148.299466
 31
0.0
  0
LINE
  8
0
  6
BYLAYER
 62
     1
 10
471.803816
 20
-114.668530
 30
0.0
 11
471.803816
 21
-79.102403
 31
0.0
  0
ARC
  8
0
  6
BYLAYER
 62
     1
 10
470.803816
 20
-114.668530
 30
0.0
 40
1.0
 50
333.429193
 51
360.000000
  0
LINE
  8
0
  6
BYLAYER
 62
     1
 10
471.803816
 20
-62.542269
 30
0.0
 11
471.803816
 21
-48.940140
 31
0.0
  0
ARC
  8
0
  6
BYLAYER
 62
     1
 10
473.803816
 20
-48.940140
 30
0.0
 40
2.000000
 50
90.0
 51
180.0
  0
ARC
  8
0
  6
BYLAYER
 62
     1
 10
473.803816
 20
-194.580246
 30
0.0
 40
2.000000
 50
180.000000
 51
270.000000
  0
LINE
  8
0
  6
BYLAYER
 62
     1
 10
447.803816
 20
-128.892891
 30
0.0
 11
447.803816
 21
-1.080230
 31
0.0
  0
ARC
  8
0
  6
BYLAYER
 62
     1
 10
445.803816
 20
-128.892891
 30
0.0
 40
2.000000
 50
270.0
 51
360.0
  0
ARC
  8
0
  6
BYLAYER
 62
     1
 10
445.803816
 20
-1.080230
 30
0.0
 40
2.000000
 50
0.0
 51
90.0
  0
LINE
  8
0
  6
BYLAYER
 62
     1
 10
466.071765
 20
-141.580230
 30
0.0
 11
445.803816
 21
-141.580230
 31
0.0
  0
ARC
  8
0
  6
BYLAYER
 62
     1
 10
445.803816
 20
-136.580230
 30
0.0
 40
5.000000
 50
180.000000
 51
270.000000
  0
LINE
  8
0
  6
BYLAYER
 62
     1
 10
445.803816
 20
0.919770
 30
0.0
 11
439.803816
 21
0.919770
 31
0.0
  0
LINE
  8
0
  6
BYLAYER
 62
     1
 10
469.965816
 20
-143.519061
 30
0.0
 11
467.071766
 21
-141.848180
 31
0.0
  0
ARC
  8
0
  6
BYLAYER
 62
     1
 10
468.965816
 20
-145.251111
 30
0.0
 40
2.0
 50
0.0
 51
59.999998
  0
ARC
  8
0
  6
BYLAYER
 62
     1
 10
466.071765
 20
-143.580230
 30
0.0
 40
2.000000
 50
59.999998
 51
90.000000
  0
LINE
  8
0
  6
BYLAYER
 62
     1
 10
474.803816
 20
-44.940140
 30
0.0
 11
474.803816
 21
-27.080230
 31
0.0
  0
ARC
  8
0
  6
BYLAYER
 62
     1
 10
469.803816
 20
-27.080230
 30
0.0
 40
5.0
 50
0.0
 51
90.0
  0
ARC
  8
0
  6
BYLAYER
 62
     1
 10
476.803816
 20
-44.940140
 30
0.0
 40
2.000000
 50
180.000000
 51
270.000000
  0
ARC
  8
0
  6
BYLAYER
 62
     1
 10
476.803816
 20
-34.580444
 30
0.0
 40
2.0
 50
180.000000
 51
270.000699
  0
LINE
  8
0
  6
BYLAYER
 62
     1
 10
481.803816
 20
-196.580246
 30
0.0
 11
473.803816
 21
-196.580246
 31
0.0
  0
ARC
  8
0
  6
BYLAYER
 62
     1
 10
439.803816
 20
-135.080230
 30
0.0
 40
1.0
 50
0.0
 51
90.0
  0
ARC
  8
0
  6
BYLAYER
 62
     1
 10
445.263567
 20
-143.559352
 30
0.0
 40
2.000000
 50
15.000000
 51
85.573604
  0
LINE
  8
0
  6
BYLAYER
 62
     1
 10
447.195419
 20
-143.041713
 30
0.0
 11
454.693578
 21
-171.025222
 31
0.0
  0
LINE
  8
0
  6
BYLAYER
 62
     1
 10
470.803816
 20
-181.002880
 30
0.0
 11
455.625429
 21
-172.239635
 31
0.0
  0
ARC
  8
0
  6
BYLAYER
 62
     1
 10
456.625429
 20
-170.507584
 30
0.0
 40
2.000000
 50
195.000000
 51
240.000002
  0
ARC
  8
0
  6
BYLAYER
 62
     1
 10
469.803816
 20
-182.734931
 30
0.0
 40
2.0
 50
0.0
 51
60.000002
  0
LINE
  8
0
  6
BYLAYER
 62
     1
 10
440.803816
 20
-136.580230
 30
0.0
 11
440.803816
 21
-131.892891
 31
0.0
  0
ARC
  8
0
  6
BYLAYER
 62
     1
 10
439.803816
 20
-131.892891
 30
0.0
 40
1.0
 50
0.0
 51
90.0
  0
LINE
  8
0
  6
BYLAYER
 62
     1
 10
450.803816
 20
-22.080230
 30
0.0
 11
469.803816
 21
-22.080230
 31
0.0
  0
ARC
  8
0
  6
BYLAYER
 62
     1
 10
450.803816
 20
-19.080230
 30
0.0
 40
3.0
 50
180.000000
 51
270.000000
  0
LINE
  8
0
  6
BYLAYER
 62
     1
 10
470.965816
 20
-146.312253
 30
0.0
 11
470.965816
 21
-116.816351
 31
0.0
  0
LINE
  8
0
  6
BYLAYER
 62
     1
 10
471.669810
 20
-147.799412
 30
0.0
 11
471.099822
 21
-146.812308
 31
0.0
  0
ARC
  8
0
  6
BYLAYER
 62
     1
 10
470.803816
 20
-148.299466
 30
0.0
 40
1.000000
 50
0.0
 51
30.003615
  0
ARC
  8
0
  6
BYLAYER
 62
     1
 10
471.965816
 20
-146.312253
 30
0.0
 40
1.0
 50
180.000000
 51
210.003615
  0
LINE
  8
0
  6
BYLAYER
 62
     1
 10
471.698198
 20
-115.115834
 30
0.0
 11
471.071434
 21
-116.369048
 31
0.0
  0
ARC
  8
0
  6
BYLAYER
 62
     1
 10
471.965816
 20
-116.816351
 30
0.0
 40
1.0
 50
153.429193
 51
180.000000
  0
LINE
  8
0
  6
BYLAYER
 62
     1
 10
481.803816
 20
-66.086772
 30
0.0
 11
476.659873
 21
-66.086772
 31
0.0
  0
LINE
  8
0
  6
BYLAYER
 62
     1
 10
481.803816
 20
-75.262392
 30
0.0
 11
476.659873
 21
-75.262392
 31
0.0
  0
LINE
  8
0
  6
BYLAYER
 62
     1
 10
476.659873
 20
-62.542269
 30
0.0
 11
471.803816
 21
-62.542269
 31
0.0
  0
LINE
  8
0
  6
BYLAYER
 62
     1
 10
476.659873
 20
-79.102403
 30
0.0
 11
471.803816
 21
-79.102403
 31
0.0
  0
LINE
  8
0
  6
BYLAYER
 62
     1
 10
476.659873
 20
-66.086772
 30
0.0
 11
476.659873
 21
-62.542269
 31
0.0
  0
LINE
  8
0
  6
BYLAYER
 62
     1
 10
476.659873
 20
-75.262392
 30
0.0
 11
476.659873
 21
-79.102403
 31
0.0
  0
LINE
  8
0
  6
BYLAYER
 62
     1
 10
471.803816
 20
-62.542269
 30
0.0
 11
471.576398
 21
-62.997243
 31
0.0
  0
LINE
  8
0
  6
BYLAYER
 62
     1
 10
471.803816
 20
-79.102403
 30
0.0
 11
471.576398
 21
-78.239290
 31
0.0
  0
LINE
  8
0
  6
BYLAYER
 62
     1
 10
471.540997
 20
-64.168193
 30
0.0
 11
468.594686
 21
-64.168193
 31
0.0
  0
LINE
  8
0
  6
BYLAYER
 62
     1
 10
471.540997
 20
-76.458112
 30
0.0
 11
468.594686
 21
-76.458112
 31
0.0
  0
LINE
  8
0
  6
BYLAYER
 62
     1
 10
471.576398
 20
-78.239290
 30
0.0
 11
471.540997
 21
-76.458112
 31
0.0
  0
LINE
  8
0
  6
BYLAYER
 62
     1
 10
471.576398
 20
-62.997243
 30
0.0
 11
471.540997
 21
-64.168193
 31
0.0
  0
LINE
  8
0
  6
BYLAYER
 62
     1
 10
449.934727
 20
-90.330230
 30
0.0
 11
469.454717
 21
-90.330230
 31
0.0
  0
ARC
  8
0
  6
BYLAYER
 62
     1
 10
469.454717
 20
-88.330230
 30
0.0
 40
2.000000
 50
270.0
 51
360.0
  0
LINE
  8
0
  6
BYLAYER
 62
     1
 10
449.934727
 20
-92.830230
 30
0.0
 11
469.454717
 21
-92.830230
 31
0.0
  0
ARC
  8
0
  6
BYLAYER
 62
     1
 10
449.934727
 20
-94.830230
 30
0.0
 40
2.000000
 50
90.0
 51
180.0
  0
ARC
  8
0
  6
BYLAYER
 62
     1
 10
469.454717
 20
-94.830230
 30
0.0
 40
2.000000
 50
0.0
 51
90.0
  0
ARC
  8
0
  6
BYLAYER
 62
     1
 10
449.934727
 20
-88.330230
 30
0.0
 40
2.000000
 50
180.000000
 51
270.000000
  0
LINE
  8
0
  6
BYLAYER
 62
     1
 10
428.803693
 20
-66.580205
 30
0.0
 11
428.803877
 21
-126.580129
 31
0.0
  0
LINE
  8
0
  6
BYLAYER
 62
     1
 10
429.803870
 20
-66.580205
 30
0.0
 11
429.803870
 21
-131.799622
 31
0.0
  0
LINE
  8
0
  6
BYLAYER
 62
     1
 10
431.734071
 20
-133.798403
 30
0.0
 11
439.803816
 21
-134.080205
 31
0.0
  0
ARC
  8
0
  6
BYLAYER
 62
     1
 10
431.803870
 20
-131.799622
 30
0.0
 40
2.000000
 50
180.000000
 51
268.000000
  0
LINE
  8
0
  6
BYLAYER
 62
     1
 10
428.803877
 20
-126.580129
 30
0.0
 11
428.838770
 21
-126.581347
 31
0.0
  0
ARC
  8
0
  6
BYLAYER
 62
     1
 10
428.803870
 20
-127.580738
 30
0.0
 40
1.000000
 50
0.0
 51
88.0
  0
LINE
  8
0
  6
BYLAYER
 62
     1
 10
439.803816
 20
0.919795
 30
0.0
 11
431.734071
 21
0.637993
 31
0.0
  0
ARC
  8
0
  6
BYLAYER
 62
     1
 10
431.803870
 20
-1.360788
 30
0.0
 40
2.0
 50
92.000000
 51
180.000000
  0
LINE
  8
0
  6
BYLAYER
 62
     1
 10
428.803877
 20
-6.925869
 30
0.0
 11
428.803691
 21
-66.580205
 31
0.0
  0
LINE
  8
0
  6
BYLAYER
 62
     1
 10
428.838770
 20
-6.924651
 30
0.0
 11
428.803877
 21
-6.925869
 31
0.0
  0
ARC
  8
0
  6
BYLAYER
 62
     1
 10
428.803870
 20
-5.925260
 30
0.0
 40
1.000000
 50
272.000000
 51
360.000000
  0
LINE
  8
0
  6
BYLAYER
 62
     1
 10
429.803870
 20
-1.360788
 30
0.0
 11
429.803870
 21
-66.580205
 31
0.0
  0
LINE
  8
0
  6
BYLAYER
 62
     1
 10
439.803816
 20
-134.080205
 30
0.0
 11
439.803816
 21
-66.580205
 31
0.0
  0
LINE
  8
0
  6
BYLAYER
 62
     1
 10
439.803816
 20
-66.580205
 30
0.0
 11
439.803816
 21
0.919795
 31
0.0
  0
LINE
  8
0
  6
BYLAYER
 62
     1
 10
445.803816
 20
-130.892891
 30
0.0
 11
439.803816
 21
-130.892891
 31
0.0
  0
LINE
  8
0
  6
BYLAYER
 62
     1
 10
428.803693
 20
-6.580207
 30
0.0
 11
428.803693
 21
-66.580205
 31
0.0
  0
ARC
  8
0
  6
BYLAYER
 62
     1
 10
416.803693
 20
-23.113011
 30
0.0
 40
1.999988
 50
281.000195
 51
360.000000
  0
LINE
  8
0
  6
BYLAYER
 62
     1
 10
418.803693
 20
-9.002202
 30
0.0
 11
418.803693
 21
-66.580205
 31
0.0
  0
LINE
  8
0
  6
BYLAYER
 62
     1
 10
404.303693
 20
-27.580190
 30
0.0
 11
417.185315
 21
-25.076253
 31
0.0
  0
LINE
  8
0
  6
BYLAYER
 62
     1
 10
418.803693
 20
-9.002202
 30
0.0
 11
405.470807
 21
-27.353322
 31
0.0
  0
LINE
  8
0
  6
BYLAYER
 62
     1
 10
404.303693
 20
-27.580190
 30
0.0
 11
404.303693
 21
-66.580205
 31
0.0
  0
LINE
  8
0
  6
BYLAYER
 62
     1
 10
420.699018
 20
-7.004949
 30
0.0
 11
428.803693
 21
-6.580207
 31
0.0
  0
ARC
  8
0
  6
BYLAYER
 62
     1
 10
420.803693
 20
-9.002202
 30
0.0
 40
2.0
 50
93.000097
 51
180.000000
  0
LINE
  8
0
  6
BYLAYER
 62
     1
 10
428.803693
 20
-126.580203
 30
0.0
 11
428.803693
 21
-66.580205
 31
0.0
  0
ARC
  8
0
  6
BYLAYER
 62
     1
 10
416.803693
 20
-110.047399
 30
0.0
 40
1.999988
 50
0.0
 51
78.999805
  0
LINE
  8
0
  6
BYLAYER
 62
     1
 10
418.803693
 20
-124.158208
 30
0.0
 11
418.803693
 21
-66.580205
 31
0.0
  0
LINE
  8
0
  6
BYLAYER
 62
     1
 10
404.303693
 20
-105.580220
 30
0.0
 11
417.185315
 21
-108.084157
 31
0.0
  0
LINE
  8
0
  6
BYLAYER
 62
     1
 10
418.803693
 20
-124.158208
 30
0.0
 11
405.470807
 21
-105.807088
 31
0.0
  0
LINE
  8
0
  6
BYLAYER
 62
     1
 10
404.303693
 20
-105.580220
 30
0.0
 11
404.303693
 21
-66.580205
 31
0.0
  0
LINE
  8
0
  6
BYLAYER
 62
     1
 10
420.699018
 20
-126.155461
 30
0.0
 11
428.803693
 21
-126.580203
 31
0.0
  0
ARC
  8
0
  6
BYLAYER
 62
     1
 10
420.803693
 20
-124.158208
 30
0.0
 40
2.0
 50
180.000000
 51
266.999903
  0
LINE
  8
0
  6
BYLAYER
 62
     1
 10
299.303754
 20
-156.580205
 30
0.0
 11
299.303754
 21
-150.954532
 31
0.0
  0
LINE
  8
0
  6
BYLAYER
 62
     1
 10
934.303876
 20
-21.580205
 30
0.0
 11
948.992225
 21
-21.580205
 31
0.0
  0
LINE
  8
0
  6
BYLAYER
 62
     1
 10
934.303876
 20
-48.379495
 30
0.0
 11
934.303876
 21
-21.580205
 31
0.0
  0
LINE
  8
0
  6
BYLAYER
 62
     1
 10
1064.303754
 20
-21.580205
 30
0.0
 11
1049.615283
 21
-21.580205
 31
0.0
  0
LINE
  8
0
  6
BYLAYER
 62
     1
 10
1064.303754
 20
-48.379930
 30
0.0
 11
1064.303754
 21
-21.580205
 31
0.0
  0
LINE
  8
0
  6
BYLAYER
 62
     1
 10
934.303876
 20
-259.580205
 30
0.0
 11
962.303754
 21
-259.580205
 31
0.0
  0
LINE
  8
0
  6
BYLAYER
 62
     1
 10
934.303876
 20
-209.580205
 30
0.0
 11
934.303876
 21
-259.580205
 31
0.0
  0
LINE
  8
0
  6
BYLAYER
 62
     1
 10
934.303876
 20
-209.580205
 30
0.0
 11
935.803876
 21
-208.080205
 31
0.0
  0
LINE
  8
0
  6
BYLAYER
 62
     1
 10
935.803876
 20
-165.239865
 30
0.0
 11
935.803876
 21
-208.080205
 31
0.0
  0
LINE
  8
0
  6
BYLAYER
 62
     1
 10
1064.303754
 20
-259.580205
 30
0.0
 11
1036.303754
 21
-259.580205
 31
0.0
  0
LINE
  8
0
  6
BYLAYER
 62
     1
 10
1064.303754
 20
-209.580205
 30
0.0
 11
1062.803754
 21
-208.080266
 31
0.0
  0
LINE
  8
0
  6
BYLAYER
 62
     1
 10
1064.303754
 20
-259.580205
 30
0.0
 11
1064.303754
 21
-209.580205
 31
0.0
  0
LINE
  8
0
  6
BYLAYER
 62
     1
 10
1062.803754
 20
-165.239706
 30
0.0
 11
1062.803754
 21
-208.080266
 31
0.0
  0
LINE
  8
0
  6
BYLAYER
 62
     1
 10
1066.303754
 20
-236.580205
 30
0.0
 11
1064.303754
 21
-236.650029
 31
0.0
  0
CIRCLE
  8
0
  6
BYLAYER
 62
     1
 10
1049.303754
 20
-226.580205
 30
0.0
 40
6.5
  0
LINE
  8
0
  6
BYLAYER
 62
     1
 10
962.303754
 20
-208.080205
 30
0.0
 11
935.803876
 21
-208.080205
 31
0.0
  0
LINE
  8
0
  6
BYLAYER
 62
     1
 10
962.303754
 20
-209.580205
 30
0.0
 11
934.303876
 21
-209.580205
 31
0.0
  0
LINE
  8
0
  6
BYLAYER
 62
     1
 10
1036.303754
 20
-209.580205
 30
0.0
 11
1064.303754
 21
-209.580205
 31
0.0
  0
LINE
  8
0
  6
BYLAYER
 62
     1
 10
1036.303754
 20
-208.080205
 30
0.0
 11
1062.803754
 21
-208.080205
 31
0.0
  0
CIRCLE
  8
0
  6
BYLAYER
 62
     1
 10
949.303754
 20
-226.580205
 30
0.0
 40
6.5
  0
LINE
  8
0
  6
BYLAYER
 62
     1
 10
1036.303754
 20
-187.509717
 30
0.0
 11
1036.303754
 21
-259.580205
 31
0.0
  0
LINE
  8
0
  6
BYLAYER
 62
     1
 10
962.303754
 20
-187.509717
 30
0.0
 11
962.303754
 21
-259.580205
 31
0.0
  0
LINE
  8
0
  6
BYLAYER
 62
     1
 10
1066.303754
 20
-236.580205
 30
0.0
 11
1066.303754
 21
-160.295160
 31
0.0
  0
LINE
  8
0
  6
BYLAYER
 62
     1
 10
1069.303754
 20
-155.310008
 30
0.0
 11
1069.303754
 21
-211.080205
 31
0.0
  0
LINE
  8
0
  6
BYLAYER
 62
     1
 10
1069.303754
 20
-211.080205
 30
0.0
 11
1068.803754
 21
-211.580205
 31
0.0
  0
LINE
  8
0
  6
BYLAYER
 62
     1
 10
1068.803754
 20
-211.580205
 30
0.0
 11
1066.303754
 21
-211.580205
 31
0.0
  0
LINE
  8
0
  6
BYLAYER
 62
     1
 10
934.303754
 20
-209.580205
 30
0.0
 11
935.803754
 21
-208.080266
 31
0.0
  0
LINE
  8
0
  6
BYLAYER
 62
     1
 10
932.303754
 20
-236.580205
 30
0.0
 11
934.303754
 21
-236.650029
 31
0.0
  0
LINE
  8
0
  6
BYLAYER
 62
     1
 10
932.303754
 20
-236.580205
 30
0.0
 11
932.303754
 21
-160.295160
 31
0.0
  0
LINE
  8
0
  6
BYLAYER
 62
     1
 10
929.303754
 20
-155.310008
 30
0.0
 11
929.303754
 21
-211.080205
 31
0.0
  0
LINE
  8
0
  6
BYLAYER
 62
     1
 10
929.303754
 20
-211.080205
 30
0.0
 11
929.803754
 21
-211.580205
 31
0.0
  0
LINE
  8
0
  6
BYLAYER
 62
     1
 10
929.803754
 20
-211.580205
 30
0.0
 11
932.303754
 21
-211.580205
 31
0.0
  0
LINE
  8
0
  6
BYLAYER
 62
     1
 10
1036.303754
 20
-254.580174
 30
0.0
 11
962.303754
 21
-254.580174
 31
0.0
  0
ARC
  8
0
  6
BYLAYER
 62
     1
 10
999.303754
 20
-66.580205
 30
0.0
 40
67.500000
 50
63.675482
 51
116.324518
  0
CIRCLE
  8
0
  6
BYLAYER
 62
     1
 10
1053.989504
 20
-48.811728
 30
0.0
 40
3.25
  0
CIRCLE
  8
0
  6
BYLAYER
 62
     1
 10
944.618004
 20
-48.811728
 30
0.0
 40
3.250000
  0
ARC
  8
0
  6
BYLAYER
 62
     1
 10
999.303754
 20
-66.580205
 30
0.0
 40
44.499891
 50
146.249289
 51
154.443008
  0
ARC
  8
0
  6
BYLAYER
 62
     1
 10
999.303754
 20
-66.580205
 30
0.0
 40
44.499891
 50
25.556992
 51
33.750711
  0
ARC
  8
0
  6
BYLAYER
 62
     1
 10
999.303754
 20
-116.580174
 30
0.0
 40
80.000000
 50
117.548546
 51
422.451454
  0
LINE
  8
0
  6
BYLAYER
 62
     7
 10
1041.634264
 20
-171.638602
 30
0.0
 11
1044.629987
 21
-174.634324
 31
0.0
  0
ARC
  8
0
  6
BYLAYER
 62
     7
 10
1042.862195
 20
-176.402089
 30
0.0
 40
2.499997
 50
306.059684
 51
405.000001
  0
ARC
  8
0
  6
BYLAYER
 62
     7
 10
999.303754
 20
-116.580174
 30
0.0
 40
76.5
 50
273.680298
 51
306.059684
  0
ARC
  8
0
  6
BYLAYER
 62
     7
 10
1004.053754
 20
-190.427571
 30
0.0
 40
2.500000
 50
180.000000
 51
273.680293
  0
LINE
  8
0
  6
BYLAYER
 62
     7
 10
1001.553754
 20
-185.993718
 30
0.0
 11
1001.553754
 21
-190.427571
 31
0.0
  0
LINE
  8
0
  6
BYLAYER
 62
     7
 10
956.973244
 20
-171.638602
 30
0.0
 11
953.977521
 21
-174.634324
 31
0.0
  0
ARC
  8
0
  6
BYLAYER
 62
     7
 10
955.745313
 20
-176.402089
 30
0.0
 40
2.499997
 50
135.000000
 51
233.940317
  0
ARC
  8
0
  6
BYLAYER
 62
     7
 10
999.303754
 20
-116.580174
 30
0.0
 40
76.5
 50
233.940317
 51
266.319704
  0
ARC
  8
0
  6
BYLAYER
 62
     7
 10
994.553754
 20
-190.427571
 30
0.0
 40
2.5
 50
266.319704
 51
359.999983
  0
LINE
  8
0
  6
BYLAYER
 62
     7
 10
997.053754
 20
-185.993718
 30
0.0
 11
997.053754
 21
-190.427571
 31
0.0
  0
LINE
  8
0
  6
BYLAYER
 62
     7
 10
1054.362182
 20
-74.249665
 30
0.0
 11
1057.357892
 21
-71.253956
 31
0.0
  0
ARC
  8
0
  6
BYLAYER
 62
     7
 10
1059.125653
 20
-73.021721
 30
0.0
 40
2.5
 50
36.059693
 51
135.000000
  0
ARC
  8
0
  6
BYLAYER
 62
     7
 10
999.303754
 20
-116.580174
 30
0.0
 40
76.500000
 50
3.680307
 51
36.059693
  0
ARC
  8
0
  6
BYLAYER
 62
     7
 10
1073.151166
 20
-111.830169
 30
0.0
 40
2.500000
 50
270.0
 51
363.680306
  0
LINE
  8
0
  6
BYLAYER
 62
     7
 10
1068.717297
 20
-114.330169
 30
0.0
 11
1073.151166
 21
-114.330169
 31
0.0
  0
LINE
  8
0
  6
BYLAYER
 62
     7
 10
1054.362186
 20
-158.910679
 30
0.0
 11
1057.357892
 21
-161.906384
 31
0.0
  0
ARC
  8
0
  6
BYLAYER
 62
     7
 10
1059.125653
 20
-160.138619
 30
0.0
 40
2.499995
 50
225.000010
 51
323.940327
  0
ARC
  8
0
  6
BYLAYER
 62
     7
 10
999.303754
 20
-116.580174
 30
0.0
 40
76.5
 50
323.940327
 51
356.319713
  0
ARC
  8
0
  6
BYLAYER
 62
     7
 10
1073.151166
 20
-121.330173
 30
0.0
 40
2.5
 50
356.319713
 51
449.999989
  0
LINE
  8
0
  6
BYLAYER
 62
     7
 10
1068.717297
 20
-118.830173
 30
0.0
 11
1073.151166
 21
-118.830173
 31
0.0
  0
LINE
  8
0
  6
BYLAYER
 62
     7
 10
956.973242
 20
-61.521749
 30
0.0
 11
953.977521
 21
-58.526028
 31
0.0
  0
ARC
  8
0
  6
BYLAYER
 62
     7
 10
955.745282
 20
-56.758263
 30
0.0
 40
2.499997
 50
126.059706
 51
225.000010
  0
ARC
  8
0
  6
BYLAYER
 62
     7
 10
999.303754
 20
-116.580174
 30
0.0
 40
76.500000
 50
118.924725
 51
126.059706
  0
LINE
  8
0
  6
BYLAYER
 62
     7
 10
1041.634250
 20
-61.521737
 30
0.0
 11
1044.629956
 21
-58.526021
 31
0.0
  0
ARC
  8
0
  6
BYLAYER
 62
     7
 10
1042.862195
 20
-56.758256
 30
0.0
 40
2.499997
 50
315.000019
 51
413.940336
  0
ARC
  8
0
  6
BYLAYER
 62
     7
 10
999.303754
 20
-116.580174
 30
0.0
 40
76.500000
 50
53.940336
 51
61.075275
  0
LINE
  8
0
  6
BYLAYER
 62
     7
 10
944.245324
 20
-158.910681
 30
0.0
 11
941.249616
 21
-161.906388
 31
0.0
  0
ARC
  8
0
  6
BYLAYER
 62
     7
 10
939.481855
 20
-160.138623
 30
0.0
 40
2.499997
 50
216.059688
 51
314.999992
  0
ARC
  8
0
  6
BYLAYER
 62
     7
 10
999.303754
 20
-116.580174
 30
0.0
 40
76.5
 50
183.680329
 51
216.059688
  0
ARC
  8
0
  6
BYLAYER
 62
     7
 10
925.456342
 20
-121.330177
 30
0.0
 40
2.5
 50
90.0
 51
183.680313
  0
LINE
  8
0
  6
BYLAYER
 62
     7
 10
929.890211
 20
-118.830177
 30
0.0
 11
925.456342
 21
-118.830177
 31
0.0
  0
LINE
  8
0
  6
BYLAYER
 62
     7
 10
944.245324
 20
-74.249668
 30
0.0
 11
941.249616
 21
-71.253960
 31
0.0
  0
ARC
  8
0
  6
BYLAYER
 62
     7
 10
939.481855
 20
-73.021725
 30
0.0
 40
2.499997
 50
45.000001
 51
143.940322
  0
ARC
  8
0
  6
BYLAYER
 62
     7
 10
999.303754
 20
-116.580174
 30
0.0
 40
76.5
 50
143.940322
 51
176.319681
  0
ARC
  8
0
  6
BYLAYER
 62
     7
 10
925.456342
 20
-111.830173
 30
0.0
 40
2.500000
 50
176.319681
 51
269.999973
  0
LINE
  8
0
  6
BYLAYER
 62
     7
 10
929.890211
 20
-114.330173
 30
0.0
 11
925.456342
 21
-114.330173
 31
0.0
  0
LINE
  8
0
  6
BYLAYER
 62
     7
 10
962.303754
 20
-39.580174
 30
0.0
 11
962.303754
 21
-57.806860
 31
0.0
  0
LINE
  8
0
  6
BYLAYER
 62
     7
 10
1036.303754
 20
-39.580174
 30
0.0
 11
1036.303754
 21
-57.806860
 31
0.0
  0
LINE
  8
0
  6
BYLAYER
 62
     7
 10
962.303754
 20
-44.080174
 30
0.0
 11
965.303754
 21
-49.276310
 31
0.0
  0
LINE
  8
0
  6
BYLAYER
 62
     7
 10
965.303754
 20
-49.276310
 30
0.0
 11
965.303754
 21
-56.021917
 31
0.0
  0
LINE
  8
0
  6
BYLAYER
 62
     7
 10
1036.303754
 20
-44.080174
 30
0.0
 11
1033.303754
 21
-49.276310
 31
0.0
  0
LINE
  8
0
  6
BYLAYER
 62
     7
 10
1033.303754
 20
-49.276310
 30
0.0
 11
1033.303754
 21
-56.021917
 31
0.0
  0
LINE
  8
0
  6
BYLAYER
 62
     7
 10
1000.303754
 20
-105.580174
 30
0.0
 11
1008.303754
 21
-105.580174
 31
0.0
  0
LINE
  8
0
  6
BYLAYER
 62
     7
 10
1000.303754
 20
-87.580174
 30
0.0
 11
1000.303754
 21
-95.580174
 31
0.0
  0
LINE
  8
0
  6
BYLAYER
 62
     7
 10
1000.303754
 20
-77.580174
 30
0.0
 11
1000.303754
 21
-85.580174
 31
0.0
  0
LINE
  8
0
  6
BYLAYER
 62
     7
 10
1000.303754
 20
-97.580174
 30
0.0
 11
1000.303754
 21
-105.580174
 31
0.0
  0
LINE
  8
0
  6
BYLAYER
 62
     7
 10
1008.303754
 20
-85.580174
 30
0.0
 11
1008.303754
 21
-77.580174
 31
0.0
  0
LINE
  8
0
  6
BYLAYER
 62
     7
 10
1010.303754
 20
-85.580174
 30
0.0
 11
1010.303754
 21
-77.580174
 31
0.0
  0
LINE
  8
0
  6
BYLAYER
 62
     7
 10
1000.303754
 20
-97.580174
 30
0.0
 11
1008.303754
 21
-97.580174
 31
0.0
  0
LINE
  8
0
  6
BYLAYER
 62
     7
 10
1000.303754
 20
-95.580174
 30
0.0
 11
1008.303754
 21
-95.580174
 31
0.0
  0
LINE
  8
0
  6
BYLAYER
 62
     7
 10
1000.303754
 20
-87.580174
 30
0.0
 11
1008.303754
 21
-87.580174
 31
0.0
  0
LINE
  8
0
  6
BYLAYER
 62
     7
 10
1010.303754
 20
-85.580174
 30
0.0
 11
1018.141753
 21
-85.580174
 31
0.0
  0
LINE
  8
0
  6
BYLAYER
 62
     7
 10
1000.303754
 20
-85.580174
 30
0.0
 11
1008.303754
 21
-85.580174
 31
0.0
  0
LINE
  8
0
  6
BYLAYER
 62
     7
 10
1010.303754
 20
-77.580174
 30
0.0
 11
1018.141753
 21
-77.580174
 31
0.0
  0
LINE
  8
0
  6
BYLAYER
 62
     7
 10
1000.303754
 20
-77.580174
 30
0.0
 11
1008.303754
 21
-77.580174
 31
0.0
  0
LINE
  8
0
  6
BYLAYER
 62
     7
 10
1018.141753
 20
-85.580174
 30
0.0
 11
1018.141753
 21
-77.580174
 31
0.0
  0
LINE
  8
0
  6
BYLAYER
 62
     7
 10
1008.303754
 20
-105.580174
 30
0.0
 11
1008.303754
 21
-97.580174
 31
0.0
  0
LINE
  8
0
  6
BYLAYER
 62
     7
 10
1008.303754
 20
-95.580174
 30
0.0
 11
1008.303754
 21
-87.580174
 31
0.0
  0
LINE
  8
0
  6
BYLAYER
 62
     7
 10
1010.303754
 20
-105.580174
 30
0.0
 11
1018.303754
 21
-105.580174
 31
0.0
  0
LINE
  8
0
  6
BYLAYER
 62
     7
 10
1010.303754
 20
-87.580174
 30
0.0
 11
1010.303754
 21
-95.580174
 31
0.0
  0
LINE
  8
0
  6
BYLAYER
 62
     7
 10
1010.303754
 20
-97.580174
 30
0.0
 11
1010.303754
 21
-105.580174
 31
0.0
  0
LINE
  8
0
  6
BYLAYER
 62
     7
 10
1010.303754
 20
-97.580174
 30
0.0
 11
1018.303754
 21
-97.580174
 31
0.0
  0
LINE
  8
0
  6
BYLAYER
 62
     7
 10
1010.303754
 20
-95.580174
 30
0.0
 11
1018.303754
 21
-95.580174
 31
0.0
  0
LINE
  8
0
  6
BYLAYER
 62
     7
 10
1010.303754
 20
-87.580174
 30
0.0
 11
1018.303754
 21
-87.580174
 31
0.0
  0
LINE
  8
0
  6
BYLAYER
 62
     7
 10
1018.303754
 20
-105.580174
 30
0.0
 11
1018.303754
 21
-97.580174
 31
0.0
  0
LINE
  8
0
  6
BYLAYER
 62
     7
 10
1018.303754
 20
-95.580174
 30
0.0
 11
1018.303754
 21
-87.580174
 31
0.0
  0
LINE
  8
0
  6
BYLAYER
 62
     7
 10
1020.303754
 20
-105.580174
 30
0.0
 11
1028.303754
 21
-105.580174
 31
0.0
  0
LINE
  8
0
  6
BYLAYER
 62
     7
 10
1020.303754
 20
-87.580174
 30
0.0
 11
1020.303754
 21
-95.580174
 31
0.0
  0
LINE
  8
0
  6
BYLAYER
 62
     7
 10
1020.303754
 20
-97.580174
 30
0.0
 11
1020.303754
 21
-105.580174
 31
0.0
  0
LINE
  8
0
  6
BYLAYER
 62
     7
 10
1020.303754
 20
-97.580174
 30
0.0
 11
1028.303754
 21
-97.580174
 31
0.0
  0
LINE
  8
0
  6
BYLAYER
 62
     7
 10
1020.303754
 20
-95.580174
 30
0.0
 11
1028.303754
 21
-95.580174
 31
0.0
  0
LINE
  8
0
  6
BYLAYER
 62
     7
 10
1020.303754
 20
-87.580174
 30
0.0
 11
1028.303754
 21
-87.580174
 31
0.0
  0
LINE
  8
0
  6
BYLAYER
 62
     7
 10
1028.303754
 20
-105.580174
 30
0.0
 11
1028.303754
 21
-97.580174
 31
0.0
  0
LINE
  8
0
  6
BYLAYER
 62
     7
 10
1028.303754
 20
-95.580174
 30
0.0
 11
1028.303754
 21
-87.580174
 31
0.0
  0
LINE
  8
0
  6
BYLAYER
 62
     7
 10
1010.303754
 20
-115.580174
 30
0.0
 11
1018.303754
 21
-115.580174
 31
0.0
  0
LINE
  8
0
  6
BYLAYER
 62
     7
 10
1010.303754
 20
-107.580174
 30
0.0
 11
1010.303754
 21
-115.580174
 31
0.0
  0
LINE
  8
0
  6
BYLAYER
 62
     7
 10
1010.303754
 20
-107.580174
 30
0.0
 11
1018.303754
 21
-107.580174
 31
0.0
  0
LINE
  8
0
  6
BYLAYER
 62
     7
 10
1018.303754
 20
-115.580174
 30
0.0
 11
1018.303754
 21
-107.580174
 31
0.0
  0
LINE
  8
0
  6
BYLAYER
 62
     7
 10
1020.303754
 20
-115.580174
 30
0.0
 11
1028.303754
 21
-115.580174
 31
0.0
  0
LINE
  8
0
  6
BYLAYER
 62
     7
 10
1020.303754
 20
-107.580174
 30
0.0
 11
1020.303754
 21
-115.580174
 31
0.0
  0
LINE
  8
0
  6
BYLAYER
 62
     7
 10
1020.303754
 20
-107.580174
 30
0.0
 11
1028.303754
 21
-107.580174
 31
0.0
  0
LINE
  8
0
  6
BYLAYER
 62
     7
 10
1028.303754
 20
-115.580174
 30
0.0
 11
1028.303754
 21
-107.580174
 31
0.0
  0
LINE
  8
0
  6
BYLAYER
 62
     7
 10
1030.303754
 20
-105.580174
 30
0.0
 11
1038.303754
 21
-105.580174
 31
0.0
  0
LINE
  8
0
  6
BYLAYER
 62
     7
 10
1030.303754
 20
-97.580174
 30
0.0
 11
1030.303754
 21
-105.580174
 31
0.0
  0
LINE
  8
0
  6
BYLAYER
 62
     7
 10
1030.303754
 20
-97.580174
 30
0.0
 11
1038.303754
 21
-97.580174
 31
0.0
  0
LINE
  8
0
  6
BYLAYER
 62
     7
 10
1038.303754
 20
-105.580174
 30
0.0
 11
1038.303754
 21
-97.580174
 31
0.0
  0
LINE
  8
0
  6
BYLAYER
 62
     7
 10
1030.303754
 20
-115.580174
 30
0.0
 11
1038.303754
 21
-115.580174
 31
0.0
  0
LINE
  8
0
  6
BYLAYER
 62
     7
 10
1030.303754
 20
-107.580174
 30
0.0
 11
1030.303754
 21
-115.580174
 31
0.0
  0
LINE
  8
0
  6
BYLAYER
 62
     7
 10
1030.303754
 20
-107.580174
 30
0.0
 11
1038.303754
 21
-107.580174
 31
0.0
  0
LINE
  8
0
  6
BYLAYER
 62
     7
 10
1038.303754
 20
-115.580174
 30
0.0
 11
1038.303754
 21
-107.580174
 31
0.0
  0
CIRCLE
  8
0
  6
BYLAYER
 62
     7
 10
999.303754
 20
-116.580174
 30
0.0
 40
4.0
  0
LINE
  8
0
  6
BYLAYER
 62
     7
 10
1000.303754
 20
-67.580174
 30
0.0
 11
1000.303754
 21
-75.580174
 31
0.0
  0
LINE
  8
0
  6
BYLAYER
 62
     7
 10
1008.303754
 20
-75.580174
 30
0.0
 11
1008.303754
 21
-67.580174
 31
0.0
  0
LINE
  8
0
  6
BYLAYER
 62
     7
 10
1000.303754
 20
-75.580174
 30
0.0
 11
1008.303754
 21
-75.580174
 31
0.0
  0
LINE
  8
0
  6
BYLAYER
 62
     7
 10
1000.303754
 20
-67.580174
 30
0.0
 11
1008.303754
 21
-67.580174
 31
0.0
  0
LINE
  8
0
  6
BYLAYER
 62
     7
 10
1020.303754
 20
-77.580174
 30
0.0
 11
1020.303754
 21
-85.580174
 31
0.0
  0
LINE
  8
0
  6
BYLAYER
 62
     7
 10
1020.303754
 20
-85.580174
 30
0.0
 11
1028.303754
 21
-85.580174
 31
0.0
  0
LINE
  8
0
  6
BYLAYER
 62
     7
 10
1020.303754
 20
-77.580174
 30
0.0
 11
1028.303754
 21
-77.580174
 31
0.0
  0
LINE
  8
0
  6
BYLAYER
 62
     7
 10
1028.303754
 20
-85.580174
 30
0.0
 11
1028.303754
 21
-77.580174
 31
0.0
  0
LINE
  8
0
  6
BYLAYER
 62
     7
 10
1040.303754
 20
-115.580174
 30
0.0
 11
1048.303754
 21
-115.580174
 31
0.0
  0
LINE
  8
0
  6
BYLAYER
 62
     7
 10
1040.303754
 20
-107.580174
 30
0.0
 11
1040.303754
 21
-115.580174
 31
0.0
  0
LINE
  8
0
  6
BYLAYER
 62
     7
 10
1040.303754
 20
-107.580174
 30
0.0
 11
1048.303754
 21
-107.580174
 31
0.0
  0
LINE
  8
0
  6
BYLAYER
 62
     7
 10
1048.303754
 20
-115.580174
 30
0.0
 11
1048.303754
 21
-107.580174
 31
0.0
  0
LINE
  8
0
  6
BYLAYER
 62
     7
 10
1030.303754
 20
-95.580174
 30
0.0
 11
1038.303754
 21
-95.580174
 31
0.0
  0
LINE
  8
0
  6
BYLAYER
 62
     7
 10
1030.303754
 20
-87.580174
 30
0.0
 11
1030.303754
 21
-95.580174
 31
0.0
  0
LINE
  8
0
  6
BYLAYER
 62
     7
 10
1030.303754
 20
-87.580174
 30
0.0
 11
1038.303754
 21
-87.580174
 31
0.0
  0
LINE
  8
0
  6
BYLAYER
 62
     7
 10
1038.303754
 20
-95.580174
 30
0.0
 11
1038.303754
 21
-87.580174
 31
0.0
  0
CIRCLE
  8
0
  6
BYLAYER
 62
     7
 10
999.303754
 20
-116.580174
 30
0.0
 40
55.000000
  0
CIRCLE
  8
0
  6
BYLAYER
 62
     7
 10
999.303754
 20
-116.580174
 30
0.0
 40
69.450000
  0
CIRCLE
  8
0
  6
BYLAYER
 62
     7
 10
999.303754
 20
-116.580174
 30
0.0
 40
51.0
  0
LINE
  8
0
  6
BYLAYER
 62
     7
 10
1000.303754
 20
-127.580174
 30
0.0
 11
1008.303754
 21
-127.580174
 31
0.0
  0
LINE
  8
0
  6
BYLAYER
 62
     7
 10
1000.303754
 20
-145.580174
 30
0.0
 11
1000.303754
 21
-137.580174
 31
0.0
  0
LINE
  8
0
  6
BYLAYER
 62
     7
 10
1000.303754
 20
-155.580174
 30
0.0
 11
1000.303754
 21
-147.580174
 31
0.0
  0
LINE
  8
0
  6
BYLAYER
 62
     7
 10
1000.303754
 20
-135.580174
 30
0.0
 11
1000.303754
 21
-127.580174
 31
0.0
  0
LINE
  8
0
  6
BYLAYER
 62
     7
 10
1008.303754
 20
-147.580174
 30
0.0
 11
1008.303754
 21
-155.580174
 31
0.0
  0
LINE
  8
0
  6
BYLAYER
 62
     7
 10
1010.303754
 20
-147.580174
 30
0.0
 11
1010.303754
 21
-155.580174
 31
0.0
  0
LINE
  8
0
  6
BYLAYER
 62
     7
 10
1000.303754
 20
-135.580174
 30
0.0
 11
1008.303754
 21
-135.580174
 31
0.0
  0
LINE
  8
0
  6
BYLAYER
 62
     7
 10
1000.303754
 20
-137.580174
 30
0.0
 11
1008.303754
 21
-137.580174
 31
0.0
  0
LINE
  8
0
  6
BYLAYER
 62
     7
 10
1000.303754
 20
-145.580174
 30
0.0
 11
1008.303754
 21
-145.580174
 31
0.0
  0
LINE
  8
0
  6
BYLAYER
 62
     7
 10
1010.303754
 20
-147.580174
 30
0.0
 11
1018.141753
 21
-147.580174
 31
0.0
  0
LINE
  8
0
  6
BYLAYER
 62
     7
 10
1000.303754
 20
-147.580174
 30
0.0
 11
1008.303754
 21
-147.580174
 31
0.0
  0
LINE
  8
0
  6
BYLAYER
 62
     7
 10
1010.303754
 20
-155.580174
 30
0.0
 11
1018.141753
 21
-155.580174
 31
0.0
  0
LINE
  8
0
  6
BYLAYER
 62
     7
 10
1000.303754
 20
-155.580174
 30
0.0
 11
1008.303754
 21
-155.580174
 31
0.0
  0
LINE
  8
0
  6
BYLAYER
 62
     7
 10
1018.141753
 20
-147.580174
 30
0.0
 11
1018.141753
 21
-155.580174
 31
0.0
  0
LINE
  8
0
  6
BYLAYER
 62
     7
 10
1008.303754
 20
-127.580174
 30
0.0
 11
1008.303754
 21
-135.580174
 31
0.0
  0
LINE
  8
0
  6
BYLAYER
 62
     7
 10
1008.303754
 20
-137.580174
 30
0.0
 11
1008.303754
 21
-145.580174
 31
0.0
  0
LINE
  8
0
  6
BYLAYER
 62
     7
 10
1010.303754
 20
-127.580174
 30
0.0
 11
1018.303754
 21
-127.580174
 31
0.0
  0
LINE
  8
0
  6
BYLAYER
 62
     7
 10
1010.303754
 20
-145.580174
 30
0.0
 11
1010.303754
 21
-137.580174
 31
0.0
  0
LINE
  8
0
  6
BYLAYER
 62
     7
 10
1010.303754
 20
-135.580174
 30
0.0
 11
1010.303754
 21
-127.580174
 31
0.0
  0
LINE
  8
0
  6
BYLAYER
 62
     7
 10
1010.303754
 20
-135.580174
 30
0.0
 11
1018.303754
 21
-135.580174
 31
0.0
  0
LINE
  8
0
  6
BYLAYER
 62
     7
 10
1010.303754
 20
-137.580174
 30
0.0
 11
1018.303754
 21
-137.580174
 31
0.0
  0
LINE
  8
0
  6
BYLAYER
 62
     7
 10
1010.303754
 20
-145.580174
 30
0.0
 11
1018.303754
 21
-145.580174
 31
0.0
  0
LINE
  8
0
  6
BYLAYER
 62
     7
 10
1018.303754
 20
-127.580174
 30
0.0
 11
1018.303754
 21
-135.580174
 31
0.0
  0
LINE
  8
0
  6
BYLAYER
 62
     7
 10
1018.303754
 20
-137.580174
 30
0.0
 11
1018.303754
 21
-145.580174
 31
0.0
  0
LINE
  8
0
  6
BYLAYER
 62
     7
 10
1020.303754
 20
-127.580174
 30
0.0
 11
1028.303754
 21
-127.580174
 31
0.0
  0
LINE
  8
0
  6
BYLAYER
 62
     7
 10
1020.303754
 20
-145.580174
 30
0.0
 11
1020.303754
 21
-137.580174
 31
0.0
  0
LINE
  8
0
  6
BYLAYER
 62
     7
 10
1020.303754
 20
-135.580174
 30
0.0
 11
1020.303754
 21
-127.580174
 31
0.0
  0
LINE
  8
0
  6
BYLAYER
 62
     7
 10
1020.303754
 20
-135.580174
 30
0.0
 11
1028.303754
 21
-135.580174
 31
0.0
  0
LINE
  8
0
  6
BYLAYER
 62
     7
 10
1020.303754
 20
-137.580174
 30
0.0
 11
1028.303754
 21
-137.580174
 31
0.0
  0
LINE
  8
0
  6
BYLAYER
 62
     7
 10
1020.303754
 20
-145.580174
 30
0.0
 11
1028.303754
 21
-145.580174
 31
0.0
  0
LINE
  8
0
  6
BYLAYER
 62
     7
 10
1028.303754
 20
-127.580174
 30
0.0
 11
1028.303754
 21
-135.580174
 31
0.0
  0
LINE
  8
0
  6
BYLAYER
 62
     7
 10
1028.303754
 20
-137.580174
 30
0.0
 11
1028.303754
 21
-145.580174
 31
0.0
  0
LINE
  8
0
  6
BYLAYER
 62
     7
 10
1010.303754
 20
-117.580174
 30
0.0
 11
1018.303754
 21
-117.580174
 31
0.0
  0
LINE
  8
0
  6
BYLAYER
 62
     7
 10
1010.303754
 20
-125.580174
 30
0.0
 11
1010.303754
 21
-117.580174
 31
0.0
  0
LINE
  8
0
  6
BYLAYER
 62
     7
 10
1010.303754
 20
-125.580174
 30
0.0
 11
1018.303754
 21
-125.580174
 31
0.0
  0
LINE
  8
0
  6
BYLAYER
 62
     7
 10
1018.303754
 20
-117.580174
 30
0.0
 11
1018.303754
 21
-125.580174
 31
0.0
  0
LINE
  8
0
  6
BYLAYER
 62
     7
 10
1020.303754
 20
-117.580174
 30
0.0
 11
1028.303754
 21
-117.580174
 31
0.0
  0
LINE
  8
0
  6
BYLAYER
 62
     7
 10
1020.303754
 20
-125.580174
 30
0.0
 11
1020.303754
 21
-117.580174
 31
0.0
  0
LINE
  8
0
  6
BYLAYER
 62
     7
 10
1020.303754
 20
-125.580174
 30
0.0
 11
1028.303754
 21
-125.580174
 31
0.0
  0
LINE
  8
0
  6
BYLAYER
 62
     7
 10
1028.303754
 20
-117.580174
 30
0.0
 11
1028.303754
 21
-125.580174
 31
0.0
  0
LINE
  8
0
  6
BYLAYER
 62
     7
 10
1030.303754
 20
-127.580174
 30
0.0
 11
1038.303754
 21
-127.580174
 31
0.0
  0
LINE
  8
0
  6
BYLAYER
 62
     7
 10
1030.303754
 20
-135.580174
 30
0.0
 11
1030.303754
 21
-127.580174
 31
0.0
  0
LINE
  8
0
  6
BYLAYER
 62
     7
 10
1030.303754
 20
-135.580174
 30
0.0
 11
1038.303754
 21
-135.580174
 31
0.0
  0
LINE
  8
0
  6
BYLAYER
 62
     7
 10
1038.303754
 20
-127.580174
 30
0.0
 11
1038.303754
 21
-135.580174
 31
0.0
  0
LINE
  8
0
  6
BYLAYER
 62
     7
 10
1030.303754
 20
-117.580174
 30
0.0
 11
1038.303754
 21
-117.580174
 31
0.0
  0
LINE
  8
0
  6
BYLAYER
 62
     7
 10
1030.303754
 20
-125.580174
 30
0.0
 11
1030.303754
 21
-117.580174
 31
0.0
  0
LINE
  8
0
  6
BYLAYER
 62
     7
 10
1030.303754
 20
-125.580174
 30
0.0
 11
1038.303754
 21
-125.580174
 31
0.0
  0
LINE
  8
0
  6
BYLAYER
 62
     7
 10
1038.303754
 20
-117.580174
 30
0.0
 11
1038.303754
 21
-125.580174
 31
0.0
  0
LINE
  8
0
  6
BYLAYER
 62
     7
 10
1000.303754
 20
-165.580174
 30
0.0
 11
1000.303754
 21
-157.580174
 31
0.0
  0
LINE
  8
0
  6
BYLAYER
 62
     7
 10
1008.303754
 20
-157.580174
 30
0.0
 11
1008.303754
 21
-165.580174
 31
0.0
  0
LINE
  8
0
  6
BYLAYER
 62
     7
 10
1000.303754
 20
-157.580174
 30
0.0
 11
1008.303754
 21
-157.580174
 31
0.0
  0
LINE
  8
0
  6
BYLAYER
 62
     7
 10
1000.303754
 20
-165.580174
 30
0.0
 11
1008.303754
 21
-165.580174
 31
0.0
  0
LINE
  8
0
  6
BYLAYER
 62
     7
 10
1020.303754
 20
-155.580174
 30
0.0
 11
1020.303754
 21
-147.580174
 31
0.0
  0
LINE
  8
0
  6
BYLAYER
 62
     7
 10
1020.303754
 20
-147.580174
 30
0.0
 11
1028.303754
 21
-147.580174
 31
0.0
  0
LINE
  8
0
  6
BYLAYER
 62
     7
 10
1020.303754
 20
-155.580174
 30
0.0
 11
1028.303754
 21
-155.580174
 31
0.0
  0
LINE
  8
0
  6
BYLAYER
 62
     7
 10
1028.303754
 20
-147.580174
 30
0.0
 11
1028.303754
 21
-155.580174
 31
0.0
  0
LINE
  8
0
  6
BYLAYER
 62
     7
 10
1040.303754
 20
-117.580174
 30
0.0
 11
1048.303754
 21
-117.580174
 31
0.0
  0
LINE
  8
0
  6
BYLAYER
 62
     7
 10
1040.303754
 20
-125.580174
 30
0.0
 11
1040.303754
 21
-117.580174
 31
0.0
  0
LINE
  8
0
  6
BYLAYER
 62
     7
 10
1040.303754
 20
-125.580174
 30
0.0
 11
1048.303754
 21
-125.580174
 31
0.0
  0
LINE
  8
0
  6
BYLAYER
 62
     7
 10
1048.303754
 20
-117.580174
 30
0.0
 11
1048.303754
 21
-125.580174
 31
0.0
  0
LINE
  8
0
  6
BYLAYER
 62
     7
 10
1030.303754
 20
-137.580174
 30
0.0
 11
1038.303754
 21
-137.580174
 31
0.0
  0
LINE
  8
0
  6
BYLAYER
 62
     7
 10
1030.303754
 20
-145.580174
 30
0.0
 11
1030.303754
 21
-137.580174
 31
0.0
  0
LINE
  8
0
  6
BYLAYER
 62
     7
 10
1030.303754
 20
-145.580174
 30
0.0
 11
1038.303754
 21
-145.580174
 31
0.0
  0
LINE
  8
0
  6
BYLAYER
 62
     7
 10
1038.303754
 20
-137.580174
 30
0.0
 11
1038.303754
 21
-145.580174
 31
0.0
  0
LINE
  8
0
  6
BYLAYER
 62
     7
 10
998.303754
 20
-105.580174
 30
0.0
 11
990.303754
 21
-105.580174
 31
0.0
  0
LINE
  8
0
  6
BYLAYER
 62
     7
 10
998.303754
 20
-87.580174
 30
0.0
 11
998.303754
 21
-95.580174
 31
0.0
  0
LINE
  8
0
  6
BYLAYER
 62
     7
 10
998.303754
 20
-77.580174
 30
0.0
 11
998.303754
 21
-85.580174
 31
0.0
  0
LINE
  8
0
  6
BYLAYER
 62
     7
 10
998.303754
 20
-97.580174
 30
0.0
 11
998.303754
 21
-105.580174
 31
0.0
  0
LINE
  8
0
  6
BYLAYER
 62
     7
 10
990.303754
 20
-85.580174
 30
0.0
 11
990.303754
 21
-77.580174
 31
0.0
  0
LINE
  8
0
  6
BYLAYER
 62
     7
 10
988.303754
 20
-85.580174
 30
0.0
 11
988.303754
 21
-77.580174
 31
0.0
  0
LINE
  8
0
  6
BYLAYER
 62
     7
 10
998.303754
 20
-97.580174
 30
0.0
 11
990.303754
 21
-97.580174
 31
0.0
  0
LINE
  8
0
  6
BYLAYER
 62
     7
 10
998.303754
 20
-95.580174
 30
0.0
 11
990.303754
 21
-95.580174
 31
0.0
  0
LINE
  8
0
  6
BYLAYER
 62
     7
 10
998.303754
 20
-87.580174
 30
0.0
 11
990.303754
 21
-87.580174
 31
0.0
  0
LINE
  8
0
  6
BYLAYER
 62
     7
 10
988.303754
 20
-85.580174
 30
0.0
 11
980.465755
 21
-85.580174
 31
0.0
  0
LINE
  8
0
  6
BYLAYER
 62
     7
 10
998.303754
 20
-85.580174
 30
0.0
 11
990.303754
 21
-85.580174
 31
0.0
  0
LINE
  8
0
  6
BYLAYER
 62
     7
 10
988.303754
 20
-77.580174
 30
0.0
 11
980.465755
 21
-77.580174
 31
0.0
  0
LINE
  8
0
  6
BYLAYER
 62
     7
 10
998.303754
 20
-77.580174
 30
0.0
 11
990.303754
 21
-77.580174
 31
0.0
  0
LINE
  8
0
  6
BYLAYER
 62
     7
 10
980.465755
 20
-85.580174
 30
0.0
 11
980.465755
 21
-77.580174
 31
0.0
  0
LINE
  8
0
  6
BYLAYER
 62
     7
 10
990.303754
 20
-105.580174
 30
0.0
 11
990.303754
 21
-97.580174
 31
0.0
  0
LINE
  8
0
  6
BYLAYER
 62
     7
 10
990.303754
 20
-95.580174
 30
0.0
 11
990.303754
 21
-87.580174
 31
0.0
  0
LINE
  8
0
  6
BYLAYER
 62
     7
 10
988.303754
 20
-105.580174
 30
0.0
 11
980.303754
 21
-105.580174
 31
0.0
  0
LINE
  8
0
  6
BYLAYER
 62
     7
 10
988.303754
 20
-87.580174
 30
0.0
 11
988.303754
 21
-95.580174
 31
0.0
  0
LINE
  8
0
  6
BYLAYER
 62
     7
 10
988.303754
 20
-97.580174
 30
0.0
 11
988.303754
 21
-105.580174
 31
0.0
  0
LINE
  8
0
  6
BYLAYER
 62
     7
 10
988.303754
 20
-97.580174
 30
0.0
 11
980.303754
 21
-97.580174
 31
0.0
  0
LINE
  8
0
  6
BYLAYER
 62
     7
 10
988.303754
 20
-95.580174
 30
0.0
 11
980.303754
 21
-95.580174
 31
0.0
  0
LINE
  8
0
  6
BYLAYER
 62
     7
 10
988.303754
 20
-87.580174
 30
0.0
 11
980.303754
 21
-87.580174
 31
0.0
  0
LINE
  8
0
  6
BYLAYER
 62
     7
 10
980.303754
 20
-105.580174
 30
0.0
 11
980.303754
 21
-97.580174
 31
0.0
  0
LINE
  8
0
  6
BYLAYER
 62
     7
 10
980.303754
 20
-95.580174
 30
0.0
 11
980.303754
 21
-87.580174
 31
0.0
  0
LINE
  8
0
  6
BYLAYER
 62
     7
 10
978.303754
 20
-105.580174
 30
0.0
 11
970.303754
 21
-105.580174
 31
0.0
  0
LINE
  8
0
  6
BYLAYER
 62
     7
 10
978.303754
 20
-87.580174
 30
0.0
 11
978.303754
 21
-95.580174
 31
0.0
  0
LINE
  8
0
  6
BYLAYER
 62
     7
 10
978.303754
 20
-97.580174
 30
0.0
 11
978.303754
 21
-105.580174
 31
0.0
  0
LINE
  8
0
  6
BYLAYER
 62
     7
 10
978.303754
 20
-97.580174
 30
0.0
 11
970.303754
 21
-97.580174
 31
0.0
  0
LINE
  8
0
  6
BYLAYER
 62
     7
 10
978.303754
 20
-95.580174
 30
0.0
 11
970.303754
 21
-95.580174
 31
0.0
  0
LINE
  8
0
  6
BYLAYER
 62
     7
 10
978.303754
 20
-87.580174
 30
0.0
 11
970.303754
 21
-87.580174
 31
0.0
  0
LINE
  8
0
  6
BYLAYER
 62
     7
 10
970.303754
 20
-105.580174
 30
0.0
 11
970.303754
 21
-97.580174
 31
0.0
  0
LINE
  8
0
  6
BYLAYER
 62
     7
 10
970.303754
 20
-95.580174
 30
0.0
 11
970.303754
 21
-87.580174
 31
0.0
  0
LINE
  8
0
  6
BYLAYER
 62
     7
 10
988.303754
 20
-115.580174
 30
0.0
 11
980.303754
 21
-115.580174
 31
0.0
  0
LINE
  8
0
  6
BYLAYER
 62
     7
 10
988.303754
 20
-107.580174
 30
0.0
 11
988.303754
 21
-115.580174
 31
0.0
  0
LINE
  8
0
  6
BYLAYER
 62
     7
 10
988.303754
 20
-107.580174
 30
0.0
 11
980.303754
 21
-107.580174
 31
0.0
  0
LINE
  8
0
  6
BYLAYER
 62
     7
 10
980.303754
 20
-115.580174
 30
0.0
 11
980.303754
 21
-107.580174
 31
0.0
  0
LINE
  8
0
  6
BYLAYER
 62
     7
 10
978.303754
 20
-115.580174
 30
0.0
 11
970.303754
 21
-115.580174
 31
0.0
  0
LINE
  8
0
  6
BYLAYER
 62
     7
 10
978.303754
 20
-107.580174
 30
0.0
 11
978.303754
 21
-115.580174
 31
0.0
  0
LINE
  8
0
  6
BYLAYER
 62
     7
 10
978.303754
 20
-107.580174
 30
0.0
 11
970.303754
 21
-107.580174
 31
0.0
  0
LINE
  8
0
  6
BYLAYER
 62
     7
 10
970.303754
 20
-115.580174
 30
0.0
 11
970.303754
 21
-107.580174
 31
0.0
  0
LINE
  8
0
  6
BYLAYER
 62
     7
 10
968.303754
 20
-105.580174
 30
0.0
 11
960.303754
 21
-105.580174
 31
0.0
  0
LINE
  8
0
  6
BYLAYER
 62
     7
 10
968.303754
 20
-97.580174
 30
0.0
 11
968.303754
 21
-105.580174
 31
0.0
  0
LINE
  8
0
  6
BYLAYER
 62
     7
 10
968.303754
 20
-97.580174
 30
0.0
 11
960.303754
 21
-97.580174
 31
0.0
  0
LINE
  8
0
  6
BYLAYER
 62
     7
 10
960.303754
 20
-105.580174
 30
0.0
 11
960.303754
 21
-97.580174
 31
0.0
  0
LINE
  8
0
  6
BYLAYER
 62
     7
 10
968.303754
 20
-115.580174
 30
0.0
 11
960.303754
 21
-115.580174
 31
0.0
  0
LINE
  8
0
  6
BYLAYER
 62
     7
 10
968.303754
 20
-107.580174
 30
0.0
 11
968.303754
 21
-115.580174
 31
0.0
  0
LINE
  8
0
  6
BYLAYER
 62
     7
 10
968.303754
 20
-107.580174
 30
0.0
 11
960.303754
 21
-107.580174
 31
0.0
  0
LINE
  8
0
  6
BYLAYER
 62
     7
 10
960.303754
 20
-115.580174
 30
0.0
 11
960.303754
 21
-107.580174
 31
0.0
  0
LINE
  8
0
  6
BYLAYER
 62
     7
 10
998.303754
 20
-67.580174
 30
0.0
 11
998.303754
 21
-75.580174
 31
0.0
  0
LINE
  8
0
  6
BYLAYER
 62
     7
 10
990.303754
 20
-75.580174
 30
0.0
 11
990.303754
 21
-67.580174
 31
0.0
  0
LINE
  8
0
  6
BYLAYER
 62
     7
 10
998.303754
 20
-75.580174
 30
0.0
 11
990.303754
 21
-75.580174
 31
0.0
  0
LINE
  8
0
  6
BYLAYER
 62
     7
 10
998.303754
 20
-67.580174
 30
0.0
 11
990.303754
 21
-67.580174
 31
0.0
  0
LINE
  8
0
  6
BYLAYER
 62
     7
 10
978.303754
 20
-77.580174
 30
0.0
 11
978.303754
 21
-85.580174
 31
0.0
  0
LINE
  8
0
  6
BYLAYER
 62
     7
 10
978.303754
 20
-85.580174
 30
0.0
 11
970.303754
 21
-85.580174
 31
0.0
  0
LINE
  8
0
  6
BYLAYER
 62
     7
 10
978.303754
 20
-77.580174
 30
0.0
 11
970.303754
 21
-77.580174
 31
0.0
  0
LINE
  8
0
  6
BYLAYER
 62
     7
 10
970.303754
 20
-85.580174
 30
0.0
 11
970.303754
 21
-77.580174
 31
0.0
  0
LINE
  8
0
  6
BYLAYER
 62
     7
 10
958.303754
 20
-115.580174
 30
0.0
 11
950.303754
 21
-115.580174
 31
0.0
  0
LINE
  8
0
  6
BYLAYER
 62
     7
 10
958.303754
 20
-107.580174
 30
0.0
 11
958.303754
 21
-115.580174
 31
0.0
  0
LINE
  8
0
  6
BYLAYER
 62
     7
 10
958.303754
 20
-107.580174
 30
0.0
 11
950.303754
 21
-107.580174
 31
0.0
  0
LINE
  8
0
  6
BYLAYER
 62
     7
 10
950.303754
 20
-115.580174
 30
0.0
 11
950.303754
 21
-107.580174
 31
0.0
  0
LINE
  8
0
  6
BYLAYER
 62
     7
 10
968.303754
 20
-95.580174
 30
0.0
 11
960.303754
 21
-95.580174
 31
0.0
  0
LINE
  8
0
  6
BYLAYER
 62
     7
 10
968.303754
 20
-87.580174
 30
0.0
 11
968.303754
 21
-95.580174
 31
0.0
  0
LINE
  8
0
  6
BYLAYER
 62
     7
 10
968.303754
 20
-87.580174
 30
0.0
 11
960.303754
 21
-87.580174
 31
0.0
  0
LINE
  8
0
  6
BYLAYER
 62
     7
 10
960.303754
 20
-95.580174
 30
0.0
 11
960.303754
 21
-87.580174
 31
0.0
  0
LINE
  8
0
  6
BYLAYER
 62
     7
 10
998.303754
 20
-127.580174
 30
0.0
 11
990.303754
 21
-127.580174
 31
0.0
  0
LINE
  8
0
  6
BYLAYER
 62
     7
 10
998.303754
 20
-145.580174
 30
0.0
 11
998.303754
 21
-137.580174
 31
0.0
  0
LINE
  8
0
  6
BYLAYER
 62
     7
 10
998.303754
 20
-155.580174
 30
0.0
 11
998.303754
 21
-147.580174
 31
0.0
  0
LINE
  8
0
  6
BYLAYER
 62
     7
 10
998.303754
 20
-135.580174
 30
0.0
 11
998.303754
 21
-127.580174
 31
0.0
  0
LINE
  8
0
  6
BYLAYER
 62
     7
 10
990.303754
 20
-147.580174
 30
0.0
 11
990.303754
 21
-155.580174
 31
0.0
  0
LINE
  8
0
  6
BYLAYER
 62
     7
 10
988.303754
 20
-147.580174
 30
0.0
 11
988.303754
 21
-155.580174
 31
0.0
  0
LINE
  8
0
  6
BYLAYER
 62
     7
 10
998.303754
 20
-135.580174
 30
0.0
 11
990.303754
 21
-135.580174
 31
0.0
  0
LINE
  8
0
  6
BYLAYER
 62
     7
 10
998.303754
 20
-137.580174
 30
0.0
 11
990.303754
 21
-137.580174
 31
0.0
  0
LINE
  8
0
  6
BYLAYER
 62
     7
 10
998.303754
 20
-145.580174
 30
0.0
 11
990.303754
 21
-145.580174
 31
0.0
  0
LINE
  8
0
  6
BYLAYER
 62
     7
 10
988.303754
 20
-147.580174
 30
0.0
 11
980.465755
 21
-147.580174
 31
0.0
  0
LINE
  8
0
  6
BYLAYER
 62
     7
 10
998.303754
 20
-147.580174
 30
0.0
 11
990.303754
 21
-147.580174
 31
0.0
  0
LINE
  8
0
  6
BYLAYER
 62
     7
 10
988.303754
 20
-155.580174
 30
0.0
 11
980.465755
 21
-155.580174
 31
0.0
  0
LINE
  8
0
  6
BYLAYER
 62
     7
 10
998.303754
 20
-155.580174
 30
0.0
 11
990.303754
 21
-155.580174
 31
0.0
  0
LINE
  8
0
  6
BYLAYER
 62
     7
 10
980.465755
 20
-147.580174
 30
0.0
 11
980.465755
 21
-155.580174
 31
0.0
  0
LINE
  8
0
  6
BYLAYER
 62
     7
 10
990.303754
 20
-127.580174
 30
0.0
 11
990.303754
 21
-135.580174
 31
0.0
  0
LINE
  8
0
  6
BYLAYER
 62
     7
 10
990.303754
 20
-137.580174
 30
0.0
 11
990.303754
 21
-145.580174
 31
0.0
  0
LINE
  8
0
  6
BYLAYER
 62
     7
 10
988.303754
 20
-127.580174
 30
0.0
 11
980.303754
 21
-127.580174
 31
0.0
  0
LINE
  8
0
  6
BYLAYER
 62
     7
 10
988.303754
 20
-145.580174
 30
0.0
 11
988.303754
 21
-137.580174
 31
0.0
  0
LINE
  8
0
  6
BYLAYER
 62
     7
 10
988.303754
 20
-135.580174
 30
0.0
 11
988.303754
 21
-127.580174
 31
0.0
  0
LINE
  8
0
  6
BYLAYER
 62
     7
 10
988.303754
 20
-135.580174
 30
0.0
 11
980.303754
 21
-135.580174
 31
0.0
  0
LINE
  8
0
  6
BYLAYER
 62
     7
 10
988.303754
 20
-137.580174
 30
0.0
 11
980.303754
 21
-137.580174
 31
0.0
  0
LINE
  8
0
  6
BYLAYER
 62
     7
 10
988.303754
 20
-145.580174
 30
0.0
 11
980.303754
 21
-145.580174
 31
0.0
  0
LINE
  8
0
  6
BYLAYER
 62
     7
 10
980.303754
 20
-127.580174
 30
0.0
 11
980.303754
 21
-135.580174
 31
0.0
  0
LINE
  8
0
  6
BYLAYER
 62
     7
 10
980.303754
 20
-137.580174
 30
0.0
 11
980.303754
 21
-145.580174
 31
0.0
  0
LINE
  8
0
  6
BYLAYER
 62
     7
 10
978.303754
 20
-127.580174
 30
0.0
 11
970.303754
 21
-127.580174
 31
0.0
  0
LINE
  8
0
  6
BYLAYER
 62
     7
 10
978.303754
 20
-145.580174
 30
0.0
 11
978.303754
 21
-137.580174
 31
0.0
  0
LINE
  8
0
  6
BYLAYER
 62
     7
 10
978.303754
 20
-135.580174
 30
0.0
 11
978.303754
 21
-127.580174
 31
0.0
  0
LINE
  8
0
  6
BYLAYER
 62
     7
 10
978.303754
 20
-135.580174
 30
0.0
 11
970.303754
 21
-135.580174
 31
0.0
  0
LINE
  8
0
  6
BYLAYER
 62
     7
 10
978.303754
 20
-137.580174
 30
0.0
 11
970.303754
 21
-137.580174
 31
0.0
  0
LINE
  8
0
  6
BYLAYER
 62
     7
 10
978.303754
 20
-145.580174
 30
0.0
 11
970.303754
 21
-145.580174
 31
0.0
  0
LINE
  8
0
  6
BYLAYER
 62
     7
 10
970.303754
 20
-127.580174
 30
0.0
 11
970.303754
 21
-135.580174
 31
0.0
  0
LINE
  8
0
  6
BYLAYER
 62
     7
 10
970.303754
 20
-137.580174
 30
0.0
 11
970.303754
 21
-145.580174
 31
0.0
  0
LINE
  8
0
  6
BYLAYER
 62
     7
 10
988.303754
 20
-117.580174
 30
0.0
 11
980.303754
 21
-117.580174
 31
0.0
  0
LINE
  8
0
  6
BYLAYER
 62
     7
 10
988.303754
 20
-125.580174
 30
0.0
 11
988.303754
 21
-117.580174
 31
0.0
  0
LINE
  8
0
  6
BYLAYER
 62
     7
 10
988.303754
 20
-125.580174
 30
0.0
 11
980.303754
 21
-125.580174
 31
0.0
  0
LINE
  8
0
  6
BYLAYER
 62
     7
 10
980.303754
 20
-117.580174
 30
0.0
 11
980.303754
 21
-125.580174
 31
0.0
  0
LINE
  8
0
  6
BYLAYER
 62
     7
 10
978.303754
 20
-117.580174
 30
0.0
 11
970.303754
 21
-117.580174
 31
0.0
  0
LINE
  8
0
  6
BYLAYER
 62
     7
 10
978.303754
 20
-125.580174
 30
0.0
 11
978.303754
 21
-117.580174
 31
0.0
  0
LINE
  8
0
  6
BYLAYER
 62
     7
 10
978.303754
 20
-125.580174
 30
0.0
 11
970.303754
 21
-125.580174
 31
0.0
  0
LINE
  8
0
  6
BYLAYER
 62
     7
 10
970.303754
 20
-117.580174
 30
0.0
 11
970.303754
 21
-125.580174
 31
0.0
  0
LINE
  8
0
  6
BYLAYER
 62
     7
 10
968.303754
 20
-127.580174
 30
0.0
 11
960.303754
 21
-127.580174
 31
0.0
  0
LINE
  8
0
  6
BYLAYER
 62
     7
 10
968.303754
 20
-135.580174
 30
0.0
 11
968.303754
 21
-127.580174
 31
0.0
  0
LINE
  8
0
  6
BYLAYER
 62
     7
 10
968.303754
 20
-135.580174
 30
0.0
 11
960.303754
 21
-135.580174
 31
0.0
  0
LINE
  8
0
  6
BYLAYER
 62
     7
 10
960.303754
 20
-127.580174
 30
0.0
 11
960.303754
 21
-135.580174
 31
0.0
  0
LINE
  8
0
  6
BYLAYER
 62
     7
 10
968.303754
 20
-117.580174
 30
0.0
 11
960.303754
 21
-117.580174
 31
0.0
  0
LINE
  8
0
  6
BYLAYER
 62
     7
 10
968.303754
 20
-125.580174
 30
0.0
 11
968.303754
 21
-117.580174
 31
0.0
  0
LINE
  8
0
  6
BYLAYER
 62
     7
 10
968.303754
 20
-125.580174
 30
0.0
 11
960.303754
 21
-125.580174
 31
0.0
  0
LINE
  8
0
  6
BYLAYER
 62
     7
 10
960.303754
 20
-117.580174
 30
0.0
 11
960.303754
 21
-125.580174
 31
0.0
  0
LINE
  8
0
  6
BYLAYER
 62
     7
 10
998.303754
 20
-165.580174
 30
0.0
 11
998.303754
 21
-157.580174
 31
0.0
  0
LINE
  8
0
  6
BYLAYER
 62
     7
 10
990.303754
 20
-157.580174
 30
0.0
 11
990.303754
 21
-165.580174
 31
0.0
  0
LINE
  8
0
  6
BYLAYER
 62
     7
 10
998.303754
 20
-157.580174
 30
0.0
 11
990.303754
 21
-157.580174
 31
0.0
  0
LINE
  8
0
  6
BYLAYER
 62
     7
 10
998.303754
 20
-165.580174
 30
0.0
 11
990.303754
 21
-165.580174
 31
0.0
  0
LINE
  8
0
  6
BYLAYER
 62
     7
 10
978.303754
 20
-155.580174
 30
0.0
 11
978.303754
 21
-147.580174
 31
0.0
  0
LINE
  8
0
  6
BYLAYER
 62
     7
 10
978.303754
 20
-147.580174
 30
0.0
 11
970.303754
 21
-147.580174
 31
0.0
  0
LINE
  8
0
  6
BYLAYER
 62
     7
 10
978.303754
 20
-155.580174
 30
0.0
 11
970.303754
 21
-155.580174
 31
0.0
  0
LINE
  8
0
  6
BYLAYER
 62
     7
 10
970.303754
 20
-147.580174
 30
0.0
 11
970.303754
 21
-155.580174
 31
0.0
  0
LINE
  8
0
  6
BYLAYER
 62
     7
 10
958.303754
 20
-117.580174
 30
0.0
 11
950.303754
 21
-117.580174
 31
0.0
  0
LINE
  8
0
  6
BYLAYER
 62
     7
 10
958.303754
 20
-125.580174
 30
0.0
 11
958.303754
 21
-117.580174
 31
0.0
  0
LINE
  8
0
  6
BYLAYER
 62
     7
 10
958.303754
 20
-125.580174
 30
0.0
 11
950.303754
 21
-125.580174
 31
0.0
  0
LINE
  8
0
  6
BYLAYER
 62
     7
 10
950.303754
 20
-117.580174
 30
0.0
 11
950.303754
 21
-125.580174
 31
0.0
  0
LINE
  8
0
  6
BYLAYER
 62
     7
 10
968.303754
 20
-137.580174
 30
0.0
 11
960.303754
 21
-137.580174
 31
0.0
  0
LINE
  8
0
  6
BYLAYER
 62
     7
 10
968.303754
 20
-145.580174
 30
0.0
 11
968.303754
 21
-137.580174
 31
0.0
  0
LINE
  8
0
  6
BYLAYER
 62
     7
 10
968.303754
 20
-145.580174
 30
0.0
 11
960.303754
 21
-145.580174
 31
0.0
  0
LINE
  8
0
  6
BYLAYER
 62
     7
 10
960.303754
 20
-137.580174
 30
0.0
 11
960.303754
 21
-145.580174
 31
0.0
  0
ARC
  8
0
  6
BYLAYER
 62
     7
 10
1035.053754
 20
-29.080174
 30
0.0
 40
1.5
 50
180.000000
 51
265.219808
  0
ARC
  8
0
  6
BYLAYER
 62
     7
 10
963.553754
 20
-29.080174
 30
0.0
 40
1.5
 50
274.780192
 51
360.0
  0
ARC
  8
0
  6
BYLAYER
 62
     7
 10
971.549416
 20
-29.080174
 30
0.0
 40
1.5
 50
270.0
 51
360.0
  0
LINE
  8
0
  6
BYLAYER
 62
     7
 10
1033.553754
 20
-29.080174
 30
0.0
 11
1033.553754
 21
-7.580174
 31
0.0
  0
LINE
  8
0
  6
BYLAYER
 62
     7
 10
1032.053754
 20
-6.080174
 30
0.0
 11
966.553754
 21
-6.080174
 31
0.0
  0
ARC
  8
0
  6
BYLAYER
 62
     7
 10
1032.053754
 20
-7.580174
 30
0.0
 40
1.5
 50
0.0
 51
90.0
  0
ARC
  8
0
  6
BYLAYER
 62
     7
 10
966.553754
 20
-7.580174
 30
0.0
 40
1.5
 50
90.0
 51
180.0
  0
LINE
  8
0
  6
BYLAYER
 62
     7
 10
965.053754
 20
-29.080174
 30
0.0
 11
965.053754
 21
-7.580174
 31
0.0
  0
LINE
  8
0
  6
BYLAYER
 62
     7
 10
973.049416
 20
-29.080174
 30
0.0
 11
973.049416
 21
-7.580174
 31
0.0
  0
ARC
  8
0
  6
BYLAYER
 62
     7
 10
974.549416
 20
-7.580174
 30
0.0
 40
1.500000
 50
90.0
 51
180.0
  0
ARC
  8
0
  6
BYLAYER
 62
     7
 10
1024.058092
 20
-7.580174
 30
0.0
 40
1.5
 50
0.0
 51
90.0
  0
LINE
  8
0
  6
BYLAYER
 62
     7
 10
978.710101
 20
-6.080174
 30
0.0
 11
979.202648
 21
-20.184873
 31
0.0
  0
ARC
  8
0
  6
BYLAYER
 62
     7
 10
982.200820
 20
-20.080174
 30
0.0
 40
3.000000
 50
182.000000
 51
270.000000
  0
LINE
  8
0
  6
BYLAYER
 62
     7
 10
989.404860
 20
-20.184873
 30
0.0
 11
989.897407
 21
-6.080174
 31
0.0
  0
ARC
  8
0
  6
BYLAYER
 62
     7
 10
986.406688
 20
-20.080174
 30
0.0
 40
3.000000
 50
270.0
 51
358.0
  0
LINE
  8
0
  6
BYLAYER
 62
     7
 10
1004.404860
 20
-20.184873
 30
0.0
 11
1004.897407
 21
-6.080174
 31
0.0
  0
ARC
  8
0
  6
BYLAYER
 62
     7
 10
1001.406688
 20
-20.080174
 30
0.0
 40
3.0
 50
270.0
 51
358.0
  0
LINE
  8
0
  6
BYLAYER
 62
     7
 10
1019.404860
 20
-20.184873
 30
0.0
 11
1019.897407
 21
-6.080174
 31
0.0
  0
ARC
  8
0
  6
BYLAYER
 62
     7
 10
1016.406688
 20
-20.080174
 30
0.0
 40
3.0
 50
270.0
 51
358.0
  0
LINE
  8
0
  6
BYLAYER
 62
     7
 10
1008.710101
 20
-6.080174
 30
0.0
 11
1009.202648
 21
-20.184873
 31
0.0
  0
ARC
  8
0
  6
BYLAYER
 62
     7
 10
1012.200820
 20
-20.080174
 30
0.0
 40
3.000000
 50
182.000000
 51
270.000000
  0
LINE
  8
0
  6
BYLAYER
 62
     7
 10
993.710101
 20
-6.080174
 30
0.0
 11
994.202648
 21
-20.184873
 31
0.0
  0
ARC
  8
0
  6
BYLAYER
 62
     7
 10
997.200820
 20
-20.080174
 30
0.0
 40
3.000000
 50
182.000000
 51
270.000000
  0
LINE
  8
0
  6
BYLAYER
 62
     7
 10
1012.200820
 20
-23.080174
 30
0.0
 11
1016.406688
 21
-23.080174
 31
0.0
  0
LINE
  8
0
  6
BYLAYER
 62
     7
 10
997.200820
 20
-23.080174
 30
0.0
 11
1001.406688
 21
-23.080174
 31
0.0
  0
LINE
  8
0
  6
BYLAYER
 62
     7
 10
982.200820
 20
-23.080174
 30
0.0
 11
986.406688
 21
-23.080174
 31
0.0
  0
LINE
  8
0
  6
BYLAYER
 62
     7
 10
993.745022
 20
-7.080174
 30
0.0
 11
1004.862486
 21
-7.080174
 31
0.0
  0
LINE
  8
0
  6
BYLAYER
 62
     7
 10
1008.745022
 20
-7.080174
 30
0.0
 11
1019.862486
 21
-7.080174
 31
0.0
  0
LINE
  8
0
  6
BYLAYER
 62
     7
 10
978.745022
 20
-7.080174
 30
0.0
 11
989.862486
 21
-7.080174
 31
0.0
  0
LINE
  8
0
  6
BYLAYER
 62
     7
 10
1025.558092
 20
-7.580174
 30
0.0
 11
1025.558092
 21
-29.080174
 31
0.0
  0
ARC
  8
0
  6
BYLAYER
 62
     7
 10
963.803754
 20
-32.069740
 30
0.0
 40
1.500000
 50
94.780192
 51
180.000000
  0
LINE
  8
0
  6
BYLAYER
 62
     7
 10
963.803754
 20
-30.580174
 30
0.0
 11
1035.053754
 21
-30.580174
 31
0.0
  0
ARC
  8
0
  6
BYLAYER
 62
     7
 10
1034.803754
 20
-32.069740
 30
0.0
 40
1.5
 50
0.0
 51
85.219808
  0
LINE
  8
0
  6
BYLAYER
 62
     7
 10
1036.303754
 20
-39.580174
 30
0.0
 11
1036.303754
 21
-32.069740
 31
0.0
  0
ARC
  8
0
  6
BYLAYER
 62
     7
 10
1027.058092
 20
-29.080174
 30
0.0
 40
1.5
 50
180.000000
 51
270.000000
  0
LINE
  8
0
  6
BYLAYER
 62
     7
 10
1036.303754
 20
-37.580113
 30
0.0
 11
962.303754
 21
-37.580113
 31
0.0
  0
LINE
  8
0
  6
BYLAYER
 62
     7
 10
962.303754
 20
-32.069740
 30
0.0
 11
962.303754
 21
-39.580174
 31
0.0
  0
LINE
  8
0
  6
BYLAYER
 62
     7
 10
962.303754
 20
-39.580174
 30
0.0
 11
1036.303754
 21
-39.580174
 31
0.0
  0
ARC
  8
0
  6
BYLAYER
 62
     1
 10
999.303754
 20
-66.580205
 30
0.0
 40
67.5
 50
120.491292
 51
184.602775
  0
ARC
  8
0
  6
BYLAYER
 62
     1
 10
999.303754
 20
-66.580205
 30
0.0
 40
67.500000
 50
354.499725
 51
419.508708
  0
LINE
  8
0
  6
BYLAYER
 62
     1
 10
1064.303754
 20
-571.580205
 30
0.0
 11
1036.303754
 21
-571.580205
 31
0.0
  0
LINE
  8
0
  6
BYLAYER
 62
     1
 10
1064.303754
 20
-621.580205
 30
0.0
 11
1064.303754
 21
-571.580205
 31
0.0
  0
LINE
  8
0
  6
BYLAYER
 62
     1
 10
1064.303754
 20
-621.580205
 30
0.0
 11
1062.803754
 21
-623.080144
 31
0.0
  0
LINE
  8
0
  6
BYLAYER
 62
     1
 10
934.303754
 20
-571.580205
 30
0.0
 11
962.303754
 21
-571.580205
 31
0.0
  0
LINE
  8
0
  6
BYLAYER
 62
     1
 10
934.303754
 20
-621.580205
 30
0.0
 11
934.303754
 21
-571.580205
 31
0.0
  0
LINE
  8
0
  6
BYLAYER
 62
     1
 10
934.303754
 20
-621.580205
 30
0.0
 11
935.803754
 21
-623.080144
 31
0.0
  0
LINE
  8
0
  6
BYLAYER
 62
     1
 10
1064.303754
 20
-809.580205
 30
0.0
 11
1036.303754
 21
-809.580205
 31
0.0
  0
LINE
  8
0
  6
BYLAYER
 62
     1
 10
1064.303754
 20
-759.580205
 30
0.0
 11
1064.303754
 21
-809.580205
 31
0.0
  0
LINE
  8
0
  6
BYLAYER
 62
     1
 10
1064.303754
 20
-759.580205
 30
0.0
 11
1062.803754
 21
-758.080205
 31
0.0
  0
LINE
  8
0
  6
BYLAYER
 62
     1
 10
1062.803754
 20
-623.080144
 30
0.0
 11
1062.803754
 21
-758.080205
 31
0.0
  0
LINE
  8
0
  6
BYLAYER
 62
     1
 10
934.303754
 20
-809.580205
 30
0.0
 11
962.303754
 21
-809.580205
 31
0.0
  0
LINE
  8
0
  6
BYLAYER
 62
     1
 10
934.303754
 20
-809.580205
 30
0.0
 11
934.303754
 21
-759.580205
 31
0.0
  0
LINE
  8
0
  6
BYLAYER
 62
     1
 10
1036.303754
 20
-573.080205
 30
0.0
 11
962.303754
 21
-573.080205
 31
0.0
  0
LINE
  8
0
  6
BYLAYER
 62
     1
 10
1036.303754
 20
-758.080205
 30
0.0
 11
1062.803754
 21
-758.080205
 31
0.0
  0
LINE
  8
0
  6
BYLAYER
 62
     1
 10
1036.303754
 20
-759.580205
 30
0.0
 11
1064.303754
 21
-759.580205
 31
0.0
  0
LINE
  8
0
  6
BYLAYER
 62
     1
 10
962.303754
 20
-759.580205
 30
0.0
 11
934.303754
 21
-759.580205
 31
0.0
  0
LINE
  8
0
  6
BYLAYER
 62
     1
 10
1036.303754
 20
-623.080144
 30
0.0
 11
1062.803754
 21
-623.080144
 31
0.0
  0
LINE
  8
0
  6
BYLAYER
 62
     1
 10
962.303754
 20
-758.080205
 30
0.0
 11
935.803754
 21
-758.080205
 31
0.0
  0
LINE
  8
0
  6
BYLAYER
 62
     1
 10
935.803754
 20
-623.080144
 30
0.0
 11
962.303754
 21
-623.080144
 31
0.0
  0
CIRCLE
  8
0
  6
BYLAYER
 62
     1
 10
949.303754
 20
-776.580205
 30
0.0
 40
6.5
  0
CIRCLE
  8
0
  6
BYLAYER
 62
     1
 10
949.303754
 20
-604.580205
 30
0.0
 40
6.5
  0
CIRCLE
  8
0
  6
BYLAYER
 62
     1
 10
1049.303754
 20
-604.580205
 30
0.0
 40
6.5
  0
CIRCLE
  8
0
  6
BYLAYER
 62
     1
 10
1026.527265
 20
-643.803868
 30
0.0
 40
3.525002
  0
CIRCLE
  8
0
  6
BYLAYER
 62
     1
 10
1026.527387
 20
-589.356633
 30
0.0
 40
3.525002
  0
CIRCLE
  8
0
  6
BYLAYER
 62
     1
 10
972.080243
 20
-589.356511
 30
0.0
 40
3.525002
  0
CIRCLE
  8
0
  6
BYLAYER
 62
     1
 10
972.080121
 20
-643.803746
 30
0.0
 40
3.525002
  0
LINE
  8
0
  6
BYLAYER
 62
     1
 10
961.445478
 20
-621.580205
 30
0.0
 11
934.303754
 21
-621.580205
 31
0.0
  0
ARC
  8
0
  6
BYLAYER
 62
     1
 10
961.445478
 20
-623.580205
 30
0.0
 40
2.0
 50
10.476094
 51
90.000000
  0
LINE
  8
0
  6
BYLAYER
 62
     1
 10
1037.162030
 20
-621.580205
 30
0.0
 11
1064.303754
 21
-621.580205
 31
0.0
  0
ARC
  8
0
  6
BYLAYER
 62
     1
 10
1037.162030
 20
-623.580205
 30
0.0
 40
2.000012
 50
90.0
 51
169.524063
  0
LINE
  8
0
  6
BYLAYER
 62
     1
 10
962.303754
 20
-621.773717
 30
0.0
 11
962.303754
 21
-809.580205
 31
0.0
  0
CIRCLE
  8
0
  6
BYLAYER
 62
     1
 10
1049.303754
 20
-776.580205
 30
0.0
 40
6.5
  0
LINE
  8
0
  6
BYLAYER
 62
     1
 10
1036.303754
 20
-621.773717
 30
0.0
 11
1036.303754
 21
-809.580205
 31
0.0
  0
LINE
  8
0
  6
BYLAYER
 62
     1
 10
934.304059
 20
-759.579991
 30
0.0
 11
935.803754
 21
-758.080205
 31
0.0
  0
LINE
  8
0
  6
BYLAYER
 62
     1
 10
935.803754
 20
-623.080144
 30
0.0
 11
935.803754
 21
-758.080205
 31
0.0
  0
LINE
  8
0
  6
BYLAYER
 62
     1
 10
934.303754
 20
-759.580205
 30
0.0
 11
935.803754
 21
-758.080266
 31
0.0
  0
ARC
  8
0
  6
BYLAYER
 62
     1
 10
999.303754
 20
-616.580205
 30
0.0
 40
36.499996
 50
59.173767
 51
121.575305
  0
ARC
  8
0
  6
BYLAYER
 62
     1
 10
979.144452
 20
-583.780004
 30
0.0
 40
2.000008
 50
218.287737
 51
301.575200
  0
LINE
  8
0
  6
BYLAYER
 62
     1
 10
962.303754
 20
-584.825933
 30
0.0
 11
962.303754
 21
-571.580205
 31
0.0
  0
ARC
  8
0
  6
BYLAYER
 62
     1
 10
972.080243
 20
-589.356511
 30
0.0
 40
7.000019
 50
38.287800
 51
149.774970
  0
ARC
  8
0
  6
BYLAYER
 62
     1
 10
964.303754
 20
-584.825933
 30
0.0
 40
2.000039
 50
180.000000
 51
329.774833
  0
ARC
  8
0
  6
BYLAYER
 62
     1
 10
1026.527265
 20
-589.356511
 30
0.0
 40
6.999995
 50
30.225035
 51
141.712205
  0
ARC
  8
0
  6
BYLAYER
 62
     1
 10
1019.463086
 20
-583.780004
 30
0.0
 40
2.000008
 50
238.424801
 51
321.712264
  0
ARC
  8
0
  6
BYLAYER
 62
     1
 10
1034.303754
 20
-584.825933
 30
0.0
 40
2.000013
 50
210.225163
 51
359.999983
  0
LINE
  8
0
  6
BYLAYER
 62
     1
 10
1036.303754
 20
-571.580205
 30
0.0
 11
1036.303754
 21
-584.825933
 31
0.0
  0
ARC
  8
0
  6
BYLAYER
 62
     1
 10
979.144452
 20
-649.380406
 30
0.0
 40
2.000008
 50
58.424803
 51
141.712259
  0
ARC
  8
0
  6
BYLAYER
 62
     1
 10
999.303754
 20
-616.580205
 30
0.0
 40
36.500011
 50
238.424692
 51
301.575310
  0
ARC
  8
0
  6
BYLAYER
 62
     1
 10
1019.463086
 20
-649.380406
 30
0.0
 40
2.000013
 50
38.287746
 51
121.575195
  0
ARC
  8
0
  6
BYLAYER
 62
     1
 10
999.303754
 20
-616.580205
 30
0.0
 40
36.500061
 50
328.424291
 51
349.524330
  0
ARC
  8
0
  6
BYLAYER
 62
     1
 10
1026.527265
 20
-643.803899
 30
0.0
 40
6.999995
 50
218.287805
 51
411.711659
  0
ARC
  8
0
  6
BYLAYER
 62
     1
 10
1032.103833
 20
-636.739781
 30
0.0
 40
1.999987
 50
148.424341
 51
231.711709
  0
ARC
  8
0
  6
BYLAYER
 62
     1
 10
999.303754
 20
-616.580205
 30
0.0
 40
36.500046
 50
190.475671
 51
211.575696
  0
ARC
  8
0
  6
BYLAYER
 62
     1
 10
972.080243
 20
-643.803899
 30
0.0
 40
7.000019
 50
128.288151
 51
321.712210
  0
ARC
  8
0
  6
BYLAYER
 62
     1
 10
966.503705
 20
-636.739751
 30
0.0
 40
1.999961
 50
308.287743
 51
391.575657
  0
LINE
  8
0
  6
BYLAYER
 62
     1
 10
935.803754
 20
-626.458013
 30
0.0
 11
932.303754
 21
-626.580205
 31
0.0
  0
LINE
  8
0
  6
BYLAYER
 62
     1
 10
932.303754
 20
-706.580205
 30
0.0
 11
932.303754
 21
-626.580205
 31
0.0
  0
LINE
  8
0
  6
BYLAYER
 62
     1
 10
932.303754
 20
-706.580205
 30
0.0
 11
932.303754
 21
-786.580205
 31
0.0
  0
LINE
  8
0
  6
BYLAYER
 62
     1
 10
934.303754
 20
-786.650029
 30
0.0
 11
932.303754
 21
-786.580205
 31
0.0
  0
LINE
  8
0
  6
BYLAYER
 62
     1
 10
932.303754
 20
-651.580205
 30
0.0
 11
929.803754
 21
-651.580205
 31
0.0
  0
LINE
  8
0
  6
BYLAYER
 62
     1
 10
929.803754
 20
-651.580205
 30
0.0
 11
929.303754
 21
-652.080205
 31
0.0
  0
LINE
  8
0
  6
BYLAYER
 62
     1
 10
929.303754
 20
-652.080205
 30
0.0
 11
929.303754
 21
-706.580205
 31
0.0
  0
LINE
  8
0
  6
BYLAYER
 62
     1
 10
932.303754
 20
-761.580205
 30
0.0
 11
929.803754
 21
-761.580205
 31
0.0
  0
LINE
  8
0
  6
BYLAYER
 62
     1
 10
929.803754
 20
-761.580205
 30
0.0
 11
929.303754
 21
-761.080205
 31
0.0
  0
LINE
  8
0
  6
BYLAYER
 62
     1
 10
929.303754
 20
-761.080205
 30
0.0
 11
929.303754
 21
-706.580205
 31
0.0
  0
LINE
  8
0
  6
BYLAYER
 62
     1
 10
1062.803754
 20
-626.458013
 30
0.0
 11
1066.303754
 21
-626.580205
 31
0.0
  0
LINE
  8
0
  6
BYLAYER
 62
     1
 10
1066.303754
 20
-706.580205
 30
0.0
 11
1066.303754
 21
-626.580205
 31
0.0
  0
LINE
  8
0
  6
BYLAYER
 62
     1
 10
1066.303754
 20
-706.580205
 30
0.0
 11
1066.303754
 21
-786.580205
 31
0.0
  0
LINE
  8
0
  6
BYLAYER
 62
     1
 10
1064.303754
 20
-786.650029
 30
0.0
 11
1066.303754
 21
-786.580205
 31
0.0
  0
LINE
  8
0
  6
BYLAYER
 62
     1
 10
1066.303754
 20
-651.580205
 30
0.0
 11
1068.803754
 21
-651.580205
 31
0.0
  0
LINE
  8
0
  6
BYLAYER
 62
     1
 10
1068.803754
 20
-651.580205
 30
0.0
 11
1069.303754
 21
-652.080205
 31
0.0
  0
LINE
  8
0
  6
BYLAYER
 62
     1
 10
1069.303754
 20
-652.080205
 30
0.0
 11
1069.303754
 21
-706.580205
 31
0.0
  0
LINE
  8
0
  6
BYLAYER
 62
     1
 10
1066.303754
 20
-761.580205
 30
0.0
 11
1068.803754
 21
-761.580205
 31
0.0
  0
LINE
  8
0
  6
BYLAYER
 62
     1
 10
1068.803754
 20
-761.580205
 30
0.0
 11
1069.303754
 21
-761.080205
 31
0.0
  0
LINE
  8
0
  6
BYLAYER
 62
     1
 10
1069.303754
 20
-761.080205
 30
0.0
 11
1069.303754
 21
-706.580205
 31
0.0
  0
CIRCLE
  8
0
  6
BYLAYER
 62
     1
 10
999.303754
 20
-616.580205
 30
0.0
 40
31.0
  0
LINE
  8
0
  6
BYLAYER
 62
     1
 10
1036.303754
 20
-804.580174
 30
0.0
 11
962.303754
 21
-804.580174
 31
0.0
  0
ARC
  8
0
  6
BYLAYER
 62
     1
 10
999.303796
 20
-666.580174
 30
0.0
 40
80.000000
 50
331.044913
 51
390.286760
  0
ARC
  8
0
  6
BYLAYER
 62
     1
 10
999.303796
 20
-666.580174
 30
0.0
 40
80.000000
 50
149.713240
 51
151.045038
  0
ARC
  8
0
  6
BYLAYER
 62
     1
 10
999.303796
 20
-666.580174
 30
0.0
 40
80.0
 50
151.045038
 51
208.954962
  0
ARC
  8
0
  6
BYLAYER
 62
     1
 10
999.303754
 20
-616.580205
 30
0.0
 40
67.5
 50
351.487674
 51
375.642471
  0
ARC
  8
0
  6
BYLAYER
 62
     1
 10
999.303754
 20
-616.580205
 30
0.0
 40
67.5
 50
164.357529
 51
188.512326
  0
ARC
  8
0
  6
BYLAYER
 62
     1
 10
999.303754
 20
-616.580205
 30
0.0
 40
67.5
 50
41.810315
 51
138.189685
  0
LINE
  8
0
  6
BYLAYER
 62
     1
 10
932.360922
 20
-625.235103
 30
0.0
 11
931.914946
 21
-625.242888
 31
0.0
  0
ARC
  8
0
  6
BYLAYER
 62
     1
 10
931.949851
 20
-627.242583
 30
0.0
 40
2.000000
 50
91.000000
 51
149.713240
  0
LINE
  8
0
  6
BYLAYER
 62
     1
 10
1066.246586
 20
-625.235102
 30
0.0
 11
1066.692646
 21
-625.242888
 31
0.0
  0
ARC
  8
0
  6
BYLAYER
 62
     1
 10
1066.657741
 20
-627.242583
 30
0.0
 40
2.0
 50
30.286760
 51
89.000000
  0
LINE
  8
0
  6
BYLAYER
 62
     1
 10
929.303754
 20
-665.253210
 30
0.0
 11
919.321345
 21
-664.904617
 31
0.0
  0
LINE
  8
0
  6
BYLAYER
 62
     1
 10
929.303754
 20
-697.907193
 30
0.0
 11
925.745538
 21
-698.031449
 31
0.0
  0
LINE
  8
0
  6
BYLAYER
 62
     7
 10
1033.553796
 20
-558.415055
 30
0.0
 11
1033.553796
 21
-557.580174
 31
0.0
  0
LINE
  8
0
  6
BYLAYER
 62
     7
 10
969.370557
 20
-556.080174
 30
0.0
 11
966.553796
 21
-556.080174
 31
0.0
  0
ARC
  8
0
  6
BYLAYER
 62
     7
 10
1032.053796
 20
-557.580174
 30
0.0
 40
1.5
 50
0.0
 51
90.0
  0
ARC
  8
0
  6
BYLAYER
 62
     7
 10
966.553796
 20
-557.580174
 30
0.0
 40
1.5
 50
90.0
 51
180.0
  0
LINE
  8
0
  6
BYLAYER
 62
     7
 10
965.053796
 20
-558.415006
 30
0.0
 11
965.053796
 21
-557.580174
 31
0.0
  0
LINE
  8
0
  6
BYLAYER
 62
     7
 10
1029.236951
 20
-556.080174
 30
0.0
 11
1032.053796
 21
-556.080174
 31
0.0
  0
LINE
  8
0
  6
BYLAYER
 62
     1
 10
246.303693
 20
-771.580205
 30
0.0
 11
196.303693
 21
-771.580205
 31
0.0
  0
LINE
  8
0
  6
BYLAYER
 62
     1
 10
246.303693
 20
-771.580205
 30
0.0
 11
247.803693
 21
-770.080205
 31
0.0
  0
LINE
  8
0
  6
BYLAYER
 62
     1
 10
196.303693
 20
-641.580205
 30
0.0
 11
246.303693
 21
-641.580205
 31
0.0
  0
LINE
  8
0
  6
BYLAYER
 62
     1
 10
246.303693
 20
-743.580205
 30
0.0
 11
246.303693
 21
-771.580205
 31
0.0
  0
LINE
  8
0
  6
BYLAYER
 62
     1
 10
246.303693
 20
-669.580205
 30
0.0
 11
246.303693
 21
-641.580205
 31
0.0
  0
LINE
  8
0
  6
BYLAYER
 62
     1
 10
247.803693
 20
-669.580205
 30
0.0
 11
247.803693
 21
-643.080205
 31
0.0
  0
LINE
  8
0
  6
BYLAYER
 62
     1
 10
402.303693
 20
-641.580205
 30
0.0
 11
402.303693
 21
-669.580205
 31
0.0
  0
LINE
  8
0
  6
BYLAYER
 62
     1
 10
402.303693
 20
-641.580205
 30
0.0
 11
352.303754
 21
-641.580205
 31
0.0
  0
LINE
  8
0
  6
BYLAYER
 62
     1
 10
350.803754
 20
-669.580205
 30
0.0
 11
350.803754
 21
-643.080205
 31
0.0
  0
LINE
  8
0
  6
BYLAYER
 62
     1
 10
352.303754
 20
-669.580205
 30
0.0
 11
352.303754
 21
-641.580205
 31
0.0
  0
LINE
  8
0
  6
BYLAYER
 62
     1
 10
402.303693
 20
-771.580205
 30
0.0
 11
402.303693
 21
-743.580205
 31
0.0
  0
LINE
  8
0
  6
BYLAYER
 62
     1
 10
352.303754
 20
-771.580205
 30
0.0
 11
402.303693
 21
-771.580205
 31
0.0
  0
LINE
  8
0
  6
BYLAYER
 62
     1
 10
352.303754
 20
-743.580205
 30
0.0
 11
352.303754
 21
-771.580205
 31
0.0
  0
LINE
  8
0
  6
BYLAYER
 62
     1
 10
352.303754
 20
-771.580205
 30
0.0
 11
350.803754
 21
-770.080205
 31
0.0
  0
CIRCLE
  8
0
  6
BYLAYER
 62
     1
 10
369.303754
 20
-756.580205
 30
0.0
 40
6.5
  0
CIRCLE
  8
0
  6
BYLAYER
 62
     1
 10
369.303754
 20
-656.580205
 30
0.0
 40
6.5
  0
LINE
  8
0
  6
BYLAYER
 62
     1
 10
350.803754
 20
-770.080205
 30
0.0
 11
247.803693
 21
-770.080205
 31
0.0
  0
LINE
  8
0
  6
BYLAYER
 62
     1
 10
196.303693
 20
-641.580205
 30
0.0
 11
196.303693
 21
-771.580205
 31
0.0
  0
ARC
  8
0
  6
BYLAYER
 62
     1
 10
226.303693
 20
-741.580205
 30
0.0
 40
2.0
 50
180.000000
 51
269.999996
  0
ARC
  8
0
  6
BYLAYER
 62
     1
 10
226.303693
 20
-671.580205
 30
0.0
 40
1.999939
 50
90.0
 51
180.000003
  0
ARC
  8
0
  6
BYLAYER
 62
     1
 10
372.303754
 20
-741.580205
 30
0.0
 40
2.0
 50
270.0
 51
359.999982
  0
ARC
  8
0
  6
BYLAYER
 62
     1
 10
372.303754
 20
-671.580205
 30
0.0
 40
1.999939
 50
0.0
 51
90.000016
  0
LINE
  8
0
  6
BYLAYER
 62
     1
 10
402.303693
 20
-659.580266
 30
0.0
 11
404.303693
 21
-659.580266
 31
0.0
  0
LINE
  8
0
  6
BYLAYER
 62
     1
 10
402.303693
 20
-753.580205
 30
0.0
 11
404.303693
 21
-753.580205
 31
0.0
  0
LINE
  8
0
  6
BYLAYER
 62
     1
 10
404.303693
 20
-659.580266
 30
0.0
 11
404.303693
 21
-753.580205
 31
0.0
  0
CIRCLE
  8
0
  6
BYLAYER
 62
     1
 10
354.303693
 20
-706.580205
 30
0.0
 40
7.0
  0
ARC
  8
0
  6
BYLAYER
 62
     1
 10
225.303693
 20
-704.580205
 30
0.0
 40
1.000000
 50
180.000000
 51
269.999996
  0
ARC
  8
0
  6
BYLAYER
 62
     1
 10
225.303693
 20
-708.580205
 30
0.0
 40
1.000000
 50
90.0
 51
180.000003
  0
ARC
  8
0
  6
BYLAYER
 62
     1
 10
225.303693
 20
-694.580205
 30
0.0
 40
1.000000
 50
180.000000
 51
269.999996
  0
ARC
  8
0
  6
BYLAYER
 62
     1
 10
225.303693
 20
-698.580205
 30
0.0
 40
1.000000
 50
90.0
 51
180.000003
  0
ARC
  8
0
  6
BYLAYER
 62
     1
 10
225.303693
 20
-684.580205
 30
0.0
 40
1.000000
 50
180.000000
 51
269.999996
  0
ARC
  8
0
  6
BYLAYER
 62
     1
 10
225.303693
 20
-688.580205
 30
0.0
 40
1.000000
 50
90.0
 51
180.000003
  0
ARC
  8
0
  6
BYLAYER
 62
     1
 10
225.303693
 20
-674.580205
 30
0.0
 40
1.000000
 50
180.000000
 51
269.999996
  0
ARC
  8
0
  6
BYLAYER
 62
     1
 10
225.303693
 20
-678.580205
 30
0.0
 40
1.000000
 50
90.0
 51
180.000003
  0
ARC
  8
0
  6
BYLAYER
 62
     1
 10
225.303693
 20
-714.580205
 30
0.0
 40
1.000000
 50
180.000000
 51
269.999996
  0
ARC
  8
0
  6
BYLAYER
 62
     1
 10
225.303693
 20
-724.580205
 30
0.0
 40
1.000000
 50
180.000000
 51
269.999996
  0
ARC
  8
0
  6
BYLAYER
 62
     1
 10
225.303693
 20
-734.580205
 30
0.0
 40
1.0
 50
180.000000
 51
269.999996
  0
ARC
  8
0
  6
BYLAYER
 62
     1
 10
225.303693
 20
-718.580205
 30
0.0
 40
1.000000
 50
90.0
 51
180.000003
  0
ARC
  8
0
  6
BYLAYER
 62
     1
 10
225.303693
 20
-728.580205
 30
0.0
 40
1.000000
 50
90.0
 51
180.000003
  0
ARC
  8
0
  6
BYLAYER
 62
     1
 10
225.303693
 20
-738.580205
 30
0.0
 40
1.000000
 50
90.0
 51
180.000003
  0
ARC
  8
0
  6
BYLAYER
 62
     1
 10
373.303754
 20
-724.580205
 30
0.0
 40
1.000000
 50
270.0
 51
360.000003
  0
ARC
  8
0
  6
BYLAYER
 62
     1
 10
373.303754
 20
-728.580205
 30
0.0
 40
1.0
 50
0.0
 51
90.000003
  0
ARC
  8
0
  6
BYLAYER
 62
     1
 10
373.303754
 20
-734.580205
 30
0.0
 40
1.000000
 50
270.0
 51
360.000003
  0
ARC
  8
0
  6
BYLAYER
 62
     1
 10
373.303754
 20
-738.580205
 30
0.0
 40
1.0
 50
0.0
 51
90.000003
  0
ARC
  8
0
  6
BYLAYER
 62
     1
 10
373.303754
 20
-684.580266
 30
0.0
 40
1.000000
 50
270.0
 51
360.000003
  0
ARC
  8
0
  6
BYLAYER
 62
     1
 10
373.303754
 20
-688.580266
 30
0.0
 40
1.0
 50
0.0
 51
90.000003
  0
ARC
  8
0
  6
BYLAYER
 62
     1
 10
373.303754
 20
-674.580266
 30
0.0
 40
1.000000
 50
270.0
 51
360.000003
  0
ARC
  8
0
  6
BYLAYER
 62
     1
 10
373.303754
 20
-678.580266
 30
0.0
 40
1.0
 50
0.0
 51
90.000003
  0
LINE
  8
0
  6
BYLAYER
 62
     1
 10
196.303693
 20
-669.580205
 30
0.0
 11
402.303693
 21
-669.580205
 31
0.0
  0
LINE
  8
0
  6
BYLAYER
 62
     1
 10
402.303693
 20
-743.580205
 30
0.0
 11
196.303693
 21
-743.580205
 31
0.0
  0
LINE
  8
0
  6
BYLAYER
 62
     1
 10
350.803754
 20
-743.580205
 30
0.0
 11
350.803754
 21
-770.080205
 31
0.0
  0
LINE
  8
0
  6
BYLAYER
 62
     1
 10
247.803693
 20
-743.580205
 30
0.0
 11
247.803693
 21
-770.080205
 31
0.0
  0
CIRCLE
  8
0
  6
BYLAYER
 62
     1
 10
229.303693
 20
-756.580205
 30
0.0
 40
6.5
  0
CIRCLE
  8
0
  6
BYLAYER
 62
     1
 10
229.303693
 20
-656.580205
 30
0.0
 40
6.5
  0
CIRCLE
  8
0
  6
BYLAYER
 62
     1
 10
229.303693
 20
-656.580205
 30
0.0
 40
6.5
  0
CIRCLE
  8
0
  6
BYLAYER
 62
     1
 10
354.303693
 20
-706.580205
 30
0.0
 40
12.0
  0
LINE
  8
0
  6
BYLAYER
 62
     1
 10
374.303754
 20
-671.580205
 30
0.0
 11
374.303754
 21
-676.580205
 31
0.0
  0
LINE
  8
0
  6
BYLAYER
 62
     1
 10
374.303754
 20
-706.580205
 30
0.0
 11
374.303754
 21
-686.580205
 31
0.0
  0
LINE
  8
0
  6
BYLAYER
 62
     1
 10
374.303754
 20
-686.580205
 30
0.0
 11
374.303754
 21
-676.580205
 31
0.0
  0
LINE
  8
0
  6
BYLAYER
 62
     1
 10
374.303754
 20
-726.580205
 30
0.0
 11
374.303754
 21
-706.580205
 31
0.0
  0
LINE
  8
0
  6
BYLAYER
 62
     1
 10
374.303754
 20
-736.580205
 30
0.0
 11
374.303754
 21
-726.580205
 31
0.0
  0
LINE
  8
0
  6
BYLAYER
 62
     1
 10
374.303754
 20
-736.580205
 30
0.0
 11
374.303754
 21
-741.580205
 31
0.0
  0
LINE
  8
0
  6
BYLAYER
 62
     1
 10
224.303693
 20
-671.580205
 30
0.0
 11
224.303693
 21
-676.580205
 31
0.0
  0
LINE
  8
0
  6
BYLAYER
 62
     1
 10
224.303693
 20
-686.580205
 30
0.0
 11
224.303693
 21
-676.580205
 31
0.0
  0
LINE
  8
0
  6
BYLAYER
 62
     1
 10
224.303693
 20
-696.580266
 30
0.0
 11
224.303693
 21
-686.580205
 31
0.0
  0
LINE
  8
0
  6
BYLAYER
 62
     1
 10
224.303693
 20
-706.580205
 30
0.0
 11
224.303693
 21
-696.580266
 31
0.0
  0
LINE
  8
0
  6
BYLAYER
 62
     1
 10
224.303693
 20
-716.580205
 30
0.0
 11
224.303693
 21
-706.580205
 31
0.0
  0
LINE
  8
0
  6
BYLAYER
 62
     1
 10
224.303693
 20
-726.580205
 30
0.0
 11
224.303693
 21
-716.580205
 31
0.0
  0
LINE
  8
0
  6
BYLAYER
 62
     1
 10
224.303693
 20
-736.580205
 30
0.0
 11
224.303693
 21
-726.580205
 31
0.0
  0
LINE
  8
0
  6
BYLAYER
 62
     1
 10
224.303693
 20
-736.580205
 30
0.0
 11
224.303693
 21
-741.580205
 31
0.0
  0
LINE
  8
0
  6
BYLAYER
 62
     1
 10
247.803632
 20
-643.080205
 30
0.0
 11
350.803815
 21
-643.080205
 31
0.0
  0
LINE
  8
0
  6
BYLAYER
 62
     1
 10
246.303693
 20
-641.580205
 30
0.0
 11
247.803632
 21
-643.080205
 31
0.0
  0
LINE
  8
0
  6
BYLAYER
 62
     1
 10
352.303754
 20
-641.580205
 30
0.0
 11
350.803815
 21
-643.080205
 31
0.0
  0
LINE
  8
0
  6
BYLAYER
 62
     1
 10
350.803754
 20
-643.080205
 30
0.0
 11
247.803632
 21
-643.080205
 31
0.0
  0
LINE
  8
0
  6
BYLAYER
 62
     1
 10
299.303754
 20
-639.580205
 30
0.0
 11
219.303754
 21
-639.580205
 31
0.0
  0
LINE
  8
0
  6
BYLAYER
 62
     1
 10
352.303815
 20
-641.580205
 30
0.0
 11
350.803876
 21
-643.080205
 31
0.0
  0
LINE
  8
0
  6
BYLAYER
 62
     1
 10
299.303754
 20
-639.580205
 30
0.0
 11
379.303754
 21
-639.580205
 31
0.0
  0
LINE
  8
0
  6
BYLAYER
 62
     1
 10
219.233930
 20
-641.580205
 30
0.0
 11
219.303754
 21
-639.580205
 31
0.0
  0
LINE
  8
0
  6
BYLAYER
 62
     1
 10
379.373578
 20
-641.580205
 30
0.0
 11
379.303754
 21
-639.580205
 31
0.0
  0
LINE
  8
0
  6
BYLAYER
 62
     1
 10
244.803754
 20
-636.580205
 30
0.0
 11
244.303754
 21
-637.080205
 31
0.0
  0
LINE
  8
0
  6
BYLAYER
 62
     1
 10
244.303754
 20
-637.080205
 30
0.0
 11
244.303754
 21
-639.580205
 31
0.0
  0
LINE
  8
0
  6
BYLAYER
 62
     1
 10
244.803754
 20
-636.580205
 30
0.0
 11
353.803754
 21
-636.580205
 31
0.0
  0
LINE
  8
0
  6
BYLAYER
 62
     1
 10
353.803754
 20
-636.580205
 30
0.0
 11
354.303754
 21
-637.080205
 31
0.0
  0
LINE
  8
0
  6
BYLAYER
 62
     1
 10
354.303754
 20
-637.080205
 30
0.0
 11
354.303754
 21
-639.580205
 31
0.0
  0
LINE
  8
0
  6
BYLAYER
 62
     1
 10
299.303754
 20
-773.580205
 30
0.0
 11
219.303754
 21
-773.580205
 31
0.0
  0
LINE
  8
0
  6
BYLAYER
 62
     1
 10
299.303754
 20
-773.580205
 30
0.0
 11
379.303754
 21
-773.580205
 31
0.0
  0
LINE
  8
0
  6
BYLAYER
 62
     1
 10
219.233930
 20
-771.580205
 30
0.0
 11
219.303754
 21
-773.580205
 31
0.0
  0
LINE
  8
0
  6
BYLAYER
 62
     1
 10
379.373578
 20
-771.580205
 30
0.0
 11
379.303754
 21
-773.580205
 31
0.0
  0
LINE
  8
0
  6
BYLAYER
 62
     1
 10
244.803754
 20
-776.580205
 30
0.0
 11
244.303754
 21
-776.080205
 31
0.0
  0
LINE
  8
0
  6
BYLAYER
 62
     1
 10
244.303754
 20
-776.080205
 30
0.0
 11
244.303754
 21
-773.580205
 31
0.0
  0
LINE
  8
0
  6
BYLAYER
 62
     1
 10
244.803754
 20
-776.580205
 30
0.0
 11
353.803754
 21
-776.580205
 31
0.0
  0
LINE
  8
0
  6
BYLAYER
 62
     1
 10
353.803754
 20
-776.580205
 30
0.0
 11
354.303754
 21
-776.080205
 31
0.0
  0
LINE
  8
0
  6
BYLAYER
 62
     1
 10
354.303754
 20
-776.080205
 30
0.0
 11
354.303754
 21
-773.580205
 31
0.0
  0
ARC
  8
0
  6
BYLAYER
 62
     1
 10
261.899758
 20
-726.580205
 30
0.0
 40
1.0
 50
270.0
 51
450.000005
  0
ARC
  8
0
  6
BYLAYER
 62
     1
 10
261.899758
 20
-736.580205
 30
0.0
 40
1.0
 50
270.0
 51
450.000005
  0
LINE
  8
0
  6
BYLAYER
 62
     1
 10
261.899758
 20
-735.580205
 30
0.0
 11
225.303693
 21
-735.580266
 31
0.0
  0
LINE
  8
0
  6
BYLAYER
 62
     1
 10
261.899758
 20
-737.580205
 30
0.0
 11
225.303693
 21
-737.580266
 31
0.0
  0
LINE
  8
0
  6
BYLAYER
 62
     1
 10
261.899758
 20
-725.580205
 30
0.0
 11
225.303693
 21
-725.580266
 31
0.0
  0
LINE
  8
0
  6
BYLAYER
 62
     1
 10
261.899758
 20
-727.580205
 30
0.0
 11
225.303693
 21
-727.580266
 31
0.0
  0
ARC
  8
0
  6
BYLAYER
 62
     1
 10
261.899758
 20
-686.580205
 30
0.0
 40
1.0
 50
270.0
 51
450.000005
  0
ARC
  8
0
  6
BYLAYER
 62
     1
 10
261.899758
 20
-676.580205
 30
0.0
 40
1.0
 50
270.0
 51
450.000005
  0
LINE
  8
0
  6
BYLAYER
 62
     1
 10
261.899758
 20
-675.580205
 30
0.0
 11
225.303693
 21
-675.580205
 31
0.0
  0
LINE
  8
0
  6
BYLAYER
 62
     1
 10
261.899758
 20
-677.580205
 30
0.0
 11
225.303693
 21
-677.580205
 31
0.0
  0
LINE
  8
0
  6
BYLAYER
 62
     1
 10
261.899758
 20
-685.580205
 30
0.0
 11
225.303693
 21
-685.580205
 31
0.0
  0
LINE
  8
0
  6
BYLAYER
 62
     1
 10
261.899758
 20
-687.580205
 30
0.0
 11
225.303693
 21
-687.580205
 31
0.0
  0
ARC
  8
0
  6
BYLAYER
 62
     1
 10
266.313858
 20
-706.580266
 30
0.0
 40
1.0
 50
270.0
 51
450.000005
  0
LINE
  8
0
  6
BYLAYER
 62
     1
 10
225.303693
 20
-705.580205
 30
0.0
 11
266.313858
 21
-705.580266
 31
0.0
  0
LINE
  8
0
  6
BYLAYER
 62
     1
 10
225.303693
 20
-707.580205
 30
0.0
 11
266.313858
 21
-707.580266
 31
0.0
  0
ARC
  8
0
  6
BYLAYER
 62
     1
 10
268.313858
 20
-696.580266
 30
0.0
 40
1.0
 50
270.0
 51
450.000005
  0
LINE
  8
0
  6
BYLAYER
 62
     1
 10
225.303693
 20
-695.580205
 30
0.0
 11
268.313858
 21
-695.580266
 31
0.0
  0
LINE
  8
0
  6
BYLAYER
 62
     1
 10
225.303693
 20
-697.580205
 30
0.0
 11
268.313858
 21
-697.580266
 31
0.0
  0
ARC
  8
0
  6
BYLAYER
 62
     1
 10
268.313858
 20
-716.580205
 30
0.0
 40
1.0
 50
270.0
 51
450.000005
  0
LINE
  8
0
  6
BYLAYER
 62
     1
 10
225.303693
 20
-717.580266
 30
0.0
 11
268.313858
 21
-717.580205
 31
0.0
  0
LINE
  8
0
  6
BYLAYER
 62
     1
 10
225.303693
 20
-715.580266
 30
0.0
 11
268.313858
 21
-715.580205
 31
0.0
  0
ARC
  8
0
  6
BYLAYER
 62
     1
 10
334.917885
 20
-726.580205
 30
0.0
 40
1.0
 50
90.0
 51
270.000005
  0
ARC
  8
0
  6
BYLAYER
 62
     1
 10
334.917885
 20
-736.580205
 30
0.0
 40
1.0
 50
90.0
 51
270.000005
  0
LINE
  8
0
  6
BYLAYER
 62
     1
 10
373.303754
 20
-735.580205
 30
0.0
 11
334.917885
 21
-735.580266
 31
0.0
  0
LINE
  8
0
  6
BYLAYER
 62
     1
 10
373.303754
 20
-737.580205
 30
0.0
 11
334.917885
 21
-737.580266
 31
0.0
  0
LINE
  8
0
  6
BYLAYER
 62
     1
 10
373.303754
 20
-725.580205
 30
0.0
 11
334.917885
 21
-725.580266
 31
0.0
  0
ARC
  8
0
  6
BYLAYER
 62
     1
 10
334.917885
 20
-686.580205
 30
0.0
 40
1.0
 50
90.0
 51
270.000005
  0
ARC
  8
0
  6
BYLAYER
 62
     1
 10
334.917885
 20
-676.580205
 30
0.0
 40
1.0
 50
90.0
 51
270.000005
  0
LINE
  8
0
  6
BYLAYER
 62
     1
 10
373.303754
 20
-685.580266
 30
0.0
 11
334.917885
 21
-685.580205
 31
0.0
  0
LINE
  8
0
  6
BYLAYER
 62
     1
 10
373.303754
 20
-687.580266
 30
0.0
 11
334.917885
 21
-687.580205
 31
0.0
  0
LINE
  8
0
  6
BYLAYER
 62
     1
 10
334.917885
 20
-727.580266
 30
0.0
 11
373.303754
 21
-727.580205
 31
0.0
  0
LINE
  8
0
  6
BYLAYER
 62
     1
 10
334.917885
 20
-675.580205
 30
0.0
 11
373.303754
 21
-675.580205
 31
0.0
  0
LINE
  8
0
  6
BYLAYER
 62
     1
 10
334.917885
 20
-677.580205
 30
0.0
 11
373.303754
 21
-677.580205
 31
0.0
  0
LINE
  8
0
  6
BYLAYER
 62
     1
 10
428.803693
 20
-646.580207
 30
0.0
 11
428.803693
 21
-706.580205
 31
0.0
  0
ARC
  8
0
  6
BYLAYER
 62
     1
 10
416.803693
 20
-663.113011
 30
0.0
 40
1.999988
 50
281.000195
 51
360.000000
  0
LINE
  8
0
  6
BYLAYER
 62
     1
 10
418.803693
 20
-649.002202
 30
0.0
 11
418.803693
 21
-706.580205
 31
0.0
  0
LINE
  8
0
  6
BYLAYER
 62
     1
 10
404.303693
 20
-667.580190
 30
0.0
 11
417.185315
 21
-665.076253
 31
0.0
  0
LINE
  8
0
  6
BYLAYER
 62
     1
 10
418.803693
 20
-649.002202
 30
0.0
 11
405.470807
 21
-667.353322
 31
0.0
  0
LINE
  8
0
  6
BYLAYER
 62
     1
 10
404.303693
 20
-667.580190
 30
0.0
 11
404.303693
 21
-706.580205
 31
0.0
  0
LINE
  8
0
  6
BYLAYER
 62
     1
 10
420.699018
 20
-647.004949
 30
0.0
 11
428.803693
 21
-646.580207
 31
0.0
  0
ARC
  8
0
  6
BYLAYER
 62
     1
 10
420.803693
 20
-649.002202
 30
0.0
 40
2.0
 50
93.000097
 51
180.000000
  0
LINE
  8
0
  6
BYLAYER
 62
     1
 10
428.803693
 20
-766.580203
 30
0.0
 11
428.803693
 21
-706.580205
 31
0.0
  0
ARC
  8
0
  6
BYLAYER
 62
     1
 10
416.803693
 20
-750.047399
 30
0.0
 40
1.999988
 50
0.0
 51
78.999805
  0
LINE
  8
0
  6
BYLAYER
 62
     1
 10
418.803693
 20
-764.158208
 30
0.0
 11
418.803693
 21
-706.580205
 31
0.0
  0
LINE
  8
0
  6
BYLAYER
 62
     1
 10
404.303693
 20
-745.580220
 30
0.0
 11
417.185315
 21
-748.084157
 31
0.0
  0
LINE
  8
0
  6
BYLAYER
 62
     1
 10
418.803693
 20
-764.158208
 30
0.0
 11
405.470807
 21
-745.807088
 31
0.0
  0
LINE
  8
0
  6
BYLAYER
 62
     1
 10
404.303693
 20
-745.580220
 30
0.0
 11
404.303693
 21
-706.580205
 31
0.0
  0
LINE
  8
0
  6
BYLAYER
 62
     1
 10
420.699018
 20
-766.155461
 30
0.0
 11
428.803693
 21
-766.580203
 31
0.0
  0
ARC
  8
0
  6
BYLAYER
 62
     1
 10
420.803693
 20
-764.158208
 30
0.0
 40
2.0
 50
180.000000
 51
266.999903
  0
LINE
  8
0
  6
BYLAYER
 62
     1
 10
471.803816
 20
-784.580276
 30
0.0
 11
471.803816
 21
-750.662755
 31
0.0
  0
ARC
  8
0
  6
BYLAYER
 62
     1
 10
473.803816
 20
-784.580276
 30
0.0
 40
2.000000
 50
180.000000
 51
270.000000
  0
LINE
  8
0
  6
BYLAYER
 62
     1
 10
447.803816
 20
-706.580205
 30
0.0
 11
447.803816
 21
-641.080230
 31
0.0
  0
ARC
  8
0
  6
BYLAYER
 62
     1
 10
445.803816
 20
-641.080230
 30
0.0
 40
2.000000
 50
0.0
 51
90.0
  0
LINE
  8
0
  6
BYLAYER
 62
     1
 10
439.803816
 20
-639.080230
 30
0.0
 11
439.803816
 21
-706.580205
 31
0.0
  0
LINE
  8
0
  6
BYLAYER
 62
     1
 10
445.803816
 20
-639.080230
 30
0.0
 11
439.803816
 21
-639.080230
 31
0.0
  0
LINE
  8
0
  6
BYLAYER
 62
     1
 10
474.803816
 20
-684.940140
 30
0.0
 11
474.803816
 21
-667.080230
 31
0.0
  0
ARC
  8
0
  6
BYLAYER
 62
     1
 10
469.803816
 20
-667.080230
 30
0.0
 40
5.000000
 50
0.0
 51
90.0
  0
ARC
  8
0
  6
BYLAYER
 62
     1
 10
476.803816
 20
-684.940140
 30
0.0
 40
2.000000
 50
180.000000
 51
270.000000
  0
LINE
  8
0
  6
BYLAYER
 62
     1
 10
481.803816
 20
-786.580276
 30
0.0
 11
473.803816
 21
-786.580276
 31
0.0
  0
LINE
  8
0
  6
BYLAYER
 62
     1
 10
450.803816
 20
-662.080230
 30
0.0
 11
469.803816
 21
-662.080230
 31
0.0
  0
ARC
  8
0
  6
BYLAYER
 62
     1
 10
450.803816
 20
-659.080230
 30
0.0
 40
3.0
 50
180.000000
 51
270.000000
  0
LINE
  8
0
  6
BYLAYER
 62
     1
 10
481.803816
 20
-786.580276
 30
0.0
 11
481.803816
 21
-706.580205
 31
0.0
  0
LINE
  8
0
  6
BYLAYER
 62
     1
 10
471.803816
 20
-628.580134
 30
0.0
 11
471.803816
 21
-662.497655
 31
0.0
  0
ARC
  8
0
  6
BYLAYER
 62
     1
 10
473.803816
 20
-628.580134
 30
0.0
 40
2.000000
 50
90.0
 51
180.0
  0
LINE
  8
0
  6
BYLAYER
 62
     1
 10
481.803816
 20
-626.580134
 30
0.0
 11
473.803816
 21
-626.580134
 31
0.0
  0
LINE
  8
0
  6
BYLAYER
 62
     1
 10
481.803816
 20
-626.580134
 30
0.0
 11
481.803816
 21
-706.580205
 31
0.0
  0
LINE
  8
0
  6
BYLAYER
 62
     1
 10
447.803816
 20
-706.580205
 30
0.0
 11
447.803816
 21
-772.080180
 31
0.0
  0
ARC
  8
0
  6
BYLAYER
 62
     1
 10
445.803816
 20
-772.080180
 30
0.0
 40
2.0
 50
270.0
 51
360.0
  0
LINE
  8
0
  6
BYLAYER
 62
     1
 10
445.803816
 20
-774.080180
 30
0.0
 11
439.803816
 21
-774.080180
 31
0.0
  0
LINE
  8
0
  6
BYLAYER
 62
     1
 10
474.803816
 20
-728.220270
 30
0.0
 11
474.803816
 21
-746.080180
 31
0.0
  0
ARC
  8
0
  6
BYLAYER
 62
     1
 10
469.803816
 20
-746.080180
 30
0.0
 40
5.000000
 50
270.0
 51
360.0
  0
ARC
  8
0
  6
BYLAYER
 62
     1
 10
476.803816
 20
-728.220270
 30
0.0
 40
2.000000
 50
90.0
 51
180.0
  0
LINE
  8
0
  6
BYLAYER
 62
     1
 10
450.803816
 20
-751.080180
 30
0.0
 11
469.803816
 21
-751.080180
 31
0.0
  0
ARC
  8
0
  6
BYLAYER
 62
     1
 10
450.803816
 20
-754.080180
 30
0.0
 40
3.0
 50
90.0
 51
180.0
  0
LINE
  8
0
  6
BYLAYER
 62
     1
 10
428.803693
 20
-706.580205
 30
0.0
 11
428.803877
 21
-766.580129
 31
0.0
  0
LINE
  8
0
  6
BYLAYER
 62
     1
 10
429.803870
 20
-706.580205
 30
0.0
 11
429.803870
 21
-771.799622
 31
0.0
  0
LINE
  8
0
  6
BYLAYER
 62
     1
 10
431.734071
 20
-773.798403
 30
0.0
 11
439.803816
 21
-774.080205
 31
0.0
  0
ARC
  8
0
  6
BYLAYER
 62
     1
 10
431.803870
 20
-771.799622
 30
0.0
 40
2.0
 50
180.000000
 51
268.000000
  0
LINE
  8
0
  6
BYLAYER
 62
     1
 10
428.803877
 20
-766.580129
 30
0.0
 11
428.838770
 21
-766.581347
 31
0.0
  0
ARC
  8
0
  6
BYLAYER
 62
     1
 10
428.803870
 20
-767.580738
 30
0.0
 40
1.000000
 50
0.0
 51
88.0
  0
LINE
  8
0
  6
BYLAYER
 62
     1
 10
439.803816
 20
-639.080205
 30
0.0
 11
431.734071
 21
-639.362007
 31
0.0
  0
ARC
  8
0
  6
BYLAYER
 62
     1
 10
431.803870
 20
-641.360788
 30
0.0
 40
2.0
 50
92.000000
 51
180.000000
  0
LINE
  8
0
  6
BYLAYER
 62
     1
 10
428.803877
 20
-646.925869
 30
0.0
 11
428.803691
 21
-706.580205
 31
0.0
  0
LINE
  8
0
  6
BYLAYER
 62
     1
 10
428.838770
 20
-646.924651
 30
0.0
 11
428.803877
 21
-646.925869
 31
0.0
  0
ARC
  8
0
  6
BYLAYER
 62
     1
 10
428.803870
 20
-645.925260
 30
0.0
 40
1.000000
 50
272.0
 51
360.0
  0
LINE
  8
0
  6
BYLAYER
 62
     1
 10
429.803870
 20
-641.360788
 30
0.0
 11
429.803870
 21
-706.580205
 31
0.0
  0
LINE
  8
0
  6
BYLAYER
 62
     1
 10
439.803816
 20
-774.080205
 30
0.0
 11
439.803816
 21
-706.580205
 31
0.0
  0
LINE
  8
0
  6
BYLAYER
 62
     1
 10
449.953659
 20
-651.250397
 30
0.0
 11
469.473649
 21
-651.250397
 31
0.0
  0
ARC
  8
0
  6
BYLAYER
 62
     1
 10
469.473649
 20
-649.250397
 30
0.0
 40
2.000000
 50
270.0
 51
360.0
  0
ARC
  8
0
  6
BYLAYER
 62
     1
 10
449.953659
 20
-649.250397
 30
0.0
 40
2.000000
 50
180.000000
 51
270.000000
  0
LINE
  8
0
  6
BYLAYER
 62
     1
 10
449.953659
 20
-761.910013
 30
0.0
 11
469.473649
 21
-761.910013
 31
0.0
  0
ARC
  8
0
  6
BYLAYER
 62
     1
 10
469.473649
 20
-763.910013
 30
0.0
 40
2.000000
 50
0.0
 51
90.0
  0
ARC
  8
0
  6
BYLAYER
 62
     1
 10
449.953659
 20
-763.910013
 30
0.0
 40
2.000000
 50
90.0
 51
180.0
  0
ENDSEC
  0
EOF
