  0
SECTION
  2
HEADER
  9
$EXTMIN
 10
210.307167
 20
780.0
 30
0.0
  9
$EXTMAX
 10
1011.604096
 20
0.0
 30
0.0
  0
ENDSEC
  0
SECTION
  2
TABLES
  0
ENDSEC
  0
SECTION
  2
BLOCKS
  0
ENDSEC
  0
SECTION
  2
ENTITIES
  0
LINE
  8
0
  6
BYLAYER
 62
     7
 10
503.788043
 20
-44.923147
 30
0.0
 11
497.987994
 21
-44.923147
 31
0.0
  0
ARC
  8
0
  6
BYLAYER
 62
     7
 10
503.788043
 20
-46.423147
 30
0.0
 40
1.500000
 50
0.0
 51
90.000003
  0
ARC
  8
0
  6
BYLAYER
 62
     7
 10
533.188052
 20
-46.423147
 30
0.0
 40
1.500000
 50
90.0
 51
180.000003
  0
LINE
  8
0
  6
BYLAYER
 62
     7
 10
542.788043
 20
-44.923147
 30
0.0
 11
533.188052
 21
-44.923147
 31
0.0
  0
ARC
  8
0
  6
BYLAYER
 62
     7
 10
542.788043
 20
-46.423147
 30
0.0
 40
1.5
 50
0.0
 51
90.000003
  0
LINE
  8
0
  6
BYLAYER
 62
     7
 10
577.988055
 20
-44.923086
 30
0.0
 11
572.188067
 21
-44.923086
 31
0.0
  0
ARC
  8
0
  6
BYLAYER
 62
     7
 10
572.188067
 20
-46.423086
 30
0.0
 40
1.500000
 50
90.0
 51
180.000003
  0
ARC
  8
0
  6
BYLAYER
 62
     7
 10
518.488055
 20
-53.923086
 30
0.0
 40
13.200012
 50
180.000000
 51
359.999995
  0
ARC
  8
0
  6
BYLAYER
 62
     7
 10
557.488055
 20
-53.923086
 30
0.0
 40
13.200012
 50
180.000000
 51
359.999995
  0
LINE
  8
0
  6
BYLAYER
 62
     7
 10
497.987994
 20
-50.423147
 30
0.0
 11
503.788043
 21
-50.423147
 31
0.0
  0
LINE
  8
0
  6
BYLAYER
 62
     7
 10
505.288043
 20
-46.423147
 30
0.0
 11
505.288043
 21
-51.923147
 31
0.0
  0
LINE
  8
0
  6
BYLAYER
 62
     7
 10
505.288043
 20
-51.923147
 30
0.0
 11
505.288043
 21
-53.923086
 31
0.0
  0
ARC
  8
0
  6
BYLAYER
 62
     7
 10
503.788043
 20
-51.923147
 30
0.0
 40
1.500000
 50
0.0
 51
90.000003
  0
ARC
  8
0
  6
BYLAYER
 62
     7
 10
533.188052
 20
-51.923086
 30
0.0
 40
1.500000
 50
90.0
 51
180.000003
  0
LINE
  8
0
  6
BYLAYER
 62
     7
 10
533.188052
 20
-50.423086
 30
0.0
 11
542.788043
 21
-50.423086
 31
0.0
  0
LINE
  8
0
  6
BYLAYER
 62
     7
 10
544.288043
 20
-46.423147
 30
0.0
 11
544.288043
 21
-51.923086
 31
0.0
  0
LINE
  8
0
  6
BYLAYER
 62
     7
 10
544.288043
 20
-51.923086
 30
0.0
 11
544.288043
 21
-53.923086
 31
0.0
  0
ARC
  8
0
  6
BYLAYER
 62
     7
 10
542.788043
 20
-51.923086
 30
0.0
 40
1.5
 50
0.0
 51
90.000003
  0
LINE
  8
0
  6
BYLAYER
 62
     7
 10
570.688067
 20
-53.923086
 30
0.0
 11
570.688067
 21
-51.923086
 31
0.0
  0
LINE
  8
0
  6
BYLAYER
 62
     7
 10
570.688067
 20
-51.923086
 30
0.0
 11
570.688067
 21
-46.423086
 31
0.0
  0
LINE
  8
0
  6
BYLAYER
 62
     7
 10
572.188067
 20
-50.423086
 30
0.0
 11
577.988055
 21
-50.423086
 31
0.0
  0
ARC
  8
0
  6
BYLAYER
 62
     7
 10
572.188067
 20
-51.923086
 30
0.0
 40
1.500000
 50
90.0
 51
180.000003
  0
LINE
  8
0
  6
BYLAYER
 62
     7
 10
531.688052
 20
-46.423147
 30
0.0
 11
531.688052
 21
-53.923086
 31
0.0
  0
LINE
  8
0
  6
BYLAYER
 62
     7
 10
495.987994
 20
-60.173208
 30
0.0
 11
497.988024
 21
-60.173208
 31
0.0
  0
LINE
  8
0
  6
BYLAYER
 62
     7
 10
598.488116
 20
-58.170919
 30
0.0
 11
577.988055
 21
-58.170919
 31
0.0
  0
LINE
  8
0
  6
BYLAYER
 62
     7
 10
577.988055
 20
-40.423086
 30
0.0
 11
577.988055
 21
-74.191121
 31
0.0
  0
LINE
  8
0
  6
BYLAYER
 62
     7
 10
598.488116
 20
-53.712819
 30
0.0
 11
577.988055
 21
-53.712819
 31
0.0
  0
LINE
  8
0
  6
BYLAYER
 62
     7
 10
577.988055
 20
-49.589376
 30
0.0
 11
598.488116
 21
-49.589376
 31
0.0
  0
LINE
  8
0
  6
BYLAYER
 62
     7
 10
577.988055
 20
-50.935079
 30
0.0
 11
598.488116
 21
-50.935079
 31
0.0
  0
ARC
  8
0
  6
BYLAYER
 62
     7
 10
498.838046
 20
-112.073232
 30
0.0
 40
0.850006
 50
90.0
 51
269.999998
  0
ARC
  8
0
  6
BYLAYER
 62
     7
 10
502.837970
 20
-112.073232
 30
0.0
 40
0.850006
 50
90.0
 51
269.999998
  0
LINE
  8
0
  6
BYLAYER
 62
     7
 10
498.838031
 20
-111.223226
 30
0.0
 11
598.488116
 21
-111.223308
 31
0.0
  0
LINE
  8
0
  6
BYLAYER
 62
     7
 10
498.838031
 20
-112.923208
 30
0.0
 11
598.488116
 21
-112.923290
 31
0.0
  0
ARC
  8
0
  6
BYLAYER
 62
     7
 10
498.838046
 20
-101.373220
 30
0.0
 40
0.850006
 50
90.0
 51
269.999998
  0
ARC
  8
0
  6
BYLAYER
 62
     7
 10
502.837970
 20
-101.373220
 30
0.0
 40
0.850006
 50
90.0
 51
269.999998
  0
ARC
  8
0
  6
BYLAYER
 62
     7
 10
498.838046
 20
-90.673238
 30
0.0
 40
0.850006
 50
90.0
 51
269.999998
  0
ARC
  8
0
  6
BYLAYER
 62
     7
 10
502.837970
 20
-90.673238
 30
0.0
 40
0.850006
 50
90.0
 51
269.999998
  0
LINE
  8
0
  6
BYLAYER
 62
     7
 10
498.838031
 20
-89.823232
 30
0.0
 11
598.488116
 21
-89.823315
 31
0.0
  0
LINE
  8
0
  6
BYLAYER
 62
     7
 10
498.838031
 20
-91.523214
 30
0.0
 11
598.488116
 21
-91.523296
 31
0.0
  0
ARC
  8
0
  6
BYLAYER
 62
     7
 10
498.838046
 20
-79.973226
 30
0.0
 40
0.850006
 50
90.0
 51
269.999998
  0
ARC
  8
0
  6
BYLAYER
 62
     7
 10
502.837970
 20
-79.973226
 30
0.0
 40
0.850006
 50
90.0
 51
269.999998
  0
LINE
  8
0
  6
BYLAYER
 62
     7
 10
498.838031
 20
-79.123220
 30
0.0
 11
598.488116
 21
-79.123302
 31
0.0
  0
LINE
  8
0
  6
BYLAYER
 62
     7
 10
498.838031
 20
-80.823201
 30
0.0
 11
598.488116
 21
-80.823284
 31
0.0
  0
LINE
  8
0
  6
BYLAYER
 62
     7
 10
505.987994
 20
-102.223195
 30
0.0
 11
505.987994
 21
-111.223226
 31
0.0
  0
LINE
  8
0
  6
BYLAYER
 62
     7
 10
505.987994
 20
-91.523183
 30
0.0
 11
505.987994
 21
-100.523214
 31
0.0
  0
LINE
  8
0
  6
BYLAYER
 62
     7
 10
505.987994
 20
-80.823201
 30
0.0
 11
505.987994
 21
-89.823232
 31
0.0
  0
LINE
  8
0
  6
BYLAYER
 62
     7
 10
505.987994
 20
-74.191121
 30
0.0
 11
505.987994
 21
-79.123220
 31
0.0
  0
LINE
  8
0
  6
BYLAYER
 62
     7
 10
497.988024
 20
-69.881185
 30
0.0
 11
505.987994
 21
-74.191121
 31
0.0
  0
LINE
  8
0
  6
BYLAYER
 62
     7
 10
598.488116
 20
-74.191121
 30
0.0
 11
505.987994
 21
-74.191121
 31
0.0
  0
ARC
  8
0
  6
BYLAYER
 62
     7
 10
498.838046
 20
-122.773183
 30
0.0
 40
0.850006
 50
90.0
 51
269.999998
  0
ARC
  8
0
  6
BYLAYER
 62
     7
 10
502.837970
 20
-122.773183
 30
0.0
 40
0.850006
 50
90.0
 51
269.999998
  0
LINE
  8
0
  6
BYLAYER
 62
     7
 10
498.838031
 20
-123.623189
 30
0.0
 11
598.488116
 21
-123.623107
 31
0.0
  0
LINE
  8
0
  6
BYLAYER
 62
     7
 10
498.838031
 20
-121.923208
 30
0.0
 11
598.488116
 21
-121.923125
 31
0.0
  0
ARC
  8
0
  6
BYLAYER
 62
     7
 10
498.838046
 20
-133.473195
 30
0.0
 40
0.850006
 50
90.0
 51
269.999998
  0
ARC
  8
0
  6
BYLAYER
 62
     7
 10
502.837970
 20
-133.473195
 30
0.0
 40
0.850006
 50
90.0
 51
269.999998
  0
ARC
  8
0
  6
BYLAYER
 62
     7
 10
498.838046
 20
-144.173177
 30
0.0
 40
0.850006
 50
90.0
 51
269.999998
  0
ARC
  8
0
  6
BYLAYER
 62
     7
 10
502.837970
 20
-144.173177
 30
0.0
 40
0.850006
 50
90.0
 51
269.999998
  0
LINE
  8
0
  6
BYLAYER
 62
     7
 10
498.838031
 20
-145.023183
 30
0.0
 11
598.488116
 21
-145.023101
 31
0.0
  0
LINE
  8
0
  6
BYLAYER
 62
     7
 10
498.838031
 20
-143.323201
 30
0.0
 11
598.488116
 21
-143.323119
 31
0.0
  0
ARC
  8
0
  6
BYLAYER
 62
     7
 10
498.838046
 20
-154.873189
 30
0.0
 40
0.850006
 50
90.0
 51
269.999998
  0
ARC
  8
0
  6
BYLAYER
 62
     7
 10
502.837970
 20
-154.873189
 30
0.0
 40
0.850006
 50
90.0
 51
269.999998
  0
LINE
  8
0
  6
BYLAYER
 62
     7
 10
498.838031
 20
-155.723195
 30
0.0
 11
598.488116
 21
-155.723113
 31
0.0
  0
LINE
  8
0
  6
BYLAYER
 62
     7
 10
498.838031
 20
-154.023214
 30
0.0
 11
598.488116
 21
-154.023131
 31
0.0
  0
LINE
  8
0
  6
BYLAYER
 62
     7
 10
505.987994
 20
-132.623220
 30
0.0
 11
505.987994
 21
-123.623189
 31
0.0
  0
LINE
  8
0
  6
BYLAYER
 62
     7
 10
505.987994
 20
-143.323232
 30
0.0
 11
505.987994
 21
-134.323201
 31
0.0
  0
LINE
  8
0
  6
BYLAYER
 62
     7
 10
505.987994
 20
-154.023214
 30
0.0
 11
505.987994
 21
-145.023183
 31
0.0
  0
LINE
  8
0
  6
BYLAYER
 62
     7
 10
497.988116
 20
-174.673208
 30
0.0
 11
497.987994
 21
-40.423086
 31
0.0
  0
LINE
  8
0
  6
BYLAYER
 62
     7
 10
497.988116
 20
-174.673208
 30
0.0
 11
495.988116
 21
-174.673208
 31
0.0
  0
LINE
  8
0
  6
BYLAYER
 62
     7
 10
505.987994
 20
-112.923208
 30
0.0
 11
505.987994
 21
-121.923208
 31
0.0
  0
LINE
  8
0
  6
BYLAYER
 62
     7
 10
497.988101
 20
-156.149618
 30
0.0
 11
500.160846
 21
-164.258443
 31
0.0
  0
ARC
  8
0
  6
BYLAYER
 62
     7
 10
502.092700
 20
-163.740804
 30
0.0
 40
2.000003
 50
195.000016
 51
270.000001
  0
LINE
  8
0
  6
BYLAYER
 62
     7
 10
497.988101
 20
-159.587209
 30
0.0
 11
501.458270
 21
-172.538015
 31
0.0
  0
ARC
  8
0
  6
BYLAYER
 62
     7
 10
503.390109
 20
-172.020376
 30
0.0
 40
1.999988
 50
195.000043
 51
270.000001
  0
LINE
  8
0
  6
BYLAYER
 62
     7
 10
497.988116
 20
-167.381810
 30
0.0
 11
500.936969
 21
-178.387090
 31
0.0
  0
ARC
  8
0
  6
BYLAYER
 62
     7
 10
502.868823
 20
-177.869451
 30
0.0
 40
2.000003
 50
195.000043
 51
270.000001
  0
LINE
  8
0
  6
BYLAYER
 62
     7
 10
497.988116
 20
-172.021062
 30
0.0
 11
500.660846
 21
-181.995855
 31
0.0
  0
ARC
  8
0
  6
BYLAYER
 62
     7
 10
502.592700
 20
-181.478216
 30
0.0
 40
2.000003
 50
195.000043
 51
270.000001
  0
LINE
  8
0
  6
BYLAYER
 62
     7
 10
497.988116
 20
-174.673208
 30
0.0
 11
500.414172
 21
-183.727392
 31
0.0
  0
ARC
  8
0
  6
BYLAYER
 62
     7
 10
502.346026
 20
-183.209752
 30
0.0
 40
2.000003
 50
195.000016
 51
270.000001
  0
LINE
  8
0
  6
BYLAYER
 62
     7
 10
502.092700
 20
-165.740804
 30
0.0
 11
598.488116
 21
-165.740790
 31
0.0
  0
LINE
  8
0
  6
BYLAYER
 62
     7
 10
503.390109
 20
-174.020376
 30
0.0
 11
598.488116
 21
-174.020361
 31
0.0
  0
LINE
  8
0
  6
BYLAYER
 62
     7
 10
502.868823
 20
-179.869451
 30
0.0
 11
598.488116
 21
-179.869437
 31
0.0
  0
LINE
  8
0
  6
BYLAYER
 62
     7
 10
502.592700
 20
-183.478216
 30
0.0
 11
598.488116
 21
-183.478201
 31
0.0
  0
LINE
  8
0
  6
BYLAYER
 62
     7
 10
502.346026
 20
-185.209752
 30
0.0
 11
598.488116
 21
-185.209738
 31
0.0
  0
CIRCLE
  8
0
  6
BYLAYER
 62
     7
 10
526.488086
 20
-101.373220
 30
0.0
 40
3.0
  0
CIRCLE
  8
0
  6
BYLAYER
 62
     7
 10
581.488086
 20
-101.373220
 30
0.0
 40
3.0
  0
LINE
  8
0
  6
BYLAYER
 62
     7
 10
498.838031
 20
-100.523214
 30
0.0
 11
523.611010
 21
-100.523244
 31
0.0
  0
LINE
  8
0
  6
BYLAYER
 62
     7
 10
523.611010
 20
-102.223226
 30
0.0
 11
498.838031
 21
-102.223195
 31
0.0
  0
LINE
  8
0
  6
BYLAYER
 62
     7
 10
529.365161
 20
-100.523244
 30
0.0
 11
578.611010
 21
-100.523275
 31
0.0
  0
LINE
  8
0
  6
BYLAYER
 62
     7
 10
578.611041
 20
-102.223256
 30
0.0
 11
529.365145
 21
-102.223226
 31
0.0
  0
LINE
  8
0
  6
BYLAYER
 62
     7
 10
584.365161
 20
-100.523275
 30
0.0
 11
598.488116
 21
-100.523292
 31
0.0
  0
LINE
  8
0
  6
BYLAYER
 62
     7
 10
598.488116
 20
-102.223274
 30
0.0
 11
584.365130
 21
-102.223256
 31
0.0
  0
LINE
  8
0
  6
BYLAYER
 62
     7
 10
498.838031
 20
-132.623220
 30
0.0
 11
598.488116
 21
-132.623132
 31
0.0
  0
LINE
  8
0
  6
BYLAYER
 62
     7
 10
498.838031
 20
-134.323201
 30
0.0
 11
598.488116
 21
-134.323114
 31
0.0
  0
LINE
  8
0
  6
BYLAYER
 62
     7
 10
495.987994
 20
-60.173204
 30
0.0
 11
495.988116
 21
-174.673204
 31
0.0
  0
LINE
  8
0
  6
BYLAYER
 62
     7
 10
671.988116
 20
-62.423208
 30
0.0
 11
671.988116
 21
-172.423208
 31
0.0
  0
LINE
  8
0
  6
BYLAYER
 62
     7
 10
598.488116
 20
-47.973208
 30
0.0
 11
657.538116
 21
-47.973208
 31
0.0
  0
LINE
  8
0
  6
BYLAYER
 62
     7
 10
598.488116
 20
-186.873208
 30
0.0
 11
657.538116
 21
-186.873208
 31
0.0
  0
LINE
  8
0
  6
BYLAYER
 62
     7
 10
671.988116
 20
-62.423208
 30
0.0
 11
657.538116
 21
-47.973208
 31
0.0
  0
LINE
  8
0
  6
BYLAYER
 62
     7
 10
671.988116
 20
-172.423208
 30
0.0
 11
657.538116
 21
-186.873208
 31
0.0
  0
LINE
  8
0
  6
BYLAYER
 62
     7
 10
598.488116
 20
-117.423208
 30
0.0
 11
598.488116
 21
-186.873208
 31
0.0
  0
LINE
  8
0
  6
BYLAYER
 62
     7
 10
598.488116
 20
-117.423208
 30
0.0
 11
598.488116
 21
-47.973208
 31
0.0
  0
LINE
  8
0
  6
BYLAYER
 62
     7
 10
495.988055
 20
-59.414481
 30
0.0
 11
495.988055
 21
-175.431935
 31
0.0
  0
LINE
  8
0
  6
BYLAYER
 62
     7
 10
464.988055
 20
-37.423208
 30
0.0
 11
474.988055
 21
-37.423208
 31
0.0
  0
LINE
  8
0
  6
BYLAYER
 62
     7
 10
495.988055
 20
-59.414481
 30
0.0
 11
475.970599
 21
-59.065077
 31
0.0
  0
LINE
  8
0
  6
BYLAYER
 62
     7
 10
474.988055
 20
-37.423208
 30
0.0
 11
474.988055
 21
-117.423208
 31
0.0
  0
ARC
  8
0
  6
BYLAYER
 62
     7
 10
475.988055
 20
-58.065229
 30
0.0
 40
1.000000
 50
180.000000
 51
269.000015
  0
LINE
  8
0
  6
BYLAYER
 62
     7
 10
464.988055
 20
-197.423208
 30
0.0
 11
474.988055
 21
-197.423208
 31
0.0
  0
LINE
  8
0
  6
BYLAYER
 62
     7
 10
494.488055
 20
-184.423208
 30
0.0
 11
474.988055
 21
-184.763584
 31
0.0
  0
LINE
  8
0
  6
BYLAYER
 62
     7
 10
494.488055
 20
-184.423208
 30
0.0
 11
494.488055
 21
-175.423208
 31
0.0
  0
LINE
  8
0
  6
BYLAYER
 62
     7
 10
495.988055
 20
-175.431935
 30
0.0
 11
494.488055
 21
-175.458116
 31
0.0
  0
LINE
  8
0
  6
BYLAYER
 62
     7
 10
474.988055
 20
-197.423208
 30
0.0
 11
474.988055
 21
-117.423208
 31
0.0
  0
LINE
  8
0
  6
BYLAYER
 62
     7
 10
464.988055
 20
-197.423208
 30
0.0
 11
464.988055
 21
-117.423208
 31
0.0
  0
LINE
  8
0
  6
BYLAYER
 62
     7
 10
464.988055
 20
-37.423208
 30
0.0
 11
464.988055
 21
-117.423208
 31
0.0
  0
ARC
  8
0
  6
BYLAYER
 62
     7
 10
568.742332
 20
-29.923086
 30
0.0
 40
1.500000
 50
180.000000
 51
270.000000
  0
ARC
  8
0
  6
BYLAYER
 62
     7
 10
507.233656
 20
-29.923086
 30
0.0
 40
1.5
 50
270.0
 51
360.0
  0
ARC
  8
0
  6
BYLAYER
 62
     7
 10
499.487994
 20
-29.923086
 30
0.0
 40
1.5
 50
270.0
 51
360.0
  0
ARC
  8
0
  6
BYLAYER
 62
     7
 10
499.487994
 20
-32.923086
 30
0.0
 40
1.500000
 50
90.0
 51
180.0
  0
ARC
  8
0
  6
BYLAYER
 62
     7
 10
576.487994
 20
-29.923086
 30
0.0
 40
1.500000
 50
180.000000
 51
270.000000
  0
LINE
  8
0
  6
BYLAYER
 62
     7
 10
500.987994
 20
-29.923086
 30
0.0
 11
500.987994
 21
-8.423086
 31
0.0
  0
ARC
  8
0
  6
BYLAYER
 62
     7
 10
502.487994
 20
-8.423086
 30
0.0
 40
1.5
 50
90.0
 51
180.0
  0
LINE
  8
0
  6
BYLAYER
 62
     7
 10
574.987994
 20
-29.923086
 30
0.0
 11
574.987994
 21
-8.423086
 31
0.0
  0
LINE
  8
0
  6
BYLAYER
 62
     7
 10
502.487994
 20
-6.923086
 30
0.0
 11
573.487994
 21
-6.923086
 31
0.0
  0
ARC
  8
0
  6
BYLAYER
 62
     7
 10
565.742332
 20
-8.423086
 30
0.0
 40
1.500000
 50
0.0
 51
90.0
  0
ARC
  8
0
  6
BYLAYER
 62
     7
 10
573.487994
 20
-8.423086
 30
0.0
 40
1.5
 50
0.0
 51
90.0
  0
LINE
  8
0
  6
BYLAYER
 62
     7
 10
508.733656
 20
-29.923086
 30
0.0
 11
508.733656
 21
-8.423086
 31
0.0
  0
ARC
  8
0
  6
BYLAYER
 62
     7
 10
510.233656
 20
-8.423086
 30
0.0
 40
1.5
 50
90.0
 51
180.0
  0
LINE
  8
0
  6
BYLAYER
 62
     7
 10
567.242332
 20
-29.923086
 30
0.0
 11
567.242332
 21
-8.423086
 31
0.0
  0
ARC
  8
0
  6
BYLAYER
 62
     7
 10
576.487994
 20
-32.923086
 30
0.0
 40
1.500000
 50
0.0
 51
90.0
  0
LINE
  8
0
  6
BYLAYER
 62
     7
 10
577.987994
 20
-40.423086
 30
0.0
 11
577.987994
 21
-32.923086
 31
0.0
  0
LINE
  8
0
  6
BYLAYER
 62
     7
 10
576.487994
 20
-31.423086
 30
0.0
 11
499.487994
 21
-31.423086
 31
0.0
  0
LINE
  8
0
  6
BYLAYER
 62
     7
 10
497.987994
 20
-32.923086
 30
0.0
 11
497.987994
 21
-40.423086
 31
0.0
  0
LINE
  8
0
  6
BYLAYER
 62
     7
 10
497.987994
 20
-40.423086
 30
0.0
 11
577.987994
 21
-40.423086
 31
0.0
  0
LINE
  8
0
  6
BYLAYER
 62
     7
 10
577.987994
 20
-38.423086
 30
0.0
 11
497.987994
 21
-38.423086
 31
0.0
  0
LINE
  8
0
  6
BYLAYER
 62
     7
 10
657.538116
 20
-186.873208
 30
0.0
 11
657.538116
 21
-47.973208
 31
0.0
  0
ARC
  8
0
  6
BYLAYER
 62
     7
 10
498.838046
 20
-729.873189
 30
0.0
 40
0.850006
 50
111.034603
 51
269.999998
  0
ARC
  8
0
  6
BYLAYER
 62
     7
 10
502.837970
 20
-729.873189
 30
0.0
 40
0.850006
 50
148.036043
 51
269.999998
  0
LINE
  8
0
  6
BYLAYER
 62
     7
 10
498.838031
 20
-730.723195
 30
0.0
 11
598.488116
 21
-730.723113
 31
0.0
  0
LINE
  8
0
  6
BYLAYER
 62
     7
 10
497.988116
 20
-749.673208
 30
0.0
 11
497.988064
 21
-692.423208
 31
0.0
  0
LINE
  8
0
  6
BYLAYER
 62
     7
 10
497.988116
 20
-749.673208
 30
0.0
 11
495.988116
 21
-749.673208
 31
0.0
  0
LINE
  8
0
  6
BYLAYER
 62
     7
 10
497.988101
 20
-731.149618
 30
0.0
 11
500.160846
 21
-739.258443
 31
0.0
  0
ARC
  8
0
  6
BYLAYER
 62
     7
 10
502.092700
 20
-738.740804
 30
0.0
 40
2.000003
 50
195.000016
 51
270.000001
  0
LINE
  8
0
  6
BYLAYER
 62
     7
 10
497.988101
 20
-734.587209
 30
0.0
 11
501.458270
 21
-747.538015
 31
0.0
  0
ARC
  8
0
  6
BYLAYER
 62
     7
 10
503.390109
 20
-747.020376
 30
0.0
 40
1.999988
 50
195.000043
 51
270.000001
  0
LINE
  8
0
  6
BYLAYER
 62
     7
 10
497.988116
 20
-742.381810
 30
0.0
 11
500.936969
 21
-753.387090
 31
0.0
  0
ARC
  8
0
  6
BYLAYER
 62
     7
 10
502.868823
 20
-752.869451
 30
0.0
 40
2.000003
 50
195.000043
 51
270.000001
  0
LINE
  8
0
  6
BYLAYER
 62
     7
 10
497.988116
 20
-747.021062
 30
0.0
 11
500.660846
 21
-756.995855
 31
0.0
  0
ARC
  8
0
  6
BYLAYER
 62
     7
 10
502.592700
 20
-756.478216
 30
0.0
 40
2.000003
 50
195.000043
 51
270.000001
  0
LINE
  8
0
  6
BYLAYER
 62
     7
 10
497.988116
 20
-749.673208
 30
0.0
 11
500.414172
 21
-758.727392
 31
0.0
  0
ARC
  8
0
  6
BYLAYER
 62
     7
 10
502.346026
 20
-758.209752
 30
0.0
 40
2.000003
 50
195.000016
 51
270.000001
  0
LINE
  8
0
  6
BYLAYER
 62
     7
 10
502.092700
 20
-740.740804
 30
0.0
 11
598.488116
 21
-740.740790
 31
0.0
  0
LINE
  8
0
  6
BYLAYER
 62
     7
 10
503.390109
 20
-749.020376
 30
0.0
 11
598.488116
 21
-749.020361
 31
0.0
  0
LINE
  8
0
  6
BYLAYER
 62
     7
 10
502.868823
 20
-754.869451
 30
0.0
 11
598.488116
 21
-754.869437
 31
0.0
  0
LINE
  8
0
  6
BYLAYER
 62
     7
 10
502.592700
 20
-758.478216
 30
0.0
 11
598.488116
 21
-758.478201
 31
0.0
  0
LINE
  8
0
  6
BYLAYER
 62
     7
 10
502.346026
 20
-760.209752
 30
0.0
 11
598.488116
 21
-760.209738
 31
0.0
  0
LINE
  8
0
  6
BYLAYER
 62
     7
 10
495.988055
 20
-692.423208
 30
0.0
 11
495.988116
 21
-749.673204
 31
0.0
  0
LINE
  8
0
  6
BYLAYER
 62
     7
 10
671.988116
 20
-692.423208
 30
0.0
 11
671.988116
 21
-747.423208
 31
0.0
  0
LINE
  8
0
  6
BYLAYER
 62
     7
 10
598.488116
 20
-761.873208
 30
0.0
 11
657.538116
 21
-761.873208
 31
0.0
  0
LINE
  8
0
  6
BYLAYER
 62
     7
 10
671.988116
 20
-747.423208
 30
0.0
 11
657.538116
 21
-761.873208
 31
0.0
  0
LINE
  8
0
  6
BYLAYER
 62
     7
 10
598.488116
 20
-692.423208
 30
0.0
 11
598.488116
 21
-761.873208
 31
0.0
  0
LINE
  8
0
  6
BYLAYER
 62
     7
 10
500.988064
 20
-716.939893
 30
0.0
 11
500.988064
 21
-692.423208
 31
0.0
  0
LINE
  8
0
  6
BYLAYER
 62
     7
 10
574.988064
 20
-692.423208
 30
0.0
 11
574.988064
 21
-716.939893
 31
0.0
  0
LINE
  8
0
  6
BYLAYER
 62
     7
 10
565.525658
 20
-726.673208
 30
0.0
 11
510.450470
 21
-726.673208
 31
0.0
  0
LINE
  8
0
  6
BYLAYER
 62
     7
 10
515.092762
 20
-697.524314
 30
0.0
 11
500.988064
 21
-698.016861
 31
0.0
  0
ARC
  8
0
  6
BYLAYER
 62
     7
 10
514.988064
 20
-694.526142
 30
0.0
 40
3.000000
 50
272.000000
 51
360.000000
  0
LINE
  8
0
  6
BYLAYER
 62
     7
 10
515.092762
 20
-712.524314
 30
0.0
 11
500.988064
 21
-713.016861
 31
0.0
  0
ARC
  8
0
  6
BYLAYER
 62
     7
 10
514.988064
 20
-709.526142
 30
0.0
 40
3.000000
 50
272.000000
 51
360.000000
  0
LINE
  8
0
  6
BYLAYER
 62
     7
 10
500.988064
 20
-701.829555
 30
0.0
 11
515.092762
 21
-702.322102
 31
0.0
  0
ARC
  8
0
  6
BYLAYER
 62
     7
 10
514.988064
 20
-705.320274
 30
0.0
 40
3.0
 50
0.0
 51
88.0
  0
LINE
  8
0
  6
BYLAYER
 62
     7
 10
517.988064
 20
-705.320274
 30
0.0
 11
517.988064
 21
-709.526142
 31
0.0
  0
LINE
  8
0
  6
BYLAYER
 62
     7
 10
517.988064
 20
-692.423208
 30
0.0
 11
517.988064
 21
-694.526142
 31
0.0
  0
LINE
  8
0
  6
BYLAYER
 62
     7
 10
501.988064
 20
-692.423208
 30
0.0
 11
501.988064
 21
-697.981940
 31
0.0
  0
LINE
  8
0
  6
BYLAYER
 62
     7
 10
501.988064
 20
-701.864476
 30
0.0
 11
501.988064
 21
-712.981940
 31
0.0
  0
LINE
  8
0
  6
BYLAYER
 62
     7
 10
560.883365
 20
-697.524314
 30
0.0
 11
574.988064
 21
-698.016861
 31
0.0
  0
ARC
  8
0
  6
BYLAYER
 62
     7
 10
560.988064
 20
-694.526142
 30
0.0
 40
3.000000
 50
180.000000
 51
268.000000
  0
LINE
  8
0
  6
BYLAYER
 62
     7
 10
560.883365
 20
-712.524314
 30
0.0
 11
574.988064
 21
-713.016861
 31
0.0
  0
ARC
  8
0
  6
BYLAYER
 62
     7
 10
560.988064
 20
-709.526142
 30
0.0
 40
3.0
 50
180.000000
 51
268.000000
  0
LINE
  8
0
  6
BYLAYER
 62
     7
 10
574.988064
 20
-701.829555
 30
0.0
 11
560.883365
 21
-702.322102
 31
0.0
  0
ARC
  8
0
  6
BYLAYER
 62
     7
 10
560.988064
 20
-705.320274
 30
0.0
 40
3.0
 50
92.000000
 51
180.000000
  0
LINE
  8
0
  6
BYLAYER
 62
     7
 10
557.988064
 20
-705.320274
 30
0.0
 11
557.988064
 21
-709.526142
 31
0.0
  0
LINE
  8
0
  6
BYLAYER
 62
     7
 10
557.988064
 20
-692.423208
 30
0.0
 11
557.988064
 21
-694.526142
 31
0.0
  0
LINE
  8
0
  6
BYLAYER
 62
     7
 10
573.988064
 20
-692.423208
 30
0.0
 11
573.988064
 21
-697.981940
 31
0.0
  0
LINE
  8
0
  6
BYLAYER
 62
     7
 10
573.988064
 20
-701.864476
 30
0.0
 11
573.988064
 21
-712.981940
 31
0.0
  0
LINE
  8
0
  6
BYLAYER
 62
     7
 10
497.988064
 20
-692.423208
 30
0.0
 11
497.988064
 21
-727.923208
 31
0.0
  0
ARC
  8
0
  6
BYLAYER
 62
     7
 10
499.488064
 20
-727.923208
 30
0.0
 40
1.500000
 50
180.000000
 51
270.000000
  0
LINE
  8
0
  6
BYLAYER
 62
     7
 10
577.988064
 20
-727.923208
 30
0.0
 11
577.988064
 21
-692.423208
 31
0.0
  0
LINE
  8
0
  6
BYLAYER
 62
     7
 10
499.488064
 20
-729.423208
 30
0.0
 11
576.488064
 21
-729.423208
 31
0.0
  0
ARC
  8
0
  6
BYLAYER
 62
     7
 10
576.488064
 20
-727.923208
 30
0.0
 40
1.5
 50
270.0
 51
360.0
  0
ARC
  8
0
  6
BYLAYER
 62
     7
 10
572.988064
 20
-724.423208
 30
0.0
 40
6.000000
 50
86.177446
 51
185.739170
  0
ARC
  8
0
  6
BYLAYER
 62
     7
 10
573.488064
 20
-716.939893
 30
0.0
 40
1.500000
 50
266.177446
 51
360.0
  0
ARC
  8
0
  6
BYLAYER
 62
     7
 10
565.525658
 20
-725.173208
 30
0.0
 40
1.5
 50
270.0
 51
365.739170
  0
ARC
  8
0
  6
BYLAYER
 62
     7
 10
502.988064
 20
-724.423208
 30
0.0
 40
6.0
 50
354.260830
 51
453.822554
  0
ARC
  8
0
  6
BYLAYER
 62
     7
 10
510.450470
 20
-725.173208
 30
0.0
 40
1.5
 50
174.260830
 51
270.000000
  0
ARC
  8
0
  6
BYLAYER
 62
     7
 10
502.488064
 20
-716.939893
 30
0.0
 40
1.500000
 50
180.000000
 51
273.822554
  0
ARC
  8
0
  6
BYLAYER
 62
     7
 10
524.988064
 20
-719.423208
 30
0.0
 40
3.0
 50
180.000000
 51
270.000000
  0
ARC
  8
0
  6
BYLAYER
 62
     7
 10
550.988064
 20
-719.423208
 30
0.0
 40
3.0
 50
270.0
 51
360.0
  0
LINE
  8
0
  6
BYLAYER
 62
     7
 10
524.988064
 20
-722.423208
 30
0.0
 11
550.988064
 21
-722.423208
 31
0.0
  0
LINE
  8
0
  6
BYLAYER
 62
     7
 10
521.988064
 20
-719.423208
 30
0.0
 11
521.988064
 21
-692.423208
 31
0.0
  0
LINE
  8
0
  6
BYLAYER
 62
     7
 10
553.988064
 20
-692.423208
 30
0.0
 11
553.988064
 21
-719.423208
 31
0.0
  0
LINE
  8
0
  6
BYLAYER
 62
     7
 10
598.488116
 20
-718.323119
 30
0.0
 11
577.988064
 21
-718.323136
 31
0.0
  0
LINE
  8
0
  6
BYLAYER
 62
     7
 10
598.488116
 20
-720.023101
 30
0.0
 11
577.988064
 21
-720.023118
 31
0.0
  0
LINE
  8
0
  6
BYLAYER
 62
     7
 10
598.488116
 20
-729.023122
 30
0.0
 11
577.507961
 21
-729.023122
 31
0.0
  0
ARC
  8
0
  6
BYLAYER
 62
     7
 10
498.838046
 20
-654.973227
 30
0.0
 40
0.850006
 50
90.0
 51
248.965395
  0
ARC
  8
0
  6
BYLAYER
 62
     7
 10
502.837970
 20
-654.973227
 30
0.0
 40
0.850006
 50
90.0
 51
211.963955
  0
LINE
  8
0
  6
BYLAYER
 62
     7
 10
498.838031
 20
-654.123221
 30
0.0
 11
598.488116
 21
-654.123303
 31
0.0
  0
LINE
  8
0
  6
BYLAYER
 62
     7
 10
497.988116
 20
-635.173208
 30
0.0
 11
497.988064
 21
-692.423208
 31
0.0
  0
LINE
  8
0
  6
BYLAYER
 62
     7
 10
497.988116
 20
-635.173208
 30
0.0
 11
495.988116
 21
-635.173208
 31
0.0
  0
LINE
  8
0
  6
BYLAYER
 62
     7
 10
497.988101
 20
-653.696798
 30
0.0
 11
500.160846
 21
-645.587973
 31
0.0
  0
ARC
  8
0
  6
BYLAYER
 62
     7
 10
502.092700
 20
-646.105612
 30
0.0
 40
2.000003
 50
90.0
 51
164.999985
  0
LINE
  8
0
  6
BYLAYER
 62
     7
 10
497.988101
 20
-650.259207
 30
0.0
 11
501.458270
 21
-637.308401
 31
0.0
  0
ARC
  8
0
  6
BYLAYER
 62
     7
 10
503.390109
 20
-637.826040
 30
0.0
 40
1.999988
 50
90.0
 51
164.999958
  0
LINE
  8
0
  6
BYLAYER
 62
     7
 10
497.988116
 20
-642.464606
 30
0.0
 11
500.936969
 21
-631.459326
 31
0.0
  0
ARC
  8
0
  6
BYLAYER
 62
     7
 10
502.868823
 20
-631.976965
 30
0.0
 40
2.000003
 50
90.0
 51
164.999958
  0
LINE
  8
0
  6
BYLAYER
 62
     7
 10
497.988116
 20
-637.825354
 30
0.0
 11
500.660846
 21
-627.850561
 31
0.0
  0
ARC
  8
0
  6
BYLAYER
 62
     7
 10
502.592700
 20
-628.368200
 30
0.0
 40
2.000003
 50
90.0
 51
164.999958
  0
LINE
  8
0
  6
BYLAYER
 62
     7
 10
497.988116
 20
-635.173208
 30
0.0
 11
500.414172
 21
-626.119024
 31
0.0
  0
ARC
  8
0
  6
BYLAYER
 62
     7
 10
502.346026
 20
-626.636664
 30
0.0
 40
2.000003
 50
90.0
 51
164.999985
  0
LINE
  8
0
  6
BYLAYER
 62
     7
 10
502.092700
 20
-644.105612
 30
0.0
 11
598.488116
 21
-644.105626
 31
0.0
  0
LINE
  8
0
  6
BYLAYER
 62
     7
 10
503.390109
 20
-635.826040
 30
0.0
 11
598.488116
 21
-635.826055
 31
0.0
  0
LINE
  8
0
  6
BYLAYER
 62
     7
 10
502.868823
 20
-629.976965
 30
0.0
 11
598.488116
 21
-629.976979
 31
0.0
  0
LINE
  8
0
  6
BYLAYER
 62
     7
 10
502.592700
 20
-626.368200
 30
0.0
 11
598.488116
 21
-626.368215
 31
0.0
  0
LINE
  8
0
  6
BYLAYER
 62
     7
 10
502.346026
 20
-624.636664
 30
0.0
 11
598.488116
 21
-624.636678
 31
0.0
  0
LINE
  8
0
  6
BYLAYER
 62
     7
 10
495.988055
 20
-692.423208
 30
0.0
 11
495.988116
 21
-635.173212
 31
0.0
  0
LINE
  8
0
  6
BYLAYER
 62
     7
 10
671.988116
 20
-692.423208
 30
0.0
 11
671.988116
 21
-637.423208
 31
0.0
  0
LINE
  8
0
  6
BYLAYER
 62
     7
 10
598.488116
 20
-622.973208
 30
0.0
 11
657.538116
 21
-622.973208
 31
0.0
  0
LINE
  8
0
  6
BYLAYER
 62
     7
 10
671.988116
 20
-637.423208
 30
0.0
 11
657.538116
 21
-622.973208
 31
0.0
  0
LINE
  8
0
  6
BYLAYER
 62
     7
 10
598.488116
 20
-692.423208
 30
0.0
 11
598.488116
 21
-622.973208
 31
0.0
  0
LINE
  8
0
  6
BYLAYER
 62
     7
 10
500.988064
 20
-667.906523
 30
0.0
 11
500.988064
 21
-692.423208
 31
0.0
  0
LINE
  8
0
  6
BYLAYER
 62
     7
 10
574.988064
 20
-692.423208
 30
0.0
 11
574.988064
 21
-667.906523
 31
0.0
  0
LINE
  8
0
  6
BYLAYER
 62
     7
 10
565.525658
 20
-658.173208
 30
0.0
 11
510.450470
 21
-658.173208
 31
0.0
  0
LINE
  8
0
  6
BYLAYER
 62
     7
 10
515.092762
 20
-687.322102
 30
0.0
 11
500.988064
 21
-686.829555
 31
0.0
  0
ARC
  8
0
  6
BYLAYER
 62
     7
 10
514.988064
 20
-690.320274
 30
0.0
 40
3.0
 50
0.0
 51
88.0
  0
LINE
  8
0
  6
BYLAYER
 62
     7
 10
515.092762
 20
-672.322102
 30
0.0
 11
500.988064
 21
-671.829555
 31
0.0
  0
ARC
  8
0
  6
BYLAYER
 62
     7
 10
514.988064
 20
-675.320274
 30
0.0
 40
3.0
 50
0.0
 51
88.0
  0
LINE
  8
0
  6
BYLAYER
 62
     7
 10
500.988064
 20
-683.016861
 30
0.0
 11
515.092762
 21
-682.524314
 31
0.0
  0
ARC
  8
0
  6
BYLAYER
 62
     7
 10
514.988064
 20
-679.526142
 30
0.0
 40
3.000000
 50
272.000000
 51
360.000000
  0
LINE
  8
0
  6
BYLAYER
 62
     7
 10
517.988064
 20
-679.526142
 30
0.0
 11
517.988064
 21
-675.320274
 31
0.0
  0
LINE
  8
0
  6
BYLAYER
 62
     7
 10
517.988064
 20
-692.423208
 30
0.0
 11
517.988064
 21
-690.320274
 31
0.0
  0
LINE
  8
0
  6
BYLAYER
 62
     7
 10
501.988064
 20
-692.423208
 30
0.0
 11
501.988064
 21
-686.864476
 31
0.0
  0
LINE
  8
0
  6
BYLAYER
 62
     7
 10
501.988064
 20
-682.981940
 30
0.0
 11
501.988064
 21
-671.864476
 31
0.0
  0
LINE
  8
0
  6
BYLAYER
 62
     7
 10
560.883365
 20
-687.322102
 30
0.0
 11
574.988064
 21
-686.829555
 31
0.0
  0
ARC
  8
0
  6
BYLAYER
 62
     7
 10
560.988064
 20
-690.320274
 30
0.0
 40
3.000000
 50
92.000000
 51
180.000000
  0
LINE
  8
0
  6
BYLAYER
 62
     7
 10
560.883365
 20
-672.322102
 30
0.0
 11
574.988064
 21
-671.829555
 31
0.0
  0
ARC
  8
0
  6
BYLAYER
 62
     7
 10
560.988064
 20
-675.320274
 30
0.0
 40
3.000000
 50
92.000000
 51
180.000000
  0
LINE
  8
0
  6
BYLAYER
 62
     7
 10
574.988064
 20
-683.016861
 30
0.0
 11
560.883365
 21
-682.524314
 31
0.0
  0
ARC
  8
0
  6
BYLAYER
 62
     7
 10
560.988064
 20
-679.526142
 30
0.0
 40
3.0
 50
180.000000
 51
268.000000
  0
LINE
  8
0
  6
BYLAYER
 62
     7
 10
557.988064
 20
-679.526142
 30
0.0
 11
557.988064
 21
-675.320274
 31
0.0
  0
LINE
  8
0
  6
BYLAYER
 62
     7
 10
557.988064
 20
-692.423208
 30
0.0
 11
557.988064
 21
-690.320274
 31
0.0
  0
LINE
  8
0
  6
BYLAYER
 62
     7
 10
573.988064
 20
-692.423208
 30
0.0
 11
573.988064
 21
-686.864476
 31
0.0
  0
LINE
  8
0
  6
BYLAYER
 62
     7
 10
573.988064
 20
-682.981940
 30
0.0
 11
573.988064
 21
-671.864476
 31
0.0
  0
LINE
  8
0
  6
BYLAYER
 62
     7
 10
497.988064
 20
-692.423208
 30
0.0
 11
497.988064
 21
-656.923208
 31
0.0
  0
ARC
  8
0
  6
BYLAYER
 62
     7
 10
499.488064
 20
-656.923208
 30
0.0
 40
1.500000
 50
90.0
 51
180.0
  0
LINE
  8
0
  6
BYLAYER
 62
     7
 10
577.988064
 20
-656.923208
 30
0.0
 11
577.988064
 21
-692.423208
 31
0.0
  0
LINE
  8
0
  6
BYLAYER
 62
     7
 10
499.488064
 20
-655.423208
 30
0.0
 11
576.488064
 21
-655.423208
 31
0.0
  0
ARC
  8
0
  6
BYLAYER
 62
     7
 10
576.488064
 20
-656.923208
 30
0.0
 40
1.5
 50
0.0
 51
90.0
  0
ARC
  8
0
  6
BYLAYER
 62
     7
 10
572.988064
 20
-660.423208
 30
0.0
 40
6.0
 50
174.260830
 51
273.822554
  0
ARC
  8
0
  6
BYLAYER
 62
     7
 10
573.488064
 20
-667.906523
 30
0.0
 40
1.500000
 50
0.0
 51
93.822554
  0
ARC
  8
0
  6
BYLAYER
 62
     7
 10
565.525658
 20
-659.673208
 30
0.0
 40
1.5
 50
354.260830
 51
450.000000
  0
ARC
  8
0
  6
BYLAYER
 62
     7
 10
502.988064
 20
-660.423208
 30
0.0
 40
6.0
 50
266.177446
 51
365.739170
  0
ARC
  8
0
  6
BYLAYER
 62
     7
 10
510.450470
 20
-659.673208
 30
0.0
 40
1.5
 50
90.0
 51
185.73917
  0
ARC
  8
0
  6
BYLAYER
 62
     7
 10
502.488064
 20
-667.906523
 30
0.0
 40
1.5
 50
86.177446
 51
180.000000
  0
ARC
  8
0
  6
BYLAYER
 62
     7
 10
524.988064
 20
-665.423208
 30
0.0
 40
3.0
 50
90.0
 51
180.0
  0
ARC
  8
0
  6
BYLAYER
 62
     7
 10
550.988064
 20
-665.423208
 30
0.0
 40
3.0
 50
0.0
 51
90.0
  0
LINE
  8
0
  6
BYLAYER
 62
     7
 10
524.988064
 20
-662.423208
 30
0.0
 11
550.988064
 21
-662.423208
 31
0.0
  0
LINE
  8
0
  6
BYLAYER
 62
     7
 10
521.988064
 20
-665.423208
 30
0.0
 11
521.988064
 21
-692.423208
 31
0.0
  0
LINE
  8
0
  6
BYLAYER
 62
     7
 10
553.988064
 20
-692.423208
 30
0.0
 11
553.988064
 21
-665.423208
 31
0.0
  0
LINE
  8
0
  6
BYLAYER
 62
     7
 10
598.488116
 20
-666.523297
 30
0.0
 11
577.988064
 21
-666.523280
 31
0.0
  0
LINE
  8
0
  6
BYLAYER
 62
     7
 10
598.488116
 20
-664.823315
 30
0.0
 11
577.988064
 21
-664.823298
 31
0.0
  0
LINE
  8
0
  6
BYLAYER
 62
     7
 10
598.488116
 20
-655.823294
 30
0.0
 11
577.507961
 21
-655.823294
 31
0.0
  0
LINE
  8
0
  6
BYLAYER
 62
     7
 10
495.988055
 20
-634.414481
 30
0.0
 11
495.988055
 21
-692.423208
 31
0.0
  0
LINE
  8
0
  6
BYLAYER
 62
     7
 10
464.988055
 20
-612.423208
 30
0.0
 11
474.988055
 21
-612.423208
 31
0.0
  0
LINE
  8
0
  6
BYLAYER
 62
     7
 10
495.988055
 20
-634.414481
 30
0.0
 11
475.970599
 21
-634.065077
 31
0.0
  0
LINE
  8
0
  6
BYLAYER
 62
     7
 10
474.988055
 20
-612.423208
 30
0.0
 11
474.988055
 21
-692.423208
 31
0.0
  0
ARC
  8
0
  6
BYLAYER
 62
     7
 10
475.988055
 20
-633.065229
 30
0.0
 40
1.000000
 50
180.000000
 51
269.000015
  0
LINE
  8
0
  6
BYLAYER
 62
     7
 10
464.988055
 20
-612.423208
 30
0.0
 11
464.988055
 21
-692.423208
 31
0.0
  0
LINE
  8
0
  6
BYLAYER
 62
     7
 10
495.988055
 20
-750.431935
 30
0.0
 11
495.988055
 21
-692.423208
 31
0.0
  0
LINE
  8
0
  6
BYLAYER
 62
     7
 10
464.988055
 20
-772.423208
 30
0.0
 11
474.988055
 21
-772.423208
 31
0.0
  0
LINE
  8
0
  6
BYLAYER
 62
     7
 10
495.988055
 20
-750.431935
 30
0.0
 11
475.970599
 21
-750.781339
 31
0.0
  0
LINE
  8
0
  6
BYLAYER
 62
     7
 10
474.988055
 20
-772.423208
 30
0.0
 11
474.988055
 21
-692.423208
 31
0.0
  0
ARC
  8
0
  6
BYLAYER
 62
     7
 10
475.988055
 20
-751.781187
 30
0.0
 40
1.000000
 50
90.999990
 51
180.000005
  0
LINE
  8
0
  6
BYLAYER
 62
     7
 10
464.988055
 20
-772.423208
 30
0.0
 11
464.988055
 21
-692.423208
 31
0.0
  0
LINE
  8
0
  6
BYLAYER
 62
     7
 10
657.538116
 20
-622.973208
 30
0.0
 11
657.538116
 21
-761.873208
 31
0.0
  0
LINE
  8
0
  6
BYLAYER
 62
     1
 10
459.988202
 20
-37.423447
 30
0.0
 11
464.988178
 21
-37.423386
 31
0.0
  0
LINE
  8
0
  6
BYLAYER
 62
     1
 10
464.988178
 20
-197.423249
 30
0.0
 11
464.988178
 21
-37.423386
 31
0.0
  0
LINE
  8
0
  6
BYLAYER
 62
     1
 10
454.988178
 20
-195.423249
 30
0.0
 11
454.988178
 21
-149.142469
 31
0.0
  0
LINE
  8
0
  6
BYLAYER
 62
     1
 10
454.988178
 20
-115.511533
 30
0.0
 11
454.988178
 21
-79.945406
 31
0.0
  0
ARC
  8
0
  6
BYLAYER
 62
     1
 10
453.988178
 20
-115.511533
 30
0.0
 40
1.0
 50
333.429193
 51
360.0
  0
LINE
  8
0
  6
BYLAYER
 62
     1
 10
454.988178
 20
-63.385272
 30
0.0
 11
454.988178
 21
-49.783143
 31
0.0
  0
ARC
  8
0
  6
BYLAYER
 62
     1
 10
456.988178
 20
-49.783143
 30
0.0
 40
2.0
 50
90.0
 51
180.0
  0
ARC
  8
0
  6
BYLAYER
 62
     1
 10
456.988178
 20
-195.423249
 30
0.0
 40
2.000000
 50
180.000000
 51
270.000000
  0
LINE
  8
0
  6
BYLAYER
 62
     1
 10
430.988178
 20
-129.735894
 30
0.0
 11
430.988178
 21
-1.923233
 31
0.0
  0
ARC
  8
0
  6
BYLAYER
 62
     1
 10
428.988178
 20
-129.735894
 30
0.0
 40
2.000000
 50
270.0
 51
360.0
  0
ARC
  8
0
  6
BYLAYER
 62
     1
 10
428.988178
 20
-1.923233
 30
0.0
 40
2.000000
 50
0.0
 51
90.0
  0
LINE
  8
0
  6
BYLAYER
 62
     1
 10
449.256127
 20
-142.423233
 30
0.0
 11
428.988178
 21
-142.423233
 31
0.0
  0
ARC
  8
0
  6
BYLAYER
 62
     1
 10
428.988178
 20
-137.423233
 30
0.0
 40
5.0
 50
180.000000
 51
270.000000
  0
LINE
  8
0
  6
BYLAYER
 62
     1
 10
428.988178
 20
0.076767
 30
0.0
 11
422.988178
 21
0.076767
 31
0.0
  0
LINE
  8
0
  6
BYLAYER
 62
     1
 10
453.150178
 20
-144.362064
 30
0.0
 11
450.256128
 21
-142.691183
 31
0.0
  0
ARC
  8
0
  6
BYLAYER
 62
     1
 10
452.150178
 20
-146.094114
 30
0.0
 40
2.0
 50
0.0
 51
59.999998
  0
ARC
  8
0
  6
BYLAYER
 62
     1
 10
449.256127
 20
-144.423233
 30
0.0
 40
2.000000
 50
59.999998
 51
90.000000
  0
LINE
  8
0
  6
BYLAYER
 62
     1
 10
457.988178
 20
-45.783143
 30
0.0
 11
457.988178
 21
-27.923233
 31
0.0
  0
ARC
  8
0
  6
BYLAYER
 62
     1
 10
452.988178
 20
-27.923233
 30
0.0
 40
5.000000
 50
0.0
 51
90.0
  0
ARC
  8
0
  6
BYLAYER
 62
     1
 10
459.988178
 20
-45.783143
 30
0.0
 40
2.0
 50
180.000000
 51
270.000000
  0
ARC
  8
0
  6
BYLAYER
 62
     1
 10
459.988178
 20
-35.423447
 30
0.0
 40
2.0
 50
180.000000
 51
270.000699
  0
LINE
  8
0
  6
BYLAYER
 62
     1
 10
464.988178
 20
-197.423249
 30
0.0
 11
456.988178
 21
-197.423249
 31
0.0
  0
ARC
  8
0
  6
BYLAYER
 62
     1
 10
422.988178
 20
-135.923233
 30
0.0
 40
1.000000
 50
0.0
 51
90.0
  0
ARC
  8
0
  6
BYLAYER
 62
     1
 10
428.447929
 20
-144.402355
 30
0.0
 40
2.0
 50
15.000000
 51
85.573604
  0
LINE
  8
0
  6
BYLAYER
 62
     1
 10
430.379781
 20
-143.884716
 30
0.0
 11
437.877940
 21
-171.868225
 31
0.0
  0
LINE
  8
0
  6
BYLAYER
 62
     1
 10
453.988178
 20
-181.845883
 30
0.0
 11
438.809791
 21
-173.082638
 31
0.0
  0
ARC
  8
0
  6
BYLAYER
 62
     1
 10
439.809791
 20
-171.350587
 30
0.0
 40
2.000000
 50
195.000000
 51
240.000002
  0
ARC
  8
0
  6
BYLAYER
 62
     1
 10
452.988178
 20
-183.577934
 30
0.0
 40
2.000000
 50
0.0
 51
60.000002
  0
LINE
  8
0
  6
BYLAYER
 62
     1
 10
423.988178
 20
-137.423233
 30
0.0
 11
423.988178
 21
-132.735894
 31
0.0
  0
ARC
  8
0
  6
BYLAYER
 62
     1
 10
422.988178
 20
-132.735894
 30
0.0
 40
1.000000
 50
0.0
 51
90.0
  0
LINE
  8
0
  6
BYLAYER
 62
     1
 10
433.988178
 20
-22.923233
 30
0.0
 11
452.988178
 21
-22.923233
 31
0.0
  0
ARC
  8
0
  6
BYLAYER
 62
     1
 10
433.988178
 20
-19.923233
 30
0.0
 40
3.0
 50
180.000000
 51
270.000000
  0
LINE
  8
0
  6
BYLAYER
 62
     1
 10
454.150178
 20
-147.155256
 30
0.0
 11
454.150178
 21
-117.659354
 31
0.0
  0
LINE
  8
0
  6
BYLAYER
 62
     1
 10
454.854172
 20
-148.642415
 30
0.0
 11
454.284184
 21
-147.655311
 31
0.0
  0
ARC
  8
0
  6
BYLAYER
 62
     1
 10
453.988178
 20
-149.142469
 30
0.0
 40
1.0
 50
0.0
 51
30.003615
  0
ARC
  8
0
  6
BYLAYER
 62
     1
 10
455.150178
 20
-147.155256
 30
0.0
 40
1.0
 50
180.000000
 51
210.003615
  0
LINE
  8
0
  6
BYLAYER
 62
     1
 10
454.882560
 20
-115.958837
 30
0.0
 11
454.255796
 21
-117.212051
 31
0.0
  0
ARC
  8
0
  6
BYLAYER
 62
     1
 10
455.150178
 20
-117.659354
 30
0.0
 40
1.0
 50
153.429193
 51
180.0
  0
LINE
  8
0
  6
BYLAYER
 62
     1
 10
464.988178
 20
-66.929775
 30
0.0
 11
459.844235
 21
-66.929775
 31
0.0
  0
LINE
  8
0
  6
BYLAYER
 62
     1
 10
464.988178
 20
-76.105395
 30
0.0
 11
459.844235
 21
-76.105395
 31
0.0
  0
LINE
  8
0
  6
BYLAYER
 62
     1
 10
459.844235
 20
-63.385272
 30
0.0
 11
454.988178
 21
-63.385272
 31
0.0
  0
LINE
  8
0
  6
BYLAYER
 62
     1
 10
459.844235
 20
-79.945406
 30
0.0
 11
454.988178
 21
-79.945406
 31
0.0
  0
LINE
  8
0
  6
BYLAYER
 62
     1
 10
459.844235
 20
-66.929775
 30
0.0
 11
459.844235
 21
-63.385272
 31
0.0
  0
LINE
  8
0
  6
BYLAYER
 62
     1
 10
459.844235
 20
-76.105395
 30
0.0
 11
459.844235
 21
-79.945406
 31
0.0
  0
LINE
  8
0
  6
BYLAYER
 62
     1
 10
454.988178
 20
-63.385272
 30
0.0
 11
454.760760
 21
-63.840246
 31
0.0
  0
LINE
  8
0
  6
BYLAYER
 62
     1
 10
454.988178
 20
-79.945406
 30
0.0
 11
454.760760
 21
-79.082293
 31
0.0
  0
LINE
  8
0
  6
BYLAYER
 62
     1
 10
454.725359
 20
-65.011196
 30
0.0
 11
451.779048
 21
-65.011196
 31
0.0
  0
LINE
  8
0
  6
BYLAYER
 62
     1
 10
454.725359
 20
-77.301115
 30
0.0
 11
451.779048
 21
-77.301115
 31
0.0
  0
LINE
  8
0
  6
BYLAYER
 62
     1
 10
454.760760
 20
-79.082293
 30
0.0
 11
454.725359
 21
-77.301115
 31
0.0
  0
LINE
  8
0
  6
BYLAYER
 62
     1
 10
454.760760
 20
-63.840246
 30
0.0
 11
454.725359
 21
-65.011196
 31
0.0
  0
LINE
  8
0
  6
BYLAYER
 62
     1
 10
433.119089
 20
-91.173233
 30
0.0
 11
452.639079
 21
-91.173233
 31
0.0
  0
ARC
  8
0
  6
BYLAYER
 62
     1
 10
452.639079
 20
-89.173233
 30
0.0
 40
2.000000
 50
270.0
 51
360.0
  0
LINE
  8
0
  6
BYLAYER
 62
     1
 10
433.119089
 20
-93.673233
 30
0.0
 11
452.639079
 21
-93.673233
 31
0.0
  0
ARC
  8
0
  6
BYLAYER
 62
     1
 10
433.119089
 20
-95.673233
 30
0.0
 40
2.000000
 50
90.0
 51
180.0
  0
ARC
  8
0
  6
BYLAYER
 62
     1
 10
452.639079
 20
-95.673233
 30
0.0
 40
2.000000
 50
0.0
 51
90.0
  0
ARC
  8
0
  6
BYLAYER
 62
     1
 10
433.119089
 20
-89.173233
 30
0.0
 40
2.000000
 50
180.000000
 51
270.000000
  0
LINE
  8
0
  6
BYLAYER
 62
     1
 10
411.988055
 20
-67.423208
 30
0.0
 11
411.988239
 21
-127.423132
 31
0.0
  0
LINE
  8
0
  6
BYLAYER
 62
     1
 10
412.988232
 20
-67.423208
 30
0.0
 11
412.988232
 21
-132.642625
 31
0.0
  0
LINE
  8
0
  6
BYLAYER
 62
     1
 10
414.918433
 20
-134.641406
 30
0.0
 11
422.988178
 21
-134.923208
 31
0.0
  0
ARC
  8
0
  6
BYLAYER
 62
     1
 10
414.988232
 20
-132.642625
 30
0.0
 40
2.000000
 50
180.000000
 51
268.000000
  0
LINE
  8
0
  6
BYLAYER
 62
     1
 10
411.988239
 20
-127.423132
 30
0.0
 11
412.023132
 21
-127.424350
 31
0.0
  0
ARC
  8
0
  6
BYLAYER
 62
     1
 10
411.988232
 20
-128.423741
 30
0.0
 40
1.000000
 50
0.0
 51
88.0
  0
LINE
  8
0
  6
BYLAYER
 62
     1
 10
422.988178
 20
0.076792
 30
0.0
 11
414.918433
 21
-0.205010
 31
0.0
  0
ARC
  8
0
  6
BYLAYER
 62
     1
 10
414.988232
 20
-2.203791
 30
0.0
 40
2.0
 50
92.0
 51
180.0
  0
LINE
  8
0
  6
BYLAYER
 62
     1
 10
411.988239
 20
-7.768872
 30
0.0
 11
411.988053
 21
-67.423208
 31
0.0
  0
LINE
  8
0
  6
BYLAYER
 62
     1
 10
412.023132
 20
-7.767654
 30
0.0
 11
411.988239
 21
-7.768872
 31
0.0
  0
ARC
  8
0
  6
BYLAYER
 62
     1
 10
411.988232
 20
-6.768263
 30
0.0
 40
1.0
 50
272.0
 51
360.0
  0
LINE
  8
0
  6
BYLAYER
 62
     1
 10
412.988232
 20
-2.203791
 30
0.0
 11
412.988232
 21
-67.423208
 31
0.0
  0
LINE
  8
0
  6
BYLAYER
 62
     1
 10
422.988178
 20
-134.923208
 30
0.0
 11
422.988178
 21
-67.423208
 31
0.0
  0
LINE
  8
0
  6
BYLAYER
 62
     1
 10
422.988178
 20
-67.423208
 30
0.0
 11
422.988178
 21
0.076792
 31
0.0
  0
LINE
  8
0
  6
BYLAYER
 62
     1
 10
428.988178
 20
-131.735894
 30
0.0
 11
422.988178
 21
-131.735894
 31
0.0
  0
LINE
  8
0
  6
BYLAYER
 62
     1
 10
340.488055
 20
-228.423208
 30
0.0
 11
340.488055
 21
-218.423208
 31
0.0
  0
LINE
  8
0
  6
BYLAYER
 62
     1
 10
385.488055
 20
-183.423208
 30
0.0
 11
375.488055
 21
-183.423208
 31
0.0
  0
LINE
  8
0
  6
BYLAYER
 62
     1
 10
383.988055
 20
-181.923208
 30
0.0
 11
385.488055
 21
-183.423208
 31
0.0
  0
LINE
  8
0
  6
BYLAYER
 62
     1
 10
385.488055
 20
-183.423208
 30
0.0
 11
385.488055
 21
-226.423208
 31
0.0
  0
LINE
  8
0
  6
BYLAYER
 62
     1
 10
385.488055
 20
-226.423208
 30
0.0
 11
383.488055
 21
-228.423208
 31
0.0
  0
LINE
  8
0
  6
BYLAYER
 62
     1
 10
385.488055
 20
-226.423208
 30
0.0
 11
383.488055
 21
-228.423208
 31
0.0
  0
LINE
  8
0
  6
BYLAYER
 62
     1
 10
338.988055
 20
-226.923208
 30
0.0
 11
340.488055
 21
-228.423208
 31
0.0
  0
LINE
  8
0
  6
BYLAYER
 62
     1
 10
340.488055
 20
-228.423208
 30
0.0
 11
383.488055
 21
-228.423208
 31
0.0
  0
LINE
  8
0
  6
BYLAYER
 62
     1
 10
213.488055
 20
-183.423208
 30
0.0
 11
213.488055
 21
-226.423208
 31
0.0
  0
LINE
  8
0
  6
BYLAYER
 62
     1
 10
258.488055
 20
-228.423208
 30
0.0
 11
258.488055
 21
-218.423208
 31
0.0
  0
LINE
  8
0
  6
BYLAYER
 62
     1
 10
259.988055
 20
-226.923208
 30
0.0
 11
258.488055
 21
-228.423208
 31
0.0
  0
LINE
  8
0
  6
BYLAYER
 62
     1
 10
258.488055
 20
-228.423208
 30
0.0
 11
215.488055
 21
-228.423208
 31
0.0
  0
LINE
  8
0
  6
BYLAYER
 62
     1
 10
213.488055
 20
-226.423208
 30
0.0
 11
215.488055
 21
-228.423208
 31
0.0
  0
LINE
  8
0
  6
BYLAYER
 62
     1
 10
213.488055
 20
-183.423208
 30
0.0
 11
223.488055
 21
-183.423208
 31
0.0
  0
LINE
  8
0
  6
BYLAYER
 62
     1
 10
214.988055
 20
-181.923208
 30
0.0
 11
213.488055
 21
-183.423208
 31
0.0
  0
LINE
  8
0
  6
BYLAYER
 62
     1
 10
233.988055
 20
-218.423208
 30
0.0
 11
233.988055
 21
-228.423208
 31
0.0
  0
LINE
  8
0
  6
BYLAYER
 62
     1
 10
354.238055
 20
-218.423208
 30
0.0
 11
354.238055
 21
-228.423208
 31
0.0
  0
LINE
  8
0
  6
BYLAYER
 62
     1
 10
365.238055
 20
-218.423208
 30
0.0
 11
365.238055
 21
-228.423208
 31
0.0
  0
LINE
  8
0
  6
BYLAYER
 62
     1
 10
378.988055
 20
-228.423208
 30
0.0
 11
377.988055
 21
-228.423208
 31
0.0
  0
LINE
  8
0
  6
BYLAYER
 62
     1
 10
214.988055
 20
-128.423208
 30
0.0
 11
214.988055
 21
-181.923208
 31
0.0
  0
LINE
  8
0
  6
BYLAYER
 62
     1
 10
383.988055
 20
-128.423208
 30
0.0
 11
383.988055
 21
-181.923208
 31
0.0
  0
LINE
  8
0
  6
BYLAYER
 62
     1
 10
282.793536
 20
-63.673330
 30
0.0
 11
260.738055
 21
-63.673330
 31
0.0
  0
LINE
  8
0
  6
BYLAYER
 62
     1
 10
299.488055
 20
-61.173330
 30
0.0
 11
260.738055
 21
-61.173330
 31
0.0
  0
ARC
  8
0
  6
BYLAYER
 62
     1
 10
260.738055
 20
-62.423330
 30
0.0
 40
1.25
 50
90.0
 51
270.000005
  0
LINE
  8
0
  6
BYLAYER
 62
     1
 10
299.488055
 20
-61.173330
 30
0.0
 11
338.238055
 21
-61.173330
 31
0.0
  0
ARC
  8
0
  6
BYLAYER
 62
     1
 10
338.238055
 20
-62.423330
 30
0.0
 40
1.25
 50
270.0
 51
450.000005
  0
ARC
  8
0
  6
BYLAYER
 62
     1
 10
224.488055
 20
-70.173330
 30
0.0
 40
1.0
 50
180.000000
 51
269.999996
  0
ARC
  8
0
  6
BYLAYER
 62
     1
 10
224.488055
 20
-74.673330
 30
0.0
 40
1.0
 50
90.0
 51
180.000003
  0
ARC
  8
0
  6
BYLAYER
 62
     1
 10
253.238055
 20
-82.423330
 30
0.0
 40
1.25
 50
270.0
 51
450.000005
  0
ARC
  8
0
  6
BYLAYER
 62
     1
 10
224.488055
 20
-84.673330
 30
0.0
 40
1.0
 50
90.0
 51
180.000003
  0
ARC
  8
0
  6
BYLAYER
 62
     1
 10
224.488055
 20
-90.173330
 30
0.0
 40
1.0
 50
180.000000
 51
269.999996
  0
LINE
  8
0
  6
BYLAYER
 62
     1
 10
243.237994
 20
-91.173330
 30
0.0
 11
224.488055
 21
-91.173330
 31
0.0
  0
ARC
  8
0
  6
BYLAYER
 62
     1
 10
243.237994
 20
-92.423330
 30
0.0
 40
1.25
 50
270.0
 51
450.000005
  0
LINE
  8
0
  6
BYLAYER
 62
     1
 10
253.238055
 20
-81.173330
 30
0.0
 11
224.488055
 21
-81.173330
 31
0.0
  0
LINE
  8
0
  6
BYLAYER
 62
     1
 10
253.238055
 20
-83.673330
 30
0.0
 11
224.488055
 21
-83.673330
 31
0.0
  0
LINE
  8
0
  6
BYLAYER
 62
     1
 10
224.488055
 20
-73.673330
 30
0.0
 11
258.587909
 21
-73.673330
 31
0.0
  0
LINE
  8
0
  6
BYLAYER
 62
     1
 10
224.488055
 20
-71.173330
 30
0.0
 11
258.587909
 21
-71.173330
 31
0.0
  0
LINE
  8
0
  6
BYLAYER
 62
     1
 10
345.737811
 20
-81.173330
 30
0.0
 11
374.488055
 21
-81.173330
 31
0.0
  0
LINE
  8
0
  6
BYLAYER
 62
     1
 10
345.737811
 20
-83.673330
 30
0.0
 11
374.488055
 21
-83.673330
 31
0.0
  0
ARC
  8
0
  6
BYLAYER
 62
     1
 10
345.737811
 20
-82.423330
 30
0.0
 40
1.25
 50
90.0
 51
270.000005
  0
LINE
  8
0
  6
BYLAYER
 62
     1
 10
355.737872
 20
-93.673330
 30
0.0
 11
374.488055
 21
-93.673330
 31
0.0
  0
ARC
  8
0
  6
BYLAYER
 62
     1
 10
355.737872
 20
-92.423330
 30
0.0
 40
1.25
 50
90.0
 51
270.000005
  0
ARC
  8
0
  6
BYLAYER
 62
     1
 10
374.488055
 20
-84.673330
 30
0.0
 40
1.000000
 50
0.0
 51
90.000016
  0
ARC
  8
0
  6
BYLAYER
 62
     1
 10
374.488055
 20
-84.673330
 30
0.0
 40
1.000000
 50
0.0
 51
90.000016
  0
ARC
  8
0
  6
BYLAYER
 62
     1
 10
374.488055
 20
-94.673330
 30
0.0
 40
1.000000
 50
0.0
 51
90.000016
  0
ARC
  8
0
  6
BYLAYER
 62
     1
 10
224.488055
 20
-80.173330
 30
0.0
 40
1.0
 50
180.000000
 51
270.000009
  0
ARC
  8
0
  6
BYLAYER
 62
     1
 10
374.488055
 20
-80.173330
 30
0.0
 40
1.000000
 50
270.0
 51
360.000003
  0
ARC
  8
0
  6
BYLAYER
 62
     1
 10
374.488055
 20
-90.173330
 30
0.0
 40
1.000000
 50
270.0
 51
359.999982
  0
LINE
  8
0
  6
BYLAYER
 62
     1
 10
385.488055
 20
-206.923208
 30
0.0
 11
375.488055
 21
-206.923208
 31
0.0
  0
LINE
  8
0
  6
BYLAYER
 62
     1
 10
385.488055
 20
-195.923208
 30
0.0
 11
375.488055
 21
-195.923208
 31
0.0
  0
LINE
  8
0
  6
BYLAYER
 62
     1
 10
244.988055
 20
-218.423208
 30
0.0
 11
244.988055
 21
-228.423208
 31
0.0
  0
LINE
  8
0
  6
BYLAYER
 62
     1
 10
316.182574
 20
-63.673330
 30
0.0
 11
338.238055
 21
-63.673330
 31
0.0
  0
LINE
  8
0
  6
BYLAYER
 62
     1
 10
340.488055
 20
-23.423208
 30
0.0
 11
383.488055
 21
-23.423208
 31
0.0
  0
LINE
  8
0
  6
BYLAYER
 62
     1
 10
258.488055
 20
-23.423208
 30
0.0
 11
258.488055
 21
-33.423208
 31
0.0
  0
LINE
  8
0
  6
BYLAYER
 62
     1
 10
259.988055
 20
-24.923208
 30
0.0
 11
299.488055
 21
-24.923208
 31
0.0
  0
LINE
  8
0
  6
BYLAYER
 62
     1
 10
338.988055
 20
-24.923208
 30
0.0
 11
299.488055
 21
-24.923208
 31
0.0
  0
LINE
  8
0
  6
BYLAYER
 62
     1
 10
338.988055
 20
-24.923208
 30
0.0
 11
338.988055
 21
-33.423208
 31
0.0
  0
LINE
  8
0
  6
BYLAYER
 62
     1
 10
340.488055
 20
-23.423208
 30
0.0
 11
340.488055
 21
-33.423208
 31
0.0
  0
LINE
  8
0
  6
BYLAYER
 62
     1
 10
258.488055
 20
-23.423208
 30
0.0
 11
215.488055
 21
-23.423208
 31
0.0
  0
LINE
  8
0
  6
BYLAYER
 62
     1
 10
340.488055
 20
-23.423208
 30
0.0
 11
340.488055
 21
-33.423208
 31
0.0
  0
LINE
  8
0
  6
BYLAYER
 62
     1
 10
213.488055
 20
-25.423330
 30
0.0
 11
215.488055
 21
-23.423330
 31
0.0
  0
LINE
  8
0
  6
BYLAYER
 62
     1
 10
338.988055
 20
-24.923208
 30
0.0
 11
340.488055
 21
-23.423208
 31
0.0
  0
LINE
  8
0
  6
BYLAYER
 62
     1
 10
259.988055
 20
-24.923208
 30
0.0
 11
258.488055
 21
-23.423208
 31
0.0
  0
LINE
  8
0
  6
BYLAYER
 62
     1
 10
385.488055
 20
-25.423330
 30
0.0
 11
383.488055
 21
-23.423208
 31
0.0
  0
ARC
  8
0
  6
BYLAYER
 62
     1
 10
373.488055
 20
-35.423330
 30
0.0
 40
2.000000
 50
0.0
 51
89.999996
  0
LINE
  8
0
  6
BYLAYER
 62
     1
 10
213.488055
 20
-54.923208
 30
0.0
 11
223.488055
 21
-54.923208
 31
0.0
  0
LINE
  8
0
  6
BYLAYER
 62
     1
 10
213.488055
 20
-43.923208
 30
0.0
 11
223.488055
 21
-43.923208
 31
0.0
  0
LINE
  8
0
  6
BYLAYER
 62
     1
 10
213.488055
 20
-196.923208
 30
0.0
 11
223.488055
 21
-196.923208
 31
0.0
  0
LINE
  8
0
  6
BYLAYER
 62
     1
 10
213.488055
 20
-207.923208
 30
0.0
 11
223.488055
 21
-207.923208
 31
0.0
  0
LINE
  8
0
  6
BYLAYER
 62
     1
 10
387.488055
 20
-73.173330
 30
0.0
 11
387.488055
 21
-52.673330
 31
0.0
  0
LINE
  8
0
  6
BYLAYER
 62
     1
 10
259.988055
 20
-33.423330
 30
0.0
 11
259.988055
 21
-24.923208
 31
0.0
  0
ARC
  8
0
  6
BYLAYER
 62
     1
 10
374.488055
 20
-217.423208
 30
0.0
 40
1.000000
 50
270.0
 51
360.000003
  0
ARC
  8
0
  6
BYLAYER
 62
     1
 10
224.488055
 20
-217.423208
 30
0.0
 40
1.0
 50
180.000000
 51
269.999996
  0
LINE
  8
0
  6
BYLAYER
 62
     1
 10
245.238055
 20
-33.423330
 30
0.0
 11
245.238055
 21
-23.423208
 31
0.0
  0
LINE
  8
0
  6
BYLAYER
 62
     1
 10
233.738055
 20
-33.423330
 30
0.0
 11
233.738055
 21
-23.423208
 31
0.0
  0
LINE
  8
0
  6
BYLAYER
 62
     1
 10
353.738055
 20
-33.423330
 30
0.0
 11
353.738055
 21
-23.423208
 31
0.0
  0
LINE
  8
0
  6
BYLAYER
 62
     1
 10
365.238055
 20
-33.423330
 30
0.0
 11
365.238055
 21
-23.423208
 31
0.0
  0
ARC
  8
0
  6
BYLAYER
 62
     1
 10
340.733905
 20
-72.423330
 30
0.0
 40
1.25
 50
90.0
 51
270.000005
  0
ARC
  8
0
  6
BYLAYER
 62
     1
 10
258.272052
 20
-72.423330
 30
0.0
 40
1.25
 50
270.0
 51
450.000005
  0
LINE
  8
0
  6
BYLAYER
 62
     1
 10
385.488055
 20
-68.423330
 30
0.0
 11
375.488055
 21
-68.423330
 31
0.0
  0
LINE
  8
0
  6
BYLAYER
 62
     1
 10
383.988055
 20
-69.923330
 30
0.0
 11
385.488055
 21
-68.423330
 31
0.0
  0
LINE
  8
0
  6
BYLAYER
 62
     1
 10
383.988055
 20
-69.923330
 30
0.0
 11
383.988055
 21
-128.423208
 31
0.0
  0
LINE
  8
0
  6
BYLAYER
 62
     1
 10
385.488055
 20
-25.423330
 30
0.0
 11
385.488055
 21
-68.423330
 31
0.0
  0
LINE
  8
0
  6
BYLAYER
 62
     1
 10
213.488055
 20
-68.423330
 30
0.0
 11
223.488055
 21
-68.423330
 31
0.0
  0
LINE
  8
0
  6
BYLAYER
 62
     1
 10
214.988055
 20
-69.923330
 30
0.0
 11
213.488055
 21
-68.423330
 31
0.0
  0
LINE
  8
0
  6
BYLAYER
 62
     1
 10
214.988055
 20
-69.923330
 30
0.0
 11
214.988055
 21
-128.423208
 31
0.0
  0
LINE
  8
0
  6
BYLAYER
 62
     1
 10
373.488055
 20
-33.423330
 30
0.0
 11
225.488055
 21
-33.423330
 31
0.0
  0
LINE
  8
0
  6
BYLAYER
 62
     1
 10
383.988055
 20
-69.923330
 30
0.0
 11
375.488055
 21
-69.923330
 31
0.0
  0
LINE
  8
0
  6
BYLAYER
 62
     1
 10
383.988055
 20
-181.923208
 30
0.0
 11
375.488055
 21
-181.923208
 31
0.0
  0
LINE
  8
0
  6
BYLAYER
 62
     1
 10
259.988055
 20
-226.923208
 30
0.0
 11
259.988055
 21
-218.423208
 31
0.0
  0
LINE
  8
0
  6
BYLAYER
 62
     1
 10
338.988055
 20
-218.423208
 30
0.0
 11
338.988055
 21
-226.923208
 31
0.0
  0
LINE
  8
0
  6
BYLAYER
 62
     1
 10
214.988055
 20
-181.923208
 30
0.0
 11
223.488055
 21
-181.923208
 31
0.0
  0
LINE
  8
0
  6
BYLAYER
 62
     1
 10
223.488055
 20
-69.923330
 30
0.0
 11
214.988055
 21
-69.923330
 31
0.0
  0
LINE
  8
0
  6
BYLAYER
 62
     1
 10
338.988055
 20
-226.923208
 30
0.0
 11
259.988055
 21
-226.923208
 31
0.0
  0
LINE
  8
0
  6
BYLAYER
 62
     1
 10
223.488055
 20
-112.619680
 30
0.0
 11
223.488055
 21
-35.423330
 31
0.0
  0
LINE
  8
0
  6
BYLAYER
 62
     1
 10
223.488055
 20
-35.423330
 30
0.0
 11
225.488055
 21
-33.423330
 31
0.0
  0
ARC
  8
0
  6
BYLAYER
 62
     1
 10
221.488055
 20
-112.619680
 30
0.0
 40
2.000004
 50
339.088047
 51
360.000000
  0
ARC
  8
0
  6
BYLAYER
 62
     1
 10
299.488055
 20
-142.423208
 30
0.0
 40
81.5
 50
159.088329
 51
200.911681
  0
LINE
  8
0
  6
BYLAYER
 62
     1
 10
223.488055
 20
-172.226736
 30
0.0
 11
223.488055
 21
-217.423208
 31
0.0
  0
ARC
  8
0
  6
BYLAYER
 62
     1
 10
221.488055
 20
-172.226736
 30
0.0
 40
2.000004
 50
0.0
 51
20.911958
  0
LINE
  8
0
  6
BYLAYER
 62
     1
 10
224.488055
 20
-218.423208
 30
0.0
 11
269.684527
 21
-218.423208
 31
0.0
  0
ARC
  8
0
  6
BYLAYER
 62
     1
 10
269.684527
 20
-220.423208
 30
0.0
 40
2.0
 50
69.087962
 51
90.000000
  0
ARC
  8
0
  6
BYLAYER
 62
     1
 10
299.488055
 20
-142.423208
 30
0.0
 40
81.500008
 50
249.088338
 51
290.911690
  0
LINE
  8
0
  6
BYLAYER
 62
     1
 10
329.291583
 20
-218.423208
 30
0.0
 11
374.488055
 21
-218.423208
 31
0.0
  0
ARC
  8
0
  6
BYLAYER
 62
     1
 10
329.291583
 20
-220.423208
 30
0.0
 40
1.999991
 50
90.0
 51
110.911628
  0
LINE
  8
0
  6
BYLAYER
 62
     1
 10
375.488055
 20
-172.226736
 30
0.0
 11
375.488055
 21
-217.423208
 31
0.0
  0
ARC
  8
0
  6
BYLAYER
 62
     1
 10
377.488055
 20
-172.226736
 30
0.0
 40
2.000000
 50
159.087955
 51
180.000000
  0
LINE
  8
0
  6
BYLAYER
 62
     1
 10
375.488055
 20
-112.619680
 30
0.0
 11
375.488055
 21
-34.923330
 31
0.0
  0
ARC
  8
0
  6
BYLAYER
 62
     1
 10
299.488055
 20
-142.423208
 30
0.0
 40
81.500008
 50
339.088320
 51
380.911693
  0
ARC
  8
0
  6
BYLAYER
 62
     1
 10
377.488055
 20
-112.619650
 30
0.0
 40
2.000000
 50
180.000000
 51
200.912031
  0
ARC
  8
0
  6
BYLAYER
 62
     1
 10
227.488055
 20
-214.423208
 30
0.0
 40
1.0
 50
180.000000
 51
269.999996
  0
LINE
  8
0
  6
BYLAYER
 62
     1
 10
372.488055
 20
-183.423208
 30
0.0
 11
372.488055
 21
-214.423208
 31
0.0
  0
ARC
  8
0
  6
BYLAYER
 62
     1
 10
371.488055
 20
-214.423208
 30
0.0
 40
1.000000
 50
270.0
 51
360.000003
  0
LINE
  8
0
  6
BYLAYER
 62
     1
 10
226.780963
 20
-215.130331
 30
0.0
 11
223.780963
 21
-218.130331
 31
0.0
  0
LINE
  8
0
  6
BYLAYER
 62
     1
 10
372.195147
 20
-215.130331
 30
0.0
 11
375.195147
 21
-218.130331
 31
0.0
  0
ARC
  8
0
  6
BYLAYER
 62
     1
 10
224.488055
 20
-94.673330
 30
0.0
 40
1.000000
 50
90.0
 51
179.999989
  0
LINE
  8
0
  6
BYLAYER
 62
     1
 10
243.237994
 20
-93.673330
 30
0.0
 11
224.488055
 21
-93.673330
 31
0.0
  0
ARC
  8
0
  6
BYLAYER
 62
     1
 10
369.488055
 20
-62.423208
 30
0.0
 40
2.0
 50
90.0
 51
180.000003
  0
LINE
  8
0
  6
BYLAYER
 62
     1
 10
367.488055
 20
-62.423208
 30
0.0
 11
367.488055
 21
-72.423208
 31
0.0
  0
ARC
  8
0
  6
BYLAYER
 62
     1
 10
369.488055
 20
-72.423208
 30
0.0
 40
2.000000
 50
180.000000
 51
269.999996
  0
LINE
  8
0
  6
BYLAYER
 62
     1
 10
369.488055
 20
-74.423208
 30
0.0
 11
373.488055
 21
-74.423208
 31
0.0
  0
ARC
  8
0
  6
BYLAYER
 62
     1
 10
373.488055
 20
-76.423208
 30
0.0
 40
2.000000
 50
0.0
 51
90.000003
  0
LINE
  8
0
  6
BYLAYER
 62
     1
 10
369.488055
 20
-60.423208
 30
0.0
 11
373.488055
 21
-60.423208
 31
0.0
  0
ARC
  8
0
  6
BYLAYER
 62
     1
 10
373.488055
 20
-58.423208
 30
0.0
 40
2.0
 50
270.0
 51
360.000003
  0
LINE
  8
0
  6
BYLAYER
 62
     1
 10
367.503863
 20
-73.673330
 30
0.0
 11
340.733905
 21
-73.673330
 31
0.0
  0
ARC
  8
0
  6
BYLAYER
 62
     1
 10
367.503863
 20
-74.673330
 30
0.0
 40
1.000026
 50
48.593996
 51
90.000003
  0
LINE
  8
0
  6
BYLAYER
 62
     1
 10
366.488055
 20
-71.173330
 30
0.0
 11
340.733905
 21
-71.173330
 31
0.0
  0
ARC
  8
0
  6
BYLAYER
 62
     1
 10
366.488055
 20
-70.173330
 30
0.0
 40
1.000000
 50
270.0
 51
360.000003
  0
LINE
  8
0
  6
BYLAYER
 62
     1
 10
333.898883
 20
-215.423208
 30
0.0
 11
371.488055
 21
-215.423208
 31
0.0
  0
LINE
  8
0
  6
BYLAYER
 62
     1
 10
372.488055
 20
-176.834066
 30
0.0
 11
372.488055
 21
-214.423208
 31
0.0
  0
LINE
  8
0
  6
BYLAYER
 62
     1
 10
226.488055
 20
-176.834066
 30
0.0
 11
226.488055
 21
-214.423208
 31
0.0
  0
LINE
  8
0
  6
BYLAYER
 62
     1
 10
227.488055
 20
-215.423208
 30
0.0
 11
265.077166
 21
-215.423208
 31
0.0
  0
LINE
  8
0
  6
BYLAYER
 62
     1
 10
387.488055
 20
-109.930197
 30
0.0
 11
387.488055
 21
-24.916219
 31
0.0
  0
LINE
  8
0
  6
BYLAYER
 62
     1
 10
387.488055
 20
-109.930197
 30
0.0
 11
383.988055
 21
-110.052419
 31
0.0
  0
LINE
  8
0
  6
BYLAYER
 62
     1
 10
387.488055
 20
-24.916219
 30
0.0
 11
384.890277
 21
-24.825491
 31
0.0
  0
LINE
  8
0
  6
BYLAYER
 62
     1
 10
213.488055
 20
-101.647207
 30
0.0
 11
213.488055
 21
-25.423330
 31
0.0
  0
LINE
  8
0
  6
BYLAYER
 62
     1
 10
213.488055
 20
-101.647207
 30
0.0
 11
214.988055
 21
-101.699575
 31
0.0
  0
LINE
  8
0
  6
BYLAYER
 62
     1
 10
374.488055
 20
-91.173330
 30
0.0
 11
355.737872
 21
-91.173330
 31
0.0
  0
ARC
  8
0
  6
BYLAYER
 62
     1
 10
261.172747
 20
-86.245474
 30
0.0
 40
2.000066
 50
61.945103
 51
124.296261
  0
ARC
  8
0
  6
BYLAYER
 62
     1
 10
286.857318
 20
-75.606558
 30
0.0
 40
1.999995
 50
100.705532
 51
163.055904
  0
ARC
  8
0
  6
BYLAYER
 62
     1
 10
299.488055
 20
-142.423208
 30
0.0
 40
69.999878
 50
79.295443
 51
100.704664
  0
ARC
  8
0
  6
BYLAYER
 62
     1
 10
312.118670
 20
-75.606558
 30
0.0
 40
1.999900
 50
16.944094
 51
79.294466
  0
ARC
  8
0
  6
BYLAYER
 62
     1
 10
337.803180
 20
-86.245474
 30
0.0
 40
1.999928
 50
55.705179
 51
118.056036
  0
ARC
  8
0
  6
BYLAYER
 62
     1
 10
366.304583
 20
-155.054067
 30
0.0
 40
2.000030
 50
286.944361
 51
349.295492
  0
ARC
  8
0
  6
BYLAYER
 62
     1
 10
355.665728
 20
-180.738638
 30
0.0
 40
2.000036
 50
325.704454
 51
388.055618
  0
ARC
  8
0
  6
BYLAYER
 62
     1
 10
299.488055
 20
-142.423208
 30
0.0
 40
69.999969
 50
304.295309
 51
325.704537
  0
ARC
  8
0
  6
BYLAYER
 62
     1
 10
337.803241
 20
-198.601064
 30
0.0
 40
2.000036
 50
241.943960
 51
304.294326
  0
ARC
  8
0
  6
BYLAYER
 62
     1
 10
312.118670
 20
-209.239858
 30
0.0
 40
2.000139
 50
280.705366
 51
343.055895
  0
ARC
  8
0
  6
BYLAYER
 62
     1
 10
299.488055
 20
-142.423208
 30
0.0
 40
70.000023
 50
259.295346
 51
280.704546
  0
ARC
  8
0
  6
BYLAYER
 62
     1
 10
286.857257
 20
-209.239858
 30
0.0
 40
2.000007
 50
196.944598
 51
259.296193
  0
ARC
  8
0
  6
BYLAYER
 62
     1
 10
261.172747
 20
-198.601064
 30
0.0
 40
2.000031
 50
235.705676
 51
298.056041
  0
ARC
  8
0
  6
BYLAYER
 62
     1
 10
299.488055
 20
-142.423208
 30
0.0
 40
70.000069
 50
214.295423
 51
235.704610
  0
ARC
  8
0
  6
BYLAYER
 62
     1
 10
243.310260
 20
-180.738638
 30
0.0
 40
2.000036
 50
151.944375
 51
214.295546
  0
ARC
  8
0
  6
BYLAYER
 62
     1
 10
232.671344
 20
-155.054067
 30
0.0
 40
2.000008
 50
190.704510
 51
253.055640
  0
ARC
  8
0
  6
BYLAYER
 62
     1
 10
299.488055
 20
-142.423208
 30
0.0
 40
70.000046
 50
169.295473
 51
190.704646
  0
ARC
  8
0
  6
BYLAYER
 62
     1
 10
232.671344
 20
-129.792593
 30
0.0
 40
2.000008
 50
106.944349
 51
169.295487
  0
ARC
  8
0
  6
BYLAYER
 62
     1
 10
243.310260
 20
-104.108022
 30
0.0
 40
2.000036
 50
145.704450
 51
208.055622
  0
ARC
  8
0
  6
BYLAYER
 62
     1
 10
299.488055
 20
-142.423208
 30
0.0
 40
70.0
 50
124.295441
 51
145.704587
  0
ARC
  8
0
  6
BYLAYER
 62
     1
 10
299.488055
 20
-142.423208
 30
0.0
 40
80.5
 50
154.482405
 51
205.517595
  0
ARC
  8
0
  6
BYLAYER
 62
     1
 10
228.645465
 20
-108.606344
 30
0.0
 40
2.0
 50
105.000000
 51
154.482405
  0
ARC
  8
0
  6
BYLAYER
 62
     1
 10
299.488055
 20
-142.423208
 30
0.0
 40
80.5
 50
244.482414
 51
295.517604
  0
ARC
  8
0
  6
BYLAYER
 62
     1
 10
299.488055
 20
-142.423208
 30
0.0
 40
80.5
 50
64.482402
 51
115.517593
  0
ARC
  8
0
  6
BYLAYER
 62
     1
 10
333.304950
 20
-71.580648
 30
0.0
 40
2.000000
 50
14.999997
 51
64.482402
  0
ARC
  8
0
  6
BYLAYER
 62
     1
 10
299.488055
 20
-142.423208
 30
0.0
 40
80.5
 50
334.482396
 51
385.517587
  0
ARC
  8
0
  6
BYLAYER
 62
     1
 10
299.488055
 20
-142.423208
 30
0.0
 40
47.5
 50
22.499997
 51
374.817192
  0
ARC
  8
0
  6
BYLAYER
 62
     1
 10
299.488055
 20
-142.423208
 30
0.0
 40
47.500004
 50
14.817201
 51
22.499997
  0
ARC
  8
0
  6
BYLAYER
 62
     1
 10
371.550555
 20
-172.272573
 30
0.0
 40
16.000019
 50
106.944527
 51
208.056127
  0
ARC
  8
0
  6
BYLAYER
 62
     1
 10
329.337298
 20
-214.485952
 30
0.0
 40
16.000034
 50
61.944358
 51
163.055330
  0
ARC
  8
0
  6
BYLAYER
 62
     1
 10
269.638690
 20
-214.485952
 30
0.0
 40
16.000015
 50
16.944695
 51
118.055640
  0
ARC
  8
0
  6
BYLAYER
 62
     1
 10
227.425433
 20
-172.272573
 30
0.0
 40
15.999969
 50
331.943912
 51
433.055724
  0
ARC
  8
0
  6
BYLAYER
 62
     1
 10
269.638690
 20
-70.360708
 30
0.0
 40
15.999943
 50
241.944206
 51
343.056032
  0
ARC
  8
0
  6
BYLAYER
 62
     1
 10
329.337298
 20
-70.360708
 30
0.0
 40
16.000040
 50
196.943969
 51
298.055604
  0
ARC
  8
0
  6
BYLAYER
 62
     1
 10
227.425433
 20
-112.574087
 30
0.0
 40
16.000046
 50
286.944222
 51
388.056081
  0
ARC
  8
0
  6
BYLAYER
 62
     1
 10
355.665728
 20
-104.107900
 30
0.0
 40
1.999947
 50
331.944107
 51
394.294465
  0
ARC
  8
0
  6
BYLAYER
 62
     1
 10
366.304583
 20
-129.792440
 30
0.0
 40
1.999925
 50
10.705174
 51
73.056031
  0
ARC
  8
0
  6
BYLAYER
 62
     1
 10
299.488055
 20
-142.423208
 30
0.0
 40
69.999832
 50
34.295490
 51
55.704670
  0
ARC
  8
0
  6
BYLAYER
 62
     1
 10
299.488055
 20
-142.423208
 30
0.0
 40
69.999840
 50
349.295164
 51
370.704686
  0
ARC
  8
0
  6
BYLAYER
 62
     1
 10
371.550555
 20
-112.573934
 30
0.0
 40
16.000053
 50
230.812200
 51
253.055476
  0
ARC
  8
0
  6
BYLAYER
 62
     1
 10
371.550555
 20
-112.573934
 30
0.0
 40
16.000072
 50
151.943965
 51
174.188129
  0
ARC
  8
0
  6
BYLAYER
 62
     1
 10
371.550555
 20
-112.573934
 30
0.0
 40
16.000027
 50
174.188211
 51
230.812255
  0
LINE
  8
0
  6
BYLAYER
 62
     1
 10
370.848284
 20
-178.171926
 30
0.0
 11
361.026080
 21
-180.803762
 31
0.0
  0
ARC
  8
0
  6
BYLAYER
 62
     1
 10
370.330645
 20
-176.240072
 30
0.0
 40
2.0
 50
284.999998
 51
334.482403
  0
LINE
  8
0
  6
BYLAYER
 62
     1
 10
337.868609
 20
-203.961263
 30
0.0
 11
335.236773
 21
-213.783407
 31
0.0
  0
ARC
  8
0
  6
BYLAYER
 62
     1
 10
333.304950
 20
-213.265768
 30
0.0
 40
2.0
 50
295.517608
 51
345.000013
  0
ARC
  8
0
  6
BYLAYER
 62
     1
 10
299.488055
 20
-142.423208
 30
0.0
 40
72.0
 50
303.008420
 51
326.991564
  0
ARC
  8
0
  6
BYLAYER
 62
     1
 10
361.543719
 20
-182.735616
 30
0.0
 40
2.0
 50
105.000000
 51
146.991572
  0
ARC
  8
0
  6
BYLAYER
 62
     1
 10
339.800494
 20
-204.478903
 30
0.0
 40
2.0
 50
123.008428
 51
165.000001
  0
LINE
  8
0
  6
BYLAYER
 62
     1
 10
335.236773
 20
-71.063009
 30
0.0
 11
337.868609
 21
-80.885153
 31
0.0
  0
LINE
  8
0
  6
BYLAYER
 62
     1
 10
361.026080
 20
-104.042654
 30
0.0
 11
370.848284
 21
-106.674490
 31
0.0
  0
ARC
  8
0
  6
BYLAYER
 62
     1
 10
370.330645
 20
-108.606344
 30
0.0
 40
2.000000
 50
25.517594
 51
74.999999
  0
ARC
  8
0
  6
BYLAYER
 62
     1
 10
299.488055
 20
-142.423208
 30
0.0
 40
72.000000
 50
33.008429
 51
56.991573
  0
ARC
  8
0
  6
BYLAYER
 62
     1
 10
339.800494
 20
-80.367513
 30
0.0
 40
2.000000
 50
195.000009
 51
236.991582
  0
ARC
  8
0
  6
BYLAYER
 62
     1
 10
361.543719
 20
-102.110800
 30
0.0
 40
2.0
 50
213.008424
 51
254.999997
  0
LINE
  8
0
  6
BYLAYER
 62
     1
 10
228.127826
 20
-106.674490
 30
0.0
 11
237.949969
 21
-104.042654
 31
0.0
  0
LINE
  8
0
  6
BYLAYER
 62
     1
 10
261.107501
 20
-80.885153
 30
0.0
 11
263.739337
 21
-71.063009
 31
0.0
  0
ARC
  8
0
  6
BYLAYER
 62
     1
 10
265.671160
 20
-71.580648
 30
0.0
 40
2.000000
 50
115.517589
 51
164.999994
  0
ARC
  8
0
  6
BYLAYER
 62
     1
 10
299.488055
 20
-142.423208
 30
0.0
 40
72.000000
 50
123.008428
 51
146.991572
  0
ARC
  8
0
  6
BYLAYER
 62
     1
 10
237.432330
 20
-102.110800
 30
0.0
 40
2.000000
 50
284.999991
 51
326.991564
  0
ARC
  8
0
  6
BYLAYER
 62
     1
 10
259.175616
 20
-80.367513
 30
0.0
 40
2.0
 50
303.008420
 51
344.999993
  0
LINE
  8
0
  6
BYLAYER
 62
     1
 10
263.739337
 20
-213.783407
 30
0.0
 11
261.107501
 21
-203.961263
 31
0.0
  0
ARC
  8
0
  6
BYLAYER
 62
     1
 10
265.671160
 20
-213.265768
 30
0.0
 40
2.0
 50
195.000002
 51
244.482407
  0
LINE
  8
0
  6
BYLAYER
 62
     1
 10
237.949969
 20
-180.803762
 30
0.0
 11
228.127826
 21
-178.171926
 31
0.0
  0
ARC
  8
0
  6
BYLAYER
 62
     1
 10
228.645465
 20
-176.240072
 30
0.0
 40
2.000000
 50
205.517599
 51
255.000004
  0
ARC
  8
0
  6
BYLAYER
 62
     1
 10
299.488055
 20
-142.423208
 30
0.0
 40
72.0
 50
213.008424
 51
236.991568
  0
ARC
  8
0
  6
BYLAYER
 62
     1
 10
259.175616
 20
-204.478903
 30
0.0
 40
2.0
 50
15.000000
 51
56.991573
  0
ARC
  8
0
  6
BYLAYER
 62
     1
 10
237.432330
 20
-182.735616
 30
0.0
 40
2.000000
 50
33.008429
 51
75.000002
  0
ARC
  8
0
  6
BYLAYER
 62
     1
 10
258.829364
 20
-101.764517
 30
0.0
 40
4.000000
 50
270.0
 51
540.0
  0
CIRCLE
  8
0
  6
BYLAYER
 62
     1
 10
258.829364
 20
-101.764517
 30
0.0
 40
3.5
  0
ARC
  8
0
  6
BYLAYER
 62
     1
 10
299.488055
 20
-84.923208
 30
0.0
 40
4.0
 50
270.0
 51
540.0
  0
CIRCLE
  8
0
  6
BYLAYER
 62
     1
 10
299.488055
 20
-84.923208
 30
0.0
 40
3.5
  0
ARC
  8
0
  6
BYLAYER
 62
     1
 10
340.146624
 20
-101.764761
 30
0.0
 40
4.0
 50
270.0
 51
540.0
  0
CIRCLE
  8
0
  6
BYLAYER
 62
     1
 10
340.146624
 20
-101.764761
 30
0.0
 40
3.5
  0
ARC
  8
0
  6
BYLAYER
 62
     1
 10
356.988055
 20
-142.423208
 30
0.0
 40
4.0
 50
270.0
 51
540.0
  0
CIRCLE
  8
0
  6
BYLAYER
 62
     1
 10
356.988055
 20
-142.423208
 30
0.0
 40
3.5
  0
ARC
  8
0
  6
BYLAYER
 62
     1
 10
340.146624
 20
-183.081899
 30
0.0
 40
4.0
 50
270.0
 51
540.0
  0
CIRCLE
  8
0
  6
BYLAYER
 62
     1
 10
340.146624
 20
-183.081899
 30
0.0
 40
3.5
  0
ARC
  8
0
  6
BYLAYER
 62
     1
 10
299.487933
 20
-199.923208
 30
0.0
 40
4.000000
 50
270.0
 51
540.0
  0
CIRCLE
  8
0
  6
BYLAYER
 62
     1
 10
299.487933
 20
-199.923208
 30
0.0
 40
3.5
  0
ARC
  8
0
  6
BYLAYER
 62
     1
 10
258.829364
 20
-183.081899
 30
0.0
 40
4.000000
 50
270.0
 51
540.0
  0
CIRCLE
  8
0
  6
BYLAYER
 62
     1
 10
258.829364
 20
-183.081899
 30
0.0
 40
3.5
  0
ARC
  8
0
  6
BYLAYER
 62
     1
 10
241.988055
 20
-142.423208
 30
0.0
 40
4.0
 50
270.0
 51
540.0
  0
CIRCLE
  8
0
  6
BYLAYER
 62
     1
 10
241.988055
 20
-142.423208
 30
0.0
 40
3.5
  0
ARC
  8
0
  6
BYLAYER
 62
     1
 10
286.956927
 20
-53.883237
 30
0.0
 40
2.873727
 50
270.0
 51
308.795511
  0
ARC
  8
0
  6
BYLAYER
 62
     1
 10
286.678825
 20
-53.587057
 30
0.0
 40
3.278957
 50
309.340351
 51
360.000000
  0
ARC
  8
0
  6
BYLAYER
 62
     1
 10
286.678825
 20
-53.587057
 30
0.0
 40
3.278957
 50
0.0
 51
50.659649
  0
ARC
  8
0
  6
BYLAYER
 62
     1
 10
286.956927
 20
-53.290877
 30
0.0
 40
2.873727
 50
51.204489
 51
90.000000
  0
ARC
  8
0
  6
BYLAYER
 62
     1
 10
286.956927
 20
-53.290851
 30
0.0
 40
2.873701
 50
90.0
 51
128.795693
  0
ARC
  8
0
  6
BYLAYER
 62
     1
 10
287.235055
 20
-53.587057
 30
0.0
 40
3.278967
 50
129.340576
 51
180.0
  0
ARC
  8
0
  6
BYLAYER
 62
     1
 10
287.235055
 20
-53.587057
 30
0.0
 40
3.278967
 50
180.000000
 51
230.659424
  0
ARC
  8
0
  6
BYLAYER
 62
     1
 10
286.956927
 20
-53.883263
 30
0.0
 40
2.873701
 50
231.204307
 51
270.000000
  0
ARC
  8
0
  6
BYLAYER
 62
     1
 10
286.956927
 20
-52.743906
 30
0.0
 40
1.329747
 50
90.0
 51
140.793201
  0
ARC
  8
0
  6
BYLAYER
 62
     1
 10
287.990482
 20
-53.587057
 30
0.0
 40
2.663590
 50
140.793201
 51
180.000000
  0
ARC
  8
0
  6
BYLAYER
 62
     1
 10
287.990466
 20
-53.587057
 30
0.0
 40
2.663574
 50
180.000000
 51
219.206869
  0
ARC
  8
0
  6
BYLAYER
 62
     1
 10
286.956927
 20
-54.430197
 30
0.0
 40
1.329750
 50
219.206869
 51
270.0
  0
ARC
  8
0
  6
BYLAYER
 62
     1
 10
286.956927
 20
-54.430197
 30
0.0
 40
1.329750
 50
270.0
 51
320.793131
  0
ARC
  8
0
  6
BYLAYER
 62
     1
 10
285.923388
 20
-53.587057
 30
0.0
 40
2.663574
 50
320.793131
 51
360.0
  0
ARC
  8
0
  6
BYLAYER
 62
     1
 10
285.923372
 20
-53.587057
 30
0.0
 40
2.663590
 50
0.0
 51
39.206799
  0
ARC
  8
0
  6
BYLAYER
 62
     1
 10
286.956927
 20
-52.743906
 30
0.0
 40
1.329747
 50
39.206799
 51
90.0
  0
LINE
  8
0
  6
BYLAYER
 62
     1
 10
277.109088
 20
-56.545629
 30
0.0
 11
277.109088
 21
-50.543936
 31
0.0
  0
LINE
  8
0
  6
BYLAYER
 62
     1
 10
277.109088
 20
-50.543936
 30
0.0
 11
279.549212
 21
-50.543936
 31
0.0
  0
LINE
  8
0
  6
BYLAYER
 62
     1
 10
279.549212
 20
-50.543936
 30
0.0
 11
280.363528
 21
-53.671591
 31
0.0
  0
LINE
  8
0
  6
BYLAYER
 62
     1
 10
277.109088
 20
-56.545629
 30
0.0
 11
278.574298
 21
-56.545629
 31
0.0
  0
LINE
  8
0
  6
BYLAYER
 62
     1
 10
278.574298
 20
-56.545629
 30
0.0
 11
278.574298
 21
-53.079870
 31
0.0
  0
LINE
  8
0
  6
BYLAYER
 62
     1
 10
279.729541
 20
-56.545629
 30
0.0
 11
278.574298
 21
-53.079870
 31
0.0
  0
LINE
  8
0
  6
BYLAYER
 62
     1
 10
283.617968
 20
-56.545629
 30
0.0
 11
283.617968
 21
-50.543936
 31
0.0
  0
LINE
  8
0
  6
BYLAYER
 62
     1
 10
283.617968
 20
-50.543936
 30
0.0
 11
281.177844
 21
-50.543936
 31
0.0
  0
LINE
  8
0
  6
BYLAYER
 62
     1
 10
281.177844
 20
-50.543936
 30
0.0
 11
280.363528
 21
-53.671591
 31
0.0
  0
LINE
  8
0
  6
BYLAYER
 62
     1
 10
283.617968
 20
-56.545629
 30
0.0
 11
282.152758
 21
-56.545629
 31
0.0
  0
LINE
  8
0
  6
BYLAYER
 62
     1
 10
282.152758
 20
-56.545629
 30
0.0
 11
282.152758
 21
-53.079870
 31
0.0
  0
LINE
  8
0
  6
BYLAYER
 62
     1
 10
280.997515
 20
-56.545629
 30
0.0
 11
282.152758
 21
-53.079870
 31
0.0
  0
LINE
  8
0
  6
BYLAYER
 62
     1
 10
280.997515
 20
-56.545629
 30
0.0
 11
279.729541
 21
-56.545629
 31
0.0
  0
LINE
  8
0
  6
BYLAYER
 62
     1
 10
305.088809
 20
-56.545629
 30
0.0
 11
307.371127
 21
-50.543936
 31
0.0
  0
LINE
  8
0
  6
BYLAYER
 62
     1
 10
305.088809
 20
-56.545629
 30
0.0
 11
307.033023
 21
-56.545629
 31
0.0
  0
LINE
  8
0
  6
BYLAYER
 62
     1
 10
307.371127
 20
-50.543936
 30
0.0
 11
309.230807
 21
-50.543936
 31
0.0
  0
LINE
  8
0
  6
BYLAYER
 62
     1
 10
307.033023
 20
-56.545629
 30
0.0
 11
307.321200
 21
-55.700323
 31
0.0
  0
LINE
  8
0
  6
BYLAYER
 62
     1
 10
307.782260
 20
-54.347830
 30
0.0
 11
308.300967
 21
-52.826269
 31
0.0
  0
LINE
  8
0
  6
BYLAYER
 62
     1
 10
311.513156
 20
-56.545629
 30
0.0
 11
309.230807
 21
-50.543936
 31
0.0
  0
LINE
  8
0
  6
BYLAYER
 62
     1
 10
311.513156
 20
-56.545629
 30
0.0
 11
309.568942
 21
-56.545629
 31
0.0
  0
LINE
  8
0
  6
BYLAYER
 62
     1
 10
309.280764
 20
-55.700323
 30
0.0
 11
307.321200
 21
-55.700323
 31
0.0
  0
LINE
  8
0
  6
BYLAYER
 62
     1
 10
308.819674
 20
-54.347830
 30
0.0
 11
307.782260
 21
-54.347830
 31
0.0
  0
LINE
  8
0
  6
BYLAYER
 62
     1
 10
309.568942
 20
-56.545629
 30
0.0
 11
309.280764
 21
-55.700323
 31
0.0
  0
LINE
  8
0
  6
BYLAYER
 62
     1
 10
308.819674
 20
-54.347830
 30
0.0
 11
308.300967
 21
-52.826269
 31
0.0
  0
LINE
  8
0
  6
BYLAYER
 62
     1
 10
289.957782
 20
-52.023229
 30
0.0
 11
291.648394
 21
-52.023229
 31
0.0
  0
LINE
  8
0
  6
BYLAYER
 62
     1
 10
291.648394
 20
-52.023229
 30
0.0
 11
291.648394
 21
-56.545629
 31
0.0
  0
LINE
  8
0
  6
BYLAYER
 62
     1
 10
291.648394
 20
-56.545629
 30
0.0
 11
293.508090
 21
-56.545629
 31
0.0
  0
LINE
  8
0
  6
BYLAYER
 62
     1
 10
293.508090
 20
-56.545629
 30
0.0
 11
293.508090
 21
-52.023229
 31
0.0
  0
LINE
  8
0
  6
BYLAYER
 62
     1
 10
293.508090
 20
-52.023229
 30
0.0
 11
295.198703
 21
-52.023229
 31
0.0
  0
LINE
  8
0
  6
BYLAYER
 62
     1
 10
295.198703
 20
-52.023229
 30
0.0
 11
295.198703
 21
-50.543936
 31
0.0
  0
LINE
  8
0
  6
BYLAYER
 62
     1
 10
295.198703
 20
-50.543936
 30
0.0
 11
289.957782
 21
-50.543936
 31
0.0
  0
LINE
  8
0
  6
BYLAYER
 62
     1
 10
289.957782
 20
-50.543936
 30
0.0
 11
289.957782
 21
-52.023229
 31
0.0
  0
ARC
  8
0
  6
BYLAYER
 62
     1
 10
298.199542
 20
-53.883263
 30
0.0
 40
2.873701
 50
270.0
 51
308.795693
  0
ARC
  8
0
  6
BYLAYER
 62
     1
 10
297.921414
 20
-53.587057
 30
0.0
 40
3.278967
 50
309.340576
 51
360.000000
  0
ARC
  8
0
  6
BYLAYER
 62
     1
 10
297.921424
 20
-53.587057
 30
0.0
 40
3.278957
 50
0.0
 51
50.659649
  0
ARC
  8
0
  6
BYLAYER
 62
     1
 10
298.199527
 20
-53.290877
 30
0.0
 40
2.873727
 50
51.204489
 51
90.000000
  0
ARC
  8
0
  6
BYLAYER
 62
     1
 10
298.199527
 20
-53.290851
 30
0.0
 40
2.873701
 50
90.0
 51
128.795693
  0
ARC
  8
0
  6
BYLAYER
 62
     1
 10
298.477655
 20
-53.587057
 30
0.0
 40
3.278967
 50
129.340576
 51
180.000000
  0
ARC
  8
0
  6
BYLAYER
 62
     1
 10
298.477644
 20
-53.587057
 30
0.0
 40
3.278957
 50
180.000000
 51
230.659649
  0
ARC
  8
0
  6
BYLAYER
 62
     1
 10
298.199542
 20
-53.883237
 30
0.0
 40
2.873727
 50
231.204489
 51
270.000000
  0
ARC
  8
0
  6
BYLAYER
 62
     1
 10
298.199527
 20
-52.743906
 30
0.0
 40
1.329747
 50
90.0
 51
140.793201
  0
ARC
  8
0
  6
BYLAYER
 62
     1
 10
299.233081
 20
-53.587057
 30
0.0
 40
2.663590
 50
140.793201
 51
180.0
  0
ARC
  8
0
  6
BYLAYER
 62
     1
 10
299.233047
 20
-53.587057
 30
0.0
 40
2.663556
 50
180.000000
 51
219.207055
  0
ARC
  8
0
  6
BYLAYER
 62
     1
 10
298.199542
 20
-54.430175
 30
0.0
 40
1.329771
 50
219.207055
 51
270.000000
  0
ARC
  8
0
  6
BYLAYER
 62
     1
 10
298.199542
 20
-54.430197
 30
0.0
 40
1.329750
 50
270.0
 51
320.793131
  0
ARC
  8
0
  6
BYLAYER
 62
     1
 10
297.166003
 20
-53.587057
 30
0.0
 40
2.663574
 50
320.793131
 51
360.000000
  0
ARC
  8
0
  6
BYLAYER
 62
     1
 10
297.166005
 20
-53.587057
 30
0.0
 40
2.663572
 50
0.0
 51
39.206985
  0
ARC
  8
0
  6
BYLAYER
 62
     1
 10
298.199527
 20
-52.743927
 30
0.0
 40
1.329768
 50
39.206985
 51
90.000000
  0
LINE
  8
0
  6
BYLAYER
 62
     1
 10
311.675143
 20
-56.545629
 30
0.0
 11
311.675143
 21
-50.543936
 31
0.0
  0
LINE
  8
0
  6
BYLAYER
 62
     1
 10
311.675143
 20
-50.543936
 30
0.0
 11
315.394488
 21
-50.543936
 31
0.0
  0
ARC
  8
0
  6
BYLAYER
 62
     1
 10
315.394488
 20
-52.234564
 30
0.0
 40
1.690610
 50
287.134650
 51
450.000006
  0
ARC
  8
0
  6
BYLAYER
 62
     1
 10
315.732623
 20
-55.193136
 30
0.0
 40
1.352493
 50
0.0
 51
83.207557
  0
LINE
  8
0
  6
BYLAYER
 62
     1
 10
317.085116
 20
-55.193136
 30
0.0
 11
317.085116
 21
-56.038442
 31
0.0
  0
ARC
  8
0
  6
BYLAYER
 62
     1
 10
318.437609
 20
-56.038442
 30
0.0
 40
1.352493
 50
180.000000
 51
202.024314
  0
LINE
  8
0
  6
BYLAYER
 62
     1
 10
315.324130
 20
-56.545629
 30
0.0
 11
317.183810
 21
-56.545629
 31
0.0
  0
ARC
  8
0
  6
BYLAYER
 62
     1
 10
316.577929
 20
-56.038442
 30
0.0
 40
1.352493
 50
180.000000
 51
202.024314
  0
LINE
  8
0
  6
BYLAYER
 62
     1
 10
315.225436
 20
-56.038442
 30
0.0
 11
315.225436
 21
-55.362203
 31
0.0
  0
LINE
  8
0
  6
BYLAYER
 62
     1
 10
311.675143
 20
-56.545629
 30
0.0
 11
313.450289
 21
-56.545629
 31
0.0
  0
LINE
  8
0
  6
BYLAYER
 62
     1
 10
313.450289
 20
-56.545629
 30
0.0
 11
313.450289
 21
-54.516897
 31
0.0
  0
LINE
  8
0
  6
BYLAYER
 62
     1
 10
314.380130
 20
-54.516897
 30
0.0
 11
313.450289
 21
-54.516897
 31
0.0
  0
ARC
  8
0
  6
BYLAYER
 62
     1
 10
314.380130
 20
-55.362203
 30
0.0
 40
0.845306
 50
0.0
 51
90.000003
  0
LINE
  8
0
  6
BYLAYER
 62
     1
 10
313.450289
 20
-53.164404
 30
0.0
 11
313.450289
 21
-51.896429
 31
0.0
  0
LINE
  8
0
  6
BYLAYER
 62
     1
 10
313.450289
 20
-51.896429
 30
0.0
 11
314.633715
 21
-51.896429
 31
0.0
  0
LINE
  8
0
  6
BYLAYER
 62
     1
 10
313.450289
 20
-53.164404
 30
0.0
 11
314.633715
 21
-53.164404
 31
0.0
  0
ARC
  8
0
  6
BYLAYER
 62
     1
 10
314.633715
 20
-52.530416
 30
0.0
 40
0.633987
 50
270.0
 51
450.000005
  0
LINE
  8
0
  6
BYLAYER
 62
     1
 10
303.609530
 20
-54.647833
 30
0.0
 11
302.510623
 21
-50.543936
 31
0.0
  0
LINE
  8
0
  6
BYLAYER
 62
     1
 10
302.510623
 20
-50.543936
 30
0.0
 11
300.735476
 21
-50.543936
 31
0.0
  0
LINE
  8
0
  6
BYLAYER
 62
     1
 10
300.735476
 20
-50.543936
 30
0.0
 11
302.595156
 21
-56.545629
 31
0.0
  0
LINE
  8
0
  6
BYLAYER
 62
     1
 10
303.609530
 20
-54.647833
 30
0.0
 11
304.708407
 21
-50.543936
 31
0.0
  0
LINE
  8
0
  6
BYLAYER
 62
     1
 10
304.708407
 20
-50.543936
 30
0.0
 11
306.483554
 21
-50.543936
 31
0.0
  0
LINE
  8
0
  6
BYLAYER
 62
     1
 10
306.483554
 20
-50.543936
 30
0.0
 11
304.623873
 21
-56.545629
 31
0.0
  0
LINE
  8
0
  6
BYLAYER
 62
     1
 10
304.623873
 20
-56.545629
 30
0.0
 11
302.595156
 21
-56.545629
 31
0.0
  0
LINE
  8
0
  6
BYLAYER
 62
     1
 10
317.345797
 20
-56.545629
 30
0.0
 11
319.120944
 21
-56.545629
 31
0.0
  0
LINE
  8
0
  6
BYLAYER
 62
     1
 10
319.120944
 20
-56.545629
 30
0.0
 11
319.120944
 21
-50.543936
 31
0.0
  0
LINE
  8
0
  6
BYLAYER
 62
     1
 10
319.120944
 20
-50.543936
 30
0.0
 11
317.345797
 21
-50.543936
 31
0.0
  0
LINE
  8
0
  6
BYLAYER
 62
     1
 10
317.345797
 20
-50.543936
 30
0.0
 11
317.345797
 21
-56.545629
 31
0.0
  0
ARC
  8
0
  6
BYLAYER
 62
     1
 10
322.459918
 20
-53.883263
 30
0.0
 40
2.873701
 50
270.0
 51
308.795693
  0
ARC
  8
0
  6
BYLAYER
 62
     1
 10
322.181790
 20
-53.587057
 30
0.0
 40
3.278967
 50
309.340576
 51
360.000000
  0
ARC
  8
0
  6
BYLAYER
 62
     1
 10
322.181790
 20
-53.587057
 30
0.0
 40
3.278967
 50
0.0
 51
50.659424
  0
ARC
  8
0
  6
BYLAYER
 62
     1
 10
322.459918
 20
-53.290851
 30
0.0
 40
2.873701
 50
51.204307
 51
90.0
  0
ARC
  8
0
  6
BYLAYER
 62
     1
 10
322.459918
 20
-53.290851
 30
0.0
 40
2.873701
 50
90.0
 51
128.795693
  0
ARC
  8
0
  6
BYLAYER
 62
     1
 10
322.738046
 20
-53.587057
 30
0.0
 40
3.278967
 50
129.340576
 51
180.000000
  0
ARC
  8
0
  6
BYLAYER
 62
     1
 10
322.738046
 20
-53.587057
 30
0.0
 40
3.278967
 50
180.000000
 51
230.659424
  0
ARC
  8
0
  6
BYLAYER
 62
     1
 10
322.459918
 20
-53.883263
 30
0.0
 40
2.873701
 50
231.204307
 51
270.0
  0
ARC
  8
0
  6
BYLAYER
 62
     1
 10
322.459918
 20
-52.743906
 30
0.0
 40
1.329747
 50
39.206799
 51
90.0
  0
ARC
  8
0
  6
BYLAYER
 62
     1
 10
321.426363
 20
-53.587057
 30
0.0
 40
2.663590
 50
0.0
 51
39.206799
  0
ARC
  8
0
  6
BYLAYER
 62
     1
 10
321.426379
 20
-53.587057
 30
0.0
 40
2.663574
 50
320.793131
 51
360.000000
  0
ARC
  8
0
  6
BYLAYER
 62
     1
 10
322.459918
 20
-54.430197
 30
0.0
 40
1.329750
 50
270.0
 51
320.793131
  0
ARC
  8
0
  6
BYLAYER
 62
     1
 10
322.459918
 20
-54.430197
 30
0.0
 40
1.329750
 50
219.206869
 51
270.000000
  0
ARC
  8
0
  6
BYLAYER
 62
     1
 10
323.493456
 20
-53.587057
 30
0.0
 40
2.663574
 50
180.000000
 51
219.206869
  0
ARC
  8
0
  6
BYLAYER
 62
     1
 10
323.493472
 20
-53.587057
 30
0.0
 40
2.663590
 50
140.793201
 51
180.0
  0
ARC
  8
0
  6
BYLAYER
 62
     1
 10
322.459918
 20
-52.743906
 30
0.0
 40
1.329747
 50
90.0
 51
140.793201
  0
ARC
  8
0
  6
BYLAYER
 62
     1
 10
292.488055
 20
-43.673208
 30
0.0
 40
7.429995
 50
174.535650
 51
180.000000
  0
LINE
  8
0
  6
BYLAYER
 62
     1
 10
285.091822
 20
-42.965673
 30
0.0
 11
285.091822
 21
-42.965666
 31
0.0
  0
LINE
  8
0
  6
BYLAYER
 62
     1
 10
285.099907
 20
-42.885743
 30
0.0
 11
285.809010
 21
-42.587200
 31
0.0
  0
ARC
  8
0
  6
BYLAYER
 62
     1
 10
292.488086
 20
-43.673269
 30
0.0
 40
6.766781
 50
159.235383
 51
170.763998
  0
LINE
  8
0
  6
BYLAYER
 62
     1
 10
286.160811
 20
-41.274204
 30
0.0
 11
285.696012
 21
-40.661090
 31
0.0
  0
ARC
  8
0
  6
BYLAYER
 62
     1
 10
292.488055
 20
-43.673208
 30
0.0
 40
7.429986
 50
144.139514
 51
156.083795
  0
LINE
  8
0
  6
BYLAYER
 62
     1
 10
286.417590
 20
-39.389013
 30
0.0
 11
286.418032
 21
-39.388387
 31
0.0
  0
LINE
  8
0
  6
BYLAYER
 62
     1
 10
286.466453
 20
-39.320621
 30
0.0
 11
287.221378
 21
-39.424485
 31
0.0
  0
ARC
  8
0
  6
BYLAYER
 62
     1
 10
292.488055
 20
-43.673208
 30
0.0
 40
6.766741
 50
129.235643
 51
141.105976
  0
LINE
  8
0
  6
BYLAYER
 62
     1
 10
288.097369
 20
-38.524351
 30
0.0
 11
288.098101
 21
-38.523718
 31
0.0
  0
LINE
  8
0
  6
BYLAYER
 62
     1
 10
288.208015
 20
-38.432021
 30
0.0
 11
288.112022
 21
-37.668614
 31
0.0
  0
ARC
  8
0
  6
BYLAYER
 62
     1
 10
292.488055
 20
-43.673208
 30
0.0
 40
7.429994
 50
114.139607
 51
126.083853
  0
LINE
  8
0
  6
BYLAYER
 62
     1
 10
289.373507
 20
-36.927511
 30
0.0
 11
289.374011
 21
-36.927274
 31
0.0
  0
LINE
  8
0
  6
BYLAYER
 62
     1
 10
289.449474
 20
-36.892954
 30
0.0
 11
290.051304
 21
-37.360349
 31
0.0
  0
LINE
  8
0
  6
BYLAYER
 62
     1
 10
290.188906
 20
-37.309026
 30
0.0
 11
290.189669
 21
-37.308759
 31
0.0
  0
ARC
  8
0
  6
BYLAYER
 62
     1
 10
292.488055
 20
-43.673208
 30
0.0
 40
6.766738
 50
99.235601
 51
111.106038
  0
ARC
  8
0
  6
BYLAYER
 62
     1
 10
292.488055
 20
-43.673208
 30
0.0
 40
7.429995
 50
90.0
 51
96.083892
  0
LINE
  8
0
  6
BYLAYER
 62
     1
 10
291.700590
 20
-36.285060
 30
0.0
 11
291.402031
 21
-36.994189
 31
0.0
  0
LINE
  8
0
  6
BYLAYER
 62
     1
 10
299.884280
 20
-42.965673
 30
0.0
 11
299.884280
 21
-42.965666
 31
0.0
  0
LINE
  8
0
  6
BYLAYER
 62
     1
 10
299.876202
 20
-42.885742
 30
0.0
 11
299.167064
 21
-42.587193
 31
0.0
  0
ARC
  8
0
  6
BYLAYER
 62
     1
 10
292.488009
 20
-43.673269
 30
0.0
 40
6.766781
 50
9.235986
 51
20.764650
  0
LINE
  8
0
  6
BYLAYER
 62
     1
 10
298.815333
 20
-41.274133
 30
0.0
 11
299.280099
 21
-40.661092
 31
0.0
  0
ARC
  8
0
  6
BYLAYER
 62
     1
 10
292.488055
 20
-43.673208
 30
0.0
 40
7.429986
 50
23.916189
 51
35.860484
  0
LINE
  8
0
  6
BYLAYER
 62
     1
 10
298.558505
 20
-39.389013
 30
0.0
 11
298.558062
 21
-39.388387
 31
0.0
  0
LINE
  8
0
  6
BYLAYER
 62
     1
 10
298.509657
 20
-39.320621
 30
0.0
 11
297.754785
 21
-39.424475
 31
0.0
  0
ARC
  8
0
  6
BYLAYER
 62
     1
 10
292.488055
 20
-43.673208
 30
0.0
 40
6.766741
 50
38.894050
 51
50.764315
  0
LINE
  8
0
  6
BYLAYER
 62
     1
 10
296.878741
 20
-38.524351
 30
0.0
 11
296.878009
 21
-38.523718
 31
0.0
  0
LINE
  8
0
  6
BYLAYER
 62
     1
 10
296.768114
 20
-38.431899
 30
0.0
 11
296.864072
 21
-37.668603
 31
0.0
  0
ARC
  8
0
  6
BYLAYER
 62
     1
 10
292.488055
 20
-43.673208
 30
0.0
 40
7.429994
 50
53.916300
 51
65.860381
  0
LINE
  8
0
  6
BYLAYER
 62
     1
 10
295.602603
 20
-36.927511
 30
0.0
 11
295.602084
 21
-36.927274
 31
0.0
  0
LINE
  8
0
  6
BYLAYER
 62
     1
 10
295.526637
 20
-36.892955
 30
0.0
 11
294.924814
 21
-37.360328
 31
0.0
  0
LINE
  8
0
  6
BYLAYER
 62
     1
 10
294.787188
 20
-37.309026
 30
0.0
 11
294.786441
 21
-37.308759
 31
0.0
  0
ARC
  8
0
  6
BYLAYER
 62
     1
 10
292.488055
 20
-43.673208
 30
0.0
 40
6.766738
 50
68.894081
 51
80.764578
  0
ARC
  8
0
  6
BYLAYER
 62
     1
 10
292.488055
 20
-43.673208
 30
0.0
 40
7.429995
 50
84.535428
 51
90.000003
  0
LINE
  8
0
  6
BYLAYER
 62
     1
 10
293.275522
 20
-36.285061
 30
0.0
 11
293.574009
 21
-36.994068
 31
0.0
  0
ARC
  8
0
  6
BYLAYER
 62
     1
 10
292.488055
 20
-43.673208
 30
0.0
 40
7.429995
 50
180.000000
 51
186.083899
  0
LINE
  8
0
  6
BYLAYER
 62
     1
 10
285.091822
 20
-44.380735
 30
0.0
 11
285.091822
 21
-44.380750
 31
0.0
  0
LINE
  8
0
  6
BYLAYER
 62
     1
 10
285.099907
 20
-44.460673
 30
0.0
 11
285.809031
 21
-44.759225
 31
0.0
  0
ARC
  8
0
  6
BYLAYER
 62
     1
 10
292.488086
 20
-43.673147
 30
0.0
 40
6.766781
 50
189.236002
 51
200.764629
  0
LINE
  8
0
  6
BYLAYER
 62
     1
 10
286.160835
 20
-46.072182
 30
0.0
 11
285.696010
 21
-46.685320
 31
0.0
  0
ARC
  8
0
  6
BYLAYER
 62
     1
 10
292.488055
 20
-43.673208
 30
0.0
 40
7.429986
 50
203.916158
 51
215.860410
  0
LINE
  8
0
  6
BYLAYER
 62
     1
 10
286.417590
 20
-47.957395
 30
0.0
 11
286.418032
 21
-47.958021
 31
0.0
  0
LINE
  8
0
  6
BYLAYER
 62
     1
 10
286.466448
 20
-48.025787
 30
0.0
 11
287.221444
 21
-47.921924
 31
0.0
  0
ARC
  8
0
  6
BYLAYER
 62
     1
 10
292.488055
 20
-43.673208
 30
0.0
 40
6.766741
 50
218.894045
 51
230.764345
  0
LINE
  8
0
  6
BYLAYER
 62
     1
 10
288.097369
 20
-48.822057
 30
0.0
 11
288.098101
 21
-48.822691
 31
0.0
  0
LINE
  8
0
  6
BYLAYER
 62
     1
 10
288.208014
 20
-48.914394
 30
0.0
 11
288.112022
 21
-49.677802
 31
0.0
  0
ARC
  8
0
  6
BYLAYER
 62
     1
 10
292.488055
 20
-43.673208
 30
0.0
 40
7.429994
 50
233.916148
 51
245.860401
  0
LINE
  8
0
  6
BYLAYER
 62
     1
 10
289.373507
 20
-50.418897
 30
0.0
 11
289.374011
 21
-50.419142
 31
0.0
  0
LINE
  8
0
  6
BYLAYER
 62
     1
 10
289.449475
 20
-50.453462
 30
0.0
 11
290.051375
 21
-49.986002
 31
0.0
  0
LINE
  8
0
  6
BYLAYER
 62
     1
 10
290.188906
 20
-50.037382
 30
0.0
 11
290.189669
 21
-50.037657
 31
0.0
  0
LINE
  8
0
  6
BYLAYER
 62
     1
 10
299.884280
 20
-44.380735
 30
0.0
 11
299.884280
 21
-44.380750
 31
0.0
  0
LINE
  8
0
  6
BYLAYER
 62
     1
 10
299.876201
 20
-44.460675
 30
0.0
 11
299.167064
 21
-44.759223
 31
0.0
  0
LINE
  8
0
  6
BYLAYER
 62
     1
 10
298.815268
 20
-46.072199
 30
0.0
 11
299.280106
 21
-46.685325
 31
0.0
  0
LINE
  8
0
  6
BYLAYER
 62
     1
 10
298.558505
 20
-47.957395
 30
0.0
 11
298.558062
 21
-47.958021
 31
0.0
  0
LINE
  8
0
  6
BYLAYER
 62
     1
 10
298.509671
 20
-48.025788
 30
0.0
 11
297.754626
 21
-47.921921
 31
0.0
  0
LINE
  8
0
  6
BYLAYER
 62
     1
 10
296.878741
 20
-48.822057
 30
0.0
 11
296.878009
 21
-48.822691
 31
0.0
  0
LINE
  8
0
  6
BYLAYER
 62
     1
 10
296.768100
 20
-48.914391
 30
0.0
 11
296.864072
 21
-49.677813
 31
0.0
  0
LINE
  8
0
  6
BYLAYER
 62
     1
 10
295.526636
 20
-50.453461
 30
0.0
 11
294.924722
 21
-49.986007
 31
0.0
  0
ARC
  8
0
  6
BYLAYER
 62
     1
 10
292.488055
 20
-43.673208
 30
0.0
 40
6.766741
 50
309.235697
 51
321.105929
  0
ARC
  8
0
  6
BYLAYER
 62
     1
 10
292.488055
 20
-43.673208
 30
0.0
 40
6.766738
 50
248.893873
 51
270.000000
  0
ARC
  8
0
  6
BYLAYER
 62
     1
 10
292.488055
 20
-43.673208
 30
0.0
 40
7.429994
 50
294.783232
 51
306.083699
  0
LINE
  8
0
  6
BYLAYER
 62
     1
 10
295.602084
 20
-50.419142
 30
0.0
 11
295.527094
 21
-50.454431
 31
0.0
  0
ARC
  8
0
  6
BYLAYER
 62
     1
 10
292.488055
 20
-43.673208
 30
0.0
 40
7.429986
 50
324.139593
 51
336.083825
  0
ARC
  8
0
  6
BYLAYER
 62
     1
 10
292.488009
 20
-43.673147
 30
0.0
 40
6.766781
 50
339.235210
 51
350.764014
  0
ARC
  8
0
  6
BYLAYER
 62
     1
 10
292.488055
 20
-43.673208
 30
0.0
 40
7.429995
 50
353.916089
 51
360.000000
  0
ARC
  8
0
  6
BYLAYER
 62
     1
 10
292.488055
 20
-43.673208
 30
0.0
 40
7.429995
 50
0.0
 51
6.083907
  0
ARC
  8
0
  6
BYLAYER
 62
     1
 10
292.488055
 20
-43.673208
 30
0.0
 40
6.766738
 50
270.0
 51
291.106008
  0
CIRCLE
  8
0
  6
BYLAYER
 62
     1
 10
292.488055
 20
-43.673208
 30
0.0
 40
3.630081
  0
CIRCLE
  8
0
  6
BYLAYER
 62
     1
 10
292.488055
 20
-43.673208
 30
0.0
 40
5.296032
  0
LINE
  8
0
  6
BYLAYER
 62
     1
 10
299.488055
 20
-142.423208
 30
0.0
 11
294.488055
 21
-142.423208
 31
0.0
  0
LINE
  8
0
  6
BYLAYER
 62
     1
 10
299.488055
 20
-142.423208
 30
0.0
 11
299.488055
 21
-147.423208
 31
0.0
  0
LINE
  8
0
  6
BYLAYER
 62
     1
 10
299.488055
 20
-142.423208
 30
0.0
 11
304.488055
 21
-142.423208
 31
0.0
  0
LINE
  8
0
  6
BYLAYER
 62
     1
 10
411.988055
 20
-7.423210
 30
0.0
 11
411.988055
 21
-67.423208
 31
0.0
  0
ARC
  8
0
  6
BYLAYER
 62
     1
 10
399.988055
 20
-23.956014
 30
0.0
 40
1.999988
 50
281.000195
 51
360.000000
  0
LINE
  8
0
  6
BYLAYER
 62
     1
 10
401.988055
 20
-9.845205
 30
0.0
 11
401.988055
 21
-67.423208
 31
0.0
  0
LINE
  8
0
  6
BYLAYER
 62
     1
 10
387.488055
 20
-28.423193
 30
0.0
 11
400.369677
 21
-25.919256
 31
0.0
  0
LINE
  8
0
  6
BYLAYER
 62
     1
 10
401.988055
 20
-9.845205
 30
0.0
 11
388.655169
 21
-28.196325
 31
0.0
  0
LINE
  8
0
  6
BYLAYER
 62
     1
 10
387.488055
 20
-28.423193
 30
0.0
 11
387.488055
 21
-67.423208
 31
0.0
  0
LINE
  8
0
  6
BYLAYER
 62
     1
 10
403.883380
 20
-7.847952
 30
0.0
 11
411.988055
 21
-7.423210
 31
0.0
  0
ARC
  8
0
  6
BYLAYER
 62
     1
 10
403.988055
 20
-9.845205
 30
0.0
 40
2.000000
 50
93.000097
 51
180.000000
  0
LINE
  8
0
  6
BYLAYER
 62
     1
 10
411.988055
 20
-127.423206
 30
0.0
 11
411.988055
 21
-67.423208
 31
0.0
  0
ARC
  8
0
  6
BYLAYER
 62
     1
 10
399.988055
 20
-110.890402
 30
0.0
 40
1.999988
 50
0.0
 51
78.999805
  0
LINE
  8
0
  6
BYLAYER
 62
     1
 10
401.988055
 20
-125.001211
 30
0.0
 11
401.988055
 21
-67.423208
 31
0.0
  0
LINE
  8
0
  6
BYLAYER
 62
     1
 10
387.488055
 20
-106.423223
 30
0.0
 11
400.369677
 21
-108.927160
 31
0.0
  0
LINE
  8
0
  6
BYLAYER
 62
     1
 10
401.988055
 20
-125.001211
 30
0.0
 11
388.655169
 21
-106.650091
 31
0.0
  0
LINE
  8
0
  6
BYLAYER
 62
     1
 10
387.488055
 20
-106.423223
 30
0.0
 11
387.488055
 21
-67.423208
 31
0.0
  0
LINE
  8
0
  6
BYLAYER
 62
     1
 10
403.883380
 20
-126.998464
 30
0.0
 11
411.988055
 21
-127.423206
 31
0.0
  0
ARC
  8
0
  6
BYLAYER
 62
     1
 10
403.988055
 20
-125.001211
 30
0.0
 40
2.000000
 50
180.000000
 51
266.999903
  0
LINE
  8
0
  6
BYLAYER
 62
     1
 10
299.488055
 20
-142.423208
 30
0.0
 11
299.488055
 21
-137.082523
 31
0.0
  0
ARC
  8
0
  6
BYLAYER
 62
     1
 10
929.488055
 20
-67.423208
 30
0.0
 40
67.5
 50
354.420787
 51
419.508708
  0
ARC
  8
0
  6
BYLAYER
 62
     1
 10
929.488055
 20
-67.423208
 30
0.0
 40
67.500000
 50
63.675482
 51
116.324518
  0
ARC
  8
0
  6
BYLAYER
 62
     1
 10
929.488055
 20
-67.423208
 30
0.0
 40
67.5
 50
120.491292
 51
185.579213
  0
CIRCLE
  8
0
  6
BYLAYER
 62
     1
 10
984.173805
 20
-49.654731
 30
0.0
 40
3.25
  0
CIRCLE
  8
0
  6
BYLAYER
 62
     1
 10
874.802305
 20
-49.654731
 30
0.0
 40
3.250000
  0
ARC
  8
0
  6
BYLAYER
 62
     1
 10
929.488055
 20
-67.423208
 30
0.0
 40
44.499891
 50
146.249289
 51
154.443008
  0
ARC
  8
0
  6
BYLAYER
 62
     1
 10
929.488055
 20
-67.423208
 30
0.0
 40
44.499891
 50
25.556992
 51
33.750711
  0
ARC
  8
0
  6
BYLAYER
 62
     1
 10
929.488055
 20
-117.423177
 30
0.0
 40
80.0
 50
117.548546
 51
422.451454
  0
LINE
  8
0
  6
BYLAYER
 62
     7
 10
971.818565
 20
-172.481605
 30
0.0
 11
974.814288
 21
-175.477327
 31
0.0
  0
ARC
  8
0
  6
BYLAYER
 62
     7
 10
973.046496
 20
-177.245092
 30
0.0
 40
2.499997
 50
306.059684
 51
405.000001
  0
ARC
  8
0
  6
BYLAYER
 62
     7
 10
929.488055
 20
-117.423177
 30
0.0
 40
76.500000
 50
273.680298
 51
306.059684
  0
ARC
  8
0
  6
BYLAYER
 62
     7
 10
934.238055
 20
-191.270574
 30
0.0
 40
2.500000
 50
180.000000
 51
273.680293
  0
LINE
  8
0
  6
BYLAYER
 62
     7
 10
931.738055
 20
-186.836721
 30
0.0
 11
931.738055
 21
-191.270574
 31
0.0
  0
LINE
  8
0
  6
BYLAYER
 62
     7
 10
887.157545
 20
-172.481605
 30
0.0
 11
884.161822
 21
-175.477327
 31
0.0
  0
ARC
  8
0
  6
BYLAYER
 62
     7
 10
885.929614
 20
-177.245092
 30
0.0
 40
2.499997
 50
135.000000
 51
233.940317
  0
ARC
  8
0
  6
BYLAYER
 62
     7
 10
929.488055
 20
-117.423177
 30
0.0
 40
76.500000
 50
233.940317
 51
266.319704
  0
ARC
  8
0
  6
BYLAYER
 62
     7
 10
924.738055
 20
-191.270574
 30
0.0
 40
2.5
 50
266.319704
 51
359.999983
  0
LINE
  8
0
  6
BYLAYER
 62
     7
 10
927.238055
 20
-186.836721
 30
0.0
 11
927.238055
 21
-191.270574
 31
0.0
  0
LINE
  8
0
  6
BYLAYER
 62
     7
 10
984.546483
 20
-75.092668
 30
0.0
 11
987.542193
 21
-72.096959
 31
0.0
  0
ARC
  8
0
  6
BYLAYER
 62
     7
 10
989.309954
 20
-73.864724
 30
0.0
 40
2.500000
 50
36.059693
 51
135.000000
  0
ARC
  8
0
  6
BYLAYER
 62
     7
 10
929.488055
 20
-117.423177
 30
0.0
 40
76.500000
 50
3.680307
 51
36.059693
  0
ARC
  8
0
  6
BYLAYER
 62
     7
 10
1003.335467
 20
-112.673172
 30
0.0
 40
2.5
 50
270.0
 51
363.680306
  0
LINE
  8
0
  6
BYLAYER
 62
     7
 10
998.901598
 20
-115.173172
 30
0.0
 11
1003.335467
 21
-115.173172
 31
0.0
  0
LINE
  8
0
  6
BYLAYER
 62
     7
 10
984.546487
 20
-159.753682
 30
0.0
 11
987.542193
 21
-162.749387
 31
0.0
  0
ARC
  8
0
  6
BYLAYER
 62
     7
 10
989.309954
 20
-160.981622
 30
0.0
 40
2.499995
 50
225.000010
 51
323.940327
  0
ARC
  8
0
  6
BYLAYER
 62
     7
 10
929.488055
 20
-117.423177
 30
0.0
 40
76.5
 50
323.940327
 51
356.319713
  0
ARC
  8
0
  6
BYLAYER
 62
     7
 10
1003.335467
 20
-122.173176
 30
0.0
 40
2.500000
 50
356.319713
 51
449.999989
  0
LINE
  8
0
  6
BYLAYER
 62
     7
 10
998.901598
 20
-119.673176
 30
0.0
 11
1003.335467
 21
-119.673176
 31
0.0
  0
LINE
  8
0
  6
BYLAYER
 62
     7
 10
887.157543
 20
-62.364752
 30
0.0
 11
884.161822
 21
-59.369031
 31
0.0
  0
ARC
  8
0
  6
BYLAYER
 62
     7
 10
885.929583
 20
-57.601266
 30
0.0
 40
2.499997
 50
126.059706
 51
225.000010
  0
ARC
  8
0
  6
BYLAYER
 62
     7
 10
929.488055
 20
-117.423177
 30
0.0
 40
76.5
 50
118.924725
 51
126.059706
  0
LINE
  8
0
  6
BYLAYER
 62
     7
 10
971.818551
 20
-62.364740
 30
0.0
 11
974.814257
 21
-59.369024
 31
0.0
  0
ARC
  8
0
  6
BYLAYER
 62
     7
 10
973.046496
 20
-57.601259
 30
0.0
 40
2.499997
 50
315.000019
 51
413.940336
  0
ARC
  8
0
  6
BYLAYER
 62
     7
 10
929.488055
 20
-117.423177
 30
0.0
 40
76.500000
 50
53.940336
 51
61.075275
  0
LINE
  8
0
  6
BYLAYER
 62
     7
 10
874.429625
 20
-159.753684
 30
0.0
 11
871.433917
 21
-162.749391
 31
0.0
  0
ARC
  8
0
  6
BYLAYER
 62
     7
 10
869.666156
 20
-160.981626
 30
0.0
 40
2.499997
 50
216.059688
 51
314.999992
  0
ARC
  8
0
  6
BYLAYER
 62
     7
 10
929.488055
 20
-117.423177
 30
0.0
 40
76.5
 50
183.680329
 51
216.059688
  0
ARC
  8
0
  6
BYLAYER
 62
     7
 10
855.640643
 20
-122.173180
 30
0.0
 40
2.500000
 50
90.0
 51
183.680313
  0
LINE
  8
0
  6
BYLAYER
 62
     7
 10
860.074512
 20
-119.673180
 30
0.0
 11
855.640643
 21
-119.673180
 31
0.0
  0
LINE
  8
0
  6
BYLAYER
 62
     7
 10
874.429625
 20
-75.092671
 30
0.0
 11
871.433917
 21
-72.096963
 31
0.0
  0
ARC
  8
0
  6
BYLAYER
 62
     7
 10
869.666156
 20
-73.864728
 30
0.0
 40
2.499997
 50
45.000001
 51
143.940322
  0
ARC
  8
0
  6
BYLAYER
 62
     7
 10
929.488055
 20
-117.423177
 30
0.0
 40
76.500000
 50
143.940322
 51
176.319681
  0
ARC
  8
0
  6
BYLAYER
 62
     7
 10
855.640643
 20
-112.673176
 30
0.0
 40
2.5
 50
176.319681
 51
269.999973
  0
LINE
  8
0
  6
BYLAYER
 62
     7
 10
860.074512
 20
-115.173176
 30
0.0
 11
855.640643
 21
-115.173176
 31
0.0
  0
LINE
  8
0
  6
BYLAYER
 62
     7
 10
892.488055
 20
-40.423177
 30
0.0
 11
892.488055
 21
-58.649863
 31
0.0
  0
LINE
  8
0
  6
BYLAYER
 62
     7
 10
966.488055
 20
-40.423177
 30
0.0
 11
966.488055
 21
-58.649863
 31
0.0
  0
LINE
  8
0
  6
BYLAYER
 62
     7
 10
892.488055
 20
-44.923177
 30
0.0
 11
895.488055
 21
-50.119313
 31
0.0
  0
LINE
  8
0
  6
BYLAYER
 62
     7
 10
895.488055
 20
-50.119313
 30
0.0
 11
895.488055
 21
-56.864920
 31
0.0
  0
LINE
  8
0
  6
BYLAYER
 62
     7
 10
966.488055
 20
-44.923177
 30
0.0
 11
963.488055
 21
-50.119313
 31
0.0
  0
LINE
  8
0
  6
BYLAYER
 62
     7
 10
963.488055
 20
-50.119313
 30
0.0
 11
963.488055
 21
-56.864920
 31
0.0
  0
LINE
  8
0
  6
BYLAYER
 62
     7
 10
930.488055
 20
-106.423177
 30
0.0
 11
938.488055
 21
-106.423177
 31
0.0
  0
LINE
  8
0
  6
BYLAYER
 62
     7
 10
930.488055
 20
-88.423177
 30
0.0
 11
930.488055
 21
-96.423177
 31
0.0
  0
LINE
  8
0
  6
BYLAYER
 62
     7
 10
930.488055
 20
-78.423177
 30
0.0
 11
930.488055
 21
-86.423177
 31
0.0
  0
LINE
  8
0
  6
BYLAYER
 62
     7
 10
930.488055
 20
-98.423177
 30
0.0
 11
930.488055
 21
-106.423177
 31
0.0
  0
LINE
  8
0
  6
BYLAYER
 62
     7
 10
938.488055
 20
-86.423177
 30
0.0
 11
938.488055
 21
-78.423177
 31
0.0
  0
LINE
  8
0
  6
BYLAYER
 62
     7
 10
940.488055
 20
-86.423177
 30
0.0
 11
940.488055
 21
-78.423177
 31
0.0
  0
LINE
  8
0
  6
BYLAYER
 62
     7
 10
930.488055
 20
-98.423177
 30
0.0
 11
938.488055
 21
-98.423177
 31
0.0
  0
LINE
  8
0
  6
BYLAYER
 62
     7
 10
930.488055
 20
-96.423177
 30
0.0
 11
938.488055
 21
-96.423177
 31
0.0
  0
LINE
  8
0
  6
BYLAYER
 62
     7
 10
930.488055
 20
-88.423177
 30
0.0
 11
938.488055
 21
-88.423177
 31
0.0
  0
LINE
  8
0
  6
BYLAYER
 62
     7
 10
940.488055
 20
-86.423177
 30
0.0
 11
948.326054
 21
-86.423177
 31
0.0
  0
LINE
  8
0
  6
BYLAYER
 62
     7
 10
930.488055
 20
-86.423177
 30
0.0
 11
938.488055
 21
-86.423177
 31
0.0
  0
LINE
  8
0
  6
BYLAYER
 62
     7
 10
940.488055
 20
-78.423177
 30
0.0
 11
948.326054
 21
-78.423177
 31
0.0
  0
LINE
  8
0
  6
BYLAYER
 62
     7
 10
930.488055
 20
-78.423177
 30
0.0
 11
938.488055
 21
-78.423177
 31
0.0
  0
LINE
  8
0
  6
BYLAYER
 62
     7
 10
948.326054
 20
-86.423177
 30
0.0
 11
948.326054
 21
-78.423177
 31
0.0
  0
LINE
  8
0
  6
BYLAYER
 62
     7
 10
938.488055
 20
-106.423177
 30
0.0
 11
938.488055
 21
-98.423177
 31
0.0
  0
LINE
  8
0
  6
BYLAYER
 62
     7
 10
938.488055
 20
-96.423177
 30
0.0
 11
938.488055
 21
-88.423177
 31
0.0
  0
LINE
  8
0
  6
BYLAYER
 62
     7
 10
940.488055
 20
-106.423177
 30
0.0
 11
948.488055
 21
-106.423177
 31
0.0
  0
LINE
  8
0
  6
BYLAYER
 62
     7
 10
940.488055
 20
-88.423177
 30
0.0
 11
940.488055
 21
-96.423177
 31
0.0
  0
LINE
  8
0
  6
BYLAYER
 62
     7
 10
940.488055
 20
-98.423177
 30
0.0
 11
940.488055
 21
-106.423177
 31
0.0
  0
LINE
  8
0
  6
BYLAYER
 62
     7
 10
940.488055
 20
-98.423177
 30
0.0
 11
948.488055
 21
-98.423177
 31
0.0
  0
LINE
  8
0
  6
BYLAYER
 62
     7
 10
940.488055
 20
-96.423177
 30
0.0
 11
948.488055
 21
-96.423177
 31
0.0
  0
LINE
  8
0
  6
BYLAYER
 62
     7
 10
940.488055
 20
-88.423177
 30
0.0
 11
948.488055
 21
-88.423177
 31
0.0
  0
LINE
  8
0
  6
BYLAYER
 62
     7
 10
948.488055
 20
-106.423177
 30
0.0
 11
948.488055
 21
-98.423177
 31
0.0
  0
LINE
  8
0
  6
BYLAYER
 62
     7
 10
948.488055
 20
-96.423177
 30
0.0
 11
948.488055
 21
-88.423177
 31
0.0
  0
LINE
  8
0
  6
BYLAYER
 62
     7
 10
950.488055
 20
-106.423177
 30
0.0
 11
958.488055
 21
-106.423177
 31
0.0
  0
LINE
  8
0
  6
BYLAYER
 62
     7
 10
950.488055
 20
-88.423177
 30
0.0
 11
950.488055
 21
-96.423177
 31
0.0
  0
LINE
  8
0
  6
BYLAYER
 62
     7
 10
950.488055
 20
-98.423177
 30
0.0
 11
950.488055
 21
-106.423177
 31
0.0
  0
LINE
  8
0
  6
BYLAYER
 62
     7
 10
950.488055
 20
-98.423177
 30
0.0
 11
958.488055
 21
-98.423177
 31
0.0
  0
LINE
  8
0
  6
BYLAYER
 62
     7
 10
950.488055
 20
-96.423177
 30
0.0
 11
958.488055
 21
-96.423177
 31
0.0
  0
LINE
  8
0
  6
BYLAYER
 62
     7
 10
950.488055
 20
-88.423177
 30
0.0
 11
958.488055
 21
-88.423177
 31
0.0
  0
LINE
  8
0
  6
BYLAYER
 62
     7
 10
958.488055
 20
-106.423177
 30
0.0
 11
958.488055
 21
-98.423177
 31
0.0
  0
LINE
  8
0
  6
BYLAYER
 62
     7
 10
958.488055
 20
-96.423177
 30
0.0
 11
958.488055
 21
-88.423177
 31
0.0
  0
LINE
  8
0
  6
BYLAYER
 62
     7
 10
940.488055
 20
-116.423177
 30
0.0
 11
948.488055
 21
-116.423177
 31
0.0
  0
LINE
  8
0
  6
BYLAYER
 62
     7
 10
940.488055
 20
-108.423177
 30
0.0
 11
940.488055
 21
-116.423177
 31
0.0
  0
LINE
  8
0
  6
BYLAYER
 62
     7
 10
940.488055
 20
-108.423177
 30
0.0
 11
948.488055
 21
-108.423177
 31
0.0
  0
LINE
  8
0
  6
BYLAYER
 62
     7
 10
948.488055
 20
-116.423177
 30
0.0
 11
948.488055
 21
-108.423177
 31
0.0
  0
LINE
  8
0
  6
BYLAYER
 62
     7
 10
950.488055
 20
-116.423177
 30
0.0
 11
958.488055
 21
-116.423177
 31
0.0
  0
LINE
  8
0
  6
BYLAYER
 62
     7
 10
950.488055
 20
-108.423177
 30
0.0
 11
950.488055
 21
-116.423177
 31
0.0
  0
LINE
  8
0
  6
BYLAYER
 62
     7
 10
950.488055
 20
-108.423177
 30
0.0
 11
958.488055
 21
-108.423177
 31
0.0
  0
LINE
  8
0
  6
BYLAYER
 62
     7
 10
958.488055
 20
-116.423177
 30
0.0
 11
958.488055
 21
-108.423177
 31
0.0
  0
LINE
  8
0
  6
BYLAYER
 62
     7
 10
960.488055
 20
-106.423177
 30
0.0
 11
968.488055
 21
-106.423177
 31
0.0
  0
LINE
  8
0
  6
BYLAYER
 62
     7
 10
960.488055
 20
-98.423177
 30
0.0
 11
960.488055
 21
-106.423177
 31
0.0
  0
LINE
  8
0
  6
BYLAYER
 62
     7
 10
960.488055
 20
-98.423177
 30
0.0
 11
968.488055
 21
-98.423177
 31
0.0
  0
LINE
  8
0
  6
BYLAYER
 62
     7
 10
968.488055
 20
-106.423177
 30
0.0
 11
968.488055
 21
-98.423177
 31
0.0
  0
LINE
  8
0
  6
BYLAYER
 62
     7
 10
960.488055
 20
-116.423177
 30
0.0
 11
968.488055
 21
-116.423177
 31
0.0
  0
LINE
  8
0
  6
BYLAYER
 62
     7
 10
960.488055
 20
-108.423177
 30
0.0
 11
960.488055
 21
-116.423177
 31
0.0
  0
LINE
  8
0
  6
BYLAYER
 62
     7
 10
960.488055
 20
-108.423177
 30
0.0
 11
968.488055
 21
-108.423177
 31
0.0
  0
LINE
  8
0
  6
BYLAYER
 62
     7
 10
968.488055
 20
-116.423177
 30
0.0
 11
968.488055
 21
-108.423177
 31
0.0
  0
CIRCLE
  8
0
  6
BYLAYER
 62
     7
 10
929.488055
 20
-117.423177
 30
0.0
 40
4.0
  0
LINE
  8
0
  6
BYLAYER
 62
     7
 10
930.488055
 20
-68.423177
 30
0.0
 11
930.488055
 21
-76.423177
 31
0.0
  0
LINE
  8
0
  6
BYLAYER
 62
     7
 10
938.488055
 20
-76.423177
 30
0.0
 11
938.488055
 21
-68.423177
 31
0.0
  0
LINE
  8
0
  6
BYLAYER
 62
     7
 10
930.488055
 20
-76.423177
 30
0.0
 11
938.488055
 21
-76.423177
 31
0.0
  0
LINE
  8
0
  6
BYLAYER
 62
     7
 10
930.488055
 20
-68.423177
 30
0.0
 11
938.488055
 21
-68.423177
 31
0.0
  0
LINE
  8
0
  6
BYLAYER
 62
     7
 10
950.488055
 20
-78.423177
 30
0.0
 11
950.488055
 21
-86.423177
 31
0.0
  0
LINE
  8
0
  6
BYLAYER
 62
     7
 10
950.488055
 20
-86.423177
 30
0.0
 11
958.488055
 21
-86.423177
 31
0.0
  0
LINE
  8
0
  6
BYLAYER
 62
     7
 10
950.488055
 20
-78.423177
 30
0.0
 11
958.488055
 21
-78.423177
 31
0.0
  0
LINE
  8
0
  6
BYLAYER
 62
     7
 10
958.488055
 20
-86.423177
 30
0.0
 11
958.488055
 21
-78.423177
 31
0.0
  0
LINE
  8
0
  6
BYLAYER
 62
     7
 10
970.488055
 20
-116.423177
 30
0.0
 11
978.488055
 21
-116.423177
 31
0.0
  0
LINE
  8
0
  6
BYLAYER
 62
     7
 10
970.488055
 20
-108.423177
 30
0.0
 11
970.488055
 21
-116.423177
 31
0.0
  0
LINE
  8
0
  6
BYLAYER
 62
     7
 10
970.488055
 20
-108.423177
 30
0.0
 11
978.488055
 21
-108.423177
 31
0.0
  0
LINE
  8
0
  6
BYLAYER
 62
     7
 10
978.488055
 20
-116.423177
 30
0.0
 11
978.488055
 21
-108.423177
 31
0.0
  0
LINE
  8
0
  6
BYLAYER
 62
     7
 10
960.488055
 20
-96.423177
 30
0.0
 11
968.488055
 21
-96.423177
 31
0.0
  0
LINE
  8
0
  6
BYLAYER
 62
     7
 10
960.488055
 20
-88.423177
 30
0.0
 11
960.488055
 21
-96.423177
 31
0.0
  0
LINE
  8
0
  6
BYLAYER
 62
     7
 10
960.488055
 20
-88.423177
 30
0.0
 11
968.488055
 21
-88.423177
 31
0.0
  0
LINE
  8
0
  6
BYLAYER
 62
     7
 10
968.488055
 20
-96.423177
 30
0.0
 11
968.488055
 21
-88.423177
 31
0.0
  0
CIRCLE
  8
0
  6
BYLAYER
 62
     7
 10
929.488055
 20
-117.423177
 30
0.0
 40
55.0
  0
CIRCLE
  8
0
  6
BYLAYER
 62
     7
 10
929.488055
 20
-117.423177
 30
0.0
 40
69.45
  0
CIRCLE
  8
0
  6
BYLAYER
 62
     7
 10
929.488055
 20
-117.423177
 30
0.0
 40
51.0
  0
LINE
  8
0
  6
BYLAYER
 62
     7
 10
930.488055
 20
-128.423177
 30
0.0
 11
938.488055
 21
-128.423177
 31
0.0
  0
LINE
  8
0
  6
BYLAYER
 62
     7
 10
930.488055
 20
-146.423177
 30
0.0
 11
930.488055
 21
-138.423177
 31
0.0
  0
LINE
  8
0
  6
BYLAYER
 62
     7
 10
930.488055
 20
-156.423177
 30
0.0
 11
930.488055
 21
-148.423177
 31
0.0
  0
LINE
  8
0
  6
BYLAYER
 62
     7
 10
930.488055
 20
-136.423177
 30
0.0
 11
930.488055
 21
-128.423177
 31
0.0
  0
LINE
  8
0
  6
BYLAYER
 62
     7
 10
938.488055
 20
-148.423177
 30
0.0
 11
938.488055
 21
-156.423177
 31
0.0
  0
LINE
  8
0
  6
BYLAYER
 62
     7
 10
940.488055
 20
-148.423177
 30
0.0
 11
940.488055
 21
-156.423177
 31
0.0
  0
LINE
  8
0
  6
BYLAYER
 62
     7
 10
930.488055
 20
-136.423177
 30
0.0
 11
938.488055
 21
-136.423177
 31
0.0
  0
LINE
  8
0
  6
BYLAYER
 62
     7
 10
930.488055
 20
-138.423177
 30
0.0
 11
938.488055
 21
-138.423177
 31
0.0
  0
LINE
  8
0
  6
BYLAYER
 62
     7
 10
930.488055
 20
-146.423177
 30
0.0
 11
938.488055
 21
-146.423177
 31
0.0
  0
LINE
  8
0
  6
BYLAYER
 62
     7
 10
940.488055
 20
-148.423177
 30
0.0
 11
948.326054
 21
-148.423177
 31
0.0
  0
LINE
  8
0
  6
BYLAYER
 62
     7
 10
930.488055
 20
-148.423177
 30
0.0
 11
938.488055
 21
-148.423177
 31
0.0
  0
LINE
  8
0
  6
BYLAYER
 62
     7
 10
940.488055
 20
-156.423177
 30
0.0
 11
948.326054
 21
-156.423177
 31
0.0
  0
LINE
  8
0
  6
BYLAYER
 62
     7
 10
930.488055
 20
-156.423177
 30
0.0
 11
938.488055
 21
-156.423177
 31
0.0
  0
LINE
  8
0
  6
BYLAYER
 62
     7
 10
948.326054
 20
-148.423177
 30
0.0
 11
948.326054
 21
-156.423177
 31
0.0
  0
LINE
  8
0
  6
BYLAYER
 62
     7
 10
938.488055
 20
-128.423177
 30
0.0
 11
938.488055
 21
-136.423177
 31
0.0
  0
LINE
  8
0
  6
BYLAYER
 62
     7
 10
938.488055
 20
-138.423177
 30
0.0
 11
938.488055
 21
-146.423177
 31
0.0
  0
LINE
  8
0
  6
BYLAYER
 62
     7
 10
940.488055
 20
-128.423177
 30
0.0
 11
948.488055
 21
-128.423177
 31
0.0
  0
LINE
  8
0
  6
BYLAYER
 62
     7
 10
940.488055
 20
-146.423177
 30
0.0
 11
940.488055
 21
-138.423177
 31
0.0
  0
LINE
  8
0
  6
BYLAYER
 62
     7
 10
940.488055
 20
-136.423177
 30
0.0
 11
940.488055
 21
-128.423177
 31
0.0
  0
LINE
  8
0
  6
BYLAYER
 62
     7
 10
940.488055
 20
-136.423177
 30
0.0
 11
948.488055
 21
-136.423177
 31
0.0
  0
LINE
  8
0
  6
BYLAYER
 62
     7
 10
940.488055
 20
-138.423177
 30
0.0
 11
948.488055
 21
-138.423177
 31
0.0
  0
LINE
  8
0
  6
BYLAYER
 62
     7
 10
940.488055
 20
-146.423177
 30
0.0
 11
948.488055
 21
-146.423177
 31
0.0
  0
LINE
  8
0
  6
BYLAYER
 62
     7
 10
948.488055
 20
-128.423177
 30
0.0
 11
948.488055
 21
-136.423177
 31
0.0
  0
LINE
  8
0
  6
BYLAYER
 62
     7
 10
948.488055
 20
-138.423177
 30
0.0
 11
948.488055
 21
-146.423177
 31
0.0
  0
LINE
  8
0
  6
BYLAYER
 62
     7
 10
950.488055
 20
-128.423177
 30
0.0
 11
958.488055
 21
-128.423177
 31
0.0
  0
LINE
  8
0
  6
BYLAYER
 62
     7
 10
950.488055
 20
-146.423177
 30
0.0
 11
950.488055
 21
-138.423177
 31
0.0
  0
LINE
  8
0
  6
BYLAYER
 62
     7
 10
950.488055
 20
-136.423177
 30
0.0
 11
950.488055
 21
-128.423177
 31
0.0
  0
LINE
  8
0
  6
BYLAYER
 62
     7
 10
950.488055
 20
-136.423177
 30
0.0
 11
958.488055
 21
-136.423177
 31
0.0
  0
LINE
  8
0
  6
BYLAYER
 62
     7
 10
950.488055
 20
-138.423177
 30
0.0
 11
958.488055
 21
-138.423177
 31
0.0
  0
LINE
  8
0
  6
BYLAYER
 62
     7
 10
950.488055
 20
-146.423177
 30
0.0
 11
958.488055
 21
-146.423177
 31
0.0
  0
LINE
  8
0
  6
BYLAYER
 62
     7
 10
958.488055
 20
-128.423177
 30
0.0
 11
958.488055
 21
-136.423177
 31
0.0
  0
LINE
  8
0
  6
BYLAYER
 62
     7
 10
958.488055
 20
-138.423177
 30
0.0
 11
958.488055
 21
-146.423177
 31
0.0
  0
LINE
  8
0
  6
BYLAYER
 62
     7
 10
940.488055
 20
-118.423177
 30
0.0
 11
948.488055
 21
-118.423177
 31
0.0
  0
LINE
  8
0
  6
BYLAYER
 62
     7
 10
940.488055
 20
-126.423177
 30
0.0
 11
940.488055
 21
-118.423177
 31
0.0
  0
LINE
  8
0
  6
BYLAYER
 62
     7
 10
940.488055
 20
-126.423177
 30
0.0
 11
948.488055
 21
-126.423177
 31
0.0
  0
LINE
  8
0
  6
BYLAYER
 62
     7
 10
948.488055
 20
-118.423177
 30
0.0
 11
948.488055
 21
-126.423177
 31
0.0
  0
LINE
  8
0
  6
BYLAYER
 62
     7
 10
950.488055
 20
-118.423177
 30
0.0
 11
958.488055
 21
-118.423177
 31
0.0
  0
LINE
  8
0
  6
BYLAYER
 62
     7
 10
950.488055
 20
-126.423177
 30
0.0
 11
950.488055
 21
-118.423177
 31
0.0
  0
LINE
  8
0
  6
BYLAYER
 62
     7
 10
950.488055
 20
-126.423177
 30
0.0
 11
958.488055
 21
-126.423177
 31
0.0
  0
LINE
  8
0
  6
BYLAYER
 62
     7
 10
958.488055
 20
-118.423177
 30
0.0
 11
958.488055
 21
-126.423177
 31
0.0
  0
LINE
  8
0
  6
BYLAYER
 62
     7
 10
960.488055
 20
-128.423177
 30
0.0
 11
968.488055
 21
-128.423177
 31
0.0
  0
LINE
  8
0
  6
BYLAYER
 62
     7
 10
960.488055
 20
-136.423177
 30
0.0
 11
960.488055
 21
-128.423177
 31
0.0
  0
LINE
  8
0
  6
BYLAYER
 62
     7
 10
960.488055
 20
-136.423177
 30
0.0
 11
968.488055
 21
-136.423177
 31
0.0
  0
LINE
  8
0
  6
BYLAYER
 62
     7
 10
968.488055
 20
-128.423177
 30
0.0
 11
968.488055
 21
-136.423177
 31
0.0
  0
LINE
  8
0
  6
BYLAYER
 62
     7
 10
960.488055
 20
-118.423177
 30
0.0
 11
968.488055
 21
-118.423177
 31
0.0
  0
LINE
  8
0
  6
BYLAYER
 62
     7
 10
960.488055
 20
-126.423177
 30
0.0
 11
960.488055
 21
-118.423177
 31
0.0
  0
LINE
  8
0
  6
BYLAYER
 62
     7
 10
960.488055
 20
-126.423177
 30
0.0
 11
968.488055
 21
-126.423177
 31
0.0
  0
LINE
  8
0
  6
BYLAYER
 62
     7
 10
968.488055
 20
-118.423177
 30
0.0
 11
968.488055
 21
-126.423177
 31
0.0
  0
LINE
  8
0
  6
BYLAYER
 62
     7
 10
930.488055
 20
-166.423177
 30
0.0
 11
930.488055
 21
-158.423177
 31
0.0
  0
LINE
  8
0
  6
BYLAYER
 62
     7
 10
938.488055
 20
-158.423177
 30
0.0
 11
938.488055
 21
-166.423177
 31
0.0
  0
LINE
  8
0
  6
BYLAYER
 62
     7
 10
930.488055
 20
-158.423177
 30
0.0
 11
938.488055
 21
-158.423177
 31
0.0
  0
LINE
  8
0
  6
BYLAYER
 62
     7
 10
930.488055
 20
-166.423177
 30
0.0
 11
938.488055
 21
-166.423177
 31
0.0
  0
LINE
  8
0
  6
BYLAYER
 62
     7
 10
950.488055
 20
-156.423177
 30
0.0
 11
950.488055
 21
-148.423177
 31
0.0
  0
LINE
  8
0
  6
BYLAYER
 62
     7
 10
950.488055
 20
-148.423177
 30
0.0
 11
958.488055
 21
-148.423177
 31
0.0
  0
LINE
  8
0
  6
BYLAYER
 62
     7
 10
950.488055
 20
-156.423177
 30
0.0
 11
958.488055
 21
-156.423177
 31
0.0
  0
LINE
  8
0
  6
BYLAYER
 62
     7
 10
958.488055
 20
-148.423177
 30
0.0
 11
958.488055
 21
-156.423177
 31
0.0
  0
LINE
  8
0
  6
BYLAYER
 62
     7
 10
970.488055
 20
-118.423177
 30
0.0
 11
978.488055
 21
-118.423177
 31
0.0
  0
LINE
  8
0
  6
BYLAYER
 62
     7
 10
970.488055
 20
-126.423177
 30
0.0
 11
970.488055
 21
-118.423177
 31
0.0
  0
LINE
  8
0
  6
BYLAYER
 62
     7
 10
970.488055
 20
-126.423177
 30
0.0
 11
978.488055
 21
-126.423177
 31
0.0
  0
LINE
  8
0
  6
BYLAYER
 62
     7
 10
978.488055
 20
-118.423177
 30
0.0
 11
978.488055
 21
-126.423177
 31
0.0
  0
LINE
  8
0
  6
BYLAYER
 62
     7
 10
960.488055
 20
-138.423177
 30
0.0
 11
968.488055
 21
-138.423177
 31
0.0
  0
LINE
  8
0
  6
BYLAYER
 62
     7
 10
960.488055
 20
-146.423177
 30
0.0
 11
960.488055
 21
-138.423177
 31
0.0
  0
LINE
  8
0
  6
BYLAYER
 62
     7
 10
960.488055
 20
-146.423177
 30
0.0
 11
968.488055
 21
-146.423177
 31
0.0
  0
LINE
  8
0
  6
BYLAYER
 62
     7
 10
968.488055
 20
-138.423177
 30
0.0
 11
968.488055
 21
-146.423177
 31
0.0
  0
LINE
  8
0
  6
BYLAYER
 62
     7
 10
928.488055
 20
-106.423177
 30
0.0
 11
920.488055
 21
-106.423177
 31
0.0
  0
LINE
  8
0
  6
BYLAYER
 62
     7
 10
928.488055
 20
-88.423177
 30
0.0
 11
928.488055
 21
-96.423177
 31
0.0
  0
LINE
  8
0
  6
BYLAYER
 62
     7
 10
928.488055
 20
-78.423177
 30
0.0
 11
928.488055
 21
-86.423177
 31
0.0
  0
LINE
  8
0
  6
BYLAYER
 62
     7
 10
928.488055
 20
-98.423177
 30
0.0
 11
928.488055
 21
-106.423177
 31
0.0
  0
LINE
  8
0
  6
BYLAYER
 62
     7
 10
920.488055
 20
-86.423177
 30
0.0
 11
920.488055
 21
-78.423177
 31
0.0
  0
LINE
  8
0
  6
BYLAYER
 62
     7
 10
918.488055
 20
-86.423177
 30
0.0
 11
918.488055
 21
-78.423177
 31
0.0
  0
LINE
  8
0
  6
BYLAYER
 62
     7
 10
928.488055
 20
-98.423177
 30
0.0
 11
920.488055
 21
-98.423177
 31
0.0
  0
LINE
  8
0
  6
BYLAYER
 62
     7
 10
928.488055
 20
-96.423177
 30
0.0
 11
920.488055
 21
-96.423177
 31
0.0
  0
LINE
  8
0
  6
BYLAYER
 62
     7
 10
928.488055
 20
-88.423177
 30
0.0
 11
920.488055
 21
-88.423177
 31
0.0
  0
LINE
  8
0
  6
BYLAYER
 62
     7
 10
918.488055
 20
-86.423177
 30
0.0
 11
910.650056
 21
-86.423177
 31
0.0
  0
LINE
  8
0
  6
BYLAYER
 62
     7
 10
928.488055
 20
-86.423177
 30
0.0
 11
920.488055
 21
-86.423177
 31
0.0
  0
LINE
  8
0
  6
BYLAYER
 62
     7
 10
918.488055
 20
-78.423177
 30
0.0
 11
910.650056
 21
-78.423177
 31
0.0
  0
LINE
  8
0
  6
BYLAYER
 62
     7
 10
928.488055
 20
-78.423177
 30
0.0
 11
920.488055
 21
-78.423177
 31
0.0
  0
LINE
  8
0
  6
BYLAYER
 62
     7
 10
910.650056
 20
-86.423177
 30
0.0
 11
910.650056
 21
-78.423177
 31
0.0
  0
LINE
  8
0
  6
BYLAYER
 62
     7
 10
920.488055
 20
-106.423177
 30
0.0
 11
920.488055
 21
-98.423177
 31
0.0
  0
LINE
  8
0
  6
BYLAYER
 62
     7
 10
920.488055
 20
-96.423177
 30
0.0
 11
920.488055
 21
-88.423177
 31
0.0
  0
LINE
  8
0
  6
BYLAYER
 62
     7
 10
918.488055
 20
-106.423177
 30
0.0
 11
910.488055
 21
-106.423177
 31
0.0
  0
LINE
  8
0
  6
BYLAYER
 62
     7
 10
918.488055
 20
-88.423177
 30
0.0
 11
918.488055
 21
-96.423177
 31
0.0
  0
LINE
  8
0
  6
BYLAYER
 62
     7
 10
918.488055
 20
-98.423177
 30
0.0
 11
918.488055
 21
-106.423177
 31
0.0
  0
LINE
  8
0
  6
BYLAYER
 62
     7
 10
918.488055
 20
-98.423177
 30
0.0
 11
910.488055
 21
-98.423177
 31
0.0
  0
LINE
  8
0
  6
BYLAYER
 62
     7
 10
918.488055
 20
-96.423177
 30
0.0
 11
910.488055
 21
-96.423177
 31
0.0
  0
LINE
  8
0
  6
BYLAYER
 62
     7
 10
918.488055
 20
-88.423177
 30
0.0
 11
910.488055
 21
-88.423177
 31
0.0
  0
LINE
  8
0
  6
BYLAYER
 62
     7
 10
910.488055
 20
-106.423177
 30
0.0
 11
910.488055
 21
-98.423177
 31
0.0
  0
LINE
  8
0
  6
BYLAYER
 62
     7
 10
910.488055
 20
-96.423177
 30
0.0
 11
910.488055
 21
-88.423177
 31
0.0
  0
LINE
  8
0
  6
BYLAYER
 62
     7
 10
908.488055
 20
-106.423177
 30
0.0
 11
900.488055
 21
-106.423177
 31
0.0
  0
LINE
  8
0
  6
BYLAYER
 62
     7
 10
908.488055
 20
-88.423177
 30
0.0
 11
908.488055
 21
-96.423177
 31
0.0
  0
LINE
  8
0
  6
BYLAYER
 62
     7
 10
908.488055
 20
-98.423177
 30
0.0
 11
908.488055
 21
-106.423177
 31
0.0
  0
LINE
  8
0
  6
BYLAYER
 62
     7
 10
908.488055
 20
-98.423177
 30
0.0
 11
900.488055
 21
-98.423177
 31
0.0
  0
LINE
  8
0
  6
BYLAYER
 62
     7
 10
908.488055
 20
-96.423177
 30
0.0
 11
900.488055
 21
-96.423177
 31
0.0
  0
LINE
  8
0
  6
BYLAYER
 62
     7
 10
908.488055
 20
-88.423177
 30
0.0
 11
900.488055
 21
-88.423177
 31
0.0
  0
LINE
  8
0
  6
BYLAYER
 62
     7
 10
900.488055
 20
-106.423177
 30
0.0
 11
900.488055
 21
-98.423177
 31
0.0
  0
LINE
  8
0
  6
BYLAYER
 62
     7
 10
900.488055
 20
-96.423177
 30
0.0
 11
900.488055
 21
-88.423177
 31
0.0
  0
LINE
  8
0
  6
BYLAYER
 62
     7
 10
918.488055
 20
-116.423177
 30
0.0
 11
910.488055
 21
-116.423177
 31
0.0
  0
LINE
  8
0
  6
BYLAYER
 62
     7
 10
918.488055
 20
-108.423177
 30
0.0
 11
918.488055
 21
-116.423177
 31
0.0
  0
LINE
  8
0
  6
BYLAYER
 62
     7
 10
918.488055
 20
-108.423177
 30
0.0
 11
910.488055
 21
-108.423177
 31
0.0
  0
LINE
  8
0
  6
BYLAYER
 62
     7
 10
910.488055
 20
-116.423177
 30
0.0
 11
910.488055
 21
-108.423177
 31
0.0
  0
LINE
  8
0
  6
BYLAYER
 62
     7
 10
908.488055
 20
-116.423177
 30
0.0
 11
900.488055
 21
-116.423177
 31
0.0
  0
LINE
  8
0
  6
BYLAYER
 62
     7
 10
908.488055
 20
-108.423177
 30
0.0
 11
908.488055
 21
-116.423177
 31
0.0
  0
LINE
  8
0
  6
BYLAYER
 62
     7
 10
908.488055
 20
-108.423177
 30
0.0
 11
900.488055
 21
-108.423177
 31
0.0
  0
LINE
  8
0
  6
BYLAYER
 62
     7
 10
900.488055
 20
-116.423177
 30
0.0
 11
900.488055
 21
-108.423177
 31
0.0
  0
LINE
  8
0
  6
BYLAYER
 62
     7
 10
898.488055
 20
-106.423177
 30
0.0
 11
890.488055
 21
-106.423177
 31
0.0
  0
LINE
  8
0
  6
BYLAYER
 62
     7
 10
898.488055
 20
-98.423177
 30
0.0
 11
898.488055
 21
-106.423177
 31
0.0
  0
LINE
  8
0
  6
BYLAYER
 62
     7
 10
898.488055
 20
-98.423177
 30
0.0
 11
890.488055
 21
-98.423177
 31
0.0
  0
LINE
  8
0
  6
BYLAYER
 62
     7
 10
890.488055
 20
-106.423177
 30
0.0
 11
890.488055
 21
-98.423177
 31
0.0
  0
LINE
  8
0
  6
BYLAYER
 62
     7
 10
898.488055
 20
-116.423177
 30
0.0
 11
890.488055
 21
-116.423177
 31
0.0
  0
LINE
  8
0
  6
BYLAYER
 62
     7
 10
898.488055
 20
-108.423177
 30
0.0
 11
898.488055
 21
-116.423177
 31
0.0
  0
LINE
  8
0
  6
BYLAYER
 62
     7
 10
898.488055
 20
-108.423177
 30
0.0
 11
890.488055
 21
-108.423177
 31
0.0
  0
LINE
  8
0
  6
BYLAYER
 62
     7
 10
890.488055
 20
-116.423177
 30
0.0
 11
890.488055
 21
-108.423177
 31
0.0
  0
LINE
  8
0
  6
BYLAYER
 62
     7
 10
928.488055
 20
-68.423177
 30
0.0
 11
928.488055
 21
-76.423177
 31
0.0
  0
LINE
  8
0
  6
BYLAYER
 62
     7
 10
920.488055
 20
-76.423177
 30
0.0
 11
920.488055
 21
-68.423177
 31
0.0
  0
LINE
  8
0
  6
BYLAYER
 62
     7
 10
928.488055
 20
-76.423177
 30
0.0
 11
920.488055
 21
-76.423177
 31
0.0
  0
LINE
  8
0
  6
BYLAYER
 62
     7
 10
928.488055
 20
-68.423177
 30
0.0
 11
920.488055
 21
-68.423177
 31
0.0
  0
LINE
  8
0
  6
BYLAYER
 62
     7
 10
908.488055
 20
-78.423177
 30
0.0
 11
908.488055
 21
-86.423177
 31
0.0
  0
LINE
  8
0
  6
BYLAYER
 62
     7
 10
908.488055
 20
-86.423177
 30
0.0
 11
900.488055
 21
-86.423177
 31
0.0
  0
LINE
  8
0
  6
BYLAYER
 62
     7
 10
908.488055
 20
-78.423177
 30
0.0
 11
900.488055
 21
-78.423177
 31
0.0
  0
LINE
  8
0
  6
BYLAYER
 62
     7
 10
900.488055
 20
-86.423177
 30
0.0
 11
900.488055
 21
-78.423177
 31
0.0
  0
LINE
  8
0
  6
BYLAYER
 62
     7
 10
888.488055
 20
-116.423177
 30
0.0
 11
880.488055
 21
-116.423177
 31
0.0
  0
LINE
  8
0
  6
BYLAYER
 62
     7
 10
888.488055
 20
-108.423177
 30
0.0
 11
888.488055
 21
-116.423177
 31
0.0
  0
LINE
  8
0
  6
BYLAYER
 62
     7
 10
888.488055
 20
-108.423177
 30
0.0
 11
880.488055
 21
-108.423177
 31
0.0
  0
LINE
  8
0
  6
BYLAYER
 62
     7
 10
880.488055
 20
-116.423177
 30
0.0
 11
880.488055
 21
-108.423177
 31
0.0
  0
LINE
  8
0
  6
BYLAYER
 62
     7
 10
898.488055
 20
-96.423177
 30
0.0
 11
890.488055
 21
-96.423177
 31
0.0
  0
LINE
  8
0
  6
BYLAYER
 62
     7
 10
898.488055
 20
-88.423177
 30
0.0
 11
898.488055
 21
-96.423177
 31
0.0
  0
LINE
  8
0
  6
BYLAYER
 62
     7
 10
898.488055
 20
-88.423177
 30
0.0
 11
890.488055
 21
-88.423177
 31
0.0
  0
LINE
  8
0
  6
BYLAYER
 62
     7
 10
890.488055
 20
-96.423177
 30
0.0
 11
890.488055
 21
-88.423177
 31
0.0
  0
LINE
  8
0
  6
BYLAYER
 62
     7
 10
928.488055
 20
-128.423177
 30
0.0
 11
920.488055
 21
-128.423177
 31
0.0
  0
LINE
  8
0
  6
BYLAYER
 62
     7
 10
928.488055
 20
-146.423177
 30
0.0
 11
928.488055
 21
-138.423177
 31
0.0
  0
LINE
  8
0
  6
BYLAYER
 62
     7
 10
928.488055
 20
-156.423177
 30
0.0
 11
928.488055
 21
-148.423177
 31
0.0
  0
LINE
  8
0
  6
BYLAYER
 62
     7
 10
928.488055
 20
-136.423177
 30
0.0
 11
928.488055
 21
-128.423177
 31
0.0
  0
LINE
  8
0
  6
BYLAYER
 62
     7
 10
920.488055
 20
-148.423177
 30
0.0
 11
920.488055
 21
-156.423177
 31
0.0
  0
LINE
  8
0
  6
BYLAYER
 62
     7
 10
918.488055
 20
-148.423177
 30
0.0
 11
918.488055
 21
-156.423177
 31
0.0
  0
LINE
  8
0
  6
BYLAYER
 62
     7
 10
928.488055
 20
-136.423177
 30
0.0
 11
920.488055
 21
-136.423177
 31
0.0
  0
LINE
  8
0
  6
BYLAYER
 62
     7
 10
928.488055
 20
-138.423177
 30
0.0
 11
920.488055
 21
-138.423177
 31
0.0
  0
LINE
  8
0
  6
BYLAYER
 62
     7
 10
928.488055
 20
-146.423177
 30
0.0
 11
920.488055
 21
-146.423177
 31
0.0
  0
LINE
  8
0
  6
BYLAYER
 62
     7
 10
918.488055
 20
-148.423177
 30
0.0
 11
910.650056
 21
-148.423177
 31
0.0
  0
LINE
  8
0
  6
BYLAYER
 62
     7
 10
928.488055
 20
-148.423177
 30
0.0
 11
920.488055
 21
-148.423177
 31
0.0
  0
LINE
  8
0
  6
BYLAYER
 62
     7
 10
918.488055
 20
-156.423177
 30
0.0
 11
910.650056
 21
-156.423177
 31
0.0
  0
LINE
  8
0
  6
BYLAYER
 62
     7
 10
928.488055
 20
-156.423177
 30
0.0
 11
920.488055
 21
-156.423177
 31
0.0
  0
LINE
  8
0
  6
BYLAYER
 62
     7
 10
910.650056
 20
-148.423177
 30
0.0
 11
910.650056
 21
-156.423177
 31
0.0
  0
LINE
  8
0
  6
BYLAYER
 62
     7
 10
920.488055
 20
-128.423177
 30
0.0
 11
920.488055
 21
-136.423177
 31
0.0
  0
LINE
  8
0
  6
BYLAYER
 62
     7
 10
920.488055
 20
-138.423177
 30
0.0
 11
920.488055
 21
-146.423177
 31
0.0
  0
LINE
  8
0
  6
BYLAYER
 62
     7
 10
918.488055
 20
-128.423177
 30
0.0
 11
910.488055
 21
-128.423177
 31
0.0
  0
LINE
  8
0
  6
BYLAYER
 62
     7
 10
918.488055
 20
-146.423177
 30
0.0
 11
918.488055
 21
-138.423177
 31
0.0
  0
LINE
  8
0
  6
BYLAYER
 62
     7
 10
918.488055
 20
-136.423177
 30
0.0
 11
918.488055
 21
-128.423177
 31
0.0
  0
LINE
  8
0
  6
BYLAYER
 62
     7
 10
918.488055
 20
-136.423177
 30
0.0
 11
910.488055
 21
-136.423177
 31
0.0
  0
LINE
  8
0
  6
BYLAYER
 62
     7
 10
918.488055
 20
-138.423177
 30
0.0
 11
910.488055
 21
-138.423177
 31
0.0
  0
LINE
  8
0
  6
BYLAYER
 62
     7
 10
918.488055
 20
-146.423177
 30
0.0
 11
910.488055
 21
-146.423177
 31
0.0
  0
LINE
  8
0
  6
BYLAYER
 62
     7
 10
910.488055
 20
-128.423177
 30
0.0
 11
910.488055
 21
-136.423177
 31
0.0
  0
LINE
  8
0
  6
BYLAYER
 62
     7
 10
910.488055
 20
-138.423177
 30
0.0
 11
910.488055
 21
-146.423177
 31
0.0
  0
LINE
  8
0
  6
BYLAYER
 62
     7
 10
908.488055
 20
-128.423177
 30
0.0
 11
900.488055
 21
-128.423177
 31
0.0
  0
LINE
  8
0
  6
BYLAYER
 62
     7
 10
908.488055
 20
-146.423177
 30
0.0
 11
908.488055
 21
-138.423177
 31
0.0
  0
LINE
  8
0
  6
BYLAYER
 62
     7
 10
908.488055
 20
-136.423177
 30
0.0
 11
908.488055
 21
-128.423177
 31
0.0
  0
LINE
  8
0
  6
BYLAYER
 62
     7
 10
908.488055
 20
-136.423177
 30
0.0
 11
900.488055
 21
-136.423177
 31
0.0
  0
LINE
  8
0
  6
BYLAYER
 62
     7
 10
908.488055
 20
-138.423177
 30
0.0
 11
900.488055
 21
-138.423177
 31
0.0
  0
LINE
  8
0
  6
BYLAYER
 62
     7
 10
908.488055
 20
-146.423177
 30
0.0
 11
900.488055
 21
-146.423177
 31
0.0
  0
LINE
  8
0
  6
BYLAYER
 62
     7
 10
900.488055
 20
-128.423177
 30
0.0
 11
900.488055
 21
-136.423177
 31
0.0
  0
LINE
  8
0
  6
BYLAYER
 62
     7
 10
900.488055
 20
-138.423177
 30
0.0
 11
900.488055
 21
-146.423177
 31
0.0
  0
LINE
  8
0
  6
BYLAYER
 62
     7
 10
918.488055
 20
-118.423177
 30
0.0
 11
910.488055
 21
-118.423177
 31
0.0
  0
LINE
  8
0
  6
BYLAYER
 62
     7
 10
918.488055
 20
-126.423177
 30
0.0
 11
918.488055
 21
-118.423177
 31
0.0
  0
LINE
  8
0
  6
BYLAYER
 62
     7
 10
918.488055
 20
-126.423177
 30
0.0
 11
910.488055
 21
-126.423177
 31
0.0
  0
LINE
  8
0
  6
BYLAYER
 62
     7
 10
910.488055
 20
-118.423177
 30
0.0
 11
910.488055
 21
-126.423177
 31
0.0
  0
LINE
  8
0
  6
BYLAYER
 62
     7
 10
908.488055
 20
-118.423177
 30
0.0
 11
900.488055
 21
-118.423177
 31
0.0
  0
LINE
  8
0
  6
BYLAYER
 62
     7
 10
908.488055
 20
-126.423177
 30
0.0
 11
908.488055
 21
-118.423177
 31
0.0
  0
LINE
  8
0
  6
BYLAYER
 62
     7
 10
908.488055
 20
-126.423177
 30
0.0
 11
900.488055
 21
-126.423177
 31
0.0
  0
LINE
  8
0
  6
BYLAYER
 62
     7
 10
900.488055
 20
-118.423177
 30
0.0
 11
900.488055
 21
-126.423177
 31
0.0
  0
LINE
  8
0
  6
BYLAYER
 62
     7
 10
898.488055
 20
-128.423177
 30
0.0
 11
890.488055
 21
-128.423177
 31
0.0
  0
LINE
  8
0
  6
BYLAYER
 62
     7
 10
898.488055
 20
-136.423177
 30
0.0
 11
898.488055
 21
-128.423177
 31
0.0
  0
LINE
  8
0
  6
BYLAYER
 62
     7
 10
898.488055
 20
-136.423177
 30
0.0
 11
890.488055
 21
-136.423177
 31
0.0
  0
LINE
  8
0
  6
BYLAYER
 62
     7
 10
890.488055
 20
-128.423177
 30
0.0
 11
890.488055
 21
-136.423177
 31
0.0
  0
LINE
  8
0
  6
BYLAYER
 62
     7
 10
898.488055
 20
-118.423177
 30
0.0
 11
890.488055
 21
-118.423177
 31
0.0
  0
LINE
  8
0
  6
BYLAYER
 62
     7
 10
898.488055
 20
-126.423177
 30
0.0
 11
898.488055
 21
-118.423177
 31
0.0
  0
LINE
  8
0
  6
BYLAYER
 62
     7
 10
898.488055
 20
-126.423177
 30
0.0
 11
890.488055
 21
-126.423177
 31
0.0
  0
LINE
  8
0
  6
BYLAYER
 62
     7
 10
890.488055
 20
-118.423177
 30
0.0
 11
890.488055
 21
-126.423177
 31
0.0
  0
LINE
  8
0
  6
BYLAYER
 62
     7
 10
928.488055
 20
-166.423177
 30
0.0
 11
928.488055
 21
-158.423177
 31
0.0
  0
LINE
  8
0
  6
BYLAYER
 62
     7
 10
920.488055
 20
-158.423177
 30
0.0
 11
920.488055
 21
-166.423177
 31
0.0
  0
LINE
  8
0
  6
BYLAYER
 62
     7
 10
928.488055
 20
-158.423177
 30
0.0
 11
920.488055
 21
-158.423177
 31
0.0
  0
LINE
  8
0
  6
BYLAYER
 62
     7
 10
928.488055
 20
-166.423177
 30
0.0
 11
920.488055
 21
-166.423177
 31
0.0
  0
LINE
  8
0
  6
BYLAYER
 62
     7
 10
908.488055
 20
-156.423177
 30
0.0
 11
908.488055
 21
-148.423177
 31
0.0
  0
LINE
  8
0
  6
BYLAYER
 62
     7
 10
908.488055
 20
-148.423177
 30
0.0
 11
900.488055
 21
-148.423177
 31
0.0
  0
LINE
  8
0
  6
BYLAYER
 62
     7
 10
908.488055
 20
-156.423177
 30
0.0
 11
900.488055
 21
-156.423177
 31
0.0
  0
LINE
  8
0
  6
BYLAYER
 62
     7
 10
900.488055
 20
-148.423177
 30
0.0
 11
900.488055
 21
-156.423177
 31
0.0
  0
LINE
  8
0
  6
BYLAYER
 62
     7
 10
888.488055
 20
-118.423177
 30
0.0
 11
880.488055
 21
-118.423177
 31
0.0
  0
LINE
  8
0
  6
BYLAYER
 62
     7
 10
888.488055
 20
-126.423177
 30
0.0
 11
888.488055
 21
-118.423177
 31
0.0
  0
LINE
  8
0
  6
BYLAYER
 62
     7
 10
888.488055
 20
-126.423177
 30
0.0
 11
880.488055
 21
-126.423177
 31
0.0
  0
LINE
  8
0
  6
BYLAYER
 62
     7
 10
880.488055
 20
-118.423177
 30
0.0
 11
880.488055
 21
-126.423177
 31
0.0
  0
LINE
  8
0
  6
BYLAYER
 62
     7
 10
898.488055
 20
-138.423177
 30
0.0
 11
890.488055
 21
-138.423177
 31
0.0
  0
LINE
  8
0
  6
BYLAYER
 62
     7
 10
898.488055
 20
-146.423177
 30
0.0
 11
898.488055
 21
-138.423177
 31
0.0
  0
LINE
  8
0
  6
BYLAYER
 62
     7
 10
898.488055
 20
-146.423177
 30
0.0
 11
890.488055
 21
-146.423177
 31
0.0
  0
LINE
  8
0
  6
BYLAYER
 62
     7
 10
890.488055
 20
-138.423177
 30
0.0
 11
890.488055
 21
-146.423177
 31
0.0
  0
ARC
  8
0
  6
BYLAYER
 62
     7
 10
965.238055
 20
-29.923177
 30
0.0
 40
1.500000
 50
180.000000
 51
265.219808
  0
ARC
  8
0
  6
BYLAYER
 62
     7
 10
893.738055
 20
-29.923177
 30
0.0
 40
1.5
 50
274.780192
 51
360.000000
  0
ARC
  8
0
  6
BYLAYER
 62
     7
 10
901.733717
 20
-29.923177
 30
0.0
 40
1.500000
 50
270.0
 51
360.0
  0
LINE
  8
0
  6
BYLAYER
 62
     7
 10
963.738055
 20
-29.923177
 30
0.0
 11
963.738055
 21
-8.423177
 31
0.0
  0
LINE
  8
0
  6
BYLAYER
 62
     7
 10
962.238055
 20
-6.923177
 30
0.0
 11
896.738055
 21
-6.923177
 31
0.0
  0
ARC
  8
0
  6
BYLAYER
 62
     7
 10
962.238055
 20
-8.423177
 30
0.0
 40
1.500000
 50
0.0
 51
90.0
  0
ARC
  8
0
  6
BYLAYER
 62
     7
 10
896.738055
 20
-8.423177
 30
0.0
 40
1.500000
 50
90.0
 51
180.0
  0
LINE
  8
0
  6
BYLAYER
 62
     7
 10
895.238055
 20
-29.923177
 30
0.0
 11
895.238055
 21
-8.423177
 31
0.0
  0
LINE
  8
0
  6
BYLAYER
 62
     7
 10
903.233717
 20
-29.923177
 30
0.0
 11
903.233717
 21
-8.423177
 31
0.0
  0
ARC
  8
0
  6
BYLAYER
 62
     7
 10
904.733717
 20
-8.423177
 30
0.0
 40
1.500000
 50
90.0
 51
180.0
  0
ARC
  8
0
  6
BYLAYER
 62
     7
 10
954.242393
 20
-8.423177
 30
0.0
 40
1.500000
 50
0.0
 51
90.0
  0
LINE
  8
0
  6
BYLAYER
 62
     7
 10
908.894402
 20
-6.923177
 30
0.0
 11
909.386949
 21
-21.027876
 31
0.0
  0
ARC
  8
0
  6
BYLAYER
 62
     7
 10
912.385121
 20
-20.923177
 30
0.0
 40
3.0
 50
182.000000
 51
270.000000
  0
LINE
  8
0
  6
BYLAYER
 62
     7
 10
919.589161
 20
-21.027876
 30
0.0
 11
920.081708
 21
-6.923177
 31
0.0
  0
ARC
  8
0
  6
BYLAYER
 62
     7
 10
916.590989
 20
-20.923177
 30
0.0
 40
3.000000
 50
270.0
 51
358.0
  0
LINE
  8
0
  6
BYLAYER
 62
     7
 10
934.589161
 20
-21.027876
 30
0.0
 11
935.081708
 21
-6.923177
 31
0.0
  0
ARC
  8
0
  6
BYLAYER
 62
     7
 10
931.590989
 20
-20.923177
 30
0.0
 40
3.0
 50
270.0
 51
358.0
  0
LINE
  8
0
  6
BYLAYER
 62
     7
 10
949.589161
 20
-21.027876
 30
0.0
 11
950.081708
 21
-6.923177
 31
0.0
  0
ARC
  8
0
  6
BYLAYER
 62
     7
 10
946.590989
 20
-20.923177
 30
0.0
 40
3.000000
 50
270.0
 51
358.0
  0
LINE
  8
0
  6
BYLAYER
 62
     7
 10
938.894402
 20
-6.923177
 30
0.0
 11
939.386949
 21
-21.027876
 31
0.0
  0
ARC
  8
0
  6
BYLAYER
 62
     7
 10
942.385121
 20
-20.923177
 30
0.0
 40
3.000000
 50
182.000000
 51
270.000000
  0
LINE
  8
0
  6
BYLAYER
 62
     7
 10
923.894402
 20
-6.923177
 30
0.0
 11
924.386949
 21
-21.027876
 31
0.0
  0
ARC
  8
0
  6
BYLAYER
 62
     7
 10
927.385121
 20
-20.923177
 30
0.0
 40
3.0
 50
182.000000
 51
270.000000
  0
LINE
  8
0
  6
BYLAYER
 62
     7
 10
942.385121
 20
-23.923177
 30
0.0
 11
946.590989
 21
-23.923177
 31
0.0
  0
LINE
  8
0
  6
BYLAYER
 62
     7
 10
927.385121
 20
-23.923177
 30
0.0
 11
931.590989
 21
-23.923177
 31
0.0
  0
LINE
  8
0
  6
BYLAYER
 62
     7
 10
912.385121
 20
-23.923177
 30
0.0
 11
916.590989
 21
-23.923177
 31
0.0
  0
LINE
  8
0
  6
BYLAYER
 62
     7
 10
923.929323
 20
-7.923177
 30
0.0
 11
935.046787
 21
-7.923177
 31
0.0
  0
LINE
  8
0
  6
BYLAYER
 62
     7
 10
938.929323
 20
-7.923177
 30
0.0
 11
950.046787
 21
-7.923177
 31
0.0
  0
LINE
  8
0
  6
BYLAYER
 62
     7
 10
908.929323
 20
-7.923177
 30
0.0
 11
920.046787
 21
-7.923177
 31
0.0
  0
LINE
  8
0
  6
BYLAYER
 62
     7
 10
955.742393
 20
-8.423177
 30
0.0
 11
955.742393
 21
-29.923177
 31
0.0
  0
ARC
  8
0
  6
BYLAYER
 62
     7
 10
893.988055
 20
-32.912743
 30
0.0
 40
1.5
 50
94.780192
 51
180.000000
  0
LINE
  8
0
  6
BYLAYER
 62
     7
 10
893.988055
 20
-31.423177
 30
0.0
 11
965.238055
 21
-31.423177
 31
0.0
  0
ARC
  8
0
  6
BYLAYER
 62
     7
 10
964.988055
 20
-32.912743
 30
0.0
 40
1.500000
 50
0.0
 51
85.219808
  0
LINE
  8
0
  6
BYLAYER
 62
     7
 10
966.488055
 20
-40.423177
 30
0.0
 11
966.488055
 21
-32.912743
 31
0.0
  0
ARC
  8
0
  6
BYLAYER
 62
     7
 10
957.242393
 20
-29.923177
 30
0.0
 40
1.500000
 50
180.000000
 51
270.000000
  0
LINE
  8
0
  6
BYLAYER
 62
     7
 10
966.488055
 20
-38.423116
 30
0.0
 11
892.488055
 21
-38.423116
 31
0.0
  0
LINE
  8
0
  6
BYLAYER
 62
     7
 10
892.488055
 20
-32.912743
 30
0.0
 11
892.488055
 21
-40.423177
 31
0.0
  0
LINE
  8
0
  6
BYLAYER
 62
     7
 10
892.488055
 20
-40.423177
 30
0.0
 11
966.488055
 21
-40.423177
 31
0.0
  0
LINE
  8
0
  6
BYLAYER
 62
     1
 10
965.488055
 20
-224.423391
 30
0.0
 11
893.488055
 21
-224.423391
 31
0.0
  0
LINE
  8
0
  6
BYLAYER
 62
     1
 10
872.488055
 20
-189.923208
 30
0.0
 11
869.988055
 21
-189.923208
 31
0.0
  0
LINE
  8
0
  6
BYLAYER
 62
     1
 10
872.488055
 20
-212.423208
 30
0.0
 11
872.488055
 21
-173.556946
 31
0.0
  0
LINE
  8
0
  6
BYLAYER
 62
     1
 10
872.488177
 20
-212.423147
 30
0.0
 11
873.488055
 21
-212.458059
 31
0.0
  0
LINE
  8
0
  6
BYLAYER
 62
     1
 10
869.488055
 20
-170.338204
 30
0.0
 11
869.488055
 21
-189.423208
 31
0.0
  0
LINE
  8
0
  6
BYLAYER
 62
     1
 10
874.988055
 20
-181.923208
 30
0.0
 11
874.988055
 21
-175.987245
 31
0.0
  0
LINE
  8
0
  6
BYLAYER
 62
     1
 10
869.988055
 20
-189.923208
 30
0.0
 11
869.488055
 21
-189.423208
 31
0.0
  0
LINE
  8
0
  6
BYLAYER
 62
     1
 10
986.488055
 20
-189.923208
 30
0.0
 11
988.988055
 21
-189.923208
 31
0.0
  0
LINE
  8
0
  6
BYLAYER
 62
     1
 10
986.488055
 20
-212.423208
 30
0.0
 11
986.488055
 21
-173.556946
 31
0.0
  0
LINE
  8
0
  6
BYLAYER
 62
     1
 10
873.488055
 20
-228.423208
 30
0.0
 11
893.488055
 21
-228.423208
 31
0.0
  0
CIRCLE
  8
0
  6
BYLAYER
 62
     1
 10
884.538104
 20
-202.422964
 30
0.0
 40
5.75
  0
LINE
  8
0
  6
BYLAYER
 62
     1
 10
986.487933
 20
-212.423147
 30
0.0
 11
985.488055
 21
-212.458059
 31
0.0
  0
LINE
  8
0
  6
BYLAYER
 62
     1
 10
985.488055
 20
-228.423208
 30
0.0
 11
965.488055
 21
-228.423208
 31
0.0
  0
CIRCLE
  8
0
  6
BYLAYER
 62
     1
 10
974.438006
 20
-202.422964
 30
0.0
 40
5.75
  0
LINE
  8
0
  6
BYLAYER
 62
     1
 10
874.988055
 20
-175.987245
 30
0.0
 11
874.988055
 21
-181.923208
 31
0.0
  0
LINE
  8
0
  6
BYLAYER
 62
     1
 10
989.488055
 20
-170.338204
 30
0.0
 11
989.488055
 21
-189.423208
 31
0.0
  0
LINE
  8
0
  6
BYLAYER
 62
     1
 10
893.488055
 20
-228.423208
 30
0.0
 11
893.488055
 21
-188.865462
 31
0.0
  0
LINE
  8
0
  6
BYLAYER
 62
     1
 10
965.488055
 20
-228.423208
 30
0.0
 11
965.488055
 21
-188.865462
 31
0.0
  0
LINE
  8
0
  6
BYLAYER
 62
     1
 10
873.488055
 20
-23.423208
 30
0.0
 11
873.488055
 21
-29.737004
 31
0.0
  0
LINE
  8
0
  6
BYLAYER
 62
     1
 10
983.988055
 20
-181.923208
 30
0.0
 11
983.988055
 21
-175.987245
 31
0.0
  0
LINE
  8
0
  6
BYLAYER
 62
     1
 10
985.488055
 20
-23.423208
 30
0.0
 11
985.488055
 21
-29.737004
 31
0.0
  0
LINE
  8
0
  6
BYLAYER
 62
     1
 10
985.488055
 20
-23.423208
 30
0.0
 11
980.676433
 21
-23.423208
 31
0.0
  0
LINE
  8
0
  6
BYLAYER
 62
     1
 10
873.488055
 20
-23.423208
 30
0.0
 11
878.299677
 21
-23.423208
 31
0.0
  0
LINE
  8
0
  6
BYLAYER
 62
     1
 10
988.988055
 20
-189.923208
 30
0.0
 11
989.488055
 21
-189.423208
 31
0.0
  0
LINE
  8
0
  6
BYLAYER
 62
     1
 10
976.814010
 20
-181.923208
 30
0.0
 11
983.988055
 21
-181.923208
 31
0.0
  0
LINE
  8
0
  6
BYLAYER
 62
     1
 10
985.488055
 20
-183.423208
 30
0.0
 11
985.488055
 21
-228.423208
 31
0.0
  0
LINE
  8
0
  6
BYLAYER
 62
     1
 10
983.988055
 20
-181.923208
 30
0.0
 11
985.488055
 21
-183.423208
 31
0.0
  0
LINE
  8
0
  6
BYLAYER
 62
     1
 10
974.698629
 20
-183.423208
 30
0.0
 11
985.488055
 21
-183.423208
 31
0.0
  0
LINE
  8
0
  6
BYLAYER
 62
     1
 10
882.162100
 20
-181.923208
 30
0.0
 11
874.988055
 21
-181.923208
 31
0.0
  0
LINE
  8
0
  6
BYLAYER
 62
     1
 10
874.988055
 20
-181.923208
 30
0.0
 11
873.488055
 21
-183.423208
 31
0.0
  0
LINE
  8
0
  6
BYLAYER
 62
     1
 10
884.277481
 20
-183.423208
 30
0.0
 11
873.488055
 21
-183.423208
 31
0.0
  0
LINE
  8
0
  6
BYLAYER
 62
     1
 10
873.488055
 20
-183.423208
 30
0.0
 11
873.488055
 21
-228.423208
 31
0.0
  0
ARC
  8
0
  6
BYLAYER
 62
     1
 10
929.488097
 20
-667.423177
 30
0.0
 40
80.000000
 50
318.590332
 51
390.28676
  0
ARC
  8
0
  6
BYLAYER
 62
     1
 10
929.488097
 20
-667.423177
 30
0.0
 40
80.0
 50
149.713240
 51
221.409577
  0
ARC
  8
0
  6
BYLAYER
 62
     1
 10
929.488055
 20
-617.423208
 30
0.0
 40
67.500000
 50
146.060711
 51
207.266044
  0
ARC
  8
0
  6
BYLAYER
 62
     1
 10
929.488055
 20
-617.423208
 30
0.0
 40
67.5
 50
332.733956
 51
393.939196
  0
ARC
  8
0
  6
BYLAYER
 62
     1
 10
929.488055
 20
-617.423208
 30
0.0
 40
67.5
 50
40.681370
 51
139.318630
  0
LINE
  8
0
  6
BYLAYER
 62
     1
 10
862.545223
 20
-626.078106
 30
0.0
 11
862.099247
 21
-626.085891
 31
0.0
  0
ARC
  8
0
  6
BYLAYER
 62
     1
 10
862.134152
 20
-628.085586
 30
0.0
 40
2.000000
 50
91.000000
 51
149.713240
  0
LINE
  8
0
  6
BYLAYER
 62
     1
 10
996.430887
 20
-626.078105
 30
0.0
 11
996.876947
 21
-626.085891
 31
0.0
  0
ARC
  8
0
  6
BYLAYER
 62
     1
 10
996.842042
 20
-628.085586
 30
0.0
 40
2.000000
 50
30.286760
 51
89.000000
  0
LINE
  8
0
  6
BYLAYER
 62
     1
 10
869.488055
 20
-666.445421
 30
0.0
 11
849.505646
 21
-665.747620
 31
0.0
  0
LINE
  8
0
  6
BYLAYER
 62
     1
 10
869.488055
 20
-698.400988
 30
0.0
 11
855.929839
 21
-698.874452
 31
0.0
  0
LINE
  8
0
  6
BYLAYER
 62
     7
 10
963.738097
 20
-559.258058
 30
0.0
 11
963.738097
 21
-558.423177
 31
0.0
  0
LINE
  8
0
  6
BYLAYER
 62
     7
 10
899.554858
 20
-556.923177
 30
0.0
 11
896.738097
 21
-556.923177
 31
0.0
  0
ARC
  8
0
  6
BYLAYER
 62
     7
 10
962.238097
 20
-558.423177
 30
0.0
 40
1.5
 50
0.0
 51
90.0
  0
ARC
  8
0
  6
BYLAYER
 62
     7
 10
896.738097
 20
-558.423177
 30
0.0
 40
1.5
 50
90.0
 51
180.0
  0
LINE
  8
0
  6
BYLAYER
 62
     7
 10
895.238097
 20
-559.258009
 30
0.0
 11
895.238097
 21
-558.423177
 31
0.0
  0
LINE
  8
0
  6
BYLAYER
 62
     7
 10
959.421252
 20
-556.923177
 30
0.0
 11
962.238097
 21
-556.923177
 31
0.0
  0
LINE
  8
0
  6
BYLAYER
 62
     1
 10
873.488055
 20
-573.423208
 30
0.0
 11
893.488055
 21
-573.423208
 31
0.0
  0
LINE
  8
0
  6
BYLAYER
 62
     1
 10
869.488055
 20
-692.423208
 30
0.0
 11
869.488055
 21
-645.423208
 31
0.0
  0
LINE
  8
0
  6
BYLAYER
 62
     1
 10
869.488055
 20
-645.423208
 30
0.0
 11
869.988055
 21
-644.923208
 31
0.0
  0
LINE
  8
0
  6
BYLAYER
 62
     1
 10
869.488055
 20
-692.423208
 30
0.0
 11
869.488055
 21
-739.423208
 31
0.0
  0
LINE
  8
0
  6
BYLAYER
 62
     1
 10
869.488055
 20
-739.423208
 30
0.0
 11
869.988055
 21
-739.923208
 31
0.0
  0
LINE
  8
0
  6
BYLAYER
 62
     1
 10
873.488055
 20
-778.423208
 30
0.0
 11
893.488055
 21
-778.423208
 31
0.0
  0
LINE
  8
0
  6
BYLAYER
 62
     1
 10
873.488055
 20
-733.423208
 30
0.0
 11
873.488055
 21
-778.423208
 31
0.0
  0
LINE
  8
0
  6
BYLAYER
 62
     1
 10
893.488055
 20
-733.423208
 30
0.0
 11
873.488055
 21
-733.423208
 31
0.0
  0
LINE
  8
0
  6
BYLAYER
 62
     1
 10
874.988055
 20
-731.923208
 30
0.0
 11
873.488055
 21
-733.423208
 31
0.0
  0
CIRCLE
  8
0
  6
BYLAYER
 62
     1
 10
929.488055
 20
-617.423208
 30
0.0
 40
31.0
  0
LINE
  8
0
  6
BYLAYER
 62
     1
 10
985.488116
 20
-573.423208
 30
0.0
 11
965.488116
 21
-573.423208
 31
0.0
  0
LINE
  8
0
  6
BYLAYER
 62
     1
 10
985.488116
 20
-778.423208
 30
0.0
 11
965.488116
 21
-778.423208
 31
0.0
  0
LINE
  8
0
  6
BYLAYER
 62
     1
 10
965.488116
 20
-733.423208
 30
0.0
 11
985.488116
 21
-733.423208
 31
0.0
  0
LINE
  8
0
  6
BYLAYER
 62
     1
 10
983.988116
 20
-731.923208
 30
0.0
 11
985.488116
 21
-733.423208
 31
0.0
  0
LINE
  8
0
  6
BYLAYER
 62
     1
 10
985.488116
 20
-733.423208
 30
0.0
 11
985.488116
 21
-778.423208
 31
0.0
  0
LINE
  8
0
  6
BYLAYER
 62
     1
 10
872.488055
 20
-644.923208
 30
0.0
 11
869.988055
 21
-644.923208
 31
0.0
  0
LINE
  8
0
  6
BYLAYER
 62
     1
 10
872.488055
 20
-739.923208
 30
0.0
 11
869.988055
 21
-739.923208
 31
0.0
  0
LINE
  8
0
  6
BYLAYER
 62
     1
 10
892.488055
 20
-573.423208
 30
0.0
 11
893.488055
 21
-573.423208
 31
0.0
  0
CIRCLE
  8
0
  6
BYLAYER
 62
     1
 10
974.438006
 20
-599.423452
 30
0.0
 40
5.75
  0
CIRCLE
  8
0
  6
BYLAYER
 62
     1
 10
884.538104
 20
-599.423452
 30
0.0
 40
5.75
  0
LINE
  8
0
  6
BYLAYER
 62
     1
 10
983.988116
 20
-619.923330
 30
0.0
 11
985.488116
 21
-618.423330
 31
0.0
  0
LINE
  8
0
  6
BYLAYER
 62
     1
 10
985.488116
 20
-618.423330
 30
0.0
 11
985.488116
 21
-573.423208
 31
0.0
  0
LINE
  8
0
  6
BYLAYER
 62
     1
 10
874.988055
 20
-619.923330
 30
0.0
 11
873.488055
 21
-618.423330
 31
0.0
  0
LINE
  8
0
  6
BYLAYER
 62
     1
 10
873.488055
 20
-618.423330
 30
0.0
 11
873.488055
 21
-573.423208
 31
0.0
  0
LINE
  8
0
  6
BYLAYER
 62
     1
 10
892.041400
 20
-618.423330
 30
0.0
 11
873.488055
 21
-618.423330
 31
0.0
  0
ARC
  8
0
  6
BYLAYER
 62
     1
 10
892.041400
 20
-619.423330
 30
0.0
 40
1.000000
 50
3.057907
 51
90.000000
  0
LINE
  8
0
  6
BYLAYER
 62
     1
 10
965.488116
 20
-573.423208
 30
0.0
 11
965.488116
 21
-603.960409
 31
0.0
  0
ARC
  8
0
  6
BYLAYER
 62
     1
 10
964.488116
 20
-603.960409
 30
0.0
 40
1.000014
 50
201.039023
 51
359.999996
  0
LINE
  8
0
  6
BYLAYER
 62
     1
 10
893.488055
 20
-603.960287
 30
0.0
 11
893.488055
 21
-573.423208
 31
0.0
  0
ARC
  8
0
  6
BYLAYER
 62
     1
 10
894.488055
 20
-603.960287
 30
0.0
 40
1.000014
 50
180.000000
 51
338.960973
  0
LINE
  8
0
  6
BYLAYER
 62
     1
 10
966.934710
 20
-618.423330
 30
0.0
 11
985.488116
 21
-618.423330
 31
0.0
  0
ARC
  8
0
  6
BYLAYER
 62
     1
 10
966.934710
 20
-619.423330
 30
0.0
 40
1.000020
 50
90.0
 51
176.942086
  0
LINE
  8
0
  6
BYLAYER
 62
     1
 10
965.488116
 20
-573.423208
 30
0.0
 11
965.488116
 21
-603.960409
 31
0.0
  0
LINE
  8
0
  6
BYLAYER
 62
     1
 10
893.488055
 20
-778.423208
 30
0.0
 11
893.488055
 21
-623.444021
 31
0.0
  0
CIRCLE
  8
0
  6
BYLAYER
 62
     1
 10
956.711688
 20
-590.199697
 30
0.0
 40
4.0
  0
CIRCLE
  8
0
  6
BYLAYER
 62
     1
 10
902.264544
 20
-590.199545
 30
0.0
 40
4.000000
  0
CIRCLE
  8
0
  6
BYLAYER
 62
     1
 10
902.264422
 20
-644.646719
 30
0.0
 40
4.000000
  0
CIRCLE
  8
0
  6
BYLAYER
 62
     1
 10
956.711566
 20
-644.646871
 30
0.0
 40
4.0
  0
ARC
  8
0
  6
BYLAYER
 62
     1
 10
929.488055
 20
-617.423208
 30
0.0
 40
36.500004
 50
148.424355
 51
158.960509
  0
ARC
  8
0
  6
BYLAYER
 62
     1
 10
896.687976
 20
-597.263693
 30
0.0
 40
2.000013
 50
328.424810
 51
411.711570
  0
ARC
  8
0
  6
BYLAYER
 62
     1
 10
902.264544
 20
-590.199545
 30
0.0
 40
6.999995
 50
38.287800
 51
231.711845
  0
ARC
  8
0
  6
BYLAYER
 62
     1
 10
909.328723
 20
-584.623037
 30
0.0
 40
2.000008
 50
218.287737
 51
301.575200
  0
ARC
  8
0
  6
BYLAYER
 62
     1
 10
929.488055
 20
-617.423208
 30
0.0
 40
36.499985
 50
58.424666
 51
121.575332
  0
ARC
  8
0
  6
BYLAYER
 62
     1
 10
949.647387
 20
-584.623037
 30
0.0
 40
2.000013
 50
238.424801
 51
321.712264
  0
ARC
  8
0
  6
BYLAYER
 62
     1
 10
956.711566
 20
-590.199545
 30
0.0
 40
6.999995
 50
308.288160
 51
501.712205
  0
ARC
  8
0
  6
BYLAYER
 62
     1
 10
929.488055
 20
-617.423208
 30
0.0
 40
36.500004
 50
21.039496
 51
31.575650
  0
ARC
  8
0
  6
BYLAYER
 62
     1
 10
962.288104
 20
-597.263693
 30
0.0
 40
2.000008
 50
128.287741
 51
211.575655
  0
ARC
  8
0
  6
BYLAYER
 62
     1
 10
909.328723
 20
-650.223379
 30
0.0
 40
2.000008
 50
58.424803
 51
141.712259
  0
ARC
  8
0
  6
BYLAYER
 62
     1
 10
902.264544
 20
-644.646871
 30
0.0
 40
6.999995
 50
128.288151
 51
321.712210
  0
ARC
  8
0
  6
BYLAYER
 62
     1
 10
929.488055
 20
-617.423208
 30
0.0
 40
36.500004
 50
183.057403
 51
211.575655
  0
ARC
  8
0
  6
BYLAYER
 62
     1
 10
896.688006
 20
-637.582723
 30
0.0
 40
2.000008
 50
308.287746
 51
391.575660
  0
ARC
  8
0
  6
BYLAYER
 62
     1
 10
929.488055
 20
-617.423208
 30
0.0
 40
36.500004
 50
328.424346
 51
356.942599
  0
ARC
  8
0
  6
BYLAYER
 62
     1
 10
962.288104
 20
-637.582723
 30
0.0
 40
2.000008
 50
148.424341
 51
231.712255
  0
ARC
  8
0
  6
BYLAYER
 62
     1
 10
929.488055
 20
-617.423208
 30
0.0
 40
36.499985
 50
238.424665
 51
301.575337
  0
ARC
  8
0
  6
BYLAYER
 62
     1
 10
956.711566
 20
-644.646871
 30
0.0
 40
6.999995
 50
218.287805
 51
411.711850
  0
ARC
  8
0
  6
BYLAYER
 62
     1
 10
949.647387
 20
-650.223379
 30
0.0
 40
2.000013
 50
38.287746
 51
121.575195
  0
LINE
  8
0
  6
BYLAYER
 62
     1
 10
893.488055
 20
-574.923208
 30
0.0
 11
965.488116
 21
-574.923208
 31
0.0
  0
CIRCLE
  8
0
  6
BYLAYER
 62
     1
 10
884.538104
 20
-752.422964
 30
0.0
 40
5.75
  0
CIRCLE
  8
0
  6
BYLAYER
 62
     1
 10
974.438006
 20
-752.422964
 30
0.0
 40
5.75
  0
LINE
  8
0
  6
BYLAYER
 62
     1
 10
874.988055
 20
-619.923330
 30
0.0
 11
874.988055
 21
-731.923208
 31
0.0
  0
LINE
  8
0
  6
BYLAYER
 62
     1
 10
983.988116
 20
-619.923330
 30
0.0
 11
983.988116
 21
-731.923208
 31
0.0
  0
LINE
  8
0
  6
BYLAYER
 62
     1
 10
965.488116
 20
-778.423208
 30
0.0
 11
965.488116
 21
-623.443716
 31
0.0
  0
LINE
  8
0
  6
BYLAYER
 62
     1
 10
893.488055
 20
-731.923208
 30
0.0
 11
874.988055
 21
-731.923208
 31
0.0
  0
LINE
  8
0
  6
BYLAYER
 62
     1
 10
893.073779
 20
-619.923330
 30
0.0
 11
874.988055
 21
-619.923330
 31
0.0
  0
LINE
  8
0
  6
BYLAYER
 62
     1
 10
965.902331
 20
-619.923330
 30
0.0
 11
983.988116
 21
-619.923330
 31
0.0
  0
LINE
  8
0
  6
BYLAYER
 62
     1
 10
965.488116
 20
-731.923208
 30
0.0
 11
983.988116
 21
-731.923208
 31
0.0
  0
LINE
  8
0
  6
BYLAYER
 62
     1
 10
872.488177
 20
-762.423147
 30
0.0
 11
873.488055
 21
-762.458059
 31
0.0
  0
LINE
  8
0
  6
BYLAYER
 62
     1
 10
872.488177
 20
-622.423208
 30
0.0
 11
874.988055
 21
-622.335897
 31
0.0
  0
LINE
  8
0
  6
BYLAYER
 62
     1
 10
872.488055
 20
-762.423208
 30
0.0
 11
872.488055
 21
-644.923208
 31
0.0
  0
LINE
  8
0
  6
BYLAYER
 62
     1
 10
872.488055
 20
-644.923208
 30
0.0
 11
872.488055
 21
-622.423208
 31
0.0
  0
LINE
  8
0
  6
BYLAYER
 62
     1
 10
989.488055
 20
-692.423208
 30
0.0
 11
989.488055
 21
-645.423208
 31
0.0
  0
LINE
  8
0
  6
BYLAYER
 62
     1
 10
989.488055
 20
-645.423208
 30
0.0
 11
988.988055
 21
-644.923208
 31
0.0
  0
LINE
  8
0
  6
BYLAYER
 62
     1
 10
989.488055
 20
-692.423208
 30
0.0
 11
989.488055
 21
-739.423208
 31
0.0
  0
LINE
  8
0
  6
BYLAYER
 62
     1
 10
989.488055
 20
-739.423208
 30
0.0
 11
988.988055
 21
-739.923208
 31
0.0
  0
LINE
  8
0
  6
BYLAYER
 62
     1
 10
986.488055
 20
-644.923208
 30
0.0
 11
988.988055
 21
-644.923208
 31
0.0
  0
LINE
  8
0
  6
BYLAYER
 62
     1
 10
986.488055
 20
-739.923208
 30
0.0
 11
988.988055
 21
-739.923208
 31
0.0
  0
LINE
  8
0
  6
BYLAYER
 62
     1
 10
986.487933
 20
-762.423147
 30
0.0
 11
985.488055
 21
-762.458059
 31
0.0
  0
LINE
  8
0
  6
BYLAYER
 62
     1
 10
986.487933
 20
-622.423208
 30
0.0
 11
983.988055
 21
-622.335897
 31
0.0
  0
LINE
  8
0
  6
BYLAYER
 62
     1
 10
986.488055
 20
-762.423208
 30
0.0
 11
986.488055
 21
-644.923208
 31
0.0
  0
LINE
  8
0
  6
BYLAYER
 62
     1
 10
986.488055
 20
-644.923208
 30
0.0
 11
986.488055
 21
-622.423208
 31
0.0
  0
LINE
  8
0
  6
BYLAYER
 62
     1
 10
965.488116
 20
-774.423147
 30
0.0
 11
893.488055
 21
-774.423147
 31
0.0
  0
LINE
  8
0
  6
BYLAYER
 62
     1
 10
454.988300
 20
-770.423279
 30
0.0
 11
454.988300
 21
-736.505758
 31
0.0
  0
ARC
  8
0
  6
BYLAYER
 62
     1
 10
456.988300
 20
-770.423279
 30
0.0
 40
2.000000
 50
180.000000
 51
270.000000
  0
LINE
  8
0
  6
BYLAYER
 62
     1
 10
430.988300
 20
-692.423208
 30
0.0
 11
430.988300
 21
-626.923233
 31
0.0
  0
ARC
  8
0
  6
BYLAYER
 62
     1
 10
428.988300
 20
-626.923233
 30
0.0
 40
2.000000
 50
0.0
 51
90.0
  0
LINE
  8
0
  6
BYLAYER
 62
     1
 10
422.988300
 20
-624.923233
 30
0.0
 11
422.988300
 21
-692.423208
 31
0.0
  0
LINE
  8
0
  6
BYLAYER
 62
     1
 10
428.988300
 20
-624.923233
 30
0.0
 11
422.988300
 21
-624.923233
 31
0.0
  0
LINE
  8
0
  6
BYLAYER
 62
     1
 10
457.988300
 20
-670.783143
 30
0.0
 11
457.988300
 21
-652.923233
 31
0.0
  0
ARC
  8
0
  6
BYLAYER
 62
     1
 10
452.988300
 20
-652.923233
 30
0.0
 40
5.000000
 50
0.0
 51
90.0
  0
ARC
  8
0
  6
BYLAYER
 62
     1
 10
459.988300
 20
-670.783143
 30
0.0
 40
2.000000
 50
180.000000
 51
270.000000
  0
LINE
  8
0
  6
BYLAYER
 62
     1
 10
464.988300
 20
-772.423279
 30
0.0
 11
456.988300
 21
-772.423279
 31
0.0
  0
LINE
  8
0
  6
BYLAYER
 62
     1
 10
433.988300
 20
-647.923233
 30
0.0
 11
452.988300
 21
-647.923233
 31
0.0
  0
ARC
  8
0
  6
BYLAYER
 62
     1
 10
433.988300
 20
-644.923233
 30
0.0
 40
3.0
 50
180.000000
 51
270.000000
  0
LINE
  8
0
  6
BYLAYER
 62
     1
 10
464.988300
 20
-772.423279
 30
0.0
 11
464.988300
 21
-692.423208
 31
0.0
  0
LINE
  8
0
  6
BYLAYER
 62
     1
 10
454.988300
 20
-614.423137
 30
0.0
 11
454.988300
 21
-648.340658
 31
0.0
  0
ARC
  8
0
  6
BYLAYER
 62
     1
 10
456.988300
 20
-614.423137
 30
0.0
 40
2.000000
 50
90.0
 51
180.0
  0
LINE
  8
0
  6
BYLAYER
 62
     1
 10
464.988300
 20
-612.423137
 30
0.0
 11
456.988300
 21
-612.423137
 31
0.0
  0
LINE
  8
0
  6
BYLAYER
 62
     1
 10
464.988300
 20
-612.423137
 30
0.0
 11
464.988300
 21
-692.423208
 31
0.0
  0
LINE
  8
0
  6
BYLAYER
 62
     1
 10
430.988300
 20
-692.423208
 30
0.0
 11
430.988300
 21
-757.923183
 31
0.0
  0
ARC
  8
0
  6
BYLAYER
 62
     1
 10
428.988300
 20
-757.923183
 30
0.0
 40
2.0
 50
270.0
 51
360.0
  0
LINE
  8
0
  6
BYLAYER
 62
     1
 10
428.988300
 20
-759.923183
 30
0.0
 11
422.988300
 21
-759.923183
 31
0.0
  0
LINE
  8
0
  6
BYLAYER
 62
     1
 10
457.988300
 20
-714.063273
 30
0.0
 11
457.988300
 21
-731.923183
 31
0.0
  0
ARC
  8
0
  6
BYLAYER
 62
     1
 10
452.988300
 20
-731.923183
 30
0.0
 40
5.000000
 50
270.0
 51
360.0
  0
ARC
  8
0
  6
BYLAYER
 62
     1
 10
459.988300
 20
-714.063273
 30
0.0
 40
2.0
 50
90.0
 51
180.0
  0
LINE
  8
0
  6
BYLAYER
 62
     1
 10
433.988300
 20
-736.923183
 30
0.0
 11
452.988300
 21
-736.923183
 31
0.0
  0
ARC
  8
0
  6
BYLAYER
 62
     1
 10
433.988300
 20
-739.923183
 30
0.0
 40
3.0
 50
90.0
 51
180.0
  0
LINE
  8
0
  6
BYLAYER
 62
     1
 10
411.988177
 20
-692.423208
 30
0.0
 11
411.988361
 21
-752.423132
 31
0.0
  0
LINE
  8
0
  6
BYLAYER
 62
     1
 10
412.988354
 20
-692.423208
 30
0.0
 11
412.988354
 21
-757.642625
 31
0.0
  0
LINE
  8
0
  6
BYLAYER
 62
     1
 10
414.918555
 20
-759.641406
 30
0.0
 11
422.988300
 21
-759.923208
 31
0.0
  0
ARC
  8
0
  6
BYLAYER
 62
     1
 10
414.988354
 20
-757.642625
 30
0.0
 40
2.0
 50
180.000000
 51
268.000000
  0
LINE
  8
0
  6
BYLAYER
 62
     1
 10
411.988361
 20
-752.423132
 30
0.0
 11
412.023254
 21
-752.424350
 31
0.0
  0
ARC
  8
0
  6
BYLAYER
 62
     1
 10
411.988354
 20
-753.423741
 30
0.0
 40
1.0
 50
0.0
 51
88.0
  0
LINE
  8
0
  6
BYLAYER
 62
     1
 10
422.988300
 20
-624.923208
 30
0.0
 11
414.918555
 21
-625.205010
 31
0.0
  0
ARC
  8
0
  6
BYLAYER
 62
     1
 10
414.988354
 20
-627.203791
 30
0.0
 40
2.0
 50
92.000000
 51
180.000000
  0
LINE
  8
0
  6
BYLAYER
 62
     1
 10
411.988361
 20
-632.768872
 30
0.0
 11
411.988175
 21
-692.423208
 31
0.0
  0
LINE
  8
0
  6
BYLAYER
 62
     1
 10
412.023254
 20
-632.767654
 30
0.0
 11
411.988361
 21
-632.768872
 31
0.0
  0
ARC
  8
0
  6
BYLAYER
 62
     1
 10
411.988354
 20
-631.768263
 30
0.0
 40
1.000000
 50
272.0
 51
360.0
  0
LINE
  8
0
  6
BYLAYER
 62
     1
 10
412.988354
 20
-627.203791
 30
0.0
 11
412.988354
 21
-692.423208
 31
0.0
  0
LINE
  8
0
  6
BYLAYER
 62
     1
 10
422.988300
 20
-759.923208
 30
0.0
 11
422.988300
 21
-692.423208
 31
0.0
  0
LINE
  8
0
  6
BYLAYER
 62
     1
 10
338.988177
 20
-637.923210
 30
0.0
 11
340.488177
 21
-636.423210
 31
0.0
  0
LINE
  8
0
  6
BYLAYER
 62
     1
 10
340.488177
 20
-636.423210
 30
0.0
 11
385.488177
 21
-636.423210
 31
0.0
  0
LINE
  8
0
  6
BYLAYER
 62
     1
 10
340.488177
 20
-656.423210
 30
0.0
 11
340.488177
 21
-636.423210
 31
0.0
  0
LINE
  8
0
  6
BYLAYER
 62
     1
 10
340.488177
 20
-728.423210
 30
0.0
 11
340.488177
 21
-748.423210
 31
0.0
  0
LINE
  8
0
  6
BYLAYER
 62
     1
 10
338.988177
 20
-746.923210
 30
0.0
 11
340.488177
 21
-748.423210
 31
0.0
  0
LINE
  8
0
  6
BYLAYER
 62
     1
 10
338.988177
 20
-728.423210
 30
0.0
 11
338.988177
 21
-746.923210
 31
0.0
  0
LINE
  8
0
  6
BYLAYER
 62
     1
 10
258.488177
 20
-728.423210
 30
0.0
 11
258.488177
 21
-748.423210
 31
0.0
  0
LINE
  8
0
  6
BYLAYER
 62
     1
 10
259.988177
 20
-746.923210
 30
0.0
 11
258.488177
 21
-748.423210
 31
0.0
  0
LINE
  8
0
  6
BYLAYER
 62
     1
 10
258.488177
 20
-636.423210
 30
0.0
 11
213.488177
 21
-636.423210
 31
0.0
  0
LINE
  8
0
  6
BYLAYER
 62
     1
 10
258.488177
 20
-656.423210
 30
0.0
 11
258.488177
 21
-636.423210
 31
0.0
  0
LINE
  8
0
  6
BYLAYER
 62
     1
 10
259.988177
 20
-637.923210
 30
0.0
 11
258.488177
 21
-636.423210
 31
0.0
  0
LINE
  8
0
  6
BYLAYER
 62
     1
 10
259.988177
 20
-728.423210
 30
0.0
 11
259.988177
 21
-746.923210
 31
0.0
  0
LINE
  8
0
  6
BYLAYER
 62
     1
 10
340.488177
 20
-748.423210
 30
0.0
 11
385.488177
 21
-748.423210
 31
0.0
  0
LINE
  8
0
  6
BYLAYER
 62
     1
 10
258.488177
 20
-748.423210
 30
0.0
 11
213.488177
 21
-748.423210
 31
0.0
  0
LINE
  8
0
  6
BYLAYER
 62
     1
 10
213.488177
 20
-728.423210
 30
0.0
 11
385.488177
 21
-728.423210
 31
0.0
  0
LINE
  8
0
  6
BYLAYER
 62
     1
 10
213.488177
 20
-656.423210
 30
0.0
 11
385.488177
 21
-656.423210
 31
0.0
  0
LINE
  8
0
  6
BYLAYER
 62
     1
 10
385.488177
 20
-656.423210
 30
0.0
 11
385.488177
 21
-636.423210
 31
0.0
  0
LINE
  8
0
  6
BYLAYER
 62
     1
 10
385.488177
 20
-728.423210
 30
0.0
 11
385.488177
 21
-748.423210
 31
0.0
  0
CIRCLE
  8
0
  6
BYLAYER
 62
     1
 10
239.488177
 20
-647.423393
 30
0.0
 40
5.75
  0
LINE
  8
0
  6
BYLAYER
 62
     1
 10
299.488055
 20
-632.423210
 30
0.0
 11
252.988055
 21
-632.423210
 31
0.0
  0
ARC
  8
0
  6
BYLAYER
 62
     1
 10
252.988055
 20
-633.423210
 30
0.0
 40
1.000000
 50
90.0
 51
180.000003
  0
LINE
  8
0
  6
BYLAYER
 62
     1
 10
299.488055
 20
-632.423210
 30
0.0
 11
345.988055
 21
-632.423210
 31
0.0
  0
ARC
  8
0
  6
BYLAYER
 62
     1
 10
345.988055
 20
-633.423210
 30
0.0
 40
1.0
 50
0.0
 51
90.000003
  0
LINE
  8
0
  6
BYLAYER
 62
     1
 10
259.988177
 20
-637.923210
 30
0.0
 11
338.988177
 21
-637.923210
 31
0.0
  0
LINE
  8
0
  6
BYLAYER
 62
     1
 10
259.988177
 20
-656.423210
 30
0.0
 11
259.988177
 21
-637.923210
 31
0.0
  0
LINE
  8
0
  6
BYLAYER
 62
     1
 10
338.988177
 20
-656.423210
 30
0.0
 11
338.988177
 21
-637.923210
 31
0.0
  0
CIRCLE
  8
0
  6
BYLAYER
 62
     1
 10
359.488177
 20
-647.423393
 30
0.0
 40
5.75
  0
LINE
  8
0
  6
BYLAYER
 62
     1
 10
214.988177
 20
-728.423210
 30
0.0
 11
214.988177
 21
-656.423210
 31
0.0
  0
LINE
  8
0
  6
BYLAYER
 62
     1
 10
213.488177
 20
-636.423210
 30
0.0
 11
213.488177
 21
-748.423210
 31
0.0
  0
LINE
  8
0
  6
BYLAYER
 62
     1
 10
338.988177
 20
-746.923210
 30
0.0
 11
259.988177
 21
-746.923210
 31
0.0
  0
CIRCLE
  8
0
  6
BYLAYER
 62
     1
 10
239.488177
 20
-737.423027
 30
0.0
 40
5.75
  0
CIRCLE
  8
0
  6
BYLAYER
 62
     1
 10
359.488177
 20
-737.423027
 30
0.0
 40
5.75
  0
LINE
  8
0
  6
BYLAYER
 62
     1
 10
232.988177
 20
-656.423210
 30
0.0
 11
232.988177
 21
-728.423210
 31
0.0
  0
LINE
  8
0
  6
BYLAYER
 62
     1
 10
365.988177
 20
-656.423210
 30
0.0
 11
365.988177
 21
-728.423210
 31
0.0
  0
LINE
  8
0
  6
BYLAYER
 62
     1
 10
383.988177
 20
-656.423210
 30
0.0
 11
383.988177
 21
-728.423210
 31
0.0
  0
LINE
  8
0
  6
BYLAYER
 62
     1
 10
369.488055
 20
-635.423210
 30
0.0
 11
229.488055
 21
-635.423210
 31
0.0
  0
LINE
  8
0
  6
BYLAYER
 62
     1
 10
346.988055
 20
-635.423210
 30
0.0
 11
346.988055
 21
-633.423210
 31
0.0
  0
LINE
  8
0
  6
BYLAYER
 62
     1
 10
251.988055
 20
-635.423210
 30
0.0
 11
251.988055
 21
-633.423210
 31
0.0
  0
LINE
  8
0
  6
BYLAYER
 62
     1
 10
229.488116
 20
-635.423332
 30
0.0
 11
229.453196
 21
-636.423210
 31
0.0
  0
LINE
  8
0
  6
BYLAYER
 62
     1
 10
369.488116
 20
-635.423332
 30
0.0
 11
369.523028
 21
-636.423210
 31
0.0
  0
LINE
  8
0
  6
BYLAYER
 62
     1
 10
387.488055
 20
-741.423027
 30
0.0
 11
385.488055
 21
-741.492851
 31
0.0
  0
LINE
  8
0
  6
BYLAYER
 62
     1
 10
387.488055
 20
-643.423393
 30
0.0
 11
385.488055
 21
-643.353569
 31
0.0
  0
LINE
  8
0
  6
BYLAYER
 62
     1
 10
387.488177
 20
-643.423393
 30
0.0
 11
387.488177
 21
-741.423023
 31
0.0
  0
LINE
  8
0
  6
BYLAYER
 62
     1
 10
299.488055
 20
-752.423206
 30
0.0
 11
252.988055
 21
-752.423206
 31
0.0
  0
ARC
  8
0
  6
BYLAYER
 62
     1
 10
252.988055
 20
-751.423206
 30
0.0
 40
1.000000
 50
180.000000
 51
270.000003
  0
LINE
  8
0
  6
BYLAYER
 62
     1
 10
299.488055
 20
-752.423206
 30
0.0
 11
345.988055
 21
-752.423206
 31
0.0
  0
ARC
  8
0
  6
BYLAYER
 62
     1
 10
345.988055
 20
-751.423206
 30
0.0
 40
1.000000
 50
270.0
 51
360.000003
  0
LINE
  8
0
  6
BYLAYER
 62
     1
 10
369.488055
 20
-749.423206
 30
0.0
 11
229.488055
 21
-749.423206
 31
0.0
  0
LINE
  8
0
  6
BYLAYER
 62
     1
 10
346.988055
 20
-749.423206
 30
0.0
 11
346.988055
 21
-751.423206
 31
0.0
  0
LINE
  8
0
  6
BYLAYER
 62
     1
 10
251.988055
 20
-749.423206
 30
0.0
 11
251.988055
 21
-751.423206
 31
0.0
  0
LINE
  8
0
  6
BYLAYER
 62
     1
 10
229.488116
 20
-749.423084
 30
0.0
 11
229.453196
 21
-748.423206
 31
0.0
  0
LINE
  8
0
  6
BYLAYER
 62
     1
 10
369.488116
 20
-749.423084
 30
0.0
 11
369.523028
 21
-748.423206
 31
0.0
  0
ARC
  8
0
  6
BYLAYER
 62
     1
 10
262.213551
 20
-672.423210
 30
0.0
 40
1.25
 50
270.0
 51
450.000005
  0
ARC
  8
0
  6
BYLAYER
 62
     1
 10
262.213551
 20
-662.423210
 30
0.0
 40
1.25
 50
270.0
 51
450.000005
  0
ARC
  8
0
  6
BYLAYER
 62
     1
 10
262.213551
 20
-712.423210
 30
0.0
 40
1.25
 50
270.0
 51
450.000005
  0
ARC
  8
0
  6
BYLAYER
 62
     1
 10
262.213551
 20
-722.423210
 30
0.0
 40
1.25
 50
270.0
 51
450.000005
  0
LINE
  8
0
  6
BYLAYER
 62
     1
 10
262.213551
 20
-661.173210
 30
0.0
 11
232.988177
 21
-661.173210
 31
0.0
  0
LINE
  8
0
  6
BYLAYER
 62
     1
 10
262.213551
 20
-671.173210
 30
0.0
 11
232.988177
 21
-671.173210
 31
0.0
  0
LINE
  8
0
  6
BYLAYER
 62
     1
 10
262.213551
 20
-673.673210
 30
0.0
 11
232.988177
 21
-673.673210
 31
0.0
  0
LINE
  8
0
  6
BYLAYER
 62
     1
 10
262.213551
 20
-721.173210
 30
0.0
 11
232.988177
 21
-721.173210
 31
0.0
  0
LINE
  8
0
  6
BYLAYER
 62
     1
 10
262.213551
 20
-723.673210
 30
0.0
 11
232.988177
 21
-723.673210
 31
0.0
  0
LINE
  8
0
  6
BYLAYER
 62
     1
 10
232.988177
 20
-711.173210
 30
0.0
 11
262.213551
 21
-711.173210
 31
0.0
  0
LINE
  8
0
  6
BYLAYER
 62
     1
 10
232.988177
 20
-713.673210
 30
0.0
 11
262.213551
 21
-713.673210
 31
0.0
  0
LINE
  8
0
  6
BYLAYER
 62
     1
 10
232.988177
 20
-663.673210
 30
0.0
 11
262.213551
 21
-663.673210
 31
0.0
  0
ARC
  8
0
  6
BYLAYER
 62
     1
 10
274.963849
 20
-682.423210
 30
0.0
 40
1.25
 50
270.0
 51
450.000005
  0
ARC
  8
0
  6
BYLAYER
 62
     1
 10
274.963849
 20
-702.423210
 30
0.0
 40
1.25
 50
270.0
 51
450.000005
  0
ARC
  8
0
  6
BYLAYER
 62
     1
 10
274.963849
 20
-692.423210
 30
0.0
 40
1.25
 50
270.0
 51
360.000009
  0
ARC
  8
0
  6
BYLAYER
 62
     1
 10
274.963849
 20
-692.423210
 30
0.0
 40
1.250000
 50
0.0
 51
89.999996
  0
LINE
  8
0
  6
BYLAYER
 62
     1
 10
232.988177
 20
-693.673210
 30
0.0
 11
274.963849
 21
-693.673210
 31
0.0
  0
LINE
  8
0
  6
BYLAYER
 62
     1
 10
232.988177
 20
-681.173210
 30
0.0
 11
274.963849
 21
-681.173210
 31
0.0
  0
LINE
  8
0
  6
BYLAYER
 62
     1
 10
232.988177
 20
-691.173210
 30
0.0
 11
274.963849
 21
-691.173210
 31
0.0
  0
LINE
  8
0
  6
BYLAYER
 62
     1
 10
232.988177
 20
-701.173086
 30
0.0
 11
274.963849
 21
-701.173256
 31
0.0
  0
LINE
  8
0
  6
BYLAYER
 62
     1
 10
232.988177
 20
-703.673086
 30
0.0
 11
274.963849
 21
-703.673256
 31
0.0
  0
LINE
  8
0
  6
BYLAYER
 62
     1
 10
232.988177
 20
-683.673210
 30
0.0
 11
274.963849
 21
-683.673210
 31
0.0
  0
LINE
  8
0
  6
BYLAYER
 62
     1
 10
328.887906
 20
-661.173210
 30
0.0
 11
365.988177
 21
-661.173210
 31
0.0
  0
ARC
  8
0
  6
BYLAYER
 62
     1
 10
328.887906
 20
-662.423210
 30
0.0
 40
1.25
 50
90.0
 51
270.000005
  0
LINE
  8
0
  6
BYLAYER
 62
     1
 10
328.887906
 20
-711.173210
 30
0.0
 11
365.988177
 21
-711.173210
 31
0.0
  0
LINE
  8
0
  6
BYLAYER
 62
     1
 10
328.887906
 20
-713.673210
 30
0.0
 11
365.988177
 21
-713.673210
 31
0.0
  0
ARC
  8
0
  6
BYLAYER
 62
     1
 10
328.887906
 20
-712.423210
 30
0.0
 40
1.25
 50
90.0
 51
270.000005
  0
LINE
  8
0
  6
BYLAYER
 62
     1
 10
328.887906
 20
-723.673210
 30
0.0
 11
365.988177
 21
-723.673210
 31
0.0
  0
ARC
  8
0
  6
BYLAYER
 62
     1
 10
328.887906
 20
-722.423210
 30
0.0
 40
1.25
 50
90.0
 51
270.000005
  0
LINE
  8
0
  6
BYLAYER
 62
     1
 10
365.988177
 20
-673.673210
 30
0.0
 11
328.887906
 21
-673.673210
 31
0.0
  0
LINE
  8
0
  6
BYLAYER
 62
     1
 10
328.887906
 20
-721.173210
 30
0.0
 11
365.988177
 21
-721.173210
 31
0.0
  0
LINE
  8
0
  6
BYLAYER
 62
     1
 10
365.988177
 20
-671.173210
 30
0.0
 11
328.887906
 21
-671.173210
 31
0.0
  0
LINE
  8
0
  6
BYLAYER
 62
     1
 10
328.887906
 20
-663.673210
 30
0.0
 11
365.988177
 21
-663.673210
 31
0.0
  0
ARC
  8
0
  6
BYLAYER
 62
     1
 10
328.887906
 20
-672.423210
 30
0.0
 40
1.25
 50
90.0
 51
270.000005
  0
LINE
  8
0
  6
BYLAYER
 62
     1
 10
411.988177
 20
-632.423210
 30
0.0
 11
411.988177
 21
-692.423208
 31
0.0
  0
ARC
  8
0
  6
BYLAYER
 62
     1
 10
399.988177
 20
-648.956014
 30
0.0
 40
1.999988
 50
281.000195
 51
360.0
  0
LINE
  8
0
  6
BYLAYER
 62
     1
 10
401.988177
 20
-634.845205
 30
0.0
 11
401.988177
 21
-692.423208
 31
0.0
  0
LINE
  8
0
  6
BYLAYER
 62
     1
 10
387.488177
 20
-653.423193
 30
0.0
 11
400.369799
 21
-650.919256
 31
0.0
  0
LINE
  8
0
  6
BYLAYER
 62
     1
 10
401.988177
 20
-634.845205
 30
0.0
 11
388.655291
 21
-653.196325
 31
0.0
  0
LINE
  8
0
  6
BYLAYER
 62
     1
 10
387.488177
 20
-653.423193
 30
0.0
 11
387.488177
 21
-692.423208
 31
0.0
  0
LINE
  8
0
  6
BYLAYER
 62
     1
 10
403.883502
 20
-632.847952
 30
0.0
 11
411.988177
 21
-632.423210
 31
0.0
  0
ARC
  8
0
  6
BYLAYER
 62
     1
 10
403.988177
 20
-634.845205
 30
0.0
 40
2.000000
 50
93.000097
 51
180.000000
  0
LINE
  8
0
  6
BYLAYER
 62
     1
 10
411.988177
 20
-752.423206
 30
0.0
 11
411.988177
 21
-692.423208
 31
0.0
  0
ARC
  8
0
  6
BYLAYER
 62
     1
 10
399.988177
 20
-735.890402
 30
0.0
 40
1.999988
 50
0.0
 51
78.999805
  0
LINE
  8
0
  6
BYLAYER
 62
     1
 10
401.988177
 20
-750.001211
 30
0.0
 11
401.988177
 21
-692.423208
 31
0.0
  0
LINE
  8
0
  6
BYLAYER
 62
     1
 10
387.488177
 20
-731.423223
 30
0.0
 11
400.369799
 21
-733.927160
 31
0.0
  0
LINE
  8
0
  6
BYLAYER
 62
     1
 10
401.988177
 20
-750.001211
 30
0.0
 11
388.655291
 21
-731.650091
 31
0.0
  0
LINE
  8
0
  6
BYLAYER
 62
     1
 10
387.488177
 20
-731.423223
 30
0.0
 11
387.488177
 21
-692.423208
 31
0.0
  0
LINE
  8
0
  6
BYLAYER
 62
     1
 10
403.883502
 20
-751.998464
 30
0.0
 11
411.988177
 21
-752.423206
 31
0.0
  0
ARC
  8
0
  6
BYLAYER
 62
     1
 10
403.988177
 20
-750.001211
 30
0.0
 40
2.0
 50
180.000000
 51
266.999903
  0
ENDSEC
  0
EOF
