  0
SECTION
  2
HEADER
  9
$EXTMIN
 10
174.962457
 20
712.0
 30
0.0
  9
$EXTMAX
 10
942.853242
 20
0.0
 30
0.0
  0
ENDSEC
  0
SECTION
  2
TABLES
  0
ENDSEC
  0
SECTION
  2
BLOCKS
  0
ENDSEC
  0
SECTION
  2
ENTITIES
  0
LINE
  8
0
  6
BYLAYER
 62
     7
 10
437.093503
 20
-44.506765
 30
0.0
 11
431.293454
 21
-44.506765
 31
0.0
  0
ARC
  8
0
  6
BYLAYER
 62
     7
 10
437.093503
 20
-46.006765
 30
0.0
 40
1.500000
 50
0.0
 51
90.000003
  0
ARC
  8
0
  6
BYLAYER
 62
     7
 10
466.493512
 20
-46.006765
 30
0.0
 40
1.5
 50
90.0
 51
180.000003
  0
LINE
  8
0
  6
BYLAYER
 62
     7
 10
476.093503
 20
-44.506765
 30
0.0
 11
466.493512
 21
-44.506765
 31
0.0
  0
ARC
  8
0
  6
BYLAYER
 62
     7
 10
476.093503
 20
-46.006765
 30
0.0
 40
1.500000
 50
0.0
 51
90.000003
  0
LINE
  8
0
  6
BYLAYER
 62
     7
 10
511.293515
 20
-44.506704
 30
0.0
 11
505.493527
 21
-44.506704
 31
0.0
  0
ARC
  8
0
  6
BYLAYER
 62
     7
 10
505.493527
 20
-46.006704
 30
0.0
 40
1.500000
 50
90.0
 51
180.000003
  0
ARC
  8
0
  6
BYLAYER
 62
     7
 10
451.793515
 20
-53.506704
 30
0.0
 40
13.200012
 50
180.000000
 51
359.999995
  0
ARC
  8
0
  6
BYLAYER
 62
     7
 10
490.793515
 20
-53.506704
 30
0.0
 40
13.200012
 50
180.000000
 51
359.999995
  0
LINE
  8
0
  6
BYLAYER
 62
     7
 10
431.293454
 20
-50.006765
 30
0.0
 11
437.093503
 21
-50.006765
 31
0.0
  0
LINE
  8
0
  6
BYLAYER
 62
     7
 10
438.593503
 20
-46.006765
 30
0.0
 11
438.593503
 21
-51.506765
 31
0.0
  0
LINE
  8
0
  6
BYLAYER
 62
     7
 10
438.593503
 20
-51.506765
 30
0.0
 11
438.593503
 21
-53.506704
 31
0.0
  0
ARC
  8
0
  6
BYLAYER
 62
     7
 10
437.093503
 20
-51.506765
 30
0.0
 40
1.500000
 50
0.0
 51
90.000003
  0
ARC
  8
0
  6
BYLAYER
 62
     7
 10
466.493512
 20
-51.506704
 30
0.0
 40
1.5
 50
90.0
 51
180.000003
  0
LINE
  8
0
  6
BYLAYER
 62
     7
 10
466.493512
 20
-50.006704
 30
0.0
 11
476.093503
 21
-50.006704
 31
0.0
  0
LINE
  8
0
  6
BYLAYER
 62
     7
 10
477.593503
 20
-46.006765
 30
0.0
 11
477.593503
 21
-51.506704
 31
0.0
  0
LINE
  8
0
  6
BYLAYER
 62
     7
 10
477.593503
 20
-51.506704
 30
0.0
 11
477.593503
 21
-53.506704
 31
0.0
  0
ARC
  8
0
  6
BYLAYER
 62
     7
 10
476.093503
 20
-51.506704
 30
0.0
 40
1.500000
 50
0.0
 51
90.000003
  0
LINE
  8
0
  6
BYLAYER
 62
     7
 10
503.993527
 20
-53.506704
 30
0.0
 11
503.993527
 21
-51.506704
 31
0.0
  0
LINE
  8
0
  6
BYLAYER
 62
     7
 10
503.993527
 20
-51.506704
 30
0.0
 11
503.993527
 21
-46.006704
 31
0.0
  0
LINE
  8
0
  6
BYLAYER
 62
     7
 10
505.493527
 20
-50.006704
 30
0.0
 11
511.293515
 21
-50.006704
 31
0.0
  0
ARC
  8
0
  6
BYLAYER
 62
     7
 10
505.493527
 20
-51.506704
 30
0.0
 40
1.500000
 50
90.0
 51
180.000003
  0
LINE
  8
0
  6
BYLAYER
 62
     7
 10
464.993512
 20
-46.006765
 30
0.0
 11
464.993512
 21
-53.506704
 31
0.0
  0
LINE
  8
0
  6
BYLAYER
 62
     7
 10
429.293454
 20
-59.756826
 30
0.0
 11
431.293484
 21
-59.756826
 31
0.0
  0
LINE
  8
0
  6
BYLAYER
 62
     7
 10
531.793576
 20
-57.754537
 30
0.0
 11
511.293515
 21
-57.754537
 31
0.0
  0
LINE
  8
0
  6
BYLAYER
 62
     7
 10
511.293515
 20
-40.006704
 30
0.0
 11
511.293515
 21
-73.774739
 31
0.0
  0
LINE
  8
0
  6
BYLAYER
 62
     7
 10
531.793576
 20
-53.296437
 30
0.0
 11
511.293515
 21
-53.296437
 31
0.0
  0
LINE
  8
0
  6
BYLAYER
 62
     7
 10
511.293515
 20
-49.172994
 30
0.0
 11
531.793576
 21
-49.172994
 31
0.0
  0
LINE
  8
0
  6
BYLAYER
 62
     7
 10
511.293515
 20
-50.518697
 30
0.0
 11
531.793576
 21
-50.518697
 31
0.0
  0
ARC
  8
0
  6
BYLAYER
 62
     7
 10
432.143506
 20
-111.656850
 30
0.0
 40
0.850006
 50
90.0
 51
269.999998
  0
ARC
  8
0
  6
BYLAYER
 62
     7
 10
436.143430
 20
-111.656850
 30
0.0
 40
0.850006
 50
90.0
 51
269.999998
  0
LINE
  8
0
  6
BYLAYER
 62
     7
 10
432.143491
 20
-110.806844
 30
0.0
 11
531.793576
 21
-110.806926
 31
0.0
  0
LINE
  8
0
  6
BYLAYER
 62
     7
 10
432.143491
 20
-112.506826
 30
0.0
 11
531.793576
 21
-112.506908
 31
0.0
  0
ARC
  8
0
  6
BYLAYER
 62
     7
 10
432.143506
 20
-100.956838
 30
0.0
 40
0.850006
 50
90.0
 51
269.999998
  0
ARC
  8
0
  6
BYLAYER
 62
     7
 10
436.143430
 20
-100.956838
 30
0.0
 40
0.850006
 50
90.0
 51
269.999998
  0
ARC
  8
0
  6
BYLAYER
 62
     7
 10
432.143506
 20
-90.256856
 30
0.0
 40
0.850006
 50
90.0
 51
269.999998
  0
ARC
  8
0
  6
BYLAYER
 62
     7
 10
436.143430
 20
-90.256856
 30
0.0
 40
0.850006
 50
90.0
 51
269.999998
  0
LINE
  8
0
  6
BYLAYER
 62
     7
 10
432.143491
 20
-89.406850
 30
0.0
 11
531.793576
 21
-89.406933
 31
0.0
  0
LINE
  8
0
  6
BYLAYER
 62
     7
 10
432.143491
 20
-91.106832
 30
0.0
 11
531.793576
 21
-91.106914
 31
0.0
  0
ARC
  8
0
  6
BYLAYER
 62
     7
 10
432.143506
 20
-79.556844
 30
0.0
 40
0.850006
 50
90.0
 51
269.999998
  0
ARC
  8
0
  6
BYLAYER
 62
     7
 10
436.143430
 20
-79.556844
 30
0.0
 40
0.850006
 50
90.0
 51
269.999998
  0
LINE
  8
0
  6
BYLAYER
 62
     7
 10
432.143491
 20
-78.706838
 30
0.0
 11
531.793576
 21
-78.706920
 31
0.0
  0
LINE
  8
0
  6
BYLAYER
 62
     7
 10
432.143491
 20
-80.406819
 30
0.0
 11
531.793576
 21
-80.406902
 31
0.0
  0
LINE
  8
0
  6
BYLAYER
 62
     7
 10
439.293454
 20
-101.806813
 30
0.0
 11
439.293454
 21
-110.806844
 31
0.0
  0
LINE
  8
0
  6
BYLAYER
 62
     7
 10
439.293454
 20
-91.106801
 30
0.0
 11
439.293454
 21
-100.106832
 31
0.0
  0
LINE
  8
0
  6
BYLAYER
 62
     7
 10
439.293454
 20
-80.406819
 30
0.0
 11
439.293454
 21
-89.406850
 31
0.0
  0
LINE
  8
0
  6
BYLAYER
 62
     7
 10
439.293454
 20
-73.774739
 30
0.0
 11
439.293454
 21
-78.706838
 31
0.0
  0
LINE
  8
0
  6
BYLAYER
 62
     7
 10
431.293484
 20
-69.464803
 30
0.0
 11
439.293454
 21
-73.774739
 31
0.0
  0
LINE
  8
0
  6
BYLAYER
 62
     7
 10
531.793576
 20
-73.774739
 30
0.0
 11
439.293454
 21
-73.774739
 31
0.0
  0
ARC
  8
0
  6
BYLAYER
 62
     7
 10
432.143506
 20
-122.356801
 30
0.0
 40
0.850006
 50
90.0
 51
269.999998
  0
ARC
  8
0
  6
BYLAYER
 62
     7
 10
436.143430
 20
-122.356801
 30
0.0
 40
0.850006
 50
90.0
 51
269.999998
  0
LINE
  8
0
  6
BYLAYER
 62
     7
 10
432.143491
 20
-123.206807
 30
0.0
 11
531.793576
 21
-123.206725
 31
0.0
  0
LINE
  8
0
  6
BYLAYER
 62
     7
 10
432.143491
 20
-121.506826
 30
0.0
 11
531.793576
 21
-121.506743
 31
0.0
  0
ARC
  8
0
  6
BYLAYER
 62
     7
 10
432.143506
 20
-133.056813
 30
0.0
 40
0.850006
 50
90.0
 51
269.999998
  0
ARC
  8
0
  6
BYLAYER
 62
     7
 10
436.143430
 20
-133.056813
 30
0.0
 40
0.850006
 50
90.0
 51
269.999998
  0
ARC
  8
0
  6
BYLAYER
 62
     7
 10
432.143506
 20
-143.756795
 30
0.0
 40
0.850006
 50
90.0
 51
269.999998
  0
ARC
  8
0
  6
BYLAYER
 62
     7
 10
436.143430
 20
-143.756795
 30
0.0
 40
0.850006
 50
90.0
 51
269.999998
  0
LINE
  8
0
  6
BYLAYER
 62
     7
 10
432.143491
 20
-144.606801
 30
0.0
 11
531.793576
 21
-144.606719
 31
0.0
  0
LINE
  8
0
  6
BYLAYER
 62
     7
 10
432.143491
 20
-142.906819
 30
0.0
 11
531.793576
 21
-142.906737
 31
0.0
  0
ARC
  8
0
  6
BYLAYER
 62
     7
 10
432.143506
 20
-154.456807
 30
0.0
 40
0.850006
 50
90.0
 51
269.999998
  0
ARC
  8
0
  6
BYLAYER
 62
     7
 10
436.143430
 20
-154.456807
 30
0.0
 40
0.850006
 50
90.0
 51
269.999998
  0
LINE
  8
0
  6
BYLAYER
 62
     7
 10
432.143491
 20
-155.306813
 30
0.0
 11
531.793576
 21
-155.306731
 31
0.0
  0
LINE
  8
0
  6
BYLAYER
 62
     7
 10
432.143491
 20
-153.606832
 30
0.0
 11
531.793576
 21
-153.606749
 31
0.0
  0
LINE
  8
0
  6
BYLAYER
 62
     7
 10
439.293454
 20
-132.206838
 30
0.0
 11
439.293454
 21
-123.206807
 31
0.0
  0
LINE
  8
0
  6
BYLAYER
 62
     7
 10
439.293454
 20
-142.906850
 30
0.0
 11
439.293454
 21
-133.906819
 31
0.0
  0
LINE
  8
0
  6
BYLAYER
 62
     7
 10
439.293454
 20
-153.606832
 30
0.0
 11
439.293454
 21
-144.606801
 31
0.0
  0
LINE
  8
0
  6
BYLAYER
 62
     7
 10
431.293576
 20
-174.256826
 30
0.0
 11
431.293454
 21
-40.006704
 31
0.0
  0
LINE
  8
0
  6
BYLAYER
 62
     7
 10
431.293576
 20
-174.256826
 30
0.0
 11
429.293576
 21
-174.256826
 31
0.0
  0
LINE
  8
0
  6
BYLAYER
 62
     7
 10
439.293454
 20
-112.506826
 30
0.0
 11
439.293454
 21
-121.506826
 31
0.0
  0
LINE
  8
0
  6
BYLAYER
 62
     7
 10
431.293561
 20
-155.733236
 30
0.0
 11
433.466306
 21
-163.842061
 31
0.0
  0
ARC
  8
0
  6
BYLAYER
 62
     7
 10
435.398160
 20
-163.324422
 30
0.0
 40
2.000003
 50
195.000016
 51
270.000001
  0
LINE
  8
0
  6
BYLAYER
 62
     7
 10
431.293561
 20
-159.170827
 30
0.0
 11
434.763730
 21
-172.121633
 31
0.0
  0
ARC
  8
0
  6
BYLAYER
 62
     7
 10
436.695569
 20
-171.603994
 30
0.0
 40
1.999988
 50
195.000043
 51
270.000001
  0
LINE
  8
0
  6
BYLAYER
 62
     7
 10
431.293576
 20
-166.965428
 30
0.0
 11
434.242429
 21
-177.970708
 31
0.0
  0
ARC
  8
0
  6
BYLAYER
 62
     7
 10
436.174283
 20
-177.453069
 30
0.0
 40
2.000003
 50
195.000043
 51
270.000001
  0
LINE
  8
0
  6
BYLAYER
 62
     7
 10
431.293576
 20
-171.604680
 30
0.0
 11
433.966306
 21
-181.579473
 31
0.0
  0
ARC
  8
0
  6
BYLAYER
 62
     7
 10
435.898160
 20
-181.061834
 30
0.0
 40
2.000003
 50
195.000043
 51
270.000001
  0
LINE
  8
0
  6
BYLAYER
 62
     7
 10
431.293576
 20
-174.256826
 30
0.0
 11
433.719632
 21
-183.311010
 31
0.0
  0
ARC
  8
0
  6
BYLAYER
 62
     7
 10
435.651486
 20
-182.793370
 30
0.0
 40
2.000003
 50
195.000016
 51
270.000001
  0
LINE
  8
0
  6
BYLAYER
 62
     7
 10
435.398160
 20
-165.324422
 30
0.0
 11
531.793576
 21
-165.324408
 31
0.0
  0
LINE
  8
0
  6
BYLAYER
 62
     7
 10
436.695569
 20
-173.603994
 30
0.0
 11
531.793576
 21
-173.603979
 31
0.0
  0
LINE
  8
0
  6
BYLAYER
 62
     7
 10
436.174283
 20
-179.453069
 30
0.0
 11
531.793576
 21
-179.453055
 31
0.0
  0
LINE
  8
0
  6
BYLAYER
 62
     7
 10
435.898160
 20
-183.061834
 30
0.0
 11
531.793576
 21
-183.061819
 31
0.0
  0
LINE
  8
0
  6
BYLAYER
 62
     7
 10
435.651486
 20
-184.793370
 30
0.0
 11
531.793576
 21
-184.793356
 31
0.0
  0
CIRCLE
  8
0
  6
BYLAYER
 62
     7
 10
459.793546
 20
-100.956838
 30
0.0
 40
3.0
  0
CIRCLE
  8
0
  6
BYLAYER
 62
     7
 10
514.793546
 20
-100.956838
 30
0.0
 40
3.000000
  0
LINE
  8
0
  6
BYLAYER
 62
     7
 10
432.143491
 20
-100.106832
 30
0.0
 11
456.916470
 21
-100.106862
 31
0.0
  0
LINE
  8
0
  6
BYLAYER
 62
     7
 10
456.916470
 20
-101.806844
 30
0.0
 11
432.143491
 21
-101.806813
 31
0.0
  0
LINE
  8
0
  6
BYLAYER
 62
     7
 10
462.670621
 20
-100.106862
 30
0.0
 11
511.916470
 21
-100.106893
 31
0.0
  0
LINE
  8
0
  6
BYLAYER
 62
     7
 10
511.916501
 20
-101.806874
 30
0.0
 11
462.670605
 21
-101.806844
 31
0.0
  0
LINE
  8
0
  6
BYLAYER
 62
     7
 10
517.670621
 20
-100.106893
 30
0.0
 11
531.793576
 21
-100.106910
 31
0.0
  0
LINE
  8
0
  6
BYLAYER
 62
     7
 10
531.793576
 20
-101.806892
 30
0.0
 11
517.670590
 21
-101.806874
 31
0.0
  0
LINE
  8
0
  6
BYLAYER
 62
     7
 10
432.143491
 20
-132.206838
 30
0.0
 11
531.793576
 21
-132.206750
 31
0.0
  0
LINE
  8
0
  6
BYLAYER
 62
     7
 10
432.143491
 20
-133.906819
 30
0.0
 11
531.793576
 21
-133.906732
 31
0.0
  0
LINE
  8
0
  6
BYLAYER
 62
     7
 10
429.293454
 20
-59.756822
 30
0.0
 11
429.293576
 21
-174.256822
 31
0.0
  0
LINE
  8
0
  6
BYLAYER
 62
     7
 10
605.293576
 20
-62.006826
 30
0.0
 11
605.293576
 21
-172.006826
 31
0.0
  0
LINE
  8
0
  6
BYLAYER
 62
     7
 10
531.793576
 20
-47.556826
 30
0.0
 11
590.843576
 21
-47.556826
 31
0.0
  0
LINE
  8
0
  6
BYLAYER
 62
     7
 10
531.793576
 20
-186.456826
 30
0.0
 11
590.843576
 21
-186.456826
 31
0.0
  0
LINE
  8
0
  6
BYLAYER
 62
     7
 10
605.293576
 20
-62.006826
 30
0.0
 11
590.843576
 21
-47.556826
 31
0.0
  0
LINE
  8
0
  6
BYLAYER
 62
     7
 10
605.293576
 20
-172.006826
 30
0.0
 11
590.843576
 21
-186.456826
 31
0.0
  0
LINE
  8
0
  6
BYLAYER
 62
     7
 10
531.793576
 20
-117.006826
 30
0.0
 11
531.793576
 21
-186.456826
 31
0.0
  0
LINE
  8
0
  6
BYLAYER
 62
     7
 10
531.793576
 20
-117.006826
 30
0.0
 11
531.793576
 21
-47.556826
 31
0.0
  0
LINE
  8
0
  6
BYLAYER
 62
     7
 10
429.293515
 20
-58.998099
 30
0.0
 11
429.293515
 21
-175.015553
 31
0.0
  0
LINE
  8
0
  6
BYLAYER
 62
     7
 10
398.293515
 20
-37.006826
 30
0.0
 11
408.293515
 21
-37.006826
 31
0.0
  0
LINE
  8
0
  6
BYLAYER
 62
     7
 10
429.293515
 20
-58.998099
 30
0.0
 11
409.276059
 21
-58.648695
 31
0.0
  0
LINE
  8
0
  6
BYLAYER
 62
     7
 10
408.293515
 20
-37.006826
 30
0.0
 11
408.293515
 21
-117.006826
 31
0.0
  0
ARC
  8
0
  6
BYLAYER
 62
     7
 10
409.293515
 20
-57.648847
 30
0.0
 40
1.0
 50
180.000000
 51
269.000015
  0
LINE
  8
0
  6
BYLAYER
 62
     7
 10
398.293515
 20
-197.006826
 30
0.0
 11
408.293515
 21
-197.006826
 31
0.0
  0
LINE
  8
0
  6
BYLAYER
 62
     7
 10
427.793515
 20
-184.006826
 30
0.0
 11
408.293515
 21
-184.347202
 31
0.0
  0
LINE
  8
0
  6
BYLAYER
 62
     7
 10
427.793515
 20
-184.006826
 30
0.0
 11
427.793515
 21
-175.006826
 31
0.0
  0
LINE
  8
0
  6
BYLAYER
 62
     7
 10
429.293515
 20
-175.015553
 30
0.0
 11
427.793515
 21
-175.041734
 31
0.0
  0
LINE
  8
0
  6
BYLAYER
 62
     7
 10
408.293515
 20
-197.006826
 30
0.0
 11
408.293515
 21
-117.006826
 31
0.0
  0
LINE
  8
0
  6
BYLAYER
 62
     7
 10
398.293515
 20
-197.006826
 30
0.0
 11
398.293515
 21
-117.006826
 31
0.0
  0
LINE
  8
0
  6
BYLAYER
 62
     7
 10
398.293515
 20
-37.006826
 30
0.0
 11
398.293515
 21
-117.006826
 31
0.0
  0
ARC
  8
0
  6
BYLAYER
 62
     7
 10
502.047792
 20
-29.506704
 30
0.0
 40
1.5
 50
180.000000
 51
270.000000
  0
ARC
  8
0
  6
BYLAYER
 62
     7
 10
440.539116
 20
-29.506704
 30
0.0
 40
1.500000
 50
270.0
 51
360.0
  0
ARC
  8
0
  6
BYLAYER
 62
     7
 10
432.793454
 20
-29.506704
 30
0.0
 40
1.500000
 50
270.0
 51
360.0
  0
ARC
  8
0
  6
BYLAYER
 62
     7
 10
432.793454
 20
-32.506704
 30
0.0
 40
1.500000
 50
90.0
 51
180.0
  0
ARC
  8
0
  6
BYLAYER
 62
     7
 10
509.793454
 20
-29.506704
 30
0.0
 40
1.5
 50
180.000000
 51
270.000000
  0
LINE
  8
0
  6
BYLAYER
 62
     7
 10
434.293454
 20
-29.506704
 30
0.0
 11
434.293454
 21
-8.006704
 31
0.0
  0
ARC
  8
0
  6
BYLAYER
 62
     7
 10
435.793454
 20
-8.006704
 30
0.0
 40
1.500000
 50
90.0
 51
180.0
  0
LINE
  8
0
  6
BYLAYER
 62
     7
 10
508.293454
 20
-29.506704
 30
0.0
 11
508.293454
 21
-8.006704
 31
0.0
  0
LINE
  8
0
  6
BYLAYER
 62
     7
 10
435.793454
 20
-6.506704
 30
0.0
 11
506.793454
 21
-6.506704
 31
0.0
  0
ARC
  8
0
  6
BYLAYER
 62
     7
 10
499.047792
 20
-8.006704
 30
0.0
 40
1.5
 50
0.0
 51
90.0
  0
ARC
  8
0
  6
BYLAYER
 62
     7
 10
506.793454
 20
-8.006704
 30
0.0
 40
1.5
 50
0.0
 51
90.0
  0
LINE
  8
0
  6
BYLAYER
 62
     7
 10
442.039116
 20
-29.506704
 30
0.0
 11
442.039116
 21
-8.006704
 31
0.0
  0
ARC
  8
0
  6
BYLAYER
 62
     7
 10
443.539116
 20
-8.006704
 30
0.0
 40
1.500000
 50
90.0
 51
180.0
  0
LINE
  8
0
  6
BYLAYER
 62
     7
 10
500.547792
 20
-29.506704
 30
0.0
 11
500.547792
 21
-8.006704
 31
0.0
  0
ARC
  8
0
  6
BYLAYER
 62
     7
 10
509.793454
 20
-32.506704
 30
0.0
 40
1.5
 50
0.0
 51
90.0
  0
LINE
  8
0
  6
BYLAYER
 62
     7
 10
511.293454
 20
-40.006704
 30
0.0
 11
511.293454
 21
-32.506704
 31
0.0
  0
LINE
  8
0
  6
BYLAYER
 62
     7
 10
509.793454
 20
-31.006704
 30
0.0
 11
432.793454
 21
-31.006704
 31
0.0
  0
LINE
  8
0
  6
BYLAYER
 62
     7
 10
431.293454
 20
-32.506704
 30
0.0
 11
431.293454
 21
-40.006704
 31
0.0
  0
LINE
  8
0
  6
BYLAYER
 62
     7
 10
431.293454
 20
-40.006704
 30
0.0
 11
511.293454
 21
-40.006704
 31
0.0
  0
LINE
  8
0
  6
BYLAYER
 62
     7
 10
511.293454
 20
-38.006704
 30
0.0
 11
431.293454
 21
-38.006704
 31
0.0
  0
LINE
  8
0
  6
BYLAYER
 62
     7
 10
590.843576
 20
-186.456826
 30
0.0
 11
590.843576
 21
-47.556826
 31
0.0
  0
ARC
  8
0
  6
BYLAYER
 62
     7
 10
432.143506
 20
-667.456807
 30
0.0
 40
0.850006
 50
111.034603
 51
269.999998
  0
ARC
  8
0
  6
BYLAYER
 62
     7
 10
436.143430
 20
-667.456807
 30
0.0
 40
0.850006
 50
148.036043
 51
269.999998
  0
LINE
  8
0
  6
BYLAYER
 62
     7
 10
432.143491
 20
-668.306813
 30
0.0
 11
531.793576
 21
-668.306731
 31
0.0
  0
LINE
  8
0
  6
BYLAYER
 62
     7
 10
431.293576
 20
-687.256826
 30
0.0
 11
431.293524
 21
-630.006826
 31
0.0
  0
LINE
  8
0
  6
BYLAYER
 62
     7
 10
431.293576
 20
-687.256826
 30
0.0
 11
429.293576
 21
-687.256826
 31
0.0
  0
LINE
  8
0
  6
BYLAYER
 62
     7
 10
431.293561
 20
-668.733236
 30
0.0
 11
433.466306
 21
-676.842061
 31
0.0
  0
ARC
  8
0
  6
BYLAYER
 62
     7
 10
435.398160
 20
-676.324422
 30
0.0
 40
2.000003
 50
195.000016
 51
270.000001
  0
LINE
  8
0
  6
BYLAYER
 62
     7
 10
431.293561
 20
-672.170827
 30
0.0
 11
434.763730
 21
-685.121633
 31
0.0
  0
ARC
  8
0
  6
BYLAYER
 62
     7
 10
436.695569
 20
-684.603994
 30
0.0
 40
1.999988
 50
195.000043
 51
270.000001
  0
LINE
  8
0
  6
BYLAYER
 62
     7
 10
431.293576
 20
-679.965428
 30
0.0
 11
434.242429
 21
-690.970708
 31
0.0
  0
ARC
  8
0
  6
BYLAYER
 62
     7
 10
436.174283
 20
-690.453069
 30
0.0
 40
2.000003
 50
195.000043
 51
270.000001
  0
LINE
  8
0
  6
BYLAYER
 62
     7
 10
431.293576
 20
-684.604680
 30
0.0
 11
433.966306
 21
-694.579473
 31
0.0
  0
ARC
  8
0
  6
BYLAYER
 62
     7
 10
435.898160
 20
-694.061834
 30
0.0
 40
2.000003
 50
195.000043
 51
270.000001
  0
LINE
  8
0
  6
BYLAYER
 62
     7
 10
431.293576
 20
-687.256826
 30
0.0
 11
433.719632
 21
-696.311010
 31
0.0
  0
ARC
  8
0
  6
BYLAYER
 62
     7
 10
435.651486
 20
-695.793370
 30
0.0
 40
2.000003
 50
195.000016
 51
270.000001
  0
LINE
  8
0
  6
BYLAYER
 62
     7
 10
435.398160
 20
-678.324422
 30
0.0
 11
531.793576
 21
-678.324408
 31
0.0
  0
LINE
  8
0
  6
BYLAYER
 62
     7
 10
436.695569
 20
-686.603994
 30
0.0
 11
531.793576
 21
-686.603979
 31
0.0
  0
LINE
  8
0
  6
BYLAYER
 62
     7
 10
436.174283
 20
-692.453069
 30
0.0
 11
531.793576
 21
-692.453055
 31
0.0
  0
LINE
  8
0
  6
BYLAYER
 62
     7
 10
435.898160
 20
-696.061834
 30
0.0
 11
531.793576
 21
-696.061819
 31
0.0
  0
LINE
  8
0
  6
BYLAYER
 62
     7
 10
435.651486
 20
-697.793370
 30
0.0
 11
531.793576
 21
-697.793356
 31
0.0
  0
LINE
  8
0
  6
BYLAYER
 62
     7
 10
429.293515
 20
-630.006826
 30
0.0
 11
429.293576
 21
-687.256822
 31
0.0
  0
LINE
  8
0
  6
BYLAYER
 62
     7
 10
605.293576
 20
-630.006826
 30
0.0
 11
605.293576
 21
-685.006826
 31
0.0
  0
LINE
  8
0
  6
BYLAYER
 62
     7
 10
531.793576
 20
-699.456826
 30
0.0
 11
590.843576
 21
-699.456826
 31
0.0
  0
LINE
  8
0
  6
BYLAYER
 62
     7
 10
605.293576
 20
-685.006826
 30
0.0
 11
590.843576
 21
-699.456826
 31
0.0
  0
LINE
  8
0
  6
BYLAYER
 62
     7
 10
531.793576
 20
-630.006826
 30
0.0
 11
531.793576
 21
-699.456826
 31
0.0
  0
LINE
  8
0
  6
BYLAYER
 62
     7
 10
434.293524
 20
-654.523511
 30
0.0
 11
434.293524
 21
-630.006826
 31
0.0
  0
LINE
  8
0
  6
BYLAYER
 62
     7
 10
508.293524
 20
-630.006826
 30
0.0
 11
508.293524
 21
-654.523511
 31
0.0
  0
LINE
  8
0
  6
BYLAYER
 62
     7
 10
498.831118
 20
-664.256826
 30
0.0
 11
443.755930
 21
-664.256826
 31
0.0
  0
LINE
  8
0
  6
BYLAYER
 62
     7
 10
448.398222
 20
-635.107932
 30
0.0
 11
434.293524
 21
-635.600479
 31
0.0
  0
ARC
  8
0
  6
BYLAYER
 62
     7
 10
448.293524
 20
-632.109760
 30
0.0
 40
3.0
 50
272.000000
 51
360.000000
  0
LINE
  8
0
  6
BYLAYER
 62
     7
 10
448.398222
 20
-650.107932
 30
0.0
 11
434.293524
 21
-650.600479
 31
0.0
  0
ARC
  8
0
  6
BYLAYER
 62
     7
 10
448.293524
 20
-647.109760
 30
0.0
 40
3.0
 50
272.000000
 51
360.000000
  0
LINE
  8
0
  6
BYLAYER
 62
     7
 10
434.293524
 20
-639.413173
 30
0.0
 11
448.398222
 21
-639.905720
 31
0.0
  0
ARC
  8
0
  6
BYLAYER
 62
     7
 10
448.293524
 20
-642.903892
 30
0.0
 40
3.000000
 50
0.0
 51
88.0
  0
LINE
  8
0
  6
BYLAYER
 62
     7
 10
451.293524
 20
-642.903892
 30
0.0
 11
451.293524
 21
-647.109760
 31
0.0
  0
LINE
  8
0
  6
BYLAYER
 62
     7
 10
451.293524
 20
-630.006826
 30
0.0
 11
451.293524
 21
-632.109760
 31
0.0
  0
LINE
  8
0
  6
BYLAYER
 62
     7
 10
435.293524
 20
-630.006826
 30
0.0
 11
435.293524
 21
-635.565558
 31
0.0
  0
LINE
  8
0
  6
BYLAYER
 62
     7
 10
435.293524
 20
-639.448094
 30
0.0
 11
435.293524
 21
-650.565558
 31
0.0
  0
LINE
  8
0
  6
BYLAYER
 62
     7
 10
494.188825
 20
-635.107932
 30
0.0
 11
508.293524
 21
-635.600479
 31
0.0
  0
ARC
  8
0
  6
BYLAYER
 62
     7
 10
494.293524
 20
-632.109760
 30
0.0
 40
3.000000
 50
180.000000
 51
268.000000
  0
LINE
  8
0
  6
BYLAYER
 62
     7
 10
494.188825
 20
-650.107932
 30
0.0
 11
508.293524
 21
-650.600479
 31
0.0
  0
ARC
  8
0
  6
BYLAYER
 62
     7
 10
494.293524
 20
-647.109760
 30
0.0
 40
3.000000
 50
180.000000
 51
268.000000
  0
LINE
  8
0
  6
BYLAYER
 62
     7
 10
508.293524
 20
-639.413173
 30
0.0
 11
494.188825
 21
-639.905720
 31
0.0
  0
ARC
  8
0
  6
BYLAYER
 62
     7
 10
494.293524
 20
-642.903892
 30
0.0
 40
3.000000
 50
92.000000
 51
180.000000
  0
LINE
  8
0
  6
BYLAYER
 62
     7
 10
491.293524
 20
-642.903892
 30
0.0
 11
491.293524
 21
-647.109760
 31
0.0
  0
LINE
  8
0
  6
BYLAYER
 62
     7
 10
491.293524
 20
-630.006826
 30
0.0
 11
491.293524
 21
-632.109760
 31
0.0
  0
LINE
  8
0
  6
BYLAYER
 62
     7
 10
507.293524
 20
-630.006826
 30
0.0
 11
507.293524
 21
-635.565558
 31
0.0
  0
LINE
  8
0
  6
BYLAYER
 62
     7
 10
507.293524
 20
-639.448094
 30
0.0
 11
507.293524
 21
-650.565558
 31
0.0
  0
LINE
  8
0
  6
BYLAYER
 62
     7
 10
431.293524
 20
-630.006826
 30
0.0
 11
431.293524
 21
-665.506826
 31
0.0
  0
ARC
  8
0
  6
BYLAYER
 62
     7
 10
432.793524
 20
-665.506826
 30
0.0
 40
1.5
 50
180.000000
 51
270.000000
  0
LINE
  8
0
  6
BYLAYER
 62
     7
 10
511.293524
 20
-665.506826
 30
0.0
 11
511.293524
 21
-630.006826
 31
0.0
  0
LINE
  8
0
  6
BYLAYER
 62
     7
 10
432.793524
 20
-667.006826
 30
0.0
 11
509.793524
 21
-667.006826
 31
0.0
  0
ARC
  8
0
  6
BYLAYER
 62
     7
 10
509.793524
 20
-665.506826
 30
0.0
 40
1.5
 50
270.0
 51
360.0
  0
ARC
  8
0
  6
BYLAYER
 62
     7
 10
506.293524
 20
-662.006826
 30
0.0
 40
6.0
 50
86.177446
 51
185.739170
  0
ARC
  8
0
  6
BYLAYER
 62
     7
 10
506.793524
 20
-654.523511
 30
0.0
 40
1.500000
 50
266.177446
 51
360.0
  0
ARC
  8
0
  6
BYLAYER
 62
     7
 10
498.831118
 20
-662.756826
 30
0.0
 40
1.5
 50
270.0
 51
365.739170
  0
ARC
  8
0
  6
BYLAYER
 62
     7
 10
436.293524
 20
-662.006826
 30
0.0
 40
6.000000
 50
354.260830
 51
453.822554
  0
ARC
  8
0
  6
BYLAYER
 62
     7
 10
443.755930
 20
-662.756826
 30
0.0
 40
1.5
 50
174.260830
 51
270.000000
  0
ARC
  8
0
  6
BYLAYER
 62
     7
 10
435.793524
 20
-654.523511
 30
0.0
 40
1.500000
 50
180.000000
 51
273.822554
  0
ARC
  8
0
  6
BYLAYER
 62
     7
 10
458.293524
 20
-657.006826
 30
0.0
 40
3.0
 50
180.000000
 51
270.000000
  0
ARC
  8
0
  6
BYLAYER
 62
     7
 10
484.293524
 20
-657.006826
 30
0.0
 40
3.0
 50
270.0
 51
360.0
  0
LINE
  8
0
  6
BYLAYER
 62
     7
 10
458.293524
 20
-660.006826
 30
0.0
 11
484.293524
 21
-660.006826
 31
0.0
  0
LINE
  8
0
  6
BYLAYER
 62
     7
 10
455.293524
 20
-657.006826
 30
0.0
 11
455.293524
 21
-630.006826
 31
0.0
  0
LINE
  8
0
  6
BYLAYER
 62
     7
 10
487.293524
 20
-630.006826
 30
0.0
 11
487.293524
 21
-657.006826
 31
0.0
  0
LINE
  8
0
  6
BYLAYER
 62
     7
 10
531.793576
 20
-655.906737
 30
0.0
 11
511.293524
 21
-655.906754
 31
0.0
  0
LINE
  8
0
  6
BYLAYER
 62
     7
 10
531.793576
 20
-657.606719
 30
0.0
 11
511.293524
 21
-657.606736
 31
0.0
  0
LINE
  8
0
  6
BYLAYER
 62
     7
 10
531.793576
 20
-666.606740
 30
0.0
 11
510.813421
 21
-666.606740
 31
0.0
  0
ARC
  8
0
  6
BYLAYER
 62
     7
 10
432.143506
 20
-592.556845
 30
0.0
 40
0.850006
 50
90.0
 51
248.965395
  0
ARC
  8
0
  6
BYLAYER
 62
     7
 10
436.143430
 20
-592.556845
 30
0.0
 40
0.850006
 50
90.0
 51
211.963955
  0
LINE
  8
0
  6
BYLAYER
 62
     7
 10
432.143491
 20
-591.706839
 30
0.0
 11
531.793576
 21
-591.706921
 31
0.0
  0
LINE
  8
0
  6
BYLAYER
 62
     7
 10
431.293576
 20
-572.756826
 30
0.0
 11
431.293524
 21
-630.006826
 31
0.0
  0
LINE
  8
0
  6
BYLAYER
 62
     7
 10
431.293576
 20
-572.756826
 30
0.0
 11
429.293576
 21
-572.756826
 31
0.0
  0
LINE
  8
0
  6
BYLAYER
 62
     7
 10
431.293561
 20
-591.280416
 30
0.0
 11
433.466306
 21
-583.171591
 31
0.0
  0
ARC
  8
0
  6
BYLAYER
 62
     7
 10
435.398160
 20
-583.689230
 30
0.0
 40
2.000003
 50
90.0
 51
164.999985
  0
LINE
  8
0
  6
BYLAYER
 62
     7
 10
431.293561
 20
-587.842825
 30
0.0
 11
434.763730
 21
-574.892019
 31
0.0
  0
ARC
  8
0
  6
BYLAYER
 62
     7
 10
436.695569
 20
-575.409658
 30
0.0
 40
1.999988
 50
90.0
 51
164.999958
  0
LINE
  8
0
  6
BYLAYER
 62
     7
 10
431.293576
 20
-580.048224
 30
0.0
 11
434.242429
 21
-569.042944
 31
0.0
  0
ARC
  8
0
  6
BYLAYER
 62
     7
 10
436.174283
 20
-569.560583
 30
0.0
 40
2.000003
 50
90.0
 51
164.999958
  0
LINE
  8
0
  6
BYLAYER
 62
     7
 10
431.293576
 20
-575.408972
 30
0.0
 11
433.966306
 21
-565.434179
 31
0.0
  0
ARC
  8
0
  6
BYLAYER
 62
     7
 10
435.898160
 20
-565.951818
 30
0.0
 40
2.000003
 50
90.0
 51
164.999958
  0
LINE
  8
0
  6
BYLAYER
 62
     7
 10
431.293576
 20
-572.756826
 30
0.0
 11
433.719632
 21
-563.702642
 31
0.0
  0
ARC
  8
0
  6
BYLAYER
 62
     7
 10
435.651486
 20
-564.220282
 30
0.0
 40
2.000003
 50
90.0
 51
164.999985
  0
LINE
  8
0
  6
BYLAYER
 62
     7
 10
435.398160
 20
-581.689230
 30
0.0
 11
531.793576
 21
-581.689244
 31
0.0
  0
LINE
  8
0
  6
BYLAYER
 62
     7
 10
436.695569
 20
-573.409658
 30
0.0
 11
531.793576
 21
-573.409673
 31
0.0
  0
LINE
  8
0
  6
BYLAYER
 62
     7
 10
436.174283
 20
-567.560583
 30
0.0
 11
531.793576
 21
-567.560597
 31
0.0
  0
LINE
  8
0
  6
BYLAYER
 62
     7
 10
435.898160
 20
-563.951818
 30
0.0
 11
531.793576
 21
-563.951833
 31
0.0
  0
LINE
  8
0
  6
BYLAYER
 62
     7
 10
435.651486
 20
-562.220282
 30
0.0
 11
531.793576
 21
-562.220296
 31
0.0
  0
LINE
  8
0
  6
BYLAYER
 62
     7
 10
429.293515
 20
-630.006826
 30
0.0
 11
429.293576
 21
-572.756830
 31
0.0
  0
LINE
  8
0
  6
BYLAYER
 62
     7
 10
605.293576
 20
-630.006826
 30
0.0
 11
605.293576
 21
-575.006826
 31
0.0
  0
LINE
  8
0
  6
BYLAYER
 62
     7
 10
531.793576
 20
-560.556826
 30
0.0
 11
590.843576
 21
-560.556826
 31
0.0
  0
LINE
  8
0
  6
BYLAYER
 62
     7
 10
605.293576
 20
-575.006826
 30
0.0
 11
590.843576
 21
-560.556826
 31
0.0
  0
LINE
  8
0
  6
BYLAYER
 62
     7
 10
531.793576
 20
-630.006826
 30
0.0
 11
531.793576
 21
-560.556826
 31
0.0
  0
LINE
  8
0
  6
BYLAYER
 62
     7
 10
434.293524
 20
-605.490141
 30
0.0
 11
434.293524
 21
-630.006826
 31
0.0
  0
LINE
  8
0
  6
BYLAYER
 62
     7
 10
508.293524
 20
-630.006826
 30
0.0
 11
508.293524
 21
-605.490141
 31
0.0
  0
LINE
  8
0
  6
BYLAYER
 62
     7
 10
498.831118
 20
-595.756826
 30
0.0
 11
443.755930
 21
-595.756826
 31
0.0
  0
LINE
  8
0
  6
BYLAYER
 62
     7
 10
448.398222
 20
-624.905720
 30
0.0
 11
434.293524
 21
-624.413173
 31
0.0
  0
ARC
  8
0
  6
BYLAYER
 62
     7
 10
448.293524
 20
-627.903892
 30
0.0
 40
3.000000
 50
0.0
 51
88.0
  0
LINE
  8
0
  6
BYLAYER
 62
     7
 10
448.398222
 20
-609.905720
 30
0.0
 11
434.293524
 21
-609.413173
 31
0.0
  0
ARC
  8
0
  6
BYLAYER
 62
     7
 10
448.293524
 20
-612.903892
 30
0.0
 40
3.000000
 50
0.0
 51
88.0
  0
LINE
  8
0
  6
BYLAYER
 62
     7
 10
434.293524
 20
-620.600479
 30
0.0
 11
448.398222
 21
-620.107932
 31
0.0
  0
ARC
  8
0
  6
BYLAYER
 62
     7
 10
448.293524
 20
-617.109760
 30
0.0
 40
3.0
 50
272.000000
 51
360.000000
  0
LINE
  8
0
  6
BYLAYER
 62
     7
 10
451.293524
 20
-617.109760
 30
0.0
 11
451.293524
 21
-612.903892
 31
0.0
  0
LINE
  8
0
  6
BYLAYER
 62
     7
 10
451.293524
 20
-630.006826
 30
0.0
 11
451.293524
 21
-627.903892
 31
0.0
  0
LINE
  8
0
  6
BYLAYER
 62
     7
 10
435.293524
 20
-630.006826
 30
0.0
 11
435.293524
 21
-624.448094
 31
0.0
  0
LINE
  8
0
  6
BYLAYER
 62
     7
 10
435.293524
 20
-620.565558
 30
0.0
 11
435.293524
 21
-609.448094
 31
0.0
  0
LINE
  8
0
  6
BYLAYER
 62
     7
 10
494.188825
 20
-624.905720
 30
0.0
 11
508.293524
 21
-624.413173
 31
0.0
  0
ARC
  8
0
  6
BYLAYER
 62
     7
 10
494.293524
 20
-627.903892
 30
0.0
 40
3.000000
 50
92.000000
 51
180.000000
  0
LINE
  8
0
  6
BYLAYER
 62
     7
 10
494.188825
 20
-609.905720
 30
0.0
 11
508.293524
 21
-609.413173
 31
0.0
  0
ARC
  8
0
  6
BYLAYER
 62
     7
 10
494.293524
 20
-612.903892
 30
0.0
 40
3.000000
 50
92.000000
 51
180.000000
  0
LINE
  8
0
  6
BYLAYER
 62
     7
 10
508.293524
 20
-620.600479
 30
0.0
 11
494.188825
 21
-620.107932
 31
0.0
  0
ARC
  8
0
  6
BYLAYER
 62
     7
 10
494.293524
 20
-617.109760
 30
0.0
 40
3.000000
 50
180.000000
 51
268.000000
  0
LINE
  8
0
  6
BYLAYER
 62
     7
 10
491.293524
 20
-617.109760
 30
0.0
 11
491.293524
 21
-612.903892
 31
0.0
  0
LINE
  8
0
  6
BYLAYER
 62
     7
 10
491.293524
 20
-630.006826
 30
0.0
 11
491.293524
 21
-627.903892
 31
0.0
  0
LINE
  8
0
  6
BYLAYER
 62
     7
 10
507.293524
 20
-630.006826
 30
0.0
 11
507.293524
 21
-624.448094
 31
0.0
  0
LINE
  8
0
  6
BYLAYER
 62
     7
 10
507.293524
 20
-620.565558
 30
0.0
 11
507.293524
 21
-609.448094
 31
0.0
  0
LINE
  8
0
  6
BYLAYER
 62
     7
 10
431.293524
 20
-630.006826
 30
0.0
 11
431.293524
 21
-594.506826
 31
0.0
  0
ARC
  8
0
  6
BYLAYER
 62
     7
 10
432.793524
 20
-594.506826
 30
0.0
 40
1.5
 50
90.0
 51
180.0
  0
LINE
  8
0
  6
BYLAYER
 62
     7
 10
511.293524
 20
-594.506826
 30
0.0
 11
511.293524
 21
-630.006826
 31
0.0
  0
LINE
  8
0
  6
BYLAYER
 62
     7
 10
432.793524
 20
-593.006826
 30
0.0
 11
509.793524
 21
-593.006826
 31
0.0
  0
ARC
  8
0
  6
BYLAYER
 62
     7
 10
509.793524
 20
-594.506826
 30
0.0
 40
1.5
 50
0.0
 51
90.0
  0
ARC
  8
0
  6
BYLAYER
 62
     7
 10
506.293524
 20
-598.006826
 30
0.0
 40
6.0
 50
174.260830
 51
273.822554
  0
ARC
  8
0
  6
BYLAYER
 62
     7
 10
506.793524
 20
-605.490141
 30
0.0
 40
1.500000
 50
0.0
 51
93.822554
  0
ARC
  8
0
  6
BYLAYER
 62
     7
 10
498.831118
 20
-597.256826
 30
0.0
 40
1.500000
 50
354.260830
 51
450.000000
  0
ARC
  8
0
  6
BYLAYER
 62
     7
 10
436.293524
 20
-598.006826
 30
0.0
 40
6.000000
 50
266.177446
 51
365.739170
  0
ARC
  8
0
  6
BYLAYER
 62
     7
 10
443.755930
 20
-597.256826
 30
0.0
 40
1.500000
 50
90.0
 51
185.73917
  0
ARC
  8
0
  6
BYLAYER
 62
     7
 10
435.793524
 20
-605.490141
 30
0.0
 40
1.5
 50
86.177446
 51
180.0
  0
ARC
  8
0
  6
BYLAYER
 62
     7
 10
458.293524
 20
-603.006826
 30
0.0
 40
3.0
 50
90.0
 51
180.0
  0
ARC
  8
0
  6
BYLAYER
 62
     7
 10
484.293524
 20
-603.006826
 30
0.0
 40
3.0
 50
0.0
 51
90.0
  0
LINE
  8
0
  6
BYLAYER
 62
     7
 10
458.293524
 20
-600.006826
 30
0.0
 11
484.293524
 21
-600.006826
 31
0.0
  0
LINE
  8
0
  6
BYLAYER
 62
     7
 10
455.293524
 20
-603.006826
 30
0.0
 11
455.293524
 21
-630.006826
 31
0.0
  0
LINE
  8
0
  6
BYLAYER
 62
     7
 10
487.293524
 20
-630.006826
 30
0.0
 11
487.293524
 21
-603.006826
 31
0.0
  0
LINE
  8
0
  6
BYLAYER
 62
     7
 10
531.793576
 20
-604.106915
 30
0.0
 11
511.293524
 21
-604.106898
 31
0.0
  0
LINE
  8
0
  6
BYLAYER
 62
     7
 10
531.793576
 20
-602.406933
 30
0.0
 11
511.293524
 21
-602.406916
 31
0.0
  0
LINE
  8
0
  6
BYLAYER
 62
     7
 10
531.793576
 20
-593.406912
 30
0.0
 11
510.813421
 21
-593.406912
 31
0.0
  0
LINE
  8
0
  6
BYLAYER
 62
     7
 10
429.293515
 20
-571.998099
 30
0.0
 11
429.293515
 21
-630.006826
 31
0.0
  0
LINE
  8
0
  6
BYLAYER
 62
     7
 10
398.293515
 20
-550.006826
 30
0.0
 11
408.293515
 21
-550.006826
 31
0.0
  0
LINE
  8
0
  6
BYLAYER
 62
     7
 10
429.293515
 20
-571.998099
 30
0.0
 11
409.276059
 21
-571.648695
 31
0.0
  0
LINE
  8
0
  6
BYLAYER
 62
     7
 10
408.293515
 20
-550.006826
 30
0.0
 11
408.293515
 21
-630.006826
 31
0.0
  0
ARC
  8
0
  6
BYLAYER
 62
     7
 10
409.293515
 20
-570.648847
 30
0.0
 40
1.000000
 50
180.000000
 51
269.000015
  0
LINE
  8
0
  6
BYLAYER
 62
     7
 10
398.293515
 20
-550.006826
 30
0.0
 11
398.293515
 21
-630.006826
 31
0.0
  0
LINE
  8
0
  6
BYLAYER
 62
     7
 10
429.293515
 20
-688.015553
 30
0.0
 11
429.293515
 21
-630.006826
 31
0.0
  0
LINE
  8
0
  6
BYLAYER
 62
     7
 10
398.293515
 20
-710.006826
 30
0.0
 11
408.293515
 21
-710.006826
 31
0.0
  0
LINE
  8
0
  6
BYLAYER
 62
     7
 10
429.293515
 20
-688.015553
 30
0.0
 11
409.276059
 21
-688.364957
 31
0.0
  0
LINE
  8
0
  6
BYLAYER
 62
     7
 10
408.293515
 20
-710.006826
 30
0.0
 11
408.293515
 21
-630.006826
 31
0.0
  0
ARC
  8
0
  6
BYLAYER
 62
     7
 10
409.293515
 20
-689.364805
 30
0.0
 40
1.0
 50
90.999990
 51
180.000005
  0
LINE
  8
0
  6
BYLAYER
 62
     7
 10
398.293515
 20
-710.006826
 30
0.0
 11
398.293515
 21
-630.006826
 31
0.0
  0
LINE
  8
0
  6
BYLAYER
 62
     7
 10
590.843576
 20
-560.556826
 30
0.0
 11
590.843576
 21
-699.456826
 31
0.0
  0
LINE
  8
0
  6
BYLAYER
 62
     1
 10
393.293670
 20
-37.007065
 30
0.0
 11
398.293646
 21
-37.007004
 31
0.0
  0
LINE
  8
0
  6
BYLAYER
 62
     1
 10
398.293646
 20
-197.006867
 30
0.0
 11
398.293646
 21
-37.007004
 31
0.0
  0
LINE
  8
0
  6
BYLAYER
 62
     1
 10
388.293646
 20
-195.006867
 30
0.0
 11
388.293646
 21
-148.726087
 31
0.0
  0
LINE
  8
0
  6
BYLAYER
 62
     1
 10
388.293646
 20
-115.095151
 30
0.0
 11
388.293646
 21
-79.529024
 31
0.0
  0
ARC
  8
0
  6
BYLAYER
 62
     1
 10
387.293646
 20
-115.095151
 30
0.0
 40
1.0
 50
333.429193
 51
360.000000
  0
LINE
  8
0
  6
BYLAYER
 62
     1
 10
388.293646
 20
-62.968890
 30
0.0
 11
388.293646
 21
-49.366761
 31
0.0
  0
ARC
  8
0
  6
BYLAYER
 62
     1
 10
390.293646
 20
-49.366761
 30
0.0
 40
2.000000
 50
90.0
 51
180.0
  0
ARC
  8
0
  6
BYLAYER
 62
     1
 10
390.293646
 20
-195.006867
 30
0.0
 40
2.000000
 50
180.000000
 51
270.000000
  0
LINE
  8
0
  6
BYLAYER
 62
     1
 10
364.293646
 20
-129.319512
 30
0.0
 11
364.293646
 21
-1.506851
 31
0.0
  0
ARC
  8
0
  6
BYLAYER
 62
     1
 10
362.293646
 20
-129.319512
 30
0.0
 40
2.0
 50
270.0
 51
360.0
  0
ARC
  8
0
  6
BYLAYER
 62
     1
 10
362.293646
 20
-1.506851
 30
0.0
 40
2.0
 50
0.0
 51
90.0
  0
LINE
  8
0
  6
BYLAYER
 62
     1
 10
382.561595
 20
-142.006851
 30
0.0
 11
362.293646
 21
-142.006851
 31
0.0
  0
ARC
  8
0
  6
BYLAYER
 62
     1
 10
362.293646
 20
-137.006851
 30
0.0
 40
5.000000
 50
180.000000
 51
270.000000
  0
LINE
  8
0
  6
BYLAYER
 62
     1
 10
362.293646
 20
0.493149
 30
0.0
 11
356.293646
 21
0.493149
 31
0.0
  0
LINE
  8
0
  6
BYLAYER
 62
     1
 10
386.455646
 20
-143.945682
 30
0.0
 11
383.561596
 21
-142.274801
 31
0.0
  0
ARC
  8
0
  6
BYLAYER
 62
     1
 10
385.455646
 20
-145.677732
 30
0.0
 40
2.0
 50
0.0
 51
59.999998
  0
ARC
  8
0
  6
BYLAYER
 62
     1
 10
382.561595
 20
-144.006851
 30
0.0
 40
2.0
 50
59.999998
 51
90.0
  0
LINE
  8
0
  6
BYLAYER
 62
     1
 10
391.293646
 20
-45.366761
 30
0.0
 11
391.293646
 21
-27.506851
 31
0.0
  0
ARC
  8
0
  6
BYLAYER
 62
     1
 10
386.293646
 20
-27.506851
 30
0.0
 40
5.000000
 50
0.0
 51
90.0
  0
ARC
  8
0
  6
BYLAYER
 62
     1
 10
393.293646
 20
-45.366761
 30
0.0
 40
2.000000
 50
180.000000
 51
270.000000
  0
ARC
  8
0
  6
BYLAYER
 62
     1
 10
393.293646
 20
-35.007065
 30
0.0
 40
2.0
 50
180.000000
 51
270.000699
  0
LINE
  8
0
  6
BYLAYER
 62
     1
 10
398.293646
 20
-197.006867
 30
0.0
 11
390.293646
 21
-197.006867
 31
0.0
  0
ARC
  8
0
  6
BYLAYER
 62
     1
 10
356.293646
 20
-135.506851
 30
0.0
 40
1.000000
 50
0.0
 51
90.0
  0
ARC
  8
0
  6
BYLAYER
 62
     1
 10
361.753397
 20
-143.985973
 30
0.0
 40
2.0
 50
15.000000
 51
85.573604
  0
LINE
  8
0
  6
BYLAYER
 62
     1
 10
363.685249
 20
-143.468334
 30
0.0
 11
371.183408
 21
-171.451843
 31
0.0
  0
LINE
  8
0
  6
BYLAYER
 62
     1
 10
387.293646
 20
-181.429501
 30
0.0
 11
372.115259
 21
-172.666256
 31
0.0
  0
ARC
  8
0
  6
BYLAYER
 62
     1
 10
373.115259
 20
-170.934205
 30
0.0
 40
2.000000
 50
195.000000
 51
240.000002
  0
ARC
  8
0
  6
BYLAYER
 62
     1
 10
386.293646
 20
-183.161552
 30
0.0
 40
2.000000
 50
0.0
 51
60.000002
  0
LINE
  8
0
  6
BYLAYER
 62
     1
 10
357.293646
 20
-137.006851
 30
0.0
 11
357.293646
 21
-132.319512
 31
0.0
  0
ARC
  8
0
  6
BYLAYER
 62
     1
 10
356.293646
 20
-132.319512
 30
0.0
 40
1.000000
 50
0.0
 51
90.0
  0
LINE
  8
0
  6
BYLAYER
 62
     1
 10
367.293646
 20
-22.506851
 30
0.0
 11
386.293646
 21
-22.506851
 31
0.0
  0
ARC
  8
0
  6
BYLAYER
 62
     1
 10
367.293646
 20
-19.506851
 30
0.0
 40
3.000000
 50
180.000000
 51
270.000000
  0
LINE
  8
0
  6
BYLAYER
 62
     1
 10
387.455646
 20
-146.738874
 30
0.0
 11
387.455646
 21
-117.242972
 31
0.0
  0
LINE
  8
0
  6
BYLAYER
 62
     1
 10
388.159640
 20
-148.226033
 30
0.0
 11
387.589652
 21
-147.238929
 31
0.0
  0
ARC
  8
0
  6
BYLAYER
 62
     1
 10
387.293646
 20
-148.726087
 30
0.0
 40
1.0
 50
0.0
 51
30.003615
  0
ARC
  8
0
  6
BYLAYER
 62
     1
 10
388.455646
 20
-146.738874
 30
0.0
 40
1.0
 50
180.000000
 51
210.003615
  0
LINE
  8
0
  6
BYLAYER
 62
     1
 10
388.188028
 20
-115.542455
 30
0.0
 11
387.561264
 21
-116.795669
 31
0.0
  0
ARC
  8
0
  6
BYLAYER
 62
     1
 10
388.455646
 20
-117.242972
 30
0.0
 40
1.0
 50
153.429193
 51
180.0
  0
LINE
  8
0
  6
BYLAYER
 62
     1
 10
398.293646
 20
-66.513393
 30
0.0
 11
393.149703
 21
-66.513393
 31
0.0
  0
LINE
  8
0
  6
BYLAYER
 62
     1
 10
398.293646
 20
-75.689013
 30
0.0
 11
393.149703
 21
-75.689013
 31
0.0
  0
LINE
  8
0
  6
BYLAYER
 62
     1
 10
393.149703
 20
-62.968890
 30
0.0
 11
388.293646
 21
-62.968890
 31
0.0
  0
LINE
  8
0
  6
BYLAYER
 62
     1
 10
393.149703
 20
-79.529024
 30
0.0
 11
388.293646
 21
-79.529024
 31
0.0
  0
LINE
  8
0
  6
BYLAYER
 62
     1
 10
393.149703
 20
-66.513393
 30
0.0
 11
393.149703
 21
-62.968890
 31
0.0
  0
LINE
  8
0
  6
BYLAYER
 62
     1
 10
393.149703
 20
-75.689013
 30
0.0
 11
393.149703
 21
-79.529024
 31
0.0
  0
LINE
  8
0
  6
BYLAYER
 62
     1
 10
388.293646
 20
-62.968890
 30
0.0
 11
388.066228
 21
-63.423864
 31
0.0
  0
LINE
  8
0
  6
BYLAYER
 62
     1
 10
388.293646
 20
-79.529024
 30
0.0
 11
388.066228
 21
-78.665911
 31
0.0
  0
LINE
  8
0
  6
BYLAYER
 62
     1
 10
388.030827
 20
-64.594814
 30
0.0
 11
385.084516
 21
-64.594814
 31
0.0
  0
LINE
  8
0
  6
BYLAYER
 62
     1
 10
388.030827
 20
-76.884733
 30
0.0
 11
385.084516
 21
-76.884733
 31
0.0
  0
LINE
  8
0
  6
BYLAYER
 62
     1
 10
388.066228
 20
-78.665911
 30
0.0
 11
388.030827
 21
-76.884733
 31
0.0
  0
LINE
  8
0
  6
BYLAYER
 62
     1
 10
388.066228
 20
-63.423864
 30
0.0
 11
388.030827
 21
-64.594814
 31
0.0
  0
LINE
  8
0
  6
BYLAYER
 62
     1
 10
366.424557
 20
-90.756851
 30
0.0
 11
385.944547
 21
-90.756851
 31
0.0
  0
ARC
  8
0
  6
BYLAYER
 62
     1
 10
385.944547
 20
-88.756851
 30
0.0
 40
2.0
 50
270.0
 51
360.0
  0
LINE
  8
0
  6
BYLAYER
 62
     1
 10
366.424557
 20
-93.256851
 30
0.0
 11
385.944547
 21
-93.256851
 31
0.0
  0
ARC
  8
0
  6
BYLAYER
 62
     1
 10
366.424557
 20
-95.256851
 30
0.0
 40
2.000000
 50
90.0
 51
180.0
  0
ARC
  8
0
  6
BYLAYER
 62
     1
 10
385.944547
 20
-95.256851
 30
0.0
 40
2.0
 50
0.0
 51
90.0
  0
ARC
  8
0
  6
BYLAYER
 62
     1
 10
366.424557
 20
-88.756851
 30
0.0
 40
2.000000
 50
180.000000
 51
270.000000
  0
LINE
  8
0
  6
BYLAYER
 62
     1
 10
345.293523
 20
-67.006826
 30
0.0
 11
345.293707
 21
-127.006750
 31
0.0
  0
LINE
  8
0
  6
BYLAYER
 62
     1
 10
346.293700
 20
-67.006826
 30
0.0
 11
346.293700
 21
-132.226243
 31
0.0
  0
LINE
  8
0
  6
BYLAYER
 62
     1
 10
348.223901
 20
-134.225024
 30
0.0
 11
356.293646
 21
-134.506826
 31
0.0
  0
ARC
  8
0
  6
BYLAYER
 62
     1
 10
348.293700
 20
-132.226243
 30
0.0
 40
2.000000
 50
180.000000
 51
268.000000
  0
LINE
  8
0
  6
BYLAYER
 62
     1
 10
345.293707
 20
-127.006750
 30
0.0
 11
345.328600
 21
-127.007968
 31
0.0
  0
ARC
  8
0
  6
BYLAYER
 62
     1
 10
345.293700
 20
-128.007359
 30
0.0
 40
1.000000
 50
0.0
 51
88.0
  0
LINE
  8
0
  6
BYLAYER
 62
     1
 10
356.293646
 20
0.493174
 30
0.0
 11
348.223901
 21
0.211372
 31
0.0
  0
ARC
  8
0
  6
BYLAYER
 62
     1
 10
348.293700
 20
-1.787409
 30
0.0
 40
2.0
 50
92.0
 51
180.0
  0
LINE
  8
0
  6
BYLAYER
 62
     1
 10
345.293707
 20
-7.352490
 30
0.0
 11
345.293521
 21
-67.006826
 31
0.0
  0
LINE
  8
0
  6
BYLAYER
 62
     1
 10
345.328600
 20
-7.351272
 30
0.0
 11
345.293707
 21
-7.352490
 31
0.0
  0
ARC
  8
0
  6
BYLAYER
 62
     1
 10
345.293700
 20
-6.351881
 30
0.0
 40
1.000000
 50
272.0
 51
360.0
  0
LINE
  8
0
  6
BYLAYER
 62
     1
 10
346.293700
 20
-1.787409
 30
0.0
 11
346.293700
 21
-67.006826
 31
0.0
  0
LINE
  8
0
  6
BYLAYER
 62
     1
 10
356.293646
 20
-134.506826
 30
0.0
 11
356.293646
 21
-67.006826
 31
0.0
  0
LINE
  8
0
  6
BYLAYER
 62
     1
 10
356.293646
 20
-67.006826
 30
0.0
 11
356.293646
 21
0.493174
 31
0.0
  0
LINE
  8
0
  6
BYLAYER
 62
     1
 10
362.293646
 20
-131.319512
 30
0.0
 11
356.293646
 21
-131.319512
 31
0.0
  0
ARC
  8
0
  6
BYLAYER
 62
     1
 10
250.293515
 20
-130.006826
 30
0.0
 40
68.000000
 50
244.344062
 51
295.655933
  0
ARC
  8
0
  6
BYLAYER
 62
     1
 10
250.293515
 20
-130.006826
 30
0.0
 40
68.000000
 50
64.344063
 51
115.655935
  0
ARC
  8
0
  6
BYLAYER
 62
     1
 10
278.994817
 20
-60.715871
 30
0.0
 40
26.999977
 50
214.712939
 51
280.286921
  0
ARC
  8
0
  6
BYLAYER
 62
     1
 10
278.994756
 20
-199.297842
 30
0.0
 40
27.000053
 50
79.712932
 51
145.286921
  0
CIRCLE
  8
0
  6
BYLAYER
 62
     1
 10
250.293515
 20
-130.006826
 30
0.0
 40
32.5
  0
CIRCLE
  8
0
  6
BYLAYER
 62
     1
 10
250.293515
 20
-130.006826
 30
0.0
 40
40.0
  0
LINE
  8
0
  6
BYLAYER
 62
     1
 10
283.293523
 20
-29.006895
 30
0.0
 11
217.293515
 21
-29.006895
 31
0.0
  0
LINE
  8
0
  6
BYLAYER
 62
     1
 10
187.293515
 20
-36.006834
 30
0.0
 11
313.293523
 21
-36.006834
 31
0.0
  0
ARC
  8
0
  6
BYLAYER
 62
     1
 10
250.293515
 20
-130.006826
 30
0.0
 40
69.000053
 50
248.368928
 51
291.631073
  0
LINE
  8
0
  6
BYLAYER
 62
     1
 10
283.293523
 20
-201.006826
 30
0.0
 11
217.293515
 21
-201.006826
 31
0.0
  0
CIRCLE
  8
0
  6
BYLAYER
 62
     1
 10
202.793515
 20
-130.006826
 30
0.0
 40
3.5
  0
ARC
  8
0
  6
BYLAYER
 62
     1
 10
202.793515
 20
-130.006826
 30
0.0
 40
4.0
 50
270.0
 51
540.0
  0
ARC
  8
0
  6
BYLAYER
 62
     1
 10
250.293515
 20
-130.006826
 30
0.0
 40
68.0
 50
154.344066
 51
205.655937
  0
ARC
  8
0
  6
BYLAYER
 62
     1
 10
250.293515
 20
-130.006826
 30
0.0
 40
55.000004
 50
174.735596
 51
185.264401
  0
ARC
  8
0
  6
BYLAYER
 62
     1
 10
250.293515
 20
-130.006826
 30
0.0
 40
69.000053
 50
158.368960
 51
201.631037
  0
LINE
  8
0
  6
BYLAYER
 62
     1
 10
179.293515
 20
-163.006826
 30
0.0
 11
179.293515
 21
-99.006826
 31
0.0
  0
LINE
  8
0
  6
BYLAYER
 62
     1
 10
190.282803
 20
-160.514425
 30
0.0
 11
205.001797
 21
-164.458364
 31
0.0
  0
LINE
  8
0
  6
BYLAYER
 62
     1
 10
216.293515
 20
-202.006826
 30
0.0
 11
180.293515
 21
-202.006826
 31
0.0
  0
LINE
  8
0
  6
BYLAYER
 62
     1
 10
186.586407
 20
-193.713949
 30
0.0
 11
193.586407
 21
-186.713918
 31
0.0
  0
LINE
  8
0
  6
BYLAYER
 62
     1
 10
187.293515
 20
-194.006826
 30
0.0
 11
224.120862
 21
-194.006826
 31
0.0
  0
LINE
  8
0
  6
BYLAYER
 62
     1
 10
178.293515
 20
-200.006826
 30
0.0
 11
178.293515
 21
-164.006826
 31
0.0
  0
LINE
  8
0
  6
BYLAYER
 62
     1
 10
186.293515
 20
-193.006826
 30
0.0
 11
186.293515
 21
-164.006826
 31
0.0
  0
LINE
  8
0
  6
BYLAYER
 62
     1
 10
180.293515
 20
-202.006826
 30
0.0
 11
178.293515
 21
-200.006826
 31
0.0
  0
ARC
  8
0
  6
BYLAYER
 62
     1
 10
187.293515
 20
-193.006826
 30
0.0
 40
1.000000
 50
180.000000
 51
269.999996
  0
LINE
  8
0
  6
BYLAYER
 62
     1
 10
186.293515
 20
-156.179464
 30
0.0
 11
186.293515
 21
-164.006826
 31
0.0
  0
LINE
  8
0
  6
BYLAYER
 62
     1
 10
186.293515
 20
-184.256826
 30
0.0
 11
178.293515
 21
-184.256826
 31
0.0
  0
LINE
  8
0
  6
BYLAYER
 62
     1
 10
186.293515
 20
-175.756826
 30
0.0
 11
178.293515
 21
-175.756826
 31
0.0
  0
LINE
  8
0
  6
BYLAYER
 62
     1
 10
186.293515
 20
-163.006826
 30
0.0
 11
179.293515
 21
-163.006826
 31
0.0
  0
LINE
  8
0
  6
BYLAYER
 62
     1
 10
186.293515
 20
-164.006826
 30
0.0
 11
178.293515
 21
-164.006826
 31
0.0
  0
LINE
  8
0
  6
BYLAYER
 62
     1
 10
179.293515
 20
-163.006826
 30
0.0
 11
178.293515
 21
-164.006826
 31
0.0
  0
ARC
  8
0
  6
BYLAYER
 62
     1
 10
184.293515
 20
-156.179464
 30
0.0
 40
2.000006
 50
0.0
 51
21.631513
  0
ARC
  8
0
  6
BYLAYER
 62
     1
 10
190.800442
 20
-158.582571
 30
0.0
 40
2.000000
 50
205.655930
 51
254.999993
  0
ARC
  8
0
  6
BYLAYER
 62
     1
 10
221.717770
 20
-189.499899
 30
0.0
 40
2.000000
 50
195.000002
 51
244.344065
  0
LINE
  8
0
  6
BYLAYER
 62
     1
 10
196.043515
 20
-202.006826
 30
0.0
 11
196.043515
 21
-194.006826
 31
0.0
  0
LINE
  8
0
  6
BYLAYER
 62
     1
 10
204.543515
 20
-202.006826
 30
0.0
 11
204.543515
 21
-194.006826
 31
0.0
  0
LINE
  8
0
  6
BYLAYER
 62
     1
 10
217.293515
 20
-194.006826
 30
0.0
 11
217.293515
 21
-201.006826
 31
0.0
  0
LINE
  8
0
  6
BYLAYER
 62
     1
 10
216.293515
 20
-202.006826
 30
0.0
 11
216.293515
 21
-194.006826
 31
0.0
  0
LINE
  8
0
  6
BYLAYER
 62
     1
 10
217.293515
 20
-201.006826
 30
0.0
 11
216.293515
 21
-202.006826
 31
0.0
  0
ARC
  8
0
  6
BYLAYER
 62
     1
 10
224.120862
 20
-196.006826
 30
0.0
 40
2.0
 50
68.368968
 51
90.000000
  0
ARC
  8
0
  6
BYLAYER
 62
     1
 10
221.592221
 20
-199.297781
 30
0.0
 40
26.999977
 50
34.712944
 51
100.286927
  0
CIRCLE
  8
0
  6
BYLAYER
 62
     1
 10
216.705869
 20
-163.594411
 30
0.0
 40
3.5
  0
ARC
  8
0
  6
BYLAYER
 62
     1
 10
216.705869
 20
-163.594411
 30
0.0
 40
4.0
 50
270.0
 51
540.0
  0
ARC
  8
0
  6
BYLAYER
 62
     1
 10
181.002499
 20
-158.708059
 30
0.0
 40
26.999992
 50
349.712926
 51
415.286928
  0
LINE
  8
0
  6
BYLAYER
 62
     1
 10
193.293515
 20
-161.321142
 30
0.0
 11
193.293515
 21
-186.006826
 31
0.0
  0
ARC
  8
0
  6
BYLAYER
 62
     1
 10
250.293515
 20
-130.006826
 30
0.0
 40
56.500000
 50
218.457822
 51
231.542171
  0
ARC
  8
0
  6
BYLAYER
 62
     1
 10
250.293515
 20
-130.006826
 30
0.0
 40
59.5
 50
214.838327
 51
235.161670
  0
ARC
  8
0
  6
BYLAYER
 62
     1
 10
250.293515
 20
-130.006826
 30
0.0
 40
55.000015
 50
219.735573
 51
230.264392
  0
LINE
  8
0
  6
BYLAYER
 62
     1
 10
218.979199
 20
-187.006826
 30
0.0
 11
194.293515
 21
-187.006826
 31
0.0
  0
ARC
  8
0
  6
BYLAYER
 62
     1
 10
194.293515
 20
-186.006826
 30
0.0
 40
1.000000
 50
180.000000
 51
269.999996
  0
ARC
  8
0
  6
BYLAYER
 62
     1
 10
199.816342
 20
-165.139486
 30
0.0
 40
2.000000
 50
34.838329
 51
75.000002
  0
ARC
  8
0
  6
BYLAYER
 62
     1
 10
204.484158
 20
-166.390218
 30
0.0
 40
2.000000
 50
38.457824
 51
74.999999
  0
ARC
  8
0
  6
BYLAYER
 62
     1
 10
209.536374
 20
-163.886831
 30
0.0
 40
2.000036
 50
169.713849
 51
219.735682
  0
LINE
  8
0
  6
BYLAYER
 62
     1
 10
219.785916
 20
-190.017538
 30
0.0
 11
215.841977
 21
-175.298574
 31
0.0
  0
LINE
  8
0
  6
BYLAYER
 62
     1
 10
218.455350
 20
-187.006826
 30
0.0
 11
217.361554
 21
-187.006826
 31
0.0
  0
ARC
  8
0
  6
BYLAYER
 62
     1
 10
215.160855
 20
-180.484029
 30
0.0
 40
2.000000
 50
14.999997
 51
55.161670
  0
ARC
  8
0
  6
BYLAYER
 62
     1
 10
213.910123
 20
-175.816213
 30
0.0
 40
2.0
 50
15.000000
 51
51.542175
  0
ARC
  8
0
  6
BYLAYER
 62
     1
 10
216.413510
 20
-170.763967
 30
0.0
 40
1.999976
 50
230.263381
 51
280.286785
  0
ARC
  8
0
  6
BYLAYER
 62
     1
 10
197.517087
 20
-134.869680
 30
0.0
 40
1.999986
 50
185.263390
 51
235.286794
  0
CIRCLE
  8
0
  6
BYLAYER
 62
     1
 10
250.293515
 20
-177.506826
 30
0.0
 40
3.5
  0
ARC
  8
0
  6
BYLAYER
 62
     1
 10
250.293515
 20
-177.506826
 30
0.0
 40
4.0
 50
270.0
 51
540.0
  0
ARC
  8
0
  6
BYLAYER
 62
     1
 10
250.293515
 20
-130.006826
 30
0.0
 40
55.000004
 50
264.735564
 51
275.264437
  0
ARC
  8
0
  6
BYLAYER
 62
     1
 10
245.430661
 20
-182.783254
 30
0.0
 40
2.000036
 50
214.713854
 51
264.735673
  0
ARC
  8
0
  6
BYLAYER
 62
     1
 10
255.156369
 20
-182.783315
 30
0.0
 40
1.999952
 50
275.263399
 51
325.286776
  0
LINE
  8
0
  6
BYLAYER
 62
     1
 10
190.282803
 20
-99.499227
 30
0.0
 11
205.001797
 21
-95.555288
 31
0.0
  0
LINE
  8
0
  6
BYLAYER
 62
     1
 10
216.293515
 20
-28.006834
 30
0.0
 11
180.293515
 21
-28.006834
 31
0.0
  0
LINE
  8
0
  6
BYLAYER
 62
     1
 10
187.293515
 20
-86.006765
 30
0.0
 11
201.793500
 21
-86.006765
 31
0.0
  0
LINE
  8
0
  6
BYLAYER
 62
     1
 10
201.793500
 20
-88.006765
 30
0.0
 11
187.293515
 21
-88.006765
 31
0.0
  0
LINE
  8
0
  6
BYLAYER
 62
     1
 10
187.293515
 20
-78.006765
 30
0.0
 11
214.293500
 21
-78.006765
 31
0.0
  0
LINE
  8
0
  6
BYLAYER
 62
     1
 10
214.293500
 20
-76.006765
 30
0.0
 11
187.293515
 21
-76.006765
 31
0.0
  0
LINE
  8
0
  6
BYLAYER
 62
     1
 10
216.793500
 20
-68.006765
 30
0.0
 11
187.293515
 21
-68.006765
 31
0.0
  0
LINE
  8
0
  6
BYLAYER
 62
     1
 10
187.293515
 20
-66.006765
 30
0.0
 11
216.793500
 21
-66.006765
 31
0.0
  0
LINE
  8
0
  6
BYLAYER
 62
     1
 10
178.293515
 20
-30.006834
 30
0.0
 11
178.293515
 21
-97.694814
 31
0.0
  0
LINE
  8
0
  6
BYLAYER
 62
     1
 10
186.293515
 20
-37.006834
 30
0.0
 11
186.293515
 21
-103.834188
 31
0.0
  0
ARC
  8
0
  6
BYLAYER
 62
     1
 10
187.293515
 20
-75.006765
 30
0.0
 40
1.000000
 50
180.000000
 51
269.999996
  0
LINE
  8
0
  6
BYLAYER
 62
     1
 10
179.293515
 20
-67.006826
 30
0.0
 11
179.293515
 21
-99.006826
 31
0.0
  0
ARC
  8
0
  6
BYLAYER
 62
     1
 10
184.293515
 20
-103.834188
 30
0.0
 40
2.000006
 50
338.368473
 51
360.000000
  0
LINE
  8
0
  6
BYLAYER
 62
     1
 10
178.293515
 20
-97.694814
 30
0.0
 11
179.293515
 21
-97.729726
 31
0.0
  0
LINE
  8
0
  6
BYLAYER
 62
     1
 10
186.293515
 20
-97.489492
 30
0.0
 11
186.293515
 21
-99.733572
 31
0.0
  0
ARC
  8
0
  6
BYLAYER
 62
     1
 10
190.800442
 20
-101.431081
 30
0.0
 40
2.0
 50
105.000003
 51
154.344066
  0
ARC
  8
0
  6
BYLAYER
 62
     1
 10
187.293515
 20
-85.006765
 30
0.0
 40
1.000000
 50
180.000000
 51
269.999996
  0
ARC
  8
0
  6
BYLAYER
 62
     1
 10
187.293515
 20
-89.006765
 30
0.0
 40
1.0
 50
90.0
 51
180.000003
  0
ARC
  8
0
  6
BYLAYER
 62
     1
 10
187.293515
 20
-79.006765
 30
0.0
 40
1.0
 50
90.0
 51
180.000003
  0
LINE
  8
0
  6
BYLAYER
 62
     1
 10
186.293515
 20
-67.006826
 30
0.0
 11
179.293515
 21
-67.006826
 31
0.0
  0
LINE
  8
0
  6
BYLAYER
 62
     1
 10
186.293515
 20
-66.006826
 30
0.0
 11
178.293515
 21
-66.006826
 31
0.0
  0
LINE
  8
0
  6
BYLAYER
 62
     1
 10
179.293515
 20
-67.006826
 30
0.0
 11
178.293515
 21
-66.006826
 31
0.0
  0
ARC
  8
0
  6
BYLAYER
 62
     1
 10
187.293515
 20
-69.006765
 30
0.0
 40
1.0
 50
90.0
 51
180.000003
  0
ARC
  8
0
  6
BYLAYER
 62
     1
 10
187.293515
 20
-65.006765
 30
0.0
 40
1.000000
 50
180.000000
 51
269.999996
  0
LINE
  8
0
  6
BYLAYER
 62
     1
 10
186.293515
 20
-54.256826
 30
0.0
 11
178.293515
 21
-54.256826
 31
0.0
  0
LINE
  8
0
  6
BYLAYER
 62
     1
 10
186.293515
 20
-45.756826
 30
0.0
 11
178.293515
 21
-45.756826
 31
0.0
  0
ARC
  8
0
  6
BYLAYER
 62
     1
 10
187.293515
 20
-37.006834
 30
0.0
 40
1.000000
 50
90.0
 51
180.000003
  0
LINE
  8
0
  6
BYLAYER
 62
     1
 10
180.293515
 20
-28.006834
 30
0.0
 11
178.293515
 21
-30.006834
 31
0.0
  0
LINE
  8
0
  6
BYLAYER
 62
     1
 10
215.841977
 20
-84.715108
 30
0.0
 11
219.785916
 21
-69.996114
 31
0.0
  0
ARC
  8
0
  6
BYLAYER
 62
     1
 10
250.293515
 20
-130.006826
 30
0.0
 40
55.000004
 50
84.735566
 51
95.264432
  0
ARC
  8
0
  6
BYLAYER
 62
     1
 10
255.156369
 20
-77.230398
 30
0.0
 40
2.000036
 50
34.713846
 51
84.735689
  0
ARC
  8
0
  6
BYLAYER
 62
     1
 10
245.430661
 20
-77.230337
 30
0.0
 40
1.999952
 50
95.263360
 51
145.286798
  0
ARC
  8
0
  6
BYLAYER
 62
     1
 10
221.592282
 20
-60.715810
 30
0.0
 40
26.999992
 50
259.712889
 51
325.286912
  0
ARC
  8
0
  6
BYLAYER
 62
     1
 10
181.002560
 20
-101.305532
 30
0.0
 40
26.999977
 50
304.712934
 51
370.286924
  0
ARC
  8
0
  6
BYLAYER
 62
     1
 10
197.517087
 20
-125.143972
 30
0.0
 40
2.000036
 50
124.713845
 51
174.735678
  0
ARC
  8
0
  6
BYLAYER
 62
     1
 10
250.293515
 20
-130.006826
 30
0.0
 40
56.500000
 50
128.457827
 51
141.542176
  0
ARC
  8
0
  6
BYLAYER
 62
     1
 10
250.293515
 20
-130.006826
 30
0.0
 40
59.5
 50
124.838332
 51
145.161674
  0
ARC
  8
0
  6
BYLAYER
 62
     1
 10
250.293515
 20
-130.006826
 30
0.0
 40
55.000015
 50
129.735577
 51
140.264355
  0
ARC
  8
0
  6
BYLAYER
 62
     1
 10
199.816342
 20
-94.874166
 30
0.0
 40
2.000000
 50
285.000001
 51
325.161674
  0
ARC
  8
0
  6
BYLAYER
 62
     1
 10
204.484158
 20
-93.623434
 30
0.0
 40
2.0
 50
284.999991
 51
321.542165
  0
ARC
  8
0
  6
BYLAYER
 62
     1
 10
209.536374
 20
-96.126821
 30
0.0
 40
1.999976
 50
140.263385
 51
190.286789
  0
ARC
  8
0
  6
BYLAYER
 62
     1
 10
201.793500
 20
-87.006765
 30
0.0
 40
1.0
 50
270.0
 51
450.000005
  0
ARC
  8
0
  6
BYLAYER
 62
     1
 10
216.705869
 20
-96.419241
 30
0.0
 40
4.000000
 50
270.0
 51
540.0
  0
CIRCLE
  8
0
  6
BYLAYER
 62
     1
 10
216.705869
 20
-96.419241
 30
0.0
 40
3.5
  0
ARC
  8
0
  6
BYLAYER
 62
     1
 10
213.910123
 20
-84.197469
 30
0.0
 40
2.0
 50
308.457838
 51
345.000013
  0
ARC
  8
0
  6
BYLAYER
 62
     1
 10
216.413510
 20
-89.249685
 30
0.0
 40
2.000036
 50
79.713833
 51
129.735659
  0
ARC
  8
0
  6
BYLAYER
 62
     1
 10
214.293500
 20
-77.006765
 30
0.0
 40
1.0
 50
270.0
 51
450.000005
  0
ARC
  8
0
  6
BYLAYER
 62
     1
 10
215.160855
 20
-79.529653
 30
0.0
 40
2.0
 50
304.838337
 51
345.000010
  0
ARC
  8
0
  6
BYLAYER
 62
     1
 10
215.160855
 20
-79.529653
 30
0.0
 40
2.0
 50
304.838340
 51
345.000013
  0
CIRCLE
  8
0
  6
BYLAYER
 62
     1
 10
250.293515
 20
-82.506826
 30
0.0
 40
3.5
  0
ARC
  8
0
  6
BYLAYER
 62
     1
 10
250.293515
 20
-82.506826
 30
0.0
 40
4.0
 50
270.0
 51
540.0
  0
ARC
  8
0
  6
BYLAYER
 62
     1
 10
221.717770
 20
-70.513753
 30
0.0
 40
2.000000
 50
115.655931
 51
164.999994
  0
ARC
  8
0
  6
BYLAYER
 62
     1
 10
216.793500
 20
-67.006765
 30
0.0
 40
1.0
 50
270.0
 51
450.000005
  0
LINE
  8
0
  6
BYLAYER
 62
     1
 10
204.543515
 20
-36.006834
 30
0.0
 11
204.543515
 21
-28.006834
 31
0.0
  0
LINE
  8
0
  6
BYLAYER
 62
     1
 10
196.043515
 20
-36.006834
 30
0.0
 11
196.043515
 21
-28.006834
 31
0.0
  0
LINE
  8
0
  6
BYLAYER
 62
     1
 10
216.293515
 20
-36.006834
 30
0.0
 11
216.293515
 21
-28.006834
 31
0.0
  0
LINE
  8
0
  6
BYLAYER
 62
     1
 10
217.293515
 20
-36.006834
 30
0.0
 11
217.293515
 21
-29.006834
 31
0.0
  0
LINE
  8
0
  6
BYLAYER
 62
     1
 10
216.293515
 20
-28.006834
 30
0.0
 11
217.293515
 21
-29.006834
 31
0.0
  0
CIRCLE
  8
0
  6
BYLAYER
 62
     1
 10
297.793523
 20
-130.006826
 30
0.0
 40
3.5
  0
ARC
  8
0
  6
BYLAYER
 62
     1
 10
297.793523
 20
-130.006826
 30
0.0
 40
4.0
 50
270.0
 51
540.0
  0
ARC
  8
0
  6
BYLAYER
 62
     1
 10
250.293515
 20
-130.006826
 30
0.0
 40
68.000000
 50
334.344071
 51
385.655942
  0
ARC
  8
0
  6
BYLAYER
 62
     1
 10
250.293515
 20
-130.006826
 30
0.0
 40
55.000004
 50
354.735601
 51
365.264402
  0
ARC
  8
0
  6
BYLAYER
 62
     1
 10
250.293515
 20
-130.006826
 30
0.0
 40
69.000038
 50
338.368965
 51
381.631042
  0
LINE
  8
0
  6
BYLAYER
 62
     1
 10
321.293523
 20
-163.006826
 30
0.0
 11
321.293523
 21
-112.006826
 31
0.0
  0
ARC
  8
0
  6
BYLAYER
 62
     1
 10
278.869267
 20
-189.499899
 30
0.0
 40
2.000000
 50
295.655950
 51
345.000013
  0
LINE
  8
0
  6
BYLAYER
 62
     1
 10
322.293523
 20
-200.006826
 30
0.0
 11
322.293523
 21
-164.006826
 31
0.0
  0
LINE
  8
0
  6
BYLAYER
 62
     1
 10
314.000615
 20
-193.713949
 30
0.0
 11
307.293523
 21
-187.006826
 31
0.0
  0
LINE
  8
0
  6
BYLAYER
 62
     1
 10
314.293523
 20
-193.006826
 30
0.0
 11
314.293523
 21
-156.179464
 31
0.0
  0
LINE
  8
0
  6
BYLAYER
 62
     1
 10
284.293523
 20
-202.006826
 30
0.0
 11
320.293523
 21
-202.006826
 31
0.0
  0
LINE
  8
0
  6
BYLAYER
 62
     1
 10
276.466161
 20
-194.006826
 30
0.0
 11
313.293523
 21
-194.006826
 31
0.0
  0
ARC
  8
0
  6
BYLAYER
 62
     1
 10
276.466161
 20
-196.006826
 30
0.0
 40
2.000002
 50
90.0
 51
111.631025
  0
LINE
  8
0
  6
BYLAYER
 62
     1
 10
283.293523
 20
-194.006826
 30
0.0
 11
283.293523
 21
-201.006826
 31
0.0
  0
LINE
  8
0
  6
BYLAYER
 62
     1
 10
284.293523
 20
-202.006826
 30
0.0
 11
284.293523
 21
-194.006826
 31
0.0
  0
LINE
  8
0
  6
BYLAYER
 62
     1
 10
283.293523
 20
-201.006826
 30
0.0
 11
284.293523
 21
-202.006826
 31
0.0
  0
LINE
  8
0
  6
BYLAYER
 62
     1
 10
296.043492
 20
-202.006826
 30
0.0
 11
296.043492
 21
-194.006826
 31
0.0
  0
LINE
  8
0
  6
BYLAYER
 62
     1
 10
304.543492
 20
-202.006826
 30
0.0
 11
304.543492
 21
-194.006826
 31
0.0
  0
ARC
  8
0
  6
BYLAYER
 62
     1
 10
313.293523
 20
-193.006826
 30
0.0
 40
1.000000
 50
270.0
 51
360.000003
  0
LINE
  8
0
  6
BYLAYER
 62
     1
 10
320.293523
 20
-202.006826
 30
0.0
 11
322.293523
 21
-200.006826
 31
0.0
  0
LINE
  8
0
  6
BYLAYER
 62
     1
 10
310.304234
 20
-160.514425
 30
0.0
 11
295.585240
 21
-164.458364
 31
0.0
  0
CIRCLE
  8
0
  6
BYLAYER
 62
     1
 10
283.881169
 20
-163.594411
 30
0.0
 40
3.5
  0
ARC
  8
0
  6
BYLAYER
 62
     1
 10
283.881169
 20
-163.594411
 30
0.0
 40
4.0
 50
270.0
 51
540.0
  0
ARC
  8
0
  6
BYLAYER
 62
     1
 10
319.584477
 20
-158.708120
 30
0.0
 40
26.999977
 50
124.712957
 51
190.286926
  0
LINE
  8
0
  6
BYLAYER
 62
     1
 10
307.293523
 20
-161.321142
 30
0.0
 11
307.293523
 21
-187.006826
 31
0.0
  0
ARC
  8
0
  6
BYLAYER
 62
     1
 10
250.293515
 20
-130.006826
 30
0.0
 40
56.500000
 50
308.457818
 51
321.542167
  0
ARC
  8
0
  6
BYLAYER
 62
     1
 10
250.293515
 20
-130.006826
 30
0.0
 40
59.5
 50
304.838337
 51
325.161679
  0
ARC
  8
0
  6
BYLAYER
 62
     1
 10
250.293515
 20
-130.006826
 30
0.0
 40
55.000015
 50
309.735582
 51
320.264428
  0
LINE
  8
0
  6
BYLAYER
 62
     1
 10
307.293523
 20
-187.006826
 30
0.0
 11
281.607838
 21
-187.006826
 31
0.0
  0
LINE
  8
0
  6
BYLAYER
 62
     1
 10
284.745061
 20
-175.298574
 30
0.0
 11
280.801122
 21
-190.017538
 31
0.0
  0
ARC
  8
0
  6
BYLAYER
 62
     1
 10
285.426183
 20
-180.484029
 30
0.0
 40
2.0
 50
124.838332
 51
165.000005
  0
ARC
  8
0
  6
BYLAYER
 62
     1
 10
286.676915
 20
-175.816213
 30
0.0
 40
2.000000
 50
128.457827
 51
165.000001
  0
ARC
  8
0
  6
BYLAYER
 62
     1
 10
284.173528
 20
-170.763967
 30
0.0
 40
1.999976
 50
259.713845
 51
309.735692
  0
ARC
  8
0
  6
BYLAYER
 62
     1
 10
291.050664
 20
-163.886831
 30
0.0
 40
1.999976
 50
320.263390
 51
370.286794
  0
ARC
  8
0
  6
BYLAYER
 62
     1
 10
296.102879
 20
-166.390218
 30
0.0
 40
2.0
 50
105.000000
 51
141.542174
  0
ARC
  8
0
  6
BYLAYER
 62
     1
 10
300.770695
 20
-165.139486
 30
0.0
 40
2.000000
 50
104.999996
 51
145.161669
  0
ARC
  8
0
  6
BYLAYER
 62
     1
 10
303.069951
 20
-134.869680
 30
0.0
 40
2.000036
 50
304.713863
 51
354.735683
  0
LINE
  8
0
  6
BYLAYER
 62
     1
 10
314.293523
 20
-184.256826
 30
0.0
 11
322.293523
 21
-184.256826
 31
0.0
  0
LINE
  8
0
  6
BYLAYER
 62
     1
 10
314.293523
 20
-175.756826
 30
0.0
 11
322.293523
 21
-175.756826
 31
0.0
  0
LINE
  8
0
  6
BYLAYER
 62
     1
 10
321.293523
 20
-163.006826
 30
0.0
 11
314.293523
 21
-163.006826
 31
0.0
  0
LINE
  8
0
  6
BYLAYER
 62
     1
 10
314.293523
 20
-164.006826
 30
0.0
 11
322.293523
 21
-164.006826
 31
0.0
  0
LINE
  8
0
  6
BYLAYER
 62
     1
 10
321.293523
 20
-163.006826
 30
0.0
 11
322.293523
 21
-164.006826
 31
0.0
  0
ARC
  8
0
  6
BYLAYER
 62
     1
 10
309.786595
 20
-158.582571
 30
0.0
 40
2.000000
 50
285.000008
 51
334.344071
  0
ARC
  8
0
  6
BYLAYER
 62
     1
 10
316.293523
 20
-156.179464
 30
0.0
 40
2.000014
 50
158.368564
 51
180.000005
  0
LINE
  8
0
  6
BYLAYER
 62
     1
 10
280.801122
 20
-69.996114
 30
0.0
 11
284.745061
 21
-84.715108
 31
0.0
  0
LINE
  8
0
  6
BYLAYER
 62
     1
 10
324.293523
 20
-106.482687
 30
0.0
 11
324.293523
 21
-28.506834
 31
0.0
  0
ARC
  8
0
  6
BYLAYER
 62
     1
 10
312.293523
 20
-76.287405
 30
0.0
 40
1.999999
 50
22.218640
 51
87.999276
  0
LINE
  8
0
  6
BYLAYER
 62
     1
 10
314.293523
 20
-37.006834
 30
0.0
 11
314.293523
 21
-103.834188
 31
0.0
  0
ARC
  8
0
  6
BYLAYER
 62
     1
 10
313.293523
 20
-75.006765
 30
0.0
 40
1.000000
 50
270.0
 51
359.999982
  0
LINE
  8
0
  6
BYLAYER
 62
     1
 10
321.293523
 20
-67.006826
 30
0.0
 11
321.293523
 21
-112.006826
 31
0.0
  0
LINE
  8
0
  6
BYLAYER
 62
     1
 10
295.585240
 20
-95.555288
 30
0.0
 11
310.304234
 21
-99.499227
 31
0.0
  0
LINE
  8
0
  6
BYLAYER
 62
     1
 10
286.293523
 20
-78.006765
 30
0.0
 11
313.293523
 21
-78.006765
 31
0.0
  0
LINE
  8
0
  6
BYLAYER
 62
     1
 10
313.293523
 20
-76.006765
 30
0.0
 11
286.293523
 21
-76.006765
 31
0.0
  0
LINE
  8
0
  6
BYLAYER
 62
     1
 10
313.293523
 20
-88.006765
 30
0.0
 11
298.793523
 21
-88.006765
 31
0.0
  0
LINE
  8
0
  6
BYLAYER
 62
     1
 10
298.793523
 20
-86.006765
 30
0.0
 11
313.293523
 21
-86.006765
 31
0.0
  0
ARC
  8
0
  6
BYLAYER
 62
     1
 10
319.584477
 20
-101.305593
 30
0.0
 40
26.999933
 50
169.712920
 51
202.499864
  0
ARC
  8
0
  6
BYLAYER
 62
     1
 10
294.655095
 20
-103.182241
 30
0.0
 40
2.000020
 50
184.305374
 51
253.817425
  0
ARC
  8
0
  6
BYLAYER
 62
     1
 10
291.868077
 20
-112.786031
 30
0.0
 40
8.000001
 50
331.182513
 51
433.817252
  0
ARC
  8
0
  6
BYLAYER
 62
     1
 10
319.584477
 20
-101.305593
 30
0.0
 40
26.999926
 50
202.499864
 51
235.287067
  0
ARC
  8
0
  6
BYLAYER
 62
     1
 10
300.629674
 20
-117.606252
 30
0.0
 40
2.000012
 50
151.182317
 51
220.695174
  0
ARC
  8
0
  6
BYLAYER
 62
     1
 10
303.069951
 20
-125.143972
 30
0.0
 40
1.999986
 50
5.263381
 51
55.286813
  0
ARC
  8
0
  6
BYLAYER
 62
     1
 10
250.293515
 20
-130.006826
 30
0.0
 40
56.5
 50
38.457824
 51
51.542173
  0
ARC
  8
0
  6
BYLAYER
 62
     1
 10
250.293515
 20
-130.006826
 30
0.0
 40
59.500000
 50
34.838329
 51
55.161672
  0
ARC
  8
0
  6
BYLAYER
 62
     1
 10
250.293515
 20
-130.006826
 30
0.0
 40
55.000015
 50
39.735575
 51
50.264424
  0
CIRCLE
  8
0
  6
BYLAYER
 62
     1
 10
283.881169
 20
-96.419241
 30
0.0
 40
3.5
  0
ARC
  8
0
  6
BYLAYER
 62
     1
 10
283.881169
 20
-96.419241
 30
0.0
 40
4.000000
 50
270.0
 51
540.0
  0
ARC
  8
0
  6
BYLAYER
 62
     1
 10
286.676915
 20
-84.197469
 30
0.0
 40
2.000000
 50
195.000002
 51
231.542177
  0
ARC
  8
0
  6
BYLAYER
 62
     1
 10
284.173528
 20
-89.249685
 30
0.0
 40
1.999976
 50
50.263400
 51
100.286773
  0
ARC
  8
0
  6
BYLAYER
 62
     1
 10
285.426183
 20
-79.529653
 30
0.0
 40
2.0
 50
194.999992
 51
235.161665
  0
ARC
  8
0
  6
BYLAYER
 62
     1
 10
286.293523
 20
-77.006765
 30
0.0
 40
1.0
 50
90.0
 51
270.000005
  0
ARC
  8
0
  6
BYLAYER
 62
     1
 10
291.050664
 20
-96.126821
 30
0.0
 40
2.000036
 50
349.713854
 51
399.735674
  0
ARC
  8
0
  6
BYLAYER
 62
     1
 10
296.102879
 20
-93.623434
 30
0.0
 40
2.0
 50
218.457822
 51
254.999997
  0
ARC
  8
0
  6
BYLAYER
 62
     1
 10
300.770695
 20
-94.874166
 30
0.0
 40
2.0
 50
214.838327
 51
255.000000
  0
ARC
  8
0
  6
BYLAYER
 62
     1
 10
298.793523
 20
-87.006765
 30
0.0
 40
1.0
 50
90.0
 51
270.000005
  0
ARC
  8
0
  6
BYLAYER
 62
     1
 10
316.293523
 20
-103.834188
 30
0.0
 40
2.0
 50
180.000000
 51
201.631592
  0
LINE
  8
0
  6
BYLAYER
 62
     1
 10
324.293523
 20
-106.482687
 30
0.0
 11
321.293523
 21
-106.587453
 31
0.0
  0
ARC
  8
0
  6
BYLAYER
 62
     1
 10
309.786595
 20
-101.431081
 30
0.0
 40
2.0
 50
25.655936
 51
74.999999
  0
ARC
  8
0
  6
BYLAYER
 62
     1
 10
313.293523
 20
-89.006765
 30
0.0
 40
1.0
 50
0.0
 51
90.000016
  0
ARC
  8
0
  6
BYLAYER
 62
     1
 10
313.293523
 20
-85.006765
 30
0.0
 40
1.000000
 50
270.0
 51
359.999982
  0
ARC
  8
0
  6
BYLAYER
 62
     1
 10
313.293523
 20
-79.006765
 30
0.0
 40
1.0
 50
0.0
 51
90.000016
  0
LINE
  8
0
  6
BYLAYER
 62
     1
 10
323.793523
 20
-28.006834
 30
0.0
 11
284.293523
 21
-28.006834
 31
0.0
  0
LINE
  8
0
  6
BYLAYER
 62
     1
 10
306.223698
 20
-74.074239
 30
0.0
 11
312.363347
 21
-74.288625
 31
0.0
  0
LINE
  8
0
  6
BYLAYER
 62
     1
 10
306.223698
 20
-59.939413
 30
0.0
 11
312.363347
 21
-59.725027
 31
0.0
  0
LINE
  8
0
  6
BYLAYER
 62
     1
 10
303.293523
 20
-68.006765
 30
0.0
 11
283.793523
 21
-68.006765
 31
0.0
  0
LINE
  8
0
  6
BYLAYER
 62
     1
 10
283.793523
 20
-66.006765
 30
0.0
 11
303.293523
 21
-66.006765
 31
0.0
  0
ARC
  8
0
  6
BYLAYER
 62
     1
 10
283.793523
 20
-67.006765
 30
0.0
 40
1.0
 50
90.0
 51
270.000005
  0
ARC
  8
0
  6
BYLAYER
 62
     1
 10
278.869267
 20
-70.513753
 30
0.0
 40
2.000000
 50
15.000000
 51
64.344063
  0
ARC
  8
0
  6
BYLAYER
 62
     1
 10
306.293523
 20
-61.938192
 30
0.0
 40
1.999999
 50
92.000722
 51
180.000005
  0
ARC
  8
0
  6
BYLAYER
 62
     1
 10
303.293523
 20
-69.006765
 30
0.0
 40
1.0
 50
0.0
 51
90.000016
  0
LINE
  8
0
  6
BYLAYER
 62
     1
 10
304.293523
 20
-61.938192
 30
0.0
 11
304.293523
 21
-72.075460
 31
0.0
  0
ARC
  8
0
  6
BYLAYER
 62
     1
 10
306.293523
 20
-72.075460
 30
0.0
 40
2.0
 50
180.000000
 51
267.999269
  0
ARC
  8
0
  6
BYLAYER
 62
     1
 10
303.293523
 20
-65.006765
 30
0.0
 40
1.000000
 50
270.0
 51
359.999982
  0
LINE
  8
0
  6
BYLAYER
 62
     1
 10
284.293523
 20
-28.006834
 30
0.0
 11
284.293523
 21
-36.006834
 31
0.0
  0
LINE
  8
0
  6
BYLAYER
 62
     1
 10
283.293523
 20
-29.006834
 30
0.0
 11
283.293523
 21
-36.006834
 31
0.0
  0
LINE
  8
0
  6
BYLAYER
 62
     1
 10
283.293523
 20
-29.006834
 30
0.0
 11
284.293523
 21
-28.006834
 31
0.0
  0
LINE
  8
0
  6
BYLAYER
 62
     1
 10
304.543523
 20
-36.006834
 30
0.0
 11
304.543523
 21
-28.006834
 31
0.0
  0
LINE
  8
0
  6
BYLAYER
 62
     1
 10
296.043523
 20
-36.006834
 30
0.0
 11
296.043523
 21
-28.006834
 31
0.0
  0
LINE
  8
0
  6
BYLAYER
 62
     1
 10
322.293523
 20
-66.006826
 30
0.0
 11
322.293523
 21
-30.006834
 31
0.0
  0
LINE
  8
0
  6
BYLAYER
 62
     1
 10
321.293523
 20
-67.006826
 30
0.0
 11
314.293523
 21
-67.006826
 31
0.0
  0
LINE
  8
0
  6
BYLAYER
 62
     1
 10
314.293523
 20
-66.006826
 30
0.0
 11
322.293523
 21
-66.006826
 31
0.0
  0
LINE
  8
0
  6
BYLAYER
 62
     1
 10
321.293523
 20
-67.006826
 30
0.0
 11
322.293523
 21
-66.006826
 31
0.0
  0
ARC
  8
0
  6
BYLAYER
 62
     1
 10
312.293523
 20
-57.726247
 30
0.0
 40
2.0
 50
272.000744
 51
360.0
  0
ARC
  8
0
  6
BYLAYER
 62
     1
 10
313.293523
 20
-37.006834
 30
0.0
 40
1.0
 50
0.0
 51
90.000003
  0
LINE
  8
0
  6
BYLAYER
 62
     1
 10
322.293523
 20
-30.006834
 30
0.0
 11
320.293523
 21
-28.006834
 31
0.0
  0
LINE
  8
0
  6
BYLAYER
 62
     1
 10
324.293523
 20
-28.506834
 30
0.0
 11
323.793523
 21
-28.006834
 31
0.0
  0
ARC
  8
0
  6
BYLAYER
 62
     1
 10
321.793523
 20
-30.274595
 30
0.0
 40
0.499990
 50
315.001248
 51
360.000000
  0
ARC
  8
0
  6
BYLAYER
 62
     1
 10
238.193784
 20
-55.751889
 30
0.0
 40
2.873727
 50
270.0
 51
308.795511
  0
ARC
  8
0
  6
BYLAYER
 62
     1
 10
237.915681
 20
-55.455709
 30
0.0
 40
3.278957
 50
309.340351
 51
360.000000
  0
ARC
  8
0
  6
BYLAYER
 62
     1
 10
237.915681
 20
-55.455709
 30
0.0
 40
3.278957
 50
0.0
 51
50.659649
  0
ARC
  8
0
  6
BYLAYER
 62
     1
 10
238.193784
 20
-55.159529
 30
0.0
 40
2.873727
 50
51.204489
 51
90.000000
  0
ARC
  8
0
  6
BYLAYER
 62
     1
 10
238.193784
 20
-55.159503
 30
0.0
 40
2.873701
 50
90.0
 51
128.795693
  0
ARC
  8
0
  6
BYLAYER
 62
     1
 10
238.471912
 20
-55.455709
 30
0.0
 40
3.278967
 50
129.340576
 51
180.0
  0
ARC
  8
0
  6
BYLAYER
 62
     1
 10
238.471912
 20
-55.455709
 30
0.0
 40
3.278967
 50
180.000000
 51
230.659424
  0
ARC
  8
0
  6
BYLAYER
 62
     1
 10
238.193784
 20
-55.751915
 30
0.0
 40
2.873701
 50
231.204307
 51
270.000000
  0
ARC
  8
0
  6
BYLAYER
 62
     1
 10
238.193784
 20
-54.612558
 30
0.0
 40
1.329747
 50
90.0
 51
140.793201
  0
ARC
  8
0
  6
BYLAYER
 62
     1
 10
239.227338
 20
-55.455709
 30
0.0
 40
2.663590
 50
140.793201
 51
180.000000
  0
ARC
  8
0
  6
BYLAYER
 62
     1
 10
239.227322
 20
-55.455709
 30
0.0
 40
2.663574
 50
180.000000
 51
219.206869
  0
ARC
  8
0
  6
BYLAYER
 62
     1
 10
238.193784
 20
-56.298849
 30
0.0
 40
1.329750
 50
219.206869
 51
270.000000
  0
ARC
  8
0
  6
BYLAYER
 62
     1
 10
238.193784
 20
-56.298849
 30
0.0
 40
1.329750
 50
270.0
 51
320.793131
  0
ARC
  8
0
  6
BYLAYER
 62
     1
 10
237.160245
 20
-55.455709
 30
0.0
 40
2.663574
 50
320.793131
 51
360.000000
  0
ARC
  8
0
  6
BYLAYER
 62
     1
 10
237.160229
 20
-55.455709
 30
0.0
 40
2.663590
 50
0.0
 51
39.206799
  0
ARC
  8
0
  6
BYLAYER
 62
     1
 10
238.193784
 20
-54.612558
 30
0.0
 40
1.329747
 50
39.206799
 51
90.0
  0
LINE
  8
0
  6
BYLAYER
 62
     1
 10
228.345944
 20
-58.414281
 30
0.0
 11
228.345944
 21
-52.412588
 31
0.0
  0
LINE
  8
0
  6
BYLAYER
 62
     1
 10
228.345944
 20
-52.412588
 30
0.0
 11
230.786069
 21
-52.412588
 31
0.0
  0
LINE
  8
0
  6
BYLAYER
 62
     1
 10
230.786069
 20
-52.412588
 30
0.0
 11
231.600385
 21
-55.540243
 31
0.0
  0
LINE
  8
0
  6
BYLAYER
 62
     1
 10
228.345944
 20
-58.414281
 30
0.0
 11
229.811154
 21
-58.414281
 31
0.0
  0
LINE
  8
0
  6
BYLAYER
 62
     1
 10
229.811154
 20
-58.414281
 30
0.0
 11
229.811154
 21
-54.948522
 31
0.0
  0
LINE
  8
0
  6
BYLAYER
 62
     1
 10
230.966397
 20
-58.414281
 30
0.0
 11
229.811154
 21
-54.948522
 31
0.0
  0
LINE
  8
0
  6
BYLAYER
 62
     1
 10
234.854825
 20
-58.414281
 30
0.0
 11
234.854825
 21
-52.412588
 31
0.0
  0
LINE
  8
0
  6
BYLAYER
 62
     1
 10
234.854825
 20
-52.412588
 30
0.0
 11
232.414700
 21
-52.412588
 31
0.0
  0
LINE
  8
0
  6
BYLAYER
 62
     1
 10
232.414700
 20
-52.412588
 30
0.0
 11
231.600385
 21
-55.540243
 31
0.0
  0
LINE
  8
0
  6
BYLAYER
 62
     1
 10
234.854825
 20
-58.414281
 30
0.0
 11
233.389615
 21
-58.414281
 31
0.0
  0
LINE
  8
0
  6
BYLAYER
 62
     1
 10
233.389615
 20
-58.414281
 30
0.0
 11
233.389615
 21
-54.948522
 31
0.0
  0
LINE
  8
0
  6
BYLAYER
 62
     1
 10
232.234372
 20
-58.414281
 30
0.0
 11
233.389615
 21
-54.948522
 31
0.0
  0
LINE
  8
0
  6
BYLAYER
 62
     1
 10
232.234372
 20
-58.414281
 30
0.0
 11
230.966397
 21
-58.414281
 31
0.0
  0
LINE
  8
0
  6
BYLAYER
 62
     1
 10
256.325665
 20
-58.414281
 30
0.0
 11
258.607983
 21
-52.412588
 31
0.0
  0
LINE
  8
0
  6
BYLAYER
 62
     1
 10
256.325665
 20
-58.414281
 30
0.0
 11
258.269879
 21
-58.414281
 31
0.0
  0
LINE
  8
0
  6
BYLAYER
 62
     1
 10
258.607983
 20
-52.412588
 30
0.0
 11
260.467664
 21
-52.412588
 31
0.0
  0
LINE
  8
0
  6
BYLAYER
 62
     1
 10
258.269879
 20
-58.414281
 30
0.0
 11
258.558057
 21
-57.568975
 31
0.0
  0
LINE
  8
0
  6
BYLAYER
 62
     1
 10
259.019116
 20
-56.216482
 30
0.0
 11
259.537823
 21
-54.694921
 31
0.0
  0
LINE
  8
0
  6
BYLAYER
 62
     1
 10
262.750012
 20
-58.414281
 30
0.0
 11
260.467664
 21
-52.412588
 31
0.0
  0
LINE
  8
0
  6
BYLAYER
 62
     1
 10
262.750012
 20
-58.414281
 30
0.0
 11
260.805798
 21
-58.414281
 31
0.0
  0
LINE
  8
0
  6
BYLAYER
 62
     1
 10
260.517621
 20
-57.568975
 30
0.0
 11
258.558057
 21
-57.568975
 31
0.0
  0
LINE
  8
0
  6
BYLAYER
 62
     1
 10
260.056531
 20
-56.216482
 30
0.0
 11
259.019116
 21
-56.216482
 31
0.0
  0
LINE
  8
0
  6
BYLAYER
 62
     1
 10
260.805798
 20
-58.414281
 30
0.0
 11
260.517621
 21
-57.568975
 31
0.0
  0
LINE
  8
0
  6
BYLAYER
 62
     1
 10
260.056531
 20
-56.216482
 30
0.0
 11
259.537823
 21
-54.694921
 31
0.0
  0
LINE
  8
0
  6
BYLAYER
 62
     1
 10
241.194638
 20
-53.891882
 30
0.0
 11
242.885251
 21
-53.891882
 31
0.0
  0
LINE
  8
0
  6
BYLAYER
 62
     1
 10
242.885251
 20
-53.891882
 30
0.0
 11
242.885251
 21
-58.414281
 31
0.0
  0
LINE
  8
0
  6
BYLAYER
 62
     1
 10
242.885251
 20
-58.414281
 30
0.0
 11
244.744946
 21
-58.414281
 31
0.0
  0
LINE
  8
0
  6
BYLAYER
 62
     1
 10
244.744946
 20
-58.414281
 30
0.0
 11
244.744946
 21
-53.891882
 31
0.0
  0
LINE
  8
0
  6
BYLAYER
 62
     1
 10
244.744946
 20
-53.891882
 30
0.0
 11
246.435559
 21
-53.891882
 31
0.0
  0
LINE
  8
0
  6
BYLAYER
 62
     1
 10
246.435559
 20
-53.891882
 30
0.0
 11
246.435559
 21
-52.412588
 31
0.0
  0
LINE
  8
0
  6
BYLAYER
 62
     1
 10
246.435559
 20
-52.412588
 30
0.0
 11
241.194638
 21
-52.412588
 31
0.0
  0
LINE
  8
0
  6
BYLAYER
 62
     1
 10
241.194638
 20
-52.412588
 30
0.0
 11
241.194638
 21
-53.891882
 31
0.0
  0
ARC
  8
0
  6
BYLAYER
 62
     1
 10
249.436398
 20
-55.751915
 30
0.0
 40
2.873701
 50
270.0
 51
308.795693
  0
ARC
  8
0
  6
BYLAYER
 62
     1
 10
249.158270
 20
-55.455709
 30
0.0
 40
3.278967
 50
309.340576
 51
360.000000
  0
ARC
  8
0
  6
BYLAYER
 62
     1
 10
249.158281
 20
-55.455709
 30
0.0
 40
3.278957
 50
0.0
 51
50.659649
  0
ARC
  8
0
  6
BYLAYER
 62
     1
 10
249.436383
 20
-55.159529
 30
0.0
 40
2.873727
 50
51.204489
 51
90.0
  0
ARC
  8
0
  6
BYLAYER
 62
     1
 10
249.436383
 20
-55.159503
 30
0.0
 40
2.873701
 50
90.0
 51
128.795693
  0
ARC
  8
0
  6
BYLAYER
 62
     1
 10
249.714511
 20
-55.455709
 30
0.0
 40
3.278967
 50
129.340576
 51
180.000000
  0
ARC
  8
0
  6
BYLAYER
 62
     1
 10
249.714500
 20
-55.455709
 30
0.0
 40
3.278957
 50
180.000000
 51
230.659649
  0
ARC
  8
0
  6
BYLAYER
 62
     1
 10
249.436398
 20
-55.751889
 30
0.0
 40
2.873727
 50
231.204489
 51
270.000000
  0
ARC
  8
0
  6
BYLAYER
 62
     1
 10
249.436383
 20
-54.612558
 30
0.0
 40
1.329747
 50
90.0
 51
140.793201
  0
ARC
  8
0
  6
BYLAYER
 62
     1
 10
250.469938
 20
-55.455709
 30
0.0
 40
2.663590
 50
140.793201
 51
180.000000
  0
ARC
  8
0
  6
BYLAYER
 62
     1
 10
250.469904
 20
-55.455709
 30
0.0
 40
2.663556
 50
180.000000
 51
219.207055
  0
ARC
  8
0
  6
BYLAYER
 62
     1
 10
249.436398
 20
-56.298828
 30
0.0
 40
1.329771
 50
219.207055
 51
270.0
  0
ARC
  8
0
  6
BYLAYER
 62
     1
 10
249.436398
 20
-56.298849
 30
0.0
 40
1.329750
 50
270.0
 51
320.793131
  0
ARC
  8
0
  6
BYLAYER
 62
     1
 10
248.402860
 20
-55.455709
 30
0.0
 40
2.663574
 50
320.793131
 51
360.000000
  0
ARC
  8
0
  6
BYLAYER
 62
     1
 10
248.402861
 20
-55.455709
 30
0.0
 40
2.663572
 50
0.0
 51
39.206985
  0
ARC
  8
0
  6
BYLAYER
 62
     1
 10
249.436383
 20
-54.612580
 30
0.0
 40
1.329768
 50
39.206985
 51
90.0
  0
LINE
  8
0
  6
BYLAYER
 62
     1
 10
262.911999
 20
-58.414281
 30
0.0
 11
262.911999
 21
-52.412588
 31
0.0
  0
LINE
  8
0
  6
BYLAYER
 62
     1
 10
262.911999
 20
-52.412588
 30
0.0
 11
266.631345
 21
-52.412588
 31
0.0
  0
ARC
  8
0
  6
BYLAYER
 62
     1
 10
266.631345
 20
-54.103216
 30
0.0
 40
1.690610
 50
287.134650
 51
450.000006
  0
ARC
  8
0
  6
BYLAYER
 62
     1
 10
266.969479
 20
-57.061788
 30
0.0
 40
1.352493
 50
0.0
 51
83.207557
  0
LINE
  8
0
  6
BYLAYER
 62
     1
 10
268.321973
 20
-57.061788
 30
0.0
 11
268.321973
 21
-57.907095
 31
0.0
  0
ARC
  8
0
  6
BYLAYER
 62
     1
 10
269.674466
 20
-57.907095
 30
0.0
 40
1.352493
 50
180.000000
 51
202.024314
  0
LINE
  8
0
  6
BYLAYER
 62
     1
 10
266.560986
 20
-58.414281
 30
0.0
 11
268.420666
 21
-58.414281
 31
0.0
  0
ARC
  8
0
  6
BYLAYER
 62
     1
 10
267.814786
 20
-57.907095
 30
0.0
 40
1.352493
 50
180.000000
 51
202.024314
  0
LINE
  8
0
  6
BYLAYER
 62
     1
 10
266.462292
 20
-57.907095
 30
0.0
 11
266.462292
 21
-57.230856
 31
0.0
  0
LINE
  8
0
  6
BYLAYER
 62
     1
 10
262.911999
 20
-58.414281
 30
0.0
 11
264.687146
 21
-58.414281
 31
0.0
  0
LINE
  8
0
  6
BYLAYER
 62
     1
 10
264.687146
 20
-58.414281
 30
0.0
 11
264.687146
 21
-56.385549
 31
0.0
  0
LINE
  8
0
  6
BYLAYER
 62
     1
 10
265.616986
 20
-56.385549
 30
0.0
 11
264.687146
 21
-56.385549
 31
0.0
  0
ARC
  8
0
  6
BYLAYER
 62
     1
 10
265.616986
 20
-57.230856
 30
0.0
 40
0.845306
 50
0.0
 51
90.000003
  0
LINE
  8
0
  6
BYLAYER
 62
     1
 10
264.687146
 20
-55.033056
 30
0.0
 11
264.687146
 21
-53.765081
 31
0.0
  0
LINE
  8
0
  6
BYLAYER
 62
     1
 10
264.687146
 20
-53.765081
 30
0.0
 11
265.870572
 21
-53.765081
 31
0.0
  0
LINE
  8
0
  6
BYLAYER
 62
     1
 10
264.687146
 20
-55.033056
 30
0.0
 11
265.870572
 21
-55.033056
 31
0.0
  0
ARC
  8
0
  6
BYLAYER
 62
     1
 10
265.870572
 20
-54.399068
 30
0.0
 40
0.633987
 50
270.0
 51
450.000005
  0
LINE
  8
0
  6
BYLAYER
 62
     1
 10
254.846387
 20
-56.516485
 30
0.0
 11
253.747479
 21
-52.412588
 31
0.0
  0
LINE
  8
0
  6
BYLAYER
 62
     1
 10
253.747479
 20
-52.412588
 30
0.0
 11
251.972333
 21
-52.412588
 31
0.0
  0
LINE
  8
0
  6
BYLAYER
 62
     1
 10
251.972333
 20
-52.412588
 30
0.0
 11
253.832013
 21
-58.414281
 31
0.0
  0
LINE
  8
0
  6
BYLAYER
 62
     1
 10
254.846387
 20
-56.516485
 30
0.0
 11
255.945264
 21
-52.412588
 31
0.0
  0
LINE
  8
0
  6
BYLAYER
 62
     1
 10
255.945264
 20
-52.412588
 30
0.0
 11
257.720410
 21
-52.412588
 31
0.0
  0
LINE
  8
0
  6
BYLAYER
 62
     1
 10
257.720410
 20
-52.412588
 30
0.0
 11
255.860730
 21
-58.414281
 31
0.0
  0
LINE
  8
0
  6
BYLAYER
 62
     1
 10
255.860730
 20
-58.414281
 30
0.0
 11
253.832013
 21
-58.414281
 31
0.0
  0
LINE
  8
0
  6
BYLAYER
 62
     1
 10
268.582654
 20
-58.414281
 30
0.0
 11
270.357800
 21
-58.414281
 31
0.0
  0
LINE
  8
0
  6
BYLAYER
 62
     1
 10
270.357800
 20
-58.414281
 30
0.0
 11
270.357800
 21
-52.412588
 31
0.0
  0
LINE
  8
0
  6
BYLAYER
 62
     1
 10
270.357800
 20
-52.412588
 30
0.0
 11
268.582654
 21
-52.412588
 31
0.0
  0
LINE
  8
0
  6
BYLAYER
 62
     1
 10
268.582654
 20
-52.412588
 30
0.0
 11
268.582654
 21
-58.414281
 31
0.0
  0
ARC
  8
0
  6
BYLAYER
 62
     1
 10
273.696774
 20
-55.751915
 30
0.0
 40
2.873701
 50
270.0
 51
308.795693
  0
ARC
  8
0
  6
BYLAYER
 62
     1
 10
273.418646
 20
-55.455709
 30
0.0
 40
3.278967
 50
309.340576
 51
360.000000
  0
ARC
  8
0
  6
BYLAYER
 62
     1
 10
273.418646
 20
-55.455709
 30
0.0
 40
3.278967
 50
0.0
 51
50.659424
  0
ARC
  8
0
  6
BYLAYER
 62
     1
 10
273.696774
 20
-55.159503
 30
0.0
 40
2.873701
 50
51.204307
 51
90.000000
  0
ARC
  8
0
  6
BYLAYER
 62
     1
 10
273.696774
 20
-55.159503
 30
0.0
 40
2.873701
 50
90.0
 51
128.795693
  0
ARC
  8
0
  6
BYLAYER
 62
     1
 10
273.974902
 20
-55.455709
 30
0.0
 40
3.278967
 50
129.340576
 51
180.000000
  0
ARC
  8
0
  6
BYLAYER
 62
     1
 10
273.974902
 20
-55.455709
 30
0.0
 40
3.278967
 50
180.000000
 51
230.659424
  0
ARC
  8
0
  6
BYLAYER
 62
     1
 10
273.696774
 20
-55.751915
 30
0.0
 40
2.873701
 50
231.204307
 51
270.000000
  0
ARC
  8
0
  6
BYLAYER
 62
     1
 10
273.696774
 20
-54.612558
 30
0.0
 40
1.329747
 50
39.206799
 51
90.0
  0
ARC
  8
0
  6
BYLAYER
 62
     1
 10
272.663220
 20
-55.455709
 30
0.0
 40
2.663590
 50
0.0
 51
39.206799
  0
ARC
  8
0
  6
BYLAYER
 62
     1
 10
272.663236
 20
-55.455709
 30
0.0
 40
2.663574
 50
320.793131
 51
360.0
  0
ARC
  8
0
  6
BYLAYER
 62
     1
 10
273.696774
 20
-56.298849
 30
0.0
 40
1.329750
 50
270.0
 51
320.793131
  0
ARC
  8
0
  6
BYLAYER
 62
     1
 10
273.696774
 20
-56.298849
 30
0.0
 40
1.329750
 50
219.206869
 51
270.0
  0
ARC
  8
0
  6
BYLAYER
 62
     1
 10
274.730313
 20
-55.455709
 30
0.0
 40
2.663574
 50
180.000000
 51
219.206869
  0
ARC
  8
0
  6
BYLAYER
 62
     1
 10
274.730329
 20
-55.455709
 30
0.0
 40
2.663590
 50
140.793201
 51
180.000000
  0
ARC
  8
0
  6
BYLAYER
 62
     1
 10
273.696774
 20
-54.612558
 30
0.0
 40
1.329747
 50
90.0
 51
140.793201
  0
ARC
  8
0
  6
BYLAYER
 62
     1
 10
243.724911
 20
-45.541860
 30
0.0
 40
7.429995
 50
174.535650
 51
180.0
  0
LINE
  8
0
  6
BYLAYER
 62
     1
 10
236.328679
 20
-44.834325
 30
0.0
 11
236.328679
 21
-44.834318
 31
0.0
  0
LINE
  8
0
  6
BYLAYER
 62
     1
 10
236.336764
 20
-44.754395
 30
0.0
 11
237.045867
 21
-44.455852
 31
0.0
  0
ARC
  8
0
  6
BYLAYER
 62
     1
 10
243.724942
 20
-45.541921
 30
0.0
 40
6.766781
 50
159.235383
 51
170.763998
  0
LINE
  8
0
  6
BYLAYER
 62
     1
 10
237.397667
 20
-43.142856
 30
0.0
 11
236.932869
 21
-42.529743
 31
0.0
  0
ARC
  8
0
  6
BYLAYER
 62
     1
 10
243.724911
 20
-45.541860
 30
0.0
 40
7.429986
 50
144.139514
 51
156.083795
  0
LINE
  8
0
  6
BYLAYER
 62
     1
 10
237.654446
 20
-41.257665
 30
0.0
 11
237.654889
 21
-41.257040
 31
0.0
  0
LINE
  8
0
  6
BYLAYER
 62
     1
 10
237.703310
 20
-41.189273
 30
0.0
 11
238.458235
 21
-41.293137
 31
0.0
  0
ARC
  8
0
  6
BYLAYER
 62
     1
 10
243.724911
 20
-45.541860
 30
0.0
 40
6.766741
 50
129.235643
 51
141.105976
  0
LINE
  8
0
  6
BYLAYER
 62
     1
 10
239.334225
 20
-40.393003
 30
0.0
 11
239.334958
 21
-40.392370
 31
0.0
  0
LINE
  8
0
  6
BYLAYER
 62
     1
 10
239.444872
 20
-40.300673
 30
0.0
 11
239.348878
 21
-39.537267
 31
0.0
  0
ARC
  8
0
  6
BYLAYER
 62
     1
 10
243.724911
 20
-45.541860
 30
0.0
 40
7.429994
 50
114.139607
 51
126.083853
  0
LINE
  8
0
  6
BYLAYER
 62
     1
 10
240.610364
 20
-38.796163
 30
0.0
 11
240.610867
 21
-38.795927
 31
0.0
  0
LINE
  8
0
  6
BYLAYER
 62
     1
 10
240.686331
 20
-38.761606
 30
0.0
 11
241.288160
 21
-39.229001
 31
0.0
  0
LINE
  8
0
  6
BYLAYER
 62
     1
 10
241.425763
 20
-39.177679
 30
0.0
 11
241.426526
 21
-39.177412
 31
0.0
  0
ARC
  8
0
  6
BYLAYER
 62
     1
 10
243.724911
 20
-45.541860
 30
0.0
 40
6.766738
 50
99.235601
 51
111.106038
  0
ARC
  8
0
  6
BYLAYER
 62
     1
 10
243.724911
 20
-45.541860
 30
0.0
 40
7.429995
 50
90.0
 51
96.083892
  0
LINE
  8
0
  6
BYLAYER
 62
     1
 10
242.937447
 20
-38.153713
 30
0.0
 11
242.638887
 21
-38.862841
 31
0.0
  0
LINE
  8
0
  6
BYLAYER
 62
     1
 10
251.121136
 20
-44.834325
 30
0.0
 11
251.121136
 21
-44.834318
 31
0.0
  0
LINE
  8
0
  6
BYLAYER
 62
     1
 10
251.113059
 20
-44.754394
 30
0.0
 11
250.403920
 21
-44.455845
 31
0.0
  0
ARC
  8
0
  6
BYLAYER
 62
     1
 10
243.724866
 20
-45.541921
 30
0.0
 40
6.766781
 50
9.235986
 51
20.764650
  0
LINE
  8
0
  6
BYLAYER
 62
     1
 10
250.052190
 20
-43.142786
 30
0.0
 11
250.516955
 21
-42.529744
 31
0.0
  0
ARC
  8
0
  6
BYLAYER
 62
     1
 10
243.724911
 20
-45.541860
 30
0.0
 40
7.429986
 50
23.916189
 51
35.860484
  0
LINE
  8
0
  6
BYLAYER
 62
     1
 10
249.795361
 20
-41.257665
 30
0.0
 11
249.794919
 21
-41.257040
 31
0.0
  0
LINE
  8
0
  6
BYLAYER
 62
     1
 10
249.746513
 20
-41.189274
 30
0.0
 11
248.991641
 21
-41.293128
 31
0.0
  0
ARC
  8
0
  6
BYLAYER
 62
     1
 10
243.724911
 20
-45.541860
 30
0.0
 40
6.766741
 50
38.894050
 51
50.764315
  0
LINE
  8
0
  6
BYLAYER
 62
     1
 10
248.115598
 20
-40.393003
 30
0.0
 11
248.114865
 21
-40.392370
 31
0.0
  0
LINE
  8
0
  6
BYLAYER
 62
     1
 10
248.004971
 20
-40.300551
 30
0.0
 11
248.100929
 21
-39.537255
 31
0.0
  0
ARC
  8
0
  6
BYLAYER
 62
     1
 10
243.724911
 20
-45.541860
 30
0.0
 40
7.429994
 50
53.916300
 51
65.860381
  0
LINE
  8
0
  6
BYLAYER
 62
     1
 10
246.839459
 20
-38.796163
 30
0.0
 11
246.838940
 21
-38.795927
 31
0.0
  0
LINE
  8
0
  6
BYLAYER
 62
     1
 10
246.763494
 20
-38.761607
 30
0.0
 11
246.161670
 21
-39.228980
 31
0.0
  0
LINE
  8
0
  6
BYLAYER
 62
     1
 10
246.024045
 20
-39.177679
 30
0.0
 11
246.023297
 21
-39.177412
 31
0.0
  0
ARC
  8
0
  6
BYLAYER
 62
     1
 10
243.724911
 20
-45.541860
 30
0.0
 40
6.766738
 50
68.894081
 51
80.764578
  0
ARC
  8
0
  6
BYLAYER
 62
     1
 10
243.724911
 20
-45.541860
 30
0.0
 40
7.429995
 50
84.535428
 51
90.000003
  0
LINE
  8
0
  6
BYLAYER
 62
     1
 10
244.512379
 20
-38.153713
 30
0.0
 11
244.810866
 21
-38.862720
 31
0.0
  0
ARC
  8
0
  6
BYLAYER
 62
     1
 10
243.724911
 20
-45.541860
 30
0.0
 40
7.429995
 50
180.000000
 51
186.083899
  0
LINE
  8
0
  6
BYLAYER
 62
     1
 10
236.328679
 20
-46.249387
 30
0.0
 11
236.328679
 21
-46.249403
 31
0.0
  0
LINE
  8
0
  6
BYLAYER
 62
     1
 10
236.336764
 20
-46.329326
 30
0.0
 11
237.045888
 21
-46.627877
 31
0.0
  0
ARC
  8
0
  6
BYLAYER
 62
     1
 10
243.724942
 20
-45.541799
 30
0.0
 40
6.766781
 50
189.236002
 51
200.764629
  0
LINE
  8
0
  6
BYLAYER
 62
     1
 10
237.397692
 20
-47.940834
 30
0.0
 11
236.932866
 21
-48.553972
 31
0.0
  0
ARC
  8
0
  6
BYLAYER
 62
     1
 10
243.724911
 20
-45.541860
 30
0.0
 40
7.429986
 50
203.916158
 51
215.860410
  0
LINE
  8
0
  6
BYLAYER
 62
     1
 10
237.654446
 20
-49.826047
 30
0.0
 11
237.654889
 21
-49.826673
 31
0.0
  0
LINE
  8
0
  6
BYLAYER
 62
     1
 10
237.703304
 20
-49.894439
 30
0.0
 11
238.458300
 21
-49.790576
 31
0.0
  0
ARC
  8
0
  6
BYLAYER
 62
     1
 10
243.724911
 20
-45.541860
 30
0.0
 40
6.766741
 50
218.894045
 51
230.764345
  0
LINE
  8
0
  6
BYLAYER
 62
     1
 10
239.334225
 20
-50.690710
 30
0.0
 11
239.334958
 21
-50.691343
 31
0.0
  0
LINE
  8
0
  6
BYLAYER
 62
     1
 10
239.444871
 20
-50.783046
 30
0.0
 11
239.348878
 21
-51.546454
 31
0.0
  0
ARC
  8
0
  6
BYLAYER
 62
     1
 10
243.724911
 20
-45.541860
 30
0.0
 40
7.429994
 50
233.916148
 51
245.860401
  0
LINE
  8
0
  6
BYLAYER
 62
     1
 10
240.610364
 20
-52.287550
 30
0.0
 11
240.610867
 21
-52.287794
 31
0.0
  0
LINE
  8
0
  6
BYLAYER
 62
     1
 10
240.686332
 20
-52.322114
 30
0.0
 11
241.288231
 21
-51.854654
 31
0.0
  0
LINE
  8
0
  6
BYLAYER
 62
     1
 10
241.425763
 20
-51.906034
 30
0.0
 11
241.426526
 21
-51.906309
 31
0.0
  0
LINE
  8
0
  6
BYLAYER
 62
     1
 10
251.121136
 20
-46.249387
 30
0.0
 11
251.121136
 21
-46.249403
 31
0.0
  0
LINE
  8
0
  6
BYLAYER
 62
     1
 10
251.113058
 20
-46.329327
 30
0.0
 11
250.403920
 21
-46.627875
 31
0.0
  0
LINE
  8
0
  6
BYLAYER
 62
     1
 10
250.052124
 20
-47.940851
 30
0.0
 11
250.516963
 21
-48.553977
 31
0.0
  0
LINE
  8
0
  6
BYLAYER
 62
     1
 10
249.795361
 20
-49.826047
 30
0.0
 11
249.794919
 21
-49.826673
 31
0.0
  0
LINE
  8
0
  6
BYLAYER
 62
     1
 10
249.746528
 20
-49.894440
 30
0.0
 11
248.991482
 21
-49.790573
 31
0.0
  0
LINE
  8
0
  6
BYLAYER
 62
     1
 10
248.115598
 20
-50.690710
 30
0.0
 11
248.114865
 21
-50.691343
 31
0.0
  0
LINE
  8
0
  6
BYLAYER
 62
     1
 10
248.004956
 20
-50.783043
 30
0.0
 11
248.100929
 21
-51.546465
 31
0.0
  0
LINE
  8
0
  6
BYLAYER
 62
     1
 10
246.763493
 20
-52.322114
 30
0.0
 11
246.161579
 21
-51.854659
 31
0.0
  0
ARC
  8
0
  6
BYLAYER
 62
     1
 10
243.724911
 20
-45.541860
 30
0.0
 40
6.766741
 50
309.235697
 51
321.105929
  0
ARC
  8
0
  6
BYLAYER
 62
     1
 10
243.724911
 20
-45.541860
 30
0.0
 40
6.766738
 50
248.893873
 51
270.000000
  0
ARC
  8
0
  6
BYLAYER
 62
     1
 10
243.724911
 20
-45.541860
 30
0.0
 40
7.429994
 50
294.783232
 51
306.083699
  0
LINE
  8
0
  6
BYLAYER
 62
     1
 10
246.838940
 20
-52.287794
 30
0.0
 11
246.763950
 21
-52.323083
 31
0.0
  0
ARC
  8
0
  6
BYLAYER
 62
     1
 10
243.724911
 20
-45.541860
 30
0.0
 40
7.429986
 50
324.139593
 51
336.083825
  0
ARC
  8
0
  6
BYLAYER
 62
     1
 10
243.724866
 20
-45.541799
 30
0.0
 40
6.766781
 50
339.235210
 51
350.764014
  0
ARC
  8
0
  6
BYLAYER
 62
     1
 10
243.724911
 20
-45.541860
 30
0.0
 40
7.429995
 50
353.916089
 51
360.0
  0
ARC
  8
0
  6
BYLAYER
 62
     1
 10
243.724911
 20
-45.541860
 30
0.0
 40
7.429995
 50
0.0
 51
6.083907
  0
ARC
  8
0
  6
BYLAYER
 62
     1
 10
243.724911
 20
-45.541860
 30
0.0
 40
6.766738
 50
270.0
 51
291.106008
  0
CIRCLE
  8
0
  6
BYLAYER
 62
     1
 10
243.724911
 20
-45.541860
 30
0.0
 40
3.630081
  0
CIRCLE
  8
0
  6
BYLAYER
 62
     1
 10
243.724911
 20
-45.541860
 30
0.0
 40
5.296032
  0
LINE
  8
0
  6
BYLAYER
 62
     1
 10
250.293515
 20
-130.006826
 30
0.0
 11
247.293515
 21
-130.006826
 31
0.0
  0
LINE
  8
0
  6
BYLAYER
 62
     1
 10
250.293515
 20
-130.006826
 30
0.0
 11
250.293515
 21
-133.006826
 31
0.0
  0
LINE
  8
0
  6
BYLAYER
 62
     1
 10
250.293515
 20
-130.006826
 30
0.0
 11
253.293515
 21
-130.006826
 31
0.0
  0
ARC
  8
0
  6
BYLAYER
 62
     1
 10
337.293523
 20
-9.428823
 30
0.0
 40
2.0
 50
92.999236
 51
180.000000
  0
ARC
  8
0
  6
BYLAYER
 62
     1
 10
333.293523
 20
-25.697500
 30
0.0
 40
2.000004
 50
300.000039
 51
360.000000
  0
ARC
  8
0
  6
BYLAYER
 62
     1
 10
325.327275
 20
-31.451528
 30
0.0
 40
1.000023
 50
272.994844
 51
299.999930
  0
LINE
  8
0
  6
BYLAYER
 62
     1
 10
324.293523
 20
-32.506948
 30
0.0
 11
324.729711
 21
-32.484182
 31
0.0
  0
ARC
  8
0
  6
BYLAYER
 62
     1
 10
324.703618
 20
-31.984853
 30
0.0
 40
0.499986
 50
272.993079
 51
335.999873
  0
LINE
  8
0
  6
BYLAYER
 62
     1
 10
325.379522
 20
-32.450185
 30
0.0
 11
324.729741
 21
-32.484182
 31
0.0
  0
LINE
  8
0
  6
BYLAYER
 62
     1
 10
335.293523
 20
-9.428823
 30
0.0
 11
325.160375
 21
-32.188222
 31
0.0
  0
LINE
  8
0
  6
BYLAYER
 62
     1
 10
325.827275
 20
-32.317556
 30
0.0
 11
334.293523
 21
-27.429555
 31
0.0
  0
LINE
  8
0
  6
BYLAYER
 62
     1
 10
337.188909
 20
-7.431631
 30
0.0
 11
345.293523
 21
-7.006903
 31
0.0
  0
LINE
  8
0
  6
BYLAYER
 62
     1
 10
345.293523
 20
-127.006749
 30
0.0
 11
345.293523
 21
-67.006826
 31
0.0
  0
ARC
  8
0
  6
BYLAYER
 62
     1
 10
325.327275
 20
-102.562124
 30
0.0
 40
1.000023
 50
60.000070
 51
87.005156
  0
LINE
  8
0
  6
BYLAYER
 62
     1
 10
324.293523
 20
-101.506704
 30
0.0
 11
324.729711
 21
-101.529470
 31
0.0
  0
ARC
  8
0
  6
BYLAYER
 62
     1
 10
324.703618
 20
-102.028799
 30
0.0
 40
0.499986
 50
24.000127
 51
87.006921
  0
LINE
  8
0
  6
BYLAYER
 62
     1
 10
325.379522
 20
-101.563467
 30
0.0
 11
324.729741
 21
-101.529470
 31
0.0
  0
ARC
  8
0
  6
BYLAYER
 62
     1
 10
333.293523
 20
-108.316152
 30
0.0
 40
2.000004
 50
0.0
 51
59.999961
  0
LINE
  8
0
  6
BYLAYER
 62
     1
 10
325.827275
 20
-101.696096
 30
0.0
 11
334.293523
 21
-106.584097
 31
0.0
  0
LINE
  8
0
  6
BYLAYER
 62
     1
 10
324.293523
 20
-101.506704
 30
0.0
 11
324.293523
 21
-67.006826
 31
0.0
  0
ARC
  8
0
  6
BYLAYER
 62
     1
 10
337.293523
 20
-124.584829
 30
0.0
 40
2.0
 50
180.000000
 51
267.000764
  0
LINE
  8
0
  6
BYLAYER
 62
     1
 10
335.293523
 20
-67.006826
 30
0.0
 11
335.293523
 21
-124.584829
 31
0.0
  0
LINE
  8
0
  6
BYLAYER
 62
     1
 10
335.293523
 20
-124.584829
 30
0.0
 11
325.160375
 21
-101.825430
 31
0.0
  0
LINE
  8
0
  6
BYLAYER
 62
     1
 10
337.188909
 20
-126.582021
 30
0.0
 11
345.293523
 21
-127.006749
 31
0.0
  0
LINE
  8
0
  6
BYLAYER
 62
     1
 10
345.293523
 20
-7.006903
 30
0.0
 11
345.293523
 21
-67.006826
 31
0.0
  0
LINE
  8
0
  6
BYLAYER
 62
     1
 10
324.293523
 20
-32.506948
 30
0.0
 11
324.293523
 21
-67.006826
 31
0.0
  0
LINE
  8
0
  6
BYLAYER
 62
     1
 10
335.293523
 20
-67.006826
 30
0.0
 11
335.293523
 21
-9.428823
 31
0.0
  0
LINE
  8
0
  6
BYLAYER
 62
     1
 10
250.293515
 20
-130.006826
 30
0.0
 11
250.293515
 21
-127.185830
 31
0.0
  0
ARC
  8
0
  6
BYLAYER
 62
     1
 10
860.293515
 20
-67.006795
 30
0.0
 40
67.500000
 50
354.420787
 51
419.508708
  0
ARC
  8
0
  6
BYLAYER
 62
     1
 10
860.293515
 20
-67.006795
 30
0.0
 40
67.5
 50
63.675482
 51
116.324518
  0
ARC
  8
0
  6
BYLAYER
 62
     1
 10
860.293515
 20
-67.006795
 30
0.0
 40
67.5
 50
120.491292
 51
185.579213
  0
CIRCLE
  8
0
  6
BYLAYER
 62
     1
 10
914.979265
 20
-49.238318
 30
0.0
 40
3.25
  0
CIRCLE
  8
0
  6
BYLAYER
 62
     1
 10
805.607765
 20
-49.238318
 30
0.0
 40
3.25
  0
ARC
  8
0
  6
BYLAYER
 62
     1
 10
860.293515
 20
-67.006795
 30
0.0
 40
44.499891
 50
146.249289
 51
154.443008
  0
ARC
  8
0
  6
BYLAYER
 62
     1
 10
860.293515
 20
-67.006795
 30
0.0
 40
44.499891
 50
25.556992
 51
33.750711
  0
ARC
  8
0
  6
BYLAYER
 62
     1
 10
860.293515
 20
-117.006764
 30
0.0
 40
80.000000
 50
117.548546
 51
422.451454
  0
LINE
  8
0
  6
BYLAYER
 62
     7
 10
902.624025
 20
-172.065192
 30
0.0
 11
905.619748
 21
-175.060914
 31
0.0
  0
ARC
  8
0
  6
BYLAYER
 62
     7
 10
903.851956
 20
-176.828679
 30
0.0
 40
2.499997
 50
306.059684
 51
405.000001
  0
ARC
  8
0
  6
BYLAYER
 62
     7
 10
860.293515
 20
-117.006764
 30
0.0
 40
76.5
 50
273.680298
 51
306.059684
  0
ARC
  8
0
  6
BYLAYER
 62
     7
 10
865.043515
 20
-190.854161
 30
0.0
 40
2.500000
 50
180.000000
 51
273.680293
  0
LINE
  8
0
  6
BYLAYER
 62
     7
 10
862.543515
 20
-186.420308
 30
0.0
 11
862.543515
 21
-190.854161
 31
0.0
  0
LINE
  8
0
  6
BYLAYER
 62
     7
 10
817.963005
 20
-172.065192
 30
0.0
 11
814.967282
 21
-175.060914
 31
0.0
  0
ARC
  8
0
  6
BYLAYER
 62
     7
 10
816.735074
 20
-176.828679
 30
0.0
 40
2.499997
 50
135.000000
 51
233.940317
  0
ARC
  8
0
  6
BYLAYER
 62
     7
 10
860.293515
 20
-117.006764
 30
0.0
 40
76.5
 50
233.940317
 51
266.319704
  0
ARC
  8
0
  6
BYLAYER
 62
     7
 10
855.543515
 20
-190.854161
 30
0.0
 40
2.5
 50
266.319704
 51
359.999983
  0
LINE
  8
0
  6
BYLAYER
 62
     7
 10
858.043515
 20
-186.420308
 30
0.0
 11
858.043515
 21
-190.854161
 31
0.0
  0
LINE
  8
0
  6
BYLAYER
 62
     7
 10
915.351943
 20
-74.676255
 30
0.0
 11
918.347653
 21
-71.680546
 31
0.0
  0
ARC
  8
0
  6
BYLAYER
 62
     7
 10
920.115414
 20
-73.448311
 30
0.0
 40
2.5
 50
36.059693
 51
135.000000
  0
ARC
  8
0
  6
BYLAYER
 62
     7
 10
860.293515
 20
-117.006764
 30
0.0
 40
76.5
 50
3.680307
 51
36.059693
  0
ARC
  8
0
  6
BYLAYER
 62
     7
 10
934.140927
 20
-112.256759
 30
0.0
 40
2.500000
 50
270.0
 51
363.680306
  0
LINE
  8
0
  6
BYLAYER
 62
     7
 10
929.707058
 20
-114.756759
 30
0.0
 11
934.140927
 21
-114.756759
 31
0.0
  0
LINE
  8
0
  6
BYLAYER
 62
     7
 10
915.351947
 20
-159.337269
 30
0.0
 11
918.347653
 21
-162.332974
 31
0.0
  0
ARC
  8
0
  6
BYLAYER
 62
     7
 10
920.115414
 20
-160.565209
 30
0.0
 40
2.499995
 50
225.000010
 51
323.940327
  0
ARC
  8
0
  6
BYLAYER
 62
     7
 10
860.293515
 20
-117.006764
 30
0.0
 40
76.5
 50
323.940327
 51
356.319713
  0
ARC
  8
0
  6
BYLAYER
 62
     7
 10
934.140927
 20
-121.756763
 30
0.0
 40
2.5
 50
356.319713
 51
449.999989
  0
LINE
  8
0
  6
BYLAYER
 62
     7
 10
929.707058
 20
-119.256763
 30
0.0
 11
934.140927
 21
-119.256763
 31
0.0
  0
LINE
  8
0
  6
BYLAYER
 62
     7
 10
817.963003
 20
-61.948339
 30
0.0
 11
814.967282
 21
-58.952618
 31
0.0
  0
ARC
  8
0
  6
BYLAYER
 62
     7
 10
816.735043
 20
-57.184853
 30
0.0
 40
2.499997
 50
126.059706
 51
225.000010
  0
ARC
  8
0
  6
BYLAYER
 62
     7
 10
860.293515
 20
-117.006764
 30
0.0
 40
76.500000
 50
118.924725
 51
126.059706
  0
LINE
  8
0
  6
BYLAYER
 62
     7
 10
902.624011
 20
-61.948327
 30
0.0
 11
905.619717
 21
-58.952611
 31
0.0
  0
ARC
  8
0
  6
BYLAYER
 62
     7
 10
903.851956
 20
-57.184846
 30
0.0
 40
2.499997
 50
315.000019
 51
413.940336
  0
ARC
  8
0
  6
BYLAYER
 62
     7
 10
860.293515
 20
-117.006764
 30
0.0
 40
76.500000
 50
53.940336
 51
61.075275
  0
LINE
  8
0
  6
BYLAYER
 62
     7
 10
805.235085
 20
-159.337271
 30
0.0
 11
802.239377
 21
-162.332978
 31
0.0
  0
ARC
  8
0
  6
BYLAYER
 62
     7
 10
800.471616
 20
-160.565213
 30
0.0
 40
2.499997
 50
216.059688
 51
314.999992
  0
ARC
  8
0
  6
BYLAYER
 62
     7
 10
860.293515
 20
-117.006764
 30
0.0
 40
76.5
 50
183.680329
 51
216.059688
  0
ARC
  8
0
  6
BYLAYER
 62
     7
 10
786.446103
 20
-121.756767
 30
0.0
 40
2.500000
 50
90.0
 51
183.680313
  0
LINE
  8
0
  6
BYLAYER
 62
     7
 10
790.879972
 20
-119.256767
 30
0.0
 11
786.446103
 21
-119.256767
 31
0.0
  0
LINE
  8
0
  6
BYLAYER
 62
     7
 10
805.235085
 20
-74.676258
 30
0.0
 11
802.239377
 21
-71.680550
 31
0.0
  0
ARC
  8
0
  6
BYLAYER
 62
     7
 10
800.471616
 20
-73.448315
 30
0.0
 40
2.499997
 50
45.000001
 51
143.940322
  0
ARC
  8
0
  6
BYLAYER
 62
     7
 10
860.293515
 20
-117.006764
 30
0.0
 40
76.500000
 50
143.940322
 51
176.319681
  0
ARC
  8
0
  6
BYLAYER
 62
     7
 10
786.446103
 20
-112.256763
 30
0.0
 40
2.500000
 50
176.319681
 51
269.999973
  0
LINE
  8
0
  6
BYLAYER
 62
     7
 10
790.879972
 20
-114.756763
 30
0.0
 11
786.446103
 21
-114.756763
 31
0.0
  0
LINE
  8
0
  6
BYLAYER
 62
     7
 10
823.293515
 20
-40.006764
 30
0.0
 11
823.293515
 21
-58.233450
 31
0.0
  0
LINE
  8
0
  6
BYLAYER
 62
     7
 10
897.293515
 20
-40.006764
 30
0.0
 11
897.293515
 21
-58.233450
 31
0.0
  0
LINE
  8
0
  6
BYLAYER
 62
     7
 10
823.293515
 20
-44.506764
 30
0.0
 11
826.293515
 21
-49.702900
 31
0.0
  0
LINE
  8
0
  6
BYLAYER
 62
     7
 10
826.293515
 20
-49.702900
 30
0.0
 11
826.293515
 21
-56.448507
 31
0.0
  0
LINE
  8
0
  6
BYLAYER
 62
     7
 10
897.293515
 20
-44.506764
 30
0.0
 11
894.293515
 21
-49.702900
 31
0.0
  0
LINE
  8
0
  6
BYLAYER
 62
     7
 10
894.293515
 20
-49.702900
 30
0.0
 11
894.293515
 21
-56.448507
 31
0.0
  0
LINE
  8
0
  6
BYLAYER
 62
     7
 10
861.293515
 20
-106.006764
 30
0.0
 11
869.293515
 21
-106.006764
 31
0.0
  0
LINE
  8
0
  6
BYLAYER
 62
     7
 10
861.293515
 20
-88.006764
 30
0.0
 11
861.293515
 21
-96.006764
 31
0.0
  0
LINE
  8
0
  6
BYLAYER
 62
     7
 10
861.293515
 20
-78.006764
 30
0.0
 11
861.293515
 21
-86.006764
 31
0.0
  0
LINE
  8
0
  6
BYLAYER
 62
     7
 10
861.293515
 20
-98.006764
 30
0.0
 11
861.293515
 21
-106.006764
 31
0.0
  0
LINE
  8
0
  6
BYLAYER
 62
     7
 10
869.293515
 20
-86.006764
 30
0.0
 11
869.293515
 21
-78.006764
 31
0.0
  0
LINE
  8
0
  6
BYLAYER
 62
     7
 10
871.293515
 20
-86.006764
 30
0.0
 11
871.293515
 21
-78.006764
 31
0.0
  0
LINE
  8
0
  6
BYLAYER
 62
     7
 10
861.293515
 20
-98.006764
 30
0.0
 11
869.293515
 21
-98.006764
 31
0.0
  0
LINE
  8
0
  6
BYLAYER
 62
     7
 10
861.293515
 20
-96.006764
 30
0.0
 11
869.293515
 21
-96.006764
 31
0.0
  0
LINE
  8
0
  6
BYLAYER
 62
     7
 10
861.293515
 20
-88.006764
 30
0.0
 11
869.293515
 21
-88.006764
 31
0.0
  0
LINE
  8
0
  6
BYLAYER
 62
     7
 10
871.293515
 20
-86.006764
 30
0.0
 11
879.131514
 21
-86.006764
 31
0.0
  0
LINE
  8
0
  6
BYLAYER
 62
     7
 10
861.293515
 20
-86.006764
 30
0.0
 11
869.293515
 21
-86.006764
 31
0.0
  0
LINE
  8
0
  6
BYLAYER
 62
     7
 10
871.293515
 20
-78.006764
 30
0.0
 11
879.131514
 21
-78.006764
 31
0.0
  0
LINE
  8
0
  6
BYLAYER
 62
     7
 10
861.293515
 20
-78.006764
 30
0.0
 11
869.293515
 21
-78.006764
 31
0.0
  0
LINE
  8
0
  6
BYLAYER
 62
     7
 10
879.131514
 20
-86.006764
 30
0.0
 11
879.131514
 21
-78.006764
 31
0.0
  0
LINE
  8
0
  6
BYLAYER
 62
     7
 10
869.293515
 20
-106.006764
 30
0.0
 11
869.293515
 21
-98.006764
 31
0.0
  0
LINE
  8
0
  6
BYLAYER
 62
     7
 10
869.293515
 20
-96.006764
 30
0.0
 11
869.293515
 21
-88.006764
 31
0.0
  0
LINE
  8
0
  6
BYLAYER
 62
     7
 10
871.293515
 20
-106.006764
 30
0.0
 11
879.293515
 21
-106.006764
 31
0.0
  0
LINE
  8
0
  6
BYLAYER
 62
     7
 10
871.293515
 20
-88.006764
 30
0.0
 11
871.293515
 21
-96.006764
 31
0.0
  0
LINE
  8
0
  6
BYLAYER
 62
     7
 10
871.293515
 20
-98.006764
 30
0.0
 11
871.293515
 21
-106.006764
 31
0.0
  0
LINE
  8
0
  6
BYLAYER
 62
     7
 10
871.293515
 20
-98.006764
 30
0.0
 11
879.293515
 21
-98.006764
 31
0.0
  0
LINE
  8
0
  6
BYLAYER
 62
     7
 10
871.293515
 20
-96.006764
 30
0.0
 11
879.293515
 21
-96.006764
 31
0.0
  0
LINE
  8
0
  6
BYLAYER
 62
     7
 10
871.293515
 20
-88.006764
 30
0.0
 11
879.293515
 21
-88.006764
 31
0.0
  0
LINE
  8
0
  6
BYLAYER
 62
     7
 10
879.293515
 20
-106.006764
 30
0.0
 11
879.293515
 21
-98.006764
 31
0.0
  0
LINE
  8
0
  6
BYLAYER
 62
     7
 10
879.293515
 20
-96.006764
 30
0.0
 11
879.293515
 21
-88.006764
 31
0.0
  0
LINE
  8
0
  6
BYLAYER
 62
     7
 10
881.293515
 20
-106.006764
 30
0.0
 11
889.293515
 21
-106.006764
 31
0.0
  0
LINE
  8
0
  6
BYLAYER
 62
     7
 10
881.293515
 20
-88.006764
 30
0.0
 11
881.293515
 21
-96.006764
 31
0.0
  0
LINE
  8
0
  6
BYLAYER
 62
     7
 10
881.293515
 20
-98.006764
 30
0.0
 11
881.293515
 21
-106.006764
 31
0.0
  0
LINE
  8
0
  6
BYLAYER
 62
     7
 10
881.293515
 20
-98.006764
 30
0.0
 11
889.293515
 21
-98.006764
 31
0.0
  0
LINE
  8
0
  6
BYLAYER
 62
     7
 10
881.293515
 20
-96.006764
 30
0.0
 11
889.293515
 21
-96.006764
 31
0.0
  0
LINE
  8
0
  6
BYLAYER
 62
     7
 10
881.293515
 20
-88.006764
 30
0.0
 11
889.293515
 21
-88.006764
 31
0.0
  0
LINE
  8
0
  6
BYLAYER
 62
     7
 10
889.293515
 20
-106.006764
 30
0.0
 11
889.293515
 21
-98.006764
 31
0.0
  0
LINE
  8
0
  6
BYLAYER
 62
     7
 10
889.293515
 20
-96.006764
 30
0.0
 11
889.293515
 21
-88.006764
 31
0.0
  0
LINE
  8
0
  6
BYLAYER
 62
     7
 10
871.293515
 20
-116.006764
 30
0.0
 11
879.293515
 21
-116.006764
 31
0.0
  0
LINE
  8
0
  6
BYLAYER
 62
     7
 10
871.293515
 20
-108.006764
 30
0.0
 11
871.293515
 21
-116.006764
 31
0.0
  0
LINE
  8
0
  6
BYLAYER
 62
     7
 10
871.293515
 20
-108.006764
 30
0.0
 11
879.293515
 21
-108.006764
 31
0.0
  0
LINE
  8
0
  6
BYLAYER
 62
     7
 10
879.293515
 20
-116.006764
 30
0.0
 11
879.293515
 21
-108.006764
 31
0.0
  0
LINE
  8
0
  6
BYLAYER
 62
     7
 10
881.293515
 20
-116.006764
 30
0.0
 11
889.293515
 21
-116.006764
 31
0.0
  0
LINE
  8
0
  6
BYLAYER
 62
     7
 10
881.293515
 20
-108.006764
 30
0.0
 11
881.293515
 21
-116.006764
 31
0.0
  0
LINE
  8
0
  6
BYLAYER
 62
     7
 10
881.293515
 20
-108.006764
 30
0.0
 11
889.293515
 21
-108.006764
 31
0.0
  0
LINE
  8
0
  6
BYLAYER
 62
     7
 10
889.293515
 20
-116.006764
 30
0.0
 11
889.293515
 21
-108.006764
 31
0.0
  0
LINE
  8
0
  6
BYLAYER
 62
     7
 10
891.293515
 20
-106.006764
 30
0.0
 11
899.293515
 21
-106.006764
 31
0.0
  0
LINE
  8
0
  6
BYLAYER
 62
     7
 10
891.293515
 20
-98.006764
 30
0.0
 11
891.293515
 21
-106.006764
 31
0.0
  0
LINE
  8
0
  6
BYLAYER
 62
     7
 10
891.293515
 20
-98.006764
 30
0.0
 11
899.293515
 21
-98.006764
 31
0.0
  0
LINE
  8
0
  6
BYLAYER
 62
     7
 10
899.293515
 20
-106.006764
 30
0.0
 11
899.293515
 21
-98.006764
 31
0.0
  0
LINE
  8
0
  6
BYLAYER
 62
     7
 10
891.293515
 20
-116.006764
 30
0.0
 11
899.293515
 21
-116.006764
 31
0.0
  0
LINE
  8
0
  6
BYLAYER
 62
     7
 10
891.293515
 20
-108.006764
 30
0.0
 11
891.293515
 21
-116.006764
 31
0.0
  0
LINE
  8
0
  6
BYLAYER
 62
     7
 10
891.293515
 20
-108.006764
 30
0.0
 11
899.293515
 21
-108.006764
 31
0.0
  0
LINE
  8
0
  6
BYLAYER
 62
     7
 10
899.293515
 20
-116.006764
 30
0.0
 11
899.293515
 21
-108.006764
 31
0.0
  0
CIRCLE
  8
0
  6
BYLAYER
 62
     7
 10
860.293515
 20
-117.006764
 30
0.0
 40
4.0
  0
LINE
  8
0
  6
BYLAYER
 62
     7
 10
861.293515
 20
-68.006764
 30
0.0
 11
861.293515
 21
-76.006764
 31
0.0
  0
LINE
  8
0
  6
BYLAYER
 62
     7
 10
869.293515
 20
-76.006764
 30
0.0
 11
869.293515
 21
-68.006764
 31
0.0
  0
LINE
  8
0
  6
BYLAYER
 62
     7
 10
861.293515
 20
-76.006764
 30
0.0
 11
869.293515
 21
-76.006764
 31
0.0
  0
LINE
  8
0
  6
BYLAYER
 62
     7
 10
861.293515
 20
-68.006764
 30
0.0
 11
869.293515
 21
-68.006764
 31
0.0
  0
LINE
  8
0
  6
BYLAYER
 62
     7
 10
881.293515
 20
-78.006764
 30
0.0
 11
881.293515
 21
-86.006764
 31
0.0
  0
LINE
  8
0
  6
BYLAYER
 62
     7
 10
881.293515
 20
-86.006764
 30
0.0
 11
889.293515
 21
-86.006764
 31
0.0
  0
LINE
  8
0
  6
BYLAYER
 62
     7
 10
881.293515
 20
-78.006764
 30
0.0
 11
889.293515
 21
-78.006764
 31
0.0
  0
LINE
  8
0
  6
BYLAYER
 62
     7
 10
889.293515
 20
-86.006764
 30
0.0
 11
889.293515
 21
-78.006764
 31
0.0
  0
LINE
  8
0
  6
BYLAYER
 62
     7
 10
901.293515
 20
-116.006764
 30
0.0
 11
909.293515
 21
-116.006764
 31
0.0
  0
LINE
  8
0
  6
BYLAYER
 62
     7
 10
901.293515
 20
-108.006764
 30
0.0
 11
901.293515
 21
-116.006764
 31
0.0
  0
LINE
  8
0
  6
BYLAYER
 62
     7
 10
901.293515
 20
-108.006764
 30
0.0
 11
909.293515
 21
-108.006764
 31
0.0
  0
LINE
  8
0
  6
BYLAYER
 62
     7
 10
909.293515
 20
-116.006764
 30
0.0
 11
909.293515
 21
-108.006764
 31
0.0
  0
LINE
  8
0
  6
BYLAYER
 62
     7
 10
891.293515
 20
-96.006764
 30
0.0
 11
899.293515
 21
-96.006764
 31
0.0
  0
LINE
  8
0
  6
BYLAYER
 62
     7
 10
891.293515
 20
-88.006764
 30
0.0
 11
891.293515
 21
-96.006764
 31
0.0
  0
LINE
  8
0
  6
BYLAYER
 62
     7
 10
891.293515
 20
-88.006764
 30
0.0
 11
899.293515
 21
-88.006764
 31
0.0
  0
LINE
  8
0
  6
BYLAYER
 62
     7
 10
899.293515
 20
-96.006764
 30
0.0
 11
899.293515
 21
-88.006764
 31
0.0
  0
CIRCLE
  8
0
  6
BYLAYER
 62
     7
 10
860.293515
 20
-117.006764
 30
0.0
 40
55.0
  0
CIRCLE
  8
0
  6
BYLAYER
 62
     7
 10
860.293515
 20
-117.006764
 30
0.0
 40
69.45
  0
CIRCLE
  8
0
  6
BYLAYER
 62
     7
 10
860.293515
 20
-117.006764
 30
0.0
 40
51.0
  0
LINE
  8
0
  6
BYLAYER
 62
     7
 10
861.293515
 20
-128.006764
 30
0.0
 11
869.293515
 21
-128.006764
 31
0.0
  0
LINE
  8
0
  6
BYLAYER
 62
     7
 10
861.293515
 20
-146.006764
 30
0.0
 11
861.293515
 21
-138.006764
 31
0.0
  0
LINE
  8
0
  6
BYLAYER
 62
     7
 10
861.293515
 20
-156.006764
 30
0.0
 11
861.293515
 21
-148.006764
 31
0.0
  0
LINE
  8
0
  6
BYLAYER
 62
     7
 10
861.293515
 20
-136.006764
 30
0.0
 11
861.293515
 21
-128.006764
 31
0.0
  0
LINE
  8
0
  6
BYLAYER
 62
     7
 10
869.293515
 20
-148.006764
 30
0.0
 11
869.293515
 21
-156.006764
 31
0.0
  0
LINE
  8
0
  6
BYLAYER
 62
     7
 10
871.293515
 20
-148.006764
 30
0.0
 11
871.293515
 21
-156.006764
 31
0.0
  0
LINE
  8
0
  6
BYLAYER
 62
     7
 10
861.293515
 20
-136.006764
 30
0.0
 11
869.293515
 21
-136.006764
 31
0.0
  0
LINE
  8
0
  6
BYLAYER
 62
     7
 10
861.293515
 20
-138.006764
 30
0.0
 11
869.293515
 21
-138.006764
 31
0.0
  0
LINE
  8
0
  6
BYLAYER
 62
     7
 10
861.293515
 20
-146.006764
 30
0.0
 11
869.293515
 21
-146.006764
 31
0.0
  0
LINE
  8
0
  6
BYLAYER
 62
     7
 10
871.293515
 20
-148.006764
 30
0.0
 11
879.131514
 21
-148.006764
 31
0.0
  0
LINE
  8
0
  6
BYLAYER
 62
     7
 10
861.293515
 20
-148.006764
 30
0.0
 11
869.293515
 21
-148.006764
 31
0.0
  0
LINE
  8
0
  6
BYLAYER
 62
     7
 10
871.293515
 20
-156.006764
 30
0.0
 11
879.131514
 21
-156.006764
 31
0.0
  0
LINE
  8
0
  6
BYLAYER
 62
     7
 10
861.293515
 20
-156.006764
 30
0.0
 11
869.293515
 21
-156.006764
 31
0.0
  0
LINE
  8
0
  6
BYLAYER
 62
     7
 10
879.131514
 20
-148.006764
 30
0.0
 11
879.131514
 21
-156.006764
 31
0.0
  0
LINE
  8
0
  6
BYLAYER
 62
     7
 10
869.293515
 20
-128.006764
 30
0.0
 11
869.293515
 21
-136.006764
 31
0.0
  0
LINE
  8
0
  6
BYLAYER
 62
     7
 10
869.293515
 20
-138.006764
 30
0.0
 11
869.293515
 21
-146.006764
 31
0.0
  0
LINE
  8
0
  6
BYLAYER
 62
     7
 10
871.293515
 20
-128.006764
 30
0.0
 11
879.293515
 21
-128.006764
 31
0.0
  0
LINE
  8
0
  6
BYLAYER
 62
     7
 10
871.293515
 20
-146.006764
 30
0.0
 11
871.293515
 21
-138.006764
 31
0.0
  0
LINE
  8
0
  6
BYLAYER
 62
     7
 10
871.293515
 20
-136.006764
 30
0.0
 11
871.293515
 21
-128.006764
 31
0.0
  0
LINE
  8
0
  6
BYLAYER
 62
     7
 10
871.293515
 20
-136.006764
 30
0.0
 11
879.293515
 21
-136.006764
 31
0.0
  0
LINE
  8
0
  6
BYLAYER
 62
     7
 10
871.293515
 20
-138.006764
 30
0.0
 11
879.293515
 21
-138.006764
 31
0.0
  0
LINE
  8
0
  6
BYLAYER
 62
     7
 10
871.293515
 20
-146.006764
 30
0.0
 11
879.293515
 21
-146.006764
 31
0.0
  0
LINE
  8
0
  6
BYLAYER
 62
     7
 10
879.293515
 20
-128.006764
 30
0.0
 11
879.293515
 21
-136.006764
 31
0.0
  0
LINE
  8
0
  6
BYLAYER
 62
     7
 10
879.293515
 20
-138.006764
 30
0.0
 11
879.293515
 21
-146.006764
 31
0.0
  0
LINE
  8
0
  6
BYLAYER
 62
     7
 10
881.293515
 20
-128.006764
 30
0.0
 11
889.293515
 21
-128.006764
 31
0.0
  0
LINE
  8
0
  6
BYLAYER
 62
     7
 10
881.293515
 20
-146.006764
 30
0.0
 11
881.293515
 21
-138.006764
 31
0.0
  0
LINE
  8
0
  6
BYLAYER
 62
     7
 10
881.293515
 20
-136.006764
 30
0.0
 11
881.293515
 21
-128.006764
 31
0.0
  0
LINE
  8
0
  6
BYLAYER
 62
     7
 10
881.293515
 20
-136.006764
 30
0.0
 11
889.293515
 21
-136.006764
 31
0.0
  0
LINE
  8
0
  6
BYLAYER
 62
     7
 10
881.293515
 20
-138.006764
 30
0.0
 11
889.293515
 21
-138.006764
 31
0.0
  0
LINE
  8
0
  6
BYLAYER
 62
     7
 10
881.293515
 20
-146.006764
 30
0.0
 11
889.293515
 21
-146.006764
 31
0.0
  0
LINE
  8
0
  6
BYLAYER
 62
     7
 10
889.293515
 20
-128.006764
 30
0.0
 11
889.293515
 21
-136.006764
 31
0.0
  0
LINE
  8
0
  6
BYLAYER
 62
     7
 10
889.293515
 20
-138.006764
 30
0.0
 11
889.293515
 21
-146.006764
 31
0.0
  0
LINE
  8
0
  6
BYLAYER
 62
     7
 10
871.293515
 20
-118.006764
 30
0.0
 11
879.293515
 21
-118.006764
 31
0.0
  0
LINE
  8
0
  6
BYLAYER
 62
     7
 10
871.293515
 20
-126.006764
 30
0.0
 11
871.293515
 21
-118.006764
 31
0.0
  0
LINE
  8
0
  6
BYLAYER
 62
     7
 10
871.293515
 20
-126.006764
 30
0.0
 11
879.293515
 21
-126.006764
 31
0.0
  0
LINE
  8
0
  6
BYLAYER
 62
     7
 10
879.293515
 20
-118.006764
 30
0.0
 11
879.293515
 21
-126.006764
 31
0.0
  0
LINE
  8
0
  6
BYLAYER
 62
     7
 10
881.293515
 20
-118.006764
 30
0.0
 11
889.293515
 21
-118.006764
 31
0.0
  0
LINE
  8
0
  6
BYLAYER
 62
     7
 10
881.293515
 20
-126.006764
 30
0.0
 11
881.293515
 21
-118.006764
 31
0.0
  0
LINE
  8
0
  6
BYLAYER
 62
     7
 10
881.293515
 20
-126.006764
 30
0.0
 11
889.293515
 21
-126.006764
 31
0.0
  0
LINE
  8
0
  6
BYLAYER
 62
     7
 10
889.293515
 20
-118.006764
 30
0.0
 11
889.293515
 21
-126.006764
 31
0.0
  0
LINE
  8
0
  6
BYLAYER
 62
     7
 10
891.293515
 20
-128.006764
 30
0.0
 11
899.293515
 21
-128.006764
 31
0.0
  0
LINE
  8
0
  6
BYLAYER
 62
     7
 10
891.293515
 20
-136.006764
 30
0.0
 11
891.293515
 21
-128.006764
 31
0.0
  0
LINE
  8
0
  6
BYLAYER
 62
     7
 10
891.293515
 20
-136.006764
 30
0.0
 11
899.293515
 21
-136.006764
 31
0.0
  0
LINE
  8
0
  6
BYLAYER
 62
     7
 10
899.293515
 20
-128.006764
 30
0.0
 11
899.293515
 21
-136.006764
 31
0.0
  0
LINE
  8
0
  6
BYLAYER
 62
     7
 10
891.293515
 20
-118.006764
 30
0.0
 11
899.293515
 21
-118.006764
 31
0.0
  0
LINE
  8
0
  6
BYLAYER
 62
     7
 10
891.293515
 20
-126.006764
 30
0.0
 11
891.293515
 21
-118.006764
 31
0.0
  0
LINE
  8
0
  6
BYLAYER
 62
     7
 10
891.293515
 20
-126.006764
 30
0.0
 11
899.293515
 21
-126.006764
 31
0.0
  0
LINE
  8
0
  6
BYLAYER
 62
     7
 10
899.293515
 20
-118.006764
 30
0.0
 11
899.293515
 21
-126.006764
 31
0.0
  0
LINE
  8
0
  6
BYLAYER
 62
     7
 10
861.293515
 20
-166.006764
 30
0.0
 11
861.293515
 21
-158.006764
 31
0.0
  0
LINE
  8
0
  6
BYLAYER
 62
     7
 10
869.293515
 20
-158.006764
 30
0.0
 11
869.293515
 21
-166.006764
 31
0.0
  0
LINE
  8
0
  6
BYLAYER
 62
     7
 10
861.293515
 20
-158.006764
 30
0.0
 11
869.293515
 21
-158.006764
 31
0.0
  0
LINE
  8
0
  6
BYLAYER
 62
     7
 10
861.293515
 20
-166.006764
 30
0.0
 11
869.293515
 21
-166.006764
 31
0.0
  0
LINE
  8
0
  6
BYLAYER
 62
     7
 10
881.293515
 20
-156.006764
 30
0.0
 11
881.293515
 21
-148.006764
 31
0.0
  0
LINE
  8
0
  6
BYLAYER
 62
     7
 10
881.293515
 20
-148.006764
 30
0.0
 11
889.293515
 21
-148.006764
 31
0.0
  0
LINE
  8
0
  6
BYLAYER
 62
     7
 10
881.293515
 20
-156.006764
 30
0.0
 11
889.293515
 21
-156.006764
 31
0.0
  0
LINE
  8
0
  6
BYLAYER
 62
     7
 10
889.293515
 20
-148.006764
 30
0.0
 11
889.293515
 21
-156.006764
 31
0.0
  0
LINE
  8
0
  6
BYLAYER
 62
     7
 10
901.293515
 20
-118.006764
 30
0.0
 11
909.293515
 21
-118.006764
 31
0.0
  0
LINE
  8
0
  6
BYLAYER
 62
     7
 10
901.293515
 20
-126.006764
 30
0.0
 11
901.293515
 21
-118.006764
 31
0.0
  0
LINE
  8
0
  6
BYLAYER
 62
     7
 10
901.293515
 20
-126.006764
 30
0.0
 11
909.293515
 21
-126.006764
 31
0.0
  0
LINE
  8
0
  6
BYLAYER
 62
     7
 10
909.293515
 20
-118.006764
 30
0.0
 11
909.293515
 21
-126.006764
 31
0.0
  0
LINE
  8
0
  6
BYLAYER
 62
     7
 10
891.293515
 20
-138.006764
 30
0.0
 11
899.293515
 21
-138.006764
 31
0.0
  0
LINE
  8
0
  6
BYLAYER
 62
     7
 10
891.293515
 20
-146.006764
 30
0.0
 11
891.293515
 21
-138.006764
 31
0.0
  0
LINE
  8
0
  6
BYLAYER
 62
     7
 10
891.293515
 20
-146.006764
 30
0.0
 11
899.293515
 21
-146.006764
 31
0.0
  0
LINE
  8
0
  6
BYLAYER
 62
     7
 10
899.293515
 20
-138.006764
 30
0.0
 11
899.293515
 21
-146.006764
 31
0.0
  0
LINE
  8
0
  6
BYLAYER
 62
     7
 10
859.293515
 20
-106.006764
 30
0.0
 11
851.293515
 21
-106.006764
 31
0.0
  0
LINE
  8
0
  6
BYLAYER
 62
     7
 10
859.293515
 20
-88.006764
 30
0.0
 11
859.293515
 21
-96.006764
 31
0.0
  0
LINE
  8
0
  6
BYLAYER
 62
     7
 10
859.293515
 20
-78.006764
 30
0.0
 11
859.293515
 21
-86.006764
 31
0.0
  0
LINE
  8
0
  6
BYLAYER
 62
     7
 10
859.293515
 20
-98.006764
 30
0.0
 11
859.293515
 21
-106.006764
 31
0.0
  0
LINE
  8
0
  6
BYLAYER
 62
     7
 10
851.293515
 20
-86.006764
 30
0.0
 11
851.293515
 21
-78.006764
 31
0.0
  0
LINE
  8
0
  6
BYLAYER
 62
     7
 10
849.293515
 20
-86.006764
 30
0.0
 11
849.293515
 21
-78.006764
 31
0.0
  0
LINE
  8
0
  6
BYLAYER
 62
     7
 10
859.293515
 20
-98.006764
 30
0.0
 11
851.293515
 21
-98.006764
 31
0.0
  0
LINE
  8
0
  6
BYLAYER
 62
     7
 10
859.293515
 20
-96.006764
 30
0.0
 11
851.293515
 21
-96.006764
 31
0.0
  0
LINE
  8
0
  6
BYLAYER
 62
     7
 10
859.293515
 20
-88.006764
 30
0.0
 11
851.293515
 21
-88.006764
 31
0.0
  0
LINE
  8
0
  6
BYLAYER
 62
     7
 10
849.293515
 20
-86.006764
 30
0.0
 11
841.455516
 21
-86.006764
 31
0.0
  0
LINE
  8
0
  6
BYLAYER
 62
     7
 10
859.293515
 20
-86.006764
 30
0.0
 11
851.293515
 21
-86.006764
 31
0.0
  0
LINE
  8
0
  6
BYLAYER
 62
     7
 10
849.293515
 20
-78.006764
 30
0.0
 11
841.455516
 21
-78.006764
 31
0.0
  0
LINE
  8
0
  6
BYLAYER
 62
     7
 10
859.293515
 20
-78.006764
 30
0.0
 11
851.293515
 21
-78.006764
 31
0.0
  0
LINE
  8
0
  6
BYLAYER
 62
     7
 10
841.455516
 20
-86.006764
 30
0.0
 11
841.455516
 21
-78.006764
 31
0.0
  0
LINE
  8
0
  6
BYLAYER
 62
     7
 10
851.293515
 20
-106.006764
 30
0.0
 11
851.293515
 21
-98.006764
 31
0.0
  0
LINE
  8
0
  6
BYLAYER
 62
     7
 10
851.293515
 20
-96.006764
 30
0.0
 11
851.293515
 21
-88.006764
 31
0.0
  0
LINE
  8
0
  6
BYLAYER
 62
     7
 10
849.293515
 20
-106.006764
 30
0.0
 11
841.293515
 21
-106.006764
 31
0.0
  0
LINE
  8
0
  6
BYLAYER
 62
     7
 10
849.293515
 20
-88.006764
 30
0.0
 11
849.293515
 21
-96.006764
 31
0.0
  0
LINE
  8
0
  6
BYLAYER
 62
     7
 10
849.293515
 20
-98.006764
 30
0.0
 11
849.293515
 21
-106.006764
 31
0.0
  0
LINE
  8
0
  6
BYLAYER
 62
     7
 10
849.293515
 20
-98.006764
 30
0.0
 11
841.293515
 21
-98.006764
 31
0.0
  0
LINE
  8
0
  6
BYLAYER
 62
     7
 10
849.293515
 20
-96.006764
 30
0.0
 11
841.293515
 21
-96.006764
 31
0.0
  0
LINE
  8
0
  6
BYLAYER
 62
     7
 10
849.293515
 20
-88.006764
 30
0.0
 11
841.293515
 21
-88.006764
 31
0.0
  0
LINE
  8
0
  6
BYLAYER
 62
     7
 10
841.293515
 20
-106.006764
 30
0.0
 11
841.293515
 21
-98.006764
 31
0.0
  0
LINE
  8
0
  6
BYLAYER
 62
     7
 10
841.293515
 20
-96.006764
 30
0.0
 11
841.293515
 21
-88.006764
 31
0.0
  0
LINE
  8
0
  6
BYLAYER
 62
     7
 10
839.293515
 20
-106.006764
 30
0.0
 11
831.293515
 21
-106.006764
 31
0.0
  0
LINE
  8
0
  6
BYLAYER
 62
     7
 10
839.293515
 20
-88.006764
 30
0.0
 11
839.293515
 21
-96.006764
 31
0.0
  0
LINE
  8
0
  6
BYLAYER
 62
     7
 10
839.293515
 20
-98.006764
 30
0.0
 11
839.293515
 21
-106.006764
 31
0.0
  0
LINE
  8
0
  6
BYLAYER
 62
     7
 10
839.293515
 20
-98.006764
 30
0.0
 11
831.293515
 21
-98.006764
 31
0.0
  0
LINE
  8
0
  6
BYLAYER
 62
     7
 10
839.293515
 20
-96.006764
 30
0.0
 11
831.293515
 21
-96.006764
 31
0.0
  0
LINE
  8
0
  6
BYLAYER
 62
     7
 10
839.293515
 20
-88.006764
 30
0.0
 11
831.293515
 21
-88.006764
 31
0.0
  0
LINE
  8
0
  6
BYLAYER
 62
     7
 10
831.293515
 20
-106.006764
 30
0.0
 11
831.293515
 21
-98.006764
 31
0.0
  0
LINE
  8
0
  6
BYLAYER
 62
     7
 10
831.293515
 20
-96.006764
 30
0.0
 11
831.293515
 21
-88.006764
 31
0.0
  0
LINE
  8
0
  6
BYLAYER
 62
     7
 10
849.293515
 20
-116.006764
 30
0.0
 11
841.293515
 21
-116.006764
 31
0.0
  0
LINE
  8
0
  6
BYLAYER
 62
     7
 10
849.293515
 20
-108.006764
 30
0.0
 11
849.293515
 21
-116.006764
 31
0.0
  0
LINE
  8
0
  6
BYLAYER
 62
     7
 10
849.293515
 20
-108.006764
 30
0.0
 11
841.293515
 21
-108.006764
 31
0.0
  0
LINE
  8
0
  6
BYLAYER
 62
     7
 10
841.293515
 20
-116.006764
 30
0.0
 11
841.293515
 21
-108.006764
 31
0.0
  0
LINE
  8
0
  6
BYLAYER
 62
     7
 10
839.293515
 20
-116.006764
 30
0.0
 11
831.293515
 21
-116.006764
 31
0.0
  0
LINE
  8
0
  6
BYLAYER
 62
     7
 10
839.293515
 20
-108.006764
 30
0.0
 11
839.293515
 21
-116.006764
 31
0.0
  0
LINE
  8
0
  6
BYLAYER
 62
     7
 10
839.293515
 20
-108.006764
 30
0.0
 11
831.293515
 21
-108.006764
 31
0.0
  0
LINE
  8
0
  6
BYLAYER
 62
     7
 10
831.293515
 20
-116.006764
 30
0.0
 11
831.293515
 21
-108.006764
 31
0.0
  0
LINE
  8
0
  6
BYLAYER
 62
     7
 10
829.293515
 20
-106.006764
 30
0.0
 11
821.293515
 21
-106.006764
 31
0.0
  0
LINE
  8
0
  6
BYLAYER
 62
     7
 10
829.293515
 20
-98.006764
 30
0.0
 11
829.293515
 21
-106.006764
 31
0.0
  0
LINE
  8
0
  6
BYLAYER
 62
     7
 10
829.293515
 20
-98.006764
 30
0.0
 11
821.293515
 21
-98.006764
 31
0.0
  0
LINE
  8
0
  6
BYLAYER
 62
     7
 10
821.293515
 20
-106.006764
 30
0.0
 11
821.293515
 21
-98.006764
 31
0.0
  0
LINE
  8
0
  6
BYLAYER
 62
     7
 10
829.293515
 20
-116.006764
 30
0.0
 11
821.293515
 21
-116.006764
 31
0.0
  0
LINE
  8
0
  6
BYLAYER
 62
     7
 10
829.293515
 20
-108.006764
 30
0.0
 11
829.293515
 21
-116.006764
 31
0.0
  0
LINE
  8
0
  6
BYLAYER
 62
     7
 10
829.293515
 20
-108.006764
 30
0.0
 11
821.293515
 21
-108.006764
 31
0.0
  0
LINE
  8
0
  6
BYLAYER
 62
     7
 10
821.293515
 20
-116.006764
 30
0.0
 11
821.293515
 21
-108.006764
 31
0.0
  0
LINE
  8
0
  6
BYLAYER
 62
     7
 10
859.293515
 20
-68.006764
 30
0.0
 11
859.293515
 21
-76.006764
 31
0.0
  0
LINE
  8
0
  6
BYLAYER
 62
     7
 10
851.293515
 20
-76.006764
 30
0.0
 11
851.293515
 21
-68.006764
 31
0.0
  0
LINE
  8
0
  6
BYLAYER
 62
     7
 10
859.293515
 20
-76.006764
 30
0.0
 11
851.293515
 21
-76.006764
 31
0.0
  0
LINE
  8
0
  6
BYLAYER
 62
     7
 10
859.293515
 20
-68.006764
 30
0.0
 11
851.293515
 21
-68.006764
 31
0.0
  0
LINE
  8
0
  6
BYLAYER
 62
     7
 10
839.293515
 20
-78.006764
 30
0.0
 11
839.293515
 21
-86.006764
 31
0.0
  0
LINE
  8
0
  6
BYLAYER
 62
     7
 10
839.293515
 20
-86.006764
 30
0.0
 11
831.293515
 21
-86.006764
 31
0.0
  0
LINE
  8
0
  6
BYLAYER
 62
     7
 10
839.293515
 20
-78.006764
 30
0.0
 11
831.293515
 21
-78.006764
 31
0.0
  0
LINE
  8
0
  6
BYLAYER
 62
     7
 10
831.293515
 20
-86.006764
 30
0.0
 11
831.293515
 21
-78.006764
 31
0.0
  0
LINE
  8
0
  6
BYLAYER
 62
     7
 10
819.293515
 20
-116.006764
 30
0.0
 11
811.293515
 21
-116.006764
 31
0.0
  0
LINE
  8
0
  6
BYLAYER
 62
     7
 10
819.293515
 20
-108.006764
 30
0.0
 11
819.293515
 21
-116.006764
 31
0.0
  0
LINE
  8
0
  6
BYLAYER
 62
     7
 10
819.293515
 20
-108.006764
 30
0.0
 11
811.293515
 21
-108.006764
 31
0.0
  0
LINE
  8
0
  6
BYLAYER
 62
     7
 10
811.293515
 20
-116.006764
 30
0.0
 11
811.293515
 21
-108.006764
 31
0.0
  0
LINE
  8
0
  6
BYLAYER
 62
     7
 10
829.293515
 20
-96.006764
 30
0.0
 11
821.293515
 21
-96.006764
 31
0.0
  0
LINE
  8
0
  6
BYLAYER
 62
     7
 10
829.293515
 20
-88.006764
 30
0.0
 11
829.293515
 21
-96.006764
 31
0.0
  0
LINE
  8
0
  6
BYLAYER
 62
     7
 10
829.293515
 20
-88.006764
 30
0.0
 11
821.293515
 21
-88.006764
 31
0.0
  0
LINE
  8
0
  6
BYLAYER
 62
     7
 10
821.293515
 20
-96.006764
 30
0.0
 11
821.293515
 21
-88.006764
 31
0.0
  0
LINE
  8
0
  6
BYLAYER
 62
     7
 10
859.293515
 20
-128.006764
 30
0.0
 11
851.293515
 21
-128.006764
 31
0.0
  0
LINE
  8
0
  6
BYLAYER
 62
     7
 10
859.293515
 20
-146.006764
 30
0.0
 11
859.293515
 21
-138.006764
 31
0.0
  0
LINE
  8
0
  6
BYLAYER
 62
     7
 10
859.293515
 20
-156.006764
 30
0.0
 11
859.293515
 21
-148.006764
 31
0.0
  0
LINE
  8
0
  6
BYLAYER
 62
     7
 10
859.293515
 20
-136.006764
 30
0.0
 11
859.293515
 21
-128.006764
 31
0.0
  0
LINE
  8
0
  6
BYLAYER
 62
     7
 10
851.293515
 20
-148.006764
 30
0.0
 11
851.293515
 21
-156.006764
 31
0.0
  0
LINE
  8
0
  6
BYLAYER
 62
     7
 10
849.293515
 20
-148.006764
 30
0.0
 11
849.293515
 21
-156.006764
 31
0.0
  0
LINE
  8
0
  6
BYLAYER
 62
     7
 10
859.293515
 20
-136.006764
 30
0.0
 11
851.293515
 21
-136.006764
 31
0.0
  0
LINE
  8
0
  6
BYLAYER
 62
     7
 10
859.293515
 20
-138.006764
 30
0.0
 11
851.293515
 21
-138.006764
 31
0.0
  0
LINE
  8
0
  6
BYLAYER
 62
     7
 10
859.293515
 20
-146.006764
 30
0.0
 11
851.293515
 21
-146.006764
 31
0.0
  0
LINE
  8
0
  6
BYLAYER
 62
     7
 10
849.293515
 20
-148.006764
 30
0.0
 11
841.455516
 21
-148.006764
 31
0.0
  0
LINE
  8
0
  6
BYLAYER
 62
     7
 10
859.293515
 20
-148.006764
 30
0.0
 11
851.293515
 21
-148.006764
 31
0.0
  0
LINE
  8
0
  6
BYLAYER
 62
     7
 10
849.293515
 20
-156.006764
 30
0.0
 11
841.455516
 21
-156.006764
 31
0.0
  0
LINE
  8
0
  6
BYLAYER
 62
     7
 10
859.293515
 20
-156.006764
 30
0.0
 11
851.293515
 21
-156.006764
 31
0.0
  0
LINE
  8
0
  6
BYLAYER
 62
     7
 10
841.455516
 20
-148.006764
 30
0.0
 11
841.455516
 21
-156.006764
 31
0.0
  0
LINE
  8
0
  6
BYLAYER
 62
     7
 10
851.293515
 20
-128.006764
 30
0.0
 11
851.293515
 21
-136.006764
 31
0.0
  0
LINE
  8
0
  6
BYLAYER
 62
     7
 10
851.293515
 20
-138.006764
 30
0.0
 11
851.293515
 21
-146.006764
 31
0.0
  0
LINE
  8
0
  6
BYLAYER
 62
     7
 10
849.293515
 20
-128.006764
 30
0.0
 11
841.293515
 21
-128.006764
 31
0.0
  0
LINE
  8
0
  6
BYLAYER
 62
     7
 10
849.293515
 20
-146.006764
 30
0.0
 11
849.293515
 21
-138.006764
 31
0.0
  0
LINE
  8
0
  6
BYLAYER
 62
     7
 10
849.293515
 20
-136.006764
 30
0.0
 11
849.293515
 21
-128.006764
 31
0.0
  0
LINE
  8
0
  6
BYLAYER
 62
     7
 10
849.293515
 20
-136.006764
 30
0.0
 11
841.293515
 21
-136.006764
 31
0.0
  0
LINE
  8
0
  6
BYLAYER
 62
     7
 10
849.293515
 20
-138.006764
 30
0.0
 11
841.293515
 21
-138.006764
 31
0.0
  0
LINE
  8
0
  6
BYLAYER
 62
     7
 10
849.293515
 20
-146.006764
 30
0.0
 11
841.293515
 21
-146.006764
 31
0.0
  0
LINE
  8
0
  6
BYLAYER
 62
     7
 10
841.293515
 20
-128.006764
 30
0.0
 11
841.293515
 21
-136.006764
 31
0.0
  0
LINE
  8
0
  6
BYLAYER
 62
     7
 10
841.293515
 20
-138.006764
 30
0.0
 11
841.293515
 21
-146.006764
 31
0.0
  0
LINE
  8
0
  6
BYLAYER
 62
     7
 10
839.293515
 20
-128.006764
 30
0.0
 11
831.293515
 21
-128.006764
 31
0.0
  0
LINE
  8
0
  6
BYLAYER
 62
     7
 10
839.293515
 20
-146.006764
 30
0.0
 11
839.293515
 21
-138.006764
 31
0.0
  0
LINE
  8
0
  6
BYLAYER
 62
     7
 10
839.293515
 20
-136.006764
 30
0.0
 11
839.293515
 21
-128.006764
 31
0.0
  0
LINE
  8
0
  6
BYLAYER
 62
     7
 10
839.293515
 20
-136.006764
 30
0.0
 11
831.293515
 21
-136.006764
 31
0.0
  0
LINE
  8
0
  6
BYLAYER
 62
     7
 10
839.293515
 20
-138.006764
 30
0.0
 11
831.293515
 21
-138.006764
 31
0.0
  0
LINE
  8
0
  6
BYLAYER
 62
     7
 10
839.293515
 20
-146.006764
 30
0.0
 11
831.293515
 21
-146.006764
 31
0.0
  0
LINE
  8
0
  6
BYLAYER
 62
     7
 10
831.293515
 20
-128.006764
 30
0.0
 11
831.293515
 21
-136.006764
 31
0.0
  0
LINE
  8
0
  6
BYLAYER
 62
     7
 10
831.293515
 20
-138.006764
 30
0.0
 11
831.293515
 21
-146.006764
 31
0.0
  0
LINE
  8
0
  6
BYLAYER
 62
     7
 10
849.293515
 20
-118.006764
 30
0.0
 11
841.293515
 21
-118.006764
 31
0.0
  0
LINE
  8
0
  6
BYLAYER
 62
     7
 10
849.293515
 20
-126.006764
 30
0.0
 11
849.293515
 21
-118.006764
 31
0.0
  0
LINE
  8
0
  6
BYLAYER
 62
     7
 10
849.293515
 20
-126.006764
 30
0.0
 11
841.293515
 21
-126.006764
 31
0.0
  0
LINE
  8
0
  6
BYLAYER
 62
     7
 10
841.293515
 20
-118.006764
 30
0.0
 11
841.293515
 21
-126.006764
 31
0.0
  0
LINE
  8
0
  6
BYLAYER
 62
     7
 10
839.293515
 20
-118.006764
 30
0.0
 11
831.293515
 21
-118.006764
 31
0.0
  0
LINE
  8
0
  6
BYLAYER
 62
     7
 10
839.293515
 20
-126.006764
 30
0.0
 11
839.293515
 21
-118.006764
 31
0.0
  0
LINE
  8
0
  6
BYLAYER
 62
     7
 10
839.293515
 20
-126.006764
 30
0.0
 11
831.293515
 21
-126.006764
 31
0.0
  0
LINE
  8
0
  6
BYLAYER
 62
     7
 10
831.293515
 20
-118.006764
 30
0.0
 11
831.293515
 21
-126.006764
 31
0.0
  0
LINE
  8
0
  6
BYLAYER
 62
     7
 10
829.293515
 20
-128.006764
 30
0.0
 11
821.293515
 21
-128.006764
 31
0.0
  0
LINE
  8
0
  6
BYLAYER
 62
     7
 10
829.293515
 20
-136.006764
 30
0.0
 11
829.293515
 21
-128.006764
 31
0.0
  0
LINE
  8
0
  6
BYLAYER
 62
     7
 10
829.293515
 20
-136.006764
 30
0.0
 11
821.293515
 21
-136.006764
 31
0.0
  0
LINE
  8
0
  6
BYLAYER
 62
     7
 10
821.293515
 20
-128.006764
 30
0.0
 11
821.293515
 21
-136.006764
 31
0.0
  0
LINE
  8
0
  6
BYLAYER
 62
     7
 10
829.293515
 20
-118.006764
 30
0.0
 11
821.293515
 21
-118.006764
 31
0.0
  0
LINE
  8
0
  6
BYLAYER
 62
     7
 10
829.293515
 20
-126.006764
 30
0.0
 11
829.293515
 21
-118.006764
 31
0.0
  0
LINE
  8
0
  6
BYLAYER
 62
     7
 10
829.293515
 20
-126.006764
 30
0.0
 11
821.293515
 21
-126.006764
 31
0.0
  0
LINE
  8
0
  6
BYLAYER
 62
     7
 10
821.293515
 20
-118.006764
 30
0.0
 11
821.293515
 21
-126.006764
 31
0.0
  0
LINE
  8
0
  6
BYLAYER
 62
     7
 10
859.293515
 20
-166.006764
 30
0.0
 11
859.293515
 21
-158.006764
 31
0.0
  0
LINE
  8
0
  6
BYLAYER
 62
     7
 10
851.293515
 20
-158.006764
 30
0.0
 11
851.293515
 21
-166.006764
 31
0.0
  0
LINE
  8
0
  6
BYLAYER
 62
     7
 10
859.293515
 20
-158.006764
 30
0.0
 11
851.293515
 21
-158.006764
 31
0.0
  0
LINE
  8
0
  6
BYLAYER
 62
     7
 10
859.293515
 20
-166.006764
 30
0.0
 11
851.293515
 21
-166.006764
 31
0.0
  0
LINE
  8
0
  6
BYLAYER
 62
     7
 10
839.293515
 20
-156.006764
 30
0.0
 11
839.293515
 21
-148.006764
 31
0.0
  0
LINE
  8
0
  6
BYLAYER
 62
     7
 10
839.293515
 20
-148.006764
 30
0.0
 11
831.293515
 21
-148.006764
 31
0.0
  0
LINE
  8
0
  6
BYLAYER
 62
     7
 10
839.293515
 20
-156.006764
 30
0.0
 11
831.293515
 21
-156.006764
 31
0.0
  0
LINE
  8
0
  6
BYLAYER
 62
     7
 10
831.293515
 20
-148.006764
 30
0.0
 11
831.293515
 21
-156.006764
 31
0.0
  0
LINE
  8
0
  6
BYLAYER
 62
     7
 10
819.293515
 20
-118.006764
 30
0.0
 11
811.293515
 21
-118.006764
 31
0.0
  0
LINE
  8
0
  6
BYLAYER
 62
     7
 10
819.293515
 20
-126.006764
 30
0.0
 11
819.293515
 21
-118.006764
 31
0.0
  0
LINE
  8
0
  6
BYLAYER
 62
     7
 10
819.293515
 20
-126.006764
 30
0.0
 11
811.293515
 21
-126.006764
 31
0.0
  0
LINE
  8
0
  6
BYLAYER
 62
     7
 10
811.293515
 20
-118.006764
 30
0.0
 11
811.293515
 21
-126.006764
 31
0.0
  0
LINE
  8
0
  6
BYLAYER
 62
     7
 10
829.293515
 20
-138.006764
 30
0.0
 11
821.293515
 21
-138.006764
 31
0.0
  0
LINE
  8
0
  6
BYLAYER
 62
     7
 10
829.293515
 20
-146.006764
 30
0.0
 11
829.293515
 21
-138.006764
 31
0.0
  0
LINE
  8
0
  6
BYLAYER
 62
     7
 10
829.293515
 20
-146.006764
 30
0.0
 11
821.293515
 21
-146.006764
 31
0.0
  0
LINE
  8
0
  6
BYLAYER
 62
     7
 10
821.293515
 20
-138.006764
 30
0.0
 11
821.293515
 21
-146.006764
 31
0.0
  0
ARC
  8
0
  6
BYLAYER
 62
     7
 10
896.043515
 20
-29.506764
 30
0.0
 40
1.500000
 50
180.000000
 51
265.219808
  0
ARC
  8
0
  6
BYLAYER
 62
     7
 10
824.543515
 20
-29.506764
 30
0.0
 40
1.5
 50
274.780192
 51
360.000000
  0
ARC
  8
0
  6
BYLAYER
 62
     7
 10
832.539177
 20
-29.506764
 30
0.0
 40
1.500000
 50
270.0
 51
360.0
  0
LINE
  8
0
  6
BYLAYER
 62
     7
 10
894.543515
 20
-29.506764
 30
0.0
 11
894.543515
 21
-8.006764
 31
0.0
  0
LINE
  8
0
  6
BYLAYER
 62
     7
 10
893.043515
 20
-6.506764
 30
0.0
 11
827.543515
 21
-6.506764
 31
0.0
  0
ARC
  8
0
  6
BYLAYER
 62
     7
 10
893.043515
 20
-8.006764
 30
0.0
 40
1.500000
 50
0.0
 51
90.0
  0
ARC
  8
0
  6
BYLAYER
 62
     7
 10
827.543515
 20
-8.006764
 30
0.0
 40
1.500000
 50
90.0
 51
180.0
  0
LINE
  8
0
  6
BYLAYER
 62
     7
 10
826.043515
 20
-29.506764
 30
0.0
 11
826.043515
 21
-8.006764
 31
0.0
  0
LINE
  8
0
  6
BYLAYER
 62
     7
 10
834.039177
 20
-29.506764
 30
0.0
 11
834.039177
 21
-8.006764
 31
0.0
  0
ARC
  8
0
  6
BYLAYER
 62
     7
 10
835.539177
 20
-8.006764
 30
0.0
 40
1.500000
 50
90.0
 51
180.0
  0
ARC
  8
0
  6
BYLAYER
 62
     7
 10
885.047853
 20
-8.006764
 30
0.0
 40
1.500000
 50
0.0
 51
90.0
  0
LINE
  8
0
  6
BYLAYER
 62
     7
 10
839.699862
 20
-6.506764
 30
0.0
 11
840.192409
 21
-20.611463
 31
0.0
  0
ARC
  8
0
  6
BYLAYER
 62
     7
 10
843.190581
 20
-20.506764
 30
0.0
 40
3.000000
 50
182.0
 51
270.0
  0
LINE
  8
0
  6
BYLAYER
 62
     7
 10
850.394621
 20
-20.611463
 30
0.0
 11
850.887168
 21
-6.506764
 31
0.0
  0
ARC
  8
0
  6
BYLAYER
 62
     7
 10
847.396449
 20
-20.506764
 30
0.0
 40
3.000000
 50
270.0
 51
358.0
  0
LINE
  8
0
  6
BYLAYER
 62
     7
 10
865.394621
 20
-20.611463
 30
0.0
 11
865.887168
 21
-6.506764
 31
0.0
  0
ARC
  8
0
  6
BYLAYER
 62
     7
 10
862.396449
 20
-20.506764
 30
0.0
 40
3.000000
 50
270.0
 51
358.0
  0
LINE
  8
0
  6
BYLAYER
 62
     7
 10
880.394621
 20
-20.611463
 30
0.0
 11
880.887168
 21
-6.506764
 31
0.0
  0
ARC
  8
0
  6
BYLAYER
 62
     7
 10
877.396449
 20
-20.506764
 30
0.0
 40
3.000000
 50
270.0
 51
358.0
  0
LINE
  8
0
  6
BYLAYER
 62
     7
 10
869.699862
 20
-6.506764
 30
0.0
 11
870.192409
 21
-20.611463
 31
0.0
  0
ARC
  8
0
  6
BYLAYER
 62
     7
 10
873.190581
 20
-20.506764
 30
0.0
 40
3.000000
 50
182.0
 51
270.0
  0
LINE
  8
0
  6
BYLAYER
 62
     7
 10
854.699862
 20
-6.506764
 30
0.0
 11
855.192409
 21
-20.611463
 31
0.0
  0
ARC
  8
0
  6
BYLAYER
 62
     7
 10
858.190581
 20
-20.506764
 30
0.0
 40
3.000000
 50
182.0
 51
270.0
  0
LINE
  8
0
  6
BYLAYER
 62
     7
 10
873.190581
 20
-23.506764
 30
0.0
 11
877.396449
 21
-23.506764
 31
0.0
  0
LINE
  8
0
  6
BYLAYER
 62
     7
 10
858.190581
 20
-23.506764
 30
0.0
 11
862.396449
 21
-23.506764
 31
0.0
  0
LINE
  8
0
  6
BYLAYER
 62
     7
 10
843.190581
 20
-23.506764
 30
0.0
 11
847.396449
 21
-23.506764
 31
0.0
  0
LINE
  8
0
  6
BYLAYER
 62
     7
 10
854.734783
 20
-7.506764
 30
0.0
 11
865.852247
 21
-7.506764
 31
0.0
  0
LINE
  8
0
  6
BYLAYER
 62
     7
 10
869.734783
 20
-7.506764
 30
0.0
 11
880.852247
 21
-7.506764
 31
0.0
  0
LINE
  8
0
  6
BYLAYER
 62
     7
 10
839.734783
 20
-7.506764
 30
0.0
 11
850.852247
 21
-7.506764
 31
0.0
  0
LINE
  8
0
  6
BYLAYER
 62
     7
 10
886.547853
 20
-8.006764
 30
0.0
 11
886.547853
 21
-29.506764
 31
0.0
  0
ARC
  8
0
  6
BYLAYER
 62
     7
 10
824.793515
 20
-32.496330
 30
0.0
 40
1.5
 50
94.780192
 51
180.000000
  0
LINE
  8
0
  6
BYLAYER
 62
     7
 10
824.793515
 20
-31.006764
 30
0.0
 11
896.043515
 21
-31.006764
 31
0.0
  0
ARC
  8
0
  6
BYLAYER
 62
     7
 10
895.793515
 20
-32.496330
 30
0.0
 40
1.500000
 50
0.0
 51
85.219808
  0
LINE
  8
0
  6
BYLAYER
 62
     7
 10
897.293515
 20
-40.006764
 30
0.0
 11
897.293515
 21
-32.496330
 31
0.0
  0
ARC
  8
0
  6
BYLAYER
 62
     7
 10
888.047853
 20
-29.506764
 30
0.0
 40
1.500000
 50
180.000000
 51
270.000000
  0
LINE
  8
0
  6
BYLAYER
 62
     7
 10
897.293515
 20
-38.006703
 30
0.0
 11
823.293515
 21
-38.006703
 31
0.0
  0
LINE
  8
0
  6
BYLAYER
 62
     7
 10
823.293515
 20
-32.496330
 30
0.0
 11
823.293515
 21
-40.006764
 31
0.0
  0
LINE
  8
0
  6
BYLAYER
 62
     7
 10
823.293515
 20
-40.006764
 30
0.0
 11
897.293515
 21
-40.006764
 31
0.0
  0
LINE
  8
0
  6
BYLAYER
 62
     1
 10
807.293515
 20
-176.931718
 30
0.0
 11
807.293515
 21
-185.006857
 31
0.0
  0
LINE
  8
0
  6
BYLAYER
 62
     1
 10
826.793515
 20
-202.006857
 30
0.0
 11
826.793515
 21
-189.654889
 31
0.0
  0
ARC
  8
0
  6
BYLAYER
 62
     1
 10
817.793515
 20
-180.006857
 30
0.0
 40
4.250000
 50
215.911734
 51
256.080889
  0
LINE
  8
0
  6
BYLAYER
 62
     1
 10
808.793515
 20
-202.006857
 30
0.0
 11
826.793515
 21
-202.006857
 31
0.0
  0
LINE
  8
0
  6
BYLAYER
 62
     1
 10
808.793515
 20
-178.225634
 30
0.0
 11
808.793515
 21
-202.006857
 31
0.0
  0
LINE
  8
0
  6
BYLAYER
 62
     1
 10
807.293515
 20
-185.006857
 30
0.0
 11
808.793515
 21
-185.059255
 31
0.0
  0
LINE
  8
0
  6
BYLAYER
 62
     1
 10
893.793515
 20
-189.654889
 30
0.0
 11
893.793515
 21
-202.006857
 31
0.0
  0
LINE
  8
0
  6
BYLAYER
 62
     1
 10
913.293515
 20
-176.931718
 30
0.0
 11
913.293515
 21
-185.006857
 31
0.0
  0
LINE
  8
0
  6
BYLAYER
 62
     1
 10
911.793515
 20
-202.006857
 30
0.0
 11
911.793515
 21
-178.225634
 31
0.0
  0
LINE
  8
0
  6
BYLAYER
 62
     1
 10
911.793515
 20
-202.006857
 30
0.0
 11
893.793515
 21
-202.006857
 31
0.0
  0
LINE
  8
0
  6
BYLAYER
 62
     1
 10
913.293515
 20
-185.006857
 30
0.0
 11
911.793515
 21
-185.059255
 31
0.0
  0
ARC
  8
0
  6
BYLAYER
 62
     1
 10
902.793515
 20
-180.006857
 30
0.0
 40
4.250000
 50
283.919111
 51
324.088266
  0
LINE
  8
0
  6
BYLAYER
 62
     1
 10
893.793515
 20
-198.006857
 30
0.0
 11
826.793515
 21
-198.006857
 31
0.0
  0
ARC
  8
0
  6
BYLAYER
 62
     1
 10
860.293557
 20
-617.006764
 30
0.0
 40
80.0
 50
311.490769
 51
390.28676
  0
ARC
  8
0
  6
BYLAYER
 62
     1
 10
860.293557
 20
-617.006764
 30
0.0
 40
80.0
 50
149.713240
 51
228.509143
  0
ARC
  8
0
  6
BYLAYER
 62
     1
 10
860.293515
 20
-567.006795
 30
0.0
 40
67.5
 50
326.060699
 51
573.939289
  0
LINE
  8
0
  6
BYLAYER
 62
     1
 10
793.350683
 20
-575.661693
 30
0.0
 11
792.904707
 21
-575.669478
 31
0.0
  0
ARC
  8
0
  6
BYLAYER
 62
     1
 10
792.939612
 20
-577.669173
 30
0.0
 40
2.000000
 50
91.000000
 51
149.713240
  0
LINE
  8
0
  6
BYLAYER
 62
     1
 10
927.236347
 20
-575.661692
 30
0.0
 11
927.682407
 21
-575.669478
 31
0.0
  0
ARC
  8
0
  6
BYLAYER
 62
     1
 10
927.647502
 20
-577.669173
 30
0.0
 40
2.000000
 50
30.286760
 51
89.000000
  0
LINE
  8
0
  6
BYLAYER
 62
     1
 10
804.293515
 20
-616.168691
 30
0.0
 11
780.311106
 21
-615.331207
 31
0.0
  0
LINE
  8
0
  6
BYLAYER
 62
     1
 10
804.293515
 20
-647.844892
 30
0.0
 11
786.735299
 21
-648.458039
 31
0.0
  0
LINE
  8
0
  6
BYLAYER
 62
     7
 10
894.543557
 20
-508.841645
 30
0.0
 11
894.543557
 21
-508.006764
 31
0.0
  0
LINE
  8
0
  6
BYLAYER
 62
     7
 10
830.360318
 20
-506.506764
 30
0.0
 11
827.543557
 21
-506.506764
 31
0.0
  0
ARC
  8
0
  6
BYLAYER
 62
     7
 10
893.043557
 20
-508.006764
 30
0.0
 40
1.5
 50
0.0
 51
90.0
  0
ARC
  8
0
  6
BYLAYER
 62
     7
 10
827.543557
 20
-508.006764
 30
0.0
 40
1.5
 50
90.0
 51
180.0
  0
LINE
  8
0
  6
BYLAYER
 62
     7
 10
826.043557
 20
-508.841596
 30
0.0
 11
826.043557
 21
-508.006764
 31
0.0
  0
LINE
  8
0
  6
BYLAYER
 62
     7
 10
890.226712
 20
-506.506764
 30
0.0
 11
893.043557
 21
-506.506764
 31
0.0
  0
ARC
  8
0
  6
BYLAYER
 62
     1
 10
891.793507
 20
-557.170736
 30
0.0
 40
2.0
 50
197.341476
 51
360.000000
  0
LINE
  8
0
  6
BYLAYER
 62
     1
 10
893.278310
 20
-566.006795
 30
0.0
 11
911.793507
 21
-566.006795
 31
0.0
  0
LINE
  8
0
  6
BYLAYER
 62
     1
 10
860.293515
 20
-529.006803
 30
0.0
 11
893.793507
 21
-529.006803
 31
0.0
  0
LINE
  8
0
  6
BYLAYER
 62
     1
 10
807.293515
 20
-685.006857
 30
0.0
 11
807.293515
 21
-617.891164
 31
0.0
  0
LINE
  8
0
  6
BYLAYER
 62
     1
 10
804.293515
 20
-669.506857
 30
0.0
 11
804.293515
 21
-590.506795
 31
0.0
  0
LINE
  8
0
  6
BYLAYER
 62
     1
 10
826.793515
 20
-566.006795
 30
0.0
 11
826.793515
 21
-702.006857
 31
0.0
  0
LINE
  8
0
  6
BYLAYER
 62
     1
 10
809.793515
 20
-663.006795
 30
0.0
 11
809.793515
 21
-567.006795
 31
0.0
  0
CIRCLE
  8
0
  6
BYLAYER
 62
     1
 10
817.793515
 20
-680.006857
 30
0.0
 40
4.25
  0
LINE
  8
0
  6
BYLAYER
 62
     1
 10
809.793515
 20
-663.006795
 30
0.0
 11
826.793515
 21
-663.006795
 31
0.0
  0
LINE
  8
0
  6
BYLAYER
 62
     1
 10
826.793515
 20
-664.006857
 30
0.0
 11
808.793515
 21
-664.006857
 31
0.0
  0
LINE
  8
0
  6
BYLAYER
 62
     1
 10
808.793515
 20
-702.006857
 30
0.0
 11
826.793515
 21
-702.006857
 31
0.0
  0
LINE
  8
0
  6
BYLAYER
 62
     1
 10
808.793515
 20
-702.006857
 30
0.0
 11
808.793515
 21
-664.006857
 31
0.0
  0
LINE
  8
0
  6
BYLAYER
 62
     1
 10
807.293515
 20
-685.006857
 30
0.0
 11
808.793515
 21
-685.059255
 31
0.0
  0
LINE
  8
0
  6
BYLAYER
 62
     1
 10
806.893521
 20
-670.006857
 30
0.0
 11
804.793515
 21
-670.006857
 31
0.0
  0
LINE
  8
0
  6
BYLAYER
 62
     1
 10
804.793515
 20
-670.006857
 30
0.0
 11
804.293515
 21
-669.506857
 31
0.0
  0
ARC
  8
0
  6
BYLAYER
 62
     1
 10
806.893521
 20
-670.406850
 30
0.0
 40
0.399994
 50
0.0
 51
90.000003
  0
LINE
  8
0
  6
BYLAYER
 62
     1
 10
808.793515
 20
-664.006857
 30
0.0
 11
809.793515
 21
-663.006795
 31
0.0
  0
LINE
  8
0
  6
BYLAYER
 62
     1
 10
808.793515
 20
-566.006795
 30
0.0
 11
827.308713
 21
-566.006795
 31
0.0
  0
CIRCLE
  8
0
  6
BYLAYER
 62
     1
 10
817.793515
 20
-550.006795
 30
0.0
 40
4.25
  0
LINE
  8
0
  6
BYLAYER
 62
     1
 10
809.793515
 20
-567.006795
 30
0.0
 11
826.793515
 21
-567.006795
 31
0.0
  0
LINE
  8
0
  6
BYLAYER
 62
     1
 10
826.793515
 20
-528.006803
 30
0.0
 11
808.793515
 21
-528.006803
 31
0.0
  0
LINE
  8
0
  6
BYLAYER
 62
     1
 10
807.293515
 20
-611.542684
 30
0.0
 11
807.293515
 21
-575.006857
 31
0.0
  0
LINE
  8
0
  6
BYLAYER
 62
     1
 10
804.293515
 20
-617.943533
 30
0.0
 11
807.293515
 21
-617.891164
 31
0.0
  0
LINE
  8
0
  6
BYLAYER
 62
     1
 10
804.293515
 20
-611.595052
 30
0.0
 11
807.293515
 21
-611.542684
 31
0.0
  0
LINE
  8
0
  6
BYLAYER
 62
     1
 10
806.893521
 20
-590.006795
 30
0.0
 11
804.793515
 21
-590.006795
 31
0.0
  0
LINE
  8
0
  6
BYLAYER
 62
     1
 10
804.793515
 20
-590.006795
 30
0.0
 11
804.293515
 21
-590.506795
 31
0.0
  0
ARC
  8
0
  6
BYLAYER
 62
     1
 10
806.893521
 20
-589.606802
 30
0.0
 40
0.399994
 50
270.0
 51
360.000003
  0
LINE
  8
0
  6
BYLAYER
 62
     1
 10
808.793515
 20
-528.006803
 30
0.0
 11
808.793515
 21
-566.006795
 31
0.0
  0
LINE
  8
0
  6
BYLAYER
 62
     1
 10
807.293515
 20
-575.006857
 30
0.0
 11
809.793515
 21
-574.919546
 31
0.0
  0
LINE
  8
0
  6
BYLAYER
 62
     1
 10
809.793515
 20
-567.006795
 30
0.0
 11
808.793515
 21
-566.006795
 31
0.0
  0
CIRCLE
  8
0
  6
BYLAYER
 62
     1
 10
860.293515
 20
-567.006795
 30
0.0
 40
26.0
  0
ARC
  8
0
  6
BYLAYER
 62
     1
 10
860.293515
 20
-567.006795
 30
0.0
 40
30.999969
 50
330.532607
 51
358.263503
  0
ARC
  8
0
  6
BYLAYER
 62
     1
 10
860.293515
 20
-567.006795
 30
0.0
 40
30.999985
 50
181.736499
 51
209.467395
  0
ARC
  8
0
  6
BYLAYER
 62
     1
 10
860.293515
 20
-567.006795
 30
0.0
 40
30.999969
 50
240.532625
 51
299.467377
  0
ARC
  8
0
  6
BYLAYER
 62
     1
 10
836.605435
 20
-590.694875
 30
0.0
 40
6.999983
 50
124.078036
 51
325.921956
  0
CIRCLE
  8
0
  6
BYLAYER
 62
     1
 10
836.605435
 20
-590.694875
 30
0.0
 40
3.725006
  0
ARC
  8
0
  6
BYLAYER
 62
     1
 10
831.562558
 20
-583.240408
 30
0.0
 40
2.000000
 50
304.077782
 51
389.467386
  0
ARC
  8
0
  6
BYLAYER
 62
     1
 10
844.059903
 20
-595.737753
 30
0.0
 40
2.000000
 50
60.532613
 51
145.922224
  0
ARC
  8
0
  6
BYLAYER
 62
     1
 10
883.981595
 20
-590.694875
 30
0.0
 40
6.999983
 50
214.078032
 51
415.921965
  0
CIRCLE
  8
0
  6
BYLAYER
 62
     1
 10
883.981595
 20
-590.694875
 30
0.0
 40
3.725006
  0
ARC
  8
0
  6
BYLAYER
 62
     1
 10
876.527127
 20
-595.737753
 30
0.0
 40
2.000000
 50
34.077788
 51
119.467372
  0
ARC
  8
0
  6
BYLAYER
 62
     1
 10
889.024464
 20
-583.240408
 30
0.0
 40
2.000000
 50
150.532602
 51
235.922192
  0
ARC
  8
0
  6
BYLAYER
 62
     1
 10
860.293515
 20
-567.006795
 30
0.0
 40
30.999969
 50
60.532613
 51
119.467385
  0
LINE
  8
0
  6
BYLAYER
 62
     1
 10
826.793515
 20
-529.006803
 30
0.0
 11
860.293515
 21
-529.006803
 31
0.0
  0
LINE
  8
0
  6
BYLAYER
 62
     1
 10
826.793515
 20
-557.170736
 30
0.0
 11
826.793515
 21
-528.006803
 31
0.0
  0
ARC
  8
0
  6
BYLAYER
 62
     1
 10
836.605435
 20
-543.318716
 30
0.0
 40
6.999983
 50
34.078037
 51
235.921971
  0
CIRCLE
  8
0
  6
BYLAYER
 62
     1
 10
836.605435
 20
-543.318716
 30
0.0
 40
3.725006
  0
ARC
  8
0
  6
BYLAYER
 62
     1
 10
827.308713
 20
-568.006795
 30
0.0
 40
1.999972
 50
1.736578
 51
90.000005
  0
ARC
  8
0
  6
BYLAYER
 62
     1
 10
828.793515
 20
-557.170736
 30
0.0
 40
2.0
 50
180.000000
 51
342.658537
  0
ARC
  8
0
  6
BYLAYER
 62
     1
 10
860.293515
 20
-567.006795
 30
0.0
 40
30.999969
 50
150.532615
 51
162.658728
  0
ARC
  8
0
  6
BYLAYER
 62
     1
 10
831.562558
 20
-550.773183
 30
0.0
 40
2.0
 50
330.532634
 51
415.922211
  0
ARC
  8
0
  6
BYLAYER
 62
     1
 10
841.543546
 20
-534.530851
 30
0.0
 40
6.999945
 50
111.250353
 51
127.893298
  0
ARC
  8
0
  6
BYLAYER
 62
     1
 10
844.059903
 20
-538.275846
 30
0.0
 40
2.0
 50
214.077800
 51
299.467377
  0
LINE
  8
0
  6
BYLAYER
 62
     1
 10
844.080655
 20
-528.006803
 30
0.0
 11
839.006436
 21
-528.006803
 31
0.0
  0
ARC
  8
0
  6
BYLAYER
 62
     1
 10
841.543546
 20
-534.530851
 30
0.0
 40
7.000009
 50
52.105911
 51
68.749652
  0
ARC
  8
0
  6
BYLAYER
 62
     1
 10
883.981595
 20
-543.318716
 30
0.0
 40
6.999983
 50
304.078031
 51
505.921965
  0
CIRCLE
  8
0
  6
BYLAYER
 62
     1
 10
883.981595
 20
-543.318716
 30
0.0
 40
3.725006
  0
ARC
  8
0
  6
BYLAYER
 62
     1
 10
893.278310
 20
-568.006795
 30
0.0
 40
1.999972
 50
90.0
 51
178.26342
  0
ARC
  8
0
  6
BYLAYER
 62
     1
 10
860.293515
 20
-567.006795
 30
0.0
 40
30.999969
 50
17.341271
 51
29.467386
  0
ARC
  8
0
  6
BYLAYER
 62
     1
 10
889.024464
 20
-550.773183
 30
0.0
 40
2.0
 50
124.077790
 51
209.467367
  0
ARC
  8
0
  6
BYLAYER
 62
     1
 10
879.043546
 20
-534.530851
 30
0.0
 40
7.000009
 50
111.250353
 51
127.894090
  0
ARC
  8
0
  6
BYLAYER
 62
     1
 10
876.527127
 20
-538.275846
 30
0.0
 40
2.000000
 50
240.532625
 51
325.922202
  0
LINE
  8
0
  6
BYLAYER
 62
     1
 10
876.506436
 20
-528.006803
 30
0.0
 11
881.580655
 21
-528.006803
 31
0.0
  0
ARC
  8
0
  6
BYLAYER
 62
     1
 10
879.043546
 20
-534.530851
 30
0.0
 40
6.999945
 50
52.106700
 51
68.749652
  0
LINE
  8
0
  6
BYLAYER
 62
     1
 10
913.293507
 20
-685.006857
 30
0.0
 11
913.293507
 21
-617.891164
 31
0.0
  0
LINE
  8
0
  6
BYLAYER
 62
     1
 10
916.293507
 20
-669.506857
 30
0.0
 11
916.293507
 21
-590.506795
 31
0.0
  0
LINE
  8
0
  6
BYLAYER
 62
     1
 10
893.793507
 20
-566.006795
 30
0.0
 11
893.793507
 21
-702.006857
 31
0.0
  0
LINE
  8
0
  6
BYLAYER
 62
     1
 10
910.793507
 20
-663.006795
 30
0.0
 11
910.793507
 21
-567.006795
 31
0.0
  0
LINE
  8
0
  6
BYLAYER
 62
     1
 10
911.793507
 20
-664.006857
 30
0.0
 11
911.793507
 21
-702.006857
 31
0.0
  0
LINE
  8
0
  6
BYLAYER
 62
     1
 10
911.793507
 20
-702.006857
 30
0.0
 11
893.793507
 21
-702.006857
 31
0.0
  0
LINE
  8
0
  6
BYLAYER
 62
     1
 10
913.293507
 20
-685.006857
 30
0.0
 11
911.793507
 21
-685.059255
 31
0.0
  0
CIRCLE
  8
0
  6
BYLAYER
 62
     1
 10
902.793507
 20
-680.006857
 30
0.0
 40
4.25
  0
LINE
  8
0
  6
BYLAYER
 62
     1
 10
893.793507
 20
-664.006857
 30
0.0
 11
911.793507
 21
-664.006857
 31
0.0
  0
LINE
  8
0
  6
BYLAYER
 62
     1
 10
893.793507
 20
-663.006795
 30
0.0
 11
910.793507
 21
-663.006795
 31
0.0
  0
LINE
  8
0
  6
BYLAYER
 62
     1
 10
911.793507
 20
-664.006857
 30
0.0
 11
910.793507
 21
-663.006795
 31
0.0
  0
ARC
  8
0
  6
BYLAYER
 62
     1
 10
913.693501
 20
-670.406850
 30
0.0
 40
0.399994
 50
90.0
 51
180.000003
  0
LINE
  8
0
  6
BYLAYER
 62
     1
 10
913.693501
 20
-670.006857
 30
0.0
 11
915.793507
 21
-670.006857
 31
0.0
  0
LINE
  8
0
  6
BYLAYER
 62
     1
 10
915.793507
 20
-670.006857
 30
0.0
 11
916.293507
 21
-669.506857
 31
0.0
  0
LINE
  8
0
  6
BYLAYER
 62
     1
 10
913.293507
 20
-611.542684
 30
0.0
 11
913.293507
 21
-575.006857
 31
0.0
  0
LINE
  8
0
  6
BYLAYER
 62
     1
 10
916.293507
 20
-617.943533
 30
0.0
 11
913.293507
 21
-617.891164
 31
0.0
  0
LINE
  8
0
  6
BYLAYER
 62
     1
 10
916.293507
 20
-611.595052
 30
0.0
 11
913.293507
 21
-611.542684
 31
0.0
  0
LINE
  8
0
  6
BYLAYER
 62
     1
 10
913.693501
 20
-590.006795
 30
0.0
 11
915.793507
 21
-590.006795
 31
0.0
  0
ARC
  8
0
  6
BYLAYER
 62
     1
 10
913.693501
 20
-589.606802
 30
0.0
 40
0.399994
 50
180.000000
 51
270.000003
  0
LINE
  8
0
  6
BYLAYER
 62
     1
 10
915.793507
 20
-590.006795
 30
0.0
 11
916.293507
 21
-590.506795
 31
0.0
  0
LINE
  8
0
  6
BYLAYER
 62
     1
 10
893.793507
 20
-557.170736
 30
0.0
 11
893.793507
 21
-528.006803
 31
0.0
  0
CIRCLE
  8
0
  6
BYLAYER
 62
     1
 10
902.793507
 20
-550.006795
 30
0.0
 40
4.25
  0
LINE
  8
0
  6
BYLAYER
 62
     1
 10
911.793507
 20
-528.006803
 30
0.0
 11
911.793507
 21
-566.006795
 31
0.0
  0
LINE
  8
0
  6
BYLAYER
 62
     1
 10
913.293507
 20
-575.006857
 30
0.0
 11
910.793507
 21
-574.919546
 31
0.0
  0
LINE
  8
0
  6
BYLAYER
 62
     1
 10
910.793507
 20
-567.006795
 30
0.0
 11
893.793507
 21
-567.006795
 31
0.0
  0
LINE
  8
0
  6
BYLAYER
 62
     1
 10
910.793507
 20
-567.006795
 30
0.0
 11
911.793507
 21
-566.006795
 31
0.0
  0
LINE
  8
0
  6
BYLAYER
 62
     1
 10
893.793507
 20
-528.006803
 30
0.0
 11
911.793507
 21
-528.006803
 31
0.0
  0
LINE
  8
0
  6
BYLAYER
 62
     1
 10
893.793507
 20
-698.006857
 30
0.0
 11
826.793515
 21
-698.006857
 31
0.0
  0
LINE
  8
0
  6
BYLAYER
 62
     1
 10
388.293611
 20
-708.006897
 30
0.0
 11
388.293611
 21
-674.089376
 31
0.0
  0
ARC
  8
0
  6
BYLAYER
 62
     1
 10
390.293611
 20
-708.006897
 30
0.0
 40
2.000000
 50
180.000000
 51
270.000000
  0
LINE
  8
0
  6
BYLAYER
 62
     1
 10
364.293611
 20
-630.006826
 30
0.0
 11
364.293611
 21
-564.506851
 31
0.0
  0
ARC
  8
0
  6
BYLAYER
 62
     1
 10
362.293611
 20
-564.506851
 30
0.0
 40
2.000000
 50
0.0
 51
90.0
  0
LINE
  8
0
  6
BYLAYER
 62
     1
 10
356.293611
 20
-562.506851
 30
0.0
 11
356.293611
 21
-630.006826
 31
0.0
  0
LINE
  8
0
  6
BYLAYER
 62
     1
 10
362.293611
 20
-562.506851
 30
0.0
 11
356.293611
 21
-562.506851
 31
0.0
  0
LINE
  8
0
  6
BYLAYER
 62
     1
 10
391.293611
 20
-608.366761
 30
0.0
 11
391.293611
 21
-590.506851
 31
0.0
  0
ARC
  8
0
  6
BYLAYER
 62
     1
 10
386.293611
 20
-590.506851
 30
0.0
 40
5.000000
 50
0.0
 51
90.0
  0
ARC
  8
0
  6
BYLAYER
 62
     1
 10
393.293611
 20
-608.366761
 30
0.0
 40
2.000000
 50
180.000000
 51
270.000000
  0
LINE
  8
0
  6
BYLAYER
 62
     1
 10
398.293611
 20
-710.006897
 30
0.0
 11
390.293611
 21
-710.006897
 31
0.0
  0
LINE
  8
0
  6
BYLAYER
 62
     1
 10
367.293611
 20
-585.506851
 30
0.0
 11
386.293611
 21
-585.506851
 31
0.0
  0
ARC
  8
0
  6
BYLAYER
 62
     1
 10
367.293611
 20
-582.506851
 30
0.0
 40
3.0
 50
180.000000
 51
270.000000
  0
LINE
  8
0
  6
BYLAYER
 62
     1
 10
398.293611
 20
-710.006897
 30
0.0
 11
398.293611
 21
-630.006826
 31
0.0
  0
LINE
  8
0
  6
BYLAYER
 62
     1
 10
388.293611
 20
-552.006755
 30
0.0
 11
388.293611
 21
-585.924276
 31
0.0
  0
ARC
  8
0
  6
BYLAYER
 62
     1
 10
390.293611
 20
-552.006755
 30
0.0
 40
2.000000
 50
90.0
 51
180.0
  0
LINE
  8
0
  6
BYLAYER
 62
     1
 10
398.293611
 20
-550.006755
 30
0.0
 11
390.293611
 21
-550.006755
 31
0.0
  0
LINE
  8
0
  6
BYLAYER
 62
     1
 10
398.293611
 20
-550.006755
 30
0.0
 11
398.293611
 21
-630.006826
 31
0.0
  0
LINE
  8
0
  6
BYLAYER
 62
     1
 10
364.293611
 20
-630.006826
 30
0.0
 11
364.293611
 21
-695.506801
 31
0.0
  0
ARC
  8
0
  6
BYLAYER
 62
     1
 10
362.293611
 20
-695.506801
 30
0.0
 40
2.000000
 50
270.0
 51
360.0
  0
LINE
  8
0
  6
BYLAYER
 62
     1
 10
362.293611
 20
-697.506801
 30
0.0
 11
356.293611
 21
-697.506801
 31
0.0
  0
LINE
  8
0
  6
BYLAYER
 62
     1
 10
391.293611
 20
-651.646891
 30
0.0
 11
391.293611
 21
-669.506801
 31
0.0
  0
ARC
  8
0
  6
BYLAYER
 62
     1
 10
386.293611
 20
-669.506801
 30
0.0
 40
5.000000
 50
270.0
 51
360.0
  0
ARC
  8
0
  6
BYLAYER
 62
     1
 10
393.293611
 20
-651.646891
 30
0.0
 40
2.000000
 50
90.0
 51
180.0
  0
LINE
  8
0
  6
BYLAYER
 62
     1
 10
367.293611
 20
-674.506801
 30
0.0
 11
386.293611
 21
-674.506801
 31
0.0
  0
ARC
  8
0
  6
BYLAYER
 62
     1
 10
367.293611
 20
-677.506801
 30
0.0
 40
3.000000
 50
90.0
 51
180.0
  0
LINE
  8
0
  6
BYLAYER
 62
     1
 10
345.293488
 20
-630.006826
 30
0.0
 11
345.293672
 21
-690.006750
 31
0.0
  0
LINE
  8
0
  6
BYLAYER
 62
     1
 10
346.293665
 20
-630.006826
 30
0.0
 11
346.293665
 21
-695.226243
 31
0.0
  0
LINE
  8
0
  6
BYLAYER
 62
     1
 10
348.223866
 20
-697.225024
 30
0.0
 11
356.293611
 21
-697.506826
 31
0.0
  0
ARC
  8
0
  6
BYLAYER
 62
     1
 10
348.293665
 20
-695.226243
 30
0.0
 40
2.0
 50
180.000000
 51
268.000000
  0
LINE
  8
0
  6
BYLAYER
 62
     1
 10
345.293672
 20
-690.006750
 30
0.0
 11
345.328565
 21
-690.007968
 31
0.0
  0
ARC
  8
0
  6
BYLAYER
 62
     1
 10
345.293665
 20
-691.007359
 30
0.0
 40
1.0
 50
0.0
 51
88.0
  0
LINE
  8
0
  6
BYLAYER
 62
     1
 10
356.293611
 20
-562.506826
 30
0.0
 11
348.223866
 21
-562.788628
 31
0.0
  0
ARC
  8
0
  6
BYLAYER
 62
     1
 10
348.293665
 20
-564.787409
 30
0.0
 40
2.0
 50
92.0
 51
180.0
  0
LINE
  8
0
  6
BYLAYER
 62
     1
 10
345.293672
 20
-570.352490
 30
0.0
 11
345.293486
 21
-630.006826
 31
0.0
  0
LINE
  8
0
  6
BYLAYER
 62
     1
 10
345.328565
 20
-570.351272
 30
0.0
 11
345.293672
 21
-570.352490
 31
0.0
  0
ARC
  8
0
  6
BYLAYER
 62
     1
 10
345.293665
 20
-569.351881
 30
0.0
 40
1.000000
 50
272.000000
 51
360.000000
  0
LINE
  8
0
  6
BYLAYER
 62
     1
 10
346.293665
 20
-564.787409
 30
0.0
 11
346.293665
 21
-630.006826
 31
0.0
  0
LINE
  8
0
  6
BYLAYER
 62
     1
 10
356.293611
 20
-697.506826
 30
0.0
 11
356.293611
 21
-630.006826
 31
0.0
  0
LINE
  8
0
  6
BYLAYER
 62
     1
 10
210.793481
 20
-686.006826
 30
0.0
 11
289.793549
 21
-686.006826
 31
0.0
  0
LINE
  8
0
  6
BYLAYER
 62
     1
 10
305.293488
 20
-683.006826
 30
0.0
 11
195.293481
 21
-683.006826
 31
0.0
  0
LINE
  8
0
  6
BYLAYER
 62
     1
 10
217.293481
 20
-579.506826
 30
0.0
 11
283.293488
 21
-579.506826
 31
0.0
  0
LINE
  8
0
  6
BYLAYER
 62
     1
 10
210.793481
 20
-574.006826
 30
0.0
 11
289.793549
 21
-574.006826
 31
0.0
  0
LINE
  8
0
  6
BYLAYER
 62
     1
 10
305.293488
 20
-577.006826
 30
0.0
 11
195.293481
 21
-577.006826
 31
0.0
  0
LINE
  8
0
  6
BYLAYER
 62
     1
 10
178.293481
 20
-596.506826
 30
0.0
 11
322.293488
 21
-596.506826
 31
0.0
  0
LINE
  8
0
  6
BYLAYER
 62
     1
 10
178.293481
 20
-663.506826
 30
0.0
 11
322.293488
 21
-663.506826
 31
0.0
  0
LINE
  8
0
  6
BYLAYER
 62
     1
 10
217.293481
 20
-680.506826
 30
0.0
 11
283.293488
 21
-680.506826
 31
0.0
  0
LINE
  8
0
  6
BYLAYER
 62
     1
 10
196.293481
 20
-596.506826
 30
0.0
 11
196.293481
 21
-663.506826
 31
0.0
  0
LINE
  8
0
  6
BYLAYER
 62
     1
 10
179.293481
 20
-663.506826
 30
0.0
 11
179.293473
 21
-596.506826
 31
0.0
  0
LINE
  8
0
  6
BYLAYER
 62
     1
 10
178.293481
 20
-681.506826
 30
0.0
 11
178.293481
 21
-578.506826
 31
0.0
  0
LINE
  8
0
  6
BYLAYER
 62
     1
 10
216.293481
 20
-681.506826
 30
0.0
 11
178.293481
 21
-681.506826
 31
0.0
  0
CIRCLE
  8
0
  6
BYLAYER
 62
     1
 10
200.293481
 20
-672.506826
 30
0.0
 40
4.25
  0
CIRCLE
  8
0
  6
BYLAYER
 62
     1
 10
200.293481
 20
-672.506826
 30
0.0
 40
4.25
  0
LINE
  8
0
  6
BYLAYER
 62
     1
 10
216.293481
 20
-663.506826
 30
0.0
 11
216.293481
 21
-681.506826
 31
0.0
  0
LINE
  8
0
  6
BYLAYER
 62
     1
 10
217.293542
 20
-663.506826
 30
0.0
 11
217.293542
 21
-680.506826
 31
0.0
  0
LINE
  8
0
  6
BYLAYER
 62
     1
 10
195.293481
 20
-683.006826
 30
0.0
 11
195.241051
 21
-681.506826
 31
0.0
  0
LINE
  8
0
  6
BYLAYER
 62
     1
 10
210.293481
 20
-685.506826
 30
0.0
 11
210.793481
 21
-686.006826
 31
0.0
  0
LINE
  8
0
  6
BYLAYER
 62
     1
 10
210.293481
 20
-683.006826
 30
0.0
 11
210.293481
 21
-685.506826
 31
0.0
  0
LINE
  8
0
  6
BYLAYER
 62
     1
 10
216.293481
 20
-681.506826
 30
0.0
 11
217.293542
 21
-680.506826
 31
0.0
  0
LINE
  8
0
  6
BYLAYER
 62
     1
 10
216.293481
 20
-578.506826
 30
0.0
 11
178.293481
 21
-578.506826
 31
0.0
  0
LINE
  8
0
  6
BYLAYER
 62
     1
 10
216.293481
 20
-596.506826
 30
0.0
 11
216.293481
 21
-578.506826
 31
0.0
  0
LINE
  8
0
  6
BYLAYER
 62
     1
 10
217.293542
 20
-579.506826
 30
0.0
 11
217.293542
 21
-596.506826
 31
0.0
  0
LINE
  8
0
  6
BYLAYER
 62
     1
 10
195.293481
 20
-577.006826
 30
0.0
 11
195.241051
 21
-578.506826
 31
0.0
  0
CIRCLE
  8
0
  6
BYLAYER
 62
     1
 10
200.293481
 20
-587.506826
 30
0.0
 40
4.25
  0
LINE
  8
0
  6
BYLAYER
 62
     1
 10
210.293481
 20
-574.506826
 30
0.0
 11
210.793481
 21
-574.006826
 31
0.0
  0
LINE
  8
0
  6
BYLAYER
 62
     1
 10
210.293481
 20
-577.006826
 30
0.0
 11
210.293481
 21
-574.506826
 31
0.0
  0
LINE
  8
0
  6
BYLAYER
 62
     1
 10
216.293481
 20
-578.506826
 30
0.0
 11
217.293542
 21
-579.506826
 31
0.0
  0
LINE
  8
0
  6
BYLAYER
 62
     1
 10
324.293488
 20
-585.506826
 30
0.0
 11
324.293488
 21
-674.506826
 31
0.0
  0
LINE
  8
0
  6
BYLAYER
 62
     1
 10
304.293458
 20
-663.506826
 30
0.0
 11
304.293458
 21
-596.506826
 31
0.0
  0
ARC
  8
0
  6
BYLAYER
 62
     1
 10
323.293488
 20
-675.506826
 30
0.0
 40
1.000000
 50
90.0
 51
179.999989
  0
LINE
  8
0
  6
BYLAYER
 62
     1
 10
322.293488
 20
-681.506826
 30
0.0
 11
322.293488
 21
-663.506826
 31
0.0
  0
LINE
  8
0
  6
BYLAYER
 62
     1
 10
283.293427
 20
-663.506826
 30
0.0
 11
283.293427
 21
-680.506826
 31
0.0
  0
LINE
  8
0
  6
BYLAYER
 62
     1
 10
284.293488
 20
-663.506826
 30
0.0
 11
284.293488
 21
-681.506826
 31
0.0
  0
CIRCLE
  8
0
  6
BYLAYER
 62
     1
 10
300.293488
 20
-672.506826
 30
0.0
 40
4.25
  0
LINE
  8
0
  6
BYLAYER
 62
     1
 10
322.293488
 20
-681.506826
 30
0.0
 11
284.293488
 21
-681.506826
 31
0.0
  0
LINE
  8
0
  6
BYLAYER
 62
     1
 10
284.293488
 20
-681.506826
 30
0.0
 11
283.293427
 21
-680.506826
 31
0.0
  0
LINE
  8
0
  6
BYLAYER
 62
     1
 10
290.293488
 20
-683.006826
 30
0.0
 11
290.293488
 21
-685.506826
 31
0.0
  0
LINE
  8
0
  6
BYLAYER
 62
     1
 10
290.293488
 20
-685.506826
 30
0.0
 11
289.793488
 21
-686.006826
 31
0.0
  0
LINE
  8
0
  6
BYLAYER
 62
     1
 10
305.293488
 20
-683.006826
 30
0.0
 11
305.345917
 21
-681.506826
 31
0.0
  0
LINE
  8
0
  6
BYLAYER
 62
     1
 10
324.293488
 20
-651.293813
 30
0.0
 11
304.293458
 21
-651.293813
 31
0.0
  0
LINE
  8
0
  6
BYLAYER
 62
     1
 10
324.293488
 20
-646.219839
 30
0.0
 11
304.293458
 21
-646.219839
 31
0.0
  0
LINE
  8
0
  6
BYLAYER
 62
     1
 10
296.293488
 20
-636.006826
 30
0.0
 11
304.293458
 21
-636.006826
 31
0.0
  0
LINE
  8
0
  6
BYLAYER
 62
     1
 10
296.293488
 20
-634.006826
 30
0.0
 11
304.293458
 21
-634.006826
 31
0.0
  0
ARC
  8
0
  6
BYLAYER
 62
     1
 10
296.293488
 20
-635.006826
 30
0.0
 40
1.0
 50
90.0
 51
270.000005
  0
LINE
  8
0
  6
BYLAYER
 62
     1
 10
296.293488
 20
-624.006826
 30
0.0
 11
304.293458
 21
-624.006826
 31
0.0
  0
LINE
  8
0
  6
BYLAYER
 62
     1
 10
296.293488
 20
-626.006826
 30
0.0
 11
304.293458
 21
-626.006826
 31
0.0
  0
ARC
  8
0
  6
BYLAYER
 62
     1
 10
296.293488
 20
-625.006826
 30
0.0
 40
1.0
 50
90.0
 51
269.999991
  0
LINE
  8
0
  6
BYLAYER
 62
     1
 10
324.293488
 20
-674.506826
 30
0.0
 11
323.293488
 21
-674.506826
 31
0.0
  0
LINE
  8
0
  6
BYLAYER
 62
     1
 10
324.293488
 20
-663.973806
 30
0.0
 11
323.258576
 21
-664.009939
 31
0.0
  0
ARC
  8
0
  6
BYLAYER
 62
     1
 10
323.293488
 20
-665.009389
 30
0.0
 40
1.0
 50
91.999836
 51
180.0
  0
LINE
  8
0
  6
BYLAYER
 62
     1
 10
324.293488
 20
-613.793813
 30
0.0
 11
304.293458
 21
-613.793813
 31
0.0
  0
LINE
  8
0
  6
BYLAYER
 62
     1
 10
324.293488
 20
-608.719839
 30
0.0
 11
304.293458
 21
-608.719839
 31
0.0
  0
LINE
  8
0
  6
BYLAYER
 62
     1
 10
322.293488
 20
-578.506826
 30
0.0
 11
284.293488
 21
-578.506826
 31
0.0
  0
LINE
  8
0
  6
BYLAYER
 62
     1
 10
283.293427
 20
-579.506826
 30
0.0
 11
283.293427
 21
-596.506826
 31
0.0
  0
LINE
  8
0
  6
BYLAYER
 62
     1
 10
284.293488
 20
-596.506826
 30
0.0
 11
284.293488
 21
-578.506826
 31
0.0
  0
LINE
  8
0
  6
BYLAYER
 62
     1
 10
284.293488
 20
-578.506826
 30
0.0
 11
283.293427
 21
-579.506826
 31
0.0
  0
LINE
  8
0
  6
BYLAYER
 62
     1
 10
305.293488
 20
-577.006826
 30
0.0
 11
305.345917
 21
-578.506826
 31
0.0
  0
CIRCLE
  8
0
  6
BYLAYER
 62
     1
 10
300.293488
 20
-587.506826
 30
0.0
 40
4.25
  0
LINE
  8
0
  6
BYLAYER
 62
     1
 10
290.293488
 20
-577.006826
 30
0.0
 11
290.293488
 21
-574.506826
 31
0.0
  0
LINE
  8
0
  6
BYLAYER
 62
     1
 10
290.293488
 20
-574.506826
 30
0.0
 11
289.793488
 21
-574.006826
 31
0.0
  0
LINE
  8
0
  6
BYLAYER
 62
     1
 10
322.293488
 20
-578.506826
 30
0.0
 11
322.293488
 21
-596.506826
 31
0.0
  0
ARC
  8
0
  6
BYLAYER
 62
     1
 10
323.293488
 20
-595.004263
 30
0.0
 40
1.0
 50
180.000000
 51
268.000171
  0
LINE
  8
0
  6
BYLAYER
 62
     1
 10
324.293488
 20
-596.039846
 30
0.0
 11
323.258576
 21
-596.003713
 31
0.0
  0
ARC
  8
0
  6
BYLAYER
 62
     1
 10
323.293488
 20
-584.506826
 30
0.0
 40
1.0
 50
180.000000
 51
269.999996
  0
LINE
  8
0
  6
BYLAYER
 62
     1
 10
324.293488
 20
-585.506826
 30
0.0
 11
323.293488
 21
-585.506826
 31
0.0
  0
LINE
  8
0
  6
BYLAYER
 62
     1
 10
273.543488
 20
-656.006826
 30
0.0
 11
304.293458
 21
-656.006826
 31
0.0
  0
LINE
  8
0
  6
BYLAYER
 62
     1
 10
304.293458
 20
-654.006826
 30
0.0
 11
273.543488
 21
-654.006826
 31
0.0
  0
LINE
  8
0
  6
BYLAYER
 62
     1
 10
273.543488
 20
-644.006826
 30
0.0
 11
304.293458
 21
-644.006826
 31
0.0
  0
LINE
  8
0
  6
BYLAYER
 62
     1
 10
304.293458
 20
-646.006826
 30
0.0
 11
273.543488
 21
-646.006826
 31
0.0
  0
LINE
  8
0
  6
BYLAYER
 62
     1
 10
273.543488
 20
-616.006826
 30
0.0
 11
304.293458
 21
-616.006826
 31
0.0
  0
LINE
  8
0
  6
BYLAYER
 62
     1
 10
304.293458
 20
-614.006826
 30
0.0
 11
273.543488
 21
-614.006826
 31
0.0
  0
LINE
  8
0
  6
BYLAYER
 62
     1
 10
304.293458
 20
-606.006826
 30
0.0
 11
273.543488
 21
-606.006826
 31
0.0
  0
LINE
  8
0
  6
BYLAYER
 62
     1
 10
273.543488
 20
-604.006826
 30
0.0
 11
304.293458
 21
-604.006826
 31
0.0
  0
ARC
  8
0
  6
BYLAYER
 62
     1
 10
273.543488
 20
-655.006826
 30
0.0
 40
1.0
 50
90.0
 51
270.000005
  0
LINE
  8
0
  6
BYLAYER
 62
     1
 10
223.293481
 20
-656.006826
 30
0.0
 11
196.293481
 21
-656.006826
 31
0.0
  0
LINE
  8
0
  6
BYLAYER
 62
     1
 10
196.293481
 20
-654.006826
 30
0.0
 11
223.293481
 21
-654.006826
 31
0.0
  0
LINE
  8
0
  6
BYLAYER
 62
     1
 10
196.293481
 20
-646.006826
 30
0.0
 11
223.293481
 21
-646.006826
 31
0.0
  0
LINE
  8
0
  6
BYLAYER
 62
     1
 10
223.293481
 20
-644.006826
 30
0.0
 11
196.293481
 21
-644.006826
 31
0.0
  0
ARC
  8
0
  6
BYLAYER
 62
     1
 10
223.293481
 20
-655.006826
 30
0.0
 40
1.0
 50
270.0
 51
449.999991
  0
ARC
  8
0
  6
BYLAYER
 62
     1
 10
223.293481
 20
-645.006826
 30
0.0
 40
1.0
 50
270.0
 51
449.999991
  0
LINE
  8
0
  6
BYLAYER
 62
     1
 10
223.293481
 20
-616.006826
 30
0.0
 11
196.293481
 21
-616.006826
 31
0.0
  0
LINE
  8
0
  6
BYLAYER
 62
     1
 10
223.293481
 20
-614.006826
 30
0.0
 11
196.293481
 21
-614.006826
 31
0.0
  0
LINE
  8
0
  6
BYLAYER
 62
     1
 10
196.293481
 20
-606.006826
 30
0.0
 11
223.293481
 21
-606.006826
 31
0.0
  0
LINE
  8
0
  6
BYLAYER
 62
     1
 10
223.293481
 20
-604.006826
 30
0.0
 11
196.293481
 21
-604.006826
 31
0.0
  0
ARC
  8
0
  6
BYLAYER
 62
     1
 10
223.293481
 20
-615.006826
 30
0.0
 40
1.0
 50
270.0
 51
449.999991
  0
ARC
  8
0
  6
BYLAYER
 62
     1
 10
223.293481
 20
-605.006826
 30
0.0
 40
1.0
 50
270.0
 51
449.999991
  0
LINE
  8
0
  6
BYLAYER
 62
     1
 10
196.293481
 20
-624.006826
 30
0.0
 11
229.793488
 21
-624.006826
 31
0.0
  0
LINE
  8
0
  6
BYLAYER
 62
     1
 10
196.293481
 20
-626.006826
 30
0.0
 11
229.793488
 21
-626.006826
 31
0.0
  0
LINE
  8
0
  6
BYLAYER
 62
     1
 10
196.293481
 20
-634.006826
 30
0.0
 11
229.793488
 21
-634.006826
 31
0.0
  0
LINE
  8
0
  6
BYLAYER
 62
     1
 10
196.293481
 20
-636.006826
 30
0.0
 11
229.793488
 21
-636.006826
 31
0.0
  0
ARC
  8
0
  6
BYLAYER
 62
     1
 10
229.793488
 20
-625.006826
 30
0.0
 40
1.0
 50
270.0
 51
450.000005
  0
ARC
  8
0
  6
BYLAYER
 62
     1
 10
229.793488
 20
-635.006826
 30
0.0
 40
1.0
 50
270.0
 51
450.000005
  0
ARC
  8
0
  6
BYLAYER
 62
     1
 10
273.543488
 20
-645.006826
 30
0.0
 40
1.0
 50
90.0
 51
270.000005
  0
ARC
  8
0
  6
BYLAYER
 62
     1
 10
273.543488
 20
-615.006826
 30
0.0
 40
1.0
 50
90.0
 51
269.999991
  0
ARC
  8
0
  6
BYLAYER
 62
     1
 10
273.543488
 20
-605.006826
 30
0.0
 40
1.0
 50
90.0
 51
269.999991
  0
ARC
  8
0
  6
BYLAYER
 62
     1
 10
337.293488
 20
-572.428823
 30
0.0
 40
2.000000
 50
92.999236
 51
180.000000
  0
ARC
  8
0
  6
BYLAYER
 62
     1
 10
333.293488
 20
-588.697500
 30
0.0
 40
2.000004
 50
300.000039
 51
360.000000
  0
ARC
  8
0
  6
BYLAYER
 62
     1
 10
325.327240
 20
-594.451528
 30
0.0
 40
1.000023
 50
272.994844
 51
299.999930
  0
LINE
  8
0
  6
BYLAYER
 62
     1
 10
324.293488
 20
-595.506948
 30
0.0
 11
324.729676
 21
-595.484182
 31
0.0
  0
ARC
  8
0
  6
BYLAYER
 62
     1
 10
324.703583
 20
-594.984853
 30
0.0
 40
0.499986
 50
272.993079
 51
335.999873
  0
LINE
  8
0
  6
BYLAYER
 62
     1
 10
325.379487
 20
-595.450185
 30
0.0
 11
324.729706
 21
-595.484182
 31
0.0
  0
LINE
  8
0
  6
BYLAYER
 62
     1
 10
335.293488
 20
-572.428823
 30
0.0
 11
325.160340
 21
-595.188222
 31
0.0
  0
LINE
  8
0
  6
BYLAYER
 62
     1
 10
325.827240
 20
-595.317556
 30
0.0
 11
334.293488
 21
-590.429555
 31
0.0
  0
LINE
  8
0
  6
BYLAYER
 62
     1
 10
337.188874
 20
-570.431631
 30
0.0
 11
345.293488
 21
-570.006903
 31
0.0
  0
LINE
  8
0
  6
BYLAYER
 62
     1
 10
345.293488
 20
-690.006749
 30
0.0
 11
345.293488
 21
-630.006826
 31
0.0
  0
ARC
  8
0
  6
BYLAYER
 62
     1
 10
325.327240
 20
-665.562124
 30
0.0
 40
1.000023
 50
60.000070
 51
87.005156
  0
LINE
  8
0
  6
BYLAYER
 62
     1
 10
324.293488
 20
-664.506704
 30
0.0
 11
324.729676
 21
-664.529470
 31
0.0
  0
ARC
  8
0
  6
BYLAYER
 62
     1
 10
324.703583
 20
-665.028799
 30
0.0
 40
0.499986
 50
24.000127
 51
87.006921
  0
LINE
  8
0
  6
BYLAYER
 62
     1
 10
325.379487
 20
-664.563467
 30
0.0
 11
324.729706
 21
-664.529470
 31
0.0
  0
ARC
  8
0
  6
BYLAYER
 62
     1
 10
333.293488
 20
-671.316152
 30
0.0
 40
2.000004
 50
0.0
 51
59.999961
  0
LINE
  8
0
  6
BYLAYER
 62
     1
 10
325.827240
 20
-664.696096
 30
0.0
 11
334.293488
 21
-669.584097
 31
0.0
  0
LINE
  8
0
  6
BYLAYER
 62
     1
 10
324.293488
 20
-664.506704
 30
0.0
 11
324.293488
 21
-630.006826
 31
0.0
  0
ARC
  8
0
  6
BYLAYER
 62
     1
 10
337.293488
 20
-687.584829
 30
0.0
 40
2.0
 50
180.000000
 51
267.000764
  0
LINE
  8
0
  6
BYLAYER
 62
     1
 10
335.293488
 20
-630.006826
 30
0.0
 11
335.293488
 21
-687.584829
 31
0.0
  0
LINE
  8
0
  6
BYLAYER
 62
     1
 10
335.293488
 20
-687.584829
 30
0.0
 11
325.160340
 21
-664.825430
 31
0.0
  0
LINE
  8
0
  6
BYLAYER
 62
     1
 10
337.188874
 20
-689.582021
 30
0.0
 11
345.293488
 21
-690.006749
 31
0.0
  0
LINE
  8
0
  6
BYLAYER
 62
     1
 10
345.293488
 20
-570.006903
 30
0.0
 11
345.293488
 21
-630.006826
 31
0.0
  0
LINE
  8
0
  6
BYLAYER
 62
     1
 10
324.293488
 20
-595.506948
 30
0.0
 11
324.293488
 21
-630.006826
 31
0.0
  0
LINE
  8
0
  6
BYLAYER
 62
     1
 10
335.293488
 20
-630.006826
 30
0.0
 11
335.293488
 21
-572.428823
 31
0.0
  0
ENDSEC
  0
EOF
