  0
SECTION
  2
HEADER
  9
$EXTMIN
 10
207.552901
 20
699.0
 30
0.0
  9
$EXTMAX
 10
889.853242
 20
0.0
 30
0.0
  0
ENDSEC
  0
SECTION
  2
TABLES
  0
ENDSEC
  0
SECTION
  2
BLOCKS
  0
ENDSEC
  0
SECTION
  2
ENTITIES
  0
LINE
  8
0
  6
BYLAYER
 62
     7
 10
442.573026
 20
-44.397550
 30
0.0
 11
436.772977
 21
-44.397550
 31
0.0
  0
ARC
  8
0
  6
BYLAYER
 62
     7
 10
442.573026
 20
-45.897550
 30
0.0
 40
1.500000
 50
0.0
 51
90.000003
  0
ARC
  8
0
  6
BYLAYER
 62
     7
 10
471.973035
 20
-45.897550
 30
0.0
 40
1.500000
 50
90.0
 51
180.000003
  0
LINE
  8
0
  6
BYLAYER
 62
     7
 10
481.573026
 20
-44.397550
 30
0.0
 11
471.973035
 21
-44.397550
 31
0.0
  0
ARC
  8
0
  6
BYLAYER
 62
     7
 10
481.573026
 20
-45.897550
 30
0.0
 40
1.500000
 50
0.0
 51
90.000003
  0
LINE
  8
0
  6
BYLAYER
 62
     7
 10
516.773038
 20
-44.397489
 30
0.0
 11
510.973050
 21
-44.397489
 31
0.0
  0
ARC
  8
0
  6
BYLAYER
 62
     7
 10
510.973050
 20
-45.897489
 30
0.0
 40
1.500000
 50
90.0
 51
180.000003
  0
ARC
  8
0
  6
BYLAYER
 62
     7
 10
457.273038
 20
-53.397489
 30
0.0
 40
13.200012
 50
180.000000
 51
359.999995
  0
ARC
  8
0
  6
BYLAYER
 62
     7
 10
496.273038
 20
-53.397489
 30
0.0
 40
13.200012
 50
180.000000
 51
359.999995
  0
LINE
  8
0
  6
BYLAYER
 62
     7
 10
436.772977
 20
-49.897550
 30
0.0
 11
442.573026
 21
-49.897550
 31
0.0
  0
LINE
  8
0
  6
BYLAYER
 62
     7
 10
444.073026
 20
-45.897550
 30
0.0
 11
444.073026
 21
-51.397550
 31
0.0
  0
LINE
  8
0
  6
BYLAYER
 62
     7
 10
444.073026
 20
-51.397550
 30
0.0
 11
444.073026
 21
-53.397489
 31
0.0
  0
ARC
  8
0
  6
BYLAYER
 62
     7
 10
442.573026
 20
-51.397550
 30
0.0
 40
1.500000
 50
0.0
 51
90.000003
  0
ARC
  8
0
  6
BYLAYER
 62
     7
 10
471.973035
 20
-51.397489
 30
0.0
 40
1.500000
 50
90.0
 51
180.000003
  0
LINE
  8
0
  6
BYLAYER
 62
     7
 10
471.973035
 20
-49.897489
 30
0.0
 11
481.573026
 21
-49.897489
 31
0.0
  0
LINE
  8
0
  6
BYLAYER
 62
     7
 10
483.073026
 20
-45.897550
 30
0.0
 11
483.073026
 21
-51.397489
 31
0.0
  0
LINE
  8
0
  6
BYLAYER
 62
     7
 10
483.073026
 20
-51.397489
 30
0.0
 11
483.073026
 21
-53.397489
 31
0.0
  0
ARC
  8
0
  6
BYLAYER
 62
     7
 10
481.573026
 20
-51.397489
 30
0.0
 40
1.500000
 50
0.0
 51
90.000003
  0
LINE
  8
0
  6
BYLAYER
 62
     7
 10
509.473050
 20
-53.397489
 30
0.0
 11
509.473050
 21
-51.397489
 31
0.0
  0
LINE
  8
0
  6
BYLAYER
 62
     7
 10
509.473050
 20
-51.397489
 30
0.0
 11
509.473050
 21
-45.897489
 31
0.0
  0
LINE
  8
0
  6
BYLAYER
 62
     7
 10
510.973050
 20
-49.897489
 30
0.0
 11
516.773038
 21
-49.897489
 31
0.0
  0
ARC
  8
0
  6
BYLAYER
 62
     7
 10
510.973050
 20
-51.397489
 30
0.0
 40
1.500000
 50
90.0
 51
180.000003
  0
LINE
  8
0
  6
BYLAYER
 62
     7
 10
470.473035
 20
-45.897550
 30
0.0
 11
470.473035
 21
-53.397489
 31
0.0
  0
LINE
  8
0
  6
BYLAYER
 62
     7
 10
434.772977
 20
-59.647611
 30
0.0
 11
436.773007
 21
-59.647611
 31
0.0
  0
LINE
  8
0
  6
BYLAYER
 62
     7
 10
537.273099
 20
-57.645322
 30
0.0
 11
516.773038
 21
-57.645322
 31
0.0
  0
LINE
  8
0
  6
BYLAYER
 62
     7
 10
516.773038
 20
-39.897489
 30
0.0
 11
516.773038
 21
-73.665524
 31
0.0
  0
LINE
  8
0
  6
BYLAYER
 62
     7
 10
537.273099
 20
-53.187222
 30
0.0
 11
516.773038
 21
-53.187222
 31
0.0
  0
LINE
  8
0
  6
BYLAYER
 62
     7
 10
516.773038
 20
-49.063779
 30
0.0
 11
537.273099
 21
-49.063779
 31
0.0
  0
LINE
  8
0
  6
BYLAYER
 62
     7
 10
516.773038
 20
-50.409482
 30
0.0
 11
537.273099
 21
-50.409482
 31
0.0
  0
ARC
  8
0
  6
BYLAYER
 62
     7
 10
437.623029
 20
-111.547635
 30
0.0
 40
0.850006
 50
90.0
 51
269.999998
  0
ARC
  8
0
  6
BYLAYER
 62
     7
 10
441.622953
 20
-111.547635
 30
0.0
 40
0.850006
 50
90.0
 51
269.999998
  0
LINE
  8
0
  6
BYLAYER
 62
     7
 10
437.623014
 20
-110.697629
 30
0.0
 11
537.273099
 21
-110.697711
 31
0.0
  0
LINE
  8
0
  6
BYLAYER
 62
     7
 10
437.623014
 20
-112.397611
 30
0.0
 11
537.273099
 21
-112.397693
 31
0.0
  0
ARC
  8
0
  6
BYLAYER
 62
     7
 10
437.623029
 20
-100.847623
 30
0.0
 40
0.850006
 50
90.0
 51
269.999998
  0
ARC
  8
0
  6
BYLAYER
 62
     7
 10
441.622953
 20
-100.847623
 30
0.0
 40
0.850006
 50
90.0
 51
269.999998
  0
ARC
  8
0
  6
BYLAYER
 62
     7
 10
437.623029
 20
-90.147641
 30
0.0
 40
0.850006
 50
90.0
 51
269.999998
  0
ARC
  8
0
  6
BYLAYER
 62
     7
 10
441.622953
 20
-90.147641
 30
0.0
 40
0.850006
 50
90.0
 51
269.999998
  0
LINE
  8
0
  6
BYLAYER
 62
     7
 10
437.623014
 20
-89.297635
 30
0.0
 11
537.273099
 21
-89.297718
 31
0.0
  0
LINE
  8
0
  6
BYLAYER
 62
     7
 10
437.623014
 20
-90.997617
 30
0.0
 11
537.273099
 21
-90.997699
 31
0.0
  0
ARC
  8
0
  6
BYLAYER
 62
     7
 10
437.623029
 20
-79.447629
 30
0.0
 40
0.850006
 50
90.0
 51
269.999998
  0
ARC
  8
0
  6
BYLAYER
 62
     7
 10
441.622953
 20
-79.447629
 30
0.0
 40
0.850006
 50
90.0
 51
269.999998
  0
LINE
  8
0
  6
BYLAYER
 62
     7
 10
437.623014
 20
-78.597623
 30
0.0
 11
537.273099
 21
-78.597705
 31
0.0
  0
LINE
  8
0
  6
BYLAYER
 62
     7
 10
437.623014
 20
-80.297604
 30
0.0
 11
537.273099
 21
-80.297687
 31
0.0
  0
LINE
  8
0
  6
BYLAYER
 62
     7
 10
444.772977
 20
-101.697598
 30
0.0
 11
444.772977
 21
-110.697629
 31
0.0
  0
LINE
  8
0
  6
BYLAYER
 62
     7
 10
444.772977
 20
-90.997586
 30
0.0
 11
444.772977
 21
-99.997617
 31
0.0
  0
LINE
  8
0
  6
BYLAYER
 62
     7
 10
444.772977
 20
-80.297604
 30
0.0
 11
444.772977
 21
-89.297635
 31
0.0
  0
LINE
  8
0
  6
BYLAYER
 62
     7
 10
444.772977
 20
-73.665524
 30
0.0
 11
444.772977
 21
-78.597623
 31
0.0
  0
LINE
  8
0
  6
BYLAYER
 62
     7
 10
436.773007
 20
-69.355588
 30
0.0
 11
444.772977
 21
-73.665524
 31
0.0
  0
LINE
  8
0
  6
BYLAYER
 62
     7
 10
537.273099
 20
-73.665524
 30
0.0
 11
444.772977
 21
-73.665524
 31
0.0
  0
ARC
  8
0
  6
BYLAYER
 62
     7
 10
437.623029
 20
-122.247586
 30
0.0
 40
0.850006
 50
90.0
 51
269.999998
  0
ARC
  8
0
  6
BYLAYER
 62
     7
 10
441.622953
 20
-122.247586
 30
0.0
 40
0.850006
 50
90.0
 51
269.999998
  0
LINE
  8
0
  6
BYLAYER
 62
     7
 10
437.623014
 20
-123.097592
 30
0.0
 11
537.273099
 21
-123.097510
 31
0.0
  0
LINE
  8
0
  6
BYLAYER
 62
     7
 10
437.623014
 20
-121.397611
 30
0.0
 11
537.273099
 21
-121.397528
 31
0.0
  0
ARC
  8
0
  6
BYLAYER
 62
     7
 10
437.623029
 20
-132.947598
 30
0.0
 40
0.850006
 50
90.0
 51
269.999998
  0
ARC
  8
0
  6
BYLAYER
 62
     7
 10
441.622953
 20
-132.947598
 30
0.0
 40
0.850006
 50
90.0
 51
269.999998
  0
ARC
  8
0
  6
BYLAYER
 62
     7
 10
437.623029
 20
-143.647580
 30
0.0
 40
0.850006
 50
90.0
 51
269.999998
  0
ARC
  8
0
  6
BYLAYER
 62
     7
 10
441.622953
 20
-143.647580
 30
0.0
 40
0.850006
 50
90.0
 51
269.999998
  0
LINE
  8
0
  6
BYLAYER
 62
     7
 10
437.623014
 20
-144.497586
 30
0.0
 11
537.273099
 21
-144.497504
 31
0.0
  0
LINE
  8
0
  6
BYLAYER
 62
     7
 10
437.623014
 20
-142.797604
 30
0.0
 11
537.273099
 21
-142.797522
 31
0.0
  0
ARC
  8
0
  6
BYLAYER
 62
     7
 10
437.623029
 20
-154.347592
 30
0.0
 40
0.850006
 50
90.0
 51
269.999998
  0
ARC
  8
0
  6
BYLAYER
 62
     7
 10
441.622953
 20
-154.347592
 30
0.0
 40
0.850006
 50
90.0
 51
269.999998
  0
LINE
  8
0
  6
BYLAYER
 62
     7
 10
437.623014
 20
-155.197598
 30
0.0
 11
537.273099
 21
-155.197516
 31
0.0
  0
LINE
  8
0
  6
BYLAYER
 62
     7
 10
437.623014
 20
-153.497617
 30
0.0
 11
537.273099
 21
-153.497534
 31
0.0
  0
LINE
  8
0
  6
BYLAYER
 62
     7
 10
444.772977
 20
-132.097623
 30
0.0
 11
444.772977
 21
-123.097592
 31
0.0
  0
LINE
  8
0
  6
BYLAYER
 62
     7
 10
444.772977
 20
-142.797635
 30
0.0
 11
444.772977
 21
-133.797604
 31
0.0
  0
LINE
  8
0
  6
BYLAYER
 62
     7
 10
444.772977
 20
-153.497617
 30
0.0
 11
444.772977
 21
-144.497586
 31
0.0
  0
LINE
  8
0
  6
BYLAYER
 62
     7
 10
436.773099
 20
-174.147611
 30
0.0
 11
436.772977
 21
-39.897489
 31
0.0
  0
LINE
  8
0
  6
BYLAYER
 62
     7
 10
436.773099
 20
-174.147611
 30
0.0
 11
434.773099
 21
-174.147611
 31
0.0
  0
LINE
  8
0
  6
BYLAYER
 62
     7
 10
444.772977
 20
-112.397611
 30
0.0
 11
444.772977
 21
-121.397611
 31
0.0
  0
LINE
  8
0
  6
BYLAYER
 62
     7
 10
436.773084
 20
-155.624021
 30
0.0
 11
438.945829
 21
-163.732846
 31
0.0
  0
ARC
  8
0
  6
BYLAYER
 62
     7
 10
440.877683
 20
-163.215207
 30
0.0
 40
2.000003
 50
195.000016
 51
270.000001
  0
LINE
  8
0
  6
BYLAYER
 62
     7
 10
436.773084
 20
-159.061612
 30
0.0
 11
440.243253
 21
-172.012418
 31
0.0
  0
ARC
  8
0
  6
BYLAYER
 62
     7
 10
442.175092
 20
-171.494779
 30
0.0
 40
1.999988
 50
195.000043
 51
270.000001
  0
LINE
  8
0
  6
BYLAYER
 62
     7
 10
436.773099
 20
-166.856213
 30
0.0
 11
439.721952
 21
-177.861493
 31
0.0
  0
ARC
  8
0
  6
BYLAYER
 62
     7
 10
441.653806
 20
-177.343854
 30
0.0
 40
2.000003
 50
195.000043
 51
270.000001
  0
LINE
  8
0
  6
BYLAYER
 62
     7
 10
436.773099
 20
-171.495465
 30
0.0
 11
439.445829
 21
-181.470258
 31
0.0
  0
ARC
  8
0
  6
BYLAYER
 62
     7
 10
441.377683
 20
-180.952619
 30
0.0
 40
2.000003
 50
195.000043
 51
270.000001
  0
LINE
  8
0
  6
BYLAYER
 62
     7
 10
436.773099
 20
-174.147611
 30
0.0
 11
439.199155
 21
-183.201795
 31
0.0
  0
ARC
  8
0
  6
BYLAYER
 62
     7
 10
441.131009
 20
-182.684155
 30
0.0
 40
2.000003
 50
195.000016
 51
270.000001
  0
LINE
  8
0
  6
BYLAYER
 62
     7
 10
440.877683
 20
-165.215207
 30
0.0
 11
537.273099
 21
-165.215193
 31
0.0
  0
LINE
  8
0
  6
BYLAYER
 62
     7
 10
442.175092
 20
-173.494779
 30
0.0
 11
537.273099
 21
-173.494764
 31
0.0
  0
LINE
  8
0
  6
BYLAYER
 62
     7
 10
441.653806
 20
-179.343854
 30
0.0
 11
537.273099
 21
-179.343840
 31
0.0
  0
LINE
  8
0
  6
BYLAYER
 62
     7
 10
441.377683
 20
-182.952619
 30
0.0
 11
537.273099
 21
-182.952604
 31
0.0
  0
LINE
  8
0
  6
BYLAYER
 62
     7
 10
441.131009
 20
-184.684155
 30
0.0
 11
537.273099
 21
-184.684141
 31
0.0
  0
CIRCLE
  8
0
  6
BYLAYER
 62
     7
 10
465.273069
 20
-100.847623
 30
0.0
 40
3.0
  0
CIRCLE
  8
0
  6
BYLAYER
 62
     7
 10
520.273069
 20
-100.847623
 30
0.0
 40
3.0
  0
LINE
  8
0
  6
BYLAYER
 62
     7
 10
437.623014
 20
-99.997617
 30
0.0
 11
462.395993
 21
-99.997647
 31
0.0
  0
LINE
  8
0
  6
BYLAYER
 62
     7
 10
462.395993
 20
-101.697629
 30
0.0
 11
437.623014
 21
-101.697598
 31
0.0
  0
LINE
  8
0
  6
BYLAYER
 62
     7
 10
468.150144
 20
-99.997647
 30
0.0
 11
517.395993
 21
-99.997678
 31
0.0
  0
LINE
  8
0
  6
BYLAYER
 62
     7
 10
517.396024
 20
-101.697659
 30
0.0
 11
468.150128
 21
-101.697629
 31
0.0
  0
LINE
  8
0
  6
BYLAYER
 62
     7
 10
523.150144
 20
-99.997678
 30
0.0
 11
537.273099
 21
-99.997695
 31
0.0
  0
LINE
  8
0
  6
BYLAYER
 62
     7
 10
537.273099
 20
-101.697677
 30
0.0
 11
523.150113
 21
-101.697659
 31
0.0
  0
LINE
  8
0
  6
BYLAYER
 62
     7
 10
437.623014
 20
-132.097623
 30
0.0
 11
537.273099
 21
-132.097535
 31
0.0
  0
LINE
  8
0
  6
BYLAYER
 62
     7
 10
437.623014
 20
-133.797604
 30
0.0
 11
537.273099
 21
-133.797517
 31
0.0
  0
LINE
  8
0
  6
BYLAYER
 62
     7
 10
434.772977
 20
-59.647607
 30
0.0
 11
434.773099
 21
-174.147607
 31
0.0
  0
LINE
  8
0
  6
BYLAYER
 62
     7
 10
610.773099
 20
-61.897611
 30
0.0
 11
610.773099
 21
-171.897611
 31
0.0
  0
LINE
  8
0
  6
BYLAYER
 62
     7
 10
537.273099
 20
-47.447611
 30
0.0
 11
596.323099
 21
-47.447611
 31
0.0
  0
LINE
  8
0
  6
BYLAYER
 62
     7
 10
537.273099
 20
-186.347611
 30
0.0
 11
596.323099
 21
-186.347611
 31
0.0
  0
LINE
  8
0
  6
BYLAYER
 62
     7
 10
610.773099
 20
-61.897611
 30
0.0
 11
596.323099
 21
-47.447611
 31
0.0
  0
LINE
  8
0
  6
BYLAYER
 62
     7
 10
610.773099
 20
-171.897611
 30
0.0
 11
596.323099
 21
-186.347611
 31
0.0
  0
LINE
  8
0
  6
BYLAYER
 62
     7
 10
537.273099
 20
-116.897611
 30
0.0
 11
537.273099
 21
-186.347611
 31
0.0
  0
LINE
  8
0
  6
BYLAYER
 62
     7
 10
537.273099
 20
-116.897611
 30
0.0
 11
537.273099
 21
-47.447611
 31
0.0
  0
LINE
  8
0
  6
BYLAYER
 62
     7
 10
434.773038
 20
-58.888884
 30
0.0
 11
434.773038
 21
-174.906338
 31
0.0
  0
LINE
  8
0
  6
BYLAYER
 62
     7
 10
403.773038
 20
-36.897611
 30
0.0
 11
413.773038
 21
-36.897611
 31
0.0
  0
LINE
  8
0
  6
BYLAYER
 62
     7
 10
434.773038
 20
-58.888884
 30
0.0
 11
414.755582
 21
-58.539480
 31
0.0
  0
LINE
  8
0
  6
BYLAYER
 62
     7
 10
413.773038
 20
-36.897611
 30
0.0
 11
413.773038
 21
-116.897611
 31
0.0
  0
ARC
  8
0
  6
BYLAYER
 62
     7
 10
414.773038
 20
-57.539632
 30
0.0
 40
1.0
 50
180.000000
 51
269.000015
  0
LINE
  8
0
  6
BYLAYER
 62
     7
 10
403.773038
 20
-196.897611
 30
0.0
 11
413.773038
 21
-196.897611
 31
0.0
  0
LINE
  8
0
  6
BYLAYER
 62
     7
 10
433.273038
 20
-183.897611
 30
0.0
 11
413.773038
 21
-184.237987
 31
0.0
  0
LINE
  8
0
  6
BYLAYER
 62
     7
 10
433.273038
 20
-183.897611
 30
0.0
 11
433.273038
 21
-174.897611
 31
0.0
  0
LINE
  8
0
  6
BYLAYER
 62
     7
 10
434.773038
 20
-174.906338
 30
0.0
 11
433.273038
 21
-174.932519
 31
0.0
  0
LINE
  8
0
  6
BYLAYER
 62
     7
 10
413.773038
 20
-196.897611
 30
0.0
 11
413.773038
 21
-116.897611
 31
0.0
  0
LINE
  8
0
  6
BYLAYER
 62
     7
 10
403.773038
 20
-196.897611
 30
0.0
 11
403.773038
 21
-116.897611
 31
0.0
  0
LINE
  8
0
  6
BYLAYER
 62
     7
 10
403.773038
 20
-36.897611
 30
0.0
 11
403.773038
 21
-116.897611
 31
0.0
  0
ARC
  8
0
  6
BYLAYER
 62
     7
 10
507.527315
 20
-29.397489
 30
0.0
 40
1.500000
 50
180.000000
 51
270.000000
  0
ARC
  8
0
  6
BYLAYER
 62
     7
 10
446.018639
 20
-29.397489
 30
0.0
 40
1.500000
 50
270.0
 51
360.0
  0
ARC
  8
0
  6
BYLAYER
 62
     7
 10
438.272977
 20
-29.397489
 30
0.0
 40
1.500000
 50
270.0
 51
360.0
  0
ARC
  8
0
  6
BYLAYER
 62
     7
 10
438.272977
 20
-32.397489
 30
0.0
 40
1.500000
 50
90.0
 51
180.0
  0
ARC
  8
0
  6
BYLAYER
 62
     7
 10
515.272977
 20
-29.397489
 30
0.0
 40
1.500000
 50
180.000000
 51
270.000000
  0
LINE
  8
0
  6
BYLAYER
 62
     7
 10
439.772977
 20
-29.397489
 30
0.0
 11
439.772977
 21
-7.897489
 31
0.0
  0
ARC
  8
0
  6
BYLAYER
 62
     7
 10
441.272977
 20
-7.897489
 30
0.0
 40
1.500000
 50
90.0
 51
180.0
  0
LINE
  8
0
  6
BYLAYER
 62
     7
 10
513.772977
 20
-29.397489
 30
0.0
 11
513.772977
 21
-7.897489
 31
0.0
  0
LINE
  8
0
  6
BYLAYER
 62
     7
 10
441.272977
 20
-6.397489
 30
0.0
 11
512.272977
 21
-6.397489
 31
0.0
  0
ARC
  8
0
  6
BYLAYER
 62
     7
 10
504.527315
 20
-7.897489
 30
0.0
 40
1.500000
 50
0.0
 51
90.0
  0
ARC
  8
0
  6
BYLAYER
 62
     7
 10
512.272977
 20
-7.897489
 30
0.0
 40
1.500000
 50
0.0
 51
90.0
  0
LINE
  8
0
  6
BYLAYER
 62
     7
 10
447.518639
 20
-29.397489
 30
0.0
 11
447.518639
 21
-7.897489
 31
0.0
  0
ARC
  8
0
  6
BYLAYER
 62
     7
 10
449.018639
 20
-7.897489
 30
0.0
 40
1.500000
 50
90.0
 51
180.0
  0
LINE
  8
0
  6
BYLAYER
 62
     7
 10
506.027315
 20
-29.397489
 30
0.0
 11
506.027315
 21
-7.897489
 31
0.0
  0
ARC
  8
0
  6
BYLAYER
 62
     7
 10
515.272977
 20
-32.397489
 30
0.0
 40
1.500000
 50
0.0
 51
90.0
  0
LINE
  8
0
  6
BYLAYER
 62
     7
 10
516.772977
 20
-39.897489
 30
0.0
 11
516.772977
 21
-32.397489
 31
0.0
  0
LINE
  8
0
  6
BYLAYER
 62
     7
 10
515.272977
 20
-30.897489
 30
0.0
 11
438.272977
 21
-30.897489
 31
0.0
  0
LINE
  8
0
  6
BYLAYER
 62
     7
 10
436.772977
 20
-32.397489
 30
0.0
 11
436.772977
 21
-39.897489
 31
0.0
  0
LINE
  8
0
  6
BYLAYER
 62
     7
 10
436.772977
 20
-39.897489
 30
0.0
 11
516.772977
 21
-39.897489
 31
0.0
  0
LINE
  8
0
  6
BYLAYER
 62
     7
 10
516.772977
 20
-37.897489
 30
0.0
 11
436.772977
 21
-37.897489
 31
0.0
  0
LINE
  8
0
  6
BYLAYER
 62
     7
 10
596.323099
 20
-186.347611
 30
0.0
 11
596.323099
 21
-47.447611
 31
0.0
  0
ARC
  8
0
  6
BYLAYER
 62
     7
 10
437.623029
 20
-654.347592
 30
0.0
 40
0.850006
 50
111.034603
 51
269.999998
  0
ARC
  8
0
  6
BYLAYER
 62
     7
 10
441.622953
 20
-654.347592
 30
0.0
 40
0.850006
 50
148.036043
 51
269.999998
  0
LINE
  8
0
  6
BYLAYER
 62
     7
 10
437.623014
 20
-655.197598
 30
0.0
 11
537.273099
 21
-655.197516
 31
0.0
  0
LINE
  8
0
  6
BYLAYER
 62
     7
 10
436.773099
 20
-674.147611
 30
0.0
 11
436.773047
 21
-616.897611
 31
0.0
  0
LINE
  8
0
  6
BYLAYER
 62
     7
 10
436.773099
 20
-674.147611
 30
0.0
 11
434.773099
 21
-674.147611
 31
0.0
  0
LINE
  8
0
  6
BYLAYER
 62
     7
 10
436.773084
 20
-655.624021
 30
0.0
 11
438.945829
 21
-663.732846
 31
0.0
  0
ARC
  8
0
  6
BYLAYER
 62
     7
 10
440.877683
 20
-663.215207
 30
0.0
 40
2.000003
 50
195.000016
 51
270.000001
  0
LINE
  8
0
  6
BYLAYER
 62
     7
 10
436.773084
 20
-659.061612
 30
0.0
 11
440.243253
 21
-672.012418
 31
0.0
  0
ARC
  8
0
  6
BYLAYER
 62
     7
 10
442.175092
 20
-671.494779
 30
0.0
 40
1.999988
 50
195.000043
 51
270.000001
  0
LINE
  8
0
  6
BYLAYER
 62
     7
 10
436.773099
 20
-666.856213
 30
0.0
 11
439.721952
 21
-677.861493
 31
0.0
  0
ARC
  8
0
  6
BYLAYER
 62
     7
 10
441.653806
 20
-677.343854
 30
0.0
 40
2.000003
 50
195.000043
 51
270.000001
  0
LINE
  8
0
  6
BYLAYER
 62
     7
 10
436.773099
 20
-671.495465
 30
0.0
 11
439.445829
 21
-681.470258
 31
0.0
  0
ARC
  8
0
  6
BYLAYER
 62
     7
 10
441.377683
 20
-680.952619
 30
0.0
 40
2.000003
 50
195.000043
 51
270.000001
  0
LINE
  8
0
  6
BYLAYER
 62
     7
 10
436.773099
 20
-674.147611
 30
0.0
 11
439.199155
 21
-683.201795
 31
0.0
  0
ARC
  8
0
  6
BYLAYER
 62
     7
 10
441.131009
 20
-682.684155
 30
0.0
 40
2.000003
 50
195.000016
 51
270.000001
  0
LINE
  8
0
  6
BYLAYER
 62
     7
 10
440.877683
 20
-665.215207
 30
0.0
 11
537.273099
 21
-665.215193
 31
0.0
  0
LINE
  8
0
  6
BYLAYER
 62
     7
 10
442.175092
 20
-673.494779
 30
0.0
 11
537.273099
 21
-673.494764
 31
0.0
  0
LINE
  8
0
  6
BYLAYER
 62
     7
 10
441.653806
 20
-679.343854
 30
0.0
 11
537.273099
 21
-679.343840
 31
0.0
  0
LINE
  8
0
  6
BYLAYER
 62
     7
 10
441.377683
 20
-682.952619
 30
0.0
 11
537.273099
 21
-682.952604
 31
0.0
  0
LINE
  8
0
  6
BYLAYER
 62
     7
 10
441.131009
 20
-684.684155
 30
0.0
 11
537.273099
 21
-684.684141
 31
0.0
  0
LINE
  8
0
  6
BYLAYER
 62
     7
 10
434.773038
 20
-616.897611
 30
0.0
 11
434.773099
 21
-674.147607
 31
0.0
  0
LINE
  8
0
  6
BYLAYER
 62
     7
 10
610.773099
 20
-616.897611
 30
0.0
 11
610.773099
 21
-671.897611
 31
0.0
  0
LINE
  8
0
  6
BYLAYER
 62
     7
 10
537.273099
 20
-686.347611
 30
0.0
 11
596.323099
 21
-686.347611
 31
0.0
  0
LINE
  8
0
  6
BYLAYER
 62
     7
 10
610.773099
 20
-671.897611
 30
0.0
 11
596.323099
 21
-686.347611
 31
0.0
  0
LINE
  8
0
  6
BYLAYER
 62
     7
 10
537.273099
 20
-616.897611
 30
0.0
 11
537.273099
 21
-686.347611
 31
0.0
  0
LINE
  8
0
  6
BYLAYER
 62
     7
 10
439.773047
 20
-641.414296
 30
0.0
 11
439.773047
 21
-616.897611
 31
0.0
  0
LINE
  8
0
  6
BYLAYER
 62
     7
 10
513.773047
 20
-616.897611
 30
0.0
 11
513.773047
 21
-641.414296
 31
0.0
  0
LINE
  8
0
  6
BYLAYER
 62
     7
 10
504.310641
 20
-651.147611
 30
0.0
 11
449.235453
 21
-651.147611
 31
0.0
  0
LINE
  8
0
  6
BYLAYER
 62
     7
 10
453.877745
 20
-621.998717
 30
0.0
 11
439.773047
 21
-622.491264
 31
0.0
  0
ARC
  8
0
  6
BYLAYER
 62
     7
 10
453.773047
 20
-619.000545
 30
0.0
 40
3.000000
 50
272.000000
 51
360.000000
  0
LINE
  8
0
  6
BYLAYER
 62
     7
 10
453.877745
 20
-636.998717
 30
0.0
 11
439.773047
 21
-637.491264
 31
0.0
  0
ARC
  8
0
  6
BYLAYER
 62
     7
 10
453.773047
 20
-634.000545
 30
0.0
 40
3.000000
 50
272.000000
 51
360.000000
  0
LINE
  8
0
  6
BYLAYER
 62
     7
 10
439.773047
 20
-626.303958
 30
0.0
 11
453.877745
 21
-626.796505
 31
0.0
  0
ARC
  8
0
  6
BYLAYER
 62
     7
 10
453.773047
 20
-629.794677
 30
0.0
 40
3.000000
 50
0.0
 51
88.0
  0
LINE
  8
0
  6
BYLAYER
 62
     7
 10
456.773047
 20
-629.794677
 30
0.0
 11
456.773047
 21
-634.000545
 31
0.0
  0
LINE
  8
0
  6
BYLAYER
 62
     7
 10
456.773047
 20
-616.897611
 30
0.0
 11
456.773047
 21
-619.000545
 31
0.0
  0
LINE
  8
0
  6
BYLAYER
 62
     7
 10
440.773047
 20
-616.897611
 30
0.0
 11
440.773047
 21
-622.456343
 31
0.0
  0
LINE
  8
0
  6
BYLAYER
 62
     7
 10
440.773047
 20
-626.338879
 30
0.0
 11
440.773047
 21
-637.456343
 31
0.0
  0
LINE
  8
0
  6
BYLAYER
 62
     7
 10
499.668348
 20
-621.998717
 30
0.0
 11
513.773047
 21
-622.491264
 31
0.0
  0
ARC
  8
0
  6
BYLAYER
 62
     7
 10
499.773047
 20
-619.000545
 30
0.0
 40
3.000000
 50
180.000000
 51
268.000000
  0
LINE
  8
0
  6
BYLAYER
 62
     7
 10
499.668348
 20
-636.998717
 30
0.0
 11
513.773047
 21
-637.491264
 31
0.0
  0
ARC
  8
0
  6
BYLAYER
 62
     7
 10
499.773047
 20
-634.000545
 30
0.0
 40
3.000000
 50
180.000000
 51
268.000000
  0
LINE
  8
0
  6
BYLAYER
 62
     7
 10
513.773047
 20
-626.303958
 30
0.0
 11
499.668348
 21
-626.796505
 31
0.0
  0
ARC
  8
0
  6
BYLAYER
 62
     7
 10
499.773047
 20
-629.794677
 30
0.0
 40
3.000000
 50
92.0
 51
180.0
  0
LINE
  8
0
  6
BYLAYER
 62
     7
 10
496.773047
 20
-629.794677
 30
0.0
 11
496.773047
 21
-634.000545
 31
0.0
  0
LINE
  8
0
  6
BYLAYER
 62
     7
 10
496.773047
 20
-616.897611
 30
0.0
 11
496.773047
 21
-619.000545
 31
0.0
  0
LINE
  8
0
  6
BYLAYER
 62
     7
 10
512.773047
 20
-616.897611
 30
0.0
 11
512.773047
 21
-622.456343
 31
0.0
  0
LINE
  8
0
  6
BYLAYER
 62
     7
 10
512.773047
 20
-626.338879
 30
0.0
 11
512.773047
 21
-637.456343
 31
0.0
  0
LINE
  8
0
  6
BYLAYER
 62
     7
 10
436.773047
 20
-616.897611
 30
0.0
 11
436.773047
 21
-652.397611
 31
0.0
  0
ARC
  8
0
  6
BYLAYER
 62
     7
 10
438.273047
 20
-652.397611
 30
0.0
 40
1.5
 50
180.000000
 51
270.000000
  0
LINE
  8
0
  6
BYLAYER
 62
     7
 10
516.773047
 20
-652.397611
 30
0.0
 11
516.773047
 21
-616.897611
 31
0.0
  0
LINE
  8
0
  6
BYLAYER
 62
     7
 10
438.273047
 20
-653.897611
 30
0.0
 11
515.273047
 21
-653.897611
 31
0.0
  0
ARC
  8
0
  6
BYLAYER
 62
     7
 10
515.273047
 20
-652.397611
 30
0.0
 40
1.5
 50
270.0
 51
360.0
  0
ARC
  8
0
  6
BYLAYER
 62
     7
 10
511.773047
 20
-648.897611
 30
0.0
 40
6.0
 50
86.177446
 51
185.739170
  0
ARC
  8
0
  6
BYLAYER
 62
     7
 10
512.273047
 20
-641.414296
 30
0.0
 40
1.500000
 50
266.177446
 51
360.000000
  0
ARC
  8
0
  6
BYLAYER
 62
     7
 10
504.310641
 20
-649.647611
 30
0.0
 40
1.5
 50
270.0
 51
365.739170
  0
ARC
  8
0
  6
BYLAYER
 62
     7
 10
441.773047
 20
-648.897611
 30
0.0
 40
6.0
 50
354.260830
 51
453.822554
  0
ARC
  8
0
  6
BYLAYER
 62
     7
 10
449.235453
 20
-649.647611
 30
0.0
 40
1.500000
 50
174.260830
 51
270.000000
  0
ARC
  8
0
  6
BYLAYER
 62
     7
 10
441.273047
 20
-641.414296
 30
0.0
 40
1.500000
 50
180.000000
 51
273.822554
  0
ARC
  8
0
  6
BYLAYER
 62
     7
 10
463.773047
 20
-643.897611
 30
0.0
 40
3.0
 50
180.000000
 51
270.000000
  0
ARC
  8
0
  6
BYLAYER
 62
     7
 10
489.773047
 20
-643.897611
 30
0.0
 40
3.0
 50
270.0
 51
360.0
  0
LINE
  8
0
  6
BYLAYER
 62
     7
 10
463.773047
 20
-646.897611
 30
0.0
 11
489.773047
 21
-646.897611
 31
0.0
  0
LINE
  8
0
  6
BYLAYER
 62
     7
 10
460.773047
 20
-643.897611
 30
0.0
 11
460.773047
 21
-616.897611
 31
0.0
  0
LINE
  8
0
  6
BYLAYER
 62
     7
 10
492.773047
 20
-616.897611
 30
0.0
 11
492.773047
 21
-643.897611
 31
0.0
  0
LINE
  8
0
  6
BYLAYER
 62
     7
 10
537.273099
 20
-642.797522
 30
0.0
 11
516.773047
 21
-642.797539
 31
0.0
  0
LINE
  8
0
  6
BYLAYER
 62
     7
 10
537.273099
 20
-644.497504
 30
0.0
 11
516.773047
 21
-644.497521
 31
0.0
  0
LINE
  8
0
  6
BYLAYER
 62
     7
 10
537.273099
 20
-653.497525
 30
0.0
 11
516.292944
 21
-653.497525
 31
0.0
  0
ARC
  8
0
  6
BYLAYER
 62
     7
 10
437.623029
 20
-579.447630
 30
0.0
 40
0.850006
 50
90.0
 51
248.965395
  0
ARC
  8
0
  6
BYLAYER
 62
     7
 10
441.622953
 20
-579.447630
 30
0.0
 40
0.850006
 50
90.0
 51
211.963955
  0
LINE
  8
0
  6
BYLAYER
 62
     7
 10
437.623014
 20
-578.597624
 30
0.0
 11
537.273099
 21
-578.597706
 31
0.0
  0
LINE
  8
0
  6
BYLAYER
 62
     7
 10
436.773099
 20
-559.647611
 30
0.0
 11
436.773047
 21
-616.897611
 31
0.0
  0
LINE
  8
0
  6
BYLAYER
 62
     7
 10
436.773099
 20
-559.647611
 30
0.0
 11
434.773099
 21
-559.647611
 31
0.0
  0
LINE
  8
0
  6
BYLAYER
 62
     7
 10
436.773084
 20
-578.171201
 30
0.0
 11
438.945829
 21
-570.062376
 31
0.0
  0
ARC
  8
0
  6
BYLAYER
 62
     7
 10
440.877683
 20
-570.580015
 30
0.0
 40
2.000003
 50
90.0
 51
164.999985
  0
LINE
  8
0
  6
BYLAYER
 62
     7
 10
436.773084
 20
-574.733610
 30
0.0
 11
440.243253
 21
-561.782804
 31
0.0
  0
ARC
  8
0
  6
BYLAYER
 62
     7
 10
442.175092
 20
-562.300443
 30
0.0
 40
1.999988
 50
90.0
 51
164.999958
  0
LINE
  8
0
  6
BYLAYER
 62
     7
 10
436.773099
 20
-566.939009
 30
0.0
 11
439.721952
 21
-555.933729
 31
0.0
  0
ARC
  8
0
  6
BYLAYER
 62
     7
 10
441.653806
 20
-556.451368
 30
0.0
 40
2.000003
 50
90.0
 51
164.999958
  0
LINE
  8
0
  6
BYLAYER
 62
     7
 10
436.773099
 20
-562.299757
 30
0.0
 11
439.445829
 21
-552.324964
 31
0.0
  0
ARC
  8
0
  6
BYLAYER
 62
     7
 10
441.377683
 20
-552.842603
 30
0.0
 40
2.000003
 50
90.0
 51
164.999958
  0
LINE
  8
0
  6
BYLAYER
 62
     7
 10
436.773099
 20
-559.647611
 30
0.0
 11
439.199155
 21
-550.593427
 31
0.0
  0
ARC
  8
0
  6
BYLAYER
 62
     7
 10
441.131009
 20
-551.111067
 30
0.0
 40
2.000003
 50
90.0
 51
164.999985
  0
LINE
  8
0
  6
BYLAYER
 62
     7
 10
440.877683
 20
-568.580015
 30
0.0
 11
537.273099
 21
-568.580029
 31
0.0
  0
LINE
  8
0
  6
BYLAYER
 62
     7
 10
442.175092
 20
-560.300443
 30
0.0
 11
537.273099
 21
-560.300458
 31
0.0
  0
LINE
  8
0
  6
BYLAYER
 62
     7
 10
441.653806
 20
-554.451368
 30
0.0
 11
537.273099
 21
-554.451382
 31
0.0
  0
LINE
  8
0
  6
BYLAYER
 62
     7
 10
441.377683
 20
-550.842603
 30
0.0
 11
537.273099
 21
-550.842618
 31
0.0
  0
LINE
  8
0
  6
BYLAYER
 62
     7
 10
441.131009
 20
-549.111067
 30
0.0
 11
537.273099
 21
-549.111081
 31
0.0
  0
LINE
  8
0
  6
BYLAYER
 62
     7
 10
434.773038
 20
-616.897611
 30
0.0
 11
434.773099
 21
-559.647615
 31
0.0
  0
LINE
  8
0
  6
BYLAYER
 62
     7
 10
610.773099
 20
-616.897611
 30
0.0
 11
610.773099
 21
-561.897611
 31
0.0
  0
LINE
  8
0
  6
BYLAYER
 62
     7
 10
537.273099
 20
-547.447611
 30
0.0
 11
596.323099
 21
-547.447611
 31
0.0
  0
LINE
  8
0
  6
BYLAYER
 62
     7
 10
610.773099
 20
-561.897611
 30
0.0
 11
596.323099
 21
-547.447611
 31
0.0
  0
LINE
  8
0
  6
BYLAYER
 62
     7
 10
537.273099
 20
-616.897611
 30
0.0
 11
537.273099
 21
-547.447611
 31
0.0
  0
LINE
  8
0
  6
BYLAYER
 62
     7
 10
439.773047
 20
-592.380926
 30
0.0
 11
439.773047
 21
-616.897611
 31
0.0
  0
LINE
  8
0
  6
BYLAYER
 62
     7
 10
513.773047
 20
-616.897611
 30
0.0
 11
513.773047
 21
-592.380926
 31
0.0
  0
LINE
  8
0
  6
BYLAYER
 62
     7
 10
504.310641
 20
-582.647611
 30
0.0
 11
449.235453
 21
-582.647611
 31
0.0
  0
LINE
  8
0
  6
BYLAYER
 62
     7
 10
453.877745
 20
-611.796505
 30
0.0
 11
439.773047
 21
-611.303958
 31
0.0
  0
ARC
  8
0
  6
BYLAYER
 62
     7
 10
453.773047
 20
-614.794677
 30
0.0
 40
3.000000
 50
0.0
 51
88.0
  0
LINE
  8
0
  6
BYLAYER
 62
     7
 10
453.877745
 20
-596.796505
 30
0.0
 11
439.773047
 21
-596.303958
 31
0.0
  0
ARC
  8
0
  6
BYLAYER
 62
     7
 10
453.773047
 20
-599.794677
 30
0.0
 40
3.000000
 50
0.0
 51
88.0
  0
LINE
  8
0
  6
BYLAYER
 62
     7
 10
439.773047
 20
-607.491264
 30
0.0
 11
453.877745
 21
-606.998717
 31
0.0
  0
ARC
  8
0
  6
BYLAYER
 62
     7
 10
453.773047
 20
-604.000545
 30
0.0
 40
3.000000
 50
272.000000
 51
360.000000
  0
LINE
  8
0
  6
BYLAYER
 62
     7
 10
456.773047
 20
-604.000545
 30
0.0
 11
456.773047
 21
-599.794677
 31
0.0
  0
LINE
  8
0
  6
BYLAYER
 62
     7
 10
456.773047
 20
-616.897611
 30
0.0
 11
456.773047
 21
-614.794677
 31
0.0
  0
LINE
  8
0
  6
BYLAYER
 62
     7
 10
440.773047
 20
-616.897611
 30
0.0
 11
440.773047
 21
-611.338879
 31
0.0
  0
LINE
  8
0
  6
BYLAYER
 62
     7
 10
440.773047
 20
-607.456343
 30
0.0
 11
440.773047
 21
-596.338879
 31
0.0
  0
LINE
  8
0
  6
BYLAYER
 62
     7
 10
499.668348
 20
-611.796505
 30
0.0
 11
513.773047
 21
-611.303958
 31
0.0
  0
ARC
  8
0
  6
BYLAYER
 62
     7
 10
499.773047
 20
-614.794677
 30
0.0
 40
3.000000
 50
92.0
 51
180.0
  0
LINE
  8
0
  6
BYLAYER
 62
     7
 10
499.668348
 20
-596.796505
 30
0.0
 11
513.773047
 21
-596.303958
 31
0.0
  0
ARC
  8
0
  6
BYLAYER
 62
     7
 10
499.773047
 20
-599.794677
 30
0.0
 40
3.000000
 50
92.0
 51
180.0
  0
LINE
  8
0
  6
BYLAYER
 62
     7
 10
513.773047
 20
-607.491264
 30
0.0
 11
499.668348
 21
-606.998717
 31
0.0
  0
ARC
  8
0
  6
BYLAYER
 62
     7
 10
499.773047
 20
-604.000545
 30
0.0
 40
3.000000
 50
180.000000
 51
268.000000
  0
LINE
  8
0
  6
BYLAYER
 62
     7
 10
496.773047
 20
-604.000545
 30
0.0
 11
496.773047
 21
-599.794677
 31
0.0
  0
LINE
  8
0
  6
BYLAYER
 62
     7
 10
496.773047
 20
-616.897611
 30
0.0
 11
496.773047
 21
-614.794677
 31
0.0
  0
LINE
  8
0
  6
BYLAYER
 62
     7
 10
512.773047
 20
-616.897611
 30
0.0
 11
512.773047
 21
-611.338879
 31
0.0
  0
LINE
  8
0
  6
BYLAYER
 62
     7
 10
512.773047
 20
-607.456343
 30
0.0
 11
512.773047
 21
-596.338879
 31
0.0
  0
LINE
  8
0
  6
BYLAYER
 62
     7
 10
436.773047
 20
-616.897611
 30
0.0
 11
436.773047
 21
-581.397611
 31
0.0
  0
ARC
  8
0
  6
BYLAYER
 62
     7
 10
438.273047
 20
-581.397611
 30
0.0
 40
1.5
 50
90.0
 51
180.0
  0
LINE
  8
0
  6
BYLAYER
 62
     7
 10
516.773047
 20
-581.397611
 30
0.0
 11
516.773047
 21
-616.897611
 31
0.0
  0
LINE
  8
0
  6
BYLAYER
 62
     7
 10
438.273047
 20
-579.897611
 30
0.0
 11
515.273047
 21
-579.897611
 31
0.0
  0
ARC
  8
0
  6
BYLAYER
 62
     7
 10
515.273047
 20
-581.397611
 30
0.0
 40
1.5
 50
0.0
 51
90.0
  0
ARC
  8
0
  6
BYLAYER
 62
     7
 10
511.773047
 20
-584.897611
 30
0.0
 40
6.000000
 50
174.260830
 51
273.822554
  0
ARC
  8
0
  6
BYLAYER
 62
     7
 10
512.273047
 20
-592.380926
 30
0.0
 40
1.500000
 50
0.0
 51
93.822554
  0
ARC
  8
0
  6
BYLAYER
 62
     7
 10
504.310641
 20
-584.147611
 30
0.0
 40
1.500000
 50
354.260830
 51
450.000000
  0
ARC
  8
0
  6
BYLAYER
 62
     7
 10
441.773047
 20
-584.897611
 30
0.0
 40
6.000000
 50
266.177446
 51
365.739170
  0
ARC
  8
0
  6
BYLAYER
 62
     7
 10
449.235453
 20
-584.147611
 30
0.0
 40
1.5
 50
90.0
 51
185.73917
  0
ARC
  8
0
  6
BYLAYER
 62
     7
 10
441.273047
 20
-592.380926
 30
0.0
 40
1.500000
 50
86.177446
 51
180.0
  0
ARC
  8
0
  6
BYLAYER
 62
     7
 10
463.773047
 20
-589.897611
 30
0.0
 40
3.0
 50
90.0
 51
180.0
  0
ARC
  8
0
  6
BYLAYER
 62
     7
 10
489.773047
 20
-589.897611
 30
0.0
 40
3.0
 50
0.0
 51
90.0
  0
LINE
  8
0
  6
BYLAYER
 62
     7
 10
463.773047
 20
-586.897611
 30
0.0
 11
489.773047
 21
-586.897611
 31
0.0
  0
LINE
  8
0
  6
BYLAYER
 62
     7
 10
460.773047
 20
-589.897611
 30
0.0
 11
460.773047
 21
-616.897611
 31
0.0
  0
LINE
  8
0
  6
BYLAYER
 62
     7
 10
492.773047
 20
-616.897611
 30
0.0
 11
492.773047
 21
-589.897611
 31
0.0
  0
LINE
  8
0
  6
BYLAYER
 62
     7
 10
537.273099
 20
-590.997700
 30
0.0
 11
516.773047
 21
-590.997683
 31
0.0
  0
LINE
  8
0
  6
BYLAYER
 62
     7
 10
537.273099
 20
-589.297718
 30
0.0
 11
516.773047
 21
-589.297701
 31
0.0
  0
LINE
  8
0
  6
BYLAYER
 62
     7
 10
537.273099
 20
-580.297697
 30
0.0
 11
516.292944
 21
-580.297697
 31
0.0
  0
LINE
  8
0
  6
BYLAYER
 62
     7
 10
434.773038
 20
-558.888884
 30
0.0
 11
434.773038
 21
-616.897611
 31
0.0
  0
LINE
  8
0
  6
BYLAYER
 62
     7
 10
403.773038
 20
-536.897611
 30
0.0
 11
413.773038
 21
-536.897611
 31
0.0
  0
LINE
  8
0
  6
BYLAYER
 62
     7
 10
434.773038
 20
-558.888884
 30
0.0
 11
414.755582
 21
-558.539480
 31
0.0
  0
LINE
  8
0
  6
BYLAYER
 62
     7
 10
413.773038
 20
-536.897611
 30
0.0
 11
413.773038
 21
-616.897611
 31
0.0
  0
ARC
  8
0
  6
BYLAYER
 62
     7
 10
414.773038
 20
-557.539632
 30
0.0
 40
1.000000
 50
180.000000
 51
269.000015
  0
LINE
  8
0
  6
BYLAYER
 62
     7
 10
403.773038
 20
-536.897611
 30
0.0
 11
403.773038
 21
-616.897611
 31
0.0
  0
LINE
  8
0
  6
BYLAYER
 62
     7
 10
434.773038
 20
-674.906338
 30
0.0
 11
434.773038
 21
-616.897611
 31
0.0
  0
LINE
  8
0
  6
BYLAYER
 62
     7
 10
403.773038
 20
-696.897611
 30
0.0
 11
413.773038
 21
-696.897611
 31
0.0
  0
LINE
  8
0
  6
BYLAYER
 62
     7
 10
434.773038
 20
-674.906338
 30
0.0
 11
414.755582
 21
-675.255742
 31
0.0
  0
LINE
  8
0
  6
BYLAYER
 62
     7
 10
413.773038
 20
-696.897611
 30
0.0
 11
413.773038
 21
-616.897611
 31
0.0
  0
ARC
  8
0
  6
BYLAYER
 62
     7
 10
414.773038
 20
-676.255590
 30
0.0
 40
1.000000
 50
90.999990
 51
180.000005
  0
LINE
  8
0
  6
BYLAYER
 62
     7
 10
403.773038
 20
-696.897611
 30
0.0
 11
403.773038
 21
-616.897611
 31
0.0
  0
LINE
  8
0
  6
BYLAYER
 62
     7
 10
596.323099
 20
-547.447611
 30
0.0
 11
596.323099
 21
-686.347611
 31
0.0
  0
LINE
  8
0
  6
BYLAYER
 62
     1
 10
398.773185
 20
-36.897732
 30
0.0
 11
403.773161
 21
-36.897671
 31
0.0
  0
LINE
  8
0
  6
BYLAYER
 62
     1
 10
403.773161
 20
-196.897534
 30
0.0
 11
403.773161
 21
-36.897671
 31
0.0
  0
LINE
  8
0
  6
BYLAYER
 62
     1
 10
393.773161
 20
-194.897534
 30
0.0
 11
393.773161
 21
-148.616754
 31
0.0
  0
LINE
  8
0
  6
BYLAYER
 62
     1
 10
393.773161
 20
-114.985818
 30
0.0
 11
393.773161
 21
-79.419691
 31
0.0
  0
ARC
  8
0
  6
BYLAYER
 62
     1
 10
392.773161
 20
-114.985818
 30
0.0
 40
1.0
 50
333.429193
 51
360.0
  0
LINE
  8
0
  6
BYLAYER
 62
     1
 10
393.773161
 20
-62.859557
 30
0.0
 11
393.773161
 21
-49.257428
 31
0.0
  0
ARC
  8
0
  6
BYLAYER
 62
     1
 10
395.773161
 20
-49.257428
 30
0.0
 40
2.0
 50
90.0
 51
180.0
  0
ARC
  8
0
  6
BYLAYER
 62
     1
 10
395.773161
 20
-194.897534
 30
0.0
 40
2.0
 50
180.000000
 51
270.000000
  0
LINE
  8
0
  6
BYLAYER
 62
     1
 10
369.773161
 20
-129.210179
 30
0.0
 11
369.773161
 21
-1.397518
 31
0.0
  0
ARC
  8
0
  6
BYLAYER
 62
     1
 10
367.773161
 20
-129.210179
 30
0.0
 40
2.0
 50
270.0
 51
360.0
  0
ARC
  8
0
  6
BYLAYER
 62
     1
 10
367.773161
 20
-1.397518
 30
0.0
 40
2.0
 50
0.0
 51
90.0
  0
LINE
  8
0
  6
BYLAYER
 62
     1
 10
388.041110
 20
-141.897518
 30
0.0
 11
367.773161
 21
-141.897518
 31
0.0
  0
ARC
  8
0
  6
BYLAYER
 62
     1
 10
367.773161
 20
-136.897518
 30
0.0
 40
5.000000
 50
180.000000
 51
270.000000
  0
LINE
  8
0
  6
BYLAYER
 62
     1
 10
367.773161
 20
0.602482
 30
0.0
 11
361.773161
 21
0.602482
 31
0.0
  0
LINE
  8
0
  6
BYLAYER
 62
     1
 10
391.935161
 20
-143.836349
 30
0.0
 11
389.041111
 21
-142.165468
 31
0.0
  0
ARC
  8
0
  6
BYLAYER
 62
     1
 10
390.935161
 20
-145.568399
 30
0.0
 40
2.0
 50
0.0
 51
59.999998
  0
ARC
  8
0
  6
BYLAYER
 62
     1
 10
388.041110
 20
-143.897518
 30
0.0
 40
2.0
 50
59.999998
 51
90.000000
  0
LINE
  8
0
  6
BYLAYER
 62
     1
 10
396.773161
 20
-45.257428
 30
0.0
 11
396.773161
 21
-27.397518
 31
0.0
  0
ARC
  8
0
  6
BYLAYER
 62
     1
 10
391.773161
 20
-27.397518
 30
0.0
 40
5.000000
 50
0.0
 51
90.0
  0
ARC
  8
0
  6
BYLAYER
 62
     1
 10
398.773161
 20
-45.257428
 30
0.0
 40
2.0
 50
180.000000
 51
270.000000
  0
ARC
  8
0
  6
BYLAYER
 62
     1
 10
398.773161
 20
-34.897732
 30
0.0
 40
2.0
 50
180.000000
 51
270.000699
  0
LINE
  8
0
  6
BYLAYER
 62
     1
 10
403.773161
 20
-196.897534
 30
0.0
 11
395.773161
 21
-196.897534
 31
0.0
  0
ARC
  8
0
  6
BYLAYER
 62
     1
 10
361.773161
 20
-135.397518
 30
0.0
 40
1.000000
 50
0.0
 51
90.0
  0
ARC
  8
0
  6
BYLAYER
 62
     1
 10
367.232912
 20
-143.876640
 30
0.0
 40
2.0
 50
15.000000
 51
85.573604
  0
LINE
  8
0
  6
BYLAYER
 62
     1
 10
369.164764
 20
-143.359001
 30
0.0
 11
376.662923
 21
-171.342510
 31
0.0
  0
LINE
  8
0
  6
BYLAYER
 62
     1
 10
392.773161
 20
-181.320168
 30
0.0
 11
377.594774
 21
-172.556923
 31
0.0
  0
ARC
  8
0
  6
BYLAYER
 62
     1
 10
378.594774
 20
-170.824872
 30
0.0
 40
2.000000
 50
195.000000
 51
240.000002
  0
ARC
  8
0
  6
BYLAYER
 62
     1
 10
391.773161
 20
-183.052219
 30
0.0
 40
2.0
 50
0.0
 51
60.000002
  0
LINE
  8
0
  6
BYLAYER
 62
     1
 10
362.773161
 20
-136.897518
 30
0.0
 11
362.773161
 21
-132.210179
 31
0.0
  0
ARC
  8
0
  6
BYLAYER
 62
     1
 10
361.773161
 20
-132.210179
 30
0.0
 40
1.000000
 50
0.0
 51
90.0
  0
LINE
  8
0
  6
BYLAYER
 62
     1
 10
372.773161
 20
-22.397518
 30
0.0
 11
391.773161
 21
-22.397518
 31
0.0
  0
ARC
  8
0
  6
BYLAYER
 62
     1
 10
372.773161
 20
-19.397518
 30
0.0
 40
3.000000
 50
180.000000
 51
270.000000
  0
LINE
  8
0
  6
BYLAYER
 62
     1
 10
392.935161
 20
-146.629541
 30
0.0
 11
392.935161
 21
-117.133639
 31
0.0
  0
LINE
  8
0
  6
BYLAYER
 62
     1
 10
393.639155
 20
-148.116700
 30
0.0
 11
393.069167
 21
-147.129596
 31
0.0
  0
ARC
  8
0
  6
BYLAYER
 62
     1
 10
392.773161
 20
-148.616754
 30
0.0
 40
1.0
 50
0.0
 51
30.003615
  0
ARC
  8
0
  6
BYLAYER
 62
     1
 10
393.935161
 20
-146.629541
 30
0.0
 40
1.0
 50
180.000000
 51
210.003615
  0
LINE
  8
0
  6
BYLAYER
 62
     1
 10
393.667543
 20
-115.433122
 30
0.0
 11
393.040779
 21
-116.686336
 31
0.0
  0
ARC
  8
0
  6
BYLAYER
 62
     1
 10
393.935161
 20
-117.133639
 30
0.0
 40
1.0
 50
153.429193
 51
180.000000
  0
LINE
  8
0
  6
BYLAYER
 62
     1
 10
403.773161
 20
-66.404060
 30
0.0
 11
398.629218
 21
-66.404060
 31
0.0
  0
LINE
  8
0
  6
BYLAYER
 62
     1
 10
403.773161
 20
-75.579680
 30
0.0
 11
398.629218
 21
-75.579680
 31
0.0
  0
LINE
  8
0
  6
BYLAYER
 62
     1
 10
398.629218
 20
-62.859557
 30
0.0
 11
393.773161
 21
-62.859557
 31
0.0
  0
LINE
  8
0
  6
BYLAYER
 62
     1
 10
398.629218
 20
-79.419691
 30
0.0
 11
393.773161
 21
-79.419691
 31
0.0
  0
LINE
  8
0
  6
BYLAYER
 62
     1
 10
398.629218
 20
-66.404060
 30
0.0
 11
398.629218
 21
-62.859557
 31
0.0
  0
LINE
  8
0
  6
BYLAYER
 62
     1
 10
398.629218
 20
-75.579680
 30
0.0
 11
398.629218
 21
-79.419691
 31
0.0
  0
LINE
  8
0
  6
BYLAYER
 62
     1
 10
393.773161
 20
-62.859557
 30
0.0
 11
393.545743
 21
-63.314531
 31
0.0
  0
LINE
  8
0
  6
BYLAYER
 62
     1
 10
393.773161
 20
-79.419691
 30
0.0
 11
393.545743
 21
-78.556578
 31
0.0
  0
LINE
  8
0
  6
BYLAYER
 62
     1
 10
393.510342
 20
-64.485481
 30
0.0
 11
390.564031
 21
-64.485481
 31
0.0
  0
LINE
  8
0
  6
BYLAYER
 62
     1
 10
393.510342
 20
-76.775400
 30
0.0
 11
390.564031
 21
-76.775400
 31
0.0
  0
LINE
  8
0
  6
BYLAYER
 62
     1
 10
393.545743
 20
-78.556578
 30
0.0
 11
393.510342
 21
-76.775400
 31
0.0
  0
LINE
  8
0
  6
BYLAYER
 62
     1
 10
393.545743
 20
-63.314531
 30
0.0
 11
393.510342
 21
-64.485481
 31
0.0
  0
LINE
  8
0
  6
BYLAYER
 62
     1
 10
371.904072
 20
-90.647518
 30
0.0
 11
391.424062
 21
-90.647518
 31
0.0
  0
ARC
  8
0
  6
BYLAYER
 62
     1
 10
391.424062
 20
-88.647518
 30
0.0
 40
2.0
 50
270.0
 51
360.0
  0
LINE
  8
0
  6
BYLAYER
 62
     1
 10
371.904072
 20
-93.147518
 30
0.0
 11
391.424062
 21
-93.147518
 31
0.0
  0
ARC
  8
0
  6
BYLAYER
 62
     1
 10
371.904072
 20
-95.147518
 30
0.0
 40
2.000000
 50
90.0
 51
180.0
  0
ARC
  8
0
  6
BYLAYER
 62
     1
 10
391.424062
 20
-95.147518
 30
0.0
 40
2.0
 50
0.0
 51
90.0
  0
ARC
  8
0
  6
BYLAYER
 62
     1
 10
371.904072
 20
-88.647518
 30
0.0
 40
2.000000
 50
180.000000
 51
270.000000
  0
LINE
  8
0
  6
BYLAYER
 62
     1
 10
350.773038
 20
-66.897493
 30
0.0
 11
350.773222
 21
-126.897417
 31
0.0
  0
LINE
  8
0
  6
BYLAYER
 62
     1
 10
351.773215
 20
-66.897493
 30
0.0
 11
351.773215
 21
-132.116910
 31
0.0
  0
LINE
  8
0
  6
BYLAYER
 62
     1
 10
353.703416
 20
-134.115691
 30
0.0
 11
361.773161
 21
-134.397493
 31
0.0
  0
ARC
  8
0
  6
BYLAYER
 62
     1
 10
353.773215
 20
-132.116910
 30
0.0
 40
2.000000
 50
180.000000
 51
268.000000
  0
LINE
  8
0
  6
BYLAYER
 62
     1
 10
350.773222
 20
-126.897417
 30
0.0
 11
350.808115
 21
-126.898635
 31
0.0
  0
ARC
  8
0
  6
BYLAYER
 62
     1
 10
350.773215
 20
-127.898026
 30
0.0
 40
1.000000
 50
0.0
 51
88.0
  0
LINE
  8
0
  6
BYLAYER
 62
     1
 10
361.773161
 20
0.602507
 30
0.0
 11
353.703416
 21
0.320705
 31
0.0
  0
ARC
  8
0
  6
BYLAYER
 62
     1
 10
353.773215
 20
-1.678076
 30
0.0
 40
2.000000
 50
92.0
 51
180.0
  0
LINE
  8
0
  6
BYLAYER
 62
     1
 10
350.773222
 20
-7.243157
 30
0.0
 11
350.773036
 21
-66.897493
 31
0.0
  0
LINE
  8
0
  6
BYLAYER
 62
     1
 10
350.808115
 20
-7.241939
 30
0.0
 11
350.773222
 21
-7.243157
 31
0.0
  0
ARC
  8
0
  6
BYLAYER
 62
     1
 10
350.773215
 20
-6.242548
 30
0.0
 40
1.000000
 50
272.0
 51
360.0
  0
LINE
  8
0
  6
BYLAYER
 62
     1
 10
351.773215
 20
-1.678076
 30
0.0
 11
351.773215
 21
-66.897493
 31
0.0
  0
LINE
  8
0
  6
BYLAYER
 62
     1
 10
361.773161
 20
-134.397493
 30
0.0
 11
361.773161
 21
-66.897493
 31
0.0
  0
LINE
  8
0
  6
BYLAYER
 62
     1
 10
361.773161
 20
-66.897493
 30
0.0
 11
361.773161
 21
0.602507
 31
0.0
  0
LINE
  8
0
  6
BYLAYER
 62
     1
 10
367.773161
 20
-131.210179
 30
0.0
 11
361.773161
 21
-131.210179
 31
0.0
  0
LINE
  8
0
  6
BYLAYER
 62
     1
 10
331.773038
 20
-104.897554
 30
0.0
 11
331.773038
 21
-66.897554
 31
0.0
  0
ARC
  8
0
  6
BYLAYER
 62
     1
 10
342.773038
 20
-124.475374
 30
0.0
 40
2.0
 50
180.000000
 51
267.000764
  0
LINE
  8
0
  6
BYLAYER
 62
     1
 10
340.773038
 20
-66.897554
 30
0.0
 11
340.773038
 21
-124.475374
 31
0.0
  0
ARC
  8
0
  6
BYLAYER
 62
     1
 10
338.773038
 20
-109.370760
 30
0.0
 40
1.999945
 50
0.0
 51
70.000061
  0
LINE
  8
0
  6
BYLAYER
 62
     1
 10
331.773038
 20
-104.897493
 30
0.0
 11
332.274808
 21
-104.923738
 31
0.0
  0
LINE
  8
0
  6
BYLAYER
 62
     1
 10
339.457059
 20
-107.491426
 30
0.0
 11
332.564481
 21
-104.982698
 31
0.0
  0
ARC
  8
0
  6
BYLAYER
 62
     1
 10
332.222440
 20
-105.922395
 30
0.0
 40
1.000029
 50
69.999788
 51
86.999938
  0
LINE
  8
0
  6
BYLAYER
 62
     1
 10
340.773038
 20
-123.897249
 30
0.0
 11
332.777127
 21
-105.060091
 31
0.0
  0
LINE
  8
0
  6
BYLAYER
 62
     1
 10
342.668424
 20
-126.472566
 30
0.0
 11
350.773038
 21
-126.897261
 31
0.0
  0
LINE
  8
0
  6
BYLAYER
 62
     1
 10
350.773038
 20
-126.897261
 30
0.0
 11
350.773038
 21
-66.897493
 31
0.0
  0
LINE
  8
0
  6
BYLAYER
 62
     1
 10
331.773038
 20
-28.897554
 30
0.0
 11
331.773038
 21
-66.897554
 31
0.0
  0
ARC
  8
0
  6
BYLAYER
 62
     1
 10
342.773038
 20
-9.319734
 30
0.0
 40
2.0
 50
92.999236
 51
180.000000
  0
LINE
  8
0
  6
BYLAYER
 62
     1
 10
340.773038
 20
-66.897554
 30
0.0
 11
340.773038
 21
-9.319734
 31
0.0
  0
ARC
  8
0
  6
BYLAYER
 62
     1
 10
338.773038
 20
-24.424348
 30
0.0
 40
1.999945
 50
289.999939
 51
360.000000
  0
LINE
  8
0
  6
BYLAYER
 62
     1
 10
331.773038
 20
-28.897615
 30
0.0
 11
332.274808
 21
-28.871370
 31
0.0
  0
LINE
  8
0
  6
BYLAYER
 62
     1
 10
339.457059
 20
-26.303682
 30
0.0
 11
332.564481
 21
-28.812410
 31
0.0
  0
ARC
  8
0
  6
BYLAYER
 62
     1
 10
332.222440
 20
-27.872713
 30
0.0
 40
1.000029
 50
273.000062
 51
290.000212
  0
LINE
  8
0
  6
BYLAYER
 62
     1
 10
340.773038
 20
-9.897859
 30
0.0
 11
332.777127
 21
-28.735017
 31
0.0
  0
LINE
  8
0
  6
BYLAYER
 62
     1
 10
342.668424
 20
-7.322542
 30
0.0
 11
350.773038
 21
-6.897847
 31
0.0
  0
LINE
  8
0
  6
BYLAYER
 62
     1
 10
350.773038
 20
-6.897847
 30
0.0
 11
350.773038
 21
-66.897615
 31
0.0
  0
LINE
  8
0
  6
BYLAYER
 62
     1
 10
240.773038
 20
-32.897611
 30
0.0
 11
242.273038
 21
-34.397611
 31
0.0
  0
LINE
  8
0
  6
BYLAYER
 62
     1
 10
240.773038
 20
-176.897611
 30
0.0
 11
242.273038
 21
-175.397611
 31
0.0
  0
LINE
  8
0
  6
BYLAYER
 62
     1
 10
210.773038
 20
-146.897611
 30
0.0
 11
212.273038
 21
-145.397611
 31
0.0
  0
LINE
  8
0
  6
BYLAYER
 62
     1
 10
240.773038
 20
-32.897611
 30
0.0
 11
212.273038
 21
-32.897611
 31
0.0
  0
LINE
  8
0
  6
BYLAYER
 62
     1
 10
212.273038
 20
-32.897611
 30
0.0
 11
210.773038
 21
-34.397611
 31
0.0
  0
LINE
  8
0
  6
BYLAYER
 62
     1
 10
240.773038
 20
-176.897611
 30
0.0
 11
212.273038
 21
-176.897611
 31
0.0
  0
LINE
  8
0
  6
BYLAYER
 62
     1
 10
212.273038
 20
-176.897611
 30
0.0
 11
210.773038
 21
-175.397611
 31
0.0
  0
LINE
  8
0
  6
BYLAYER
 62
     1
 10
330.773038
 20
-146.897611
 30
0.0
 11
329.273038
 21
-145.397611
 31
0.0
  0
LINE
  8
0
  6
BYLAYER
 62
     1
 10
300.773038
 20
-176.897611
 30
0.0
 11
329.273038
 21
-176.897611
 31
0.0
  0
LINE
  8
0
  6
BYLAYER
 62
     1
 10
329.273038
 20
-176.897611
 30
0.0
 11
330.773038
 21
-175.397611
 31
0.0
  0
LINE
  8
0
  6
BYLAYER
 62
     1
 10
330.773038
 20
-175.397611
 30
0.0
 11
330.773038
 21
-146.897611
 31
0.0
  0
LINE
  8
0
  6
BYLAYER
 62
     1
 10
300.773038
 20
-176.897611
 30
0.0
 11
299.273038
 21
-175.397611
 31
0.0
  0
LINE
  8
0
  6
BYLAYER
 62
     1
 10
300.773038
 20
-32.897611
 30
0.0
 11
329.273038
 21
-32.897611
 31
0.0
  0
LINE
  8
0
  6
BYLAYER
 62
     1
 10
329.273038
 20
-32.897611
 30
0.0
 11
330.773038
 21
-34.397611
 31
0.0
  0
LINE
  8
0
  6
BYLAYER
 62
     1
 10
300.773038
 20
-32.897611
 30
0.0
 11
299.273038
 21
-34.397611
 31
0.0
  0
LINE
  8
0
  6
BYLAYER
 62
     1
 10
242.273038
 20
-34.397611
 30
0.0
 11
299.273038
 21
-34.397611
 31
0.0
  0
LINE
  8
0
  6
BYLAYER
 62
     1
 10
242.273038
 20
-175.397611
 30
0.0
 11
299.273038
 21
-175.397611
 31
0.0
  0
LINE
  8
0
  6
BYLAYER
 62
     1
 10
210.773038
 20
-34.397611
 30
0.0
 11
210.773038
 21
-94.897611
 31
0.0
  0
LINE
  8
0
  6
BYLAYER
 62
     1
 10
210.773038
 20
-94.897611
 30
0.0
 11
212.273038
 21
-94.949979
 31
0.0
  0
LINE
  8
0
  6
BYLAYER
 62
     1
 10
330.773038
 20
-62.897611
 30
0.0
 11
329.273038
 21
-64.397611
 31
0.0
  0
LINE
  8
0
  6
BYLAYER
 62
     1
 10
329.273038
 20
-64.397611
 30
0.0
 11
329.273038
 21
-145.397611
 31
0.0
  0
ARC
  8
0
  6
BYLAYER
 62
     1
 10
321.773038
 20
-41.897611
 30
0.0
 40
2.000000
 50
0.0
 51
90.000016
  0
ARC
  8
0
  6
BYLAYER
 62
     1
 10
321.773038
 20
-167.897611
 30
0.0
 40
2.000000
 50
270.0
 51
359.999982
  0
ARC
  8
0
  6
BYLAYER
 62
     1
 10
219.773038
 20
-167.897611
 30
0.0
 40
2.0
 50
180.000000
 51
269.999996
  0
ARC
  8
0
  6
BYLAYER
 62
     1
 10
219.773038
 20
-41.897611
 30
0.0
 40
2.000000
 50
90.0
 51
180.000009
  0
LINE
  8
0
  6
BYLAYER
 62
     1
 10
330.773038
 20
-62.897611
 30
0.0
 11
323.773038
 21
-62.897611
 31
0.0
  0
LINE
  8
0
  6
BYLAYER
 62
     1
 10
330.773038
 20
-146.897611
 30
0.0
 11
323.773038
 21
-146.897611
 31
0.0
  0
LINE
  8
0
  6
BYLAYER
 62
     1
 10
210.773038
 20
-62.897611
 30
0.0
 11
217.773038
 21
-62.897611
 31
0.0
  0
LINE
  8
0
  6
BYLAYER
 62
     1
 10
210.773038
 20
-146.897611
 30
0.0
 11
217.773038
 21
-146.897611
 31
0.0
  0
ARC
  8
0
  6
BYLAYER
 62
     1
 10
246.773038
 20
-56.897611
 30
0.0
 40
1.000000
 50
90.0
 51
269.999991
  0
ARC
  8
0
  6
BYLAYER
 62
     1
 10
239.773038
 20
-66.897611
 30
0.0
 40
1.0
 50
270.0
 51
450.000005
  0
ARC
  8
0
  6
BYLAYER
 62
     1
 10
230.773038
 20
-76.897611
 30
0.0
 40
1.0
 50
270.0
 51
450.000005
  0
ARC
  8
0
  6
BYLAYER
 62
     1
 10
222.773038
 20
-86.897611
 30
0.0
 40
1.0
 50
270.0
 51
450.000005
  0
ARC
  8
0
  6
BYLAYER
 62
     1
 10
301.773038
 20
-66.897611
 30
0.0
 40
1.0
 50
90.0
 51
270.000005
  0
ARC
  8
0
  6
BYLAYER
 62
     1
 10
310.773038
 20
-76.897611
 30
0.0
 40
1.0
 50
90.0
 51
270.000005
  0
ARC
  8
0
  6
BYLAYER
 62
     1
 10
318.773038
 20
-86.897611
 30
0.0
 40
1.0
 50
90.0
 51
270.000005
  0
LINE
  8
0
  6
BYLAYER
 62
     1
 10
240.773038
 20
-32.897611
 30
0.0
 11
240.773038
 21
-39.897611
 31
0.0
  0
LINE
  8
0
  6
BYLAYER
 62
     1
 10
242.273038
 20
-34.397611
 30
0.0
 11
242.273038
 21
-39.897611
 31
0.0
  0
LINE
  8
0
  6
BYLAYER
 62
     1
 10
299.273038
 20
-34.397611
 30
0.0
 11
299.273038
 21
-39.897611
 31
0.0
  0
LINE
  8
0
  6
BYLAYER
 62
     1
 10
300.773038
 20
-32.897611
 30
0.0
 11
300.773038
 21
-39.897611
 31
0.0
  0
LINE
  8
0
  6
BYLAYER
 62
     1
 10
240.773038
 20
-176.897611
 30
0.0
 11
240.773038
 21
-169.897611
 31
0.0
  0
LINE
  8
0
  6
BYLAYER
 62
     1
 10
300.773038
 20
-176.897611
 30
0.0
 11
300.773038
 21
-169.897611
 31
0.0
  0
LINE
  8
0
  6
BYLAYER
 62
     1
 10
323.187223
 20
-169.311857
 30
0.0
 11
318.773038
 21
-164.897611
 31
0.0
  0
LINE
  8
0
  6
BYLAYER
 62
     1
 10
218.358853
 20
-169.311857
 30
0.0
 11
222.773038
 21
-164.897611
 31
0.0
  0
ARC
  8
0
  6
BYLAYER
 62
     1
 10
252.361051
 20
-171.897611
 30
0.0
 40
2.000000
 50
71.491301
 51
90.000000
  0
LINE
  8
0
  6
BYLAYER
 62
     1
 10
323.773038
 20
-135.309537
 30
0.0
 11
323.773038
 21
-167.897611
 31
0.0
  0
ARC
  8
0
  6
BYLAYER
 62
     1
 10
325.773038
 20
-135.309537
 30
0.0
 40
2.0
 50
161.491512
 51
180.000000
  0
ARC
  8
0
  6
BYLAYER
 62
     1
 10
270.773038
 20
-116.897611
 30
0.0
 40
55.999943
 50
341.491399
 51
378.508607
  0
ARC
  8
0
  6
BYLAYER
 62
     1
 10
325.773038
 20
-98.485685
 30
0.0
 40
2.000000
 50
180.000000
 51
198.508488
  0
ARC
  8
0
  6
BYLAYER
 62
     1
 10
215.773038
 20
-98.485624
 30
0.0
 40
2.0
 50
341.491591
 51
360.000000
  0
LINE
  8
0
  6
BYLAYER
 62
     1
 10
219.773038
 20
-169.897611
 30
0.0
 11
252.361051
 21
-169.897611
 31
0.0
  0
ARC
  8
0
  6
BYLAYER
 62
     1
 10
270.773038
 20
-116.897611
 30
0.0
 40
56.000019
 50
251.491363
 51
288.508666
  0
LINE
  8
0
  6
BYLAYER
 62
     1
 10
289.185025
 20
-169.897611
 30
0.0
 11
321.773038
 21
-169.897611
 31
0.0
  0
ARC
  8
0
  6
BYLAYER
 62
     1
 10
289.185025
 20
-171.897611
 30
0.0
 40
1.999992
 50
90.0
 51
108.508488
  0
LINE
  8
0
  6
BYLAYER
 62
     1
 10
212.273038
 20
-82.775602
 30
0.0
 11
210.773038
 21
-82.775602
 31
0.0
  0
LINE
  8
0
  6
BYLAYER
 62
     1
 10
212.273038
 20
-93.817594
 30
0.0
 11
210.773038
 21
-93.817594
 31
0.0
  0
ARC
  8
0
  6
BYLAYER
 62
     1
 10
270.773038
 20
-116.897611
 30
0.0
 40
56.000076
 50
161.491326
 51
198.508657
  0
LINE
  8
0
  6
BYLAYER
 62
     1
 10
217.773038
 20
-135.309568
 30
0.0
 11
217.773038
 21
-167.897611
 31
0.0
  0
ARC
  8
0
  6
BYLAYER
 62
     1
 10
215.773038
 20
-135.309568
 30
0.0
 40
1.999934
 50
0.0
 51
18.508419
  0
LINE
  8
0
  6
BYLAYER
 62
     1
 10
318.773038
 20
-140.524917
 30
0.0
 11
318.773038
 21
-164.897611
 31
0.0
  0
LINE
  8
0
  6
BYLAYER
 62
     1
 10
239.773038
 20
-65.897611
 30
0.0
 11
218.773038
 21
-65.897611
 31
0.0
  0
ARC
  8
0
  6
BYLAYER
 62
     1
 10
218.773038
 20
-64.897611
 30
0.0
 40
1.000000
 50
180.000000
 51
269.999996
  0
LINE
  8
0
  6
BYLAYER
 62
     1
 10
239.773038
 20
-67.897611
 30
0.0
 11
218.773038
 21
-67.897611
 31
0.0
  0
ARC
  8
0
  6
BYLAYER
 62
     1
 10
218.773038
 20
-68.897611
 30
0.0
 40
1.0
 50
90.0
 51
180.000003
  0
LINE
  8
0
  6
BYLAYER
 62
     1
 10
230.773038
 20
-75.897611
 30
0.0
 11
218.773038
 21
-75.897611
 31
0.0
  0
ARC
  8
0
  6
BYLAYER
 62
     1
 10
218.773038
 20
-74.897611
 30
0.0
 40
1.000000
 50
180.000000
 51
269.999996
  0
LINE
  8
0
  6
BYLAYER
 62
     1
 10
230.773038
 20
-77.897611
 30
0.0
 11
218.773038
 21
-77.897611
 31
0.0
  0
ARC
  8
0
  6
BYLAYER
 62
     1
 10
218.773038
 20
-78.897611
 30
0.0
 40
1.0
 50
90.0
 51
180.000003
  0
LINE
  8
0
  6
BYLAYER
 62
     1
 10
222.773038
 20
-85.897611
 30
0.0
 11
218.773038
 21
-85.897611
 31
0.0
  0
ARC
  8
0
  6
BYLAYER
 62
     1
 10
218.773038
 20
-84.897611
 30
0.0
 40
1.000000
 50
180.000000
 51
269.999996
  0
LINE
  8
0
  6
BYLAYER
 62
     1
 10
222.773038
 20
-87.897611
 30
0.0
 11
218.773038
 21
-87.897611
 31
0.0
  0
ARC
  8
0
  6
BYLAYER
 62
     1
 10
218.773038
 20
-88.897611
 30
0.0
 40
1.000000
 50
90.0
 51
180.000003
  0
LINE
  8
0
  6
BYLAYER
 62
     1
 10
310.773038
 20
-75.897611
 30
0.0
 11
322.773038
 21
-75.897611
 31
0.0
  0
ARC
  8
0
  6
BYLAYER
 62
     1
 10
322.773038
 20
-74.897611
 30
0.0
 40
1.0
 50
270.0
 51
360.000003
  0
LINE
  8
0
  6
BYLAYER
 62
     1
 10
310.773038
 20
-77.897611
 30
0.0
 11
322.773038
 21
-77.897611
 31
0.0
  0
ARC
  8
0
  6
BYLAYER
 62
     1
 10
322.773038
 20
-78.897611
 30
0.0
 40
1.0
 50
0.0
 51
90.000003
  0
LINE
  8
0
  6
BYLAYER
 62
     1
 10
318.773038
 20
-85.897611
 30
0.0
 11
322.773038
 21
-85.897611
 31
0.0
  0
ARC
  8
0
  6
BYLAYER
 62
     1
 10
322.773038
 20
-84.897611
 30
0.0
 40
1.0
 50
270.0
 51
360.000003
  0
LINE
  8
0
  6
BYLAYER
 62
     1
 10
318.773038
 20
-87.897611
 30
0.0
 11
322.773038
 21
-87.897611
 31
0.0
  0
ARC
  8
0
  6
BYLAYER
 62
     1
 10
322.773038
 20
-88.897611
 30
0.0
 40
1.0
 50
0.0
 51
90.000003
  0
LINE
  8
0
  6
BYLAYER
 62
     1
 10
217.773038
 20
-98.485624
 30
0.0
 11
217.773038
 21
-41.897611
 31
0.0
  0
LINE
  8
0
  6
BYLAYER
 62
     1
 10
323.773038
 20
-98.485685
 30
0.0
 11
323.773038
 21
-41.897611
 31
0.0
  0
LINE
  8
0
  6
BYLAYER
 62
     1
 10
247.145732
 20
-164.897611
 30
0.0
 11
222.773038
 21
-164.897611
 31
0.0
  0
LINE
  8
0
  6
BYLAYER
 62
     1
 10
331.773038
 20
-41.057767
 30
0.0
 11
330.773038
 21
-41.057767
 31
0.0
  0
LINE
  8
0
  6
BYLAYER
 62
     1
 10
331.773038
 20
-61.912382
 30
0.0
 11
330.773038
 21
-61.912382
 31
0.0
  0
LINE
  8
0
  6
BYLAYER
 62
     1
 10
331.773038
 20
-71.882840
 30
0.0
 11
329.273038
 21
-71.882840
 31
0.0
  0
LINE
  8
0
  6
BYLAYER
 62
     1
 10
331.773038
 20
-92.217740
 30
0.0
 11
329.273038
 21
-92.217740
 31
0.0
  0
LINE
  8
0
  6
BYLAYER
 62
     1
 10
330.127042
 20
-33.751615
 30
0.0
 11
331.773038
 21
-33.751615
 31
0.0
  0
LINE
  8
0
  6
BYLAYER
 62
     1
 10
331.773038
 20
-100.043607
 30
0.0
 11
329.273038
 21
-100.043607
 31
0.0
  0
LINE
  8
0
  6
BYLAYER
 62
     1
 10
331.773038
 20
-100.043607
 30
0.0
 11
331.773038
 21
-33.751615
 31
0.0
  0
LINE
  8
0
  6
BYLAYER
 62
     1
 10
299.023038
 20
-164.897611
 30
0.0
 11
296.523038
 21
-164.897611
 31
0.0
  0
LINE
  8
0
  6
BYLAYER
 62
     1
 10
323.773038
 20
-64.397611
 30
0.0
 11
329.273038
 21
-64.397611
 31
0.0
  0
LINE
  8
0
  6
BYLAYER
 62
     1
 10
323.773038
 20
-145.397611
 30
0.0
 11
329.273038
 21
-145.397611
 31
0.0
  0
LINE
  8
0
  6
BYLAYER
 62
     1
 10
299.273038
 20
-169.897611
 30
0.0
 11
299.273038
 21
-175.397611
 31
0.0
  0
LINE
  8
0
  6
BYLAYER
 62
     1
 10
242.273038
 20
-169.897611
 30
0.0
 11
242.273038
 21
-175.397611
 31
0.0
  0
LINE
  8
0
  6
BYLAYER
 62
     1
 10
217.773038
 20
-145.397611
 30
0.0
 11
212.273038
 21
-145.397611
 31
0.0
  0
LINE
  8
0
  6
BYLAYER
 62
     1
 10
217.773038
 20
-64.397611
 30
0.0
 11
212.273038
 21
-64.397611
 31
0.0
  0
LINE
  8
0
  6
BYLAYER
 62
     1
 10
212.273038
 20
-64.397611
 30
0.0
 11
210.773038
 21
-62.897611
 31
0.0
  0
LINE
  8
0
  6
BYLAYER
 62
     1
 10
321.773038
 20
-39.897611
 30
0.0
 11
219.773038
 21
-39.897611
 31
0.0
  0
LINE
  8
0
  6
BYLAYER
 62
     1
 10
323.773038
 20
-153.147611
 30
0.0
 11
330.773038
 21
-153.147611
 31
0.0
  0
LINE
  8
0
  6
BYLAYER
 62
     1
 10
323.773038
 20
-161.647611
 30
0.0
 11
330.773038
 21
-161.647611
 31
0.0
  0
LINE
  8
0
  6
BYLAYER
 62
     1
 10
315.023038
 20
-176.897611
 30
0.0
 11
315.023038
 21
-169.897611
 31
0.0
  0
LINE
  8
0
  6
BYLAYER
 62
     1
 10
306.523038
 20
-176.897611
 30
0.0
 11
306.523038
 21
-169.897611
 31
0.0
  0
LINE
  8
0
  6
BYLAYER
 62
     1
 10
330.773038
 20
-34.397611
 30
0.0
 11
330.773038
 21
-62.897611
 31
0.0
  0
LINE
  8
0
  6
BYLAYER
 62
     1
 10
315.023038
 20
-32.897611
 30
0.0
 11
315.023038
 21
-39.897611
 31
0.0
  0
LINE
  8
0
  6
BYLAYER
 62
     1
 10
306.523038
 20
-32.897611
 30
0.0
 11
306.523038
 21
-39.897611
 31
0.0
  0
LINE
  8
0
  6
BYLAYER
 62
     1
 10
235.023038
 20
-32.897611
 30
0.0
 11
235.023038
 21
-39.897611
 31
0.0
  0
LINE
  8
0
  6
BYLAYER
 62
     1
 10
226.523038
 20
-32.897611
 30
0.0
 11
226.523038
 21
-39.897611
 31
0.0
  0
LINE
  8
0
  6
BYLAYER
 62
     1
 10
217.773038
 20
-48.147611
 30
0.0
 11
210.773038
 21
-48.147611
 31
0.0
  0
LINE
  8
0
  6
BYLAYER
 62
     1
 10
217.773038
 20
-56.647611
 30
0.0
 11
210.773038
 21
-56.647611
 31
0.0
  0
LINE
  8
0
  6
BYLAYER
 62
     1
 10
217.773038
 20
-153.147611
 30
0.0
 11
210.773038
 21
-153.147611
 31
0.0
  0
LINE
  8
0
  6
BYLAYER
 62
     1
 10
217.773038
 20
-161.647611
 30
0.0
 11
210.773038
 21
-161.647611
 31
0.0
  0
LINE
  8
0
  6
BYLAYER
 62
     1
 10
210.773038
 20
-175.397611
 30
0.0
 11
210.773038
 21
-146.897611
 31
0.0
  0
LINE
  8
0
  6
BYLAYER
 62
     1
 10
226.523038
 20
-176.897611
 30
0.0
 11
226.523038
 21
-169.897611
 31
0.0
  0
LINE
  8
0
  6
BYLAYER
 62
     1
 10
235.023038
 20
-176.897611
 30
0.0
 11
235.023038
 21
-169.897611
 31
0.0
  0
LINE
  8
0
  6
BYLAYER
 62
     1
 10
222.773038
 20
-140.524917
 30
0.0
 11
222.773038
 21
-164.897611
 31
0.0
  0
LINE
  8
0
  6
BYLAYER
 62
     1
 10
318.773038
 20
-164.897611
 30
0.0
 11
306.044705
 21
-164.897611
 31
0.0
  0
LINE
  8
0
  6
BYLAYER
 62
     1
 10
306.044705
 20
-164.897611
 30
0.0
 11
294.400344
 21
-164.897611
 31
0.0
  0
ARC
  8
0
  6
BYLAYER
 62
     1
 10
302.773038
 20
-56.897611
 30
0.0
 40
1.000000
 50
270.0
 51
450.000005
  0
LINE
  8
0
  6
BYLAYER
 62
     1
 10
246.773038
 20
-55.897611
 30
0.0
 11
302.773038
 21
-55.897611
 31
0.0
  0
LINE
  8
0
  6
BYLAYER
 62
     1
 10
246.773038
 20
-57.897611
 30
0.0
 11
302.773038
 21
-57.897611
 31
0.0
  0
LINE
  8
0
  6
BYLAYER
 62
     1
 10
301.773038
 20
-65.897611
 30
0.0
 11
314.764752
 21
-65.897611
 31
0.0
  0
ARC
  8
0
  6
BYLAYER
 62
     1
 10
314.764752
 20
-64.897611
 30
0.0
 40
1.0
 50
270.0
 51
360.000003
  0
LINE
  8
0
  6
BYLAYER
 62
     1
 10
301.773038
 20
-67.897611
 30
0.0
 11
314.764752
 21
-67.897611
 31
0.0
  0
ARC
  8
0
  6
BYLAYER
 62
     1
 10
314.764752
 20
-68.897611
 30
0.0
 40
1.0
 50
0.0
 51
90.000003
  0
LINE
  8
0
  6
BYLAYER
 62
     1
 10
212.273038
 20
-64.397611
 30
0.0
 11
212.273038
 21
-145.397611
 31
0.0
  0
LINE
  8
0
  6
BYLAYER
 62
     1
 10
323.773038
 20
-61.602598
 30
0.0
 11
317.720273
 21
-61.737241
 31
0.0
  0
LINE
  8
0
  6
BYLAYER
 62
     1
 10
315.764752
 20
-63.736753
 30
0.0
 11
315.764752
 21
-66.897611
 31
0.0
  0
ARC
  8
0
  6
BYLAYER
 62
     1
 10
317.764752
 20
-63.736753
 30
0.0
 40
2.000006
 50
91.274338
 51
180.000005
  0
LINE
  8
0
  6
BYLAYER
 62
     1
 10
315.764752
 20
-70.058469
 30
0.0
 11
315.764752
 21
-66.897611
 31
0.0
  0
LINE
  8
0
  6
BYLAYER
 62
     1
 10
323.773038
 20
-72.192624
 30
0.0
 11
317.720273
 21
-72.057981
 31
0.0
  0
ARC
  8
0
  6
BYLAYER
 62
     1
 10
317.764752
 20
-70.058469
 30
0.0
 40
2.0
 50
180.000000
 51
268.725646
  0
ARC
  8
0
  6
BYLAYER
 62
     1
 10
300.825116
 20
-86.845640
 30
0.0
 40
3.999988
 50
353.659945
 51
636.339946
  0
CIRCLE
  8
0
  6
BYLAYER
 62
     1
 10
300.825116
 20
-86.845640
 30
0.0
 40
3.600000
  0
ARC
  8
0
  6
BYLAYER
 62
     1
 10
240.721067
 20
-86.845579
 30
0.0
 40
3.999988
 50
83.659964
 51
366.339965
  0
CIRCLE
  8
0
  6
BYLAYER
 62
     1
 10
240.721067
 20
-86.845579
 30
0.0
 40
3.600000
  0
ARC
  8
0
  6
BYLAYER
 62
     1
 10
300.825070
 20
-146.949628
 30
0.0
 40
3.999988
 50
83.659955
 51
366.339956
  0
CIRCLE
  8
0
  6
BYLAYER
 62
     1
 10
300.825070
 20
-146.949628
 30
0.0
 40
3.600000
  0
ARC
  8
0
  6
BYLAYER
 62
     1
 10
240.721021
 20
-146.949582
 30
0.0
 40
3.999988
 50
353.659928
 51
636.339929
  0
CIRCLE
  8
0
  6
BYLAYER
 62
     1
 10
240.721021
 20
-146.949582
 30
0.0
 40
3.600000
  0
ARC
  8
0
  6
BYLAYER
 62
     1
 10
270.773038
 20
-116.897611
 30
0.0
 40
50.000042
 50
44.999950
 51
51.003205
  0
ARC
  8
0
  6
BYLAYER
 62
     1
 10
300.978391
 20
-79.592893
 30
0.0
 40
1.999986
 50
51.003273
 51
118.656638
  0
ARC
  8
0
  6
BYLAYER
 62
     1
 10
292.586057
 20
-64.236478
 30
0.0
 40
15.500010
 50
196.343145
 51
298.656770
  0
ARC
  8
0
  6
BYLAYER
 62
     1
 10
275.793149
 20
-69.160825
 30
0.0
 40
2.000017
 50
16.343389
 51
83.996802
  0
ARC
  8
0
  6
BYLAYER
 62
     1
 10
308.077802
 20
-86.692350
 30
0.0
 40
2.000035
 50
331.343378
 51
398.996811
  0
ARC
  8
0
  6
BYLAYER
 62
     1
 10
270.773038
 20
-116.897611
 30
0.0
 40
50.000042
 50
38.996695
 51
44.999950
  0
ARC
  8
0
  6
BYLAYER
 62
     1
 10
270.773038
 20
-116.897611
 30
0.0
 40
50.000031
 50
359.999928
 51
366.003203
  0
ARC
  8
0
  6
BYLAYER
 62
     1
 10
270.773038
 20
-116.897611
 30
0.0
 40
50.000057
 50
89.999948
 51
96.003199
  0
ARC
  8
0
  6
BYLAYER
 62
     1
 10
265.752988
 20
-69.160825
 30
0.0
 40
2.000002
 50
96.003097
 51
163.656523
  0
ARC
  8
0
  6
BYLAYER
 62
     1
 10
248.960126
 20
-64.236448
 30
0.0
 40
15.499990
 50
241.343122
 51
343.656761
  0
ARC
  8
0
  6
BYLAYER
 62
     1
 10
240.567777
 20
-79.592832
 30
0.0
 40
1.999991
 50
61.343268
 51
128.996647
  0
ARC
  8
0
  6
BYLAYER
 62
     1
 10
270.773038
 20
-116.897611
 30
0.0
 40
50.000038
 50
128.996715
 51
134.999959
  0
ARC
  8
0
  6
BYLAYER
 62
     1
 10
270.773038
 20
-116.897611
 30
0.0
 40
50.000034
 50
134.999959
 51
141.003218
  0
ARC
  8
0
  6
BYLAYER
 62
     1
 10
233.468335
 20
-86.692289
 30
0.0
 40
2.000009
 50
141.003108
 51
208.656528
  0
ARC
  8
0
  6
BYLAYER
 62
     1
 10
218.111913
 20
-95.084592
 30
0.0
 40
15.500005
 50
286.343110
 51
388.656776
  0
ARC
  8
0
  6
BYLAYER
 62
     1
 10
223.036244
 20
-111.877530
 30
0.0
 40
2.000018
 50
106.343272
 51
173.996638
  0
ARC
  8
0
  6
BYLAYER
 62
     1
 10
270.773038
 20
-116.897611
 30
0.0
 40
50.000046
 50
173.996706
 51
179.999978
  0
ARC
  8
0
  6
BYLAYER
 62
     1
 10
270.773038
 20
-116.897611
 30
0.0
 40
50.000042
 50
269.999946
 51
276.003191
  0
ARC
  8
0
  6
BYLAYER
 62
     1
 10
270.773038
 20
-116.897611
 30
0.0
 40
50.000034
 50
263.996702
 51
269.999946
  0
ARC
  8
0
  6
BYLAYER
 62
     1
 10
265.752919
 20
-164.634397
 30
0.0
 40
2.000005
 50
196.343391
 51
263.996811
  0
ARC
  8
0
  6
BYLAYER
 62
     1
 10
275.793080
 20
-164.634412
 30
0.0
 40
2.000005
 50
276.003081
 51
343.656515
  0
ARC
  8
0
  6
BYLAYER
 62
     1
 10
270.773038
 20
-116.897611
 30
0.0
 40
50.000050
 50
308.996693
 51
314.999964
  0
ARC
  8
0
  6
BYLAYER
 62
     1
 10
270.773038
 20
-116.897611
 30
0.0
 40
50.000046
 50
314.999964
 51
321.003209
  0
ARC
  8
0
  6
BYLAYER
 62
     1
 10
308.077756
 20
-147.102903
 30
0.0
 40
2.000028
 50
321.003096
 51
388.656523
  0
ARC
  8
0
  6
BYLAYER
 62
     1
 10
323.434156
 20
-138.710599
 30
0.0
 40
15.499966
 50
106.343122
 51
208.656774
  0
ARC
  8
0
  6
BYLAYER
 62
     1
 10
318.509854
 20
-121.917707
 30
0.0
 40
1.999983
 50
286.343277
 51
353.996629
  0
ARC
  8
0
  6
BYLAYER
 62
     1
 10
270.773038
 20
-116.897611
 30
0.0
 40
50.000034
 50
353.996711
 51
359.999983
  0
ARC
  8
0
  6
BYLAYER
 62
     1
 10
270.773038
 20
-116.897611
 30
0.0
 40
50.000042
 50
179.999937
 51
186.003209
  0
ARC
  8
0
  6
BYLAYER
 62
     1
 10
223.036237
 20
-121.917631
 30
0.0
 40
2.000014
 50
186.003277
 51
253.656615
  0
ARC
  8
0
  6
BYLAYER
 62
     1
 10
218.111878
 20
-138.710523
 30
0.0
 40
15.500010
 50
331.343132
 51
433.656791
  0
ARC
  8
0
  6
BYLAYER
 62
     1
 10
233.468289
 20
-147.102857
 30
0.0
 40
2.000009
 50
151.343386
 51
218.996806
  0
ARC
  8
0
  6
BYLAYER
 62
     1
 10
270.773038
 20
-116.897611
 30
0.0
 40
50.000038
 50
218.996697
 51
224.999955
  0
ARC
  8
0
  6
BYLAYER
 62
     1
 10
240.567723
 20
-154.202329
 30
0.0
 40
2.000008
 50
231.003254
 51
298.656633
  0
ARC
  8
0
  6
BYLAYER
 62
     1
 10
270.773038
 20
-116.897611
 30
0.0
 40
50.000065
 50
83.996703
 51
89.999955
  0
ARC
  8
0
  6
BYLAYER
 62
     1
 10
292.585981
 20
-169.558759
 30
0.0
 40
15.500014
 50
112.499971
 51
163.656783
  0
ARC
  8
0
  6
BYLAYER
 62
     1
 10
248.960042
 20
-169.558713
 30
0.0
 40
15.499984
 50
16.343138
 51
67.499992
  0
ARC
  8
0
  6
BYLAYER
 62
     1
 10
248.960042
 20
-169.558713
 30
0.0
 40
15.499984
 50
67.499993
 51
118.656778
  0
ARC
  8
0
  6
BYLAYER
 62
     1
 10
270.773038
 20
-116.897611
 30
0.0
 40
50.000038
 50
224.999955
 51
231.0032
  0
ARC
  8
0
  6
BYLAYER
 62
     1
 10
318.509854
 20
-111.877591
 30
0.0
 40
1.999985
 50
6.004065
 51
65.195017
  0
LINE
  8
0
  6
BYLAYER
 62
     1
 10
217.912175
 20
-108.592222
 30
0.0
 11
217.879232
 21
-108.779050
 31
0.0
  0
LINE
  8
0
  6
BYLAYER
 62
     1
 10
323.286603
 20
-127.172605
 30
0.0
 11
323.253659
 21
-127.359449
 31
0.0
  0
ARC
  8
0
  6
BYLAYER
 62
     1
 10
300.978330
 20
-154.202375
 30
0.0
 40
1.999998
 50
245.352689
 51
308.996501
  0
ARC
  8
0
  6
BYLAYER
 62
     1
 10
292.585981
 20
-169.558759
 30
0.0
 40
15.500011
 50
60.826391
 51
112.499991
  0
CIRCLE
  8
0
  6
BYLAYER
 62
     1
 10
270.773038
 20
-116.897611
 30
0.0
 40
53.499996
  0
CIRCLE
  8
0
  6
BYLAYER
 62
     1
 10
270.773038
 20
-116.897611
 30
0.0
 40
31.0
  0
CIRCLE
  8
0
  6
BYLAYER
 62
     1
 10
270.773038
 20
-116.897611
 30
0.0
 40
34.999985
  0
ARC
  8
0
  6
BYLAYER
 62
     1
 10
323.434186
 20
-95.084684
 30
0.0
 40
15.499958
 50
151.343127
 51
254.743031
  0
ARC
  8
0
  6
BYLAYER
 62
     1
 10
263.047542
 20
-52.611788
 30
0.0
 40
1.724236
 50
270.0
 51
308.795511
  0
ARC
  8
0
  6
BYLAYER
 62
     1
 10
262.880681
 20
-52.434080
 30
0.0
 40
1.967374
 50
309.340351
 51
360.0
  0
ARC
  8
0
  6
BYLAYER
 62
     1
 10
262.880681
 20
-52.434080
 30
0.0
 40
1.967374
 50
0.0
 51
50.659649
  0
ARC
  8
0
  6
BYLAYER
 62
     1
 10
263.047542
 20
-52.256372
 30
0.0
 40
1.724236
 50
51.204489
 51
90.000000
  0
ARC
  8
0
  6
BYLAYER
 62
     1
 10
263.047542
 20
-52.256356
 30
0.0
 40
1.724220
 50
90.0
 51
128.795693
  0
ARC
  8
0
  6
BYLAYER
 62
     1
 10
263.214419
 20
-52.434080
 30
0.0
 40
1.967380
 50
129.340576
 51
180.0
  0
ARC
  8
0
  6
BYLAYER
 62
     1
 10
263.214419
 20
-52.434080
 30
0.0
 40
1.967380
 50
180.000000
 51
230.659424
  0
ARC
  8
0
  6
BYLAYER
 62
     1
 10
263.047542
 20
-52.611803
 30
0.0
 40
1.724220
 50
231.204307
 51
270.000000
  0
ARC
  8
0
  6
BYLAYER
 62
     1
 10
263.047542
 20
-51.928189
 30
0.0
 40
0.797848
 50
90.0
 51
140.793201
  0
ARC
  8
0
  6
BYLAYER
 62
     1
 10
263.667675
 20
-52.434080
 30
0.0
 40
1.598154
 50
140.793201
 51
180.000000
  0
ARC
  8
0
  6
BYLAYER
 62
     1
 10
263.667665
 20
-52.434080
 30
0.0
 40
1.598144
 50
180.000000
 51
219.206869
  0
ARC
  8
0
  6
BYLAYER
 62
     1
 10
263.047542
 20
-52.939964
 30
0.0
 40
0.797850
 50
219.206869
 51
270.0
  0
ARC
  8
0
  6
BYLAYER
 62
     1
 10
263.047542
 20
-52.939964
 30
0.0
 40
0.797850
 50
270.0
 51
320.793131
  0
ARC
  8
0
  6
BYLAYER
 62
     1
 10
262.427419
 20
-52.434080
 30
0.0
 40
1.598144
 50
320.793131
 51
360.000000
  0
ARC
  8
0
  6
BYLAYER
 62
     1
 10
262.427409
 20
-52.434080
 30
0.0
 40
1.598154
 50
0.0
 51
39.206799
  0
ARC
  8
0
  6
BYLAYER
 62
     1
 10
263.047542
 20
-51.928189
 30
0.0
 40
0.797848
 50
39.206799
 51
90.000000
  0
LINE
  8
0
  6
BYLAYER
 62
     1
 10
257.138838
 20
-54.209223
 30
0.0
 11
257.138838
 21
-50.608207
 31
0.0
  0
LINE
  8
0
  6
BYLAYER
 62
     1
 10
257.138838
 20
-50.608207
 30
0.0
 11
258.602913
 21
-50.608207
 31
0.0
  0
LINE
  8
0
  6
BYLAYER
 62
     1
 10
258.602913
 20
-50.608207
 30
0.0
 11
259.091503
 21
-52.484800
 31
0.0
  0
LINE
  8
0
  6
BYLAYER
 62
     1
 10
257.138838
 20
-54.209223
 30
0.0
 11
258.017964
 21
-54.209223
 31
0.0
  0
LINE
  8
0
  6
BYLAYER
 62
     1
 10
258.017964
 20
-54.209223
 30
0.0
 11
258.017964
 21
-52.129768
 31
0.0
  0
LINE
  8
0
  6
BYLAYER
 62
     1
 10
258.711110
 20
-54.209223
 30
0.0
 11
258.017964
 21
-52.129768
 31
0.0
  0
LINE
  8
0
  6
BYLAYER
 62
     1
 10
261.044167
 20
-54.209223
 30
0.0
 11
261.044167
 21
-50.608207
 31
0.0
  0
LINE
  8
0
  6
BYLAYER
 62
     1
 10
261.044167
 20
-50.608207
 30
0.0
 11
259.580092
 21
-50.608207
 31
0.0
  0
LINE
  8
0
  6
BYLAYER
 62
     1
 10
259.580092
 20
-50.608207
 30
0.0
 11
259.091503
 21
-52.484800
 31
0.0
  0
LINE
  8
0
  6
BYLAYER
 62
     1
 10
261.044167
 20
-54.209223
 30
0.0
 11
260.165041
 21
-54.209223
 31
0.0
  0
LINE
  8
0
  6
BYLAYER
 62
     1
 10
260.165041
 20
-54.209223
 30
0.0
 11
260.165041
 21
-52.129768
 31
0.0
  0
LINE
  8
0
  6
BYLAYER
 62
     1
 10
259.471895
 20
-54.209223
 30
0.0
 11
260.165041
 21
-52.129768
 31
0.0
  0
LINE
  8
0
  6
BYLAYER
 62
     1
 10
259.471895
 20
-54.209223
 30
0.0
 11
258.711110
 21
-54.209223
 31
0.0
  0
LINE
  8
0
  6
BYLAYER
 62
     1
 10
273.926671
 20
-54.209223
 30
0.0
 11
275.296062
 21
-50.608207
 31
0.0
  0
LINE
  8
0
  6
BYLAYER
 62
     1
 10
273.926671
 20
-54.209223
 30
0.0
 11
275.093199
 21
-54.209223
 31
0.0
  0
LINE
  8
0
  6
BYLAYER
 62
     1
 10
275.296062
 20
-50.608207
 30
0.0
 11
276.411870
 21
-50.608207
 31
0.0
  0
LINE
  8
0
  6
BYLAYER
 62
     1
 10
275.093199
 20
-54.209223
 30
0.0
 11
275.266106
 21
-53.702039
 31
0.0
  0
LINE
  8
0
  6
BYLAYER
 62
     1
 10
275.542741
 20
-52.890544
 30
0.0
 11
275.853966
 21
-51.977607
 31
0.0
  0
LINE
  8
0
  6
BYLAYER
 62
     1
 10
277.781279
 20
-54.209223
 30
0.0
 11
276.411870
 21
-50.608207
 31
0.0
  0
LINE
  8
0
  6
BYLAYER
 62
     1
 10
277.781279
 20
-54.209223
 30
0.0
 11
276.614751
 21
-54.209223
 31
0.0
  0
LINE
  8
0
  6
BYLAYER
 62
     1
 10
276.441844
 20
-53.702039
 30
0.0
 11
275.266106
 21
-53.702039
 31
0.0
  0
LINE
  8
0
  6
BYLAYER
 62
     1
 10
276.165190
 20
-52.890544
 30
0.0
 11
275.542741
 21
-52.890544
 31
0.0
  0
LINE
  8
0
  6
BYLAYER
 62
     1
 10
276.614751
 20
-54.209223
 30
0.0
 11
276.441844
 21
-53.702039
 31
0.0
  0
LINE
  8
0
  6
BYLAYER
 62
     1
 10
276.165190
 20
-52.890544
 30
0.0
 11
275.853966
 21
-51.977607
 31
0.0
  0
LINE
  8
0
  6
BYLAYER
 62
     1
 10
264.848055
 20
-51.495783
 30
0.0
 11
265.862422
 21
-51.495783
 31
0.0
  0
LINE
  8
0
  6
BYLAYER
 62
     1
 10
265.862422
 20
-51.495783
 30
0.0
 11
265.862422
 21
-54.209223
 31
0.0
  0
LINE
  8
0
  6
BYLAYER
 62
     1
 10
265.862422
 20
-54.209223
 30
0.0
 11
266.978240
 21
-54.209223
 31
0.0
  0
LINE
  8
0
  6
BYLAYER
 62
     1
 10
266.978240
 20
-54.209223
 30
0.0
 11
266.978240
 21
-51.495783
 31
0.0
  0
LINE
  8
0
  6
BYLAYER
 62
     1
 10
266.978240
 20
-51.495783
 30
0.0
 11
267.992607
 21
-51.495783
 31
0.0
  0
LINE
  8
0
  6
BYLAYER
 62
     1
 10
267.992607
 20
-51.495783
 30
0.0
 11
267.992607
 21
-50.608207
 31
0.0
  0
LINE
  8
0
  6
BYLAYER
 62
     1
 10
267.992607
 20
-50.608207
 30
0.0
 11
264.848055
 21
-50.608207
 31
0.0
  0
LINE
  8
0
  6
BYLAYER
 62
     1
 10
264.848055
 20
-50.608207
 30
0.0
 11
264.848055
 21
-51.495783
 31
0.0
  0
ARC
  8
0
  6
BYLAYER
 62
     1
 10
269.793111
 20
-52.611803
 30
0.0
 40
1.724220
 50
270.0
 51
308.795693
  0
ARC
  8
0
  6
BYLAYER
 62
     1
 10
269.626234
 20
-52.434080
 30
0.0
 40
1.967380
 50
309.340576
 51
360.000000
  0
ARC
  8
0
  6
BYLAYER
 62
     1
 10
269.626240
 20
-52.434080
 30
0.0
 40
1.967374
 50
0.0
 51
50.659649
  0
ARC
  8
0
  6
BYLAYER
 62
     1
 10
269.793102
 20
-52.256372
 30
0.0
 40
1.724236
 50
51.204489
 51
90.000000
  0
ARC
  8
0
  6
BYLAYER
 62
     1
 10
269.793102
 20
-52.256356
 30
0.0
 40
1.724220
 50
90.0
 51
128.795693
  0
ARC
  8
0
  6
BYLAYER
 62
     1
 10
269.959978
 20
-52.434080
 30
0.0
 40
1.967380
 50
129.340576
 51
180.0
  0
ARC
  8
0
  6
BYLAYER
 62
     1
 10
269.959972
 20
-52.434080
 30
0.0
 40
1.967374
 50
180.000000
 51
230.659649
  0
ARC
  8
0
  6
BYLAYER
 62
     1
 10
269.793111
 20
-52.611788
 30
0.0
 40
1.724236
 50
231.204489
 51
270.000000
  0
ARC
  8
0
  6
BYLAYER
 62
     1
 10
269.793102
 20
-51.928189
 30
0.0
 40
0.797848
 50
90.0
 51
140.793201
  0
ARC
  8
0
  6
BYLAYER
 62
     1
 10
270.413234
 20
-52.434080
 30
0.0
 40
1.598154
 50
140.793201
 51
180.000000
  0
ARC
  8
0
  6
BYLAYER
 62
     1
 10
270.413214
 20
-52.434080
 30
0.0
 40
1.598134
 50
180.000000
 51
219.207055
  0
ARC
  8
0
  6
BYLAYER
 62
     1
 10
269.793111
 20
-52.939951
 30
0.0
 40
0.797863
 50
219.207055
 51
270.000000
  0
ARC
  8
0
  6
BYLAYER
 62
     1
 10
269.793111
 20
-52.939964
 30
0.0
 40
0.797850
 50
270.0
 51
320.793131
  0
ARC
  8
0
  6
BYLAYER
 62
     1
 10
269.172988
 20
-52.434080
 30
0.0
 40
1.598144
 50
320.793131
 51
360.000000
  0
ARC
  8
0
  6
BYLAYER
 62
     1
 10
269.172989
 20
-52.434080
 30
0.0
 40
1.598143
 50
0.0
 51
39.206985
  0
ARC
  8
0
  6
BYLAYER
 62
     1
 10
269.793102
 20
-51.928202
 30
0.0
 40
0.797861
 50
39.206985
 51
90.000000
  0
LINE
  8
0
  6
BYLAYER
 62
     1
 10
277.878471
 20
-54.209223
 30
0.0
 11
277.878471
 21
-50.608207
 31
0.0
  0
LINE
  8
0
  6
BYLAYER
 62
     1
 10
277.878471
 20
-50.608207
 30
0.0
 11
280.110078
 21
-50.608207
 31
0.0
  0
ARC
  8
0
  6
BYLAYER
 62
     1
 10
280.110078
 20
-51.622584
 30
0.0
 40
1.014366
 50
287.134650
 51
450.000006
  0
ARC
  8
0
  6
BYLAYER
 62
     1
 10
280.312959
 20
-53.397727
 30
0.0
 40
0.811496
 50
0.0
 51
83.207557
  0
LINE
  8
0
  6
BYLAYER
 62
     1
 10
281.124455
 20
-53.397727
 30
0.0
 11
281.124455
 21
-53.904911
 31
0.0
  0
ARC
  8
0
  6
BYLAYER
 62
     1
 10
281.935951
 20
-53.904911
 30
0.0
 40
0.811496
 50
180.000000
 51
202.024314
  0
LINE
  8
0
  6
BYLAYER
 62
     1
 10
280.067863
 20
-54.209223
 30
0.0
 11
281.183671
 21
-54.209223
 31
0.0
  0
ARC
  8
0
  6
BYLAYER
 62
     1
 10
280.820143
 20
-53.904911
 30
0.0
 40
0.811496
 50
180.000000
 51
202.024314
  0
LINE
  8
0
  6
BYLAYER
 62
     1
 10
280.008647
 20
-53.904911
 30
0.0
 11
280.008647
 21
-53.499168
 31
0.0
  0
LINE
  8
0
  6
BYLAYER
 62
     1
 10
277.878471
 20
-54.209223
 30
0.0
 11
278.943559
 21
-54.209223
 31
0.0
  0
LINE
  8
0
  6
BYLAYER
 62
     1
 10
278.943559
 20
-54.209223
 30
0.0
 11
278.943559
 21
-52.991984
 31
0.0
  0
LINE
  8
0
  6
BYLAYER
 62
     1
 10
279.501463
 20
-52.991984
 30
0.0
 11
278.943559
 21
-52.991984
 31
0.0
  0
ARC
  8
0
  6
BYLAYER
 62
     1
 10
279.501463
 20
-53.499168
 30
0.0
 40
0.507184
 50
0.0
 51
90.000003
  0
LINE
  8
0
  6
BYLAYER
 62
     1
 10
278.943559
 20
-52.180488
 30
0.0
 11
278.943559
 21
-51.419703
 31
0.0
  0
LINE
  8
0
  6
BYLAYER
 62
     1
 10
278.943559
 20
-51.419703
 30
0.0
 11
279.653615
 21
-51.419703
 31
0.0
  0
LINE
  8
0
  6
BYLAYER
 62
     1
 10
278.943559
 20
-52.180488
 30
0.0
 11
279.653615
 21
-52.180488
 31
0.0
  0
ARC
  8
0
  6
BYLAYER
 62
     1
 10
279.653615
 20
-51.800096
 30
0.0
 40
0.380392
 50
270.0
 51
450.000005
  0
LINE
  8
0
  6
BYLAYER
 62
     1
 10
273.039104
 20
-53.070545
 30
0.0
 11
272.379759
 21
-50.608207
 31
0.0
  0
LINE
  8
0
  6
BYLAYER
 62
     1
 10
272.379759
 20
-50.608207
 30
0.0
 11
271.314671
 21
-50.608207
 31
0.0
  0
LINE
  8
0
  6
BYLAYER
 62
     1
 10
271.314671
 20
-50.608207
 30
0.0
 11
272.430479
 21
-54.209223
 31
0.0
  0
LINE
  8
0
  6
BYLAYER
 62
     1
 10
273.039104
 20
-53.070545
 30
0.0
 11
273.698430
 21
-50.608207
 31
0.0
  0
LINE
  8
0
  6
BYLAYER
 62
     1
 10
273.698430
 20
-50.608207
 30
0.0
 11
274.763518
 21
-50.608207
 31
0.0
  0
LINE
  8
0
  6
BYLAYER
 62
     1
 10
274.763518
 20
-50.608207
 30
0.0
 11
273.647710
 21
-54.209223
 31
0.0
  0
LINE
  8
0
  6
BYLAYER
 62
     1
 10
273.647710
 20
-54.209223
 30
0.0
 11
272.430479
 21
-54.209223
 31
0.0
  0
LINE
  8
0
  6
BYLAYER
 62
     1
 10
281.280864
 20
-54.209223
 30
0.0
 11
282.345952
 21
-54.209223
 31
0.0
  0
LINE
  8
0
  6
BYLAYER
 62
     1
 10
282.345952
 20
-54.209223
 30
0.0
 11
282.345952
 21
-50.608207
 31
0.0
  0
LINE
  8
0
  6
BYLAYER
 62
     1
 10
282.345952
 20
-50.608207
 30
0.0
 11
281.280864
 21
-50.608207
 31
0.0
  0
LINE
  8
0
  6
BYLAYER
 62
     1
 10
281.280864
 20
-50.608207
 30
0.0
 11
281.280864
 21
-54.209223
 31
0.0
  0
ARC
  8
0
  6
BYLAYER
 62
     1
 10
284.349336
 20
-52.611803
 30
0.0
 40
1.724220
 50
270.0
 51
308.795693
  0
ARC
  8
0
  6
BYLAYER
 62
     1
 10
284.182459
 20
-52.434080
 30
0.0
 40
1.967380
 50
309.340576
 51
360.000000
  0
ARC
  8
0
  6
BYLAYER
 62
     1
 10
284.182459
 20
-52.434080
 30
0.0
 40
1.967380
 50
0.0
 51
50.659424
  0
ARC
  8
0
  6
BYLAYER
 62
     1
 10
284.349336
 20
-52.256356
 30
0.0
 40
1.724220
 50
51.204307
 51
90.0
  0
ARC
  8
0
  6
BYLAYER
 62
     1
 10
284.349336
 20
-52.256356
 30
0.0
 40
1.724220
 50
90.0
 51
128.795693
  0
ARC
  8
0
  6
BYLAYER
 62
     1
 10
284.516213
 20
-52.434080
 30
0.0
 40
1.967380
 50
129.340576
 51
180.0
  0
ARC
  8
0
  6
BYLAYER
 62
     1
 10
284.516213
 20
-52.434080
 30
0.0
 40
1.967380
 50
180.000000
 51
230.659424
  0
ARC
  8
0
  6
BYLAYER
 62
     1
 10
284.349336
 20
-52.611803
 30
0.0
 40
1.724220
 50
231.204307
 51
270.000000
  0
ARC
  8
0
  6
BYLAYER
 62
     1
 10
284.349336
 20
-51.928189
 30
0.0
 40
0.797848
 50
39.206799
 51
90.000000
  0
ARC
  8
0
  6
BYLAYER
 62
     1
 10
283.729203
 20
-52.434080
 30
0.0
 40
1.598154
 50
0.0
 51
39.206799
  0
ARC
  8
0
  6
BYLAYER
 62
     1
 10
283.729213
 20
-52.434080
 30
0.0
 40
1.598144
 50
320.793131
 51
360.000000
  0
ARC
  8
0
  6
BYLAYER
 62
     1
 10
284.349336
 20
-52.939964
 30
0.0
 40
0.797850
 50
270.0
 51
320.793131
  0
ARC
  8
0
  6
BYLAYER
 62
     1
 10
284.349336
 20
-52.939964
 30
0.0
 40
0.797850
 50
219.206869
 51
270.0
  0
ARC
  8
0
  6
BYLAYER
 62
     1
 10
284.969459
 20
-52.434080
 30
0.0
 40
1.598144
 50
180.000000
 51
219.206869
  0
ARC
  8
0
  6
BYLAYER
 62
     1
 10
284.969469
 20
-52.434080
 30
0.0
 40
1.598154
 50
140.793201
 51
180.000000
  0
ARC
  8
0
  6
BYLAYER
 62
     1
 10
284.349336
 20
-51.928189
 30
0.0
 40
0.797848
 50
90.0
 51
140.793201
  0
LINE
  8
0
  6
BYLAYER
 62
     1
 10
281.295952
 20
-50.608207
 30
0.0
 11
281.295952
 21
-54.209223
 31
0.0
  0
ARC
  8
0
  6
BYLAYER
 62
     1
 10
266.366219
 20
-46.485771
 30
0.0
 40
4.457997
 50
174.535650
 51
180.000000
  0
LINE
  8
0
  6
BYLAYER
 62
     1
 10
261.928479
 20
-46.061250
 30
0.0
 11
261.928479
 21
-46.061245
 31
0.0
  0
LINE
  8
0
  6
BYLAYER
 62
     1
 10
261.933330
 20
-46.013291
 30
0.0
 11
262.358792
 21
-45.834166
 31
0.0
  0
ARC
  8
0
  6
BYLAYER
 62
     1
 10
266.366237
 20
-46.485807
 30
0.0
 40
4.060069
 50
159.235383
 51
170.763998
  0
LINE
  8
0
  6
BYLAYER
 62
     1
 10
262.569872
 20
-45.046368
 30
0.0
 11
262.290993
 21
-44.678500
 31
0.0
  0
ARC
  8
0
  6
BYLAYER
 62
     1
 10
266.366219
 20
-46.485771
 30
0.0
 40
4.457992
 50
144.139514
 51
156.083795
  0
LINE
  8
0
  6
BYLAYER
 62
     1
 10
262.723940
 20
-43.915254
 30
0.0
 11
262.724205
 21
-43.914878
 31
0.0
  0
LINE
  8
0
  6
BYLAYER
 62
     1
 10
262.753258
 20
-43.874218
 30
0.0
 11
263.206213
 21
-43.936537
 31
0.0
  0
ARC
  8
0
  6
BYLAYER
 62
     1
 10
266.366219
 20
-46.485771
 30
0.0
 40
4.060044
 50
129.235643
 51
141.105976
  0
LINE
  8
0
  6
BYLAYER
 62
     1
 10
263.731807
 20
-43.396456
 30
0.0
 11
263.732247
 21
-43.396076
 31
0.0
  0
LINE
  8
0
  6
BYLAYER
 62
     1
 10
263.798195
 20
-43.341058
 30
0.0
 11
263.740599
 21
-42.883015
 31
0.0
  0
ARC
  8
0
  6
BYLAYER
 62
     1
 10
266.366219
 20
-46.485771
 30
0.0
 40
4.457996
 50
114.139607
 51
126.083853
  0
LINE
  8
0
  6
BYLAYER
 62
     1
 10
264.497490
 20
-42.438352
 30
0.0
 11
264.497792
 21
-42.438211
 31
0.0
  0
LINE
  8
0
  6
BYLAYER
 62
     1
 10
264.543070
 20
-42.417618
 30
0.0
 11
264.904168
 21
-42.698055
 31
0.0
  0
LINE
  8
0
  6
BYLAYER
 62
     1
 10
264.986730
 20
-42.667262
 30
0.0
 11
264.987187
 21
-42.667102
 31
0.0
  0
ARC
  8
0
  6
BYLAYER
 62
     1
 10
266.366219
 20
-46.485771
 30
0.0
 40
4.060043
 50
99.235601
 51
111.106038
  0
ARC
  8
0
  6
BYLAYER
 62
     1
 10
266.366219
 20
-46.485771
 30
0.0
 40
4.457997
 50
90.0
 51
96.083892
  0
LINE
  8
0
  6
BYLAYER
 62
     1
 10
265.893740
 20
-42.052882
 30
0.0
 11
265.714604
 21
-42.478359
 31
0.0
  0
LINE
  8
0
  6
BYLAYER
 62
     1
 10
270.803954
 20
-46.061250
 30
0.0
 11
270.803954
 21
-46.061245
 31
0.0
  0
LINE
  8
0
  6
BYLAYER
 62
     1
 10
270.799107
 20
-46.013291
 30
0.0
 11
270.373624
 21
-45.834162
 31
0.0
  0
ARC
  8
0
  6
BYLAYER
 62
     1
 10
266.366191
 20
-46.485807
 30
0.0
 40
4.060069
 50
9.235986
 51
20.764650
  0
LINE
  8
0
  6
BYLAYER
 62
     1
 10
270.162586
 20
-45.046326
 30
0.0
 11
270.441445
 21
-44.678501
 31
0.0
  0
ARC
  8
0
  6
BYLAYER
 62
     1
 10
266.366219
 20
-46.485771
 30
0.0
 40
4.457992
 50
23.916189
 51
35.860484
  0
LINE
  8
0
  6
BYLAYER
 62
     1
 10
270.008489
 20
-43.915254
 30
0.0
 11
270.008223
 21
-43.914878
 31
0.0
  0
LINE
  8
0
  6
BYLAYER
 62
     1
 10
269.979180
 20
-43.874219
 30
0.0
 11
269.526256
 21
-43.936531
 31
0.0
  0
ARC
  8
0
  6
BYLAYER
 62
     1
 10
266.366219
 20
-46.485771
 30
0.0
 40
4.060044
 50
38.894050
 51
50.764315
  0
LINE
  8
0
  6
BYLAYER
 62
     1
 10
269.000630
 20
-43.396456
 30
0.0
 11
269.000191
 21
-43.396076
 31
0.0
  0
LINE
  8
0
  6
BYLAYER
 62
     1
 10
268.934254
 20
-43.340985
 30
0.0
 11
268.991829
 21
-42.883008
 31
0.0
  0
ARC
  8
0
  6
BYLAYER
 62
     1
 10
266.366219
 20
-46.485771
 30
0.0
 40
4.457996
 50
53.916300
 51
65.860381
  0
LINE
  8
0
  6
BYLAYER
 62
     1
 10
268.234947
 20
-42.438352
 30
0.0
 11
268.234636
 21
-42.438211
 31
0.0
  0
LINE
  8
0
  6
BYLAYER
 62
     1
 10
268.189368
 20
-42.417619
 30
0.0
 11
267.828274
 21
-42.698043
 31
0.0
  0
LINE
  8
0
  6
BYLAYER
 62
     1
 10
267.745699
 20
-42.667262
 30
0.0
 11
267.745250
 21
-42.667102
 31
0.0
  0
ARC
  8
0
  6
BYLAYER
 62
     1
 10
266.366219
 20
-46.485771
 30
0.0
 40
4.060043
 50
68.894081
 51
80.764578
  0
ARC
  8
0
  6
BYLAYER
 62
     1
 10
266.366219
 20
-46.485771
 30
0.0
 40
4.457997
 50
84.535428
 51
90.000003
  0
LINE
  8
0
  6
BYLAYER
 62
     1
 10
266.838699
 20
-42.052882
 30
0.0
 11
267.017791
 21
-42.478286
 31
0.0
  0
ARC
  8
0
  6
BYLAYER
 62
     1
 10
266.366219
 20
-46.485771
 30
0.0
 40
4.457997
 50
180.000000
 51
186.083899
  0
LINE
  8
0
  6
BYLAYER
 62
     1
 10
261.928479
 20
-46.910287
 30
0.0
 11
261.928479
 21
-46.910296
 31
0.0
  0
LINE
  8
0
  6
BYLAYER
 62
     1
 10
261.933330
 20
-46.958250
 30
0.0
 11
262.358805
 21
-47.137381
 31
0.0
  0
ARC
  8
0
  6
BYLAYER
 62
     1
 10
266.366237
 20
-46.485734
 30
0.0
 40
4.060069
 50
189.236002
 51
200.764629
  0
LINE
  8
0
  6
BYLAYER
 62
     1
 10
262.569887
 20
-47.925155
 30
0.0
 11
262.290991
 21
-48.293038
 31
0.0
  0
ARC
  8
0
  6
BYLAYER
 62
     1
 10
266.366219
 20
-46.485771
 30
0.0
 40
4.457992
 50
203.916158
 51
215.860410
  0
LINE
  8
0
  6
BYLAYER
 62
     1
 10
262.723940
 20
-49.056283
 30
0.0
 11
262.724205
 21
-49.056658
 31
0.0
  0
LINE
  8
0
  6
BYLAYER
 62
     1
 10
262.753254
 20
-49.097318
 30
0.0
 11
263.206252
 21
-49.035000
 31
0.0
  0
ARC
  8
0
  6
BYLAYER
 62
     1
 10
266.366219
 20
-46.485771
 30
0.0
 40
4.060044
 50
218.894045
 51
230.764345
  0
LINE
  8
0
  6
BYLAYER
 62
     1
 10
263.731807
 20
-49.575080
 30
0.0
 11
263.732247
 21
-49.575460
 31
0.0
  0
LINE
  8
0
  6
BYLAYER
 62
     1
 10
263.798194
 20
-49.630482
 30
0.0
 11
263.740599
 21
-50.088527
 31
0.0
  0
ARC
  8
0
  6
BYLAYER
 62
     1
 10
266.366219
 20
-46.485771
 30
0.0
 40
4.457996
 50
233.916148
 51
245.860401
  0
LINE
  8
0
  6
BYLAYER
 62
     1
 10
264.497490
 20
-50.533184
 30
0.0
 11
264.497792
 21
-50.533331
 31
0.0
  0
LINE
  8
0
  6
BYLAYER
 62
     1
 10
264.543071
 20
-50.553923
 30
0.0
 11
264.904211
 21
-50.273447
 31
0.0
  0
LINE
  8
0
  6
BYLAYER
 62
     1
 10
264.986730
 20
-50.304275
 30
0.0
 11
264.987187
 21
-50.304440
 31
0.0
  0
LINE
  8
0
  6
BYLAYER
 62
     1
 10
270.803954
 20
-46.910287
 30
0.0
 11
270.803954
 21
-46.910296
 31
0.0
  0
LINE
  8
0
  6
BYLAYER
 62
     1
 10
270.799106
 20
-46.958251
 30
0.0
 11
270.373624
 21
-47.137380
 31
0.0
  0
LINE
  8
0
  6
BYLAYER
 62
     1
 10
270.162546
 20
-47.925165
 30
0.0
 11
270.441449
 21
-48.293041
 31
0.0
  0
LINE
  8
0
  6
BYLAYER
 62
     1
 10
270.008489
 20
-49.056283
 30
0.0
 11
270.008223
 21
-49.056658
 31
0.0
  0
LINE
  8
0
  6
BYLAYER
 62
     1
 10
269.979188
 20
-49.097318
 30
0.0
 11
269.526161
 21
-49.034998
 31
0.0
  0
LINE
  8
0
  6
BYLAYER
 62
     1
 10
269.000630
 20
-49.575080
 30
0.0
 11
269.000191
 21
-49.575460
 31
0.0
  0
LINE
  8
0
  6
BYLAYER
 62
     1
 10
268.934245
 20
-49.630480
 30
0.0
 11
268.991829
 21
-50.088534
 31
0.0
  0
LINE
  8
0
  6
BYLAYER
 62
     1
 10
268.189367
 20
-50.553923
 30
0.0
 11
267.828219
 21
-50.273450
 31
0.0
  0
ARC
  8
0
  6
BYLAYER
 62
     1
 10
266.366219
 20
-46.485771
 30
0.0
 40
4.060044
 50
309.235697
 51
321.105929
  0
ARC
  8
0
  6
BYLAYER
 62
     1
 10
266.366219
 20
-46.485771
 30
0.0
 40
4.060043
 50
248.893873
 51
259.502886
  0
ARC
  8
0
  6
BYLAYER
 62
     1
 10
266.366219
 20
-46.485771
 30
0.0
 40
4.457996
 50
294.783232
 51
306.083699
  0
LINE
  8
0
  6
BYLAYER
 62
     1
 10
268.234636
 20
-50.533331
 30
0.0
 11
268.189642
 21
-50.554504
 31
0.0
  0
ARC
  8
0
  6
BYLAYER
 62
     1
 10
266.366219
 20
-46.485771
 30
0.0
 40
4.457992
 50
324.139593
 51
336.083825
  0
ARC
  8
0
  6
BYLAYER
 62
     1
 10
266.366191
 20
-46.485734
 30
0.0
 40
4.060069
 50
339.235210
 51
350.764014
  0
ARC
  8
0
  6
BYLAYER
 62
     1
 10
266.366219
 20
-46.485771
 30
0.0
 40
4.457997
 50
353.916089
 51
360.000000
  0
ARC
  8
0
  6
BYLAYER
 62
     1
 10
266.366219
 20
-46.485771
 30
0.0
 40
4.457997
 50
0.0
 51
6.083907
  0
CIRCLE
  8
0
  6
BYLAYER
 62
     1
 10
266.366219
 20
-46.485771
 30
0.0
 40
3.446307
  0
CIRCLE
  8
0
  6
BYLAYER
 62
     1
 10
266.366219
 20
-46.485771
 30
0.0
 40
2.649296
  0
ARC
  8
0
  6
BYLAYER
 62
     1
 10
266.366219
 20
-46.485771
 30
0.0
 40
4.060043
 50
259.503601
 51
291.106008
  0
LINE
  8
0
  6
BYLAYER
 62
     1
 10
270.773038
 20
-116.897611
 30
0.0
 11
267.773038
 21
-116.897611
 31
0.0
  0
LINE
  8
0
  6
BYLAYER
 62
     1
 10
270.773038
 20
-116.897611
 30
0.0
 11
270.773038
 21
-119.897611
 31
0.0
  0
LINE
  8
0
  6
BYLAYER
 62
     1
 10
270.773038
 20
-116.897611
 30
0.0
 11
273.773038
 21
-116.897611
 31
0.0
  0
ARC
  8
0
  6
BYLAYER
 62
     1
 10
806.773038
 20
-66.897642
 30
0.0
 40
67.5
 50
354.420787
 51
419.508708
  0
ARC
  8
0
  6
BYLAYER
 62
     1
 10
806.773038
 20
-66.897642
 30
0.0
 40
67.500000
 50
63.675482
 51
116.324518
  0
ARC
  8
0
  6
BYLAYER
 62
     1
 10
806.773038
 20
-66.897642
 30
0.0
 40
67.500000
 50
120.491292
 51
185.579213
  0
CIRCLE
  8
0
  6
BYLAYER
 62
     1
 10
861.458788
 20
-49.129164
 30
0.0
 40
3.25
  0
CIRCLE
  8
0
  6
BYLAYER
 62
     1
 10
752.087288
 20
-49.129164
 30
0.0
 40
3.25
  0
ARC
  8
0
  6
BYLAYER
 62
     1
 10
806.773038
 20
-66.897642
 30
0.0
 40
44.499891
 50
146.249289
 51
154.443008
  0
ARC
  8
0
  6
BYLAYER
 62
     1
 10
806.773038
 20
-66.897642
 30
0.0
 40
44.499891
 50
25.556992
 51
33.750711
  0
ARC
  8
0
  6
BYLAYER
 62
     1
 10
806.773038
 20
-116.897611
 30
0.0
 40
80.000000
 50
117.548546
 51
422.451454
  0
LINE
  8
0
  6
BYLAYER
 62
     7
 10
849.103548
 20
-171.956038
 30
0.0
 11
852.099271
 21
-174.951761
 31
0.0
  0
ARC
  8
0
  6
BYLAYER
 62
     7
 10
850.331479
 20
-176.719526
 30
0.0
 40
2.499997
 50
306.059684
 51
405.000001
  0
ARC
  8
0
  6
BYLAYER
 62
     7
 10
806.773038
 20
-116.897611
 30
0.0
 40
76.500000
 50
273.680298
 51
306.059684
  0
ARC
  8
0
  6
BYLAYER
 62
     7
 10
811.523038
 20
-190.745008
 30
0.0
 40
2.500000
 50
180.000000
 51
273.680293
  0
LINE
  8
0
  6
BYLAYER
 62
     7
 10
809.023038
 20
-186.311154
 30
0.0
 11
809.023038
 21
-190.745008
 31
0.0
  0
LINE
  8
0
  6
BYLAYER
 62
     7
 10
764.442528
 20
-171.956038
 30
0.0
 11
761.446805
 21
-174.951761
 31
0.0
  0
ARC
  8
0
  6
BYLAYER
 62
     7
 10
763.214597
 20
-176.719526
 30
0.0
 40
2.499997
 50
135.000000
 51
233.940317
  0
ARC
  8
0
  6
BYLAYER
 62
     7
 10
806.773038
 20
-116.897611
 30
0.0
 40
76.5
 50
233.940317
 51
266.319704
  0
ARC
  8
0
  6
BYLAYER
 62
     7
 10
802.023038
 20
-190.745008
 30
0.0
 40
2.500000
 50
266.319704
 51
359.999983
  0
LINE
  8
0
  6
BYLAYER
 62
     7
 10
804.523038
 20
-186.311154
 30
0.0
 11
804.523038
 21
-190.745008
 31
0.0
  0
LINE
  8
0
  6
BYLAYER
 62
     7
 10
861.831466
 20
-74.567102
 30
0.0
 11
864.827176
 21
-71.571393
 31
0.0
  0
ARC
  8
0
  6
BYLAYER
 62
     7
 10
866.594937
 20
-73.339158
 30
0.0
 40
2.5
 50
36.059693
 51
135.0
  0
ARC
  8
0
  6
BYLAYER
 62
     7
 10
806.773038
 20
-116.897611
 30
0.0
 40
76.500000
 50
3.680307
 51
36.059693
  0
ARC
  8
0
  6
BYLAYER
 62
     7
 10
880.620450
 20
-112.147606
 30
0.0
 40
2.500000
 50
270.0
 51
363.680306
  0
LINE
  8
0
  6
BYLAYER
 62
     7
 10
876.186581
 20
-114.647606
 30
0.0
 11
880.620450
 21
-114.647606
 31
0.0
  0
LINE
  8
0
  6
BYLAYER
 62
     7
 10
861.831470
 20
-159.228116
 30
0.0
 11
864.827176
 21
-162.223821
 31
0.0
  0
ARC
  8
0
  6
BYLAYER
 62
     7
 10
866.594937
 20
-160.456056
 30
0.0
 40
2.499995
 50
225.000010
 51
323.940327
  0
ARC
  8
0
  6
BYLAYER
 62
     7
 10
806.773038
 20
-116.897611
 30
0.0
 40
76.5
 50
323.940327
 51
356.319713
  0
ARC
  8
0
  6
BYLAYER
 62
     7
 10
880.620450
 20
-121.647610
 30
0.0
 40
2.500000
 50
356.319713
 51
449.999989
  0
LINE
  8
0
  6
BYLAYER
 62
     7
 10
876.186581
 20
-119.147610
 30
0.0
 11
880.620450
 21
-119.147610
 31
0.0
  0
LINE
  8
0
  6
BYLAYER
 62
     7
 10
764.442526
 20
-61.839186
 30
0.0
 11
761.446805
 21
-58.843465
 31
0.0
  0
ARC
  8
0
  6
BYLAYER
 62
     7
 10
763.214566
 20
-57.075700
 30
0.0
 40
2.499997
 50
126.059706
 51
225.000010
  0
ARC
  8
0
  6
BYLAYER
 62
     7
 10
806.773038
 20
-116.897611
 30
0.0
 40
76.5
 50
118.924725
 51
126.059706
  0
LINE
  8
0
  6
BYLAYER
 62
     7
 10
849.103534
 20
-61.839173
 30
0.0
 11
852.099240
 21
-58.843458
 31
0.0
  0
ARC
  8
0
  6
BYLAYER
 62
     7
 10
850.331479
 20
-57.075693
 30
0.0
 40
2.499997
 50
315.000019
 51
413.940336
  0
ARC
  8
0
  6
BYLAYER
 62
     7
 10
806.773038
 20
-116.897611
 30
0.0
 40
76.500000
 50
53.940336
 51
61.075275
  0
LINE
  8
0
  6
BYLAYER
 62
     7
 10
751.714608
 20
-159.228118
 30
0.0
 11
748.718900
 21
-162.223825
 31
0.0
  0
ARC
  8
0
  6
BYLAYER
 62
     7
 10
746.951139
 20
-160.456060
 30
0.0
 40
2.499997
 50
216.059688
 51
314.999992
  0
ARC
  8
0
  6
BYLAYER
 62
     7
 10
806.773038
 20
-116.897611
 30
0.0
 40
76.5
 50
183.680329
 51
216.059688
  0
ARC
  8
0
  6
BYLAYER
 62
     7
 10
732.925626
 20
-121.647614
 30
0.0
 40
2.500000
 50
90.0
 51
183.680313
  0
LINE
  8
0
  6
BYLAYER
 62
     7
 10
737.359495
 20
-119.147614
 30
0.0
 11
732.925626
 21
-119.147614
 31
0.0
  0
LINE
  8
0
  6
BYLAYER
 62
     7
 10
751.714608
 20
-74.567104
 30
0.0
 11
748.718900
 21
-71.571397
 31
0.0
  0
ARC
  8
0
  6
BYLAYER
 62
     7
 10
746.951139
 20
-73.339162
 30
0.0
 40
2.499997
 50
45.000001
 51
143.940322
  0
ARC
  8
0
  6
BYLAYER
 62
     7
 10
806.773038
 20
-116.897611
 30
0.0
 40
76.5
 50
143.940322
 51
176.319681
  0
ARC
  8
0
  6
BYLAYER
 62
     7
 10
732.925626
 20
-112.147610
 30
0.0
 40
2.5
 50
176.319681
 51
269.999973
  0
LINE
  8
0
  6
BYLAYER
 62
     7
 10
737.359495
 20
-114.647610
 30
0.0
 11
732.925626
 21
-114.647610
 31
0.0
  0
LINE
  8
0
  6
BYLAYER
 62
     7
 10
769.773038
 20
-39.897611
 30
0.0
 11
769.773038
 21
-58.124296
 31
0.0
  0
LINE
  8
0
  6
BYLAYER
 62
     7
 10
843.773038
 20
-39.897611
 30
0.0
 11
843.773038
 21
-58.124296
 31
0.0
  0
LINE
  8
0
  6
BYLAYER
 62
     7
 10
769.773038
 20
-44.397611
 30
0.0
 11
772.773038
 21
-49.593747
 31
0.0
  0
LINE
  8
0
  6
BYLAYER
 62
     7
 10
772.773038
 20
-49.593747
 30
0.0
 11
772.773038
 21
-56.339354
 31
0.0
  0
LINE
  8
0
  6
BYLAYER
 62
     7
 10
843.773038
 20
-44.397611
 30
0.0
 11
840.773038
 21
-49.593747
 31
0.0
  0
LINE
  8
0
  6
BYLAYER
 62
     7
 10
840.773038
 20
-49.593747
 30
0.0
 11
840.773038
 21
-56.339354
 31
0.0
  0
LINE
  8
0
  6
BYLAYER
 62
     7
 10
807.773038
 20
-105.897611
 30
0.0
 11
815.773038
 21
-105.897611
 31
0.0
  0
LINE
  8
0
  6
BYLAYER
 62
     7
 10
807.773038
 20
-87.897611
 30
0.0
 11
807.773038
 21
-95.897611
 31
0.0
  0
LINE
  8
0
  6
BYLAYER
 62
     7
 10
807.773038
 20
-77.897611
 30
0.0
 11
807.773038
 21
-85.897611
 31
0.0
  0
LINE
  8
0
  6
BYLAYER
 62
     7
 10
807.773038
 20
-97.897611
 30
0.0
 11
807.773038
 21
-105.897611
 31
0.0
  0
LINE
  8
0
  6
BYLAYER
 62
     7
 10
815.773038
 20
-85.897611
 30
0.0
 11
815.773038
 21
-77.897611
 31
0.0
  0
LINE
  8
0
  6
BYLAYER
 62
     7
 10
817.773038
 20
-85.897611
 30
0.0
 11
817.773038
 21
-77.897611
 31
0.0
  0
LINE
  8
0
  6
BYLAYER
 62
     7
 10
807.773038
 20
-97.897611
 30
0.0
 11
815.773038
 21
-97.897611
 31
0.0
  0
LINE
  8
0
  6
BYLAYER
 62
     7
 10
807.773038
 20
-95.897611
 30
0.0
 11
815.773038
 21
-95.897611
 31
0.0
  0
LINE
  8
0
  6
BYLAYER
 62
     7
 10
807.773038
 20
-87.897611
 30
0.0
 11
815.773038
 21
-87.897611
 31
0.0
  0
LINE
  8
0
  6
BYLAYER
 62
     7
 10
817.773038
 20
-85.897611
 30
0.0
 11
825.611037
 21
-85.897611
 31
0.0
  0
LINE
  8
0
  6
BYLAYER
 62
     7
 10
807.773038
 20
-85.897611
 30
0.0
 11
815.773038
 21
-85.897611
 31
0.0
  0
LINE
  8
0
  6
BYLAYER
 62
     7
 10
817.773038
 20
-77.897611
 30
0.0
 11
825.611037
 21
-77.897611
 31
0.0
  0
LINE
  8
0
  6
BYLAYER
 62
     7
 10
807.773038
 20
-77.897611
 30
0.0
 11
815.773038
 21
-77.897611
 31
0.0
  0
LINE
  8
0
  6
BYLAYER
 62
     7
 10
825.611037
 20
-85.897611
 30
0.0
 11
825.611037
 21
-77.897611
 31
0.0
  0
LINE
  8
0
  6
BYLAYER
 62
     7
 10
815.773038
 20
-105.897611
 30
0.0
 11
815.773038
 21
-97.897611
 31
0.0
  0
LINE
  8
0
  6
BYLAYER
 62
     7
 10
815.773038
 20
-95.897611
 30
0.0
 11
815.773038
 21
-87.897611
 31
0.0
  0
LINE
  8
0
  6
BYLAYER
 62
     7
 10
817.773038
 20
-105.897611
 30
0.0
 11
825.773038
 21
-105.897611
 31
0.0
  0
LINE
  8
0
  6
BYLAYER
 62
     7
 10
817.773038
 20
-87.897611
 30
0.0
 11
817.773038
 21
-95.897611
 31
0.0
  0
LINE
  8
0
  6
BYLAYER
 62
     7
 10
817.773038
 20
-97.897611
 30
0.0
 11
817.773038
 21
-105.897611
 31
0.0
  0
LINE
  8
0
  6
BYLAYER
 62
     7
 10
817.773038
 20
-97.897611
 30
0.0
 11
825.773038
 21
-97.897611
 31
0.0
  0
LINE
  8
0
  6
BYLAYER
 62
     7
 10
817.773038
 20
-95.897611
 30
0.0
 11
825.773038
 21
-95.897611
 31
0.0
  0
LINE
  8
0
  6
BYLAYER
 62
     7
 10
817.773038
 20
-87.897611
 30
0.0
 11
825.773038
 21
-87.897611
 31
0.0
  0
LINE
  8
0
  6
BYLAYER
 62
     7
 10
825.773038
 20
-105.897611
 30
0.0
 11
825.773038
 21
-97.897611
 31
0.0
  0
LINE
  8
0
  6
BYLAYER
 62
     7
 10
825.773038
 20
-95.897611
 30
0.0
 11
825.773038
 21
-87.897611
 31
0.0
  0
LINE
  8
0
  6
BYLAYER
 62
     7
 10
827.773038
 20
-105.897611
 30
0.0
 11
835.773038
 21
-105.897611
 31
0.0
  0
LINE
  8
0
  6
BYLAYER
 62
     7
 10
827.773038
 20
-87.897611
 30
0.0
 11
827.773038
 21
-95.897611
 31
0.0
  0
LINE
  8
0
  6
BYLAYER
 62
     7
 10
827.773038
 20
-97.897611
 30
0.0
 11
827.773038
 21
-105.897611
 31
0.0
  0
LINE
  8
0
  6
BYLAYER
 62
     7
 10
827.773038
 20
-97.897611
 30
0.0
 11
835.773038
 21
-97.897611
 31
0.0
  0
LINE
  8
0
  6
BYLAYER
 62
     7
 10
827.773038
 20
-95.897611
 30
0.0
 11
835.773038
 21
-95.897611
 31
0.0
  0
LINE
  8
0
  6
BYLAYER
 62
     7
 10
827.773038
 20
-87.897611
 30
0.0
 11
835.773038
 21
-87.897611
 31
0.0
  0
LINE
  8
0
  6
BYLAYER
 62
     7
 10
835.773038
 20
-105.897611
 30
0.0
 11
835.773038
 21
-97.897611
 31
0.0
  0
LINE
  8
0
  6
BYLAYER
 62
     7
 10
835.773038
 20
-95.897611
 30
0.0
 11
835.773038
 21
-87.897611
 31
0.0
  0
LINE
  8
0
  6
BYLAYER
 62
     7
 10
817.773038
 20
-115.897611
 30
0.0
 11
825.773038
 21
-115.897611
 31
0.0
  0
LINE
  8
0
  6
BYLAYER
 62
     7
 10
817.773038
 20
-107.897611
 30
0.0
 11
817.773038
 21
-115.897611
 31
0.0
  0
LINE
  8
0
  6
BYLAYER
 62
     7
 10
817.773038
 20
-107.897611
 30
0.0
 11
825.773038
 21
-107.897611
 31
0.0
  0
LINE
  8
0
  6
BYLAYER
 62
     7
 10
825.773038
 20
-115.897611
 30
0.0
 11
825.773038
 21
-107.897611
 31
0.0
  0
LINE
  8
0
  6
BYLAYER
 62
     7
 10
827.773038
 20
-115.897611
 30
0.0
 11
835.773038
 21
-115.897611
 31
0.0
  0
LINE
  8
0
  6
BYLAYER
 62
     7
 10
827.773038
 20
-107.897611
 30
0.0
 11
827.773038
 21
-115.897611
 31
0.0
  0
LINE
  8
0
  6
BYLAYER
 62
     7
 10
827.773038
 20
-107.897611
 30
0.0
 11
835.773038
 21
-107.897611
 31
0.0
  0
LINE
  8
0
  6
BYLAYER
 62
     7
 10
835.773038
 20
-115.897611
 30
0.0
 11
835.773038
 21
-107.897611
 31
0.0
  0
LINE
  8
0
  6
BYLAYER
 62
     7
 10
837.773038
 20
-105.897611
 30
0.0
 11
845.773038
 21
-105.897611
 31
0.0
  0
LINE
  8
0
  6
BYLAYER
 62
     7
 10
837.773038
 20
-97.897611
 30
0.0
 11
837.773038
 21
-105.897611
 31
0.0
  0
LINE
  8
0
  6
BYLAYER
 62
     7
 10
837.773038
 20
-97.897611
 30
0.0
 11
845.773038
 21
-97.897611
 31
0.0
  0
LINE
  8
0
  6
BYLAYER
 62
     7
 10
845.773038
 20
-105.897611
 30
0.0
 11
845.773038
 21
-97.897611
 31
0.0
  0
LINE
  8
0
  6
BYLAYER
 62
     7
 10
837.773038
 20
-115.897611
 30
0.0
 11
845.773038
 21
-115.897611
 31
0.0
  0
LINE
  8
0
  6
BYLAYER
 62
     7
 10
837.773038
 20
-107.897611
 30
0.0
 11
837.773038
 21
-115.897611
 31
0.0
  0
LINE
  8
0
  6
BYLAYER
 62
     7
 10
837.773038
 20
-107.897611
 30
0.0
 11
845.773038
 21
-107.897611
 31
0.0
  0
LINE
  8
0
  6
BYLAYER
 62
     7
 10
845.773038
 20
-115.897611
 30
0.0
 11
845.773038
 21
-107.897611
 31
0.0
  0
CIRCLE
  8
0
  6
BYLAYER
 62
     7
 10
806.773038
 20
-116.897611
 30
0.0
 40
4.0
  0
LINE
  8
0
  6
BYLAYER
 62
     7
 10
807.773038
 20
-67.897611
 30
0.0
 11
807.773038
 21
-75.897611
 31
0.0
  0
LINE
  8
0
  6
BYLAYER
 62
     7
 10
815.773038
 20
-75.897611
 30
0.0
 11
815.773038
 21
-67.897611
 31
0.0
  0
LINE
  8
0
  6
BYLAYER
 62
     7
 10
807.773038
 20
-75.897611
 30
0.0
 11
815.773038
 21
-75.897611
 31
0.0
  0
LINE
  8
0
  6
BYLAYER
 62
     7
 10
807.773038
 20
-67.897611
 30
0.0
 11
815.773038
 21
-67.897611
 31
0.0
  0
LINE
  8
0
  6
BYLAYER
 62
     7
 10
827.773038
 20
-77.897611
 30
0.0
 11
827.773038
 21
-85.897611
 31
0.0
  0
LINE
  8
0
  6
BYLAYER
 62
     7
 10
827.773038
 20
-85.897611
 30
0.0
 11
835.773038
 21
-85.897611
 31
0.0
  0
LINE
  8
0
  6
BYLAYER
 62
     7
 10
827.773038
 20
-77.897611
 30
0.0
 11
835.773038
 21
-77.897611
 31
0.0
  0
LINE
  8
0
  6
BYLAYER
 62
     7
 10
835.773038
 20
-85.897611
 30
0.0
 11
835.773038
 21
-77.897611
 31
0.0
  0
LINE
  8
0
  6
BYLAYER
 62
     7
 10
847.773038
 20
-115.897611
 30
0.0
 11
855.773038
 21
-115.897611
 31
0.0
  0
LINE
  8
0
  6
BYLAYER
 62
     7
 10
847.773038
 20
-107.897611
 30
0.0
 11
847.773038
 21
-115.897611
 31
0.0
  0
LINE
  8
0
  6
BYLAYER
 62
     7
 10
847.773038
 20
-107.897611
 30
0.0
 11
855.773038
 21
-107.897611
 31
0.0
  0
LINE
  8
0
  6
BYLAYER
 62
     7
 10
855.773038
 20
-115.897611
 30
0.0
 11
855.773038
 21
-107.897611
 31
0.0
  0
LINE
  8
0
  6
BYLAYER
 62
     7
 10
837.773038
 20
-95.897611
 30
0.0
 11
845.773038
 21
-95.897611
 31
0.0
  0
LINE
  8
0
  6
BYLAYER
 62
     7
 10
837.773038
 20
-87.897611
 30
0.0
 11
837.773038
 21
-95.897611
 31
0.0
  0
LINE
  8
0
  6
BYLAYER
 62
     7
 10
837.773038
 20
-87.897611
 30
0.0
 11
845.773038
 21
-87.897611
 31
0.0
  0
LINE
  8
0
  6
BYLAYER
 62
     7
 10
845.773038
 20
-95.897611
 30
0.0
 11
845.773038
 21
-87.897611
 31
0.0
  0
CIRCLE
  8
0
  6
BYLAYER
 62
     7
 10
806.773038
 20
-116.897611
 30
0.0
 40
55.0
  0
CIRCLE
  8
0
  6
BYLAYER
 62
     7
 10
806.773038
 20
-116.897611
 30
0.0
 40
69.45
  0
CIRCLE
  8
0
  6
BYLAYER
 62
     7
 10
806.773038
 20
-116.897611
 30
0.0
 40
51.0
  0
LINE
  8
0
  6
BYLAYER
 62
     7
 10
807.773038
 20
-127.897611
 30
0.0
 11
815.773038
 21
-127.897611
 31
0.0
  0
LINE
  8
0
  6
BYLAYER
 62
     7
 10
807.773038
 20
-145.897611
 30
0.0
 11
807.773038
 21
-137.897611
 31
0.0
  0
LINE
  8
0
  6
BYLAYER
 62
     7
 10
807.773038
 20
-155.897611
 30
0.0
 11
807.773038
 21
-147.897611
 31
0.0
  0
LINE
  8
0
  6
BYLAYER
 62
     7
 10
807.773038
 20
-135.897611
 30
0.0
 11
807.773038
 21
-127.897611
 31
0.0
  0
LINE
  8
0
  6
BYLAYER
 62
     7
 10
815.773038
 20
-147.897611
 30
0.0
 11
815.773038
 21
-155.897611
 31
0.0
  0
LINE
  8
0
  6
BYLAYER
 62
     7
 10
817.773038
 20
-147.897611
 30
0.0
 11
817.773038
 21
-155.897611
 31
0.0
  0
LINE
  8
0
  6
BYLAYER
 62
     7
 10
807.773038
 20
-135.897611
 30
0.0
 11
815.773038
 21
-135.897611
 31
0.0
  0
LINE
  8
0
  6
BYLAYER
 62
     7
 10
807.773038
 20
-137.897611
 30
0.0
 11
815.773038
 21
-137.897611
 31
0.0
  0
LINE
  8
0
  6
BYLAYER
 62
     7
 10
807.773038
 20
-145.897611
 30
0.0
 11
815.773038
 21
-145.897611
 31
0.0
  0
LINE
  8
0
  6
BYLAYER
 62
     7
 10
817.773038
 20
-147.897611
 30
0.0
 11
825.611037
 21
-147.897611
 31
0.0
  0
LINE
  8
0
  6
BYLAYER
 62
     7
 10
807.773038
 20
-147.897611
 30
0.0
 11
815.773038
 21
-147.897611
 31
0.0
  0
LINE
  8
0
  6
BYLAYER
 62
     7
 10
817.773038
 20
-155.897611
 30
0.0
 11
825.611037
 21
-155.897611
 31
0.0
  0
LINE
  8
0
  6
BYLAYER
 62
     7
 10
807.773038
 20
-155.897611
 30
0.0
 11
815.773038
 21
-155.897611
 31
0.0
  0
LINE
  8
0
  6
BYLAYER
 62
     7
 10
825.611037
 20
-147.897611
 30
0.0
 11
825.611037
 21
-155.897611
 31
0.0
  0
LINE
  8
0
  6
BYLAYER
 62
     7
 10
815.773038
 20
-127.897611
 30
0.0
 11
815.773038
 21
-135.897611
 31
0.0
  0
LINE
  8
0
  6
BYLAYER
 62
     7
 10
815.773038
 20
-137.897611
 30
0.0
 11
815.773038
 21
-145.897611
 31
0.0
  0
LINE
  8
0
  6
BYLAYER
 62
     7
 10
817.773038
 20
-127.897611
 30
0.0
 11
825.773038
 21
-127.897611
 31
0.0
  0
LINE
  8
0
  6
BYLAYER
 62
     7
 10
817.773038
 20
-145.897611
 30
0.0
 11
817.773038
 21
-137.897611
 31
0.0
  0
LINE
  8
0
  6
BYLAYER
 62
     7
 10
817.773038
 20
-135.897611
 30
0.0
 11
817.773038
 21
-127.897611
 31
0.0
  0
LINE
  8
0
  6
BYLAYER
 62
     7
 10
817.773038
 20
-135.897611
 30
0.0
 11
825.773038
 21
-135.897611
 31
0.0
  0
LINE
  8
0
  6
BYLAYER
 62
     7
 10
817.773038
 20
-137.897611
 30
0.0
 11
825.773038
 21
-137.897611
 31
0.0
  0
LINE
  8
0
  6
BYLAYER
 62
     7
 10
817.773038
 20
-145.897611
 30
0.0
 11
825.773038
 21
-145.897611
 31
0.0
  0
LINE
  8
0
  6
BYLAYER
 62
     7
 10
825.773038
 20
-127.897611
 30
0.0
 11
825.773038
 21
-135.897611
 31
0.0
  0
LINE
  8
0
  6
BYLAYER
 62
     7
 10
825.773038
 20
-137.897611
 30
0.0
 11
825.773038
 21
-145.897611
 31
0.0
  0
LINE
  8
0
  6
BYLAYER
 62
     7
 10
827.773038
 20
-127.897611
 30
0.0
 11
835.773038
 21
-127.897611
 31
0.0
  0
LINE
  8
0
  6
BYLAYER
 62
     7
 10
827.773038
 20
-145.897611
 30
0.0
 11
827.773038
 21
-137.897611
 31
0.0
  0
LINE
  8
0
  6
BYLAYER
 62
     7
 10
827.773038
 20
-135.897611
 30
0.0
 11
827.773038
 21
-127.897611
 31
0.0
  0
LINE
  8
0
  6
BYLAYER
 62
     7
 10
827.773038
 20
-135.897611
 30
0.0
 11
835.773038
 21
-135.897611
 31
0.0
  0
LINE
  8
0
  6
BYLAYER
 62
     7
 10
827.773038
 20
-137.897611
 30
0.0
 11
835.773038
 21
-137.897611
 31
0.0
  0
LINE
  8
0
  6
BYLAYER
 62
     7
 10
827.773038
 20
-145.897611
 30
0.0
 11
835.773038
 21
-145.897611
 31
0.0
  0
LINE
  8
0
  6
BYLAYER
 62
     7
 10
835.773038
 20
-127.897611
 30
0.0
 11
835.773038
 21
-135.897611
 31
0.0
  0
LINE
  8
0
  6
BYLAYER
 62
     7
 10
835.773038
 20
-137.897611
 30
0.0
 11
835.773038
 21
-145.897611
 31
0.0
  0
LINE
  8
0
  6
BYLAYER
 62
     7
 10
817.773038
 20
-117.897611
 30
0.0
 11
825.773038
 21
-117.897611
 31
0.0
  0
LINE
  8
0
  6
BYLAYER
 62
     7
 10
817.773038
 20
-125.897611
 30
0.0
 11
817.773038
 21
-117.897611
 31
0.0
  0
LINE
  8
0
  6
BYLAYER
 62
     7
 10
817.773038
 20
-125.897611
 30
0.0
 11
825.773038
 21
-125.897611
 31
0.0
  0
LINE
  8
0
  6
BYLAYER
 62
     7
 10
825.773038
 20
-117.897611
 30
0.0
 11
825.773038
 21
-125.897611
 31
0.0
  0
LINE
  8
0
  6
BYLAYER
 62
     7
 10
827.773038
 20
-117.897611
 30
0.0
 11
835.773038
 21
-117.897611
 31
0.0
  0
LINE
  8
0
  6
BYLAYER
 62
     7
 10
827.773038
 20
-125.897611
 30
0.0
 11
827.773038
 21
-117.897611
 31
0.0
  0
LINE
  8
0
  6
BYLAYER
 62
     7
 10
827.773038
 20
-125.897611
 30
0.0
 11
835.773038
 21
-125.897611
 31
0.0
  0
LINE
  8
0
  6
BYLAYER
 62
     7
 10
835.773038
 20
-117.897611
 30
0.0
 11
835.773038
 21
-125.897611
 31
0.0
  0
LINE
  8
0
  6
BYLAYER
 62
     7
 10
837.773038
 20
-127.897611
 30
0.0
 11
845.773038
 21
-127.897611
 31
0.0
  0
LINE
  8
0
  6
BYLAYER
 62
     7
 10
837.773038
 20
-135.897611
 30
0.0
 11
837.773038
 21
-127.897611
 31
0.0
  0
LINE
  8
0
  6
BYLAYER
 62
     7
 10
837.773038
 20
-135.897611
 30
0.0
 11
845.773038
 21
-135.897611
 31
0.0
  0
LINE
  8
0
  6
BYLAYER
 62
     7
 10
845.773038
 20
-127.897611
 30
0.0
 11
845.773038
 21
-135.897611
 31
0.0
  0
LINE
  8
0
  6
BYLAYER
 62
     7
 10
837.773038
 20
-117.897611
 30
0.0
 11
845.773038
 21
-117.897611
 31
0.0
  0
LINE
  8
0
  6
BYLAYER
 62
     7
 10
837.773038
 20
-125.897611
 30
0.0
 11
837.773038
 21
-117.897611
 31
0.0
  0
LINE
  8
0
  6
BYLAYER
 62
     7
 10
837.773038
 20
-125.897611
 30
0.0
 11
845.773038
 21
-125.897611
 31
0.0
  0
LINE
  8
0
  6
BYLAYER
 62
     7
 10
845.773038
 20
-117.897611
 30
0.0
 11
845.773038
 21
-125.897611
 31
0.0
  0
LINE
  8
0
  6
BYLAYER
 62
     7
 10
807.773038
 20
-165.897611
 30
0.0
 11
807.773038
 21
-157.897611
 31
0.0
  0
LINE
  8
0
  6
BYLAYER
 62
     7
 10
815.773038
 20
-157.897611
 30
0.0
 11
815.773038
 21
-165.897611
 31
0.0
  0
LINE
  8
0
  6
BYLAYER
 62
     7
 10
807.773038
 20
-157.897611
 30
0.0
 11
815.773038
 21
-157.897611
 31
0.0
  0
LINE
  8
0
  6
BYLAYER
 62
     7
 10
807.773038
 20
-165.897611
 30
0.0
 11
815.773038
 21
-165.897611
 31
0.0
  0
LINE
  8
0
  6
BYLAYER
 62
     7
 10
827.773038
 20
-155.897611
 30
0.0
 11
827.773038
 21
-147.897611
 31
0.0
  0
LINE
  8
0
  6
BYLAYER
 62
     7
 10
827.773038
 20
-147.897611
 30
0.0
 11
835.773038
 21
-147.897611
 31
0.0
  0
LINE
  8
0
  6
BYLAYER
 62
     7
 10
827.773038
 20
-155.897611
 30
0.0
 11
835.773038
 21
-155.897611
 31
0.0
  0
LINE
  8
0
  6
BYLAYER
 62
     7
 10
835.773038
 20
-147.897611
 30
0.0
 11
835.773038
 21
-155.897611
 31
0.0
  0
LINE
  8
0
  6
BYLAYER
 62
     7
 10
847.773038
 20
-117.897611
 30
0.0
 11
855.773038
 21
-117.897611
 31
0.0
  0
LINE
  8
0
  6
BYLAYER
 62
     7
 10
847.773038
 20
-125.897611
 30
0.0
 11
847.773038
 21
-117.897611
 31
0.0
  0
LINE
  8
0
  6
BYLAYER
 62
     7
 10
847.773038
 20
-125.897611
 30
0.0
 11
855.773038
 21
-125.897611
 31
0.0
  0
LINE
  8
0
  6
BYLAYER
 62
     7
 10
855.773038
 20
-117.897611
 30
0.0
 11
855.773038
 21
-125.897611
 31
0.0
  0
LINE
  8
0
  6
BYLAYER
 62
     7
 10
837.773038
 20
-137.897611
 30
0.0
 11
845.773038
 21
-137.897611
 31
0.0
  0
LINE
  8
0
  6
BYLAYER
 62
     7
 10
837.773038
 20
-145.897611
 30
0.0
 11
837.773038
 21
-137.897611
 31
0.0
  0
LINE
  8
0
  6
BYLAYER
 62
     7
 10
837.773038
 20
-145.897611
 30
0.0
 11
845.773038
 21
-145.897611
 31
0.0
  0
LINE
  8
0
  6
BYLAYER
 62
     7
 10
845.773038
 20
-137.897611
 30
0.0
 11
845.773038
 21
-145.897611
 31
0.0
  0
LINE
  8
0
  6
BYLAYER
 62
     7
 10
805.773038
 20
-105.897611
 30
0.0
 11
797.773038
 21
-105.897611
 31
0.0
  0
LINE
  8
0
  6
BYLAYER
 62
     7
 10
805.773038
 20
-87.897611
 30
0.0
 11
805.773038
 21
-95.897611
 31
0.0
  0
LINE
  8
0
  6
BYLAYER
 62
     7
 10
805.773038
 20
-77.897611
 30
0.0
 11
805.773038
 21
-85.897611
 31
0.0
  0
LINE
  8
0
  6
BYLAYER
 62
     7
 10
805.773038
 20
-97.897611
 30
0.0
 11
805.773038
 21
-105.897611
 31
0.0
  0
LINE
  8
0
  6
BYLAYER
 62
     7
 10
797.773038
 20
-85.897611
 30
0.0
 11
797.773038
 21
-77.897611
 31
0.0
  0
LINE
  8
0
  6
BYLAYER
 62
     7
 10
795.773038
 20
-85.897611
 30
0.0
 11
795.773038
 21
-77.897611
 31
0.0
  0
LINE
  8
0
  6
BYLAYER
 62
     7
 10
805.773038
 20
-97.897611
 30
0.0
 11
797.773038
 21
-97.897611
 31
0.0
  0
LINE
  8
0
  6
BYLAYER
 62
     7
 10
805.773038
 20
-95.897611
 30
0.0
 11
797.773038
 21
-95.897611
 31
0.0
  0
LINE
  8
0
  6
BYLAYER
 62
     7
 10
805.773038
 20
-87.897611
 30
0.0
 11
797.773038
 21
-87.897611
 31
0.0
  0
LINE
  8
0
  6
BYLAYER
 62
     7
 10
795.773038
 20
-85.897611
 30
0.0
 11
787.935039
 21
-85.897611
 31
0.0
  0
LINE
  8
0
  6
BYLAYER
 62
     7
 10
805.773038
 20
-85.897611
 30
0.0
 11
797.773038
 21
-85.897611
 31
0.0
  0
LINE
  8
0
  6
BYLAYER
 62
     7
 10
795.773038
 20
-77.897611
 30
0.0
 11
787.935039
 21
-77.897611
 31
0.0
  0
LINE
  8
0
  6
BYLAYER
 62
     7
 10
805.773038
 20
-77.897611
 30
0.0
 11
797.773038
 21
-77.897611
 31
0.0
  0
LINE
  8
0
  6
BYLAYER
 62
     7
 10
787.935039
 20
-85.897611
 30
0.0
 11
787.935039
 21
-77.897611
 31
0.0
  0
LINE
  8
0
  6
BYLAYER
 62
     7
 10
797.773038
 20
-105.897611
 30
0.0
 11
797.773038
 21
-97.897611
 31
0.0
  0
LINE
  8
0
  6
BYLAYER
 62
     7
 10
797.773038
 20
-95.897611
 30
0.0
 11
797.773038
 21
-87.897611
 31
0.0
  0
LINE
  8
0
  6
BYLAYER
 62
     7
 10
795.773038
 20
-105.897611
 30
0.0
 11
787.773038
 21
-105.897611
 31
0.0
  0
LINE
  8
0
  6
BYLAYER
 62
     7
 10
795.773038
 20
-87.897611
 30
0.0
 11
795.773038
 21
-95.897611
 31
0.0
  0
LINE
  8
0
  6
BYLAYER
 62
     7
 10
795.773038
 20
-97.897611
 30
0.0
 11
795.773038
 21
-105.897611
 31
0.0
  0
LINE
  8
0
  6
BYLAYER
 62
     7
 10
795.773038
 20
-97.897611
 30
0.0
 11
787.773038
 21
-97.897611
 31
0.0
  0
LINE
  8
0
  6
BYLAYER
 62
     7
 10
795.773038
 20
-95.897611
 30
0.0
 11
787.773038
 21
-95.897611
 31
0.0
  0
LINE
  8
0
  6
BYLAYER
 62
     7
 10
795.773038
 20
-87.897611
 30
0.0
 11
787.773038
 21
-87.897611
 31
0.0
  0
LINE
  8
0
  6
BYLAYER
 62
     7
 10
787.773038
 20
-105.897611
 30
0.0
 11
787.773038
 21
-97.897611
 31
0.0
  0
LINE
  8
0
  6
BYLAYER
 62
     7
 10
787.773038
 20
-95.897611
 30
0.0
 11
787.773038
 21
-87.897611
 31
0.0
  0
LINE
  8
0
  6
BYLAYER
 62
     7
 10
785.773038
 20
-105.897611
 30
0.0
 11
777.773038
 21
-105.897611
 31
0.0
  0
LINE
  8
0
  6
BYLAYER
 62
     7
 10
785.773038
 20
-87.897611
 30
0.0
 11
785.773038
 21
-95.897611
 31
0.0
  0
LINE
  8
0
  6
BYLAYER
 62
     7
 10
785.773038
 20
-97.897611
 30
0.0
 11
785.773038
 21
-105.897611
 31
0.0
  0
LINE
  8
0
  6
BYLAYER
 62
     7
 10
785.773038
 20
-97.897611
 30
0.0
 11
777.773038
 21
-97.897611
 31
0.0
  0
LINE
  8
0
  6
BYLAYER
 62
     7
 10
785.773038
 20
-95.897611
 30
0.0
 11
777.773038
 21
-95.897611
 31
0.0
  0
LINE
  8
0
  6
BYLAYER
 62
     7
 10
785.773038
 20
-87.897611
 30
0.0
 11
777.773038
 21
-87.897611
 31
0.0
  0
LINE
  8
0
  6
BYLAYER
 62
     7
 10
777.773038
 20
-105.897611
 30
0.0
 11
777.773038
 21
-97.897611
 31
0.0
  0
LINE
  8
0
  6
BYLAYER
 62
     7
 10
777.773038
 20
-95.897611
 30
0.0
 11
777.773038
 21
-87.897611
 31
0.0
  0
LINE
  8
0
  6
BYLAYER
 62
     7
 10
795.773038
 20
-115.897611
 30
0.0
 11
787.773038
 21
-115.897611
 31
0.0
  0
LINE
  8
0
  6
BYLAYER
 62
     7
 10
795.773038
 20
-107.897611
 30
0.0
 11
795.773038
 21
-115.897611
 31
0.0
  0
LINE
  8
0
  6
BYLAYER
 62
     7
 10
795.773038
 20
-107.897611
 30
0.0
 11
787.773038
 21
-107.897611
 31
0.0
  0
LINE
  8
0
  6
BYLAYER
 62
     7
 10
787.773038
 20
-115.897611
 30
0.0
 11
787.773038
 21
-107.897611
 31
0.0
  0
LINE
  8
0
  6
BYLAYER
 62
     7
 10
785.773038
 20
-115.897611
 30
0.0
 11
777.773038
 21
-115.897611
 31
0.0
  0
LINE
  8
0
  6
BYLAYER
 62
     7
 10
785.773038
 20
-107.897611
 30
0.0
 11
785.773038
 21
-115.897611
 31
0.0
  0
LINE
  8
0
  6
BYLAYER
 62
     7
 10
785.773038
 20
-107.897611
 30
0.0
 11
777.773038
 21
-107.897611
 31
0.0
  0
LINE
  8
0
  6
BYLAYER
 62
     7
 10
777.773038
 20
-115.897611
 30
0.0
 11
777.773038
 21
-107.897611
 31
0.0
  0
LINE
  8
0
  6
BYLAYER
 62
     7
 10
775.773038
 20
-105.897611
 30
0.0
 11
767.773038
 21
-105.897611
 31
0.0
  0
LINE
  8
0
  6
BYLAYER
 62
     7
 10
775.773038
 20
-97.897611
 30
0.0
 11
775.773038
 21
-105.897611
 31
0.0
  0
LINE
  8
0
  6
BYLAYER
 62
     7
 10
775.773038
 20
-97.897611
 30
0.0
 11
767.773038
 21
-97.897611
 31
0.0
  0
LINE
  8
0
  6
BYLAYER
 62
     7
 10
767.773038
 20
-105.897611
 30
0.0
 11
767.773038
 21
-97.897611
 31
0.0
  0
LINE
  8
0
  6
BYLAYER
 62
     7
 10
775.773038
 20
-115.897611
 30
0.0
 11
767.773038
 21
-115.897611
 31
0.0
  0
LINE
  8
0
  6
BYLAYER
 62
     7
 10
775.773038
 20
-107.897611
 30
0.0
 11
775.773038
 21
-115.897611
 31
0.0
  0
LINE
  8
0
  6
BYLAYER
 62
     7
 10
775.773038
 20
-107.897611
 30
0.0
 11
767.773038
 21
-107.897611
 31
0.0
  0
LINE
  8
0
  6
BYLAYER
 62
     7
 10
767.773038
 20
-115.897611
 30
0.0
 11
767.773038
 21
-107.897611
 31
0.0
  0
LINE
  8
0
  6
BYLAYER
 62
     7
 10
805.773038
 20
-67.897611
 30
0.0
 11
805.773038
 21
-75.897611
 31
0.0
  0
LINE
  8
0
  6
BYLAYER
 62
     7
 10
797.773038
 20
-75.897611
 30
0.0
 11
797.773038
 21
-67.897611
 31
0.0
  0
LINE
  8
0
  6
BYLAYER
 62
     7
 10
805.773038
 20
-75.897611
 30
0.0
 11
797.773038
 21
-75.897611
 31
0.0
  0
LINE
  8
0
  6
BYLAYER
 62
     7
 10
805.773038
 20
-67.897611
 30
0.0
 11
797.773038
 21
-67.897611
 31
0.0
  0
LINE
  8
0
  6
BYLAYER
 62
     7
 10
785.773038
 20
-77.897611
 30
0.0
 11
785.773038
 21
-85.897611
 31
0.0
  0
LINE
  8
0
  6
BYLAYER
 62
     7
 10
785.773038
 20
-85.897611
 30
0.0
 11
777.773038
 21
-85.897611
 31
0.0
  0
LINE
  8
0
  6
BYLAYER
 62
     7
 10
785.773038
 20
-77.897611
 30
0.0
 11
777.773038
 21
-77.897611
 31
0.0
  0
LINE
  8
0
  6
BYLAYER
 62
     7
 10
777.773038
 20
-85.897611
 30
0.0
 11
777.773038
 21
-77.897611
 31
0.0
  0
LINE
  8
0
  6
BYLAYER
 62
     7
 10
765.773038
 20
-115.897611
 30
0.0
 11
757.773038
 21
-115.897611
 31
0.0
  0
LINE
  8
0
  6
BYLAYER
 62
     7
 10
765.773038
 20
-107.897611
 30
0.0
 11
765.773038
 21
-115.897611
 31
0.0
  0
LINE
  8
0
  6
BYLAYER
 62
     7
 10
765.773038
 20
-107.897611
 30
0.0
 11
757.773038
 21
-107.897611
 31
0.0
  0
LINE
  8
0
  6
BYLAYER
 62
     7
 10
757.773038
 20
-115.897611
 30
0.0
 11
757.773038
 21
-107.897611
 31
0.0
  0
LINE
  8
0
  6
BYLAYER
 62
     7
 10
775.773038
 20
-95.897611
 30
0.0
 11
767.773038
 21
-95.897611
 31
0.0
  0
LINE
  8
0
  6
BYLAYER
 62
     7
 10
775.773038
 20
-87.897611
 30
0.0
 11
775.773038
 21
-95.897611
 31
0.0
  0
LINE
  8
0
  6
BYLAYER
 62
     7
 10
775.773038
 20
-87.897611
 30
0.0
 11
767.773038
 21
-87.897611
 31
0.0
  0
LINE
  8
0
  6
BYLAYER
 62
     7
 10
767.773038
 20
-95.897611
 30
0.0
 11
767.773038
 21
-87.897611
 31
0.0
  0
LINE
  8
0
  6
BYLAYER
 62
     7
 10
805.773038
 20
-127.897611
 30
0.0
 11
797.773038
 21
-127.897611
 31
0.0
  0
LINE
  8
0
  6
BYLAYER
 62
     7
 10
805.773038
 20
-145.897611
 30
0.0
 11
805.773038
 21
-137.897611
 31
0.0
  0
LINE
  8
0
  6
BYLAYER
 62
     7
 10
805.773038
 20
-155.897611
 30
0.0
 11
805.773038
 21
-147.897611
 31
0.0
  0
LINE
  8
0
  6
BYLAYER
 62
     7
 10
805.773038
 20
-135.897611
 30
0.0
 11
805.773038
 21
-127.897611
 31
0.0
  0
LINE
  8
0
  6
BYLAYER
 62
     7
 10
797.773038
 20
-147.897611
 30
0.0
 11
797.773038
 21
-155.897611
 31
0.0
  0
LINE
  8
0
  6
BYLAYER
 62
     7
 10
795.773038
 20
-147.897611
 30
0.0
 11
795.773038
 21
-155.897611
 31
0.0
  0
LINE
  8
0
  6
BYLAYER
 62
     7
 10
805.773038
 20
-135.897611
 30
0.0
 11
797.773038
 21
-135.897611
 31
0.0
  0
LINE
  8
0
  6
BYLAYER
 62
     7
 10
805.773038
 20
-137.897611
 30
0.0
 11
797.773038
 21
-137.897611
 31
0.0
  0
LINE
  8
0
  6
BYLAYER
 62
     7
 10
805.773038
 20
-145.897611
 30
0.0
 11
797.773038
 21
-145.897611
 31
0.0
  0
LINE
  8
0
  6
BYLAYER
 62
     7
 10
795.773038
 20
-147.897611
 30
0.0
 11
787.935039
 21
-147.897611
 31
0.0
  0
LINE
  8
0
  6
BYLAYER
 62
     7
 10
805.773038
 20
-147.897611
 30
0.0
 11
797.773038
 21
-147.897611
 31
0.0
  0
LINE
  8
0
  6
BYLAYER
 62
     7
 10
795.773038
 20
-155.897611
 30
0.0
 11
787.935039
 21
-155.897611
 31
0.0
  0
LINE
  8
0
  6
BYLAYER
 62
     7
 10
805.773038
 20
-155.897611
 30
0.0
 11
797.773038
 21
-155.897611
 31
0.0
  0
LINE
  8
0
  6
BYLAYER
 62
     7
 10
787.935039
 20
-147.897611
 30
0.0
 11
787.935039
 21
-155.897611
 31
0.0
  0
LINE
  8
0
  6
BYLAYER
 62
     7
 10
797.773038
 20
-127.897611
 30
0.0
 11
797.773038
 21
-135.897611
 31
0.0
  0
LINE
  8
0
  6
BYLAYER
 62
     7
 10
797.773038
 20
-137.897611
 30
0.0
 11
797.773038
 21
-145.897611
 31
0.0
  0
LINE
  8
0
  6
BYLAYER
 62
     7
 10
795.773038
 20
-127.897611
 30
0.0
 11
787.773038
 21
-127.897611
 31
0.0
  0
LINE
  8
0
  6
BYLAYER
 62
     7
 10
795.773038
 20
-145.897611
 30
0.0
 11
795.773038
 21
-137.897611
 31
0.0
  0
LINE
  8
0
  6
BYLAYER
 62
     7
 10
795.773038
 20
-135.897611
 30
0.0
 11
795.773038
 21
-127.897611
 31
0.0
  0
LINE
  8
0
  6
BYLAYER
 62
     7
 10
795.773038
 20
-135.897611
 30
0.0
 11
787.773038
 21
-135.897611
 31
0.0
  0
LINE
  8
0
  6
BYLAYER
 62
     7
 10
795.773038
 20
-137.897611
 30
0.0
 11
787.773038
 21
-137.897611
 31
0.0
  0
LINE
  8
0
  6
BYLAYER
 62
     7
 10
795.773038
 20
-145.897611
 30
0.0
 11
787.773038
 21
-145.897611
 31
0.0
  0
LINE
  8
0
  6
BYLAYER
 62
     7
 10
787.773038
 20
-127.897611
 30
0.0
 11
787.773038
 21
-135.897611
 31
0.0
  0
LINE
  8
0
  6
BYLAYER
 62
     7
 10
787.773038
 20
-137.897611
 30
0.0
 11
787.773038
 21
-145.897611
 31
0.0
  0
LINE
  8
0
  6
BYLAYER
 62
     7
 10
785.773038
 20
-127.897611
 30
0.0
 11
777.773038
 21
-127.897611
 31
0.0
  0
LINE
  8
0
  6
BYLAYER
 62
     7
 10
785.773038
 20
-145.897611
 30
0.0
 11
785.773038
 21
-137.897611
 31
0.0
  0
LINE
  8
0
  6
BYLAYER
 62
     7
 10
785.773038
 20
-135.897611
 30
0.0
 11
785.773038
 21
-127.897611
 31
0.0
  0
LINE
  8
0
  6
BYLAYER
 62
     7
 10
785.773038
 20
-135.897611
 30
0.0
 11
777.773038
 21
-135.897611
 31
0.0
  0
LINE
  8
0
  6
BYLAYER
 62
     7
 10
785.773038
 20
-137.897611
 30
0.0
 11
777.773038
 21
-137.897611
 31
0.0
  0
LINE
  8
0
  6
BYLAYER
 62
     7
 10
785.773038
 20
-145.897611
 30
0.0
 11
777.773038
 21
-145.897611
 31
0.0
  0
LINE
  8
0
  6
BYLAYER
 62
     7
 10
777.773038
 20
-127.897611
 30
0.0
 11
777.773038
 21
-135.897611
 31
0.0
  0
LINE
  8
0
  6
BYLAYER
 62
     7
 10
777.773038
 20
-137.897611
 30
0.0
 11
777.773038
 21
-145.897611
 31
0.0
  0
LINE
  8
0
  6
BYLAYER
 62
     7
 10
795.773038
 20
-117.897611
 30
0.0
 11
787.773038
 21
-117.897611
 31
0.0
  0
LINE
  8
0
  6
BYLAYER
 62
     7
 10
795.773038
 20
-125.897611
 30
0.0
 11
795.773038
 21
-117.897611
 31
0.0
  0
LINE
  8
0
  6
BYLAYER
 62
     7
 10
795.773038
 20
-125.897611
 30
0.0
 11
787.773038
 21
-125.897611
 31
0.0
  0
LINE
  8
0
  6
BYLAYER
 62
     7
 10
787.773038
 20
-117.897611
 30
0.0
 11
787.773038
 21
-125.897611
 31
0.0
  0
LINE
  8
0
  6
BYLAYER
 62
     7
 10
785.773038
 20
-117.897611
 30
0.0
 11
777.773038
 21
-117.897611
 31
0.0
  0
LINE
  8
0
  6
BYLAYER
 62
     7
 10
785.773038
 20
-125.897611
 30
0.0
 11
785.773038
 21
-117.897611
 31
0.0
  0
LINE
  8
0
  6
BYLAYER
 62
     7
 10
785.773038
 20
-125.897611
 30
0.0
 11
777.773038
 21
-125.897611
 31
0.0
  0
LINE
  8
0
  6
BYLAYER
 62
     7
 10
777.773038
 20
-117.897611
 30
0.0
 11
777.773038
 21
-125.897611
 31
0.0
  0
LINE
  8
0
  6
BYLAYER
 62
     7
 10
775.773038
 20
-127.897611
 30
0.0
 11
767.773038
 21
-127.897611
 31
0.0
  0
LINE
  8
0
  6
BYLAYER
 62
     7
 10
775.773038
 20
-135.897611
 30
0.0
 11
775.773038
 21
-127.897611
 31
0.0
  0
LINE
  8
0
  6
BYLAYER
 62
     7
 10
775.773038
 20
-135.897611
 30
0.0
 11
767.773038
 21
-135.897611
 31
0.0
  0
LINE
  8
0
  6
BYLAYER
 62
     7
 10
767.773038
 20
-127.897611
 30
0.0
 11
767.773038
 21
-135.897611
 31
0.0
  0
LINE
  8
0
  6
BYLAYER
 62
     7
 10
775.773038
 20
-117.897611
 30
0.0
 11
767.773038
 21
-117.897611
 31
0.0
  0
LINE
  8
0
  6
BYLAYER
 62
     7
 10
775.773038
 20
-125.897611
 30
0.0
 11
775.773038
 21
-117.897611
 31
0.0
  0
LINE
  8
0
  6
BYLAYER
 62
     7
 10
775.773038
 20
-125.897611
 30
0.0
 11
767.773038
 21
-125.897611
 31
0.0
  0
LINE
  8
0
  6
BYLAYER
 62
     7
 10
767.773038
 20
-117.897611
 30
0.0
 11
767.773038
 21
-125.897611
 31
0.0
  0
LINE
  8
0
  6
BYLAYER
 62
     7
 10
805.773038
 20
-165.897611
 30
0.0
 11
805.773038
 21
-157.897611
 31
0.0
  0
LINE
  8
0
  6
BYLAYER
 62
     7
 10
797.773038
 20
-157.897611
 30
0.0
 11
797.773038
 21
-165.897611
 31
0.0
  0
LINE
  8
0
  6
BYLAYER
 62
     7
 10
805.773038
 20
-157.897611
 30
0.0
 11
797.773038
 21
-157.897611
 31
0.0
  0
LINE
  8
0
  6
BYLAYER
 62
     7
 10
805.773038
 20
-165.897611
 30
0.0
 11
797.773038
 21
-165.897611
 31
0.0
  0
LINE
  8
0
  6
BYLAYER
 62
     7
 10
785.773038
 20
-155.897611
 30
0.0
 11
785.773038
 21
-147.897611
 31
0.0
  0
LINE
  8
0
  6
BYLAYER
 62
     7
 10
785.773038
 20
-147.897611
 30
0.0
 11
777.773038
 21
-147.897611
 31
0.0
  0
LINE
  8
0
  6
BYLAYER
 62
     7
 10
785.773038
 20
-155.897611
 30
0.0
 11
777.773038
 21
-155.897611
 31
0.0
  0
LINE
  8
0
  6
BYLAYER
 62
     7
 10
777.773038
 20
-147.897611
 30
0.0
 11
777.773038
 21
-155.897611
 31
0.0
  0
LINE
  8
0
  6
BYLAYER
 62
     7
 10
765.773038
 20
-117.897611
 30
0.0
 11
757.773038
 21
-117.897611
 31
0.0
  0
LINE
  8
0
  6
BYLAYER
 62
     7
 10
765.773038
 20
-125.897611
 30
0.0
 11
765.773038
 21
-117.897611
 31
0.0
  0
LINE
  8
0
  6
BYLAYER
 62
     7
 10
765.773038
 20
-125.897611
 30
0.0
 11
757.773038
 21
-125.897611
 31
0.0
  0
LINE
  8
0
  6
BYLAYER
 62
     7
 10
757.773038
 20
-117.897611
 30
0.0
 11
757.773038
 21
-125.897611
 31
0.0
  0
LINE
  8
0
  6
BYLAYER
 62
     7
 10
775.773038
 20
-137.897611
 30
0.0
 11
767.773038
 21
-137.897611
 31
0.0
  0
LINE
  8
0
  6
BYLAYER
 62
     7
 10
775.773038
 20
-145.897611
 30
0.0
 11
775.773038
 21
-137.897611
 31
0.0
  0
LINE
  8
0
  6
BYLAYER
 62
     7
 10
775.773038
 20
-145.897611
 30
0.0
 11
767.773038
 21
-145.897611
 31
0.0
  0
LINE
  8
0
  6
BYLAYER
 62
     7
 10
767.773038
 20
-137.897611
 30
0.0
 11
767.773038
 21
-145.897611
 31
0.0
  0
ARC
  8
0
  6
BYLAYER
 62
     7
 10
842.523038
 20
-29.397611
 30
0.0
 40
1.500000
 50
180.000000
 51
265.219808
  0
ARC
  8
0
  6
BYLAYER
 62
     7
 10
771.023038
 20
-29.397611
 30
0.0
 40
1.5
 50
274.780192
 51
360.0
  0
ARC
  8
0
  6
BYLAYER
 62
     7
 10
779.018700
 20
-29.397611
 30
0.0
 40
1.500000
 50
270.0
 51
360.0
  0
LINE
  8
0
  6
BYLAYER
 62
     7
 10
841.023038
 20
-29.397611
 30
0.0
 11
841.023038
 21
-7.897611
 31
0.0
  0
LINE
  8
0
  6
BYLAYER
 62
     7
 10
839.523038
 20
-6.397611
 30
0.0
 11
774.023038
 21
-6.397611
 31
0.0
  0
ARC
  8
0
  6
BYLAYER
 62
     7
 10
839.523038
 20
-7.897611
 30
0.0
 40
1.5
 50
0.0
 51
90.0
  0
ARC
  8
0
  6
BYLAYER
 62
     7
 10
774.023038
 20
-7.897611
 30
0.0
 40
1.500000
 50
90.0
 51
180.0
  0
LINE
  8
0
  6
BYLAYER
 62
     7
 10
772.523038
 20
-29.397611
 30
0.0
 11
772.523038
 21
-7.897611
 31
0.0
  0
LINE
  8
0
  6
BYLAYER
 62
     7
 10
780.518700
 20
-29.397611
 30
0.0
 11
780.518700
 21
-7.897611
 31
0.0
  0
ARC
  8
0
  6
BYLAYER
 62
     7
 10
782.018700
 20
-7.897611
 30
0.0
 40
1.5
 50
90.0
 51
180.0
  0
ARC
  8
0
  6
BYLAYER
 62
     7
 10
831.527376
 20
-7.897611
 30
0.0
 40
1.500000
 50
0.0
 51
90.0
  0
LINE
  8
0
  6
BYLAYER
 62
     7
 10
786.179385
 20
-6.397611
 30
0.0
 11
786.671932
 21
-20.502309
 31
0.0
  0
ARC
  8
0
  6
BYLAYER
 62
     7
 10
789.670104
 20
-20.397611
 30
0.0
 40
3.000000
 50
182.000000
 51
270.000000
  0
LINE
  8
0
  6
BYLAYER
 62
     7
 10
796.874144
 20
-20.502309
 30
0.0
 11
797.366691
 21
-6.397611
 31
0.0
  0
ARC
  8
0
  6
BYLAYER
 62
     7
 10
793.875972
 20
-20.397611
 30
0.0
 40
3.000000
 50
270.0
 51
358.0
  0
LINE
  8
0
  6
BYLAYER
 62
     7
 10
811.874144
 20
-20.502309
 30
0.0
 11
812.366691
 21
-6.397611
 31
0.0
  0
ARC
  8
0
  6
BYLAYER
 62
     7
 10
808.875972
 20
-20.397611
 30
0.0
 40
3.0
 50
270.0
 51
358.0
  0
LINE
  8
0
  6
BYLAYER
 62
     7
 10
826.874144
 20
-20.502309
 30
0.0
 11
827.366691
 21
-6.397611
 31
0.0
  0
ARC
  8
0
  6
BYLAYER
 62
     7
 10
823.875972
 20
-20.397611
 30
0.0
 40
3.0
 50
270.0
 51
358.0
  0
LINE
  8
0
  6
BYLAYER
 62
     7
 10
816.179385
 20
-6.397611
 30
0.0
 11
816.671932
 21
-20.502309
 31
0.0
  0
ARC
  8
0
  6
BYLAYER
 62
     7
 10
819.670104
 20
-20.397611
 30
0.0
 40
3.000000
 50
182.000000
 51
270.000000
  0
LINE
  8
0
  6
BYLAYER
 62
     7
 10
801.179385
 20
-6.397611
 30
0.0
 11
801.671932
 21
-20.502309
 31
0.0
  0
ARC
  8
0
  6
BYLAYER
 62
     7
 10
804.670104
 20
-20.397611
 30
0.0
 40
3.000000
 50
182.000000
 51
270.000000
  0
LINE
  8
0
  6
BYLAYER
 62
     7
 10
819.670104
 20
-23.397611
 30
0.0
 11
823.875972
 21
-23.397611
 31
0.0
  0
LINE
  8
0
  6
BYLAYER
 62
     7
 10
804.670104
 20
-23.397611
 30
0.0
 11
808.875972
 21
-23.397611
 31
0.0
  0
LINE
  8
0
  6
BYLAYER
 62
     7
 10
789.670104
 20
-23.397611
 30
0.0
 11
793.875972
 21
-23.397611
 31
0.0
  0
LINE
  8
0
  6
BYLAYER
 62
     7
 10
801.214306
 20
-7.397611
 30
0.0
 11
812.331770
 21
-7.397611
 31
0.0
  0
LINE
  8
0
  6
BYLAYER
 62
     7
 10
816.214306
 20
-7.397611
 30
0.0
 11
827.331770
 21
-7.397611
 31
0.0
  0
LINE
  8
0
  6
BYLAYER
 62
     7
 10
786.214306
 20
-7.397611
 30
0.0
 11
797.331770
 21
-7.397611
 31
0.0
  0
LINE
  8
0
  6
BYLAYER
 62
     7
 10
833.027376
 20
-7.897611
 30
0.0
 11
833.027376
 21
-29.397611
 31
0.0
  0
ARC
  8
0
  6
BYLAYER
 62
     7
 10
771.273038
 20
-32.387176
 30
0.0
 40
1.5
 50
94.780192
 51
180.000000
  0
LINE
  8
0
  6
BYLAYER
 62
     7
 10
771.273038
 20
-30.897611
 30
0.0
 11
842.523038
 21
-30.897611
 31
0.0
  0
ARC
  8
0
  6
BYLAYER
 62
     7
 10
842.273038
 20
-32.387176
 30
0.0
 40
1.500000
 50
0.0
 51
85.219808
  0
LINE
  8
0
  6
BYLAYER
 62
     7
 10
843.773038
 20
-39.897611
 30
0.0
 11
843.773038
 21
-32.387176
 31
0.0
  0
ARC
  8
0
  6
BYLAYER
 62
     7
 10
834.527376
 20
-29.397611
 30
0.0
 40
1.500000
 50
180.000000
 51
270.000000
  0
LINE
  8
0
  6
BYLAYER
 62
     7
 10
843.773038
 20
-37.897550
 30
0.0
 11
769.773038
 21
-37.897550
 31
0.0
  0
LINE
  8
0
  6
BYLAYER
 62
     7
 10
769.773038
 20
-32.387176
 30
0.0
 11
769.773038
 21
-39.897611
 31
0.0
  0
LINE
  8
0
  6
BYLAYER
 62
     7
 10
769.773038
 20
-39.897611
 30
0.0
 11
843.773038
 21
-39.897611
 31
0.0
  0
ARC
  8
0
  6
BYLAYER
 62
     1
 10
770.773038
 20
-616.897611
 30
0.0
 40
80.0
 50
149.713240
 51
390.286760
  0
ARC
  8
0
  6
BYLAYER
 62
     1
 10
770.772996
 20
-566.897642
 30
0.0
 40
67.500000
 50
312.959520
 51
587.040480
  0
ARC
  8
0
  6
BYLAYER
 62
     1
 10
724.811136
 20
-662.859591
 30
0.0
 40
4.250000
 50
54.601413
 51
305.398587
  0
ARC
  8
0
  6
BYLAYER
 62
     1
 10
816.735018
 20
-662.859513
 30
0.0
 40
4.250000
 50
234.598726
 51
485.401274
  0
LINE
  8
0
  6
BYLAYER
 62
     1
 10
703.830164
 20
-575.552540
 30
0.0
 11
703.384188
 21
-575.560324
 31
0.0
  0
ARC
  8
0
  6
BYLAYER
 62
     1
 10
703.419093
 20
-577.560020
 30
0.0
 40
2.0
 50
91.000000
 51
149.713240
  0
LINE
  8
0
  6
BYLAYER
 62
     1
 10
837.715828
 20
-575.552538
 30
0.0
 11
838.161888
 21
-575.560324
 31
0.0
  0
ARC
  8
0
  6
BYLAYER
 62
     1
 10
838.126983
 20
-577.560020
 30
0.0
 40
2.000000
 50
30.286760
 51
89.0
  0
LINE
  8
0
  6
BYLAYER
 62
     1
 10
724.772996
 20
-616.408745
 30
0.0
 11
690.790587
 21
-615.222053
 31
0.0
  0
LINE
  8
0
  6
BYLAYER
 62
     1
 10
724.772996
 20
-647.386531
 30
0.0
 11
697.214780
 21
-648.348885
 31
0.0
  0
LINE
  8
0
  6
BYLAYER
 62
     1
 10
773.273059
 20
-680.897558
 30
0.0
 11
773.273059
 21
-674.811888
 31
0.0
  0
ARC
  8
0
  6
BYLAYER
 62
     1
 10
772.273059
 20
-680.897558
 30
0.0
 40
1.000000
 50
270.0
 51
360.0
  0
LINE
  8
0
  6
BYLAYER
 62
     1
 10
768.273059
 20
-680.897558
 30
0.0
 11
768.273059
 21
-674.811888
 31
0.0
  0
ARC
  8
0
  6
BYLAYER
 62
     1
 10
769.273059
 20
-680.897558
 30
0.0
 40
1.000000
 50
180.000000
 51
270.000000
  0
LINE
  8
0
  6
BYLAYER
 62
     1
 10
772.273059
 20
-681.897558
 30
0.0
 11
769.273059
 21
-681.897558
 31
0.0
  0
LINE
  8
0
  6
BYLAYER
 62
     7
 10
805.023038
 20
-508.732492
 30
0.0
 11
805.023038
 21
-507.897611
 31
0.0
  0
LINE
  8
0
  6
BYLAYER
 62
     7
 10
740.839798
 20
-506.397611
 30
0.0
 11
738.023038
 21
-506.397611
 31
0.0
  0
ARC
  8
0
  6
BYLAYER
 62
     7
 10
803.523038
 20
-507.897611
 30
0.0
 40
1.500000
 50
0.0
 51
90.0
  0
ARC
  8
0
  6
BYLAYER
 62
     7
 10
738.023038
 20
-507.897611
 30
0.0
 40
1.5
 50
90.0
 51
180.0
  0
LINE
  8
0
  6
BYLAYER
 62
     7
 10
736.523038
 20
-508.732442
 30
0.0
 11
736.523038
 21
-507.897611
 31
0.0
  0
LINE
  8
0
  6
BYLAYER
 62
     7
 10
800.706193
 20
-506.397611
 30
0.0
 11
803.523038
 21
-506.397611
 31
0.0
  0
LINE
  8
0
  6
BYLAYER
 62
     1
 10
728.272996
 20
-532.897642
 30
0.0
 11
728.272996
 21
-562.897642
 31
0.0
  0
LINE
  8
0
  6
BYLAYER
 62
     1
 10
728.272996
 20
-562.897642
 30
0.0
 11
729.772996
 21
-564.397642
 31
0.0
  0
LINE
  8
0
  6
BYLAYER
 62
     1
 10
728.272996
 20
-532.897642
 30
0.0
 11
746.272996
 21
-532.897642
 31
0.0
  0
LINE
  8
0
  6
BYLAYER
 62
     1
 10
728.272996
 20
-676.897703
 30
0.0
 11
746.272996
 21
-676.897703
 31
0.0
  0
CIRCLE
  8
0
  6
BYLAYER
 62
     1
 10
805.772996
 20
-552.897642
 30
0.0
 40
4.250000
  0
CIRCLE
  8
0
  6
BYLAYER
 62
     1
 10
805.772996
 20
-656.897703
 30
0.0
 40
4.250000
  0
LINE
  8
0
  6
BYLAYER
 62
     1
 10
724.772996
 20
-582.897642
 30
0.0
 11
725.772996
 21
-581.897642
 31
0.0
  0
LINE
  8
0
  6
BYLAYER
 62
     1
 10
725.772996
 20
-581.897642
 30
0.0
 11
727.272996
 21
-581.897642
 31
0.0
  0
LINE
  8
0
  6
BYLAYER
 62
     1
 10
727.272996
 20
-651.897703
 30
0.0
 11
725.772996
 21
-651.897703
 31
0.0
  0
LINE
  8
0
  6
BYLAYER
 62
     1
 10
725.772996
 20
-651.897703
 30
0.0
 11
724.772996
 21
-650.897703
 31
0.0
  0
LINE
  8
0
  6
BYLAYER
 62
     1
 10
724.772996
 20
-650.897703
 30
0.0
 11
724.772996
 21
-582.897642
 31
0.0
  0
LINE
  8
0
  6
BYLAYER
 62
     1
 10
729.772996
 20
-566.810362
 30
0.0
 11
727.272996
 21
-566.897642
 31
0.0
  0
LINE
  8
0
  6
BYLAYER
 62
     1
 10
728.272996
 20
-666.932737
 30
0.0
 11
727.272996
 21
-666.897703
 31
0.0
  0
LINE
  8
0
  6
BYLAYER
 62
     1
 10
728.272996
 20
-666.932615
 30
0.0
 11
727.272996
 21
-666.897703
 31
0.0
  0
CIRCLE
  8
0
  6
BYLAYER
 62
     1
 10
735.772996
 20
-656.897703
 30
0.0
 40
4.25
  0
LINE
  8
0
  6
BYLAYER
 62
     1
 10
728.272996
 20
-646.897703
 30
0.0
 11
729.772996
 21
-645.397703
 31
0.0
  0
LINE
  8
0
  6
BYLAYER
 62
     1
 10
728.272996
 20
-646.897703
 30
0.0
 11
728.272996
 21
-676.897703
 31
0.0
  0
LINE
  8
0
  6
BYLAYER
 62
     1
 10
729.772996
 20
-645.397703
 30
0.0
 11
729.772996
 21
-564.397642
 31
0.0
  0
LINE
  8
0
  6
BYLAYER
 62
     1
 10
728.272996
 20
-646.897703
 30
0.0
 11
746.272996
 21
-646.897703
 31
0.0
  0
LINE
  8
0
  6
BYLAYER
 62
     1
 10
729.772996
 20
-645.397703
 30
0.0
 11
746.272996
 21
-645.397703
 31
0.0
  0
LINE
  8
0
  6
BYLAYER
 62
     1
 10
727.272996
 20
-566.897642
 30
0.0
 11
727.272996
 21
-666.897703
 31
0.0
  0
LINE
  8
0
  6
BYLAYER
 62
     1
 10
795.272996
 20
-534.397642
 30
0.0
 11
746.272996
 21
-534.397642
 31
0.0
  0
CIRCLE
  8
0
  6
BYLAYER
 62
     1
 10
770.772996
 20
-566.897642
 30
0.0
 40
23.5
  0
CIRCLE
  8
0
  6
BYLAYER
 62
     1
 10
791.986131
 20
-545.684446
 30
0.0
 40
2.5
  0
CIRCLE
  8
0
  6
BYLAYER
 62
     1
 10
749.559739
 20
-545.684477
 30
0.0
 40
2.5
  0
CIRCLE
  8
0
  6
BYLAYER
 62
     1
 10
749.559739
 20
-588.110838
 30
0.0
 40
2.5
  0
CIRCLE
  8
0
  6
BYLAYER
 62
     1
 10
791.986131
 20
-588.110868
 30
0.0
 40
2.5
  0
LINE
  8
0
  6
BYLAYER
 62
     1
 10
746.272996
 20
-538.803770
 30
0.0
 11
746.272996
 21
-532.897642
 31
0.0
  0
ARC
  8
0
  6
BYLAYER
 62
     1
 10
748.272996
 20
-538.803770
 30
0.0
 40
2.0
 50
180.000000
 51
280.592963
  0
LINE
  8
0
  6
BYLAYER
 62
     1
 10
795.272996
 20
-538.803739
 30
0.0
 11
795.272996
 21
-532.897642
 31
0.0
  0
ARC
  8
0
  6
BYLAYER
 62
     1
 10
793.272996
 20
-538.803739
 30
0.0
 40
1.999999
 50
259.407470
 51
360.000003
  0
LINE
  8
0
  6
BYLAYER
 62
     1
 10
746.272996
 20
-591.878721
 30
0.0
 11
746.272996
 21
-676.897703
 31
0.0
  0
LINE
  8
0
  6
BYLAYER
 62
     1
 10
795.272996
 20
-676.897703
 30
0.0
 11
795.272996
 21
-591.878721
 31
0.0
  0
LINE
  8
0
  6
BYLAYER
 62
     1
 10
741.842088
 20
-562.897642
 30
0.0
 11
728.272996
 21
-562.897642
 31
0.0
  0
ARC
  8
0
  6
BYLAYER
 62
     1
 10
741.842088
 20
-564.897642
 30
0.0
 40
2.000000
 50
356.045188
 51
450.000000
  0
ARC
  8
0
  6
BYLAYER
 62
     1
 10
749.559739
 20
-545.684477
 30
0.0
 40
5.000019
 50
30.099438
 51
100.592680
  0
ARC
  8
0
  6
BYLAYER
 62
     1
 10
755.615892
 20
-542.173948
 30
0.0
 40
2.000038
 50
210.099802
 51
301.510887
  0
ARC
  8
0
  6
BYLAYER
 62
     1
 10
770.772996
 20
-566.897642
 30
0.0
 40
27.000027
 50
58.489253
 51
121.510841
  0
ARC
  8
0
  6
BYLAYER
 62
     1
 10
791.986131
 20
-545.684446
 30
0.0
 40
5.000012
 50
79.406980
 51
149.900563
  0
ARC
  8
0
  6
BYLAYER
 62
     1
 10
785.930100
 20
-542.173918
 30
0.0
 40
1.999980
 50
238.489114
 51
329.900186
  0
ARC
  8
0
  6
BYLAYER
 62
     1
 10
799.703904
 20
-564.897642
 30
0.0
 40
2.000002
 50
90.0
 51
183.954805
  0
ARC
  8
0
  6
BYLAYER
 62
     1
 10
785.930100
 20
-591.621397
 30
0.0
 40
2.000006
 50
30.099804
 51
121.510418
  0
ARC
  8
0
  6
BYLAYER
 62
     1
 10
791.986131
 20
-588.110868
 30
0.0
 40
4.999913
 50
210.099433
 51
419.900564
  0
ARC
  8
0
  6
BYLAYER
 62
     1
 10
770.772996
 20
-566.897642
 30
0.0
 40
26.999949
 50
328.489151
 51
363.954556
  0
ARC
  8
0
  6
BYLAYER
 62
     1
 10
795.496629
 20
-582.054777
 30
0.0
 40
1.999966
 50
148.489119
 51
239.900204
  0
ARC
  8
0
  6
BYLAYER
 62
     1
 10
755.615892
 20
-591.621336
 30
0.0
 40
2.000022
 50
58.489123
 51
149.900960
  0
ARC
  8
0
  6
BYLAYER
 62
     1
 10
749.559739
 20
-588.110838
 30
0.0
 40
4.999962
 50
120.099437
 51
329.90065
  0
ARC
  8
0
  6
BYLAYER
 62
     1
 10
770.772996
 20
-566.897642
 30
0.0
 40
26.999954
 50
176.045448
 51
211.510769
  0
ARC
  8
0
  6
BYLAYER
 62
     1
 10
746.049241
 20
-582.054746
 30
0.0
 40
2.000027
 50
300.099415
 51
391.510651
  0
LINE
  8
0
  6
BYLAYER
 62
     1
 10
729.772996
 20
-564.397642
 30
0.0
 11
743.778579
 21
-564.397642
 31
0.0
  0
CIRCLE
  8
0
  6
BYLAYER
 62
     1
 10
735.772996
 20
-552.897642
 30
0.0
 40
4.25
  0
LINE
  8
0
  6
BYLAYER
 62
     1
 10
795.272996
 20
-674.811888
 30
0.0
 11
746.272996
 21
-674.811888
 31
0.0
  0
ARC
  8
0
  6
BYLAYER
 62
     1
 10
770.772996
 20
-566.897642
 30
0.0
 40
27.0
 50
238.489223
 51
301.510696
  0
LINE
  8
0
  6
BYLAYER
 62
     1
 10
813.272996
 20
-532.897642
 30
0.0
 11
813.272996
 21
-562.897642
 31
0.0
  0
LINE
  8
0
  6
BYLAYER
 62
     1
 10
813.272996
 20
-562.897642
 30
0.0
 11
811.772996
 21
-564.397642
 31
0.0
  0
LINE
  8
0
  6
BYLAYER
 62
     1
 10
813.272996
 20
-676.897703
 30
0.0
 11
813.272996
 21
-646.897703
 31
0.0
  0
LINE
  8
0
  6
BYLAYER
 62
     1
 10
813.272996
 20
-646.897703
 30
0.0
 11
811.772996
 21
-645.397703
 31
0.0
  0
LINE
  8
0
  6
BYLAYER
 62
     1
 10
811.772996
 20
-564.397642
 30
0.0
 11
811.772996
 21
-645.397703
 31
0.0
  0
LINE
  8
0
  6
BYLAYER
 62
     1
 10
795.272996
 20
-532.897642
 30
0.0
 11
813.272996
 21
-532.897642
 31
0.0
  0
LINE
  8
0
  6
BYLAYER
 62
     1
 10
795.272996
 20
-676.897703
 30
0.0
 11
813.272996
 21
-676.897703
 31
0.0
  0
LINE
  8
0
  6
BYLAYER
 62
     1
 10
813.272996
 20
-646.897703
 30
0.0
 11
795.272996
 21
-646.897703
 31
0.0
  0
LINE
  8
0
  6
BYLAYER
 62
     1
 10
811.772996
 20
-645.397703
 30
0.0
 11
795.272996
 21
-645.397703
 31
0.0
  0
LINE
  8
0
  6
BYLAYER
 62
     1
 10
799.703904
 20
-562.897642
 30
0.0
 11
813.272996
 21
-562.897642
 31
0.0
  0
LINE
  8
0
  6
BYLAYER
 62
     1
 10
797.767411
 20
-564.397642
 30
0.0
 11
811.772996
 21
-564.397642
 31
0.0
  0
LINE
  8
0
  6
BYLAYER
 62
     1
 10
816.772996
 20
-582.897642
 30
0.0
 11
815.772996
 21
-581.897642
 31
0.0
  0
LINE
  8
0
  6
BYLAYER
 62
     1
 10
815.772996
 20
-581.897642
 30
0.0
 11
814.272996
 21
-581.897642
 31
0.0
  0
LINE
  8
0
  6
BYLAYER
 62
     1
 10
814.272996
 20
-651.897703
 30
0.0
 11
815.772996
 21
-651.897703
 31
0.0
  0
LINE
  8
0
  6
BYLAYER
 62
     1
 10
815.772996
 20
-651.897703
 30
0.0
 11
816.772996
 21
-650.897703
 31
0.0
  0
LINE
  8
0
  6
BYLAYER
 62
     1
 10
816.772996
 20
-650.897703
 30
0.0
 11
816.772996
 21
-582.897642
 31
0.0
  0
LINE
  8
0
  6
BYLAYER
 62
     1
 10
811.772996
 20
-566.810362
 30
0.0
 11
814.272996
 21
-566.897642
 31
0.0
  0
LINE
  8
0
  6
BYLAYER
 62
     1
 10
813.272996
 20
-666.932737
 30
0.0
 11
814.272996
 21
-666.897703
 31
0.0
  0
LINE
  8
0
  6
BYLAYER
 62
     1
 10
813.272996
 20
-666.932615
 30
0.0
 11
814.272996
 21
-666.897703
 31
0.0
  0
LINE
  8
0
  6
BYLAYER
 62
     1
 10
814.272996
 20
-566.897642
 30
0.0
 11
814.272996
 21
-666.897703
 31
0.0
  0
LINE
  8
0
  6
BYLAYER
 62
     1
 10
393.773100
 20
-694.897621
 30
0.0
 11
393.773100
 21
-660.980100
 31
0.0
  0
ARC
  8
0
  6
BYLAYER
 62
     1
 10
395.773100
 20
-694.897621
 30
0.0
 40
2.000000
 50
180.000000
 51
270.000000
  0
LINE
  8
0
  6
BYLAYER
 62
     1
 10
369.773100
 20
-616.897550
 30
0.0
 11
369.773100
 21
-551.397575
 31
0.0
  0
ARC
  8
0
  6
BYLAYER
 62
     1
 10
367.773100
 20
-551.397575
 30
0.0
 40
2.000000
 50
0.0
 51
90.0
  0
LINE
  8
0
  6
BYLAYER
 62
     1
 10
361.773100
 20
-549.397575
 30
0.0
 11
361.773100
 21
-616.897550
 31
0.0
  0
LINE
  8
0
  6
BYLAYER
 62
     1
 10
367.773100
 20
-549.397575
 30
0.0
 11
361.773100
 21
-549.397575
 31
0.0
  0
LINE
  8
0
  6
BYLAYER
 62
     1
 10
396.773100
 20
-595.257485
 30
0.0
 11
396.773100
 21
-577.397575
 31
0.0
  0
ARC
  8
0
  6
BYLAYER
 62
     1
 10
391.773100
 20
-577.397575
 30
0.0
 40
5.000000
 50
0.0
 51
90.0
  0
ARC
  8
0
  6
BYLAYER
 62
     1
 10
398.773100
 20
-595.257485
 30
0.0
 40
2.000000
 50
180.000000
 51
270.000000
  0
LINE
  8
0
  6
BYLAYER
 62
     1
 10
403.773100
 20
-696.897621
 30
0.0
 11
395.773100
 21
-696.897621
 31
0.0
  0
LINE
  8
0
  6
BYLAYER
 62
     1
 10
372.773100
 20
-572.397575
 30
0.0
 11
391.773100
 21
-572.397575
 31
0.0
  0
ARC
  8
0
  6
BYLAYER
 62
     1
 10
372.773100
 20
-569.397575
 30
0.0
 40
3.0
 50
180.000000
 51
270.000000
  0
LINE
  8
0
  6
BYLAYER
 62
     1
 10
403.773100
 20
-696.897621
 30
0.0
 11
403.773100
 21
-616.897550
 31
0.0
  0
LINE
  8
0
  6
BYLAYER
 62
     1
 10
393.773100
 20
-538.897479
 30
0.0
 11
393.773100
 21
-572.815000
 31
0.0
  0
ARC
  8
0
  6
BYLAYER
 62
     1
 10
395.773100
 20
-538.897479
 30
0.0
 40
2.000000
 50
90.0
 51
180.0
  0
LINE
  8
0
  6
BYLAYER
 62
     1
 10
403.773100
 20
-536.897479
 30
0.0
 11
395.773100
 21
-536.897479
 31
0.0
  0
LINE
  8
0
  6
BYLAYER
 62
     1
 10
403.773100
 20
-536.897479
 30
0.0
 11
403.773100
 21
-616.897550
 31
0.0
  0
LINE
  8
0
  6
BYLAYER
 62
     1
 10
369.773100
 20
-616.897550
 30
0.0
 11
369.773100
 21
-682.397525
 31
0.0
  0
ARC
  8
0
  6
BYLAYER
 62
     1
 10
367.773100
 20
-682.397525
 30
0.0
 40
2.000000
 50
270.0
 51
360.0
  0
LINE
  8
0
  6
BYLAYER
 62
     1
 10
367.773100
 20
-684.397525
 30
0.0
 11
361.773100
 21
-684.397525
 31
0.0
  0
LINE
  8
0
  6
BYLAYER
 62
     1
 10
396.773100
 20
-638.537615
 30
0.0
 11
396.773100
 21
-656.397525
 31
0.0
  0
ARC
  8
0
  6
BYLAYER
 62
     1
 10
391.773100
 20
-656.397525
 30
0.0
 40
5.000000
 50
270.0
 51
360.0
  0
ARC
  8
0
  6
BYLAYER
 62
     1
 10
398.773100
 20
-638.537615
 30
0.0
 40
2.000000
 50
90.0
 51
180.0
  0
LINE
  8
0
  6
BYLAYER
 62
     1
 10
372.773100
 20
-661.397525
 30
0.0
 11
391.773100
 21
-661.397525
 31
0.0
  0
ARC
  8
0
  6
BYLAYER
 62
     1
 10
372.773100
 20
-664.397525
 30
0.0
 40
3.0
 50
90.0
 51
180.0
  0
LINE
  8
0
  6
BYLAYER
 62
     1
 10
350.772977
 20
-616.897550
 30
0.0
 11
350.773161
 21
-676.897474
 31
0.0
  0
LINE
  8
0
  6
BYLAYER
 62
     1
 10
351.773154
 20
-616.897550
 30
0.0
 11
351.773154
 21
-682.116967
 31
0.0
  0
LINE
  8
0
  6
BYLAYER
 62
     1
 10
353.703355
 20
-684.115748
 30
0.0
 11
361.773100
 21
-684.397550
 31
0.0
  0
ARC
  8
0
  6
BYLAYER
 62
     1
 10
353.773154
 20
-682.116967
 30
0.0
 40
2.000000
 50
180.000000
 51
268.000000
  0
LINE
  8
0
  6
BYLAYER
 62
     1
 10
350.773161
 20
-676.897474
 30
0.0
 11
350.808054
 21
-676.898692
 31
0.0
  0
ARC
  8
0
  6
BYLAYER
 62
     1
 10
350.773154
 20
-677.898083
 30
0.0
 40
1.000000
 50
0.0
 51
88.0
  0
LINE
  8
0
  6
BYLAYER
 62
     1
 10
361.773100
 20
-549.397550
 30
0.0
 11
353.703355
 21
-549.679352
 31
0.0
  0
ARC
  8
0
  6
BYLAYER
 62
     1
 10
353.773154
 20
-551.678133
 30
0.0
 40
2.0
 50
92.0
 51
180.0
  0
LINE
  8
0
  6
BYLAYER
 62
     1
 10
350.773161
 20
-557.243214
 30
0.0
 11
350.772975
 21
-616.897550
 31
0.0
  0
LINE
  8
0
  6
BYLAYER
 62
     1
 10
350.808054
 20
-557.241996
 30
0.0
 11
350.773161
 21
-557.243214
 31
0.0
  0
ARC
  8
0
  6
BYLAYER
 62
     1
 10
350.773154
 20
-556.242605
 30
0.0
 40
1.000000
 50
272.000000
 51
360.000000
  0
LINE
  8
0
  6
BYLAYER
 62
     1
 10
351.773154
 20
-551.678133
 30
0.0
 11
351.773154
 21
-616.897550
 31
0.0
  0
LINE
  8
0
  6
BYLAYER
 62
     1
 10
361.773100
 20
-684.397550
 30
0.0
 11
361.773100
 21
-616.897550
 31
0.0
  0
LINE
  8
0
  6
BYLAYER
 62
     1
 10
331.772977
 20
-654.897611
 30
0.0
 11
331.772977
 21
-616.897611
 31
0.0
  0
ARC
  8
0
  6
BYLAYER
 62
     1
 10
342.772977
 20
-674.475431
 30
0.0
 40
2.000000
 50
180.000000
 51
267.000764
  0
LINE
  8
0
  6
BYLAYER
 62
     1
 10
340.772977
 20
-616.897611
 30
0.0
 11
340.772977
 21
-674.475431
 31
0.0
  0
ARC
  8
0
  6
BYLAYER
 62
     1
 10
338.772977
 20
-659.370817
 30
0.0
 40
1.999945
 50
0.0
 51
70.000061
  0
LINE
  8
0
  6
BYLAYER
 62
     1
 10
331.772977
 20
-654.897550
 30
0.0
 11
332.274747
 21
-654.923795
 31
0.0
  0
LINE
  8
0
  6
BYLAYER
 62
     1
 10
339.456998
 20
-657.491483
 30
0.0
 11
332.564420
 21
-654.982755
 31
0.0
  0
ARC
  8
0
  6
BYLAYER
 62
     1
 10
332.222379
 20
-655.922452
 30
0.0
 40
1.000029
 50
69.999788
 51
86.999938
  0
LINE
  8
0
  6
BYLAYER
 62
     1
 10
340.772977
 20
-673.897306
 30
0.0
 11
332.777066
 21
-655.060148
 31
0.0
  0
LINE
  8
0
  6
BYLAYER
 62
     1
 10
342.668363
 20
-676.472623
 30
0.0
 11
350.772977
 21
-676.897318
 31
0.0
  0
LINE
  8
0
  6
BYLAYER
 62
     1
 10
350.772977
 20
-676.897318
 30
0.0
 11
350.772977
 21
-616.897550
 31
0.0
  0
LINE
  8
0
  6
BYLAYER
 62
     1
 10
331.772977
 20
-578.897611
 30
0.0
 11
331.772977
 21
-616.897611
 31
0.0
  0
ARC
  8
0
  6
BYLAYER
 62
     1
 10
342.772977
 20
-559.319791
 30
0.0
 40
2.000000
 50
92.999236
 51
180.000000
  0
LINE
  8
0
  6
BYLAYER
 62
     1
 10
340.772977
 20
-616.897611
 30
0.0
 11
340.772977
 21
-559.319791
 31
0.0
  0
ARC
  8
0
  6
BYLAYER
 62
     1
 10
338.772977
 20
-574.424405
 30
0.0
 40
1.999945
 50
289.999939
 51
360.000000
  0
LINE
  8
0
  6
BYLAYER
 62
     1
 10
331.772977
 20
-578.897672
 30
0.0
 11
332.274747
 21
-578.871427
 31
0.0
  0
LINE
  8
0
  6
BYLAYER
 62
     1
 10
339.456998
 20
-576.303739
 30
0.0
 11
332.564420
 21
-578.812467
 31
0.0
  0
ARC
  8
0
  6
BYLAYER
 62
     1
 10
332.222379
 20
-577.872770
 30
0.0
 40
1.000029
 50
273.000062
 51
290.000212
  0
LINE
  8
0
  6
BYLAYER
 62
     1
 10
340.772977
 20
-559.897916
 30
0.0
 11
332.777066
 21
-578.735074
 31
0.0
  0
LINE
  8
0
  6
BYLAYER
 62
     1
 10
342.668363
 20
-557.322599
 30
0.0
 11
350.772977
 21
-556.897904
 31
0.0
  0
LINE
  8
0
  6
BYLAYER
 62
     1
 10
350.772977
 20
-556.897904
 30
0.0
 11
350.772977
 21
-616.897672
 31
0.0
  0
LINE
  8
0
  6
BYLAYER
 62
     1
 10
210.772977
 20
-659.397626
 30
0.0
 11
240.772977
 21
-659.397626
 31
0.0
  0
LINE
  8
0
  6
BYLAYER
 62
     1
 10
240.772977
 20
-659.397626
 30
0.0
 11
242.272977
 21
-657.897626
 31
0.0
  0
CIRCLE
  8
0
  6
BYLAYER
 62
     1
 10
230.772977
 20
-651.897626
 30
0.0
 40
4.25
  0
LINE
  8
0
  6
BYLAYER
 62
     1
 10
235.772977
 20
-573.397626
 30
0.0
 11
235.772977
 21
-571.897626
 31
0.0
  0
LINE
  8
0
  6
BYLAYER
 62
     1
 10
235.772977
 20
-571.897626
 30
0.0
 11
236.772977
 21
-570.897626
 31
0.0
  0
LINE
  8
0
  6
BYLAYER
 62
     1
 10
236.772977
 20
-570.897626
 30
0.0
 11
304.773099
 21
-570.897626
 31
0.0
  0
LINE
  8
0
  6
BYLAYER
 62
     1
 10
220.737943
 20
-574.397626
 30
0.0
 11
220.772977
 21
-573.397626
 31
0.0
  0
LINE
  8
0
  6
BYLAYER
 62
     1
 10
220.738065
 20
-574.397626
 30
0.0
 11
220.772977
 21
-573.397626
 31
0.0
  0
CIRCLE
  8
0
  6
BYLAYER
 62
     1
 10
230.772977
 20
-581.897626
 30
0.0
 40
4.25
  0
LINE
  8
0
  6
BYLAYER
 62
     1
 10
240.772977
 20
-574.397626
 30
0.0
 11
242.272977
 21
-575.897626
 31
0.0
  0
LINE
  8
0
  6
BYLAYER
 62
     1
 10
240.772977
 20
-574.397626
 30
0.0
 11
210.772977
 21
-574.397626
 31
0.0
  0
LINE
  8
0
  6
BYLAYER
 62
     1
 10
240.772977
 20
-659.397626
 30
0.0
 11
240.772977
 21
-641.397626
 31
0.0
  0
LINE
  8
0
  6
BYLAYER
 62
     1
 10
240.772977
 20
-574.397626
 30
0.0
 11
240.772977
 21
-592.397626
 31
0.0
  0
LINE
  8
0
  6
BYLAYER
 62
     1
 10
242.272977
 20
-657.897626
 30
0.0
 11
242.272977
 21
-641.397626
 31
0.0
  0
LINE
  8
0
  6
BYLAYER
 62
     1
 10
242.272977
 20
-575.897626
 30
0.0
 11
242.272977
 21
-592.397626
 31
0.0
  0
LINE
  8
0
  6
BYLAYER
 62
     1
 10
320.773099
 20
-573.397626
 30
0.0
 11
220.772977
 21
-573.397626
 31
0.0
  0
LINE
  8
0
  6
BYLAYER
 62
     1
 10
305.772977
 20
-573.397626
 30
0.0
 11
305.772977
 21
-571.897626
 31
0.0
  0
LINE
  8
0
  6
BYLAYER
 62
     1
 10
305.772977
 20
-571.897626
 30
0.0
 11
304.772977
 21
-570.897626
 31
0.0
  0
LINE
  8
0
  6
BYLAYER
 62
     1
 10
320.808011
 20
-574.397626
 30
0.0
 11
320.772977
 21
-573.397626
 31
0.0
  0
LINE
  8
0
  6
BYLAYER
 62
     1
 10
320.807889
 20
-574.397626
 30
0.0
 11
320.772977
 21
-573.397626
 31
0.0
  0
LINE
  8
0
  6
BYLAYER
 62
     1
 10
299.272977
 20
-575.897626
 30
0.0
 11
299.272977
 21
-592.397626
 31
0.0
  0
LINE
  8
0
  6
BYLAYER
 62
     1
 10
300.772977
 20
-574.397626
 30
0.0
 11
300.772977
 21
-592.397626
 31
0.0
  0
LINE
  8
0
  6
BYLAYER
 62
     1
 10
300.772977
 20
-574.397626
 30
0.0
 11
299.272977
 21
-575.897626
 31
0.0
  0
LINE
  8
0
  6
BYLAYER
 62
     1
 10
300.772977
 20
-574.397626
 30
0.0
 11
330.772977
 21
-574.397626
 31
0.0
  0
LINE
  8
0
  6
BYLAYER
 62
     1
 10
330.772977
 20
-574.397626
 30
0.0
 11
330.772977
 21
-592.397626
 31
0.0
  0
LINE
  8
0
  6
BYLAYER
 62
     1
 10
330.772977
 20
-641.397626
 30
0.0
 11
330.772977
 21
-659.397626
 31
0.0
  0
CIRCLE
  8
0
  6
BYLAYER
 62
     1
 10
310.772977
 20
-581.897626
 30
0.0
 40
4.25
  0
LINE
  8
0
  6
BYLAYER
 62
     1
 10
300.772977
 20
-659.397626
 30
0.0
 11
300.772977
 21
-641.397626
 31
0.0
  0
LINE
  8
0
  6
BYLAYER
 62
     1
 10
299.272977
 20
-657.897626
 30
0.0
 11
299.272977
 21
-641.397626
 31
0.0
  0
LINE
  8
0
  6
BYLAYER
 62
     1
 10
330.772977
 20
-659.397626
 30
0.0
 11
300.772977
 21
-659.397626
 31
0.0
  0
LINE
  8
0
  6
BYLAYER
 62
     1
 10
300.772977
 20
-659.397626
 30
0.0
 11
299.272977
 21
-657.897626
 31
0.0
  0
LINE
  8
0
  6
BYLAYER
 62
     1
 10
242.272977
 20
-575.897626
 30
0.0
 11
299.272977
 21
-575.897626
 31
0.0
  0
LINE
  8
0
  6
BYLAYER
 62
     1
 10
299.272977
 20
-657.897626
 30
0.0
 11
242.272977
 21
-657.897626
 31
0.0
  0
CIRCLE
  8
0
  6
BYLAYER
 62
     1
 10
310.772977
 20
-651.897626
 30
0.0
 40
4.25
  0
LINE
  8
0
  6
BYLAYER
 62
     1
 10
210.772977
 20
-659.397626
 30
0.0
 11
210.772977
 21
-574.397626
 31
0.0
  0
LINE
  8
0
  6
BYLAYER
 62
     1
 10
210.772977
 20
-641.397626
 30
0.0
 11
330.772977
 21
-641.397626
 31
0.0
  0
ARC
  8
0
  6
BYLAYER
 62
     1
 10
229.772977
 20
-593.397626
 30
0.0
 40
1.000000
 50
90.0
 51
180.000003
  0
LINE
  8
0
  6
BYLAYER
 62
     1
 10
210.772977
 20
-592.397626
 30
0.0
 11
330.772977
 21
-592.397626
 31
0.0
  0
ARC
  8
0
  6
BYLAYER
 62
     1
 10
229.772977
 20
-640.397626
 30
0.0
 40
1.0
 50
180.000000
 51
270.000009
  0
ARC
  8
0
  6
BYLAYER
 62
     1
 10
311.772977
 20
-593.397626
 30
0.0
 40
1.0
 50
0.0
 51
90.000016
  0
ARC
  8
0
  6
BYLAYER
 62
     1
 10
311.772977
 20
-640.397626
 30
0.0
 40
1.0
 50
270.0
 51
360.000009
  0
ARC
  8
0
  6
BYLAYER
 62
     1
 10
264.772977
 20
-636.897626
 30
0.0
 40
1.0
 50
270.0
 51
450.000005
  0
ARC
  8
0
  6
BYLAYER
 62
     1
 10
276.772977
 20
-636.897626
 30
0.0
 40
1.0
 50
90.0
 51
269.999991
  0
LINE
  8
0
  6
BYLAYER
 62
     1
 10
331.772977
 20
-654.397626
 30
0.0
 11
330.772977
 21
-654.432538
 31
0.0
  0
LINE
  8
0
  6
BYLAYER
 62
     1
 10
331.772977
 20
-579.397626
 30
0.0
 11
330.772977
 21
-579.362714
 31
0.0
  0
LINE
  8
0
  6
BYLAYER
 62
     1
 10
331.772977
 20
-579.397626
 30
0.0
 11
331.772977
 21
-654.397626
 31
0.0
  0
LINE
  8
0
  6
BYLAYER
 62
     1
 10
312.772977
 20
-594.897626
 30
0.0
 11
312.772977
 21
-593.397626
 31
0.0
  0
LINE
  8
0
  6
BYLAYER
 62
     1
 10
276.772977
 20
-595.897626
 30
0.0
 11
311.772977
 21
-595.897596
 31
0.0
  0
ARC
  8
0
  6
BYLAYER
 62
     1
 10
311.772977
 20
-594.897626
 30
0.0
 40
1.000000
 50
270.0
 51
360.000003
  0
LINE
  8
0
  6
BYLAYER
 62
     1
 10
276.772977
 20
-597.897626
 30
0.0
 11
311.772977
 21
-597.897596
 31
0.0
  0
ARC
  8
0
  6
BYLAYER
 62
     1
 10
311.772977
 20
-598.897626
 30
0.0
 40
1.000031
 50
0.0
 51
90.000003
  0
LINE
  8
0
  6
BYLAYER
 62
     1
 10
312.772977
 20
-604.897611
 30
0.0
 11
312.772977
 21
-598.897626
 31
0.0
  0
LINE
  8
0
  6
BYLAYER
 62
     1
 10
302.772977
 20
-605.897611
 30
0.0
 11
311.772977
 21
-605.897611
 31
0.0
  0
ARC
  8
0
  6
BYLAYER
 62
     1
 10
311.772977
 20
-604.897611
 30
0.0
 40
1.000000
 50
270.0
 51
360.000003
  0
LINE
  8
0
  6
BYLAYER
 62
     1
 10
302.772977
 20
-607.897611
 30
0.0
 11
311.772977
 21
-607.897611
 31
0.0
  0
ARC
  8
0
  6
BYLAYER
 62
     1
 10
311.772977
 20
-608.897611
 30
0.0
 40
1.0
 50
0.0
 51
90.000003
  0
LINE
  8
0
  6
BYLAYER
 62
     1
 10
311.772977
 20
-615.897611
 30
0.0
 11
301.548001
 21
-615.897611
 31
0.0
  0
LINE
  8
0
  6
BYLAYER
 62
     1
 10
312.772977
 20
-614.897611
 30
0.0
 11
312.772977
 21
-608.897611
 31
0.0
  0
ARC
  8
0
  6
BYLAYER
 62
     1
 10
311.772977
 20
-614.897611
 30
0.0
 40
1.000000
 50
270.0
 51
360.000003
  0
LINE
  8
0
  6
BYLAYER
 62
     1
 10
311.772977
 20
-617.897611
 30
0.0
 11
301.548001
 21
-617.897611
 31
0.0
  0
ARC
  8
0
  6
BYLAYER
 62
     1
 10
311.772977
 20
-618.897596
 30
0.0
 40
0.999985
 50
0.0
 51
90.000003
  0
LINE
  8
0
  6
BYLAYER
 62
     1
 10
302.772977
 20
-625.897596
 30
0.0
 11
311.772977
 21
-625.897596
 31
0.0
  0
LINE
  8
0
  6
BYLAYER
 62
     1
 10
312.772977
 20
-624.897596
 30
0.0
 11
312.772977
 21
-618.897596
 31
0.0
  0
ARC
  8
0
  6
BYLAYER
 62
     1
 10
311.772977
 20
-624.897596
 30
0.0
 40
1.000000
 50
270.0
 51
360.000003
  0
LINE
  8
0
  6
BYLAYER
 62
     1
 10
302.772977
 20
-627.897596
 30
0.0
 11
311.772977
 21
-627.897596
 31
0.0
  0
ARC
  8
0
  6
BYLAYER
 62
     1
 10
311.772977
 20
-628.897596
 30
0.0
 40
1.0
 50
0.0
 51
90.000003
  0
LINE
  8
0
  6
BYLAYER
 62
     1
 10
276.772977
 20
-635.897626
 30
0.0
 11
311.772977
 21
-635.897626
 31
0.0
  0
LINE
  8
0
  6
BYLAYER
 62
     1
 10
312.772977
 20
-634.897596
 30
0.0
 11
312.772977
 21
-628.897596
 31
0.0
  0
ARC
  8
0
  6
BYLAYER
 62
     1
 10
311.772977
 20
-634.897596
 30
0.0
 40
1.000031
 50
270.0
 51
360.000003
  0
LINE
  8
0
  6
BYLAYER
 62
     1
 10
276.772977
 20
-637.897626
 30
0.0
 11
311.772977
 21
-637.897626
 31
0.0
  0
LINE
  8
0
  6
BYLAYER
 62
     1
 10
312.772977
 20
-640.397626
 30
0.0
 11
312.772977
 21
-638.897596
 31
0.0
  0
ARC
  8
0
  6
BYLAYER
 62
     1
 10
311.772977
 20
-638.897596
 30
0.0
 40
0.999969
 50
0.0
 51
90.000003
  0
LINE
  8
0
  6
BYLAYER
 62
     1
 10
228.772977
 20
-594.897596
 30
0.0
 11
228.772977
 21
-593.397626
 31
0.0
  0
LINE
  8
0
  6
BYLAYER
 62
     1
 10
229.772977
 20
-595.897596
 30
0.0
 11
264.772977
 21
-595.897626
 31
0.0
  0
ARC
  8
0
  6
BYLAYER
 62
     1
 10
229.772977
 20
-594.897596
 30
0.0
 40
1.000000
 50
180.000000
 51
269.999996
  0
LINE
  8
0
  6
BYLAYER
 62
     1
 10
229.772977
 20
-597.897596
 30
0.0
 11
264.772977
 21
-597.897626
 31
0.0
  0
ARC
  8
0
  6
BYLAYER
 62
     1
 10
229.772977
 20
-598.897596
 30
0.0
 40
1.000000
 50
90.0
 51
180.000003
  0
LINE
  8
0
  6
BYLAYER
 62
     1
 10
228.772977
 20
-604.897596
 30
0.0
 11
228.772977
 21
-598.897596
 31
0.0
  0
LINE
  8
0
  6
BYLAYER
 62
     1
 10
229.772977
 20
-605.897580
 30
0.0
 11
282.772977
 21
-605.897611
 31
0.0
  0
ARC
  8
0
  6
BYLAYER
 62
     1
 10
229.772977
 20
-604.897596
 30
0.0
 40
1.000000
 50
180.000000
 51
269.999996
  0
LINE
  8
0
  6
BYLAYER
 62
     1
 10
229.772977
 20
-607.897580
 30
0.0
 11
282.772977
 21
-607.897611
 31
0.0
  0
ARC
  8
0
  6
BYLAYER
 62
     1
 10
229.772977
 20
-608.897596
 30
0.0
 40
1.000015
 50
90.0
 51
180.000003
  0
LINE
  8
0
  6
BYLAYER
 62
     1
 10
228.772977
 20
-614.897596
 30
0.0
 11
228.772977
 21
-608.897596
 31
0.0
  0
LINE
  8
0
  6
BYLAYER
 62
     1
 10
277.772977
 20
-615.897611
 30
0.0
 11
229.772977
 21
-615.897580
 31
0.0
  0
ARC
  8
0
  6
BYLAYER
 62
     1
 10
229.772977
 20
-614.897596
 30
0.0
 40
1.000000
 50
180.000000
 51
269.999996
  0
LINE
  8
0
  6
BYLAYER
 62
     1
 10
277.772977
 20
-617.897611
 30
0.0
 11
229.772977
 21
-617.897580
 31
0.0
  0
ARC
  8
0
  6
BYLAYER
 62
     1
 10
229.772977
 20
-618.897596
 30
0.0
 40
1.000000
 50
90.0
 51
180.000003
  0
LINE
  8
0
  6
BYLAYER
 62
     1
 10
228.772977
 20
-624.897596
 30
0.0
 11
228.772977
 21
-618.897596
 31
0.0
  0
LINE
  8
0
  6
BYLAYER
 62
     1
 10
282.772977
 20
-625.897596
 30
0.0
 11
229.772977
 21
-625.897596
 31
0.0
  0
ARC
  8
0
  6
BYLAYER
 62
     1
 10
229.772977
 20
-624.897596
 30
0.0
 40
1.000000
 50
180.000000
 51
269.999996
  0
LINE
  8
0
  6
BYLAYER
 62
     1
 10
282.772977
 20
-627.897596
 30
0.0
 11
229.772977
 21
-627.897596
 31
0.0
  0
ARC
  8
0
  6
BYLAYER
 62
     1
 10
229.772977
 20
-628.897596
 30
0.0
 40
1.000000
 50
90.0
 51
180.000003
  0
LINE
  8
0
  6
BYLAYER
 62
     1
 10
228.772977
 20
-634.897626
 30
0.0
 11
228.772977
 21
-628.897596
 31
0.0
  0
LINE
  8
0
  6
BYLAYER
 62
     1
 10
229.772977
 20
-635.897626
 30
0.0
 11
264.772977
 21
-635.897626
 31
0.0
  0
ARC
  8
0
  6
BYLAYER
 62
     1
 10
229.772977
 20
-634.897626
 30
0.0
 40
1.000000
 50
180.000000
 51
269.999996
  0
LINE
  8
0
  6
BYLAYER
 62
     1
 10
229.772977
 20
-637.897626
 30
0.0
 11
264.772977
 21
-637.897626
 31
0.0
  0
LINE
  8
0
  6
BYLAYER
 62
     1
 10
228.772977
 20
-640.397626
 30
0.0
 11
228.772977
 21
-638.897626
 31
0.0
  0
ARC
  8
0
  6
BYLAYER
 62
     1
 10
229.772977
 20
-638.897626
 30
0.0
 40
1.000000
 50
90.0
 51
180.000003
  0
LINE
  8
0
  6
BYLAYER
 62
     1
 10
325.772977
 20
-640.397626
 30
0.0
 11
325.772977
 21
-593.397626
 31
0.0
  0
ARC
  8
0
  6
BYLAYER
 62
     1
 10
324.772977
 20
-593.397626
 30
0.0
 40
1.0
 50
0.0
 51
90.000016
  0
ARC
  8
0
  6
BYLAYER
 62
     1
 10
324.772977
 20
-640.397626
 30
0.0
 40
1.0
 50
270.0
 51
360.000009
  0
LINE
  8
0
  6
BYLAYER
 62
     1
 10
235.772977
 20
-660.397596
 30
0.0
 11
235.772977
 21
-661.897596
 31
0.0
  0
LINE
  8
0
  6
BYLAYER
 62
     1
 10
235.772977
 20
-661.897596
 30
0.0
 11
236.772977
 21
-662.897596
 31
0.0
  0
LINE
  8
0
  6
BYLAYER
 62
     1
 10
236.772977
 20
-662.897596
 30
0.0
 11
304.773099
 21
-662.897596
 31
0.0
  0
LINE
  8
0
  6
BYLAYER
 62
     1
 10
220.737943
 20
-659.397596
 30
0.0
 11
220.772977
 21
-660.397596
 31
0.0
  0
LINE
  8
0
  6
BYLAYER
 62
     1
 10
220.738065
 20
-659.397596
 30
0.0
 11
220.772977
 21
-660.397596
 31
0.0
  0
LINE
  8
0
  6
BYLAYER
 62
     1
 10
320.773099
 20
-660.397596
 30
0.0
 11
220.772977
 21
-660.397596
 31
0.0
  0
LINE
  8
0
  6
BYLAYER
 62
     1
 10
305.772977
 20
-660.397596
 30
0.0
 11
305.772977
 21
-661.897596
 31
0.0
  0
LINE
  8
0
  6
BYLAYER
 62
     1
 10
305.772977
 20
-661.897596
 30
0.0
 11
304.772977
 21
-662.897596
 31
0.0
  0
LINE
  8
0
  6
BYLAYER
 62
     1
 10
320.808011
 20
-659.397596
 30
0.0
 11
320.772977
 21
-660.397596
 31
0.0
  0
LINE
  8
0
  6
BYLAYER
 62
     1
 10
320.807889
 20
-659.397596
 30
0.0
 11
320.772977
 21
-660.397596
 31
0.0
  0
ARC
  8
0
  6
BYLAYER
 62
     1
 10
277.772977
 20
-616.897611
 30
0.0
 40
1.0
 50
270.0
 51
450.000005
  0
ARC
  8
0
  6
BYLAYER
 62
     1
 10
276.772977
 20
-596.897626
 30
0.0
 40
1.0
 50
90.0
 51
270.000005
  0
ARC
  8
0
  6
BYLAYER
 62
     1
 10
264.772977
 20
-596.897626
 30
0.0
 40
1.0
 50
270.0
 51
450.000005
  0
ARC
  8
0
  6
BYLAYER
 62
     1
 10
292.772977
 20
-616.897611
 30
0.0
 40
8.000080
 50
12.839588
 51
347.160409
  0
CIRCLE
  8
0
  6
BYLAYER
 62
     1
 10
292.772977
 20
-616.897611
 30
0.0
 40
4.25
  0
ARC
  8
0
  6
BYLAYER
 62
     1
 10
282.772977
 20
-626.897596
 30
0.0
 40
1.0
 50
270.0
 51
450.000005
  0
ARC
  8
0
  6
BYLAYER
 62
     1
 10
302.772977
 20
-626.897596
 30
0.0
 40
1.0
 50
90.0
 51
269.999991
  0
ARC
  8
0
  6
BYLAYER
 62
     1
 10
301.548001
 20
-618.897596
 30
0.0
 40
0.999982
 50
90.0
 51
167.160394
  0
ARC
  8
0
  6
BYLAYER
 62
     1
 10
301.548001
 20
-614.897611
 30
0.0
 40
0.999978
 50
192.839613
 51
270.000001
  0
ARC
  8
0
  6
BYLAYER
 62
     1
 10
282.772977
 20
-606.897611
 30
0.0
 40
1.0
 50
270.0
 51
450.000005
  0
ARC
  8
0
  6
BYLAYER
 62
     1
 10
302.772977
 20
-606.897611
 30
0.0
 40
1.0
 50
90.0
 51
269.999991
  0
ENDSEC
  0
EOF
