  0
SECTION
  2
HEADER
  9
$EXTMIN
 10
116.723549
 20
570.0
 30
0.0
  9
$EXTMAX
 10
778.156997
 20
0.0
 30
0.0
  0
ENDSEC
  0
SECTION
  2
TABLES
  0
ENDSEC
  0
SECTION
  2
BLOCKS
  0
ENDSEC
  0
SECTION
  2
ENTITIES
  0
LINE
  8
0
  6
BYLAYER
 62
     7
 10
311.249086
 20
-49.142314
 30
0.0
 11
313.249086
 21
-49.142314
 31
0.0
  0
ARC
  8
0
  6
BYLAYER
 62
     7
 10
317.349183
 20
-131.242229
 30
0.0
 40
0.600037
 50
90.0
 51
270.000012
  0
ARC
  8
0
  6
BYLAYER
 62
     7
 10
313.849183
 20
-131.242229
 30
0.0
 40
0.600037
 50
90.0
 51
270.000012
  0
ARC
  8
0
  6
BYLAYER
 62
     7
 10
317.349183
 20
-120.242229
 30
0.0
 40
0.600037
 50
90.0
 51
270.000012
  0
ARC
  8
0
  6
BYLAYER
 62
     7
 10
313.849183
 20
-120.242229
 30
0.0
 40
0.600037
 50
90.0
 51
270.000012
  0
ARC
  8
0
  6
BYLAYER
 62
     7
 10
317.349183
 20
-109.242229
 30
0.0
 40
0.600037
 50
90.0
 51
270.000012
  0
ARC
  8
0
  6
BYLAYER
 62
     7
 10
313.849183
 20
-109.242229
 30
0.0
 40
0.600037
 50
90.0
 51
270.000012
  0
ARC
  8
0
  6
BYLAYER
 62
     7
 10
317.349183
 20
-87.242229
 30
0.0
 40
0.600037
 50
90.0
 51
270.000012
  0
ARC
  8
0
  6
BYLAYER
 62
     7
 10
313.849183
 20
-87.242229
 30
0.0
 40
0.600037
 50
90.0
 51
270.000012
  0
ARC
  8
0
  6
BYLAYER
 62
     7
 10
317.349122
 20
-76.242229
 30
0.0
 40
0.600037
 50
90.0
 51
270.000012
  0
ARC
  8
0
  6
BYLAYER
 62
     7
 10
313.849183
 20
-76.242229
 30
0.0
 40
0.600037
 50
90.0
 51
270.000012
  0
ARC
  8
0
  6
BYLAYER
 62
     7
 10
317.349122
 20
-65.242229
 30
0.0
 40
0.600037
 50
90.0
 51
270.000012
  0
ARC
  8
0
  6
BYLAYER
 62
     7
 10
313.849183
 20
-65.242229
 30
0.0
 40
0.600037
 50
90.0
 51
270.000012
  0
LINE
  8
0
  6
BYLAYER
 62
     7
 10
313.249147
 20
-98.242290
 30
0.0
 11
313.249208
 21
-147.342266
 31
0.0
  0
ARC
  8
0
  6
BYLAYER
 62
     7
 10
317.349183
 20
-98.242229
 30
0.0
 40
0.600037
 50
90.0
 51
270.000012
  0
ARC
  8
0
  6
BYLAYER
 62
     7
 10
313.849183
 20
-98.242229
 30
0.0
 40
0.600037
 50
90.0
 51
270.000012
  0
LINE
  8
0
  6
BYLAYER
 62
     7
 10
313.249147
 20
-98.242290
 30
0.0
 11
313.249086
 21
-33.042217
 31
0.0
  0
LINE
  8
0
  6
BYLAYER
 62
     7
 10
393.249147
 20
-33.042217
 30
0.0
 11
313.249086
 21
-33.042217
 31
0.0
  0
LINE
  8
0
  6
BYLAYER
 62
     7
 10
406.499147
 20
-38.242229
 30
0.0
 11
393.249147
 21
-38.242229
 31
0.0
  0
LINE
  8
0
  6
BYLAYER
 62
     7
 10
393.249147
 20
-39.242229
 30
0.0
 11
406.499147
 21
-39.242229
 31
0.0
  0
LINE
  8
0
  6
BYLAYER
 62
     7
 10
393.249147
 20
-42.242229
 30
0.0
 11
406.499147
 21
-42.242229
 31
0.0
  0
LINE
  8
0
  6
BYLAYER
 62
     7
 10
393.249147
 20
-48.242229
 30
0.0
 11
406.499147
 21
-48.242229
 31
0.0
  0
ARC
  8
0
  6
BYLAYER
 62
     7
 10
333.749147
 20
-46.542217
 30
0.0
 40
11.5
 50
180.000000
 51
360.000005
  0
ARC
  8
0
  6
BYLAYER
 62
     7
 10
372.749147
 20
-46.542217
 30
0.0
 40
11.5
 50
180.000000
 51
360.000005
  0
LINE
  8
0
  6
BYLAYER
 62
     7
 10
313.249086
 20
-43.042278
 30
0.0
 11
321.249147
 21
-43.042278
 31
0.0
  0
ARC
  8
0
  6
BYLAYER
 62
     7
 10
321.249147
 20
-44.042278
 30
0.0
 40
1.000000
 50
0.0
 51
89.999992
  0
ARC
  8
0
  6
BYLAYER
 62
     7
 10
346.249147
 20
-44.042217
 30
0.0
 40
1.000000
 50
90.0
 51
180.000003
  0
LINE
  8
0
  6
BYLAYER
 62
     7
 10
346.249147
 20
-43.042217
 30
0.0
 11
360.249147
 21
-43.042217
 31
0.0
  0
ARC
  8
0
  6
BYLAYER
 62
     7
 10
360.249147
 20
-44.042217
 30
0.0
 40
1.0
 50
0.0
 51
89.999992
  0
LINE
  8
0
  6
BYLAYER
 62
     7
 10
385.249147
 20
-43.042217
 30
0.0
 11
393.249147
 21
-43.042217
 31
0.0
  0
ARC
  8
0
  6
BYLAYER
 62
     7
 10
385.249147
 20
-44.042217
 30
0.0
 40
1.000000
 50
90.0
 51
180.000003
  0
CIRCLE
  8
0
  6
BYLAYER
 62
     7
 10
335.999147
 20
-87.239543
 30
0.0
 40
1.35
  0
CIRCLE
  8
0
  6
BYLAYER
 62
     7
 10
390.999147
 20
-87.170452
 30
0.0
 40
1.350000
  0
LINE
  8
0
  6
BYLAYER
 62
     7
 10
313.849183
 20
-86.642253
 30
0.0
 11
333.059205
 21
-86.642253
 31
0.0
  0
LINE
  8
0
  6
BYLAYER
 62
     7
 10
313.849183
 20
-87.842266
 30
0.0
 11
333.060304
 21
-87.842266
 31
0.0
  0
LINE
  8
0
  6
BYLAYER
 62
     7
 10
338.939088
 20
-86.642253
 30
0.0
 11
363.499147
 21
-86.642253
 31
0.0
  0
LINE
  8
0
  6
BYLAYER
 62
     7
 10
338.937989
 20
-87.842266
 30
0.0
 11
363.499147
 21
-87.842266
 31
0.0
  0
LINE
  8
0
  6
BYLAYER
 62
     7
 10
388.046022
 20
-86.642192
 30
0.0
 11
363.499147
 21
-86.642253
 31
0.0
  0
LINE
  8
0
  6
BYLAYER
 62
     7
 10
388.075319
 20
-87.842205
 30
0.0
 11
363.499147
 21
-87.842266
 31
0.0
  0
LINE
  8
0
  6
BYLAYER
 62
     7
 10
406.499147
 20
-86.642192
 30
0.0
 11
393.952272
 21
-86.642192
 31
0.0
  0
LINE
  8
0
  6
BYLAYER
 62
     7
 10
406.499147
 20
-87.842205
 30
0.0
 11
393.922975
 21
-87.842205
 31
0.0
  0
LINE
  8
0
  6
BYLAYER
 62
     7
 10
406.499147
 20
-149.242348
 30
0.0
 11
363.499269
 21
-149.242290
 31
0.0
  0
LINE
  8
0
  6
BYLAYER
 62
     7
 10
406.499147
 20
-155.242348
 30
0.0
 11
363.499269
 21
-155.242290
 31
0.0
  0
LINE
  8
0
  6
BYLAYER
 62
     7
 10
406.499147
 20
-158.242348
 30
0.0
 11
363.499269
 21
-158.242290
 31
0.0
  0
LINE
  8
0
  6
BYLAYER
 62
     7
 10
313.249330
 20
-136.242351
 30
0.0
 11
316.335450
 21
-147.759990
 31
0.0
  0
ARC
  8
0
  6
BYLAYER
 62
     7
 10
318.267274
 20
-147.242351
 30
0.0
 40
1.999973
 50
195.000043
 51
270.000055
  0
LINE
  8
0
  6
BYLAYER
 62
     7
 10
313.249330
 20
-143.242351
 30
0.0
 11
314.873658
 21
-142.304546
 31
0.0
  0
LINE
  8
0
  6
BYLAYER
 62
     7
 10
313.249330
 20
-143.242351
 30
0.0
 11
316.067506
 21
-153.759990
 31
0.0
  0
ARC
  8
0
  6
BYLAYER
 62
     7
 10
317.999330
 20
-153.242351
 30
0.0
 40
1.999973
 50
195.000043
 51
270.000055
  0
ARC
  8
0
  6
BYLAYER
 62
     7
 10
317.999391
 20
-156.242351
 30
0.0
 40
2.000032
 50
195.000070
 51
270.000055
  0
LINE
  8
0
  6
BYLAYER
 62
     7
 10
313.249330
 20
-146.242351
 30
0.0
 11
316.067506
 21
-156.759990
 31
0.0
  0
LINE
  8
0
  6
BYLAYER
 62
     7
 10
318.267274
 20
-149.242351
 30
0.0
 11
363.499269
 21
-149.242290
 31
0.0
  0
LINE
  8
0
  6
BYLAYER
 62
     7
 10
317.999391
 20
-155.242351
 30
0.0
 11
363.499269
 21
-155.242290
 31
0.0
  0
LINE
  8
0
  6
BYLAYER
 62
     7
 10
317.999391
 20
-158.242351
 30
0.0
 11
363.499269
 21
-158.242290
 31
0.0
  0
LINE
  8
0
  6
BYLAYER
 62
     7
 10
313.249208
 20
-147.342266
 30
0.0
 11
313.504518
 21
-147.194866
 31
0.0
  0
ARC
  8
0
  6
BYLAYER
 62
     7
 10
335.999147
 20
-87.239543
 30
0.0
 40
3.000002
 50
11.484133
 51
168.515862
  0
ARC
  8
0
  6
BYLAYER
 62
     7
 10
390.999147
 20
-87.170452
 30
0.0
 40
2.999990
 50
10.140737
 51
169.859264
  0
ARC
  8
0
  6
BYLAYER
 62
     7
 10
390.999147
 20
-87.170452
 30
0.0
 40
3.000004
 50
192.939225
 51
347.06079
  0
ARC
  8
0
  6
BYLAYER
 62
     7
 10
335.999147
 20
-87.239543
 30
0.0
 40
2.999964
 50
191.590672
 51
348.409452
  0
LINE
  8
0
  6
BYLAYER
 62
     7
 10
313.849183
 20
-65.842327
 30
0.0
 11
406.499147
 21
-65.842213
 31
0.0
  0
LINE
  8
0
  6
BYLAYER
 62
     7
 10
313.849183
 20
-75.642253
 30
0.0
 11
406.499147
 21
-75.642196
 31
0.0
  0
LINE
  8
0
  6
BYLAYER
 62
     7
 10
313.849183
 20
-76.842327
 30
0.0
 11
406.499147
 21
-76.842213
 31
0.0
  0
LINE
  8
0
  6
BYLAYER
 62
     7
 10
322.249147
 20
-39.542278
 30
0.0
 11
322.249147
 21
-46.542217
 31
0.0
  0
LINE
  8
0
  6
BYLAYER
 62
     7
 10
320.249147
 20
-37.542278
 30
0.0
 11
313.249086
 21
-37.542278
 31
0.0
  0
ARC
  8
0
  6
BYLAYER
 62
     7
 10
320.249147
 20
-39.542278
 30
0.0
 40
2.000000
 50
0.0
 51
90.000003
  0
LINE
  8
0
  6
BYLAYER
 62
     7
 10
345.249147
 20
-39.542278
 30
0.0
 11
345.249147
 21
-46.542217
 31
0.0
  0
ARC
  8
0
  6
BYLAYER
 62
     7
 10
347.249147
 20
-39.542278
 30
0.0
 40
2.0
 50
90.0
 51
180.000003
  0
LINE
  8
0
  6
BYLAYER
 62
     7
 10
361.249147
 20
-39.542278
 30
0.0
 11
361.249147
 21
-46.542217
 31
0.0
  0
LINE
  8
0
  6
BYLAYER
 62
     7
 10
359.249147
 20
-37.542278
 30
0.0
 11
347.249147
 21
-37.542278
 31
0.0
  0
ARC
  8
0
  6
BYLAYER
 62
     7
 10
359.249147
 20
-39.542278
 30
0.0
 40
2.000000
 50
0.0
 51
90.000003
  0
LINE
  8
0
  6
BYLAYER
 62
     7
 10
384.249147
 20
-39.542217
 30
0.0
 11
384.249147
 21
-46.542217
 31
0.0
  0
LINE
  8
0
  6
BYLAYER
 62
     7
 10
393.249147
 20
-37.542217
 30
0.0
 11
386.249147
 21
-37.542217
 31
0.0
  0
ARC
  8
0
  6
BYLAYER
 62
     7
 10
386.249147
 20
-39.542217
 30
0.0
 40
2.0
 50
90.0
 51
180.000003
  0
LINE
  8
0
  6
BYLAYER
 62
     7
 10
406.499147
 20
-64.642253
 30
0.0
 11
313.849183
 21
-64.642253
 31
0.0
  0
LINE
  8
0
  6
BYLAYER
 62
     7
 10
393.249147
 20
-64.642253
 30
0.0
 11
393.249147
 21
-33.042217
 31
0.0
  0
LINE
  8
0
  6
BYLAYER
 62
     7
 10
313.849183
 20
-97.642253
 30
0.0
 11
406.499147
 21
-97.642253
 31
0.0
  0
LINE
  8
0
  6
BYLAYER
 62
     7
 10
313.849183
 20
-98.842266
 30
0.0
 11
406.499147
 21
-98.842266
 31
0.0
  0
LINE
  8
0
  6
BYLAYER
 62
     7
 10
313.849183
 20
-109.842266
 30
0.0
 11
406.499147
 21
-109.842206
 31
0.0
  0
LINE
  8
0
  6
BYLAYER
 62
     7
 10
313.849183
 20
-119.642253
 30
0.0
 11
406.499147
 21
-119.642196
 31
0.0
  0
LINE
  8
0
  6
BYLAYER
 62
     7
 10
313.849183
 20
-120.842327
 30
0.0
 11
406.499147
 21
-120.842213
 31
0.0
  0
LINE
  8
0
  6
BYLAYER
 62
     7
 10
313.849183
 20
-130.642314
 30
0.0
 11
406.499147
 21
-130.642200
 31
0.0
  0
LINE
  8
0
  6
BYLAYER
 62
     7
 10
313.849183
 20
-131.842327
 30
0.0
 11
406.499147
 21
-131.842213
 31
0.0
  0
LINE
  8
0
  6
BYLAYER
 62
     7
 10
313.849183
 20
-108.642253
 30
0.0
 11
406.499147
 21
-108.642192
 31
0.0
  0
LINE
  8
0
  6
BYLAYER
 62
     7
 10
405.249147
 20
-65.842205
 30
0.0
 11
405.249147
 21
-75.642192
 31
0.0
  0
LINE
  8
0
  6
BYLAYER
 62
     7
 10
321.749208
 20
-65.842327
 30
0.0
 11
321.749208
 21
-75.642253
 31
0.0
  0
LINE
  8
0
  6
BYLAYER
 62
     7
 10
405.249147
 20
-76.842205
 30
0.0
 11
405.249147
 21
-86.642192
 31
0.0
  0
LINE
  8
0
  6
BYLAYER
 62
     7
 10
321.749208
 20
-76.842327
 30
0.0
 11
321.749208
 21
-86.642192
 31
0.0
  0
LINE
  8
0
  6
BYLAYER
 62
     7
 10
405.249147
 20
-87.842266
 30
0.0
 11
405.249147
 21
-97.642253
 31
0.0
  0
LINE
  8
0
  6
BYLAYER
 62
     7
 10
321.749208
 20
-87.842266
 30
0.0
 11
321.749208
 21
-97.642253
 31
0.0
  0
LINE
  8
0
  6
BYLAYER
 62
     7
 10
321.749208
 20
-98.842266
 30
0.0
 11
321.749208
 21
-108.642253
 31
0.0
  0
LINE
  8
0
  6
BYLAYER
 62
     7
 10
405.249147
 20
-98.842266
 30
0.0
 11
405.249147
 21
-108.642192
 31
0.0
  0
LINE
  8
0
  6
BYLAYER
 62
     7
 10
321.749208
 20
-109.842266
 30
0.0
 11
321.749208
 21
-119.642253
 31
0.0
  0
LINE
  8
0
  6
BYLAYER
 62
     7
 10
405.249147
 20
-109.842205
 30
0.0
 11
405.249147
 21
-119.642192
 31
0.0
  0
LINE
  8
0
  6
BYLAYER
 62
     7
 10
321.749208
 20
-120.842266
 30
0.0
 11
321.749208
 21
-130.642314
 31
0.0
  0
LINE
  8
0
  6
BYLAYER
 62
     7
 10
405.249147
 20
-120.842205
 30
0.0
 11
405.249147
 21
-130.642192
 31
0.0
  0
LINE
  8
0
  6
BYLAYER
 62
     7
 10
406.499147
 20
-64.146330
 30
0.0
 11
405.291261
 21
-64.630168
 31
0.0
  0
LINE
  8
0
  6
BYLAYER
 62
     7
 10
321.739259
 20
-64.513530
 30
0.0
 11
313.214967
 21
-62.097576
 31
0.0
  0
LINE
  8
0
  6
BYLAYER
 62
     7
 10
321.749208
 20
-131.842266
 30
0.0
 11
321.749208
 21
-133.842266
 31
0.0
  0
LINE
  8
0
  6
BYLAYER
 62
     7
 10
405.249147
 20
-131.842205
 30
0.0
 11
405.249147
 21
-133.842205
 31
0.0
  0
LINE
  8
0
  6
BYLAYER
 62
     7
 10
405.249147
 20
-133.842205
 30
0.0
 11
321.749208
 21
-133.842266
 31
0.0
  0
LINE
  8
0
  6
BYLAYER
 62
     7
 10
405.249147
 20
-133.842205
 30
0.0
 11
406.499147
 21
-134.195168
 31
0.0
  0
LINE
  8
0
  6
BYLAYER
 62
     7
 10
321.749208
 20
-133.842266
 30
0.0
 11
313.249330
 21
-136.242351
 31
0.0
  0
LINE
  8
0
  6
BYLAYER
 62
     7
 10
311.249086
 20
-147.342327
 30
0.0
 11
313.249086
 21
-147.342327
 31
0.0
  0
LINE
  8
0
  6
BYLAYER
 62
     7
 10
406.499147
 20
-98.242320
 30
0.0
 11
406.499147
 21
-37.642320
 31
0.0
  0
LINE
  8
0
  6
BYLAYER
 62
     7
 10
462.747675
 20
-37.642320
 30
0.0
 11
473.099147
 21
-47.993792
 31
0.0
  0
LINE
  8
0
  6
BYLAYER
 62
     7
 10
406.499147
 20
-37.642320
 30
0.0
 11
413.499147
 21
-37.642320
 31
0.0
  0
LINE
  8
0
  6
BYLAYER
 62
     7
 10
413.499147
 20
-37.642320
 30
0.0
 11
462.747675
 21
-37.642320
 31
0.0
  0
LINE
  8
0
  6
BYLAYER
 62
     7
 10
473.099147
 20
-47.993792
 30
0.0
 11
473.099147
 21
-98.242320
 31
0.0
  0
LINE
  8
0
  6
BYLAYER
 62
     7
 10
406.499147
 20
-158.842320
 30
0.0
 11
406.499147
 21
-98.242320
 31
0.0
  0
LINE
  8
0
  6
BYLAYER
 62
     7
 10
473.099147
 20
-148.490849
 30
0.0
 11
462.747675
 21
-158.842320
 31
0.0
  0
LINE
  8
0
  6
BYLAYER
 62
     7
 10
462.747675
 20
-158.842320
 30
0.0
 11
406.499147
 21
-158.842320
 31
0.0
  0
LINE
  8
0
  6
BYLAYER
 62
     7
 10
473.099147
 20
-98.242320
 30
0.0
 11
473.099147
 21
-148.490849
 31
0.0
  0
LINE
  8
0
  6
BYLAYER
 62
     7
 10
284.249147
 20
-167.742321
 30
0.0
 11
284.249147
 21
-98.242321
 31
0.0
  0
LINE
  8
0
  6
BYLAYER
 62
     7
 10
284.749147
 20
-168.242321
 30
0.0
 11
284.249147
 21
-167.742321
 31
0.0
  0
LINE
  8
0
  6
BYLAYER
 62
     7
 10
284.249147
 20
-98.242321
 30
0.0
 11
284.249147
 21
-28.742321
 31
0.0
  0
LINE
  8
0
  6
BYLAYER
 62
     7
 10
284.249147
 20
-28.742321
 30
0.0
 11
284.749147
 21
-28.242321
 31
0.0
  0
LINE
  8
0
  6
BYLAYER
 62
     7
 10
293.249147
 20
-168.242321
 30
0.0
 11
284.749147
 21
-168.242321
 31
0.0
  0
LINE
  8
0
  6
BYLAYER
 62
     7
 10
293.249147
 20
-98.242321
 30
0.0
 11
293.249147
 21
-168.242321
 31
0.0
  0
LINE
  8
0
  6
BYLAYER
 62
     7
 10
295.214235
 20
-48.962414
 30
0.0
 11
311.249147
 21
-49.242321
 31
0.0
  0
LINE
  8
0
  6
BYLAYER
 62
     7
 10
293.249147
 20
-28.242321
 30
0.0
 11
293.249147
 21
-98.242321
 31
0.0
  0
ARC
  8
0
  6
BYLAYER
 62
     7
 10
295.249147
 20
-46.962719
 30
0.0
 40
2.0
 50
180.000000
 51
268.999783
  0
LINE
  8
0
  6
BYLAYER
 62
     7
 10
284.749147
 20
-28.242321
 30
0.0
 11
293.249147
 21
-28.242321
 31
0.0
  0
LINE
  8
0
  6
BYLAYER
 62
     7
 10
309.249147
 20
-147.277233
 30
0.0
 11
309.249147
 21
-157.242321
 31
0.0
  0
LINE
  8
0
  6
BYLAYER
 62
     7
 10
311.249147
 20
-147.242321
 30
0.0
 11
309.249147
 21
-147.277233
 31
0.0
  0
LINE
  8
0
  6
BYLAYER
 62
     7
 10
309.249147
 20
-157.242321
 30
0.0
 11
293.249147
 21
-157.521596
 31
0.0
  0
LINE
  8
0
  6
BYLAYER
 62
     7
 10
311.249147
 20
-98.242321
 30
0.0
 11
311.249147
 21
-147.242321
 31
0.0
  0
LINE
  8
0
  6
BYLAYER
 62
     7
 10
311.249147
 20
-49.242321
 30
0.0
 11
311.249147
 21
-98.242321
 31
0.0
  0
ARC
  8
0
  6
BYLAYER
 62
     7
 10
384.003424
 20
-22.542217
 30
0.0
 40
1.500000
 50
180.000000
 51
270.000000
  0
ARC
  8
0
  6
BYLAYER
 62
     7
 10
322.494748
 20
-22.542217
 30
0.0
 40
1.5
 50
270.0
 51
360.0
  0
ARC
  8
0
  6
BYLAYER
 62
     7
 10
314.749086
 20
-22.542217
 30
0.0
 40
1.5
 50
270.0
 51
360.0
  0
ARC
  8
0
  6
BYLAYER
 62
     7
 10
314.749086
 20
-25.542217
 30
0.0
 40
1.500000
 50
90.0
 51
180.0
  0
ARC
  8
0
  6
BYLAYER
 62
     7
 10
391.749086
 20
-22.542217
 30
0.0
 40
1.5
 50
180.000000
 51
270.000000
  0
LINE
  8
0
  6
BYLAYER
 62
     7
 10
316.249086
 20
-22.542217
 30
0.0
 11
316.249086
 21
-1.042217
 31
0.0
  0
ARC
  8
0
  6
BYLAYER
 62
     7
 10
317.749086
 20
-1.042217
 30
0.0
 40
1.5
 50
90.0
 51
180.0
  0
LINE
  8
0
  6
BYLAYER
 62
     7
 10
390.249086
 20
-22.542217
 30
0.0
 11
390.249086
 21
-1.042217
 31
0.0
  0
LINE
  8
0
  6
BYLAYER
 62
     7
 10
317.749086
 20
0.457783
 30
0.0
 11
388.749086
 21
0.457783
 31
0.0
  0
ARC
  8
0
  6
BYLAYER
 62
     7
 10
381.003424
 20
-1.042217
 30
0.0
 40
1.5
 50
0.0
 51
90.0
  0
ARC
  8
0
  6
BYLAYER
 62
     7
 10
388.749086
 20
-1.042217
 30
0.0
 40
1.5
 50
0.0
 51
90.0
  0
LINE
  8
0
  6
BYLAYER
 62
     7
 10
323.994748
 20
-22.542217
 30
0.0
 11
323.994748
 21
-1.042217
 31
0.0
  0
ARC
  8
0
  6
BYLAYER
 62
     7
 10
325.494748
 20
-1.042217
 30
0.0
 40
1.5
 50
90.0
 51
180.0
  0
LINE
  8
0
  6
BYLAYER
 62
     7
 10
382.503424
 20
-22.542217
 30
0.0
 11
382.503424
 21
-1.042217
 31
0.0
  0
ARC
  8
0
  6
BYLAYER
 62
     7
 10
391.749086
 20
-25.542217
 30
0.0
 40
1.500000
 50
0.0
 51
90.0
  0
LINE
  8
0
  6
BYLAYER
 62
     7
 10
393.249086
 20
-33.042217
 30
0.0
 11
393.249086
 21
-25.542217
 31
0.0
  0
LINE
  8
0
  6
BYLAYER
 62
     7
 10
391.749086
 20
-24.042217
 30
0.0
 11
314.749086
 21
-24.042217
 31
0.0
  0
LINE
  8
0
  6
BYLAYER
 62
     7
 10
313.249086
 20
-25.542217
 30
0.0
 11
313.249086
 21
-33.042217
 31
0.0
  0
LINE
  8
0
  6
BYLAYER
 62
     7
 10
313.249086
 20
-33.042217
 30
0.0
 11
393.249086
 21
-33.042217
 31
0.0
  0
LINE
  8
0
  6
BYLAYER
 62
     7
 10
393.249086
 20
-31.042217
 30
0.0
 11
313.249086
 21
-31.042217
 31
0.0
  0
LINE
  8
0
  6
BYLAYER
 62
     7
 10
462.747675
 20
-37.642320
 30
0.0
 11
462.747675
 21
-158.842320
 31
0.0
  0
LINE
  8
0
  6
BYLAYER
 62
     7
 10
316.249147
 20
-522.758976
 30
0.0
 11
316.249147
 21
-473.725606
 31
0.0
  0
LINE
  8
0
  6
BYLAYER
 62
     7
 10
325.711553
 20
-463.992291
 30
0.0
 11
380.786741
 21
-463.992291
 31
0.0
  0
LINE
  8
0
  6
BYLAYER
 62
     7
 10
390.249147
 20
-473.725606
 30
0.0
 11
390.249147
 21
-522.758976
 31
0.0
  0
LINE
  8
0
  6
BYLAYER
 62
     7
 10
380.786741
 20
-532.492291
 30
0.0
 11
325.711553
 21
-532.492291
 31
0.0
  0
LINE
  8
0
  6
BYLAYER
 62
     7
 10
330.353845
 20
-488.343397
 30
0.0
 11
316.249147
 21
-488.835944
 31
0.0
  0
ARC
  8
0
  6
BYLAYER
 62
     7
 10
330.249147
 20
-485.345225
 30
0.0
 40
3.000000
 50
272.000000
 51
360.000000
  0
LINE
  8
0
  6
BYLAYER
 62
     7
 10
330.353845
 20
-503.343397
 30
0.0
 11
316.249147
 21
-503.835944
 31
0.0
  0
ARC
  8
0
  6
BYLAYER
 62
     7
 10
330.249147
 20
-500.345225
 30
0.0
 40
3.000000
 50
272.000000
 51
360.000000
  0
LINE
  8
0
  6
BYLAYER
 62
     7
 10
330.353845
 20
-518.343397
 30
0.0
 11
316.249147
 21
-518.835944
 31
0.0
  0
ARC
  8
0
  6
BYLAYER
 62
     7
 10
330.249147
 20
-515.345225
 30
0.0
 40
3.0
 50
272.000000
 51
360.000000
  0
LINE
  8
0
  6
BYLAYER
 62
     7
 10
316.249147
 20
-507.648638
 30
0.0
 11
330.353845
 21
-508.141185
 31
0.0
  0
ARC
  8
0
  6
BYLAYER
 62
     7
 10
330.249147
 20
-511.139357
 30
0.0
 40
3.0
 50
0.0
 51
88.0
  0
LINE
  8
0
  6
BYLAYER
 62
     7
 10
316.249147
 20
-492.648638
 30
0.0
 11
330.353845
 21
-493.141185
 31
0.0
  0
ARC
  8
0
  6
BYLAYER
 62
     7
 10
330.249147
 20
-496.139357
 30
0.0
 40
3.000000
 50
0.0
 51
88.0
  0
LINE
  8
0
  6
BYLAYER
 62
     7
 10
333.249147
 20
-511.139357
 30
0.0
 11
333.249147
 21
-515.345225
 31
0.0
  0
LINE
  8
0
  6
BYLAYER
 62
     7
 10
333.249147
 20
-496.139357
 30
0.0
 11
333.249147
 21
-500.345225
 31
0.0
  0
LINE
  8
0
  6
BYLAYER
 62
     7
 10
317.249147
 20
-492.683559
 30
0.0
 11
317.249147
 21
-503.801023
 31
0.0
  0
LINE
  8
0
  6
BYLAYER
 62
     7
 10
317.249147
 20
-507.683559
 30
0.0
 11
317.249147
 21
-518.801023
 31
0.0
  0
LINE
  8
0
  6
BYLAYER
 62
     7
 10
317.249147
 20
-477.683559
 30
0.0
 11
317.249147
 21
-488.801023
 31
0.0
  0
LINE
  8
0
  6
BYLAYER
 62
     7
 10
390.249147
 20
-477.648638
 30
0.0
 11
376.144449
 21
-478.141185
 31
0.0
  0
ARC
  8
0
  6
BYLAYER
 62
     7
 10
376.249147
 20
-481.139357
 30
0.0
 40
3.000000
 50
92.000000
 51
180.000000
  0
LINE
  8
0
  6
BYLAYER
 62
     7
 10
376.144449
 20
-488.343397
 30
0.0
 11
390.249147
 21
-488.835944
 31
0.0
  0
ARC
  8
0
  6
BYLAYER
 62
     7
 10
376.249147
 20
-485.345225
 30
0.0
 40
3.000000
 50
180.000000
 51
268.000000
  0
LINE
  8
0
  6
BYLAYER
 62
     7
 10
376.144449
 20
-503.343397
 30
0.0
 11
390.249147
 21
-503.835944
 31
0.0
  0
ARC
  8
0
  6
BYLAYER
 62
     7
 10
376.249147
 20
-500.345225
 30
0.0
 40
3.000000
 50
180.000000
 51
268.000000
  0
LINE
  8
0
  6
BYLAYER
 62
     7
 10
376.144449
 20
-518.343397
 30
0.0
 11
390.249147
 21
-518.835944
 31
0.0
  0
ARC
  8
0
  6
BYLAYER
 62
     7
 10
376.249147
 20
-515.345225
 30
0.0
 40
3.000000
 50
180.000000
 51
268.000000
  0
LINE
  8
0
  6
BYLAYER
 62
     7
 10
390.249147
 20
-507.648638
 30
0.0
 11
376.144449
 21
-508.141185
 31
0.0
  0
ARC
  8
0
  6
BYLAYER
 62
     7
 10
376.249147
 20
-511.139357
 30
0.0
 40
3.0
 50
92.0
 51
180.0
  0
LINE
  8
0
  6
BYLAYER
 62
     7
 10
390.249147
 20
-492.648638
 30
0.0
 11
376.144449
 21
-493.141185
 31
0.0
  0
ARC
  8
0
  6
BYLAYER
 62
     7
 10
376.249147
 20
-496.139357
 30
0.0
 40
3.000000
 50
92.000000
 51
180.000000
  0
LINE
  8
0
  6
BYLAYER
 62
     7
 10
373.249147
 20
-511.139357
 30
0.0
 11
373.249147
 21
-515.345225
 31
0.0
  0
LINE
  8
0
  6
BYLAYER
 62
     7
 10
373.249147
 20
-496.139357
 30
0.0
 11
373.249147
 21
-500.345225
 31
0.0
  0
LINE
  8
0
  6
BYLAYER
 62
     7
 10
373.249147
 20
-481.139357
 30
0.0
 11
373.249147
 21
-485.345225
 31
0.0
  0
LINE
  8
0
  6
BYLAYER
 62
     7
 10
389.249147
 20
-492.683559
 30
0.0
 11
389.249147
 21
-503.801023
 31
0.0
  0
LINE
  8
0
  6
BYLAYER
 62
     7
 10
389.249147
 20
-507.683559
 30
0.0
 11
389.249147
 21
-518.801023
 31
0.0
  0
LINE
  8
0
  6
BYLAYER
 62
     7
 10
389.249147
 20
-477.683559
 30
0.0
 11
389.249147
 21
-488.801023
 31
0.0
  0
LINE
  8
0
  6
BYLAYER
 62
     7
 10
313.249147
 20
-462.742291
 30
0.0
 11
313.249147
 21
-533.742291
 31
0.0
  0
ARC
  8
0
  6
BYLAYER
 62
     7
 10
314.749147
 20
-533.742291
 30
0.0
 40
1.5
 50
180.000000
 51
270.000000
  0
ARC
  8
0
  6
BYLAYER
 62
     7
 10
314.749147
 20
-462.742291
 30
0.0
 40
1.5
 50
90.0
 51
180.0
  0
LINE
  8
0
  6
BYLAYER
 62
     7
 10
391.749147
 20
-461.242291
 30
0.0
 11
314.749147
 21
-461.242291
 31
0.0
  0
ARC
  8
0
  6
BYLAYER
 62
     7
 10
391.749147
 20
-462.742291
 30
0.0
 40
1.5
 50
0.0
 51
90.0
  0
LINE
  8
0
  6
BYLAYER
 62
     7
 10
393.249147
 20
-533.742291
 30
0.0
 11
393.249147
 21
-462.742291
 31
0.0
  0
LINE
  8
0
  6
BYLAYER
 62
     7
 10
314.749147
 20
-535.242291
 30
0.0
 11
391.749147
 21
-535.242291
 31
0.0
  0
ARC
  8
0
  6
BYLAYER
 62
     7
 10
391.749147
 20
-533.742291
 30
0.0
 40
1.5
 50
270.0
 51
360.0
  0
ARC
  8
0
  6
BYLAYER
 62
     7
 10
388.249147
 20
-466.242291
 30
0.0
 40
6.0
 50
174.260830
 51
273.822554
  0
ARC
  8
0
  6
BYLAYER
 62
     7
 10
388.749147
 20
-473.725606
 30
0.0
 40
1.500000
 50
0.0
 51
93.822554
  0
ARC
  8
0
  6
BYLAYER
 62
     7
 10
380.786741
 20
-465.492291
 30
0.0
 40
1.500000
 50
354.26083
 51
450.0
  0
ARC
  8
0
  6
BYLAYER
 62
     7
 10
388.249147
 20
-530.242291
 30
0.0
 40
6.000000
 50
86.177446
 51
185.739170
  0
ARC
  8
0
  6
BYLAYER
 62
     7
 10
388.749147
 20
-522.758976
 30
0.0
 40
1.500000
 50
266.177446
 51
360.000000
  0
ARC
  8
0
  6
BYLAYER
 62
     7
 10
380.786741
 20
-530.992291
 30
0.0
 40
1.5
 50
270.0
 51
365.739170
  0
ARC
  8
0
  6
BYLAYER
 62
     7
 10
318.249147
 20
-530.242291
 30
0.0
 40
6.000000
 50
354.260830
 51
453.822554
  0
ARC
  8
0
  6
BYLAYER
 62
     7
 10
325.711553
 20
-530.992291
 30
0.0
 40
1.500000
 50
174.260830
 51
270.000000
  0
ARC
  8
0
  6
BYLAYER
 62
     7
 10
317.749147
 20
-522.758976
 30
0.0
 40
1.500000
 50
180.000000
 51
273.822554
  0
ARC
  8
0
  6
BYLAYER
 62
     7
 10
318.249147
 20
-466.242291
 30
0.0
 40
6.000000
 50
266.177446
 51
365.739170
  0
ARC
  8
0
  6
BYLAYER
 62
     7
 10
317.749147
 20
-473.725606
 30
0.0
 40
1.500000
 50
86.177446
 51
180.000000
  0
ARC
  8
0
  6
BYLAYER
 62
     7
 10
325.711553
 20
-465.492291
 30
0.0
 40
1.5
 50
90.0
 51
185.73917
  0
ARC
  8
0
  6
BYLAYER
 62
     7
 10
340.249147
 20
-471.242291
 30
0.0
 40
3.0
 50
90.0
 51
180.0
  0
ARC
  8
0
  6
BYLAYER
 62
     7
 10
366.249147
 20
-471.242291
 30
0.0
 40
3.0
 50
0.0
 51
90.0
  0
LINE
  8
0
  6
BYLAYER
 62
     7
 10
340.249147
 20
-468.242291
 30
0.0
 11
366.249147
 21
-468.242291
 31
0.0
  0
ARC
  8
0
  6
BYLAYER
 62
     7
 10
340.249147
 20
-525.242291
 30
0.0
 40
3.0
 50
180.000000
 51
270.000000
  0
ARC
  8
0
  6
BYLAYER
 62
     7
 10
366.249147
 20
-525.242291
 30
0.0
 40
3.0
 50
270.0
 51
360.0
  0
LINE
  8
0
  6
BYLAYER
 62
     7
 10
340.249147
 20
-528.242291
 30
0.0
 11
366.249147
 21
-528.242291
 31
0.0
  0
LINE
  8
0
  6
BYLAYER
 62
     7
 10
337.249147
 20
-525.242291
 30
0.0
 11
337.249147
 21
-471.242291
 31
0.0
  0
LINE
  8
0
  6
BYLAYER
 62
     7
 10
369.249147
 20
-471.242291
 30
0.0
 11
369.249147
 21
-525.242291
 31
0.0
  0
LINE
  8
0
  6
BYLAYER
 62
     7
 10
313.249147
 20
-498.242291
 30
0.0
 11
313.249208
 21
-547.342267
 31
0.0
  0
LINE
  8
0
  6
BYLAYER
 62
     7
 10
406.499147
 20
-549.242349
 30
0.0
 11
363.499269
 21
-549.242291
 31
0.0
  0
LINE
  8
0
  6
BYLAYER
 62
     7
 10
406.499147
 20
-555.242349
 30
0.0
 11
363.499269
 21
-555.242291
 31
0.0
  0
LINE
  8
0
  6
BYLAYER
 62
     7
 10
406.499147
 20
-558.242349
 30
0.0
 11
363.499269
 21
-558.242291
 31
0.0
  0
LINE
  8
0
  6
BYLAYER
 62
     7
 10
313.249330
 20
-536.242352
 30
0.0
 11
316.335450
 21
-547.759991
 31
0.0
  0
ARC
  8
0
  6
BYLAYER
 62
     7
 10
318.267274
 20
-547.242352
 30
0.0
 40
1.999973
 50
195.000043
 51
270.000055
  0
LINE
  8
0
  6
BYLAYER
 62
     7
 10
313.249330
 20
-543.242352
 30
0.0
 11
314.873658
 21
-542.304547
 31
0.0
  0
LINE
  8
0
  6
BYLAYER
 62
     7
 10
313.249330
 20
-543.242352
 30
0.0
 11
316.067506
 21
-553.759991
 31
0.0
  0
ARC
  8
0
  6
BYLAYER
 62
     7
 10
317.999330
 20
-553.242352
 30
0.0
 40
1.999973
 50
195.000043
 51
270.000055
  0
ARC
  8
0
  6
BYLAYER
 62
     7
 10
317.999391
 20
-556.242352
 30
0.0
 40
2.000032
 50
195.000070
 51
270.000055
  0
LINE
  8
0
  6
BYLAYER
 62
     7
 10
313.249330
 20
-546.242352
 30
0.0
 11
316.067506
 21
-556.759991
 31
0.0
  0
LINE
  8
0
  6
BYLAYER
 62
     7
 10
318.267274
 20
-549.242352
 30
0.0
 11
363.499269
 21
-549.242291
 31
0.0
  0
LINE
  8
0
  6
BYLAYER
 62
     7
 10
317.999391
 20
-555.242352
 30
0.0
 11
363.499269
 21
-555.242291
 31
0.0
  0
LINE
  8
0
  6
BYLAYER
 62
     7
 10
317.999391
 20
-558.242352
 30
0.0
 11
363.499269
 21
-558.242291
 31
0.0
  0
LINE
  8
0
  6
BYLAYER
 62
     7
 10
313.249208
 20
-547.342267
 30
0.0
 11
313.504518
 21
-547.194867
 31
0.0
  0
LINE
  8
0
  6
BYLAYER
 62
     7
 10
393.249147
 20
-498.842267
 30
0.0
 11
406.499147
 21
-498.842267
 31
0.0
  0
LINE
  8
0
  6
BYLAYER
 62
     7
 10
393.249147
 20
-509.842216
 30
0.0
 11
406.499147
 21
-509.842207
 31
0.0
  0
LINE
  8
0
  6
BYLAYER
 62
     7
 10
393.249147
 20
-519.642205
 30
0.0
 11
406.499147
 21
-519.642197
 31
0.0
  0
LINE
  8
0
  6
BYLAYER
 62
     7
 10
393.249147
 20
-520.842231
 30
0.0
 11
406.499147
 21
-520.842214
 31
0.0
  0
LINE
  8
0
  6
BYLAYER
 62
     7
 10
393.249147
 20
-530.642218
 30
0.0
 11
406.499147
 21
-530.642201
 31
0.0
  0
LINE
  8
0
  6
BYLAYER
 62
     7
 10
393.249147
 20
-531.842231
 30
0.0
 11
406.499147
 21
-531.842214
 31
0.0
  0
LINE
  8
0
  6
BYLAYER
 62
     7
 10
393.249147
 20
-508.642202
 30
0.0
 11
406.499147
 21
-508.642194
 31
0.0
  0
LINE
  8
0
  6
BYLAYER
 62
     7
 10
405.249147
 20
-498.842267
 30
0.0
 11
405.249147
 21
-508.642193
 31
0.0
  0
LINE
  8
0
  6
BYLAYER
 62
     7
 10
405.249147
 20
-509.842206
 30
0.0
 11
405.249147
 21
-519.642193
 31
0.0
  0
LINE
  8
0
  6
BYLAYER
 62
     7
 10
405.249147
 20
-520.842206
 30
0.0
 11
405.249147
 21
-530.642193
 31
0.0
  0
LINE
  8
0
  6
BYLAYER
 62
     7
 10
405.249147
 20
-531.842206
 30
0.0
 11
405.249147
 21
-533.842206
 31
0.0
  0
LINE
  8
0
  6
BYLAYER
 62
     7
 10
405.249147
 20
-533.842206
 30
0.0
 11
393.249147
 21
-533.842215
 31
0.0
  0
LINE
  8
0
  6
BYLAYER
 62
     7
 10
405.249147
 20
-533.842206
 30
0.0
 11
406.499147
 21
-534.195169
 31
0.0
  0
LINE
  8
0
  6
BYLAYER
 62
     7
 10
316.791036
 20
-535.242291
 30
0.0
 11
313.249330
 21
-536.242352
 31
0.0
  0
LINE
  8
0
  6
BYLAYER
 62
     7
 10
311.249086
 20
-547.342328
 30
0.0
 11
313.249086
 21
-547.342328
 31
0.0
  0
LINE
  8
0
  6
BYLAYER
 62
     7
 10
406.499147
 20
-558.842322
 30
0.0
 11
406.499147
 21
-498.242322
 31
0.0
  0
LINE
  8
0
  6
BYLAYER
 62
     7
 10
473.099147
 20
-548.490850
 30
0.0
 11
462.747675
 21
-558.842322
 31
0.0
  0
LINE
  8
0
  6
BYLAYER
 62
     7
 10
462.747675
 20
-558.842322
 30
0.0
 11
406.499147
 21
-558.842322
 31
0.0
  0
LINE
  8
0
  6
BYLAYER
 62
     7
 10
473.099147
 20
-498.242322
 30
0.0
 11
473.099147
 21
-548.490850
 31
0.0
  0
LINE
  8
0
  6
BYLAYER
 62
     7
 10
316.249147
 20
-477.648638
 30
0.0
 11
330.353845
 21
-478.141185
 31
0.0
  0
ARC
  8
0
  6
BYLAYER
 62
     7
 10
330.249147
 20
-481.139357
 30
0.0
 40
3.000000
 50
0.0
 51
88.0
  0
LINE
  8
0
  6
BYLAYER
 62
     7
 10
333.249147
 20
-485.345225
 30
0.0
 11
333.249147
 21
-481.139357
 31
0.0
  0
LINE
  8
0
  6
BYLAYER
 62
     7
 10
313.249147
 20
-498.242352
 30
0.0
 11
313.249208
 21
-449.142376
 31
0.0
  0
LINE
  8
0
  6
BYLAYER
 62
     7
 10
406.499147
 20
-447.242294
 30
0.0
 11
363.499269
 21
-447.242352
 31
0.0
  0
LINE
  8
0
  6
BYLAYER
 62
     7
 10
406.499147
 20
-441.242294
 30
0.0
 11
363.499269
 21
-441.242352
 31
0.0
  0
LINE
  8
0
  6
BYLAYER
 62
     7
 10
406.499147
 20
-438.242294
 30
0.0
 11
363.499269
 21
-438.242352
 31
0.0
  0
LINE
  8
0
  6
BYLAYER
 62
     7
 10
313.249330
 20
-460.242291
 30
0.0
 11
316.335450
 21
-448.724652
 31
0.0
  0
ARC
  8
0
  6
BYLAYER
 62
     7
 10
318.267274
 20
-449.242291
 30
0.0
 40
1.999973
 50
90.0
 51
165.000012
  0
LINE
  8
0
  6
BYLAYER
 62
     7
 10
313.249330
 20
-453.242291
 30
0.0
 11
314.873658
 21
-454.180096
 31
0.0
  0
LINE
  8
0
  6
BYLAYER
 62
     7
 10
313.249330
 20
-453.242291
 30
0.0
 11
316.067506
 21
-442.724652
 31
0.0
  0
ARC
  8
0
  6
BYLAYER
 62
     7
 10
317.999330
 20
-443.242291
 30
0.0
 40
1.999973
 50
90.0
 51
165.000012
  0
ARC
  8
0
  6
BYLAYER
 62
     7
 10
317.999391
 20
-440.242291
 30
0.0
 40
2.000032
 50
90.0
 51
164.999985
  0
LINE
  8
0
  6
BYLAYER
 62
     7
 10
313.249330
 20
-450.242291
 30
0.0
 11
316.067506
 21
-439.724652
 31
0.0
  0
LINE
  8
0
  6
BYLAYER
 62
     7
 10
318.267274
 20
-447.242291
 30
0.0
 11
363.499269
 21
-447.242352
 31
0.0
  0
LINE
  8
0
  6
BYLAYER
 62
     7
 10
317.999391
 20
-441.242291
 30
0.0
 11
363.499269
 21
-441.242352
 31
0.0
  0
LINE
  8
0
  6
BYLAYER
 62
     7
 10
317.999391
 20
-438.242291
 30
0.0
 11
363.499269
 21
-438.242352
 31
0.0
  0
LINE
  8
0
  6
BYLAYER
 62
     7
 10
313.249208
 20
-449.142376
 30
0.0
 11
313.504518
 21
-449.289776
 31
0.0
  0
LINE
  8
0
  6
BYLAYER
 62
     7
 10
393.249147
 20
-497.642376
 30
0.0
 11
406.499147
 21
-497.642376
 31
0.0
  0
LINE
  8
0
  6
BYLAYER
 62
     7
 10
393.249147
 20
-486.642428
 30
0.0
 11
406.499147
 21
-486.642436
 31
0.0
  0
LINE
  8
0
  6
BYLAYER
 62
     7
 10
393.249147
 20
-476.842438
 30
0.0
 11
406.499147
 21
-476.842446
 31
0.0
  0
LINE
  8
0
  6
BYLAYER
 62
     7
 10
393.249147
 20
-475.642413
 30
0.0
 11
406.499147
 21
-475.642429
 31
0.0
  0
LINE
  8
0
  6
BYLAYER
 62
     7
 10
393.249147
 20
-465.842426
 30
0.0
 11
406.499147
 21
-465.842442
 31
0.0
  0
LINE
  8
0
  6
BYLAYER
 62
     7
 10
393.249147
 20
-464.642413
 30
0.0
 11
406.499147
 21
-464.642429
 31
0.0
  0
LINE
  8
0
  6
BYLAYER
 62
     7
 10
393.249147
 20
-487.842441
 30
0.0
 11
406.499147
 21
-487.842450
 31
0.0
  0
LINE
  8
0
  6
BYLAYER
 62
     7
 10
405.249147
 20
-497.642376
 30
0.0
 11
405.249147
 21
-487.842450
 31
0.0
  0
LINE
  8
0
  6
BYLAYER
 62
     7
 10
405.249147
 20
-486.642437
 30
0.0
 11
405.249147
 21
-476.842450
 31
0.0
  0
LINE
  8
0
  6
BYLAYER
 62
     7
 10
405.249147
 20
-475.642437
 30
0.0
 11
405.249147
 21
-465.842450
 31
0.0
  0
LINE
  8
0
  6
BYLAYER
 62
     7
 10
405.249147
 20
-464.642437
 30
0.0
 11
405.249147
 21
-462.642437
 31
0.0
  0
LINE
  8
0
  6
BYLAYER
 62
     7
 10
405.249147
 20
-462.642437
 30
0.0
 11
393.249147
 21
-462.642428
 31
0.0
  0
LINE
  8
0
  6
BYLAYER
 62
     7
 10
405.249147
 20
-462.642437
 30
0.0
 11
406.499147
 21
-462.289474
 31
0.0
  0
LINE
  8
0
  6
BYLAYER
 62
     7
 10
316.791036
 20
-461.242352
 30
0.0
 11
313.249330
 21
-460.242291
 31
0.0
  0
LINE
  8
0
  6
BYLAYER
 62
     7
 10
311.249086
 20
-449.142315
 30
0.0
 11
313.249086
 21
-449.142315
 31
0.0
  0
LINE
  8
0
  6
BYLAYER
 62
     7
 10
406.499147
 20
-437.642322
 30
0.0
 11
406.499147
 21
-498.242322
 31
0.0
  0
LINE
  8
0
  6
BYLAYER
 62
     7
 10
473.099147
 20
-447.993793
 30
0.0
 11
462.747675
 21
-437.642322
 31
0.0
  0
LINE
  8
0
  6
BYLAYER
 62
     7
 10
462.747675
 20
-437.642322
 30
0.0
 11
406.499147
 21
-437.642322
 31
0.0
  0
LINE
  8
0
  6
BYLAYER
 62
     7
 10
473.099147
 20
-498.242322
 30
0.0
 11
473.099147
 21
-447.993793
 31
0.0
  0
LINE
  8
0
  6
BYLAYER
 62
     7
 10
284.249147
 20
-498.242321
 30
0.0
 11
284.249147
 21
-428.742321
 31
0.0
  0
LINE
  8
0
  6
BYLAYER
 62
     7
 10
284.249147
 20
-428.742321
 30
0.0
 11
284.749147
 21
-428.242321
 31
0.0
  0
LINE
  8
0
  6
BYLAYER
 62
     7
 10
295.214235
 20
-448.962414
 30
0.0
 11
311.249147
 21
-449.242321
 31
0.0
  0
LINE
  8
0
  6
BYLAYER
 62
     7
 10
293.249147
 20
-428.242321
 30
0.0
 11
293.249147
 21
-498.242321
 31
0.0
  0
ARC
  8
0
  6
BYLAYER
 62
     7
 10
295.249147
 20
-446.962719
 30
0.0
 40
2.0
 50
180.000000
 51
268.999783
  0
LINE
  8
0
  6
BYLAYER
 62
     7
 10
284.749147
 20
-428.242321
 30
0.0
 11
293.249147
 21
-428.242321
 31
0.0
  0
LINE
  8
0
  6
BYLAYER
 62
     7
 10
311.249147
 20
-449.242321
 30
0.0
 11
311.249147
 21
-498.242321
 31
0.0
  0
LINE
  8
0
  6
BYLAYER
 62
     7
 10
284.249147
 20
-498.242322
 30
0.0
 11
284.249147
 21
-567.742322
 31
0.0
  0
LINE
  8
0
  6
BYLAYER
 62
     7
 10
284.249147
 20
-567.742322
 30
0.0
 11
284.749147
 21
-568.242322
 31
0.0
  0
LINE
  8
0
  6
BYLAYER
 62
     7
 10
295.214235
 20
-547.522229
 30
0.0
 11
311.249147
 21
-547.242322
 31
0.0
  0
LINE
  8
0
  6
BYLAYER
 62
     7
 10
293.249147
 20
-568.242322
 30
0.0
 11
293.249147
 21
-498.242322
 31
0.0
  0
ARC
  8
0
  6
BYLAYER
 62
     7
 10
295.249147
 20
-549.521924
 30
0.0
 40
2.000000
 50
91.000217
 51
180.0
  0
LINE
  8
0
  6
BYLAYER
 62
     7
 10
284.749147
 20
-568.242322
 30
0.0
 11
293.249147
 21
-568.242322
 31
0.0
  0
LINE
  8
0
  6
BYLAYER
 62
     7
 10
311.249147
 20
-547.242322
 30
0.0
 11
311.249147
 21
-498.242322
 31
0.0
  0
LINE
  8
0
  6
BYLAYER
 62
     7
 10
462.747675
 20
-558.842322
 30
0.0
 11
462.747675
 21
-437.642322
 31
0.0
  0
LINE
  8
0
  6
BYLAYER
 62
     1
 10
219.249147
 20
-123.242290
 30
0.0
 11
217.749147
 21
-121.742321
 31
0.0
  0
LINE
  8
0
  6
BYLAYER
 62
     1
 10
194.249147
 20
-148.242290
 30
0.0
 11
192.749147
 21
-146.742290
 31
0.0
  0
LINE
  8
0
  6
BYLAYER
 62
     1
 10
119.249147
 20
-123.242290
 30
0.0
 11
120.749147
 21
-121.742321
 31
0.0
  0
LINE
  8
0
  6
BYLAYER
 62
     1
 10
145.749147
 20
-146.742290
 30
0.0
 11
192.749147
 21
-146.742290
 31
0.0
  0
LINE
  8
0
  6
BYLAYER
 62
     1
 10
220.249147
 20
-91.742321
 30
0.0
 11
220.249147
 21
-30.242290
 31
0.0
  0
LINE
  8
0
  6
BYLAYER
 62
     1
 10
220.249147
 20
-91.742321
 30
0.0
 11
217.749147
 21
-91.829601
 31
0.0
  0
LINE
  8
0
  6
BYLAYER
 62
     1
 10
119.249147
 20
-123.242290
 30
0.0
 11
125.749147
 21
-123.242290
 31
0.0
  0
LINE
  8
0
  6
BYLAYER
 62
     1
 10
219.249147
 20
-123.242290
 30
0.0
 11
212.749147
 21
-123.242290
 31
0.0
  0
LINE
  8
0
  6
BYLAYER
 62
     1
 10
220.249147
 20
-30.242290
 30
0.0
 11
219.249147
 21
-30.242290
 31
0.0
  0
ARC
  8
0
  6
BYLAYER
 62
     1
 10
193.249147
 20
-48.242290
 30
0.0
 40
1.000000
 50
270.0
 51
450.000005
  0
ARC
  8
0
  6
BYLAYER
 62
     1
 10
152.749178
 20
-56.242290
 30
0.0
 40
1.000000
 50
270.0
 51
450.000005
  0
ARC
  8
0
  6
BYLAYER
 62
     1
 10
185.749147
 20
-56.242290
 30
0.0
 40
1.000000
 50
90.0
 51
270.000005
  0
ARC
  8
0
  6
BYLAYER
 62
     1
 10
139.749178
 20
-64.242290
 30
0.0
 40
1.000000
 50
270.0
 51
450.000005
  0
LINE
  8
0
  6
BYLAYER
 62
     1
 10
144.249147
 20
-148.242290
 30
0.0
 11
144.249147
 21
-141.742290
 31
0.0
  0
LINE
  8
0
  6
BYLAYER
 62
     1
 10
194.249147
 20
-148.242290
 30
0.0
 11
194.249147
 21
-141.742290
 31
0.0
  0
LINE
  8
0
  6
BYLAYER
 62
     1
 10
217.749147
 20
-53.242290
 30
0.0
 11
220.249147
 21
-53.242290
 31
0.0
  0
LINE
  8
0
  6
BYLAYER
 62
     1
 10
144.249147
 20
-148.242290
 30
0.0
 11
120.749147
 21
-148.242290
 31
0.0
  0
LINE
  8
0
  6
BYLAYER
 62
     1
 10
120.749147
 20
-148.242290
 30
0.0
 11
119.249147
 21
-146.742352
 31
0.0
  0
LINE
  8
0
  6
BYLAYER
 62
     1
 10
119.249147
 20
-146.742352
 30
0.0
 11
119.249147
 21
-123.242290
 31
0.0
  0
LINE
  8
0
  6
BYLAYER
 62
     1
 10
219.249147
 20
-123.242290
 30
0.0
 11
219.249147
 21
-146.742290
 31
0.0
  0
LINE
  8
0
  6
BYLAYER
 62
     1
 10
219.249147
 20
-146.742290
 30
0.0
 11
217.749147
 21
-148.242290
 31
0.0
  0
LINE
  8
0
  6
BYLAYER
 62
     1
 10
217.749147
 20
-148.242290
 30
0.0
 11
194.249147
 21
-148.242290
 31
0.0
  0
ARC
  8
0
  6
BYLAYER
 62
     1
 10
203.749147
 20
-72.242321
 30
0.0
 40
1.0
 50
90.0
 51
110.183422
  0
LINE
  8
0
  6
BYLAYER
 62
     1
 10
220.249147
 20
-79.120922
 30
0.0
 11
217.749147
 21
-79.120922
 31
0.0
  0
LINE
  8
0
  6
BYLAYER
 62
     1
 10
217.749147
 20
-87.924084
 30
0.0
 11
220.249147
 21
-87.924023
 31
0.0
  0
LINE
  8
0
  6
BYLAYER
 62
     1
 10
119.249178
 20
-77.117321
 30
0.0
 11
120.749178
 21
-77.117321
 31
0.0
  0
LINE
  8
0
  6
BYLAYER
 62
     1
 10
120.749147
 20
-64.472088
 30
0.0
 11
119.249178
 21
-64.472088
 31
0.0
  0
LINE
  8
0
  6
BYLAYER
 62
     1
 10
139.749178
 20
-63.242290
 30
0.0
 11
126.749147
 21
-63.242290
 31
0.0
  0
ARC
  8
0
  6
BYLAYER
 62
     1
 10
126.749147
 20
-62.242290
 30
0.0
 40
1.0
 50
180.000000
 51
269.999996
  0
LINE
  8
0
  6
BYLAYER
 62
     1
 10
126.749147
 20
-55.242290
 30
0.0
 11
152.749178
 21
-55.242290
 31
0.0
  0
ARC
  8
0
  6
BYLAYER
 62
     1
 10
126.749147
 20
-54.242290
 30
0.0
 40
1.0
 50
180.000000
 51
269.999996
  0
LINE
  8
0
  6
BYLAYER
 62
     1
 10
126.749147
 20
-57.242290
 30
0.0
 11
152.749178
 21
-57.242290
 31
0.0
  0
ARC
  8
0
  6
BYLAYER
 62
     1
 10
126.749147
 20
-58.242290
 30
0.0
 40
1.0
 50
90.0
 51
180.000003
  0
LINE
  8
0
  6
BYLAYER
 62
     1
 10
203.749147
 20
-71.242321
 30
0.0
 11
211.749147
 21
-71.242321
 31
0.0
  0
ARC
  8
0
  6
BYLAYER
 62
     1
 10
211.749147
 20
-70.242321
 30
0.0
 40
1.0
 50
270.0
 51
360.000003
  0
LINE
  8
0
  6
BYLAYER
 62
     1
 10
204.847602
 20
-73.242321
 30
0.0
 11
211.749147
 21
-73.242321
 31
0.0
  0
ARC
  8
0
  6
BYLAYER
 62
     1
 10
211.749147
 20
-74.242321
 30
0.0
 40
1.0
 50
0.0
 51
90.000003
  0
LINE
  8
0
  6
BYLAYER
 62
     1
 10
220.249147
 20
-63.242290
 30
0.0
 11
217.749147
 21
-63.242290
 31
0.0
  0
LINE
  8
0
  6
BYLAYER
 62
     1
 10
125.749147
 20
-121.742321
 30
0.0
 11
120.749147
 21
-121.742321
 31
0.0
  0
LINE
  8
0
  6
BYLAYER
 62
     1
 10
145.749147
 20
-141.742352
 30
0.0
 11
145.749147
 21
-146.742290
 31
0.0
  0
LINE
  8
0
  6
BYLAYER
 62
     1
 10
192.749147
 20
-141.742443
 30
0.0
 11
192.749147
 21
-146.742290
 31
0.0
  0
LINE
  8
0
  6
BYLAYER
 62
     1
 10
145.749147
 20
-146.742290
 30
0.0
 11
144.249147
 21
-148.242290
 31
0.0
  0
LINE
  8
0
  6
BYLAYER
 62
     1
 10
212.749147
 20
-121.742321
 30
0.0
 11
217.749147
 21
-121.742321
 31
0.0
  0
LINE
  8
0
  6
BYLAYER
 62
     1
 10
125.749147
 20
-53.242290
 30
0.0
 11
120.749147
 21
-53.242290
 31
0.0
  0
LINE
  8
0
  6
BYLAYER
 62
     1
 10
119.249147
 20
-51.742290
 30
0.0
 11
120.749147
 21
-53.242290
 31
0.0
  0
LINE
  8
0
  6
BYLAYER
 62
     1
 10
119.249147
 20
-51.742290
 30
0.0
 11
125.749147
 21
-51.742290
 31
0.0
  0
LINE
  8
0
  6
BYLAYER
 62
     1
 10
212.749147
 20
-53.242290
 30
0.0
 11
217.749147
 21
-53.242290
 31
0.0
  0
LINE
  8
0
  6
BYLAYER
 62
     1
 10
219.249147
 20
-51.742290
 30
0.0
 11
217.749147
 21
-53.242290
 31
0.0
  0
LINE
  8
0
  6
BYLAYER
 62
     1
 10
219.249147
 20
-51.742290
 30
0.0
 11
212.749147
 21
-51.742290
 31
0.0
  0
LINE
  8
0
  6
BYLAYER
 62
     1
 10
219.249147
 20
-51.742290
 30
0.0
 11
219.249147
 21
-30.182232
 31
0.0
  0
LINE
  8
0
  6
BYLAYER
 62
     1
 10
219.249147
 20
-30.182232
 30
0.0
 11
219.249147
 21
-28.242290
 31
0.0
  0
LINE
  8
0
  6
BYLAYER
 62
     1
 10
219.249147
 20
-28.242290
 30
0.0
 11
217.749147
 21
-26.742290
 31
0.0
  0
LINE
  8
0
  6
BYLAYER
 62
     1
 10
217.749147
 20
-26.742290
 30
0.0
 11
194.249147
 21
-26.742290
 31
0.0
  0
LINE
  8
0
  6
BYLAYER
 62
     1
 10
194.249147
 20
-26.742290
 30
0.0
 11
194.249147
 21
-33.242290
 31
0.0
  0
LINE
  8
0
  6
BYLAYER
 62
     1
 10
194.249147
 20
-26.742290
 30
0.0
 11
192.749147
 21
-28.242290
 31
0.0
  0
LINE
  8
0
  6
BYLAYER
 62
     1
 10
192.749147
 20
-28.242290
 30
0.0
 11
192.749147
 21
-33.242290
 31
0.0
  0
LINE
  8
0
  6
BYLAYER
 62
     1
 10
145.749147
 20
-28.242290
 30
0.0
 11
192.749147
 21
-28.242290
 31
0.0
  0
LINE
  8
0
  6
BYLAYER
 62
     1
 10
145.749147
 20
-28.242290
 30
0.0
 11
145.749147
 21
-33.242290
 31
0.0
  0
LINE
  8
0
  6
BYLAYER
 62
     1
 10
144.249147
 20
-26.742290
 30
0.0
 11
144.249147
 21
-33.242290
 31
0.0
  0
LINE
  8
0
  6
BYLAYER
 62
     1
 10
145.749147
 20
-28.242290
 30
0.0
 11
144.249147
 21
-26.742290
 31
0.0
  0
LINE
  8
0
  6
BYLAYER
 62
     1
 10
120.749147
 20
-26.742290
 30
0.0
 11
144.249147
 21
-26.742290
 31
0.0
  0
LINE
  8
0
  6
BYLAYER
 62
     1
 10
119.249147
 20
-28.242290
 30
0.0
 11
120.749147
 21
-26.742290
 31
0.0
  0
LINE
  8
0
  6
BYLAYER
 62
     1
 10
120.749147
 20
-121.742321
 30
0.0
 11
120.749147
 21
-53.242290
 31
0.0
  0
LINE
  8
0
  6
BYLAYER
 62
     1
 10
217.749147
 20
-121.742321
 30
0.0
 11
217.749147
 21
-53.242290
 31
0.0
  0
LINE
  8
0
  6
BYLAYER
 62
     1
 10
125.749147
 20
-64.472088
 30
0.0
 11
133.249147
 21
-64.472088
 31
0.0
  0
ARC
  8
0
  6
BYLAYER
 62
     1
 10
133.249147
 20
-66.472088
 30
0.0
 40
2.0
 50
0.0
 51
90.000003
  0
LINE
  8
0
  6
BYLAYER
 62
     1
 10
125.749178
 20
-77.117321
 30
0.0
 11
131.223046
 21
-77.117321
 31
0.0
  0
LINE
  8
0
  6
BYLAYER
 62
     1
 10
135.249147
 20
-71.108394
 30
0.0
 11
135.249147
 21
-66.472088
 31
0.0
  0
LINE
  8
0
  6
BYLAYER
 62
     1
 10
212.749147
 20
-53.242290
 30
0.0
 11
206.249147
 21
-53.242290
 31
0.0
  0
ARC
  8
0
  6
BYLAYER
 62
     1
 10
206.249147
 20
-55.242290
 30
0.0
 40
2.0
 50
90.0
 51
180.000003
  0
LINE
  8
0
  6
BYLAYER
 62
     1
 10
204.249147
 20
-61.242290
 30
0.0
 11
204.249147
 21
-55.242290
 31
0.0
  0
LINE
  8
0
  6
BYLAYER
 62
     1
 10
212.749147
 20
-63.242290
 30
0.0
 11
206.249147
 21
-63.242290
 31
0.0
  0
ARC
  8
0
  6
BYLAYER
 62
     1
 10
206.249147
 20
-61.242290
 30
0.0
 40
2.0
 50
180.000000
 51
269.999996
  0
LINE
  8
0
  6
BYLAYER
 62
     1
 10
139.749178
 20
-65.242290
 30
0.0
 11
136.249147
 21
-65.242290
 31
0.0
  0
ARC
  8
0
  6
BYLAYER
 62
     1
 10
136.249147
 20
-66.242290
 30
0.0
 40
1.0
 50
90.0
 51
180.000003
  0
LINE
  8
0
  6
BYLAYER
 62
     1
 10
185.749147
 20
-57.242290
 30
0.0
 11
203.249147
 21
-57.242290
 31
0.0
  0
ARC
  8
0
  6
BYLAYER
 62
     1
 10
203.249147
 20
-58.242290
 30
0.0
 40
1.000000
 50
0.0
 51
90.000003
  0
LINE
  8
0
  6
BYLAYER
 62
     1
 10
203.420717
 20
-55.242290
 30
0.0
 11
185.749147
 21
-55.242290
 31
0.0
  0
ARC
  8
0
  6
BYLAYER
 62
     1
 10
203.420717
 20
-54.242290
 30
0.0
 40
1.000000
 50
270.0
 51
340.52826
  0
ARC
  8
0
  6
BYLAYER
 62
     1
 10
126.749147
 20
-34.242290
 30
0.0
 40
1.0
 50
90.0
 51
180.000003
  0
LINE
  8
0
  6
BYLAYER
 62
     1
 10
211.749147
 20
-33.242290
 30
0.0
 11
126.749147
 21
-33.242290
 31
0.0
  0
ARC
  8
0
  6
BYLAYER
 62
     1
 10
211.749147
 20
-34.242290
 30
0.0
 40
1.0
 50
0.0
 51
90.000003
  0
LINE
  8
0
  6
BYLAYER
 62
     1
 10
189.402272
 20
-136.792309
 30
0.0
 11
206.799150
 21
-136.792309
 31
0.0
  0
LINE
  8
0
  6
BYLAYER
 62
     1
 10
207.799150
 20
-135.792309
 30
0.0
 11
207.799150
 21
-118.395417
 31
0.0
  0
ARC
  8
0
  6
BYLAYER
 62
     1
 10
206.799150
 20
-135.792309
 30
0.0
 40
1.000000
 50
270.0
 51
360.000003
  0
ARC
  8
0
  6
BYLAYER
 62
     1
 10
211.749147
 20
-140.742290
 30
0.0
 40
1.000000
 50
270.0
 51
360.000003
  0
LINE
  8
0
  6
BYLAYER
 62
     1
 10
131.699144
 20
-136.792309
 30
0.0
 11
149.096022
 21
-136.792309
 31
0.0
  0
ARC
  8
0
  6
BYLAYER
 62
     1
 10
131.699144
 20
-135.792309
 30
0.0
 40
1.000000
 50
180.000000
 51
269.999996
  0
ARC
  8
0
  6
BYLAYER
 62
     1
 10
126.749147
 20
-140.742290
 30
0.0
 40
1.0
 50
180.000000
 51
269.999996
  0
LINE
  8
0
  6
BYLAYER
 62
     1
 10
212.456255
 20
-141.449413
 30
0.0
 11
207.506258
 21
-136.499432
 31
0.0
  0
LINE
  8
0
  6
BYLAYER
 62
     1
 10
126.042039
 20
-141.449413
 30
0.0
 11
130.992036
 21
-136.499432
 31
0.0
  0
LINE
  8
0
  6
BYLAYER
 62
     1
 10
125.749147
 20
-34.242290
 30
0.0
 11
125.749147
 21
-82.953442
 31
0.0
  0
ARC
  8
0
  6
BYLAYER
 62
     1
 10
123.749147
 20
-82.953442
 30
0.0
 40
1.999991
 50
341.426977
 51
360.000000
  0
ARC
  8
0
  6
BYLAYER
 62
     1
 10
169.249147
 20
-98.242321
 30
0.0
 40
46.000008
 50
161.426644
 51
198.573352
  0
LINE
  8
0
  6
BYLAYER
 62
     1
 10
125.749147
 20
-113.531231
 30
0.0
 11
125.749147
 21
-140.742290
 31
0.0
  0
ARC
  8
0
  6
BYLAYER
 62
     1
 10
123.749147
 20
-113.531231
 30
0.0
 40
2.000001
 50
0.0
 51
18.573839
  0
ARC
  8
0
  6
BYLAYER
 62
     1
 10
153.960268
 20
-143.742321
 30
0.0
 40
2.000005
 50
71.426983
 51
90.000003
  0
ARC
  8
0
  6
BYLAYER
 62
     1
 10
169.249147
 20
-98.242321
 30
0.0
 40
45.999992
 50
251.426640
 51
288.573361
  0
ARC
  8
0
  6
BYLAYER
 62
     1
 10
184.538057
 20
-143.742321
 30
0.0
 40
2.000015
 50
90.0
 51
108.573839
  0
ARC
  8
0
  6
BYLAYER
 62
     1
 10
214.749147
 20
-113.531200
 30
0.0
 40
1.999991
 50
161.426972
 51
180.000005
  0
ARC
  8
0
  6
BYLAYER
 62
     1
 10
169.249147
 20
-98.242321
 30
0.0
 40
46.000008
 50
341.426649
 51
378.573343
  0
ARC
  8
0
  6
BYLAYER
 62
     1
 10
214.749147
 20
-82.953411
 30
0.0
 40
2.000001
 50
180.000000
 51
198.573839
  0
LINE
  8
0
  6
BYLAYER
 62
     1
 10
153.960275
 20
-141.742352
 30
0.0
 11
126.749147
 21
-141.742290
 31
0.0
  0
LINE
  8
0
  6
BYLAYER
 62
     1
 10
211.749147
 20
-141.742290
 30
0.0
 11
184.538057
 21
-141.742290
 31
0.0
  0
LINE
  8
0
  6
BYLAYER
 62
     1
 10
212.749147
 20
-34.242290
 30
0.0
 11
212.749147
 21
-82.953411
 31
0.0
  0
LINE
  8
0
  6
BYLAYER
 62
     1
 10
212.749147
 20
-140.742290
 30
0.0
 11
212.749147
 21
-113.531200
 31
0.0
  0
LINE
  8
0
  6
BYLAYER
 62
     1
 10
119.249147
 20
-81.742290
 30
0.0
 11
119.249147
 21
-28.242290
 31
0.0
  0
LINE
  8
0
  6
BYLAYER
 62
     1
 10
120.749147
 20
-81.742290
 30
0.0
 11
119.249147
 21
-81.742290
 31
0.0
  0
LINE
  8
0
  6
BYLAYER
 62
     1
 10
130.699144
 20
-135.792309
 30
0.0
 11
130.699144
 21
-118.395417
 31
0.0
  0
ARC
  8
0
  6
BYLAYER
 62
     1
 10
148.249147
 20
-48.242290
 30
0.0
 40
1.000000
 50
90.0
 51
270.000005
  0
LINE
  8
0
  6
BYLAYER
 62
     1
 10
193.249147
 20
-47.242290
 30
0.0
 11
148.249147
 21
-47.242290
 31
0.0
  0
LINE
  8
0
  6
BYLAYER
 62
     1
 10
193.249147
 20
-49.242290
 30
0.0
 11
148.249147
 21
-49.242290
 31
0.0
  0
LINE
  8
0
  6
BYLAYER
 62
     1
 10
125.749147
 20
-129.842297
 30
0.0
 11
119.249147
 21
-129.842297
 31
0.0
  0
LINE
  8
0
  6
BYLAYER
 62
     1
 10
125.749147
 20
-136.642284
 30
0.0
 11
119.249147
 21
-136.642284
 31
0.0
  0
LINE
  8
0
  6
BYLAYER
 62
     1
 10
130.849145
 20
-141.742290
 30
0.0
 11
130.849145
 21
-148.242290
 31
0.0
  0
LINE
  8
0
  6
BYLAYER
 62
     1
 10
137.649149
 20
-141.742321
 30
0.0
 11
137.649149
 21
-148.242290
 31
0.0
  0
LINE
  8
0
  6
BYLAYER
 62
     1
 10
200.849153
 20
-141.742290
 30
0.0
 11
200.849153
 21
-148.242290
 31
0.0
  0
LINE
  8
0
  6
BYLAYER
 62
     1
 10
207.649141
 20
-141.742290
 30
0.0
 11
207.649141
 21
-148.242290
 31
0.0
  0
LINE
  8
0
  6
BYLAYER
 62
     1
 10
212.749147
 20
-136.642284
 30
0.0
 11
219.249147
 21
-136.642284
 31
0.0
  0
LINE
  8
0
  6
BYLAYER
 62
     1
 10
212.749147
 20
-129.842297
 30
0.0
 11
219.249147
 21
-129.842297
 31
0.0
  0
ARC
  8
0
  6
BYLAYER
 62
     1
 10
142.732637
 20
-71.725811
 30
0.0
 40
3.000004
 50
42.767120
 51
314.999992
  0
ARC
  8
0
  6
BYLAYER
 62
     1
 10
195.765657
 20
-71.725811
 30
0.0
 40
3.000015
 50
225.000010
 51
497.232885
  0
ARC
  8
0
  6
BYLAYER
 62
     1
 10
169.249147
 20
-98.242321
 30
0.0
 40
30.0
 50
0.0
 51
180.000005
  0
ARC
  8
0
  6
BYLAYER
 62
     1
 10
142.732637
 20
-124.758831
 30
0.0
 40
2.999983
 50
45.000008
 51
317.232890
  0
ARC
  8
0
  6
BYLAYER
 62
     1
 10
195.765657
 20
-124.758831
 30
0.0
 40
3.000016
 50
222.767112
 51
494.999987
  0
CIRCLE
  8
0
  6
BYLAYER
 62
     1
 10
169.249147
 20
-98.242321
 30
0.0
 40
20.0
  0
CIRCLE
  8
0
  6
BYLAYER
 62
     1
 10
142.732637
 20
-71.725811
 30
0.0
 40
2.5
  0
CIRCLE
  8
0
  6
BYLAYER
 62
     1
 10
195.765657
 20
-71.725811
 30
0.0
 40
2.5
  0
CIRCLE
  8
0
  6
BYLAYER
 62
     1
 10
195.765657
 20
-124.758831
 30
0.0
 40
2.5
  0
CIRCLE
  8
0
  6
BYLAYER
 62
     1
 10
142.732637
 20
-124.758831
 30
0.0
 40
2.5
  0
ARC
  8
0
  6
BYLAYER
 62
     1
 10
169.249147
 20
-98.242321
 30
0.0
 40
30.000000
 50
292.499983
 51
360.000000
  0
ARC
  8
0
  6
BYLAYER
 62
     1
 10
169.249147
 20
-98.242321
 30
0.0
 40
29.999998
 50
180.000005
 51
292.499983
  0
ARC
  8
0
  6
BYLAYER
 62
     1
 10
169.249147
 20
-98.242321
 30
0.0
 40
45.25
 50
83.304540
 51
96.69546
  0
ARC
  8
0
  6
BYLAYER
 62
     1
 10
174.358553
 20
-54.791698
 30
0.0
 40
1.500024
 50
33.869498
 51
83.293706
  0
ARC
  8
0
  6
BYLAYER
 62
     1
 10
164.139741
 20
-54.791698
 30
0.0
 40
1.500024
 50
97.044942
 51
146.130504
  0
ARC
  8
0
  6
BYLAYER
 62
     1
 10
146.288139
 20
-42.809538
 30
0.0
 40
20.000020
 50
265.957319
 51
326.130123
  0
ARC
  8
0
  6
BYLAYER
 62
     1
 10
125.798524
 20
-93.132915
 30
0.0
 40
1.500024
 50
123.869497
 51
173.293702
  0
ARC
  8
0
  6
BYLAYER
 62
     1
 10
164.139741
 20
-141.692944
 30
0.0
 40
1.500024
 50
213.869506
 51
263.293711
  0
ARC
  8
0
  6
BYLAYER
 62
     1
 10
212.699770
 20
-103.351727
 30
0.0
 40
1.500024
 50
303.869488
 51
353.293720
  0
ARC
  8
0
  6
BYLAYER
 62
     1
 10
125.798524
 20
-103.351727
 30
0.0
 40
1.500024
 50
186.706295
 51
236.130513
  0
ARC
  8
0
  6
BYLAYER
 62
     1
 10
174.358553
 20
-141.692944
 30
0.0
 40
1.500024
 50
276.706290
 51
326.130495
  0
ARC
  8
0
  6
BYLAYER
 62
     1
 10
212.699770
 20
-93.132915
 30
0.0
 40
1.500024
 50
6.706299
 51
56.130505
  0
ARC
  8
0
  6
BYLAYER
 62
     1
 10
113.816377
 20
-75.281322
 30
0.0
 40
20.000032
 50
303.869871
 51
364.042736
  0
ARC
  8
0
  6
BYLAYER
 62
     1
 10
135.761668
 20
-73.730309
 30
0.0
 40
2.0
 50
143.796789
 51
184.042736
  0
ARC
  8
0
  6
BYLAYER
 62
     1
 10
169.249147
 20
-98.242321
 30
0.0
 40
43.500000
 50
100.784127
 51
169.215926
  0
ARC
  8
0
  6
BYLAYER
 62
     1
 10
160.735680
 20
-53.545891
 30
0.0
 40
2.0
 50
280.784127
 51
323.382976
  0
ARC
  8
0
  6
BYLAYER
 62
     1
 10
124.552709
 20
-89.728895
 30
0.0
 40
2.0
 50
306.616911
 51
349.215926
  0
ARC
  8
0
  6
BYLAYER
 62
     1
 10
144.737151
 20
-64.754830
 30
0.0
 40
2.000000
 50
85.957305
 51
126.203183
  0
ARC
  8
0
  6
BYLAYER
 62
     1
 10
169.249147
 20
-98.242321
 30
0.0
 40
45.250000
 50
173.30454
 51
186.69546
  0
ARC
  8
0
  6
BYLAYER
 62
     1
 10
113.816364
 20
-121.203329
 30
0.0
 40
20.000020
 50
355.957319
 51
416.130123
  0
ARC
  8
0
  6
BYLAYER
 62
     1
 10
146.288148
 20
-153.675091
 30
0.0
 40
20.000032
 50
33.869871
 51
94.042736
  0
ARC
  8
0
  6
BYLAYER
 62
     1
 10
144.737135
 20
-131.729800
 30
0.0
 40
2.0
 50
233.796789
 51
274.042736
  0
ARC
  8
0
  6
BYLAYER
 62
     1
 10
169.249147
 20
-98.242321
 30
0.0
 40
43.5
 50
190.784127
 51
259.215926
  0
ARC
  8
0
  6
BYLAYER
 62
     1
 10
124.552717
 20
-106.755788
 30
0.0
 40
2.0
 50
10.784127
 51
53.382976
  0
ARC
  8
0
  6
BYLAYER
 62
     1
 10
160.735721
 20
-142.938759
 30
0.0
 40
2.0
 50
36.616911
 51
79.215926
  0
ARC
  8
0
  6
BYLAYER
 62
     1
 10
135.761656
 20
-122.754317
 30
0.0
 40
2.0
 50
175.957305
 51
216.203183
  0
ARC
  8
0
  6
BYLAYER
 62
     1
 10
169.249147
 20
-98.242321
 30
0.0
 40
45.25
 50
263.304540
 51
276.695460
  0
ARC
  8
0
  6
BYLAYER
 62
     1
 10
192.210155
 20
-153.675104
 30
0.0
 40
20.000020
 50
85.957319
 51
146.130123
  0
ARC
  8
0
  6
BYLAYER
 62
     1
 10
224.681917
 20
-121.203320
 30
0.0
 40
20.000032
 50
123.869871
 51
184.042736
  0
ARC
  8
0
  6
BYLAYER
 62
     1
 10
202.736626
 20
-122.754333
 30
0.0
 40
2.000000
 50
323.796789
 51
364.042736
  0
ARC
  8
0
  6
BYLAYER
 62
     1
 10
169.249147
 20
-98.242321
 30
0.0
 40
43.5
 50
280.784127
 51
349.215926
  0
ARC
  8
0
  6
BYLAYER
 62
     1
 10
177.762614
 20
-142.938751
 30
0.0
 40
2.0
 50
100.784127
 51
143.382976
  0
ARC
  8
0
  6
BYLAYER
 62
     1
 10
213.945585
 20
-106.755747
 30
0.0
 40
2.0
 50
126.616911
 51
169.215926
  0
ARC
  8
0
  6
BYLAYER
 62
     1
 10
193.761143
 20
-131.729812
 30
0.0
 40
2.000000
 50
265.957305
 51
306.203183
  0
ARC
  8
0
  6
BYLAYER
 62
     1
 10
169.249147
 20
-98.242321
 30
0.0
 40
45.25
 50
353.304540
 51
366.695460
  0
ARC
  8
0
  6
BYLAYER
 62
     1
 10
224.681930
 20
-75.281313
 30
0.0
 40
20.000020
 50
175.957319
 51
236.130123
  0
ARC
  8
0
  6
BYLAYER
 62
     1
 10
192.210146
 20
-42.809551
 30
0.0
 40
20.000032
 50
213.869871
 51
274.042736
  0
ARC
  8
0
  6
BYLAYER
 62
     1
 10
193.761159
 20
-64.754842
 30
0.0
 40
2.0
 50
53.796789
 51
94.042736
  0
ARC
  8
0
  6
BYLAYER
 62
     1
 10
169.249147
 20
-98.242321
 30
0.0
 40
43.500000
 50
10.784127
 51
79.215926
  0
ARC
  8
0
  6
BYLAYER
 62
     1
 10
213.945577
 20
-89.728854
 30
0.0
 40
2.000000
 50
190.784127
 51
233.382976
  0
ARC
  8
0
  6
BYLAYER
 62
     1
 10
177.762573
 20
-53.545883
 30
0.0
 40
2.000000
 50
216.616911
 51
259.215926
  0
ARC
  8
0
  6
BYLAYER
 62
     1
 10
162.233583
 20
-43.847335
 30
0.0
 40
1.436863
 50
270.0
 51
308.795511
  0
ARC
  8
0
  6
BYLAYER
 62
     1
 10
162.094532
 20
-43.699245
 30
0.0
 40
1.639478
 50
309.340351
 51
360.0
  0
ARC
  8
0
  6
BYLAYER
 62
     1
 10
162.094532
 20
-43.699245
 30
0.0
 40
1.639478
 50
0.0
 51
50.659649
  0
ARC
  8
0
  6
BYLAYER
 62
     1
 10
162.233583
 20
-43.551155
 30
0.0
 40
1.436863
 50
51.204489
 51
90.000000
  0
ARC
  8
0
  6
BYLAYER
 62
     1
 10
162.233583
 20
-43.551142
 30
0.0
 40
1.436850
 50
90.0
 51
128.795693
  0
ARC
  8
0
  6
BYLAYER
 62
     1
 10
162.372647
 20
-43.699245
 30
0.0
 40
1.639484
 50
129.340576
 51
180.000000
  0
ARC
  8
0
  6
BYLAYER
 62
     1
 10
162.372647
 20
-43.699245
 30
0.0
 40
1.639484
 50
180.000000
 51
230.659424
  0
ARC
  8
0
  6
BYLAYER
 62
     1
 10
162.233583
 20
-43.847348
 30
0.0
 40
1.436850
 50
231.204307
 51
270.000000
  0
ARC
  8
0
  6
BYLAYER
 62
     1
 10
162.233583
 20
-43.277670
 30
0.0
 40
0.664873
 50
90.0
 51
140.793201
  0
ARC
  8
0
  6
BYLAYER
 62
     1
 10
162.750360
 20
-43.699245
 30
0.0
 40
1.331795
 50
140.793201
 51
180.0
  0
ARC
  8
0
  6
BYLAYER
 62
     1
 10
162.750352
 20
-43.699245
 30
0.0
 40
1.331787
 50
180.000000
 51
219.206869
  0
ARC
  8
0
  6
BYLAYER
 62
     1
 10
162.233583
 20
-44.120815
 30
0.0
 40
0.664875
 50
219.206869
 51
270.000000
  0
ARC
  8
0
  6
BYLAYER
 62
     1
 10
162.233583
 20
-44.120815
 30
0.0
 40
0.664875
 50
270.0
 51
320.793131
  0
ARC
  8
0
  6
BYLAYER
 62
     1
 10
161.716814
 20
-43.699245
 30
0.0
 40
1.331787
 50
320.793131
 51
360.0
  0
ARC
  8
0
  6
BYLAYER
 62
     1
 10
161.716806
 20
-43.699245
 30
0.0
 40
1.331795
 50
0.0
 51
39.206799
  0
ARC
  8
0
  6
BYLAYER
 62
     1
 10
162.233583
 20
-43.277670
 30
0.0
 40
0.664873
 50
39.206799
 51
90.000000
  0
LINE
  8
0
  6
BYLAYER
 62
     1
 10
157.309663
 20
-45.178532
 30
0.0
 11
157.309663
 21
-42.177685
 31
0.0
  0
LINE
  8
0
  6
BYLAYER
 62
     1
 10
157.309663
 20
-42.177685
 30
0.0
 11
158.529726
 21
-42.177685
 31
0.0
  0
LINE
  8
0
  6
BYLAYER
 62
     1
 10
158.529726
 20
-42.177685
 30
0.0
 11
158.936884
 21
-43.741512
 31
0.0
  0
LINE
  8
0
  6
BYLAYER
 62
     1
 10
157.309663
 20
-45.178532
 30
0.0
 11
158.042268
 21
-45.178532
 31
0.0
  0
LINE
  8
0
  6
BYLAYER
 62
     1
 10
158.042268
 20
-45.178532
 30
0.0
 11
158.042268
 21
-43.445652
 31
0.0
  0
LINE
  8
0
  6
BYLAYER
 62
     1
 10
158.619890
 20
-45.178532
 30
0.0
 11
158.042268
 21
-43.445652
 31
0.0
  0
LINE
  8
0
  6
BYLAYER
 62
     1
 10
160.564104
 20
-45.178532
 30
0.0
 11
160.564104
 21
-42.177685
 31
0.0
  0
LINE
  8
0
  6
BYLAYER
 62
     1
 10
160.564104
 20
-42.177685
 30
0.0
 11
159.344041
 21
-42.177685
 31
0.0
  0
LINE
  8
0
  6
BYLAYER
 62
     1
 10
159.344041
 20
-42.177685
 30
0.0
 11
158.936884
 21
-43.741512
 31
0.0
  0
LINE
  8
0
  6
BYLAYER
 62
     1
 10
160.564104
 20
-45.178532
 30
0.0
 11
159.831499
 21
-45.178532
 31
0.0
  0
LINE
  8
0
  6
BYLAYER
 62
     1
 10
159.831499
 20
-45.178532
 30
0.0
 11
159.831499
 21
-43.445652
 31
0.0
  0
LINE
  8
0
  6
BYLAYER
 62
     1
 10
159.253877
 20
-45.178532
 30
0.0
 11
159.831499
 21
-43.445652
 31
0.0
  0
LINE
  8
0
  6
BYLAYER
 62
     1
 10
159.253877
 20
-45.178532
 30
0.0
 11
158.619890
 21
-45.178532
 31
0.0
  0
LINE
  8
0
  6
BYLAYER
 62
     1
 10
171.299524
 20
-45.178532
 30
0.0
 11
172.440683
 21
-42.177685
 31
0.0
  0
LINE
  8
0
  6
BYLAYER
 62
     1
 10
171.299524
 20
-45.178532
 30
0.0
 11
172.271631
 21
-45.178532
 31
0.0
  0
LINE
  8
0
  6
BYLAYER
 62
     1
 10
172.440683
 20
-42.177685
 30
0.0
 11
173.370523
 21
-42.177685
 31
0.0
  0
LINE
  8
0
  6
BYLAYER
 62
     1
 10
172.271631
 20
-45.178532
 30
0.0
 11
172.415719
 21
-44.755878
 31
0.0
  0
LINE
  8
0
  6
BYLAYER
 62
     1
 10
172.646249
 20
-44.079632
 30
0.0
 11
172.905603
 21
-43.318851
 31
0.0
  0
LINE
  8
0
  6
BYLAYER
 62
     1
 10
174.511697
 20
-45.178532
 30
0.0
 11
173.370523
 21
-42.177685
 31
0.0
  0
LINE
  8
0
  6
BYLAYER
 62
     1
 10
174.511697
 20
-45.178532
 30
0.0
 11
173.539590
 21
-45.178532
 31
0.0
  0
LINE
  8
0
  6
BYLAYER
 62
     1
 10
173.395502
 20
-44.755878
 30
0.0
 11
172.415719
 21
-44.755878
 31
0.0
  0
LINE
  8
0
  6
BYLAYER
 62
     1
 10
173.164957
 20
-44.079632
 30
0.0
 11
172.646249
 21
-44.079632
 31
0.0
  0
LINE
  8
0
  6
BYLAYER
 62
     1
 10
173.539590
 20
-45.178532
 30
0.0
 11
173.395502
 21
-44.755878
 31
0.0
  0
LINE
  8
0
  6
BYLAYER
 62
     1
 10
173.164957
 20
-44.079632
 30
0.0
 11
172.905603
 21
-43.318851
 31
0.0
  0
LINE
  8
0
  6
BYLAYER
 62
     1
 10
163.734010
 20
-42.917332
 30
0.0
 11
164.579317
 21
-42.917332
 31
0.0
  0
LINE
  8
0
  6
BYLAYER
 62
     1
 10
164.579317
 20
-42.917332
 30
0.0
 11
164.579317
 21
-45.178532
 31
0.0
  0
LINE
  8
0
  6
BYLAYER
 62
     1
 10
164.579317
 20
-45.178532
 30
0.0
 11
165.509164
 21
-45.178532
 31
0.0
  0
LINE
  8
0
  6
BYLAYER
 62
     1
 10
165.509164
 20
-45.178532
 30
0.0
 11
165.509164
 21
-42.917332
 31
0.0
  0
LINE
  8
0
  6
BYLAYER
 62
     1
 10
165.509164
 20
-42.917332
 30
0.0
 11
166.354471
 21
-42.917332
 31
0.0
  0
LINE
  8
0
  6
BYLAYER
 62
     1
 10
166.354471
 20
-42.917332
 30
0.0
 11
166.354471
 21
-42.177685
 31
0.0
  0
LINE
  8
0
  6
BYLAYER
 62
     1
 10
166.354471
 20
-42.177685
 30
0.0
 11
163.734010
 21
-42.177685
 31
0.0
  0
LINE
  8
0
  6
BYLAYER
 62
     1
 10
163.734010
 20
-42.177685
 30
0.0
 11
163.734010
 21
-42.917332
 31
0.0
  0
ARC
  8
0
  6
BYLAYER
 62
     1
 10
167.854890
 20
-43.847348
 30
0.0
 40
1.436850
 50
270.0
 51
308.795693
  0
ARC
  8
0
  6
BYLAYER
 62
     1
 10
167.715826
 20
-43.699245
 30
0.0
 40
1.639484
 50
309.340576
 51
360.000000
  0
ARC
  8
0
  6
BYLAYER
 62
     1
 10
167.715832
 20
-43.699245
 30
0.0
 40
1.639478
 50
0.0
 51
50.659649
  0
ARC
  8
0
  6
BYLAYER
 62
     1
 10
167.854883
 20
-43.551155
 30
0.0
 40
1.436863
 50
51.204489
 51
90.000000
  0
ARC
  8
0
  6
BYLAYER
 62
     1
 10
167.854883
 20
-43.551142
 30
0.0
 40
1.436850
 50
90.0
 51
128.795693
  0
ARC
  8
0
  6
BYLAYER
 62
     1
 10
167.993947
 20
-43.699245
 30
0.0
 40
1.639484
 50
129.340576
 51
180.000000
  0
ARC
  8
0
  6
BYLAYER
 62
     1
 10
167.993941
 20
-43.699245
 30
0.0
 40
1.639478
 50
180.000000
 51
230.659649
  0
ARC
  8
0
  6
BYLAYER
 62
     1
 10
167.854890
 20
-43.847335
 30
0.0
 40
1.436863
 50
231.204489
 51
270.000000
  0
ARC
  8
0
  6
BYLAYER
 62
     1
 10
167.854883
 20
-43.277670
 30
0.0
 40
0.664873
 50
90.0
 51
140.793201
  0
ARC
  8
0
  6
BYLAYER
 62
     1
 10
168.371660
 20
-43.699245
 30
0.0
 40
1.331795
 50
140.793201
 51
180.000000
  0
ARC
  8
0
  6
BYLAYER
 62
     1
 10
168.371643
 20
-43.699245
 30
0.0
 40
1.331778
 50
180.000000
 51
219.207055
  0
ARC
  8
0
  6
BYLAYER
 62
     1
 10
167.854890
 20
-44.120805
 30
0.0
 40
0.664886
 50
219.207055
 51
270.0
  0
ARC
  8
0
  6
BYLAYER
 62
     1
 10
167.854890
 20
-44.120815
 30
0.0
 40
0.664875
 50
270.0
 51
320.793131
  0
ARC
  8
0
  6
BYLAYER
 62
     1
 10
167.338121
 20
-43.699245
 30
0.0
 40
1.331787
 50
320.793131
 51
360.0
  0
ARC
  8
0
  6
BYLAYER
 62
     1
 10
167.338122
 20
-43.699245
 30
0.0
 40
1.331786
 50
0.0
 51
39.206985
  0
ARC
  8
0
  6
BYLAYER
 62
     1
 10
167.854883
 20
-43.277681
 30
0.0
 40
0.664884
 50
39.206985
 51
90.000000
  0
LINE
  8
0
  6
BYLAYER
 62
     1
 10
174.592691
 20
-45.178532
 30
0.0
 11
174.592691
 21
-42.177685
 31
0.0
  0
LINE
  8
0
  6
BYLAYER
 62
     1
 10
174.592691
 20
-42.177685
 30
0.0
 11
176.452363
 21
-42.177685
 31
0.0
  0
ARC
  8
0
  6
BYLAYER
 62
     1
 10
176.452363
 20
-43.022999
 30
0.0
 40
0.845305
 50
287.134650
 51
450.000006
  0
ARC
  8
0
  6
BYLAYER
 62
     1
 10
176.621431
 20
-44.502285
 30
0.0
 40
0.676247
 50
0.0
 51
83.207557
  0
LINE
  8
0
  6
BYLAYER
 62
     1
 10
177.297677
 20
-44.502285
 30
0.0
 11
177.297677
 21
-44.924938
 31
0.0
  0
ARC
  8
0
  6
BYLAYER
 62
     1
 10
177.973924
 20
-44.924938
 30
0.0
 40
0.676247
 50
180.000000
 51
202.024314
  0
LINE
  8
0
  6
BYLAYER
 62
     1
 10
176.417184
 20
-45.178532
 30
0.0
 11
177.347024
 21
-45.178532
 31
0.0
  0
ARC
  8
0
  6
BYLAYER
 62
     1
 10
177.044084
 20
-44.924938
 30
0.0
 40
0.676247
 50
180.000000
 51
202.024314
  0
LINE
  8
0
  6
BYLAYER
 62
     1
 10
176.367837
 20
-44.924938
 30
0.0
 11
176.367837
 21
-44.586819
 31
0.0
  0
LINE
  8
0
  6
BYLAYER
 62
     1
 10
174.592691
 20
-45.178532
 30
0.0
 11
175.480264
 21
-45.178532
 31
0.0
  0
LINE
  8
0
  6
BYLAYER
 62
     1
 10
175.480264
 20
-45.178532
 30
0.0
 11
175.480264
 21
-44.164165
 31
0.0
  0
LINE
  8
0
  6
BYLAYER
 62
     1
 10
175.945184
 20
-44.164165
 30
0.0
 11
175.480264
 21
-44.164165
 31
0.0
  0
ARC
  8
0
  6
BYLAYER
 62
     1
 10
175.945184
 20
-44.586819
 30
0.0
 40
0.422653
 50
0.0
 51
90.000003
  0
LINE
  8
0
  6
BYLAYER
 62
     1
 10
175.480264
 20
-43.487919
 30
0.0
 11
175.480264
 21
-42.853931
 31
0.0
  0
LINE
  8
0
  6
BYLAYER
 62
     1
 10
175.480264
 20
-42.853931
 30
0.0
 11
176.071977
 21
-42.853931
 31
0.0
  0
LINE
  8
0
  6
BYLAYER
 62
     1
 10
175.480264
 20
-43.487919
 30
0.0
 11
176.071977
 21
-43.487919
 31
0.0
  0
ARC
  8
0
  6
BYLAYER
 62
     1
 10
176.071977
 20
-43.170925
 30
0.0
 40
0.316994
 50
270.0
 51
450.000005
  0
LINE
  8
0
  6
BYLAYER
 62
     1
 10
170.559885
 20
-44.229633
 30
0.0
 11
170.010431
 21
-42.177685
 31
0.0
  0
LINE
  8
0
  6
BYLAYER
 62
     1
 10
170.010431
 20
-42.177685
 30
0.0
 11
169.122858
 21
-42.177685
 31
0.0
  0
LINE
  8
0
  6
BYLAYER
 62
     1
 10
169.122858
 20
-42.177685
 30
0.0
 11
170.052698
 21
-45.178532
 31
0.0
  0
LINE
  8
0
  6
BYLAYER
 62
     1
 10
170.559885
 20
-44.229633
 30
0.0
 11
171.109323
 21
-42.177685
 31
0.0
  0
LINE
  8
0
  6
BYLAYER
 62
     1
 10
171.109323
 20
-42.177685
 30
0.0
 11
171.996896
 21
-42.177685
 31
0.0
  0
LINE
  8
0
  6
BYLAYER
 62
     1
 10
171.996896
 20
-42.177685
 30
0.0
 11
171.067056
 21
-45.178532
 31
0.0
  0
LINE
  8
0
  6
BYLAYER
 62
     1
 10
171.067056
 20
-45.178532
 30
0.0
 11
170.052698
 21
-45.178532
 31
0.0
  0
LINE
  8
0
  6
BYLAYER
 62
     1
 10
177.428018
 20
-45.178532
 30
0.0
 11
178.315591
 21
-45.178532
 31
0.0
  0
LINE
  8
0
  6
BYLAYER
 62
     1
 10
178.315591
 20
-45.178532
 30
0.0
 11
178.315591
 21
-42.177685
 31
0.0
  0
LINE
  8
0
  6
BYLAYER
 62
     1
 10
178.315591
 20
-42.177685
 30
0.0
 11
177.428018
 21
-42.177685
 31
0.0
  0
LINE
  8
0
  6
BYLAYER
 62
     1
 10
177.428018
 20
-42.177685
 30
0.0
 11
177.428018
 21
-45.178532
 31
0.0
  0
ARC
  8
0
  6
BYLAYER
 62
     1
 10
179.985078
 20
-43.847348
 30
0.0
 40
1.436850
 50
270.0
 51
308.795693
  0
ARC
  8
0
  6
BYLAYER
 62
     1
 10
179.846014
 20
-43.699245
 30
0.0
 40
1.639484
 50
309.340576
 51
360.000000
  0
ARC
  8
0
  6
BYLAYER
 62
     1
 10
179.846014
 20
-43.699245
 30
0.0
 40
1.639484
 50
0.0
 51
50.659424
  0
ARC
  8
0
  6
BYLAYER
 62
     1
 10
179.985078
 20
-43.551142
 30
0.0
 40
1.436850
 50
51.204307
 51
90.0
  0
ARC
  8
0
  6
BYLAYER
 62
     1
 10
179.985078
 20
-43.551142
 30
0.0
 40
1.436850
 50
90.0
 51
128.795693
  0
ARC
  8
0
  6
BYLAYER
 62
     1
 10
180.124142
 20
-43.699245
 30
0.0
 40
1.639484
 50
129.340576
 51
180.0
  0
ARC
  8
0
  6
BYLAYER
 62
     1
 10
180.124142
 20
-43.699245
 30
0.0
 40
1.639484
 50
180.000000
 51
230.659424
  0
ARC
  8
0
  6
BYLAYER
 62
     1
 10
179.985078
 20
-43.847348
 30
0.0
 40
1.436850
 50
231.204307
 51
270.000000
  0
ARC
  8
0
  6
BYLAYER
 62
     1
 10
179.985078
 20
-43.277670
 30
0.0
 40
0.664873
 50
39.206799
 51
90.000000
  0
ARC
  8
0
  6
BYLAYER
 62
     1
 10
179.468301
 20
-43.699245
 30
0.0
 40
1.331795
 50
0.0
 51
39.206799
  0
ARC
  8
0
  6
BYLAYER
 62
     1
 10
179.468309
 20
-43.699245
 30
0.0
 40
1.331787
 50
320.793131
 51
360.000000
  0
ARC
  8
0
  6
BYLAYER
 62
     1
 10
179.985078
 20
-44.120815
 30
0.0
 40
0.664875
 50
270.0
 51
320.793131
  0
ARC
  8
0
  6
BYLAYER
 62
     1
 10
179.985078
 20
-44.120815
 30
0.0
 40
0.664875
 50
219.206869
 51
270.0
  0
ARC
  8
0
  6
BYLAYER
 62
     1
 10
180.501847
 20
-43.699245
 30
0.0
 40
1.331787
 50
180.000000
 51
219.206869
  0
ARC
  8
0
  6
BYLAYER
 62
     1
 10
180.501855
 20
-43.699245
 30
0.0
 40
1.331795
 50
140.793201
 51
180.000000
  0
ARC
  8
0
  6
BYLAYER
 62
     1
 10
179.985078
 20
-43.277670
 30
0.0
 40
0.664873
 50
90.0
 51
140.793201
  0
ARC
  8
0
  6
BYLAYER
 62
     1
 10
164.999147
 20
-38.742321
 30
0.0
 40
3.714997
 50
174.535650
 51
180.000000
  0
LINE
  8
0
  6
BYLAYER
 62
     1
 10
161.301031
 20
-38.388554
 30
0.0
 11
161.301031
 21
-38.388550
 31
0.0
  0
LINE
  8
0
  6
BYLAYER
 62
     1
 10
161.305073
 20
-38.348588
 30
0.0
 11
161.659625
 21
-38.199317
 31
0.0
  0
ARC
  8
0
  6
BYLAYER
 62
     1
 10
164.999162
 20
-38.742352
 30
0.0
 40
3.383391
 50
159.235383
 51
170.763998
  0
LINE
  8
0
  6
BYLAYER
 62
     1
 10
161.835525
 20
-37.542819
 30
0.0
 11
161.603126
 21
-37.236262
 31
0.0
  0
ARC
  8
0
  6
BYLAYER
 62
     1
 10
164.999147
 20
-38.742321
 30
0.0
 40
3.714993
 50
144.139514
 51
156.083795
  0
LINE
  8
0
  6
BYLAYER
 62
     1
 10
161.963915
 20
-36.600224
 30
0.0
 11
161.964136
 21
-36.599911
 31
0.0
  0
LINE
  8
0
  6
BYLAYER
 62
     1
 10
161.988346
 20
-36.566028
 30
0.0
 11
162.365809
 21
-36.617960
 31
0.0
  0
ARC
  8
0
  6
BYLAYER
 62
     1
 10
164.999147
 20
-38.742321
 30
0.0
 40
3.383370
 50
129.235643
 51
141.105976
  0
LINE
  8
0
  6
BYLAYER
 62
     1
 10
162.803804
 20
-36.167892
 30
0.0
 11
162.804170
 21
-36.167576
 31
0.0
  0
LINE
  8
0
  6
BYLAYER
 62
     1
 10
162.859127
 20
-36.121728
 30
0.0
 11
162.811130
 21
-35.740024
 31
0.0
  0
ARC
  8
0
  6
BYLAYER
 62
     1
 10
164.999147
 20
-38.742321
 30
0.0
 40
3.714997
 50
114.139607
 51
126.083853
  0
LINE
  8
0
  6
BYLAYER
 62
     1
 10
163.441873
 20
-35.369473
 30
0.0
 11
163.442125
 21
-35.369354
 31
0.0
  0
LINE
  8
0
  6
BYLAYER
 62
     1
 10
163.479857
 20
-35.352194
 30
0.0
 11
163.780771
 21
-35.585891
 31
0.0
  0
LINE
  8
0
  6
BYLAYER
 62
     1
 10
163.849573
 20
-35.560230
 30
0.0
 11
163.849954
 21
-35.560097
 31
0.0
  0
ARC
  8
0
  6
BYLAYER
 62
     1
 10
164.999147
 20
-38.742321
 30
0.0
 40
3.383369
 50
99.235601
 51
111.106038
  0
ARC
  8
0
  6
BYLAYER
 62
     1
 10
164.999147
 20
-38.742321
 30
0.0
 40
3.714997
 50
90.0
 51
96.083892
  0
LINE
  8
0
  6
BYLAYER
 62
     1
 10
164.605415
 20
-35.048247
 30
0.0
 11
164.456135
 21
-35.402811
 31
0.0
  0
LINE
  8
0
  6
BYLAYER
 62
     1
 10
168.697259
 20
-38.388554
 30
0.0
 11
168.697259
 21
-38.388550
 31
0.0
  0
LINE
  8
0
  6
BYLAYER
 62
     1
 10
168.693221
 20
-38.348588
 30
0.0
 11
168.338651
 21
-38.199313
 31
0.0
  0
ARC
  8
0
  6
BYLAYER
 62
     1
 10
164.999124
 20
-38.742352
 30
0.0
 40
3.383391
 50
9.235986
 51
20.764650
  0
LINE
  8
0
  6
BYLAYER
 62
     1
 10
168.162786
 20
-37.542784
 30
0.0
 11
168.395169
 21
-37.236263
 31
0.0
  0
ARC
  8
0
  6
BYLAYER
 62
     1
 10
164.999147
 20
-38.742321
 30
0.0
 40
3.714993
 50
23.916189
 51
35.860484
  0
LINE
  8
0
  6
BYLAYER
 62
     1
 10
168.034372
 20
-36.600224
 30
0.0
 11
168.034151
 21
-36.599911
 31
0.0
  0
LINE
  8
0
  6
BYLAYER
 62
     1
 10
168.009948
 20
-36.566028
 30
0.0
 11
167.632512
 21
-36.617955
 31
0.0
  0
ARC
  8
0
  6
BYLAYER
 62
     1
 10
164.999147
 20
-38.742321
 30
0.0
 40
3.383370
 50
38.894050
 51
50.764315
  0
LINE
  8
0
  6
BYLAYER
 62
     1
 10
167.194490
 20
-36.167892
 30
0.0
 11
167.194124
 21
-36.167576
 31
0.0
  0
LINE
  8
0
  6
BYLAYER
 62
     1
 10
167.139177
 20
-36.121666
 30
0.0
 11
167.187156
 21
-35.740018
 31
0.0
  0
ARC
  8
0
  6
BYLAYER
 62
     1
 10
164.999147
 20
-38.742321
 30
0.0
 40
3.714997
 50
53.916300
 51
65.860381
  0
LINE
  8
0
  6
BYLAYER
 62
     1
 10
166.556421
 20
-35.369473
 30
0.0
 11
166.556161
 21
-35.369354
 31
0.0
  0
LINE
  8
0
  6
BYLAYER
 62
     1
 10
166.518438
 20
-35.352195
 30
0.0
 11
166.217526
 21
-35.585881
 31
0.0
  0
LINE
  8
0
  6
BYLAYER
 62
     1
 10
166.148714
 20
-35.560230
 30
0.0
 11
166.148340
 21
-35.560097
 31
0.0
  0
ARC
  8
0
  6
BYLAYER
 62
     1
 10
164.999147
 20
-38.742321
 30
0.0
 40
3.383369
 50
68.894081
 51
80.764578
  0
ARC
  8
0
  6
BYLAYER
 62
     1
 10
164.999147
 20
-38.742321
 30
0.0
 40
3.714997
 50
84.535428
 51
90.000003
  0
LINE
  8
0
  6
BYLAYER
 62
     1
 10
165.392881
 20
-35.048247
 30
0.0
 11
165.542124
 21
-35.402751
 31
0.0
  0
ARC
  8
0
  6
BYLAYER
 62
     1
 10
164.999147
 20
-38.742321
 30
0.0
 40
3.714997
 50
180.000000
 51
186.083899
  0
LINE
  8
0
  6
BYLAYER
 62
     1
 10
161.301031
 20
-39.096085
 30
0.0
 11
161.301031
 21
-39.096092
 31
0.0
  0
LINE
  8
0
  6
BYLAYER
 62
     1
 10
161.305073
 20
-39.136054
 30
0.0
 11
161.659635
 21
-39.285330
 31
0.0
  0
ARC
  8
0
  6
BYLAYER
 62
     1
 10
164.999162
 20
-38.742290
 30
0.0
 40
3.383391
 50
189.236002
 51
200.764629
  0
LINE
  8
0
  6
BYLAYER
 62
     1
 10
161.835537
 20
-39.941808
 30
0.0
 11
161.603124
 21
-40.248377
 31
0.0
  0
ARC
  8
0
  6
BYLAYER
 62
     1
 10
164.999147
 20
-38.742321
 30
0.0
 40
3.714993
 50
203.916158
 51
215.860410
  0
LINE
  8
0
  6
BYLAYER
 62
     1
 10
161.963915
 20
-40.884415
 30
0.0
 11
161.964136
 21
-40.884727
 31
0.0
  0
LINE
  8
0
  6
BYLAYER
 62
     1
 10
161.988343
 20
-40.918610
 30
0.0
 11
162.365841
 21
-40.866679
 31
0.0
  0
ARC
  8
0
  6
BYLAYER
 62
     1
 10
164.999147
 20
-38.742321
 30
0.0
 40
3.383370
 50
218.894045
 51
230.764345
  0
LINE
  8
0
  6
BYLAYER
 62
     1
 10
162.803804
 20
-41.316746
 30
0.0
 11
162.804170
 21
-41.317062
 31
0.0
  0
LINE
  8
0
  6
BYLAYER
 62
     1
 10
162.859127
 20
-41.362914
 30
0.0
 11
162.811130
 21
-41.744618
 31
0.0
  0
ARC
  8
0
  6
BYLAYER
 62
     1
 10
164.999147
 20
-38.742321
 30
0.0
 40
3.714997
 50
233.916148
 51
245.860401
  0
LINE
  8
0
  6
BYLAYER
 62
     1
 10
163.441873
 20
-42.115166
 30
0.0
 11
163.442125
 21
-42.115288
 31
0.0
  0
LINE
  8
0
  6
BYLAYER
 62
     1
 10
163.479857
 20
-42.132448
 30
0.0
 11
163.780807
 21
-41.898718
 31
0.0
  0
LINE
  8
0
  6
BYLAYER
 62
     1
 10
163.849573
 20
-41.924408
 30
0.0
 11
163.849954
 21
-41.924545
 31
0.0
  0
LINE
  8
0
  6
BYLAYER
 62
     1
 10
168.697259
 20
-39.096085
 30
0.0
 11
168.697259
 21
-39.096092
 31
0.0
  0
LINE
  8
0
  6
BYLAYER
 62
     1
 10
168.693220
 20
-39.136054
 30
0.0
 11
168.338651
 21
-39.285329
 31
0.0
  0
LINE
  8
0
  6
BYLAYER
 62
     1
 10
168.162753
 20
-39.941816
 30
0.0
 11
168.395173
 21
-40.248380
 31
0.0
  0
LINE
  8
0
  6
BYLAYER
 62
     1
 10
168.034372
 20
-40.884415
 30
0.0
 11
168.034151
 21
-40.884727
 31
0.0
  0
LINE
  8
0
  6
BYLAYER
 62
     1
 10
168.009955
 20
-40.918611
 30
0.0
 11
167.632432
 21
-40.866677
 31
0.0
  0
LINE
  8
0
  6
BYLAYER
 62
     1
 10
167.194490
 20
-41.316746
 30
0.0
 11
167.194124
 21
-41.317062
 31
0.0
  0
LINE
  8
0
  6
BYLAYER
 62
     1
 10
167.139169
 20
-41.362912
 30
0.0
 11
167.187156
 21
-41.744624
 31
0.0
  0
LINE
  8
0
  6
BYLAYER
 62
     1
 10
166.518438
 20
-42.132448
 30
0.0
 11
166.217481
 21
-41.898721
 31
0.0
  0
ARC
  8
0
  6
BYLAYER
 62
     1
 10
164.999147
 20
-38.742321
 30
0.0
 40
3.383370
 50
309.235697
 51
321.105929
  0
ARC
  8
0
  6
BYLAYER
 62
     1
 10
164.999147
 20
-38.742321
 30
0.0
 40
3.383369
 50
248.893873
 51
270.0
  0
ARC
  8
0
  6
BYLAYER
 62
     1
 10
164.999147
 20
-38.742321
 30
0.0
 40
3.714997
 50
294.783232
 51
306.083699
  0
LINE
  8
0
  6
BYLAYER
 62
     1
 10
166.556161
 20
-42.115288
 30
0.0
 11
166.518666
 21
-42.132932
 31
0.0
  0
ARC
  8
0
  6
BYLAYER
 62
     1
 10
164.999147
 20
-38.742321
 30
0.0
 40
3.714993
 50
324.139593
 51
336.083825
  0
ARC
  8
0
  6
BYLAYER
 62
     1
 10
164.999124
 20
-38.742290
 30
0.0
 40
3.383391
 50
339.235210
 51
350.764014
  0
ARC
  8
0
  6
BYLAYER
 62
     1
 10
164.999147
 20
-38.742321
 30
0.0
 40
3.714997
 50
353.916089
 51
360.000000
  0
ARC
  8
0
  6
BYLAYER
 62
     1
 10
164.999147
 20
-38.742321
 30
0.0
 40
3.714997
 50
0.0
 51
6.083907
  0
ARC
  8
0
  6
BYLAYER
 62
     1
 10
164.999147
 20
-38.742321
 30
0.0
 40
3.383369
 50
270.0
 51
291.106008
  0
CIRCLE
  8
0
  6
BYLAYER
 62
     1
 10
164.999147
 20
-38.742321
 30
0.0
 40
1.815040
  0
CIRCLE
  8
0
  6
BYLAYER
 62
     1
 10
164.999147
 20
-38.742321
 30
0.0
 40
2.648016
  0
LINE
  8
0
  6
BYLAYER
 62
     1
 10
169.249147
 20
-98.242321
 30
0.0
 11
166.249147
 21
-98.242321
 31
0.0
  0
LINE
  8
0
  6
BYLAYER
 62
     1
 10
169.249147
 20
-98.242321
 30
0.0
 11
169.249147
 21
-101.242321
 31
0.0
  0
LINE
  8
0
  6
BYLAYER
 62
     1
 10
169.249147
 20
-98.242321
 30
0.0
 11
172.249147
 21
-98.242321
 31
0.0
  0
ARC
  8
0
  6
BYLAYER
 62
     1
 10
202.736638
 20
-73.730325
 30
0.0
 40
2.000000
 50
355.957305
 51
396.203183
  0
LINE
  8
0
  6
BYLAYER
 62
     1
 10
274.249239
 20
-97.349525
 30
0.0
 11
274.249239
 21
-65.954020
 31
0.0
  0
LINE
  8
0
  6
BYLAYER
 62
     1
 10
274.249239
 20
-166.242602
 30
0.0
 11
274.249239
 21
-129.135859
 31
0.0
  0
LINE
  8
0
  6
BYLAYER
 62
     1
 10
284.249239
 20
-28.242648
 30
0.0
 11
284.249239
 21
-168.242602
 31
0.0
  0
LINE
  8
0
  6
BYLAYER
 62
     1
 10
279.249239
 20
-26.242587
 30
0.0
 11
279.249239
 21
-31.192692
 31
0.0
  0
ARC
  8
0
  6
BYLAYER
 62
     1
 10
275.249239
 20
-26.242587
 30
0.0
 40
4.0
 50
0.0
 51
90.0
  0
ARC
  8
0
  6
BYLAYER
 62
     1
 10
281.249239
 20
-26.242648
 30
0.0
 40
2.000000
 50
180.000000
 51
270.000000
  0
LINE
  8
0
  6
BYLAYER
 62
     1
 10
275.249239
 20
-22.242587
 30
0.0
 11
259.249147
 21
-22.242587
 31
0.0
  0
ARC
  8
0
  6
BYLAYER
 62
     1
 10
259.249147
 20
-20.242587
 30
0.0
 40
2.000000
 50
180.000000
 51
270.000000
  0
LINE
  8
0
  6
BYLAYER
 62
     1
 10
269.420811
 20
-117.242602
 30
0.0
 11
251.249147
 21
-117.242602
 31
0.0
  0
LINE
  8
0
  6
BYLAYER
 62
     1
 10
249.249147
 20
-1.242587
 30
0.0
 11
255.249147
 21
-1.242587
 31
0.0
  0
ARC
  8
0
  6
BYLAYER
 62
     1
 10
255.249147
 20
-3.242587
 30
0.0
 40
2.000000
 50
0.0
 51
90.0
  0
ARC
  8
0
  6
BYLAYER
 62
     1
 10
249.249147
 20
-116.242587
 30
0.0
 40
1.000000
 50
0.0
 51
90.0
  0
ARC
  8
0
  6
BYLAYER
 62
     1
 10
251.249147
 20
-116.242602
 30
0.0
 40
1.0
 50
180.000000
 51
270.000000
  0
LINE
  8
0
  6
BYLAYER
 62
     1
 10
284.249239
 20
-28.242648
 30
0.0
 11
281.249239
 21
-28.242648
 31
0.0
  0
LINE
  8
0
  6
BYLAYER
 62
     1
 10
284.249239
 20
-168.242602
 30
0.0
 11
276.249239
 21
-168.242602
 31
0.0
  0
ARC
  8
0
  6
BYLAYER
 62
     1
 10
276.249239
 20
-166.242602
 30
0.0
 40
2.000000
 50
180.000000
 51
270.000000
  0
LINE
  8
0
  6
BYLAYER
 62
     1
 10
272.843452
 20
-119.836816
 30
0.0
 11
270.835025
 21
-117.828389
 31
0.0
  0
ARC
  8
0
  6
BYLAYER
 62
     1
 10
269.420811
 20
-119.242602
 30
0.0
 40
2.000000
 50
45.000000
 51
90.000000
  0
LINE
  8
0
  6
BYLAYER
 62
     1
 10
254.646436
 20
-118.724964
 30
0.0
 11
261.469127
 21
-144.187594
 31
0.0
  0
ARC
  8
0
  6
BYLAYER
 62
     1
 10
252.714585
 20
-119.242602
 30
0.0
 40
2.000000
 50
15.0
 51
90.0
  0
ARC
  8
0
  6
BYLAYER
 62
     1
 10
263.400979
 20
-143.669956
 30
0.0
 40
2.000000
 50
195.000000
 51
240.000002
  0
LINE
  8
0
  6
BYLAYER
 62
     1
 10
273.249239
 20
-151.665252
 30
0.0
 11
262.400979
 21
-145.402007
 31
0.0
  0
ARC
  8
0
  6
BYLAYER
 62
     1
 10
272.249239
 20
-153.397303
 30
0.0
 40
2.000000
 50
0.0
 51
60.000002
  0
LINE
  8
0
  6
BYLAYER
 62
     1
 10
257.249147
 20
-3.242587
 30
0.0
 11
257.249147
 21
-112.342587
 31
0.0
  0
ARC
  8
0
  6
BYLAYER
 62
     1
 10
255.249147
 20
-112.342587
 30
0.0
 40
2.000000
 50
270.0
 51
360.0
  0
LINE
  8
0
  6
BYLAYER
 62
     1
 10
278.739239
 20
-65.954020
 30
0.0
 11
274.249239
 21
-65.954020
 31
0.0
  0
LINE
  8
0
  6
BYLAYER
 62
     1
 10
284.249239
 20
-62.172049
 30
0.0
 11
278.702085
 21
-62.172049
 31
0.0
  0
LINE
  8
0
  6
BYLAYER
 62
     1
 10
278.702085
 20
-62.172049
 30
0.0
 11
278.739239
 21
-65.954020
 31
0.0
  0
LINE
  8
0
  6
BYLAYER
 62
     1
 10
273.429239
 20
-127.745223
 30
0.0
 11
273.429239
 21
-98.740162
 31
0.0
  0
ARC
  8
0
  6
BYLAYER
 62
     1
 10
271.429239
 20
-121.251029
 30
0.0
 40
2.0
 50
0.0
 51
45.0
  0
LINE
  8
0
  6
BYLAYER
 62
     1
 10
274.073044
 20
-128.754874
 30
0.0
 11
273.781627
 21
-128.507193
 31
0.0
  0
ARC
  8
0
  6
BYLAYER
 62
     1
 10
273.749239
 20
-129.135859
 30
0.0
 40
0.500000
 50
0.0
 51
49.638219
  0
ARC
  8
0
  6
BYLAYER
 62
     1
 10
274.429239
 20
-127.745223
 30
0.0
 40
1.000000
 50
180.000000
 51
229.638219
  0
LINE
  8
0
  6
BYLAYER
 62
     1
 10
274.073044
 20
-97.730510
 30
0.0
 11
273.781627
 21
-97.978191
 31
0.0
  0
ARC
  8
0
  6
BYLAYER
 62
     1
 10
273.749239
 20
-97.349525
 30
0.0
 40
0.500000
 50
310.361781
 51
360.000000
  0
ARC
  8
0
  6
BYLAYER
 62
     1
 10
274.429239
 20
-98.740162
 30
0.0
 40
1.0
 50
130.361781
 51
180.000000
  0
LINE
  8
0
  6
BYLAYER
 62
     1
 10
259.371424
 20
-77.242602
 30
0.0
 11
271.900138
 21
-77.242602
 31
0.0
  0
ARC
  8
0
  6
BYLAYER
 62
     1
 10
271.900138
 20
-75.242602
 30
0.0
 40
2.0
 50
270.0
 51
360.0
  0
ARC
  8
0
  6
BYLAYER
 62
     1
 10
259.371424
 20
-75.242602
 30
0.0
 40
2.000000
 50
180.000000
 51
270.000000
  0
LINE
  8
0
  6
BYLAYER
 62
     1
 10
259.371424
 20
-79.242602
 30
0.0
 11
271.900138
 21
-79.242602
 31
0.0
  0
ARC
  8
0
  6
BYLAYER
 62
     1
 10
271.900138
 20
-81.242602
 30
0.0
 40
2.0
 50
0.0
 51
90.0
  0
ARC
  8
0
  6
BYLAYER
 62
     1
 10
259.371424
 20
-81.242602
 30
0.0
 40
2.000000
 50
90.0
 51
180.0
  0
LINE
  8
0
  6
BYLAYER
 62
     1
 10
239.249147
 20
-6.139894
 30
0.0
 11
239.249147
 21
-58.242443
 31
0.0
  0
LINE
  8
0
  6
BYLAYER
 62
     1
 10
239.249239
 20
-110.742500
 30
0.0
 11
239.249239
 21
-58.242443
 31
0.0
  0
LINE
  8
0
  6
BYLAYER
 62
     1
 10
239.249239
 20
-110.742500
 30
0.0
 11
239.301584
 21
-110.745244
 31
0.0
  0
ARC
  8
0
  6
BYLAYER
 62
     1
 10
239.249239
 20
-111.743873
 30
0.0
 40
1.000000
 50
0.0
 51
86.999462
  0
LINE
  8
0
  6
BYLAYER
 62
     1
 10
249.249147
 20
-1.242435
 30
0.0
 11
249.249147
 21
-58.242443
 31
0.0
  0
LINE
  8
0
  6
BYLAYER
 62
     1
 10
249.249147
 20
-115.242435
 30
0.0
 11
249.249147
 21
-58.242443
 31
0.0
  0
LINE
  8
0
  6
BYLAYER
 62
     1
 10
240.249239
 20
-112.996774
 30
0.0
 11
240.249239
 21
-58.242443
 31
0.0
  0
ARC
  8
0
  6
BYLAYER
 62
     1
 10
242.249239
 20
-112.996774
 30
0.0
 40
2.0
 50
180.000000
 51
268.000000
  0
LINE
  8
0
  6
BYLAYER
 62
     1
 10
240.249147
 20
-3.488100
 30
0.0
 11
240.249147
 21
-58.242443
 31
0.0
  0
ARC
  8
0
  6
BYLAYER
 62
     1
 10
239.749147
 20
-5.622129
 30
0.0
 40
0.500000
 50
272.0
 51
360.0
  0
LINE
  8
0
  6
BYLAYER
 62
     1
 10
249.249147
 20
-115.242435
 30
0.0
 11
242.179440
 21
-114.995556
 31
0.0
  0
LINE
  8
0
  6
BYLAYER
 62
     1
 10
249.249147
 20
-1.242435
 30
0.0
 11
242.179348
 21
-1.489318
 31
0.0
  0
ARC
  8
0
  6
BYLAYER
 62
     1
 10
242.249147
 20
-3.488100
 30
0.0
 40
2.0
 50
92.000000
 51
180.000000
  0
LINE
  8
0
  6
BYLAYER
 62
     1
 10
239.766597
 20
-6.121825
 30
0.0
 11
239.249147
 21
-6.139894
 31
0.0
  0
LINE
  8
0
  6
BYLAYER
 62
     1
 10
231.249147
 20
-8.059765
 30
0.0
 11
231.249147
 21
-58.242321
 31
0.0
  0
ARC
  8
0
  6
BYLAYER
 62
     1
 10
230.749147
 20
-22.133068
 30
0.0
 40
0.499997
 50
279.999879
 51
360.0
  0
ARC
  8
0
  6
BYLAYER
 62
     1
 10
230.749147
 20
-22.133068
 30
0.0
 40
0.499997
 50
279.999879
 51
360.0
  0
LINE
  8
0
  6
BYLAYER
 62
     1
 10
220.249147
 20
-24.492199
 30
0.0
 11
230.835970
 21
-22.625469
 31
0.0
  0
ARC
  8
0
  6
BYLAYER
 62
     1
 10
233.249147
 20
-8.059765
 30
0.0
 40
2.000000
 50
93.000097
 51
180.000000
  0
LINE
  8
0
  6
BYLAYER
 62
     1
 10
233.144472
 20
-6.062511
 30
0.0
 11
239.249147
 21
-5.742580
 31
0.0
  0
LINE
  8
0
  6
BYLAYER
 62
     1
 10
221.071657
 20
-24.347179
 30
0.0
 11
231.249147
 21
-8.059765
 31
0.0
  0
LINE
  8
0
  6
BYLAYER
 62
     1
 10
220.249147
 20
-58.242321
 30
0.0
 11
220.249147
 21
-24.492199
 31
0.0
  0
LINE
  8
0
  6
BYLAYER
 62
     1
 10
239.249147
 20
-5.742580
 30
0.0
 11
239.249147
 21
-58.242443
 31
0.0
  0
LINE
  8
0
  6
BYLAYER
 62
     1
 10
231.249147
 20
-108.424877
 30
0.0
 11
231.249147
 21
-58.242321
 31
0.0
  0
ARC
  8
0
  6
BYLAYER
 62
     1
 10
230.749147
 20
-94.351574
 30
0.0
 40
0.499997
 50
0.0
 51
80.000121
  0
ARC
  8
0
  6
BYLAYER
 62
     1
 10
230.749147
 20
-94.351574
 30
0.0
 40
0.499997
 50
0.0
 51
80.000121
  0
LINE
  8
0
  6
BYLAYER
 62
     1
 10
220.249147
 20
-91.992443
 30
0.0
 11
230.835970
 21
-93.859173
 31
0.0
  0
ARC
  8
0
  6
BYLAYER
 62
     1
 10
233.249147
 20
-108.424877
 30
0.0
 40
2.0
 50
180.000000
 51
266.999903
  0
LINE
  8
0
  6
BYLAYER
 62
     1
 10
233.144472
 20
-110.422131
 30
0.0
 11
239.249147
 21
-110.742062
 31
0.0
  0
LINE
  8
0
  6
BYLAYER
 62
     1
 10
221.071657
 20
-92.137463
 30
0.0
 11
231.249147
 21
-108.424877
 31
0.0
  0
LINE
  8
0
  6
BYLAYER
 62
     1
 10
220.249147
 20
-58.242321
 30
0.0
 11
220.249147
 21
-91.992443
 31
0.0
  0
LINE
  8
0
  6
BYLAYER
 62
     1
 10
239.249147
 20
-110.742062
 30
0.0
 11
239.249147
 21
-58.242199
 31
0.0
  0
LINE
  8
0
  6
BYLAYER
 62
     1
 10
169.249147
 20
-98.242321
 30
0.0
 11
169.249147
 21
-94.756042
 31
0.0
  0
ARC
  8
0
  6
BYLAYER
 62
     1
 10
705.249147
 20
-58.242321
 30
0.0
 40
57.0
 50
0.640806
 51
53.067329
  0
ARC
  8
0
  6
BYLAYER
 62
     1
 10
705.249147
 20
-58.242321
 30
0.0
 40
57.000000
 50
126.932825
 51
179.359194
  0
ARC
  8
0
  6
BYLAYER
 62
     1
 10
659.346519
 20
-44.208479
 30
0.0
 40
3.25
 50
23.018789
 51
237.678081
  0
ARC
  8
0
  6
BYLAYER
 62
     1
 10
751.151775
 20
-44.208479
 30
0.0
 40
3.250000
 50
302.321915
 51
516.981215
  0
LINE
  8
0
  6
BYLAYER
 62
     7
 10
668.249086
 20
-37.542309
 30
0.0
 11
671.249086
 21
-42.738476
 31
0.0
  0
LINE
  8
0
  6
BYLAYER
 62
     7
 10
668.249086
 20
-33.042370
 30
0.0
 11
668.249086
 21
-50.249035
 31
0.0
  0
LINE
  8
0
  6
BYLAYER
 62
     7
 10
742.249086
 20
-33.042309
 30
0.0
 11
742.249086
 21
-50.248941
 31
0.0
  0
LINE
  8
0
  6
BYLAYER
 62
     7
 10
742.249086
 20
-37.542309
 30
0.0
 11
739.249086
 21
-42.738415
 31
0.0
  0
ARC
  8
0
  6
BYLAYER
 62
     7
 10
705.249147
 20
-98.242321
 30
0.0
 40
70.0
 50
270.0
 51
418.091076
  0
ARC
  8
0
  6
BYLAYER
 62
     7
 10
745.899141
 20
-57.592327
 30
0.0
 40
4.750000
 50
354.170342
 51
455.829658
  0
ARC
  8
0
  6
BYLAYER
 62
     7
 10
745.899141
 20
-138.892315
 30
0.0
 40
4.750000
 50
264.170342
 51
365.829658
  0
LINE
  8
0
  6
BYLAYER
 62
     7
 10
707.249147
 20
-162.618175
 30
0.0
 11
707.249147
 21
-158.809309
 31
0.0
  0
ARC
  8
0
  6
BYLAYER
 62
     7
 10
709.249147
 20
-162.618175
 30
0.0
 40
2.000004
 50
180.000000
 51
273.555492
  0
ARC
  8
0
  6
BYLAYER
 62
     7
 10
705.249147
 20
-98.242321
 30
0.0
 40
66.500000
 50
273.555497
 51
305.180611
  0
ARC
  8
0
  6
BYLAYER
 62
     7
 10
742.411195
 20
-150.960735
 30
0.0
 40
1.999997
 50
305.180529
 51
405.000001
  0
LINE
  8
0
  6
BYLAYER
 62
     7
 10
741.260645
 20
-146.981751
 30
0.0
 11
743.825410
 21
-149.546520
 31
0.0
  0
ARC
  8
0
  6
BYLAYER
 62
     7
 10
757.967561
 20
-135.404400
 30
0.0
 40
2.000003
 50
224.999928
 51
324.819372
  0
LINE
  8
0
  6
BYLAYER
 62
     7
 10
756.553346
 20
-136.818600
 30
0.0
 11
753.988570
 21
-134.253828
 31
0.0
  0
ARC
  8
0
  6
BYLAYER
 62
     7
 10
705.249147
 20
-98.242321
 30
0.0
 40
66.5
 50
324.819372
 51
356.444487
  0
LINE
  8
0
  6
BYLAYER
 62
     7
 10
765.816135
 20
-100.242321
 30
0.0
 11
769.625001
 21
-100.242321
 31
0.0
  0
ARC
  8
0
  6
BYLAYER
 62
     7
 10
769.625001
 20
-102.242321
 30
0.0
 40
2.000004
 50
356.444487
 51
450.000003
  0
ARC
  8
0
  6
BYLAYER
 62
     7
 10
705.249147
 20
-98.242321
 30
0.0
 40
66.500000
 50
54.819389
 51
56.193488
  0
ARC
  8
0
  6
BYLAYER
 62
     7
 10
742.411195
 20
-45.523907
 30
0.0
 40
1.999997
 50
314.999992
 51
414.819471
  0
LINE
  8
0
  6
BYLAYER
 62
     7
 10
742.249086
 20
-48.514451
 30
0.0
 11
743.825410
 21
-46.938122
 31
0.0
  0
LINE
  8
0
  6
BYLAYER
 62
     7
 10
762.000246
 20
-67.786449
 30
0.0
 11
758.701700
 21
-69.690884
 31
0.0
  0
ARC
  8
0
  6
BYLAYER
 62
     7
 10
763.000246
 20
-69.518505
 30
0.0
 40
2.000005
 50
26.444505
 51
119.999990
  0
ARC
  8
0
  6
BYLAYER
 62
     7
 10
705.249147
 20
-98.242321
 30
0.0
 40
66.5
 50
3.555507
 51
26.444490
  0
ARC
  8
0
  6
BYLAYER
 62
     7
 10
769.625001
 20
-94.242321
 30
0.0
 40
2.000004
 50
270.0
 51
363.555494
  0
LINE
  8
0
  6
BYLAYER
 62
     7
 10
765.816135
 20
-96.242321
 30
0.0
 11
769.625001
 21
-96.242321
 31
0.0
  0
ARC
  8
0
  6
BYLAYER
 62
     7
 10
705.249147
 20
-98.242321
 30
0.0
 40
70.0
 50
121.909042
 51
270.000000
  0
ARC
  8
0
  6
BYLAYER
 62
     7
 10
664.599153
 20
-57.592327
 30
0.0
 40
4.750000
 50
84.170342
 51
185.829658
  0
ARC
  8
0
  6
BYLAYER
 62
     7
 10
664.599153
 20
-138.892315
 30
0.0
 40
4.750000
 50
174.170342
 51
275.829658
  0
LINE
  8
0
  6
BYLAYER
 62
     7
 10
703.249147
 20
-162.618175
 30
0.0
 11
703.249147
 21
-158.809309
 31
0.0
  0
ARC
  8
0
  6
BYLAYER
 62
     7
 10
701.249147
 20
-162.618175
 30
0.0
 40
2.000004
 50
266.444508
 51
360.000000
  0
ARC
  8
0
  6
BYLAYER
 62
     7
 10
705.249147
 20
-98.242321
 30
0.0
 40
66.5
 50
234.819389
 51
266.444503
  0
ARC
  8
0
  6
BYLAYER
 62
     7
 10
668.087099
 20
-150.960735
 30
0.0
 40
1.999997
 50
134.999999
 51
234.819471
  0
LINE
  8
0
  6
BYLAYER
 62
     7
 10
669.237649
 20
-146.981751
 30
0.0
 11
666.672884
 21
-149.546520
 31
0.0
  0
ARC
  8
0
  6
BYLAYER
 62
     7
 10
652.530733
 20
-135.404400
 30
0.0
 40
2.000003
 50
215.180628
 51
315.000072
  0
LINE
  8
0
  6
BYLAYER
 62
     7
 10
653.944948
 20
-136.818600
 30
0.0
 11
656.509724
 21
-134.253828
 31
0.0
  0
ARC
  8
0
  6
BYLAYER
 62
     7
 10
705.249147
 20
-98.242321
 30
0.0
 40
66.500000
 50
183.555513
 51
215.180628
  0
LINE
  8
0
  6
BYLAYER
 62
     7
 10
644.682159
 20
-100.242321
 30
0.0
 11
640.873293
 21
-100.242321
 31
0.0
  0
ARC
  8
0
  6
BYLAYER
 62
     7
 10
640.873293
 20
-102.242321
 30
0.0
 40
2.000004
 50
90.0
 51
183.555516
  0
ARC
  8
0
  6
BYLAYER
 62
     7
 10
705.249147
 20
-98.242321
 30
0.0
 40
66.5
 50
123.806639
 51
125.180611
  0
ARC
  8
0
  6
BYLAYER
 62
     7
 10
668.087099
 20
-45.523907
 30
0.0
 40
1.999997
 50
125.180529
 51
225.000008
  0
LINE
  8
0
  6
BYLAYER
 62
     7
 10
668.249086
 20
-48.514329
 30
0.0
 11
666.672884
 21
-46.938122
 31
0.0
  0
LINE
  8
0
  6
BYLAYER
 62
     7
 10
648.498048
 20
-67.786449
 30
0.0
 11
652.508821
 21
-70.102093
 31
0.0
  0
ARC
  8
0
  6
BYLAYER
 62
     7
 10
647.498048
 20
-69.518505
 30
0.0
 40
2.000005
 50
60.000010
 51
153.555495
  0
ARC
  8
0
  6
BYLAYER
 62
     7
 10
705.249147
 20
-98.242321
 30
0.0
 40
66.500000
 50
153.555510
 51
176.444493
  0
ARC
  8
0
  6
BYLAYER
 62
     7
 10
640.873293
 20
-94.242321
 30
0.0
 40
2.000004
 50
176.444506
 51
270.0
  0
LINE
  8
0
  6
BYLAYER
 62
     7
 10
644.682159
 20
-96.242321
 30
0.0
 11
640.873293
 21
-96.242321
 31
0.0
  0
CIRCLE
  8
0
  6
BYLAYER
 62
     7
 10
705.249147
 20
-98.242321
 30
0.0
 40
50.248528
  0
CIRCLE
  8
0
  6
BYLAYER
 62
     7
 10
705.249147
 20
-98.242321
 30
0.0
 40
60.6
  0
CIRCLE
  8
0
  6
BYLAYER
 62
     7
 10
705.249147
 20
-98.242321
 30
0.0
 40
46.0
  0
LINE
  8
0
  6
BYLAYER
 62
     7
 10
706.249147
 20
-87.242321
 30
0.0
 11
714.249147
 21
-87.242321
 31
0.0
  0
LINE
  8
0
  6
BYLAYER
 62
     7
 10
706.249147
 20
-69.242321
 30
0.0
 11
706.249147
 21
-77.242321
 31
0.0
  0
LINE
  8
0
  6
BYLAYER
 62
     7
 10
706.249147
 20
-59.242321
 30
0.0
 11
706.249147
 21
-67.242321
 31
0.0
  0
LINE
  8
0
  6
BYLAYER
 62
     7
 10
706.249147
 20
-79.242321
 30
0.0
 11
706.249147
 21
-87.242321
 31
0.0
  0
LINE
  8
0
  6
BYLAYER
 62
     7
 10
714.249147
 20
-67.242321
 30
0.0
 11
714.249147
 21
-59.242321
 31
0.0
  0
LINE
  8
0
  6
BYLAYER
 62
     7
 10
716.249147
 20
-67.242321
 30
0.0
 11
716.249147
 21
-59.242321
 31
0.0
  0
LINE
  8
0
  6
BYLAYER
 62
     7
 10
706.249147
 20
-79.242321
 30
0.0
 11
714.249147
 21
-79.242321
 31
0.0
  0
LINE
  8
0
  6
BYLAYER
 62
     7
 10
706.249147
 20
-77.242321
 30
0.0
 11
714.249147
 21
-77.242321
 31
0.0
  0
LINE
  8
0
  6
BYLAYER
 62
     7
 10
706.249147
 20
-69.242321
 30
0.0
 11
714.249147
 21
-69.242321
 31
0.0
  0
LINE
  8
0
  6
BYLAYER
 62
     7
 10
716.249147
 20
-67.242321
 30
0.0
 11
724.087146
 21
-67.242321
 31
0.0
  0
LINE
  8
0
  6
BYLAYER
 62
     7
 10
706.249147
 20
-67.242321
 30
0.0
 11
714.249147
 21
-67.242321
 31
0.0
  0
LINE
  8
0
  6
BYLAYER
 62
     7
 10
716.249147
 20
-59.242321
 30
0.0
 11
724.087146
 21
-59.242321
 31
0.0
  0
LINE
  8
0
  6
BYLAYER
 62
     7
 10
706.249147
 20
-59.242321
 30
0.0
 11
714.249147
 21
-59.242321
 31
0.0
  0
LINE
  8
0
  6
BYLAYER
 62
     7
 10
724.087146
 20
-67.242321
 30
0.0
 11
724.087146
 21
-59.242321
 31
0.0
  0
LINE
  8
0
  6
BYLAYER
 62
     7
 10
714.249147
 20
-87.242321
 30
0.0
 11
714.249147
 21
-79.242321
 31
0.0
  0
LINE
  8
0
  6
BYLAYER
 62
     7
 10
714.249147
 20
-77.242321
 30
0.0
 11
714.249147
 21
-69.242321
 31
0.0
  0
LINE
  8
0
  6
BYLAYER
 62
     7
 10
716.249147
 20
-87.242321
 30
0.0
 11
724.249147
 21
-87.242321
 31
0.0
  0
LINE
  8
0
  6
BYLAYER
 62
     7
 10
716.249147
 20
-69.242321
 30
0.0
 11
716.249147
 21
-77.242321
 31
0.0
  0
LINE
  8
0
  6
BYLAYER
 62
     7
 10
716.249147
 20
-79.242321
 30
0.0
 11
716.249147
 21
-87.242321
 31
0.0
  0
LINE
  8
0
  6
BYLAYER
 62
     7
 10
716.249147
 20
-79.242321
 30
0.0
 11
724.249147
 21
-79.242321
 31
0.0
  0
LINE
  8
0
  6
BYLAYER
 62
     7
 10
716.249147
 20
-77.242321
 30
0.0
 11
724.249147
 21
-77.242321
 31
0.0
  0
LINE
  8
0
  6
BYLAYER
 62
     7
 10
716.249147
 20
-69.242321
 30
0.0
 11
724.249147
 21
-69.242321
 31
0.0
  0
LINE
  8
0
  6
BYLAYER
 62
     7
 10
724.249147
 20
-87.242321
 30
0.0
 11
724.249147
 21
-79.242321
 31
0.0
  0
LINE
  8
0
  6
BYLAYER
 62
     7
 10
724.249147
 20
-77.242321
 30
0.0
 11
724.249147
 21
-69.242321
 31
0.0
  0
LINE
  8
0
  6
BYLAYER
 62
     7
 10
726.249147
 20
-87.242321
 30
0.0
 11
734.249147
 21
-87.242321
 31
0.0
  0
LINE
  8
0
  6
BYLAYER
 62
     7
 10
726.249147
 20
-69.242321
 30
0.0
 11
726.249147
 21
-77.242321
 31
0.0
  0
LINE
  8
0
  6
BYLAYER
 62
     7
 10
726.249147
 20
-79.242321
 30
0.0
 11
726.249147
 21
-87.242321
 31
0.0
  0
LINE
  8
0
  6
BYLAYER
 62
     7
 10
726.249147
 20
-79.242321
 30
0.0
 11
734.249147
 21
-79.242321
 31
0.0
  0
LINE
  8
0
  6
BYLAYER
 62
     7
 10
726.249147
 20
-77.242321
 30
0.0
 11
734.249147
 21
-77.242321
 31
0.0
  0
LINE
  8
0
  6
BYLAYER
 62
     7
 10
726.249147
 20
-69.242321
 30
0.0
 11
734.249147
 21
-69.242321
 31
0.0
  0
LINE
  8
0
  6
BYLAYER
 62
     7
 10
734.249147
 20
-87.242321
 30
0.0
 11
734.249147
 21
-79.242321
 31
0.0
  0
LINE
  8
0
  6
BYLAYER
 62
     7
 10
734.249147
 20
-77.242321
 30
0.0
 11
734.249147
 21
-69.242321
 31
0.0
  0
LINE
  8
0
  6
BYLAYER
 62
     7
 10
716.249147
 20
-97.242321
 30
0.0
 11
724.249147
 21
-97.242321
 31
0.0
  0
LINE
  8
0
  6
BYLAYER
 62
     7
 10
716.249147
 20
-89.242321
 30
0.0
 11
716.249147
 21
-97.242321
 31
0.0
  0
LINE
  8
0
  6
BYLAYER
 62
     7
 10
716.249147
 20
-89.242321
 30
0.0
 11
724.249147
 21
-89.242321
 31
0.0
  0
LINE
  8
0
  6
BYLAYER
 62
     7
 10
724.249147
 20
-97.242321
 30
0.0
 11
724.249147
 21
-89.242321
 31
0.0
  0
LINE
  8
0
  6
BYLAYER
 62
     7
 10
726.249147
 20
-97.242321
 30
0.0
 11
734.249147
 21
-97.242321
 31
0.0
  0
LINE
  8
0
  6
BYLAYER
 62
     7
 10
726.249147
 20
-89.242321
 30
0.0
 11
726.249147
 21
-97.242321
 31
0.0
  0
LINE
  8
0
  6
BYLAYER
 62
     7
 10
726.249147
 20
-89.242321
 30
0.0
 11
734.249147
 21
-89.242321
 31
0.0
  0
LINE
  8
0
  6
BYLAYER
 62
     7
 10
734.249147
 20
-97.242321
 30
0.0
 11
734.249147
 21
-89.242321
 31
0.0
  0
LINE
  8
0
  6
BYLAYER
 62
     7
 10
736.249147
 20
-87.242321
 30
0.0
 11
744.249147
 21
-87.242321
 31
0.0
  0
LINE
  8
0
  6
BYLAYER
 62
     7
 10
736.249147
 20
-79.242321
 30
0.0
 11
736.249147
 21
-87.242321
 31
0.0
  0
LINE
  8
0
  6
BYLAYER
 62
     7
 10
736.249147
 20
-79.242321
 30
0.0
 11
744.249147
 21
-79.242321
 31
0.0
  0
LINE
  8
0
  6
BYLAYER
 62
     7
 10
744.249147
 20
-87.242321
 30
0.0
 11
744.249147
 21
-79.242321
 31
0.0
  0
LINE
  8
0
  6
BYLAYER
 62
     7
 10
736.249147
 20
-97.242321
 30
0.0
 11
744.249147
 21
-97.242321
 31
0.0
  0
LINE
  8
0
  6
BYLAYER
 62
     7
 10
736.249147
 20
-89.242321
 30
0.0
 11
736.249147
 21
-97.242321
 31
0.0
  0
LINE
  8
0
  6
BYLAYER
 62
     7
 10
736.249147
 20
-89.242321
 30
0.0
 11
744.249147
 21
-89.242321
 31
0.0
  0
LINE
  8
0
  6
BYLAYER
 62
     7
 10
744.249147
 20
-97.242321
 30
0.0
 11
744.249147
 21
-89.242321
 31
0.0
  0
LINE
  8
0
  6
BYLAYER
 62
     7
 10
706.249147
 20
-109.242321
 30
0.0
 11
714.249147
 21
-109.242321
 31
0.0
  0
LINE
  8
0
  6
BYLAYER
 62
     7
 10
706.249147
 20
-127.242321
 30
0.0
 11
706.249147
 21
-119.242321
 31
0.0
  0
LINE
  8
0
  6
BYLAYER
 62
     7
 10
706.249147
 20
-137.242321
 30
0.0
 11
706.249147
 21
-129.242321
 31
0.0
  0
LINE
  8
0
  6
BYLAYER
 62
     7
 10
706.249147
 20
-117.242321
 30
0.0
 11
706.249147
 21
-109.242321
 31
0.0
  0
LINE
  8
0
  6
BYLAYER
 62
     7
 10
714.249147
 20
-129.242321
 30
0.0
 11
714.249147
 21
-137.242321
 31
0.0
  0
LINE
  8
0
  6
BYLAYER
 62
     7
 10
716.249147
 20
-129.242321
 30
0.0
 11
716.249147
 21
-137.242321
 31
0.0
  0
LINE
  8
0
  6
BYLAYER
 62
     7
 10
706.249147
 20
-117.242321
 30
0.0
 11
714.249147
 21
-117.242321
 31
0.0
  0
LINE
  8
0
  6
BYLAYER
 62
     7
 10
706.249147
 20
-119.242321
 30
0.0
 11
714.249147
 21
-119.242321
 31
0.0
  0
LINE
  8
0
  6
BYLAYER
 62
     7
 10
706.249147
 20
-127.242321
 30
0.0
 11
714.249147
 21
-127.242321
 31
0.0
  0
LINE
  8
0
  6
BYLAYER
 62
     7
 10
716.249147
 20
-129.242321
 30
0.0
 11
724.087146
 21
-129.242321
 31
0.0
  0
LINE
  8
0
  6
BYLAYER
 62
     7
 10
706.249147
 20
-129.242321
 30
0.0
 11
714.249147
 21
-129.242321
 31
0.0
  0
LINE
  8
0
  6
BYLAYER
 62
     7
 10
716.249147
 20
-137.242321
 30
0.0
 11
724.087146
 21
-137.242321
 31
0.0
  0
LINE
  8
0
  6
BYLAYER
 62
     7
 10
706.249147
 20
-137.242321
 30
0.0
 11
714.249147
 21
-137.242321
 31
0.0
  0
LINE
  8
0
  6
BYLAYER
 62
     7
 10
724.087146
 20
-129.242321
 30
0.0
 11
724.087146
 21
-137.242321
 31
0.0
  0
LINE
  8
0
  6
BYLAYER
 62
     7
 10
714.249147
 20
-109.242321
 30
0.0
 11
714.249147
 21
-117.242321
 31
0.0
  0
LINE
  8
0
  6
BYLAYER
 62
     7
 10
714.249147
 20
-119.242321
 30
0.0
 11
714.249147
 21
-127.242321
 31
0.0
  0
LINE
  8
0
  6
BYLAYER
 62
     7
 10
716.249147
 20
-109.242321
 30
0.0
 11
724.249147
 21
-109.242321
 31
0.0
  0
LINE
  8
0
  6
BYLAYER
 62
     7
 10
716.249147
 20
-127.242321
 30
0.0
 11
716.249147
 21
-119.242321
 31
0.0
  0
LINE
  8
0
  6
BYLAYER
 62
     7
 10
716.249147
 20
-117.242321
 30
0.0
 11
716.249147
 21
-109.242321
 31
0.0
  0
LINE
  8
0
  6
BYLAYER
 62
     7
 10
716.249147
 20
-117.242321
 30
0.0
 11
724.249147
 21
-117.242321
 31
0.0
  0
LINE
  8
0
  6
BYLAYER
 62
     7
 10
716.249147
 20
-119.242321
 30
0.0
 11
724.249147
 21
-119.242321
 31
0.0
  0
LINE
  8
0
  6
BYLAYER
 62
     7
 10
716.249147
 20
-127.242321
 30
0.0
 11
724.249147
 21
-127.242321
 31
0.0
  0
LINE
  8
0
  6
BYLAYER
 62
     7
 10
724.249147
 20
-109.242321
 30
0.0
 11
724.249147
 21
-117.242321
 31
0.0
  0
LINE
  8
0
  6
BYLAYER
 62
     7
 10
724.249147
 20
-119.242321
 30
0.0
 11
724.249147
 21
-127.242321
 31
0.0
  0
LINE
  8
0
  6
BYLAYER
 62
     7
 10
726.249147
 20
-109.242321
 30
0.0
 11
734.249147
 21
-109.242321
 31
0.0
  0
LINE
  8
0
  6
BYLAYER
 62
     7
 10
726.249147
 20
-127.242321
 30
0.0
 11
726.249147
 21
-119.242321
 31
0.0
  0
LINE
  8
0
  6
BYLAYER
 62
     7
 10
726.249147
 20
-117.242321
 30
0.0
 11
726.249147
 21
-109.242321
 31
0.0
  0
LINE
  8
0
  6
BYLAYER
 62
     7
 10
726.249147
 20
-117.242321
 30
0.0
 11
734.249147
 21
-117.242321
 31
0.0
  0
LINE
  8
0
  6
BYLAYER
 62
     7
 10
726.249147
 20
-119.242321
 30
0.0
 11
734.249147
 21
-119.242321
 31
0.0
  0
LINE
  8
0
  6
BYLAYER
 62
     7
 10
726.249147
 20
-127.242321
 30
0.0
 11
734.249147
 21
-127.242321
 31
0.0
  0
LINE
  8
0
  6
BYLAYER
 62
     7
 10
734.249147
 20
-109.242321
 30
0.0
 11
734.249147
 21
-117.242321
 31
0.0
  0
LINE
  8
0
  6
BYLAYER
 62
     7
 10
734.249147
 20
-119.242321
 30
0.0
 11
734.249147
 21
-127.242321
 31
0.0
  0
LINE
  8
0
  6
BYLAYER
 62
     7
 10
716.249147
 20
-99.242321
 30
0.0
 11
724.249147
 21
-99.242321
 31
0.0
  0
LINE
  8
0
  6
BYLAYER
 62
     7
 10
716.249147
 20
-107.242321
 30
0.0
 11
716.249147
 21
-99.242321
 31
0.0
  0
LINE
  8
0
  6
BYLAYER
 62
     7
 10
716.249147
 20
-107.242321
 30
0.0
 11
724.249147
 21
-107.242321
 31
0.0
  0
LINE
  8
0
  6
BYLAYER
 62
     7
 10
724.249147
 20
-99.242321
 30
0.0
 11
724.249147
 21
-107.242321
 31
0.0
  0
LINE
  8
0
  6
BYLAYER
 62
     7
 10
726.249147
 20
-99.242321
 30
0.0
 11
734.249147
 21
-99.242321
 31
0.0
  0
LINE
  8
0
  6
BYLAYER
 62
     7
 10
726.249147
 20
-107.242321
 30
0.0
 11
726.249147
 21
-99.242321
 31
0.0
  0
LINE
  8
0
  6
BYLAYER
 62
     7
 10
726.249147
 20
-107.242321
 30
0.0
 11
734.249147
 21
-107.242321
 31
0.0
  0
LINE
  8
0
  6
BYLAYER
 62
     7
 10
734.249147
 20
-99.242321
 30
0.0
 11
734.249147
 21
-107.242321
 31
0.0
  0
LINE
  8
0
  6
BYLAYER
 62
     7
 10
736.249147
 20
-109.242321
 30
0.0
 11
744.249147
 21
-109.242321
 31
0.0
  0
LINE
  8
0
  6
BYLAYER
 62
     7
 10
736.249147
 20
-117.242321
 30
0.0
 11
736.249147
 21
-109.242321
 31
0.0
  0
LINE
  8
0
  6
BYLAYER
 62
     7
 10
736.249147
 20
-117.242321
 30
0.0
 11
744.249147
 21
-117.242321
 31
0.0
  0
LINE
  8
0
  6
BYLAYER
 62
     7
 10
744.249147
 20
-109.242321
 30
0.0
 11
744.249147
 21
-117.242321
 31
0.0
  0
LINE
  8
0
  6
BYLAYER
 62
     7
 10
736.249147
 20
-99.242321
 30
0.0
 11
744.249147
 21
-99.242321
 31
0.0
  0
LINE
  8
0
  6
BYLAYER
 62
     7
 10
736.249147
 20
-107.242321
 30
0.0
 11
736.249147
 21
-99.242321
 31
0.0
  0
LINE
  8
0
  6
BYLAYER
 62
     7
 10
736.249147
 20
-107.242321
 30
0.0
 11
744.249147
 21
-107.242321
 31
0.0
  0
LINE
  8
0
  6
BYLAYER
 62
     7
 10
744.249147
 20
-99.242321
 30
0.0
 11
744.249147
 21
-107.242321
 31
0.0
  0
LINE
  8
0
  6
BYLAYER
 62
     7
 10
704.249147
 20
-87.242321
 30
0.0
 11
696.249147
 21
-87.242321
 31
0.0
  0
LINE
  8
0
  6
BYLAYER
 62
     7
 10
704.249147
 20
-69.242321
 30
0.0
 11
704.249147
 21
-77.242321
 31
0.0
  0
LINE
  8
0
  6
BYLAYER
 62
     7
 10
704.249147
 20
-59.242321
 30
0.0
 11
704.249147
 21
-67.242321
 31
0.0
  0
LINE
  8
0
  6
BYLAYER
 62
     7
 10
704.249147
 20
-79.242321
 30
0.0
 11
704.249147
 21
-87.242321
 31
0.0
  0
LINE
  8
0
  6
BYLAYER
 62
     7
 10
696.249147
 20
-67.242321
 30
0.0
 11
696.249147
 21
-59.242321
 31
0.0
  0
LINE
  8
0
  6
BYLAYER
 62
     7
 10
694.249147
 20
-67.242321
 30
0.0
 11
694.249147
 21
-59.242321
 31
0.0
  0
LINE
  8
0
  6
BYLAYER
 62
     7
 10
704.249147
 20
-79.242321
 30
0.0
 11
696.249147
 21
-79.242321
 31
0.0
  0
LINE
  8
0
  6
BYLAYER
 62
     7
 10
704.249147
 20
-77.242321
 30
0.0
 11
696.249147
 21
-77.242321
 31
0.0
  0
LINE
  8
0
  6
BYLAYER
 62
     7
 10
704.249147
 20
-69.242321
 30
0.0
 11
696.249147
 21
-69.242321
 31
0.0
  0
LINE
  8
0
  6
BYLAYER
 62
     7
 10
694.249147
 20
-67.242321
 30
0.0
 11
686.411148
 21
-67.242321
 31
0.0
  0
LINE
  8
0
  6
BYLAYER
 62
     7
 10
704.249147
 20
-67.242321
 30
0.0
 11
696.249147
 21
-67.242321
 31
0.0
  0
LINE
  8
0
  6
BYLAYER
 62
     7
 10
694.249147
 20
-59.242321
 30
0.0
 11
686.411148
 21
-59.242321
 31
0.0
  0
LINE
  8
0
  6
BYLAYER
 62
     7
 10
704.249147
 20
-59.242321
 30
0.0
 11
696.249147
 21
-59.242321
 31
0.0
  0
LINE
  8
0
  6
BYLAYER
 62
     7
 10
686.411148
 20
-67.242321
 30
0.0
 11
686.411148
 21
-59.242321
 31
0.0
  0
LINE
  8
0
  6
BYLAYER
 62
     7
 10
696.249147
 20
-87.242321
 30
0.0
 11
696.249147
 21
-79.242321
 31
0.0
  0
LINE
  8
0
  6
BYLAYER
 62
     7
 10
696.249147
 20
-77.242321
 30
0.0
 11
696.249147
 21
-69.242321
 31
0.0
  0
LINE
  8
0
  6
BYLAYER
 62
     7
 10
694.249147
 20
-87.242321
 30
0.0
 11
686.249147
 21
-87.242321
 31
0.0
  0
LINE
  8
0
  6
BYLAYER
 62
     7
 10
694.249147
 20
-69.242321
 30
0.0
 11
694.249147
 21
-77.242321
 31
0.0
  0
LINE
  8
0
  6
BYLAYER
 62
     7
 10
694.249147
 20
-79.242321
 30
0.0
 11
694.249147
 21
-87.242321
 31
0.0
  0
LINE
  8
0
  6
BYLAYER
 62
     7
 10
694.249147
 20
-79.242321
 30
0.0
 11
686.249147
 21
-79.242321
 31
0.0
  0
LINE
  8
0
  6
BYLAYER
 62
     7
 10
694.249147
 20
-77.242321
 30
0.0
 11
686.249147
 21
-77.242321
 31
0.0
  0
LINE
  8
0
  6
BYLAYER
 62
     7
 10
694.249147
 20
-69.242321
 30
0.0
 11
686.249147
 21
-69.242321
 31
0.0
  0
LINE
  8
0
  6
BYLAYER
 62
     7
 10
686.249147
 20
-87.242321
 30
0.0
 11
686.249147
 21
-79.242321
 31
0.0
  0
LINE
  8
0
  6
BYLAYER
 62
     7
 10
686.249147
 20
-77.242321
 30
0.0
 11
686.249147
 21
-69.242321
 31
0.0
  0
LINE
  8
0
  6
BYLAYER
 62
     7
 10
684.249147
 20
-87.242321
 30
0.0
 11
676.249147
 21
-87.242321
 31
0.0
  0
LINE
  8
0
  6
BYLAYER
 62
     7
 10
684.249147
 20
-69.242321
 30
0.0
 11
684.249147
 21
-77.242321
 31
0.0
  0
LINE
  8
0
  6
BYLAYER
 62
     7
 10
684.249147
 20
-79.242321
 30
0.0
 11
684.249147
 21
-87.242321
 31
0.0
  0
LINE
  8
0
  6
BYLAYER
 62
     7
 10
684.249147
 20
-79.242321
 30
0.0
 11
676.249147
 21
-79.242321
 31
0.0
  0
LINE
  8
0
  6
BYLAYER
 62
     7
 10
684.249147
 20
-77.242321
 30
0.0
 11
676.249147
 21
-77.242321
 31
0.0
  0
LINE
  8
0
  6
BYLAYER
 62
     7
 10
684.249147
 20
-69.242321
 30
0.0
 11
676.249147
 21
-69.242321
 31
0.0
  0
LINE
  8
0
  6
BYLAYER
 62
     7
 10
676.249147
 20
-87.242321
 30
0.0
 11
676.249147
 21
-79.242321
 31
0.0
  0
LINE
  8
0
  6
BYLAYER
 62
     7
 10
676.249147
 20
-77.242321
 30
0.0
 11
676.249147
 21
-69.242321
 31
0.0
  0
LINE
  8
0
  6
BYLAYER
 62
     7
 10
694.249147
 20
-97.242321
 30
0.0
 11
686.249147
 21
-97.242321
 31
0.0
  0
LINE
  8
0
  6
BYLAYER
 62
     7
 10
694.249147
 20
-89.242321
 30
0.0
 11
694.249147
 21
-97.242321
 31
0.0
  0
LINE
  8
0
  6
BYLAYER
 62
     7
 10
694.249147
 20
-89.242321
 30
0.0
 11
686.249147
 21
-89.242321
 31
0.0
  0
LINE
  8
0
  6
BYLAYER
 62
     7
 10
686.249147
 20
-97.242321
 30
0.0
 11
686.249147
 21
-89.242321
 31
0.0
  0
LINE
  8
0
  6
BYLAYER
 62
     7
 10
684.249147
 20
-97.242321
 30
0.0
 11
676.249147
 21
-97.242321
 31
0.0
  0
LINE
  8
0
  6
BYLAYER
 62
     7
 10
684.249147
 20
-89.242321
 30
0.0
 11
684.249147
 21
-97.242321
 31
0.0
  0
LINE
  8
0
  6
BYLAYER
 62
     7
 10
684.249147
 20
-89.242321
 30
0.0
 11
676.249147
 21
-89.242321
 31
0.0
  0
LINE
  8
0
  6
BYLAYER
 62
     7
 10
676.249147
 20
-97.242321
 30
0.0
 11
676.249147
 21
-89.242321
 31
0.0
  0
LINE
  8
0
  6
BYLAYER
 62
     7
 10
674.249147
 20
-87.242321
 30
0.0
 11
666.249147
 21
-87.242321
 31
0.0
  0
LINE
  8
0
  6
BYLAYER
 62
     7
 10
674.249147
 20
-79.242321
 30
0.0
 11
674.249147
 21
-87.242321
 31
0.0
  0
LINE
  8
0
  6
BYLAYER
 62
     7
 10
674.249147
 20
-79.242321
 30
0.0
 11
666.249147
 21
-79.242321
 31
0.0
  0
LINE
  8
0
  6
BYLAYER
 62
     7
 10
666.249147
 20
-87.242321
 30
0.0
 11
666.249147
 21
-79.242321
 31
0.0
  0
LINE
  8
0
  6
BYLAYER
 62
     7
 10
674.249147
 20
-97.242321
 30
0.0
 11
666.249147
 21
-97.242321
 31
0.0
  0
LINE
  8
0
  6
BYLAYER
 62
     7
 10
674.249147
 20
-89.242321
 30
0.0
 11
674.249147
 21
-97.242321
 31
0.0
  0
LINE
  8
0
  6
BYLAYER
 62
     7
 10
674.249147
 20
-89.242321
 30
0.0
 11
666.249147
 21
-89.242321
 31
0.0
  0
LINE
  8
0
  6
BYLAYER
 62
     7
 10
666.249147
 20
-97.242321
 30
0.0
 11
666.249147
 21
-89.242321
 31
0.0
  0
LINE
  8
0
  6
BYLAYER
 62
     7
 10
704.249147
 20
-109.242321
 30
0.0
 11
696.249147
 21
-109.242321
 31
0.0
  0
LINE
  8
0
  6
BYLAYER
 62
     7
 10
704.249147
 20
-127.242321
 30
0.0
 11
704.249147
 21
-119.242321
 31
0.0
  0
LINE
  8
0
  6
BYLAYER
 62
     7
 10
704.249147
 20
-137.242321
 30
0.0
 11
704.249147
 21
-129.242321
 31
0.0
  0
LINE
  8
0
  6
BYLAYER
 62
     7
 10
704.249147
 20
-117.242321
 30
0.0
 11
704.249147
 21
-109.242321
 31
0.0
  0
LINE
  8
0
  6
BYLAYER
 62
     7
 10
696.249147
 20
-129.242321
 30
0.0
 11
696.249147
 21
-137.242321
 31
0.0
  0
LINE
  8
0
  6
BYLAYER
 62
     7
 10
694.249147
 20
-129.242321
 30
0.0
 11
694.249147
 21
-137.242321
 31
0.0
  0
LINE
  8
0
  6
BYLAYER
 62
     7
 10
704.249147
 20
-117.242321
 30
0.0
 11
696.249147
 21
-117.242321
 31
0.0
  0
LINE
  8
0
  6
BYLAYER
 62
     7
 10
704.249147
 20
-119.242321
 30
0.0
 11
696.249147
 21
-119.242321
 31
0.0
  0
LINE
  8
0
  6
BYLAYER
 62
     7
 10
704.249147
 20
-127.242321
 30
0.0
 11
696.249147
 21
-127.242321
 31
0.0
  0
LINE
  8
0
  6
BYLAYER
 62
     7
 10
694.249147
 20
-129.242321
 30
0.0
 11
686.411148
 21
-129.242321
 31
0.0
  0
LINE
  8
0
  6
BYLAYER
 62
     7
 10
704.249147
 20
-129.242321
 30
0.0
 11
696.249147
 21
-129.242321
 31
0.0
  0
LINE
  8
0
  6
BYLAYER
 62
     7
 10
694.249147
 20
-137.242321
 30
0.0
 11
686.411148
 21
-137.242321
 31
0.0
  0
LINE
  8
0
  6
BYLAYER
 62
     7
 10
704.249147
 20
-137.242321
 30
0.0
 11
696.249147
 21
-137.242321
 31
0.0
  0
LINE
  8
0
  6
BYLAYER
 62
     7
 10
686.411148
 20
-129.242321
 30
0.0
 11
686.411148
 21
-137.242321
 31
0.0
  0
LINE
  8
0
  6
BYLAYER
 62
     7
 10
696.249147
 20
-109.242321
 30
0.0
 11
696.249147
 21
-117.242321
 31
0.0
  0
LINE
  8
0
  6
BYLAYER
 62
     7
 10
696.249147
 20
-119.242321
 30
0.0
 11
696.249147
 21
-127.242321
 31
0.0
  0
LINE
  8
0
  6
BYLAYER
 62
     7
 10
694.249147
 20
-109.242321
 30
0.0
 11
686.249147
 21
-109.242321
 31
0.0
  0
LINE
  8
0
  6
BYLAYER
 62
     7
 10
694.249147
 20
-127.242321
 30
0.0
 11
694.249147
 21
-119.242321
 31
0.0
  0
LINE
  8
0
  6
BYLAYER
 62
     7
 10
694.249147
 20
-117.242321
 30
0.0
 11
694.249147
 21
-109.242321
 31
0.0
  0
LINE
  8
0
  6
BYLAYER
 62
     7
 10
694.249147
 20
-117.242321
 30
0.0
 11
686.249147
 21
-117.242321
 31
0.0
  0
LINE
  8
0
  6
BYLAYER
 62
     7
 10
694.249147
 20
-119.242321
 30
0.0
 11
686.249147
 21
-119.242321
 31
0.0
  0
LINE
  8
0
  6
BYLAYER
 62
     7
 10
694.249147
 20
-127.242321
 30
0.0
 11
686.249147
 21
-127.242321
 31
0.0
  0
LINE
  8
0
  6
BYLAYER
 62
     7
 10
686.249147
 20
-109.242321
 30
0.0
 11
686.249147
 21
-117.242321
 31
0.0
  0
LINE
  8
0
  6
BYLAYER
 62
     7
 10
686.249147
 20
-119.242321
 30
0.0
 11
686.249147
 21
-127.242321
 31
0.0
  0
LINE
  8
0
  6
BYLAYER
 62
     7
 10
684.249147
 20
-109.242321
 30
0.0
 11
676.249147
 21
-109.242321
 31
0.0
  0
LINE
  8
0
  6
BYLAYER
 62
     7
 10
684.249147
 20
-127.242321
 30
0.0
 11
684.249147
 21
-119.242321
 31
0.0
  0
LINE
  8
0
  6
BYLAYER
 62
     7
 10
684.249147
 20
-117.242321
 30
0.0
 11
684.249147
 21
-109.242321
 31
0.0
  0
LINE
  8
0
  6
BYLAYER
 62
     7
 10
684.249147
 20
-117.242321
 30
0.0
 11
676.249147
 21
-117.242321
 31
0.0
  0
LINE
  8
0
  6
BYLAYER
 62
     7
 10
684.249147
 20
-119.242321
 30
0.0
 11
676.249147
 21
-119.242321
 31
0.0
  0
LINE
  8
0
  6
BYLAYER
 62
     7
 10
684.249147
 20
-127.242321
 30
0.0
 11
676.249147
 21
-127.242321
 31
0.0
  0
LINE
  8
0
  6
BYLAYER
 62
     7
 10
676.249147
 20
-109.242321
 30
0.0
 11
676.249147
 21
-117.242321
 31
0.0
  0
LINE
  8
0
  6
BYLAYER
 62
     7
 10
676.249147
 20
-119.242321
 30
0.0
 11
676.249147
 21
-127.242321
 31
0.0
  0
LINE
  8
0
  6
BYLAYER
 62
     7
 10
694.249147
 20
-99.242321
 30
0.0
 11
686.249147
 21
-99.242321
 31
0.0
  0
LINE
  8
0
  6
BYLAYER
 62
     7
 10
694.249147
 20
-107.242321
 30
0.0
 11
694.249147
 21
-99.242321
 31
0.0
  0
LINE
  8
0
  6
BYLAYER
 62
     7
 10
694.249147
 20
-107.242321
 30
0.0
 11
686.249147
 21
-107.242321
 31
0.0
  0
LINE
  8
0
  6
BYLAYER
 62
     7
 10
686.249147
 20
-99.242321
 30
0.0
 11
686.249147
 21
-107.242321
 31
0.0
  0
LINE
  8
0
  6
BYLAYER
 62
     7
 10
684.249147
 20
-99.242321
 30
0.0
 11
676.249147
 21
-99.242321
 31
0.0
  0
LINE
  8
0
  6
BYLAYER
 62
     7
 10
684.249147
 20
-107.242321
 30
0.0
 11
684.249147
 21
-99.242321
 31
0.0
  0
LINE
  8
0
  6
BYLAYER
 62
     7
 10
684.249147
 20
-107.242321
 30
0.0
 11
676.249147
 21
-107.242321
 31
0.0
  0
LINE
  8
0
  6
BYLAYER
 62
     7
 10
676.249147
 20
-99.242321
 30
0.0
 11
676.249147
 21
-107.242321
 31
0.0
  0
LINE
  8
0
  6
BYLAYER
 62
     7
 10
674.249147
 20
-109.242321
 30
0.0
 11
666.249147
 21
-109.242321
 31
0.0
  0
LINE
  8
0
  6
BYLAYER
 62
     7
 10
674.249147
 20
-117.242321
 30
0.0
 11
674.249147
 21
-109.242321
 31
0.0
  0
LINE
  8
0
  6
BYLAYER
 62
     7
 10
674.249147
 20
-117.242321
 30
0.0
 11
666.249147
 21
-117.242321
 31
0.0
  0
LINE
  8
0
  6
BYLAYER
 62
     7
 10
666.249147
 20
-109.242321
 30
0.0
 11
666.249147
 21
-117.242321
 31
0.0
  0
LINE
  8
0
  6
BYLAYER
 62
     7
 10
674.249147
 20
-99.242321
 30
0.0
 11
666.249147
 21
-99.242321
 31
0.0
  0
LINE
  8
0
  6
BYLAYER
 62
     7
 10
674.249147
 20
-107.242321
 30
0.0
 11
674.249147
 21
-99.242321
 31
0.0
  0
LINE
  8
0
  6
BYLAYER
 62
     7
 10
674.249147
 20
-107.242321
 30
0.0
 11
666.249147
 21
-107.242321
 31
0.0
  0
LINE
  8
0
  6
BYLAYER
 62
     7
 10
666.249147
 20
-99.242321
 30
0.0
 11
666.249147
 21
-107.242321
 31
0.0
  0
LINE
  8
0
  6
BYLAYER
 62
     7
 10
671.249086
 20
-42.738476
 30
0.0
 11
671.249086
 21
-48.079029
 31
0.0
  0
LINE
  8
0
  6
BYLAYER
 62
     7
 10
739.249086
 20
-42.738415
 30
0.0
 11
739.249086
 21
-48.078946
 31
0.0
  0
CIRCLE
  8
0
  6
BYLAYER
 62
     7
 10
705.249147
 20
-98.242321
 30
0.0
 40
4.0
  0
ARC
  8
0
  6
BYLAYER
 62
     7
 10
740.999086
 20
-22.542370
 30
0.0
 40
1.500000
 50
180.000000
 51
265.219808
  0
ARC
  8
0
  6
BYLAYER
 62
     7
 10
669.499086
 20
-22.542370
 30
0.0
 40
1.500000
 50
274.780192
 51
360.000000
  0
ARC
  8
0
  6
BYLAYER
 62
     7
 10
677.494748
 20
-22.542370
 30
0.0
 40
1.500000
 50
270.0
 51
360.0
  0
LINE
  8
0
  6
BYLAYER
 62
     7
 10
739.499086
 20
-22.542370
 30
0.0
 11
739.499086
 21
-1.042370
 31
0.0
  0
LINE
  8
0
  6
BYLAYER
 62
     7
 10
737.999086
 20
0.457630
 30
0.0
 11
672.499086
 21
0.457630
 31
0.0
  0
ARC
  8
0
  6
BYLAYER
 62
     7
 10
737.999086
 20
-1.042370
 30
0.0
 40
1.500000
 50
0.0
 51
90.0
  0
ARC
  8
0
  6
BYLAYER
 62
     7
 10
672.499086
 20
-1.042370
 30
0.0
 40
1.500000
 50
90.0
 51
180.0
  0
LINE
  8
0
  6
BYLAYER
 62
     7
 10
670.999086
 20
-22.542370
 30
0.0
 11
670.999086
 21
-1.042370
 31
0.0
  0
LINE
  8
0
  6
BYLAYER
 62
     7
 10
678.994748
 20
-22.542370
 30
0.0
 11
678.994748
 21
-1.042370
 31
0.0
  0
ARC
  8
0
  6
BYLAYER
 62
     7
 10
680.494748
 20
-1.042370
 30
0.0
 40
1.500000
 50
90.0
 51
180.0
  0
ARC
  8
0
  6
BYLAYER
 62
     7
 10
730.003424
 20
-1.042370
 30
0.0
 40
1.500000
 50
0.0
 51
90.0
  0
LINE
  8
0
  6
BYLAYER
 62
     7
 10
684.655433
 20
0.457630
 30
0.0
 11
685.147980
 21
-13.647068
 31
0.0
  0
ARC
  8
0
  6
BYLAYER
 62
     7
 10
688.146152
 20
-13.542370
 30
0.0
 40
3.000000
 50
182.000000
 51
270.000000
  0
LINE
  8
0
  6
BYLAYER
 62
     7
 10
695.350192
 20
-13.647068
 30
0.0
 11
695.842739
 21
0.457630
 31
0.0
  0
ARC
  8
0
  6
BYLAYER
 62
     7
 10
692.352020
 20
-13.542370
 30
0.0
 40
3.000000
 50
270.0
 51
358.0
  0
LINE
  8
0
  6
BYLAYER
 62
     7
 10
710.350192
 20
-13.647068
 30
0.0
 11
710.842739
 21
0.457630
 31
0.0
  0
ARC
  8
0
  6
BYLAYER
 62
     7
 10
707.352020
 20
-13.542370
 30
0.0
 40
3.000000
 50
270.0
 51
358.0
  0
LINE
  8
0
  6
BYLAYER
 62
     7
 10
725.350192
 20
-13.647068
 30
0.0
 11
725.842739
 21
0.457630
 31
0.0
  0
ARC
  8
0
  6
BYLAYER
 62
     7
 10
722.352020
 20
-13.542370
 30
0.0
 40
3.000000
 50
270.0
 51
358.0
  0
LINE
  8
0
  6
BYLAYER
 62
     7
 10
714.655433
 20
0.457630
 30
0.0
 11
715.147980
 21
-13.647068
 31
0.0
  0
ARC
  8
0
  6
BYLAYER
 62
     7
 10
718.146152
 20
-13.542370
 30
0.0
 40
3.000000
 50
182.000000
 51
270.000000
  0
LINE
  8
0
  6
BYLAYER
 62
     7
 10
699.655433
 20
0.457630
 30
0.0
 11
700.147980
 21
-13.647068
 31
0.0
  0
ARC
  8
0
  6
BYLAYER
 62
     7
 10
703.146152
 20
-13.542370
 30
0.0
 40
3.000000
 50
182.000000
 51
270.000000
  0
LINE
  8
0
  6
BYLAYER
 62
     7
 10
718.146152
 20
-16.542370
 30
0.0
 11
722.352020
 21
-16.542370
 31
0.0
  0
LINE
  8
0
  6
BYLAYER
 62
     7
 10
703.146152
 20
-16.542370
 30
0.0
 11
707.352020
 21
-16.542370
 31
0.0
  0
LINE
  8
0
  6
BYLAYER
 62
     7
 10
688.146152
 20
-16.542370
 30
0.0
 11
692.352020
 21
-16.542370
 31
0.0
  0
LINE
  8
0
  6
BYLAYER
 62
     7
 10
699.690354
 20
-0.542370
 30
0.0
 11
710.807818
 21
-0.542370
 31
0.0
  0
LINE
  8
0
  6
BYLAYER
 62
     7
 10
714.690354
 20
-0.542370
 30
0.0
 11
725.807818
 21
-0.542370
 31
0.0
  0
LINE
  8
0
  6
BYLAYER
 62
     7
 10
684.690354
 20
-0.542370
 30
0.0
 11
695.807818
 21
-0.542370
 31
0.0
  0
LINE
  8
0
  6
BYLAYER
 62
     7
 10
731.503424
 20
-1.042370
 30
0.0
 11
731.503424
 21
-22.542370
 31
0.0
  0
ARC
  8
0
  6
BYLAYER
 62
     7
 10
669.749086
 20
-25.531935
 30
0.0
 40
1.5
 50
94.780192
 51
180.000000
  0
LINE
  8
0
  6
BYLAYER
 62
     7
 10
669.749086
 20
-24.042370
 30
0.0
 11
740.999086
 21
-24.042370
 31
0.0
  0
ARC
  8
0
  6
BYLAYER
 62
     7
 10
740.749086
 20
-25.531935
 30
0.0
 40
1.5
 50
0.0
 51
85.219808
  0
LINE
  8
0
  6
BYLAYER
 62
     7
 10
742.249086
 20
-33.042370
 30
0.0
 11
742.249086
 21
-25.531935
 31
0.0
  0
ARC
  8
0
  6
BYLAYER
 62
     7
 10
733.003424
 20
-22.542370
 30
0.0
 40
1.500000
 50
180.000000
 51
270.000000
  0
LINE
  8
0
  6
BYLAYER
 62
     7
 10
742.249086
 20
-31.042309
 30
0.0
 11
668.249086
 21
-31.042309
 31
0.0
  0
LINE
  8
0
  6
BYLAYER
 62
     7
 10
668.249086
 20
-25.531935
 30
0.0
 11
668.249086
 21
-33.042370
 31
0.0
  0
LINE
  8
0
  6
BYLAYER
 62
     7
 10
668.249086
 20
-33.042370
 30
0.0
 11
742.249086
 21
-33.042370
 31
0.0
  0
LINE
  8
0
  6
BYLAYER
 62
     1
 10
740.749147
 20
-548.242382
 30
0.0
 11
726.749147
 21
-548.242382
 31
0.0
  0
LINE
  8
0
  6
BYLAYER
 62
     1
 10
669.749147
 20
-548.242382
 30
0.0
 11
683.749147
 21
-548.242382
 31
0.0
  0
CIRCLE
  8
0
  6
BYLAYER
 62
     1
 10
675.249147
 20
-443.242321
 30
0.0
 40
3.250001
  0
CIRCLE
  8
0
  6
BYLAYER
 62
     1
 10
735.249147
 20
-443.242321
 30
0.0
 40
3.250001
  0
LINE
  8
0
  6
BYLAYER
 62
     1
 10
740.749147
 20
-523.242321
 30
0.0
 11
739.249147
 21
-521.742352
 31
0.0
  0
LINE
  8
0
  6
BYLAYER
 62
     1
 10
740.749147
 20
-548.242382
 30
0.0
 11
740.749147
 21
-537.606976
 31
0.0
  0
LINE
  8
0
  6
BYLAYER
 62
     1
 10
740.749147
 20
-528.877666
 30
0.0
 11
740.749147
 21
-523.242321
 31
0.0
  0
CIRCLE
  8
0
  6
BYLAYER
 62
     1
 10
705.249147
 20
-458.242321
 30
0.0
 40
20.0
  0
LINE
  8
0
  6
BYLAYER
 62
     1
 10
669.749147
 20
-548.242382
 30
0.0
 11
669.749147
 21
-537.606976
 31
0.0
  0
LINE
  8
0
  6
BYLAYER
 62
     1
 10
669.749147
 20
-528.877666
 30
0.0
 11
669.749147
 21
-523.242321
 31
0.0
  0
LINE
  8
0
  6
BYLAYER
 62
     1
 10
669.749147
 20
-523.242321
 30
0.0
 11
671.249147
 21
-521.742352
 31
0.0
  0
LINE
  8
0
  6
BYLAYER
 62
     1
 10
683.749147
 20
-523.242321
 30
0.0
 11
669.749147
 21
-523.242321
 31
0.0
  0
LINE
  8
0
  6
BYLAYER
 62
     1
 10
726.749147
 20
-521.742352
 30
0.0
 11
739.249147
 21
-521.742352
 31
0.0
  0
LINE
  8
0
  6
BYLAYER
 62
     1
 10
726.749147
 20
-523.242321
 30
0.0
 11
740.749147
 21
-523.242321
 31
0.0
  0
CIRCLE
  8
0
  6
BYLAYER
 62
     1
 10
705.249147
 20
-431.992321
 30
0.0
 40
3.0
  0
CIRCLE
  8
0
  6
BYLAYER
 62
     1
 10
682.515993
 20
-471.367352
 30
0.0
 40
3.0
  0
CIRCLE
  8
0
  6
BYLAYER
 62
     1
 10
727.982301
 20
-471.367352
 30
0.0
 40
3.0
  0
LINE
  8
0
  6
BYLAYER
 62
     1
 10
683.749147
 20
-521.742352
 30
0.0
 11
671.249147
 21
-521.742352
 31
0.0
  0
LINE
  8
0
  6
BYLAYER
 62
     1
 10
669.749147
 20
-541.742352
 30
0.0
 11
668.749147
 21
-541.742352
 31
0.0
  0
LINE
  8
0
  6
BYLAYER
 62
     1
 10
668.749147
 20
-454.742352
 30
0.0
 11
671.249147
 21
-454.742352
 31
0.0
  0
LINE
  8
0
  6
BYLAYER
 62
     1
 10
668.749147
 20
-454.742352
 30
0.0
 11
668.749147
 21
-541.742352
 31
0.0
  0
LINE
  8
0
  6
BYLAYER
 62
     1
 10
726.749147
 20
-476.470470
 30
0.0
 11
726.749147
 21
-548.242382
 31
0.0
  0
LINE
  8
0
  6
BYLAYER
 62
     1
 10
683.749147
 20
-476.470470
 30
0.0
 11
683.749147
 21
-548.242382
 31
0.0
  0
LINE
  8
0
  6
BYLAYER
 62
     1
 10
669.749147
 20
-451.742321
 30
0.0
 11
671.249147
 21
-453.242321
 31
0.0
  0
LINE
  8
0
  6
BYLAYER
 62
     1
 10
669.749147
 20
-451.742321
 30
0.0
 11
669.749147
 21
-426.742321
 31
0.0
  0
LINE
  8
0
  6
BYLAYER
 62
     1
 10
669.749147
 20
-426.742321
 30
0.0
 11
683.749147
 21
-426.742321
 31
0.0
  0
LINE
  8
0
  6
BYLAYER
 62
     1
 10
740.749147
 20
-426.742321
 30
0.0
 11
726.749147
 21
-426.742321
 31
0.0
  0
LINE
  8
0
  6
BYLAYER
 62
     1
 10
740.749147
 20
-451.742321
 30
0.0
 11
740.749147
 21
-426.742321
 31
0.0
  0
LINE
  8
0
  6
BYLAYER
 62
     1
 10
740.749147
 20
-451.742321
 30
0.0
 11
739.249147
 21
-453.242321
 31
0.0
  0
LINE
  8
0
  6
BYLAYER
 62
     1
 10
671.249147
 20
-521.742352
 30
0.0
 11
671.249147
 21
-453.242321
 31
0.0
  0
LINE
  8
0
  6
BYLAYER
 62
     1
 10
739.249147
 20
-521.742352
 30
0.0
 11
739.249147
 21
-453.242321
 31
0.0
  0
LINE
  8
0
  6
BYLAYER
 62
     1
 10
708.923372
 20
-428.242321
 30
0.0
 11
726.749147
 21
-428.242321
 31
0.0
  0
LINE
  8
0
  6
BYLAYER
 62
     1
 10
683.749147
 20
-428.242321
 30
0.0
 11
701.574922
 21
-428.242321
 31
0.0
  0
LINE
  8
0
  6
BYLAYER
 62
     1
 10
666.749178
 20
-468.242352
 30
0.0
 11
666.249178
 21
-468.742352
 31
0.0
  0
LINE
  8
0
  6
BYLAYER
 62
     1
 10
666.749178
 20
-528.242321
 30
0.0
 11
666.249178
 21
-527.742321
 31
0.0
  0
LINE
  8
0
  6
BYLAYER
 62
     1
 10
666.249178
 20
-527.742321
 30
0.0
 11
666.249178
 21
-468.742352
 31
0.0
  0
LINE
  8
0
  6
BYLAYER
 62
     1
 10
666.749178
 20
-528.242321
 30
0.0
 11
668.349153
 21
-528.242321
 31
0.0
  0
ARC
  8
0
  6
BYLAYER
 62
     1
 10
668.349153
 20
-528.642345
 30
0.0
 40
0.399994
 50
0.0
 51
90.000003
  0
LINE
  8
0
  6
BYLAYER
 62
     1
 10
668.349153
 20
-468.242352
 30
0.0
 11
666.749178
 21
-468.242352
 31
0.0
  0
ARC
  8
0
  6
BYLAYER
 62
     1
 10
668.349153
 20
-467.842358
 30
0.0
 40
0.399994
 50
270.0
 51
360.000003
  0
LINE
  8
0
  6
BYLAYER
 62
     1
 10
680.149355
 20
-451.742321
 30
0.0
 11
669.749147
 21
-451.742321
 31
0.0
  0
ARC
  8
0
  6
BYLAYER
 62
     1
 10
680.149355
 20
-453.742321
 30
0.0
 40
2.0
 50
349.835836
 51
450.0
  0
LINE
  8
0
  6
BYLAYER
 62
     1
 10
683.749147
 20
-441.810650
 30
0.0
 11
683.749147
 21
-426.742321
 31
0.0
  0
ARC
  8
0
  6
BYLAYER
 62
     1
 10
685.749147
 20
-441.810650
 30
0.0
 40
2.0
 50
180.000000
 51
319.881004
  0
ARC
  8
0
  6
BYLAYER
 62
     1
 10
705.249147
 20
-458.242321
 30
0.0
 40
23.499983
 50
106.021611
 51
139.880826
  0
ARC
  8
0
  6
BYLAYER
 62
     1
 10
698.211153
 20
-433.732800
 30
0.0
 40
2.000017
 50
286.021521
 51
373.890361
  0
ARC
  8
0
  6
BYLAYER
 62
     1
 10
705.249147
 20
-431.992321
 30
0.0
 40
5.249994
 50
346.109564
 51
553.890434
  0
ARC
  8
0
  6
BYLAYER
 62
     1
 10
712.287111
 20
-433.732800
 30
0.0
 40
1.999985
 50
166.109436
 51
253.979054
  0
ARC
  8
0
  6
BYLAYER
 62
     1
 10
705.249147
 20
-458.242321
 30
0.0
 40
23.499992
 50
40.119172
 51
73.978414
  0
LINE
  8
0
  6
BYLAYER
 62
     1
 10
726.749147
 20
-441.810650
 30
0.0
 11
726.749147
 21
-426.742321
 31
0.0
  0
ARC
  8
0
  6
BYLAYER
 62
     1
 10
724.749147
 20
-441.810650
 30
0.0
 40
2.000005
 50
220.118993
 51
359.999996
  0
LINE
  8
0
  6
BYLAYER
 62
     1
 10
730.348939
 20
-451.742321
 30
0.0
 11
740.749147
 21
-451.742321
 31
0.0
  0
ARC
  8
0
  6
BYLAYER
 62
     1
 10
730.348939
 20
-453.742321
 30
0.0
 40
1.999985
 50
90.0
 51
190.164171
  0
ARC
  8
0
  6
BYLAYER
 62
     1
 10
705.249147
 20
-458.242321
 30
0.0
 40
23.499996
 50
346.021509
 51
370.164259
  0
ARC
  8
0
  6
BYLAYER
 62
     1
 10
729.993990
 20
-464.402019
 30
0.0
 40
1.999987
 50
166.022064
 51
253.891054
  0
ARC
  8
0
  6
BYLAYER
 62
     1
 10
727.982301
 20
-471.367352
 30
0.0
 40
5.250013
 50
226.109533
 51
433.890322
  0
ARC
  8
0
  6
BYLAYER
 62
     1
 10
682.515993
 20
-471.367352
 30
0.0
 40
5.250010
 50
106.109680
 51
313.890468
  0
ARC
  8
0
  6
BYLAYER
 62
     1
 10
705.249147
 20
-458.242321
 30
0.0
 40
23.500008
 50
169.835741
 51
193.978493
  0
ARC
  8
0
  6
BYLAYER
 62
     1
 10
680.504274
 20
-464.402050
 30
0.0
 40
1.999986
 50
286.110040
 51
373.978573
  0
LINE
  8
0
  6
BYLAYER
 62
     1
 10
682.085847
 20
-453.242321
 30
0.0
 11
671.249147
 21
-453.242321
 31
0.0
  0
LINE
  8
0
  6
BYLAYER
 62
     1
 10
739.249147
 20
-453.242321
 30
0.0
 11
728.412477
 21
-453.242321
 31
0.0
  0
ARC
  8
0
  6
BYLAYER
 62
     1
 10
670.749147
 20
-528.877666
 30
0.0
 40
1.0
 50
180.000000
 51
267.938986
  0
ARC
  8
0
  6
BYLAYER
 62
     1
 10
735.249147
 20
-533.242321
 30
0.0
 40
3.2
 50
92.061012
 51
267.938984
  0
LINE
  8
0
  6
BYLAYER
 62
     1
 10
739.785097
 20
-529.877026
 30
0.0
 11
735.134065
 21
-530.044384
 31
0.0
  0
LINE
  8
0
  6
BYLAYER
 62
     1
 10
739.785097
 20
-536.607616
 30
0.0
 11
735.134065
 21
-536.440258
 31
0.0
  0
ARC
  8
0
  6
BYLAYER
 62
     1
 10
675.249147
 20
-533.242321
 30
0.0
 40
3.2
 50
272.061014
 51
447.938986
  0
LINE
  8
0
  6
BYLAYER
 62
     1
 10
670.713197
 20
-529.877026
 30
0.0
 11
675.364229
 21
-530.044384
 31
0.0
  0
LINE
  8
0
  6
BYLAYER
 62
     1
 10
670.713197
 20
-536.607616
 30
0.0
 11
675.364229
 21
-536.440258
 31
0.0
  0
ARC
  8
0
  6
BYLAYER
 62
     1
 10
670.749147
 20
-537.606976
 30
0.0
 40
1.000000
 50
92.061012
 51
179.999998
  0
ARC
  8
0
  6
BYLAYER
 62
     1
 10
739.749147
 20
-528.877666
 30
0.0
 40
1.0
 50
272.061014
 51
360.000000
  0
ARC
  8
0
  6
BYLAYER
 62
     1
 10
739.749147
 20
-537.606976
 30
0.0
 40
1.0
 50
0.0
 51
87.938986
  0
LINE
  8
0
  6
BYLAYER
 62
     1
 10
740.749147
 20
-541.742352
 30
0.0
 11
741.749147
 21
-541.742352
 31
0.0
  0
LINE
  8
0
  6
BYLAYER
 62
     1
 10
741.749147
 20
-454.742352
 30
0.0
 11
739.249147
 21
-454.742352
 31
0.0
  0
LINE
  8
0
  6
BYLAYER
 62
     1
 10
741.749147
 20
-454.742352
 30
0.0
 11
741.749147
 21
-541.742352
 31
0.0
  0
LINE
  8
0
  6
BYLAYER
 62
     1
 10
743.749086
 20
-468.242352
 30
0.0
 11
744.249086
 21
-468.742352
 31
0.0
  0
LINE
  8
0
  6
BYLAYER
 62
     1
 10
743.749086
 20
-528.242321
 30
0.0
 11
744.249086
 21
-527.742321
 31
0.0
  0
LINE
  8
0
  6
BYLAYER
 62
     1
 10
744.249086
 20
-527.742321
 30
0.0
 11
744.249086
 21
-468.742352
 31
0.0
  0
LINE
  8
0
  6
BYLAYER
 62
     1
 10
743.749086
 20
-528.242321
 30
0.0
 11
742.149110
 21
-528.242321
 31
0.0
  0
ARC
  8
0
  6
BYLAYER
 62
     1
 10
742.149110
 20
-528.642345
 30
0.0
 40
0.399994
 50
90.0
 51
180.000003
  0
LINE
  8
0
  6
BYLAYER
 62
     1
 10
742.149110
 20
-468.242352
 30
0.0
 11
743.749086
 21
-468.242352
 31
0.0
  0
ARC
  8
0
  6
BYLAYER
 62
     1
 10
742.149110
 20
-467.842358
 30
0.0
 40
0.399994
 50
180.000000
 51
270.000003
  0
LINE
  8
0
  6
BYLAYER
 62
     1
 10
683.749147
 20
-546.242321
 30
0.0
 11
726.749147
 21
-546.242321
 31
0.0
  0
ARC
  8
0
  6
BYLAYER
 62
     1
 10
705.249147
 20
-458.242321
 30
0.0
 40
23.499996
 50
226.021628
 51
313.978359
  0
ARC
  8
0
  6
BYLAYER
 62
     1
 10
687.542299
 20
-476.592175
 30
0.0
 40
1.999988
 50
46.021938
 51
133.890873
  0
ARC
  8
0
  6
BYLAYER
 62
     1
 10
722.955995
 20
-476.592175
 30
0.0
 40
1.999997
 50
46.109125
 51
133.978067
  0
ARC
  8
0
  6
BYLAYER
 62
     1
 10
705.249147
 20
-498.242336
 30
0.0
 40
69.999954
 50
149.449783
 51
270.0
  0
ARC
  8
0
  6
BYLAYER
 62
     1
 10
705.249147
 20
-498.242336
 30
0.0
 40
69.999954
 50
270.0
 51
390.550217
  0
ARC
  8
0
  6
BYLAYER
 62
     1
 10
705.249147
 20
-458.242321
 30
0.0
 40
57.0
 50
313.173467
 51
586.826492
  0
LINE
  8
0
  6
BYLAYER
 62
     1
 10
668.749147
 20
-528.443070
 30
0.0
 11
642.321935
 21
-528.904358
 31
0.0
  0
LINE
  8
0
  6
BYLAYER
 62
     1
 10
664.370112
 20
-497.965167
 30
0.0
 11
635.253599
 21
-497.456936
 31
0.0
  0
ARC
  8
0
  6
BYLAYER
 62
     1
 10
664.590507
 20
-538.900976
 30
0.0
 40
4.250000
 50
11.901537
 51
348.098463
  0
ARC
  8
0
  6
BYLAYER
 62
     1
 10
745.907787
 20
-538.900976
 30
0.0
 40
4.250000
 50
191.901537
 51
528.098463
  0
LINE
  8
0
  6
BYLAYER
 62
     1
 10
648.381012
 20
-462.117275
 30
0.0
 11
645.814828
 21
-462.162068
 31
0.0
  0
ARC
  8
0
  6
BYLAYER
 62
     1
 10
645.832280
 20
-463.161915
 30
0.0
 40
1.0
 50
91.000000
 51
149.441895
  0
LINE
  8
0
  6
BYLAYER
 62
     1
 10
762.117282
 20
-462.117275
 30
0.0
 11
764.683466
 21
-462.162068
 31
0.0
  0
ARC
  8
0
  6
BYLAYER
 62
     1
 10
764.666014
 20
-463.161915
 30
0.0
 40
1.0
 50
30.558105
 51
89.000000
  0
LINE
  8
0
  6
BYLAYER
 62
     1
 10
703.249147
 20
-551.242336
 30
0.0
 11
703.249147
 21
-546.242321
 31
0.0
  0
ARC
  8
0
  6
BYLAYER
 62
     1
 10
704.249147
 20
-551.242336
 30
0.0
 40
1.000000
 50
180.000000
 51
270.000000
  0
LINE
  8
0
  6
BYLAYER
 62
     1
 10
706.249147
 20
-552.242336
 30
0.0
 11
704.249147
 21
-552.242336
 31
0.0
  0
LINE
  8
0
  6
BYLAYER
 62
     1
 10
707.249147
 20
-551.242336
 30
0.0
 11
707.249147
 21
-546.242321
 31
0.0
  0
ARC
  8
0
  6
BYLAYER
 62
     1
 10
706.249147
 20
-551.242336
 30
0.0
 40
1.000000
 50
270.0
 51
360.0
  0
LINE
  8
0
  6
BYLAYER
 62
     7
 10
739.499086
 20
-412.679818
 30
0.0
 11
739.499086
 21
-401.042370
 31
0.0
  0
LINE
  8
0
  6
BYLAYER
 62
     7
 10
737.999086
 20
-399.542370
 30
0.0
 11
672.499086
 21
-399.542370
 31
0.0
  0
ARC
  8
0
  6
BYLAYER
 62
     7
 10
737.999086
 20
-401.042370
 30
0.0
 40
1.5
 50
0.0
 51
90.0
  0
ARC
  8
0
  6
BYLAYER
 62
     7
 10
672.499086
 20
-401.042370
 30
0.0
 40
1.5
 50
90.0
 51
180.0
  0
LINE
  8
0
  6
BYLAYER
 62
     7
 10
670.999086
 20
-412.679910
 30
0.0
 11
670.999086
 21
-401.042370
 31
0.0
  0
LINE
  8
0
  6
BYLAYER
 62
     7
 10
678.994748
 20
-407.648779
 30
0.0
 11
678.994748
 21
-401.042370
 31
0.0
  0
ARC
  8
0
  6
BYLAYER
 62
     7
 10
680.494748
 20
-401.042370
 30
0.0
 40
1.5
 50
90.0
 51
180.0
  0
ARC
  8
0
  6
BYLAYER
 62
     7
 10
730.003424
 20
-401.042370
 30
0.0
 40
1.5
 50
0.0
 51
90.0
  0
LINE
  8
0
  6
BYLAYER
 62
     7
 10
684.655433
 20
-399.542370
 30
0.0
 11
684.846675
 21
-405.018838
 31
0.0
  0
LINE
  8
0
  6
BYLAYER
 62
     7
 10
695.755573
 20
-402.038477
 30
0.0
 11
695.842739
 21
-399.542370
 31
0.0
  0
LINE
  8
0
  6
BYLAYER
 62
     7
 10
710.774003
 20
-401.510708
 30
0.0
 11
710.842739
 21
-399.542370
 31
0.0
  0
LINE
  8
0
  6
BYLAYER
 62
     7
 10
725.651498
 20
-405.018792
 30
0.0
 11
725.842739
 21
-399.542370
 31
0.0
  0
LINE
  8
0
  6
BYLAYER
 62
     7
 10
714.655433
 20
-399.542370
 30
0.0
 11
714.742598
 21
-402.038457
 31
0.0
  0
LINE
  8
0
  6
BYLAYER
 62
     7
 10
699.655433
 20
-399.542370
 30
0.0
 11
699.724169
 21
-401.510719
 31
0.0
  0
LINE
  8
0
  6
BYLAYER
 62
     7
 10
699.690354
 20
-400.542370
 30
0.0
 11
710.807818
 21
-400.542370
 31
0.0
  0
LINE
  8
0
  6
BYLAYER
 62
     7
 10
714.690354
 20
-400.542370
 30
0.0
 11
725.807818
 21
-400.542370
 31
0.0
  0
LINE
  8
0
  6
BYLAYER
 62
     7
 10
684.690354
 20
-400.542370
 30
0.0
 11
695.807818
 21
-400.542370
 31
0.0
  0
LINE
  8
0
  6
BYLAYER
 62
     7
 10
731.503424
 20
-401.042370
 30
0.0
 11
731.503424
 21
-407.648715
 31
0.0
  0
LINE
  8
0
  6
BYLAYER
 62
     1
 10
219.249193
 20
-462.742367
 30
0.0
 11
219.249193
 21
-476.742306
 31
0.0
  0
LINE
  8
0
  6
BYLAYER
 62
     1
 10
219.249193
 20
-533.742321
 30
0.0
 11
219.249193
 21
-519.742321
 31
0.0
  0
LINE
  8
0
  6
BYLAYER
 62
     1
 10
194.249162
 20
-462.742367
 30
0.0
 11
192.749162
 21
-464.242367
 31
0.0
  0
LINE
  8
0
  6
BYLAYER
 62
     1
 10
219.249193
 20
-462.742367
 30
0.0
 11
194.249162
 21
-462.742367
 31
0.0
  0
LINE
  8
0
  6
BYLAYER
 62
     1
 10
219.249193
 20
-533.742321
 30
0.0
 11
194.249162
 21
-533.742321
 31
0.0
  0
LINE
  8
0
  6
BYLAYER
 62
     1
 10
194.249162
 20
-533.742321
 30
0.0
 11
192.749162
 21
-532.242321
 31
0.0
  0
CIRCLE
  8
0
  6
BYLAYER
 62
     1
 10
204.249162
 20
-468.242367
 30
0.0
 40
3.250001
  0
CIRCLE
  8
0
  6
BYLAYER
 62
     1
 10
204.249162
 20
-528.242321
 30
0.0
 40
3.250001
  0
LINE
  8
0
  6
BYLAYER
 62
     1
 10
194.249162
 20
-476.742306
 30
0.0
 11
194.249162
 21
-462.742367
 31
0.0
  0
LINE
  8
0
  6
BYLAYER
 62
     1
 10
194.249162
 20
-519.742321
 30
0.0
 11
194.249162
 21
-533.742321
 31
0.0
  0
LINE
  8
0
  6
BYLAYER
 62
     1
 10
144.249132
 20
-462.742367
 30
0.0
 11
145.749132
 21
-464.242367
 31
0.0
  0
LINE
  8
0
  6
BYLAYER
 62
     1
 10
119.249132
 20
-462.742367
 30
0.0
 11
144.249132
 21
-462.742367
 31
0.0
  0
LINE
  8
0
  6
BYLAYER
 62
     1
 10
119.249132
 20
-533.742321
 30
0.0
 11
144.249132
 21
-533.742321
 31
0.0
  0
LINE
  8
0
  6
BYLAYER
 62
     1
 10
144.249132
 20
-533.742321
 30
0.0
 11
145.749132
 21
-532.242321
 31
0.0
  0
CIRCLE
  8
0
  6
BYLAYER
 62
     1
 10
134.249132
 20
-468.242367
 30
0.0
 40
3.250001
  0
CIRCLE
  8
0
  6
BYLAYER
 62
     1
 10
134.249132
 20
-528.242321
 30
0.0
 40
3.250001
  0
LINE
  8
0
  6
BYLAYER
 62
     1
 10
144.249132
 20
-476.742306
 30
0.0
 11
144.249132
 21
-462.742367
 31
0.0
  0
LINE
  8
0
  6
BYLAYER
 62
     1
 10
144.249132
 20
-519.742321
 30
0.0
 11
144.249132
 21
-533.742321
 31
0.0
  0
LINE
  8
0
  6
BYLAYER
 62
     1
 10
192.749162
 20
-464.242367
 30
0.0
 11
145.749132
 21
-464.242367
 31
0.0
  0
LINE
  8
0
  6
BYLAYER
 62
     1
 10
192.749162
 20
-532.242321
 30
0.0
 11
145.749132
 21
-532.242321
 31
0.0
  0
LINE
  8
0
  6
BYLAYER
 62
     1
 10
220.249193
 20
-531.742321
 30
0.0
 11
220.249193
 21
-464.742306
 31
0.0
  0
LINE
  8
0
  6
BYLAYER
 62
     1
 10
220.249193
 20
-531.742321
 30
0.0
 11
219.249193
 21
-531.777233
 31
0.0
  0
LINE
  8
0
  6
BYLAYER
 62
     1
 10
220.249193
 20
-464.742306
 30
0.0
 11
219.249193
 21
-464.707394
 31
0.0
  0
LINE
  8
0
  6
BYLAYER
 62
     1
 10
119.249132
 20
-533.742321
 30
0.0
 11
119.249132
 21
-462.742367
 31
0.0
  0
ARC
  8
0
  6
BYLAYER
 62
     1
 10
204.249193
 20
-477.742306
 30
0.0
 40
1.000000
 50
0.0
 51
90.000016
  0
ARC
  8
0
  6
BYLAYER
 62
     1
 10
204.249193
 20
-518.742321
 30
0.0
 40
1.000000
 50
270.0
 51
359.999982
  0
LINE
  8
0
  6
BYLAYER
 62
     1
 10
219.249193
 20
-476.742306
 30
0.0
 11
119.249254
 21
-476.742306
 31
0.0
  0
LINE
  8
0
  6
BYLAYER
 62
     1
 10
219.249193
 20
-519.742321
 30
0.0
 11
119.249254
 21
-519.742321
 31
0.0
  0
ARC
  8
0
  6
BYLAYER
 62
     1
 10
134.249254
 20
-477.742306
 30
0.0
 40
1.000000
 50
90.0
 51
180.000016
  0
ARC
  8
0
  6
BYLAYER
 62
     1
 10
134.249254
 20
-518.742321
 30
0.0
 40
1.000000
 50
180.000000
 51
269.999982
  0
LINE
  8
0
  6
BYLAYER
 62
     1
 10
192.749162
 20
-519.742321
 30
0.0
 11
192.749162
 21
-532.242321
 31
0.0
  0
LINE
  8
0
  6
BYLAYER
 62
     1
 10
145.749132
 20
-519.742321
 30
0.0
 11
145.749132
 21
-532.242321
 31
0.0
  0
LINE
  8
0
  6
BYLAYER
 62
     1
 10
192.749162
 20
-476.742306
 30
0.0
 11
192.749162
 21
-464.242367
 31
0.0
  0
LINE
  8
0
  6
BYLAYER
 62
     1
 10
145.749132
 20
-476.742306
 30
0.0
 11
145.749132
 21
-464.242367
 31
0.0
  0
LINE
  8
0
  6
BYLAYER
 62
     1
 10
205.249193
 20
-515.242321
 30
0.0
 11
205.249193
 21
-518.742321
 31
0.0
  0
LINE
  8
0
  6
BYLAYER
 62
     1
 10
125.749162
 20
-461.742336
 30
0.0
 11
212.749162
 21
-461.742336
 31
0.0
  0
LINE
  8
0
  6
BYLAYER
 62
     1
 10
125.749162
 20
-461.742336
 30
0.0
 11
125.749162
 21
-462.742397
 31
0.0
  0
LINE
  8
0
  6
BYLAYER
 62
     1
 10
212.749162
 20
-461.742336
 30
0.0
 11
212.749162
 21
-462.742367
 31
0.0
  0
LINE
  8
0
  6
BYLAYER
 62
     1
 10
219.249178
 20
-466.182308
 30
0.0
 11
219.249178
 21
-464.242367
 31
0.0
  0
LINE
  8
0
  6
BYLAYER
 62
     1
 10
219.249178
 20
-530.302349
 30
0.0
 11
219.249178
 21
-532.242290
 31
0.0
  0
LINE
  8
0
  6
BYLAYER
 62
     1
 10
205.249193
 20
-505.242321
 30
0.0
 11
197.249193
 21
-505.242321
 31
0.0
  0
LINE
  8
0
  6
BYLAYER
 62
     1
 10
197.249193
 20
-507.242321
 30
0.0
 11
205.249193
 21
-507.242321
 31
0.0
  0
LINE
  8
0
  6
BYLAYER
 62
     1
 10
197.249193
 20
-489.242321
 30
0.0
 11
205.249193
 21
-489.242321
 31
0.0
  0
LINE
  8
0
  6
BYLAYER
 62
     1
 10
205.249193
 20
-491.242321
 30
0.0
 11
197.249193
 21
-491.242321
 31
0.0
  0
LINE
  8
0
  6
BYLAYER
 62
     1
 10
199.249162
 20
-459.742367
 30
0.0
 11
198.749162
 21
-459.242367
 31
0.0
  0
LINE
  8
0
  6
BYLAYER
 62
     1
 10
139.249132
 20
-459.742367
 30
0.0
 11
139.749132
 21
-459.242367
 31
0.0
  0
LINE
  8
0
  6
BYLAYER
 62
     1
 10
139.749132
 20
-459.242367
 30
0.0
 11
198.749162
 21
-459.242367
 31
0.0
  0
LINE
  8
0
  6
BYLAYER
 62
     1
 10
139.249132
 20
-461.342342
 30
0.0
 11
139.249132
 21
-459.742367
 31
0.0
  0
ARC
  8
0
  6
BYLAYER
 62
     1
 10
138.849130
 20
-461.342342
 30
0.0
 40
0.399994
 50
270.0
 51
360.000003
  0
LINE
  8
0
  6
BYLAYER
 62
     1
 10
199.249162
 20
-459.742367
 30
0.0
 11
199.249162
 21
-461.342342
 31
0.0
  0
ARC
  8
0
  6
BYLAYER
 62
     1
 10
199.649156
 20
-461.342342
 30
0.0
 40
0.399994
 50
180.000000
 51
269.999996
  0
LINE
  8
0
  6
BYLAYER
 62
     1
 10
205.249193
 20
-513.242321
 30
0.0
 11
205.249193
 21
-507.242321
 31
0.0
  0
LINE
  8
0
  6
BYLAYER
 62
     1
 10
205.249193
 20
-505.242321
 30
0.0
 11
205.249193
 21
-499.242321
 31
0.0
  0
LINE
  8
0
  6
BYLAYER
 62
     1
 10
205.249193
 20
-497.242321
 30
0.0
 11
205.249193
 21
-491.242321
 31
0.0
  0
LINE
  8
0
  6
BYLAYER
 62
     1
 10
205.249193
 20
-489.242321
 30
0.0
 11
205.249193
 21
-483.242306
 31
0.0
  0
LINE
  8
0
  6
BYLAYER
 62
     1
 10
205.249193
 20
-481.242306
 30
0.0
 11
205.249193
 21
-477.742306
 31
0.0
  0
LINE
  8
0
  6
BYLAYER
 62
     1
 10
133.249254
 20
-518.742321
 30
0.0
 11
133.249254
 21
-515.242321
 31
0.0
  0
LINE
  8
0
  6
BYLAYER
 62
     1
 10
133.249254
 20
-513.242321
 30
0.0
 11
133.249254
 21
-507.242321
 31
0.0
  0
LINE
  8
0
  6
BYLAYER
 62
     1
 10
133.249254
 20
-505.242321
 30
0.0
 11
133.249254
 21
-499.242321
 31
0.0
  0
LINE
  8
0
  6
BYLAYER
 62
     1
 10
133.249254
 20
-497.242321
 30
0.0
 11
133.249254
 21
-491.242321
 31
0.0
  0
LINE
  8
0
  6
BYLAYER
 62
     1
 10
133.249254
 20
-489.242321
 30
0.0
 11
133.249254
 21
-483.242306
 31
0.0
  0
LINE
  8
0
  6
BYLAYER
 62
     1
 10
133.249254
 20
-481.242306
 30
0.0
 11
133.249254
 21
-477.742306
 31
0.0
  0
LINE
  8
0
  6
BYLAYER
 62
     1
 10
205.249193
 20
-497.242321
 30
0.0
 11
198.024187
 21
-497.242321
 31
0.0
  0
LINE
  8
0
  6
BYLAYER
 62
     1
 10
205.249193
 20
-499.242321
 30
0.0
 11
198.024187
 21
-499.242321
 31
0.0
  0
LINE
  8
0
  6
BYLAYER
 62
     1
 10
125.749162
 20
-534.742306
 30
0.0
 11
212.749162
 21
-534.742306
 31
0.0
  0
LINE
  8
0
  6
BYLAYER
 62
     1
 10
125.749162
 20
-534.742306
 30
0.0
 11
125.749162
 21
-533.742245
 31
0.0
  0
LINE
  8
0
  6
BYLAYER
 62
     1
 10
212.749162
 20
-534.742306
 30
0.0
 11
212.749162
 21
-533.742275
 31
0.0
  0
LINE
  8
0
  6
BYLAYER
 62
     1
 10
199.249162
 20
-536.742275
 30
0.0
 11
198.749162
 21
-537.242275
 31
0.0
  0
LINE
  8
0
  6
BYLAYER
 62
     1
 10
139.249132
 20
-536.742275
 30
0.0
 11
139.749132
 21
-537.242275
 31
0.0
  0
LINE
  8
0
  6
BYLAYER
 62
     1
 10
139.749132
 20
-537.242275
 30
0.0
 11
198.749162
 21
-537.242275
 31
0.0
  0
LINE
  8
0
  6
BYLAYER
 62
     1
 10
139.249132
 20
-535.142300
 30
0.0
 11
139.249132
 21
-536.742275
 31
0.0
  0
ARC
  8
0
  6
BYLAYER
 62
     1
 10
138.849130
 20
-535.142300
 30
0.0
 40
0.399994
 50
0.0
 51
90.000003
  0
LINE
  8
0
  6
BYLAYER
 62
     1
 10
199.249162
 20
-536.742275
 30
0.0
 11
199.249162
 21
-535.142300
 31
0.0
  0
ARC
  8
0
  6
BYLAYER
 62
     1
 10
199.649156
 20
-535.142300
 30
0.0
 40
0.399994
 50
90.0
 51
179.999996
  0
LINE
  8
0
  6
BYLAYER
 62
     1
 10
149.249162
 20
-481.242306
 30
0.0
 11
133.249254
 21
-481.242306
 31
0.0
  0
LINE
  8
0
  6
BYLAYER
 62
     1
 10
149.249162
 20
-483.242306
 30
0.0
 11
133.249254
 21
-483.242306
 31
0.0
  0
LINE
  8
0
  6
BYLAYER
 62
     1
 10
149.249162
 20
-513.242321
 30
0.0
 11
133.249254
 21
-513.242321
 31
0.0
  0
LINE
  8
0
  6
BYLAYER
 62
     1
 10
149.249162
 20
-515.242321
 30
0.0
 11
133.249254
 21
-515.242321
 31
0.0
  0
LINE
  8
0
  6
BYLAYER
 62
     1
 10
205.249193
 20
-483.242306
 30
0.0
 11
184.249162
 21
-483.242306
 31
0.0
  0
LINE
  8
0
  6
BYLAYER
 62
     1
 10
205.249193
 20
-481.242306
 30
0.0
 11
184.249162
 21
-481.242306
 31
0.0
  0
LINE
  8
0
  6
BYLAYER
 62
     1
 10
205.249193
 20
-513.242321
 30
0.0
 11
184.249162
 21
-513.242321
 31
0.0
  0
LINE
  8
0
  6
BYLAYER
 62
     1
 10
205.249193
 20
-515.242321
 30
0.0
 11
184.249162
 21
-515.242321
 31
0.0
  0
LINE
  8
0
  6
BYLAYER
 62
     1
 10
146.249162
 20
-489.242321
 30
0.0
 11
133.249254
 21
-489.242321
 31
0.0
  0
LINE
  8
0
  6
BYLAYER
 62
     1
 10
146.249162
 20
-491.242321
 30
0.0
 11
133.249254
 21
-491.242321
 31
0.0
  0
LINE
  8
0
  6
BYLAYER
 62
     1
 10
146.249162
 20
-505.242321
 30
0.0
 11
133.249254
 21
-505.242321
 31
0.0
  0
LINE
  8
0
  6
BYLAYER
 62
     1
 10
146.249162
 20
-507.242321
 30
0.0
 11
133.249254
 21
-507.242321
 31
0.0
  0
LINE
  8
0
  6
BYLAYER
 62
     1
 10
133.249254
 20
-497.242321
 30
0.0
 11
149.249162
 21
-497.242321
 31
0.0
  0
LINE
  8
0
  6
BYLAYER
 62
     1
 10
149.249162
 20
-499.242321
 30
0.0
 11
133.249254
 21
-499.242321
 31
0.0
  0
ARC
  8
0
  6
BYLAYER
 62
     1
 10
149.249162
 20
-514.242321
 30
0.0
 40
1.000000
 50
270.0
 51
449.999991
  0
ARC
  8
0
  6
BYLAYER
 62
     1
 10
146.249162
 20
-506.242321
 30
0.0
 40
1.0
 50
270.0
 51
449.999991
  0
ARC
  8
0
  6
BYLAYER
 62
     1
 10
149.249162
 20
-498.242321
 30
0.0
 40
1.0
 50
270.0
 51
449.999991
  0
ARC
  8
0
  6
BYLAYER
 62
     1
 10
149.249162
 20
-482.242306
 30
0.0
 40
1.0
 50
270.0
 51
449.999991
  0
ARC
  8
0
  6
BYLAYER
 62
     1
 10
146.249162
 20
-490.242321
 30
0.0
 40
1.0
 50
270.0
 51
449.999991
  0
ARC
  8
0
  6
BYLAYER
 62
     1
 10
189.249223
 20
-498.242321
 30
0.0
 40
8.000003
 50
12.839535
 51
347.160356
  0
CIRCLE
  8
0
  6
BYLAYER
 62
     1
 10
189.249223
 20
-498.242321
 30
0.0
 40
4.25
  0
ARC
  8
0
  6
BYLAYER
 62
     1
 10
184.249162
 20
-514.242321
 30
0.0
 40
1.000000
 50
90.0
 51
270.000005
  0
ARC
  8
0
  6
BYLAYER
 62
     1
 10
197.249193
 20
-506.242321
 30
0.0
 40
1.0
 50
90.0
 51
270.000005
  0
ARC
  8
0
  6
BYLAYER
 62
     1
 10
198.024187
 20
-500.242321
 30
0.0
 40
1.000000
 50
90.0
 51
167.160818
  0
ARC
  8
0
  6
BYLAYER
 62
     1
 10
198.024187
 20
-496.242321
 30
0.0
 40
0.999996
 50
192.840037
 51
269.999998
  0
ARC
  8
0
  6
BYLAYER
 62
     1
 10
184.249162
 20
-482.242306
 30
0.0
 40
1.0
 50
90.0
 51
270.000005
  0
ARC
  8
0
  6
BYLAYER
 62
     1
 10
197.249193
 20
-490.242321
 30
0.0
 40
1.0
 50
90.0
 51
270.000005
  0
LINE
  8
0
  6
BYLAYER
 62
     1
 10
274.249285
 20
-566.242587
 30
0.0
 11
274.249285
 21
-498.242443
 31
0.0
  0
LINE
  8
0
  6
BYLAYER
 62
     1
 10
284.249285
 20
-498.242443
 30
0.0
 11
284.249285
 21
-568.242587
 31
0.0
  0
LINE
  8
0
  6
BYLAYER
 62
     1
 10
274.249285
 20
-462.242587
 30
0.0
 11
259.249193
 21
-462.242587
 31
0.0
  0
ARC
  8
0
  6
BYLAYER
 62
     1
 10
259.249193
 20
-460.242587
 30
0.0
 40
2.000000
 50
180.000000
 51
270.000000
  0
LINE
  8
0
  6
BYLAYER
 62
     1
 10
249.249193
 20
-441.242587
 30
0.0
 11
255.249193
 21
-441.242587
 31
0.0
  0
ARC
  8
0
  6
BYLAYER
 62
     1
 10
255.249193
 20
-443.242587
 30
0.0
 40
2.0
 50
0.0
 51
90.0
  0
LINE
  8
0
  6
BYLAYER
 62
     1
 10
284.249285
 20
-568.242587
 30
0.0
 11
276.249285
 21
-568.242587
 31
0.0
  0
ARC
  8
0
  6
BYLAYER
 62
     1
 10
276.249285
 20
-566.242587
 30
0.0
 40
2.0
 50
180.000000
 51
270.000000
  0
LINE
  8
0
  6
BYLAYER
 62
     1
 10
257.249193
 20
-443.242587
 30
0.0
 11
257.249193
 21
-498.242443
 31
0.0
  0
LINE
  8
0
  6
BYLAYER
 62
     1
 10
274.249285
 20
-534.242299
 30
0.0
 11
259.249193
 21
-534.242299
 31
0.0
  0
ARC
  8
0
  6
BYLAYER
 62
     1
 10
259.249193
 20
-536.242299
 30
0.0
 40
2.000000
 50
90.0
 51
180.0
  0
LINE
  8
0
  6
BYLAYER
 62
     1
 10
249.249193
 20
-555.242299
 30
0.0
 11
255.249193
 21
-555.242299
 31
0.0
  0
ARC
  8
0
  6
BYLAYER
 62
     1
 10
255.249193
 20
-553.242299
 30
0.0
 40
2.000000
 50
270.0
 51
360.0
  0
LINE
  8
0
  6
BYLAYER
 62
     1
 10
257.249193
 20
-553.242299
 30
0.0
 11
257.249193
 21
-498.242443
 31
0.0
  0
LINE
  8
0
  6
BYLAYER
 62
     1
 10
274.249285
 20
-430.242299
 30
0.0
 11
274.249285
 21
-498.242443
 31
0.0
  0
LINE
  8
0
  6
BYLAYER
 62
     1
 10
284.249285
 20
-498.242443
 30
0.0
 11
284.249285
 21
-428.242299
 31
0.0
  0
LINE
  8
0
  6
BYLAYER
 62
     1
 10
284.249285
 20
-428.242299
 30
0.0
 11
276.249285
 21
-428.242299
 31
0.0
  0
ARC
  8
0
  6
BYLAYER
 62
     1
 10
276.249285
 20
-430.242299
 30
0.0
 40
2.000000
 50
90.0
 51
180.0
  0
LINE
  8
0
  6
BYLAYER
 62
     1
 10
239.249193
 20
-446.139894
 30
0.0
 11
239.249193
 21
-498.242443
 31
0.0
  0
LINE
  8
0
  6
BYLAYER
 62
     1
 10
239.249285
 20
-550.742500
 30
0.0
 11
239.249285
 21
-498.242443
 31
0.0
  0
LINE
  8
0
  6
BYLAYER
 62
     1
 10
239.249285
 20
-550.742500
 30
0.0
 11
239.301630
 21
-550.745244
 31
0.0
  0
ARC
  8
0
  6
BYLAYER
 62
     1
 10
239.249285
 20
-551.743873
 30
0.0
 40
1.000000
 50
0.0
 51
86.999462
  0
LINE
  8
0
  6
BYLAYER
 62
     1
 10
249.249193
 20
-441.242435
 30
0.0
 11
249.249193
 21
-498.242443
 31
0.0
  0
LINE
  8
0
  6
BYLAYER
 62
     1
 10
249.249193
 20
-555.242435
 30
0.0
 11
249.249193
 21
-498.242443
 31
0.0
  0
LINE
  8
0
  6
BYLAYER
 62
     1
 10
240.249285
 20
-552.996774
 30
0.0
 11
240.249285
 21
-498.242443
 31
0.0
  0
ARC
  8
0
  6
BYLAYER
 62
     1
 10
242.249285
 20
-552.996774
 30
0.0
 40
2.0
 50
180.000000
 51
268.000000
  0
LINE
  8
0
  6
BYLAYER
 62
     1
 10
240.249193
 20
-443.488100
 30
0.0
 11
240.249193
 21
-498.242443
 31
0.0
  0
ARC
  8
0
  6
BYLAYER
 62
     1
 10
239.749193
 20
-445.622129
 30
0.0
 40
0.500000
 50
272.0
 51
360.0
  0
LINE
  8
0
  6
BYLAYER
 62
     1
 10
249.249193
 20
-555.242435
 30
0.0
 11
242.179486
 21
-554.995556
 31
0.0
  0
LINE
  8
0
  6
BYLAYER
 62
     1
 10
249.249193
 20
-441.242435
 30
0.0
 11
242.179394
 21
-441.489318
 31
0.0
  0
ARC
  8
0
  6
BYLAYER
 62
     1
 10
242.249193
 20
-443.488100
 30
0.0
 40
2.000000
 50
92.000000
 51
180.000000
  0
LINE
  8
0
  6
BYLAYER
 62
     1
 10
239.766643
 20
-446.121825
 30
0.0
 11
239.249193
 21
-446.139894
 31
0.0
  0
LINE
  8
0
  6
BYLAYER
 62
     1
 10
231.249193
 20
-448.059765
 30
0.0
 11
231.249193
 21
-498.242321
 31
0.0
  0
ARC
  8
0
  6
BYLAYER
 62
     1
 10
230.749193
 20
-462.133068
 30
0.0
 40
0.499997
 50
279.999879
 51
360.000000
  0
ARC
  8
0
  6
BYLAYER
 62
     1
 10
230.749193
 20
-462.133068
 30
0.0
 40
0.499997
 50
279.999879
 51
360.000000
  0
LINE
  8
0
  6
BYLAYER
 62
     1
 10
220.249193
 20
-464.492199
 30
0.0
 11
230.836016
 21
-462.625469
 31
0.0
  0
ARC
  8
0
  6
BYLAYER
 62
     1
 10
233.249193
 20
-448.059765
 30
0.0
 40
2.0
 50
93.000097
 51
180.000000
  0
LINE
  8
0
  6
BYLAYER
 62
     1
 10
233.144518
 20
-446.062511
 30
0.0
 11
239.249193
 21
-445.742580
 31
0.0
  0
LINE
  8
0
  6
BYLAYER
 62
     1
 10
221.071703
 20
-464.347179
 30
0.0
 11
231.249193
 21
-448.059765
 31
0.0
  0
LINE
  8
0
  6
BYLAYER
 62
     1
 10
220.249193
 20
-498.242321
 30
0.0
 11
220.249193
 21
-464.492199
 31
0.0
  0
LINE
  8
0
  6
BYLAYER
 62
     1
 10
239.249193
 20
-445.742580
 30
0.0
 11
239.249193
 21
-498.242443
 31
0.0
  0
LINE
  8
0
  6
BYLAYER
 62
     1
 10
231.249193
 20
-548.424877
 30
0.0
 11
231.249193
 21
-498.242321
 31
0.0
  0
ARC
  8
0
  6
BYLAYER
 62
     1
 10
230.749193
 20
-534.351574
 30
0.0
 40
0.499997
 50
0.0
 51
80.000121
  0
ARC
  8
0
  6
BYLAYER
 62
     1
 10
230.749193
 20
-534.351574
 30
0.0
 40
0.499997
 50
0.0
 51
80.000121
  0
LINE
  8
0
  6
BYLAYER
 62
     1
 10
220.249193
 20
-531.992443
 30
0.0
 11
230.836016
 21
-533.859173
 31
0.0
  0
ARC
  8
0
  6
BYLAYER
 62
     1
 10
233.249193
 20
-548.424877
 30
0.0
 40
2.000000
 50
180.000000
 51
266.999903
  0
LINE
  8
0
  6
BYLAYER
 62
     1
 10
233.144518
 20
-550.422131
 30
0.0
 11
239.249193
 21
-550.742062
 31
0.0
  0
LINE
  8
0
  6
BYLAYER
 62
     1
 10
221.071703
 20
-532.137463
 30
0.0
 11
231.249193
 21
-548.424877
 31
0.0
  0
LINE
  8
0
  6
BYLAYER
 62
     1
 10
220.249193
 20
-498.242321
 30
0.0
 11
220.249193
 21
-531.992443
 31
0.0
  0
LINE
  8
0
  6
BYLAYER
 62
     1
 10
239.249193
 20
-550.742062
 30
0.0
 11
239.249193
 21
-498.242199
 31
0.0
  0
LINE
  8
0
  6
BYLAYER
 62
     1
 10
259.371470
 20
-450.102031
 30
0.0
 11
271.900184
 21
-450.102031
 31
0.0
  0
ARC
  8
0
  6
BYLAYER
 62
     1
 10
271.900184
 20
-448.102031
 30
0.0
 40
2.000000
 50
270.0
 51
360.0
  0
ARC
  8
0
  6
BYLAYER
 62
     1
 10
259.371470
 20
-448.102031
 30
0.0
 40
2.000000
 50
180.000000
 51
270.000000
  0
LINE
  8
0
  6
BYLAYER
 62
     1
 10
259.371470
 20
-546.382855
 30
0.0
 11
271.900184
 21
-546.382855
 31
0.0
  0
ARC
  8
0
  6
BYLAYER
 62
     1
 10
271.900184
 20
-548.382855
 30
0.0
 40
2.000000
 50
0.0
 51
90.0
  0
ARC
  8
0
  6
BYLAYER
 62
     1
 10
259.371470
 20
-548.382855
 30
0.0
 40
2.000000
 50
90.0
 51
180.0
  0
ENDSEC
  0
EOF
