  0
SECTION
  2
HEADER
  9
$EXTMIN
 10
192.706485
 20
957.000000
 30
0.0
  9
$EXTMAX
 10
1309.750853
 20
0.0
 30
0.0
  0
ENDSEC
  0
SECTION
  2
TABLES
  0
ENDSEC
  0
SECTION
  2
BLOCKS
  0
ENDSEC
  0
SECTION
  2
ENTITIES
  0
LINE
  8
0
  6
BYLAYER
 62
     1
 10
487.952157
 20
-110.174061
 30
0.0
 11
487.795114
 21
-110.182301
 31
0.0
  0
ARC
  8
0
  6
BYLAYER
 62
     1
 10
487.952157
 20
-113.178150
 30
0.0
 40
2.999963
 50
93.000102
 51
180.000005
  0
ARC
  8
0
  6
BYLAYER
 62
     1
 10
487.952157
 20
-257.869373
 30
0.0
 40
3.000025
 50
180.000000
 51
225.000005
  0
ARC
  8
0
  6
BYLAYER
 62
     1
 10
471.952218
 20
-17.174061
 30
0.0
 40
3.000000
 50
0.0
 51
90.000016
  0
ARC
  8
0
  6
BYLAYER
 62
     1
 10
213.952096
 20
-17.174061
 30
0.0
 40
3.0
 50
90.0
 51
180.000009
  0
ARC
  8
0
  6
BYLAYER
 62
     1
 10
213.952096
 20
-315.174092
 30
0.0
 40
3.000000
 50
180.000000
 51
269.999996
  0
ARC
  8
0
  6
BYLAYER
 62
     1
 10
471.952218
 20
-315.174092
 30
0.0
 40
3.0
 50
270.0
 51
359.999982
  0
LINE
  8
0
  6
BYLAYER
 62
     1
 10
487.952157
 20
-67.468250
 30
0.0
 11
484.969247
 21
-69.468495
 31
0.0
  0
LINE
  8
0
  6
BYLAYER
 62
     1
 10
210.952096
 20
-66.174061
 30
0.0
 11
195.452096
 21
-66.174061
 31
0.0
  0
ARC
  8
0
  6
BYLAYER
 62
     1
 10
419.952218
 20
-24.174061
 30
0.0
 40
10.000000
 50
90.0
 51
180.000009
  0
ARC
  8
0
  6
BYLAYER
 62
     1
 10
265.952218
 20
-24.174061
 30
0.0
 40
10.0
 50
0.0
 51
90.000023
  0
ARC
  8
0
  6
BYLAYER
 62
     1
 10
419.952218
 20
-308.174092
 30
0.0
 40
10.000000
 50
180.000000
 51
270.000003
  0
ARC
  8
0
  6
BYLAYER
 62
     1
 10
464.952218
 20
-263.174000
 30
0.0
 40
10.000000
 50
0.0
 51
89.999989
  0
ARC
  8
0
  6
BYLAYER
 62
     1
 10
265.952218
 20
-308.174092
 30
0.0
 40
10.0
 50
270.0
 51
360.000009
  0
ARC
  8
0
  6
BYLAYER
 62
     1
 10
220.952218
 20
-263.174000
 30
0.0
 40
10.000122
 50
90.283095
 51
180.0
  0
LINE
  8
0
  6
BYLAYER
 62
     1
 10
459.864846
 20
-253.174000
 30
0.0
 11
464.952218
 21
-253.174000
 31
0.0
  0
LINE
  8
0
  6
BYLAYER
 62
     1
 10
409.952218
 20
-303.086621
 30
0.0
 11
409.952218
 21
-308.174092
 31
0.0
  0
LINE
  8
0
  6
BYLAYER
 62
     1
 10
275.952218
 20
-308.174092
 30
0.0
 11
275.952218
 21
-303.086598
 31
0.0
  0
LINE
  8
0
  6
BYLAYER
 62
     1
 10
226.039552
 20
-253.174000
 30
0.0
 11
220.952218
 21
-253.174000
 31
0.0
  0
LINE
  8
0
  6
BYLAYER
 62
     1
 10
275.952218
 20
-69.261364
 30
0.0
 11
275.952218
 21
-24.174061
 31
0.0
  0
ARC
  8
0
  6
BYLAYER
 62
     1
 10
213.952096
 20
-76.674061
 30
0.0
 40
3.000000
 50
180.000000
 51
269.999996
  0
ARC
  8
0
  6
BYLAYER
 62
     1
 10
213.952096
 20
-88.674061
 30
0.0
 40
3.000000
 50
180.000000
 51
269.999996
  0
ARC
  8
0
  6
BYLAYER
 62
     1
 10
213.952096
 20
-100.674061
 30
0.0
 40
3.000000
 50
180.000000
 51
269.999996
  0
ARC
  8
0
  6
BYLAYER
 62
     1
 10
213.952096
 20
-87.674061
 30
0.0
 40
3.000000
 50
90.0
 51
180.000003
  0
ARC
  8
0
  6
BYLAYER
 62
     1
 10
213.952096
 20
-99.674061
 30
0.0
 40
3.000000
 50
90.0
 51
180.000003
  0
ARC
  8
0
  6
BYLAYER
 62
     1
 10
213.952096
 20
-111.674061
 30
0.0
 40
3.000000
 50
90.0
 51
180.000003
  0
LINE
  8
0
  6
BYLAYER
 62
     1
 10
213.952096
 20
-79.674061
 30
0.0
 11
249.452218
 21
-79.674061
 31
0.0
  0
LINE
  8
0
  6
BYLAYER
 62
     1
 10
213.952096
 20
-84.674061
 30
0.0
 11
249.452218
 21
-84.674061
 31
0.0
  0
ARC
  8
0
  6
BYLAYER
 62
     1
 10
249.452218
 20
-82.174061
 30
0.0
 40
2.500000
 50
270.0
 51
450.000005
  0
LINE
  8
0
  6
BYLAYER
 62
     1
 10
213.952096
 20
-91.674061
 30
0.0
 11
237.452218
 21
-91.674061
 31
0.0
  0
LINE
  8
0
  6
BYLAYER
 62
     1
 10
213.952096
 20
-96.674061
 30
0.0
 11
237.452218
 21
-96.674061
 31
0.0
  0
ARC
  8
0
  6
BYLAYER
 62
     1
 10
237.452218
 20
-94.174061
 30
0.0
 40
2.500000
 50
270.0
 51
450.000005
  0
LINE
  8
0
  6
BYLAYER
 62
     1
 10
213.952096
 20
-103.674061
 30
0.0
 11
227.452218
 21
-103.674061
 31
0.0
  0
LINE
  8
0
  6
BYLAYER
 62
     1
 10
213.952096
 20
-108.674061
 30
0.0
 11
227.452218
 21
-108.674061
 31
0.0
  0
ARC
  8
0
  6
BYLAYER
 62
     1
 10
227.452218
 20
-106.174061
 30
0.0
 40
2.500000
 50
270.0
 51
450.000005
  0
ARC
  8
0
  6
BYLAYER
 62
     1
 10
471.952218
 20
-87.674061
 30
0.0
 40
3.000000
 50
0.0
 51
90.000016
  0
ARC
  8
0
  6
BYLAYER
 62
     1
 10
471.952218
 20
-99.674061
 30
0.0
 40
3.000000
 50
0.0
 51
90.000016
  0
ARC
  8
0
  6
BYLAYER
 62
     1
 10
471.952218
 20
-111.674061
 30
0.0
 40
3.000000
 50
0.0
 51
90.000016
  0
ARC
  8
0
  6
BYLAYER
 62
     1
 10
471.952218
 20
-76.674061
 30
0.0
 40
3.0
 50
270.0
 51
359.999982
  0
ARC
  8
0
  6
BYLAYER
 62
     1
 10
471.952218
 20
-88.674061
 30
0.0
 40
3.0
 50
270.0
 51
359.999982
  0
ARC
  8
0
  6
BYLAYER
 62
     1
 10
471.952218
 20
-100.674061
 30
0.0
 40
3.0
 50
270.0
 51
359.999982
  0
LINE
  8
0
  6
BYLAYER
 62
     1
 10
471.952218
 20
-79.674061
 30
0.0
 11
436.452218
 21
-79.674061
 31
0.0
  0
LINE
  8
0
  6
BYLAYER
 62
     1
 10
471.952218
 20
-84.674061
 30
0.0
 11
436.452218
 21
-84.674061
 31
0.0
  0
ARC
  8
0
  6
BYLAYER
 62
     1
 10
436.452218
 20
-82.174061
 30
0.0
 40
2.5
 50
90.0
 51
269.999991
  0
LINE
  8
0
  6
BYLAYER
 62
     1
 10
471.952218
 20
-91.674061
 30
0.0
 11
448.452218
 21
-91.674061
 31
0.0
  0
LINE
  8
0
  6
BYLAYER
 62
     1
 10
471.952218
 20
-96.674061
 30
0.0
 11
448.452218
 21
-96.674061
 31
0.0
  0
ARC
  8
0
  6
BYLAYER
 62
     1
 10
448.452218
 20
-94.174061
 30
0.0
 40
2.5
 50
90.0
 51
269.999991
  0
LINE
  8
0
  6
BYLAYER
 62
     1
 10
471.952218
 20
-103.674061
 30
0.0
 11
458.452218
 21
-103.674061
 31
0.0
  0
LINE
  8
0
  6
BYLAYER
 62
     1
 10
471.952218
 20
-108.674061
 30
0.0
 11
458.452218
 21
-108.674061
 31
0.0
  0
ARC
  8
0
  6
BYLAYER
 62
     1
 10
458.452218
 20
-106.174061
 30
0.0
 40
2.5
 50
90.0
 51
269.999991
  0
ARC
  8
0
  6
BYLAYER
 62
     1
 10
277.952218
 20
-48.174061
 30
0.0
 40
2.000000
 50
180.000000
 51
270.000009
  0
LINE
  8
0
  6
BYLAYER
 62
     1
 10
213.952096
 20
-14.174061
 30
0.0
 11
265.952218
 21
-14.174061
 31
0.0
  0
LINE
  8
0
  6
BYLAYER
 62
     1
 10
409.952218
 20
-69.261326
 30
0.0
 11
409.952218
 21
-24.174061
 31
0.0
  0
LINE
  8
0
  6
BYLAYER
 62
     1
 10
387.952218
 20
-54.174061
 30
0.0
 11
399.952218
 21
-54.174061
 31
0.0
  0
ARC
  8
0
  6
BYLAYER
 62
     1
 10
399.952218
 20
-44.174061
 30
0.0
 40
10.0
 50
270.0
 51
360.000003
  0
LINE
  8
0
  6
BYLAYER
 62
     1
 10
277.952218
 20
-50.174061
 30
0.0
 11
374.990731
 21
-50.174061
 31
0.0
  0
ARC
  8
0
  6
BYLAYER
 62
     1
 10
387.952218
 20
-34.174061
 30
0.0
 40
19.999994
 50
235.698818
 51
270.000001
  0
ARC
  8
0
  6
BYLAYER
 62
     1
 10
197.952096
 20
-257.869374
 30
0.0
 40
3.000002
 50
314.999992
 51
345.522495
  0
ARC
  8
0
  6
BYLAYER
 62
     1
 10
199.278024
 20
-72.057667
 30
0.0
 40
2.999953
 50
11.543804
 51
55.016575
  0
ARC
  8
0
  6
BYLAYER
 62
     1
 10
486.640023
 20
-71.960133
 30
0.0
 40
2.999959
 50
123.843966
 51
169.087289
  0
LINE
  8
0
  6
BYLAYER
 62
     1
 10
195.452096
 20
-266.174061
 30
0.0
 11
210.952096
 21
-266.174061
 31
0.0
  0
LINE
  8
0
  6
BYLAYER
 62
     1
 10
485.830819
 20
-259.990711
 30
0.0
 11
487.512795
 21
-261.672657
 31
0.0
  0
ARC
  8
0
  6
BYLAYER
 62
     1
 10
486.452157
 20
-262.733326
 30
0.0
 40
1.499991
 50
0.0
 51
45.000824
  0
LINE
  8
0
  6
BYLAYER
 62
     1
 10
485.246163
 20
-266.174061
 30
0.0
 11
474.952218
 21
-266.174061
 31
0.0
  0
ARC
  8
0
  6
BYLAYER
 62
     1
 10
483.746163
 20
-266.595326
 30
0.0
 40
1.500007
 50
0.0
 51
31.372982
  0
LINE
  8
0
  6
BYLAYER
 62
     1
 10
265.952218
 20
-14.174061
 30
0.0
 11
471.952218
 21
-14.174061
 31
0.0
  0
LINE
  8
0
  6
BYLAYER
 62
     1
 10
213.952096
 20
-318.174092
 30
0.0
 11
301.789910
 21
-318.174092
 31
0.0
  0
LINE
  8
0
  6
BYLAYER
 62
     1
 10
384.114602
 20
-318.174092
 30
0.0
 11
471.952218
 21
-318.174092
 31
0.0
  0
LINE
  8
0
  6
BYLAYER
 62
     1
 10
474.952218
 20
-227.336506
 30
0.0
 11
474.952218
 21
-315.174092
 31
0.0
  0
ARC
  8
0
  6
BYLAYER
 62
     1
 10
477.952218
 20
-227.336506
 30
0.0
 40
2.999983
 50
167.456267
 51
180.000005
  0
ARC
  8
0
  6
BYLAYER
 62
     1
 10
292.952218
 20
-186.174061
 30
0.0
 40
186.524017
 50
347.456040
 51
372.54397
  0
ARC
  8
0
  6
BYLAYER
 62
     1
 10
477.952218
 20
-145.011524
 30
0.0
 40
2.999996
 50
180.000000
 51
192.544858
  0
LINE
  8
0
  6
BYLAYER
 62
     1
 10
210.952096
 20
-227.336048
 30
0.0
 11
210.952096
 21
-315.174092
 31
0.0
  0
ARC
  8
0
  6
BYLAYER
 62
     1
 10
207.952096
 20
-227.336048
 30
0.0
 40
3.000005
 50
0.0
 51
12.544233
  0
ARC
  8
0
  6
BYLAYER
 62
     1
 10
392.952218
 20
-186.174061
 30
0.0
 40
186.524017
 50
167.456185
 51
192.543811
  0
ARC
  8
0
  6
BYLAYER
 62
     1
 10
207.952096
 20
-145.012074
 30
0.0
 40
2.999998
 50
347.456340
 51
360.000000
  0
ARC
  8
0
  6
BYLAYER
 62
     1
 10
271.256898
 20
-331.174000
 30
0.0
 40
3.000025
 50
90.0
 51
134.999998
  0
ARC
  8
0
  6
BYLAYER
 62
     1
 10
301.789773
 20
-321.174061
 30
0.0
 40
2.999983
 50
77.456264
 51
90.000003
  0
ARC
  8
0
  6
BYLAYER
 62
     1
 10
342.952218
 20
-136.174061
 30
0.0
 40
186.524017
 50
257.456030
 51
282.543971
  0
LINE
  8
0
  6
BYLAYER
 62
     1
 10
262.952210
 20
-318.174061
 30
0.0
 11
262.952210
 21
-333.674092
 31
0.0
  0
ARC
  8
0
  6
BYLAYER
 62
     1
 10
414.647530
 20
-331.174000
 30
0.0
 40
3.000025
 50
45.000001
 51
89.999996
  0
ARC
  8
0
  6
BYLAYER
 62
     1
 10
384.114663
 20
-321.174061
 30
0.0
 40
2.999983
 50
90.0
 51
102.543738
  0
LINE
  8
0
  6
BYLAYER
 62
     1
 10
422.952218
 20
-318.174061
 30
0.0
 11
422.952218
 21
-333.674092
 31
0.0
  0
LINE
  8
0
  6
BYLAYER
 62
     1
 10
414.647592
 20
-4.174122
 30
0.0
 11
271.256906
 21
-4.174122
 31
0.0
  0
ARC
  8
0
  6
BYLAYER
 62
     1
 10
414.647531
 20
-1.174183
 30
0.0
 40
3.000025
 50
270.0
 51
315.000018
  0
ARC
  8
0
  6
BYLAYER
 62
     1
 10
271.256906
 20
-1.174183
 30
0.0
 40
3.000025
 50
224.999982
 51
270.000001
  0
LINE
  8
0
  6
BYLAYER
 62
     1
 10
210.952096
 20
-17.174061
 30
0.0
 11
210.952096
 21
-76.674061
 31
0.0
  0
LINE
  8
0
  6
BYLAYER
 62
     1
 10
210.952096
 20
-87.674061
 30
0.0
 11
210.952096
 21
-88.674061
 31
0.0
  0
LINE
  8
0
  6
BYLAYER
 62
     1
 10
210.952096
 20
-99.674061
 30
0.0
 11
210.952096
 21
-100.674061
 31
0.0
  0
LINE
  8
0
  6
BYLAYER
 62
     1
 10
210.952096
 20
-111.674061
 30
0.0
 11
210.952096
 21
-145.012074
 31
0.0
  0
LINE
  8
0
  6
BYLAYER
 62
     1
 10
474.952218
 20
-17.174061
 30
0.0
 11
474.952218
 21
-76.674061
 31
0.0
  0
LINE
  8
0
  6
BYLAYER
 62
     1
 10
474.952218
 20
-87.674061
 30
0.0
 11
474.952218
 21
-88.674061
 31
0.0
  0
LINE
  8
0
  6
BYLAYER
 62
     1
 10
474.952218
 20
-99.674061
 30
0.0
 11
474.952218
 21
-100.674061
 31
0.0
  0
LINE
  8
0
  6
BYLAYER
 62
     1
 10
474.952218
 20
-111.674061
 30
0.0
 11
474.952218
 21
-145.011524
 31
0.0
  0
LINE
  8
0
  6
BYLAYER
 62
     1
 10
487.952157
 20
-3.674061
 30
0.0
 11
482.952157
 21
1.325939
 31
0.0
  0
LINE
  8
0
  6
BYLAYER
 62
     1
 10
487.952157
 20
-328.674092
 30
0.0
 11
487.952157
 21
-262.733326
 31
0.0
  0
LINE
  8
0
  6
BYLAYER
 62
     1
 10
487.952157
 20
-328.674092
 30
0.0
 11
482.952157
 21
-333.674092
 31
0.0
  0
LINE
  8
0
  6
BYLAYER
 62
     1
 10
200.952096
 20
-214.173176
 30
0.0
 11
200.952096
 21
-258.381611
 31
0.0
  0
ARC
  8
0
  6
BYLAYER
 62
     1
 10
392.952218
 20
-186.174061
 30
0.0
 40
194.000000
 50
171.828640
 51
188.170974
  0
ARC
  8
0
  6
BYLAYER
 62
     1
 10
314.951791
 20
-331.174000
 30
0.0
 40
3.000000
 50
81.828840
 51
90.000000
  0
ARC
  8
0
  6
BYLAYER
 62
     1
 10
342.952218
 20
-136.174061
 30
0.0
 40
194.000000
 50
261.828636
 51
278.170983
  0
ARC
  8
0
  6
BYLAYER
 62
     1
 10
370.952645
 20
-331.174000
 30
0.0
 40
3.0
 50
90.0
 51
98.171167
  0
ARC
  8
0
  6
BYLAYER
 62
     1
 10
292.952218
 20
-186.174061
 30
0.0
 40
194.0
 50
351.828645
 51
368.170965
  0
LINE
  8
0
  6
BYLAYER
 62
     1
 10
271.256898
 20
-328.174000
 30
0.0
 11
314.951791
 21
-328.174000
 31
0.0
  0
LINE
  8
0
  6
BYLAYER
 62
     1
 10
414.647530
 20
-328.174000
 30
0.0
 11
370.952645
 21
-328.174000
 31
0.0
  0
LINE
  8
0
  6
BYLAYER
 62
     1
 10
484.952157
 20
-158.173634
 30
0.0
 11
484.952157
 21
-113.178150
 31
0.0
  0
LINE
  8
0
  6
BYLAYER
 62
     1
 10
484.952157
 20
-257.869373
 30
0.0
 11
484.952157
 21
-214.174488
 31
0.0
  0
LINE
  8
0
  6
BYLAYER
 62
     1
 10
269.135568
 20
-3.295521
 30
0.0
 11
264.514237
 21
1.325939
 31
0.0
  0
LINE
  8
0
  6
BYLAYER
 62
     1
 10
262.952218
 20
1.325939
 30
0.0
 11
262.952218
 21
-14.174061
 31
0.0
  0
LINE
  8
0
  6
BYLAYER
 62
     1
 10
195.452096
 20
-107.674061
 30
0.0
 11
195.452096
 21
-3.674061
 31
0.0
  0
LINE
  8
0
  6
BYLAYER
 62
     1
 10
487.952157
 20
-110.174061
 30
0.0
 11
487.952157
 21
-3.674061
 31
0.0
  0
LINE
  8
0
  6
BYLAYER
 62
     1
 10
422.952218
 20
1.325939
 30
0.0
 11
422.952218
 21
-14.174061
 31
0.0
  0
LINE
  8
0
  6
BYLAYER
 62
     1
 10
416.768868
 20
-3.295521
 30
0.0
 11
421.390206
 21
1.325939
 31
0.0
  0
LINE
  8
0
  6
BYLAYER
 62
     1
 10
482.952157
 20
1.325939
 30
0.0
 11
421.390206
 21
1.325939
 31
0.0
  0
LINE
  8
0
  6
BYLAYER
 62
     1
 10
269.135560
 20
-329.052662
 30
0.0
 11
264.514214
 21
-333.674092
 31
0.0
  0
LINE
  8
0
  6
BYLAYER
 62
     1
 10
421.390237
 20
-333.674092
 30
0.0
 11
482.952157
 21
-333.674092
 31
0.0
  0
LINE
  8
0
  6
BYLAYER
 62
     1
 10
416.768868
 20
-329.052662
 30
0.0
 11
421.390237
 21
-333.674092
 31
0.0
  0
LINE
  8
0
  6
BYLAYER
 62
     1
 10
485.246163
 20
-266.595326
 30
0.0
 11
485.246163
 21
-331.380085
 31
0.0
  0
LINE
  8
0
  6
BYLAYER
 62
     1
 10
264.514214
 20
-333.674092
 30
0.0
 11
200.452096
 21
-333.674030
 31
0.0
  0
LINE
  8
0
  6
BYLAYER
 62
     1
 10
195.452096
 20
-328.674030
 30
0.0
 11
200.452096
 21
-333.674030
 31
0.0
  0
LINE
  8
0
  6
BYLAYER
 62
     1
 10
195.452096
 20
-264.611927
 30
0.0
 11
200.073434
 21
-259.990711
 31
0.0
  0
LINE
  8
0
  6
BYLAYER
 62
     1
 10
195.452096
 20
-264.611927
 30
0.0
 11
195.452096
 21
-328.674030
 31
0.0
  0
LINE
  8
0
  6
BYLAYER
 62
     1
 10
195.452096
 20
-107.674061
 30
0.0
 11
198.109536
 21
-107.813526
 31
0.0
  0
ARC
  8
0
  6
BYLAYER
 62
     1
 10
197.952279
 20
-110.809437
 30
0.0
 40
3.0
 50
0.0
 51
86.995416
  0
LINE
  8
0
  6
BYLAYER
 62
     1
 10
200.952279
 20
-158.173634
 30
0.0
 11
200.952279
 21
-110.675587
 31
0.0
  0
LINE
  8
0
  6
BYLAYER
 62
     1
 10
195.452096
 20
-66.174061
 30
0.0
 11
200.997994
 21
-69.599781
 31
0.0
  0
LINE
  8
0
  6
BYLAYER
 62
     1
 10
200.452111
 20
1.325939
 30
0.0
 11
264.514237
 21
1.325939
 31
0.0
  0
LINE
  8
0
  6
BYLAYER
 62
     1
 10
195.452096
 20
-3.674061
 30
0.0
 11
200.452111
 21
1.325939
 31
0.0
  0
ARC
  8
0
  6
BYLAYER
 62
     1
 10
374.990731
 20
-53.174061
 30
0.0
 40
3.000000
 50
55.698957
 51
90.000000
  0
CIRCLE
  8
0
  6
BYLAYER
 62
     1
 10
342.952218
 20
-186.174061
 30
0.0
 40
45.0
  0
ARC
  8
0
  6
BYLAYER
 62
     1
 10
342.952218
 20
-78.674061
 30
0.0
 40
6.000077
 50
353.660000
 51
636.340001
  0
CIRCLE
  8
0
  6
BYLAYER
 62
     1
 10
342.952218
 20
-78.674061
 30
0.0
 40
5.4
  0
ARC
  8
0
  6
BYLAYER
 62
     1
 10
266.938241
 20
-110.160145
 30
0.0
 40
5.999946
 50
38.659991
 51
321.339992
  0
CIRCLE
  8
0
  6
BYLAYER
 62
     1
 10
266.938241
 20
-110.160145
 30
0.0
 40
5.400000
  0
ARC
  8
0
  6
BYLAYER
 62
     1
 10
235.452218
 20
-186.174061
 30
0.0
 40
6.000016
 50
83.660009
 51
366.340010
  0
CIRCLE
  8
0
  6
BYLAYER
 62
     1
 10
235.452218
 20
-186.174061
 30
0.0
 40
5.4
  0
ARC
  8
0
  6
BYLAYER
 62
     1
 10
266.938241
 20
-262.187977
 30
0.0
 40
6.000069
 50
128.660028
 51
411.340001
  0
CIRCLE
  8
0
  6
BYLAYER
 62
     1
 10
266.938241
 20
-262.187977
 30
0.0
 40
5.400000
  0
ARC
  8
0
  6
BYLAYER
 62
     1
 10
342.952218
 20
-293.674061
 30
0.0
 40
6.000077
 50
173.660015
 51
456.340016
  0
CIRCLE
  8
0
  6
BYLAYER
 62
     1
 10
342.952218
 20
-293.674061
 30
0.0
 40
5.4
  0
ARC
  8
0
  6
BYLAYER
 62
     1
 10
418.966195
 20
-262.187977
 30
0.0
 40
6.000021
 50
218.660013
 51
501.340041
  0
CIRCLE
  8
0
  6
BYLAYER
 62
     1
 10
418.966195
 20
-262.187977
 30
0.0
 40
5.4
  0
ARC
  8
0
  6
BYLAYER
 62
     1
 10
450.452218
 20
-186.174061
 30
0.0
 40
6.000016
 50
263.659977
 51
546.340005
  0
CIRCLE
  8
0
  6
BYLAYER
 62
     1
 10
450.452218
 20
-186.174061
 30
0.0
 40
5.400000
  0
ARC
  8
0
  6
BYLAYER
 62
     1
 10
418.966195
 20
-110.160145
 30
0.0
 40
5.999879
 50
308.659982
 51
591.339955
  0
CIRCLE
  8
0
  6
BYLAYER
 62
     1
 10
418.966195
 20
-110.160145
 30
0.0
 40
5.4
  0
ARC
  8
0
  6
BYLAYER
 62
     1
 10
266.415475
 20
-1.398182
 30
0.0
 40
87.500099
 50
269.435199
 51
315.564848
  0
ARC
  8
0
  6
BYLAYER
 62
     1
 10
331.036385
 20
-64.757313
 30
0.0
 40
2.999941
 50
95.605388
 51
135.564229
  0
ARC
  8
0
  6
BYLAYER
 62
     1
 10
265.523324
 20
-91.893788
 30
0.0
 40
2.999902
 50
89.434634
 51
129.395133
  0
ARC
  8
0
  6
BYLAYER
 62
     1
 10
158.176278
 20
-109.637440
 30
0.0
 40
87.5
 50
314.435190
 51
360.564839
  0
ARC
  8
0
  6
BYLAYER
 62
     1
 10
248.671884
 20
-108.745350
 30
0.0
 40
3.000035
 50
140.605386
 51
180.564233
  0
ARC
  8
0
  6
BYLAYER
 62
     1
 10
221.535531
 20
-174.258290
 30
0.0
 40
2.999997
 50
134.434638
 51
174.395138
  0
ARC
  8
0
  6
BYLAYER
 62
     1
 10
221.535531
 20
-198.089832
 30
0.0
 40
2.999996
 50
185.605391
 51
225.564238
  0
ARC
  8
0
  6
BYLAYER
 62
     1
 10
265.523446
 20
-280.454334
 30
0.0
 40
2.999996
 50
230.605382
 51
270.564229
  0
ARC
  8
0
  6
BYLAYER
 62
     1
 10
420.381112
 20
-280.454334
 30
0.0
 40
2.999902
 50
269.434625
 51
309.395138
  0
ARC
  8
0
  6
BYLAYER
 62
     1
 10
437.232552
 20
-263.602772
 30
0.0
 40
3.000035
 50
320.605391
 51
360.564238
  0
ARC
  8
0
  6
BYLAYER
 62
     1
 10
464.368905
 20
-198.089832
 30
0.0
 40
2.999997
 50
314.434643
 51
354.395129
  0
ARC
  8
0
  6
BYLAYER
 62
     1
 10
419.488900
 20
-1.398182
 30
0.0
 40
87.499954
 50
224.435194
 51
270.564803
  0
ARC
  8
0
  6
BYLAYER
 62
     1
 10
420.381051
 20
-91.893788
 30
0.0
 40
2.999957
 50
50.605374
 51
90.564217
  0
ARC
  8
0
  6
BYLAYER
 62
     1
 10
354.867989
 20
-64.757313
 30
0.0
 40
2.999997
 50
44.434626
 51
84.395108
  0
ARC
  8
0
  6
BYLAYER
 62
     1
 10
342.952218
 20
-186.174061
 30
0.0
 40
125.0
 50
90.000003
 51
95.605061
  0
ARC
  8
0
  6
BYLAYER
 62
     1
 10
342.952218
 20
-186.174061
 30
0.0
 40
125.0
 50
84.394938
 51
89.999996
  0
ARC
  8
0
  6
BYLAYER
 62
     1
 10
342.952218
 20
-186.174061
 30
0.0
 40
125.000069
 50
135.000000
 51
140.605058
  0
ARC
  8
0
  6
BYLAYER
 62
     1
 10
342.952218
 20
-186.174061
 30
0.0
 40
125.000000
 50
180.000005
 51
185.605063
  0
ARC
  8
0
  6
BYLAYER
 62
     1
 10
342.952218
 20
-186.174061
 30
0.0
 40
124.999985
 50
225.000010
 51
230.605054
  0
ARC
  8
0
  6
BYLAYER
 62
     1
 10
342.952218
 20
-186.174061
 30
0.0
 40
124.999901
 50
315.000019
 51
320.605063
  0
ARC
  8
0
  6
BYLAYER
 62
     1
 10
342.952218
 20
-186.174061
 30
0.0
 40
125.0
 50
0.000010
 51
5.605054
  0
ARC
  8
0
  6
BYLAYER
 62
     1
 10
342.952218
 20
-186.174061
 30
0.0
 40
125.000069
 50
45.000001
 51
50.605046
  0
ARC
  8
0
  6
BYLAYER
 62
     1
 10
342.952218
 20
-186.174061
 30
0.0
 40
125.000069
 50
129.394942
 51
135.000000
  0
ARC
  8
0
  6
BYLAYER
 62
     1
 10
342.952218
 20
-186.174061
 30
0.0
 40
125.0
 50
174.394947
 51
179.999991
  0
ARC
  8
0
  6
BYLAYER
 62
     1
 10
342.952218
 20
-186.174061
 30
0.0
 40
124.999901
 50
309.394947
 51
315.000019
  0
ARC
  8
0
  6
BYLAYER
 62
     1
 10
342.952218
 20
-186.174061
 30
0.0
 40
125.0
 50
354.394938
 51
359.999983
  0
ARC
  8
0
  6
BYLAYER
 62
     1
 10
342.952218
 20
-186.174061
 30
0.0
 40
125.000069
 50
39.394929
 51
45.000001
  0
ARC
  8
0
  6
BYLAYER
 62
     1
 10
464.368905
 20
-174.258290
 30
0.0
 40
2.999997
 50
5.604860
 51
45.565363
  0
ARC
  8
0
  6
BYLAYER
 62
     1
 10
437.232552
 20
-108.745350
 30
0.0
 40
3.000035
 50
359.435755
 51
399.394615
  0
ARC
  8
0
  6
BYLAYER
 62
     1
 10
342.952218
 20
-186.174061
 30
0.0
 40
125.0
 50
264.394956
 51
270.000001
  0
ARC
  8
0
  6
BYLAYER
 62
     1
 10
266.415597
 20
-370.949940
 30
0.0
 40
87.500038
 50
44.435257
 51
90.564852
  0
ARC
  8
0
  6
BYLAYER
 62
     1
 10
331.036385
 20
-307.590687
 30
0.0
 40
3.000057
 50
224.435303
 51
264.394956
  0
ARC
  8
0
  6
BYLAYER
 62
     1
 10
342.952218
 20
-186.174061
 30
0.0
 40
125.0
 50
270.0
 51
275.605071
  0
ARC
  8
0
  6
BYLAYER
 62
     1
 10
419.488961
 20
-370.949940
 30
0.0
 40
87.500099
 50
89.435187
 51
135.564843
  0
ARC
  8
0
  6
BYLAYER
 62
     1
 10
354.868051
 20
-307.590687
 30
0.0
 40
3.000063
 50
275.605072
 51
315.564739
  0
ARC
  8
0
  6
BYLAYER
 62
     1
 10
342.952218
 20
-186.174061
 30
0.0
 40
124.999985
 50
219.394938
 51
224.999996
  0
ARC
  8
0
  6
BYLAYER
 62
     1
 10
158.176278
 20
-262.710682
 30
0.0
 40
87.500000
 50
359.435154
 51
405.564824
  0
ARC
  8
0
  6
BYLAYER
 62
     1
 10
248.671884
 20
-263.602772
 30
0.0
 40
3.000035
 50
179.435217
 51
219.394938
  0
ARC
  8
0
  6
BYLAYER
 62
     1
 10
342.952218
 20
-186.174061
 30
0.0
 40
84.000099
 50
22.500098
 51
90.000003
  0
ARC
  8
0
  6
BYLAYER
 62
     1
 10
342.952218
 20
-186.174061
 30
0.0
 40
84.000122
 50
90.000003
 51
382.500094
  0
ARC
  8
0
  6
BYLAYER
 62
     1
 10
455.730172
 20
-153.870106
 30
0.0
 40
3.000030
 50
158.015894
 51
211.564508
  0
ARC
  8
0
  6
BYLAYER
 62
     1
 10
438.111764
 20
-146.757557
 30
0.0
 40
15.999915
 50
338.015707
 51
426.984024
  0
ARC
  8
0
  6
BYLAYER
 62
     1
 10
445.540536
 20
-129.270008
 30
0.0
 40
3.000043
 50
193.434891
 51
246.983711
  0
LINE
  8
0
  6
BYLAYER
 62
     1
 10
311.742257
 20
-55.174061
 30
0.0
 11
374.162240
 21
-55.174061
 31
0.0
  0
ARC
  8
0
  6
BYLAYER
 62
     1
 10
311.742257
 20
-58.174061
 30
0.0
 40
3.000000
 50
90.0
 51
103.703477
  0
ARC
  8
0
  6
BYLAYER
 62
     1
 10
374.162240
 20
-58.174061
 30
0.0
 40
3.0
 50
76.296516
 51
90.0
  0
LINE
  8
0
  6
BYLAYER
 62
     1
 10
228.252450
 20
-115.611805
 30
0.0
 11
272.390023
 21
-71.474110
 31
0.0
  0
LINE
  8
0
  6
BYLAYER
 62
     1
 10
211.952218
 20
-217.384022
 30
0.0
 11
211.952218
 21
-154.963978
 31
0.0
  0
LINE
  8
0
  6
BYLAYER
 62
     1
 10
272.390023
 20
-300.873768
 30
0.0
 11
228.252389
 21
-256.736195
 31
0.0
  0
LINE
  8
0
  6
BYLAYER
 62
     1
 10
374.162179
 20
-317.174061
 30
0.0
 11
311.742196
 21
-317.174061
 31
0.0
  0
LINE
  8
0
  6
BYLAYER
 62
     1
 10
457.651986
 20
-256.736195
 30
0.0
 11
413.514413
 21
-300.873768
 31
0.0
  0
LINE
  8
0
  6
BYLAYER
 62
     1
 10
473.952218
 20
-154.964100
 30
0.0
 11
473.952218
 21
-217.384022
 31
0.0
  0
LINE
  8
0
  6
BYLAYER
 62
     1
 10
413.514474
 20
-71.474232
 30
0.0
 11
457.652047
 21
-115.611805
 31
0.0
  0
ARC
  8
0
  6
BYLAYER
 62
     1
 10
214.952218
 20
-154.964100
 30
0.0
 40
3.0
 50
166.296510
 51
180.0
  0
ARC
  8
0
  6
BYLAYER
 62
     1
 10
342.952218
 20
-186.174061
 30
0.0
 40
134.749969
 50
148.702944
 51
166.297061
  0
ARC
  8
0
  6
BYLAYER
 62
     1
 10
230.373727
 20
-117.733143
 30
0.0
 40
2.999925
 50
134.999181
 51
148.702780
  0
ARC
  8
0
  6
BYLAYER
 62
     1
 10
342.952218
 20
-186.174061
 30
0.0
 40
134.750061
 50
103.702940
 51
121.297138
  0
ARC
  8
0
  6
BYLAYER
 62
     1
 10
274.511239
 20
-73.595692
 30
0.0
 40
3.000025
 50
121.297603
 51
135.000000
  0
ARC
  8
0
  6
BYLAYER
 62
     1
 10
214.952218
 20
-217.384022
 30
0.0
 40
3.000008
 50
180.000000
 51
193.702903
  0
ARC
  8
0
  6
BYLAYER
 62
     1
 10
342.952218
 20
-186.174061
 30
0.0
 40
134.750000
 50
193.702935
 51
211.297093
  0
ARC
  8
0
  6
BYLAYER
 62
     1
 10
230.373788
 20
-254.614979
 30
0.0
 40
3.000025
 50
211.297107
 51
224.999996
  0
ARC
  8
0
  6
BYLAYER
 62
     1
 10
342.952218
 20
-186.174061
 30
0.0
 40
134.749924
 50
238.702954
 51
256.297002
  0
ARC
  8
0
  6
BYLAYER
 62
     1
 10
311.742135
 20
-314.174061
 30
0.0
 40
2.999949
 50
256.296510
 51
270.000001
  0
ARC
  8
0
  6
BYLAYER
 62
     1
 10
374.162240
 20
-314.174061
 30
0.0
 40
3.0
 50
270.0
 51
283.702343
  0
ARC
  8
0
  6
BYLAYER
 62
     1
 10
342.952218
 20
-186.174061
 30
0.0
 40
134.749939
 50
283.702945
 51
301.297075
  0
ARC
  8
0
  6
BYLAYER
 62
     1
 10
411.393136
 20
-298.752430
 30
0.0
 40
3.000009
 50
301.296911
 51
315.000402
  0
ARC
  8
0
  6
BYLAYER
 62
     1
 10
455.530770
 20
-254.614735
 30
0.0
 40
2.999982
 50
314.999582
 51
328.702772
  0
ARC
  8
0
  6
BYLAYER
 62
     1
 10
342.952218
 20
-186.174061
 30
0.0
 40
134.749969
 50
328.70299
 51
346.297066
  0
ARC
  8
0
  6
BYLAYER
 62
     1
 10
470.952218
 20
-217.384022
 30
0.0
 40
2.999979
 50
346.297093
 51
360.000000
  0
ARC
  8
0
  6
BYLAYER
 62
     1
 10
470.952218
 20
-154.964100
 30
0.0
 40
3.000000
 50
0.0
 51
13.703481
  0
ARC
  8
0
  6
BYLAYER
 62
     1
 10
342.952218
 20
-186.174061
 30
0.0
 40
134.750000
 50
13.702938
 51
31.297053
  0
ARC
  8
0
  6
BYLAYER
 62
     1
 10
455.530709
 20
-117.733143
 30
0.0
 40
2.999925
 50
31.297218
 51
45.000824
  0
ARC
  8
0
  6
BYLAYER
 62
     1
 10
342.952218
 20
-186.174061
 30
0.0
 40
134.750092
 50
58.702901
 51
76.297038
  0
CIRCLE
  8
0
  6
BYLAYER
 62
     1
 10
342.952218
 20
-186.174061
 30
0.0
 40
90.000053
  0
ARC
  8
0
  6
BYLAYER
 62
     1
 10
527.728158
 20
-262.710682
 30
0.0
 40
87.5
 50
134.435212
 51
180.564889
  0
ARC
  8
0
  6
BYLAYER
 62
     1
 10
527.728158
 20
-109.637440
 30
0.0
 40
87.5
 50
202.499864
 51
225.564825
  0
ARC
  8
0
  6
BYLAYER
 62
     1
 10
527.728158
 20
-109.637440
 30
0.0
 40
87.500008
 50
179.435189
 51
202.499864
  0
ARC
  8
0
  6
BYLAYER
 62
     1
 10
322.839719
 20
-41.534282
 30
0.0
 40
4.041492
 50
270.0
 51
316.109984
  0
ARC
  8
0
  6
BYLAYER
 62
     1
 10
322.427678
 20
-41.137905
 30
0.0
 40
4.613237
 50
316.109984
 51
360.000000
  0
ARC
  8
0
  6
BYLAYER
 62
     1
 10
322.427678
 20
-41.137905
 30
0.0
 40
4.613237
 50
0.0
 51
43.890016
  0
ARC
  8
0
  6
BYLAYER
 62
     1
 10
322.839719
 20
-40.741527
 30
0.0
 40
4.041492
 50
43.890016
 51
90.000000
  0
ARC
  8
0
  6
BYLAYER
 62
     1
 10
322.839719
 20
-40.741492
 30
0.0
 40
4.041457
 50
90.0
 51
136.110087
  0
ARC
  8
0
  6
BYLAYER
 62
     1
 10
323.251798
 20
-41.137905
 30
0.0
 40
4.613254
 50
136.110087
 51
180.000000
  0
ARC
  8
0
  6
BYLAYER
 62
     1
 10
323.251798
 20
-41.137905
 30
0.0
 40
4.613254
 50
180.000000
 51
223.889913
  0
ARC
  8
0
  6
BYLAYER
 62
     1
 10
322.839719
 20
-41.534317
 30
0.0
 40
4.041457
 50
223.889913
 51
270.000000
  0
ARC
  8
0
  6
BYLAYER
 62
     1
 10
322.839719
 20
-39.957494
 30
0.0
 40
1.861645
 50
90.0
 51
140.793201
  0
ARC
  8
0
  6
BYLAYER
 62
     1
 10
324.286696
 20
-41.137905
 30
0.0
 40
3.729026
 50
140.793201
 51
180.000000
  0
ARC
  8
0
  6
BYLAYER
 62
     1
 10
324.286673
 20
-41.137905
 30
0.0
 40
3.729004
 50
180.000000
 51
219.206869
  0
ARC
  8
0
  6
BYLAYER
 62
     1
 10
322.839719
 20
-42.318301
 30
0.0
 40
1.861650
 50
219.206869
 51
270.0
  0
ARC
  8
0
  6
BYLAYER
 62
     1
 10
322.839719
 20
-42.318301
 30
0.0
 40
1.861650
 50
270.0
 51
320.793131
  0
ARC
  8
0
  6
BYLAYER
 62
     1
 10
321.392765
 20
-41.137905
 30
0.0
 40
3.729004
 50
320.793131
 51
360.000000
  0
ARC
  8
0
  6
BYLAYER
 62
     1
 10
321.392743
 20
-41.137905
 30
0.0
 40
3.729026
 50
0.0
 51
39.206799
  0
ARC
  8
0
  6
BYLAYER
 62
     1
 10
322.839719
 20
-39.957494
 30
0.0
 40
1.861645
 50
39.206799
 51
90.000000
  0
LINE
  8
0
  6
BYLAYER
 62
     1
 10
309.052744
 20
-45.279906
 30
0.0
 11
309.052744
 21
-36.877535
 31
0.0
  0
LINE
  8
0
  6
BYLAYER
 62
     1
 10
309.052744
 20
-36.877535
 30
0.0
 11
312.468918
 21
-36.877535
 31
0.0
  0
LINE
  8
0
  6
BYLAYER
 62
     1
 10
312.468918
 20
-36.877535
 30
0.0
 11
313.608961
 21
-41.256252
 31
0.0
  0
LINE
  8
0
  6
BYLAYER
 62
     1
 10
309.052744
 20
-45.279906
 30
0.0
 11
311.104038
 21
-45.279906
 31
0.0
  0
LINE
  8
0
  6
BYLAYER
 62
     1
 10
311.104038
 20
-45.279906
 30
0.0
 11
311.104038
 21
-40.427843
 31
0.0
  0
LINE
  8
0
  6
BYLAYER
 62
     1
 10
312.721378
 20
-45.279906
 30
0.0
 11
311.104038
 21
-40.427843
 31
0.0
  0
LINE
  8
0
  6
BYLAYER
 62
     1
 10
318.165177
 20
-45.279906
 30
0.0
 11
318.165177
 21
-36.877535
 31
0.0
  0
LINE
  8
0
  6
BYLAYER
 62
     1
 10
318.165177
 20
-36.877535
 30
0.0
 11
314.749003
 21
-36.877535
 31
0.0
  0
LINE
  8
0
  6
BYLAYER
 62
     1
 10
314.749003
 20
-36.877535
 30
0.0
 11
313.608961
 21
-41.256252
 31
0.0
  0
LINE
  8
0
  6
BYLAYER
 62
     1
 10
318.165177
 20
-45.279906
 30
0.0
 11
316.113883
 21
-45.279906
 31
0.0
  0
LINE
  8
0
  6
BYLAYER
 62
     1
 10
316.113883
 20
-45.279906
 30
0.0
 11
316.113883
 21
-40.427843
 31
0.0
  0
LINE
  8
0
  6
BYLAYER
 62
     1
 10
314.496543
 20
-45.279906
 30
0.0
 11
316.113883
 21
-40.427843
 31
0.0
  0
LINE
  8
0
  6
BYLAYER
 62
     1
 10
314.496543
 20
-45.279906
 30
0.0
 11
312.721378
 21
-45.279906
 31
0.0
  0
LINE
  8
0
  6
BYLAYER
 62
     1
 10
348.224354
 20
-45.279906
 30
0.0
 11
351.419599
 21
-36.877535
 31
0.0
  0
LINE
  8
0
  6
BYLAYER
 62
     1
 10
348.224354
 20
-45.279906
 30
0.0
 11
350.946253
 21
-45.279906
 31
0.0
  0
LINE
  8
0
  6
BYLAYER
 62
     1
 10
351.419599
 20
-36.877535
 30
0.0
 11
354.023151
 21
-36.877535
 31
0.0
  0
LINE
  8
0
  6
BYLAYER
 62
     1
 10
350.946253
 20
-45.279906
 30
0.0
 11
351.349702
 21
-44.096477
 31
0.0
  0
LINE
  8
0
  6
BYLAYER
 62
     1
 10
351.995185
 20
-42.202987
 30
0.0
 11
352.721375
 21
-40.072802
 31
0.0
  0
LINE
  8
0
  6
BYLAYER
 62
     1
 10
357.218440
 20
-45.279906
 30
0.0
 11
354.023151
 21
-36.877535
 31
0.0
  0
LINE
  8
0
  6
BYLAYER
 62
     1
 10
357.218440
 20
-45.279906
 30
0.0
 11
354.496540
 21
-45.279906
 31
0.0
  0
LINE
  8
0
  6
BYLAYER
 62
     1
 10
354.093092
 20
-44.096477
 30
0.0
 11
351.349702
 21
-44.096477
 31
0.0
  0
LINE
  8
0
  6
BYLAYER
 62
     1
 10
353.447565
 20
-42.202987
 30
0.0
 11
351.995185
 21
-42.202987
 31
0.0
  0
LINE
  8
0
  6
BYLAYER
 62
     1
 10
354.496540
 20
-45.279906
 30
0.0
 11
354.093092
 21
-44.096477
 31
0.0
  0
LINE
  8
0
  6
BYLAYER
 62
     1
 10
353.447565
 20
-42.202987
 30
0.0
 11
352.721375
 21
-40.072802
 31
0.0
  0
LINE
  8
0
  6
BYLAYER
 62
     1
 10
327.040916
 20
-38.948546
 30
0.0
 11
329.407774
 21
-38.948546
 31
0.0
  0
LINE
  8
0
  6
BYLAYER
 62
     1
 10
329.407774
 20
-38.948546
 30
0.0
 11
329.407774
 21
-45.279906
 31
0.0
  0
LINE
  8
0
  6
BYLAYER
 62
     1
 10
329.407774
 20
-45.279906
 30
0.0
 11
332.011347
 21
-45.279906
 31
0.0
  0
LINE
  8
0
  6
BYLAYER
 62
     1
 10
332.011347
 20
-45.279906
 30
0.0
 11
332.011347
 21
-38.948546
 31
0.0
  0
LINE
  8
0
  6
BYLAYER
 62
     1
 10
332.011347
 20
-38.948546
 30
0.0
 11
334.378205
 21
-38.948546
 31
0.0
  0
LINE
  8
0
  6
BYLAYER
 62
     1
 10
334.378205
 20
-38.948546
 30
0.0
 11
334.378205
 21
-36.877535
 31
0.0
  0
LINE
  8
0
  6
BYLAYER
 62
     1
 10
334.378205
 20
-36.877535
 30
0.0
 11
327.040916
 21
-36.877535
 31
0.0
  0
LINE
  8
0
  6
BYLAYER
 62
     1
 10
327.040916
 20
-36.877535
 30
0.0
 11
327.040916
 21
-38.948546
 31
0.0
  0
ARC
  8
0
  6
BYLAYER
 62
     1
 10
338.579380
 20
-41.534317
 30
0.0
 40
4.041457
 50
270.0
 51
316.110087
  0
ARC
  8
0
  6
BYLAYER
 62
     1
 10
338.167301
 20
-41.137905
 30
0.0
 40
4.613254
 50
316.110087
 51
360.0
  0
ARC
  8
0
  6
BYLAYER
 62
     1
 10
338.167318
 20
-41.137905
 30
0.0
 40
4.613237
 50
0.0
 51
43.890016
  0
ARC
  8
0
  6
BYLAYER
 62
     1
 10
338.579359
 20
-40.741527
 30
0.0
 40
4.041492
 50
43.890016
 51
90.000000
  0
ARC
  8
0
  6
BYLAYER
 62
     1
 10
338.579359
 20
-40.741492
 30
0.0
 40
4.041457
 50
90.0
 51
136.110087
  0
ARC
  8
0
  6
BYLAYER
 62
     1
 10
338.991437
 20
-41.137905
 30
0.0
 40
4.613254
 50
136.110087
 51
180.0
  0
ARC
  8
0
  6
BYLAYER
 62
     1
 10
338.991421
 20
-41.137905
 30
0.0
 40
4.613237
 50
180.000000
 51
223.890016
  0
ARC
  8
0
  6
BYLAYER
 62
     1
 10
338.579380
 20
-41.534282
 30
0.0
 40
4.041492
 50
223.890016
 51
270.000000
  0
ARC
  8
0
  6
BYLAYER
 62
     1
 10
338.579359
 20
-39.957494
 30
0.0
 40
1.861645
 50
90.0
 51
140.793201
  0
ARC
  8
0
  6
BYLAYER
 62
     1
 10
340.026335
 20
-41.137905
 30
0.0
 40
3.729026
 50
140.793201
 51
180.000000
  0
ARC
  8
0
  6
BYLAYER
 62
     1
 10
340.026288
 20
-41.137905
 30
0.0
 40
3.728979
 50
180.000000
 51
219.207055
  0
ARC
  8
0
  6
BYLAYER
 62
     1
 10
338.579380
 20
-42.318271
 30
0.0
 40
1.861680
 50
219.207055
 51
270.000000
  0
ARC
  8
0
  6
BYLAYER
 62
     1
 10
338.579380
 20
-42.318301
 30
0.0
 40
1.861650
 50
270.0
 51
320.793131
  0
ARC
  8
0
  6
BYLAYER
 62
     1
 10
337.132426
 20
-41.137905
 30
0.0
 40
3.729004
 50
320.793131
 51
360.000000
  0
ARC
  8
0
  6
BYLAYER
 62
     1
 10
337.132428
 20
-41.137905
 30
0.0
 40
3.729001
 50
0.0
 51
39.206985
  0
ARC
  8
0
  6
BYLAYER
 62
     1
 10
338.579359
 20
-39.957524
 30
0.0
 40
1.861675
 50
39.206985
 51
90.0
  0
LINE
  8
0
  6
BYLAYER
 62
     1
 10
357.445222
 20
-45.279906
 30
0.0
 11
357.445222
 21
-36.877535
 31
0.0
  0
LINE
  8
0
  6
BYLAYER
 62
     1
 10
357.445222
 20
-36.877535
 30
0.0
 11
362.652305
 21
-36.877535
 31
0.0
  0
ARC
  8
0
  6
BYLAYER
 62
     1
 10
362.652305
 20
-39.244414
 30
0.0
 40
2.366854
 50
287.134650
 51
450.000006
  0
ARC
  8
0
  6
BYLAYER
 62
     1
 10
363.125694
 20
-43.386416
 30
0.0
 40
1.893491
 50
0.0
 51
83.207557
  0
LINE
  8
0
  6
BYLAYER
 62
     1
 10
365.019184
 20
-43.386416
 30
0.0
 11
365.019184
 21
-44.569845
 31
0.0
  0
ARC
  8
0
  6
BYLAYER
 62
     1
 10
366.912675
 20
-44.569845
 30
0.0
 40
1.893491
 50
180.000000
 51
202.024314
  0
LINE
  8
0
  6
BYLAYER
 62
     1
 10
362.553803
 20
-45.279906
 30
0.0
 11
365.157356
 21
-45.279906
 31
0.0
  0
ARC
  8
0
  6
BYLAYER
 62
     1
 10
364.309123
 20
-44.569845
 30
0.0
 40
1.893491
 50
180.000000
 51
202.024314
  0
LINE
  8
0
  6
BYLAYER
 62
     1
 10
362.415632
 20
-44.569845
 30
0.0
 11
362.415632
 21
-43.623110
 31
0.0
  0
LINE
  8
0
  6
BYLAYER
 62
     1
 10
357.445222
 20
-45.279906
 30
0.0
 11
359.930427
 21
-45.279906
 31
0.0
  0
LINE
  8
0
  6
BYLAYER
 62
     1
 10
359.930427
 20
-45.279906
 30
0.0
 11
359.930427
 21
-42.439681
 31
0.0
  0
LINE
  8
0
  6
BYLAYER
 62
     1
 10
361.232203
 20
-42.439681
 30
0.0
 11
359.930427
 21
-42.439681
 31
0.0
  0
ARC
  8
0
  6
BYLAYER
 62
     1
 10
361.232203
 20
-43.623110
 30
0.0
 40
1.183429
 50
0.0
 51
90.000003
  0
LINE
  8
0
  6
BYLAYER
 62
     1
 10
359.930427
 20
-40.546190
 30
0.0
 11
359.930427
 21
-38.771026
 31
0.0
  0
LINE
  8
0
  6
BYLAYER
 62
     1
 10
359.930427
 20
-38.771026
 30
0.0
 11
361.587223
 21
-38.771026
 31
0.0
  0
LINE
  8
0
  6
BYLAYER
 62
     1
 10
359.930427
 20
-40.546190
 30
0.0
 11
361.587223
 21
-40.546190
 31
0.0
  0
ARC
  8
0
  6
BYLAYER
 62
     1
 10
361.587223
 20
-39.658608
 30
0.0
 40
0.887582
 50
270.0
 51
450.000005
  0
LINE
  8
0
  6
BYLAYER
 62
     1
 10
346.153364
 20
-42.622991
 30
0.0
 11
344.614893
 21
-36.877535
 31
0.0
  0
LINE
  8
0
  6
BYLAYER
 62
     1
 10
344.614893
 20
-36.877535
 30
0.0
 11
342.129688
 21
-36.877535
 31
0.0
  0
LINE
  8
0
  6
BYLAYER
 62
     1
 10
342.129688
 20
-36.877535
 30
0.0
 11
344.733240
 21
-45.279906
 31
0.0
  0
LINE
  8
0
  6
BYLAYER
 62
     1
 10
346.153364
 20
-42.622991
 30
0.0
 11
347.691792
 21
-36.877535
 31
0.0
  0
LINE
  8
0
  6
BYLAYER
 62
     1
 10
347.691792
 20
-36.877535
 30
0.0
 11
350.176997
 21
-36.877535
 31
0.0
  0
LINE
  8
0
  6
BYLAYER
 62
     1
 10
350.176997
 20
-36.877535
 30
0.0
 11
347.573444
 21
-45.279906
 31
0.0
  0
LINE
  8
0
  6
BYLAYER
 62
     1
 10
347.573444
 20
-45.279906
 30
0.0
 11
344.733240
 21
-45.279906
 31
0.0
  0
LINE
  8
0
  6
BYLAYER
 62
     1
 10
365.384138
 20
-45.279906
 30
0.0
 11
367.869343
 21
-45.279906
 31
0.0
  0
LINE
  8
0
  6
BYLAYER
 62
     1
 10
367.869343
 20
-45.279906
 30
0.0
 11
367.869343
 21
-36.877535
 31
0.0
  0
LINE
  8
0
  6
BYLAYER
 62
     1
 10
367.869343
 20
-36.877535
 30
0.0
 11
365.384138
 21
-36.877535
 31
0.0
  0
LINE
  8
0
  6
BYLAYER
 62
     1
 10
365.384138
 20
-36.877535
 30
0.0
 11
365.384138
 21
-45.279906
 31
0.0
  0
ARC
  8
0
  6
BYLAYER
 62
     1
 10
372.543907
 20
-41.534317
 30
0.0
 40
4.041457
 50
270.0
 51
316.110087
  0
ARC
  8
0
  6
BYLAYER
 62
     1
 10
372.131828
 20
-41.137905
 30
0.0
 40
4.613254
 50
316.110087
 51
360.000000
  0
ARC
  8
0
  6
BYLAYER
 62
     1
 10
372.131828
 20
-41.137905
 30
0.0
 40
4.613254
 50
0.0
 51
43.889913
  0
ARC
  8
0
  6
BYLAYER
 62
     1
 10
372.543907
 20
-40.741492
 30
0.0
 40
4.041457
 50
43.889913
 51
90.0
  0
ARC
  8
0
  6
BYLAYER
 62
     1
 10
372.543907
 20
-40.741492
 30
0.0
 40
4.041457
 50
90.0
 51
136.110087
  0
ARC
  8
0
  6
BYLAYER
 62
     1
 10
372.955985
 20
-41.137905
 30
0.0
 40
4.613254
 50
136.110087
 51
180.0
  0
ARC
  8
0
  6
BYLAYER
 62
     1
 10
372.955985
 20
-41.137905
 30
0.0
 40
4.613254
 50
180.000000
 51
223.889913
  0
ARC
  8
0
  6
BYLAYER
 62
     1
 10
372.543907
 20
-41.534317
 30
0.0
 40
4.041457
 50
223.889913
 51
270.000000
  0
ARC
  8
0
  6
BYLAYER
 62
     1
 10
372.543907
 20
-39.957494
 30
0.0
 40
1.861645
 50
39.206799
 51
90.000000
  0
ARC
  8
0
  6
BYLAYER
 62
     1
 10
371.096930
 20
-41.137905
 30
0.0
 40
3.729026
 50
0.0
 51
39.206799
  0
ARC
  8
0
  6
BYLAYER
 62
     1
 10
371.096952
 20
-41.137905
 30
0.0
 40
3.729004
 50
320.793131
 51
360.000000
  0
ARC
  8
0
  6
BYLAYER
 62
     1
 10
372.543907
 20
-42.318301
 30
0.0
 40
1.861650
 50
270.0
 51
320.793131
  0
ARC
  8
0
  6
BYLAYER
 62
     1
 10
372.543907
 20
-42.318301
 30
0.0
 40
1.861650
 50
219.206869
 51
270.0
  0
ARC
  8
0
  6
BYLAYER
 62
     1
 10
373.990861
 20
-41.137905
 30
0.0
 40
3.729004
 50
180.000000
 51
219.206869
  0
ARC
  8
0
  6
BYLAYER
 62
     1
 10
373.990883
 20
-41.137905
 30
0.0
 40
3.729026
 50
140.793201
 51
180.000000
  0
ARC
  8
0
  6
BYLAYER
 62
     1
 10
372.543907
 20
-39.957494
 30
0.0
 40
1.861645
 50
90.0
 51
140.793201
  0
ARC
  8
0
  6
BYLAYER
 62
     1
 10
330.583298
 20
-27.258516
 30
0.0
 40
10.401993
 50
174.535650
 51
180.000000
  0
LINE
  8
0
  6
BYLAYER
 62
     1
 10
320.228573
 20
-26.267968
 30
0.0
 11
320.228573
 21
-26.267957
 31
0.0
  0
LINE
  8
0
  6
BYLAYER
 62
     1
 10
320.239892
 20
-26.156065
 30
0.0
 11
321.232635
 21
-25.738105
 31
0.0
  0
ARC
  8
0
  6
BYLAYER
 62
     1
 10
330.583341
 20
-27.258602
 30
0.0
 40
9.473494
 50
159.235383
 51
170.763998
  0
LINE
  8
0
  6
BYLAYER
 62
     1
 10
321.725157
 20
-23.899911
 30
0.0
 11
321.074438
 21
-23.041552
 31
0.0
  0
ARC
  8
0
  6
BYLAYER
 62
     1
 10
330.583298
 20
-27.258516
 30
0.0
 40
10.401981
 50
144.139514
 51
156.083795
  0
LINE
  8
0
  6
BYLAYER
 62
     1
 10
322.084647
 20
-21.260643
 30
0.0
 11
322.085267
 21
-21.259768
 31
0.0
  0
LINE
  8
0
  6
BYLAYER
 62
     1
 10
322.153056
 20
-21.164895
 30
0.0
 11
323.209951
 21
-21.310305
 31
0.0
  0
ARC
  8
0
  6
BYLAYER
 62
     1
 10
330.583298
 20
-27.258516
 30
0.0
 40
9.473437
 50
129.235643
 51
141.105976
  0
LINE
  8
0
  6
BYLAYER
 62
     1
 10
324.436338
 20
-20.050116
 30
0.0
 11
324.437363
 21
-20.049230
 31
0.0
  0
LINE
  8
0
  6
BYLAYER
 62
     1
 10
324.591243
 20
-19.920855
 30
0.0
 11
324.456852
 21
-18.852085
 31
0.0
  0
ARC
  8
0
  6
BYLAYER
 62
     1
 10
330.583298
 20
-27.258516
 30
0.0
 40
10.401992
 50
114.139607
 51
126.083853
  0
LINE
  8
0
  6
BYLAYER
 62
     1
 10
326.222932
 20
-17.814541
 30
0.0
 11
326.223637
 21
-17.814209
 31
0.0
  0
LINE
  8
0
  6
BYLAYER
 62
     1
 10
326.329286
 20
-17.766161
 30
0.0
 11
327.171846
 21
-18.420513
 31
0.0
  0
LINE
  8
0
  6
BYLAYER
 62
     1
 10
327.364490
 20
-18.348662
 30
0.0
 11
327.365559
 21
-18.348288
 31
0.0
  0
ARC
  8
0
  6
BYLAYER
 62
     1
 10
330.583298
 20
-27.258516
 30
0.0
 40
9.473434
 50
99.235601
 51
111.106038
  0
ARC
  8
0
  6
BYLAYER
 62
     1
 10
330.583298
 20
-27.258516
 30
0.0
 40
10.401993
 50
90.0
 51
96.083892
  0
LINE
  8
0
  6
BYLAYER
 62
     1
 10
329.480848
 20
-16.915110
 30
0.0
 11
329.062864
 21
-17.907889
 31
0.0
  0
LINE
  8
0
  6
BYLAYER
 62
     1
 10
340.938013
 20
-26.267968
 30
0.0
 11
340.938013
 21
-26.267957
 31
0.0
  0
LINE
  8
0
  6
BYLAYER
 62
     1
 10
340.926705
 20
-26.156063
 30
0.0
 11
339.933911
 21
-25.738095
 31
0.0
  0
ARC
  8
0
  6
BYLAYER
 62
     1
 10
330.583234
 20
-27.258602
 30
0.0
 40
9.473494
 50
9.235986
 51
20.764650
  0
LINE
  8
0
  6
BYLAYER
 62
     1
 10
339.441488
 20
-23.899812
 30
0.0
 11
340.092160
 21
-23.041554
 31
0.0
  0
ARC
  8
0
  6
BYLAYER
 62
     1
 10
330.583298
 20
-27.258516
 30
0.0
 40
10.401981
 50
23.916189
 51
35.860484
  0
LINE
  8
0
  6
BYLAYER
 62
     1
 10
339.081928
 20
-21.260643
 30
0.0
 11
339.081309
 21
-21.259768
 31
0.0
  0
LINE
  8
0
  6
BYLAYER
 62
     1
 10
339.013541
 20
-21.164895
 30
0.0
 11
337.956720
 21
-21.310291
 31
0.0
  0
ARC
  8
0
  6
BYLAYER
 62
     1
 10
330.583298
 20
-27.258516
 30
0.0
 40
9.473437
 50
38.894050
 51
50.764315
  0
LINE
  8
0
  6
BYLAYER
 62
     1
 10
336.730259
 20
-20.050116
 30
0.0
 11
336.729233
 21
-20.049230
 31
0.0
  0
LINE
  8
0
  6
BYLAYER
 62
     1
 10
336.575382
 20
-19.920683
 30
0.0
 11
336.709723
 21
-18.852069
 31
0.0
  0
ARC
  8
0
  6
BYLAYER
 62
     1
 10
330.583298
 20
-27.258516
 30
0.0
 40
10.401992
 50
53.916300
 51
65.860381
  0
LINE
  8
0
  6
BYLAYER
 62
     1
 10
334.943665
 20
-17.814541
 30
0.0
 11
334.942939
 21
-17.814209
 31
0.0
  0
LINE
  8
0
  6
BYLAYER
 62
     1
 10
334.837313
 20
-17.766162
 30
0.0
 11
333.994761
 21
-18.420484
 31
0.0
  0
LINE
  8
0
  6
BYLAYER
 62
     1
 10
333.802085
 20
-18.348662
 30
0.0
 11
333.801038
 21
-18.348288
 31
0.0
  0
ARC
  8
0
  6
BYLAYER
 62
     1
 10
330.583298
 20
-27.258516
 30
0.0
 40
9.473434
 50
68.894081
 51
80.764578
  0
ARC
  8
0
  6
BYLAYER
 62
     1
 10
330.583298
 20
-27.258516
 30
0.0
 40
10.401993
 50
84.535428
 51
90.000003
  0
LINE
  8
0
  6
BYLAYER
 62
     1
 10
331.685752
 20
-16.915110
 30
0.0
 11
332.103634
 21
-17.907720
 31
0.0
  0
ARC
  8
0
  6
BYLAYER
 62
     1
 10
330.583298
 20
-27.258516
 30
0.0
 40
10.401993
 50
180.000000
 51
186.083899
  0
LINE
  8
0
  6
BYLAYER
 62
     1
 10
320.228573
 20
-28.249054
 30
0.0
 11
320.228573
 21
-28.249076
 31
0.0
  0
LINE
  8
0
  6
BYLAYER
 62
     1
 10
320.239892
 20
-28.360968
 30
0.0
 11
321.232665
 21
-28.778940
 31
0.0
  0
ARC
  8
0
  6
BYLAYER
 62
     1
 10
330.583341
 20
-27.258431
 30
0.0
 40
9.473494
 50
189.236002
 51
200.764629
  0
LINE
  8
0
  6
BYLAYER
 62
     1
 10
321.725191
 20
-30.617079
 30
0.0
 11
321.074435
 21
-31.475473
 31
0.0
  0
ARC
  8
0
  6
BYLAYER
 62
     1
 10
330.583298
 20
-27.258516
 30
0.0
 40
10.401981
 50
203.916158
 51
215.86041
  0
LINE
  8
0
  6
BYLAYER
 62
     1
 10
322.084647
 20
-33.256379
 30
0.0
 11
322.085267
 21
-33.257255
 31
0.0
  0
LINE
  8
0
  6
BYLAYER
 62
     1
 10
322.153048
 20
-33.352127
 30
0.0
 11
323.210043
 21
-33.206719
 31
0.0
  0
ARC
  8
0
  6
BYLAYER
 62
     1
 10
330.583298
 20
-27.258516
 30
0.0
 40
9.473437
 50
218.894045
 51
230.764345
  0
LINE
  8
0
  6
BYLAYER
 62
     1
 10
324.436338
 20
-34.466906
 30
0.0
 11
324.437363
 21
-34.467792
 31
0.0
  0
LINE
  8
0
  6
BYLAYER
 62
     1
 10
324.591241
 20
-34.596177
 30
0.0
 11
324.456852
 21
-35.664948
 31
0.0
  0
ARC
  8
0
  6
BYLAYER
 62
     1
 10
330.583298
 20
-27.258516
 30
0.0
 40
10.401992
 50
233.916148
 51
245.860401
  0
LINE
  8
0
  6
BYLAYER
 62
     1
 10
326.222932
 20
-36.702482
 30
0.0
 11
326.223637
 21
-36.702823
 31
0.0
  0
LINE
  8
0
  6
BYLAYER
 62
     1
 10
326.329287
 20
-36.750872
 30
0.0
 11
327.171946
 21
-36.096428
 31
0.0
  0
LINE
  8
0
  6
BYLAYER
 62
     1
 10
327.364490
 20
-36.168360
 30
0.0
 11
327.365559
 21
-36.168744
 31
0.0
  0
LINE
  8
0
  6
BYLAYER
 62
     1
 10
340.938013
 20
-28.249054
 30
0.0
 11
340.938013
 21
-28.249076
 31
0.0
  0
LINE
  8
0
  6
BYLAYER
 62
     1
 10
340.926704
 20
-28.360970
 30
0.0
 11
339.933911
 21
-28.778938
 31
0.0
  0
LINE
  8
0
  6
BYLAYER
 62
     1
 10
339.441397
 20
-30.617103
 30
0.0
 11
340.092170
 21
-31.475480
 31
0.0
  0
LINE
  8
0
  6
BYLAYER
 62
     1
 10
339.081928
 20
-33.256379
 30
0.0
 11
339.081309
 21
-33.257255
 31
0.0
  0
LINE
  8
0
  6
BYLAYER
 62
     1
 10
339.013561
 20
-33.352128
 30
0.0
 11
337.956497
 21
-33.206715
 31
0.0
  0
LINE
  8
0
  6
BYLAYER
 62
     1
 10
336.730259
 20
-34.466906
 30
0.0
 11
336.729233
 21
-34.467792
 31
0.0
  0
LINE
  8
0
  6
BYLAYER
 62
     1
 10
336.575361
 20
-34.596173
 30
0.0
 11
336.709723
 21
-35.664964
 31
0.0
  0
LINE
  8
0
  6
BYLAYER
 62
     1
 10
334.837312
 20
-36.750871
 30
0.0
 11
333.994632
 21
-36.096435
 31
0.0
  0
ARC
  8
0
  6
BYLAYER
 62
     1
 10
330.583298
 20
-27.258516
 30
0.0
 40
9.473437
 50
309.235697
 51
321.105929
  0
ARC
  8
0
  6
BYLAYER
 62
     1
 10
330.583298
 20
-27.258516
 30
0.0
 40
9.473434
 50
248.893873
 51
270.0
  0
ARC
  8
0
  6
BYLAYER
 62
     1
 10
330.583298
 20
-27.258516
 30
0.0
 40
10.401992
 50
294.783232
 51
306.083699
  0
LINE
  8
0
  6
BYLAYER
 62
     1
 10
334.942939
 20
-36.702823
 30
0.0
 11
334.837953
 21
-36.752228
 31
0.0
  0
ARC
  8
0
  6
BYLAYER
 62
     1
 10
330.583298
 20
-27.258516
 30
0.0
 40
10.401981
 50
324.139593
 51
336.083825
  0
ARC
  8
0
  6
BYLAYER
 62
     1
 10
330.583234
 20
-27.258431
 30
0.0
 40
9.473494
 50
339.235210
 51
350.764014
  0
ARC
  8
0
  6
BYLAYER
 62
     1
 10
330.583298
 20
-27.258516
 30
0.0
 40
10.401993
 50
353.916089
 51
360.0
  0
ARC
  8
0
  6
BYLAYER
 62
     1
 10
330.583298
 20
-27.258516
 30
0.0
 40
10.401993
 50
0.0
 51
6.083907
  0
ARC
  8
0
  6
BYLAYER
 62
     1
 10
330.583298
 20
-27.258516
 30
0.0
 40
9.473434
 50
270.0
 51
291.106008
  0
CIRCLE
  8
0
  6
BYLAYER
 62
     1
 10
330.583298
 20
-27.258516
 30
0.0
 40
5.082113
  0
CIRCLE
  8
0
  6
BYLAYER
 62
     1
 10
330.583298
 20
-27.258516
 30
0.0
 40
7.414445
  0
LINE
  8
0
  6
BYLAYER
 62
     1
 10
202.217294
 20
-71.457325
 30
0.0
 11
200.952279
 21
-110.809437
 31
0.0
  0
LINE
  8
0
  6
BYLAYER
 62
     1
 10
483.694313
 20
-71.392201
 30
0.0
 11
484.952194
 21
-113.178151
 31
0.0
  0
LINE
  8
0
  6
BYLAYER
 62
     1
 10
342.952218
 20
-186.174061
 30
0.0
 11
349.952218
 21
-186.174061
 31
0.0
  0
LINE
  8
0
  6
BYLAYER
 62
     1
 10
342.952218
 20
-186.174061
 30
0.0
 11
342.952218
 21
-179.174061
 31
0.0
  0
LINE
  8
0
  6
BYLAYER
 62
     1
 10
342.952218
 20
-186.174061
 30
0.0
 11
342.952218
 21
-193.174061
 31
0.0
  0
LINE
  8
0
  6
BYLAYER
 62
     1
 10
342.952218
 20
-186.174061
 30
0.0
 11
335.952218
 21
-186.174061
 31
0.0
  0
LINE
  8
0
  6
BYLAYER
 62
     1
 10
1138.952218
 20
-716.173756
 30
0.0
 11
1137.952218
 21
-717.173756
 31
0.0
  0
LINE
  8
0
  6
BYLAYER
 62
     1
 10
1138.952218
 20
-896.173786
 30
0.0
 11
1137.952218
 21
-895.173786
 31
0.0
  0
LINE
  8
0
  6
BYLAYER
 62
     1
 10
1141.952218
 20
-716.173756
 30
0.0
 11
1138.952218
 21
-716.173756
 31
0.0
  0
LINE
  8
0
  6
BYLAYER
 62
     1
 10
1141.952218
 20
-896.173786
 30
0.0
 11
1138.952218
 21
-896.173786
 31
0.0
  0
LINE
  8
0
  6
BYLAYER
 62
     1
 10
1137.952218
 20
-717.173756
 30
0.0
 11
1137.952218
 21
-895.173786
 31
0.0
  0
LINE
  8
0
  6
BYLAYER
 62
     1
 10
1300.452218
 20
-953.674092
 30
0.0
 11
1145.452218
 21
-953.674092
 31
0.0
  0
LINE
  8
0
  6
BYLAYER
 62
     1
 10
1300.452218
 20
-618.674122
 30
0.0
 11
1145.452218
 21
-618.674122
 31
0.0
  0
ARC
  8
0
  6
BYLAYER
 62
     1
 10
1297.452218
 20
-887.416706
 30
0.0
 40
3.000046
 50
0.0
 51
44.999609
  0
ARC
  8
0
  6
BYLAYER
 62
     1
 10
1297.452218
 20
-684.931446
 30
0.0
 40
2.999982
 50
315.000402
 51
359.999983
  0
LINE
  8
0
  6
BYLAYER
 62
     1
 10
1300.452218
 20
-618.674122
 30
0.0
 11
1300.452218
 21
-684.931446
 31
0.0
  0
LINE
  8
0
  6
BYLAYER
 62
     1
 10
1300.452218
 20
-887.416706
 30
0.0
 11
1300.452218
 21
-953.674092
 31
0.0
  0
ARC
  8
0
  6
BYLAYER
 62
     1
 10
1148.452218
 20
-684.931446
 30
0.0
 40
2.999982
 50
180.000000
 51
224.999581
  0
ARC
  8
0
  6
BYLAYER
 62
     1
 10
1148.452218
 20
-887.416706
 30
0.0
 40
3.000046
 50
135.000410
 51
180.000019
  0
LINE
  8
0
  6
BYLAYER
 62
     1
 10
1145.452218
 20
-618.674122
 30
0.0
 11
1145.452218
 21
-684.931446
 31
0.0
  0
LINE
  8
0
  6
BYLAYER
 62
     1
 10
1145.452218
 20
-953.674092
 30
0.0
 11
1145.452218
 21
-887.416706
 31
0.0
  0
LINE
  8
0
  6
BYLAYER
 62
     1
 10
1145.452218
 20
-931.357258
 30
0.0
 11
1141.952218
 21
-931.173786
 31
0.0
  0
LINE
  8
0
  6
BYLAYER
 62
     1
 10
1141.952218
 20
-681.173756
 30
0.0
 11
1145.452218
 21
-680.990345
 31
0.0
  0
LINE
  8
0
  6
BYLAYER
 62
     1
 10
1141.952218
 20
-931.173786
 30
0.0
 11
1141.952218
 21
-681.173756
 31
0.0
  0
CIRCLE
  8
0
  6
BYLAYER
 62
     1
 10
1282.952218
 20
-906.173786
 30
0.0
 40
8.0
  0
CIRCLE
  8
0
  6
BYLAYER
 62
     1
 10
1162.952218
 20
-906.173786
 30
0.0
 40
8.0
  0
CIRCLE
  8
0
  6
BYLAYER
 62
     1
 10
1222.952218
 20
-676.173756
 30
0.0
 40
36.0
  0
ARC
  8
0
  6
BYLAYER
 62
     1
 10
1274.667428
 20
-693.372242
 30
0.0
 40
3.000034
 50
93.000095
 51
161.604953
  0
ARC
  8
0
  6
BYLAYER
 62
     1
 10
1171.237008
 20
-693.372242
 30
0.0
 40
3.000024
 50
18.395045
 51
86.999903
  0
LINE
  8
0
  6
BYLAYER
 62
     1
 10
1145.728341
 20
-686.188587
 30
0.0
 11
1170.521554
 21
-687.487965
 31
0.0
  0
ARC
  8
0
  6
BYLAYER
 62
     1
 10
1170.364449
 20
-690.483814
 30
0.0
 40
2.999963
 50
15.222620
 51
86.999903
  0
ARC
  8
0
  6
BYLAYER
 62
     1
 10
1222.952218
 20
-676.173756
 30
0.0
 40
51.500031
 50
195.222584
 51
344.777403
  0
LINE
  8
0
  6
BYLAYER
 62
     1
 10
1300.176095
 20
-686.188587
 30
0.0
 11
1275.382882
 21
-687.487965
 31
0.0
  0
ARC
  8
0
  6
BYLAYER
 62
     1
 10
1275.539987
 20
-690.483814
 30
0.0
 40
2.999979
 50
93.000095
 51
164.777385
  0
CIRCLE
  8
0
  6
BYLAYER
 62
     1
 10
1162.952218
 20
-666.173390
 30
0.0
 40
8.0
  0
CIRCLE
  8
0
  6
BYLAYER
 62
     1
 10
1282.952218
 20
-666.173390
 30
0.0
 40
8.0
  0
ARC
  8
0
  6
BYLAYER
 62
     1
 10
1232.952218
 20
-747.825306
 30
0.0
 40
3.000000
 50
180.000000
 51
267.032019
  0
ARC
  8
0
  6
BYLAYER
 62
     1
 10
1232.952218
 20
-833.825306
 30
0.0
 40
3.000000
 50
180.000000
 51
267.032019
  0
ARC
  8
0
  6
BYLAYER
 62
     1
 10
1232.952218
 20
-876.789662
 30
0.0
 40
3.000021
 50
180.000000
 51
267.000491
  0
ARC
  8
0
  6
BYLAYER
 62
     1
 10
1212.952218
 20
-747.825306
 30
0.0
 40
3.0
 50
272.968008
 51
360.0
  0
LINE
  8
0
  6
BYLAYER
 62
     1
 10
1215.952218
 20
-821.522206
 30
0.0
 11
1215.952218
 21
-833.825306
 31
0.0
  0
ARC
  8
0
  6
BYLAYER
 62
     1
 10
1212.952218
 20
-833.825306
 30
0.0
 40
3.0
 50
272.968008
 51
360.0
  0
ARC
  8
0
  6
BYLAYER
 62
     1
 10
1212.952218
 20
-864.522236
 30
0.0
 40
3.000000
 50
0.0
 51
87.032033
  0
LINE
  8
0
  6
BYLAYER
 62
     1
 10
1215.952218
 20
-876.789662
 30
0.0
 11
1215.952218
 21
-864.522236
 31
0.0
  0
ARC
  8
0
  6
BYLAYER
 62
     1
 10
1212.952218
 20
-876.789662
 30
0.0
 40
3.000021
 50
272.999519
 51
359.999983
  0
LINE
  8
0
  6
BYLAYER
 62
     1
 10
1215.952218
 20
-747.825306
 30
0.0
 11
1215.952218
 21
-735.522206
 31
0.0
  0
ARC
  8
0
  6
BYLAYER
 62
     1
 10
1212.952218
 20
-735.522206
 30
0.0
 40
2.999996
 50
0.0
 51
87.031998
  0
ARC
  8
0
  6
BYLAYER
 62
     1
 10
1177.769479
 20
-706.649525
 30
0.0
 40
3.000057
 50
272.967964
 51
393.999804
  0
ARC
  8
0
  6
BYLAYER
 62
     1
 10
1268.134835
 20
-706.649525
 30
0.0
 40
3.000054
 50
146.000198
 51
267.032038
  0
ARC
  8
0
  6
BYLAYER
 62
     1
 10
1232.952218
 20
-735.522206
 30
0.0
 40
2.999996
 50
92.968000
 51
180.000005
  0
LINE
  8
0
  6
BYLAYER
 62
     1
 10
1229.952218
 20
-747.825306
 30
0.0
 11
1229.952218
 21
-735.522206
 31
0.0
  0
LINE
  8
0
  6
BYLAYER
 62
     1
 10
1229.952218
 20
-821.522144
 30
0.0
 11
1229.952218
 21
-833.825306
 31
0.0
  0
ARC
  8
0
  6
BYLAYER
 62
     1
 10
1270.952218
 20
-862.551869
 30
0.0
 40
3.0
 50
92.967995
 51
180.000000
  0
LINE
  8
0
  6
BYLAYER
 62
     1
 10
1267.952218
 20
-862.551869
 30
0.0
 11
1267.952218
 21
-865.326863
 31
0.0
  0
ARC
  8
0
  6
BYLAYER
 62
     1
 10
1264.952218
 20
-865.326863
 30
0.0
 40
3.000000
 50
272.999516
 51
360.000000
  0
LINE
  8
0
  6
BYLAYER
 62
     1
 10
1265.109200
 20
-868.322743
 30
0.0
 11
1232.795236
 21
-870.016255
 31
0.0
  0
LINE
  8
0
  6
BYLAYER
 62
     1
 10
1229.952218
 20
-876.789662
 30
0.0
 11
1229.952218
 21
-873.012135
 31
0.0
  0
ARC
  8
0
  6
BYLAYER
 62
     1
 10
1232.952218
 20
-873.012135
 30
0.0
 40
2.999993
 50
93.000108
 51
180.000005
  0
LINE
  8
0
  6
BYLAYER
 62
     1
 10
1215.952218
 20
-790.825306
 30
0.0
 11
1215.952218
 21
-778.522206
 31
0.0
  0
ARC
  8
0
  6
BYLAYER
 62
     1
 10
1212.952218
 20
-778.522206
 30
0.0
 40
3.000057
 50
0.0
 51
87.03206
  0
LINE
  8
0
  6
BYLAYER
 62
     1
 10
1229.952218
 20
-790.825245
 30
0.0
 11
1229.952218
 21
-778.522206
 31
0.0
  0
ARC
  8
0
  6
BYLAYER
 62
     1
 10
1232.952218
 20
-778.522206
 30
0.0
 40
3.0
 50
92.967933
 51
180.000000
  0
LINE
  8
0
  6
BYLAYER
 62
     1
 10
1146.330880
 20
-885.295338
 30
0.0
 11
1155.073556
 21
-876.552693
 31
0.0
  0
LINE
  8
0
  6
BYLAYER
 62
     1
 10
1146.330880
 20
-687.052723
 30
0.0
 11
1155.073556
 21
-695.795460
 31
0.0
  0
ARC
  8
0
  6
BYLAYER
 62
     1
 10
1152.952218
 20
-697.916737
 30
0.0
 40
3.0
 50
0.0
 51
44.999848
  0
LINE
  8
0
  6
BYLAYER
 62
     1
 10
1290.830880
 20
-695.795765
 30
0.0
 11
1299.573556
 21
-687.052723
 31
0.0
  0
ARC
  8
0
  6
BYLAYER
 62
     1
 10
1292.952218
 20
-697.917042
 30
0.0
 40
3.000000
 50
135.001216
 51
179.999998
  0
LINE
  8
0
  6
BYLAYER
 62
     1
 10
1299.573556
 20
-885.295338
 30
0.0
 11
1290.830880
 21
-876.552693
 31
0.0
  0
LINE
  8
0
  6
BYLAYER
 62
     1
 10
1177.924874
 20
-709.645558
 30
0.0
 11
1158.796945
 21
-710.637318
 31
0.0
  0
ARC
  8
0
  6
BYLAYER
 62
     1
 10
1158.952218
 20
-713.633351
 30
0.0
 40
3.000000
 50
92.968136
 51
179.999998
  0
LINE
  8
0
  6
BYLAYER
 62
     1
 10
1213.107491
 20
-732.526234
 30
0.0
 11
1158.796945
 21
-729.710194
 31
0.0
  0
ARC
  8
0
  6
BYLAYER
 62
     1
 10
1158.952218
 20
-726.714222
 30
0.0
 40
3.000000
 50
180.000000
 51
267.031814
  0
LINE
  8
0
  6
BYLAYER
 62
     1
 10
1213.107614
 20
-750.821278
 30
0.0
 11
1158.796945
 21
-753.637318
 31
0.0
  0
ARC
  8
0
  6
BYLAYER
 62
     1
 10
1158.952218
 20
-756.633290
 30
0.0
 40
3.0
 50
92.968184
 51
179.999998
  0
LINE
  8
0
  6
BYLAYER
 62
     1
 10
1213.107491
 20
-775.526173
 30
0.0
 11
1158.796945
 21
-772.710194
 31
0.0
  0
LINE
  8
0
  6
BYLAYER
 62
     1
 10
1213.107614
 20
-793.821278
 30
0.0
 11
1158.796945
 21
-796.637318
 31
0.0
  0
ARC
  8
0
  6
BYLAYER
 62
     1
 10
1158.952218
 20
-799.633290
 30
0.0
 40
3.0
 50
92.968184
 51
179.999998
  0
LINE
  8
0
  6
BYLAYER
 62
     1
 10
1213.107614
 20
-818.526234
 30
0.0
 11
1158.796945
 21
-815.710194
 31
0.0
  0
LINE
  8
0
  6
BYLAYER
 62
     1
 10
1213.107614
 20
-836.821278
 30
0.0
 11
1158.796945
 21
-839.637379
 31
0.0
  0
ARC
  8
0
  6
BYLAYER
 62
     1
 10
1158.952218
 20
-842.633351
 30
0.0
 40
3.0
 50
92.968218
 51
180.000005
  0
LINE
  8
0
  6
BYLAYER
 62
     1
 10
1213.107614
 20
-861.526234
 30
0.0
 11
1158.796945
 21
-858.710133
 31
0.0
  0
LINE
  8
0
  6
BYLAYER
 62
     1
 10
1267.979562
 20
-709.645558
 30
0.0
 11
1287.107491
 21
-710.637318
 31
0.0
  0
ARC
  8
0
  6
BYLAYER
 62
     1
 10
1286.952218
 20
-713.633351
 30
0.0
 40
3.000000
 50
0.0
 51
87.031855
  0
LINE
  8
0
  6
BYLAYER
 62
     1
 10
1232.796945
 20
-732.526234
 30
0.0
 11
1287.107491
 21
-729.710194
 31
0.0
  0
LINE
  8
0
  6
BYLAYER
 62
     1
 10
1232.796945
 20
-750.821278
 30
0.0
 11
1287.107491
 21
-753.637318
 31
0.0
  0
ARC
  8
0
  6
BYLAYER
 62
     1
 10
1286.952218
 20
-756.633290
 30
0.0
 40
3.000000
 50
0.0
 51
87.031807
  0
LINE
  8
0
  6
BYLAYER
 62
     1
 10
1232.796945
 20
-775.526173
 30
0.0
 11
1287.107491
 21
-772.710194
 31
0.0
  0
LINE
  8
0
  6
BYLAYER
 62
     1
 10
1232.796945
 20
-793.821217
 30
0.0
 11
1287.107491
 21
-796.637318
 31
0.0
  0
ARC
  8
0
  6
BYLAYER
 62
     1
 10
1286.952218
 20
-799.633290
 30
0.0
 40
3.0
 50
0.0
 51
87.031753
  0
LINE
  8
0
  6
BYLAYER
 62
     1
 10
1232.796945
 20
-818.526173
 30
0.0
 11
1287.107491
 21
-815.710194
 31
0.0
  0
LINE
  8
0
  6
BYLAYER
 62
     1
 10
1232.796945
 20
-836.821278
 30
0.0
 11
1287.107491
 21
-839.637348
 31
0.0
  0
ARC
  8
0
  6
BYLAYER
 62
     1
 10
1286.952218
 20
-842.633320
 30
0.0
 40
3.000000
 50
0.0
 51
87.031807
  0
LINE
  8
0
  6
BYLAYER
 62
     1
 10
1270.796945
 20
-859.555897
 30
0.0
 11
1287.107491
 21
-858.710163
 31
0.0
  0
LINE
  8
0
  6
BYLAYER
 62
     1
 10
1171.394113
 20
-690.376332
 30
0.0
 11
1148.452218
 21
-689.174000
 31
0.0
  0
LINE
  8
0
  6
BYLAYER
 62
     1
 10
1274.510323
 20
-690.376332
 30
0.0
 11
1297.452218
 21
-689.174000
 31
0.0
  0
LINE
  8
0
  6
BYLAYER
 62
     1
 10
1148.452096
 20
-883.174122
 30
0.0
 11
1222.952340
 21
-879.269703
 31
0.0
  0
LINE
  8
0
  6
BYLAYER
 62
     1
 10
1297.452340
 20
-883.174122
 30
0.0
 11
1222.952218
 21
-879.269703
 31
0.0
  0
LINE
  8
0
  6
BYLAYER
 62
     1
 10
1155.952218
 20
-697.916737
 30
0.0
 11
1155.952218
 21
-874.431355
 31
0.0
  0
ARC
  8
0
  6
BYLAYER
 62
     1
 10
1158.952218
 20
-855.714161
 30
0.0
 40
3.0
 50
180.000000
 51
267.031787
  0
ARC
  8
0
  6
BYLAYER
 62
     1
 10
1158.952218
 20
-812.714222
 30
0.0
 40
3.000000
 50
180.000000
 51
267.031814
  0
ARC
  8
0
  6
BYLAYER
 62
     1
 10
1158.952218
 20
-769.714161
 30
0.0
 40
3.000000
 50
180.000000
 51
267.031875
  0
ARC
  8
0
  6
BYLAYER
 62
     1
 10
1152.952218
 20
-874.431355
 30
0.0
 40
3.0
 50
314.999999
 51
360.000000
  0
LINE
  8
0
  6
BYLAYER
 62
     1
 10
1289.952218
 20
-697.917042
 30
0.0
 11
1289.952218
 21
-874.431355
 31
0.0
  0
ARC
  8
0
  6
BYLAYER
 62
     1
 10
1286.952218
 20
-855.714192
 30
0.0
 40
3.000000
 50
272.968200
 51
360.000000
  0
ARC
  8
0
  6
BYLAYER
 62
     1
 10
1286.952218
 20
-812.714161
 30
0.0
 40
3.000000
 50
272.968125
 51
360.000000
  0
ARC
  8
0
  6
BYLAYER
 62
     1
 10
1286.952218
 20
-769.714161
 30
0.0
 40
3.000000
 50
272.968125
 51
360.000000
  0
ARC
  8
0
  6
BYLAYER
 62
     1
 10
1286.952218
 20
-726.714222
 30
0.0
 40
3.0
 50
272.968186
 51
360.000000
  0
ARC
  8
0
  6
BYLAYER
 62
     1
 10
1292.952218
 20
-874.431355
 30
0.0
 40
3.0
 50
180.000000
 51
225.000001
  0
LINE
  8
0
  6
BYLAYER
 62
     1
 10
1306.952218
 20
-716.173756
 30
0.0
 11
1307.952218
 21
-717.173756
 31
0.0
  0
LINE
  8
0
  6
BYLAYER
 62
     1
 10
1306.952218
 20
-896.173786
 30
0.0
 11
1307.952218
 21
-895.173786
 31
0.0
  0
LINE
  8
0
  6
BYLAYER
 62
     1
 10
1303.952218
 20
-716.173756
 30
0.0
 11
1306.952218
 21
-716.173756
 31
0.0
  0
LINE
  8
0
  6
BYLAYER
 62
     1
 10
1303.952218
 20
-896.173786
 30
0.0
 11
1306.952218
 21
-896.173786
 31
0.0
  0
LINE
  8
0
  6
BYLAYER
 62
     1
 10
1307.952218
 20
-717.173756
 30
0.0
 11
1307.952218
 21
-895.173786
 31
0.0
  0
LINE
  8
0
  6
BYLAYER
 62
     1
 10
1300.452218
 20
-931.357258
 30
0.0
 11
1303.952218
 21
-931.173786
 31
0.0
  0
LINE
  8
0
  6
BYLAYER
 62
     1
 10
1303.952218
 20
-681.173756
 30
0.0
 11
1300.452218
 21
-680.990345
 31
0.0
  0
LINE
  8
0
  6
BYLAYER
 62
     1
 10
1303.952218
 20
-931.173786
 30
0.0
 11
1303.952218
 21
-681.173756
 31
0.0
  0
ARC
  8
0
  6
BYLAYER
 62
     1
 10
1212.952218
 20
-821.522206
 30
0.0
 40
3.000000
 50
0.0
 51
87.032033
  0
ARC
  8
0
  6
BYLAYER
 62
     1
 10
1212.952218
 20
-790.825306
 30
0.0
 40
3.0
 50
272.968008
 51
360.0
  0
ARC
  8
0
  6
BYLAYER
 62
     1
 10
1232.952218
 20
-821.522144
 30
0.0
 40
3.0
 50
92.967995
 51
180.000000
  0
ARC
  8
0
  6
BYLAYER
 62
     1
 10
1232.952218
 20
-790.825245
 30
0.0
 40
3.0
 50
180.000000
 51
267.032005
  0
LINE
  8
0
  6
BYLAYER
 62
     1
 10
432.952218
 20
-722.174092
 30
0.0
 11
431.952218
 21
-721.174092
 31
0.0
  0
LINE
  8
0
  6
BYLAYER
 62
     1
 10
252.952218
 20
-722.174061
 30
0.0
 11
253.952218
 21
-721.174061
 31
0.0
  0
LINE
  8
0
  6
BYLAYER
 62
     1
 10
432.952218
 20
-725.174092
 30
0.0
 11
432.952218
 21
-722.174092
 31
0.0
  0
LINE
  8
0
  6
BYLAYER
 62
     1
 10
252.952218
 20
-725.174061
 30
0.0
 11
252.952218
 21
-722.174061
 31
0.0
  0
LINE
  8
0
  6
BYLAYER
 62
     1
 10
431.952218
 20
-721.174092
 30
0.0
 11
253.952218
 21
-721.174061
 31
0.0
  0
LINE
  8
0
  6
BYLAYER
 62
     1
 10
195.451974
 20
-883.674030
 30
0.0
 11
195.451974
 21
-728.674061
 31
0.0
  0
ARC
  8
0
  6
BYLAYER
 62
     1
 10
261.709298
 20
-880.674030
 30
0.0
 40
3.000025
 50
270.0
 51
314.999609
  0
LINE
  8
0
  6
BYLAYER
 62
     1
 10
261.709298
 20
-883.674030
 30
0.0
 11
195.451974
 21
-883.674030
 31
0.0
  0
ARC
  8
0
  6
BYLAYER
 62
     1
 10
261.709298
 20
-731.674061
 30
0.0
 40
3.000025
 50
45.000408
 51
90.000016
  0
LINE
  8
0
  6
BYLAYER
 62
     1
 10
195.451974
 20
-728.674061
 30
0.0
 11
261.709298
 21
-728.674061
 31
0.0
  0
LINE
  8
0
  6
BYLAYER
 62
     1
 10
217.768746
 20
-728.674061
 30
0.0
 11
217.952218
 21
-725.174061
 31
0.0
  0
LINE
  8
0
  6
BYLAYER
 62
     1
 10
467.952218
 20
-725.174092
 30
0.0
 11
468.135690
 21
-728.674092
 31
0.0
  0
LINE
  8
0
  6
BYLAYER
 62
     1
 10
267.013497
 20
-806.174061
 30
0.0
 11
262.966378
 21
-728.950184
 31
0.0
  0
LINE
  8
0
  6
BYLAYER
 62
     1
 10
267.013497
 20
-806.174183
 30
0.0
 11
262.966378
 21
-883.397907
 31
0.0
  0
LINE
  8
0
  6
BYLAYER
 62
     1
 10
217.952218
 20
-725.174061
 30
0.0
 11
467.952218
 21
-725.174092
 31
0.0
  0
CIRCLE
  8
0
  6
BYLAYER
 62
     1
 10
242.952218
 20
-866.174061
 30
0.0
 40
8.0
  0
CIRCLE
  8
0
  6
BYLAYER
 62
     1
 10
242.952218
 20
-746.174061
 30
0.0
 40
8.0
  0
ARC
  8
0
  6
BYLAYER
 62
     1
 10
424.194650
 20
-731.674061
 30
0.0
 40
3.000025
 50
90.0
 51
134.999609
  0
ARC
  8
0
  6
BYLAYER
 62
     1
 10
424.194650
 20
-880.674030
 30
0.0
 40
3.000025
 50
225.000419
 51
270.000028
  0
LINE
  8
0
  6
BYLAYER
 62
     1
 10
424.194650
 20
-883.674030
 30
0.0
 11
487.951974
 21
-883.674030
 31
0.0
  0
LINE
  8
0
  6
BYLAYER
 62
     1
 10
487.951974
 20
-883.674030
 30
0.0
 11
487.951974
 21
-728.674061
 31
0.0
  0
LINE
  8
0
  6
BYLAYER
 62
     1
 10
487.951974
 20
-728.674061
 30
0.0
 11
424.194650
 21
-728.674061
 31
0.0
  0
CIRCLE
  8
0
  6
BYLAYER
 62
     1
 10
442.951730
 20
-746.174061
 30
0.0
 40
8.0
  0
CIRCLE
  8
0
  6
BYLAYER
 62
     1
 10
442.951730
 20
-866.174061
 30
0.0
 40
8.0
  0
ARC
  8
0
  6
BYLAYER
 62
     1
 10
272.336373
 20
-816.174061
 30
0.0
 40
3.000082
 50
90.0
 51
177.000484
  0
ARC
  8
0
  6
BYLAYER
 62
     1
 10
284.603829
 20
-816.174061
 30
0.0
 40
3.0
 50
2.967981
 51
90.000000
  0
ARC
  8
0
  6
BYLAYER
 62
     1
 10
315.300729
 20
-816.174061
 30
0.0
 40
3.0
 50
90.0
 51
177.032012
  0
LINE
  8
0
  6
BYLAYER
 62
     1
 10
327.603829
 20
-813.174061
 30
0.0
 11
315.300729
 21
-813.174061
 31
0.0
  0
ARC
  8
0
  6
BYLAYER
 62
     1
 10
272.336373
 20
-796.174061
 30
0.0
 40
3.000082
 50
182.999510
 51
270.000001
  0
ARC
  8
0
  6
BYLAYER
 62
     1
 10
284.603829
 20
-796.174061
 30
0.0
 40
3.0
 50
270.0
 51
357.032019
  0
ARC
  8
0
  6
BYLAYER
 62
     1
 10
315.300729
 20
-796.174061
 30
0.0
 40
3.0
 50
182.967981
 51
270.000000
  0
LINE
  8
0
  6
BYLAYER
 62
     1
 10
327.603829
 20
-799.174061
 30
0.0
 11
315.300729
 21
-799.174061
 31
0.0
  0
LINE
  8
0
  6
BYLAYER
 62
     1
 10
272.336373
 20
-813.174061
 30
0.0
 11
284.603829
 21
-813.174061
 31
0.0
  0
LINE
  8
0
  6
BYLAYER
 62
     1
 10
272.336373
 20
-799.174061
 30
0.0
 11
284.603829
 21
-799.174061
 31
0.0
  0
ARC
  8
0
  6
BYLAYER
 62
     1
 10
401.300729
 20
-796.174137
 30
0.0
 40
2.999997
 50
182.968296
 51
270.000001
  0
ARC
  8
0
  6
BYLAYER
 62
     1
 10
401.300729
 20
-816.174137
 30
0.0
 40
3.000259
 50
90.0
 51
177.031712
  0
LINE
  8
0
  6
BYLAYER
 62
     1
 10
401.300729
 20
-813.173878
 30
0.0
 11
404.486276
 21
-813.174046
 31
0.0
  0
ARC
  8
0
  6
BYLAYER
 62
     1
 10
404.486031
 20
-816.174046
 30
0.0
 40
3.000000
 50
28.436752
 51
90.000000
  0
LINE
  8
0
  6
BYLAYER
 62
     1
 10
401.300729
 20
-799.173908
 30
0.0
 11
404.485909
 21
-799.174061
 31
0.0
  0
ARC
  8
0
  6
BYLAYER
 62
     1
 10
404.486031
 20
-796.174061
 30
0.0
 40
3.000000
 50
270.0
 51
331.563090
  0
ARC
  8
0
  6
BYLAYER
 62
     1
 10
422.952218
 20
-806.174061
 30
0.0
 40
18.000021
 50
115.112183
 51
151.563154
  0
ARC
  8
0
  6
BYLAYER
 62
     1
 10
414.040109
 20
-787.158970
 30
0.0
 40
2.999965
 50
295.111874
 51
356.999890
  0
ARC
  8
0
  6
BYLAYER
 62
     1
 10
422.952218
 20
-806.174061
 30
0.0
 40
17.999962
 50
208.436842
 51
244.887827
  0
ARC
  8
0
  6
BYLAYER
 62
     1
 10
414.040109
 20
-825.189106
 30
0.0
 40
2.999951
 50
2.999963
 51
64.887740
  0
LINE
  8
0
  6
BYLAYER
 62
     1
 10
421.425607
 20
-725.174061
 30
0.0
 11
421.312570
 21
-727.331043
 31
0.0
  0
ARC
  8
0
  6
BYLAYER
 62
     1
 10
418.316659
 20
-727.174061
 30
0.0
 40
3.0
 50
270.0
 51
357.000518
  0
LINE
  8
0
  6
BYLAYER
 62
     1
 10
359.370553
 20
-730.174061
 30
0.0
 11
418.316659
 21
-730.174061
 31
0.0
  0
ARC
  8
0
  6
BYLAYER
 62
     1
 10
359.370553
 20
-727.174061
 30
0.0
 40
3.000000
 50
182.999496
 51
270.000000
  0
LINE
  8
0
  6
BYLAYER
 62
     1
 10
356.261605
 20
-725.174061
 30
0.0
 11
356.374642
 21
-727.331043
 31
0.0
  0
LINE
  8
0
  6
BYLAYER
 62
     1
 10
264.478829
 20
-725.174061
 30
0.0
 11
264.591866
 21
-727.331043
 31
0.0
  0
ARC
  8
0
  6
BYLAYER
 62
     1
 10
267.587777
 20
-727.174061
 30
0.0
 40
3.0
 50
182.999482
 51
270.000000
  0
LINE
  8
0
  6
BYLAYER
 62
     1
 10
326.533883
 20
-730.174061
 30
0.0
 11
267.587777
 21
-730.174061
 31
0.0
  0
ARC
  8
0
  6
BYLAYER
 62
     1
 10
326.533883
 20
-727.174061
 30
0.0
 40
3.000000
 50
270.0
 51
357.000491
  0
LINE
  8
0
  6
BYLAYER
 62
     1
 10
329.642831
 20
-725.174061
 30
0.0
 11
329.529794
 21
-727.331043
 31
0.0
  0
LINE
  8
0
  6
BYLAYER
 62
     1
 10
330.599801
 20
-816.018727
 30
0.0
 11
333.571420
 21
-873.329373
 31
0.0
  0
ARC
  8
0
  6
BYLAYER
 62
     1
 10
336.567391
 20
-873.174030
 30
0.0
 40
2.999996
 50
182.968132
 51
270.000001
  0
LINE
  8
0
  6
BYLAYER
 62
     1
 10
355.304757
 20
-816.018727
 30
0.0
 11
352.333138
 21
-873.329373
 31
0.0
  0
ARC
  8
0
  6
BYLAYER
 62
     1
 10
349.337167
 20
-873.174030
 30
0.0
 40
3.000000
 50
270.0
 51
357.031855
  0
LINE
  8
0
  6
BYLAYER
 62
     1
 10
422.937570
 20
-728.950184
 30
0.0
 11
419.657278
 21
-791.540423
 31
0.0
  0
LINE
  8
0
  6
BYLAYER
 62
     1
 10
422.937570
 20
-883.397907
 30
0.0
 11
419.657278
 21
-820.807699
 31
0.0
  0
LINE
  8
0
  6
BYLAYER
 62
     1
 10
416.330666
 20
-735.295368
 30
0.0
 11
422.073312
 21
-729.552723
 31
0.0
  0
ARC
  8
0
  6
BYLAYER
 62
     1
 10
414.209344
 20
-733.174061
 30
0.0
 40
3.000015
 50
270.0
 51
315.000210
  0
LINE
  8
0
  6
BYLAYER
 62
     1
 10
414.209344
 20
-736.174076
 30
0.0
 11
271.694604
 21
-736.174076
 31
0.0
  0
LINE
  8
0
  6
BYLAYER
 62
     1
 10
263.830644
 20
-729.552723
 30
0.0
 11
269.573274
 21
-735.295384
 31
0.0
  0
ARC
  8
0
  6
BYLAYER
 62
     1
 10
271.694604
 20
-733.174076
 30
0.0
 40
3.0
 50
224.999695
 51
270.000000
  0
LINE
  8
0
  6
BYLAYER
 62
     1
 10
265.951913
 20
-731.674000
 30
0.0
 11
269.856271
 21
-806.174183
 31
0.0
  0
LINE
  8
0
  6
BYLAYER
 62
     1
 10
419.952035
 20
-731.674000
 30
0.0
 11
416.763738
 21
-792.510141
 31
0.0
  0
LINE
  8
0
  6
BYLAYER
 62
     1
 10
269.573258
 20
-877.052746
 30
0.0
 11
263.830636
 21
-882.795368
 31
0.0
  0
ARC
  8
0
  6
BYLAYER
 62
     1
 10
271.694581
 20
-879.174065
 30
0.0
 40
2.999989
 50
90.0
 51
135.000052
  0
LINE
  8
0
  6
BYLAYER
 62
     1
 10
414.209344
 20
-876.174099
 30
0.0
 11
271.694581
 21
-876.174076
 31
0.0
  0
LINE
  8
0
  6
BYLAYER
 62
     1
 10
416.330666
 20
-877.052723
 30
0.0
 11
422.073312
 21
-882.795368
 31
0.0
  0
ARC
  8
0
  6
BYLAYER
 62
     1
 10
414.209344
 20
-879.174046
 30
0.0
 40
2.999947
 50
44.999999
 51
90.000000
  0
LINE
  8
0
  6
BYLAYER
 62
     1
 10
398.304757
 20
-816.018788
 30
0.0
 11
395.333123
 21
-873.329441
 31
0.0
  0
ARC
  8
0
  6
BYLAYER
 62
     1
 10
392.337151
 20
-873.174095
 30
0.0
 40
3.0
 50
270.0
 51
357.031773
  0
LINE
  8
0
  6
BYLAYER
 62
     1
 10
373.599801
 20
-816.018727
 30
0.0
 11
376.571420
 21
-873.329441
 31
0.0
  0
ARC
  8
0
  6
BYLAYER
 62
     1
 10
379.567407
 20
-873.174095
 30
0.0
 40
3.000012
 50
182.968200
 51
270.000001
  0
LINE
  8
0
  6
BYLAYER
 62
     1
 10
312.304757
 20
-816.018727
 30
0.0
 11
309.333123
 21
-873.329422
 31
0.0
  0
ARC
  8
0
  6
BYLAYER
 62
     1
 10
306.337151
 20
-873.174080
 30
0.0
 40
3.000004
 50
270.0
 51
357.031855
  0
LINE
  8
0
  6
BYLAYER
 62
     1
 10
287.599801
 20
-816.018727
 30
0.0
 11
290.571420
 21
-873.329426
 31
0.0
  0
ARC
  8
0
  6
BYLAYER
 62
     1
 10
293.567407
 20
-873.174080
 30
0.0
 40
3.000012
 50
182.968200
 51
270.000001
  0
LINE
  8
0
  6
BYLAYER
 62
     1
 10
265.951913
 20
-880.674088
 30
0.0
 11
269.856271
 21
-806.174061
 31
0.0
  0
LINE
  8
0
  6
BYLAYER
 62
     1
 10
416.763738
 20
-819.837981
 30
0.0
 11
419.952035
 21
-880.674088
 31
0.0
  0
ARC
  8
0
  6
BYLAYER
 62
     1
 10
293.567407
 20
-739.174046
 30
0.0
 40
3.000012
 50
90.0
 51
177.031794
  0
ARC
  8
0
  6
BYLAYER
 62
     1
 10
306.337151
 20
-739.174046
 30
0.0
 40
3.000015
 50
2.968145
 51
90.000000
  0
ARC
  8
0
  6
BYLAYER
 62
     1
 10
336.567391
 20
-739.174092
 30
0.0
 40
2.999996
 50
90.0
 51
177.031862
  0
ARC
  8
0
  6
BYLAYER
 62
     1
 10
349.337167
 20
-739.174092
 30
0.0
 40
3.000000
 50
2.968145
 51
90.0
  0
ARC
  8
0
  6
BYLAYER
 62
     1
 10
379.567407
 20
-739.174030
 30
0.0
 40
3.000012
 50
90.0
 51
177.031794
  0
ARC
  8
0
  6
BYLAYER
 62
     1
 10
392.337151
 20
-739.174030
 30
0.0
 40
3.0
 50
2.968227
 51
90.000000
  0
LINE
  8
0
  6
BYLAYER
 62
     1
 10
398.304757
 20
-796.329487
 30
0.0
 11
395.333123
 21
-739.018681
 31
0.0
  0
LINE
  8
0
  6
BYLAYER
 62
     1
 10
373.599801
 20
-796.329395
 30
0.0
 11
376.571420
 21
-739.018681
 31
0.0
  0
LINE
  8
0
  6
BYLAYER
 62
     1
 10
355.304757
 20
-796.329395
 30
0.0
 11
352.333123
 21
-739.018742
 31
0.0
  0
LINE
  8
0
  6
BYLAYER
 62
     1
 10
330.599801
 20
-796.329395
 30
0.0
 11
333.571420
 21
-739.018742
 31
0.0
  0
LINE
  8
0
  6
BYLAYER
 62
     1
 10
312.304757
 20
-796.329395
 30
0.0
 11
309.333123
 21
-739.018696
 31
0.0
  0
LINE
  8
0
  6
BYLAYER
 62
     1
 10
287.599801
 20
-796.329395
 30
0.0
 11
290.571420
 21
-739.018696
 31
0.0
  0
LINE
  8
0
  6
BYLAYER
 62
     1
 10
200.451974
 20
-883.674030
 30
0.0
 11
200.451974
 21
-728.674061
 31
0.0
  0
LINE
  8
0
  6
BYLAYER
 62
     1
 10
482.951974
 20
-883.674030
 30
0.0
 11
482.951974
 21
-728.674061
 31
0.0
  0
CIRCLE
  8
0
  6
BYLAYER
 62
     1
 10
422.952218
 20
-806.174061
 30
0.0
 40
15.0
  0
LINE
  8
0
  6
BYLAYER
 62
     1
 10
432.952218
 20
-890.174030
 30
0.0
 11
431.952218
 21
-891.174030
 31
0.0
  0
LINE
  8
0
  6
BYLAYER
 62
     1
 10
252.952218
 20
-890.174061
 30
0.0
 11
253.952218
 21
-891.174061
 31
0.0
  0
LINE
  8
0
  6
BYLAYER
 62
     1
 10
432.952218
 20
-887.174030
 30
0.0
 11
432.952218
 21
-890.174030
 31
0.0
  0
LINE
  8
0
  6
BYLAYER
 62
     1
 10
252.952218
 20
-887.174061
 30
0.0
 11
252.952218
 21
-890.174061
 31
0.0
  0
LINE
  8
0
  6
BYLAYER
 62
     1
 10
431.952218
 20
-891.174030
 30
0.0
 11
253.952218
 21
-891.174061
 31
0.0
  0
LINE
  8
0
  6
BYLAYER
 62
     1
 10
217.768746
 20
-883.674061
 30
0.0
 11
217.952218
 21
-887.174061
 31
0.0
  0
LINE
  8
0
  6
BYLAYER
 62
     1
 10
467.952218
 20
-887.174030
 30
0.0
 11
468.135690
 21
-883.674030
 31
0.0
  0
LINE
  8
0
  6
BYLAYER
 62
     1
 10
217.952218
 20
-887.174061
 30
0.0
 11
467.952218
 21
-887.174030
 31
0.0
  0
LINE
  8
0
  6
BYLAYER
 62
     1
 10
421.425607
 20
-887.174061
 30
0.0
 11
421.312570
 21
-885.017079
 31
0.0
  0
ARC
  8
0
  6
BYLAYER
 62
     1
 10
418.316659
 20
-885.174061
 30
0.0
 40
3.0
 50
2.999482
 51
90.000000
  0
LINE
  8
0
  6
BYLAYER
 62
     1
 10
359.370553
 20
-882.174061
 30
0.0
 11
418.316659
 21
-882.174061
 31
0.0
  0
ARC
  8
0
  6
BYLAYER
 62
     1
 10
359.370553
 20
-885.174061
 30
0.0
 40
3.000000
 50
90.0
 51
177.000504
  0
LINE
  8
0
  6
BYLAYER
 62
     1
 10
356.261605
 20
-887.174061
 30
0.0
 11
356.374642
 21
-885.017079
 31
0.0
  0
LINE
  8
0
  6
BYLAYER
 62
     1
 10
264.478829
 20
-887.174061
 30
0.0
 11
264.591866
 21
-885.017079
 31
0.0
  0
ARC
  8
0
  6
BYLAYER
 62
     1
 10
267.587777
 20
-885.174061
 30
0.0
 40
3.0
 50
90.0
 51
177.000518
  0
LINE
  8
0
  6
BYLAYER
 62
     1
 10
326.533883
 20
-882.174061
 30
0.0
 11
267.587777
 21
-882.174061
 31
0.0
  0
ARC
  8
0
  6
BYLAYER
 62
     1
 10
326.533883
 20
-885.174061
 30
0.0
 40
3.000000
 50
2.999509
 51
90.000000
  0
LINE
  8
0
  6
BYLAYER
 62
     1
 10
329.642831
 20
-887.174061
 30
0.0
 11
329.529794
 21
-885.017079
 31
0.0
  0
ARC
  8
0
  6
BYLAYER
 62
     1
 10
327.603829
 20
-816.174061
 30
0.0
 40
3.0
 50
2.967981
 51
90.000000
  0
ARC
  8
0
  6
BYLAYER
 62
     1
 10
327.603829
 20
-796.174061
 30
0.0
 40
3.0
 50
270.0
 51
357.032019
  0
LINE
  8
0
  6
BYLAYER
 62
     1
 10
358.300729
 20
-813.174061
 30
0.0
 11
370.603829
 21
-813.174061
 31
0.0
  0
ARC
  8
0
  6
BYLAYER
 62
     1
 10
358.300729
 20
-816.174061
 30
0.0
 40
3.0
 50
90.0
 51
177.032012
  0
ARC
  8
0
  6
BYLAYER
 62
     1
 10
370.603829
 20
-816.174061
 30
0.0
 40
3.0
 50
2.967981
 51
90.000000
  0
LINE
  8
0
  6
BYLAYER
 62
     1
 10
358.300729
 20
-799.174061
 30
0.0
 11
370.603829
 21
-799.174061
 31
0.0
  0
ARC
  8
0
  6
BYLAYER
 62
     1
 10
358.300729
 20
-796.174061
 30
0.0
 40
3.0
 50
182.967981
 51
270.000000
  0
ARC
  8
0
  6
BYLAYER
 62
     1
 10
370.603829
 20
-796.174061
 30
0.0
 40
3.0
 50
270.0
 51
357.032019
  0
LINE
  8
0
  6
BYLAYER
 62
     1
 10
487.952218
 20
-2.174030
 30
0.0
 11
495.487115
 21
-2.437153
 31
0.0
  0
ARC
  8
0
  6
BYLAYER
 62
     1
 10
495.452218
 20
-3.436543
 30
0.0
 40
0.999999
 50
0.0
 51
87.999939
  0
LINE
  8
0
  6
BYLAYER
 62
     1
 10
487.952218
 20
-2.174061
 30
0.0
 11
487.952218
 21
-56.174061
 31
0.0
  0
ARC
  8
0
  6
BYLAYER
 62
     1
 10
495.452218
 20
-108.911549
 30
0.0
 40
0.999999
 50
272.000070
 51
359.999995
  0
LINE
  8
0
  6
BYLAYER
 62
     1
 10
487.952218
 20
-56.174061
 30
0.0
 11
487.952218
 21
-110.174061
 31
0.0
  0
LINE
  8
0
  6
BYLAYER
 62
     1
 10
487.952218
 20
-110.174061
 30
0.0
 11
495.487115
 21
-109.910938
 31
0.0
  0
LINE
  8
0
  6
BYLAYER
 62
     2
 10
496.452218
 20
-8.970875
 30
0.0
 11
502.952233
 21
-8.970875
 31
0.0
  0
LINE
  8
0
  6
BYLAYER
 62
     2
 10
496.452218
 20
-21.970875
 30
0.0
 11
502.952233
 21
-21.970875
 31
0.0
  0
LINE
  8
0
  6
BYLAYER
 62
     2
 10
503.952233
 20
-9.970875
 30
0.0
 11
503.952233
 21
-20.970875
 31
0.0
  0
ARC
  8
0
  6
BYLAYER
 62
     2
 10
502.952233
 20
-9.970875
 30
0.0
 40
1.0
 50
0.0
 51
90.000003
  0
ARC
  8
0
  6
BYLAYER
 62
     2
 10
502.952233
 20
-20.970875
 30
0.0
 40
1.000000
 50
270.0
 51
359.999996
  0
LINE
  8
0
  6
BYLAYER
 62
     2
 10
496.452218
 20
-103.377247
 30
0.0
 11
502.952233
 21
-103.377247
 31
0.0
  0
LINE
  8
0
  6
BYLAYER
 62
     2
 10
496.452218
 20
-90.377247
 30
0.0
 11
502.952233
 21
-90.377247
 31
0.0
  0
LINE
  8
0
  6
BYLAYER
 62
     2
 10
503.952233
 20
-102.377247
 30
0.0
 11
503.952233
 21
-91.377247
 31
0.0
  0
ARC
  8
0
  6
BYLAYER
 62
     2
 10
502.952233
 20
-102.377247
 30
0.0
 40
1.000000
 50
270.0
 51
360.000003
  0
ARC
  8
0
  6
BYLAYER
 62
     2
 10
502.952233
 20
-91.377247
 30
0.0
 40
1.0
 50
0.0
 51
89.999996
  0
LINE
  8
0
  6
BYLAYER
 62
     3
 10
583.452267
 20
-71.174094
 30
0.0
 11
584.952268
 21
-69.674095
 31
0.0
  0
LINE
  8
0
  6
BYLAYER
 62
     3
 10
583.452291
 20
-41.174094
 30
0.0
 11
584.952290
 21
-42.674095
 31
0.0
  0
LINE
  8
0
  6
BYLAYER
 62
     3
 10
504.952267
 20
-71.174062
 30
0.0
 11
583.452267
 21
-71.174094
 31
0.0
  0
LINE
  8
0
  6
BYLAYER
 62
     3
 10
504.952291
 20
-41.174061
 30
0.0
 11
574.952291
 21
-41.174117
 31
0.0
  0
LINE
  8
0
  6
BYLAYER
 62
     3
 10
574.952291
 20
-41.174087
 30
0.0
 11
583.452291
 21
-41.174094
 31
0.0
  0
LINE
  8
0
  6
BYLAYER
 62
     3
 10
574.952291
 20
-41.174117
 30
0.0
 11
574.952293
 21
-38.174087
 31
0.0
  0
LINE
  8
0
  6
BYLAYER
 62
     3
 10
584.952290
 20
-42.674095
 30
0.0
 11
584.952279
 21
-56.174095
 31
0.0
  0
LINE
  8
0
  6
BYLAYER
 62
     3
 10
584.952279
 20
-56.174095
 30
0.0
 11
584.952268
 21
-69.674095
 31
0.0
  0
LINE
  8
0
  6
BYLAYER
 62
     3
 10
581.152287
 20
-61.424092
 30
0.0
 11
577.452275
 21
-61.424089
 31
0.0
  0
LINE
  8
0
  6
BYLAYER
 62
     3
 10
577.452275
 20
-61.424089
 30
0.0
 11
577.452279
 21
-56.174089
 31
0.0
  0
LINE
  8
0
  6
BYLAYER
 62
     3
 10
581.152287
 20
-61.424092
 30
0.0
 11
581.152291
 21
-56.174092
 31
0.0
  0
LINE
  8
0
  6
BYLAYER
 62
     3
 10
577.452275
 20
-61.174089
 30
0.0
 11
562.952275
 21
-61.174077
 31
0.0
  0
LINE
  8
0
  6
BYLAYER
 62
     3
 10
577.452276
 20
-60.274095
 30
0.0
 11
554.952276
 21
-60.274077
 31
0.0
  0
LINE
  8
0
  6
BYLAYER
 62
     3
 10
562.952275
 20
-61.174077
 30
0.0
 11
562.952279
 21
-56.174077
 31
0.0
  0
LINE
  8
0
  6
BYLAYER
 62
     3
 10
554.952276
 20
-60.274077
 30
0.0
 11
554.952279
 21
-56.174071
 31
0.0
  0
LINE
  8
0
  6
BYLAYER
 62
     3
 10
554.952276
 20
-60.274077
 30
0.0
 11
552.585153
 21
-56.174069
 31
0.0
  0
LINE
  8
0
  6
BYLAYER
 62
     3
 10
581.152287
 20
-61.424092
 30
0.0
 11
584.952273
 21
-63.618034
 31
0.0
  0
LINE
  8
0
  6
BYLAYER
 62
     3
 10
581.152295
 20
-50.924092
 30
0.0
 11
577.452283
 21
-50.924089
 31
0.0
  0
LINE
  8
0
  6
BYLAYER
 62
     3
 10
577.452283
 20
-50.924089
 30
0.0
 11
577.452279
 21
-56.174089
 31
0.0
  0
LINE
  8
0
  6
BYLAYER
 62
     3
 10
581.152295
 20
-50.924092
 30
0.0
 11
581.152291
 21
-56.174092
 31
0.0
  0
LINE
  8
0
  6
BYLAYER
 62
     3
 10
577.452283
 20
-51.174089
 30
0.0
 11
562.952283
 21
-51.174077
 31
0.0
  0
LINE
  8
0
  6
BYLAYER
 62
     3
 10
577.452282
 20
-52.074083
 30
0.0
 11
554.952282
 21
-52.074065
 31
0.0
  0
LINE
  8
0
  6
BYLAYER
 62
     3
 10
562.952283
 20
-51.174077
 30
0.0
 11
562.952279
 21
-56.174077
 31
0.0
  0
LINE
  8
0
  6
BYLAYER
 62
     3
 10
554.952282
 20
-52.074065
 30
0.0
 11
554.952279
 21
-56.174071
 31
0.0
  0
LINE
  8
0
  6
BYLAYER
 62
     3
 10
554.952282
 20
-52.074065
 30
0.0
 11
552.585153
 21
-56.174069
 31
0.0
  0
LINE
  8
0
  6
BYLAYER
 62
     3
 10
581.152295
 20
-50.924092
 30
0.0
 11
584.952285
 21
-48.730156
 31
0.0
  0
LINE
  8
0
  6
BYLAYER
 62
     3
 10
514.952293
 20
-38.174039
 30
0.0
 11
574.952293
 21
-38.174087
 31
0.0
  0
LINE
  8
0
  6
BYLAYER
 62
     3
 10
504.952279
 20
-56.174061
 30
0.0
 11
504.952292
 21
-40.174183
 31
0.0
  0
LINE
  8
0
  6
BYLAYER
 62
     2
 10
503.952233
 20
-50.674061
 30
0.0
 11
503.952233
 21
-61.674061
 31
0.0
  0
LINE
  8
0
  6
BYLAYER
 62
     3
 10
504.952266
 20
-72.174107
 30
0.0
 11
504.952279
 21
-56.174061
 31
0.0
  0
LINE
  8
0
  6
BYLAYER
 62
     3
 10
503.452173
 20
-73.674106
 30
0.0
 11
496.452218
 21
-73.673610
 31
0.0
  0
ARC
  8
0
  6
BYLAYER
 62
     3
 10
503.452266
 20
-72.174106
 30
0.0
 40
1.5
 50
270.0
 51
360.000003
  0
LINE
  8
0
  6
BYLAYER
 62
     2
 10
496.452218
 20
-62.674061
 30
0.0
 11
502.952233
 21
-62.674061
 31
0.0
  0
ARC
  8
0
  6
BYLAYER
 62
     2
 10
502.952233
 20
-61.674061
 30
0.0
 40
1.000000
 50
270.0
 51
359.999996
  0
LINE
  8
0
  6
BYLAYER
 62
     2
 10
496.452218
 20
-49.674061
 30
0.0
 11
502.952233
 21
-49.674061
 31
0.0
  0
ARC
  8
0
  6
BYLAYER
 62
     2
 10
502.952233
 20
-50.674061
 30
0.0
 40
1.0
 50
0.0
 51
90.000003
  0
LINE
  8
0
  6
BYLAYER
 62
     3
 10
503.452354
 20
-38.674182
 30
0.0
 11
496.452218
 21
-38.673945
 31
0.0
  0
ARC
  8
0
  6
BYLAYER
 62
     3
 10
503.452292
 20
-40.174182
 30
0.0
 40
1.5
 50
0.0
 51
90.000002
  0
LINE
  8
0
  6
BYLAYER
 62
     3
 10
514.952291
 20
-41.174069
 30
0.0
 11
514.952293
 21
-38.174039
 31
0.0
  0
LINE
  8
0
  6
BYLAYER
 62
     1
 10
496.452218
 20
-108.911549
 30
0.0
 11
496.452218
 21
-3.532757
 31
0.0
  0
ARC
  8
0
  6
BYLAYER
 62
     1
 10
1232.952218
 20
-170.825306
 30
0.0
 40
3.0
 50
180.000000
 51
267.032005
  0
ARC
  8
0
  6
BYLAYER
 62
     1
 10
1232.952218
 20
-201.522206
 30
0.0
 40
3.0
 50
92.967981
 51
180.000000
  0
ARC
  8
0
  6
BYLAYER
 62
     1
 10
1212.952218
 20
-170.825306
 30
0.0
 40
3.0
 50
272.967981
 51
360.000000
  0
ARC
  8
0
  6
BYLAYER
 62
     1
 10
1212.952218
 20
-201.522206
 30
0.0
 40
3.0
 50
0.0
 51
87.032019
  0
CIRCLE
  8
0
  6
BYLAYER
 62
     1
 10
1222.952218
 20
-56.174061
 30
0.0
 40
36.0
  0
ARC
  8
0
  6
BYLAYER
 62
     1
 10
1210.623391
 20
-101.528187
 30
0.0
 40
1.999997
 50
150.000066
 51
254.792584
  0
LINE
  8
0
  6
BYLAYER
 62
     1
 10
1210.966653
 20
-96.933674
 30
0.0
 11
1208.891335
 21
-100.528187
 31
0.0
  0
ARC
  8
0
  6
BYLAYER
 62
     1
 10
1212.698708
 20
-97.933674
 30
0.0
 40
2.000004
 50
76.204953
 51
150.000066
  0
ARC
  8
0
  6
BYLAYER
 62
     1
 10
1222.952218
 20
-56.174061
 30
0.0
 40
40.999985
 50
256.204685
 51
283.795453
  0
ARC
  8
0
  6
BYLAYER
 62
     1
 10
1233.205850
 20
-97.933644
 30
0.0
 40
2.000019
 50
29.999553
 51
103.795899
  0
LINE
  8
0
  6
BYLAYER
 62
     1
 10
1237.013162
 20
-100.528217
 30
0.0
 11
1234.937905
 21
-96.933644
 31
0.0
  0
ARC
  8
0
  6
BYLAYER
 62
     1
 10
1222.952218
 20
-56.174061
 30
0.0
 40
48.999962
 50
254.792503
 51
285.207581
  0
ARC
  8
0
  6
BYLAYER
 62
     1
 10
1235.281075
 20
-101.528187
 30
0.0
 40
2.000015
 50
285.208264
 51
389.998925
  0
ARC
  8
0
  6
BYLAYER
 62
     1
 10
1256.065621
 20
-89.528217
 30
0.0
 40
1.999994
 50
210.000067
 51
314.792600
  0
LINE
  8
0
  6
BYLAYER
 62
     1
 10
1252.258279
 20
-86.933674
 30
0.0
 11
1254.333596
 21
-90.528217
 31
0.0
  0
ARC
  8
0
  6
BYLAYER
 62
     1
 10
1253.990334
 20
-85.933674
 30
0.0
 40
2.000004
 50
136.204955
 51
210.000067
  0
ARC
  8
0
  6
BYLAYER
 62
     1
 10
1222.952218
 20
-56.174061
 30
0.0
 40
41.0
 50
316.204700
 51
343.795441
  0
ARC
  8
0
  6
BYLAYER
 62
     1
 10
1264.243874
 20
-68.173939
 30
0.0
 40
1.999990
 50
89.999559
 51
163.795900
  0
LINE
  8
0
  6
BYLAYER
 62
     1
 10
1268.394509
 20
-66.174000
 30
0.0
 11
1264.243905
 21
-66.173939
 31
0.0
  0
ARC
  8
0
  6
BYLAYER
 62
     1
 10
1222.952218
 20
-56.174061
 30
0.0
 40
48.999966
 50
314.792491
 51
345.207596
  0
ARC
  8
0
  6
BYLAYER
 62
     1
 10
1268.394479
 20
-68.174030
 30
0.0
 40
2.000031
 50
345.208252
 51
449.998930
  0
ARC
  8
0
  6
BYLAYER
 62
     1
 10
1268.394479
 20
-44.174061
 30
0.0
 40
1.999976
 50
270.0
 51
374.792533
  0
LINE
  8
0
  6
BYLAYER
 62
     1
 10
1264.243844
 20
-46.174061
 30
0.0
 11
1268.394479
 21
-46.174092
 31
0.0
  0
ARC
  8
0
  6
BYLAYER
 62
     1
 10
1264.243844
 20
-44.174061
 30
0.0
 40
2.000000
 50
196.204957
 51
270.000055
  0
ARC
  8
0
  6
BYLAYER
 62
     1
 10
1222.952218
 20
-56.174061
 30
0.0
 40
40.999992
 50
16.204689
 51
43.795456
  0
ARC
  8
0
  6
BYLAYER
 62
     1
 10
1253.990243
 20
-26.414387
 30
0.0
 40
1.999969
 50
149.999560
 51
223.795902
  0
LINE
  8
0
  6
BYLAYER
 62
     1
 10
1254.333566
 20
-21.819843
 30
0.0
 11
1252.258218
 21
-25.414356
 31
0.0
  0
ARC
  8
0
  6
BYLAYER
 62
     1
 10
1222.952218
 20
-56.174061
 30
0.0
 40
48.999966
 50
14.792506
 51
45.207584
  0
ARC
  8
0
  6
BYLAYER
 62
     1
 10
1256.065621
 20
-22.819905
 30
0.0
 40
2.000035
 50
45.208267
 51
149.998932
  0
ARC
  8
0
  6
BYLAYER
 62
     1
 10
1235.281045
 20
-10.819935
 30
0.0
 40
1.999997
 50
330.000071
 51
434.792573
  0
LINE
  8
0
  6
BYLAYER
 62
     1
 10
1234.937783
 20
-15.414448
 30
0.0
 11
1237.013101
 21
-11.819935
 31
0.0
  0
ARC
  8
0
  6
BYLAYER
 62
     1
 10
1233.205728
 20
-14.414448
 30
0.0
 40
2.000004
 50
256.204958
 51
330.000071
  0
ARC
  8
0
  6
BYLAYER
 62
     1
 10
1222.952218
 20
-56.174061
 30
0.0
 40
40.999985
 50
76.204673
 51
103.795468
  0
ARC
  8
0
  6
BYLAYER
 62
     1
 10
1212.698586
 20
-14.414478
 30
0.0
 40
2.000019
 50
209.999562
 51
283.795890
  0
LINE
  8
0
  6
BYLAYER
 62
     1
 10
1208.891274
 20
-11.819905
 30
0.0
 11
1210.966531
 21
-15.414478
 31
0.0
  0
ARC
  8
0
  6
BYLAYER
 62
     1
 10
1222.952218
 20
-56.174061
 30
0.0
 40
48.999962
 50
74.792518
 51
105.207569
  0
ARC
  8
0
  6
BYLAYER
 62
     1
 10
1210.623361
 20
-10.819935
 30
0.0
 40
2.000015
 50
105.208279
 51
209.998934
  0
ARC
  8
0
  6
BYLAYER
 62
     1
 10
1189.838784
 20
-22.819905
 30
0.0
 40
1.999994
 50
30.000086
 51
134.792567
  0
LINE
  8
0
  6
BYLAYER
 62
     1
 10
1193.646157
 20
-25.414448
 30
0.0
 11
1191.570840
 21
-21.819905
 31
0.0
  0
ARC
  8
0
  6
BYLAYER
 62
     1
 10
1191.914102
 20
-26.414448
 30
0.0
 40
2.000004
 50
316.204974
 51
390.000086
  0
ARC
  8
0
  6
BYLAYER
 62
     1
 10
1222.952218
 20
-56.174061
 30
0.0
 40
41.000000
 50
136.204723
 51
163.795463
  0
ARC
  8
0
  6
BYLAYER
 62
     1
 10
1181.660531
 20
-44.174183
 30
0.0
 40
2.000019
 50
269.999564
 51
343.795905
  0
LINE
  8
0
  6
BYLAYER
 62
     1
 10
1177.509927
 20
-46.174122
 30
0.0
 11
1181.660531
 21
-46.174183
 31
0.0
  0
ARC
  8
0
  6
BYLAYER
 62
     1
 10
1222.952218
 20
-56.174061
 30
0.0
 40
48.999985
 50
134.792513
 51
165.207564
  0
ARC
  8
0
  6
BYLAYER
 62
     1
 10
1177.509957
 20
-44.174092
 30
0.0
 40
2.000031
 50
165.208274
 51
269.998935
  0
ARC
  8
0
  6
BYLAYER
 62
     1
 10
1177.509957
 20
-68.174030
 30
0.0
 40
1.999976
 50
90.0
 51
194.792485
  0
LINE
  8
0
  6
BYLAYER
 62
     1
 10
1181.660592
 20
-66.174030
 30
0.0
 11
1177.509957
 21
-66.174030
 31
0.0
  0
ARC
  8
0
  6
BYLAYER
 62
     1
 10
1181.660592
 20
-68.174061
 30
0.0
 40
2.000031
 50
16.204962
 51
90.000071
  0
ARC
  8
0
  6
BYLAYER
 62
     1
 10
1222.952218
 20
-56.174061
 30
0.0
 40
40.999992
 50
196.204711
 51
223.795451
  0
ARC
  8
0
  6
BYLAYER
 62
     1
 10
1191.914193
 20
-85.933735
 30
0.0
 40
1.999969
 50
329.999552
 51
403.795894
  0
LINE
  8
0
  6
BYLAYER
 62
     1
 10
1191.570870
 20
-90.528279
 30
0.0
 11
1193.646218
 21
-86.933766
 31
0.0
  0
ARC
  8
0
  6
BYLAYER
 62
     1
 10
1222.952218
 20
-56.174061
 30
0.0
 40
48.999958
 50
194.792501
 51
225.207552
  0
ARC
  8
0
  6
BYLAYER
 62
     1
 10
1189.838815
 20
-89.528217
 30
0.0
 40
2.000035
 50
225.208262
 51
329.998923
  0
CIRCLE
  8
0
  6
BYLAYER
 62
     1
 10
1222.952218
 20
-56.174061
 30
0.0
 40
54.0
  0
LINE
  8
0
  6
BYLAYER
 62
     2
 10
1202.798283
 20
-16.367450
 30
0.0
 11
1201.901708
 21
-13.021385
 31
0.0
  0
LINE
  8
0
  6
BYLAYER
 62
     2
 10
1201.901708
 20
-13.021385
 30
0.0
 11
1198.555643
 21
-12.124810
 31
0.0
  0
LINE
  8
0
  6
BYLAYER
 62
     2
 10
1198.555643
 20
-12.124810
 30
0.0
 11
1196.106153
 21
-14.574300
 31
0.0
  0
LINE
  8
0
  6
BYLAYER
 62
     2
 10
1196.106153
 20
-14.574300
 30
0.0
 11
1197.002728
 21
-17.920365
 31
0.0
  0
LINE
  8
0
  6
BYLAYER
 62
     2
 10
1197.002728
 20
-17.920365
 30
0.0
 11
1200.348793
 21
-18.816940
 31
0.0
  0
LINE
  8
0
  6
BYLAYER
 62
     2
 10
1200.348793
 20
-18.816940
 30
0.0
 11
1202.798283
 21
-16.367450
 31
0.0
  0
CIRCLE
  8
0
  6
BYLAYER
 62
     2
 10
1199.452218
 20
-15.470875
 30
0.0
 40
3.464102
  0
CIRCLE
  8
0
  6
BYLAYER
 62
     2
 10
1199.452218
 20
-15.470875
 30
0.0
 40
6.5
  0
LINE
  8
0
  6
BYLAYER
 62
     2
 10
1249.670537
 20
-16.293689
 30
0.0
 11
1248.773961
 21
-12.947624
 31
0.0
  0
LINE
  8
0
  6
BYLAYER
 62
     2
 10
1248.773961
 20
-12.947624
 30
0.0
 11
1245.427896
 21
-12.051049
 31
0.0
  0
LINE
  8
0
  6
BYLAYER
 62
     2
 10
1245.427896
 20
-12.051049
 30
0.0
 11
1242.978406
 21
-14.500539
 31
0.0
  0
LINE
  8
0
  6
BYLAYER
 62
     2
 10
1242.978406
 20
-14.500539
 30
0.0
 11
1243.874982
 21
-17.846604
 31
0.0
  0
LINE
  8
0
  6
BYLAYER
 62
     2
 10
1243.874982
 20
-17.846604
 30
0.0
 11
1247.221047
 21
-18.743179
 31
0.0
  0
LINE
  8
0
  6
BYLAYER
 62
     2
 10
1247.221047
 20
-18.743179
 30
0.0
 11
1249.670537
 21
-16.293689
 31
0.0
  0
CIRCLE
  8
0
  6
BYLAYER
 62
     2
 10
1246.324471
 20
-15.397114
 30
0.0
 40
3.464102
  0
CIRCLE
  8
0
  6
BYLAYER
 62
     2
 10
1246.324471
 20
-15.397114
 30
0.0
 40
6.5
  0
LINE
  8
0
  6
BYLAYER
 62
     2
 10
1273.170506
 20
-56.849353
 30
0.0
 11
1272.273931
 21
-53.503288
 31
0.0
  0
LINE
  8
0
  6
BYLAYER
 62
     2
 10
1272.273931
 20
-53.503288
 30
0.0
 11
1268.927865
 21
-52.606713
 31
0.0
  0
LINE
  8
0
  6
BYLAYER
 62
     2
 10
1268.927865
 20
-52.606713
 30
0.0
 11
1266.478376
 21
-55.056203
 31
0.0
  0
LINE
  8
0
  6
BYLAYER
 62
     2
 10
1266.478376
 20
-55.056203
 30
0.0
 11
1267.374951
 21
-58.402268
 31
0.0
  0
LINE
  8
0
  6
BYLAYER
 62
     2
 10
1267.374951
 20
-58.402268
 30
0.0
 11
1270.721016
 21
-59.298843
 31
0.0
  0
LINE
  8
0
  6
BYLAYER
 62
     2
 10
1270.721016
 20
-59.298843
 30
0.0
 11
1273.170506
 21
-56.849353
 31
0.0
  0
CIRCLE
  8
0
  6
BYLAYER
 62
     2
 10
1269.824441
 20
-55.952778
 30
0.0
 40
3.464102
  0
CIRCLE
  8
0
  6
BYLAYER
 62
     2
 10
1269.824441
 20
-55.952778
 30
0.0
 40
6.5
  0
LINE
  8
0
  6
BYLAYER
 62
     2
 10
1249.798283
 20
-97.478779
 30
0.0
 11
1248.901708
 21
-94.132713
 31
0.0
  0
LINE
  8
0
  6
BYLAYER
 62
     2
 10
1248.901708
 20
-94.132713
 30
0.0
 11
1245.555643
 21
-93.236138
 31
0.0
  0
LINE
  8
0
  6
BYLAYER
 62
     2
 10
1245.555643
 20
-93.236138
 30
0.0
 11
1243.106153
 21
-95.685628
 31
0.0
  0
LINE
  8
0
  6
BYLAYER
 62
     2
 10
1243.106153
 20
-95.685628
 30
0.0
 11
1244.002728
 21
-99.031693
 31
0.0
  0
LINE
  8
0
  6
BYLAYER
 62
     2
 10
1244.002728
 20
-99.031693
 30
0.0
 11
1247.348793
 21
-99.928268
 31
0.0
  0
LINE
  8
0
  6
BYLAYER
 62
     2
 10
1247.348793
 20
-99.928268
 30
0.0
 11
1249.798283
 21
-97.478779
 31
0.0
  0
CIRCLE
  8
0
  6
BYLAYER
 62
     2
 10
1246.452218
 20
-96.582203
 30
0.0
 40
3.464102
  0
CIRCLE
  8
0
  6
BYLAYER
 62
     2
 10
1246.452218
 20
-96.582203
 30
0.0
 40
6.5
  0
LINE
  8
0
  6
BYLAYER
 62
     2
 10
1202.926060
 20
-97.552540
 30
0.0
 11
1202.029485
 21
-94.206474
 31
0.0
  0
LINE
  8
0
  6
BYLAYER
 62
     2
 10
1202.029485
 20
-94.206474
 30
0.0
 11
1198.683420
 21
-93.309899
 31
0.0
  0
LINE
  8
0
  6
BYLAYER
 62
     2
 10
1198.683420
 20
-93.309899
 30
0.0
 11
1196.233930
 21
-95.759389
 31
0.0
  0
LINE
  8
0
  6
BYLAYER
 62
     2
 10
1196.233930
 20
-95.759389
 30
0.0
 11
1197.130505
 21
-99.105454
 31
0.0
  0
LINE
  8
0
  6
BYLAYER
 62
     2
 10
1197.130505
 20
-99.105454
 30
0.0
 11
1200.476571
 21
-100.002029
 31
0.0
  0
LINE
  8
0
  6
BYLAYER
 62
     2
 10
1200.476571
 20
-100.002029
 30
0.0
 11
1202.926060
 21
-97.552540
 31
0.0
  0
CIRCLE
  8
0
  6
BYLAYER
 62
     2
 10
1199.579995
 20
-96.655964
 30
0.0
 40
3.464102
  0
CIRCLE
  8
0
  6
BYLAYER
 62
     2
 10
1199.579995
 20
-96.655964
 30
0.0
 40
6.5
  0
LINE
  8
0
  6
BYLAYER
 62
     2
 10
1179.426060
 20
-56.996875
 30
0.0
 11
1178.529485
 21
-53.650810
 31
0.0
  0
LINE
  8
0
  6
BYLAYER
 62
     2
 10
1178.529485
 20
-53.650810
 30
0.0
 11
1175.183420
 21
-52.754235
 31
0.0
  0
LINE
  8
0
  6
BYLAYER
 62
     2
 10
1175.183420
 20
-52.754235
 30
0.0
 11
1172.733930
 21
-55.203725
 31
0.0
  0
LINE
  8
0
  6
BYLAYER
 62
     2
 10
1172.733930
 20
-55.203725
 30
0.0
 11
1173.630505
 21
-58.549790
 31
0.0
  0
LINE
  8
0
  6
BYLAYER
 62
     2
 10
1173.630505
 20
-58.549790
 30
0.0
 11
1176.976571
 21
-59.446365
 31
0.0
  0
LINE
  8
0
  6
BYLAYER
 62
     2
 10
1176.976571
 20
-59.446365
 30
0.0
 11
1179.426060
 21
-56.996875
 31
0.0
  0
CIRCLE
  8
0
  6
BYLAYER
 62
     2
 10
1176.079995
 20
-56.100300
 30
0.0
 40
3.464102
  0
CIRCLE
  8
0
  6
BYLAYER
 62
     2
 10
1176.079995
 20
-56.100300
 30
0.0
 40
6.5
  0
LINE
  8
0
  6
BYLAYER
 62
     1
 10
1306.952218
 20
-96.173756
 30
0.0
 11
1307.952218
 21
-97.173756
 31
0.0
  0
LINE
  8
0
  6
BYLAYER
 62
     1
 10
1306.952218
 20
-276.173786
 30
0.0
 11
1307.952218
 21
-275.173786
 31
0.0
  0
LINE
  8
0
  6
BYLAYER
 62
     1
 10
1303.952218
 20
-96.173756
 30
0.0
 11
1306.952218
 21
-96.173756
 31
0.0
  0
LINE
  8
0
  6
BYLAYER
 62
     1
 10
1303.952218
 20
-276.173786
 30
0.0
 11
1306.952218
 21
-276.173786
 31
0.0
  0
LINE
  8
0
  6
BYLAYER
 62
     1
 10
1307.952218
 20
-97.173756
 30
0.0
 11
1307.952218
 21
-275.173786
 31
0.0
  0
LINE
  8
0
  6
BYLAYER
 62
     1
 10
1145.452279
 20
-333.674092
 30
0.0
 11
1300.452218
 21
-333.674092
 31
0.0
  0
LINE
  8
0
  6
BYLAYER
 62
     1
 10
1145.452279
 20
1.325878
 30
0.0
 11
1300.452218
 21
1.325878
 31
0.0
  0
ARC
  8
0
  6
BYLAYER
 62
     1
 10
1148.452279
 20
-267.416706
 30
0.0
 40
3.000046
 50
135.000410
 51
180.000005
  0
ARC
  8
0
  6
BYLAYER
 62
     1
 10
1148.452279
 20
-64.931446
 30
0.0
 40
2.999982
 50
180.000000
 51
224.999595
  0
LINE
  8
0
  6
BYLAYER
 62
     1
 10
1145.452279
 20
1.325878
 30
0.0
 11
1145.452279
 21
-64.931446
 31
0.0
  0
LINE
  8
0
  6
BYLAYER
 62
     1
 10
1145.452279
 20
-267.416706
 30
0.0
 11
1145.452279
 21
-333.674092
 31
0.0
  0
ARC
  8
0
  6
BYLAYER
 62
     1
 10
1297.452218
 20
-64.931446
 30
0.0
 40
2.999982
 50
315.000402
 51
359.999983
  0
ARC
  8
0
  6
BYLAYER
 62
     1
 10
1297.452218
 20
-267.416706
 30
0.0
 40
3.000046
 50
0.0
 51
44.999609
  0
LINE
  8
0
  6
BYLAYER
 62
     1
 10
1300.452218
 20
1.325878
 30
0.0
 11
1300.452218
 21
-64.931446
 31
0.0
  0
LINE
  8
0
  6
BYLAYER
 62
     1
 10
1300.452218
 20
-333.674092
 30
0.0
 11
1300.452218
 21
-267.416706
 31
0.0
  0
LINE
  8
0
  6
BYLAYER
 62
     1
 10
1300.452218
 20
-311.357258
 30
0.0
 11
1303.952218
 21
-311.173786
 31
0.0
  0
LINE
  8
0
  6
BYLAYER
 62
     1
 10
1303.952218
 20
-61.173756
 30
0.0
 11
1300.452218
 21
-60.990345
 31
0.0
  0
LINE
  8
0
  6
BYLAYER
 62
     1
 10
1145.728402
 20
-66.188587
 30
0.0
 11
1167.899301
 21
-67.350514
 31
0.0
  0
ARC
  8
0
  6
BYLAYER
 62
     1
 10
1167.742318
 20
-70.346424
 30
0.0
 40
3.000021
 50
14.397567
 51
87.000504
  0
ARC
  8
0
  6
BYLAYER
 62
     1
 10
1168.564584
 20
-73.232166
 30
0.0
 40
2.999966
 50
17.413274
 51
86.998148
  0
LINE
  8
0
  6
BYLAYER
 62
     1
 10
1300.176095
 20
-66.188587
 30
0.0
 11
1278.005197
 21
-67.350514
 31
0.0
  0
ARC
  8
0
  6
BYLAYER
 62
     1
 10
1278.162179
 20
-70.346424
 30
0.0
 40
3.000021
 50
92.999494
 51
165.602431
  0
ARC
  8
0
  6
BYLAYER
 62
     1
 10
1277.339913
 20
-73.232166
 30
0.0
 40
2.999960
 50
93.001850
 51
162.586725
  0
CIRCLE
  8
0
  6
BYLAYER
 62
     1
 10
1222.952218
 20
-56.173756
 30
0.0
 40
40.0
  0
LINE
  8
0
  6
BYLAYER
 62
     1
 10
1303.952218
 20
-311.173786
 30
0.0
 11
1303.952218
 21
-61.173756
 31
0.0
  0
ARC
  8
0
  6
BYLAYER
 62
     1
 10
1212.952218
 20
-256.789662
 30
0.0
 40
3.000021
 50
272.999519
 51
360.000010
  0
LINE
  8
0
  6
BYLAYER
 62
     1
 10
1215.952218
 20
-256.789662
 30
0.0
 11
1215.952218
 21
-244.522236
 31
0.0
  0
ARC
  8
0
  6
BYLAYER
 62
     1
 10
1212.952218
 20
-244.522236
 30
0.0
 40
3.0
 50
0.0
 51
87.032019
  0
ARC
  8
0
  6
BYLAYER
 62
     1
 10
1212.952218
 20
-213.825306
 30
0.0
 40
3.0
 50
272.967981
 51
360.000000
  0
LINE
  8
0
  6
BYLAYER
 62
     1
 10
1215.952218
 20
-201.522206
 30
0.0
 11
1215.952218
 21
-213.825306
 31
0.0
  0
LINE
  8
0
  6
BYLAYER
 62
     1
 10
1215.952218
 20
-170.825306
 30
0.0
 11
1215.952218
 21
-158.522206
 31
0.0
  0
ARC
  8
0
  6
BYLAYER
 62
     1
 10
1212.952218
 20
-158.522206
 30
0.0
 40
3.0
 50
0.0
 51
87.032019
  0
ARC
  8
0
  6
BYLAYER
 62
     1
 10
1212.952218
 20
-127.825306
 30
0.0
 40
3.0
 50
272.967981
 51
360.000000
  0
ARC
  8
0
  6
BYLAYER
 62
     1
 10
1232.952218
 20
-256.789662
 30
0.0
 40
3.000021
 50
180.000000
 51
267.000477
  0
LINE
  8
0
  6
BYLAYER
 62
     1
 10
1229.952218
 20
-256.789662
 30
0.0
 11
1229.952218
 21
-244.522236
 31
0.0
  0
ARC
  8
0
  6
BYLAYER
 62
     1
 10
1232.952218
 20
-244.522236
 30
0.0
 40
3.0
 50
92.967981
 51
180.000000
  0
ARC
  8
0
  6
BYLAYER
 62
     1
 10
1232.952218
 20
-213.825306
 30
0.0
 40
3.0
 50
180.000000
 51
267.032005
  0
LINE
  8
0
  6
BYLAYER
 62
     1
 10
1229.952218
 20
-201.522206
 30
0.0
 11
1229.952218
 21
-213.825306
 31
0.0
  0
LINE
  8
0
  6
BYLAYER
 62
     1
 10
1229.952218
 20
-170.825306
 30
0.0
 11
1229.952218
 21
-158.522206
 31
0.0
  0
ARC
  8
0
  6
BYLAYER
 62
     1
 10
1232.952218
 20
-158.522206
 30
0.0
 40
3.0
 50
92.967981
 51
180.000000
  0
ARC
  8
0
  6
BYLAYER
 62
     1
 10
1232.952218
 20
-127.825306
 30
0.0
 40
3.0
 50
180.000000
 51
267.032005
  0
ARC
  8
0
  6
BYLAYER
 62
     1
 10
1232.952218
 20
-115.522206
 30
0.0
 40
2.999993
 50
92.968000
 51
180.000005
  0
ARC
  8
0
  6
BYLAYER
 62
     1
 10
1212.952218
 20
-115.522206
 30
0.0
 40
2.999993
 50
0.0
 51
87.032018
  0
LINE
  8
0
  6
BYLAYER
 62
     1
 10
1215.952218
 20
-127.825306
 30
0.0
 11
1215.952218
 21
-115.522206
 31
0.0
  0
LINE
  8
0
  6
BYLAYER
 62
     1
 10
1229.952218
 20
-127.825306
 30
0.0
 11
1229.952218
 21
-115.522206
 31
0.0
  0
ARC
  8
0
  6
BYLAYER
 62
     1
 10
1174.878671
 20
-86.799427
 30
0.0
 40
3.000057
 50
272.967964
 51
392.499266
  0
ARC
  8
0
  6
BYLAYER
 62
     1
 10
1271.025704
 20
-86.799488
 30
0.0
 40
2.999969
 50
147.500107
 51
267.030835
  0
LINE
  8
0
  6
BYLAYER
 62
     1
 10
1146.330941
 20
-67.052723
 30
0.0
 11
1155.073556
 21
-75.795216
 31
0.0
  0
ARC
  8
0
  6
BYLAYER
 62
     1
 10
1152.952218
 20
-77.916554
 30
0.0
 40
3.0
 50
0.0
 51
45.000305
  0
LINE
  8
0
  6
BYLAYER
 62
     1
 10
1146.330941
 20
-265.295338
 30
0.0
 11
1155.073556
 21
-256.552754
 31
0.0
  0
LINE
  8
0
  6
BYLAYER
 62
     1
 10
1299.573556
 20
-265.295338
 30
0.0
 11
1290.830880
 21
-256.552693
 31
0.0
  0
ARC
  8
0
  6
BYLAYER
 62
     1
 10
1292.952218
 20
-254.431355
 30
0.0
 40
3.000000
 50
180.000000
 51
225.000001
  0
LINE
  8
0
  6
BYLAYER
 62
     1
 10
1299.573556
 20
-67.052723
 30
0.0
 11
1290.830880
 21
-75.795399
 31
0.0
  0
LINE
  8
0
  6
BYLAYER
 62
     1
 10
1168.721688
 20
-70.236317
 30
0.0
 11
1148.452218
 21
-69.174000
 31
0.0
  0
LINE
  8
0
  6
BYLAYER
 62
     1
 10
1277.182931
 20
-70.236317
 30
0.0
 11
1297.452218
 21
-69.174000
 31
0.0
  0
LINE
  8
0
  6
BYLAYER
 62
     1
 10
1148.452157
 20
-263.174122
 30
0.0
 11
1222.952218
 21
-259.269703
 31
0.0
  0
LINE
  8
0
  6
BYLAYER
 62
     1
 10
1297.452340
 20
-263.174122
 30
0.0
 11
1222.952218
 21
-259.269703
 31
0.0
  0
LINE
  8
0
  6
BYLAYER
 62
     1
 10
1213.107491
 20
-241.526234
 30
0.0
 11
1158.796884
 21
-238.710163
 31
0.0
  0
LINE
  8
0
  6
BYLAYER
 62
     1
 10
1213.107491
 20
-216.821278
 30
0.0
 11
1158.796884
 21
-219.637348
 31
0.0
  0
ARC
  8
0
  6
BYLAYER
 62
     1
 10
1158.952218
 20
-222.633320
 30
0.0
 40
3.000000
 50
92.968191
 51
179.999998
  0
LINE
  8
0
  6
BYLAYER
 62
     1
 10
1213.107491
 20
-198.526234
 30
0.0
 11
1158.796884
 21
-195.710194
 31
0.0
  0
LINE
  8
0
  6
BYLAYER
 62
     1
 10
1213.107491
 20
-173.821278
 30
0.0
 11
1158.796884
 21
-176.637318
 31
0.0
  0
ARC
  8
0
  6
BYLAYER
 62
     1
 10
1158.952218
 20
-179.633290
 30
0.0
 40
3.000000
 50
92.968191
 51
179.999998
  0
LINE
  8
0
  6
BYLAYER
 62
     1
 10
1213.107491
 20
-155.526234
 30
0.0
 11
1158.796884
 21
-152.710194
 31
0.0
  0
LINE
  8
0
  6
BYLAYER
 62
     1
 10
1213.107491
 20
-130.821278
 30
0.0
 11
1158.796884
 21
-133.637318
 31
0.0
  0
ARC
  8
0
  6
BYLAYER
 62
     1
 10
1158.952218
 20
-136.633290
 30
0.0
 40
3.000000
 50
92.968191
 51
179.999998
  0
LINE
  8
0
  6
BYLAYER
 62
     1
 10
1213.107491
 20
-112.526234
 30
0.0
 11
1158.796884
 21
-109.710194
 31
0.0
  0
LINE
  8
0
  6
BYLAYER
 62
     1
 10
1175.034005
 20
-89.795460
 30
0.0
 11
1158.796884
 21
-90.637318
 31
0.0
  0
ARC
  8
0
  6
BYLAYER
 62
     1
 10
1158.952218
 20
-93.633351
 30
0.0
 40
3.0
 50
92.968102
 51
179.999998
  0
LINE
  8
0
  6
BYLAYER
 62
     1
 10
1270.870309
 20
-89.795460
 30
0.0
 11
1287.107614
 21
-90.637318
 31
0.0
  0
ARC
  8
0
  6
BYLAYER
 62
     1
 10
1286.952218
 20
-93.633351
 30
0.0
 40
3.0
 50
0.0
 51
87.031923
  0
LINE
  8
0
  6
BYLAYER
 62
     1
 10
1232.796945
 20
-112.526234
 30
0.0
 11
1287.107614
 21
-109.710194
 31
0.0
  0
LINE
  8
0
  6
BYLAYER
 62
     1
 10
1232.796822
 20
-130.821278
 30
0.0
 11
1287.107614
 21
-133.637318
 31
0.0
  0
ARC
  8
0
  6
BYLAYER
 62
     1
 10
1286.952218
 20
-136.633290
 30
0.0
 40
3.0
 50
0.0
 51
87.031821
  0
LINE
  8
0
  6
BYLAYER
 62
     1
 10
1232.796822
 20
-155.526234
 30
0.0
 11
1287.107614
 21
-152.710194
 31
0.0
  0
LINE
  8
0
  6
BYLAYER
 62
     1
 10
1232.796822
 20
-173.821278
 30
0.0
 11
1287.107614
 21
-176.637318
 31
0.0
  0
ARC
  8
0
  6
BYLAYER
 62
     1
 10
1286.952218
 20
-179.633290
 30
0.0
 40
3.0
 50
0.0
 51
87.031821
  0
LINE
  8
0
  6
BYLAYER
 62
     1
 10
1232.796822
 20
-198.526234
 30
0.0
 11
1287.107614
 21
-195.710194
 31
0.0
  0
LINE
  8
0
  6
BYLAYER
 62
     1
 10
1232.796822
 20
-216.821278
 30
0.0
 11
1287.107614
 21
-219.637348
 31
0.0
  0
ARC
  8
0
  6
BYLAYER
 62
     1
 10
1286.952218
 20
-222.633320
 30
0.0
 40
3.0
 50
0.0
 51
87.031821
  0
LINE
  8
0
  6
BYLAYER
 62
     1
 10
1232.796822
 20
-241.526234
 30
0.0
 11
1287.107614
 21
-238.710133
 31
0.0
  0
LINE
  8
0
  6
BYLAYER
 62
     1
 10
1155.952218
 20
-77.916554
 30
0.0
 11
1155.952218
 21
-254.431416
 31
0.0
  0
ARC
  8
0
  6
BYLAYER
 62
     1
 10
1158.952218
 20
-235.714192
 30
0.0
 40
3.000000
 50
180.000000
 51
267.031807
  0
ARC
  8
0
  6
BYLAYER
 62
     1
 10
1158.952218
 20
-192.714222
 30
0.0
 40
3.000000
 50
180.000000
 51
267.031807
  0
ARC
  8
0
  6
BYLAYER
 62
     1
 10
1158.952218
 20
-149.714222
 30
0.0
 40
3.000000
 50
180.000000
 51
267.031807
  0
ARC
  8
0
  6
BYLAYER
 62
     1
 10
1158.952218
 20
-106.714222
 30
0.0
 40
3.000000
 50
180.000000
 51
267.031807
  0
ARC
  8
0
  6
BYLAYER
 62
     1
 10
1152.952218
 20
-254.431416
 30
0.0
 40
3.000000
 50
314.999999
 51
360.000000
  0
LINE
  8
0
  6
BYLAYER
 62
     1
 10
1289.952218
 20
-77.916676
 30
0.0
 11
1289.952218
 21
-254.431355
 31
0.0
  0
ARC
  8
0
  6
BYLAYER
 62
     1
 10
1286.952218
 20
-235.714161
 30
0.0
 40
3.000000
 50
272.968213
 51
360.000000
  0
ARC
  8
0
  6
BYLAYER
 62
     1
 10
1286.952218
 20
-192.714222
 30
0.0
 40
3.000000
 50
272.968179
 51
360.000000
  0
ARC
  8
0
  6
BYLAYER
 62
     1
 10
1286.952218
 20
-149.714222
 30
0.0
 40
3.000000
 50
272.968179
 51
360.000000
  0
ARC
  8
0
  6
BYLAYER
 62
     1
 10
1286.952218
 20
-106.714222
 30
0.0
 40
3.0
 50
272.968186
 51
360.000000
  0
ARC
  8
0
  6
BYLAYER
 62
     1
 10
1292.952218
 20
-77.916676
 30
0.0
 40
3.0
 50
134.999999
 51
180.000000
  0
LINE
  8
0
  6
BYLAYER
 62
     1
 10
1138.952218
 20
-96.173756
 30
0.0
 11
1137.952218
 21
-97.173756
 31
0.0
  0
LINE
  8
0
  6
BYLAYER
 62
     1
 10
1138.952218
 20
-276.173786
 30
0.0
 11
1137.952218
 21
-275.173786
 31
0.0
  0
LINE
  8
0
  6
BYLAYER
 62
     1
 10
1141.952218
 20
-96.173756
 30
0.0
 11
1138.952218
 21
-96.173756
 31
0.0
  0
LINE
  8
0
  6
BYLAYER
 62
     1
 10
1141.952218
 20
-276.173786
 30
0.0
 11
1138.952218
 21
-276.173786
 31
0.0
  0
LINE
  8
0
  6
BYLAYER
 62
     1
 10
1137.952218
 20
-97.173756
 30
0.0
 11
1137.952218
 21
-275.173786
 31
0.0
  0
LINE
  8
0
  6
BYLAYER
 62
     1
 10
1145.452218
 20
-311.357258
 30
0.0
 11
1141.952218
 21
-311.173786
 31
0.0
  0
LINE
  8
0
  6
BYLAYER
 62
     1
 10
1141.952218
 20
-61.173756
 30
0.0
 11
1145.452218
 21
-60.990345
 31
0.0
  0
LINE
  8
0
  6
BYLAYER
 62
     1
 10
1141.952218
 20
-311.173786
 30
0.0
 11
1141.952218
 21
-61.173756
 31
0.0
  0
ARC
  8
0
  6
BYLAYER
 62
     3
 10
1222.952218
 20
-56.174056
 30
0.0
 40
14.999995
 50
90.005681
 51
449.999953
  0
ARC
  8
0
  6
BYLAYER
 62
     3
 10
1222.952218
 20
-56.174060
 30
0.0
 40
17.500115
 50
103.212846
 51
436.787062
  0
ARC
  8
0
  6
BYLAYER
 62
     3
 10
1222.952218
 20
-56.174061
 30
0.0
 40
5.0
 50
270.0
 51
540.0
  0
CIRCLE
  8
0
  6
BYLAYER
 62
     3
 10
1222.952218
 20
-56.174061
 30
0.0
 40
4.5
  0
LINE
  8
0
  6
BYLAYER
 62
     3
 10
1218.952230
 20
-41.717225
 30
0.0
 11
1218.952232
 21
-38.174058
 31
0.0
  0
LINE
  8
0
  6
BYLAYER
 62
     3
 10
1226.952230
 20
-41.717232
 30
0.0
 11
1226.952232
 21
-38.174064
 31
0.0
  0
LINE
  8
0
  6
BYLAYER
 62
     3
 10
1218.952232
 20
-38.174058
 30
0.0
 11
1226.952232
 21
-38.174064
 31
0.0
  0
LINE
  8
0
  6
BYLAYER
 62
     1
 10
487.952218
 20
-752.174030
 30
0.0
 11
495.487115
 21
-752.437153
 31
0.0
  0
ARC
  8
0
  6
BYLAYER
 62
     1
 10
495.452218
 20
-753.436543
 30
0.0
 40
0.999999
 50
0.0
 51
87.999939
  0
LINE
  8
0
  6
BYLAYER
 62
     1
 10
487.952218
 20
-752.174061
 30
0.0
 11
487.952218
 21
-806.174061
 31
0.0
  0
ARC
  8
0
  6
BYLAYER
 62
     1
 10
495.452218
 20
-858.911549
 30
0.0
 40
0.999999
 50
272.000070
 51
359.999995
  0
LINE
  8
0
  6
BYLAYER
 62
     1
 10
496.452218
 20
-858.911549
 30
0.0
 11
496.452218
 21
-806.174061
 31
0.0
  0
LINE
  8
0
  6
BYLAYER
 62
     1
 10
487.952218
 20
-806.174061
 30
0.0
 11
487.952218
 21
-860.174061
 31
0.0
  0
LINE
  8
0
  6
BYLAYER
 62
     1
 10
487.952218
 20
-860.174061
 30
0.0
 11
495.487115
 21
-859.910938
 31
0.0
  0
LINE
  8
0
  6
BYLAYER
 62
     3
 10
583.452267
 20
-821.174094
 30
0.0
 11
584.952268
 21
-819.674095
 31
0.0
  0
LINE
  8
0
  6
BYLAYER
 62
     3
 10
583.452291
 20
-791.174094
 30
0.0
 11
584.952290
 21
-792.674095
 31
0.0
  0
LINE
  8
0
  6
BYLAYER
 62
     3
 10
504.952267
 20
-821.174062
 30
0.0
 11
583.452267
 21
-821.174094
 31
0.0
  0
LINE
  8
0
  6
BYLAYER
 62
     3
 10
504.952291
 20
-791.174061
 30
0.0
 11
574.952291
 21
-791.174117
 31
0.0
  0
LINE
  8
0
  6
BYLAYER
 62
     3
 10
574.952291
 20
-791.174087
 30
0.0
 11
583.452291
 21
-791.174094
 31
0.0
  0
LINE
  8
0
  6
BYLAYER
 62
     3
 10
584.952290
 20
-792.674095
 30
0.0
 11
584.952279
 21
-806.174095
 31
0.0
  0
LINE
  8
0
  6
BYLAYER
 62
     3
 10
584.952279
 20
-806.174095
 30
0.0
 11
584.952268
 21
-819.674095
 31
0.0
  0
LINE
  8
0
  6
BYLAYER
 62
     1
 10
496.452218
 20
-753.436543
 30
0.0
 11
496.452218
 21
-806.174061
 31
0.0
  0
LINE
  8
0
  6
BYLAYER
 62
     2
 10
496.452218
 20
-752.801838
 30
0.0
 11
502.952233
 21
-752.801838
 31
0.0
  0
LINE
  8
0
  6
BYLAYER
 62
     2
 10
496.452218
 20
-765.801838
 30
0.0
 11
502.952233
 21
-765.801838
 31
0.0
  0
LINE
  8
0
  6
BYLAYER
 62
     2
 10
503.952233
 20
-753.801838
 30
0.0
 11
503.952233
 21
-764.801838
 31
0.0
  0
ARC
  8
0
  6
BYLAYER
 62
     2
 10
502.952233
 20
-753.801838
 30
0.0
 40
1.0
 50
0.0
 51
90.000003
  0
ARC
  8
0
  6
BYLAYER
 62
     2
 10
502.952233
 20
-764.801838
 30
0.0
 40
1.0
 50
270.0
 51
359.999996
  0
LINE
  8
0
  6
BYLAYER
 62
     2
 10
496.452218
 20
-776.174061
 30
0.0
 11
502.952233
 21
-776.174061
 31
0.0
  0
LINE
  8
0
  6
BYLAYER
 62
     2
 10
503.952233
 20
-777.174061
 30
0.0
 11
503.952233
 21
-788.174061
 31
0.0
  0
ARC
  8
0
  6
BYLAYER
 62
     2
 10
502.952233
 20
-777.174061
 30
0.0
 40
1.0
 50
0.0
 51
90.000003
  0
LINE
  8
0
  6
BYLAYER
 62
     2
 10
496.452218
 20
-859.546284
 30
0.0
 11
502.952233
 21
-859.546284
 31
0.0
  0
LINE
  8
0
  6
BYLAYER
 62
     2
 10
496.452218
 20
-846.546284
 30
0.0
 11
502.952233
 21
-846.546284
 31
0.0
  0
LINE
  8
0
  6
BYLAYER
 62
     2
 10
503.952233
 20
-858.546284
 30
0.0
 11
503.952233
 21
-847.546284
 31
0.0
  0
ARC
  8
0
  6
BYLAYER
 62
     2
 10
502.952233
 20
-858.546284
 30
0.0
 40
1.000000
 50
270.0
 51
360.000003
  0
ARC
  8
0
  6
BYLAYER
 62
     2
 10
502.952233
 20
-847.546284
 30
0.0
 40
1.0
 50
0.0
 51
89.999996
  0
LINE
  8
0
  6
BYLAYER
 62
     2
 10
496.452218
 20
-836.174061
 30
0.0
 11
502.952233
 21
-836.174061
 31
0.0
  0
LINE
  8
0
  6
BYLAYER
 62
     2
 10
503.952233
 20
-835.174061
 30
0.0
 11
503.952233
 21
-824.174061
 31
0.0
  0
ARC
  8
0
  6
BYLAYER
 62
     2
 10
502.952233
 20
-835.174061
 30
0.0
 40
1.000000
 50
270.0
 51
360.000003
  0
LINE
  8
0
  6
BYLAYER
 62
     3
 10
518.952291
 20
-802.174075
 30
0.0
 11
570.952291
 21
-802.174075
 31
0.0
  0
ARC
  8
0
  6
BYLAYER
 62
     3
 10
570.952291
 20
-806.174075
 30
0.0
 40
4.000000
 50
0.0
 51
90.0
  0
LINE
  8
0
  6
BYLAYER
 62
     3
 10
518.952291
 20
-810.174075
 30
0.0
 11
570.952291
 21
-810.174075
 31
0.0
  0
ARC
  8
0
  6
BYLAYER
 62
     3
 10
570.952291
 20
-806.174075
 30
0.0
 40
4.000000
 50
270.0
 51
360.0
  0
LINE
  8
0
  6
BYLAYER
 62
     3
 10
504.952279
 20
-806.174061
 30
0.0
 11
504.952292
 21
-790.174183
 31
0.0
  0
ARC
  8
0
  6
BYLAYER
 62
     3
 10
518.952291
 20
-806.174075
 30
0.0
 40
4.000000
 50
90.0
 51
180.0
  0
LINE
  8
0
  6
BYLAYER
 62
     3
 10
504.952266
 20
-822.174107
 30
0.0
 11
504.952279
 21
-806.174061
 31
0.0
  0
LINE
  8
0
  6
BYLAYER
 62
     2
 10
496.452218
 20
-823.174061
 30
0.0
 11
502.952233
 21
-823.174061
 31
0.0
  0
ARC
  8
0
  6
BYLAYER
 62
     3
 10
503.452266
 20
-822.174106
 30
0.0
 40
1.500000
 50
283.178530
 51
359.999954
  0
ARC
  8
0
  6
BYLAYER
 62
     2
 10
502.952233
 20
-824.174061
 30
0.0
 40
1.0
 50
0.0
 51
89.999996
  0
ARC
  8
0
  6
BYLAYER
 62
     3
 10
518.952291
 20
-806.174075
 30
0.0
 40
4.000000
 50
180.000000
 51
270.000000
  0
LINE
  8
0
  6
BYLAYER
 62
     2
 10
496.452218
 20
-789.174061
 30
0.0
 11
502.952233
 21
-789.174061
 31
0.0
  0
ARC
  8
0
  6
BYLAYER
 62
     3
 10
503.452292
 20
-790.174182
 30
0.0
 40
1.500000
 50
0.0
 51
76.826009
  0
ARC
  8
0
  6
BYLAYER
 62
     2
 10
502.952233
 20
-788.174061
 30
0.0
 40
1.0
 50
270.0
 51
359.999996
  0
ENDSEC
  0
EOF
