  0
SECTION
  2
HEADER
  9
$EXTMIN
 10
198.771331
 20
896.0
 30
0.0
  9
$EXTMAX
 10
1207.918089
 20
0.0
 30
0.0
  0
ENDSEC
  0
SECTION
  2
TABLES
  0
ENDSEC
  0
SECTION
  2
BLOCKS
  0
ENDSEC
  0
SECTION
  2
ENTITIES
  0
ARC
  8
0
  6
BYLAYER
 62
     1
 10
218.737186
 20
-16.662055
 30
0.0
 40
3.0
 50
90.0
 51
180.000003
  0
ARC
  8
0
  6
BYLAYER
 62
     1
 10
438.737186
 20
-16.662055
 30
0.0
 40
3.000000
 50
0.0
 51
90.000003
  0
ARC
  8
0
  6
BYLAYER
 62
     1
 10
438.737186
 20
-276.662055
 30
0.0
 40
3.000000
 50
270.0
 51
360.000003
  0
ARC
  8
0
  6
BYLAYER
 62
     1
 10
218.737186
 20
-276.662055
 30
0.0
 40
3.000000
 50
180.000000
 51
269.999996
  0
ARC
  8
0
  6
BYLAYER
 62
     1
 10
205.479587
 20
-67.300605
 30
0.0
 40
3.000008
 50
358.896607
 51
419.020549
  0
LINE
  8
0
  6
BYLAYER
 62
     1
 10
450.737216
 20
-223.646399
 30
0.0
 11
450.737216
 21
-193.194770
 31
0.0
  0
LINE
  8
0
  6
BYLAYER
 62
     1
 10
450.737216
 20
-140.129218
 30
0.0
 11
450.737216
 21
-110.819282
 31
0.0
  0
LINE
  8
0
  6
BYLAYER
 62
     1
 10
453.737216
 20
-62.622809
 30
0.0
 11
450.369052
 21
-64.606818
 31
0.0
  0
ARC
  8
0
  6
BYLAYER
 62
     1
 10
451.891696
 20
-67.191657
 30
0.0
 40
2.999973
 50
120.500656
 51
180.588098
  0
ARC
  8
0
  6
BYLAYER
 62
     1
 10
385.721591
 20
-1.662055
 30
0.0
 40
2.999982
 50
312.719473
 51
314.999172
  0
ARC
  8
0
  6
BYLAYER
 62
     1
 10
385.721591
 20
-1.662055
 30
0.0
 40
3.000025
 50
270.0
 51
315.000018
  0
LINE
  8
0
  6
BYLAYER
 62
     1
 10
385.721591
 20
-4.662055
 30
0.0
 11
271.752841
 21
-4.662055
 31
0.0
  0
ARC
  8
0
  6
BYLAYER
 62
     1
 10
271.752841
 20
-1.662055
 30
0.0
 40
2.999982
 50
225.000829
 51
227.280528
  0
ARC
  8
0
  6
BYLAYER
 62
     1
 10
271.752841
 20
-1.662055
 30
0.0
 40
3.000025
 50
224.999982
 51
270.000001
  0
ARC
  8
0
  6
BYLAYER
 62
     1
 10
226.737201
 20
-100.662055
 30
0.0
 40
2.0
 50
270.0
 51
450.000005
  0
ARC
  8
0
  6
BYLAYER
 62
     1
 10
234.237216
 20
-89.662055
 30
0.0
 40
2.000000
 50
270.0
 51
450.000005
  0
LINE
  8
0
  6
BYLAYER
 62
     1
 10
218.737186
 20
-91.662055
 30
0.0
 11
234.237216
 21
-91.662055
 31
0.0
  0
ARC
  8
0
  6
BYLAYER
 62
     1
 10
218.737186
 20
-94.662055
 30
0.0
 40
3.0
 50
90.0
 51
180.000003
  0
LINE
  8
0
  6
BYLAYER
 62
     1
 10
218.737186
 20
-87.662055
 30
0.0
 11
234.237216
 21
-87.662055
 31
0.0
  0
ARC
  8
0
  6
BYLAYER
 62
     1
 10
218.737186
 20
-84.662055
 30
0.0
 40
3.000000
 50
180.000000
 51
269.999996
  0
ARC
  8
0
  6
BYLAYER
 62
     1
 10
218.737186
 20
-95.662055
 30
0.0
 40
3.000000
 50
180.000000
 51
269.999996
  0
ARC
  8
0
  6
BYLAYER
 62
     1
 10
218.737186
 20
-105.662055
 30
0.0
 40
3.0
 50
90.0
 51
180.000003
  0
LINE
  8
0
  6
BYLAYER
 62
     1
 10
218.737186
 20
-98.662055
 30
0.0
 11
226.737201
 21
-98.662055
 31
0.0
  0
LINE
  8
0
  6
BYLAYER
 62
     1
 10
218.737186
 20
-102.662055
 30
0.0
 11
226.737201
 21
-102.662055
 31
0.0
  0
ARC
  8
0
  6
BYLAYER
 62
     1
 10
423.237186
 20
-89.662055
 30
0.0
 40
2.000000
 50
90.0
 51
270.000005
  0
LINE
  8
0
  6
BYLAYER
 62
     1
 10
438.737216
 20
-87.662055
 30
0.0
 11
423.237186
 21
-87.662055
 31
0.0
  0
LINE
  8
0
  6
BYLAYER
 62
     1
 10
438.737216
 20
-91.662055
 30
0.0
 11
423.237186
 21
-91.662055
 31
0.0
  0
ARC
  8
0
  6
BYLAYER
 62
     1
 10
438.737216
 20
-84.662055
 30
0.0
 40
3.0
 50
270.0
 51
359.999982
  0
ARC
  8
0
  6
BYLAYER
 62
     1
 10
438.737216
 20
-94.662055
 30
0.0
 40
3.000000
 50
0.0
 51
90.000016
  0
ARC
  8
0
  6
BYLAYER
 62
     1
 10
438.737216
 20
-95.662055
 30
0.0
 40
3.0
 50
270.0
 51
359.999982
  0
LINE
  8
0
  6
BYLAYER
 62
     1
 10
438.737216
 20
-98.662055
 30
0.0
 11
430.737216
 21
-98.662055
 31
0.0
  0
ARC
  8
0
  6
BYLAYER
 62
     1
 10
430.737216
 20
-100.662055
 30
0.0
 40
2.0
 50
90.0
 51
270.000005
  0
LINE
  8
0
  6
BYLAYER
 62
     1
 10
438.737216
 20
-102.662055
 30
0.0
 11
430.737216
 21
-102.662055
 31
0.0
  0
ARC
  8
0
  6
BYLAYER
 62
     1
 10
438.737216
 20
-105.662055
 30
0.0
 40
3.0
 50
0.0
 51
90.000016
  0
ARC
  8
0
  6
BYLAYER
 62
     1
 10
453.737216
 20
-113.666144
 30
0.0
 40
2.999961
 50
93.000108
 51
180.000005
  0
LINE
  8
0
  6
BYLAYER
 62
     1
 10
453.737216
 20
-110.662055
 30
0.0
 11
453.580203
 21
-110.670295
 31
0.0
  0
ARC
  8
0
  6
BYLAYER
 62
     1
 10
444.737186
 20
-127.875922
 30
0.0
 40
3.000000
 50
180.000000
 51
193.15101
  0
ARC
  8
0
  6
BYLAYER
 62
     1
 10
278.737201
 20
-166.662055
 30
0.0
 40
167.470993
 50
346.848700
 51
373.151311
  0
ARC
  8
0
  6
BYLAYER
 62
     1
 10
444.737186
 20
-205.448218
 30
0.0
 40
3.000011
 50
166.848421
 51
180.000005
  0
LINE
  8
0
  6
BYLAYER
 62
     1
 10
441.737186
 20
-231.662085
 30
0.0
 11
453.737186
 21
-231.662085
 31
0.0
  0
LINE
  8
0
  6
BYLAYER
 62
     1
 10
453.737186
 20
-227.889075
 30
0.0
 11
451.615848
 21
-225.767737
 31
0.0
  0
ARC
  8
0
  6
BYLAYER
 62
     1
 10
453.737186
 20
-223.646460
 30
0.0
 40
2.999982
 50
222.719464
 51
224.999163
  0
ARC
  8
0
  6
BYLAYER
 62
     1
 10
453.737186
 20
-223.646460
 30
0.0
 40
3.000025
 50
180.000000
 51
225.000018
  0
ARC
  8
0
  6
BYLAYER
 62
     1
 10
302.204486
 20
-291.662055
 30
0.0
 40
3.000023
 50
81.378801
 51
90.000003
  0
LINE
  8
0
  6
BYLAYER
 62
     1
 10
271.752857
 20
-288.662055
 30
0.0
 11
302.204486
 21
-288.662055
 31
0.0
  0
ARC
  8
0
  6
BYLAYER
 62
     1
 10
289.951038
 20
-282.662055
 30
0.0
 40
3.000011
 50
76.848419
 51
90.000003
  0
ARC
  8
0
  6
BYLAYER
 62
     1
 10
271.752795
 20
-291.662055
 30
0.0
 40
2.999982
 50
132.719455
 51
134.999153
  0
ARC
  8
0
  6
BYLAYER
 62
     1
 10
271.752795
 20
-291.662055
 30
0.0
 40
3.000025
 50
90.0
 51
135.000011
  0
ARC
  8
0
  6
BYLAYER
 62
     1
 10
328.737201
 20
-116.662055
 30
0.0
 40
167.471008
 50
256.84869
 51
283.151311
  0
ARC
  8
0
  6
BYLAYER
 62
     1
 10
355.269916
 20
-291.662055
 30
0.0
 40
3.000023
 50
90.0
 51
98.621201
  0
LINE
  8
0
  6
BYLAYER
 62
     1
 10
385.721545
 20
-288.662055
 30
0.0
 11
355.269916
 21
-288.662055
 31
0.0
  0
ARC
  8
0
  6
BYLAYER
 62
     1
 10
367.523364
 20
-282.662055
 30
0.0
 40
3.000011
 50
90.0
 51
103.151584
  0
ARC
  8
0
  6
BYLAYER
 62
     1
 10
385.721607
 20
-291.662055
 30
0.0
 40
2.999982
 50
45.000848
 51
47.280547
  0
ARC
  8
0
  6
BYLAYER
 62
     1
 10
385.721607
 20
-291.662055
 30
0.0
 40
3.000025
 50
45.000001
 51
90.000009
  0
ARC
  8
0
  6
BYLAYER
 62
     1
 10
203.737186
 20
-193.194770
 30
0.0
 40
3.000023
 50
0.0
 51
8.621213
  0
LINE
  8
0
  6
BYLAYER
 62
     1
 10
206.737186
 20
-223.646399
 30
0.0
 11
206.737186
 21
-193.194770
 31
0.0
  0
ARC
  8
0
  6
BYLAYER
 62
     1
 10
212.737216
 20
-205.448218
 30
0.0
 40
3.000011
 50
0.0
 51
13.151596
  0
ARC
  8
0
  6
BYLAYER
 62
     1
 10
203.737216
 20
-223.646460
 30
0.0
 40
2.999982
 50
315.000839
 51
317.280537
  0
ARC
  8
0
  6
BYLAYER
 62
     1
 10
203.737216
 20
-223.646460
 30
0.0
 40
3.000025
 50
314.999992
 51
360.000010
  0
ARC
  8
0
  6
BYLAYER
 62
     1
 10
378.737201
 20
-166.662055
 30
0.0
 40
167.471008
 50
166.848735
 51
193.151316
  0
ARC
  8
0
  6
BYLAYER
 62
     1
 10
212.737186
 20
-127.876044
 30
0.0
 40
2.999997
 50
346.848945
 51
360.000000
  0
LINE
  8
0
  6
BYLAYER
 62
     1
 10
275.737201
 20
-64.040076
 30
0.0
 11
275.737201
 21
-16.662055
 31
0.0
  0
ARC
  8
0
  6
BYLAYER
 62
     1
 10
272.737201
 20
-16.662055
 30
0.0
 40
3.000000
 50
0.0
 51
90.000003
  0
LINE
  8
0
  6
BYLAYER
 62
     1
 10
381.737201
 20
-16.662055
 30
0.0
 11
381.737201
 21
-64.040046
 31
0.0
  0
LINE
  8
0
  6
BYLAYER
 62
     1
 10
438.737186
 20
-13.662055
 30
0.0
 11
285.737186
 21
-13.662055
 31
0.0
  0
ARC
  8
0
  6
BYLAYER
 62
     1
 10
384.737201
 20
-16.662055
 30
0.0
 40
3.000000
 50
90.0
 51
180.000003
  0
LINE
  8
0
  6
BYLAYER
 62
     1
 10
218.737186
 20
-13.662055
 30
0.0
 11
285.737186
 21
-13.662055
 31
0.0
  0
LINE
  8
0
  6
BYLAYER
 62
     1
 10
257.638324
 20
-78.662116
 30
0.0
 11
218.737186
 21
-78.662116
 31
0.0
  0
ARC
  8
0
  6
BYLAYER
 62
     1
 10
218.737186
 20
-75.662116
 30
0.0
 40
3.000000
 50
180.000000
 51
269.999996
  0
LINE
  8
0
  6
BYLAYER
 62
     1
 10
399.836170
 20
-78.662116
 30
0.0
 11
438.737186
 21
-78.662116
 31
0.0
  0
ARC
  8
0
  6
BYLAYER
 62
     1
 10
438.737186
 20
-75.662116
 30
0.0
 40
3.000000
 50
270.0
 51
360.000003
  0
LINE
  8
0
  6
BYLAYER
 62
     1
 10
275.737201
 20
-269.283805
 30
0.0
 11
275.737201
 21
-276.662055
 31
0.0
  0
ARC
  8
0
  6
BYLAYER
 62
     1
 10
272.737201
 20
-276.662055
 30
0.0
 40
3.000000
 50
270.0
 51
360.000003
  0
LINE
  8
0
  6
BYLAYER
 62
     1
 10
381.737201
 20
-269.283835
 30
0.0
 11
381.737201
 21
-276.662055
 31
0.0
  0
ARC
  8
0
  6
BYLAYER
 62
     1
 10
384.737201
 20
-276.662055
 30
0.0
 40
3.000000
 50
180.000000
 51
269.999996
  0
LINE
  8
0
  6
BYLAYER
 62
     1
 10
367.523364
 20
-279.662055
 30
0.0
 11
438.737186
 21
-279.662055
 31
0.0
  0
LINE
  8
0
  6
BYLAYER
 62
     1
 10
441.737186
 20
-205.448218
 30
0.0
 11
441.737186
 21
-276.662055
 31
0.0
  0
LINE
  8
0
  6
BYLAYER
 62
     1
 10
289.951038
 20
-279.662055
 30
0.0
 11
218.737186
 21
-279.662055
 31
0.0
  0
LINE
  8
0
  6
BYLAYER
 62
     1
 10
215.737216
 20
-205.448218
 30
0.0
 11
215.737216
 21
-276.662055
 31
0.0
  0
LINE
  8
0
  6
BYLAYER
 62
     1
 10
215.737186
 20
-16.662055
 30
0.0
 11
215.737186
 21
-84.662055
 31
0.0
  0
LINE
  8
0
  6
BYLAYER
 62
     1
 10
215.737186
 20
-94.662055
 30
0.0
 11
215.737186
 21
-95.662055
 31
0.0
  0
LINE
  8
0
  6
BYLAYER
 62
     1
 10
215.737186
 20
-105.662055
 30
0.0
 11
215.737186
 21
-127.876044
 31
0.0
  0
LINE
  8
0
  6
BYLAYER
 62
     1
 10
441.737186
 20
-84.662055
 30
0.0
 11
441.737186
 21
-16.662055
 31
0.0
  0
LINE
  8
0
  6
BYLAYER
 62
     1
 10
441.737186
 20
-95.662055
 30
0.0
 11
441.737186
 21
-94.662055
 31
0.0
  0
LINE
  8
0
  6
BYLAYER
 62
     1
 10
441.737186
 20
-127.875922
 30
0.0
 11
441.737186
 21
-105.662055
 31
0.0
  0
ARC
  8
0
  6
BYLAYER
 62
     1
 10
203.737216
 20
-140.129157
 30
0.0
 40
3.0
 50
351.378727
 51
360.000000
  0
ARC
  8
0
  6
BYLAYER
 62
     1
 10
378.737186
 20
-166.662055
 30
0.0
 40
173.999969
 50
171.378667
 51
188.621275
  0
ARC
  8
0
  6
BYLAYER
 62
     1
 10
278.737216
 20
-166.662055
 30
0.0
 40
173.999954
 50
351.378727
 51
368.621311
  0
ARC
  8
0
  6
BYLAYER
 62
     1
 10
328.737201
 20
-116.662055
 30
0.0
 40
173.999969
 50
261.378717
 51
278.621284
  0
LINE
  8
0
  6
BYLAYER
 62
     1
 10
448.737155
 20
0.837945
 30
0.0
 11
453.737155
 21
-4.162055
 31
0.0
  0
LINE
  8
0
  6
BYLAYER
 62
     1
 10
269.631564
 20
-3.783393
 30
0.0
 11
265.010227
 21
0.837945
 31
0.0
  0
LINE
  8
0
  6
BYLAYER
 62
     1
 10
453.737186
 20
-110.662055
 30
0.0
 11
453.737186
 21
-4.162116
 31
0.0
  0
LINE
  8
0
  6
BYLAYER
 62
     1
 10
387.842868
 20
-3.783393
 30
0.0
 11
392.464206
 21
0.837945
 31
0.0
  0
LINE
  8
0
  6
BYLAYER
 62
     1
 10
392.464206
 20
0.837945
 30
0.0
 11
448.737155
 21
0.837945
 31
0.0
  0
LINE
  8
0
  6
BYLAYER
 62
     1
 10
448.737155
 20
-294.162055
 30
0.0
 11
453.737186
 21
-289.162055
 31
0.0
  0
LINE
  8
0
  6
BYLAYER
 62
     1
 10
453.737186
 20
-289.162055
 30
0.0
 11
453.737186
 21
-227.889075
 31
0.0
  0
LINE
  8
0
  6
BYLAYER
 62
     1
 10
393.737247
 20
-294.162055
 30
0.0
 11
393.737247
 21
-279.662055
 31
0.0
  0
LINE
  8
0
  6
BYLAYER
 62
     1
 10
387.842883
 20
-289.540717
 30
0.0
 11
392.464221
 21
-294.162055
 31
0.0
  0
LINE
  8
0
  6
BYLAYER
 62
     1
 10
392.464221
 20
-294.162055
 30
0.0
 11
448.737155
 21
-294.162055
 31
0.0
  0
LINE
  8
0
  6
BYLAYER
 62
     1
 10
263.737163
 20
-294.162055
 30
0.0
 11
263.737163
 21
-279.662055
 31
0.0
  0
LINE
  8
0
  6
BYLAYER
 62
     1
 10
269.631519
 20
-289.540717
 30
0.0
 11
265.010181
 21
-294.162055
 31
0.0
  0
LINE
  8
0
  6
BYLAYER
 62
     1
 10
206.237216
 20
0.837945
 30
0.0
 11
201.237216
 21
-4.162055
 31
0.0
  0
LINE
  8
0
  6
BYLAYER
 62
     1
 10
201.237201
 20
-99.162055
 30
0.0
 11
201.237201
 21
-4.162055
 31
0.0
  0
LINE
  8
0
  6
BYLAYER
 62
     1
 10
206.237216
 20
-294.162055
 30
0.0
 11
201.237201
 21
-289.162055
 31
0.0
  0
LINE
  8
0
  6
BYLAYER
 62
     1
 10
206.237216
 20
0.837945
 30
0.0
 11
265.010227
 21
0.837945
 31
0.0
  0
LINE
  8
0
  6
BYLAYER
 62
     1
 10
207.023776
 20
-64.728522
 30
0.0
 11
201.237201
 21
-61.662116
 31
0.0
  0
LINE
  8
0
  6
BYLAYER
 62
     1
 10
203.894435
 20
-99.301520
 30
0.0
 11
201.237216
 21
-99.162055
 31
0.0
  0
LINE
  8
0
  6
BYLAYER
 62
     1
 10
206.737216
 20
-140.129157
 30
0.0
 11
206.737216
 21
-102.297370
 31
0.0
  0
ARC
  8
0
  6
BYLAYER
 62
     1
 10
203.737216
 20
-102.297370
 30
0.0
 40
2.999972
 50
0.0
 51
86.995935
  0
LINE
  8
0
  6
BYLAYER
 62
     1
 10
206.237216
 20
-294.162055
 30
0.0
 11
265.010181
 21
-294.162055
 31
0.0
  0
LINE
  8
0
  6
BYLAYER
 62
     1
 10
201.237201
 20
-231.662085
 30
0.0
 11
215.737216
 21
-231.662085
 31
0.0
  0
LINE
  8
0
  6
BYLAYER
 62
     1
 10
205.858554
 20
-225.767737
 30
0.0
 11
201.237201
 21
-230.389106
 31
0.0
  0
LINE
  8
0
  6
BYLAYER
 62
     1
 10
201.237201
 20
-230.389106
 30
0.0
 11
201.237201
 21
-289.162055
 31
0.0
  0
ARC
  8
0
  6
BYLAYER
 62
     1
 10
246.237201
 20
-166.662116
 30
0.0
 40
5.000100
 50
88.263441
 51
359.999976
  0
CIRCLE
  8
0
  6
BYLAYER
 62
     1
 10
246.237201
 20
-166.662116
 30
0.0
 40
4.500000
  0
ARC
  8
0
  6
BYLAYER
 62
     1
 10
270.400897
 20
-224.998542
 30
0.0
 40
5.000038
 50
133.263438
 51
404.999974
  0
CIRCLE
  8
0
  6
BYLAYER
 62
     1
 10
270.400897
 20
-224.998542
 30
0.0
 40
4.5
  0
CIRCLE
  8
0
  6
BYLAYER
 62
     1
 10
328.737201
 20
-249.162116
 30
0.0
 40
4.5
  0
CIRCLE
  8
0
  6
BYLAYER
 62
     1
 10
328.737201
 20
-166.662116
 30
0.0
 40
65.0
  0
ARC
  8
0
  6
BYLAYER
 62
     1
 10
411.237201
 20
-166.662116
 30
0.0
 40
5.000098
 50
180.000000
 51
451.736536
  0
CIRCLE
  8
0
  6
BYLAYER
 62
     1
 10
411.237201
 20
-166.662116
 30
0.0
 40
4.5
  0
ARC
  8
0
  6
BYLAYER
 62
     1
 10
387.073505
 20
-224.998542
 30
0.0
 40
5.000038
 50
135.000028
 51
406.736563
  0
CIRCLE
  8
0
  6
BYLAYER
 62
     1
 10
387.073505
 20
-224.998542
 30
0.0
 40
4.5
  0
CIRCLE
  8
0
  6
BYLAYER
 62
     1
 10
328.737201
 20
-249.162116
 30
0.0
 40
4.5
  0
ARC
  8
0
  6
BYLAYER
 62
     1
 10
328.737201
 20
-249.162116
 30
0.0
 40
4.999980
 50
90.0
 51
361.736535
  0
ARC
  8
0
  6
BYLAYER
 62
     1
 10
246.237201
 20
-166.662116
 30
0.0
 40
5.0001
 50
0.0
 51
271.736536
  0
CIRCLE
  8
0
  6
BYLAYER
 62
     1
 10
246.237201
 20
-166.662116
 30
0.0
 40
4.500000
  0
ARC
  8
0
  6
BYLAYER
 62
     1
 10
270.400897
 20
-108.325995
 30
0.0
 40
4.999860
 50
315.000023
 51
586.736558
  0
CIRCLE
  8
0
  6
BYLAYER
 62
     1
 10
270.400897
 20
-108.325995
 30
0.0
 40
4.5
  0
CIRCLE
  8
0
  6
BYLAYER
 62
     1
 10
328.737201
 20
-84.162177
 30
0.0
 40
4.5
  0
ARC
  8
0
  6
BYLAYER
 62
     1
 10
411.237201
 20
-166.662116
 30
0.0
 40
5.000098
 50
268.263439
 51
539.999974
  0
CIRCLE
  8
0
  6
BYLAYER
 62
     1
 10
411.237201
 20
-166.662116
 30
0.0
 40
4.5
  0
ARC
  8
0
  6
BYLAYER
 62
     1
 10
387.073505
 20
-108.325995
 30
0.0
 40
4.999860
 50
313.263430
 51
584.999965
  0
CIRCLE
  8
0
  6
BYLAYER
 62
     1
 10
387.073505
 20
-108.325995
 30
0.0
 40
4.5
  0
CIRCLE
  8
0
  6
BYLAYER
 62
     1
 10
328.737201
 20
-84.162177
 30
0.0
 40
4.5
  0
ARC
  8
0
  6
BYLAYER
 62
     1
 10
328.737201
 20
-84.162177
 30
0.0
 40
4.999980
 50
358.263448
 51
629.999983
  0
CIRCLE
  8
0
  6
BYLAYER
 62
     1
 10
328.737201
 20
-166.662116
 30
0.0
 40
42.5
  0
ARC
  8
0
  6
BYLAYER
 62
     1
 10
389.950702
 20
-91.416572
 30
0.0
 40
2.999964
 50
50.871146
 51
102.667961
  0
ARC
  8
0
  6
BYLAYER
 62
     1
 10
403.768817
 20
-105.186591
 30
0.0
 40
3.000030
 50
347.532019
 51
399.328820
  0
ARC
  8
0
  6
BYLAYER
 62
     1
 10
379.204852
 20
-43.609199
 30
0.0
 40
46.000130
 50
212.731993
 51
282.668007
  0
ARC
  8
0
  6
BYLAYER
 62
     1
 10
337.985614
 20
-70.104072
 30
0.0
 40
2.999911
 50
32.732005
 51
84.528857
  0
ARC
  8
0
  6
BYLAYER
 62
     1
 10
278.269550
 20
-43.609199
 30
0.0
 40
46.000130
 50
257.331994
 51
327.268022
  0
ARC
  8
0
  6
BYLAYER
 62
     1
 10
319.488788
 20
-70.104072
 30
0.0
 40
2.999911
 50
95.471141
 51
147.267990
  0
ARC
  8
0
  6
BYLAYER
 62
     1
 10
267.523761
 20
-91.416572
 30
0.0
 40
2.999964
 50
77.332037
 51
129.128852
  0
ARC
  8
0
  6
BYLAYER
 62
     1
 10
253.705646
 20
-105.186591
 30
0.0
 40
3.000030
 50
140.671175
 51
192.467983
  0
ARC
  8
0
  6
BYLAYER
 62
     1
 10
205.861224
 20
-115.765204
 30
0.0
 40
45.999996
 50
302.532026
 51
372.467986
  0
ARC
  8
0
  6
BYLAYER
 62
     1
 10
232.211993
 20
-157.076667
 30
0.0
 40
3.000036
 50
122.532009
 51
174.328831
  0
ARC
  8
0
  6
BYLAYER
 62
     1
 10
379.204852
 20
-289.715095
 30
0.0
 40
46.000130
 50
77.331996
 51
147.268004
  0
ARC
  8
0
  6
BYLAYER
 62
     1
 10
389.950702
 20
-241.907721
 30
0.0
 40
3.000153
 50
257.332049
 51
309.128843
  0
ARC
  8
0
  6
BYLAYER
 62
     1
 10
253.705646
 20
-228.137946
 30
0.0
 40
2.999875
 50
167.532014
 51
219.328822
  0
ARC
  8
0
  6
BYLAYER
 62
     1
 10
205.861224
 20
-217.559089
 30
0.0
 40
45.999996
 50
347.532019
 51
417.467979
  0
ARC
  8
0
  6
BYLAYER
 62
     1
 10
232.211993
 20
-176.247565
 30
0.0
 40
3.000036
 50
185.671166
 51
237.468001
  0
ARC
  8
0
  6
BYLAYER
 62
     1
 10
417.972492
 20
-142.547736
 30
0.0
 40
3.000001
 50
150.189617
 51
218.524908
  0
ARC
  8
0
  6
BYLAYER
 62
     1
 10
404.957355
 20
-135.090827
 30
0.0
 40
11.999974
 50
330.189868
 51
434.810396
  0
ARC
  8
0
  6
BYLAYER
 62
     1
 10
408.887531
 20
-120.614875
 30
0.0
 40
3.000002
 50
186.476390
 51
254.811026
  0
ARC
  8
0
  6
BYLAYER
 62
     1
 10
451.613178
 20
-115.765204
 30
0.0
 40
45.999996
 50
167.531986
 51
202.500178
  0
ARC
  8
0
  6
BYLAYER
 62
     1
 10
337.985614
 20
-263.220160
 30
0.0
 40
2.999911
 50
275.471146
 51
327.267995
  0
ARC
  8
0
  6
BYLAYER
 62
     1
 10
319.488788
 20
-263.220160
 30
0.0
 40
2.999911
 50
212.732006
 51
264.528855
  0
ARC
  8
0
  6
BYLAYER
 62
     1
 10
253.705707
 20
-228.137885
 30
0.0
 40
2.999953
 50
167.531782
 51
219.328835
  0
ARC
  8
0
  6
BYLAYER
 62
     1
 10
328.737201
 20
-166.662116
 30
0.0
 40
99.999908
 50
264.328895
 51
275.871067
  0
ARC
  8
0
  6
BYLAYER
 62
     1
 10
328.737201
 20
-166.662116
 30
0.0
 40
99.999931
 50
39.328895
 51
50.871068
  0
ARC
  8
0
  6
BYLAYER
 62
     1
 10
328.737201
 20
-166.662116
 30
0.0
 40
99.999931
 50
129.328908
 51
140.871108
  0
ARC
  8
0
  6
BYLAYER
 62
     1
 10
328.737201
 20
-166.662116
 30
0.0
 40
99.999878
 50
174.328872
 51
185.871072
  0
ARC
  8
0
  6
BYLAYER
 62
     1
 10
278.269550
 20
-289.715095
 30
0.0
 40
46.000130
 50
32.732094
 51
102.667924
  0
ARC
  8
0
  6
BYLAYER
 62
     1
 10
328.737201
 20
-166.662116
 30
0.0
 40
99.999931
 50
219.128916
 51
230.871131
  0
ARC
  8
0
  6
BYLAYER
 62
     1
 10
267.523822
 20
-241.907752
 30
0.0
 40
2.999999
 50
230.870311
 51
282.667898
  0
ARC
  8
0
  6
BYLAYER
 62
     1
 10
403.768756
 20
-228.137763
 30
0.0
 40
2.999991
 50
320.671152
 51
372.468052
  0
ARC
  8
0
  6
BYLAYER
 62
     1
 10
451.613178
 20
-217.559089
 30
0.0
 40
46.000023
 50
122.532132
 51
192.467819
  0
ARC
  8
0
  6
BYLAYER
 62
     1
 10
425.262286
 20
-176.247687
 30
0.0
 40
2.999985
 50
302.532875
 51
354.329068
  0
ARC
  8
0
  6
BYLAYER
 62
     1
 10
328.737201
 20
-166.662116
 30
0.0
 40
99.999893
 50
354.328767
 51
365.671171
  0
ARC
  8
0
  6
BYLAYER
 62
     1
 10
451.613178
 20
-115.765204
 30
0.0
 40
46.000069
 50
202.500151
 51
237.467919
  0
ARC
  8
0
  6
BYLAYER
 62
     1
 10
425.262286
 20
-157.076667
 30
0.0
 40
3.000034
 50
5.670925
 51
57.467122
  0
ARC
  8
0
  6
BYLAYER
 62
     1
 10
328.737201
 20
-166.662116
 30
0.0
 40
99.999939
 50
309.128898
 51
320.671180
  0
ARC
  8
0
  6
BYLAYER
 62
     1
 10
328.737201
 20
-166.662116
 30
0.0
 40
99.999878
 50
84.528857
 51
95.471141
  0
ARC
  8
0
  6
BYLAYER
 62
     1
 10
302.929492
 20
-57.162116
 30
0.0
 40
3.000000
 50
90.0
 51
103.261844
  0
LINE
  8
0
  6
BYLAYER
 62
     1
 10
302.929492
 20
-54.162116
 30
0.0
 11
354.544940
 21
-54.162116
 31
0.0
  0
ARC
  8
0
  6
BYLAYER
 62
     1
 10
354.544940
 20
-57.162116
 30
0.0
 40
3.0
 50
76.738150
 51
90.0
  0
LINE
  8
0
  6
BYLAYER
 62
     1
 10
230.939014
 20
-105.361426
 30
0.0
 11
267.436694
 21
-68.863746
 31
0.0
  0
LINE
  8
0
  6
BYLAYER
 62
     1
 10
216.237476
 20
-192.469733
 30
0.0
 11
216.237476
 21
-140.854255
 31
0.0
  0
LINE
  8
0
  6
BYLAYER
 62
     1
 10
267.436694
 20
-264.460181
 30
0.0
 11
230.939014
 21
-227.962531
 31
0.0
  0
LINE
  8
0
  6
BYLAYER
 62
     1
 10
354.545062
 20
-279.161750
 30
0.0
 11
302.929553
 21
-279.161750
 31
0.0
  0
LINE
  8
0
  6
BYLAYER
 62
     1
 10
426.535419
 20
-227.962439
 30
0.0
 11
390.037860
 21
-264.460090
 31
0.0
  0
LINE
  8
0
  6
BYLAYER
 62
     1
 10
441.237079
 20
-140.854133
 30
0.0
 11
441.237079
 21
-192.469611
 31
0.0
  0
LINE
  8
0
  6
BYLAYER
 62
     1
 10
390.037738
 20
-68.863685
 30
0.0
 11
426.535419
 21
-105.361365
 31
0.0
  0
ARC
  8
0
  6
BYLAYER
 62
     1
 10
438.237079
 20
-192.469611
 30
0.0
 40
3.000000
 50
346.738214
 51
360.0
  0
ARC
  8
0
  6
BYLAYER
 62
     1
 10
438.237079
 20
-140.854255
 30
0.0
 40
3.0
 50
0.0
 51
13.261779
  0
ARC
  8
0
  6
BYLAYER
 62
     1
 10
328.737232
 20
-166.661933
 30
0.0
 40
115.499939
 50
13.261844
 51
31.738130
  0
ARC
  8
0
  6
BYLAYER
 62
     1
 10
424.414081
 20
-107.482703
 30
0.0
 40
3.000013
 50
31.738393
 51
45.000411
  0
ARC
  8
0
  6
BYLAYER
 62
     1
 10
328.737232
 20
-166.661933
 30
0.0
 40
115.499992
 50
58.261773
 51
76.738145
  0
ARC
  8
0
  6
BYLAYER
 62
     1
 10
387.916644
 20
-70.985145
 30
0.0
 40
2.999917
 50
44.999793
 51
58.261452
  0
ARC
  8
0
  6
BYLAYER
 62
     1
 10
302.929553
 20
-276.161750
 30
0.0
 40
3.000000
 50
256.738231
 51
270.000000
  0
ARC
  8
0
  6
BYLAYER
 62
     1
 10
354.544940
 20
-276.161750
 30
0.0
 40
3.000000
 50
270.0
 51
283.261769
  0
ARC
  8
0
  6
BYLAYER
 62
     1
 10
302.929553
 20
-276.161750
 30
0.0
 40
3.000000
 50
256.738231
 51
270.000000
  0
ARC
  8
0
  6
BYLAYER
 62
     1
 10
328.737232
 20
-166.661933
 30
0.0
 40
115.500000
 50
283.261851
 51
301.738114
  0
ARC
  8
0
  6
BYLAYER
 62
     1
 10
387.916400
 20
-262.338828
 30
0.0
 40
3.000013
 50
301.738005
 51
314.999992
  0
ARC
  8
0
  6
BYLAYER
 62
     1
 10
328.737232
 20
-166.661933
 30
0.0
 40
115.499985
 50
328.261842
 51
346.738160
  0
ARC
  8
0
  6
BYLAYER
 62
     1
 10
424.414081
 20
-225.841224
 30
0.0
 40
3.000003
 50
315.000210
 51
328.262252
  0
ARC
  8
0
  6
BYLAYER
 62
     1
 10
219.237476
 20
-140.854255
 30
0.0
 40
3.0
 50
166.738204
 51
180.0
  0
ARC
  8
0
  6
BYLAYER
 62
     1
 10
219.237476
 20
-192.469642
 30
0.0
 40
3.0
 50
180.000000
 51
193.261796
  0
ARC
  8
0
  6
BYLAYER
 62
     1
 10
328.737232
 20
-166.661933
 30
0.0
 40
115.499977
 50
193.261855
 51
211.738173
  0
ARC
  8
0
  6
BYLAYER
 62
     1
 10
233.060352
 20
-225.841224
 30
0.0
 40
2.999909
 50
211.738323
 51
225.000228
  0
ARC
  8
0
  6
BYLAYER
 62
     1
 10
328.737232
 20
-166.661933
 30
0.0
 40
115.500008
 50
238.261833
 51
256.73815
  0
ARC
  8
0
  6
BYLAYER
 62
     1
 10
269.557910
 20
-262.338767
 30
0.0
 40
3.000014
 50
224.999996
 51
238.261887
  0
ARC
  8
0
  6
BYLAYER
 62
     1
 10
328.737232
 20
-166.661933
 30
0.0
 40
115.499985
 50
148.261892
 51
166.738155
  0
ARC
  8
0
  6
BYLAYER
 62
     1
 10
233.060352
 20
-107.482703
 30
0.0
 40
3.000003
 50
135.000205
 51
148.262192
  0
ARC
  8
0
  6
BYLAYER
 62
     1
 10
328.737232
 20
-166.661933
 30
0.0
 40
115.499992
 50
103.261880
 51
121.738164
  0
ARC
  8
0
  6
BYLAYER
 62
     1
 10
269.557910
 20
-70.985084
 30
0.0
 40
3.000003
 50
121.738423
 51
135.000205
  0
ARC
  8
0
  6
BYLAYER
 62
     1
 10
307.872934
 20
-43.310589
 30
0.0
 40
4.330170
 50
270.0
 51
316.109984
  0
ARC
  8
0
  6
BYLAYER
 62
     1
 10
307.431461
 20
-42.885899
 30
0.0
 40
4.942754
 50
316.109984
 51
360.0
  0
ARC
  8
0
  6
BYLAYER
 62
     1
 10
307.431461
 20
-42.885899
 30
0.0
 40
4.942754
 50
0.0
 51
43.890016
  0
ARC
  8
0
  6
BYLAYER
 62
     1
 10
307.872934
 20
-42.461208
 30
0.0
 40
4.330170
 50
43.890016
 51
90.000000
  0
ARC
  8
0
  6
BYLAYER
 62
     1
 10
307.872934
 20
-42.461171
 30
0.0
 40
4.330132
 50
90.0
 51
136.110087
  0
ARC
  8
0
  6
BYLAYER
 62
     1
 10
308.314447
 20
-42.885899
 30
0.0
 40
4.942772
 50
136.110087
 51
180.0
  0
ARC
  8
0
  6
BYLAYER
 62
     1
 10
308.314447
 20
-42.885899
 30
0.0
 40
4.942772
 50
180.000000
 51
223.889913
  0
ARC
  8
0
  6
BYLAYER
 62
     1
 10
307.872934
 20
-43.310626
 30
0.0
 40
4.330132
 50
223.889913
 51
270.000000
  0
ARC
  8
0
  6
BYLAYER
 62
     1
 10
307.872934
 20
-41.621172
 30
0.0
 40
1.994620
 50
90.0
 51
140.793201
  0
ARC
  8
0
  6
BYLAYER
 62
     1
 10
309.423266
 20
-42.885899
 30
0.0
 40
3.995385
 50
140.793201
 51
180.000000
  0
ARC
  8
0
  6
BYLAYER
 62
     1
 10
309.423242
 20
-42.885899
 30
0.0
 40
3.995361
 50
180.000000
 51
219.206869
  0
ARC
  8
0
  6
BYLAYER
 62
     1
 10
307.872934
 20
-44.150608
 30
0.0
 40
1.994625
 50
219.206869
 51
270.000000
  0
ARC
  8
0
  6
BYLAYER
 62
     1
 10
307.872934
 20
-44.150608
 30
0.0
 40
1.994625
 50
270.0
 51
320.793131
  0
ARC
  8
0
  6
BYLAYER
 62
     1
 10
306.322626
 20
-42.885899
 30
0.0
 40
3.995361
 50
320.793131
 51
360.0
  0
ARC
  8
0
  6
BYLAYER
 62
     1
 10
306.322602
 20
-42.885899
 30
0.0
 40
3.995385
 50
0.0
 51
39.206799
  0
ARC
  8
0
  6
BYLAYER
 62
     1
 10
307.872934
 20
-41.621172
 30
0.0
 40
1.994620
 50
39.206799
 51
90.000000
  0
LINE
  8
0
  6
BYLAYER
 62
     1
 10
293.101175
 20
-47.323757
 30
0.0
 11
293.101175
 21
-38.321216
 31
0.0
  0
LINE
  8
0
  6
BYLAYER
 62
     1
 10
293.101175
 20
-38.321216
 30
0.0
 11
296.761361
 21
-38.321216
 31
0.0
  0
LINE
  8
0
  6
BYLAYER
 62
     1
 10
296.761361
 20
-38.321216
 30
0.0
 11
297.982835
 21
-43.012699
 31
0.0
  0
LINE
  8
0
  6
BYLAYER
 62
     1
 10
293.101175
 20
-47.323757
 30
0.0
 11
295.298990
 21
-47.323757
 31
0.0
  0
LINE
  8
0
  6
BYLAYER
 62
     1
 10
295.298990
 20
-47.323757
 30
0.0
 11
295.298990
 21
-42.125118
 31
0.0
  0
LINE
  8
0
  6
BYLAYER
 62
     1
 10
297.031854
 20
-47.323757
 30
0.0
 11
295.298990
 21
-42.125118
 31
0.0
  0
LINE
  8
0
  6
BYLAYER
 62
     1
 10
302.864496
 20
-47.323757
 30
0.0
 11
302.864496
 21
-38.321216
 31
0.0
  0
LINE
  8
0
  6
BYLAYER
 62
     1
 10
302.864496
 20
-38.321216
 30
0.0
 11
299.204309
 21
-38.321216
 31
0.0
  0
LINE
  8
0
  6
BYLAYER
 62
     1
 10
299.204309
 20
-38.321216
 30
0.0
 11
297.982835
 21
-43.012699
 31
0.0
  0
LINE
  8
0
  6
BYLAYER
 62
     1
 10
302.864496
 20
-47.323757
 30
0.0
 11
300.666681
 21
-47.323757
 31
0.0
  0
LINE
  8
0
  6
BYLAYER
 62
     1
 10
300.666681
 20
-47.323757
 30
0.0
 11
300.666681
 21
-42.125118
 31
0.0
  0
LINE
  8
0
  6
BYLAYER
 62
     1
 10
298.933816
 20
-47.323757
 30
0.0
 11
300.666681
 21
-42.125118
 31
0.0
  0
LINE
  8
0
  6
BYLAYER
 62
     1
 10
298.933816
 20
-47.323757
 30
0.0
 11
297.031854
 21
-47.323757
 31
0.0
  0
LINE
  8
0
  6
BYLAYER
 62
     1
 10
335.070756
 20
-47.323757
 30
0.0
 11
338.494234
 21
-38.321216
 31
0.0
  0
LINE
  8
0
  6
BYLAYER
 62
     1
 10
335.070756
 20
-47.323757
 30
0.0
 11
337.987077
 21
-47.323757
 31
0.0
  0
LINE
  8
0
  6
BYLAYER
 62
     1
 10
338.494234
 20
-38.321216
 30
0.0
 11
341.283754
 21
-38.321216
 31
0.0
  0
LINE
  8
0
  6
BYLAYER
 62
     1
 10
337.987077
 20
-47.323757
 30
0.0
 11
338.419343
 21
-46.055798
 31
0.0
  0
LINE
  8
0
  6
BYLAYER
 62
     1
 10
339.110933
 20
-44.027058
 30
0.0
 11
339.888994
 21
-41.744717
 31
0.0
  0
LINE
  8
0
  6
BYLAYER
 62
     1
 10
344.707277
 20
-47.323757
 30
0.0
 11
341.283754
 21
-38.321216
 31
0.0
  0
LINE
  8
0
  6
BYLAYER
 62
     1
 10
344.707277
 20
-47.323757
 30
0.0
 11
341.790956
 21
-47.323757
 31
0.0
  0
LINE
  8
0
  6
BYLAYER
 62
     1
 10
341.358690
 20
-46.055798
 30
0.0
 11
338.419343
 21
-46.055798
 31
0.0
  0
LINE
  8
0
  6
BYLAYER
 62
     1
 10
340.667055
 20
-44.027058
 30
0.0
 11
339.110933
 21
-44.027058
 31
0.0
  0
LINE
  8
0
  6
BYLAYER
 62
     1
 10
341.790956
 20
-47.323757
 30
0.0
 11
341.358690
 21
-46.055798
 31
0.0
  0
LINE
  8
0
  6
BYLAYER
 62
     1
 10
340.667055
 20
-44.027058
 30
0.0
 11
339.888994
 21
-41.744717
 31
0.0
  0
LINE
  8
0
  6
BYLAYER
 62
     1
 10
312.374215
 20
-40.540157
 30
0.0
 11
314.910135
 21
-40.540157
 31
0.0
  0
LINE
  8
0
  6
BYLAYER
 62
     1
 10
314.910135
 20
-40.540157
 30
0.0
 11
314.910135
 21
-47.323757
 31
0.0
  0
LINE
  8
0
  6
BYLAYER
 62
     1
 10
314.910135
 20
-47.323757
 30
0.0
 11
317.699678
 21
-47.323757
 31
0.0
  0
LINE
  8
0
  6
BYLAYER
 62
     1
 10
317.699678
 20
-47.323757
 30
0.0
 11
317.699678
 21
-40.540157
 31
0.0
  0
LINE
  8
0
  6
BYLAYER
 62
     1
 10
317.699678
 20
-40.540157
 30
0.0
 11
320.235597
 21
-40.540157
 31
0.0
  0
LINE
  8
0
  6
BYLAYER
 62
     1
 10
320.235597
 20
-40.540157
 30
0.0
 11
320.235597
 21
-38.321216
 31
0.0
  0
LINE
  8
0
  6
BYLAYER
 62
     1
 10
320.235597
 20
-38.321216
 30
0.0
 11
312.374215
 21
-38.321216
 31
0.0
  0
LINE
  8
0
  6
BYLAYER
 62
     1
 10
312.374215
 20
-38.321216
 30
0.0
 11
312.374215
 21
-40.540157
 31
0.0
  0
ARC
  8
0
  6
BYLAYER
 62
     1
 10
324.736856
 20
-43.310626
 30
0.0
 40
4.330132
 50
270.0
 51
316.110087
  0
ARC
  8
0
  6
BYLAYER
 62
     1
 10
324.295343
 20
-42.885899
 30
0.0
 40
4.942772
 50
316.110087
 51
360.0
  0
ARC
  8
0
  6
BYLAYER
 62
     1
 10
324.295361
 20
-42.885899
 30
0.0
 40
4.942754
 50
0.0
 51
43.890016
  0
ARC
  8
0
  6
BYLAYER
 62
     1
 10
324.736833
 20
-42.461208
 30
0.0
 40
4.330170
 50
43.890016
 51
90.000000
  0
ARC
  8
0
  6
BYLAYER
 62
     1
 10
324.736833
 20
-42.461171
 30
0.0
 40
4.330132
 50
90.0
 51
136.110087
  0
ARC
  8
0
  6
BYLAYER
 62
     1
 10
325.178346
 20
-42.885899
 30
0.0
 40
4.942772
 50
136.110087
 51
180.0
  0
ARC
  8
0
  6
BYLAYER
 62
     1
 10
325.178328
 20
-42.885899
 30
0.0
 40
4.942754
 50
180.000000
 51
223.890016
  0
ARC
  8
0
  6
BYLAYER
 62
     1
 10
324.736856
 20
-43.310589
 30
0.0
 40
4.330170
 50
223.890016
 51
270.000000
  0
ARC
  8
0
  6
BYLAYER
 62
     1
 10
324.736833
 20
-41.621172
 30
0.0
 40
1.994620
 50
90.0
 51
140.793201
  0
ARC
  8
0
  6
BYLAYER
 62
     1
 10
326.287165
 20
-42.885899
 30
0.0
 40
3.995385
 50
140.793201
 51
180.000000
  0
ARC
  8
0
  6
BYLAYER
 62
     1
 10
326.287114
 20
-42.885899
 30
0.0
 40
3.995334
 50
180.000000
 51
219.207055
  0
ARC
  8
0
  6
BYLAYER
 62
     1
 10
324.736856
 20
-44.150576
 30
0.0
 40
1.994657
 50
219.207055
 51
270.000000
  0
ARC
  8
0
  6
BYLAYER
 62
     1
 10
324.736856
 20
-44.150608
 30
0.0
 40
1.994625
 50
270.0
 51
320.793131
  0
ARC
  8
0
  6
BYLAYER
 62
     1
 10
323.186548
 20
-42.885899
 30
0.0
 40
3.995361
 50
320.793131
 51
360.000000
  0
ARC
  8
0
  6
BYLAYER
 62
     1
 10
323.186551
 20
-42.885899
 30
0.0
 40
3.995358
 50
0.0
 51
39.206985
  0
ARC
  8
0
  6
BYLAYER
 62
     1
 10
324.736833
 20
-41.621204
 30
0.0
 40
1.994652
 50
39.206985
 51
90.000000
  0
LINE
  8
0
  6
BYLAYER
 62
     1
 10
344.950258
 20
-47.323757
 30
0.0
 11
344.950258
 21
-38.321216
 31
0.0
  0
LINE
  8
0
  6
BYLAYER
 62
     1
 10
344.950258
 20
-38.321216
 30
0.0
 11
350.529275
 21
-38.321216
 31
0.0
  0
ARC
  8
0
  6
BYLAYER
 62
     1
 10
350.529275
 20
-40.857159
 30
0.0
 40
2.535915
 50
287.134650
 51
450.000006
  0
ARC
  8
0
  6
BYLAYER
 62
     1
 10
351.036478
 20
-45.295017
 30
0.0
 40
2.028740
 50
0.0
 51
83.207557
  0
LINE
  8
0
  6
BYLAYER
 62
     1
 10
353.065218
 20
-45.295017
 30
0.0
 11
353.065218
 21
-46.562977
 31
0.0
  0
ARC
  8
0
  6
BYLAYER
 62
     1
 10
355.093957
 20
-46.562977
 30
0.0
 40
2.028740
 50
180.000000
 51
202.024314
  0
LINE
  8
0
  6
BYLAYER
 62
     1
 10
350.423738
 20
-47.323757
 30
0.0
 11
353.213258
 21
-47.323757
 31
0.0
  0
ARC
  8
0
  6
BYLAYER
 62
     1
 10
352.304437
 20
-46.562977
 30
0.0
 40
2.028740
 50
180.000000
 51
202.024314
  0
LINE
  8
0
  6
BYLAYER
 62
     1
 10
350.275697
 20
-46.562977
 30
0.0
 11
350.275697
 21
-45.548618
 31
0.0
  0
LINE
  8
0
  6
BYLAYER
 62
     1
 10
344.950258
 20
-47.323757
 30
0.0
 11
347.612978
 21
-47.323757
 31
0.0
  0
LINE
  8
0
  6
BYLAYER
 62
     1
 10
347.612978
 20
-47.323757
 30
0.0
 11
347.612978
 21
-44.280659
 31
0.0
  0
LINE
  8
0
  6
BYLAYER
 62
     1
 10
349.007738
 20
-44.280659
 30
0.0
 11
347.612978
 21
-44.280659
 31
0.0
  0
ARC
  8
0
  6
BYLAYER
 62
     1
 10
349.007738
 20
-45.548618
 30
0.0
 40
1.267960
 50
0.0
 51
90.000003
  0
LINE
  8
0
  6
BYLAYER
 62
     1
 10
347.612978
 20
-42.251919
 30
0.0
 11
347.612978
 21
-40.349956
 31
0.0
  0
LINE
  8
0
  6
BYLAYER
 62
     1
 10
347.612978
 20
-40.349956
 30
0.0
 11
349.388116
 21
-40.349956
 31
0.0
  0
LINE
  8
0
  6
BYLAYER
 62
     1
 10
347.612978
 20
-42.251919
 30
0.0
 11
349.388116
 21
-42.251919
 31
0.0
  0
ARC
  8
0
  6
BYLAYER
 62
     1
 10
349.388116
 20
-41.300938
 30
0.0
 40
0.950981
 50
270.0
 51
450.000005
  0
LINE
  8
0
  6
BYLAYER
 62
     1
 10
332.851839
 20
-44.477062
 30
0.0
 11
331.203477
 21
-38.321216
 31
0.0
  0
LINE
  8
0
  6
BYLAYER
 62
     1
 10
331.203477
 20
-38.321216
 30
0.0
 11
328.540758
 21
-38.321216
 31
0.0
  0
LINE
  8
0
  6
BYLAYER
 62
     1
 10
328.540758
 20
-38.321216
 30
0.0
 11
331.330278
 21
-47.323757
 31
0.0
  0
LINE
  8
0
  6
BYLAYER
 62
     1
 10
332.851839
 20
-44.477062
 30
0.0
 11
334.500154
 21
-38.321216
 31
0.0
  0
LINE
  8
0
  6
BYLAYER
 62
     1
 10
334.500154
 20
-38.321216
 30
0.0
 11
337.162874
 21
-38.321216
 31
0.0
  0
LINE
  8
0
  6
BYLAYER
 62
     1
 10
337.162874
 20
-38.321216
 30
0.0
 11
334.373353
 21
-47.323757
 31
0.0
  0
LINE
  8
0
  6
BYLAYER
 62
     1
 10
334.373353
 20
-47.323757
 30
0.0
 11
331.330278
 21
-47.323757
 31
0.0
  0
LINE
  8
0
  6
BYLAYER
 62
     1
 10
353.456239
 20
-47.323757
 30
0.0
 11
356.118959
 21
-47.323757
 31
0.0
  0
LINE
  8
0
  6
BYLAYER
 62
     1
 10
356.118959
 20
-47.323757
 30
0.0
 11
356.118959
 21
-38.321216
 31
0.0
  0
LINE
  8
0
  6
BYLAYER
 62
     1
 10
356.118959
 20
-38.321216
 30
0.0
 11
353.456239
 21
-38.321216
 31
0.0
  0
LINE
  8
0
  6
BYLAYER
 62
     1
 10
353.456239
 20
-38.321216
 30
0.0
 11
353.456239
 21
-47.323757
 31
0.0
  0
ARC
  8
0
  6
BYLAYER
 62
     1
 10
361.127420
 20
-43.310626
 30
0.0
 40
4.330132
 50
270.0
 51
316.110087
  0
ARC
  8
0
  6
BYLAYER
 62
     1
 10
360.685907
 20
-42.885899
 30
0.0
 40
4.942772
 50
316.110087
 51
360.0
  0
ARC
  8
0
  6
BYLAYER
 62
     1
 10
360.685907
 20
-42.885899
 30
0.0
 40
4.942772
 50
0.0
 51
43.889913
  0
ARC
  8
0
  6
BYLAYER
 62
     1
 10
361.127420
 20
-42.461171
 30
0.0
 40
4.330132
 50
43.889913
 51
90.000000
  0
ARC
  8
0
  6
BYLAYER
 62
     1
 10
361.127420
 20
-42.461171
 30
0.0
 40
4.330132
 50
90.0
 51
136.110087
  0
ARC
  8
0
  6
BYLAYER
 62
     1
 10
361.568933
 20
-42.885899
 30
0.0
 40
4.942772
 50
136.110087
 51
180.0
  0
ARC
  8
0
  6
BYLAYER
 62
     1
 10
361.568933
 20
-42.885899
 30
0.0
 40
4.942772
 50
180.000000
 51
223.889913
  0
ARC
  8
0
  6
BYLAYER
 62
     1
 10
361.127420
 20
-43.310626
 30
0.0
 40
4.330132
 50
223.889913
 51
270.0
  0
ARC
  8
0
  6
BYLAYER
 62
     1
 10
361.127420
 20
-41.621172
 30
0.0
 40
1.994620
 50
39.206799
 51
90.000000
  0
ARC
  8
0
  6
BYLAYER
 62
     1
 10
359.577088
 20
-42.885899
 30
0.0
 40
3.995385
 50
0.0
 51
39.206799
  0
ARC
  8
0
  6
BYLAYER
 62
     1
 10
359.577112
 20
-42.885899
 30
0.0
 40
3.995361
 50
320.793131
 51
360.0
  0
ARC
  8
0
  6
BYLAYER
 62
     1
 10
361.127420
 20
-44.150608
 30
0.0
 40
1.994625
 50
270.0
 51
320.793131
  0
ARC
  8
0
  6
BYLAYER
 62
     1
 10
361.127420
 20
-44.150608
 30
0.0
 40
1.994625
 50
219.206869
 51
270.000000
  0
ARC
  8
0
  6
BYLAYER
 62
     1
 10
362.677728
 20
-42.885899
 30
0.0
 40
3.995361
 50
180.000000
 51
219.206869
  0
ARC
  8
0
  6
BYLAYER
 62
     1
 10
362.677752
 20
-42.885899
 30
0.0
 40
3.995385
 50
140.793201
 51
180.000000
  0
ARC
  8
0
  6
BYLAYER
 62
     1
 10
361.127420
 20
-41.621172
 30
0.0
 40
1.994620
 50
90.0
 51
140.793201
  0
ARC
  8
0
  6
BYLAYER
 62
     1
 10
316.169626
 20
-28.015125
 30
0.0
 40
11.144993
 50
174.535650
 51
180.000000
  0
LINE
  8
0
  6
BYLAYER
 62
     1
 10
305.075277
 20
-26.953823
 30
0.0
 11
305.075277
 21
-26.953812
 31
0.0
  0
LINE
  8
0
  6
BYLAYER
 62
     1
 10
305.087404
 20
-26.833927
 30
0.0
 11
306.151058
 21
-26.386113
 31
0.0
  0
ARC
  8
0
  6
BYLAYER
 62
     1
 10
316.169671
 20
-28.015217
 30
0.0
 40
10.150172
 50
159.235383
 51
170.763998
  0
LINE
  8
0
  6
BYLAYER
 62
     1
 10
306.678760
 20
-24.416619
 30
0.0
 11
305.981561
 21
-23.496949
 31
0.0
  0
ARC
  8
0
  6
BYLAYER
 62
     1
 10
316.169626
 20
-28.015125
 30
0.0
 40
11.144980
 50
144.139514
 51
156.083795
  0
LINE
  8
0
  6
BYLAYER
 62
     1
 10
307.063928
 20
-21.588833
 30
0.0
 11
307.064592
 21
-21.587894
 31
0.0
  0
LINE
  8
0
  6
BYLAYER
 62
     1
 10
307.137223
 20
-21.486245
 30
0.0
 11
308.269611
 21
-21.642041
 31
0.0
  0
ARC
  8
0
  6
BYLAYER
 62
     1
 10
316.169626
 20
-28.015125
 30
0.0
 40
10.150111
 50
129.235643
 51
141.105976
  0
LINE
  8
0
  6
BYLAYER
 62
     1
 10
309.583597
 20
-20.291839
 30
0.0
 11
309.584695
 21
-20.290890
 31
0.0
  0
LINE
  8
0
  6
BYLAYER
 62
     1
 10
309.749566
 20
-20.153345
 30
0.0
 11
309.605575
 21
-19.008235
 31
0.0
  0
ARC
  8
0
  6
BYLAYER
 62
     1
 10
316.169626
 20
-28.015125
 30
0.0
 40
11.144991
 50
114.139607
 51
126.083853
  0
LINE
  8
0
  6
BYLAYER
 62
     1
 10
311.497804
 20
-17.896580
 30
0.0
 11
311.498559
 21
-17.896225
 31
0.0
  0
LINE
  8
0
  6
BYLAYER
 62
     1
 10
311.611755
 20
-17.844745
 30
0.0
 11
312.514498
 21
-18.545836
 31
0.0
  0
LINE
  8
0
  6
BYLAYER
 62
     1
 10
312.720903
 20
-18.468853
 30
0.0
 11
312.722047
 21
-18.468452
 31
0.0
  0
ARC
  8
0
  6
BYLAYER
 62
     1
 10
316.169626
 20
-28.015125
 30
0.0
 40
10.150108
 50
99.235601
 51
111.106038
  0
ARC
  8
0
  6
BYLAYER
 62
     1
 10
316.169626
 20
-28.015125
 30
0.0
 40
11.144993
 50
90.0
 51
96.083892
  0
LINE
  8
0
  6
BYLAYER
 62
     1
 10
314.988429
 20
-16.932904
 30
0.0
 11
314.540589
 21
-17.996596
 31
0.0
  0
LINE
  8
0
  6
BYLAYER
 62
     1
 10
327.263963
 20
-26.953823
 30
0.0
 11
327.263963
 21
-26.953812
 31
0.0
  0
LINE
  8
0
  6
BYLAYER
 62
     1
 10
327.251847
 20
-26.833926
 30
0.0
 11
326.188139
 21
-26.386102
 31
0.0
  0
ARC
  8
0
  6
BYLAYER
 62
     1
 10
316.169557
 20
-28.015217
 30
0.0
 40
10.150172
 50
9.235986
 51
20.764650
  0
LINE
  8
0
  6
BYLAYER
 62
     1
 10
325.660543
 20
-24.416513
 30
0.0
 11
326.357691
 21
-23.496951
 31
0.0
  0
ARC
  8
0
  6
BYLAYER
 62
     1
 10
316.169626
 20
-28.015125
 30
0.0
 40
11.144980
 50
23.916189
 51
35.860484
  0
LINE
  8
0
  6
BYLAYER
 62
     1
 10
325.275300
 20
-21.588833
 30
0.0
 11
325.274637
 21
-21.587894
 31
0.0
  0
LINE
  8
0
  6
BYLAYER
 62
     1
 10
325.202028
 20
-21.486245
 30
0.0
 11
324.069720
 21
-21.642026
 31
0.0
  0
ARC
  8
0
  6
BYLAYER
 62
     1
 10
316.169626
 20
-28.015125
 30
0.0
 40
10.150111
 50
38.894050
 51
50.764315
  0
LINE
  8
0
  6
BYLAYER
 62
     1
 10
322.755655
 20
-20.291839
 30
0.0
 11
322.754556
 21
-20.290890
 31
0.0
  0
LINE
  8
0
  6
BYLAYER
 62
     1
 10
322.589715
 20
-20.153161
 30
0.0
 11
322.733652
 21
-19.008217
 31
0.0
  0
ARC
  8
0
  6
BYLAYER
 62
     1
 10
316.169626
 20
-28.015125
 30
0.0
 40
11.144991
 50
53.916300
 51
65.860381
  0
LINE
  8
0
  6
BYLAYER
 62
     1
 10
320.841447
 20
-17.896580
 30
0.0
 11
320.840669
 21
-17.896225
 31
0.0
  0
LINE
  8
0
  6
BYLAYER
 62
     1
 10
320.727499
 20
-17.844746
 30
0.0
 11
319.824764
 21
-18.545805
 31
0.0
  0
LINE
  8
0
  6
BYLAYER
 62
     1
 10
319.618326
 20
-18.468853
 30
0.0
 11
319.617204
 21
-18.468452
 31
0.0
  0
ARC
  8
0
  6
BYLAYER
 62
     1
 10
316.169626
 20
-28.015125
 30
0.0
 40
10.150108
 50
68.894081
 51
80.764578
  0
ARC
  8
0
  6
BYLAYER
 62
     1
 10
316.169626
 20
-28.015125
 30
0.0
 40
11.144993
 50
84.535428
 51
90.000003
  0
LINE
  8
0
  6
BYLAYER
 62
     1
 10
317.350826
 20
-16.932904
 30
0.0
 11
317.798557
 21
-17.996415
 31
0.0
  0
ARC
  8
0
  6
BYLAYER
 62
     1
 10
316.169626
 20
-28.015125
 30
0.0
 40
11.144993
 50
180.000000
 51
186.083899
  0
LINE
  8
0
  6
BYLAYER
 62
     1
 10
305.075277
 20
-29.076416
 30
0.0
 11
305.075277
 21
-29.076439
 31
0.0
  0
LINE
  8
0
  6
BYLAYER
 62
     1
 10
305.087404
 20
-29.196323
 30
0.0
 11
306.151090
 21
-29.644151
 31
0.0
  0
ARC
  8
0
  6
BYLAYER
 62
     1
 10
316.169671
 20
-28.015034
 30
0.0
 40
10.150172
 50
189.236002
 51
200.764629
  0
LINE
  8
0
  6
BYLAYER
 62
     1
 10
306.678796
 20
-31.613586
 30
0.0
 11
305.981558
 21
-32.533293
 31
0.0
  0
ARC
  8
0
  6
BYLAYER
 62
     1
 10
316.169626
 20
-28.015125
 30
0.0
 40
11.144980
 50
203.916158
 51
215.860410
  0
LINE
  8
0
  6
BYLAYER
 62
     1
 10
307.063928
 20
-34.441406
 30
0.0
 11
307.064592
 21
-34.442345
 31
0.0
  0
LINE
  8
0
  6
BYLAYER
 62
     1
 10
307.137214
 20
-34.543994
 30
0.0
 11
308.269709
 21
-34.388199
 31
0.0
  0
ARC
  8
0
  6
BYLAYER
 62
     1
 10
316.169626
 20
-28.015125
 30
0.0
 40
10.150111
 50
218.894045
 51
230.764345
  0
LINE
  8
0
  6
BYLAYER
 62
     1
 10
309.583597
 20
-35.738399
 30
0.0
 11
309.584695
 21
-35.739349
 31
0.0
  0
LINE
  8
0
  6
BYLAYER
 62
     1
 10
309.749564
 20
-35.876904
 30
0.0
 11
309.605576
 21
-37.022016
 31
0.0
  0
ARC
  8
0
  6
BYLAYER
 62
     1
 10
316.169626
 20
-28.015125
 30
0.0
 40
11.144991
 50
233.916148
 51
245.860401
  0
LINE
  8
0
  6
BYLAYER
 62
     1
 10
311.497804
 20
-38.133659
 30
0.0
 11
311.498559
 21
-38.134025
 31
0.0
  0
LINE
  8
0
  6
BYLAYER
 62
     1
 10
311.611756
 20
-38.185506
 30
0.0
 11
312.514605
 21
-37.484317
 31
0.0
  0
LINE
  8
0
  6
BYLAYER
 62
     1
 10
312.720903
 20
-37.561386
 30
0.0
 11
312.722047
 21
-37.561798
 31
0.0
  0
LINE
  8
0
  6
BYLAYER
 62
     1
 10
327.263963
 20
-29.076416
 30
0.0
 11
327.263963
 21
-29.076439
 31
0.0
  0
LINE
  8
0
  6
BYLAYER
 62
     1
 10
327.251845
 20
-29.196325
 30
0.0
 11
326.188139
 21
-29.644148
 31
0.0
  0
LINE
  8
0
  6
BYLAYER
 62
     1
 10
325.660445
 20
-31.613611
 30
0.0
 11
326.357703
 21
-32.533301
 31
0.0
  0
LINE
  8
0
  6
BYLAYER
 62
     1
 10
325.275300
 20
-34.441406
 30
0.0
 11
325.274637
 21
-34.442345
 31
0.0
  0
LINE
  8
0
  6
BYLAYER
 62
     1
 10
325.202050
 20
-34.543995
 30
0.0
 11
324.069482
 21
-34.388195
 31
0.0
  0
LINE
  8
0
  6
BYLAYER
 62
     1
 10
322.755655
 20
-35.738399
 30
0.0
 11
322.754556
 21
-35.739349
 31
0.0
  0
LINE
  8
0
  6
BYLAYER
 62
     1
 10
322.589693
 20
-35.876900
 30
0.0
 11
322.733652
 21
-37.022033
 31
0.0
  0
LINE
  8
0
  6
BYLAYER
 62
     1
 10
320.727497
 20
-38.185505
 30
0.0
 11
319.824626
 21
-37.484324
 31
0.0
  0
ARC
  8
0
  6
BYLAYER
 62
     1
 10
316.169626
 20
-28.015125
 30
0.0
 40
10.150111
 50
309.235697
 51
321.105929
  0
ARC
  8
0
  6
BYLAYER
 62
     1
 10
316.169626
 20
-28.015125
 30
0.0
 40
10.150108
 50
248.893873
 51
270.0
  0
ARC
  8
0
  6
BYLAYER
 62
     1
 10
316.169626
 20
-28.015125
 30
0.0
 40
11.144991
 50
294.783232
 51
306.083699
  0
LINE
  8
0
  6
BYLAYER
 62
     1
 10
320.840669
 20
-38.134025
 30
0.0
 11
320.728184
 21
-38.186959
 31
0.0
  0
ARC
  8
0
  6
BYLAYER
 62
     1
 10
316.169626
 20
-28.015125
 30
0.0
 40
11.144980
 50
324.139593
 51
336.083825
  0
ARC
  8
0
  6
BYLAYER
 62
     1
 10
316.169557
 20
-28.015034
 30
0.0
 40
10.150172
 50
339.235210
 51
350.764014
  0
ARC
  8
0
  6
BYLAYER
 62
     1
 10
316.169626
 20
-28.015125
 30
0.0
 40
11.144993
 50
353.916089
 51
360.000000
  0
ARC
  8
0
  6
BYLAYER
 62
     1
 10
316.169626
 20
-28.015125
 30
0.0
 40
11.144993
 50
0.0
 51
6.083907
  0
ARC
  8
0
  6
BYLAYER
 62
     1
 10
316.169626
 20
-28.015125
 30
0.0
 40
10.150108
 50
270.0
 51
291.106008
  0
CIRCLE
  8
0
  6
BYLAYER
 62
     1
 10
316.169626
 20
-28.015125
 30
0.0
 40
5.445121
  0
CIRCLE
  8
0
  6
BYLAYER
 62
     1
 10
316.169626
 20
-28.015125
 30
0.0
 40
7.944049
  0
LINE
  8
0
  6
BYLAYER
 62
     1
 10
208.479038
 20
-67.358375
 30
0.0
 11
206.737216
 21
-102.297370
 31
0.0
  0
LINE
  8
0
  6
BYLAYER
 62
     1
 10
448.891881
 20
-67.222449
 30
0.0
 11
450.737216
 21
-110.819282
 31
0.0
  0
LINE
  8
0
  6
BYLAYER
 62
     1
 10
328.737201
 20
-166.662116
 30
0.0
 11
328.737201
 21
-160.662116
 31
0.0
  0
LINE
  8
0
  6
BYLAYER
 62
     1
 10
328.737201
 20
-166.662116
 30
0.0
 11
322.737201
 21
-166.662116
 31
0.0
  0
LINE
  8
0
  6
BYLAYER
 62
     1
 10
328.737201
 20
-166.662116
 30
0.0
 11
328.737201
 21
-172.662116
 31
0.0
  0
LINE
  8
0
  6
BYLAYER
 62
     1
 10
328.737201
 20
-166.662116
 30
0.0
 11
334.737201
 21
-166.662116
 31
0.0
  0
LINE
  8
0
  6
BYLAYER
 62
     1
 10
1052.237201
 20
-701.662116
 30
0.0
 11
1054.737201
 21
-701.662116
 31
0.0
  0
LINE
  8
0
  6
BYLAYER
 62
     1
 10
1051.237201
 20
-702.662116
 30
0.0
 11
1052.237201
 21
-701.662116
 31
0.0
  0
LINE
  8
0
  6
BYLAYER
 62
     1
 10
1051.237201
 20
-830.661994
 30
0.0
 11
1052.237201
 21
-831.661994
 31
0.0
  0
LINE
  8
0
  6
BYLAYER
 62
     1
 10
1052.237201
 20
-831.661994
 30
0.0
 11
1054.737201
 21
-831.661994
 31
0.0
  0
LINE
  8
0
  6
BYLAYER
 62
     1
 10
1051.237201
 20
-702.662116
 30
0.0
 11
1051.237201
 21
-830.661994
 31
0.0
  0
LINE
  8
0
  6
BYLAYER
 62
     1
 10
1056.737201
 20
-599.162055
 30
0.0
 11
1200.737201
 21
-599.162055
 31
0.0
  0
LINE
  8
0
  6
BYLAYER
 62
     1
 10
1056.737201
 20
-894.162055
 30
0.0
 11
1200.737201
 21
-894.162055
 31
0.0
  0
LINE
  8
0
  6
BYLAYER
 62
     1
 10
1056.737201
 20
-866.766852
 30
0.0
 11
1054.737201
 21
-866.661994
 31
0.0
  0
LINE
  8
0
  6
BYLAYER
 62
     1
 10
1054.737201
 20
-866.661994
 30
0.0
 11
1054.737201
 21
-666.662116
 31
0.0
  0
CIRCLE
  8
0
  6
BYLAYER
 62
     1
 10
1071.237140
 20
-641.662055
 30
0.0
 40
7.0
  0
CIRCLE
  8
0
  6
BYLAYER
 62
     1
 10
1186.237201
 20
-641.662055
 30
0.0
 40
7.0
  0
CIRCLE
  8
0
  6
BYLAYER
 62
     1
 10
1128.737201
 20
-656.662116
 30
0.0
 40
36.0
  0
ARC
  8
0
  6
BYLAYER
 62
     1
 10
1074.978717
 20
-665.622321
 30
0.0
 40
3.000083
 50
9.462899
 51
86.999924
  0
ARC
  8
0
  6
BYLAYER
 62
     1
 10
1128.737201
 20
-656.662116
 30
0.0
 40
51.500031
 50
189.462740
 51
350.537275
  0
ARC
  8
0
  6
BYLAYER
 62
     1
 10
1182.495624
 20
-665.622321
 30
0.0
 40
3.000082
 50
92.999494
 51
170.537106
  0
LINE
  8
0
  6
BYLAYER
 62
     1
 10
1056.737201
 20
-599.162055
 30
0.0
 11
1056.737201
 21
-660.419440
 31
0.0
  0
ARC
  8
0
  6
BYLAYER
 62
     1
 10
1059.737140
 20
-660.419440
 30
0.0
 40
3.000000
 50
180.000000
 51
225.000401
  0
LINE
  8
0
  6
BYLAYER
 62
     1
 10
1200.737201
 20
-599.162055
 30
0.0
 11
1200.737201
 21
-660.419440
 31
0.0
  0
ARC
  8
0
  6
BYLAYER
 62
     1
 10
1197.737201
 20
-660.419440
 30
0.0
 40
3.0
 50
314.999992
 51
360.0
  0
LINE
  8
0
  6
BYLAYER
 62
     1
 10
1056.737201
 20
-894.162055
 30
0.0
 11
1056.737201
 21
-832.904639
 31
0.0
  0
ARC
  8
0
  6
BYLAYER
 62
     1
 10
1059.737201
 20
-832.904639
 30
0.0
 40
3.000003
 50
135.000410
 51
180.000005
  0
LINE
  8
0
  6
BYLAYER
 62
     1
 10
1200.737201
 20
-894.162055
 30
0.0
 11
1200.737201
 21
-832.904700
 31
0.0
  0
ARC
  8
0
  6
BYLAYER
 62
     1
 10
1197.737201
 20
-832.904700
 30
0.0
 40
2.999938
 50
0.0
 51
45.000411
  0
LINE
  8
0
  6
BYLAYER
 62
     1
 10
1057.013263
 20
-661.676642
 30
0.0
 11
1075.135761
 21
-662.626349
 31
0.0
  0
LINE
  8
0
  6
BYLAYER
 62
     1
 10
1182.338641
 20
-662.626349
 30
0.0
 11
1200.461078
 21
-661.676642
 31
0.0
  0
LINE
  8
0
  6
BYLAYER
 62
     1
 10
1057.013202
 20
-831.647590
 30
0.0
 11
1128.737201
 21
-827.888679
 31
0.0
  0
LINE
  8
0
  6
BYLAYER
 62
     1
 10
1128.736957
 20
-827.888679
 30
0.0
 11
1200.461078
 21
-831.647590
 31
0.0
  0
CIRCLE
  8
0
  6
BYLAYER
 62
     1
 10
1071.237140
 20
-851.662055
 30
0.0
 40
7.0
  0
CIRCLE
  8
0
  6
BYLAYER
 62
     1
 10
1186.237201
 20
-851.662055
 30
0.0
 40
7.0
  0
ARC
  8
0
  6
BYLAYER
 62
     1
 10
1119.737201
 20
-822.513434
 30
0.0
 40
2.999990
 50
272.999956
 51
360.000010
  0
LINE
  8
0
  6
BYLAYER
 62
     1
 10
1122.737201
 20
-813.522590
 30
0.0
 11
1122.737201
 21
-822.513434
 31
0.0
  0
ARC
  8
0
  6
BYLAYER
 62
     1
 10
1119.737201
 20
-813.522590
 30
0.0
 40
2.999978
 50
0.0
 51
87.273726
  0
ARC
  8
0
  6
BYLAYER
 62
     1
 10
1179.871967
 20
-675.516242
 30
0.0
 40
2.999978
 50
92.726395
 51
159.760351
  0
ARC
  8
0
  6
BYLAYER
 62
     1
 10
1173.664935
 20
-687.512397
 30
0.0
 40
2.999994
 50
145.523956
 51
267.273608
  0
ARC
  8
0
  6
BYLAYER
 62
     1
 10
1083.809345
 20
-687.512458
 30
0.0
 40
2.999978
 50
272.726394
 51
394.476046
  0
ARC
  8
0
  6
BYLAYER
 62
     1
 10
1077.602252
 20
-675.516242
 30
0.0
 40
2.999997
 50
20.239655
 51
87.273604
  0
ARC
  8
0
  6
BYLAYER
 62
     1
 10
1176.737079
 20
-811.665442
 30
0.0
 40
3.0
 50
92.726418
 51
180.000000
  0
LINE
  8
0
  6
BYLAYER
 62
     1
 10
1173.737079
 20
-811.665442
 30
0.0
 11
1173.737079
 21
-824.557380
 31
0.0
  0
ARC
  8
0
  6
BYLAYER
 62
     1
 10
1176.737079
 20
-824.557380
 30
0.0
 40
3.0
 50
180.000000
 51
267.000477
  0
ARC
  8
0
  6
BYLAYER
 62
     1
 10
1119.737201
 20
-711.522712
 30
0.0
 40
2.999978
 50
0.0
 51
87.273575
  0
LINE
  8
0
  6
BYLAYER
 62
     1
 10
1122.737201
 20
-719.801520
 30
0.0
 11
1122.737201
 21
-711.522712
 31
0.0
  0
ARC
  8
0
  6
BYLAYER
 62
     1
 10
1119.737201
 20
-719.801520
 30
0.0
 40
3.000000
 50
272.726390
 51
360.000000
  0
ARC
  8
0
  6
BYLAYER
 62
     1
 10
1137.737201
 20
-711.522712
 30
0.0
 40
3.000039
 50
92.726395
 51
180.000005
  0
LINE
  8
0
  6
BYLAYER
 62
     1
 10
1134.737201
 20
-719.801520
 30
0.0
 11
1134.737201
 21
-711.522712
 31
0.0
  0
ARC
  8
0
  6
BYLAYER
 62
     1
 10
1137.737201
 20
-719.801520
 30
0.0
 40
3.0
 50
180.000000
 51
267.273575
  0
LINE
  8
0
  6
BYLAYER
 62
     1
 10
1057.615863
 20
-662.540778
 30
0.0
 11
1069.358539
 21
-674.284003
 31
0.0
  0
ARC
  8
0
  6
BYLAYER
 62
     1
 10
1067.237140
 20
-676.405280
 30
0.0
 40
3.000000
 50
0.0
 51
44.998533
  0
LINE
  8
0
  6
BYLAYER
 62
     1
 10
1057.615863
 20
-830.783332
 30
0.0
 11
1069.358417
 21
-819.040717
 31
0.0
  0
LINE
  8
0
  6
BYLAYER
 62
     1
 10
1128.736469
 20
-825.045905
 30
0.0
 11
1059.737201
 21
-828.661994
 31
0.0
  0
LINE
  8
0
  6
BYLAYER
 62
     1
 10
1054.737201
 20
-666.662116
 30
0.0
 11
1061.388568
 21
-666.313605
 31
0.0
  0
LINE
  8
0
  6
BYLAYER
 62
     1
 10
1073.094440
 20
-808.298133
 30
0.0
 11
1119.879901
 21
-810.526008
 31
0.0
  0
LINE
  8
0
  6
BYLAYER
 62
     1
 10
1073.094440
 20
-725.026008
 30
0.0
 11
1119.879901
 21
-722.798102
 31
0.0
  0
ARC
  8
0
  6
BYLAYER
 62
     1
 10
1073.237140
 20
-728.022651
 30
0.0
 40
3.0
 50
92.726361
 51
180.000005
  0
LINE
  8
0
  6
BYLAYER
 62
     1
 10
1119.879901
 20
-708.526130
 30
0.0
 11
1073.094440
 21
-706.298224
 31
0.0
  0
LINE
  8
0
  6
BYLAYER
 62
     1
 10
1073.094440
 20
-691.026069
 30
0.0
 11
1083.952045
 21
-690.509040
 31
0.0
  0
ARC
  8
0
  6
BYLAYER
 62
     1
 10
1073.237140
 20
-694.022712
 30
0.0
 40
3.0
 50
92.726375
 51
180.000005
  0
LINE
  8
0
  6
BYLAYER
 62
     1
 10
1068.077289
 20
-672.059333
 30
0.0
 11
1077.745013
 21
-672.519660
 31
0.0
  0
ARC
  8
0
  6
BYLAYER
 62
     1
 10
1068.219989
 20
-669.062690
 30
0.0
 40
3.000039
 50
213.853018
 51
267.273635
  0
LINE
  8
0
  6
BYLAYER
 62
     1
 10
1188.115863
 20
-674.283393
 30
0.0
 11
1199.858539
 21
-662.540778
 31
0.0
  0
ARC
  8
0
  6
BYLAYER
 62
     1
 10
1190.237201
 20
-676.404670
 30
0.0
 40
3.0
 50
134.999768
 51
179.999995
  0
LINE
  8
0
  6
BYLAYER
 62
     1
 10
1188.115741
 20
-819.040137
 30
0.0
 11
1199.858539
 21
-830.783484
 31
0.0
  0
ARC
  8
0
  6
BYLAYER
 62
     1
 10
1190.237201
 20
-816.918860
 30
0.0
 40
3.000000
 50
180.000000
 51
224.998533
  0
LINE
  8
0
  6
BYLAYER
 62
     1
 10
1189.396747
 20
-672.059272
 30
0.0
 11
1179.729266
 21
-672.519660
 31
0.0
  0
ARC
  8
0
  6
BYLAYER
 62
     1
 10
1189.254047
 20
-669.062690
 30
0.0
 40
2.999978
 50
272.726421
 51
326.150877
  0
LINE
  8
0
  6
BYLAYER
 62
     1
 10
1184.379779
 20
-691.026008
 30
0.0
 11
1173.522235
 21
-690.509040
 31
0.0
  0
ARC
  8
0
  6
BYLAYER
 62
     1
 10
1184.237201
 20
-694.022651
 30
0.0
 40
3.0
 50
0.0
 51
87.273855
  0
LINE
  8
0
  6
BYLAYER
 62
     1
 10
1137.594501
 20
-708.526069
 30
0.0
 11
1184.379779
 21
-706.298163
 31
0.0
  0
LINE
  8
0
  6
BYLAYER
 62
     1
 10
1184.379779
 20
-725.026008
 30
0.0
 11
1137.594501
 21
-722.798102
 31
0.0
  0
ARC
  8
0
  6
BYLAYER
 62
     1
 10
1184.237079
 20
-728.022651
 30
0.0
 40
3.0
 50
0.0
 51
87.273637
  0
LINE
  8
0
  6
BYLAYER
 62
     1
 10
1184.379779
 20
-808.298133
 30
0.0
 11
1176.594379
 21
-808.668860
 31
0.0
  0
LINE
  8
0
  6
BYLAYER
 62
     1
 10
1128.736591
 20
-825.045905
 30
0.0
 11
1197.737201
 21
-828.662055
 31
0.0
  0
LINE
  8
0
  6
BYLAYER
 62
     1
 10
1056.737201
 20
-604.162055
 30
0.0
 11
1200.737201
 21
-604.162055
 31
0.0
  0
LINE
  8
0
  6
BYLAYER
 62
     1
 10
1070.237140
 20
-816.919379
 30
0.0
 11
1070.237140
 21
-676.405280
 31
0.0
  0
ARC
  8
0
  6
BYLAYER
 62
     1
 10
1073.237140
 20
-805.301520
 30
0.0
 40
3.0
 50
180.000000
 51
267.273678
  0
ARC
  8
0
  6
BYLAYER
 62
     1
 10
1073.237140
 20
-703.301581
 30
0.0
 40
3.000000
 50
180.000000
 51
267.273644
  0
ARC
  8
0
  6
BYLAYER
 62
     1
 10
1067.237140
 20
-816.919379
 30
0.0
 40
3.0
 50
314.999999
 51
360.000000
  0
ARC
  8
0
  6
BYLAYER
 62
     1
 10
1184.237079
 20
-805.301520
 30
0.0
 40
3.000000
 50
272.726356
 51
360.000000
  0
ARC
  8
0
  6
BYLAYER
 62
     1
 10
1184.237079
 20
-703.301520
 30
0.0
 40
3.0
 50
272.726363
 51
360.000000
  0
LINE
  8
0
  6
BYLAYER
 62
     1
 10
1205.237079
 20
-701.662116
 30
0.0
 11
1202.737079
 21
-701.662116
 31
0.0
  0
LINE
  8
0
  6
BYLAYER
 62
     1
 10
1206.237079
 20
-702.662116
 30
0.0
 11
1205.237079
 21
-701.662116
 31
0.0
  0
LINE
  8
0
  6
BYLAYER
 62
     1
 10
1206.237079
 20
-830.661994
 30
0.0
 11
1205.237079
 21
-831.661994
 31
0.0
  0
LINE
  8
0
  6
BYLAYER
 62
     1
 10
1205.237079
 20
-831.661994
 30
0.0
 11
1202.737079
 21
-831.661994
 31
0.0
  0
LINE
  8
0
  6
BYLAYER
 62
     1
 10
1206.237079
 20
-702.662116
 30
0.0
 11
1206.237079
 21
-830.661994
 31
0.0
  0
LINE
  8
0
  6
BYLAYER
 62
     1
 10
1200.737079
 20
-866.766852
 30
0.0
 11
1202.737079
 21
-866.661994
 31
0.0
  0
LINE
  8
0
  6
BYLAYER
 62
     1
 10
1202.737079
 20
-866.661994
 30
0.0
 11
1202.737079
 21
-666.662116
 31
0.0
  0
LINE
  8
0
  6
BYLAYER
 62
     1
 10
1202.737079
 20
-666.662116
 30
0.0
 11
1196.085712
 21
-666.313605
 31
0.0
  0
LINE
  8
0
  6
BYLAYER
 62
     1
 10
1187.237201
 20
-676.404670
 30
0.0
 11
1187.237201
 21
-816.918860
 31
0.0
  0
LINE
  8
0
  6
BYLAYER
 62
     1
 10
201.237216
 20
-838.662131
 30
0.0
 11
201.237216
 21
-694.662116
 31
0.0
  0
LINE
  8
0
  6
BYLAYER
 62
     1
 10
453.737186
 20
-838.662131
 30
0.0
 11
453.737186
 21
-694.662116
 31
0.0
  0
LINE
  8
0
  6
BYLAYER
 62
     1
 10
393.737155
 20
-690.162116
 30
0.0
 11
393.737155
 21
-692.662116
 31
0.0
  0
LINE
  8
0
  6
BYLAYER
 62
     1
 10
392.737155
 20
-689.162116
 30
0.0
 11
393.737155
 21
-690.162116
 31
0.0
  0
LINE
  8
0
  6
BYLAYER
 62
     1
 10
263.737247
 20
-690.162116
 30
0.0
 11
263.737247
 21
-692.662116
 31
0.0
  0
LINE
  8
0
  6
BYLAYER
 62
     1
 10
264.737247
 20
-689.162116
 30
0.0
 11
263.737247
 21
-690.162116
 31
0.0
  0
LINE
  8
0
  6
BYLAYER
 62
     1
 10
392.737155
 20
-689.162116
 30
0.0
 11
264.737247
 21
-689.162116
 31
0.0
  0
LINE
  8
0
  6
BYLAYER
 62
     1
 10
317.370212
 20
-692.662177
 30
0.0
 11
317.338535
 21
-693.266852
 31
0.0
  0
ARC
  8
0
  6
BYLAYER
 62
     1
 10
315.341281
 20
-693.162177
 30
0.0
 40
1.999995
 50
270.0
 51
357.000791
  0
LINE
  8
0
  6
BYLAYER
 62
     1
 10
266.522464
 20
-692.662177
 30
0.0
 11
266.554141
 21
-693.266852
 31
0.0
  0
LINE
  8
0
  6
BYLAYER
 62
     1
 10
315.341281
 20
-695.162177
 30
0.0
 11
268.551395
 21
-695.162177
 31
0.0
  0
ARC
  8
0
  6
BYLAYER
 62
     1
 10
268.551395
 20
-693.162177
 30
0.0
 40
1.999995
 50
182.999237
 51
270.000001
  0
LINE
  8
0
  6
BYLAYER
 62
     1
 10
340.104221
 20
-692.662177
 30
0.0
 11
340.135898
 21
-693.266852
 31
0.0
  0
ARC
  8
0
  6
BYLAYER
 62
     1
 10
342.133151
 20
-693.162177
 30
0.0
 40
1.999995
 50
182.999209
 51
270.000001
  0
LINE
  8
0
  6
BYLAYER
 62
     1
 10
390.951938
 20
-692.662177
 30
0.0
 11
390.920261
 21
-693.266852
 31
0.0
  0
LINE
  8
0
  6
BYLAYER
 62
     1
 10
342.133151
 20
-695.162177
 30
0.0
 11
388.923007
 21
-695.162177
 31
0.0
  0
ARC
  8
0
  6
BYLAYER
 62
     1
 10
388.923007
 20
-693.162177
 30
0.0
 40
1.999995
 50
270.0
 51
357.000791
  0
LINE
  8
0
  6
BYLAYER
 62
     1
 10
428.737125
 20
-692.662116
 30
0.0
 11
228.737247
 21
-692.662116
 31
0.0
  0
LINE
  8
0
  6
BYLAYER
 62
     1
 10
228.737247
 20
-692.662116
 30
0.0
 11
228.632449
 21
-694.662116
 31
0.0
  0
LINE
  8
0
  6
BYLAYER
 62
     1
 10
428.737125
 20
-692.662116
 30
0.0
 11
428.841953
 21
-694.662116
 31
0.0
  0
CIRCLE
  8
0
  6
BYLAYER
 62
     1
 10
413.737186
 20
-709.162116
 30
0.0
 40
7.0
  0
CIRCLE
  8
0
  6
BYLAYER
 62
     1
 10
413.737186
 20
-824.162131
 30
0.0
 40
7.0
  0
LINE
  8
0
  6
BYLAYER
 62
     1
 10
201.237216
 20
-694.662116
 30
0.0
 11
262.494540
 21
-694.662116
 31
0.0
  0
ARC
  8
0
  6
BYLAYER
 62
     1
 10
262.494540
 20
-697.662116
 30
0.0
 40
3.000000
 50
45.000101
 51
90.0
  0
LINE
  8
0
  6
BYLAYER
 62
     1
 10
453.737186
 20
-694.662116
 30
0.0
 11
394.979831
 21
-694.662116
 31
0.0
  0
ARC
  8
0
  6
BYLAYER
 62
     1
 10
394.979831
 20
-697.662116
 30
0.0
 40
3.000003
 50
90.0
 51
134.999998
  0
LINE
  8
0
  6
BYLAYER
 62
     1
 10
453.737186
 20
-838.662131
 30
0.0
 11
394.979831
 21
-838.662131
 31
0.0
  0
ARC
  8
0
  6
BYLAYER
 62
     1
 10
394.979831
 20
-835.662131
 30
0.0
 40
3.000000
 50
224.999995
 51
270.000000
  0
LINE
  8
0
  6
BYLAYER
 62
     1
 10
201.237216
 20
-838.662131
 30
0.0
 11
262.494540
 21
-838.662131
 31
0.0
  0
ARC
  8
0
  6
BYLAYER
 62
     1
 10
262.494540
 20
-835.662131
 30
0.0
 40
3.000014
 50
270.0
 51
314.999909
  0
LINE
  8
0
  6
BYLAYER
 62
     1
 10
263.751682
 20
-694.938209
 30
0.0
 11
267.510562
 21
-766.662238
 31
0.0
  0
LINE
  8
0
  6
BYLAYER
 62
     1
 10
263.751682
 20
-838.386039
 30
0.0
 11
267.510562
 21
-766.662116
 31
0.0
  0
CIRCLE
  8
0
  6
BYLAYER
 62
     1
 10
243.737186
 20
-709.162116
 30
0.0
 40
7.0
  0
CIRCLE
  8
0
  6
BYLAYER
 62
     1
 10
243.737186
 20
-824.162131
 30
0.0
 40
7.0
  0
ARC
  8
0
  6
BYLAYER
 62
     1
 10
307.597751
 20
-775.662131
 30
0.0
 40
3.0
 50
90.0
 51
177.273739
  0
ARC
  8
0
  6
BYLAYER
 62
     1
 10
281.876682
 20
-775.662131
 30
0.0
 40
2.999978
 50
2.726265
 51
89.999998
  0
LINE
  8
0
  6
BYLAYER
 62
     1
 10
281.876682
 20
-772.662131
 30
0.0
 11
272.885837
 21
-772.662131
 31
0.0
  0
ARC
  8
0
  6
BYLAYER
 62
     1
 10
272.885837
 20
-775.662131
 30
0.0
 40
3.000022
 50
90.0
 51
177.000047
  0
ARC
  8
0
  6
BYLAYER
 62
     1
 10
272.885837
 20
-757.662116
 30
0.0
 40
3.000022
 50
182.999947
 51
270.000001
  0
LINE
  8
0
  6
BYLAYER
 62
     1
 10
281.876682
 20
-760.662116
 30
0.0
 11
272.885837
 21
-760.662116
 31
0.0
  0
ARC
  8
0
  6
BYLAYER
 62
     1
 10
281.876682
 20
-757.662116
 30
0.0
 40
2.999978
 50
270.0
 51
357.273726
  0
ARC
  8
0
  6
BYLAYER
 62
     1
 10
307.597751
 20
-757.662116
 30
0.0
 40
3.0
 50
182.726261
 51
270.000000
  0
ARC
  8
0
  6
BYLAYER
 62
     1
 10
385.040195
 20
-749.045875
 30
0.0
 40
2.999990
 50
281.852483
 51
356.999918
  0
ARC
  8
0
  6
BYLAYER
 62
     1
 10
385.040134
 20
-784.278373
 30
0.0
 40
3.000005
 50
2.999942
 51
78.147486
  0
ARC
  8
0
  6
BYLAYER
 62
     1
 10
388.737216
 20
-766.662116
 30
0.0
 40
15.000008
 50
101.852293
 51
137.585022
  0
ARC
  8
0
  6
BYLAYER
 62
     1
 10
375.448184
 20
-754.521216
 30
0.0
 40
3.000008
 50
182.726398
 51
317.584945
  0
ARC
  8
0
  6
BYLAYER
 62
     1
 10
388.737216
 20
-766.662116
 30
0.0
 40
15.000025
 50
222.414947
 51
258.147464
  0
ARC
  8
0
  6
BYLAYER
 62
     1
 10
375.448154
 20
-778.803031
 30
0.0
 40
2.999978
 50
42.414846
 51
177.273612
  0
LINE
  8
0
  6
BYLAYER
 62
     1
 10
393.722751
 20
-838.386039
 30
0.0
 11
390.558917
 21
-778.016913
 31
0.0
  0
LINE
  8
0
  6
BYLAYER
 62
     1
 10
318.873264
 20
-775.519431
 30
0.0
 11
321.291599
 21
-826.304877
 31
0.0
  0
ARC
  8
0
  6
BYLAYER
 62
     1
 10
324.288242
 20
-826.162177
 30
0.0
 40
3.000039
 50
182.726316
 51
270.000001
  0
LINE
  8
0
  6
BYLAYER
 62
     1
 10
336.182773
 20
-826.304892
 30
0.0
 11
338.601138
 21
-775.519431
 31
0.0
  0
ARC
  8
0
  6
BYLAYER
 62
     1
 10
333.186191
 20
-826.162192
 30
0.0
 40
3.0
 50
270.0
 51
357.273671
  0
LINE
  8
0
  6
BYLAYER
 62
     1
 10
355.291599
 20
-826.304923
 30
0.0
 11
352.873264
 21
-775.519431
 31
0.0
  0
LINE
  8
0
  6
BYLAYER
 62
     1
 10
302.182773
 20
-826.304847
 30
0.0
 11
304.601138
 21
-775.519431
 31
0.0
  0
LINE
  8
0
  6
BYLAYER
 62
     1
 10
393.722751
 20
-694.938209
 30
0.0
 11
390.558856
 21
-755.307303
 31
0.0
  0
LINE
  8
0
  6
BYLAYER
 62
     1
 10
264.615878
 20
-837.783454
 30
0.0
 11
272.358539
 21
-830.040793
 31
0.0
  0
ARC
  8
0
  6
BYLAYER
 62
     1
 10
274.479862
 20
-832.162116
 30
0.0
 40
3.000003
 50
90.0
 51
134.999998
  0
LINE
  8
0
  6
BYLAYER
 62
     1
 10
392.858524
 20
-837.783454
 30
0.0
 11
385.116000
 21
-830.040931
 31
0.0
  0
ARC
  8
0
  6
BYLAYER
 62
     1
 10
382.994678
 20
-832.162253
 30
0.0
 40
3.000003
 50
45.000001
 51
90.000003
  0
LINE
  8
0
  6
BYLAYER
 62
     1
 10
390.737155
 20
-835.662078
 30
0.0
 11
387.721347
 21
-778.117164
 31
0.0
  0
LINE
  8
0
  6
BYLAYER
 62
     1
 10
266.737254
 20
-835.662078
 30
0.0
 11
270.353366
 21
-766.662116
 31
0.0
  0
LINE
  8
0
  6
BYLAYER
 62
     1
 10
370.182788
 20
-826.304931
 30
0.0
 11
372.451572
 21
-778.660331
 31
0.0
  0
ARC
  8
0
  6
BYLAYER
 62
     1
 10
367.186176
 20
-826.162238
 30
0.0
 40
3.000008
 50
270.0
 51
357.273753
  0
ARC
  8
0
  6
BYLAYER
 62
     1
 10
358.288196
 20
-826.162223
 30
0.0
 40
2.999993
 50
182.726261
 51
270.000001
  0
ARC
  8
0
  6
BYLAYER
 62
     1
 10
299.186176
 20
-826.162147
 30
0.0
 40
2.999993
 50
270.0
 51
357.273726
  0
LINE
  8
0
  6
BYLAYER
 62
     1
 10
287.291614
 20
-826.304824
 30
0.0
 11
284.873264
 21
-775.519431
 31
0.0
  0
ARC
  8
0
  6
BYLAYER
 62
     1
 10
290.288226
 20
-826.162131
 30
0.0
 40
3.000008
 50
182.726248
 51
270.000001
  0
LINE
  8
0
  6
BYLAYER
 62
     1
 10
274.479869
 20
-829.162116
 30
0.0
 11
382.994678
 21
-829.162238
 31
0.0
  0
ARC
  8
0
  6
BYLAYER
 62
     1
 10
324.288242
 20
-707.162055
 30
0.0
 40
3.000039
 50
90.0
 51
177.273678
  0
ARC
  8
0
  6
BYLAYER
 62
     1
 10
333.186191
 20
-707.162040
 30
0.0
 40
3.0
 50
2.726329
 51
90.000000
  0
ARC
  8
0
  6
BYLAYER
 62
     1
 10
274.479862
 20
-701.162116
 30
0.0
 40
3.000003
 50
224.999996
 51
270.000001
  0
ARC
  8
0
  6
BYLAYER
 62
     1
 10
382.994678
 20
-701.161979
 30
0.0
 40
3.000003
 50
270.0
 51
314.999991
  0
ARC
  8
0
  6
BYLAYER
 62
     1
 10
367.186176
 20
-707.161994
 30
0.0
 40
3.000008
 50
2.726246
 51
89.999999
  0
ARC
  8
0
  6
BYLAYER
 62
     1
 10
358.288196
 20
-707.162009
 30
0.0
 40
2.999992
 50
90.0
 51
177.273732
  0
ARC
  8
0
  6
BYLAYER
 62
     1
 10
299.186176
 20
-707.162085
 30
0.0
 40
2.999993
 50
2.726274
 51
89.999999
  0
ARC
  8
0
  6
BYLAYER
 62
     1
 10
290.288226
 20
-707.162101
 30
0.0
 40
3.000008
 50
90.0
 51
177.273746
  0
LINE
  8
0
  6
BYLAYER
 62
     1
 10
274.479869
 20
-704.162116
 30
0.0
 11
382.994678
 21
-704.161994
 31
0.0
  0
LINE
  8
0
  6
BYLAYER
 62
     1
 10
264.615863
 20
-695.540778
 30
0.0
 11
272.358592
 21
-703.283408
 31
0.0
  0
LINE
  8
0
  6
BYLAYER
 62
     1
 10
270.353336
 20
-766.662665
 30
0.0
 11
266.737186
 21
-697.662070
 31
0.0
  0
LINE
  8
0
  6
BYLAYER
 62
     1
 10
392.858508
 20
-695.540778
 30
0.0
 11
385.116046
 21
-703.283332
 31
0.0
  0
LINE
  8
0
  6
BYLAYER
 62
     1
 10
387.721408
 20
-755.207068
 30
0.0
 11
390.737216
 21
-697.662101
 31
0.0
  0
LINE
  8
0
  6
BYLAYER
 62
     1
 10
370.182773
 20
-707.019294
 30
0.0
 11
372.451572
 21
-754.663917
 31
0.0
  0
LINE
  8
0
  6
BYLAYER
 62
     1
 10
355.291614
 20
-707.019309
 30
0.0
 11
352.873264
 21
-757.804816
 31
0.0
  0
LINE
  8
0
  6
BYLAYER
 62
     1
 10
336.182788
 20
-707.019340
 30
0.0
 11
338.601138
 21
-757.804816
 31
0.0
  0
LINE
  8
0
  6
BYLAYER
 62
     1
 10
318.873264
 20
-757.804816
 30
0.0
 11
321.291614
 21
-707.019355
 31
0.0
  0
LINE
  8
0
  6
BYLAYER
 62
     1
 10
302.182788
 20
-707.019385
 30
0.0
 11
304.601138
 21
-757.804816
 31
0.0
  0
LINE
  8
0
  6
BYLAYER
 62
     1
 10
287.291614
 20
-707.019401
 30
0.0
 11
284.873264
 21
-757.804816
 31
0.0
  0
LINE
  8
0
  6
BYLAYER
 62
     1
 10
206.237216
 20
-838.662116
 30
0.0
 11
206.237216
 21
-694.662116
 31
0.0
  0
LINE
  8
0
  6
BYLAYER
 62
     1
 10
448.737216
 20
-838.662116
 30
0.0
 11
448.737216
 21
-694.662116
 31
0.0
  0
CIRCLE
  8
0
  6
BYLAYER
 62
     1
 10
388.737216
 20
-766.662116
 30
0.0
 40
11.5
  0
LINE
  8
0
  6
BYLAYER
 62
     1
 10
393.737155
 20
-843.162116
 30
0.0
 11
393.737155
 21
-840.662116
 31
0.0
  0
LINE
  8
0
  6
BYLAYER
 62
     1
 10
392.737155
 20
-844.162116
 30
0.0
 11
393.737155
 21
-843.162116
 31
0.0
  0
LINE
  8
0
  6
BYLAYER
 62
     1
 10
263.737247
 20
-843.162116
 30
0.0
 11
263.737247
 21
-840.662116
 31
0.0
  0
LINE
  8
0
  6
BYLAYER
 62
     1
 10
264.737247
 20
-844.162116
 30
0.0
 11
263.737247
 21
-843.162116
 31
0.0
  0
LINE
  8
0
  6
BYLAYER
 62
     1
 10
392.737155
 20
-844.162116
 30
0.0
 11
264.737247
 21
-844.162116
 31
0.0
  0
LINE
  8
0
  6
BYLAYER
 62
     1
 10
317.370212
 20
-840.662055
 30
0.0
 11
317.338535
 21
-840.057380
 31
0.0
  0
ARC
  8
0
  6
BYLAYER
 62
     1
 10
315.341281
 20
-840.162055
 30
0.0
 40
1.999995
 50
2.999208
 51
89.999999
  0
LINE
  8
0
  6
BYLAYER
 62
     1
 10
266.522464
 20
-840.662055
 30
0.0
 11
266.554141
 21
-840.057380
 31
0.0
  0
LINE
  8
0
  6
BYLAYER
 62
     1
 10
315.341281
 20
-838.162055
 30
0.0
 11
268.551395
 21
-838.162055
 31
0.0
  0
ARC
  8
0
  6
BYLAYER
 62
     1
 10
268.551395
 20
-840.162055
 30
0.0
 40
1.999995
 50
90.0
 51
177.000764
  0
LINE
  8
0
  6
BYLAYER
 62
     1
 10
340.104221
 20
-840.662055
 30
0.0
 11
340.135898
 21
-840.057380
 31
0.0
  0
ARC
  8
0
  6
BYLAYER
 62
     1
 10
342.133151
 20
-840.162055
 30
0.0
 40
1.999995
 50
90.0
 51
177.000791
  0
LINE
  8
0
  6
BYLAYER
 62
     1
 10
390.951938
 20
-840.662055
 30
0.0
 11
390.920261
 21
-840.057380
 31
0.0
  0
LINE
  8
0
  6
BYLAYER
 62
     1
 10
342.133151
 20
-838.162055
 30
0.0
 11
388.923007
 21
-838.162055
 31
0.0
  0
ARC
  8
0
  6
BYLAYER
 62
     1
 10
388.923007
 20
-840.162055
 30
0.0
 40
1.999995
 50
2.999208
 51
89.999999
  0
LINE
  8
0
  6
BYLAYER
 62
     1
 10
428.737125
 20
-840.662116
 30
0.0
 11
228.737247
 21
-840.662116
 31
0.0
  0
LINE
  8
0
  6
BYLAYER
 62
     1
 10
228.737247
 20
-840.662116
 30
0.0
 11
228.632449
 21
-838.662116
 31
0.0
  0
LINE
  8
0
  6
BYLAYER
 62
     1
 10
428.737125
 20
-840.662116
 30
0.0
 11
428.841953
 21
-838.662116
 31
0.0
  0
ARC
  8
0
  6
BYLAYER
 62
     1
 10
315.876682
 20
-775.662131
 30
0.0
 40
2.999978
 50
2.726265
 51
89.999998
  0
LINE
  8
0
  6
BYLAYER
 62
     1
 10
315.876682
 20
-772.662131
 30
0.0
 11
307.597751
 21
-772.662131
 31
0.0
  0
LINE
  8
0
  6
BYLAYER
 62
     1
 10
315.876682
 20
-760.662116
 30
0.0
 11
307.597751
 21
-760.662116
 31
0.0
  0
ARC
  8
0
  6
BYLAYER
 62
     1
 10
315.876682
 20
-757.662116
 30
0.0
 40
2.999978
 50
270.0
 51
357.273726
  0
LINE
  8
0
  6
BYLAYER
 62
     1
 10
341.597751
 20
-772.662131
 30
0.0
 11
349.876682
 21
-772.662131
 31
0.0
  0
ARC
  8
0
  6
BYLAYER
 62
     1
 10
341.597751
 20
-775.662131
 30
0.0
 40
3.000008
 50
90.0
 51
177.273732
  0
ARC
  8
0
  6
BYLAYER
 62
     1
 10
349.876682
 20
-775.662131
 30
0.0
 40
3.0
 50
2.726261
 51
90.000000
  0
LINE
  8
0
  6
BYLAYER
 62
     1
 10
341.597751
 20
-760.662116
 30
0.0
 11
349.876682
 21
-760.662116
 31
0.0
  0
ARC
  8
0
  6
BYLAYER
 62
     1
 10
341.597751
 20
-757.662116
 30
0.0
 40
3.000008
 50
182.726261
 51
270.000001
  0
ARC
  8
0
  6
BYLAYER
 62
     1
 10
349.876682
 20
-757.662116
 30
0.0
 40
3.0
 50
270.0
 51
357.273726
  0
LINE
  8
0
  6
BYLAYER
 62
     1
 10
462.237201
 20
-18.662085
 30
0.0
 11
462.237201
 21
-56.662116
 31
0.0
  0
LINE
  8
0
  6
BYLAYER
 62
     1
 10
453.737201
 20
-2.662085
 30
0.0
 11
461.272098
 21
-2.925208
 31
0.0
  0
ARC
  8
0
  6
BYLAYER
 62
     1
 10
461.237201
 20
-3.924598
 30
0.0
 40
0.999999
 50
0.0
 51
87.999939
  0
LINE
  8
0
  6
BYLAYER
 62
     1
 10
453.737201
 20
-2.662116
 30
0.0
 11
453.737201
 21
-56.662116
 31
0.0
  0
ARC
  8
0
  6
BYLAYER
 62
     1
 10
461.237201
 20
-109.399604
 30
0.0
 40
0.999999
 50
272.000070
 51
359.999995
  0
LINE
  8
0
  6
BYLAYER
 62
     2
 10
462.237201
 20
-94.662147
 30
0.0
 11
462.237201
 21
-89.284446
 31
0.0
  0
LINE
  8
0
  6
BYLAYER
 62
     1
 10
462.237201
 20
-109.399604
 30
0.0
 11
462.237201
 21
-56.662116
 31
0.0
  0
LINE
  8
0
  6
BYLAYER
 62
     1
 10
462.237201
 20
-6.724402
 30
0.0
 11
462.237201
 21
-3.924598
 31
0.0
  0
LINE
  8
0
  6
BYLAYER
 62
     2
 10
462.237201
 20
-18.662085
 30
0.0
 11
462.237201
 21
-16.599769
 31
0.0
  0
LINE
  8
0
  6
BYLAYER
 62
     1
 10
462.237201
 20
-16.599769
 30
0.0
 11
462.237201
 21
-6.724402
 31
0.0
  0
LINE
  8
0
  6
BYLAYER
 62
     1
 10
453.737201
 20
-56.662116
 30
0.0
 11
453.737201
 21
-110.662116
 31
0.0
  0
LINE
  8
0
  6
BYLAYER
 62
     1
 10
453.737201
 20
-110.662116
 30
0.0
 11
461.272098
 21
-110.398993
 31
0.0
  0
LINE
  8
0
  6
BYLAYER
 62
     2
 10
462.237201
 20
-9.458930
 30
0.0
 11
468.737216
 21
-9.458930
 31
0.0
  0
LINE
  8
0
  6
BYLAYER
 62
     2
 10
462.237201
 20
-22.458930
 30
0.0
 11
468.737216
 21
-22.458930
 31
0.0
  0
LINE
  8
0
  6
BYLAYER
 62
     2
 10
469.737216
 20
-10.458930
 30
0.0
 11
469.737216
 21
-21.458930
 31
0.0
  0
ARC
  8
0
  6
BYLAYER
 62
     2
 10
468.737216
 20
-10.458930
 30
0.0
 40
1.000000
 50
0.0
 51
90.000003
  0
ARC
  8
0
  6
BYLAYER
 62
     2
 10
468.737216
 20
-21.458930
 30
0.0
 40
1.000000
 50
270.0
 51
359.999996
  0
LINE
  8
0
  6
BYLAYER
 62
     2
 10
462.237201
 20
-94.662147
 30
0.0
 11
462.237201
 21
-96.724463
 31
0.0
  0
LINE
  8
0
  6
BYLAYER
 62
     2
 10
462.237201
 20
-103.865302
 30
0.0
 11
468.737216
 21
-103.865302
 31
0.0
  0
LINE
  8
0
  6
BYLAYER
 62
     2
 10
462.237201
 20
-90.865302
 30
0.0
 11
468.737216
 21
-90.865302
 31
0.0
  0
LINE
  8
0
  6
BYLAYER
 62
     2
 10
469.737216
 20
-102.865302
 30
0.0
 11
469.737216
 21
-91.865302
 31
0.0
  0
ARC
  8
0
  6
BYLAYER
 62
     2
 10
468.737216
 20
-102.865302
 30
0.0
 40
1.000000
 50
270.0
 51
360.000003
  0
ARC
  8
0
  6
BYLAYER
 62
     2
 10
468.737216
 20
-91.865302
 30
0.0
 40
1.0
 50
0.0
 51
89.999996
  0
LINE
  8
0
  6
BYLAYER
 62
     3
 10
529.237201
 20
-70.662149
 30
0.0
 11
530.737203
 21
-69.162151
 31
0.0
  0
LINE
  8
0
  6
BYLAYER
 62
     3
 10
529.237232
 20
-42.662149
 30
0.0
 11
530.737230
 21
-44.162151
 31
0.0
  0
LINE
  8
0
  6
BYLAYER
 62
     3
 10
470.737201
 20
-70.662117
 30
0.0
 11
529.237201
 21
-70.662149
 31
0.0
  0
LINE
  8
0
  6
BYLAYER
 62
     3
 10
470.737232
 20
-42.662116
 30
0.0
 11
523.237232
 21
-42.662173
 31
0.0
  0
LINE
  8
0
  6
BYLAYER
 62
     3
 10
523.237232
 20
-42.662143
 30
0.0
 11
529.237232
 21
-42.662149
 31
0.0
  0
LINE
  8
0
  6
BYLAYER
 62
     3
 10
523.237232
 20
-42.662173
 30
0.0
 11
523.237235
 21
-39.662143
 31
0.0
  0
LINE
  8
0
  6
BYLAYER
 62
     3
 10
530.737230
 20
-44.162151
 30
0.0
 11
530.737216
 21
-56.662151
 31
0.0
  0
LINE
  8
0
  6
BYLAYER
 62
     3
 10
530.737216
 20
-56.662151
 30
0.0
 11
530.737203
 21
-69.162151
 31
0.0
  0
LINE
  8
0
  6
BYLAYER
 62
     3
 10
526.937223
 20
-61.912147
 30
0.0
 11
523.237211
 21
-61.912143
 31
0.0
  0
LINE
  8
0
  6
BYLAYER
 62
     3
 10
523.237211
 20
-61.912143
 30
0.0
 11
523.237216
 21
-56.662143
 31
0.0
  0
LINE
  8
0
  6
BYLAYER
 62
     3
 10
526.937223
 20
-61.912147
 30
0.0
 11
526.937228
 21
-56.662147
 31
0.0
  0
LINE
  8
0
  6
BYLAYER
 62
     3
 10
523.237211
 20
-61.662143
 30
0.0
 11
508.737211
 21
-61.662127
 31
0.0
  0
LINE
  8
0
  6
BYLAYER
 62
     3
 10
523.237212
 20
-60.762149
 30
0.0
 11
500.737212
 21
-60.762124
 31
0.0
  0
LINE
  8
0
  6
BYLAYER
 62
     3
 10
508.737211
 20
-61.662127
 30
0.0
 11
508.737216
 21
-56.662127
 31
0.0
  0
LINE
  8
0
  6
BYLAYER
 62
     3
 10
500.737212
 20
-60.762124
 30
0.0
 11
500.737216
 21
-56.662118
 31
0.0
  0
LINE
  8
0
  6
BYLAYER
 62
     3
 10
500.737212
 20
-60.762124
 30
0.0
 11
498.370090
 21
-56.662116
 31
0.0
  0
LINE
  8
0
  6
BYLAYER
 62
     3
 10
526.937223
 20
-61.912147
 30
0.0
 11
530.737208
 21
-64.106090
 31
0.0
  0
LINE
  8
0
  6
BYLAYER
 62
     3
 10
526.937234
 20
-51.412147
 30
0.0
 11
523.237222
 21
-51.412143
 31
0.0
  0
LINE
  8
0
  6
BYLAYER
 62
     3
 10
523.237222
 20
-51.412143
 30
0.0
 11
523.237216
 21
-56.662143
 31
0.0
  0
LINE
  8
0
  6
BYLAYER
 62
     3
 10
526.937234
 20
-51.412147
 30
0.0
 11
526.937228
 21
-56.662147
 31
0.0
  0
LINE
  8
0
  6
BYLAYER
 62
     3
 10
523.237222
 20
-51.662143
 30
0.0
 11
508.737222
 21
-51.662127
 31
0.0
  0
LINE
  8
0
  6
BYLAYER
 62
     3
 10
523.237221
 20
-52.562137
 30
0.0
 11
500.737221
 21
-52.562112
 31
0.0
  0
LINE
  8
0
  6
BYLAYER
 62
     3
 10
508.737222
 20
-51.662127
 30
0.0
 11
508.737216
 21
-56.662127
 31
0.0
  0
LINE
  8
0
  6
BYLAYER
 62
     3
 10
500.737221
 20
-52.562112
 30
0.0
 11
500.737216
 21
-56.662118
 31
0.0
  0
LINE
  8
0
  6
BYLAYER
 62
     3
 10
500.737221
 20
-52.562112
 30
0.0
 11
498.370090
 21
-56.662116
 31
0.0
  0
LINE
  8
0
  6
BYLAYER
 62
     3
 10
526.937234
 20
-51.412147
 30
0.0
 11
530.737224
 21
-49.218212
 31
0.0
  0
LINE
  8
0
  6
BYLAYER
 62
     3
 10
478.237235
 20
-39.662094
 30
0.0
 11
523.237235
 21
-39.662143
 31
0.0
  0
LINE
  8
0
  6
BYLAYER
 62
     3
 10
470.737216
 20
-56.662116
 30
0.0
 11
470.737234
 21
-40.662246
 31
0.0
  0
LINE
  8
0
  6
BYLAYER
 62
     2
 10
469.737216
 20
-50.521277
 30
0.0
 11
469.737216
 21
-61.521277
 31
0.0
  0
LINE
  8
0
  6
BYLAYER
 62
     3
 10
470.737199
 20
-72.662162
 30
0.0
 11
470.737216
 21
-56.662116
 31
0.0
  0
LINE
  8
0
  6
BYLAYER
 62
     3
 10
469.237075
 20
-74.162160
 30
0.0
 11
462.237201
 21
-74.161662
 31
0.0
  0
ARC
  8
0
  6
BYLAYER
 62
     3
 10
469.237199
 20
-72.662160
 30
0.0
 40
1.500000
 50
270.0
 51
360.000003
  0
LINE
  8
0
  6
BYLAYER
 62
     2
 10
462.237201
 20
-62.521277
 30
0.0
 11
468.737216
 21
-62.521277
 31
0.0
  0
LINE
  8
0
  6
BYLAYER
 62
     2
 10
462.237201
 20
-58.724433
 30
0.0
 11
462.237201
 21
-56.662116
 31
0.0
  0
ARC
  8
0
  6
BYLAYER
 62
     2
 10
468.737216
 20
-61.521277
 30
0.0
 40
1.000000
 50
270.0
 51
359.999996
  0
LINE
  8
0
  6
BYLAYER
 62
     2
 10
462.237201
 20
-49.521277
 30
0.0
 11
468.737216
 21
-49.521277
 31
0.0
  0
ARC
  8
0
  6
BYLAYER
 62
     2
 10
468.737216
 20
-50.521277
 30
0.0
 40
1.000000
 50
0.0
 51
90.000003
  0
LINE
  8
0
  6
BYLAYER
 62
     3
 10
462.237201
 20
-39.161995
 30
0.0
 11
469.237296
 21
-39.162244
 31
0.0
  0
ARC
  8
0
  6
BYLAYER
 62
     3
 10
469.237234
 20
-40.662244
 30
0.0
 40
1.5
 50
0.0
 51
89.999999
  0
LINE
  8
0
  6
BYLAYER
 62
     3
 10
478.237232
 20
-42.662124
 30
0.0
 11
478.237235
 21
-39.662094
 31
0.0
  0
CIRCLE
  8
0
  6
BYLAYER
 62
     1
 10
1128.737201
 20
-56.662116
 30
0.0
 40
36.0
  0
CIRCLE
  8
0
  6
BYLAYER
 62
     1
 10
1128.737201
 20
-56.662116
 30
0.0
 40
54.0
  0
LINE
  8
0
  6
BYLAYER
 62
     2
 10
1104.340626
 20
-12.612865
 30
0.0
 11
1101.891136
 21
-15.062355
 31
0.0
  0
LINE
  8
0
  6
BYLAYER
 62
     2
 10
1102.787711
 20
-18.408420
 30
0.0
 11
1106.133776
 21
-19.304995
 31
0.0
  0
CIRCLE
  8
0
  6
BYLAYER
 62
     2
 10
1105.237201
 20
-15.958930
 30
0.0
 40
3.464102
  0
CIRCLE
  8
0
  6
BYLAYER
 62
     2
 10
1105.237201
 20
-15.958930
 30
0.0
 40
6.5
  0
LINE
  8
0
  6
BYLAYER
 62
     1
 10
1200.737201
 20
0.837945
 30
0.0
 11
1056.737201
 21
0.837945
 31
0.0
  0
LINE
  8
0
  6
BYLAYER
 62
     1
 10
1200.737201
 20
-294.162055
 30
0.0
 11
1056.737201
 21
-294.162055
 31
0.0
  0
LINE
  8
0
  6
BYLAYER
 62
     1
 10
1128.737445
 20
-227.888678
 30
0.0
 11
1057.013324
 21
-231.647590
 31
0.0
  0
LINE
  8
0
  6
BYLAYER
 62
     1
 10
1073.095233
 20
-208.298163
 30
0.0
 11
1119.879901
 21
-210.526008
 31
0.0
  0
LINE
  8
0
  6
BYLAYER
 62
     1
 10
1073.095233
 20
-125.026008
 30
0.0
 11
1119.879901
 21
-122.798102
 31
0.0
  0
LINE
  8
0
  6
BYLAYER
 62
     1
 10
1112.161517
 20
-108.158576
 30
0.0
 11
1073.095233
 21
-106.298163
 31
0.0
  0
LINE
  8
0
  6
BYLAYER
 62
     1
 10
1128.737933
 20
-225.045905
 30
0.0
 11
1059.737201
 21
-228.662055
 31
0.0
  0
LINE
  8
0
  6
BYLAYER
 62
     2
 10
1104.340626
 20
-94.019237
 30
0.0
 11
1101.891136
 21
-96.468727
 31
0.0
  0
LINE
  8
0
  6
BYLAYER
 62
     2
 10
1102.787711
 20
-99.814792
 30
0.0
 11
1106.133776
 21
-100.711367
 31
0.0
  0
CIRCLE
  8
0
  6
BYLAYER
 62
     2
 10
1105.237201
 20
-97.365302
 30
0.0
 40
3.464102
  0
CIRCLE
  8
0
  6
BYLAYER
 62
     2
 10
1105.237201
 20
-97.365302
 30
0.0
 40
6.5
  0
LINE
  8
0
  6
BYLAYER
 62
     1
 10
1070.237933
 20
-76.405463
 30
0.0
 11
1070.237933
 21
-216.918158
 31
0.0
  0
LINE
  8
0
  6
BYLAYER
 62
     1
 10
1051.237201
 20
-102.662116
 30
0.0
 11
1051.237201
 21
-230.661994
 31
0.0
  0
LINE
  8
0
  6
BYLAYER
 62
     1
 10
1054.737201
 20
-266.661994
 30
0.0
 11
1054.737201
 21
-66.662116
 31
0.0
  0
LINE
  8
0
  6
BYLAYER
 62
     1
 10
1056.737201
 20
-294.162055
 30
0.0
 11
1056.737201
 21
-232.904700
 31
0.0
  0
ARC
  8
0
  6
BYLAYER
 62
     1
 10
1059.737201
 20
-232.904700
 30
0.0
 40
2.999938
 50
134.999181
 51
180.000005
  0
LINE
  8
0
  6
BYLAYER
 62
     1
 10
1056.737201
 20
-266.766852
 30
0.0
 11
1054.737201
 21
-266.661994
 31
0.0
  0
LINE
  8
0
  6
BYLAYER
 62
     1
 10
1052.237201
 20
-231.661994
 30
0.0
 11
1054.737201
 21
-231.661994
 31
0.0
  0
LINE
  8
0
  6
BYLAYER
 62
     1
 10
1051.237201
 20
-230.661994
 30
0.0
 11
1052.237201
 21
-231.661994
 31
0.0
  0
LINE
  8
0
  6
BYLAYER
 62
     1
 10
1069.359332
 20
-219.039435
 30
0.0
 11
1057.615985
 21
-230.783362
 31
0.0
  0
ARC
  8
0
  6
BYLAYER
 62
     1
 10
1067.237933
 20
-216.918158
 30
0.0
 40
3.000000
 50
315.001467
 51
360.000000
  0
ARC
  8
0
  6
BYLAYER
 62
     1
 10
1128.737201
 20
-56.662116
 30
0.0
 40
48.999958
 50
194.792501
 51
225.207552
  0
ARC
  8
0
  6
BYLAYER
 62
     1
 10
1095.623798
 20
-90.016272
 30
0.0
 40
2.000035
 50
225.208262
 51
329.998923
  0
ARC
  8
0
  6
BYLAYER
 62
     1
 10
1073.237933
 20
-94.022613
 30
0.0
 40
3.0
 50
92.726184
 51
179.999998
  0
ARC
  8
0
  6
BYLAYER
 62
     1
 10
1073.237933
 20
-128.022590
 30
0.0
 40
3.000000
 50
92.726361
 51
179.999998
  0
ARC
  8
0
  6
BYLAYER
 62
     1
 10
1073.237933
 20
-205.301551
 30
0.0
 40
3.0
 50
180.000000
 51
267.273671
  0
ARC
  8
0
  6
BYLAYER
 62
     1
 10
1073.237933
 20
-103.301581
 30
0.0
 40
3.0
 50
180.000000
 51
267.273569
  0
LINE
  8
0
  6
BYLAYER
 62
     1
 10
1052.237201
 20
-101.662116
 30
0.0
 11
1054.737201
 21
-101.662116
 31
0.0
  0
LINE
  8
0
  6
BYLAYER
 62
     1
 10
1051.237201
 20
-102.662116
 30
0.0
 11
1052.237201
 21
-101.662116
 31
0.0
  0
LINE
  8
0
  6
BYLAYER
 62
     2
 10
1101.891136
 20
-96.468727
 30
0.0
 11
1102.787711
 21
-99.814792
 31
0.0
  0
LINE
  8
0
  6
BYLAYER
 62
     1
 10
1072.581805
 20
-62.492560
 30
0.0
 11
1057.013324
 21
-61.676642
 31
0.0
  0
LINE
  8
0
  6
BYLAYER
 62
     1
 10
1068.077594
 20
-72.059272
 30
0.0
 11
1075.043597
 21
-72.390998
 31
0.0
  0
LINE
  8
0
  6
BYLAYER
 62
     1
 10
1056.737201
 20
0.837945
 30
0.0
 11
1056.737201
 21
-60.419440
 31
0.0
  0
ARC
  8
0
  6
BYLAYER
 62
     1
 10
1059.737201
 20
-60.419440
 30
0.0
 40
3.000025
 50
180.000000
 51
224.999991
  0
LINE
  8
0
  6
BYLAYER
 62
     1
 10
1054.737201
 20
-66.662116
 30
0.0
 11
1061.388690
 21
-66.313605
 31
0.0
  0
LINE
  8
0
  6
BYLAYER
 62
     1
 10
1069.359271
 20
-74.284186
 30
0.0
 11
1057.615863
 21
-62.540778
 31
0.0
  0
ARC
  8
0
  6
BYLAYER
 62
     1
 10
1067.237933
 20
-76.405463
 30
0.0
 40
3.000000
 50
0.0
 51
45.000001
  0
ARC
  8
0
  6
BYLAYER
 62
     1
 10
1068.220294
 20
-69.062690
 30
0.0
 40
2.999978
 50
213.849125
 51
267.273580
  0
ARC
  8
0
  6
BYLAYER
 62
     1
 10
1128.737201
 20
-56.662116
 30
0.0
 40
41.000000
 50
136.204723
 51
163.795463
  0
ARC
  8
0
  6
BYLAYER
 62
     1
 10
1128.737201
 20
-56.662116
 30
0.0
 40
48.999985
 50
134.792513
 51
165.207564
  0
ARC
  8
0
  6
BYLAYER
 62
     1
 10
1087.445514
 20
-44.662238
 30
0.0
 40
2.000019
 50
269.999564
 51
343.795905
  0
ARC
  8
0
  6
BYLAYER
 62
     1
 10
1087.445575
 20
-68.662116
 30
0.0
 40
2.000031
 50
16.204962
 51
90.000071
  0
CIRCLE
  8
0
  6
BYLAYER
 62
     2
 10
1081.737201
 20
-56.662116
 30
0.0
 40
6.5
  0
LINE
  8
0
  6
BYLAYER
 62
     1
 10
1073.095233
 20
-91.026008
 30
0.0
 11
1081.039813
 21
-90.647712
 31
0.0
  0
ARC
  8
0
  6
BYLAYER
 62
     1
 10
1074.900897
 20
-75.387580
 30
0.0
 40
3.000016
 50
19.179031
 51
87.273579
  0
ARC
  8
0
  6
BYLAYER
 62
     1
 10
1072.424701
 20
-65.488410
 30
0.0
 40
2.999966
 50
8.907878
 51
87.000006
  0
ARC
  8
0
  6
BYLAYER
 62
     1
 10
1080.897113
 20
-87.651130
 30
0.0
 40
2.999978
 50
272.726421
 51
392.933365
  0
LINE
  8
0
  6
BYLAYER
 62
     1
 10
1087.445575
 20
-66.662085
 30
0.0
 11
1083.294940
 21
-66.662085
 31
0.0
  0
ARC
  8
0
  6
BYLAYER
 62
     1
 10
1083.294940
 20
-68.662085
 30
0.0
 40
1.999976
 50
90.0
 51
194.792485
  0
LINE
  8
0
  6
BYLAYER
 62
     2
 10
1080.840626
 20
-53.316051
 30
0.0
 11
1078.391136
 21
-55.765541
 31
0.0
  0
LINE
  8
0
  6
BYLAYER
 62
     2
 10
1079.287711
 20
-59.111606
 30
0.0
 11
1082.633776
 21
-60.008181
 31
0.0
  0
CIRCLE
  8
0
  6
BYLAYER
 62
     2
 10
1081.737201
 20
-56.662116
 30
0.0
 40
3.464102
  0
LINE
  8
0
  6
BYLAYER
 62
     2
 10
1078.391136
 20
-55.765541
 30
0.0
 11
1079.287711
 21
-59.111606
 31
0.0
  0
ARC
  8
0
  6
BYLAYER
 62
     1
 10
1083.294940
 20
-44.662147
 30
0.0
 40
2.000031
 50
165.208274
 51
269.998935
  0
LINE
  8
0
  6
BYLAYER
 62
     1
 10
1083.294910
 20
-46.662177
 30
0.0
 11
1087.445514
 21
-46.662238
 31
0.0
  0
LINE
  8
0
  6
BYLAYER
 62
     2
 10
1085.083266
 20
-57.558691
 30
0.0
 11
1084.186691
 21
-54.212626
 31
0.0
  0
LINE
  8
0
  6
BYLAYER
 62
     2
 10
1082.633776
 20
-60.008181
 30
0.0
 11
1085.083266
 21
-57.558691
 31
0.0
  0
LINE
  8
0
  6
BYLAYER
 62
     2
 10
1084.186691
 20
-54.212626
 30
0.0
 11
1080.840626
 21
-53.316051
 31
0.0
  0
ARC
  8
0
  6
BYLAYER
 62
     1
 10
1128.737201
 20
-56.662116
 30
0.0
 40
40.999992
 50
196.204711
 51
223.795451
  0
LINE
  8
0
  6
BYLAYER
 62
     1
 10
1097.355853
 20
-91.016334
 30
0.0
 11
1099.431201
 21
-87.421821
 31
0.0
  0
ARC
  8
0
  6
BYLAYER
 62
     1
 10
1097.699176
 20
-86.421790
 30
0.0
 40
1.999969
 50
329.999552
 51
403.795894
  0
ARC
  8
0
  6
BYLAYER
 62
     1
 10
1095.623767
 20
-23.307960
 30
0.0
 40
1.999994
 50
30.000086
 51
134.792567
  0
LINE
  8
0
  6
BYLAYER
 62
     1
 10
1099.431140
 20
-25.902503
 30
0.0
 11
1097.355823
 21
-22.307960
 31
0.0
  0
ARC
  8
0
  6
BYLAYER
 62
     1
 10
1097.699085
 20
-26.902503
 30
0.0
 40
2.000004
 50
316.204974
 51
390.000086
  0
LINE
  8
0
  6
BYLAYER
 62
     2
 10
1101.891136
 20
-15.062355
 30
0.0
 11
1102.787711
 21
-18.408420
 31
0.0
  0
LINE
  8
0
  6
BYLAYER
 62
     1
 10
1206.237201
 20
-102.662116
 30
0.0
 11
1206.237201
 21
-230.661994
 31
0.0
  0
LINE
  8
0
  6
BYLAYER
 62
     1
 10
1202.737201
 20
-266.661994
 30
0.0
 11
1202.737201
 21
-66.662116
 31
0.0
  0
LINE
  8
0
  6
BYLAYER
 62
     1
 10
1134.737201
 20
-213.522590
 30
0.0
 11
1134.737201
 21
-222.513434
 31
0.0
  0
LINE
  8
0
  6
BYLAYER
 62
     1
 10
1122.737201
 20
-213.522590
 30
0.0
 11
1122.737201
 21
-222.513434
 31
0.0
  0
LINE
  8
0
  6
BYLAYER
 62
     1
 10
1187.237933
 20
-76.403998
 30
0.0
 11
1187.237933
 21
-216.921210
 31
0.0
  0
LINE
  8
0
  6
BYLAYER
 62
     1
 10
1200.461078
 20
-231.647590
 30
0.0
 11
1128.737201
 21
-227.888678
 31
0.0
  0
LINE
  8
0
  6
BYLAYER
 62
     1
 10
1128.737933
 20
-225.045905
 30
0.0
 11
1197.736957
 21
-228.661963
 31
0.0
  0
ARC
  8
0
  6
BYLAYER
 62
     1
 10
1137.737201
 20
-222.513434
 30
0.0
 40
2.999990
 50
180.000000
 51
267.000054
  0
ARC
  8
0
  6
BYLAYER
 62
     1
 10
1119.737201
 20
-222.513434
 30
0.0
 40
2.999990
 50
272.999956
 51
359.999983
  0
LINE
  8
0
  6
BYLAYER
 62
     1
 10
1199.858539
 20
-230.783301
 30
0.0
 11
1188.116718
 21
-219.042640
 31
0.0
  0
ARC
  8
0
  6
BYLAYER
 62
     1
 10
1190.237933
 20
-216.921210
 30
0.0
 40
3.0
 50
180.000000
 51
225.002822
  0
LINE
  8
0
  6
BYLAYER
 62
     1
 10
1200.737201
 20
-294.162055
 30
0.0
 11
1200.737201
 21
-232.904700
 31
0.0
  0
LINE
  8
0
  6
BYLAYER
 62
     1
 10
1200.737201
 20
-266.766852
 30
0.0
 11
1202.737201
 21
-266.661994
 31
0.0
  0
LINE
  8
0
  6
BYLAYER
 62
     1
 10
1206.237201
 20
-230.661994
 30
0.0
 11
1205.237201
 21
-231.661994
 31
0.0
  0
ARC
  8
0
  6
BYLAYER
 62
     1
 10
1197.737201
 20
-232.904700
 30
0.0
 40
3.000025
 50
0.0
 51
45.000824
  0
LINE
  8
0
  6
BYLAYER
 62
     1
 10
1205.237201
 20
-231.661994
 30
0.0
 11
1202.737201
 21
-231.661994
 31
0.0
  0
ARC
  8
0
  6
BYLAYER
 62
     1
 10
1128.737201
 20
-56.662116
 30
0.0
 40
41.0
 50
316.204700
 51
343.795441
  0
ARC
  8
0
  6
BYLAYER
 62
     1
 10
1128.737201
 20
-56.662116
 30
0.0
 40
48.999966
 50
314.792491
 51
345.207596
  0
ARC
  8
0
  6
BYLAYER
 62
     1
 10
1128.737201
 20
-56.662116
 30
0.0
 40
40.999992
 50
16.204689
 51
43.795456
  0
ARC
  8
0
  6
BYLAYER
 62
     1
 10
1128.737201
 20
-56.662116
 30
0.0
 40
48.999966
 50
14.792506
 51
45.207584
  0
LINE
  8
0
  6
BYLAYER
 62
     1
 10
1145.312885
 20
-108.158576
 30
0.0
 11
1184.380634
 21
-106.298163
 31
0.0
  0
LINE
  8
0
  6
BYLAYER
 62
     1
 10
1184.380634
 20
-125.026069
 30
0.0
 11
1137.594501
 21
-122.798102
 31
0.0
  0
LINE
  8
0
  6
BYLAYER
 62
     1
 10
1184.380634
 20
-208.298072
 30
0.0
 11
1137.594501
 21
-210.526008
 31
0.0
  0
ARC
  8
0
  6
BYLAYER
 62
     1
 10
1161.850604
 20
-90.016272
 30
0.0
 40
1.999994
 50
210.000067
 51
314.792600
  0
CIRCLE
  8
0
  6
BYLAYER
 62
     2
 10
1152.237201
 20
-97.365302
 30
0.0
 40
6.5
  0
ARC
  8
0
  6
BYLAYER
 62
     1
 10
1128.737201
 20
-56.662116
 30
0.0
 40
40.999985
 50
256.204685
 51
283.795453
  0
ARC
  8
0
  6
BYLAYER
 62
     1
 10
1128.737201
 20
-56.662116
 30
0.0
 40
48.999962
 50
254.792503
 51
285.207581
  0
ARC
  8
0
  6
BYLAYER
 62
     1
 10
1137.737201
 20
-213.522590
 30
0.0
 40
2.999978
 50
92.726266
 51
179.999991
  0
ARC
  8
0
  6
BYLAYER
 62
     1
 10
1137.737201
 20
-119.801520
 30
0.0
 40
3.000000
 50
180.000000
 51
267.273603
  0
ARC
  8
0
  6
BYLAYER
 62
     1
 10
1137.737201
 20
-112.947028
 30
0.0
 40
2.999966
 50
99.083737
 51
180.000005
  0
ARC
  8
0
  6
BYLAYER
 62
     1
 10
1119.737201
 20
-213.522590
 30
0.0
 40
2.999978
 50
0.0
 51
87.273726
  0
LINE
  8
0
  6
BYLAYER
 62
     2
 10
1107.686691
 20
-94.915812
 30
0.0
 11
1104.340626
 21
-94.019237
 31
0.0
  0
LINE
  8
0
  6
BYLAYER
 62
     2
 10
1106.133776
 20
-100.711367
 30
0.0
 11
1108.583266
 21
-98.261877
 31
0.0
  0
LINE
  8
0
  6
BYLAYER
 62
     2
 10
1108.583266
 20
-98.261877
 30
0.0
 11
1107.686691
 21
-94.915812
 31
0.0
  0
ARC
  8
0
  6
BYLAYER
 62
     1
 10
1112.018817
 20
-111.155158
 30
0.0
 40
2.999976
 50
72.944754
 51
87.273603
  0
ARC
  8
0
  6
BYLAYER
 62
     1
 10
1116.408374
 20
-102.016242
 30
0.0
 40
1.999997
 50
150.000066
 51
254.792584
  0
LINE
  8
0
  6
BYLAYER
 62
     1
 10
1116.751636
 20
-97.421729
 30
0.0
 11
1114.676318
 21
-101.016242
 31
0.0
  0
ARC
  8
0
  6
BYLAYER
 62
     1
 10
1118.483691
 20
-98.421729
 30
0.0
 40
2.000004
 50
76.204953
 51
150.000066
  0
ARC
  8
0
  6
BYLAYER
 62
     1
 10
1119.737201
 20
-119.801520
 30
0.0
 40
2.999978
 50
272.726421
 51
360.000003
  0
ARC
  8
0
  6
BYLAYER
 62
     1
 10
1119.737201
 20
-112.947028
 30
0.0
 40
3.0
 50
0.0
 51
80.916261
  0
LINE
  8
0
  6
BYLAYER
 62
     1
 10
1122.737201
 20
-119.801520
 30
0.0
 11
1122.737201
 21
-112.947028
 31
0.0
  0
LINE
  8
0
  6
BYLAYER
 62
     1
 10
1134.737201
 20
-119.801520
 30
0.0
 11
1134.737201
 21
-112.947028
 31
0.0
  0
LINE
  8
0
  6
BYLAYER
 62
     2
 10
1151.340626
 20
-94.019237
 30
0.0
 11
1148.891136
 21
-96.468727
 31
0.0
  0
LINE
  8
0
  6
BYLAYER
 62
     2
 10
1149.787711
 20
-99.814792
 30
0.0
 11
1153.133776
 21
-100.711367
 31
0.0
  0
CIRCLE
  8
0
  6
BYLAYER
 62
     2
 10
1152.237201
 20
-97.365302
 30
0.0
 40
3.464102
  0
ARC
  8
0
  6
BYLAYER
 62
     1
 10
1141.066058
 20
-102.016242
 30
0.0
 40
2.000015
 50
285.208264
 51
389.998925
  0
ARC
  8
0
  6
BYLAYER
 62
     1
 10
1138.990833
 20
-98.421699
 30
0.0
 40
2.000019
 50
29.999553
 51
103.795899
  0
LINE
  8
0
  6
BYLAYER
 62
     1
 10
1142.798145
 20
-101.016272
 30
0.0
 11
1140.722888
 21
-97.421699
 31
0.0
  0
ARC
  8
0
  6
BYLAYER
 62
     1
 10
1145.455585
 20
-111.155158
 30
0.0
 40
2.999978
 50
92.726395
 51
107.055251
  0
LINE
  8
0
  6
BYLAYER
 62
     2
 10
1148.891136
 20
-96.468727
 30
0.0
 11
1149.787711
 21
-99.814792
 31
0.0
  0
LINE
  8
0
  6
BYLAYER
 62
     2
 10
1154.686691
 20
-94.915812
 30
0.0
 11
1151.340626
 21
-94.019237
 31
0.0
  0
LINE
  8
0
  6
BYLAYER
 62
     2
 10
1153.133776
 20
-100.711367
 30
0.0
 11
1155.583266
 21
-98.261877
 31
0.0
  0
LINE
  8
0
  6
BYLAYER
 62
     2
 10
1155.583266
 20
-98.261877
 30
0.0
 11
1154.686691
 21
-94.915812
 31
0.0
  0
ARC
  8
0
  6
BYLAYER
 62
     1
 10
1128.737201
 20
-56.662116
 30
0.0
 40
40.999985
 50
76.204673
 51
103.795468
  0
ARC
  8
0
  6
BYLAYER
 62
     1
 10
1128.737201
 20
-56.662116
 30
0.0
 40
48.999962
 50
74.792518
 51
105.207569
  0
LINE
  8
0
  6
BYLAYER
 62
     2
 10
1108.583266
 20
-16.855505
 30
0.0
 11
1107.686691
 21
-13.509440
 31
0.0
  0
LINE
  8
0
  6
BYLAYER
 62
     2
 10
1106.133776
 20
-19.304995
 30
0.0
 11
1108.583266
 21
-16.855505
 31
0.0
  0
LINE
  8
0
  6
BYLAYER
 62
     2
 10
1107.686691
 20
-13.509440
 30
0.0
 11
1104.340626
 21
-12.612865
 31
0.0
  0
LINE
  8
0
  6
BYLAYER
 62
     1
 10
1114.676257
 20
-12.307960
 30
0.0
 11
1116.751514
 21
-15.902533
 31
0.0
  0
ARC
  8
0
  6
BYLAYER
 62
     1
 10
1118.483569
 20
-14.902533
 30
0.0
 40
2.000019
 50
209.999562
 51
283.795890
  0
ARC
  8
0
  6
BYLAYER
 62
     1
 10
1116.408344
 20
-11.307990
 30
0.0
 40
2.000015
 50
105.208279
 51
209.998934
  0
LINE
  8
0
  6
BYLAYER
 62
     1
 10
1158.043262
 20
-87.421729
 30
0.0
 11
1160.118579
 21
-91.016272
 31
0.0
  0
ARC
  8
0
  6
BYLAYER
 62
     1
 10
1159.775317
 20
-86.421729
 30
0.0
 40
2.000004
 50
136.204955
 51
210.000067
  0
LINE
  8
0
  6
BYLAYER
 62
     2
 10
1151.340626
 20
-12.612865
 30
0.0
 11
1148.891136
 21
-15.062355
 31
0.0
  0
LINE
  8
0
  6
BYLAYER
 62
     2
 10
1149.787711
 20
-18.408420
 30
0.0
 11
1153.133776
 21
-19.304995
 31
0.0
  0
CIRCLE
  8
0
  6
BYLAYER
 62
     2
 10
1152.237201
 20
-15.958930
 30
0.0
 40
3.464102
  0
CIRCLE
  8
0
  6
BYLAYER
 62
     2
 10
1152.237201
 20
-15.958930
 30
0.0
 40
6.5
  0
ARC
  8
0
  6
BYLAYER
 62
     1
 10
1141.066028
 20
-11.307990
 30
0.0
 40
1.999997
 50
330.000071
 51
434.792573
  0
LINE
  8
0
  6
BYLAYER
 62
     1
 10
1140.722766
 20
-15.902503
 30
0.0
 11
1142.798084
 21
-12.307990
 31
0.0
  0
ARC
  8
0
  6
BYLAYER
 62
     1
 10
1138.990711
 20
-14.902503
 30
0.0
 40
2.000004
 50
256.204958
 51
330.000071
  0
LINE
  8
0
  6
BYLAYER
 62
     2
 10
1148.891136
 20
-15.062355
 30
0.0
 11
1149.787711
 21
-18.408420
 31
0.0
  0
LINE
  8
0
  6
BYLAYER
 62
     1
 10
1160.118549
 20
-22.307898
 30
0.0
 11
1158.043201
 21
-25.902411
 31
0.0
  0
LINE
  8
0
  6
BYLAYER
 62
     2
 10
1155.583266
 20
-16.855505
 30
0.0
 11
1154.686691
 21
-13.509440
 31
0.0
  0
LINE
  8
0
  6
BYLAYER
 62
     2
 10
1153.133776
 20
-19.304995
 30
0.0
 11
1155.583266
 21
-16.855505
 31
0.0
  0
ARC
  8
0
  6
BYLAYER
 62
     1
 10
1159.775226
 20
-26.902442
 30
0.0
 40
1.999969
 50
149.999560
 51
223.795902
  0
LINE
  8
0
  6
BYLAYER
 62
     2
 10
1154.686691
 20
-13.509440
 30
0.0
 11
1151.340626
 21
-12.612865
 31
0.0
  0
ARC
  8
0
  6
BYLAYER
 62
     1
 10
1161.850604
 20
-23.307960
 30
0.0
 40
2.000035
 50
45.208267
 51
149.998932
  0
ARC
  8
0
  6
BYLAYER
 62
     1
 10
1184.237933
 20
-94.022712
 30
0.0
 40
3.0
 50
0.0
 51
87.273575
  0
ARC
  8
0
  6
BYLAYER
 62
     1
 10
1184.237933
 20
-205.301490
 30
0.0
 40
3.0
 50
272.726339
 51
360.000010
  0
ARC
  8
0
  6
BYLAYER
 62
     1
 10
1184.237933
 20
-128.022651
 30
0.0
 40
3.0
 50
0.0
 51
87.273637
  0
ARC
  8
0
  6
BYLAYER
 62
     1
 10
1184.237933
 20
-103.301581
 30
0.0
 40
3.0
 50
272.726366
 51
360.000010
  0
LINE
  8
0
  6
BYLAYER
 62
     1
 10
1206.237201
 20
-102.662116
 30
0.0
 11
1205.237201
 21
-101.662116
 31
0.0
  0
LINE
  8
0
  6
BYLAYER
 62
     1
 10
1205.237201
 20
-101.662116
 30
0.0
 11
1202.737201
 21
-101.662116
 31
0.0
  0
LINE
  8
0
  6
BYLAYER
 62
     1
 10
1200.461078
 20
-61.676642
 30
0.0
 11
1184.892719
 21
-62.492560
 31
0.0
  0
LINE
  8
0
  6
BYLAYER
 62
     1
 10
1199.858539
 20
-62.540778
 30
0.0
 11
1188.116596
 21
-74.282721
 31
0.0
  0
LINE
  8
0
  6
BYLAYER
 62
     1
 10
1202.737201
 20
-66.662116
 30
0.0
 11
1196.085712
 21
-66.313605
 31
0.0
  0
ARC
  8
0
  6
BYLAYER
 62
     1
 10
1185.049701
 20
-65.488410
 30
0.0
 40
3.000041
 50
93.000074
 51
171.092141
  0
ARC
  8
0
  6
BYLAYER
 62
     1
 10
1182.573505
 20
-75.387580
 30
0.0
 40
2.999978
 50
92.726395
 51
160.820970
  0
LINE
  8
0
  6
BYLAYER
 62
     1
 10
1184.380634
 20
-91.026130
 30
0.0
 11
1176.434589
 21
-90.647712
 31
0.0
  0
CIRCLE
  8
0
  6
BYLAYER
 62
     2
 10
1175.737201
 20
-56.662116
 30
0.0
 40
6.5
  0
LINE
  8
0
  6
BYLAYER
 62
     1
 10
1174.179492
 20
-66.662055
 30
0.0
 11
1170.028888
 21
-66.661994
 31
0.0
  0
ARC
  8
0
  6
BYLAYER
 62
     1
 10
1176.577289
 20
-87.651130
 30
0.0
 40
3.000024
 50
147.067128
 51
267.273580
  0
ARC
  8
0
  6
BYLAYER
 62
     1
 10
1170.028857
 20
-68.661994
 30
0.0
 40
1.999990
 50
89.999559
 51
163.795900
  0
ARC
  8
0
  6
BYLAYER
 62
     1
 10
1174.179462
 20
-68.662085
 30
0.0
 40
2.000031
 50
345.208252
 51
449.998930
  0
LINE
  8
0
  6
BYLAYER
 62
     1
 10
1170.028827
 20
-46.662116
 30
0.0
 11
1174.179462
 21
-46.662147
 31
0.0
  0
LINE
  8
0
  6
BYLAYER
 62
     2
 10
1174.840626
 20
-53.316051
 30
0.0
 11
1172.391136
 21
-55.765541
 31
0.0
  0
LINE
  8
0
  6
BYLAYER
 62
     2
 10
1173.287711
 20
-59.111606
 30
0.0
 11
1176.633776
 21
-60.008181
 31
0.0
  0
CIRCLE
  8
0
  6
BYLAYER
 62
     2
 10
1175.737201
 20
-56.662116
 30
0.0
 40
3.464102
  0
ARC
  8
0
  6
BYLAYER
 62
     1
 10
1170.028827
 20
-44.662116
 30
0.0
 40
2.000000
 50
196.204957
 51
270.000055
  0
LINE
  8
0
  6
BYLAYER
 62
     2
 10
1172.391136
 20
-55.765541
 30
0.0
 11
1173.287711
 21
-59.111606
 31
0.0
  0
ARC
  8
0
  6
BYLAYER
 62
     1
 10
1174.179462
 20
-44.662116
 30
0.0
 40
1.999976
 50
270.0
 51
374.792533
  0
LINE
  8
0
  6
BYLAYER
 62
     2
 10
1178.186691
 20
-54.212626
 30
0.0
 11
1174.840626
 21
-53.316051
 31
0.0
  0
LINE
  8
0
  6
BYLAYER
 62
     2
 10
1176.633776
 20
-60.008181
 30
0.0
 11
1179.083266
 21
-57.558691
 31
0.0
  0
LINE
  8
0
  6
BYLAYER
 62
     2
 10
1179.083266
 20
-57.558691
 30
0.0
 11
1178.186691
 21
-54.212626
 31
0.0
  0
ARC
  8
0
  6
BYLAYER
 62
     1
 10
1189.254413
 20
-69.062690
 30
0.0
 40
3.000039
 50
272.726366
 51
326.146997
  0
ARC
  8
0
  6
BYLAYER
 62
     1
 10
1190.237933
 20
-76.403998
 30
0.0
 40
3.000000
 50
135.0
 51
180.000002
  0
LINE
  8
0
  6
BYLAYER
 62
     1
 10
1189.397113
 20
-72.059272
 30
0.0
 11
1182.430805
 21
-72.390998
 31
0.0
  0
LINE
  8
0
  6
BYLAYER
 62
     1
 10
1200.737201
 20
0.837945
 30
0.0
 11
1200.737201
 21
-60.419440
 31
0.0
  0
ARC
  8
0
  6
BYLAYER
 62
     1
 10
1197.737201
 20
-60.419440
 30
0.0
 40
3.000025
 50
314.999172
 51
360.000000
  0
CIRCLE
  8
0
  6
BYLAYER
 62
     3
 10
1128.737201
 20
-56.662116
 30
0.0
 40
14.0
  0
CIRCLE
  8
0
  6
BYLAYER
 62
     3
 10
1128.737201
 20
-56.662116
 30
0.0
 40
17.5
  0
ARC
  8
0
  6
BYLAYER
 62
     3
 10
1128.737201
 20
-56.662116
 30
0.0
 40
5.0
 50
270.0
 51
540.0
  0
CIRCLE
  8
0
  6
BYLAYER
 62
     3
 10
1128.737201
 20
-56.662116
 30
0.0
 40
4.5
  0
LINE
  8
0
  6
BYLAYER
 62
     3
 10
1124.737216
 20
-43.245708
 30
0.0
 11
1124.737220
 21
-39.662116
 31
0.0
  0
LINE
  8
0
  6
BYLAYER
 62
     3
 10
1132.737216
 20
-43.245717
 30
0.0
 11
1132.737220
 21
-39.662124
 31
0.0
  0
LINE
  8
0
  6
BYLAYER
 62
     3
 10
1132.737220
 20
-39.662124
 30
0.0
 11
1124.737220
 21
-39.662116
 31
0.0
  0
LINE
  8
0
  6
BYLAYER
 62
     1
 10
453.737201
 20
-712.662085
 30
0.0
 11
461.272098
 21
-712.925208
 31
0.0
  0
ARC
  8
0
  6
BYLAYER
 62
     1
 10
461.237201
 20
-713.924598
 30
0.0
 40
0.999999
 50
0.0
 51
87.999939
  0
LINE
  8
0
  6
BYLAYER
 62
     1
 10
453.737201
 20
-712.662116
 30
0.0
 11
453.737201
 21
-766.662116
 31
0.0
  0
ARC
  8
0
  6
BYLAYER
 62
     1
 10
461.237201
 20
-819.399604
 30
0.0
 40
0.999999
 50
272.000070
 51
359.999995
  0
LINE
  8
0
  6
BYLAYER
 62
     1
 10
453.737201
 20
-766.662116
 30
0.0
 11
453.737201
 21
-820.662116
 31
0.0
  0
LINE
  8
0
  6
BYLAYER
 62
     1
 10
453.737201
 20
-820.662116
 30
0.0
 11
461.272098
 21
-820.398993
 31
0.0
  0
LINE
  8
0
  6
BYLAYER
 62
     2
 10
462.237201
 20
-713.289893
 30
0.0
 11
468.737216
 21
-713.289893
 31
0.0
  0
LINE
  8
0
  6
BYLAYER
 62
     2
 10
462.237201
 20
-726.289893
 30
0.0
 11
468.737216
 21
-726.289893
 31
0.0
  0
LINE
  8
0
  6
BYLAYER
 62
     2
 10
469.737216
 20
-714.289893
 30
0.0
 11
469.737216
 21
-725.289893
 31
0.0
  0
ARC
  8
0
  6
BYLAYER
 62
     2
 10
468.737216
 20
-714.289893
 30
0.0
 40
1.000000
 50
0.0
 51
90.000003
  0
ARC
  8
0
  6
BYLAYER
 62
     2
 10
468.737216
 20
-725.289893
 30
0.0
 40
1.0
 50
270.0
 51
359.999996
  0
LINE
  8
0
  6
BYLAYER
 62
     3
 10
529.237201
 20
-780.662149
 30
0.0
 11
530.737203
 21
-779.162151
 31
0.0
  0
LINE
  8
0
  6
BYLAYER
 62
     3
 10
529.237232
 20
-752.662149
 30
0.0
 11
530.737230
 21
-754.162151
 31
0.0
  0
LINE
  8
0
  6
BYLAYER
 62
     3
 10
470.737201
 20
-780.662117
 30
0.0
 11
529.237201
 21
-780.662149
 31
0.0
  0
LINE
  8
0
  6
BYLAYER
 62
     3
 10
470.737232
 20
-752.662116
 30
0.0
 11
523.237232
 21
-752.662173
 31
0.0
  0
LINE
  8
0
  6
BYLAYER
 62
     3
 10
523.237232
 20
-752.662143
 30
0.0
 11
529.237232
 21
-752.662149
 31
0.0
  0
LINE
  8
0
  6
BYLAYER
 62
     3
 10
530.737230
 20
-754.162151
 30
0.0
 11
530.737216
 21
-766.662151
 31
0.0
  0
LINE
  8
0
  6
BYLAYER
 62
     3
 10
530.737216
 20
-766.662151
 30
0.0
 11
530.737203
 21
-779.162151
 31
0.0
  0
LINE
  8
0
  6
BYLAYER
 62
     1
 10
462.237201
 20
-819.399604
 30
0.0
 11
462.237201
 21
-713.924598
 31
0.0
  0
LINE
  8
0
  6
BYLAYER
 62
     2
 10
462.237201
 20
-736.662116
 30
0.0
 11
468.737216
 21
-736.662116
 31
0.0
  0
LINE
  8
0
  6
BYLAYER
 62
     2
 10
469.737216
 20
-737.662116
 30
0.0
 11
469.737216
 21
-748.662116
 31
0.0
  0
ARC
  8
0
  6
BYLAYER
 62
     2
 10
468.737216
 20
-737.662116
 30
0.0
 40
1.000000
 50
0.0
 51
90.000003
  0
LINE
  8
0
  6
BYLAYER
 62
     2
 10
462.237201
 20
-796.534369
 30
0.0
 11
468.737216
 21
-796.534369
 31
0.0
  0
LINE
  8
0
  6
BYLAYER
 62
     2
 10
469.737216
 20
-784.534369
 30
0.0
 11
469.737216
 21
-795.534369
 31
0.0
  0
ARC
  8
0
  6
BYLAYER
 62
     2
 10
468.737216
 20
-795.534369
 30
0.0
 40
1.000000
 50
270.0
 51
359.999996
  0
LINE
  8
0
  6
BYLAYER
 62
     2
 10
462.237201
 20
-807.034339
 30
0.0
 11
468.737216
 21
-807.034339
 31
0.0
  0
LINE
  8
0
  6
BYLAYER
 62
     2
 10
462.237201
 20
-820.034339
 30
0.0
 11
468.737216
 21
-820.034339
 31
0.0
  0
LINE
  8
0
  6
BYLAYER
 62
     2
 10
469.737216
 20
-808.034339
 30
0.0
 11
469.737216
 21
-819.034339
 31
0.0
  0
ARC
  8
0
  6
BYLAYER
 62
     2
 10
468.737216
 20
-808.034339
 30
0.0
 40
1.000000
 50
0.0
 51
90.000003
  0
ARC
  8
0
  6
BYLAYER
 62
     2
 10
468.737216
 20
-819.034339
 30
0.0
 40
1.000000
 50
270.0
 51
359.999996
  0
LINE
  8
0
  6
BYLAYER
 62
     3
 10
482.237232
 20
-762.662135
 30
0.0
 11
519.237232
 21
-762.662135
 31
0.0
  0
ARC
  8
0
  6
BYLAYER
 62
     3
 10
519.237232
 20
-766.662135
 30
0.0
 40
4.000000
 50
0.0
 51
90.0
  0
LINE
  8
0
  6
BYLAYER
 62
     3
 10
482.237232
 20
-770.662135
 30
0.0
 11
519.237232
 21
-770.662135
 31
0.0
  0
ARC
  8
0
  6
BYLAYER
 62
     3
 10
519.237232
 20
-766.662135
 30
0.0
 40
4.000000
 50
270.0
 51
360.0
  0
LINE
  8
0
  6
BYLAYER
 62
     3
 10
470.737216
 20
-766.662116
 30
0.0
 11
470.737234
 21
-750.662246
 31
0.0
  0
ARC
  8
0
  6
BYLAYER
 62
     3
 10
482.237232
 20
-766.662135
 30
0.0
 40
4.000000
 50
90.0
 51
180.0
  0
LINE
  8
0
  6
BYLAYER
 62
     3
 10
470.737199
 20
-782.662162
 30
0.0
 11
470.737216
 21
-766.662116
 31
0.0
  0
LINE
  8
0
  6
BYLAYER
 62
     2
 10
462.237201
 20
-783.534369
 30
0.0
 11
468.737216
 21
-783.534369
 31
0.0
  0
ARC
  8
0
  6
BYLAYER
 62
     2
 10
468.737216
 20
-784.534369
 30
0.0
 40
1.0
 50
0.0
 51
90.000003
  0
ARC
  8
0
  6
BYLAYER
 62
     3
 10
469.237199
 20
-782.662160
 30
0.0
 40
1.5
 50
285.623450
 51
359.999938
  0
ARC
  8
0
  6
BYLAYER
 62
     3
 10
482.237232
 20
-766.662135
 30
0.0
 40
4.000000
 50
180.000000
 51
270.000000
  0
LINE
  8
0
  6
BYLAYER
 62
     2
 10
462.237201
 20
-749.662116
 30
0.0
 11
468.737216
 21
-749.662116
 31
0.0
  0
ARC
  8
0
  6
BYLAYER
 62
     3
 10
469.237234
 20
-750.662244
 30
0.0
 40
1.5
 50
0.0
 51
76.824777
  0
ARC
  8
0
  6
BYLAYER
 62
     2
 10
468.737216
 20
-748.662116
 30
0.0
 40
1.0
 50
270.0
 51
359.999996
  0
ENDSEC
  0
EOF
